  0
SECTION
  2
HEADER
  9
$ACADVER
  1
AC1014
  9
$ACADMAINTVER
 70
     9
  9
$DWGCODEPAGE
  3
ANSI_932
  9
$INSBASE
 10
0.0
 20
0.0
 30
0.0
  9
$EXTMIN
 10
83.31653801361472
 20
90.2584628305849
 30
0.0
  9
$EXTMAX
 10
1512.773248252537
 20
684.2298369518479
 30
0.0
  9
$LIMMIN
 10
0.0
 20
0.0
  9
$LIMMAX
 10
297.0
 20
210.0
  9
$ORTHOMODE
 70
     1
  9
$REGENMODE
 70
     1
  9
$FILLMODE
 70
     1
  9
$QTEXTMODE
 70
     0
  9
$MIRRTEXT
 70
     0
  9
$DRAGMODE
 70
     2
  9
$LTSCALE
 40
4.0
  9
$OSMODE
 70
    37
  9
$ATTMODE
 70
     1
  9
$TEXTSIZE
 40
2.0
  9
$TRACEWID
 40
1.0
  9
$TEXTSTYLE
  7
STANDARD
  9
$CLAYER
  8
0
  9
$CELTYPE
  6
BYLAYER
  9
$CECOLOR
 62
   256
  9
$CELTSCALE
 40
1.0
  9
$DELOBJ
 70
     1
  9
$DISPSILH
 70
     0
  9
$DIMSCALE
 40
4.0
  9
$DIMASZ
 40
1.8
  9
$DIMEXO
 40
0.625
  9
$DIMDLI
 40
3.75
  9
$DIMRND
 40
0.0
  9
$DIMDLE
 40
0.0
  9
$DIMEXE
 40
0.8
  9
$DIMTP
 40
0.0
  9
$DIMTM
 40
0.0
  9
$DIMTXT
 40
1.8
  9
$DIMCEN
 40
2.5
  9
$DIMTSZ
 40
0.0
  9
$DIMTOL
 70
     0
  9
$DIMLIM
 70
     0
  9
$DIMTIH
 70
     0
  9
$DIMTOH
 70
     0
  9
$DIMSE1
 70
     0
  9
$DIMSE2
 70
     0
  9
$DIMTAD
 70
     1
  9
$DIMZIN
 70
     8
  9
$DIMBLK
  1

  9
$DIMASO
 70
     1
  9
$DIMSHO
 70
     1
  9
$DIMPOST
  1

  9
$DIMAPOST
  1

  9
$DIMALT
 70
     0
  9
$DIMALTD
 70
     4
  9
$DIMALTF
 40
0.0394
  9
$DIMLFAC
 40
1.0
  9
$DIMTOFL
 70
     1
  9
$DIMTVP
 40
0.0
  9
$DIMTIX
 70
     0
  9
$DIMSOXD
 70
     0
  9
$DIMSAH
 70
     0
  9
$DIMBLK1
  1

  9
$DIMBLK2
  1

  9
$DIMSTYLE
  2
STANDARD
  9
$DIMCLRD
 70
     0
  9
$DIMCLRE
 70
     0
  9
$DIMCLRT
 70
     0
  9
$DIMTFAC
 40
1.0
  9
$DIMGAP
 40
0.75
  9
$DIMJUST
 70
     0
  9
$DIMSD1
 70
     0
  9
$DIMSD2
 70
     0
  9
$DIMTOLJ
 70
     1
  9
$DIMTZIN
 70
     0
  9
$DIMALTZ
 70
     0
  9
$DIMALTTZ
 70
     0
  9
$DIMFIT
 70
     3
  9
$DIMUPT
 70
     0
  9
$DIMUNIT
 70
     8
  9
$DIMDEC
 70
     2
  9
$DIMTDEC
 70
     2
  9
$DIMALTU
 70
     8
  9
$DIMALTTD
 70
     4
  9
$DIMTXSTY
  7
STANDARD
  9
$DIMAUNIT
 70
     0
  9
$LUNITS
 70
     2
  9
$LUPREC
 70
     3
  9
$SKETCHINC
 40
1.0
  9
$FILLETRAD
 40
0.0
  9
$AUNITS
 70
     0
  9
$AUPREC
 70
     2
  9
$MENU
  1
.
  9
$ELEVATION
 40
0.0
  9
$PELEVATION
 40
0.0
  9
$THICKNESS
 40
0.0
  9
$LIMCHECK
 70
     0
  9
$BLIPMODE
 70
     0
  9
$CHAMFERA
 40
0.0
  9
$CHAMFERB
 40
0.0
  9
$CHAMFERC
 40
20.0
  9
$CHAMFERD
 40
0.0
  9
$SKPOLY
 70
     0
  9
$TDCREATE
 40
2454413.454466678
  9
$TDUPDATE
 40
2454424.584637940
  9
$TDINDWG
 40
0.0689675579
  9
$TDUSRTIMER
 40
0.0689675579
  9
$USRTIMER
 70
     1
  9
$ANGBASE
 50
0.0
  9
$ANGDIR
 70
     0
  9
$PDMODE
 70
     0
  9
$PDSIZE
 40
-10.0
  9
$PLINEWID
 40
0.0
  9
$COORDS
 70
     0
  9
$SPLFRAME
 70
     0
  9
$SPLINETYPE
 70
     6
  9
$SPLINESEGS
 70
     8
  9
$ATTDIA
 70
     0
  9
$ATTREQ
 70
     1
  9
$HANDLING
 70
-16383
  9
$HANDSEED
  5
324A
  9
$SURFTAB1
 70
     6
  9
$SURFTAB2
 70
     6
  9
$SURFTYPE
 70
     6
  9
$SURFU
 70
     6
  9
$SURFV
 70
     6
  9
$UCSNAME
  2

  9
$UCSORG
 10
0.0
 20
0.0
 30
0.0
  9
$UCSXDIR
 10
1.0
 20
0.0
 30
0.0
  9
$UCSYDIR
 10
0.0
 20
1.0
 30
0.0
  9
$PUCSNAME
  2

  9
$PUCSORG
 10
0.0
 20
0.0
 30
0.0
  9
$PUCSXDIR
 10
1.0
 20
0.0
 30
0.0
  9
$PUCSYDIR
 10
0.0
 20
1.0
 30
0.0
  9
$USERI1
 70
     0
  9
$USERI2
 70
     0
  9
$USERI3
 70
     0
  9
$USERI4
 70
     0
  9
$USERI5
 70
     0
  9
$USERR1
 40
0.0
  9
$USERR2
 40
0.0
  9
$USERR3
 40
0.0
  9
$USERR4
 40
0.0
  9
$USERR5
 40
0.0
  9
$WORLDVIEW
 70
     1
  9
$SHADEDGE
 70
     3
  9
$SHADEDIF
 70
    70
  9
$TILEMODE
 70
     1
  9
$MAXACTVP
 70
    48
  9
$PINSBASE
 10
0.0
 20
0.0
 30
0.0
  9
$PLIMCHECK
 70
     0
  9
$PEXTMIN
 10
0.0
 20
0.0
 30
0.0
  9
$PEXTMAX
 10
0.0
 20
0.0
 30
0.0
  9
$PLIMMIN
 10
0.0
 20
0.0
  9
$PLIMMAX
 10
12.0
 20
9.0
  9
$UNITMODE
 70
     0
  9
$VISRETAIN
 70
     1
  9
$PLINEGEN
 70
     0
  9
$PSLTSCALE
 70
     1
  9
$TREEDEPTH
 70
  3020
  9
$PICKSTYLE
 70
     1
  9
$CMLSTYLE
  2
STANDARD
  9
$CMLJUST
 70
     0
  9
$CMLSCALE
 40
1.0
  9
$PROXYGRAPHICS
 70
     1
  9
$MEASUREMENT
 70
     0
  0
ENDSEC
  0
SECTION
  2
CLASSES
  0
CLASS
  1
DICTIONARYVAR
  2
AcDbDictionaryVar
  3
AutoCAD 2000
 90
        0
280
     0
281
     0
  0
CLASS
  1
ACDBDICTIONARYWDFLT
  2
AcDbDictionaryWithDefault
  3
AutoCAD 2000
 90
        0
280
     0
281
     0
  0
CLASS
  1
ACDBPLACEHOLDER
  2
AcDbPlaceHolder
  3
AutoCAD 2000
 90
        0
280
     0
281
     0
  0
CLASS
  1
LAYOUT
  2
AcDbLayout
  3
AutoCAD 2000
 90
        0
280
     0
281
     0
  0
CLASS
  1
MATERIAL
  2
AcDbMaterial
  3
ObjectDBX Classes
 90
     1153
280
     0
281
     0
  0
CLASS
  1
VISUALSTYLE
  2
AcDbVisualStyle
  3
ObjectDBX Classes
 90
     4095
280
     0
281
     0
  0
CLASS
  1
TABLESTYLE
  2
AcDbTableStyle
  3
ObjectDBX Classes
 90
     4095
280
     0
281
     0
  0
CLASS
  1
SCALE
  2
AcDbScale
  3
ObjectDBX Classes
 90
     1153
280
     0
281
     0
  0
CLASS
  1
MLEADERSTYLE
  2
AcDbMLeaderStyle
  3
ACDB_MLEADERSTYLE_CLASS
 90
     4095
280
     0
281
     0
  0
CLASS
  1
SORTENTSTABLE
  2
AcDbSortentsTable
  3
AutoCAD 2000
 90
        0
280
     0
281
     0
  0
CLASS
  1
CELLSTYLEMAP
  2
AcDbCellStyleMap
  3
ObjectDBX Classes
 90
     1152
280
     0
281
     0
  0
CLASS
  1
ACAD_PROXY_OBJECT_WRAPPER
  2
AcDbProxyObjectWrapper
  3
AutoCAD 2000
 90
        0
280
     0
281
     0
  0
CLASS
  1
LONG_TRANSACTION
  2
AcDbLongTransaction
  3
AutoCAD 2000
 90
        0
280
     0
281
     0
  0
CLASS
  1
LWPOLYLINE
  2
AcDbPolyline
  3
AutoCAD 2000
 90
        0
280
     0
281
     1
  0
CLASS
  1
HATCH
  2
AcDbHatch
  3
AutoCAD 2000
 90
        0
280
     0
281
     1
  0
CLASS
  1
XRECORD
  2
AcDbXrecord
  3
AutoCAD 2000
 90
        0
280
     0
281
     0
  0
ENDSEC
  0
SECTION
  2
TABLES
  0
TABLE
  2
VPORT
  5
6E
102
{ACAD_XDICTIONARY
360
1A4A
102
}
330
0
100
AcDbSymbolTable
 70
     2
  0
VPORT
  5
3224
330
6E
100
AcDbSymbolTableRecord
100
AcDbViewportTableRecord
  2
*ACTIVE
 70
     0
 10
0.0
 20
0.0
 11
1.0
 21
1.0
 12
883.5752918903983
 22
375.1909900500943
 13
0.0
 23
0.0
 14
10.0
 24
10.0
 15
10.0
 25
10.0
 16
0.0
 26
0.0
 36
1.0
 17
0.0
 27
0.0
 37
0.0
 40
916.8434967690597
 41
1.753504672897196
 42
50.0
 43
0.0
 44
0.0
 50
0.0
 51
0.0
 71
     0
 72
   100
 73
     1
 74
     3
 75
     0
 76
     0
 77
     0
 78
     0
  0
ENDTAB
  0
TABLE
  2
LTYPE
  5
69
330
0
100
AcDbSymbolTable
 70
     5
  0
LTYPE
  5
6A
330
69
100
AcDbSymbolTableRecord
100
AcDbLinetypeTableRecord
  2
BYBLOCK
 70
     0
  3

 72
    65
 73
     0
 40
0.0
  0
LTYPE
  5
6B
330
69
100
AcDbSymbolTableRecord
100
AcDbLinetypeTableRecord
  2
BYLAYER
 70
     0
  3

 72
    65
 73
     0
 40
0.0
  0
LTYPE
  5
8
330
69
100
AcDbSymbolTableRecord
100
AcDbLinetypeTableRecord
  2
CONTINUOUS
 70
     0
  3
Solid line
 72
    65
 73
     0
 40
0.0
  0
LTYPE
  5
27C
330
69
100
AcDbSymbolTableRecord
100
AcDbLinetypeTableRecord
  2
SEKKEI_A2_
 70
     0
  3
center(A2)  ____ _ ____ _ ____ _ ____ _ ____ _ 
 72
    65
 73
     4
 40
14.28749999999999
 49
9.525
 74
     0
 49
-1.587499999999999
 74
     0
 49
1.587499999999999
 74
     0
 49
-1.587499999999999
 74
     0
  0
LTYPE
  5
7F0
330
69
100
AcDbSymbolTableRecord
100
AcDbLinetypeTableRecord
  2
HIDDEN3
 70
     0
  3
Hidden (.3x) _ _ _ _ _ _ _ _ _ _ _ _ _ _ _ _ _
 72
    65
 73
     2
 40
2.857499999999999
 49
1.905
 74
     0
 49
-0.9525
 74
     0
  0
LTYPE
  5
B18
330
69
100
AcDbSymbolTableRecord
100
AcDbLinetypeTableRecord
  2
CENS
 70
     0
  3
(一点鎖線１)---- - ---- - ---- - ---- - ---- - 
 72
    65
 73
     4
 40
7.0
 49
4.0
 74
     0
 49
-1.0
 74
     0
 49
1.0
 74
     0
 49
-1.0
 74
     0
  0
ENDTAB
  0
TABLE
  2
LAYER
  5
66
102
{ACAD_XDICTIONARY
360
B19
102
}
330
0
100
AcDbSymbolTable
 70
     9
  0
LAYER
  5
5E
102
{ACAD_XDICTIONARY
360
1A2D
102
}
330
66
100
AcDbSymbolTableRecord
100
AcDbLayerTableRecord
  2
0
 70
     0
 62
     7
  6
CONTINUOUS
  0
LAYER
  5
3E
102
{ACAD_XDICTIONARY
360
1A2F
102
}
330
66
100
AcDbSymbolTableRecord
100
AcDbLayerTableRecord
  2
CENTER
 70
     0
 62
     3
  6
SEKKEI_A2_
  0
LAYER
  5
2B5
102
{ACAD_XDICTIONARY
360
1A35
102
}
330
66
100
AcDbSymbolTableRecord
100
AcDbLayerTableRecord
  2
HIDS
 70
     0
 62
     1
  6
HIDDEN3
  0
LAYER
  5
2BA
102
{ACAD_XDICTIONARY
360
1A37
102
}
330
66
100
AcDbSymbolTableRecord
100
AcDbLayerTableRecord
  2
HOJO
 70
     0
 62
     4
  6
CONTINUOUS
  0
LAYER
  5
3FA
102
{ACAD_XDICTIONARY
360
1A3B
102
}
330
66
100
AcDbSymbolTableRecord
100
AcDbLayerTableRecord
  2
TITLE
 70
     0
 62
     4
  6
CONTINUOUS
  0
ENDTAB
  0
TABLE
  2
STYLE
  5
67
330
0
100
AcDbSymbolTable
 70
     1
  0
STYLE
  5
16
330
67
100
AcDbSymbolTableRecord
100
AcDbTextStyleTableRecord
  2
STANDARD
 70
     0
 40
0.0
 41
1.0
 50
0.0
 71
     0
 42
2.0
  3
simplex.shx
  4
extfont.shx
  0
ENDTAB
  0
TABLE
  2
VIEW
  5
6C
330
0
100
AcDbSymbolTable
 70
     0
  0
ENDTAB
  0
TABLE
  2
UCS
  5
6D
330
0
100
AcDbSymbolTable
 70
     0
  0
ENDTAB
  0
TABLE
  2
APPID
  5
70
330
0
100
AcDbSymbolTable
 70
     2
  0
APPID
  5
71
330
70
100
AcDbSymbolTableRecord
100
AcDbRegAppTableRecord
  2
ACAD
 70
     0
  0
APPID
  5
18E2
330
70
100
AcDbSymbolTableRecord
100
AcDbRegAppTableRecord
  2
ACAD_MLEADERVER
 70
     0
  0
ENDTAB
  0
TABLE
  2
DIMSTYLE
  5
72
330
0
100
AcDbSymbolTable
 70
     1
  0
DIMSTYLE
105
73
330
72
100
AcDbSymbolTableRecord
100
AcDbDimStyleTableRecord
  2
STANDARD
 70
     0
  3

  4

  5

  6

  7

 40
4.0
 41
1.8
 42
0.625
 43
3.75
 44
0.8
 45
0.0
 46
0.0
 47
0.0
 48
0.0
140
1.8
141
2.5
142
0.0
143
0.0394
144
1.0
145
0.0
146
1.0
147
0.75
 71
     0
 72
     0
 73
     0
 74
     0
 75
     0
 76
     0
 77
     1
 78
     8
170
     0
171
     4
172
     1
173
     0
174
     0
175
     0
176
     0
177
     0
178
     0
270
     8
271
     2
272
     2
273
     8
274
     4
340
16
275
     0
280
     0
281
     0
282
     0
283
     1
284
     0
285
     0
286
     0
287
     3
288
     0
  0
ENDTAB
  0
TABLE
  2
BLOCK_RECORD
  5
1
330
0
100
AcDbSymbolTable
 70
    46
  0
BLOCK_RECORD
  5
2
102
{ACAD_XDICTIONARY
360
3246
102
}
330
1
100
AcDbSymbolTableRecord
100
AcDbBlockTableRecord
  2
*MODEL_SPACE
  0
BLOCK_RECORD
  5
321F
102
{ACAD_XDICTIONARY
360
3248
102
}
330
1
100
AcDbSymbolTableRecord
100
AcDbBlockTableRecord
  2
*PAPER_SPACE
  0
ENDTAB
  0
ENDSEC
  0
SECTION
  2
BLOCKS
  0
BLOCK
  5
5D
330
2
100
AcDbEntity
  8
0
100
AcDbBlockBegin
  2
*MODEL_SPACE
 70
     0
 10
0.0
 20
0.0
 30
0.0
  3
*MODEL_SPACE
  1

  0
ENDBLK
  5
5F
330
2
100
AcDbEntity
  8
0
100
AcDbBlockEnd
  0
BLOCK
  5
3221
330
321F
100
AcDbEntity
 67
     1
  8
0
100
AcDbBlockBegin
  2
*PAPER_SPACE
 70
     0
 10
0.0
 20
0.0
 30
0.0
  3
*PAPER_SPACE
  1

  0
ENDBLK
  5
3222
330
321F
100
AcDbEntity
 67
     1
  8
0
100
AcDbBlockEnd
  0
ENDSEC
  0
SECTION
  2
ENTITIES
  0
LINE
  5
FC2
330
2
100
AcDbEntity
  8
CENTER
100
AcDbLine
 10
821.728515390555
 20
185.2584628305848
 30
0.0
 11
1150.698537390553
 21
185.2584628305848
 31
0.0
  0
LINE
  5
FC6
330
2
100
AcDbEntity
  8
0
100
AcDbLine
 10
1080.698537390554
 20
133.7584628305848
 30
0.0
 11
1080.698537390552
 21
236.7584628305849
 31
0.0
  0
LINE
  5
FE9
330
2
100
AcDbEntity
  8
CENTER
100
AcDbLine
 10
1430.773248252537
 20
267.4442955899444
 30
0.0
 11
1430.773248252537
 21
103.0726300708788
 31
0.0
  0
LINE
  5
FEA
330
2
100
AcDbEntity
  8
0
100
AcDbLine
 10
1358.773251581347
 20
226.8270852808837
 30
0.0
 11
1358.773251581347
 21
143.6898403801114
 31
0.0
  0
LINE
  5
FEB
330
2
100
AcDbEntity
  8
0
100
AcDbLine
 10
1372.773251581347
 20
245.2584628304121
 30
0.0
 11
1372.773251581347
 21
125.258462830412
 31
0.0
  0
LINE
  5
FEC
330
2
100
AcDbEntity
  8
CENTER
100
AcDbLine
 10
1512.773248252537
 20
185.2584628304975
 30
0.0
 11
1286.773251581174
 21
185.2584628304975
 31
0.0
  0
LINE
  5
FED
330
2
100
AcDbEntity
  8
0
100
AcDbLine
 10
1466.773248252537
 20
252.7584628304121
 30
0.0
 11
1377.773251581347
 21
251.9817716260841
 31
0.0
  0
LINE
  5
FEE
330
2
100
AcDbEntity
  8
0
100
AcDbLine
 10
1377.773251581347
 20
245.2584628304121
 30
0.0
 11
1372.773251581347
 21
245.2584628304121
 31
0.0
  0
LINE
  5
FEF
330
2
100
AcDbEntity
  8
0
100
AcDbLine
 10
1377.773251581347
 20
118.5351540347382
 30
0.0
 11
1466.773248252537
 21
117.758462830412
 31
0.0
  0
LINE
  5
FF0
330
2
100
AcDbEntity
  8
0
100
AcDbLine
 10
1377.773251581347
 20
125.258462830412
 30
0.0
 11
1372.773251581347
 21
125.258462830412
 31
0.0
  0
LINE
  5
FF1
330
2
100
AcDbEntity
  8
0
100
AcDbLine
 10
1379.773251581431
 20
137.004686154205
 30
0.0
 11
1379.773251581347
 21
233.5122395066118
 31
0.0
  0
LINE
  5
FF9
330
2
100
AcDbEntity
  8
0
100
AcDbLine
 10
1466.773248252537
 20
252.7584628304121
 30
0.0
 11
1466.773248252537
 21
236.4055182690117
 31
0.0
  0
LINE
  5
FFA
330
2
100
AcDbEntity
  8
0
100
AcDbLine
 10
1466.773248252537
 20
134.1114073919833
 30
0.0
 11
1466.773248252537
 21
117.758462830412
 31
0.0
  0
LINE
  5
FFB
330
2
100
AcDbEntity
  8
CENTER
100
AcDbLine
 10
834.2285153905532
 20
602.2298369518335
 30
0.0
 11
1150.698537390553
 21
602.2298369518335
 31
0.0
  0
LINE
  5
FFC
330
2
100
AcDbEntity
  8
0
100
AcDbLine
 10
1080.698537390552
 20
653.2298369518334
 30
0.0
 11
1080.698537390552
 21
551.2298369518334
 31
0.0
  0
LINE
  5
1007
330
2
100
AcDbEntity
  8
0
100
AcDbLine
 10
1080.698537390552
 20
551.2298369518334
 30
0.0
 11
1080.698537390552
 21
602.2298369518335
 31
0.0
  0
LINE
  5
100B
330
2
100
AcDbEntity
  8
0
100
AcDbLine
 10
1377.773251581347
 20
118.5351540347382
 30
0.0
 11
1377.773251581347
 21
251.9817716260841
 31
0.0
  0
LINE
  5
1034
330
2
100
AcDbEntity
  8
0
100
AcDbLine
 10
1430.773248252537
 20
236.7584579917383
 30
0.0
 11
1473.851676814967
 21
236.3361221963969
 31
0.0
  0
ARC
  5
1035
330
2
100
AcDbEntity
  8
0
100
AcDbCircle
 10
1473.773249534444
 20
228.3365066330298
 30
0.0
 40
8.0
100
AcDbArc
 50
0.0324355144522694
 51
89.438296980908
  0
LINE
  5
1036
330
2
100
AcDbEntity
  8
0
100
AcDbLine
 10
1430.773248252537
 20
236.7584579917383
 30
0.0
 11
1387.694819690106
 21
236.3361221963969
 31
0.0
  0
ARC
  5
1037
330
2
100
AcDbEntity
  8
0
100
AcDbCircle
 10
1387.773246970631
 20
228.3365066330298
 30
0.0
 40
8.0
100
AcDbArc
 50
90.56170301909203
 51
180.0
  0
LINE
  5
1038
330
2
100
AcDbEntity
  8
0
100
AcDbLine
 10
1430.773248252537
 20
133.7584676692567
 30
0.0
 11
1387.694819690106
 21
134.1808034645982
 31
0.0
  0
LINE
  5
1039
330
2
100
AcDbEntity
  8
0
100
AcDbLine
 10
1430.773248252537
 20
133.7584676692567
 30
0.0
 11
1473.851676814967
 21
134.1808034645982
 31
0.0
  0
ARC
  5
103A
330
2
100
AcDbEntity
  8
0
100
AcDbCircle
 10
1387.773246970631
 20
142.1804190279671
 30
0.0
 40
8.0
100
AcDbArc
 50
180.0
 51
269.4382969809079
  0
ARC
  5
103B
330
2
100
AcDbEntity
  8
0
100
AcDbCircle
 10
1473.773249534444
 20
142.1804190279671
 30
0.0
 40
8.0
100
AcDbArc
 50
270.5617030190919
 51
359.9675644788776
  0
LINE
  5
103C
330
2
100
AcDbEntity
  8
0
100
AcDbLine
 10
1384.281376937124
 20
235.5342037417649
 30
0.0
 11
1381.75579851035
 21
235.5121633527396
 31
0.0
  0
LINE
  5
103D
330
2
100
AcDbEntity
  8
0
100
AcDbLine
 10
1360.703452587942
 20
228.8258669349215
 30
0.0
 11
1370.843050574753
 21
229.1799494989591
 31
0.0
  0
LINE
  5
103E
330
2
100
AcDbEntity
  8
0
100
AcDbLine
 10
1360.703452587942
 20
141.6910587260735
 30
0.0
 11
1370.843050574753
 21
141.3369761620378
 31
0.0
  0
ARC
  5
103F
330
2
100
AcDbEntity
  8
0
100
AcDbCircle
 10
1370.773251581347
 20
139.3381945079999
 30
0.0
 40
2.0
100
AcDbArc
 50
0.0
 51
87.99999999999636
  0
ARC
  5
1040
330
2
100
AcDbEntity
  8
0
100
AcDbCircle
 10
1370.773251581347
 20
231.178731152997
 30
0.0
 40
2.0
100
AcDbArc
 50
272.0000000000036
 51
0.0
  0
ARC
  5
1041
330
2
100
AcDbEntity
  8
0
100
AcDbCircle
 10
1360.773251581347
 20
226.8270852808837
 30
0.0
 40
2.0
100
AcDbArc
 50
92.00000000000365
 51
180.0
  0
ARC
  5
1042
330
2
100
AcDbEntity
  8
0
100
AcDbCircle
 10
1360.773251581347
 20
143.6898403801114
 30
0.0
 40
2.0
100
AcDbArc
 50
180.0
 51
267.9999999999963
  0
ARC
  5
106B
330
2
100
AcDbEntity
  8
0
100
AcDbCircle
 10
1381.773251581347
 20
233.5122395066118
 30
0.0
 40
2.0
100
AcDbArc
 50
90.49999999996549
 51
180.0
  0
ARC
  5
106C
330
2
100
AcDbEntity
  8
0
100
AcDbCircle
 10
1381.773251581431
 20
137.0046861542086
 30
0.0
 40
2.0
100
AcDbArc
 50
180.0000000001042
 51
269.5000000000866
  0
LINE
  5
106D
330
2
100
AcDbEntity
  8
0
100
AcDbLine
 10
1384.28137171114
 20
134.9827219646667
 30
0.0
 11
1381.755798510437
 21
135.0047623080808
 31
0.0
  0
LINE
  5
1074
330
2
100
AcDbEntity
  8
0
100
AcDbLine
 10
153.3165380136138
 20
236.7584628305849
 30
0.0
 11
153.3165380136156
 21
133.7584628305848
 31
0.0
  0
LINE
  5
1097
330
2
100
AcDbEntity
  8
CENTER
100
AcDbLine
 10
399.7865600136133
 20
185.2584628305848
 30
0.0
 11
83.31653801361472
 21
185.2584628305846
 31
0.0
  0
ARC
  5
118E
330
2
100
AcDbEntity
  8
0
100
AcDbCircle
 10
1485.273248252537
 20
250.5969396195978
 30
0.0
 40
2.0
100
AcDbArc
 50
0.0
 51
89.49999999998238
  0
LINE
  5
118F
330
2
100
AcDbEntity
  8
0
100
AcDbLine
 10
1487.859034690163
 20
239.6726763928709
 30
0.0
 11
1488.68746181491
 21
238.844249268126
 31
0.0
  0
LINE
  5
1190
330
2
100
AcDbEntity
  8
0
100
AcDbLine
 10
1497.773248252537
 20
227.1811125613075
 30
0.0
 11
1497.773248252537
 21
143.3358130996857
 31
0.0
  0
LINE
  5
1191
330
2
100
AcDbEntity
  8
0
100
AcDbLine
 10
1489.273248252537
 20
230.2584628304976
 30
0.0
 11
1489.773248252537
 21
229.7584628304976
 31
0.0
  0
LINE
  5
1192
330
2
100
AcDbEntity
  8
0
100
AcDbLine
 10
1493.273248252537
 20
227.5584628304986
 30
0.0
 11
1493.073248252538
 21
227.7584628304976
 31
0.0
  0
LINE
  5
1193
330
2
100
AcDbEntity
  8
0
100
AcDbLine
 10
1495.073248252538
 20
227.0584628304987
 30
0.0
 11
1493.473248252537
 21
227.0584628304987
 31
0.0
  0
LINE
  5
1194
330
2
100
AcDbEntity
  8
0
100
AcDbLine
 10
1496.773248252537
 20
227.7584628304976
 30
0.0
 11
1497.773248252537
 21
227.1811125613094
 31
0.0
  0
LINE
  5
1195
330
2
100
AcDbEntity
  8
0
100
AcDbLine
 10
1496.773248252537
 20
227.7584628304976
 30
0.0
 11
1495.473248252537
 21
227.7584628304976
 31
0.0
  0
LINE
  5
1196
330
2
100
AcDbEntity
  8
0
100
AcDbLine
 10
1493.073248252538
 20
227.7584628304976
 30
0.0
 11
1489.773248252537
 21
227.7584628304976
 31
0.0
  0
LINE
  5
1197
330
2
100
AcDbEntity
  8
0
100
AcDbLine
 10
1489.273248252542
 20
133.0868899552442
 30
0.0
 11
1489.273248252529
 21
237.4300357057527
 31
0.0
  0
LINE
  5
1198
330
2
100
AcDbEntity
  8
0
100
AcDbLine
 10
1489.27324825254
 20
140.2584628304975
 30
0.0
 11
1489.77324825254
 21
140.7584628304975
 31
0.0
  0
LINE
  5
1199
330
2
100
AcDbEntity
  8
0
100
AcDbLine
 10
1493.27324825254
 20
142.9584628304982
 30
0.0
 11
1493.27324825254
 21
227.558462830495
 31
0.0
  0
LINE
  5
119A
330
2
100
AcDbEntity
  8
0
100
AcDbLine
 10
1493.27324825254
 20
142.9584628304982
 30
0.0
 11
1493.073248252541
 21
142.7584628304975
 31
0.0
  0
LINE
  5
119B
330
2
100
AcDbEntity
  8
0
100
AcDbLine
 10
1495.27324825254
 20
142.9584628304982
 30
0.0
 11
1495.273248252606
 21
227.5584628304986
 31
0.0
  0
LINE
  5
119C
330
2
100
AcDbEntity
  8
0
100
AcDbLine
 10
1496.77324825254
 20
142.7584628304975
 30
0.0
 11
1495.473248252541
 21
142.7584628304975
 31
0.0
  0
LINE
  5
119D
330
2
100
AcDbEntity
  8
0
100
AcDbLine
 10
1495.073248252541
 20
143.4584628304982
 30
0.0
 11
1493.473248252541
 21
143.4584628304982
 31
0.0
  0
LINE
  5
119E
330
2
100
AcDbEntity
  8
0
100
AcDbLine
 10
1496.77324825254
 20
142.7584628304975
 30
0.0
 11
1497.77324825254
 21
143.3358130996875
 31
0.0
  0
LINE
  5
119F
330
2
100
AcDbEntity
  8
0
100
AcDbLine
 10
1489.77324825254
 20
140.7584628304975
 30
0.0
 11
1489.77324825254
 21
229.7584628304939
 31
0.0
  0
LINE
  5
11A0
330
2
100
AcDbEntity
  8
0
100
AcDbLine
 10
1493.073248252541
 20
142.7584628304975
 30
0.0
 11
1489.77324825254
 21
142.7584628304975
 31
0.0
  0
LINE
  5
11A1
330
2
100
AcDbEntity
  8
0
100
AcDbLine
 10
1487.273248252542
 20
119.9199860413991
 30
0.0
 11
1487.273248252542
 21
250.5969396195978
 31
0.0
  0
LINE
  5
11A2
330
2
100
AcDbEntity
  8
0
100
AcDbLine
 10
1487.859034690169
 20
130.8442492681242
 30
0.0
 11
1488.687461814915
 21
131.6726763928708
 31
0.0
  0
LINE
  5
11A3
330
2
100
AcDbEntity
  8
0
100
AcDbLine
 10
1485.290701323534
 20
252.5968634657256
 30
0.0
 11
1466.773248252537
 21
252.7584628304976
 31
0.0
  0
ARC
  5
11A4
330
2
100
AcDbEntity
  8
0
100
AcDbCircle
 10
1487.273248252542
 20
133.0868899552442
 30
0.0
 40
2.0
100
AcDbArc
 50
314.9999999999905
 51
0.0
  0
ARC
  5
11A5
330
2
100
AcDbEntity
  8
0
100
AcDbCircle
 10
1489.273248252542
 20
129.4300357057508
 30
0.0
 40
2.0
100
AcDbArc
 50
134.9999999999905
 51
180.0
  0
ARC
  5
11A6
330
2
100
AcDbEntity
  8
0
100
AcDbCircle
 10
1487.273248252537
 20
237.4300357057527
 30
0.0
 40
2.0
100
AcDbArc
 50
0.0
 51
45.00000000000949
  0
ARC
  5
11A7
330
2
100
AcDbEntity
  8
0
100
AcDbCircle
 10
1489.273248252537
 20
241.0868899552442
 30
0.0
 40
2.0
100
AcDbArc
 50
180.0
 51
225.0000000000094
  0
ARC
  5
11A8
330
2
100
AcDbEntity
  8
0
100
AcDbCircle
 10
1495.473248252537
 20
227.5584628304986
 30
0.0
 40
0.2
100
AcDbArc
 50
90.0
 51
180.0
  0
ARC
  5
11A9
330
2
100
AcDbEntity
  8
0
100
AcDbCircle
 10
1495.073248252538
 20
227.2584628304975
 30
0.0
 40
0.2
100
AcDbArc
 50
270.0
 51
0.0
  0
ARC
  5
11AA
330
2
100
AcDbEntity
  8
0
100
AcDbCircle
 10
1493.473248252537
 20
227.2584628304975
 30
0.0
 40
0.2
100
AcDbArc
 50
180.0
 51
270.0
  0
ARC
  5
11AB
330
2
100
AcDbEntity
  8
0
100
AcDbCircle
 10
1495.473248252541
 20
142.9584628304982
 30
0.0
 40
0.2
100
AcDbArc
 50
180.0
 51
270.0
  0
ARC
  5
11AC
330
2
100
AcDbEntity
  8
0
100
AcDbCircle
 10
1495.073248252541
 20
143.2584628304975
 30
0.0
 40
0.2
100
AcDbArc
 50
0.0
 51
90.0
  0
ARC
  5
11AD
330
2
100
AcDbEntity
  8
0
100
AcDbCircle
 10
1493.473248252541
 20
143.2584628304975
 30
0.0
 40
0.2
100
AcDbArc
 50
90.0
 51
180.0
  0
LINE
  5
11AE
330
2
100
AcDbEntity
  8
0
100
AcDbLine
 10
1496.773248252537
 20
227.7584628304976
 30
0.0
 11
1496.77324825254
 21
142.7584628304975
 31
0.0
  0
ARC
  5
11AF
330
2
100
AcDbEntity
  8
0
100
AcDbCircle
 10
1485.273248252537
 20
119.9199860413991
 30
0.0
 40
2.0
100
AcDbArc
 50
270.5000000000175
 51
0.0
  0
LINE
  5
11B0
330
2
100
AcDbEntity
  8
0
100
AcDbLine
 10
1485.290701323534
 20
117.9200621952695
 30
0.0
 11
1466.773248252537
 21
117.7584628304975
 31
0.0
  0
LINE
  5
11B1
330
2
100
AcDbEntity
  8
0
100
AcDbLine
 10
1481.773248252537
 20
228.3319777810902
 30
0.0
 11
1481.773248252537
 21
142.1849478808325
 31
0.0
  0
ARC
  5
11B2
330
2
100
AcDbEntity
  8
0
100
AcDbCircle
 10
1479.773248252537
 20
234.1449373924479
 30
0.0
 40
2.0
100
AcDbArc
 50
17.86424478083925
 51
89.50000000000846
  0
LINE
  5
11B3
330
2
100
AcDbEntity
  8
0
100
AcDbLine
 10
1479.790701323534
 20
236.1448612385756
 30
0.0
 11
1475.328885694372
 21
236.1837989136783
 31
0.0
  0
ARC
  5
11B4
330
2
100
AcDbEntity
  8
0
100
AcDbCircle
 10
1479.773248252537
 20
136.371988268549
 30
0.0
 40
2.0
100
AcDbArc
 50
270.4999999999915
 51
342.1357552191607
  0
LINE
  5
11B5
330
2
100
AcDbEntity
  8
0
100
AcDbLine
 10
1479.790701323534
 20
134.3720644224212
 30
0.0
 11
1475.328885694374
 21
134.3331267473185
 31
0.0
  0
LINE
  5
11B6
330
2
100
AcDbEntity
  8
CENTER
100
AcDbLine
 10
1494.418078845103
 20
228.2584628304975
 30
0.0
 11
1456.026347441518
 21
228.2584628304975
 31
0.0
  0
LINE
  5
11B7
330
2
100
AcDbEntity
  8
CENTER
100
AcDbLine
 10
1494.418078845103
 20
142.2584628304993
 30
0.0
 11
1456.026347441518
 21
142.2584628304993
 31
0.0
  0
LINE
  5
11B8
330
2
100
AcDbEntity
  8
0
100
AcDbLine
 10
1486.773248252537
 20
233.8924374267116
 30
0.0
 11
1486.773248252537
 21
222.6244882342816
 31
0.0
  0
LINE
  5
11B9
330
2
100
AcDbEntity
  8
0
100
AcDbLine
 10
1478.773248252537
 20
234.7584628304975
 30
0.0
 11
1478.773248252537
 21
234.5815056577739
 31
0.0
  0
LINE
  5
11BA
330
2
100
AcDbEntity
  8
0
100
AcDbLine
 10
1486.273248252537
 20
221.7584628304976
 30
0.0
 11
1486.773248252537
 21
222.6244882342816
 31
0.0
  0
LINE
  5
11BB
330
2
100
AcDbEntity
  8
0
100
AcDbLine
 10
1481.773248252537
 20
221.7584628304976
 30
0.0
 11
1486.273248252537
 21
221.7584628304976
 31
0.0
  0
LINE
  5
11BC
330
2
100
AcDbEntity
  8
0
100
AcDbLine
 10
1486.273248252537
 20
234.7584628304975
 30
0.0
 11
1486.773248252537
 21
233.8924374267135
 31
0.0
  0
LINE
  5
11BD
330
2
100
AcDbEntity
  8
0
100
AcDbLine
 10
1478.543834257285
 20
234.7584628304975
 30
0.0
 11
1478.773248252537
 21
234.7584628304975
 31
0.0
  0
LINE
  5
11BE
330
2
100
AcDbEntity
  8
0
100
AcDbLine
 10
1478.773248252537
 20
234.7584628304975
 30
0.0
 11
1486.273248252537
 21
234.7584628304975
 31
0.0
  0
LINE
  5
11BF
330
2
100
AcDbEntity
  8
0
100
AcDbLine
 10
1486.273248252537
 20
234.7584628304975
 30
0.0
 11
1486.273248252537
 21
221.7584628304976
 31
0.0
  0
LINE
  5
11C0
330
2
100
AcDbEntity
  8
0
100
AcDbLine
 10
1486.773248252537
 20
147.8924374267134
 30
0.0
 11
1486.773248252537
 21
136.6244882342834
 31
0.0
  0
LINE
  5
11C1
330
2
100
AcDbEntity
  8
0
100
AcDbLine
 10
1478.773248252537
 20
135.9354200032211
 30
0.0
 11
1478.773248252537
 21
135.7584628304993
 31
0.0
  0
LINE
  5
11C2
330
2
100
AcDbEntity
  8
0
100
AcDbLine
 10
1486.273248252537
 20
135.7584628304993
 30
0.0
 11
1486.773248252537
 21
136.6244882342834
 31
0.0
  0
LINE
  5
11C3
330
2
100
AcDbEntity
  8
0
100
AcDbLine
 10
1478.543834257285
 20
135.7584628304993
 30
0.0
 11
1478.773248252537
 21
135.7584628304993
 31
0.0
  0
LINE
  5
11C4
330
2
100
AcDbEntity
  8
0
100
AcDbLine
 10
1478.773248252537
 20
135.7584628304993
 30
0.0
 11
1486.273248252537
 21
135.7584628304993
 31
0.0
  0
LINE
  5
11C5
330
2
100
AcDbEntity
  8
0
100
AcDbLine
 10
1486.273248252537
 20
148.7584628304993
 30
0.0
 11
1486.773248252537
 21
147.8924374267152
 31
0.0
  0
LINE
  5
11C6
330
2
100
AcDbEntity
  8
0
100
AcDbLine
 10
1481.773248252537
 20
148.7584628304993
 30
0.0
 11
1486.273248252537
 21
148.7584628304993
 31
0.0
  0
LINE
  5
11C7
330
2
100
AcDbEntity
  8
0
100
AcDbLine
 10
1486.273248252537
 20
148.7584628304993
 30
0.0
 11
1486.273248252537
 21
135.7584628304993
 31
0.0
  0
LINE
  5
12FF
330
2
100
AcDbEntity
  8
CENTER
100
AcDbLine
 10
1464.703248252537
 20
227.6884628304979
 30
0.0
 11
1481.703248252537
 21
227.6884628304979
 31
0.0
  0
LINE
  5
1300
330
2
100
AcDbEntity
  8
0
100
AcDbLine
 10
1387.773248252538
 20
236.2584628304976
 30
0.0
 11
1473.773248252537
 21
236.2584628304976
 31
0.0
  0
LINE
  5
1301
330
2
100
AcDbEntity
  8
CENTER
100
AcDbLine
 10
1464.703248252537
 20
142.8284628304981
 30
0.0
 11
1481.703248252537
 21
142.8284628304981
 31
0.0
  0
ARC
  5
1302
330
2
100
AcDbEntity
  8
0
100
AcDbCircle
 10
1457.773248252537
 20
158.2584628304975
 30
0.0
 40
15.0
100
AcDbArc
 50
270.0
 51
0.0
  0
ARC
  5
1303
330
2
100
AcDbEntity
  8
0
100
AcDbCircle
 10
1457.773248252535
 20
158.2584628304975
 30
0.0
 40
13.0
100
AcDbArc
 50
270.0
 51
0.0
  0
LINE
  5
1304
330
2
100
AcDbEntity
  8
0
100
AcDbLine
 10
1387.773248252537
 20
134.2584628304975
 30
0.0
 11
1473.773248252537
 21
134.2584628304975
 31
0.0
  0
ARC
  5
1305
330
2
100
AcDbEntity
  8
0
100
AcDbCircle
 10
1457.773248252535
 20
212.2584628304975
 30
0.0
 40
13.0
100
AcDbArc
 50
0.0
 51
90.0
  0
ARC
  5
1306
330
2
100
AcDbEntity
  8
0
100
AcDbCircle
 10
1457.773248252537
 20
212.2584628304975
 30
0.0
 40
15.0
100
AcDbArc
 50
0.0
 51
90.0
  0
LINE
  5
1307
330
2
100
AcDbEntity
  8
0
100
AcDbLine
 10
1470.773248252535
 20
212.2584628304975
 30
0.0
 11
1470.773248252535
 21
158.2584628304975
 31
0.0
  0
LINE
  5
1308
330
2
100
AcDbEntity
  8
0
100
AcDbLine
 10
1390.773248252537
 20
212.2584628304975
 30
0.0
 11
1390.773248252537
 21
158.2584628304975
 31
0.0
  0
LINE
  5
1309
330
2
100
AcDbEntity
  8
0
100
AcDbLine
 10
1388.773248252537
 20
212.2584628304975
 30
0.0
 11
1388.773248252537
 21
158.2584628304975
 31
0.0
  0
LINE
  5
130A
330
2
100
AcDbEntity
  8
CENTER
100
AcDbLine
 10
1462.593053405931
 20
145.9386576771029
 30
0.0
 11
1462.593053405931
 21
160.9386576771029
 31
0.0
  0
LINE
  5
130B
330
2
100
AcDbEntity
  8
CENTER
100
AcDbLine
 10
1398.953443099142
 20
145.9386576771029
 30
0.0
 11
1398.953443099142
 21
160.9386576771029
 31
0.0
  0
ARC
  5
130C
330
2
100
AcDbEntity
  8
0
100
AcDbCircle
 10
1403.773248252537
 20
158.2584628304975
 30
0.0
 40
15.0
100
AcDbArc
 50
180.0
 51
270.0
  0
ARC
  5
130D
330
2
100
AcDbEntity
  8
0
100
AcDbCircle
 10
1403.773248252537
 20
158.2584628304975
 30
0.0
 40
13.0
100
AcDbArc
 50
180.0
 51
270.0
  0
LINE
  5
130E
330
2
100
AcDbEntity
  8
0
100
AcDbLine
 10
1403.773248252537
 20
143.2584628304975
 30
0.0
 11
1457.773248252537
 21
143.2584628304975
 31
0.0
  0
LINE
  5
130F
330
2
100
AcDbEntity
  8
0
100
AcDbLine
 10
1403.773248252537
 20
145.2584628304975
 30
0.0
 11
1457.773248252535
 21
145.2584628304975
 31
0.0
  0
ARC
  5
1310
330
2
100
AcDbEntity
  8
0
100
AcDbCircle
 10
1387.773248252537
 20
142.2584628304975
 30
0.0
 40
8.0
100
AcDbArc
 50
180.0
 51
270.0
  0
LINE
  5
1311
330
2
100
AcDbEntity
  8
CENTER
100
AcDbLine
 10
1388.343248252536
 20
134.3284628304981
 30
0.0
 11
1388.343248252536
 21
151.3284628304981
 31
0.0
  0
LINE
  5
1312
330
2
100
AcDbEntity
  8
CENTER
100
AcDbLine
 10
1396.843248252537
 20
142.8284628304981
 30
0.0
 11
1379.843248252536
 21
142.8284628304981
 31
0.0
  0
LINE
  5
1313
330
2
100
AcDbEntity
  8
CENTER
100
AcDbLine
 10
1406.453443099142
 20
153.4386576771029
 30
0.0
 11
1391.453443099142
 21
153.4386576771029
 31
0.0
  0
LINE
  5
1314
330
2
100
AcDbEntity
  8
CENTER
100
AcDbLine
 10
1455.093053405931
 20
153.4386576771029
 30
0.0
 11
1470.093053405931
 21
153.4386576771029
 31
0.0
  0
LINE
  5
1315
330
2
100
AcDbEntity
  8
0
100
AcDbLine
 10
1403.773248252537
 20
227.2584628304975
 30
0.0
 11
1457.773248252537
 21
227.2584628304975
 31
0.0
  0
LINE
  5
1316
330
2
100
AcDbEntity
  8
0
100
AcDbLine
 10
1403.773248252537
 20
225.2584628304976
 30
0.0
 11
1457.773248252535
 21
225.2584628304976
 31
0.0
  0
ARC
  5
1317
330
2
100
AcDbEntity
  8
0
100
AcDbCircle
 10
1387.773248252538
 20
228.2584628304975
 30
0.0
 40
8.0
100
AcDbArc
 50
90.0
 51
180.0
  0
LINE
  5
1318
330
2
100
AcDbEntity
  8
CENTER
100
AcDbLine
 10
1388.343248252536
 20
236.1884628304979
 30
0.0
 11
1388.343248252536
 21
219.1884628304979
 31
0.0
  0
ARC
  5
1319
330
2
100
AcDbEntity
  8
0
100
AcDbCircle
 10
1403.773248252537
 20
212.2584628304975
 30
0.0
 40
15.0
100
AcDbArc
 50
90.0
 51
180.0
  0
LINE
  5
131A
330
2
100
AcDbEntity
  8
CENTER
100
AcDbLine
 10
1406.453443099142
 20
217.078267983893
 30
0.0
 11
1391.453443099142
 21
217.078267983893
 31
0.0
  0
ARC
  5
131B
330
2
100
AcDbEntity
  8
0
100
AcDbCircle
 10
1403.773248252537
 20
212.2584628304975
 30
0.0
 40
13.0
100
AcDbArc
 50
90.0
 51
180.0
  0
LINE
  5
131C
330
2
100
AcDbEntity
  8
CENTER
100
AcDbLine
 10
1398.953443099142
 20
224.578267983893
 30
0.0
 11
1398.953443099142
 21
209.578267983893
 31
0.0
  0
LINE
  5
131D
330
2
100
AcDbEntity
  8
CENTER
100
AcDbLine
 10
1396.843248252537
 20
227.6884628304979
 30
0.0
 11
1379.843248252536
 21
227.6884628304979
 31
0.0
  0
LINE
  5
131E
330
2
100
AcDbEntity
  8
CENTER
100
AcDbLine
 10
1462.593053405931
 20
224.578267983893
 30
0.0
 11
1462.593053405931
 21
209.578267983893
 31
0.0
  0
LINE
  5
131F
330
2
100
AcDbEntity
  8
CENTER
100
AcDbLine
 10
1455.093053405931
 20
217.078267983893
 30
0.0
 11
1470.093053405931
 21
217.078267983893
 31
0.0
  0
LINE
  5
1320
330
2
100
AcDbEntity
  8
0
100
AcDbLine
 10
1472.773248252537
 20
212.2584628304975
 30
0.0
 11
1472.773248252537
 21
158.2584628304975
 31
0.0
  0
ARC
  5
1321
330
2
100
AcDbEntity
  8
0
100
AcDbCircle
 10
1473.773248252537
 20
142.2584628304975
 30
0.0
 40
8.0
100
AcDbArc
 50
270.0
 51
0.0
  0
LINE
  5
1322
330
2
100
AcDbEntity
  8
CENTER
100
AcDbLine
 10
1473.203248252537
 20
134.3284628304981
 30
0.0
 11
1473.203248252537
 21
151.3284628304981
 31
0.0
  0
ARC
  5
1323
330
2
100
AcDbEntity
  8
0
100
AcDbCircle
 10
1473.773248252537
 20
228.2584628304975
 30
0.0
 40
8.0
100
AcDbArc
 50
0.0
 51
90.0
  0
LINE
  5
1324
330
2
100
AcDbEntity
  8
CENTER
100
AcDbLine
 10
1473.203248252537
 20
236.1884628304979
 30
0.0
 11
1473.203248252537
 21
219.1884628304979
 31
0.0
  0
LINE
  5
1325
330
2
100
AcDbEntity
  8
0
100
AcDbLine
 10
1129.698537390556
 20
560.2298369518361
 30
0.0
 11
1129.698537390556
 21
583.1067313262206
 31
0.0
  0
LINE
  5
1326
330
2
100
AcDbEntity
  8
0
100
AcDbLine
 10
1129.698537390556
 20
591.3529425774454
 30
0.0
 11
1129.698537390556
 21
644.2298369518298
 31
0.0
  0
LINE
  5
1327
330
2
100
AcDbEntity
  8
0
100
AcDbLine
 10
1131.698537390556
 20
562.1600166921203
 30
0.0
 11
1131.698537390554
 21
642.2996572115457
 31
0.0
  0
LINE
  5
1328
330
2
100
AcDbEntity
  8
0
100
AcDbLine
 10
1095.698537390552
 20
552.3520511792899
 30
0.0
 11
1095.698537390554
 21
652.1076227243761
 31
0.0
  0
LINE
  5
1329
330
2
100
AcDbEntity
  8
0
100
AcDbLine
 10
1131.698537390554
 20
642.2996572115457
 30
0.0
 11
1129.698537390552
 21
644.2298369518326
 31
0.0
  0
LINE
  5
132A
330
2
100
AcDbEntity
  8
0
100
AcDbLine
 10
1135.698537390552
 20
642.2298369518325
 30
0.0
 11
1131.698537390554
 21
642.2996572115457
 31
0.0
  0
LINE
  5
132B
330
2
100
AcDbEntity
  8
0
100
AcDbLine
 10
1080.698537390552
 20
653.2298369518326
 30
0.0
 11
1094.707263926052
 21
653.1075846474409
 31
0.0
  0
LINE
  5
132C
330
2
100
AcDbEntity
  8
0
100
AcDbLine
 10
1129.698537390552
 20
644.2298369518326
 30
0.0
 11
1102.698537390552
 21
644.3869183567289
 31
0.0
  0
LINE
  5
132D
330
2
100
AcDbEntity
  8
0
100
AcDbLine
 10
1131.698537390556
 20
562.1600166921203
 30
0.0
 11
1129.698537390556
 21
560.2298369518361
 31
0.0
  0
LINE
  5
132E
330
2
100
AcDbEntity
  8
0
100
AcDbLine
 10
1135.698537390552
 20
562.2298369518334
 30
0.0
 11
1131.698537390556
 21
562.1600166921203
 31
0.0
  0
LINE
  5
132F
330
2
100
AcDbEntity
  8
0
100
AcDbLine
 10
1080.698537390552
 20
551.2298369518334
 30
0.0
 11
1094.707263926052
 21
551.352089256226
 31
0.0
  0
LINE
  5
1330
330
2
100
AcDbEntity
  8
0
100
AcDbLine
 10
1129.698537390554
 20
560.2298369518335
 30
0.0
 11
1102.698537390552
 21
560.0727555469379
 31
0.0
  0
CIRCLE
  5
1331
330
2
100
AcDbEntity
  8
0
100
AcDbCircle
 10
1430.773248252537
 20
185.2584628304975
 30
0.0
 40
34.99999999953029
  0
ARC
  5
1332
330
2
100
AcDbEntity
  8
0
100
AcDbCircle
 10
1094.698537390552
 20
552.3520511792899
 30
0.0
 40
1.0
100
AcDbArc
 50
270.4999999999654
 51
0.0
  0
ARC
  5
1333
330
2
100
AcDbEntity
  8
0
100
AcDbCircle
 10
1094.698537390554
 20
652.1076227243761
 30
0.0
 40
1.0
100
AcDbArc
 50
0.0
 51
89.5000000000345
  0
LINE
  5
1334
330
2
100
AcDbEntity
  8
0
100
AcDbLine
 10
1135.698537390552
 20
562.2298369518334
 30
0.0
 11
1135.698537390552
 21
642.2298369518325
 31
0.0
  0
CIRCLE
  5
1335
330
2
100
AcDbEntity
  8
HOJO
100
AcDbCircle
 10
1398.953443099142
 20
217.078267983893
 30
0.0
 40
3.0
  0
CIRCLE
  5
1336
330
2
100
AcDbEntity
  8
0
100
AcDbCircle
 10
1398.953443099142
 20
217.078267983893
 30
0.0
 40
2.5
  0
CIRCLE
  5
1337
330
2
100
AcDbEntity
  8
HOJO
100
AcDbCircle
 10
1398.953443099142
 20
153.4386576771029
 30
0.0
 40
3.0
  0
CIRCLE
  5
1338
330
2
100
AcDbEntity
  8
0
100
AcDbCircle
 10
1398.953443099142
 20
153.4386576771029
 30
0.0
 40
2.5
  0
CIRCLE
  5
1339
330
2
100
AcDbEntity
  8
HOJO
100
AcDbCircle
 10
1462.593053405931
 20
153.4386576771029
 30
0.0
 40
3.0
  0
CIRCLE
  5
133A
330
2
100
AcDbEntity
  8
0
100
AcDbCircle
 10
1462.593053405931
 20
153.4386576771029
 30
0.0
 40
2.5
  0
CIRCLE
  5
133B
330
2
100
AcDbEntity
  8
HOJO
100
AcDbCircle
 10
1462.593053405931
 20
217.078267983893
 30
0.0
 40
3.0
  0
CIRCLE
  5
133C
330
2
100
AcDbEntity
  8
0
100
AcDbCircle
 10
1462.593053405931
 20
217.078267983893
 30
0.0
 40
2.5
  0
CIRCLE
  5
133D
330
2
100
AcDbEntity
  8
CENTER
100
AcDbCircle
 10
1430.773248252537
 20
185.2584628304975
 30
0.0
 40
45.0
  0
LINE
  5
133E
330
2
100
AcDbEntity
  8
HIDS
100
AcDbLine
 10
1422.023248252537
 20
227.2584628304975
 30
0.0
 11
1422.023248252537
 21
212.9069257172486
 31
0.0
  0
LINE
  5
133F
330
2
100
AcDbEntity
  8
HIDS
100
AcDbLine
 10
1409.523248252537
 20
227.2584628304975
 30
0.0
 11
1409.523248252537
 21
204.9926337023644
 31
0.0
  0
LINE
  5
1340
330
2
100
AcDbEntity
  8
0
100
AcDbLine
 10
1129.698537390557
 20
227.2584628305821
 30
0.0
 11
1129.698537390557
 21
223.7577631461181
 31
0.0
  0
LINE
  5
1341
330
2
100
AcDbEntity
  8
0
100
AcDbLine
 10
1131.698537390557
 20
225.3282830902981
 30
0.0
 11
1131.698537390557
 21
225.1389713171493
 31
0.0
  0
LINE
  5
1342
330
2
100
AcDbEntity
  8
0
100
AcDbLine
 10
1095.698537390553
 20
235.1362486031284
 30
0.0
 11
1095.698537390555
 21
196.3011638360694
 31
0.0
  0
LINE
  5
1343
330
2
100
AcDbEntity
  8
0
100
AcDbLine
 10
1095.698537390555
 20
185.2584628305848
 30
0.0
 11
1095.698537390555
 21
135.3806770580421
 31
0.0
  0
LINE
  5
1344
330
2
100
AcDbEntity
  8
0
100
AcDbLine
 10
1131.698537390555
 20
145.1886425708725
 30
0.0
 11
1129.698537390553
 21
143.2584628305857
 31
0.0
  0
LINE
  5
1345
330
2
100
AcDbEntity
  8
0
100
AcDbLine
 10
1135.698537390553
 20
145.2584628305857
 30
0.0
 11
1131.698537390555
 21
145.1886425708725
 31
0.0
  0
LINE
  5
1346
330
2
100
AcDbEntity
  8
0
100
AcDbLine
 10
1080.698537390553
 20
134.2584628305857
 30
0.0
 11
1094.707263926053
 21
134.3807151349773
 31
0.0
  0
LINE
  5
1347
330
2
100
AcDbEntity
  8
0
100
AcDbLine
 10
1129.698537390553
 20
143.2584628305857
 30
0.0
 11
1102.698537390553
 21
143.1013814256893
 31
0.0
  0
LINE
  5
1348
330
2
100
AcDbEntity
  8
0
100
AcDbLine
 10
1131.698537390557
 20
225.3282830902981
 30
0.0
 11
1129.698537390557
 21
227.2584628305821
 31
0.0
  0
LINE
  5
1349
330
2
100
AcDbEntity
  8
0
100
AcDbLine
 10
1135.698537390553
 20
225.2584628305849
 30
0.0
 11
1131.698537390557
 21
225.3282830902981
 31
0.0
  0
LINE
  5
134A
330
2
100
AcDbEntity
  8
0
100
AcDbLine
 10
1080.698537390553
 20
236.2584628305849
 30
0.0
 11
1094.707263926053
 21
236.1362105261923
 31
0.0
  0
LINE
  5
134B
330
2
100
AcDbEntity
  8
0
100
AcDbLine
 10
1130.698385063236
 20
227.2526458869888
 30
0.0
 11
1102.698537390553
 21
227.4155442354804
 31
0.0
  0
LINE
  5
134C
330
2
100
AcDbEntity
  8
0
100
AcDbLine
 10
1128.698537390553
 20
214.2584628305848
 30
0.0
 11
1124.788884041767
 21
214.2584628305848
 31
0.0
  0
ARC
  5
134D
330
2
100
AcDbEntity
  8
0
100
AcDbCircle
 10
1094.698537390553
 20
235.1362486031284
 30
0.0
 40
1.0
100
AcDbArc
 50
0.0
 51
89.5000000000345
  0
ARC
  5
134E
330
2
100
AcDbEntity
  8
0
100
AcDbCircle
 10
1094.698537390555
 20
135.3806770580421
 30
0.0
 40
1.0
100
AcDbArc
 50
270.4999999999654
 51
0.0
  0
LINE
  5
134F
330
2
100
AcDbEntity
  8
0
100
AcDbLine
 10
1135.698537390553
 20
225.2584628305849
 30
0.0
 11
1135.698537390553
 21
145.2584628305857
 31
0.0
  0
CIRCLE
  5
1350
330
2
100
AcDbEntity
  8
0
100
AcDbCircle
 10
1388.343248252536
 20
227.6884628304979
 30
0.0
 40
5.0
  0
CIRCLE
  5
1351
330
2
100
AcDbEntity
  8
0
100
AcDbCircle
 10
1388.343248252536
 20
227.6884628304979
 30
0.0
 40
4.307179676972423
  0
CIRCLE
  5
1352
330
2
100
AcDbEntity
  8
0
100
AcDbCircle
 10
1388.343248252536
 20
227.6884628304979
 30
0.0
 40
2.886751345948113
  0
LWPOLYLINE
  5
1353
330
2
100
AcDbEntity
  8
0
100
AcDbPolyline
 90
        6
 70
     1
 43
0.0
 10
1390.843248252537
 20
229.1318385034719
 10
1388.343248252536
 20
230.575214176446
 10
1385.843248252536
 20
229.1318385034719
 10
1385.843248252536
 20
226.2450871575238
 10
1388.343248252536
 20
224.8017114845497
 10
1390.843248252537
 20
226.2450871575238
  0
CIRCLE
  5
1354
330
2
100
AcDbEntity
  8
0
100
AcDbCircle
 10
1473.203248252537
 20
227.6884628304979
 30
0.0
 40
5.0
  0
CIRCLE
  5
1355
330
2
100
AcDbEntity
  8
0
100
AcDbCircle
 10
1473.203248252537
 20
227.6884628304979
 30
0.0
 40
4.307179676972423
  0
CIRCLE
  5
1356
330
2
100
AcDbEntity
  8
0
100
AcDbCircle
 10
1473.203248252537
 20
227.6884628304979
 30
0.0
 40
2.886751345948113
  0
LWPOLYLINE
  5
1357
330
2
100
AcDbEntity
  8
0
100
AcDbPolyline
 90
        6
 70
     1
 43
0.0
 10
1475.703248252537
 20
229.1318385034719
 10
1473.203248252537
 20
230.575214176446
 10
1470.703248252537
 20
229.1318385034719
 10
1470.703248252537
 20
226.2450871575238
 10
1473.203248252537
 20
224.8017114845497
 10
1475.703248252537
 20
226.2450871575238
  0
CIRCLE
  5
1358
330
2
100
AcDbEntity
  8
0
100
AcDbCircle
 10
1473.203248252537
 20
142.8284628304981
 30
0.0
 40
5.0
  0
CIRCLE
  5
1359
330
2
100
AcDbEntity
  8
0
100
AcDbCircle
 10
1473.203248252537
 20
142.8284628304981
 30
0.0
 40
4.307179676972423
  0
CIRCLE
  5
135A
330
2
100
AcDbEntity
  8
0
100
AcDbCircle
 10
1473.203248252537
 20
142.8284628304981
 30
0.0
 40
2.886751345948113
  0
LWPOLYLINE
  5
135B
330
2
100
AcDbEntity
  8
0
100
AcDbPolyline
 90
        6
 70
     1
 43
0.0
 10
1475.703248252537
 20
144.2718385034722
 10
1473.203248252537
 20
145.7152141764463
 10
1470.703248252537
 20
144.2718385034722
 10
1470.703248252537
 20
141.385087157524
 10
1473.203248252537
 20
139.94171148455
 10
1475.703248252537
 20
141.385087157524
  0
CIRCLE
  5
135C
330
2
100
AcDbEntity
  8
0
100
AcDbCircle
 10
1388.343248252536
 20
142.8284628304981
 30
0.0
 40
5.0
  0
CIRCLE
  5
135D
330
2
100
AcDbEntity
  8
0
100
AcDbCircle
 10
1388.343248252536
 20
142.8284628304981
 30
0.0
 40
4.307179676972423
  0
CIRCLE
  5
135E
330
2
100
AcDbEntity
  8
0
100
AcDbCircle
 10
1388.343248252536
 20
142.8284628304981
 30
0.0
 40
2.886751345948113
  0
LWPOLYLINE
  5
135F
330
2
100
AcDbEntity
  8
0
100
AcDbPolyline
 90
        6
 70
     1
 43
0.0
 10
1390.843248252537
 20
144.2718385034722
 10
1388.343248252536
 20
145.7152141764463
 10
1385.843248252536
 20
144.2718385034722
 10
1385.843248252536
 20
141.385087157524
 10
1388.343248252536
 20
139.94171148455
 10
1390.843248252537
 20
141.385087157524
  0
LINE
  5
1360
330
2
100
AcDbEntity
  8
0
100
AcDbLine
 10
1102.298537390554
 20
222.6884628305851
 30
0.0
 11
1102.698537390553
 21
223.3812831536133
 31
0.0
  0
LINE
  5
1361
330
2
100
AcDbEntity
  8
0
100
AcDbLine
 10
1102.298537390554
 20
222.6884628305851
 30
0.0
 11
1102.298537390554
 21
232.6884628305851
 31
0.0
  0
LINE
  5
1362
330
2
100
AcDbEntity
  8
0
100
AcDbLine
 10
1096.698537390553
 20
222.6884628305851
 30
0.0
 11
1096.698537390553
 21
232.6884628305851
 31
0.0
  0
LINE
  5
1363
330
2
100
AcDbEntity
  8
0
100
AcDbLine
 10
1096.698537390553
 20
232.6884628305851
 30
0.0
 11
1095.698537390553
 21
232.6884628305851
 31
0.0
  0
LINE
  5
1364
330
2
100
AcDbEntity
  8
0
100
AcDbLine
 10
1095.698537390553
 20
232.6884628305851
 30
0.0
 11
1095.698537390553
 21
222.6884628305851
 31
0.0
  0
LINE
  5
1365
330
2
100
AcDbEntity
  8
0
100
AcDbLine
 10
1095.698537390553
 20
222.6884628305851
 30
0.0
 11
1096.698537390553
 21
222.6884628305851
 31
0.0
  0
LINE
  5
1366
330
2
100
AcDbEntity
  8
0
100
AcDbLine
 10
1096.698537390553
 20
222.6884628305851
 30
0.0
 11
1096.698537390553
 21
232.6884628305851
 31
0.0
  0
LINE
  5
1367
330
2
100
AcDbEntity
  8
0
100
AcDbLine
 10
1102.298537390554
 20
222.6884628305851
 30
0.0
 11
1096.698537390553
 21
222.6884628305851
 31
0.0
  0
LINE
  5
1368
330
2
100
AcDbEntity
  8
0
100
AcDbLine
 10
1102.698537390553
 20
231.9956425075579
 30
0.0
 11
1102.698537390553
 21
223.3812831536133
 31
0.0
  0
LINE
  5
1369
330
2
100
AcDbEntity
  8
0
100
AcDbLine
 10
1096.698537390553
 20
232.6884628305851
 30
0.0
 11
1102.298537390554
 21
232.6884628305851
 31
0.0
  0
LINE
  5
136A
330
2
100
AcDbEntity
  8
0
100
AcDbLine
 10
1102.298537390554
 20
232.6884628305851
 30
0.0
 11
1102.698537390553
 21
231.9956425075579
 31
0.0
  0
LINE
  5
136B
330
2
100
AcDbEntity
  8
CENTER
  6
CENS
100
AcDbLine
 10
1075.698537390553
 20
227.6884628305852
 30
0.0
 11
1107.698537390553
 21
227.6884628305852
 31
0.0
  0
LINE
  5
136C
330
2
100
AcDbEntity
  8
0
100
AcDbLine
 10
1102.298537390554
 20
147.8284628305854
 30
0.0
 11
1102.698537390553
 21
147.1356425075572
 31
0.0
  0
LINE
  5
136D
330
2
100
AcDbEntity
  8
0
100
AcDbLine
 10
1102.298537390554
 20
147.8284628305854
 30
0.0
 11
1102.298537390554
 21
137.8284628305854
 31
0.0
  0
LINE
  5
136E
330
2
100
AcDbEntity
  8
0
100
AcDbLine
 10
1096.698537390553
 20
147.8284628305854
 30
0.0
 11
1096.698537390553
 21
137.8284628305854
 31
0.0
  0
LINE
  5
136F
330
2
100
AcDbEntity
  8
0
100
AcDbLine
 10
1096.698537390553
 20
137.8284628305854
 30
0.0
 11
1095.698537390553
 21
137.8284628305854
 31
0.0
  0
LINE
  5
1370
330
2
100
AcDbEntity
  8
0
100
AcDbLine
 10
1095.698537390553
 20
137.8284628305854
 30
0.0
 11
1095.698537390553
 21
147.8284628305854
 31
0.0
  0
LINE
  5
1371
330
2
100
AcDbEntity
  8
0
100
AcDbLine
 10
1095.698537390553
 20
147.8284628305854
 30
0.0
 11
1096.698537390553
 21
147.8284628305854
 31
0.0
  0
LINE
  5
1372
330
2
100
AcDbEntity
  8
0
100
AcDbLine
 10
1096.698537390553
 20
147.8284628305854
 30
0.0
 11
1096.698537390553
 21
137.8284628305854
 31
0.0
  0
LINE
  5
1373
330
2
100
AcDbEntity
  8
0
100
AcDbLine
 10
1102.298537390554
 20
147.8284628305854
 30
0.0
 11
1096.698537390553
 21
147.8284628305854
 31
0.0
  0
LINE
  5
1374
330
2
100
AcDbEntity
  8
0
100
AcDbLine
 10
1102.698537390553
 20
138.5212831536127
 30
0.0
 11
1102.698537390553
 21
147.1356425075572
 31
0.0
  0
LINE
  5
1375
330
2
100
AcDbEntity
  8
0
100
AcDbLine
 10
1096.698537390553
 20
137.8284628305854
 30
0.0
 11
1102.298537390554
 21
137.8284628305854
 31
0.0
  0
LINE
  5
1376
330
2
100
AcDbEntity
  8
0
100
AcDbLine
 10
1102.298537390554
 20
137.8284628305854
 30
0.0
 11
1102.698537390553
 21
138.5212831536127
 31
0.0
  0
LINE
  5
1377
330
2
100
AcDbEntity
  8
CENTER
  6
CENS
100
AcDbLine
 10
1075.698537390553
 20
142.8284628305854
 30
0.0
 11
1107.698537390553
 21
142.8284628305854
 31
0.0
  0
LINE
  5
1378
330
2
100
AcDbEntity
  8
0
100
AcDbLine
 10
1102.298537390553
 20
564.7998369518331
 30
0.0
 11
1102.698537390552
 21
564.1070166288058
 31
0.0
  0
LINE
  5
1379
330
2
100
AcDbEntity
  8
0
100
AcDbLine
 10
1102.298537390553
 20
564.7998369518331
 30
0.0
 11
1102.298537390553
 21
554.7998369518332
 31
0.0
  0
LINE
  5
137A
330
2
100
AcDbEntity
  8
0
100
AcDbLine
 10
1096.698537390552
 20
564.7998369518331
 30
0.0
 11
1096.698537390552
 21
554.7998369518332
 31
0.0
  0
LINE
  5
137B
330
2
100
AcDbEntity
  8
0
100
AcDbLine
 10
1096.698537390552
 20
554.7998369518332
 30
0.0
 11
1095.698537390552
 21
554.7998369518332
 31
0.0
  0
LINE
  5
137C
330
2
100
AcDbEntity
  8
0
100
AcDbLine
 10
1095.698537390552
 20
554.7998369518332
 30
0.0
 11
1095.698537390552
 21
564.7998369518331
 31
0.0
  0
LINE
  5
137D
330
2
100
AcDbEntity
  8
0
100
AcDbLine
 10
1095.698537390552
 20
564.7998369518331
 30
0.0
 11
1096.698537390552
 21
564.7998369518331
 31
0.0
  0
LINE
  5
137E
330
2
100
AcDbEntity
  8
0
100
AcDbLine
 10
1096.698537390552
 20
564.7998369518331
 30
0.0
 11
1096.698537390552
 21
554.7998369518332
 31
0.0
  0
LINE
  5
137F
330
2
100
AcDbEntity
  8
0
100
AcDbLine
 10
1102.298537390553
 20
564.7998369518331
 30
0.0
 11
1096.698537390552
 21
564.7998369518331
 31
0.0
  0
LINE
  5
1380
330
2
100
AcDbEntity
  8
0
100
AcDbLine
 10
1102.698537390552
 20
555.4926572748605
 30
0.0
 11
1102.698537390552
 21
564.1070166288058
 31
0.0
  0
LINE
  5
1381
330
2
100
AcDbEntity
  8
0
100
AcDbLine
 10
1096.698537390552
 20
554.7998369518332
 30
0.0
 11
1102.298537390553
 21
554.7998369518332
 31
0.0
  0
LINE
  5
1382
330
2
100
AcDbEntity
  8
0
100
AcDbLine
 10
1102.298537390553
 20
554.7998369518332
 30
0.0
 11
1102.698537390552
 21
555.4926572748605
 31
0.0
  0
LINE
  5
1383
330
2
100
AcDbEntity
  8
CENTER
  6
CENS
100
AcDbLine
 10
1075.698537390552
 20
559.7998369518331
 30
0.0
 11
1107.698537390552
 21
559.7998369518331
 31
0.0
  0
LINE
  5
1384
330
2
100
AcDbEntity
  8
0
100
AcDbLine
 10
1102.298537390553
 20
639.6598369518328
 30
0.0
 11
1102.698537390552
 21
640.352657274861
 31
0.0
  0
LINE
  5
1385
330
2
100
AcDbEntity
  8
0
100
AcDbLine
 10
1102.298537390553
 20
639.6598369518328
 30
0.0
 11
1102.298537390553
 21
649.6598369518328
 31
0.0
  0
LINE
  5
1386
330
2
100
AcDbEntity
  8
0
100
AcDbLine
 10
1096.698537390552
 20
639.6598369518328
 30
0.0
 11
1096.698537390552
 21
649.6598369518328
 31
0.0
  0
LINE
  5
1387
330
2
100
AcDbEntity
  8
0
100
AcDbLine
 10
1096.698537390552
 20
649.6598369518328
 30
0.0
 11
1095.698537390552
 21
649.6598369518328
 31
0.0
  0
LINE
  5
1388
330
2
100
AcDbEntity
  8
0
100
AcDbLine
 10
1095.698537390552
 20
649.6598369518328
 30
0.0
 11
1095.698537390552
 21
639.6598369518328
 31
0.0
  0
LINE
  5
1389
330
2
100
AcDbEntity
  8
0
100
AcDbLine
 10
1095.698537390552
 20
639.6598369518328
 30
0.0
 11
1096.698537390552
 21
639.6598369518328
 31
0.0
  0
LINE
  5
138A
330
2
100
AcDbEntity
  8
0
100
AcDbLine
 10
1096.698537390552
 20
639.6598369518328
 30
0.0
 11
1096.698537390552
 21
649.6598369518328
 31
0.0
  0
LINE
  5
138B
330
2
100
AcDbEntity
  8
0
100
AcDbLine
 10
1102.298537390553
 20
639.6598369518328
 30
0.0
 11
1096.698537390552
 21
639.6598369518328
 31
0.0
  0
LINE
  5
138C
330
2
100
AcDbEntity
  8
0
100
AcDbLine
 10
1102.698537390552
 20
648.9670166288056
 30
0.0
 11
1102.698537390552
 21
640.352657274861
 31
0.0
  0
LINE
  5
138D
330
2
100
AcDbEntity
  8
0
100
AcDbLine
 10
1096.698537390552
 20
649.6598369518328
 30
0.0
 11
1102.298537390553
 21
649.6598369518328
 31
0.0
  0
LINE
  5
138E
330
2
100
AcDbEntity
  8
0
100
AcDbLine
 10
1102.298537390553
 20
649.6598369518338
 30
0.0
 11
1102.698537390552
 21
648.9670166288056
 31
0.0
  0
LINE
  5
138F
330
2
100
AcDbEntity
  8
CENTER
  6
CENS
100
AcDbLine
 10
1075.698537390552
 20
644.6598369518328
 30
0.0
 11
1107.698537390552
 21
644.6598369518328
 31
0.0
  0
LINE
  5
1390
330
2
100
AcDbEntity
  8
0
100
AcDbLine
 10
1126.721492677443
 20
231.2761413501421
 30
0.0
 11
1116.721658541169
 21
231.3337368970223
 31
0.0
  0
ARC
  5
1391
330
2
100
AcDbEntity
  8
0
100
AcDbCircle
 10
1116.698620322416
 20
227.3338032425126
 30
0.0
 40
4.000000000000014
100
AcDbArc
 50
89.67000000001375
 51
179.6699999999877
  0
ARC
  5
1392
330
2
100
AcDbEntity
  8
0
100
AcDbCircle
 10
1126.69845445869
 20
227.2762076956332
 30
0.0
 40
4.000000000000014
100
AcDbArc
 50
359.6699999999876
 51
89.67000000001375
  0
LINE
  5
1393
330
2
100
AcDbEntity
  8
CENTER
  6
CENS
100
AcDbLine
 10
1121.698537390553
 20
236.2008627041031
 30
0.0
 11
1121.698537390553
 21
207.8409367017384
 31
0.0
  0
CIRCLE
  5
1394
330
2
100
AcDbEntity
  8
0
100
AcDbCircle
 10
1121.698537390552
 20
587.2298369518334
 30
0.0
 40
9.0
  0
LINE
  5
1395
330
2
100
AcDbEntity
  8
CENTER
  6
CENS
100
AcDbLine
 10
1121.698537390549
 20
575.3509070528393
 30
0.0
 11
1121.698537390549
 21
599.1087668508275
 31
0.0
  0
LINE
  5
1396
330
2
100
AcDbEntity
  8
CENTER
  6
CENS
100
AcDbLine
 10
1133.577467289543
 20
587.2298369518334
 30
0.0
 11
1109.819607491554
 21
587.2298369518334
 31
0.0
  0
LINE
  5
1397
330
2
100
AcDbEntity
  8
0
100
AcDbLine
 10
1135.698537390553
 20
220.2584628305858
 30
0.0
 11
1128.698537390553
 21
220.2584628305849
 31
0.0
  0
LINE
  5
1398
330
2
100
AcDbEntity
  8
0
100
AcDbLine
 10
1128.698537390553
 20
220.2584628305849
 30
0.0
 11
1128.698537390553
 21
185.2584628305848
 31
0.0
  0
LINE
  5
1399
330
2
100
AcDbEntity
  8
0
100
AcDbLine
 10
1128.698537390553
 20
205.0084628305849
 30
0.0
 11
1118.960732820036
 21
205.0084628305849
 31
0.0
  0
LINE
  5
139A
330
2
100
AcDbEntity
  8
0
100
AcDbLine
 10
1126.698537390553
 20
193.2584628305848
 30
0.0
 11
1115.698537390553
 21
193.2584628305857
 31
0.0
  0
LINE
  5
139B
330
2
100
AcDbEntity
  8
0
100
AcDbLine
 10
1097.198537390553
 20
193.5084628305848
 30
0.0
 11
1097.198537390553
 21
185.2584628305857
 31
0.0
  0
LINE
  5
139C
330
2
100
AcDbEntity
  8
0
100
AcDbLine
 10
1097.198537390553
 20
193.5084628305848
 30
0.0
 11
1091.198537390553
 21
193.5084628305848
 31
0.0
  0
LINE
  5
139D
330
2
100
AcDbEntity
  8
0
100
AcDbLine
 10
1091.198537390553
 20
193.5084628305848
 30
0.0
 11
1091.198537390553
 21
185.2584628305848
 31
0.0
  0
LINE
  5
139E
330
2
100
AcDbEntity
  8
0
100
AcDbLine
 10
1113.698537390553
 20
199.5338730512802
 30
0.0
 11
1113.698537390553
 21
185.2584628305848
 31
0.0
  0
LINE
  5
139F
330
2
100
AcDbEntity
  8
0
100
AcDbLine
 10
1115.698537390553
 20
200.587606391662
 30
0.0
 11
1115.698537390553
 21
185.2584628305848
 31
0.0
  0
LINE
  5
13A0
330
2
100
AcDbEntity
  8
0
100
AcDbLine
 10
1113.698537390553
 20
193.2584628305857
 30
0.0
 11
1097.198537390553
 21
193.2584628305848
 31
0.0
  0
LINE
  5
13A1
330
2
100
AcDbEntity
  8
0
100
AcDbLine
 10
1128.698537390553
 20
194.4131633689648
 30
0.0
 11
1126.698537390553
 21
193.2584628305848
 31
0.0
  0
LINE
  5
13A2
330
2
100
AcDbEntity
  8
0
100
AcDbLine
 10
1126.698537390553
 20
193.2584628305848
 30
0.0
 11
1126.698537390553
 21
185.2584628305848
 31
0.0
  0
LINE
  5
13A3
330
2
100
AcDbEntity
  8
0
100
AcDbLine
 10
1091.198537390553
 20
192.7584628305848
 30
0.0
 11
1086.868410371631
 21
185.2584628305848
 31
0.0
  0
SPLINE
  5
13A4
330
2
100
AcDbEntity
  8
HOJO
100
AcDbSpline
210
0.0
220
0.0
230
1.0
 70
     8
 71
     3
 72
    20
 73
    16
 74
     0
 42
0.0000000001
 43
0.0000000001
 40
1.221331719906463
 40
1.221331719906463
 40
1.221331719906463
 40
1.221331719906463
 40
5.647385924430076
 40
9.759277458584113
 40
14.59638394258456
 40
18.6386056126129
 40
22.25598020257161
 40
26.57819511411361
 40
31.00332353479096
 40
40.39337194914635
 40
45.49899296170218
 40
52.02718752358933
 40
57.17041693382338
 40
65.63449353306062
 40
69.3611614947018
 40
69.3611614947018
 40
69.3611614947018
 40
69.3611614947018
 10
1131.999019947583
 20
225.3230381477551
 30
0.0
 10
1130.631859743991
 20
224.4877649345162
 30
0.0
 10
1128.176188013059
 20
222.9591422889534
 30
0.0
 10
1126.866889584582
 20
218.434800101384
 30
0.0
 10
1125.716980259034
 20
215.043230606866
 30
0.0
 10
1122.229223847045
 20
211.3694653956217
 30
0.0
 10
1120.557388670682
 20
207.8441052656426
 30
0.0
 10
1118.580142110227
 20
204.2933885681477
 30
0.0
 10
1115.192360797664
 20
198.7043439796934
 30
0.0
 10
1107.668001753349
 20
198.8799204272854
 30
0.0
 10
1100.9396623967
 20
197.7335498937872
 30
0.0
 10
1095.596395851293
 20
196.0149377893066
 30
0.0
 10
1088.597615336906
 20
195.678766504583
 30
0.0
 10
1084.882882537682
 20
190.1927721726278
 30
0.0
 10
1083.561041098886
 20
186.422865679452
 30
0.0
 10
1083.148368325777
 20
185.2584628305848
 30
0.0
  0
LINE
  5
13A5
330
2
100
AcDbEntity
  8
CENTER
  6
CENS
100
AcDbLine
 10
1415.773248252537
 20
236.2008627040158
 30
0.0
 11
1415.773248252537
 21
169.4107976729682
 31
0.0
  0
LINE
  5
13A6
330
2
100
AcDbEntity
  8
0
100
AcDbLine
 10
1411.037493896547
 20
184.5084628304975
 30
0.0
 11
1422.808482091499
 21
184.5084628304975
 31
0.0
  0
LINE
  5
13A7
330
2
100
AcDbEntity
  8
0
100
AcDbLine
 10
1411.037493896547
 20
186.0084628304975
 30
0.0
 11
1422.808482091499
 21
186.0084628304975
 31
0.0
  0
CIRCLE
  5
13A8
330
2
100
AcDbEntity
  8
0
100
AcDbCircle
 10
1430.773248252537
 20
185.2584628304975
 30
0.0
 40
8.0
  0
LINE
  5
13A9
330
2
100
AcDbEntity
  8
0
100
AcDbLine
 10
1447.973248252536
 20
184.5084628304975
 30
0.0
 11
1447.973248252536
 21
186.0084628304975
 31
0.0
  0
LINE
  5
13AA
330
2
100
AcDbEntity
  8
0
100
AcDbLine
 10
1438.738014413575
 20
184.5084628304975
 30
0.0
 11
1447.973248252536
 21
184.5084628304975
 31
0.0
  0
LINE
  5
13AB
330
2
100
AcDbEntity
  8
0
100
AcDbLine
 10
1438.738014413575
 20
186.0084628304975
 30
0.0
 11
1447.973248252536
 21
186.0084628304975
 31
0.0
  0
LINE
  5
13AC
330
2
100
AcDbEntity
  8
HIDS
100
AcDbLine
 10
1418.273248252537
 20
184.5084628304975
 30
0.0
 11
1418.273248252537
 21
169.9675341471246
 31
0.0
  0
LINE
  5
13AD
330
2
100
AcDbEntity
  8
HIDS
100
AcDbLine
 10
1417.856581585871
 20
184.5084628304975
 30
0.0
 11
1417.856581585871
 21
170.3178396098209
 31
0.0
  0
LINE
  5
13AE
330
2
100
AcDbEntity
  8
HIDS
100
AcDbLine
 10
1413.689914919203
 20
184.5084628304975
 30
0.0
 11
1413.689914919203
 21
175.3477503322855
 31
0.0
  0
LINE
  5
13AF
330
2
100
AcDbEntity
  8
HIDS
100
AcDbLine
 10
1413.273248252537
 20
184.5084628304975
 30
0.0
 11
1413.273248252537
 21
176.1035461186983
 31
0.0
  0
LINE
  5
13B0
330
2
100
AcDbEntity
  8
HIDS
100
AcDbLine
 10
1418.773248252537
 20
190.2584628304975
 30
0.0
 11
1418.773248252537
 21
186.0084628304975
 31
0.0
  0
LINE
  5
13B1
330
2
100
AcDbEntity
  8
HIDS
100
AcDbLine
 10
1412.773248252537
 20
190.2584628304975
 30
0.0
 11
1412.773248252537
 21
186.0084628304975
 31
0.0
  0
LINE
  5
13B2
330
2
100
AcDbEntity
  8
HIDS
100
AcDbLine
 10
1420.023248252537
 20
190.2584628304975
 30
0.0
 11
1420.023248252537
 21
194.9584628304982
 31
0.0
  0
LINE
  5
13B3
330
2
100
AcDbEntity
  8
0
100
AcDbLine
 10
1411.523248252537
 20
194.9584628304982
 30
0.0
 11
1411.523248252537
 21
190.2584628304975
 31
0.0
  0
LINE
  5
13B4
330
2
100
AcDbEntity
  8
HIDS
100
AcDbLine
 10
1418.273248252537
 20
176.2584628304975
 30
0.0
 11
1417.273248252537
 21
175.2584628304975
 31
0.0
  0
LINE
  5
13B5
330
2
100
AcDbEntity
  8
HIDS
100
AcDbLine
 10
1413.273248252537
 20
176.2584628304975
 30
0.0
 11
1414.273248252537
 21
175.2584628304975
 31
0.0
  0
LINE
  5
13B6
330
2
100
AcDbEntity
  8
HIDS
100
AcDbLine
 10
1417.273248252537
 20
175.2584628304975
 30
0.0
 11
1414.273248252537
 21
175.2584628304975
 31
0.0
  0
LINE
  5
13B7
330
2
100
AcDbEntity
  8
HIDS
100
AcDbLine
 10
1418.273248252537
 20
190.2584628304975
 30
0.0
 11
1418.273248252537
 21
186.0084628304975
 31
0.0
  0
LINE
  5
13B8
330
2
100
AcDbEntity
  8
HIDS
100
AcDbLine
 10
1417.856581585871
 20
188.1751294971645
 30
0.0
 11
1417.856581585871
 21
186.0084628304975
 31
0.0
  0
LINE
  5
13B9
330
2
100
AcDbEntity
  8
HIDS
100
AcDbLine
 10
1413.689914919203
 20
188.1751294971645
 30
0.0
 11
1413.689914919203
 21
186.0084628304975
 31
0.0
  0
LINE
  5
13BA
330
2
100
AcDbEntity
  8
HIDS
100
AcDbLine
 10
1413.273248252537
 20
190.2584628304975
 30
0.0
 11
1413.273248252537
 21
186.0084628304975
 31
0.0
  0
LINE
  5
13BB
330
2
100
AcDbEntity
  8
HIDS
100
AcDbLine
 10
1418.273248252537
 20
176.2584628304975
 30
0.0
 11
1413.273248252537
 21
176.2584628304975
 31
0.0
  0
LINE
  5
13BC
330
2
100
AcDbEntity
  8
HIDS
100
AcDbLine
 10
1418.273248252537
 20
188.1751294971645
 30
0.0
 11
1413.273248252537
 21
188.1751294971645
 31
0.0
  0
LINE
  5
13BD
330
2
100
AcDbEntity
  8
0
100
AcDbLine
 10
1411.523248252537
 20
190.2584628304975
 30
0.0
 11
1411.666639448252
 21
190.2584628304975
 31
0.0
  0
LINE
  5
13BE
330
2
100
AcDbEntity
  8
HIDS
100
AcDbLine
 10
1413.273248252537
 20
190.2584628304975
 30
0.0
 11
1413.689914919203
 21
188.1751294971645
 31
0.0
  0
LINE
  5
13BF
330
2
100
AcDbEntity
  8
HIDS
100
AcDbLine
 10
1418.273248252537
 20
190.2584628304975
 30
0.0
 11
1417.856581585871
 21
188.1751294971645
 31
0.0
  0
LINE
  5
13C0
330
2
100
AcDbEntity
  8
0
100
AcDbLine
 10
1411.523248252537
 20
194.9584628304982
 30
0.0
 11
1413.569396939532
 21
194.9584628304982
 31
0.0
  0
LINE
  5
13C1
330
2
100
AcDbEntity
  8
HIDS
100
AcDbLine
 10
1419.503633010266
 20
195.2584628304975
 30
0.0
 11
1413.742026922285
 21
195.2584628304975
 31
0.0
  0
LINE
  5
13C2
330
2
100
AcDbEntity
  8
0
100
AcDbLine
 10
1411.523248252537
 20
194.9584628304982
 30
0.0
 11
1412.042863494807
 21
195.2584628304975
 31
0.0
  0
LINE
  5
13C3
330
2
100
AcDbEntity
  8
HIDS
100
AcDbLine
 10
1419.503633010266
 20
195.2584628304975
 30
0.0
 11
1420.023248252537
 21
194.9584628304982
 31
0.0
  0
LINE
  5
13C4
330
2
100
AcDbEntity
  8
HIDS
100
AcDbLine
 10
1411.666639448252
 20
190.2584628304975
 30
0.0
 11
1420.773248252537
 21
190.2584628304975
 31
0.0
  0
LINE
  5
13C5
330
2
100
AcDbEntity
  8
0
100
AcDbLine
 10
1413.742026922285
 20
195.2584628304975
 30
0.0
 11
1412.042863494807
 21
195.2584628304975
 31
0.0
  0
LINE
  5
13C6
330
2
100
AcDbEntity
  8
HIDS
100
AcDbLine
 10
1413.569396939532
 20
194.9584628304982
 30
0.0
 11
1420.023248252537
 21
194.9584628304982
 31
0.0
  0
LINE
  5
13C7
330
2
100
AcDbEntity
  8
0
100
AcDbLine
 10
1418.273248252537
 20
186.0084628304975
 30
0.0
 11
1418.273248252537
 21
184.5084628304984
 31
0.0
  0
LINE
  5
13C8
330
2
100
AcDbEntity
  8
HOJO
100
AcDbLine
 10
1417.856581585871
 20
186.0084628304975
 30
0.0
 11
1417.856581585871
 21
184.5084628304984
 31
0.0
  0
LINE
  5
13C9
330
2
100
AcDbEntity
  8
HOJO
100
AcDbLine
 10
1413.689914919203
 20
186.0084628304975
 30
0.0
 11
1413.689914919203
 21
184.5084628304984
 31
0.0
  0
LINE
  5
13CA
330
2
100
AcDbEntity
  8
0
100
AcDbLine
 10
1413.273248252537
 20
186.0084628304975
 30
0.0
 11
1413.273248252537
 21
184.5084628304975
 31
0.0
  0
LINE
  5
13CB
330
2
100
AcDbEntity
  8
HIDS
100
AcDbLine
 10
1413.273248252537
 20
184.5084628304975
 30
0.0
 11
1413.273248252537
 21
176.2584628304975
 31
0.0
  0
LINE
  5
13CC
330
2
100
AcDbEntity
  8
HIDS
100
AcDbLine
 10
1413.689914919203
 20
184.5084628304975
 30
0.0
 11
1413.689914919203
 21
175.8417961638314
 31
0.0
  0
CIRCLE
  5
13CD
330
2
100
AcDbEntity
  8
0
100
AcDbCircle
 10
1430.773248252537
 20
185.2584628304975
 30
0.0
 40
19.75
  0
ARC
  5
13CE
330
2
100
AcDbEntity
  8
0
100
AcDbCircle
 10
1430.773248252537
 20
185.2584628304975
 30
0.0
 40
9.154700538379415
100
AcDbArc
 50
4.699230675929916
 51
175.30076932407
  0
ARC
  5
13CF
330
2
100
AcDbEntity
  8
0
100
AcDbCircle
 10
1430.773248252537
 20
185.2584628304975
 30
0.0
 40
9.154700538379415
100
AcDbArc
 50
184.6992306759299
 51
355.30076932407
  0
LINE
  5
13D0
330
2
100
AcDbEntity
  8
0
100
AcDbLine
 10
1410.898249275989
 20
231.333736896935
 30
0.0
 11
1420.648249275989
 21
231.333736896935
 31
0.0
  0
ARC
  5
13D1
330
2
100
AcDbEntity
  8
0
100
AcDbCircle
 10
1410.898249275989
 20
227.083736896935
 30
0.0
 40
4.25
100
AcDbArc
 50
90.0
 51
177.6437927484533
  0
ARC
  5
13D2
330
2
100
AcDbEntity
  8
0
100
AcDbCircle
 10
1420.398249275989
 20
227.083736896935
 30
0.0
 40
4.25
100
AcDbArc
 50
2.356207251546686
 51
90.0
  0
LINE
  5
13D3
330
2
100
AcDbEntity
  8
0
100
AcDbLine
 10
104.316538013611
 20
227.2584628305821
 30
0.0
 11
104.316538013611
 21
143.2584628305884
 31
0.0
  0
LINE
  5
13D4
330
2
100
AcDbEntity
  8
0
100
AcDbLine
 10
102.316538013611
 20
225.3282830902981
 30
0.0
 11
102.3165380136128
 21
145.1886425708725
 31
0.0
  0
LINE
  5
13D5
330
2
100
AcDbEntity
  8
0
100
AcDbLine
 10
138.3165380136119
 20
235.1362486031284
 30
0.0
 11
138.3165380136128
 21
135.3806770580421
 31
0.0
  0
LINE
  5
13D6
330
2
100
AcDbEntity
  8
0
100
AcDbLine
 10
102.3165380136128
 20
145.1886425708725
 30
0.0
 11
104.3165380136147
 21
143.2584628305857
 31
0.0
  0
LINE
  5
13D7
330
2
100
AcDbEntity
  8
0
100
AcDbLine
 10
98.31653801361472
 20
145.2584628305857
 30
0.0
 11
102.3165380136128
 21
145.1886425708725
 31
0.0
  0
LINE
  5
13D8
330
2
100
AcDbEntity
  8
0
100
AcDbLine
 10
153.3165380136147
 20
134.2584628305857
 30
0.0
 11
139.3078114781151
 21
134.3807151349773
 31
0.0
  0
LINE
  5
13D9
330
2
100
AcDbEntity
  8
0
100
AcDbLine
 10
104.3165380136147
 20
143.2584628305857
 30
0.0
 11
131.3165380136147
 21
143.1013814256893
 31
0.0
  0
LINE
  5
13DA
330
2
100
AcDbEntity
  8
0
100
AcDbLine
 10
102.316538013611
 20
225.3282830902981
 30
0.0
 11
104.316538013611
 21
227.2584628305821
 31
0.0
  0
LINE
  5
13DB
330
2
100
AcDbEntity
  8
0
100
AcDbLine
 10
98.31653801361472
 20
225.2584628305849
 30
0.0
 11
102.316538013611
 21
225.3282830902981
 31
0.0
  0
LINE
  5
13DC
330
2
100
AcDbEntity
  8
0
100
AcDbLine
 10
153.3165380136147
 20
236.2584628305849
 30
0.0
 11
139.3078114781151
 21
236.1362105261923
 31
0.0
  0
LINE
  5
13DD
330
2
100
AcDbEntity
  8
0
100
AcDbLine
 10
103.3166903409314
 20
227.2526458869888
 30
0.0
 11
131.3165380136147
 21
227.4155442354804
 31
0.0
  0
ARC
  5
13DE
330
2
100
AcDbEntity
  8
0
100
AcDbCircle
 10
139.3165380136147
 20
235.1362486031284
 30
0.0
 40
1.0
100
AcDbArc
 50
90.49999999996549
 51
180.0
  0
ARC
  5
13DF
330
2
100
AcDbEntity
  8
0
100
AcDbCircle
 10
139.3165380136129
 20
135.3806770580421
 30
0.0
 40
1.0
100
AcDbArc
 50
180.0
 51
269.5000000000345
  0
LINE
  5
13E0
330
2
100
AcDbEntity
  8
0
100
AcDbLine
 10
98.31653801361472
 20
225.2584628305849
 30
0.0
 11
98.31653801361472
 21
145.2584628305857
 31
0.0
  0
LINE
  5
13E1
330
2
100
AcDbEntity
  8
0
100
AcDbLine
 10
131.7165380136143
 20
222.6884628305851
 30
0.0
 11
131.3165380136147
 21
223.3812831536133
 31
0.0
  0
LINE
  5
13E2
330
2
100
AcDbEntity
  8
0
100
AcDbLine
 10
131.7165380136143
 20
222.6884628305851
 30
0.0
 11
131.7165380136143
 21
232.6884628305851
 31
0.0
  0
LINE
  5
13E3
330
2
100
AcDbEntity
  8
0
100
AcDbLine
 10
137.3165380136147
 20
222.6884628305851
 30
0.0
 11
137.3165380136147
 21
232.6884628305851
 31
0.0
  0
LINE
  5
13E4
330
2
100
AcDbEntity
  8
0
100
AcDbLine
 10
137.3165380136147
 20
232.6884628305851
 30
0.0
 11
138.3165380136147
 21
232.6884628305851
 31
0.0
  0
LINE
  5
13E5
330
2
100
AcDbEntity
  8
0
100
AcDbLine
 10
138.3165380136147
 20
232.6884628305851
 30
0.0
 11
138.3165380136147
 21
222.6884628305851
 31
0.0
  0
LINE
  5
13E6
330
2
100
AcDbEntity
  8
0
100
AcDbLine
 10
138.3165380136147
 20
222.6884628305851
 30
0.0
 11
137.3165380136147
 21
222.6884628305851
 31
0.0
  0
LINE
  5
13E7
330
2
100
AcDbEntity
  8
0
100
AcDbLine
 10
137.3165380136147
 20
222.6884628305851
 30
0.0
 11
137.3165380136147
 21
232.6884628305851
 31
0.0
  0
LINE
  5
13E8
330
2
100
AcDbEntity
  8
0
100
AcDbLine
 10
131.7165380136143
 20
222.6884628305851
 30
0.0
 11
137.3165380136147
 21
222.6884628305851
 31
0.0
  0
LINE
  5
13E9
330
2
100
AcDbEntity
  8
0
100
AcDbLine
 10
131.3165380136147
 20
231.9956425075579
 30
0.0
 11
131.3165380136147
 21
223.3812831536133
 31
0.0
  0
LINE
  5
13EA
330
2
100
AcDbEntity
  8
0
100
AcDbLine
 10
137.3165380136147
 20
232.6884628305851
 30
0.0
 11
131.7165380136143
 21
232.6884628305851
 31
0.0
  0
LINE
  5
13EB
330
2
100
AcDbEntity
  8
0
100
AcDbLine
 10
131.7165380136143
 20
232.6884628305851
 30
0.0
 11
131.3165380136147
 21
231.9956425075579
 31
0.0
  0
LINE
  5
13EC
330
2
100
AcDbEntity
  8
CENTER
  6
CENS
100
AcDbLine
 10
158.3165380136128
 20
227.6884628305852
 30
0.0
 11
126.3165380136147
 21
227.6884628305852
 31
0.0
  0
LINE
  5
13ED
330
2
100
AcDbEntity
  8
0
100
AcDbLine
 10
131.7165380136143
 20
147.8284628305854
 30
0.0
 11
131.3165380136147
 21
147.1356425075572
 31
0.0
  0
LINE
  5
13EE
330
2
100
AcDbEntity
  8
0
100
AcDbLine
 10
131.7165380136143
 20
147.8284628305854
 30
0.0
 11
131.7165380136143
 21
137.8284628305854
 31
0.0
  0
LINE
  5
13EF
330
2
100
AcDbEntity
  8
0
100
AcDbLine
 10
137.3165380136147
 20
147.8284628305854
 30
0.0
 11
137.3165380136147
 21
137.8284628305854
 31
0.0
  0
LINE
  5
13F0
330
2
100
AcDbEntity
  8
0
100
AcDbLine
 10
137.3165380136147
 20
137.8284628305854
 30
0.0
 11
138.3165380136147
 21
137.8284628305854
 31
0.0
  0
LINE
  5
13F1
330
2
100
AcDbEntity
  8
0
100
AcDbLine
 10
138.3165380136147
 20
137.8284628305854
 30
0.0
 11
138.3165380136147
 21
147.8284628305854
 31
0.0
  0
LINE
  5
13F2
330
2
100
AcDbEntity
  8
0
100
AcDbLine
 10
138.3165380136147
 20
147.8284628305854
 30
0.0
 11
137.3165380136147
 21
147.8284628305854
 31
0.0
  0
LINE
  5
13F3
330
2
100
AcDbEntity
  8
0
100
AcDbLine
 10
137.3165380136147
 20
147.8284628305854
 30
0.0
 11
137.3165380136147
 21
137.8284628305854
 31
0.0
  0
LINE
  5
13F4
330
2
100
AcDbEntity
  8
0
100
AcDbLine
 10
131.7165380136143
 20
147.8284628305854
 30
0.0
 11
137.3165380136147
 21
147.8284628305854
 31
0.0
  0
LINE
  5
13F5
330
2
100
AcDbEntity
  8
0
100
AcDbLine
 10
131.3165380136147
 20
138.5212831536127
 30
0.0
 11
131.3165380136147
 21
147.1356425075572
 31
0.0
  0
LINE
  5
13F6
330
2
100
AcDbEntity
  8
0
100
AcDbLine
 10
137.3165380136147
 20
137.8284628305854
 30
0.0
 11
131.7165380136143
 21
137.8284628305854
 31
0.0
  0
LINE
  5
13F7
330
2
100
AcDbEntity
  8
0
100
AcDbLine
 10
131.7165380136143
 20
137.8284628305854
 30
0.0
 11
131.3165380136147
 21
138.5212831536127
 31
0.0
  0
LINE
  5
13F8
330
2
100
AcDbEntity
  8
CENTER
  6
CENS
100
AcDbLine
 10
158.3165380136128
 20
142.8284628305854
 30
0.0
 11
126.3165380136147
 21
142.8284628305854
 31
0.0
  0
LINE
  5
13F9
330
2
100
AcDbEntity
  8
0
100
AcDbLine
 10
107.2935827267251
 20
231.2761413501421
 30
0.0
 11
117.2934168629985
 21
231.3337368970223
 31
0.0
  0
ARC
  5
13FA
330
2
100
AcDbEntity
  8
0
100
AcDbCircle
 10
117.3164550817514
 20
227.3338032425126
 30
0.0
 40
4.000000000000014
100
AcDbArc
 50
0.3300000000122996
 51
90.32999999998624
  0
ARC
  5
13FB
330
2
100
AcDbEntity
  8
0
100
AcDbCircle
 10
107.316620945478
 20
227.2762076956332
 30
0.0
 40
4.000000000000014
100
AcDbArc
 50
90.32999999998624
 51
180.3299999999862
  0
LINE
  5
13FC
330
2
100
AcDbEntity
  8
CENTER
  6
CENS
100
AcDbLine
 10
112.3165380136147
 20
236.2008627041031
 30
0.0
 11
112.3165380136147
 21
207.8409367017384
 31
0.0
  0
LINE
  5
13FD
330
2
100
AcDbEntity
  8
0
100
AcDbLine
 10
1129.698537390553
 20
143.2584628305857
 30
0.0
 11
1129.698537390553
 21
185.2584628305848
 31
0.0
  0
LINE
  5
13FE
330
2
100
AcDbEntity
  8
0
100
AcDbLine
 10
1131.698537390555
 20
145.1886425708725
 30
0.0
 11
1131.698537390555
 21
185.2584628305848
 31
0.0
  0
LINE
  5
13FF
330
2
100
AcDbEntity
  8
HIDS
100
AcDbLine
 10
1420.773248252537
 20
190.2584628304975
 30
0.0
 11
1420.773248252537
 21
202.2896841607498
 31
0.0
  0
CIRCLE
  5
1400
330
2
100
AcDbEntity
  8
0
100
AcDbCircle
 10
1430.773248252537
 20
185.2584628304975
 30
0.0
 40
29.0
  0
TEXT
  5
1402
330
2
100
AcDbEntity
  8
TITLE
100
AcDbText
 10
475.6114576755253
 20
601.06322844049
 30
0.0
 40
10.0
  1
AFCZ32L-40~60M750S1
100
AcDbText
  0
TEXT
  5
1403
330
2
100
AcDbEntity
  8
TITLE
100
AcDbText
 10
475.6114576755253
 20
586.0632284404901
 30
0.0
 40
10.0
  1
AFCZ32L-40~60L750S1
100
AcDbText
  0
LINE
  5
1ECA
330
2
100
AcDbEntity
  8
0
100
AcDbLine
 10
485.3065361042972
 20
142.7584628305853
 30
0.0
 11
486.6065361042965
 21
142.7584628305853
 31
0.0
  0
LINE
  5
1ECB
330
2
100
AcDbEntity
  8
0
100
AcDbLine
 10
485.3065361043008
 20
227.7584628305853
 30
0.0
 11
486.6065361043001
 21
227.7584628305853
 31
0.0
  0
LINE
  5
1ECC
330
2
100
AcDbEntity
  8
CENTER
100
AcDbLine
 10
469.3065361043009
 20
185.2584628305846
 30
0.0
 11
695.3065327754898
 21
185.2584628305853
 31
0.0
  0
LINE
  5
1ECD
330
2
100
AcDbEntity
  8
0
100
AcDbLine
 10
241.8491688989611
 20
236.2584628305846
 30
0.0
 11
206.2865600136133
 21
236.2584628305846
 31
0.0
  0
LINE
  5
1ECE
330
2
100
AcDbEntity
  8
0
100
AcDbLine
 10
241.8491688989611
 20
134.2584628305846
 30
0.0
 11
206.2865600136133
 21
134.2584628305846
 31
0.0
  0
LINE
  5
1ED0
330
2
100
AcDbEntity
  8
0
100
AcDbLine
 10
198.2865600136133
 20
142.2584628305846
 30
0.0
 11
198.2865600136133
 21
228.2584628305846
 31
0.0
  0
LINE
  5
1ED1
330
2
100
AcDbEntity
  8
0
100
AcDbLine
 10
180.8165380136138
 20
148.2584628305846
 30
0.0
 11
180.8165380136138
 21
222.2584628305846
 31
0.0
  0
LINE
  5
1ED3
330
2
100
AcDbEntity
  8
0
100
AcDbLine
 10
168.8165380136156
 20
135.7584628305846
 30
0.0
 11
168.8165380136156
 21
234.7584628305846
 31
0.0
  0
ARC
  5
1ED4
330
2
100
AcDbEntity
  8
0
100
AcDbCircle
 10
173.8165380136156
 20
140.2584628305846
 30
0.0
 40
5.0
100
AcDbArc
 50
90.0
 51
180.0
  0
ARC
  5
1ED5
330
2
100
AcDbEntity
  8
0
100
AcDbCircle
 10
166.8165380136137
 20
136.2584628305846
 30
0.0
 40
2.0
100
AcDbArc
 50
270.0
 51
0.0
  0
ARC
  5
1ED6
330
2
100
AcDbEntity
  8
0
100
AcDbCircle
 10
166.8165380136137
 20
135.7584628305846
 30
0.0
 40
2.0
100
AcDbArc
 50
270.0
 51
0.0
  0
LINE
  5
1ED7
330
2
100
AcDbEntity
  8
0
100
AcDbLine
 10
153.3165380136138
 20
134.2584628305846
 30
0.0
 11
166.8165380136137
 21
134.2584628305846
 31
0.0
  0
LINE
  5
1ED8
330
2
100
AcDbEntity
  8
0
100
AcDbLine
 10
153.3165380136138
 20
133.7584628305846
 30
0.0
 11
166.8165380136137
 21
133.7584628305846
 31
0.0
  0
LINE
  5
1ED9
330
2
100
AcDbEntity
  8
0
100
AcDbLine
 10
203.2865600136133
 20
140.5264120230165
 30
0.0
 11
206.2865600136133
 21
138.7943612154465
 31
0.0
  0
ARC
  5
1EDA
330
2
100
AcDbEntity
  8
0
100
AcDbCircle
 10
206.2865600136133
 20
142.2584628305846
 30
0.0
 40
8.0
100
AcDbArc
 50
180.0
 51
270.0
  0
LINE
  5
1EDB
330
2
100
AcDbEntity
  8
0
100
AcDbLine
 10
203.2865600136133
 20
143.9905136381546
 30
0.0
 11
206.2865600136133
 21
145.7225644457228
 31
0.0
  0
LINE
  5
1EDC
330
2
100
AcDbEntity
  8
0
100
AcDbLine
 10
206.2865600136151
 20
150.7584628305846
 30
0.0
 11
200.2865600136133
 21
150.758462830581
 31
0.0
  0
CIRCLE
  5
1EDD
330
2
100
AcDbEntity
  8
0
100
AcDbCircle
 10
206.2865600136133
 20
142.2584628305846
 30
0.0
 40
5.63397459621558
  0
CIRCLE
  5
1EDE
330
2
100
AcDbEntity
  8
0
100
AcDbCircle
 10
206.2865600136133
 20
142.2584628305846
 30
0.0
 40
6.5
  0
LINE
  5
1EDF
330
2
100
AcDbEntity
  8
CENTER
100
AcDbLine
 10
217.0365600136133
 20
142.2584628305846
 30
0.0
 11
195.5365600136133
 21
142.2584628305864
 31
0.0
  0
LINE
  5
1EE0
330
2
100
AcDbEntity
  8
0
100
AcDbLine
 10
203.2865600136133
 20
143.9905136381546
 30
0.0
 11
203.2865600136133
 21
140.5264120230165
 31
0.0
  0
ARC
  5
1EE1
330
2
100
AcDbEntity
  8
0
100
AcDbCircle
 10
193.2865600136151
 20
152.2584628305846
 30
0.0
 40
5.0
100
AcDbArc
 50
0.0
 51
90.0
  0
ARC
  5
1EE2
330
2
100
AcDbEntity
  8
0
100
AcDbCircle
 10
195.2865600136151
 20
149.2584628305846
 30
0.0
 40
3.0
100
AcDbArc
 50
0.0
 51
90.0
  0
LINE
  5
1EE3
330
2
100
AcDbEntity
  8
0
100
AcDbLine
 10
177.8165380136138
 20
145.2584628305846
 30
0.0
 11
173.8165380136156
 21
145.2584628305846
 31
0.0
  0
ARC
  5
1EE4
330
2
100
AcDbEntity
  8
0
100
AcDbCircle
 10
183.8165380136138
 20
149.2584628305846
 30
0.0
 40
3.0
100
AcDbArc
 50
90.0
 51
180.0
  0
ARC
  5
1EE5
330
2
100
AcDbEntity
  8
0
100
AcDbCircle
 10
185.8165380136138
 20
152.2584628305846
 30
0.0
 40
5.0
100
AcDbArc
 50
90.0
 51
180.0
  0
ARC
  5
1EE6
330
2
100
AcDbEntity
  8
0
100
AcDbCircle
 10
177.8165380136138
 20
148.2584628305846
 30
0.0
 40
3.0
100
AcDbArc
 50
270.0
 51
0.0
  0
LINE
  5
1EE7
330
2
100
AcDbEntity
  8
0
100
AcDbLine
 10
193.2865600136151
 20
157.2584628305846
 30
0.0
 11
185.8165380136138
 21
157.2584628305846
 31
0.0
  0
LINE
  5
1EE8
330
2
100
AcDbEntity
  8
0
100
AcDbLine
 10
195.2865600136151
 20
152.2584628305846
 30
0.0
 11
183.8165380136138
 21
152.2584628305846
 31
0.0
  0
ARC
  5
1EE9
330
2
100
AcDbEntity
  8
0
100
AcDbCircle
 10
200.2865600136133
 20
152.758462830581
 30
0.0
 40
2.0
100
AcDbArc
 50
180.0
 51
270.0
  0
CIRCLE
  5
1EEA
330
2
100
AcDbEntity
  8
HOJO
100
AcDbCircle
 10
220.7865600136133
 20
139.7584628305846
 30
0.0
 40
2.5
  0
CIRCLE
  5
1EEB
330
2
100
AcDbEntity
  8
0
100
AcDbCircle
 10
220.7865600136133
 20
139.7584628305846
 30
0.0
 40
2.0
  0
LINE
  5
1EEC
330
2
100
AcDbEntity
  8
0
100
AcDbLine
 10
214.7865600136205
 20
142.2584628305901
 30
0.0
 11
214.7865600136224
 21
136.2584628305846
 31
0.0
  0
CIRCLE
  5
1EED
330
2
100
AcDbEntity
  8
0
100
AcDbCircle
 10
220.7865600136133
 20
139.7584628305846
 30
0.0
 40
4.0
  0
CIRCLE
  5
1EEE
330
2
100
AcDbEntity
  8
0
100
AcDbCircle
 10
220.7865600136133
 20
139.7584628305846
 30
0.0
 40
3.5
  0
LINE
  5
1EEF
330
2
100
AcDbEntity
  8
CENTER
100
AcDbLine
 10
220.7865600136133
 20
131.7584628305846
 30
0.0
 11
220.7865600136133
 21
147.7584628305846
 31
0.0
  0
LINE
  5
1EF0
330
2
100
AcDbEntity
  8
CENTER
100
AcDbLine
 10
228.7865600136133
 20
139.7584628305846
 30
0.0
 11
212.7865600136133
 21
139.7584628305846
 31
0.0
  0
ARC
  5
1EF1
330
2
100
AcDbEntity
  8
0
100
AcDbCircle
 10
216.7865600136224
 20
136.2584628305846
 30
0.0
 40
2.0
100
AcDbArc
 50
180.0
 51
270.0
  0
LINE
  5
1EF2
330
2
100
AcDbEntity
  8
0
100
AcDbLine
 10
209.2865600136133
 20
140.5264120230165
 30
0.0
 11
209.2865600136133
 21
143.9905136381546
 31
0.0
  0
LINE
  5
1EF3
330
2
100
AcDbEntity
  8
CENTER
100
AcDbLine
 10
206.2865600136133
 20
131.5084628305846
 30
0.0
 11
206.2865600136151
 21
153.0084628305846
 31
0.0
  0
LINE
  5
1EF4
330
2
100
AcDbEntity
  8
0
100
AcDbLine
 10
206.2865600136133
 20
138.7943612154465
 30
0.0
 11
209.2865600136133
 21
140.5264120230165
 31
0.0
  0
ARC
  5
1EF5
330
2
100
AcDbEntity
  8
0
100
AcDbCircle
 10
206.2865600136206
 20
142.2584628305846
 30
0.0
 40
8.5
100
AcDbArc
 50
0.0
 51
90.0
  0
LINE
  5
1EF6
330
2
100
AcDbEntity
  8
0
100
AcDbLine
 10
206.2865600136133
 20
145.7225644457228
 30
0.0
 11
209.2865600136133
 21
143.9905136381546
 31
0.0
  0
ARC
  5
1EF7
330
2
100
AcDbEntity
  8
0
100
AcDbCircle
 10
173.8165380136156
 20
230.2584628305846
 30
0.0
 40
5.0
100
AcDbArc
 50
180.0
 51
270.0
  0
ARC
  5
1EF8
330
2
100
AcDbEntity
  8
0
100
AcDbCircle
 10
166.8165380136156
 20
234.2584628305846
 30
0.0
 40
2.0
100
AcDbArc
 50
0.0
 51
90.0
  0
ARC
  5
1EF9
330
2
100
AcDbEntity
  8
0
100
AcDbCircle
 10
166.8165380136156
 20
234.7584628305846
 30
0.0
 40
2.0
100
AcDbArc
 50
0.0
 51
90.0
  0
LINE
  5
1EFA
330
2
100
AcDbEntity
  8
0
100
AcDbLine
 10
153.3165380136138
 20
236.2584628305846
 30
0.0
 11
166.8165380136156
 21
236.2584628305846
 31
0.0
  0
LINE
  5
1EFB
330
2
100
AcDbEntity
  8
0
100
AcDbLine
 10
153.3165380136138
 20
236.7584628305846
 30
0.0
 11
166.8165380136156
 21
236.7584628305846
 31
0.0
  0
ARC
  5
1EFC
330
2
100
AcDbEntity
  8
0
100
AcDbCircle
 10
193.2865600136151
 20
218.2584628305846
 30
0.0
 40
5.0
100
AcDbArc
 50
270.0
 51
0.0
  0
ARC
  5
1EFD
330
2
100
AcDbEntity
  8
0
100
AcDbCircle
 10
185.8165380136138
 20
218.2584628305846
 30
0.0
 40
5.0
100
AcDbArc
 50
180.0
 51
270.0
  0
ARC
  5
1EFE
330
2
100
AcDbEntity
  8
0
100
AcDbCircle
 10
195.2865600136133
 20
179.7584628305846
 30
0.0
 40
3.0
100
AcDbArc
 50
0.0
 51
90.0
  0
ARC
  5
1EFF
330
2
100
AcDbEntity
  8
0
100
AcDbCircle
 10
183.8165380136138
 20
179.7584628305846
 30
0.0
 40
3.0
100
AcDbArc
 50
90.0
 51
180.0
  0
LINE
  5
1F00
330
2
100
AcDbEntity
  8
0
100
AcDbLine
 10
195.2865600136133
 20
182.7584628305846
 30
0.0
 11
183.8165380136138
 21
182.7584628305846
 31
0.0
  0
ARC
  5
1F01
330
2
100
AcDbEntity
  8
0
100
AcDbCircle
 10
195.2865600136133
 20
190.7584628305846
 30
0.0
 40
3.0
100
AcDbArc
 50
270.0
 51
0.0
  0
ARC
  5
1F02
330
2
100
AcDbEntity
  8
0
100
AcDbCircle
 10
183.8165380136138
 20
190.7584628305846
 30
0.0
 40
3.0
100
AcDbArc
 50
180.0
 51
270.0
  0
LINE
  5
1F03
330
2
100
AcDbEntity
  8
0
100
AcDbLine
 10
195.2865600136133
 20
187.7584628305846
 30
0.0
 11
183.8165380136138
 21
187.7584628305846
 31
0.0
  0
LINE
  5
1F04
330
2
100
AcDbEntity
  8
0
100
AcDbLine
 10
193.2865600136151
 20
213.2584628305846
 30
0.0
 11
185.8165380136138
 21
213.2584628305846
 31
0.0
  0
LINE
  5
1F05
330
2
100
AcDbEntity
  8
0
100
AcDbLine
 10
203.2865600136206
 20
226.5264120230165
 30
0.0
 11
206.2865600136206
 21
224.7943612154483
 31
0.0
  0
LINE
  5
1F06
330
2
100
AcDbEntity
  8
0
100
AcDbLine
 10
206.2865600136151
 20
219.7584628305846
 30
0.0
 11
200.2865600136133
 21
219.7584628305883
 31
0.0
  0
LINE
  5
1F07
330
2
100
AcDbEntity
  8
0
100
AcDbLine
 10
203.2865600136206
 20
229.9905136381546
 30
0.0
 11
206.2865600136206
 21
231.7225644457228
 31
0.0
  0
ARC
  5
1F08
330
2
100
AcDbEntity
  8
0
100
AcDbCircle
 10
206.2865600136133
 20
228.2584628305846
 30
0.0
 40
8.0
100
AcDbArc
 50
90.0
 51
180.0
  0
CIRCLE
  5
1F09
330
2
100
AcDbEntity
  8
0
100
AcDbCircle
 10
206.2865600136206
 20
228.2584628305846
 30
0.0
 40
5.63397459621558
  0
CIRCLE
  5
1F0A
330
2
100
AcDbEntity
  8
0
100
AcDbCircle
 10
206.2865600136206
 20
228.2584628305846
 30
0.0
 40
6.5
  0
LINE
  5
1F0B
330
2
100
AcDbEntity
  8
CENTER
100
AcDbLine
 10
217.0365600136133
 20
228.2584628305865
 30
0.0
 11
195.5365600136133
 21
228.2584628305846
 31
0.0
  0
LINE
  5
1F0C
330
2
100
AcDbEntity
  8
0
100
AcDbLine
 10
203.2865600136206
 20
229.9905136381546
 30
0.0
 11
203.2865600136206
 21
226.5264120230165
 31
0.0
  0
ARC
  5
1F0D
330
2
100
AcDbEntity
  8
0
100
AcDbCircle
 10
195.2865600136151
 20
221.2584628305847
 30
0.0
 40
3.0
100
AcDbArc
 50
270.0
 51
0.0
  0
LINE
  5
1F0E
330
2
100
AcDbEntity
  8
0
100
AcDbLine
 10
177.8165380136138
 20
225.2584628305846
 30
0.0
 11
173.8165380136156
 21
225.2584628305846
 31
0.0
  0
ARC
  5
1F0F
330
2
100
AcDbEntity
  8
0
100
AcDbCircle
 10
177.8165380136138
 20
222.2584628305846
 30
0.0
 40
3.0
100
AcDbArc
 50
0.0
 51
90.0
  0
ARC
  5
1F10
330
2
100
AcDbEntity
  8
0
100
AcDbCircle
 10
183.8165380136138
 20
221.2584628305847
 30
0.0
 40
3.0
100
AcDbArc
 50
180.0
 51
270.0
  0
LINE
  5
1F11
330
2
100
AcDbEntity
  8
0
100
AcDbLine
 10
195.2865600136151
 20
218.2584628305846
 30
0.0
 11
183.8165380136138
 21
218.2584628305846
 31
0.0
  0
ARC
  5
1F12
330
2
100
AcDbEntity
  8
0
100
AcDbCircle
 10
200.2865600136133
 20
217.7584628305883
 30
0.0
 40
2.0
100
AcDbArc
 50
89.99999999994789
 51
180.0
  0
LINE
  5
1F13
330
2
100
AcDbEntity
  8
CENTER
100
AcDbLine
 10
220.7865600136133
 20
238.7584628305846
 30
0.0
 11
220.7865600136133
 21
222.7584628305846
 31
0.0
  0
LINE
  5
1F14
330
2
100
AcDbEntity
  8
0
100
AcDbLine
 10
209.2865600136206
 20
226.5264120230165
 30
0.0
 11
209.2865600136206
 21
229.9905136381546
 31
0.0
  0
CIRCLE
  5
1F15
330
2
100
AcDbEntity
  8
0
100
AcDbCircle
 10
220.7865600136133
 20
230.7584628305846
 30
0.0
 40
4.0
  0
CIRCLE
  5
1F16
330
2
100
AcDbEntity
  8
0
100
AcDbCircle
 10
220.7865600136133
 20
230.7584628305846
 30
0.0
 40
2.0
  0
CIRCLE
  5
1F17
330
2
100
AcDbEntity
  8
HOJO
100
AcDbCircle
 10
220.7865600136133
 20
230.7584628305846
 30
0.0
 40
2.5
  0
LINE
  5
1F18
330
2
100
AcDbEntity
  8
0
100
AcDbLine
 10
214.7865600136205
 20
228.2584628305792
 30
0.0
 11
214.7865600136224
 21
234.2584628305865
 31
0.0
  0
ARC
  5
1F19
330
2
100
AcDbEntity
  8
0
100
AcDbCircle
 10
216.7865600136224
 20
234.2584628305846
 30
0.0
 40
2.0
100
AcDbArc
 50
90.0
 51
179.9999999998957
  0
CIRCLE
  5
1F1A
330
2
100
AcDbEntity
  8
0
100
AcDbCircle
 10
220.7865600136133
 20
230.7584628305846
 30
0.0
 40
3.5
  0
LINE
  5
1F1B
330
2
100
AcDbEntity
  8
CENTER
100
AcDbLine
 10
228.7865600136133
 20
230.7584628305864
 30
0.0
 11
212.7865600136133
 21
230.7584628305846
 31
0.0
  0
LINE
  5
1F1C
330
2
100
AcDbEntity
  8
CENTER
100
AcDbLine
 10
206.2865600136133
 20
239.0084628305846
 30
0.0
 11
206.2865600136151
 21
217.5084628305846
 31
0.0
  0
ARC
  5
1F1D
330
2
100
AcDbEntity
  8
0
100
AcDbCircle
 10
206.2865600136206
 20
228.2584628305846
 30
0.0
 40
8.5
100
AcDbArc
 50
269.9999999999478
 51
359.9999999998958
  0
LINE
  5
1F1E
330
2
100
AcDbEntity
  8
0
100
AcDbLine
 10
206.2865600136206
 20
224.7943612154483
 30
0.0
 11
209.2865600136206
 21
226.5264120230165
 31
0.0
  0
LINE
  5
1F1F
330
2
100
AcDbEntity
  8
0
100
AcDbLine
 10
206.2865600136206
 20
231.7225644457228
 30
0.0
 11
209.2865600136206
 21
229.9905136381546
 31
0.0
  0
CIRCLE
  5
1F21
330
2
100
AcDbEntity
  8
0
100
AcDbCircle
 10
317.2865600136133
 20
185.2584628305846
 30
0.0
 40
45.0
  0
CIRCLE
  5
1F22
330
2
100
AcDbEntity
  8
0
100
AcDbCircle
 10
317.2865600136133
 20
185.2584628305846
 30
0.0
 40
44.5
  0
CIRCLE
  5
1F23
330
2
100
AcDbEntity
  8
0
100
AcDbCircle
 10
317.2865600136133
 20
185.2584628305846
 30
0.0
 40
42.5
  0
CIRCLE
  5
1F24
330
2
100
AcDbEntity
  8
0
100
AcDbCircle
 10
317.2865600136133
 20
185.2584628305846
 30
0.0
 40
36.57739999999999
  0
CIRCLE
  5
1F25
330
2
100
AcDbEntity
  8
0
100
AcDbCircle
 10
317.2865600136133
 20
185.2584628305846
 30
0.0
 40
41.9226
  0
CIRCLE
  5
1F26
330
2
100
AcDbEntity
  8
0
100
AcDbCircle
 10
317.2865600136133
 20
185.2584628305846
 30
0.0
 40
36.0
  0
LINE
  5
1F27
330
2
100
AcDbEntity
  8
0
100
AcDbLine
 10
249.7865600136133
 20
127.7584628305846
 30
0.0
 11
249.7865600136133
 21
242.7584628305846
 31
0.0
  0
LINE
  5
1F28
330
2
100
AcDbEntity
  8
0
100
AcDbLine
 10
262.2865600136133
 20
147.2584628305846
 30
0.0
 11
262.2865600136133
 21
223.2584628305847
 31
0.0
  0
LINE
  5
1F29
330
2
100
AcDbEntity
  8
0
100
AcDbLine
 10
264.2865600136133
 20
147.2584628305846
 30
0.0
 11
264.2865600136133
 21
223.2584628305847
 31
0.0
  0
LINE
  5
1F2A
330
2
100
AcDbEntity
  8
CENTER
100
AcDbLine
 10
317.2865600136133
 20
267.7584628305837
 30
0.0
 11
317.2865600136133
 21
102.7584628305837
 31
0.0
  0
LINE
  5
1F2B
330
2
100
AcDbEntity
  8
0
100
AcDbLine
 10
370.2865600136133
 20
223.2584628305847
 30
0.0
 11
370.2865600136133
 21
147.2584628305846
 31
0.0
  0
ARC
  5
1F2C
330
2
100
AcDbEntity
  8
0
100
AcDbCircle
 10
44.78656001361332
 20
185.2584628305846
 30
0.0
 40
340.0
100
AcDbArc
 50
355.3322773121673
 51
4.66772268783269
  0
LINE
  5
1F2D
330
2
100
AcDbEntity
  8
0
100
AcDbLine
 10
372.2865600136133
 20
223.2584628305847
 30
0.0
 11
372.2865600136133
 21
147.2584628305846
 31
0.0
  0
LINE
  5
1F2E
330
2
100
AcDbEntity
  8
0
100
AcDbLine
 10
485.3065361043008
 20
227.7584628305853
 30
0.0
 11
485.3065361042972
 21
142.7584628305853
 31
0.0
  0
LINE
  5
1F2F
330
2
100
AcDbEntity
  8
0
100
AcDbLine
 10
484.3065361043008
 20
227.1811125613971
 30
0.0
 11
484.3065361043008
 21
143.3358130997735
 31
0.0
  0
CIRCLE
  5
1F30
330
2
100
AcDbEntity
  8
0
100
AcDbCircle
 10
377.7865600136097
 20
142.2584628305883
 30
0.0
 40
3.5
  0
CIRCLE
  5
1F31
330
2
100
AcDbEntity
  8
0
100
AcDbCircle
 10
377.7865600136097
 20
142.2584628305883
 30
0.0
 40
4.0
  0
LINE
  5
1F32
330
2
100
AcDbEntity
  8
0
100
AcDbLine
 10
374.7865600136115
 20
136.2584628305846
 30
0.0
 11
381.9433659906676
 21
136.2584628305864
 31
0.0
  0
CIRCLE
  5
1F33
330
2
100
AcDbEntity
  8
0
100
AcDbCircle
 10
374.7865600136133
 20
127.7584628305846
 30
0.0
 40
6.5
  0
LINE
  5
1F34
330
2
100
AcDbEntity
  8
CENTER
100
AcDbLine
 10
371.3965508449887
 20
142.2584628305883
 30
0.0
 11
384.1765691822215
 21
142.2584628305883
 31
0.0
  0
LINE
  5
1F35
330
2
100
AcDbEntity
  8
CENTER
100
AcDbLine
 10
385.5365600136096
 20
127.7584628305828
 30
0.0
 11
364.0365600136096
 21
127.7584628305846
 31
0.0
  0
ARC
  5
1F36
330
2
100
AcDbEntity
  8
0
100
AcDbCircle
 10
374.7865600136133
 20
127.7584628305846
 30
0.0
 40
10.0
100
AcDbArc
 50
270.0
 51
0.0
  0
LINE
  5
1F37
330
2
100
AcDbEntity
  8
0
100
AcDbLine
 10
355.2865600136133
 20
130.2584628305846
 30
0.0
 11
279.2865600136133
 21
130.2584628305846
 31
0.0
  0
LINE
  5
1F38
330
2
100
AcDbEntity
  8
0
100
AcDbLine
 10
355.2865600136133
 20
132.2584628305846
 30
0.0
 11
279.2865600136133
 21
132.2584628305846
 31
0.0
  0
ARC
  5
1F39
330
2
100
AcDbEntity
  8
0
100
AcDbCircle
 10
317.2865600136133
 20
457.7584628305837
 30
0.0
 40
340.0
100
AcDbArc
 50
265.3322773121702
 51
274.6677226878297
  0
ARC
  5
1F3A
330
2
100
AcDbEntity
  8
0
100
AcDbCircle
 10
259.7865600136133
 20
127.7584628305846
 30
0.0
 40
10.0
100
AcDbArc
 50
184.7801918472342
 51
270.0
  0
ARC
  5
1F3B
330
2
100
AcDbEntity
  8
0
100
AcDbCircle
 10
281.4806603897263
 20
19.21777195672143
 30
0.0
 40
100.0
100
AcDbArc
 50
85.3322773121703
 51
99.42952112167226
  0
ARC
  5
1F3C
330
2
100
AcDbEntity
  8
0
100
AcDbCircle
 10
263.7865600136133
 20
125.7584628305846
 30
0.0
 40
8.0
100
AcDbArc
 50
270.0
 51
279.4295211216722
  0
LINE
  5
1F3D
330
2
100
AcDbEntity
  8
0
100
AcDbLine
 10
263.7865600136133
 20
117.7584628305846
 30
0.0
 11
259.7865600136133
 21
117.7584628305846
 31
0.0
  0
ARC
  5
1F3E
330
2
100
AcDbEntity
  8
0
100
AcDbCircle
 10
279.2865600136133
 20
147.2584628305846
 30
0.0
 40
15.0
100
AcDbArc
 50
180.0
 51
270.0
  0
ARC
  5
1F3F
330
2
100
AcDbEntity
  8
0
100
AcDbCircle
 10
279.2865600136133
 20
147.2584628305846
 30
0.0
 40
17.0
100
AcDbArc
 50
180.0
 51
270.0
  0
LINE
  5
1F40
330
2
100
AcDbEntity
  8
0
100
AcDbLine
 10
267.2657447334418
 20
135.2376475504131
 30
0.0
 11
268.6799582958151
 21
136.6518611127864
 31
0.0
  0
ARC
  5
1F41
330
2
100
AcDbEntity
  8
0
100
AcDbCircle
 10
241.8491688989611
 20
126.2584628305846
 30
0.0
 40
8.0
100
AcDbArc
 50
4.780191847234233
 51
90.0
  0
LINE
  5
1F42
330
2
100
AcDbEntity
  8
0
100
AcDbLine
 10
377.7865600136133
 20
126.0264120230165
 30
0.0
 11
377.7865600136133
 21
129.4905136381528
 31
0.0
  0
LINE
  5
1F43
330
2
100
AcDbEntity
  8
0
100
AcDbLine
 10
366.2865600136115
 20
127.7584628305864
 30
0.0
 11
366.2865600136115
 21
120.6016568535312
 31
0.0
  0
LINE
  5
1F44
330
2
100
AcDbEntity
  8
0
100
AcDbLine
 10
371.7865600136133
 20
129.4905136381528
 30
0.0
 11
371.7865600136133
 21
126.0264120230147
 31
0.0
  0
LINE
  5
1F45
330
2
100
AcDbEntity
  8
CENTER
100
AcDbLine
 10
374.7865600136151
 20
117.0084628305883
 30
0.0
 11
374.7865600136133
 21
138.5084628305883
 31
0.0
  0
CIRCLE
  5
1F46
330
2
100
AcDbEntity
  8
0
100
AcDbCircle
 10
374.7865600136133
 20
127.7584628305846
 30
0.0
 40
5.63397459621558
  0
ARC
  5
1F47
330
2
100
AcDbEntity
  8
0
100
AcDbCircle
 10
353.0924596374984
 20
19.21777195672143
 30
0.0
 40
100.0
100
AcDbArc
 50
80.57047887832773
 51
94.66772268782973
  0
LINE
  5
1F48
330
2
100
AcDbEntity
  8
0
100
AcDbLine
 10
374.7865600136133
 20
117.7584628305846
 30
0.0
 11
370.7865600136133
 21
117.7584628305846
 31
0.0
  0
ARC
  5
1F49
330
2
100
AcDbEntity
  8
0
100
AcDbCircle
 10
370.7865600136133
 20
125.7584628305846
 30
0.0
 40
8.0
100
AcDbArc
 50
260.5704788783277
 51
270.0
  0
ARC
  5
1F4A
330
2
100
AcDbEntity
  8
0
100
AcDbCircle
 10
364.2865600136096
 20
120.6016568535312
 30
0.0
 40
2.0
100
AcDbArc
 50
263.6993214717108
 51
0.0
  0
LINE
  5
1F4B
330
2
100
AcDbEntity
  8
0
100
AcDbLine
 10
371.7865600136133
 20
126.0264120230147
 30
0.0
 11
374.7865600136133
 21
124.2943612154465
 31
0.0
  0
LINE
  5
1F4C
330
2
100
AcDbEntity
  8
0
100
AcDbLine
 10
374.7865600136133
 20
124.2943612154465
 30
0.0
 11
377.7865600136133
 21
126.0264120230165
 31
0.0
  0
ARC
  5
1F4D
330
2
100
AcDbEntity
  8
0
100
AcDbCircle
 10
355.2865600136133
 20
147.2584628305846
 30
0.0
 40
15.0
100
AcDbArc
 50
270.0
 51
0.0
  0
ARC
  5
1F4E
330
2
100
AcDbEntity
  8
0
100
AcDbCircle
 10
355.2865600136133
 20
147.2584628305846
 30
0.0
 40
17.0
100
AcDbArc
 50
270.0
 51
0.0
  0
CIRCLE
  5
1F4F
330
2
100
AcDbEntity
  8
HOJO
100
AcDbCircle
 10
377.7865600136097
 20
142.2584628305883
 30
0.0
 40
2.5
  0
LINE
  5
1F50
330
2
100
AcDbEntity
  8
CENTER
100
AcDbLine
 10
377.7865600136042
 20
135.8684536619728
 30
0.0
 11
377.7865600136042
 21
148.6484719992056
 31
0.0
  0
ARC
  5
1F51
330
2
100
AcDbEntity
  8
0
100
AcDbCircle
 10
374.7865600136115
 20
127.7584628305846
 30
0.0
 40
8.5
100
AcDbArc
 50
90.0
 51
180.0
  0
LINE
  5
1F52
330
2
100
AcDbEntity
  8
0
100
AcDbLine
 10
367.3073752937848
 20
135.2376475504131
 30
0.0
 11
365.8931617314115
 21
136.6518611127864
 31
0.0
  0
LINE
  5
1F53
330
2
100
AcDbEntity
  8
0
100
AcDbLine
 10
371.7865600136133
 20
129.4905136381528
 30
0.0
 11
374.7865600136133
 21
131.2225644457228
 31
0.0
  0
LINE
  5
1F54
330
2
100
AcDbEntity
  8
0
100
AcDbLine
 10
374.7865600136133
 20
131.2225644457228
 30
0.0
 11
377.7865600136133
 21
129.4905136381528
 31
0.0
  0
CIRCLE
  5
1F55
330
2
100
AcDbEntity
  8
0
100
AcDbCircle
 10
377.7865600136097
 20
142.2584628305883
 30
0.0
 40
2.0
  0
ARC
  5
1F56
330
2
100
AcDbEntity
  8
0
100
AcDbCircle
 10
483.3272508874756
 20
149.4525632066986
 30
0.0
 40
100.0
100
AcDbArc
 50
175.3322773121672
 51
189.429521121676
  0
LINE
  5
1F57
330
2
100
AcDbEntity
  8
0
100
AcDbLine
 10
384.7865600136133
 20
127.7584628305846
 30
0.0
 11
384.7865600136133
 21
131.7584628305846
 31
0.0
  0
ARC
  5
1F58
330
2
100
AcDbEntity
  8
0
100
AcDbCircle
 10
376.7865600136133
 20
131.7584628305846
 30
0.0
 40
8.0
100
AcDbArc
 50
0.0
 51
9.429521121676026
  0
ARC
  5
1F59
330
2
100
AcDbEntity
  8
0
100
AcDbCircle
 10
381.9433659906658
 20
138.2584628305864
 30
0.0
 40
2.0
100
AcDbArc
 50
270.0
 51
6.300678528289503
  0
LINE
  5
1F5A
330
2
100
AcDbEntity
  8
0
100
AcDbLine
 10
485.3065361042972
 20
142.7584628305853
 30
0.0
 11
484.3065361042972
 21
143.3358130997753
 31
0.0
  0
CIRCLE
  5
1F5B
330
2
100
AcDbEntity
  8
0
100
AcDbCircle
 10
377.786560013606
 20
228.258462830581
 30
0.0
 40
4.0
  0
CIRCLE
  5
1F5C
330
2
100
AcDbEntity
  8
0
100
AcDbCircle
 10
377.786560013606
 20
228.258462830581
 30
0.0
 40
3.5
  0
CIRCLE
  5
1F5D
330
2
100
AcDbEntity
  8
0
100
AcDbCircle
 10
374.7865600136133
 20
242.7584628305865
 30
0.0
 40
6.5
  0
LINE
  5
1F5E
330
2
100
AcDbEntity
  8
0
100
AcDbLine
 10
374.7865600136096
 20
234.2584628305865
 30
0.0
 11
381.9433659906676
 21
234.2584628305865
 31
0.0
  0
LINE
  5
1F5F
330
2
100
AcDbEntity
  8
CENTER
100
AcDbLine
 10
385.5365600136096
 20
242.7584628305865
 30
0.0
 11
364.0365600136096
 21
242.7584628305846
 31
0.0
  0
LINE
  5
1F60
330
2
100
AcDbEntity
  8
CENTER
100
AcDbLine
 10
371.3965508449887
 20
228.258462830581
 30
0.0
 11
384.1765691822215
 21
228.258462830581
 31
0.0
  0
ARC
  5
1F61
330
2
100
AcDbEntity
  8
0
100
AcDbCircle
 10
374.7865600136133
 20
242.7584628305846
 30
0.0
 40
10.0
100
AcDbArc
 50
0.0
 51
90.0
  0
LINE
  5
1F62
330
2
100
AcDbEntity
  8
0
100
AcDbLine
 10
279.2865600136133
 20
240.2584628305846
 30
0.0
 11
355.2865600136133
 21
240.2584628305846
 31
0.0
  0
LINE
  5
1F63
330
2
100
AcDbEntity
  8
0
100
AcDbLine
 10
279.2865600136133
 20
238.2584628305846
 30
0.0
 11
355.2865600136133
 21
238.2584628305846
 31
0.0
  0
ARC
  5
1F64
330
2
100
AcDbEntity
  8
0
100
AcDbCircle
 10
317.2865600136133
 20
-87.24153716941623
 30
0.0
 40
340.0
100
AcDbArc
 50
85.3322773121703
 51
94.66772268782973
  0
ARC
  5
1F65
330
2
100
AcDbEntity
  8
0
100
AcDbCircle
 10
279.2865600136133
 20
223.2584628305847
 30
0.0
 40
15.0
100
AcDbArc
 50
90.0
 51
180.0
  0
ARC
  5
1F66
330
2
100
AcDbEntity
  8
0
100
AcDbCircle
 10
279.2865600136133
 20
223.2584628305847
 30
0.0
 40
17.0
100
AcDbArc
 50
90.0
 51
180.0
  0
ARC
  5
1F67
330
2
100
AcDbEntity
  8
0
100
AcDbCircle
 10
281.4806603897336
 20
351.299153704446
 30
0.0
 40
100.0
100
AcDbArc
 50
260.5704788783277
 51
274.6677226878297
  0
ARC
  5
1F68
330
2
100
AcDbEntity
  8
0
100
AcDbCircle
 10
263.7865600136133
 20
244.7584628305846
 30
0.0
 40
8.0
100
AcDbArc
 50
80.57047887832773
 51
90.0
  0
LINE
  5
1F69
330
2
100
AcDbEntity
  8
0
100
AcDbLine
 10
263.7865600136133
 20
252.7584628305846
 30
0.0
 11
259.7865600136133
 21
252.7584628305846
 31
0.0
  0
ARC
  5
1F6A
330
2
100
AcDbEntity
  8
0
100
AcDbCircle
 10
259.7865600136133
 20
242.7584628305846
 30
0.0
 40
10.0
100
AcDbArc
 50
90.0
 51
175.2198081527657
  0
LINE
  5
1F6B
330
2
100
AcDbEntity
  8
0
100
AcDbLine
 10
267.2657447334418
 20
235.2792781107562
 30
0.0
 11
268.6799582958151
 21
233.8650645483828
 31
0.0
  0
ARC
  5
1F6C
330
2
100
AcDbEntity
  8
0
100
AcDbCircle
 10
241.8491688989611
 20
244.2584628305846
 30
0.0
 40
8.0
100
AcDbArc
 50
270.0
 51
355.2198081527657
  0
ARC
  5
1F6D
330
2
100
AcDbEntity
  8
0
100
AcDbCircle
 10
353.0924596374911
 20
351.299153704446
 30
0.0
 40
100.0
100
AcDbArc
 50
265.3322773121702
 51
279.4295211216722
  0
ARC
  5
1F6E
330
2
100
AcDbEntity
  8
0
100
AcDbCircle
 10
355.2865600136133
 20
223.2584628305847
 30
0.0
 40
17.0
100
AcDbArc
 50
0.0
 51
90.0
  0
ARC
  5
1F6F
330
2
100
AcDbEntity
  8
0
100
AcDbCircle
 10
355.2865600136133
 20
223.2584628305847
 30
0.0
 40
15.0
100
AcDbArc
 50
0.0
 51
90.0
  0
CIRCLE
  5
1F70
330
2
100
AcDbEntity
  8
HOJO
100
AcDbCircle
 10
377.786560013606
 20
228.258462830581
 30
0.0
 40
2.5
  0
CIRCLE
  5
1F71
330
2
100
AcDbEntity
  8
0
100
AcDbCircle
 10
377.786560013606
 20
228.258462830581
 30
0.0
 40
2.0
  0
LINE
  5
1F72
330
2
100
AcDbEntity
  8
CENTER
100
AcDbLine
 10
377.7865600136042
 20
234.6484719991983
 30
0.0
 11
377.7865600136042
 21
221.8684536619655
 31
0.0
  0
LINE
  5
1F73
330
2
100
AcDbEntity
  8
0
100
AcDbLine
 10
377.7865600136133
 20
241.0264120230165
 30
0.0
 11
377.7865600136133
 21
244.4905136381546
 31
0.0
  0
LINE
  5
1F74
330
2
100
AcDbEntity
  8
0
100
AcDbLine
 10
374.7865600136133
 20
252.7584628305846
 30
0.0
 11
370.7865600136133
 21
252.7584628305846
 31
0.0
  0
ARC
  5
1F75
330
2
100
AcDbEntity
  8
0
100
AcDbCircle
 10
374.7865600136096
 20
242.7584628305865
 30
0.0
 40
8.5
100
AcDbArc
 50
180.0
 51
270.0
  0
LINE
  5
1F76
330
2
100
AcDbEntity
  8
0
100
AcDbLine
 10
366.2865600136096
 20
242.7584628305846
 30
0.0
 11
366.2865600136115
 21
249.9152688076371
 31
0.0
  0
ARC
  5
1F77
330
2
100
AcDbEntity
  8
0
100
AcDbCircle
 10
370.7865600136133
 20
244.7584628305846
 30
0.0
 40
8.0
100
AcDbArc
 50
90.0
 51
99.42952112167226
  0
LINE
  5
1F78
330
2
100
AcDbEntity
  8
0
100
AcDbLine
 10
367.3073752937848
 20
235.2792781107562
 30
0.0
 11
365.8931617314115
 21
233.8650645483828
 31
0.0
  0
ARC
  5
1F79
330
2
100
AcDbEntity
  8
0
100
AcDbCircle
 10
364.2865600136096
 20
249.9152688076371
 30
0.0
 40
2.0
100
AcDbArc
 50
0.0
 51
96.30067852828915
  0
LINE
  5
1F7A
330
2
100
AcDbEntity
  8
CENTER
100
AcDbLine
 10
374.7865600136151
 20
253.508462830581
 30
0.0
 11
374.7865600136133
 21
232.0084628305828
 31
0.0
  0
LINE
  5
1F7B
330
2
100
AcDbEntity
  8
0
100
AcDbLine
 10
371.7865600136133
 20
244.4905136381546
 30
0.0
 11
371.7865600136133
 21
241.0264120230165
 31
0.0
  0
LINE
  5
1F7C
330
2
100
AcDbEntity
  8
0
100
AcDbLine
 10
371.7865600136133
 20
241.0264120230165
 30
0.0
 11
374.7865600136133
 21
239.2943612154483
 31
0.0
  0
LINE
  5
1F7D
330
2
100
AcDbEntity
  8
0
100
AcDbLine
 10
371.7865600136133
 20
244.4905136381546
 30
0.0
 11
374.7865600136133
 21
246.2225644457246
 31
0.0
  0
CIRCLE
  5
1F7E
330
2
100
AcDbEntity
  8
0
100
AcDbCircle
 10
374.7865600136133
 20
242.7584628305865
 30
0.0
 40
5.63397459621558
  0
LINE
  5
1F7F
330
2
100
AcDbEntity
  8
0
100
AcDbLine
 10
374.7865600136133
 20
239.2943612154483
 30
0.0
 11
377.7865600136133
 21
241.0264120230165
 31
0.0
  0
LINE
  5
1F80
330
2
100
AcDbEntity
  8
0
100
AcDbLine
 10
374.7865600136133
 20
246.2225644457228
 30
0.0
 11
377.7865600136133
 21
244.4905136381546
 31
0.0
  0
ARC
  5
1F81
330
2
100
AcDbEntity
  8
0
100
AcDbCircle
 10
483.3272508874756
 20
221.0643624544707
 30
0.0
 40
100.0
100
AcDbArc
 50
170.5704788783239
 51
184.6677226878327
  0
LINE
  5
1F82
330
2
100
AcDbEntity
  8
0
100
AcDbLine
 10
384.7865600136133
 20
238.7584628305846
 30
0.0
 11
384.7865600136133
 21
242.7584628305846
 31
0.0
  0
ARC
  5
1F83
330
2
100
AcDbEntity
  8
0
100
AcDbCircle
 10
376.7865600136133
 20
238.7584628305846
 30
0.0
 40
8.0
100
AcDbArc
 50
350.5704788783239
 51
0.0
  0
ARC
  5
1F84
330
2
100
AcDbEntity
  8
0
100
AcDbCircle
 10
381.9433659906676
 20
232.2584628305865
 30
0.0
 40
2.0
100
AcDbArc
 50
353.6993214717105
 51
90.0
  0
LINE
  5
1F85
330
2
100
AcDbEntity
  8
0
100
AcDbLine
 10
485.3065361043008
 20
227.7584628305853
 30
0.0
 11
484.3065361043008
 21
227.1811125613971
 31
0.0
  0
LINE
  5
1F87
330
2
100
AcDbEntity
  8
0
100
AcDbLine
 10
1080.698537390552
 20
236.2584628305849
 30
0.0
 11
1067.198537390552
 21
236.2584628305849
 31
0.0
  0
LINE
  5
1F88
330
2
100
AcDbEntity
  8
0
100
AcDbLine
 10
1080.698537390552
 20
236.7584628305849
 30
0.0
 11
1067.198537390552
 21
236.7584628305849
 31
0.0
  0
LINE
  5
1F89
330
2
100
AcDbEntity
  8
0
100
AcDbLine
 10
1080.698537390552
 20
134.2584628305849
 30
0.0
 11
1067.198537390552
 21
134.2584628305849
 31
0.0
  0
LINE
  5
1F8A
330
2
100
AcDbEntity
  8
0
100
AcDbLine
 10
1080.698537390552
 20
133.7584628305849
 30
0.0
 11
1067.198537390552
 21
133.7584628305849
 31
0.0
  0
LINE
  5
1F91
330
2
100
AcDbEntity
  8
0
100
AcDbLine
 10
515.3065361043009
 20
117.7584628306726
 30
0.0
 11
515.3065361043009
 21
252.7584628306726
 31
0.0
  0
LINE
  5
1F93
330
2
100
AcDbEntity
  8
0
100
AcDbLine
 10
494.8065361042954
 20
119.9199860414869
 30
0.0
 11
494.8065361042954
 21
250.5969396196856
 31
0.0
  0
LINE
  5
1F94
330
2
100
AcDbEntity
  8
0
100
AcDbLine
 10
492.3065361042972
 20
140.7584628305853
 30
0.0
 11
492.3065361042972
 21
229.7584628305817
 31
0.0
  0
LINE
  5
1F95
330
2
100
AcDbEntity
  8
0
100
AcDbLine
 10
486.8065361042972
 20
142.958462830586
 30
0.0
 11
486.8065361042318
 21
227.5584628305864
 31
0.0
  0
LINE
  5
1F96
330
2
100
AcDbEntity
  8
0
100
AcDbLine
 10
488.8065361042972
 20
142.958462830586
 30
0.0
 11
488.8065361042972
 21
227.5584628305828
 31
0.0
  0
LINE
  5
1F97
330
2
100
AcDbEntity
  8
0
100
AcDbLine
 10
492.8065361042954
 20
133.086889955332
 30
0.0
 11
492.8065361043081
 21
237.4300357058405
 31
0.0
  0
LINE
  5
1F98
330
2
100
AcDbEntity
  8
0
100
AcDbLine
 10
604.3065327754921
 20
251.9817716263464
 30
0.0
 11
604.3065327754902
 21
118.5351540350007
 31
0.0
  0
LINE
  5
1F99
330
2
100
AcDbEntity
  8
0
100
AcDbLine
 10
609.3065327754902
 20
125.2584628306726
 30
0.0
 11
609.3065327754902
 21
245.2584628306726
 31
0.0
  0
LINE
  5
1F9A
330
2
100
AcDbEntity
  8
0
100
AcDbLine
 10
623.3065327754903
 20
143.689840380201
 30
0.0
 11
623.3065327754903
 21
226.8270852809714
 31
0.0
  0
LINE
  5
1F9D
330
2
100
AcDbEntity
  8
CENTER
100
AcDbLine
 10
551.3065361043013
 20
103.0726300711402
 30
0.0
 11
551.3065361043004
 21
267.4442955902057
 31
0.0
  0
LINE
  5
1F9F
330
2
100
AcDbEntity
  8
0
100
AcDbLine
 10
604.3065327754902
 20
131.7584628303252
 30
0.0
 11
515.3065361043009
 21
131.7584628303252
 31
0.0
  0
LINE
  5
1FA0
330
2
100
AcDbEntity
  8
0
100
AcDbLine
 10
604.3065327754902
 20
127.7584628303252
 30
0.0
 11
515.3065361043009
 21
127.7584628303252
 31
0.0
  0
LINE
  5
1FA1
330
2
100
AcDbEntity
  8
0
100
AcDbLine
 10
515.3065361043009
 20
117.7584628306726
 30
0.0
 11
604.3065327754902
 21
118.5351540350007
 31
0.0
  0
LINE
  5
1FA2
330
2
100
AcDbEntity
  8
0
100
AcDbLine
 10
604.3065327754902
 20
157.5902676664177
 30
0.0
 11
515.3065361043009
 21
157.5902676664177
 31
0.0
  0
LINE
  5
1FA3
330
2
100
AcDbEntity
  8
0
100
AcDbLine
 10
505.3065361042918
 20
135.7628072252887
 30
0.0
 11
505.3065361042918
 21
118.8370427190898
 31
0.0
  0
LINE
  5
1FA4
330
2
100
AcDbEntity
  8
0
100
AcDbLine
 10
495.8065361042918
 20
121.2584628305853
 30
0.0
 11
495.8065361042918
 21
134.2584628305853
 31
0.0
  0
LINE
  5
1FA5
330
2
100
AcDbEntity
  8
0
100
AcDbLine
 10
495.3065361042917
 20
122.1244882343694
 30
0.0
 11
495.3065361042917
 21
133.3924374267994
 31
0.0
  0
LINE
  5
1FA6
330
2
100
AcDbEntity
  8
0
100
AcDbLine
 10
503.3065361042917
 20
121.2584628305853
 30
0.0
 11
503.3065361042917
 21
134.2584628305853
 31
0.0
  0
LINE
  5
1FA7
330
2
100
AcDbEntity
  8
0
100
AcDbLine
 10
496.7890830333035
 20
117.9200621953591
 30
0.0
 11
515.3065361043009
 21
117.7584628305853
 31
0.0
  0
LINE
  5
1FA8
330
2
100
AcDbEntity
  8
0
100
AcDbLine
 10
503.3065361042917
 20
121.2584628305853
 30
0.0
 11
495.8065361042918
 21
121.2584628305853
 31
0.0
  0
LINE
  5
1FA9
330
2
100
AcDbEntity
  8
0
100
AcDbLine
 10
495.8065361042918
 20
121.2584628305853
 30
0.0
 11
495.3065361042917
 21
122.1244882343694
 31
0.0
  0
ARC
  5
1FAA
330
2
100
AcDbEntity
  8
0
100
AcDbCircle
 10
496.8065361043008
 20
119.9199860414869
 30
0.0
 40
2.0
100
AcDbArc
 50
180.0
 51
269.5000000000345
  0
LINE
  5
1FAB
330
2
100
AcDbEntity
  8
0
100
AcDbLine
 10
505.3065361042918
 20
121.2584628305853
 30
0.0
 11
503.3065361042917
 21
121.2584628305853
 31
0.0
  0
ARC
  5
1FAC
330
2
100
AcDbEntity
  8
0
100
AcDbCircle
 10
506.3065361042918
 20
118.8370427190898
 30
0.0
 40
1.0
100
AcDbArc
 50
180.0
 51
269.4999999999824
  0
LINE
  5
1FAD
330
2
100
AcDbEntity
  8
CENTER
  6
CENS
100
AcDbLine
 10
524.8840305574995
 20
127.7584628305853
 30
0.0
 11
492.3065361042918
 21
127.7584628305853
 31
0.0
  0
LINE
  5
1FAE
330
2
100
AcDbEntity
  8
0
100
AcDbLine
 10
496.789083033298
 20
157.5902676664177
 30
0.0
 11
515.3065361043009
 21
157.5902676664177
 31
0.0
  0
ARC
  5
1FAF
330
2
100
AcDbEntity
  8
0
100
AcDbCircle
 10
488.6065361042965
 20
143.2584628305853
 30
0.0
 40
0.2
100
AcDbArc
 50
0.0
 51
90.0
  0
ARC
  5
1FB0
330
2
100
AcDbEntity
  8
0
100
AcDbCircle
 10
487.0065361042962
 20
143.2584628305853
 30
0.0
 40
0.2
100
AcDbArc
 50
90.0
 51
180.0
  0
ARC
  5
1FB1
330
2
100
AcDbEntity
  8
0
100
AcDbCircle
 10
486.6065361042965
 20
142.958462830586
 30
0.0
 40
0.2
100
AcDbArc
 50
270.0
 51
0.0
  0
LINE
  5
1FB2
330
2
100
AcDbEntity
  8
0
100
AcDbLine
 10
489.0065361042961
 20
142.7584628305853
 30
0.0
 11
492.3065361042972
 21
142.7584628305853
 31
0.0
  0
LINE
  5
1FB3
330
2
100
AcDbEntity
  8
0
100
AcDbLine
 10
487.0065361042962
 20
143.458462830586
 30
0.0
 11
488.6065361042965
 21
143.458462830586
 31
0.0
  0
LINE
  5
1FB4
330
2
100
AcDbEntity
  8
0
100
AcDbLine
 10
488.8065361042972
 20
142.958462830586
 30
0.0
 11
489.0065361042961
 21
142.7584628305853
 31
0.0
  0
LINE
  5
1FB5
330
2
100
AcDbEntity
  8
0
100
AcDbLine
 10
492.8065361042972
 20
140.2584628305853
 30
0.0
 11
492.3065361042972
 21
140.7584628305853
 31
0.0
  0
LINE
  5
1FB6
330
2
100
AcDbEntity
  8
0
100
AcDbLine
 10
506.297809568794
 20
131.7584628305853
 30
0.0
 11
515.3065361043009
 21
131.7584628305853
 31
0.0
  0
LINE
  5
1FB7
330
2
100
AcDbEntity
  8
0
100
AcDbLine
 10
506.297809568794
 20
127.7584628305853
 30
0.0
 11
515.3065361043009
 21
127.7584628305853
 31
0.0
  0
LINE
  5
1FB8
330
2
100
AcDbEntity
  8
0
100
AcDbLine
 10
503.3065361042917
 20
134.2584628305853
 30
0.0
 11
495.8065361042918
 21
134.2584628305853
 31
0.0
  0
LINE
  5
1FB9
330
2
100
AcDbEntity
  8
0
100
AcDbLine
 10
495.8065361042918
 20
134.2584628305853
 30
0.0
 11
495.3065361042917
 21
133.3924374267994
 31
0.0
  0
ARC
  5
1FBA
330
2
100
AcDbEntity
  8
0
100
AcDbCircle
 10
492.8065361042954
 20
129.4300357058405
 30
0.0
 40
2.0
100
AcDbArc
 50
0.0
 51
44.99999999999078
  0
ARC
  5
1FBB
330
2
100
AcDbEntity
  8
0
100
AcDbCircle
 10
494.8065361042954
 20
133.086889955332
 30
0.0
 40
2.0
100
AcDbArc
 50
180.0
 51
224.9999999999908
  0
LINE
  5
1FBC
330
2
100
AcDbEntity
  8
0
100
AcDbLine
 10
494.2207496666688
 20
130.844249268212
 30
0.0
 11
493.3923225419221
 21
131.6726763929586
 31
0.0
  0
LINE
  5
1FBD
330
2
100
AcDbEntity
  8
0
100
AcDbLine
 10
505.3065361042918
 20
134.2584628305853
 30
0.0
 11
503.3065361042917
 21
134.2584628305853
 31
0.0
  0
LINE
  5
1FBE
330
2
100
AcDbEntity
  8
0
100
AcDbLine
 10
504.8108993720397
 20
136.2627881868234
 30
0.0
 11
496.789083033298
 21
136.3327935174534
 31
0.0
  0
ARC
  5
1FBF
330
2
100
AcDbEntity
  8
0
100
AcDbCircle
 10
496.8065361042954
 20
138.3327173635811
 30
0.0
 40
2.0
100
AcDbArc
 50
180.0
 51
269.5000000000345
  0
ARC
  5
1FC0
330
2
100
AcDbEntity
  8
0
100
AcDbCircle
 10
504.8065361042918
 20
135.7628072252887
 30
0.0
 40
0.5
100
AcDbArc
 50
0.0
 51
89.49999999998238
  0
LINE
  5
1FC1
330
2
100
AcDbEntity
  8
0
100
AcDbLine
 10
604.3065327754902
 20
125.2584628306726
 30
0.0
 11
609.3065327754902
 21
125.2584628306726
 31
0.0
  0
LINE
  5
1FC2
330
2
100
AcDbEntity
  8
0
100
AcDbLine
 10
621.3763317688954
 20
141.6910587261613
 30
0.0
 11
611.2367337820851
 21
141.3369761621256
 31
0.0
  0
ARC
  5
1FC3
330
2
100
AcDbEntity
  8
0
100
AcDbCircle
 10
621.3065327754902
 20
143.689840380201
 30
0.0
 40
2.0
100
AcDbArc
 50
272.0000000000035
 51
0.0
  0
ARC
  5
1FC8
330
2
100
AcDbEntity
  8
0
100
AcDbCircle
 10
611.3065327754902
 20
139.3381945080877
 30
0.0
 40
2.0
100
AcDbArc
 50
92.00000000000361
 51
180.0
  0
LINE
  5
1FD1
330
2
100
AcDbEntity
  8
0
100
AcDbLine
 10
604.3065327754902
 20
212.9266579947548
 30
0.0
 11
515.3065361043009
 21
212.9266579947548
 31
0.0
  0
LINE
  5
1FD2
330
2
100
AcDbEntity
  8
0
100
AcDbLine
 10
604.3065327754902
 20
238.7584628308473
 30
0.0
 11
515.3065361043009
 21
238.7584628308473
 31
0.0
  0
LINE
  5
1FD3
330
2
100
AcDbEntity
  8
0
100
AcDbLine
 10
604.3065327754902
 20
242.7584628308472
 30
0.0
 11
515.3065361043009
 21
242.7584628308472
 31
0.0
  0
LINE
  5
1FD4
330
2
100
AcDbEntity
  8
0
100
AcDbLine
 10
604.3065327754921
 20
251.9817716263464
 30
0.0
 11
515.3065361043009
 21
252.7584628306726
 31
0.0
  0
LINE
  5
1FD5
330
2
100
AcDbEntity
  8
0
100
AcDbLine
 10
496.789083033298
 20
212.9266579947548
 30
0.0
 11
515.3065361043009
 21
212.9266579947548
 31
0.0
  0
LINE
  5
1FD6
330
2
100
AcDbEntity
  8
CENTER
  6
CENS
100
AcDbLine
 10
524.8840305574995
 20
242.7584628305871
 30
0.0
 11
492.3065361042918
 21
242.7584628305871
 31
0.0
  0
LINE
  5
1FD7
330
2
100
AcDbEntity
  8
0
100
AcDbLine
 10
496.7890830333035
 20
252.5968634658133
 30
0.0
 11
515.3065361043009
 21
252.7584628305871
 31
0.0
  0
LINE
  5
1FD8
330
2
100
AcDbEntity
  8
0
100
AcDbLine
 10
506.297809568794
 20
238.7584628305871
 30
0.0
 11
515.3065361043009
 21
238.7584628305871
 31
0.0
  0
LINE
  5
1FD9
330
2
100
AcDbEntity
  8
0
100
AcDbLine
 10
506.297809568794
 20
242.7584628305871
 30
0.0
 11
515.3065361043009
 21
242.7584628305871
 31
0.0
  0
LINE
  5
1FDA
330
2
100
AcDbEntity
  8
0
100
AcDbLine
 10
503.3065361042917
 20
249.2584628305871
 30
0.0
 11
495.8065361042918
 21
249.2584628305871
 31
0.0
  0
LINE
  5
1FDB
330
2
100
AcDbEntity
  8
0
100
AcDbLine
 10
503.3065361042917
 20
236.2584628305871
 30
0.0
 11
495.8065361042918
 21
236.2584628305871
 31
0.0
  0
LINE
  5
1FDC
330
2
100
AcDbEntity
  8
0
100
AcDbLine
 10
504.8108993720397
 20
234.2541374743491
 30
0.0
 11
496.789083033298
 21
234.1841321437191
 31
0.0
  0
LINE
  5
1FDD
330
2
100
AcDbEntity
  8
0
100
AcDbLine
 10
495.8065361042918
 20
249.2584628305871
 30
0.0
 11
495.8065361042918
 21
236.2584628305871
 31
0.0
  0
LINE
  5
1FDE
330
2
100
AcDbEntity
  8
0
100
AcDbLine
 10
495.8065361042918
 20
249.2584628305871
 30
0.0
 11
495.3065361042917
 21
248.3924374268031
 31
0.0
  0
LINE
  5
1FDF
330
2
100
AcDbEntity
  8
0
100
AcDbLine
 10
495.8065361042918
 20
236.2584628305871
 30
0.0
 11
495.3065361042917
 21
237.124488234373
 31
0.0
  0
LINE
  5
1FE0
330
2
100
AcDbEntity
  8
0
100
AcDbLine
 10
495.3065361042917
 20
248.3924374268031
 30
0.0
 11
495.3065361042917
 21
237.124488234373
 31
0.0
  0
ARC
  5
1FE1
330
2
100
AcDbEntity
  8
0
100
AcDbCircle
 10
496.8065361042954
 20
232.1842082975913
 30
0.0
 40
2.0
100
AcDbArc
 50
90.49999999996549
 51
180.0
  0
ARC
  5
1FE2
330
2
100
AcDbEntity
  8
0
100
AcDbCircle
 10
488.6065361043002
 20
227.2584628305871
 30
0.0
 40
0.2
100
AcDbArc
 50
270.0
 51
0.0
  0
ARC
  5
1FE3
330
2
100
AcDbEntity
  8
0
100
AcDbCircle
 10
487.0065361042998
 20
227.2584628305871
 30
0.0
 40
0.2
100
AcDbArc
 50
180.0
 51
270.0
  0
ARC
  5
1FE4
330
2
100
AcDbEntity
  8
0
100
AcDbCircle
 10
486.6065361043001
 20
227.5584628305864
 30
0.0
 40
0.2
100
AcDbArc
 50
0.0
 51
90.0
  0
ARC
  5
1FE5
330
2
100
AcDbEntity
  8
0
100
AcDbCircle
 10
492.8065361043008
 20
241.086889955332
 30
0.0
 40
2.0
100
AcDbArc
 50
315.0000000000092
 51
0.0
  0
ARC
  5
1FE6
330
2
100
AcDbEntity
  8
0
100
AcDbCircle
 10
494.8065361043009
 20
237.4300357058405
 30
0.0
 40
2.0
100
AcDbArc
 50
135.0000000000092
 51
180.0
  0
LINE
  5
1FE7
330
2
100
AcDbEntity
  8
0
100
AcDbLine
 10
489.0065361042998
 20
227.7584628305853
 30
0.0
 11
492.3065361043009
 21
227.7584628305853
 31
0.0
  0
LINE
  5
1FE8
330
2
100
AcDbEntity
  8
0
100
AcDbLine
 10
487.0065361042998
 20
227.0584628305864
 30
0.0
 11
488.6065361043002
 21
227.0584628305864
 31
0.0
  0
LINE
  5
1FE9
330
2
100
AcDbEntity
  8
0
100
AcDbLine
 10
488.8065361043008
 20
227.5584628305864
 30
0.0
 11
489.0065361042998
 21
227.7584628305853
 31
0.0
  0
LINE
  5
1FEA
330
2
100
AcDbEntity
  8
0
100
AcDbLine
 10
492.8065361043008
 20
230.2584628305853
 30
0.0
 11
492.3065361043009
 21
229.7584628305853
 31
0.0
  0
LINE
  5
1FEB
330
2
100
AcDbEntity
  8
0
100
AcDbLine
 10
494.2207496666742
 20
239.6726763929586
 30
0.0
 11
493.3923225419276
 21
238.8442492682138
 31
0.0
  0
ARC
  5
1FEC
330
2
100
AcDbEntity
  8
0
100
AcDbCircle
 10
496.8065361043008
 20
250.5969396196856
 30
0.0
 40
2.0
100
AcDbArc
 50
90.49999999996549
 51
180.0
  0
LINE
  5
1FED
330
2
100
AcDbEntity
  8
0
100
AcDbLine
 10
505.3065361042918
 20
249.2584628305871
 30
0.0
 11
503.3065361042917
 21
249.2584628305871
 31
0.0
  0
LINE
  5
1FEE
330
2
100
AcDbEntity
  8
0
100
AcDbLine
 10
505.3065361042918
 20
236.2584628305871
 30
0.0
 11
503.3065361042917
 21
236.2584628305871
 31
0.0
  0
LINE
  5
1FEF
330
2
100
AcDbEntity
  8
0
100
AcDbLine
 10
503.3065361042917
 20
249.2584628305871
 30
0.0
 11
503.3065361042917
 21
236.2584628305871
 31
0.0
  0
LINE
  5
1FF0
330
2
100
AcDbEntity
  8
0
100
AcDbLine
 10
505.3065361042918
 20
249.2584628305871
 30
0.0
 11
505.3065361042918
 21
236.2584628305871
 31
0.0
  0
ARC
  5
1FF1
330
2
100
AcDbEntity
  8
0
100
AcDbCircle
 10
506.3065361042918
 20
251.6798829420827
 30
0.0
 40
1.0
100
AcDbArc
 50
90.50000000001761
 51
180.0
  0
ARC
  5
1FF2
330
2
100
AcDbEntity
  8
0
100
AcDbCircle
 10
504.8065361042918
 20
234.7541184358838
 30
0.0
 40
0.5
100
AcDbArc
 50
270.5000000000175
 51
0.0
  0
LINE
  5
1FF3
330
2
100
AcDbEntity
  8
0
100
AcDbLine
 10
505.3065361042918
 20
234.7541184358838
 30
0.0
 11
505.3065361042918
 21
251.6798829420827
 31
0.0
  0
LINE
  5
1FF8
330
2
100
AcDbEntity
  8
0
100
AcDbLine
 10
621.3763317688954
 20
228.8258669350111
 30
0.0
 11
611.2367337820851
 21
229.1799494990468
 31
0.0
  0
LINE
  5
1FF9
330
2
100
AcDbEntity
  8
0
100
AcDbLine
 10
604.3065327754902
 20
245.2584628306726
 30
0.0
 11
609.3065327754902
 21
245.2584628306726
 31
0.0
  0
ARC
  5
1FFA
330
2
100
AcDbEntity
  8
0
100
AcDbCircle
 10
611.3065327754902
 20
231.1787311530847
 30
0.0
 40
2.0
100
AcDbArc
 50
180.0
 51
267.9999999999963
  0
ARC
  5
1FFB
330
2
100
AcDbEntity
  8
0
100
AcDbCircle
 10
621.3065327754902
 20
226.8270852809714
 30
0.0
 40
2.0
100
AcDbArc
 50
0.0
 51
87.9999999999964
  0
CIRCLE
  5
1FFD
330
2
100
AcDbEntity
  8
CENTER
100
AcDbCircle
 10
916.7285153905551
 20
185.2584628305849
 30
0.0
 40
80.0
  0
CIRCLE
  5
1FFE
330
2
100
AcDbEntity
  8
0
100
AcDbCircle
 10
916.7285153905551
 20
185.2584628305849
 30
0.0
 40
43.5
  0
CIRCLE
  5
1FFF
330
2
100
AcDbEntity
  8
0
100
AcDbCircle
 10
916.7285153905551
 20
185.2584628305849
 30
0.0
 40
60.0
  0
LINE
  5
2000
330
2
100
AcDbEntity
  8
CENTER
100
AcDbLine
 10
845.0863797668239
 20
113.616327206854
 30
0.0
 11
988.3706510142847
 21
256.9005984543168
 31
0.0
  0
LINE
  5
2001
330
2
100
AcDbEntity
  8
CENTER
100
AcDbLine
 10
988.3706510142856
 20
113.6163272068539
 30
0.0
 11
845.0863797668244
 21
256.900598454316
 31
0.0
  0
ARC
  5
2002
330
2
100
AcDbEntity
  8
0
100
AcDbCircle
 10
1189.228515390553
 20
185.2584628305849
 30
0.0
 40
340.0
100
AcDbArc
 50
175.332277312118
 51
184.6677226878819
  0
LINE
  5
2003
330
2
100
AcDbEntity
  8
0
100
AcDbLine
 10
1053.198537390552
 20
222.2584628305849
 30
0.0
 11
1053.198537390552
 21
148.2584628305849
 31
0.0
  0
LINE
  5
2004
330
2
100
AcDbEntity
  8
0
100
AcDbLine
 10
1035.728515390555
 20
142.2584628305848
 30
0.0
 11
1035.728515390555
 21
228.2584628305849
 31
0.0
  0
LINE
  5
2005
330
2
100
AcDbEntity
  8
0
100
AcDbLine
 10
1065.198537390552
 20
234.7584628305849
 30
0.0
 11
1065.198537390552
 21
135.7584628305849
 31
0.0
  0
CIRCLE
  5
2009
330
2
100
AcDbEntity
  8
0
100
AcDbCircle
 10
916.7285153905531
 20
185.2584628305867
 30
0.0
 40
36.0
  0
LINE
  5
200B
330
2
100
AcDbEntity
  8
0
100
AcDbLine
 10
984.228515390555
 20
127.7584628305848
 30
0.0
 11
984.228515390555
 21
242.7584628305849
 31
0.0
  0
LINE
  5
200C
330
2
100
AcDbEntity
  8
CENTER
100
AcDbLine
 10
916.7285153905551
 20
90.2584628305849
 30
0.0
 11
916.7285153905551
 21
280.2584628305849
 31
0.0
  0
ARC
  5
200D
330
2
100
AcDbEntity
  8
0
100
AcDbCircle
 10
916.7285153905551
 20
457.7584628305849
 30
0.0
 40
340.0
100
AcDbArc
 50
265.332277312118
 51
274.6677226878819
  0
LINE
  5
200F
330
2
100
AcDbEntity
  8
CENTER
100
AcDbLine
 10
851.1599728956307
 20
128.6899203356624
 30
0.0
 11
869.1599728956306
 21
128.6899203356624
 31
0.0
  0
LINE
  5
2010
330
2
100
AcDbEntity
  8
0
100
AcDbLine
 10
859.228515390555
 20
117.7584628305849
 30
0.0
 11
863.228515390555
 21
117.7584628305849
 31
0.0
  0
CIRCLE
  5
2011
330
2
100
AcDbEntity
  8
HOJO
100
AcDbCircle
 10
860.1599728956307
 20
128.6899203356606
 30
0.0
 40
5.0
  0
CIRCLE
  5
2012
330
2
100
AcDbEntity
  8
0
100
AcDbCircle
 10
860.1599728956307
 20
128.6899203356606
 30
0.0
 40
4.0
  0
LINE
  5
2013
330
2
100
AcDbEntity
  8
CENTER
100
AcDbLine
 10
860.1599728956307
 20
137.6899203356606
 30
0.0
 11
860.1599728956307
 21
119.6899203356606
 31
0.0
  0
ARC
  5
2014
330
2
100
AcDbEntity
  8
0
100
AcDbCircle
 10
859.228515390555
 20
127.7584628305848
 30
0.0
 40
10.0
100
AcDbArc
 50
180.0
 51
270.0
  0
ARC
  5
2015
330
2
100
AcDbEntity
  8
0
100
AcDbCircle
 10
857.2285153905532
 20
131.7584628305848
 30
0.0
 40
8.0
100
AcDbArc
 50
170.5704788783839
 51
180.0
  0
LINE
  5
2016
330
2
100
AcDbEntity
  8
0
100
AcDbLine
 10
849.228515390555
 20
127.7584628305848
 30
0.0
 11
849.228515390555
 21
131.7584628305848
 31
0.0
  0
ARC
  5
2017
330
2
100
AcDbEntity
  8
0
100
AcDbCircle
 10
750.6878245166927
 20
149.4525632067034
 30
0.0
 40
100.0
100
AcDbArc
 50
350.5704788783839
 51
4.667722687881911
  0
ARC
  5
2018
330
2
100
AcDbEntity
  8
0
100
AcDbCircle
 10
880.9226157666717
 20
19.21777195672257
 30
0.0
 40
100.0
100
AcDbArc
 50
85.33227731211809
 51
99.42952112167226
  0
ARC
  5
2019
330
2
100
AcDbEntity
  8
0
100
AcDbCircle
 10
863.228515390555
 20
125.7584628305849
 30
0.0
 40
8.0
100
AcDbArc
 50
270.0
 51
279.4295211216722
  0
LINE
  5
201A
330
2
100
AcDbEntity
  8
0
100
AcDbLine
 10
915.1067446407969
 20
135.0384603455786
 30
0.0
 11
914.3467458821241
 21
133.5184628282331
 31
0.0
  0
LINE
  5
201B
330
2
100
AcDbEntity
  8
0
100
AcDbLine
 10
914.3467458821241
 20
133.5184628282331
 30
0.0
 11
915.1067446407969
 21
133.5184628282331
 31
0.0
  0
LINE
  5
201C
330
2
100
AcDbEntity
  8
0
100
AcDbLine
 10
913.0667458821218
 20
130.95846282823
 30
0.0
 11
915.1067446407969
 21
130.95846282823
 31
0.0
  0
LINE
  5
201D
330
2
100
AcDbEntity
  8
0
100
AcDbLine
 10
913.5867446407946
 20
137.7584628282402
 30
0.0
 11
920.2266718808051
 21
137.7584628282402
 31
0.0
  0
LINE
  5
201E
330
2
100
AcDbEntity
  8
0
100
AcDbLine
 10
913.5867446407946
 20
137.7584628282402
 30
0.0
 11
909.5867446407892
 21
129.7584628282274
 31
0.0
  0
LINE
  5
201F
330
2
100
AcDbEntity
  8
0
100
AcDbLine
 10
913.0667458821218
 20
130.95846282823
 30
0.0
 11
912.4667458821214
 21
129.7584628282274
 31
0.0
  0
LINE
  5
2020
330
2
100
AcDbEntity
  8
0
100
AcDbLine
 10
909.5867446407892
 20
129.7584628282274
 30
0.0
 11
912.4667458821214
 21
129.7584628282274
 31
0.0
  0
ARC
  5
2021
330
2
100
AcDbEntity
  8
0
100
AcDbCircle
 10
920.0567446408049
 20
134.8684628282353
 30
0.0
 40
0.1700000000002474
100
AcDbArc
 50
270.0
 51
90.0
  0
LINE
  5
2022
330
2
100
AcDbEntity
  8
0
100
AcDbLine
 10
917.5066718808002
 20
135.0384628282354
 30
0.0
 11
917.5066718808002
 21
129.7584628282274
 31
0.0
  0
LINE
  5
2023
330
2
100
AcDbEntity
  8
0
100
AcDbLine
 10
915.1067446407969
 20
135.0384603455786
 30
0.0
 11
915.1067446407969
 21
133.5184628282331
 31
0.0
  0
ARC
  5
2024
330
2
100
AcDbEntity
  8
0
100
AcDbCircle
 10
920.2266718808051
 20
135.0384628282354
 30
0.0
 40
2.720000000003957
100
AcDbArc
 50
307.5189678668038
 51
90.0
  0
LINE
  5
2025
330
2
100
AcDbEntity
  8
0
100
AcDbLine
 10
917.8467446408003
 20
134.6984628282352
 30
0.0
 11
920.0567446408049
 21
134.6984628282352
 31
0.0
  0
LINE
  5
2026
330
2
100
AcDbEntity
  8
0
100
AcDbLine
 10
917.8467446408003
 20
134.6984628282352
 30
0.0
 11
920.9902848989868
 21
129.7584628282274
 31
0.0
  0
LINE
  5
2027
330
2
100
AcDbEntity
  8
0
100
AcDbLine
 10
915.1067446407969
 20
130.95846282823
 30
0.0
 11
915.1067446407969
 21
129.7584628282274
 31
0.0
  0
LINE
  5
2028
330
2
100
AcDbEntity
  8
0
100
AcDbLine
 10
915.1067446407969
 20
129.7584628282274
 30
0.0
 11
917.5066718808002
 21
129.7584628282274
 31
0.0
  0
LINE
  5
2029
330
2
100
AcDbEntity
  8
0
100
AcDbLine
 10
920.9902848989868
 20
129.7584628282274
 30
0.0
 11
923.870286140319
 21
129.7584628282274
 31
0.0
  0
LINE
  5
202A
330
2
100
AcDbEntity
  8
0
100
AcDbLine
 10
921.8832172604644
 20
132.8810900266198
 30
0.0
 11
923.870286140319
 21
129.7584628282274
 31
0.0
  0
LINE
  5
202B
330
2
100
AcDbEntity
  8
0
100
AcDbLine
 10
917.5066718808002
 20
135.0384628282354
 30
0.0
 11
920.0567446408031
 21
135.0384628282354
 31
0.0
  0
LINE
  5
202C
330
2
100
AcDbEntity
  8
0
100
AcDbLine
 10
992.1659065052054
 20
134.2584628305849
 30
0.0
 11
1027.728515390555
 21
134.2584628305849
 31
0.0
  0
LINE
  5
202D
330
2
100
AcDbEntity
  8
CENTER
100
AcDbLine
 10
973.2970578854773
 20
137.6899203356606
 30
0.0
 11
973.2970578854773
 21
119.6899203356606
 31
0.0
  0
CIRCLE
  5
202E
330
2
100
AcDbEntity
  8
HOJO
100
AcDbCircle
 10
973.2970578854773
 20
128.6899203356624
 30
0.0
 40
5.0
  0
CIRCLE
  5
202F
330
2
100
AcDbEntity
  8
0
100
AcDbCircle
 10
973.2970578854773
 20
128.6899203356624
 30
0.0
 40
4.0
  0
ARC
  5
2030
330
2
100
AcDbEntity
  8
0
100
AcDbCircle
 10
974.228515390555
 20
127.7584628305848
 30
0.0
 40
10.0
100
AcDbArc
 50
270.0
 51
0.0
  0
ARC
  5
2031
330
2
100
AcDbEntity
  8
0
100
AcDbCircle
 10
952.5344150144364
 20
19.21777195672257
 30
0.0
 40
100.0
100
AcDbArc
 50
80.57047887832773
 51
94.66772268788192
  0
ARC
  5
2032
330
2
100
AcDbEntity
  8
0
100
AcDbCircle
 10
970.2285153905549
 20
125.7584628305849
 30
0.0
 40
8.0
100
AcDbArc
 50
260.5704788783277
 51
270.0
  0
LINE
  5
2033
330
2
100
AcDbEntity
  8
0
100
AcDbLine
 10
970.2285153905549
 20
117.7584628305849
 30
0.0
 11
974.228515390555
 21
117.7584628305849
 31
0.0
  0
LINE
  5
2034
330
2
100
AcDbEntity
  8
CENTER
100
AcDbLine
 10
982.2970578854775
 20
128.6899203356624
 30
0.0
 11
964.2970578854773
 21
128.6899203356624
 31
0.0
  0
ARC
  5
2035
330
2
100
AcDbEntity
  8
0
100
AcDbCircle
 10
992.1659065052054
 20
126.2584628305849
 30
0.0
 40
8.0
100
AcDbArc
 50
90.0
 51
175.2198081527657
  0
ARC
  5
2036
330
2
100
AcDbEntity
  8
0
100
AcDbCircle
 10
1038.728515390551
 20
149.2584628305849
 30
0.0
 40
3.0
100
AcDbArc
 50
90.0
 51
180.0
  0
ARC
  5
2037
330
2
100
AcDbEntity
  8
0
100
AcDbCircle
 10
1040.728515390551
 20
152.2584628305849
 30
0.0
 40
5.0
100
AcDbArc
 50
90.0
 51
180.0
  0
ARC
  5
2038
330
2
100
AcDbEntity
  8
0
100
AcDbCircle
 10
1027.728515390555
 20
142.2584628305848
 30
0.0
 40
8.0
100
AcDbArc
 50
270.0
 51
0.0
  0
ARC
  5
2039
330
2
100
AcDbEntity
  8
0
100
AcDbCircle
 10
1056.198537390552
 20
148.2584628305849
 30
0.0
 40
3.0
100
AcDbArc
 50
180.0
 51
270.0
  0
ARC
  5
203A
330
2
100
AcDbEntity
  8
0
100
AcDbCircle
 10
1048.198537390552
 20
152.2584628305849
 30
0.0
 40
5.0
100
AcDbArc
 50
0.0
 51
90.0
  0
LINE
  5
203B
330
2
100
AcDbEntity
  8
0
100
AcDbLine
 10
1038.728515390551
 20
152.2584628305849
 30
0.0
 11
1050.198537390552
 21
152.2584628305849
 31
0.0
  0
LINE
  5
203C
330
2
100
AcDbEntity
  8
0
100
AcDbLine
 10
1040.728515390551
 20
157.2584628305849
 30
0.0
 11
1048.198537390552
 21
157.2584628305849
 31
0.0
  0
ARC
  5
203D
330
2
100
AcDbEntity
  8
0
100
AcDbCircle
 10
1050.198537390552
 20
149.2584628305849
 30
0.0
 40
3.0
100
AcDbArc
 50
0.0
 51
90.0
  0
ARC
  5
203E
330
2
100
AcDbEntity
  8
0
100
AcDbCircle
 10
1060.198537390552
 20
140.2584628305849
 30
0.0
 40
5.0
100
AcDbArc
 50
0.0
 51
90.0
  0
LINE
  5
203F
330
2
100
AcDbEntity
  8
0
100
AcDbLine
 10
1056.198537390552
 20
145.2584628305849
 30
0.0
 11
1060.198537390552
 21
145.2584628305849
 31
0.0
  0
ARC
  5
2040
330
2
100
AcDbEntity
  8
0
100
AcDbCircle
 10
1067.198537390552
 20
136.2584628305849
 30
0.0
 40
2.0
100
AcDbArc
 50
180.0
 51
270.0
  0
ARC
  5
2041
330
2
100
AcDbEntity
  8
0
100
AcDbCircle
 10
1067.198537390552
 20
135.7584628305849
 30
0.0
 40
2.0
100
AcDbArc
 50
180.0
 51
270.0
  0
ARC
  5
2042
330
2
100
AcDbEntity
  8
0
100
AcDbCircle
 10
916.7285153905551
 20
-87.24153716941506
 30
0.0
 40
340.0
100
AcDbArc
 50
85.33227731211809
 51
94.66772268788192
  0
LINE
  5
2043
330
2
100
AcDbEntity
  8
0
100
AcDbLine
 10
859.228515390555
 20
252.7584628305849
 30
0.0
 11
863.228515390555
 21
252.7584628305849
 31
0.0
  0
CIRCLE
  5
2044
330
2
100
AcDbEntity
  8
HOJO
100
AcDbCircle
 10
860.1599728956307
 20
241.8270053255091
 30
0.0
 40
5.0
  0
CIRCLE
  5
2045
330
2
100
AcDbEntity
  8
0
100
AcDbCircle
 10
860.1599728956307
 20
241.8270053255091
 30
0.0
 40
4.0
  0
LINE
  5
2046
330
2
100
AcDbEntity
  8
CENTER
100
AcDbLine
 10
851.1599728956307
 20
241.8270053255091
 30
0.0
 11
869.1599728956306
 21
241.8270053255091
 31
0.0
  0
ARC
  5
2047
330
2
100
AcDbEntity
  8
0
100
AcDbCircle
 10
750.6878245166927
 20
221.0643624544682
 30
0.0
 40
100.0
100
AcDbArc
 50
355.332277312118
 51
9.42952112161606
  0
LINE
  5
2048
330
2
100
AcDbEntity
  8
CENTER
100
AcDbLine
 10
860.1599728956307
 20
232.8270053255091
 30
0.0
 11
860.1599728956307
 21
250.8270053255091
 31
0.0
  0
ARC
  5
2049
330
2
100
AcDbEntity
  8
0
100
AcDbCircle
 10
857.2285153905532
 20
238.7584628305849
 30
0.0
 40
8.0
100
AcDbArc
 50
180.0
 51
189.429521121616
  0
LINE
  5
204A
330
2
100
AcDbEntity
  8
0
100
AcDbLine
 10
849.228515390555
 20
238.7584628305849
 30
0.0
 11
849.228515390555
 21
242.7584628305849
 31
0.0
  0
ARC
  5
204B
330
2
100
AcDbEntity
  8
0
100
AcDbCircle
 10
859.228515390555
 20
242.7584628305849
 30
0.0
 40
10.0
100
AcDbArc
 50
90.0
 51
180.0
  0
ARC
  5
204C
330
2
100
AcDbEntity
  8
0
100
AcDbCircle
 10
880.9226157666717
 20
351.2991537044472
 30
0.0
 40
100.0
100
AcDbArc
 50
260.5704788783277
 51
274.6677226878819
  0
ARC
  5
204D
330
2
100
AcDbEntity
  8
0
100
AcDbCircle
 10
863.228515390555
 20
244.7584628305849
 30
0.0
 40
8.0
100
AcDbArc
 50
80.57047887832773
 51
90.0
  0
LINE
  5
204E
330
2
100
AcDbEntity
  8
0
100
AcDbLine
 10
992.1659065052054
 20
236.2584628305849
 30
0.0
 11
1027.728515390555
 21
236.2584628305849
 31
0.0
  0
LINE
  5
204F
330
2
100
AcDbEntity
  8
CENTER
100
AcDbLine
 10
982.2970578854775
 20
241.8270053255091
 30
0.0
 11
964.2970578854773
 21
241.8270053255091
 31
0.0
  0
ARC
  5
2050
330
2
100
AcDbEntity
  8
0
100
AcDbCircle
 10
952.5344150144364
 20
351.2991537044472
 30
0.0
 40
100.0
100
AcDbArc
 50
265.332277312118
 51
279.4295211216722
  0
ARC
  5
2051
330
2
100
AcDbEntity
  8
0
100
AcDbCircle
 10
974.228515390555
 20
242.7584628305849
 30
0.0
 40
10.0
100
AcDbArc
 50
0.0
 51
90.0
  0
ARC
  5
2052
330
2
100
AcDbEntity
  8
0
100
AcDbCircle
 10
992.1659065052054
 20
244.2584628305849
 30
0.0
 40
8.0
100
AcDbArc
 50
184.7801918472342
 51
270.0
  0
LINE
  5
2053
330
2
100
AcDbEntity
  8
CENTER
100
AcDbLine
 10
973.2970578854773
 20
232.8270053255091
 30
0.0
 11
973.2970578854773
 21
250.8270053255091
 31
0.0
  0
ARC
  5
2054
330
2
100
AcDbEntity
  8
0
100
AcDbCircle
 10
970.2285153905549
 20
244.7584628305849
 30
0.0
 40
8.0
100
AcDbArc
 50
90.0
 51
99.42952112167226
  0
LINE
  5
2055
330
2
100
AcDbEntity
  8
0
100
AcDbLine
 10
970.2285153905549
 20
252.7584628305849
 30
0.0
 11
974.228515390555
 21
252.7584628305849
 31
0.0
  0
CIRCLE
  5
2056
330
2
100
AcDbEntity
  8
HOJO
100
AcDbCircle
 10
973.2970578854773
 20
241.8270053255091
 30
0.0
 40
5.0
  0
CIRCLE
  5
2057
330
2
100
AcDbEntity
  8
0
100
AcDbCircle
 10
973.2970578854773
 20
241.8270053255091
 30
0.0
 40
4.0
  0
ARC
  5
2058
330
2
100
AcDbEntity
  8
0
100
AcDbCircle
 10
1048.198537390552
 20
218.2584628305848
 30
0.0
 40
5.0
100
AcDbArc
 50
270.0
 51
0.0
  0
ARC
  5
2059
330
2
100
AcDbEntity
  8
0
100
AcDbCircle
 10
1040.728515390551
 20
218.2584628305848
 30
0.0
 40
5.0
100
AcDbArc
 50
180.0
 51
270.0
  0
ARC
  5
205A
330
2
100
AcDbEntity
  8
0
100
AcDbCircle
 10
1038.728515390554
 20
190.7584628305849
 30
0.0
 40
3.0
100
AcDbArc
 50
180.0
 51
270.0
  0
ARC
  5
205B
330
2
100
AcDbEntity
  8
0
100
AcDbCircle
 10
1038.728515390554
 20
179.7584628305848
 30
0.0
 40
3.0
100
AcDbArc
 50
90.0
 51
180.0
  0
LINE
  5
205C
330
2
100
AcDbEntity
  8
0
100
AcDbLine
 10
1038.728515390554
 20
187.7584628305849
 30
0.0
 11
1050.198537390552
 21
187.7584628305849
 31
0.0
  0
LINE
  5
205D
330
2
100
AcDbEntity
  8
0
100
AcDbLine
 10
1040.728515390551
 20
213.2584628305849
 30
0.0
 11
1048.198537390552
 21
213.2584628305849
 31
0.0
  0
ARC
  5
205E
330
2
100
AcDbEntity
  8
0
100
AcDbCircle
 10
1050.198537390552
 20
190.7584628305849
 30
0.0
 40
3.0
100
AcDbArc
 50
270.0
 51
0.0
  0
LINE
  5
205F
330
2
100
AcDbEntity
  8
0
100
AcDbLine
 10
1038.728515390554
 20
182.7584628305849
 30
0.0
 11
1050.198537390552
 21
182.7584628305849
 31
0.0
  0
ARC
  5
2060
330
2
100
AcDbEntity
  8
0
100
AcDbCircle
 10
1050.198537390552
 20
179.7584628305848
 30
0.0
 40
3.0
100
AcDbArc
 50
0.0
 51
90.0
  0
ARC
  5
2061
330
2
100
AcDbEntity
  8
0
100
AcDbCircle
 10
1038.728515390551
 20
221.2584628305849
 30
0.0
 40
3.0
100
AcDbArc
 50
180.0
 51
270.0
  0
ARC
  5
2062
330
2
100
AcDbEntity
  8
0
100
AcDbCircle
 10
1027.728515390555
 20
228.2584628305849
 30
0.0
 40
8.0
100
AcDbArc
 50
0.0
 51
90.0
  0
ARC
  5
2063
330
2
100
AcDbEntity
  8
0
100
AcDbCircle
 10
1056.198537390552
 20
222.2584628305849
 30
0.0
 40
3.0
100
AcDbArc
 50
90.0
 51
180.0
  0
LINE
  5
2064
330
2
100
AcDbEntity
  8
0
100
AcDbLine
 10
1038.728515390551
 20
218.2584628305848
 30
0.0
 11
1050.198537390552
 21
218.2584628305848
 31
0.0
  0
ARC
  5
2065
330
2
100
AcDbEntity
  8
0
100
AcDbCircle
 10
1050.198537390552
 20
221.2584628305849
 30
0.0
 40
3.0
100
AcDbArc
 50
270.0
 51
0.0
  0
ARC
  5
2066
330
2
100
AcDbEntity
  8
0
100
AcDbCircle
 10
1067.198537390552
 20
234.2584628305849
 30
0.0
 40
2.0
100
AcDbArc
 50
90.0
 51
180.0
  0
ARC
  5
2067
330
2
100
AcDbEntity
  8
0
100
AcDbCircle
 10
1067.198537390552
 20
234.7584628305849
 30
0.0
 40
2.0
100
AcDbArc
 50
90.0
 51
180.0
  0
LINE
  5
2068
330
2
100
AcDbEntity
  8
0
100
AcDbLine
 10
1056.198537390552
 20
225.2584628305849
 30
0.0
 11
1060.198537390552
 21
225.2584628305849
 31
0.0
  0
ARC
  5
2069
330
2
100
AcDbEntity
  8
0
100
AcDbCircle
 10
1060.198537390552
 20
230.2584628305849
 30
0.0
 40
5.0
100
AcDbArc
 50
270.0
 51
0.0
  0
LINE
  5
20E7
330
2
100
AcDbEntity
  8
0
100
AcDbLine
 10
1080.698537390552
 20
653.2298369518334
 30
0.0
 11
1067.146851132395
 21
653.2298369518334
 31
0.0
  0
LINE
  5
20E8
330
2
100
AcDbEntity
  8
0
100
AcDbLine
 10
1063.863309665211
 20
602.220126593676
 30
0.0
 11
1080.698537390552
 21
602.2298369518335
 31
0.0
  0
LINE
  5
20EA
330
2
100
AcDbEntity
  8
0
100
AcDbLine
 10
1080.698537390552
 20
551.2298369518334
 30
0.0
 11
1067.146851132395
 21
551.2298369518334
 31
0.0
  0
LINE
  5
20EB
330
2
100
AcDbEntity
  8
0
100
AcDbLine
 10
863.2285153905568
 20
637.729836951828
 30
0.0
 11
863.2285153905604
 21
550.7298369518353
 31
0.0
  0
LINE
  5
20EC
330
2
100
AcDbEntity
  8
0
100
AcDbLine
 10
859.2285153905567
 20
637.729836951828
 30
0.0
 11
859.2285153905605
 21
550.7298369518353
 31
0.0
  0
LINE
  5
20EE
330
2
100
AcDbEntity
  8
CENTER
100
AcDbLine
 10
916.7285153905536
 20
684.2298369518479
 30
0.0
 11
916.7285153905559
 21
458.2298402806432
 31
0.0
  0
ARC
  5
20EF
330
2
100
AcDbEntity
  8
0
100
AcDbCircle
 10
1049.294072718935
 20
596.7298369518334
 30
0.0
 40
3.0
100
AcDbArc
 50
1.499999999989629
 51
90.0
  0
ARC
  5
20F0
330
2
100
AcDbEntity
  8
0
100
AcDbCircle
 10
1038.994799093335
 20
596.7298369518334
 30
0.0
 40
3.0
100
AcDbArc
 50
90.0
 51
179.5000000000344
  0
LINE
  5
20F1
330
2
100
AcDbEntity
  8
0
100
AcDbLine
 10
1052.151078527776
 20
602.2298369518335
 30
0.0
 11
1053.122014028392
 21
565.1513061069104
 31
0.0
  0
LINE
  5
20F2
330
2
100
AcDbEntity
  8
0
100
AcDbLine
 10
1065.147536482444
 20
553.1774830552181
 30
0.0
 11
1063.863309665211
 21
602.220126593676
 31
0.0
  0
LINE
  5
20F3
330
2
100
AcDbEntity
  8
0
100
AcDbLine
 10
1035.614913798631
 20
553.212383880836
 30
0.0
 11
1036.042682631027
 21
602.2298369518335
 31
0.0
  0
LINE
  5
20F4
330
2
100
AcDbEntity
  8
0
100
AcDbLine
 10
984.2285153906622
 20
638.7298369518316
 30
0.0
 11
983.4474607232836
 21
549.2298369518334
 31
0.0
  0
LINE
  5
20F5
330
2
100
AcDbEntity
  8
0
100
AcDbLine
 10
974.228515390555
 20
637.7298369518316
 30
0.0
 11
974.2285153905532
 21
550.7298369518389
 31
0.0
  0
LINE
  5
20F6
330
2
100
AcDbEntity
  8
0
100
AcDbLine
 10
970.2285153905531
 20
637.7298369518316
 30
0.0
 11
970.2285153905531
 21
550.7298369518389
 31
0.0
  0
LINE
  5
20F7
330
2
100
AcDbEntity
  8
0
100
AcDbLine
 10
889.0603202266293
 20
637.7298369518298
 30
0.0
 11
889.060320226631
 21
550.7298369518353
 31
0.0
  0
LINE
  5
20F8
330
2
100
AcDbEntity
  8
0
100
AcDbLine
 10
944.396710554477
 20
637.7298369518316
 30
0.0
 11
944.396710554477
 21
550.7298369518389
 31
0.0
  0
LINE
  5
20FB
330
2
100
AcDbEntity
  8
0
100
AcDbLine
 10
875.1598929401689
 20
530.2298369518334
 30
0.0
 11
958.2971378409393
 21
530.2298369518334
 31
0.0
  0
LINE
  5
20FE
330
2
100
AcDbEntity
  8
0
100
AcDbLine
 10
856.7285153905531
 20
544.2298369518335
 30
0.0
 11
976.7285153905531
 21
544.2298369518335
 31
0.0
  0
LINE
  5
20FF
330
2
100
AcDbEntity
  8
0
100
AcDbLine
 10
850.0095700578262
 20
549.2298369518334
 30
0.0
 11
983.4474607232836
 21
549.2298369518334
 31
0.0
  0
LINE
  5
2103
330
2
100
AcDbEntity
  8
0
100
AcDbLine
 10
856.7285153905531
 20
549.2298369518334
 30
0.0
 11
856.7285153905531
 21
544.2298369518335
 31
0.0
  0
LINE
  5
2106
330
2
100
AcDbEntity
  8
0
100
AcDbLine
 10
873.1611112861292
 20
532.1600379584283
 30
0.0
 11
872.8070287220935
 21
542.2996359452386
 31
0.0
  0
ARC
  5
2107
330
2
100
AcDbEntity
  8
0
100
AcDbCircle
 10
870.8082470680556
 20
542.2298369518334
 30
0.0
 40
2.0
100
AcDbArc
 50
2.000000000003725
 51
90.0
  0
ARC
  5
2108
330
2
100
AcDbEntity
  8
0
100
AcDbCircle
 10
875.1598929401689
 20
532.2298369518335
 30
0.0
 40
2.0
100
AcDbArc
 50
182.0000000000037
 51
270.0
  0
LINE
  5
210C
330
2
100
AcDbEntity
  8
0
100
AcDbLine
 10
984.9518833040983
 20
551.2366145173749
 30
0.0
 11
1033.614989952501
 21
551.2298369518334
 31
0.0
  0
ARC
  5
2111
330
2
100
AcDbEntity
  8
0
100
AcDbCircle
 10
962.6487837130525
 20
542.2298369518334
 30
0.0
 40
2.0
100
AcDbArc
 50
90.0
 51
177.9999999999962
  0
LINE
  5
2112
330
2
100
AcDbEntity
  8
0
100
AcDbLine
 10
960.2959194949789
 20
532.1600379584283
 30
0.0
 11
960.6500020590146
 21
542.2996359452386
 31
0.0
  0
ARC
  5
2113
330
2
100
AcDbEntity
  8
0
100
AcDbCircle
 10
958.2971378409393
 20
532.2298369518335
 30
0.0
 40
2.0
100
AcDbArc
 50
270.0
 51
357.9999999999962
  0
ARC
  5
2114
330
2
100
AcDbEntity
  8
0
100
AcDbCircle
 10
984.9518833040983
 20
549.7366145173749
 30
0.0
 40
1.5
100
AcDbArc
 50
90.0
 51
180.0
  0
LINE
  5
2116
330
2
100
AcDbEntity
  8
0
100
AcDbLine
 10
976.7285153905531
 20
549.2298369518334
 30
0.0
 11
976.7285153905531
 21
544.2298369518335
 31
0.0
  0
ARC
  5
2117
330
2
100
AcDbEntity
  8
0
100
AcDbCircle
 10
1033.614989952501
 20
553.2298369518334
 30
0.0
 40
2.0
100
AcDbArc
 50
270.0
 51
359.5000000000345
  0
ARC
  5
2118
330
2
100
AcDbEntity
  8
0
100
AcDbCircle
 10
1067.146851132395
 20
553.2298369518334
 30
0.0
 40
2.0
100
AcDbArc
 50
181.4999999999896
 51
270.0
  0
ARC
  5
2119
330
2
100
AcDbEntity
  8
0
100
AcDbCircle
 10
1038.728629625712
 20
566.2298369518334
 30
0.0
 40
3.0
100
AcDbArc
 50
90.0
 51
179.5000000000344
  0
ARC
  5
211A
330
2
100
AcDbEntity
  8
0
100
AcDbCircle
 10
1040.754886385858
 20
569.2298369518335
 30
0.0
 40
5.0
100
AcDbArc
 50
90.0
 51
179.5000000000344
  0
ARC
  5
211B
330
2
100
AcDbEntity
  8
0
100
AcDbCircle
 10
1056.120986003318
 20
565.2298369518335
 30
0.0
 40
3.0
100
AcDbArc
 50
181.4999999999896
 51
270.0
  0
ARC
  5
211C
330
2
100
AcDbEntity
  8
0
100
AcDbCircle
 10
1050.092743326805
 20
566.2298369518334
 30
0.0
 40
3.0
100
AcDbArc
 50
1.499999999989629
 51
90.0
  0
LINE
  5
211D
330
2
100
AcDbEntity
  8
0
100
AcDbLine
 10
1040.754886385858
 20
574.2298369518334
 30
0.0
 11
1048.013499977113
 21
574.2298369518334
 31
0.0
  0
LINE
  5
211E
330
2
100
AcDbEntity
  8
0
100
AcDbLine
 10
1038.728515390551
 20
569.2298369518335
 30
0.0
 11
1050.092743326805
 21
569.2298369518335
 31
0.0
  0
ARC
  5
211F
330
2
100
AcDbEntity
  8
0
100
AcDbCircle
 10
1048.013499977113
 20
569.2298369518335
 30
0.0
 40
5.0
100
AcDbArc
 50
1.499999999989629
 51
90.0
  0
LINE
  5
2120
330
2
100
AcDbEntity
  8
0
100
AcDbLine
 10
1056.120986003318
 20
562.2298369518334
 30
0.0
 11
1060.039707898683
 21
562.2298369518334
 31
0.0
  0
ARC
  5
2121
330
2
100
AcDbEntity
  8
0
100
AcDbCircle
 10
1060.039707898683
 20
557.2298369518335
 30
0.0
 40
5.0
100
AcDbArc
 50
1.499999999989629
 51
90.0
  0
LINE
  5
2122
330
2
100
AcDbEntity
  8
0
100
AcDbLine
 10
874.8058656597432
 20
669.229836951848
 30
0.0
 11
958.6511651213667
 21
669.229836951848
 31
0.0
  0
LINE
  5
2123
330
2
100
AcDbEntity
  8
0
100
AcDbLine
 10
959.0285153905542
 20
664.7298369518516
 30
0.0
 11
874.4285153905575
 21
664.7298369518516
 31
0.0
  0
LINE
  5
2124
330
2
100
AcDbEntity
  8
0
100
AcDbLine
 10
959.0285153905542
 20
666.7298369518516
 30
0.0
 11
874.4285153905538
 21
666.7298369519171
 31
0.0
  0
LINE
  5
2125
330
2
100
AcDbEntity
  8
0
100
AcDbLine
 10
961.2285153905531
 20
661.2298369518517
 30
0.0
 11
872.2285153905568
 21
661.2298369518517
 31
0.0
  0
LINE
  5
2126
330
2
100
AcDbEntity
  8
0
100
AcDbLine
 10
874.2285153905532
 20
668.229836951848
 30
0.0
 11
959.2285153905532
 21
668.2298369518516
 31
0.0
  0
LINE
  5
2127
330
2
100
AcDbEntity
  8
0
100
AcDbLine
 10
968.9000882658065
 20
660.7298369518534
 30
0.0
 11
864.5569425152999
 21
660.7298369518407
 31
0.0
  0
LINE
  5
2128
330
2
100
AcDbEntity
  8
0
100
AcDbLine
 10
982.2285153905532
 20
658.7298369518535
 30
0.0
 11
851.3900386014547
 21
658.7298369518535
 31
0.0
  0
LINE
  5
212A
330
2
100
AcDbEntity
  8
0
100
AcDbLine
 10
849.2285153905477
 20
638.2298369518535
 30
0.0
 11
1035.72851539056
 21
638.2298369518407
 31
0.0
  0
LINE
  5
212B
330
2
100
AcDbEntity
  8
0
100
AcDbLine
 10
862.3143018281798
 20
659.3156233894746
 30
0.0
 11
863.1427289529264
 21
660.1440505142213
 31
0.0
  0
LINE
  5
212C
330
2
100
AcDbEntity
  8
0
100
AcDbLine
 10
867.2328597852548
 20
648.2298369518571
 30
0.0
 11
850.3070952790558
 21
648.2298369518571
 31
0.0
  0
LINE
  5
212D
330
2
100
AcDbEntity
  8
0
100
AcDbLine
 10
853.5945407943373
 20
658.2298369518571
 30
0.0
 11
864.8624899867673
 21
658.2298369518571
 31
0.0
  0
LINE
  5
212E
330
2
100
AcDbEntity
  8
0
100
AcDbLine
 10
852.7285153905513
 20
648.2298369518571
 30
0.0
 11
865.7285153905514
 21
648.2298369518571
 31
0.0
  0
LINE
  5
212F
330
2
100
AcDbEntity
  8
0
100
AcDbLine
 10
852.7285153905513
 20
650.229836951857
 30
0.0
 11
865.7285153905514
 21
650.229836951857
 31
0.0
  0
LINE
  5
2130
330
2
100
AcDbEntity
  8
0
100
AcDbLine
 10
852.7285153905513
 20
657.7298369518571
 30
0.0
 11
865.7285153905514
 21
657.7298369518571
 31
0.0
  0
LINE
  5
2131
330
2
100
AcDbEntity
  8
CENTER
  6
CENS
100
AcDbLine
 10
859.2285153905532
 20
630.0328446777598
 30
0.0
 11
859.2285153905532
 21
661.2298369518571
 31
0.0
  0
LINE
  5
2132
330
2
100
AcDbEntity
  8
0
100
AcDbLine
 10
849.3901147553252
 20
656.7472900228453
 30
0.0
 11
849.2285153905532
 21
638.229836951848
 31
0.0
  0
LINE
  5
2133
330
2
100
AcDbEntity
  8
0
100
AcDbLine
 10
859.2285153905532
 20
647.2385634873549
 30
0.0
 11
859.2285153905532
 21
638.229836951848
 31
0.0
  0
ARC
  5
2134
330
2
100
AcDbEntity
  8
0
100
AcDbCircle
 10
860.9000882658065
 20
660.729836951848
 30
0.0
 40
2.0
100
AcDbArc
 50
270.0
 51
315.0000000000092
  0
ARC
  5
2135
330
2
100
AcDbEntity
  8
0
100
AcDbCircle
 10
851.3900386014547
 20
656.729836951848
 30
0.0
 40
2.0
100
AcDbArc
 50
90.0
 51
179.5000000000344
  0
ARC
  5
2136
330
2
100
AcDbEntity
  8
0
100
AcDbCircle
 10
850.3070952790558
 20
647.2298369518571
 30
0.0
 40
1.0
100
AcDbArc
 50
90.0
 51
179.5000000000344
  0
LINE
  5
2137
330
2
100
AcDbEntity
  8
0
100
AcDbLine
 10
852.7285153905513
 20
657.7298369518571
 30
0.0
 11
853.5945407943373
 21
658.2298369518571
 31
0.0
  0
LINE
  5
2138
330
2
100
AcDbEntity
  8
0
100
AcDbLine
 10
852.7285153905513
 20
648.2298369518571
 30
0.0
 11
852.7285153905513
 21
650.229836951857
 31
0.0
  0
LINE
  5
2139
330
2
100
AcDbEntity
  8
0
100
AcDbLine
 10
852.7285153905513
 20
650.229836951857
 30
0.0
 11
852.7285153905513
 21
657.7298369518571
 31
0.0
  0
LINE
  5
213A
330
2
100
AcDbEntity
  8
0
100
AcDbLine
 10
863.2285153905531
 20
647.2385634873549
 30
0.0
 11
863.2285153905531
 21
638.229836951848
 31
0.0
  0
LINE
  5
213B
330
2
100
AcDbEntity
  8
0
100
AcDbLine
 10
889.0603202266293
 20
656.7472900228509
 30
0.0
 11
889.0603202266293
 21
638.229836951848
 31
0.0
  0
LINE
  5
213C
330
2
100
AcDbEntity
  8
0
100
AcDbLine
 10
874.4285153905538
 20
664.729836951848
 30
0.0
 11
874.2285153905532
 21
664.5298369518491
 31
0.0
  0
LINE
  5
213D
330
2
100
AcDbEntity
  8
0
100
AcDbLine
 10
874.9285153905539
 20
666.5298369518491
 30
0.0
 11
874.9285153905539
 21
664.9298369518487
 31
0.0
  0
LINE
  5
213E
330
2
100
AcDbEntity
  8
0
100
AcDbLine
 10
874.2285153905532
 20
668.229836951848
 30
0.0
 11
874.8058656597432
 21
669.229836951848
 31
0.0
  0
LINE
  5
213F
330
2
100
AcDbEntity
  8
0
100
AcDbLine
 10
874.2285153905532
 20
668.229836951848
 30
0.0
 11
874.2285153905532
 21
666.9298369518487
 31
0.0
  0
LINE
  5
2140
330
2
100
AcDbEntity
  8
0
100
AcDbLine
 10
874.2285153905532
 20
664.5298369518491
 30
0.0
 11
874.2285153905532
 21
661.229836951848
 31
0.0
  0
ARC
  5
2141
330
2
100
AcDbEntity
  8
0
100
AcDbCircle
 10
874.4285153905538
 20
666.9298369518487
 30
0.0
 40
0.2
100
AcDbArc
 50
180.0
 51
270.0
  0
ARC
  5
2142
330
2
100
AcDbEntity
  8
0
100
AcDbCircle
 10
874.7285153905531
 20
666.5298369518491
 30
0.0
 40
0.2
100
AcDbArc
 50
0.0
 51
90.0
  0
ARC
  5
2143
330
2
100
AcDbEntity
  8
0
100
AcDbCircle
 10
874.7285153905531
 20
664.9298369518487
 30
0.0
 40
0.2
100
AcDbArc
 50
270.0
 51
0.0
  0
ARC
  5
2144
330
2
100
AcDbEntity
  8
0
100
AcDbCircle
 10
869.802769923549
 20
656.7298369518534
 30
0.0
 40
2.0
100
AcDbArc
 50
90.0
 51
179.5000000000344
  0
ARC
  5
2145
330
2
100
AcDbEntity
  8
0
100
AcDbCircle
 10
864.5569425152999
 20
658.729836951848
 30
0.0
 40
2.0
100
AcDbArc
 50
90.0
 51
135.0000000000092
  0
LINE
  5
2146
330
2
100
AcDbEntity
  8
0
100
AcDbLine
 10
867.7328407467895
 20
648.7254736841091
 30
0.0
 11
867.8028460774195
 21
656.7472900228509
 31
0.0
  0
ARC
  5
2147
330
2
100
AcDbEntity
  8
0
100
AcDbCircle
 10
867.2328597852548
 20
648.7298369518571
 30
0.0
 40
0.5
100
AcDbArc
 50
270.0
 51
359.5000000000345
  0
LINE
  5
2148
330
2
100
AcDbEntity
  8
0
100
AcDbLine
 10
865.7285153905514
 20
657.7298369518571
 30
0.0
 11
864.8624899867673
 21
658.2298369518571
 31
0.0
  0
LINE
  5
2149
330
2
100
AcDbEntity
  8
0
100
AcDbLine
 10
865.7285153905514
 20
648.2298369518571
 30
0.0
 11
865.7285153905514
 21
650.229836951857
 31
0.0
  0
LINE
  5
214A
330
2
100
AcDbEntity
  8
0
100
AcDbLine
 10
865.7285153905514
 20
650.229836951857
 30
0.0
 11
865.7285153905514
 21
657.7298369518571
 31
0.0
  0
LINE
  5
214B
330
2
100
AcDbEntity
  8
0
100
AcDbLine
 10
871.7285153905532
 20
660.729836951848
 30
0.0
 11
872.2285153905531
 21
661.229836951848
 31
0.0
  0
LINE
  5
214C
330
2
100
AcDbEntity
  8
0
100
AcDbLine
 10
1021.228515390553
 20
653.2298369518534
 30
0.0
 11
986.2285153905531
 21
653.2298369518534
 31
0.0
  0
LINE
  5
214D
330
2
100
AcDbEntity
  8
0
100
AcDbLine
 10
984.2285153905532
 20
638.229836951848
 30
0.0
 11
984.2285153905532
 21
656.7298369518534
 31
0.0
  0
LINE
  5
214E
330
2
100
AcDbEntity
  8
0
100
AcDbLine
 10
974.2285153905532
 20
656.7298369518534
 30
0.0
 11
974.2285153905532
 21
638.229836951848
 31
0.0
  0
LINE
  5
214F
330
2
100
AcDbEntity
  8
0
100
AcDbLine
 10
970.2285153905531
 20
656.7298369518534
 30
0.0
 11
970.2285153905531
 21
638.229836951848
 31
0.0
  0
LINE
  5
2150
330
2
100
AcDbEntity
  8
0
100
AcDbLine
 10
944.396710554477
 20
656.7472900228509
 30
0.0
 11
944.396710554477
 21
638.229836951848
 31
0.0
  0
LINE
  5
2151
330
2
100
AcDbEntity
  8
0
100
AcDbLine
 10
961.7285153905532
 20
660.7298369518534
 30
0.0
 11
961.2285153905531
 21
661.2298369518517
 31
0.0
  0
LINE
  5
2152
330
2
100
AcDbEntity
  8
0
100
AcDbLine
 10
959.0285153905542
 20
664.7298369518516
 30
0.0
 11
959.2285153905532
 21
664.5298369518528
 31
0.0
  0
LINE
  5
2153
330
2
100
AcDbEntity
  8
0
100
AcDbLine
 10
959.2285153905532
 20
668.2298369518516
 30
0.0
 11
959.2285153905532
 21
666.9298369518523
 31
0.0
  0
LINE
  5
2154
330
2
100
AcDbEntity
  8
0
100
AcDbLine
 10
958.5285153905543
 20
666.5298369518527
 30
0.0
 11
958.5285153905543
 21
664.9298369518524
 31
0.0
  0
LINE
  5
2155
330
2
100
AcDbEntity
  8
0
100
AcDbLine
 10
959.2285153905532
 20
668.2298369518516
 30
0.0
 11
958.6511651213632
 21
669.2298369518517
 31
0.0
  0
LINE
  5
2156
330
2
100
AcDbEntity
  8
0
100
AcDbLine
 10
959.2285153905532
 20
664.5298369518528
 30
0.0
 11
959.2285153905532
 21
661.2298369518517
 31
0.0
  0
ARC
  5
2157
330
2
100
AcDbEntity
  8
0
100
AcDbCircle
 10
959.0285153905542
 20
666.9298369518523
 30
0.0
 40
0.2
100
AcDbArc
 50
270.0
 51
0.0
  0
ARC
  5
2158
330
2
100
AcDbEntity
  8
0
100
AcDbCircle
 10
958.7285153905531
 20
666.5298369518527
 30
0.0
 40
0.2
100
AcDbArc
 50
90.0
 51
180.0
  0
ARC
  5
2159
330
2
100
AcDbEntity
  8
0
100
AcDbCircle
 10
958.7285153905531
 20
664.9298369518524
 30
0.0
 40
0.2
100
AcDbArc
 50
180.0
 51
270.0
  0
ARC
  5
215A
330
2
100
AcDbEntity
  8
0
100
AcDbCircle
 10
986.2285153905531
 20
655.2298369518535
 30
0.0
 40
2.0
100
AcDbArc
 50
180.0
 51
270.0
  0
LINE
  5
215B
330
2
100
AcDbEntity
  8
0
100
AcDbLine
 10
984.2285153905532
 20
655.2298369518535
 30
0.0
 11
984.2285153905532
 21
656.7298369518534
 31
0.0
  0
ARC
  5
215C
330
2
100
AcDbEntity
  8
0
100
AcDbCircle
 10
982.2285153905532
 20
656.7298369518534
 30
0.0
 40
2.0
100
AcDbArc
 50
0.0
 51
90.0
  0
LINE
  5
215D
330
2
100
AcDbEntity
  8
0
100
AcDbLine
 10
971.1427289529265
 20
659.3156233894801
 30
0.0
 11
970.3143018281798
 21
660.1440505142268
 31
0.0
  0
ARC
  5
215E
330
2
100
AcDbEntity
  8
0
100
AcDbCircle
 10
968.9000882658083
 20
658.7298369518535
 30
0.0
 40
2.0
100
AcDbArc
 50
44.99999999999078
 51
90.0
  0
ARC
  5
215F
330
2
100
AcDbEntity
  8
0
100
AcDbCircle
 10
972.5569425152999
 20
660.7298369518534
 30
0.0
 40
2.0
100
AcDbArc
 50
224.9999999999908
 51
270.0
  0
ARC
  5
2160
330
2
100
AcDbEntity
  8
0
100
AcDbCircle
 10
1060.039707898683
 20
647.2298369518334
 30
0.0
 40
5.0
100
AcDbArc
 50
270.0
 51
358.5000000000103
  0
ARC
  5
2161
330
2
100
AcDbEntity
  8
0
100
AcDbCircle
 10
1056.120986003318
 20
639.2298369518335
 30
0.0
 40
3.0
100
AcDbArc
 50
90.0
 51
178.5000000000103
  0
LINE
  5
2162
330
2
100
AcDbEntity
  8
0
100
AcDbLine
 10
1065.147536482444
 20
651.2821908484489
 30
0.0
 11
1063.863309665211
 21
602.2395473099909
 31
0.0
  0
LINE
  5
2163
330
2
100
AcDbEntity
  8
0
100
AcDbLine
 10
1035.728515390553
 20
638.229836951848
 30
0.0
 11
1035.614913798629
 21
651.247290022849
 31
0.0
  0
LINE
  5
2164
330
2
100
AcDbEntity
  8
CENTER
  6
CENS
100
AcDbLine
 10
1027.728515390553
 20
630.0328446777598
 30
0.0
 11
1027.728515390553
 21
661.2298369518571
 31
0.0
  0
ARC
  5
2165
330
2
100
AcDbEntity
  8
0
100
AcDbCircle
 10
1040.754886385856
 20
635.2298369518335
 30
0.0
 40
5.0
100
AcDbArc
 50
180.4999999999655
 51
270.0
  0
ARC
  5
2166
330
2
100
AcDbEntity
  8
0
100
AcDbCircle
 10
1038.994799093324
 20
607.7298369518334
 30
0.0
 40
3.0
100
AcDbArc
 50
180.4999999999655
 51
270.0
  0
ARC
  5
2167
330
2
100
AcDbEntity
  8
0
100
AcDbCircle
 10
1038.728629625712
 20
638.2298369518334
 30
0.0
 40
3.0
100
AcDbArc
 50
180.4999999999655
 51
270.0
  0
LINE
  5
2168
330
2
100
AcDbEntity
  8
0
100
AcDbLine
 10
1035.728515390555
 20
638.2298369518407
 30
0.0
 11
1036.042682631016
 21
602.2298369518335
 31
0.0
  0
ARC
  5
2169
330
2
100
AcDbEntity
  8
0
100
AcDbCircle
 10
1029.658458398706
 20
603.2298369518334
 30
0.0
 40
1.0
100
AcDbArc
 50
181.4999999998854
 51
270.0
  0
LINE
  5
216A
330
2
100
AcDbEntity
  8
0
100
AcDbLine
 10
1027.741608351339
 20
638.2298369518407
 30
0.0
 11
1028.658801073731
 21
603.2036600035276
 31
0.0
  0
LINE
  5
216B
330
2
100
AcDbEntity
  8
0
100
AcDbLine
 10
1035.728515390558
 20
602.2298369518335
 30
0.0
 11
1029.658458398706
 21
602.2298369518335
 31
0.0
  0
ARC
  5
216C
330
2
100
AcDbEntity
  8
0
100
AcDbCircle
 10
1050.092743326805
 20
638.2298369518334
 30
0.0
 40
3.0
100
AcDbArc
 50
270.0
 51
358.5000000000103
  0
LINE
  5
216D
330
2
100
AcDbEntity
  8
0
100
AcDbLine
 10
1052.151078527776
 20
602.2298369518335
 30
0.0
 11
1053.122014028392
 21
639.3083677967584
 31
0.0
  0
LINE
  5
216E
330
2
100
AcDbEntity
  8
0
100
AcDbLine
 10
1040.754886385856
 20
630.2298369518334
 30
0.0
 11
1048.013499977113
 21
630.2298369518334
 31
0.0
  0
LINE
  5
216F
330
2
100
AcDbEntity
  8
0
100
AcDbLine
 10
1038.994799093335
 20
599.7298369518334
 30
0.0
 11
1049.294072718935
 21
599.7298369518334
 31
0.0
  0
LINE
  5
2170
330
2
100
AcDbEntity
  8
0
100
AcDbLine
 10
1038.994799093324
 20
604.7298369518334
 30
0.0
 11
1049.294072718935
 21
604.7298369518334
 31
0.0
  0
LINE
  5
2171
330
2
100
AcDbEntity
  8
0
100
AcDbLine
 10
1038.728515390551
 20
635.2298369518335
 30
0.0
 11
1050.092743326805
 21
635.2298369518335
 31
0.0
  0
ARC
  5
2172
330
2
100
AcDbEntity
  8
0
100
AcDbCircle
 10
1048.013499977113
 20
635.2298369518335
 30
0.0
 40
5.0
100
AcDbArc
 50
270.0
 51
358.5000000000103
  0
ARC
  5
2173
330
2
100
AcDbEntity
  8
0
100
AcDbCircle
 10
1049.294072718935
 20
607.7298369518334
 30
0.0
 40
3.0
100
AcDbArc
 50
270.0
 51
358.5000000000103
  0
LINE
  5
2174
330
2
100
AcDbEntity
  8
0
100
AcDbLine
 10
1056.120986003318
 20
642.2298369518334
 30
0.0
 11
1060.039707898683
 21
642.2298369518334
 31
0.0
  0
ARC
  5
2175
330
2
100
AcDbEntity
  8
0
100
AcDbCircle
 10
1033.614989952501
 20
651.2298369518535
 30
0.0
 40
2.0
100
AcDbArc
 50
0.499999999965521
 51
72.13575521910435
  0
ARC
  5
2176
330
2
100
AcDbEntity
  8
0
100
AcDbCircle
 10
1034.64993550205
 20
647.2298369518571
 30
0.0
 40
1.0
100
AcDbArc
 50
0.499999999965521
 51
90.0
  0
LINE
  5
2177
330
2
100
AcDbEntity
  8
0
100
AcDbLine
 10
1034.228515390553
 20
657.7298369518571
 30
0.0
 11
1033.362489986769
 21
658.2298369518571
 31
0.0
  0
LINE
  5
2178
330
2
100
AcDbEntity
  8
0
100
AcDbLine
 10
1034.228515390553
 20
648.2298369518571
 30
0.0
 11
1034.228515390553
 21
650.229836951857
 31
0.0
  0
LINE
  5
2179
330
2
100
AcDbEntity
  8
0
100
AcDbLine
 10
1034.228515390553
 20
650.229836951857
 30
0.0
 11
1034.228515390553
 21
657.7298369518571
 31
0.0
  0
LINE
  5
217A
330
2
100
AcDbEntity
  8
0
100
AcDbLine
 10
1019.279516298657
 20
651.2821908484689
 30
0.0
 11
1019.346694771368
 21
648.7167484777033
 31
0.0
  0
ARC
  5
217B
330
2
100
AcDbEntity
  8
0
100
AcDbCircle
 10
1019.846523433857
 20
648.7298369518571
 30
0.0
 40
0.5
100
AcDbArc
 50
181.4999999999896
 51
270.0
  0
ARC
  5
217C
330
2
100
AcDbEntity
  8
0
100
AcDbCircle
 10
1017.280201648706
 20
651.2298369518535
 30
0.0
 40
2.0
100
AcDbArc
 50
1.499999999989629
 51
90.0
  0
LINE
  5
217D
330
2
100
AcDbEntity
  8
0
100
AcDbLine
 10
1021.228515390553
 20
657.7298369518571
 30
0.0
 11
1022.094540794337
 21
658.2298369518571
 31
0.0
  0
LINE
  5
217E
330
2
100
AcDbEntity
  8
0
100
AcDbLine
 10
1021.228515390553
 20
648.2298369518571
 30
0.0
 11
1021.228515390553
 21
650.229836951857
 31
0.0
  0
LINE
  5
217F
330
2
100
AcDbEntity
  8
0
100
AcDbLine
 10
1021.228515390553
 20
650.229836951857
 30
0.0
 11
1021.228515390553
 21
657.7298369518571
 31
0.0
  0
LINE
  5
2180
330
2
100
AcDbEntity
  8
0
100
AcDbLine
 10
1019.846523433857
 20
648.2298369518571
 30
0.0
 11
1034.64993550205
 21
648.2298369518571
 31
0.0
  0
LINE
  5
2181
330
2
100
AcDbEntity
  8
0
100
AcDbLine
 10
1022.094540794339
 20
658.2298369518571
 30
0.0
 11
1033.362489986769
 21
658.2298369518571
 31
0.0
  0
LINE
  5
2182
330
2
100
AcDbEntity
  8
0
100
AcDbLine
 10
1021.228515390553
 20
648.2298369518571
 30
0.0
 11
1034.228515390553
 21
648.2298369518571
 31
0.0
  0
LINE
  5
2183
330
2
100
AcDbEntity
  8
0
100
AcDbLine
 10
1021.228515390553
 20
650.229836951857
 30
0.0
 11
1034.228515390553
 21
650.229836951857
 31
0.0
  0
LINE
  5
2184
330
2
100
AcDbEntity
  8
0
100
AcDbLine
 10
1021.228515390553
 20
657.7298369518571
 30
0.0
 11
1034.228515390553
 21
657.7298369518571
 31
0.0
  0
ARC
  5
2185
330
2
100
AcDbEntity
  8
0
100
AcDbCircle
 10
1067.146851132395
 20
651.2298369518334
 30
0.0
 40
2.0
100
AcDbArc
 50
90.0
 51
178.5000000000103
  0
LINE
  5
2EB5
330
2
100
AcDbEntity
  8
0
100
AcDbLine
 10
679.8065327754912
 20
180.2584628305858
 30
0.0
 11
679.8065327754912
 21
169.2584628305856
 31
0.0
  0
LINE
  5
2EB6
330
2
100
AcDbEntity
  8
0
100
AcDbLine
 10
625.3065327754911
 20
202.7584628305856
 30
0.0
 11
625.3065327754911
 21
167.7584628305856
 31
0.0
  0
LINE
  5
2EB7
330
2
100
AcDbEntity
  8
0
100
AcDbLine
 10
624.3065327754911
 20
208.9697876959908
 30
0.0
 11
624.3065327754911
 21
161.5471379651804
 31
0.0
  0
LINE
  5
2EB8
330
2
100
AcDbEntity
  8
0
100
AcDbLine
 10
680.3065327754912
 20
200.7584628305856
 30
0.0
 11
680.3065327754912
 21
169.7584628305856
 31
0.0
  0
ARC
  5
2EBB
330
2
100
AcDbEntity
  8
0
100
AcDbCircle
 10
916.7285153905659
 20
185.2584628305821
 30
0.0
 40
18.07735026892692
100
AcDbArc
 50
196.0567430148853
 51
163.9432569850672
  0
ARC
  5
2EBC
330
2
100
AcDbEntity
  8
0
100
AcDbCircle
 10
916.7285153905659
 20
185.2584628305821
 30
0.0
 40
17.49999999973715
100
AcDbArc
 50
196.6015495992636
 51
163.3984504006982
  0
ARC
  5
2EBD
330
2
100
AcDbEntity
  8
0
100
AcDbCircle
 10
916.7285153905659
 20
185.2584628305812
 30
0.0
 40
15.99999999973806
100
AcDbArc
 50
198.209956864566
 51
161.7900431353825
  0
CIRCLE
  5
2EBE
330
2
100
AcDbEntity
  8
0
100
AcDbCircle
 10
916.7285153905641
 20
185.258462830583
 30
0.0
 40
24.5
  0
LINE
  5
2EBF
330
2
100
AcDbEntity
  8
0
100
AcDbLine
 10
1302.273251581348
 20
169.2584628304968
 30
0.0
 11
1302.273251581346
 21
201.2584628304872
 31
0.0
  0
LINE
  5
2EC0
330
2
100
AcDbEntity
  8
0
100
AcDbLine
 10
1356.773251581348
 20
167.7584628304968
 30
0.0
 11
1356.773251581348
 21
202.7584628304968
 31
0.0
  0
LINE
  5
2EC1
330
2
100
AcDbEntity
  8
0
100
AcDbLine
 10
1357.773251581348
 20
161.5471379650918
 30
0.0
 11
1357.773251581348
 21
208.9697876959018
 31
0.0
  0
LINE
  5
2EC2
330
2
100
AcDbEntity
  8
0
100
AcDbLine
 10
1301.773251581348
 20
169.7584628304968
 30
0.0
 11
1301.773251581348
 21
200.758462830487
 31
0.0
  0
LINE
  5
2EC3
330
2
100
AcDbEntity
  8
0
100
AcDbLine
 10
679.8065327754912
 20
169.2584628305856
 30
0.0
 11
625.3065327754911
 21
169.2584628305856
 31
0.0
  0
ARC
  5
2EC4
330
2
100
AcDbEntity
  8
0
100
AcDbCircle
 10
622.9046089868433
 20
162.7584628305856
 30
0.0
 40
2.0
100
AcDbArc
 50
281.593213623511
 51
300.0000000000005
  0
LINE
  5
2EC5
330
2
100
AcDbEntity
  8
0
100
AcDbLine
 10
623.9046089868434
 20
161.0264120230167
 30
0.0
 11
624.0565327754912
 21
161.1141252632881
 31
0.0
  0
ARC
  5
2EC6
330
2
100
AcDbEntity
  8
0
100
AcDbCircle
 10
623.8065327754911
 20
161.5471379651804
 30
0.0
 40
0.5
100
AcDbArc
 50
300.0000000000005
 51
0.0
  0
LINE
  5
2EC7
330
2
100
AcDbEntity
  8
0
100
AcDbLine
 10
625.3065327754911
 20
167.7584628305856
 30
0.0
 11
624.3065327754911
 21
167.1811125613958
 31
0.0
  0
LINE
  5
2EC8
330
2
100
AcDbEntity
  8
0
100
AcDbLine
 10
680.3065327754912
 20
169.7584628305856
 30
0.0
 11
679.8065327754912
 21
169.2584628305856
 31
0.0
  0
LINE
  5
2EC9
330
2
100
AcDbEntity
  8
0
100
AcDbLine
 10
1356.773251581348
 20
167.7584628304968
 30
0.0
 11
1357.773251581348
 21
167.1811125613068
 31
0.0
  0
ARC
  5
2ECA
330
2
100
AcDbEntity
  8
0
100
AcDbCircle
 10
1358.273251581348
 20
161.5471379650918
 30
0.0
 40
0.5
100
AcDbArc
 50
180.0
 51
239.9999999999994
  0
LINE
  5
2ECB
330
2
100
AcDbEntity
  8
0
100
AcDbLine
 10
1356.773251581348
 20
169.2584628304968
 30
0.0
 11
1302.273251581348
 21
169.2584628304968
 31
0.0
  0
LINE
  5
2ECC
330
2
100
AcDbEntity
  8
0
100
AcDbLine
 10
1302.273251581348
 20
169.2584628304968
 30
0.0
 11
1301.773251581348
 21
169.7584628304968
 31
0.0
  0
ARC
  5
2ECD
330
2
100
AcDbEntity
  8
0
100
AcDbCircle
 10
1359.175175369994
 20
162.7584628304968
 30
0.0
 40
2.0
100
AcDbArc
 50
239.9999999999994
 51
258.4067863765158
  0
LINE
  5
2ECE
330
2
100
AcDbEntity
  8
0
100
AcDbLine
 10
1358.175175369994
 20
161.0264120229278
 30
0.0
 11
1358.023251581348
 21
161.1141252631989
 31
0.0
  0
LINE
  5
2ECF
330
2
100
AcDbEntity
  8
0
100
AcDbLine
 10
901.5298312375241
 20
518.2298369518334
 30
0.0
 11
901.5298312375241
 21
473.2298369518335
 31
0.0
  0
LINE
  5
2ED0
330
2
100
AcDbEntity
  8
0
100
AcDbLine
 10
897.7285153905565
 20
523.2298369518335
 30
0.0
 11
897.7285153905565
 21
473.2298369518335
 31
0.0
  0
LINE
  5
2ED1
330
2
100
AcDbEntity
  8
0
100
AcDbLine
 10
932.7285153905565
 20
528.2298369518334
 30
0.0
 11
932.7285153905565
 21
473.7298369518335
 31
0.0
  0
LINE
  5
2ED5
330
2
100
AcDbEntity
  8
0
100
AcDbLine
 10
679.8065327754912
 20
201.2584628305856
 30
0.0
 11
679.8065327754912
 21
190.2584628305858
 31
0.0
  0
LINE
  5
2ED6
330
2
100
AcDbEntity
  8
0
100
AcDbLine
 10
635.3065327754912
 20
180.2584628305856
 30
0.0
 11
680.3065327754912
 21
180.2584628305856
 31
0.0
  0
LINE
  5
2ED7
330
2
100
AcDbEntity
  8
0
100
AcDbLine
 10
635.3065327754912
 20
190.2584628305856
 30
0.0
 11
680.3065327754912
 21
190.2584628305856
 31
0.0
  0
ARC
  5
2ED8
330
2
100
AcDbEntity
  8
0
100
AcDbCircle
 10
635.3065327754912
 20
185.2584628305856
 30
0.0
 40
5.0
100
AcDbArc
 50
90.0
 51
270.0
  0
LINE
  5
2ED9
330
2
100
AcDbEntity
  8
0
100
AcDbLine
 10
625.3065327754911
 20
201.2584628305856
 30
0.0
 11
679.8065327754912
 21
201.2584628305856
 31
0.0
  0
ARC
  5
2EDA
330
2
100
AcDbEntity
  8
0
100
AcDbCircle
 10
622.9046089868433
 20
207.7584628305856
 30
0.0
 40
2.0
100
AcDbArc
 50
59.99999999999946
 51
78.40678637648899
  0
LINE
  5
2EDB
330
2
100
AcDbEntity
  8
0
100
AcDbLine
 10
623.9046089868434
 20
209.4905136381544
 30
0.0
 11
624.0565327754912
 21
209.4028003978831
 31
0.0
  0
LINE
  5
2EDC
330
2
100
AcDbEntity
  8
0
100
AcDbLine
 10
625.3065327754911
 20
202.7584628305856
 30
0.0
 11
624.3065327754911
 21
203.3358130997754
 31
0.0
  0
ARC
  5
2EDD
330
2
100
AcDbEntity
  8
0
100
AcDbCircle
 10
623.8065327754911
 20
208.9697876959908
 30
0.0
 40
0.5
100
AcDbArc
 50
0.0
 51
59.99999999999946
  0
LINE
  5
2EDE
330
2
100
AcDbEntity
  8
0
100
AcDbLine
 10
679.8065327754912
 20
201.2584628305856
 30
0.0
 11
680.3065327754912
 21
200.7584628305856
 31
0.0
  0
LINE
  5
2EE1
330
2
100
AcDbEntity
  8
0
100
AcDbLine
 10
897.7285153903039
 20
190.2584628305864
 30
0.0
 11
897.7285153903039
 21
180.2584628305867
 31
0.0
  0
LINE
  5
2EE2
330
2
100
AcDbEntity
  8
0
100
AcDbLine
 10
905.7285153903039
 20
190.2584628305867
 30
0.0
 11
905.7285153903039
 21
180.2584628305865
 31
0.0
  0
LINE
  5
2EE3
330
2
100
AcDbEntity
  8
0
100
AcDbLine
 10
897.7285153903039
 20
190.2584628305864
 30
0.0
 11
905.7285153903039
 21
190.2584628305867
 31
0.0
  0
LINE
  5
2EE4
330
2
100
AcDbEntity
  8
0
100
AcDbLine
 10
897.7285153903039
 20
180.2584628305867
 30
0.0
 11
905.7285153903039
 21
180.2584628305865
 31
0.0
  0
ARC
  5
2EE5
330
2
100
AcDbEntity
  8
0
100
AcDbCircle
 10
1358.273251581348
 20
208.9697876959018
 30
0.0
 40
0.5
100
AcDbArc
 50
120.0000000000005
 51
180.0
  0
LINE
  5
2EE6
330
2
100
AcDbEntity
  8
0
100
AcDbLine
 10
1356.773251581348
 20
202.7584628304968
 30
0.0
 11
1357.773251581348
 21
203.3358130996868
 31
0.0
  0
LINE
  5
2EE8
330
2
100
AcDbEntity
  8
0
100
AcDbLine
 10
1302.273251581348
 20
201.258462830487
 30
0.0
 11
1356.773251581348
 21
201.2584628304968
 31
0.0
  0
LINE
  5
2EE9
330
2
100
AcDbEntity
  8
0
100
AcDbLine
 10
1302.273251581348
 20
201.258462830487
 30
0.0
 11
1301.773251581348
 21
200.758462830487
 31
0.0
  0
ARC
  5
2EEA
330
2
100
AcDbEntity
  8
0
100
AcDbCircle
 10
1359.175175369994
 20
207.7584628304968
 30
0.0
 40
2.0
100
AcDbArc
 50
101.5932136234841
 51
120.0000000000005
  0
LINE
  5
2EEB
330
2
100
AcDbEntity
  8
0
100
AcDbLine
 10
1358.175175369994
 20
209.4905136380659
 30
0.0
 11
1358.023251581348
 21
209.4028003977947
 31
0.0
  0
LINE
  5
2EEC
330
2
100
AcDbEntity
  8
0
100
AcDbLine
 10
932.7285153905565
 20
473.7298369518335
 30
0.0
 11
901.5298312375241
 21
473.7298369518335
 31
0.0
  0
LINE
  5
2EED
330
2
100
AcDbEntity
  8
0
100
AcDbLine
 10
932.2285153905566
 20
473.2298369518335
 30
0.0
 11
897.7285153905565
 21
473.2298369518335
 31
0.0
  0
LINE
  5
2EEE
330
2
100
AcDbEntity
  8
0
100
AcDbLine
 10
932.7285153905565
 20
473.7298369518335
 30
0.0
 11
932.2285153905566
 21
473.2298369518335
 31
0.0
  0
LINE
  5
2EF0
330
2
100
AcDbEntity
  8
0
100
AcDbLine
 10
934.2285153905566
 20
528.2298369518334
 30
0.0
 11
899.2285153905566
 21
528.2298369518334
 31
0.0
  0
LINE
  5
2EF1
330
2
100
AcDbEntity
  8
0
100
AcDbLine
 10
940.4398402559607
 20
529.2298369518334
 30
0.0
 11
893.0171905251507
 21
529.2298369518334
 31
0.0
  0
LINE
  5
2EF2
330
2
100
AcDbEntity
  8
0
100
AcDbLine
 10
900.7285153905566
 20
523.2298369518335
 30
0.0
 11
901.5298312375241
 21
518.2298369518334
 31
0.0
  0
LINE
  5
2EF3
330
2
100
AcDbEntity
  8
0
100
AcDbLine
 10
900.7285153905566
 20
523.2298369518335
 30
0.0
 11
897.7285153905565
 21
523.2298369518335
 31
0.0
  0
ARC
  5
2EF4
330
2
100
AcDbEntity
  8
0
100
AcDbCircle
 10
894.2285153905565
 20
530.6317607404803
 30
0.0
 40
2.0
100
AcDbArc
 50
191.5932136234854
 51
209.9999999999944
  0
LINE
  5
2EF5
330
2
100
AcDbEntity
  8
0
100
AcDbLine
 10
892.4964645829867
 20
529.6317607404803
 30
0.0
 11
892.5841778232577
 21
529.4798369518335
 31
0.0
  0
ARC
  5
2EF6
330
2
100
AcDbEntity
  8
0
100
AcDbCircle
 10
893.0171905251507
 20
529.7298369518334
 30
0.0
 40
0.5
100
AcDbArc
 50
209.9999999999944
 51
270.0
  0
LINE
  5
2EF7
330
2
100
AcDbEntity
  8
0
100
AcDbLine
 10
899.2285153905566
 20
528.2298369518334
 30
0.0
 11
898.6511651213666
 21
529.2298369518334
 31
0.0
  0
LINE
  5
2EF8
330
2
100
AcDbEntity
  8
0
100
AcDbLine
 10
900.7285153905566
 20
523.2298369518304
 30
0.0
 11
900.7285153905566
 21
528.2298369518334
 31
0.0
  0
ARC
  5
2EF9
330
2
100
AcDbEntity
  8
0
100
AcDbCircle
 10
939.2285153905566
 20
530.6317607404803
 30
0.0
 40
2.0
100
AcDbArc
 50
330.0000000000055
 51
348.4067863765145
  0
LINE
  5
2EFA
330
2
100
AcDbEntity
  8
0
100
AcDbLine
 10
940.9605661981247
 20
529.6317607404803
 30
0.0
 11
940.8728529578537
 21
529.4798369518335
 31
0.0
  0
LINE
  5
2EFB
330
2
100
AcDbEntity
  8
0
100
AcDbLine
 10
934.2285153905566
 20
528.2298369518334
 30
0.0
 11
934.8058656597466
 21
529.2298369518334
 31
0.0
  0
ARC
  5
2EFC
330
2
100
AcDbEntity
  8
0
100
AcDbCircle
 10
940.4398402559607
 20
529.7298369518334
 30
0.0
 40
0.5
100
AcDbArc
 50
270.0
 51
330.0000000000055
  0
LINE
  5
31C7
330
2
100
AcDbEntity
  8
0
100
AcDbLine
 10
849.2328788243414
 20
638.2298369518466
 30
0.0
 11
850.0095700578262
 21
549.2298369518334
 31
0.0
  0
CIRCLE
  5
320B
330
2
100
AcDbEntity
  8
0
100
AcDbCircle
 10
916.7285153905641
 20
185.2584628305829
 30
0.0
 40
36.57739999999999
  0
ENDSEC
  0
SECTION
  2
OBJECTS
  0
DICTIONARY
  5
7
330
0
100
AcDbDictionary
  3
ACAD_COLOR
350
1936
  3
ACAD_GROUP
350
75
  3
ACAD_LAYOUT
350
61
  3
ACAD_MATERIAL
350
190C
  3
ACAD_MLEADERSTYLE
350
195B
  3
ACAD_MLINESTYLE
350
76
  3
ACAD_PLOTSETTINGS
350
77
  3
ACAD_PLOTSTYLENAME
350
6
  3
ACAD_SCALELIST
350
1939
  3
ACAD_TABLESTYLE
350
1937
  3
ACAD_VISUALSTYLE
350
1925
  3
ACADDIM
350
480
  3
ACDB_RECOMPOSE_DATA
350
1A41
  3
ACDBHEADERROUNDTRIPXREC
350
3225
  3
ACDBVARIABLEDICTIONARY
350
102
  3
DWGPROPS
350
31E6
  0
DICTIONARY
  5
1A4A
330
6E
100
AcDbDictionary
280
     1
  3
ACAD_XREC_ROUNDTRIP
360
31EE
  0
DICTIONARY
  5
B19
330
66
100
AcDbDictionary
280
     1
  3
ACAD_LAYERSTATES
360
B1A
  0
DICTIONARY
  5
1A2D
330
5E
100
AcDbDictionary
280
     1
  3
ACAD_XREC_ROUNDTRIP
360
31E9
  3
ADSK_XREC_LAYER_RECONCILED
360
1A2E
  0
DICTIONARY
  5
1A2F
330
3E
100
AcDbDictionary
280
     1
  3
ACAD_XREC_ROUNDTRIP
360
31E8
  3
ADSK_XREC_LAYER_RECONCILED
360
1A30
  0
DICTIONARY
  5
1A35
330
2B5
100
AcDbDictionary
280
     1
  3
ACAD_XREC_ROUNDTRIP
360
31F4
  3
ADSK_XREC_LAYER_RECONCILED
360
1A36
  0
DICTIONARY
  5
1A37
330
2BA
100
AcDbDictionary
280
     1
  3
ACAD_XREC_ROUNDTRIP
360
31F5
  3
ADSK_XREC_LAYER_RECONCILED
360
1A38
  0
DICTIONARY
  5
1A3B
330
3FA
100
AcDbDictionary
280
     1
  3
ACAD_XREC_ROUNDTRIP
360
31F7
  3
ADSK_XREC_LAYER_RECONCILED
360
1A3C
  0
DICTIONARY
  5
3246
330
2
100
AcDbDictionary
280
     1
  3
ACAD_LAYOUTSELFREF
360
3247
  0
DICTIONARY
  5
3248
330
321F
100
AcDbDictionary
280
     1
  3
ACAD_LAYOUTSELFREF
360
3249
  0
DICTIONARY
  5
1936
102
{ACAD_REACTORS
330
7
102
}
330
7
100
AcDbDictionary
  0
DICTIONARY
  5
75
102
{ACAD_REACTORS
330
7
102
}
330
7
100
AcDbDictionary
  0
DICTIONARY
  5
61
102
{ACAD_REACTORS
330
7
102
}
330
7
100
AcDbDictionary
  0
DICTIONARY
  5
190C
102
{ACAD_REACTORS
330
7
102
}
330
7
100
AcDbDictionary
  3
BYBLOCK
350
1915
  3
BYLAYER
350
190D
  3
GLOBAL
350
191D
  0
DICTIONARY
  5
195B
102
{ACAD_REACTORS
330
7
102
}
330
7
100
AcDbDictionary
  3
STANDARD
350
195C
  0
DICTIONARY
  5
76
102
{ACAD_REACTORS
330
7
102
}
330
7
100
AcDbDictionary
  3
STANDARD
350
78
  0
DICTIONARY
  5
77
102
{ACAD_REACTORS
330
7
102
}
330
7
100
AcDbDictionary
  0
ACDBDICTIONARYWDFLT
  5
6
102
{ACAD_REACTORS
330
7
102
}
330
7
100
AcDbDictionary
281
     1
  3
Normal
350
5
100
AcDbDictionaryWithDefault
340
5
  0
DICTIONARY
  5
1939
102
{ACAD_REACTORS
330
7
102
}
330
7
100
AcDbDictionary
  3
A0
350
193A
  3
A1
350
193B
  3
A2
350
193C
  3
A3
350
193D
  3
A4
350
193E
  3
A5
350
193F
  3
A6
350
1940
  3
A7
350
1941
  3
A8
350
1942
  3
A9
350
1943
  3
B0
350
1944
  3
B1
350
1945
  3
B2
350
1946
  3
B3
350
1947
  3
B4
350
1948
  3
B5
350
1949
  3
B6
350
194A
  3
B7
350
194B
  3
B8
350
194C
  3
B9
350
194D
  3
C0
350
194E
  3
C1
350
194F
  3
C2
350
1950
  3
C3
350
1951
  3
C4
350
1952
  3
C5
350
1953
  3
C6
350
1954
  3
C7
350
1955
  3
C8
350
1956
  3
C9
350
1957
  3
D0
350
1958
  3
D1
350
1959
  3
D2
350
195A
  0
DICTIONARY
  5
1937
102
{ACAD_REACTORS
330
7
102
}
330
7
100
AcDbDictionary
  3
STANDARD
350
1938
  0
DICTIONARY
  5
1925
102
{ACAD_REACTORS
330
7
102
}
330
7
100
AcDbDictionary
  3
2DWIREFRAME
350
192B
  3
3D_HIDDEN
350
192D
  3
3DWIREFRAME
350
192C
  3
BASIC
350
192A
  3
BRIGHTEN
350
1931
  3
COLORCHANGE
350
1935
  3
CONCEPTUAL
350
192E
  3
DIM
350
1930
  3
FACEPATTERN
350
1934
  3
FLAT
350
1926
  3
FLATWITHEDGES
350
1927
  3
GOURAUD
350
1928
  3
GOURAUDWITHEDGES
350
1929
  3
LINEPATTERN
350
1933
  3
REALISTIC
350
192F
  3
THICKEN
350
1932
  0
XRECORD
  5
480
102
{ACAD_REACTORS
330
7
102
}
330
7
100
AcDbXrecord
 90
   990106
  3

 60
     0
 61
     0
 62
     1
 63
     3
 64
     1
 65
     0
 66
     0
 67
     3
 68
     1
 69
     0
 70
     0
 71
     0
 72
     0
 40
0.0
170
     2
340
0
  0
XRECORD
  5
1A41
102
{ACAD_REACTORS
330
7
102
}
330
7
100
AcDbXrecord
 90
        1
330
1938
  0
DICTIONARY
  5
3225
102
{ACAD_REACTORS
330
7
102
}
330
7
100
AcDbDictionary
  3
CEPSNTYPE
350
322F
  3
DIMSTYLEDATA
350
3233
  3
FINGERPRINTGUID
350
3230
  3
HYPERLINKBASE
350
3228
  3
INSUNITS
350
322E
  3
LAYOUTDICT
350
322A
  3
LWETCUNION
350
322D
  3
PLOTSETDICT
350
322B
  3
PLOTSTYLNAMDICT
350
322C
  3
PSVPSCALE
350
3232
  3
PUCSBASE
350
3236
  3
PUCSORGBACK
350
323C
  3
PUCSORGBOTTOM
350
3238
  3
PUCSORGFRONT
350
323B
  3
PUCSORGLEFT
350
3239
  3
PUCSORGRIGHT
350
323A
  3
PUCSORGTOP
350
3237
  3
PUCSORTHOREF
350
3234
  3
PUCSORTHOVIEW
350
3235
  3
STYLESHEET
350
3229
  3
TSTACKALIGN
350
3226
  3
TSTACKSIZE
350
3227
  3
UCSBASE
350
323F
  3
UCSORGBACK
350
3245
  3
UCSORGBOTTOM
350
3241
  3
UCSORGFRONT
350
3244
  3
UCSORGLEFT
350
3242
  3
UCSORGRIGHT
350
3243
  3
UCSORGTOP
350
3240
  3
UCSORTHOREF
350
323D
  3
UCSORTHOVIEW
350
323E
  3
VERSIONGUID
350
3231
  0
DICTIONARY
  5
102
102
{ACAD_REACTORS
330
7
102
}
330
7
100
AcDbDictionary
  3
CANNOSCALE
350
1A62
  3
CMLEADERSTYLE
350
1A61
  3
CTABLESTYLE
350
1A60
  3
DIMASSOC
350
103
  3
INDEXCTL
350
1A63
  3
SORTENTS
350
549
  0
XRECORD
  5
31E6
102
{ACAD_REACTORS
330
7
102
}
330
7
100
AcDbXrecord
  1
DWGPROPS COOKIE
  2

  3

  4

  6

  7

  8
ymorima
  9

300
=
301
=
302
=
303
=
304
=
305
=
306
=
307
=
308
=
309
=
 40
0.0383029513888889
 41
2454413.454466678
 42
2454421.491642789
  1

 90
        0
  0
XRECORD
  5
31EE
102
{ACAD_REACTORS
330
1A4A
102
}
330
1A4A
100
AcDbXrecord
102
VTR_0.000_0.000_1.000_1.000_VISUALSTYLE
340
192B
102
VTR_0.000_0.000_1.000_1.000_GRIDDISPLAY
 70
     3
102
VTR_0.000_0.000_1.000_1.000_GRIDMAJOR
 70
     5
102
VTR_0.000_0.000_1.000_1.000_DEFAULTLIGHTING
280
     1
102
VTR_0.000_0.000_1.000_1.000_DEFAULTLIGHTINGTYPE
 70
     1
102
VTR_0.000_0.000_1.000_1.000_BRIGHTNESS
141
0.0
102
VTR_0.000_0.000_1.000_1.000_CONTRAST
142
0.0
  0
DICTIONARY
  5
B1A
102
{ACAD_REACTORS
330
B19
102
}
330
B19
100
AcDbDictionary
  0
XRECORD
  5
31E9
102
{ACAD_REACTORS
330
1A2D
102
}
330
1A2D
100
AcDbXrecord
102
MATERIAL
340
191D
  0
XRECORD
  5
1A2E
102
{ACAD_REACTORS
330
1A2D
102
}
330
1A2D
100
AcDbXrecord
290
     1
  0
XRECORD
  5
31E8
102
{ACAD_REACTORS
330
1A2F
102
}
330
1A2F
100
AcDbXrecord
102
MATERIAL
340
191D
  0
XRECORD
  5
1A30
102
{ACAD_REACTORS
330
1A2F
102
}
330
1A2F
100
AcDbXrecord
290
     1
  0
XRECORD
  5
31F4
102
{ACAD_REACTORS
330
1A35
102
}
330
1A35
100
AcDbXrecord
102
MATERIAL
340
191D
  0
XRECORD
  5
1A36
102
{ACAD_REACTORS
330
1A35
102
}
330
1A35
100
AcDbXrecord
290
     1
  0
XRECORD
  5
31F5
102
{ACAD_REACTORS
330
1A37
102
}
330
1A37
100
AcDbXrecord
102
MATERIAL
340
191D
  0
XRECORD
  5
1A38
102
{ACAD_REACTORS
330
1A37
102
}
330
1A37
100
AcDbXrecord
290
     1
  0
XRECORD
  5
31F7
102
{ACAD_REACTORS
330
1A3B
102
}
330
1A3B
100
AcDbXrecord
102
MATERIAL
340
191D
  0
XRECORD
  5
1A3C
102
{ACAD_REACTORS
330
1A3B
102
}
330
1A3B
100
AcDbXrecord
290
     1
  0
XRECORD
  5
3247
102
{ACAD_REACTORS
330
3246
102
}
330
3246
100
AcDbXrecord
340
2
  0
XRECORD
  5
3249
102
{ACAD_REACTORS
330
3248
102
}
330
3248
100
AcDbXrecord
340
321F
  0
ACAD_PROXY_OBJECT
  5
1915
102
{ACAD_XDICTIONARY
360
1916
102
}
102
{ACAD_REACTORS
330
190C
102
}
330
190C
100
AcDbProxyObject
 90
      499
 91
      511
 93
     1340
310
42109E509B1BD8DAC02004014080404555555555555953FAA155555555555654FEA9AA400014080404555555555555953FAA155555555555654FEA9AA400000000000000E03F4080404555555555555953FAA155555555555654FEA9AA4014080404555555555555953FAA155555555555654FEA9AA4010201011555555555
310
55654FEA8555555555555953FAA6A9005020101155555555555654FEA8555555555555953FAA6A9000
 94
        0
1001
ACAD
1000
AcadProxyRoundTripData
1071
      504
1071
   655383
1070
     0
  0
ACAD_PROXY_OBJECT
  5
190D
102
{ACAD_XDICTIONARY
360
190E
102
}
102
{ACAD_REACTORS
330
190C
102
}
330
190C
100
AcDbProxyObject
 90
      499
 91
      511
 93
     1340
310
42109E53185E595C802004014080404555555555555953FAA155555555555654FEA9AA400014080404555555555555953FAA155555555555654FEA9AA400000000000000E03F4080404555555555555953FAA155555555555654FEA9AA4014080404555555555555953FAA155555555555654FEA9AA4010201011555555555
310
55654FEA8555555555555953FAA6A9005020101155555555555654FEA8555555555555953FAA6A9000
 94
        0
1001
ACAD
1000
AcadProxyRoundTripData
1071
      504
1071
   655383
1070
     0
  0
ACAD_PROXY_OBJECT
  5
191D
102
{ACAD_XDICTIONARY
360
191E
102
}
102
{ACAD_REACTORS
330
190C
102
}
330
190C
100
AcDbProxyObject
 90
      499
 91
      511
 93
     1332
310
41D1DB1BD8985B002004014080404555555555555953FAA155555555555654FEA9AA400014080404555555555555953FAA155555555555654FEA9AA400000000000000E03F4080404555555555555953FAA155555555555654FEA9AA4014080404555555555555953FAA155555555555654FEA9AA401020101155555555555
310
654FEA8555555555555953FAA6A9005020101155555555555654FEA8555555555555953FAA6A9000
 94
        0
1001
ACAD
1000
AcadProxyRoundTripData
1071
      504
1071
   655383
1070
     0
  0
ACAD_PROXY_OBJECT
  5
195C
102
{ACAD_REACTORS
330
195B
102
}
330
195B
100
AcDbProxyObject
 90
      499
 91
      511
 93
      618
310
40901902A4063FBFFFFFE056BD1B81E855B9FC0AD7A3703D0AD73F4254DD185B99185C990000AD7A3703D0AC73F90141901A02B5E8DC0F42B1CFC02B5E8DC0F42B1CFE5764000000000000300FC6
340
6A
340
0
340
16
340
0
 94
        0
1001
ACAD_MLEADERVER
1070
     2
1001
ACAD
1000
AcadProxyRoundTripData
1071
      508
1071
   655383
1070
     0
  0
MLINESTYLE
  5
78
102
{ACAD_REACTORS
330
76
102
}
330
76
100
AcDbMlineStyle
  2
STANDARD
 70
     0
  3

 62
     0
 51
90.0
 52
90.0
 71
     2
 49
0.5
 62
   256
  6
BYLAYER
 49
-0.5
 62
   256
  6
BYLAYER
  0
ACDBPLACEHOLDER
  5
5
102
{ACAD_REACTORS
330
6
102
}
330
6
100
AcDbPlaceHolder
280
     0
  0
ACAD_PROXY_OBJECT
  5
193A
102
{ACAD_REACTORS
330
1939
102
}
330
1939
100
AcDbProxyObject
 90
      499
 91
      511
 93
       49
310
904313A3100598
 94
        0
1001
ACAD
1000
AcadProxyRoundTripData
1071
      507
1071
   655383
1070
     0
  0
ACAD_PROXY_OBJECT
  5
193B
102
{ACAD_REACTORS
330
1939
102
}
330
1939
100
AcDbProxyObject
 90
      499
 91
      511
 93
      113
310
904313A3200400000000000000406B
 94
        0
1001
ACAD
1000
AcadProxyRoundTripData
1071
      507
1071
   655383
1070
     0
  0
ACAD_PROXY_OBJECT
  5
193C
102
{ACAD_REACTORS
330
1939
102
}
330
1939
100
AcDbProxyObject
 90
      499
 91
      511
 93
      113
310
904313A3400400000000000010406B
 94
        0
1001
ACAD
1000
AcadProxyRoundTripData
1071
      507
1071
   655383
1070
     0
  0
ACAD_PROXY_OBJECT
  5
193D
102
{ACAD_REACTORS
330
1939
102
}
330
1939
100
AcDbProxyObject
 90
      499
 91
      511
 93
      113
310
904313A3500400000000000014406B
 94
        0
1001
ACAD
1000
AcadProxyRoundTripData
1071
      507
1071
   655383
1070
     0
  0
ACAD_PROXY_OBJECT
  5
193E
102
{ACAD_REACTORS
330
1939
102
}
330
1939
100
AcDbProxyObject
 90
      499
 91
      511
 93
      113
310
904313A3800400000000000020406B
 94
        0
1001
ACAD
1000
AcadProxyRoundTripData
1071
      507
1071
   655383
1070
     0
  0
ACAD_PROXY_OBJECT
  5
193F
102
{ACAD_REACTORS
330
1939
102
}
330
1939
100
AcDbProxyObject
 90
      499
 91
      511
 93
      121
310
905313A3130004000000000000244051
 94
        0
1001
ACAD
1000
AcadProxyRoundTripData
1071
      507
1071
   655383
1070
     0
  0
ACAD_PROXY_OBJECT
  5
1940
102
{ACAD_REACTORS
330
1939
102
}
330
1939
100
AcDbProxyObject
 90
      499
 91
      511
 93
      121
310
905313A3136004000000000000304051
 94
        0
1001
ACAD
1000
AcadProxyRoundTripData
1071
      507
1071
   655383
1070
     0
  0
ACAD_PROXY_OBJECT
  5
1941
102
{ACAD_REACTORS
330
1939
102
}
330
1939
100
AcDbProxyObject
 90
      499
 91
      511
 93
      121
310
905313A3230004000000000000344051
 94
        0
1001
ACAD
1000
AcadProxyRoundTripData
1071
      507
1071
   655383
1070
     0
  0
ACAD_PROXY_OBJECT
  5
1942
102
{ACAD_REACTORS
330
1939
102
}
330
1939
100
AcDbProxyObject
 90
      499
 91
      511
 93
      121
310
905313A33300040000000000003E4051
 94
        0
1001
ACAD
1000
AcadProxyRoundTripData
1071
      507
1071
   655383
1070
     0
  0
ACAD_PROXY_OBJECT
  5
1943
102
{ACAD_REACTORS
330
1939
102
}
330
1939
100
AcDbProxyObject
 90
      499
 91
      511
 93
      121
310
905313A3430004000000000000444051
 94
        0
1001
ACAD
1000
AcadProxyRoundTripData
1071
      507
1071
   655383
1070
     0
  0
ACAD_PROXY_OBJECT
  5
1944
102
{ACAD_REACTORS
330
1939
102
}
330
1939
100
AcDbProxyObject
 90
      499
 91
      511
 93
      121
310
905313A3530004000000000000494051
 94
        0
1001
ACAD
1000
AcadProxyRoundTripData
1071
      507
1071
   655383
1070
     0
  0
ACAD_PROXY_OBJECT
  5
1945
102
{ACAD_REACTORS
330
1939
102
}
330
1939
100
AcDbProxyObject
 90
      499
 91
      511
 93
      129
310
906313A313030004000000000000594038
 94
        0
1001
ACAD
1000
AcadProxyRoundTripData
1071
      507
1071
   655383
1070
     0
  0
ACAD_PROXY_OBJECT
  5
1946
102
{ACAD_REACTORS
330
1939
102
}
330
1939
100
AcDbProxyObject
 90
      499
 91
      511
 93
      113
310
904323A31000000000000000010159
 94
        0
1001
ACAD
1000
AcadProxyRoundTripData
1071
      507
1071
   655383
1070
     0
  0
ACAD_PROXY_OBJECT
  5
1947
102
{ACAD_REACTORS
330
1939
102
}
330
1939
100
AcDbProxyObject
 90
      499
 91
      511
 93
      113
310
904343A31000000000000000410159
 94
        0
1001
ACAD
1000
AcadProxyRoundTripData
1071
      507
1071
   655383
1070
     0
  0
ACAD_PROXY_OBJECT
  5
1948
102
{ACAD_REACTORS
330
1939
102
}
330
1939
100
AcDbProxyObject
 90
      499
 91
      511
 93
      113
310
904383A31000000000000000810159
 94
        0
1001
ACAD
1000
AcadProxyRoundTripData
1071
      507
1071
   655383
1070
     0
  0
ACAD_PROXY_OBJECT
  5
1949
102
{ACAD_REACTORS
330
1939
102
}
330
1939
100
AcDbProxyObject
 90
      499
 91
      511
 93
      121
310
90531303A31000000000000000910140
 94
        0
1001
ACAD
1000
AcadProxyRoundTripData
1071
      507
1071
   655383
1070
     0
  0
ACAD_PROXY_OBJECT
  5
194A
102
{ACAD_REACTORS
330
1939
102
}
330
1939
100
AcDbProxyObject
 90
      499
 91
      511
 93
      129
310
9063130303A31000000000000001650138
 94
        0
1001
ACAD
1000
AcadProxyRoundTripData
1071
      507
1071
   655383
1070
     0
  0
ACAD_PROXY_OBJECT
  5
194B
102
{ACAD_REACTORS
330
1939
102
}
330
1939
100
AcDbProxyObject
 90
      499
 91
      511
 93
      265
310
90F312F31323822203D2031272D302200000000000000200FC00000000000028402B
 94
        0
1001
ACAD
1000
AcadProxyRoundTripData
1071
      507
1071
   655383
1070
     0
  0
ACAD_PROXY_OBJECT
  5
194C
102
{ACAD_REACTORS
330
1939
102
}
330
1939
100
AcDbProxyObject
 90
      499
 91
      511
 93
      257
310
90E312F363422203D2031272D302200000000000000240FC000000000000284040
 94
        0
1001
ACAD
1000
AcadProxyRoundTripData
1071
      507
1071
   655383
1070
     0
  0
ACAD_PROXY_OBJECT
  5
194D
102
{ACAD_REACTORS
330
1939
102
}
330
1939
100
AcDbProxyObject
 90
      499
 91
      511
 93
      257
310
90E312F333222203D2031272D302200000000000000280FC000000000000284040
 94
        0
1001
ACAD
1000
AcadProxyRoundTripData
1071
      507
1071
   655383
1070
     0
  0
ACAD_PROXY_OBJECT
  5
194E
102
{ACAD_REACTORS
330
1939
102
}
330
1939
100
AcDbProxyObject
 90
      499
 91
      511
 93
      257
310
90E312F313622203D2031272D3022000000000000002C0FC000000000000284040
 94
        0
1001
ACAD
1000
AcadProxyRoundTripData
1071
      507
1071
   655383
1070
     0
  0
ACAD_PROXY_OBJECT
  5
194F
102
{ACAD_REACTORS
330
1939
102
}
330
1939
100
AcDbProxyObject
 90
      499
 91
      511
 93
      257
310
90E332F333222203D2031272D3022000000000000002E0FC000000000000284040
 94
        0
1001
ACAD
1000
AcadProxyRoundTripData
1071
      507
1071
   655383
1070
     0
  0
ACAD_PROXY_OBJECT
  5
1950
102
{ACAD_REACTORS
330
1939
102
}
330
1939
100
AcDbProxyObject
 90
      499
 91
      511
 93
      249
310
90D312F3822203D2031272D302200000000000000300FC000000000000284040
 94
        0
1001
ACAD
1000
AcadProxyRoundTripData
1071
      507
1071
   655383
1070
     0
  0
ACAD_PROXY_OBJECT
  5
1951
102
{ACAD_REACTORS
330
1939
102
}
330
1939
100
AcDbProxyObject
 90
      499
 91
      511
 93
      257
310
90E332F313622203D2031272D302200000000000000320FC000000000000284040
 94
        0
1001
ACAD
1000
AcadProxyRoundTripData
1071
      507
1071
   655383
1070
     0
  0
ACAD_PROXY_OBJECT
  5
1952
102
{ACAD_REACTORS
330
1939
102
}
330
1939
100
AcDbProxyObject
 90
      499
 91
      511
 93
      249
310
90D312F3422203D2031272D302200000000000000340FC000000000000284040
 94
        0
1001
ACAD
1000
AcadProxyRoundTripData
1071
      507
1071
   655383
1070
     0
  0
ACAD_PROXY_OBJECT
  5
1953
102
{ACAD_REACTORS
330
1939
102
}
330
1939
100
AcDbProxyObject
 90
      499
 91
      511
 93
      249
310
90D332F3822203D2031272D302200000000000000360FC000000000000284040
 94
        0
1001
ACAD
1000
AcadProxyRoundTripData
1071
      507
1071
   655383
1070
     0
  0
ACAD_PROXY_OBJECT
  5
1954
102
{ACAD_REACTORS
330
1939
102
}
330
1939
100
AcDbProxyObject
 90
      499
 91
      511
 93
      249
310
90D312F3222203D2031272D302200000000000000380FC000000000000284040
 94
        0
1001
ACAD
1000
AcadProxyRoundTripData
1071
      507
1071
   655383
1070
     0
  0
ACAD_PROXY_OBJECT
  5
1955
102
{ACAD_REACTORS
330
1939
102
}
330
1939
100
AcDbProxyObject
 90
      499
 91
      511
 93
      249
310
90D332F3422203D2031272D3022000000000000003A0FC000000000000284040
 94
        0
1001
ACAD
1000
AcadProxyRoundTripData
1071
      507
1071
   655383
1070
     0
  0
ACAD_PROXY_OBJECT
  5
1956
102
{ACAD_REACTORS
330
1939
102
}
330
1939
100
AcDbProxyObject
 90
      499
 91
      511
 93
      169
310
90B3122203D2031272D3022004000000000000284020
 94
        0
1001
ACAD
1000
AcadProxyRoundTripData
1071
      507
1071
   655383
1070
     0
  0
ACAD_PROXY_OBJECT
  5
1957
102
{ACAD_REACTORS
330
1939
102
}
330
1939
100
AcDbProxyObject
 90
      499
 91
      511
 93
      265
310
90F312D312F3222203D2031272D3022000000000000003E0FC00000000000028402B
 94
        0
1001
ACAD
1000
AcadProxyRoundTripData
1071
      507
1071
   655383
1070
     0
  0
ACAD_PROXY_OBJECT
  5
1958
102
{ACAD_REACTORS
330
1939
102
}
330
1939
100
AcDbProxyObject
 90
      499
 91
      511
 93
      233
310
90B3322203D2031272D30220000000000000002100000000000000284000
 94
        0
1001
ACAD
1000
AcadProxyRoundTripData
1071
      507
1071
   655383
1070
     0
  0
ACAD_PROXY_OBJECT
  5
1959
102
{ACAD_REACTORS
330
1939
102
}
330
1939
100
AcDbProxyObject
 90
      499
 91
      511
 93
      233
310
90B3622203D2031272D30220000000000000006100000000000000284000
 94
        0
1001
ACAD
1000
AcadProxyRoundTripData
1071
      507
1071
   655383
1070
     0
  0
ACAD_PROXY_OBJECT
  5
195A
102
{ACAD_REACTORS
330
1939
102
}
330
1939
100
AcDbProxyObject
 90
      499
 91
      511
 93
      257
310
90E31272D3022203D2031272D3022000000000000000A100000000000000284040
 94
        0
1001
ACAD
1000
AcadProxyRoundTripData
1071
      507
1071
   655383
1070
     0
  0
ACAD_PROXY_OBJECT
  5
1938
102
{ACAD_XDICTIONARY
360
1A3F
102
}
102
{ACAD_REACTORS
330
1937
102
}
330
1937
100
AcDbProxyObject
 90
      499
 91
      511
 93
     1849
310
4254DD185B99185C990028B81E85EB51B8AE3F2E07A17AD46E2B8FC02B5E8DC0F42B1CFD028000000C1008070000C3001FDFF8000000C1003FBFF000000182007F7FE00000030400FEFFC00000060801FDFF8000000C1003FBFF00000018200000000000000681FA0B0000001820100E000186003FBFF000000182007F7FE0
310
0000030400FEFFC00000060801FDFF8000000C1003FBFF000000182007F7FE000000304000AD7A3703D0AC73F4160000003040201C00030C007F7FE00000030400FEFFC00000060801FDFF8000000C1003FBFF000000182007F7FE00000030400FEFFC000000608000
340
16
340
16
340
16
 94
        0
1001
ACAD
1000
AcadProxyRoundTripData
1071
      506
1071
   655383
1070
     0
  0
ACAD_PROXY_OBJECT
  5
192B
102
{ACAD_REACTORS
330
1925
102
}
330
1925
100
AcDbProxyObject
 90
      499
 91
      511
 93
      444
310
430C9915DA5C99599C985B59401049028333333333333E3BF0000000000000FB0107901411070040501600405405064090741402480A0340
 94
        0
1001
ACAD
1000
AcDbSavedByObjectVersion
1070
     0
1000
AcadProxyRoundTripData
1071
      505
1071
   655383
1070
     0
  0
ACAD_PROXY_OBJECT
  5
192D
102
{ACAD_REACTORS
330
1925
102
}
330
1925
100
AcDbProxyObject
 90
      499
 91
      511
 93
      508
310
428CD108121A5919195B8010640502408333333333333E3BF0000000000000FB01079024090700405020000000000001110200405405064090740C02480A0340
 94
        0
1001
ACAD
1000
AcDbSavedByObjectVersion
1070
     0
1000
AcadProxyRoundTripData
1071
      505
1071
   655383
1070
     0
  0
ACAD_PROXY_OBJECT
  5
192C
102
{ACAD_REACTORS
330
1925
102
}
330
1925
100
AcDbProxyObject
 90
      499
 91
      511
 93
      444
310
430CD915DA5C99599C985B59401059028333333333333E3BF0000000000000FB0107901411070040501600405405064090741402480A0340
 94
        0
1001
ACAD
1000
AcDbSavedByObjectVersion
1070
     0
1000
AcadProxyRoundTripData
1071
      505
1071
   655383
1070
     0
  0
ACAD_PROXY_OBJECT
  5
192A
102
{ACAD_REACTORS
330
1925
102
}
330
1925
100
AcDbProxyObject
 90
      499
 91
      511
 93
      396
310
4190985CDA58C0107406404333333333333E3BF0000000000000FB0107A41107004050150841D405064090741402480A0356
 94
        0
1001
ACAD
1000
AcDbSavedByObjectVersion
1070
     0
1000
AcadProxyRoundTripData
1071
      505
1071
   655383
1070
     0
  0
ACAD_PROXY_OBJECT
  5
1931
102
{ACAD_REACTORS
330
1925
102
}
330
1925
100
AcDbProxyObject
 90
      499
 91
      511
 93
      436
310
42509C9A59DA1D195B8010C409028333333333333E3BF0000000000000FB010790141107004050150841D405064090741402480A029956
 94
        0
1001
ACAD
1000
AcDbSavedByObjectVersion
1070
     0
1000
AcadProxyRoundTripData
1071
      505
1071
   655383
1070
     0
  0
ACAD_PROXY_OBJECT
  5
1935
102
{ACAD_REACTORS
330
1925
102
}
330
1925
100
AcDbProxyObject
 90
      499
 91
      511
 93
      460
310
4310DBDB1BDC90DA185B99D9401104090240C333333333333E3BF0000000000000FB0108901411070040501508421405064090741402480A0354
 94
        0
1001
ACAD
1000
AcDbSavedByObjectVersion
1070
     0
1000
AcadProxyRoundTripData
1071
      505
1071
   655383
1070
     0
  0
ACAD_PROXY_OBJECT
  5
192E
102
{ACAD_REACTORS
330
1925
102
}
330
1925
100
AcDbProxyObject
 90
      499
 91
      511
 93
      508
310
42D0DBDB98D95C1D1D585B0010940D028333333333333E3BF0000000000000FB0107902409070040501000000000000111010841D405064090740C02480A0340
 94
        0
1001
ACAD
1000
AcDbSavedByObjectVersion
1070
     0
1000
AcadProxyRoundTripData
1071
      505
1071
   655383
1070
     0
  0
ACAD_PROXY_OBJECT
  5
1930
102
{ACAD_REACTORS
330
1925
102
}
330
1925
100
AcDbProxyObject
 90
      499
 91
      511
 93
      420
310
41111A5B4010B409028333333333333E3BF0000000000000FB010790141107004050150841D405064090741402480A02677FFFFFDB
 94
        0
1001
ACAD
1000
AcDbSavedByObjectVersion
1070
     0
1000
AcadProxyRoundTripData
1071
      505
1071
   655383
1070
     0
  0
ACAD_PROXY_OBJECT
  5
1934
102
{ACAD_REACTORS
330
1925
102
}
330
1925
100
AcDbProxyObject
 90
      499
 91
      511
 93
      452
310
43119858D95C185D1D195C9B8010F409028333333333333E3BF0000000000000FB010790141107004050150841D405064090741402480A0350
 94
        0
1001
ACAD
1000
AcDbSavedByObjectVersion
1070
     0
1000
AcadProxyRoundTripData
1071
      505
1071
   655383
1070
     0
  0
ACAD_PROXY_OBJECT
  5
1926
102
{ACAD_REACTORS
330
1925
102
}
330
1925
100
AcDbProxyObject
 90
      499
 91
      511
 93
      396
310
41519B185D00240901404333333333333E3BF0000000000000F9010740A41107004050150841D405064090741402480A1B55
 94
        0
1001
ACAD
1000
AcDbSavedByObjectVersion
1070
     0
1000
AcadProxyRoundTripData
1071
      505
1071
   655383
1070
     0
  0
ACAD_PROXY_OBJECT
  5
1927
102
{ACAD_REACTORS
330
1925
102
}
330
1925
100
AcDbProxyObject
 90
      499
 91
      511
 93
      484
310
43919B185D15DA5D1A115919D95CC010140901404333333333333E3BF0000000000000F9010740901411070040501600405405064090741402480A1B50
 94
        0
1001
ACAD
1000
AcDbSavedByObjectVersion
1070
     0
1000
AcadProxyRoundTripData
1071
      505
1071
   655383
1070
     0
  0
ACAD_PROXY_OBJECT
  5
1928
102
{ACAD_REACTORS
330
1925
102
}
330
1925
100
AcDbProxyObject
 90
      499
 91
      511
 93
      420
310
4211DBDD5C985D590010240902404333333333333E3BF0000000000000F9010740A411070040501641D405064090741402480A1B50
 94
        0
1001
ACAD
1000
AcDbSavedByObjectVersion
1070
     0
1000
AcadProxyRoundTripData
1071
      505
1071
   655383
1070
     0
  0
ACAD_PROXY_OBJECT
  5
1929
102
{ACAD_REACTORS
330
1925
102
}
330
1925
100
AcDbProxyObject
 90
      499
 91
      511
 93
      508
310
4451DBDD5C985D5915DA5D1A115919D95CC010340902404333333333333E3BF0000000000000F9010740901411070040501600405405064090741402480A1B50
 94
        0
1001
ACAD
1000
AcDbSavedByObjectVersion
1070
     0
1000
AcadProxyRoundTripData
1071
      505
1071
   655383
1070
     0
  0
ACAD_PROXY_OBJECT
  5
1933
102
{ACAD_REACTORS
330
1925
102
}
330
1925
100
AcDbProxyObject
 90
      499
 91
      511
 93
      452
310
43131A5B995C185D1D195C9B8010E409028333333333333E3BF0000000000000FB010790141107004050750841D405064090741402483A0350
 94
        0
1001
ACAD
1000
AcDbSavedByObjectVersion
1070
     0
1000
AcadProxyRoundTripData
1071
      505
1071
   655383
1070
     0
  0
ACAD_PROXY_OBJECT
  5
192F
102
{ACAD_REACTORS
330
1925
102
}
330
1925
100
AcDbProxyObject
 90
      499
 91
      511
 93
      428
310
429499585B1A5CDD1A58C0108409028333333333333E3BF0000000000000FB01079019070040501508421405064090741402480A1B45
 94
        0
1001
ACAD
1000
AcDbSavedByObjectVersion
1070
     0
1000
AcadProxyRoundTripData
1071
      505
1071
   655383
1070
     0
  0
ACAD_PROXY_OBJECT
  5
1932
102
{ACAD_REACTORS
330
1925
102
}
330
1925
100
AcDbProxyObject
 90
      499
 91
      511
 93
      420
310
42151A1A58DAD95B8010D409028333333333333E3BF0000000000000FB010790141107004050150C41D405064090741402480A0352
 94
        0
1001
ACAD
1000
AcDbSavedByObjectVersion
1070
     0
1000
AcadProxyRoundTripData
1071
      505
1071
   655383
1070
     0
  0
XRECORD
  5
322F
102
{ACAD_REACTORS
330
3225
102
}
330
3225
100
AcDbXrecord
 90
        0
  0
XRECORD
  5
3233
102
{ACAD_REACTORS
330
3225
102
}
330
3225
100
AcDbXrecord
1000
DSTYLE
1002
{
1070
   179
 70
     2
1070
   277
 70
     6
1002
}
  0
XRECORD
  5
3230
102
{ACAD_REACTORS
330
3225
102
}
330
3225
100
AcDbXrecord
  1
{6385560B-F4B1-4644-A7C2-A3E32AC3D232}
  0
XRECORD
  5
3228
102
{ACAD_REACTORS
330
3225
102
}
330
3225
100
AcDbXrecord
  1

  0
XRECORD
  5
322E
102
{ACAD_REACTORS
330
3225
102
}
330
3225
100
AcDbXrecord
 90
        0
  0
XRECORD
  5
322A
102
{ACAD_REACTORS
330
3225
102
}
330
3225
100
AcDbXrecord
340
61
  0
XRECORD
  5
322D
102
{ACAD_REACTORS
330
3225
102
}
330
3225
100
AcDbXrecord
 90
    10781
  0
XRECORD
  5
322B
102
{ACAD_REACTORS
330
3225
102
}
330
3225
100
AcDbXrecord
340
77
  0
XRECORD
  5
322C
102
{ACAD_REACTORS
330
3225
102
}
330
3225
100
AcDbXrecord
340
6
  0
XRECORD
  5
3232
102
{ACAD_REACTORS
330
3225
102
}
330
3225
100
AcDbXrecord
 40
0.0
  0
XRECORD
  5
3236
102
{ACAD_REACTORS
330
3225
102
}
330
3225
100
AcDbXrecord
340
0
  0
XRECORD
  5
323C
102
{ACAD_REACTORS
330
3225
102
}
330
3225
100
AcDbXrecord
 10
0.0
 20
0.0
 30
0.0
  0
XRECORD
  5
3238
102
{ACAD_REACTORS
330
3225
102
}
330
3225
100
AcDbXrecord
 10
0.0
 20
0.0
 30
0.0
  0
XRECORD
  5
323B
102
{ACAD_REACTORS
330
3225
102
}
330
3225
100
AcDbXrecord
 10
0.0
 20
0.0
 30
0.0
  0
XRECORD
  5
3239
102
{ACAD_REACTORS
330
3225
102
}
330
3225
100
AcDbXrecord
 10
0.0
 20
0.0
 30
0.0
  0
XRECORD
  5
323A
102
{ACAD_REACTORS
330
3225
102
}
330
3225
100
AcDbXrecord
 10
0.0
 20
0.0
 30
0.0
  0
XRECORD
  5
3237
102
{ACAD_REACTORS
330
3225
102
}
330
3225
100
AcDbXrecord
 10
0.0
 20
0.0
 30
0.0
  0
XRECORD
  5
3234
102
{ACAD_REACTORS
330
3225
102
}
330
3225
100
AcDbXrecord
340
0
  0
XRECORD
  5
3235
102
{ACAD_REACTORS
330
3225
102
}
330
3225
100
AcDbXrecord
 70
     0
  0
XRECORD
  5
3229
102
{ACAD_REACTORS
330
3225
102
}
330
3225
100
AcDbXrecord
  1
Sekkei.ctb
  0
XRECORD
  5
3226
102
{ACAD_REACTORS
330
3225
102
}
330
3225
100
AcDbXrecord
 90
        1
  0
XRECORD
  5
3227
102
{ACAD_REACTORS
330
3225
102
}
330
3225
100
AcDbXrecord
 90
       70
  0
XRECORD
  5
323F
102
{ACAD_REACTORS
330
3225
102
}
330
3225
100
AcDbXrecord
340
0
  0
XRECORD
  5
3245
102
{ACAD_REACTORS
330
3225
102
}
330
3225
100
AcDbXrecord
 10
0.0
 20
0.0
 30
0.0
  0
XRECORD
  5
3241
102
{ACAD_REACTORS
330
3225
102
}
330
3225
100
AcDbXrecord
 10
0.0
 20
0.0
 30
0.0
  0
XRECORD
  5
3244
102
{ACAD_REACTORS
330
3225
102
}
330
3225
100
AcDbXrecord
 10
0.0
 20
0.0
 30
0.0
  0
XRECORD
  5
3242
102
{ACAD_REACTORS
330
3225
102
}
330
3225
100
AcDbXrecord
 10
0.0
 20
0.0
 30
0.0
  0
XRECORD
  5
3243
102
{ACAD_REACTORS
330
3225
102
}
330
3225
100
AcDbXrecord
 10
0.0
 20
0.0
 30
0.0
  0
XRECORD
  5
3240
102
{ACAD_REACTORS
330
3225
102
}
330
3225
100
AcDbXrecord
 10
0.0
 20
0.0
 30
0.0
  0
XRECORD
  5
323D
102
{ACAD_REACTORS
330
3225
102
}
330
3225
100
AcDbXrecord
340
0
  0
XRECORD
  5
323E
102
{ACAD_REACTORS
330
3225
102
}
330
3225
100
AcDbXrecord
 70
     0
  0
XRECORD
  5
3231
102
{ACAD_REACTORS
330
3225
102
}
330
3225
100
AcDbXrecord
  1
{6FABBCB7-9BDC-403D-AE99-FD267C5CF6F9}
  0
DICTIONARYVAR
  5
1A62
102
{ACAD_REACTORS
330
102
102
}
330
102
100
DictionaryVariables
280
     0
  1
1:1
  0
DICTIONARYVAR
  5
1A61
102
{ACAD_REACTORS
330
102
102
}
330
102
100
DictionaryVariables
280
     0
  1
STANDARD
  0
DICTIONARYVAR
  5
1A60
102
{ACAD_REACTORS
330
102
102
}
330
102
100
DictionaryVariables
280
     0
  1
STANDARD
  0
DICTIONARYVAR
  5
103
102
{ACAD_REACTORS
330
102
102
}
330
102
100
DictionaryVariables
280
     0
  1
1
  0
DICTIONARYVAR
  5
1A63
102
{ACAD_REACTORS
330
102
102
}
330
102
100
DictionaryVariables
280
     0
  1
0
  0
DICTIONARYVAR
  5
549
102
{ACAD_REACTORS
330
102
102
}
330
102
100
DictionaryVariables
280
     0
  1
96
  0
DICTIONARY
  5
1916
330
1915
100
AcDbDictionary
280
     1
  3
ACAD_XREC_ROUNDTRIP
360
31FB
  3
BUMPTILE
360
1918
  3
DIFFUSETILE
360
1917
  3
OPACITYTILE
360
191B
  3
REFLECTIONTILE
360
191A
  3
REFRACTIONTILE
360
191C
  3
SPECULARTILE
360
1919
  0
DICTIONARY
  5
190E
330
190D
100
AcDbDictionary
280
     1
  3
ACAD_XREC_ROUNDTRIP
360
31FA
  3
BUMPTILE
360
1910
  3
DIFFUSETILE
360
190F
  3
OPACITYTILE
360
1913
  3
REFLECTIONTILE
360
1912
  3
REFRACTIONTILE
360
1914
  3
SPECULARTILE
360
1911
  0
DICTIONARY
  5
191E
330
191D
100
AcDbDictionary
280
     1
  3
ACAD_XREC_ROUNDTRIP
360
31FC
  3
BUMPTILE
360
1920
  3
DIFFUSETILE
360
191F
  3
OPACITYTILE
360
1923
  3
REFLECTIONTILE
360
1922
  3
REFRACTIONTILE
360
1924
  3
SPECULARTILE
360
1921
  0
DICTIONARY
  5
1A3F
330
1938
100
AcDbDictionary
280
     1
  3
ACAD_ROUNDTRIP_2008_TABLES
360
31E5
  3
ACAD_XREC_ROUNDTRIP
360
31FD
  0
XRECORD
  5
31FB
102
{ACAD_REACTORS
330
1916
102
}
330
1916
100
AcDbXrecord
102
MATERIAL
148
0.0
149
0.0
149
0.0
 93
        0
 94
      127
282
     0
 72
     0
 77
     0
171
     0
175
     0
179
     0
273
     0
  0
XRECORD
  5
1918
102
{ACAD_REACTORS
330
1916
102
}
330
1916
100
AcDbXrecord
270
     1
271
     1
  0
XRECORD
  5
1917
102
{ACAD_REACTORS
330
1916
102
}
330
1916
100
AcDbXrecord
270
     1
271
     1
  0
XRECORD
  5
191B
102
{ACAD_REACTORS
330
1916
102
}
330
1916
100
AcDbXrecord
270
     1
271
     1
  0
XRECORD
  5
191A
102
{ACAD_REACTORS
330
1916
102
}
330
1916
100
AcDbXrecord
270
     1
271
     1
  0
XRECORD
  5
191C
102
{ACAD_REACTORS
330
1916
102
}
330
1916
100
AcDbXrecord
270
     1
271
     1
  0
XRECORD
  5
1919
102
{ACAD_REACTORS
330
1916
102
}
330
1916
100
AcDbXrecord
270
     1
271
     1
  0
XRECORD
  5
31FA
102
{ACAD_REACTORS
330
190E
102
}
330
190E
100
AcDbXrecord
102
MATERIAL
148
0.0
149
0.0
149
0.0
 93
        0
 94
      127
282
     0
 72
     0
 77
     0
171
     0
175
     0
179
     0
273
     0
  0
XRECORD
  5
1910
102
{ACAD_REACTORS
330
190E
102
}
330
190E
100
AcDbXrecord
270
     1
271
     1
  0
XRECORD
  5
190F
102
{ACAD_REACTORS
330
190E
102
}
330
190E
100
AcDbXrecord
270
     1
271
     1
  0
XRECORD
  5
1913
102
{ACAD_REACTORS
330
190E
102
}
330
190E
100
AcDbXrecord
270
     1
271
     1
  0
XRECORD
  5
1912
102
{ACAD_REACTORS
330
190E
102
}
330
190E
100
AcDbXrecord
270
     1
271
     1
  0
XRECORD
  5
1914
102
{ACAD_REACTORS
330
190E
102
}
330
190E
100
AcDbXrecord
270
     1
271
     1
  0
XRECORD
  5
1911
102
{ACAD_REACTORS
330
190E
102
}
330
190E
100
AcDbXrecord
270
     1
271
     1
  0
XRECORD
  5
31FC
102
{ACAD_REACTORS
330
191E
102
}
330
191E
100
AcDbXrecord
102
MATERIAL
148
0.0
149
0.0
149
0.0
 93
        0
 94
      127
282
     0
 72
     0
 77
     0
171
     0
175
     0
179
     0
273
     0
  0
XRECORD
  5
1920
102
{ACAD_REACTORS
330
191E
102
}
330
191E
100
AcDbXrecord
270
     1
271
     1
  0
XRECORD
  5
191F
102
{ACAD_REACTORS
330
191E
102
}
330
191E
100
AcDbXrecord
270
     1
271
     1
  0
XRECORD
  5
1923
102
{ACAD_REACTORS
330
191E
102
}
330
191E
100
AcDbXrecord
270
     1
271
     1
  0
XRECORD
  5
1922
102
{ACAD_REACTORS
330
191E
102
}
330
191E
100
AcDbXrecord
270
     1
271
     1
  0
XRECORD
  5
1924
102
{ACAD_REACTORS
330
191E
102
}
330
191E
100
AcDbXrecord
270
     1
271
     1
  0
XRECORD
  5
1921
102
{ACAD_REACTORS
330
191E
102
}
330
191E
100
AcDbXrecord
270
     1
271
     1
  0
ACAD_PROXY_OBJECT
  5
31E5
102
{ACAD_REACTORS
330
1A3F
102
}
330
1A3F
100
AcDbProxyObject
 90
      499
 91
      511
 93
     5304
310
40D054060020000020000003200101A000080002A5058000000C100000000000000340FD012E07A17AD46E2B8FCB81E85EB51B8AE3F2E07A17AD46E2B8FCB81E85EB51B8AE3F02B5E8DC0F42B1CFC0AD7A3703D0AC73F419019018000000C1003FBFFFFFE02B5E8DC0F42A9CFD029018000000C1003FBFFFFFE02B5E8DC0F4
310
2A9CFD049018000000C1003FBFFFFFE02B5E8DC0F42A9CFD089018000000C1003FBFFFFFE02B5E8DC0F42A9CFD109018000000C1003FBFFFFFE02B5E8DC0F42A9CFD209018000000C1003FBFFFFFE02B5E8DC0F42A9CFD01405075F5449544C450041501A8000000C800406800020000A9416000000304000AD7A3703D0AC7
310
3F404B81E85EB51B8AE3F2E07A17AD46E2B8FCB81E85EB51B8AE3F2E07A17AD46E2B8FC0AD7A3703D0AC73F02B5E8DC0F42B1CFD0640640600000030400FEFFFFFF80AD7A3703D0AA73F40A40600000030400FEFFFFFF80AD7A3703D0AA73F41240600000030400FEFFFFFF80AD7A3703D0AA73F42240600000030400FEFFF
310
FFF80AD7A3703D0AA73F44240600000030400FEFFFFFF80AD7A3703D0AA73F48240600000030400FEFFFFFF80AD7A3703D0AA73F409014217D2115051115480105406A0000003200101A000080002A5028000000C10002B5E8DC0F42B1CFD012E07A17AD46E2B8FCB81E85EB51B8AE3F2E07A17AD46E2B8FCB81E85EB51B8A
310
E3F02B5E8DC0F42B1CFC0AD7A3703D0AC73F419019018000000C1003FBFFFFFE02B5E8DC0F42A9CFD029018000000C1003FBFFFFFE02B5E8DC0F42A9CFD049018000000C1003FBFFFFFE02B5E8DC0F42A9CFD089018000000C1003FBFFFFFE02B5E8DC0F42A9CFD109018000000C1003FBFFFFFE02B5E8DC0F42A9CFD20901
310
8000000C1003FBFFFFFE02B5E8DC0F42A9CFD03409065F444154410000
340
16
340
0
340
0
340
0
340
0
340
0
340
0
340
16
340
0
340
0
340
0
340
0
340
0
340
0
340
16
340
0
340
0
340
0
340
0
340
0
340
0
 94
        0
1001
ACAD
1000
AcadProxyRoundTripData
1071
      510
1071
   655383
1070
     0
  0
XRECORD
  5
31FD
102
{ACAD_REACTORS
330
1A3F
102
}
330
1A3F
100
AcDbXrecord
102
ACAD_ROUNDTRIP_PRE2007_TABLESTYLE
 90
      512
 91
        0
  1

 92
      512
 93
        0
  2

 94
      512
 95
        0
  3

  0
ENDSEC
  0
EOF
