  0
SECTION
  2
HEADER
  9
$ACADVER
  1
AC1014
  9
$ACADMAINTVER
 70
     9
  9
$DWGCODEPAGE
  3
ANSI_932
  9
$INSBASE
 10
0.0
 20
0.0
 30
0.0
  9
$EXTMIN
 10
83.76178210016167
 20
126.0366368218324
 30
0.0
  9
$EXTMAX
 10
1462.344937147387
 20
974.4413216991056
 30
0.0
  9
$LIMMIN
 10
0.0
 20
0.0
  9
$LIMMAX
 10
297.0
 20
210.0
  9
$ORTHOMODE
 70
     0
  9
$REGENMODE
 70
     1
  9
$FILLMODE
 70
     1
  9
$QTEXTMODE
 70
     0
  9
$MIRRTEXT
 70
     0
  9
$DRAGMODE
 70
     2
  9
$LTSCALE
 40
4.0
  9
$OSMODE
 70
    37
  9
$ATTMODE
 70
     1
  9
$TEXTSIZE
 40
2.0
  9
$TRACEWID
 40
1.0
  9
$TEXTSTYLE
  7
STANDARD
  9
$CLAYER
  8
0
  9
$CELTYPE
  6
BYLAYER
  9
$CECOLOR
 62
   256
  9
$CELTSCALE
 40
1.0
  9
$DELOBJ
 70
     1
  9
$DISPSILH
 70
     0
  9
$DIMSCALE
 40
4.0
  9
$DIMASZ
 40
1.8
  9
$DIMEXO
 40
0.625
  9
$DIMDLI
 40
3.75
  9
$DIMRND
 40
0.0
  9
$DIMDLE
 40
0.0
  9
$DIMEXE
 40
0.8
  9
$DIMTP
 40
0.0
  9
$DIMTM
 40
0.0
  9
$DIMTXT
 40
1.8
  9
$DIMCEN
 40
2.5
  9
$DIMTSZ
 40
0.0
  9
$DIMTOL
 70
     0
  9
$DIMLIM
 70
     0
  9
$DIMTIH
 70
     0
  9
$DIMTOH
 70
     0
  9
$DIMSE1
 70
     0
  9
$DIMSE2
 70
     0
  9
$DIMTAD
 70
     1
  9
$DIMZIN
 70
     8
  9
$DIMBLK
  1

  9
$DIMASO
 70
     1
  9
$DIMSHO
 70
     1
  9
$DIMPOST
  1

  9
$DIMAPOST
  1

  9
$DIMALT
 70
     0
  9
$DIMALTD
 70
     4
  9
$DIMALTF
 40
0.0394
  9
$DIMLFAC
 40
1.0
  9
$DIMTOFL
 70
     1
  9
$DIMTVP
 40
0.0
  9
$DIMTIX
 70
     0
  9
$DIMSOXD
 70
     0
  9
$DIMSAH
 70
     0
  9
$DIMBLK1
  1

  9
$DIMBLK2
  1

  9
$DIMSTYLE
  2
STANDARD
  9
$DIMCLRD
 70
     0
  9
$DIMCLRE
 70
     0
  9
$DIMCLRT
 70
     0
  9
$DIMTFAC
 40
1.0
  9
$DIMGAP
 40
0.75
  9
$DIMJUST
 70
     0
  9
$DIMSD1
 70
     0
  9
$DIMSD2
 70
     0
  9
$DIMTOLJ
 70
     1
  9
$DIMTZIN
 70
     0
  9
$DIMALTZ
 70
     0
  9
$DIMALTTZ
 70
     0
  9
$DIMFIT
 70
     3
  9
$DIMUPT
 70
     0
  9
$DIMUNIT
 70
     8
  9
$DIMDEC
 70
     2
  9
$DIMTDEC
 70
     2
  9
$DIMALTU
 70
     8
  9
$DIMALTTD
 70
     4
  9
$DIMTXSTY
  7
STANDARD
  9
$DIMAUNIT
 70
     0
  9
$LUNITS
 70
     2
  9
$LUPREC
 70
     3
  9
$SKETCHINC
 40
1.0
  9
$FILLETRAD
 40
10.0
  9
$AUNITS
 70
     0
  9
$AUPREC
 70
     2
  9
$MENU
  1
.
  9
$ELEVATION
 40
0.0
  9
$PELEVATION
 40
0.0
  9
$THICKNESS
 40
0.0
  9
$LIMCHECK
 70
     0
  9
$BLIPMODE
 70
     0
  9
$CHAMFERA
 40
0.0
  9
$CHAMFERB
 40
0.0
  9
$CHAMFERC
 40
20.0
  9
$CHAMFERD
 40
0.0
  9
$SKPOLY
 70
     0
  9
$TDCREATE
 40
2454889.560527523
  9
$TDUPDATE
 40
2454909.816526180
  9
$TDINDWG
 40
0.0798898495
  9
$TDUSRTIMER
 40
0.0798896644
  9
$USRTIMER
 70
     1
  9
$ANGBASE
 50
0.0
  9
$ANGDIR
 70
     0
  9
$PDMODE
 70
     0
  9
$PDSIZE
 40
-10.0
  9
$PLINEWID
 40
0.0
  9
$COORDS
 70
     1
  9
$SPLFRAME
 70
     0
  9
$SPLINETYPE
 70
     6
  9
$SPLINESEGS
 70
     8
  9
$ATTDIA
 70
     0
  9
$ATTREQ
 70
     1
  9
$HANDLING
 70
 22529
  9
$HANDSEED
  5
27FC
  9
$SURFTAB1
 70
     6
  9
$SURFTAB2
 70
     6
  9
$SURFTYPE
 70
     6
  9
$SURFU
 70
     6
  9
$SURFV
 70
     6
  9
$UCSNAME
  2

  9
$UCSORG
 10
0.0
 20
0.0
 30
0.0
  9
$UCSXDIR
 10
1.0
 20
0.0
 30
0.0
  9
$UCSYDIR
 10
0.0
 20
1.0
 30
0.0
  9
$PUCSNAME
  2

  9
$PUCSORG
 10
0.0
 20
0.0
 30
0.0
  9
$PUCSXDIR
 10
1.0
 20
0.0
 30
0.0
  9
$PUCSYDIR
 10
0.0
 20
1.0
 30
0.0
  9
$USERI1
 70
     0
  9
$USERI2
 70
     0
  9
$USERI3
 70
     0
  9
$USERI4
 70
     0
  9
$USERI5
 70
     0
  9
$USERR1
 40
0.0
  9
$USERR2
 40
0.0
  9
$USERR3
 40
0.0
  9
$USERR4
 40
0.0
  9
$USERR5
 40
0.0
  9
$WORLDVIEW
 70
     1
  9
$SHADEDGE
 70
     3
  9
$SHADEDIF
 70
    70
  9
$TILEMODE
 70
     1
  9
$MAXACTVP
 70
    48
  9
$PINSBASE
 10
0.0
 20
0.0
 30
0.0
  9
$PLIMCHECK
 70
     0
  9
$PEXTMIN
 10
0.0
 20
0.0
 30
0.0
  9
$PEXTMAX
 10
0.0
 20
0.0
 30
0.0
  9
$PLIMMIN
 10
0.0
 20
0.0
  9
$PLIMMAX
 10
12.0
 20
9.0
  9
$UNITMODE
 70
     0
  9
$VISRETAIN
 70
     1
  9
$PLINEGEN
 70
     0
  9
$PSLTSCALE
 70
     1
  9
$TREEDEPTH
 70
  3020
  9
$PICKSTYLE
 70
     1
  9
$CMLSTYLE
  2
STANDARD
  9
$CMLJUST
 70
     0
  9
$CMLSCALE
 40
1.0
  9
$PROXYGRAPHICS
 70
     1
  9
$MEASUREMENT
 70
     0
  0
ENDSEC
  0
SECTION
  2
CLASSES
  0
CLASS
  1
DICTIONARYVAR
  2
AcDbDictionaryVar
  3
AutoCAD 2000
 90
        0
280
     0
281
     0
  0
CLASS
  1
ACDBDICTIONARYWDFLT
  2
AcDbDictionaryWithDefault
  3
AutoCAD 2000
 90
        0
280
     0
281
     0
  0
CLASS
  1
ACDBPLACEHOLDER
  2
AcDbPlaceHolder
  3
AutoCAD 2000
 90
        0
280
     0
281
     0
  0
CLASS
  1
LAYOUT
  2
AcDbLayout
  3
AutoCAD 2000
 90
        0
280
     0
281
     0
  0
CLASS
  1
MATERIAL
  2
AcDbMaterial
  3
ObjectDBX Classes
 90
     1153
280
     0
281
     0
  0
CLASS
  1
VISUALSTYLE
  2
AcDbVisualStyle
  3
ObjectDBX Classes
 90
     4095
280
     0
281
     0
  0
CLASS
  1
TABLESTYLE
  2
AcDbTableStyle
  3
ObjectDBX Classes
 90
     4095
280
     0
281
     0
  0
CLASS
  1
SCALE
  2
AcDbScale
  3
ObjectDBX Classes
 90
     1153
280
     0
281
     0
  0
CLASS
  1
MLEADERSTYLE
  2
AcDbMLeaderStyle
  3
ACDB_MLEADERSTYLE_CLASS
 90
     4095
280
     0
281
     0
  0
CLASS
  1
PLOTSETTINGS
  2
AcDbPlotSettings
  3
AutoCAD 2000
 90
        0
280
     0
281
     0
  0
CLASS
  1
CELLSTYLEMAP
  2
AcDbCellStyleMap
  3
ObjectDBX Classes
 90
     1152
280
     0
281
     0
  0
CLASS
  1
SORTENTSTABLE
  2
AcDbSortentsTable
  3
AutoCAD 2000
 90
        0
280
     0
281
     0
  0
CLASS
  1
ACAD_PROXY_OBJECT_WRAPPER
  2
AcDbProxyObjectWrapper
  3
AutoCAD 2000
 90
        0
280
     0
281
     0
  0
CLASS
  1
LONG_TRANSACTION
  2
AcDbLongTransaction
  3
AutoCAD 2000
 90
        0
280
     0
281
     0
  0
CLASS
  1
LWPOLYLINE
  2
AcDbPolyline
  3
AutoCAD 2000
 90
        0
280
     0
281
     1
  0
CLASS
  1
HATCH
  2
AcDbHatch
  3
AutoCAD 2000
 90
        0
280
     0
281
     1
  0
CLASS
  1
XRECORD
  2
AcDbXrecord
  3
AutoCAD 2000
 90
        0
280
     0
281
     0
  0
ENDSEC
  0
SECTION
  2
TABLES
  0
TABLE
  2
VPORT
  5
6E
102
{ACAD_XDICTIONARY
360
1BB4
102
}
330
0
100
AcDbSymbolTable
 70
     2
  0
VPORT
  5
27D7
330
6E
100
AcDbSymbolTableRecord
100
AcDbViewportTableRecord
  2
*ACTIVE
 70
     0
 10
0.0
 20
0.0
 11
1.0
 21
1.0
 12
833.1747274507245
 22
531.9385628745421
 13
0.0
 23
0.0
 14
10.0
 24
10.0
 15
10.0
 25
10.0
 16
0.0
 26
0.0
 36
1.0
 17
0.0
 27
0.0
 37
0.0
 40
944.2843147888465
 41
1.593429158110883
 42
50.0
 43
0.0
 44
0.0
 50
0.0
 51
0.0
 71
     0
 72
   100
 73
     1
 74
     3
 75
     0
 76
     0
 77
     0
 78
     0
  0
ENDTAB
  0
TABLE
  2
LTYPE
  5
69
330
0
100
AcDbSymbolTable
 70
     7
  0
LTYPE
  5
6A
330
69
100
AcDbSymbolTableRecord
100
AcDbLinetypeTableRecord
  2
BYBLOCK
 70
     0
  3

 72
    65
 73
     0
 40
0.0
  0
LTYPE
  5
6B
330
69
100
AcDbSymbolTableRecord
100
AcDbLinetypeTableRecord
  2
BYLAYER
 70
     0
  3

 72
    65
 73
     0
 40
0.0
  0
LTYPE
  5
8
330
69
100
AcDbSymbolTableRecord
100
AcDbLinetypeTableRecord
  2
CONTINUOUS
 70
     0
  3
Solid line
 72
    65
 73
     0
 40
0.0
  0
LTYPE
  5
27C
330
69
100
AcDbSymbolTableRecord
100
AcDbLinetypeTableRecord
  2
SEKKEI_A2_
 70
     0
  3
center(A2)  ____ _ ____ _ ____ _ ____ _ ____ _ 
 72
    65
 73
     4
 40
14.28749999999999
 49
9.525
 74
     0
 49
-1.587499999999999
 74
     0
 49
1.587499999999999
 74
     0
 49
-1.587499999999999
 74
     0
  0
LTYPE
  5
2B4
330
69
100
AcDbSymbolTableRecord
100
AcDbLinetypeTableRecord
  2
HIDDEN2
 70
     0
  3
Hidden (.5x) _ _ _ _ _ _ _ _ _ _ _ _ _ _ _ _ _
 72
    65
 73
     2
 40
4.762499999999999
 49
3.174999999999999
 74
     0
 49
-1.587499999999999
 74
     0
  0
LTYPE
  5
477
330
69
100
AcDbSymbolTableRecord
100
AcDbLinetypeTableRecord
  2
SEKKEI-P_A4_
 70
     0
  3
Phantom(A4)  ____ _ _ ____ _ _ ____ _ _ _____
 72
    65
 73
     6
 40
15.0
 49
7.5
 74
     0
 49
-1.5
 74
     0
 49
1.5
 74
     0
 49
-1.5
 74
     0
 49
1.5
 74
     0
 49
-1.5
 74
     0
  0
LTYPE
  5
48F
330
69
100
AcDbSymbolTableRecord
100
AcDbLinetypeTableRecord
  2
SEKKEI_H
 70
     0
  3
Hidden-S _ _ _ _ _ _ _ _ _ _ _ _ _ _ _ _ _
 72
    65
 73
     2
 40
2.381249999999999
 49
1.587499999999999
 74
     0
 49
-0.79375
 74
     0
  0
LTYPE
  5
494
330
69
100
AcDbSymbolTableRecord
100
AcDbLinetypeTableRecord
  2
SEKKEI_P_S
 70
     0
  3
Phantom_S   __ _ _ __ _ _ __ _ _ ___
 72
    65
 73
     6
 40
7.5
 49
3.75
 74
     0
 49
-0.75
 74
     0
 49
0.75
 74
     0
 49
-0.75
 74
     0
 49
0.75
 74
     0
 49
-0.75
 74
     0
  0
LTYPE
  5
54A
330
69
100
AcDbSymbolTableRecord
100
AcDbLinetypeTableRecord
  2
CENTERX2
 70
     0
  3
Center (2x) ________  __  ________  __  _____
 72
    65
 73
     4
 40
4.0
 49
2.5
 74
     0
 49
-0.5
 74
     0
 49
0.5
 74
     0
 49
-0.5
 74
     0
  0
ENDTAB
  0
TABLE
  2
LAYER
  5
66
102
{ACAD_XDICTIONARY
360
86B
102
}
330
0
100
AcDbSymbolTable
 70
    10
  0
LAYER
  5
5E
102
{ACAD_XDICTIONARY
360
1A25
102
}
330
66
100
AcDbSymbolTableRecord
100
AcDbLayerTableRecord
  2
0
 70
     0
 62
     7
  6
CONTINUOUS
  0
LAYER
  5
3E
102
{ACAD_XDICTIONARY
360
1A27
102
}
330
66
100
AcDbSymbolTableRecord
100
AcDbLayerTableRecord
  2
CENTER
 70
     0
 62
     3
  6
SEKKEI_A2_
  0
LAYER
  5
2B5
102
{ACAD_XDICTIONARY
360
1A2D
102
}
330
66
100
AcDbSymbolTableRecord
100
AcDbLayerTableRecord
  2
HIDS
 70
     0
 62
     1
  6
HIDDEN2
  0
LAYER
  5
2BA
102
{ACAD_XDICTIONARY
360
1A2F
102
}
330
66
100
AcDbSymbolTableRecord
100
AcDbLayerTableRecord
  2
HOJO
 70
     0
 62
     4
  6
CONTINUOUS
  0
LAYER
  5
3FA
102
{ACAD_XDICTIONARY
360
1A33
102
}
330
66
100
AcDbSymbolTableRecord
100
AcDbLayerTableRecord
  2
TITLE
 70
     0
 62
     4
  6
CONTINUOUS
  0
LAYER
  5
478
102
{ACAD_XDICTIONARY
360
1A35
102
}
330
66
100
AcDbSymbolTableRecord
100
AcDbLayerTableRecord
  2
PHAS
 70
     0
 62
     2
  6
SEKKEI-P_A4_
  0
ENDTAB
  0
TABLE
  2
STYLE
  5
67
330
0
100
AcDbSymbolTable
 70
     3
  0
STYLE
  5
16
330
67
100
AcDbSymbolTableRecord
100
AcDbTextStyleTableRecord
  2
STANDARD
 70
     0
 40
0.0
 41
1.0
 50
0.0
 71
     0
 42
2.0
  3
simplex.shx
  4
extfont.shx
  0
ENDTAB
  0
TABLE
  2
VIEW
  5
6C
330
0
100
AcDbSymbolTable
 70
     0
  0
ENDTAB
  0
TABLE
  2
UCS
  5
6D
330
0
100
AcDbSymbolTable
 70
     0
  0
ENDTAB
  0
TABLE
  2
APPID
  5
70
330
0
100
AcDbSymbolTable
 70
     7
  0
APPID
  5
71
330
70
100
AcDbSymbolTableRecord
100
AcDbRegAppTableRecord
  2
ACAD
 70
     0
  0
APPID
  5
859
330
70
100
AcDbSymbolTableRecord
100
AcDbRegAppTableRecord
  2
ACAD_MLEADERVER
 70
     0
  0
APPID
  5
866
330
70
100
AcDbSymbolTableRecord
100
AcDbRegAppTableRecord
  2
ACAD_PSEXT
 70
     0
  0
APPID
  5
A4F
330
70
100
AcDbSymbolTableRecord
100
AcDbRegAppTableRecord
  2
ACAD_DSTYLE_DIMJAG
 70
     0
  0
APPID
  5
A50
330
70
100
AcDbSymbolTableRecord
100
AcDbRegAppTableRecord
  2
ACAD_DSTYLE_DIMTALN
 70
     0
  0
APPID
  5
18E5
330
70
100
AcDbSymbolTableRecord
100
AcDbRegAppTableRecord
  2
ACAD_EXEMPT_FROM_CAD_STANDARDS
 70
     0
  0
APPID
  5
1B78
330
70
100
AcDbSymbolTableRecord
100
AcDbRegAppTableRecord
  2
ACAD_DSTYLE_DIMRADIAL_EXTENSION
 70
     0
  0
ENDTAB
  0
TABLE
  2
DIMSTYLE
  5
72
330
0
100
AcDbSymbolTable
 70
     1
  0
DIMSTYLE
105
73
102
{ACAD_REACTORS
330
1079
330
107C
330
1087
330
1089
102
}
330
72
100
AcDbSymbolTableRecord
100
AcDbDimStyleTableRecord
  2
STANDARD
 70
     0
  3

  4

  5

  6

  7

 40
4.0
 41
1.8
 42
0.625
 43
3.75
 44
0.8
 45
0.0
 46
0.0
 47
0.0
 48
0.0
140
1.8
141
2.5
142
0.0
143
0.0394
144
1.0
145
0.0
146
1.0
147
0.75
 71
     0
 72
     0
 73
     0
 74
     0
 75
     0
 76
     0
 77
     1
 78
     8
170
     0
171
     4
172
     1
173
     0
174
     0
175
     0
176
     0
177
     0
178
     0
270
     8
271
     2
272
     2
273
     8
274
     4
340
16
275
     0
280
     0
281
     0
282
     0
283
     1
284
     0
285
     0
286
     0
287
     3
288
     0
1001
ACAD_DSTYLE_DIMJAG
1070
   388
1040
1.5
1001
ACAD_DSTYLE_DIMTALN
1070
   392
1070
     0
  0
ENDTAB
  0
TABLE
  2
BLOCK_RECORD
  5
1
330
0
100
AcDbSymbolTable
 70
    56
  0
BLOCK_RECORD
  5
2
102
{ACAD_XDICTIONARY
360
192E
102
}
330
1
100
AcDbSymbolTableRecord
100
AcDbBlockTableRecord
  2
*MODEL_SPACE
  0
BLOCK_RECORD
  5
27D2
102
{ACAD_XDICTIONARY
360
27FA
102
}
330
1
100
AcDbSymbolTableRecord
100
AcDbBlockTableRecord
  2
*PAPER_SPACE
  0
ENDTAB
  0
ENDSEC
  0
SECTION
  2
BLOCKS
  0
BLOCK
  5
5D
330
2
100
AcDbEntity
  8
0
100
AcDbBlockBegin
  2
*MODEL_SPACE
 70
     0
 10
0.0
 20
0.0
 30
0.0
  3
*MODEL_SPACE
  1

  0
ENDBLK
  5
5F
330
2
100
AcDbEntity
  8
0
100
AcDbBlockEnd
  0
BLOCK
  5
27D4
330
27D2
100
AcDbEntity
 67
     1
  8
0
100
AcDbBlockBegin
  2
*PAPER_SPACE
 70
     0
 10
0.0
 20
0.0
 30
0.0
  3
*PAPER_SPACE
  1

  0
ENDBLK
  5
27D5
330
27D2
100
AcDbEntity
 67
     1
  8
0
100
AcDbBlockEnd
  0
ENDSEC
  0
SECTION
  2
ENTITIES
  0
LINE
  5
DF9
330
2
100
AcDbEntity
  8
CENTER
100
AcDbLine
 10
955.011608665583
 20
463.6005847670469
 30
0.0
 11
811.7273374181207
 21
606.8848560145085
 31
0.0
  0
LINE
  5
DFA
330
2
100
AcDbEntity
  8
CENTER
100
AcDbLine
 10
811.7273374181207
 20
463.6005847670467
 30
0.0
 11
955.0116086655819
 21
606.8848560145097
 31
0.0
  0
CIRCLE
  5
DFB
330
2
100
AcDbEntity
  8
CENTER
100
AcDbCircle
 10
883.3694730418518
 20
535.2427203907778
 30
0.0
 40
80.0
  0
CIRCLE
  5
DFC
330
2
100
AcDbEntity
  8
0
100
AcDbCircle
 10
883.3694730418518
 20
535.2427203907778
 30
0.0
 40
60.0
  0
LINE
  5
DFD
330
2
100
AcDbEntity
  8
CENTER
100
AcDbLine
 10
883.3694730418518
 20
440.2427203907778
 30
0.0
 11
883.3694730418518
 21
630.2427203907777
 31
0.0
  0
LINE
  5
DFE
330
2
100
AcDbEntity
  8
0
100
AcDbLine
 10
950.8694730418518
 20
477.7427203907778
 30
0.0
 11
950.8694730418518
 21
592.7427203907777
 31
0.0
  0
ARC
  5
DFF
330
2
100
AcDbEntity
  8
0
100
AcDbCircle
 10
883.3694730418518
 20
262.7427203907777
 30
0.0
 40
340.0
100
AcDbArc
 50
85.33227731211809
 51
94.66772268788192
  0
ARC
  5
E00
330
2
100
AcDbEntity
  8
0
100
AcDbCircle
 10
825.8694730418518
 20
592.7427203907777
 30
0.0
 40
10.0
100
AcDbArc
 50
90.0
 51
180.0
  0
CIRCLE
  5
E01
330
2
100
AcDbEntity
  8
0
100
AcDbCircle
 10
826.8009305469275
 20
591.811262885702
 30
0.0
 40
4.0
  0
CIRCLE
  5
E02
330
2
100
AcDbEntity
  8
HOJO
100
AcDbCircle
 10
826.8009305469275
 20
591.811262885702
 30
0.0
 40
5.0
  0
LINE
  5
E03
330
2
100
AcDbEntity
  8
0
100
AcDbLine
 10
815.8694730418519
 20
588.7427203907777
 30
0.0
 11
815.8694730418519
 21
592.7427203907777
 31
0.0
  0
LINE
  5
E04
330
2
100
AcDbEntity
  8
0
100
AcDbLine
 10
825.8694730418518
 20
602.7427203907778
 30
0.0
 11
829.8694730418517
 21
602.7427203907778
 31
0.0
  0
ARC
  5
E05
330
2
100
AcDbEntity
  8
0
100
AcDbCircle
 10
829.8694730418517
 20
594.7427203907778
 30
0.0
 40
8.0
100
AcDbArc
 50
80.57047887832746
 51
90.0
  0
ARC
  5
E06
330
2
100
AcDbEntity
  8
0
100
AcDbCircle
 10
940.8694730418519
 20
592.7427203907777
 30
0.0
 40
10.0
100
AcDbArc
 50
0.0
 51
90.0
  0
CIRCLE
  5
E07
330
2
100
AcDbEntity
  8
0
100
AcDbCircle
 10
939.9380155367742
 20
591.811262885702
 30
0.0
 40
4.0
  0
CIRCLE
  5
E08
330
2
100
AcDbEntity
  8
HOJO
100
AcDbCircle
 10
939.9380155367742
 20
591.811262885702
 30
0.0
 40
5.0
  0
ARC
  5
E09
330
2
100
AcDbEntity
  8
0
100
AcDbCircle
 10
936.8694730418518
 20
594.7427203907778
 30
0.0
 40
8.0
100
AcDbArc
 50
90.0
 51
99.42952112167255
  0
LINE
  5
E0A
330
2
100
AcDbEntity
  8
0
100
AcDbLine
 10
936.8694730418518
 20
602.7427203907778
 30
0.0
 11
940.8694730418519
 21
602.7427203907778
 31
0.0
  0
LINE
  5
E0B
330
2
100
AcDbEntity
  8
CENTER
100
AcDbLine
 10
788.3694730418518
 20
535.2427203907778
 30
0.0
 11
1141.839495041854
 21
535.2427203907778
 31
0.0
  0
CIRCLE
  5
E0C
330
2
100
AcDbEntity
  8
0
100
AcDbCircle
 10
883.3694730418518
 20
535.2427203907778
 30
0.0
 40
43.5
  0
ARC
  5
E0D
330
2
100
AcDbEntity
  8
0
100
AcDbCircle
 10
1155.86947304185
 20
535.2427203907778
 30
0.0
 40
340.0
100
AcDbArc
 50
175.3322773121172
 51
184.6677226878827
  0
LINE
  5
E0E
330
2
100
AcDbEntity
  8
0
100
AcDbLine
 10
1031.839495041849
 20
584.7427203907777
 30
0.0
 11
1031.839495041849
 21
485.7427203907778
 31
0.0
  0
LINE
  5
E0F
330
2
100
AcDbEntity
  8
0
100
AcDbLine
 10
1047.339495041851
 20
483.7427203907777
 30
0.0
 11
1047.339495041849
 21
586.7427203907777
 31
0.0
  0
LINE
  5
E10
330
2
100
AcDbEntity
  8
0
100
AcDbLine
 10
1002.369473041851
 20
492.2427203907777
 30
0.0
 11
1002.369473041851
 21
578.2427203907777
 31
0.0
  0
ARC
  5
E11
330
2
100
AcDbEntity
  8
0
100
AcDbCircle
 10
883.3694730418518
 20
807.7427203907777
 30
0.0
 40
340.0
100
AcDbArc
 50
265.332277312118
 51
274.6677226878819
  0
CIRCLE
  5
E12
330
2
100
AcDbEntity
  8
0
100
AcDbCircle
 10
826.8009305469275
 20
478.6741778958535
 30
0.0
 40
4.0
  0
CIRCLE
  5
E13
330
2
100
AcDbEntity
  8
HOJO
100
AcDbCircle
 10
826.8009305469275
 20
478.6741778958535
 30
0.0
 40
5.0
  0
LINE
  5
E14
330
2
100
AcDbEntity
  8
0
100
AcDbLine
 10
825.8694730418518
 20
467.7427203907777
 30
0.0
 11
829.8694730418517
 21
467.7427203907777
 31
0.0
  0
ARC
  5
E15
330
2
100
AcDbEntity
  8
0
100
AcDbCircle
 10
825.8694730418518
 20
477.7427203907778
 30
0.0
 40
10.0
100
AcDbArc
 50
180.0
 51
270.0
  0
LINE
  5
E16
330
2
100
AcDbEntity
  8
0
100
AcDbLine
 10
815.8694730418519
 20
477.7427203907778
 30
0.0
 11
815.8694730418519
 21
481.7427203907778
 31
0.0
  0
ARC
  5
E17
330
2
100
AcDbEntity
  8
0
100
AcDbCircle
 10
823.8694730418499
 20
481.7427203907778
 30
0.0
 40
8.0
100
AcDbArc
 50
170.5704788783795
 51
180.0
  0
ARC
  5
E18
330
2
100
AcDbEntity
  8
0
100
AcDbCircle
 10
829.8694730418517
 20
475.7427203907777
 30
0.0
 40
8.0
100
AcDbArc
 50
270.0
 51
279.4295211216725
  0
LINE
  5
E19
330
2
100
AcDbEntity
  8
0
100
AcDbLine
 10
958.8068641565023
 20
484.2427203907777
 30
0.0
 11
994.3694730418519
 21
484.2427203907777
 31
0.0
  0
CIRCLE
  5
E1A
330
2
100
AcDbEntity
  8
0
100
AcDbCircle
 10
939.9380155367742
 20
478.6741778958553
 30
0.0
 40
4.0
  0
CIRCLE
  5
E1B
330
2
100
AcDbEntity
  8
HOJO
100
AcDbCircle
 10
939.9380155367742
 20
478.6741778958553
 30
0.0
 40
5.0
  0
ARC
  5
E1C
330
2
100
AcDbEntity
  8
0
100
AcDbCircle
 10
940.8694730418519
 20
477.7427203907778
 30
0.0
 40
10.0
100
AcDbArc
 50
270.0
 51
0.0
  0
ARC
  5
E1D
330
2
100
AcDbEntity
  8
0
100
AcDbCircle
 10
936.8694730418518
 20
475.7427203907777
 30
0.0
 40
8.0
100
AcDbArc
 50
260.5704788783274
 51
270.0
  0
LINE
  5
E1E
330
2
100
AcDbEntity
  8
0
100
AcDbLine
 10
936.8694730418518
 20
467.7427203907777
 30
0.0
 11
940.8694730418519
 21
467.7427203907777
 31
0.0
  0
ARC
  5
E1F
330
2
100
AcDbEntity
  8
0
100
AcDbCircle
 10
994.3694730418519
 20
492.2427203907777
 30
0.0
 40
8.0
100
AcDbArc
 50
270.0
 51
0.0
  0
LINE
  5
E20
330
2
100
AcDbEntity
  8
0
100
AcDbLine
 10
1047.339495041849
 20
484.2427203907777
 30
0.0
 11
1033.839495041849
 21
484.2427203907777
 31
0.0
  0
ARC
  5
E21
330
2
100
AcDbEntity
  8
0
100
AcDbCircle
 10
1033.839495041849
 20
486.2427203907778
 30
0.0
 40
2.0
100
AcDbArc
 50
180.0
 51
270.0
  0
ARC
  5
E22
330
2
100
AcDbEntity
  8
0
100
AcDbCircle
 10
1026.839495041849
 20
490.2427203907778
 30
0.0
 40
5.0
100
AcDbArc
 50
0.0
 51
90.0
  0
ARC
  5
E23
330
2
100
AcDbEntity
  8
0
100
AcDbCircle
 10
823.8694730418499
 20
588.7427203907777
 30
0.0
 40
8.0
100
AcDbArc
 50
180.0
 51
189.4295211216204
  0
LINE
  5
E24
330
2
100
AcDbEntity
  8
0
100
AcDbLine
 10
958.8068641565023
 20
586.2427203907778
 30
0.0
 11
994.3694730418519
 21
586.2427203907778
 31
0.0
  0
LINE
  5
E25
330
2
100
AcDbEntity
  8
0
100
AcDbLine
 10
1022.839495041849
 20
575.2427203907777
 30
0.0
 11
1026.839495041849
 21
575.2427203907777
 31
0.0
  0
ARC
  5
E26
330
2
100
AcDbEntity
  8
0
100
AcDbCircle
 10
994.3694730418519
 20
578.2427203907777
 30
0.0
 40
8.0
100
AcDbArc
 50
0.0
 51
90.0
  0
ARC
  5
E27
330
2
100
AcDbEntity
  8
0
100
AcDbCircle
 10
1026.839495041849
 20
580.2427203907777
 30
0.0
 40
5.0
100
AcDbArc
 50
270.0
 51
0.0
  0
LINE
  5
E28
330
2
100
AcDbEntity
  8
0
100
AcDbLine
 10
1047.339495041849
 20
586.2427203907778
 30
0.0
 11
1033.839495041849
 21
586.2427203907778
 31
0.0
  0
ARC
  5
E29
330
2
100
AcDbEntity
  8
0
100
AcDbCircle
 10
1033.839495041849
 20
584.2427203907777
 30
0.0
 40
2.0
100
AcDbArc
 50
90.0
 51
180.0
  0
LINE
  5
E2A
330
2
100
AcDbEntity
  8
CENTER
100
AcDbLine
 10
826.8009305469275
 20
582.811262885702
 30
0.0
 11
826.8009305469275
 21
600.811262885702
 31
0.0
  0
LINE
  5
E2B
330
2
100
AcDbEntity
  8
CENTER
100
AcDbLine
 10
817.8009305469275
 20
591.811262885702
 30
0.0
 11
835.8009305469275
 21
591.811262885702
 31
0.0
  0
LINE
  5
E2C
330
2
100
AcDbEntity
  8
CENTER
100
AcDbLine
 10
939.9380155367742
 20
582.811262885702
 30
0.0
 11
939.9380155367742
 21
600.811262885702
 31
0.0
  0
LINE
  5
E2D
330
2
100
AcDbEntity
  8
CENTER
100
AcDbLine
 10
948.9380155367742
 20
591.811262885702
 30
0.0
 11
930.9380155367742
 21
591.811262885702
 31
0.0
  0
LINE
  5
E2E
330
2
100
AcDbEntity
  8
CENTER
100
AcDbLine
 10
939.9380155367742
 20
487.6741778958535
 30
0.0
 11
939.9380155367742
 21
469.6741778958535
 31
0.0
  0
LINE
  5
E2F
330
2
100
AcDbEntity
  8
CENTER
100
AcDbLine
 10
948.9380155367742
 20
478.6741778958553
 30
0.0
 11
930.9380155367742
 21
478.6741778958553
 31
0.0
  0
LINE
  5
E30
330
2
100
AcDbEntity
  8
CENTER
100
AcDbLine
 10
826.8009305469275
 20
487.6741778958535
 30
0.0
 11
826.8009305469275
 21
469.6741778958535
 31
0.0
  0
LINE
  5
E31
330
2
100
AcDbEntity
  8
CENTER
100
AcDbLine
 10
817.8009305469275
 20
478.6741778958553
 30
0.0
 11
835.8009305469275
 21
478.6741778958553
 31
0.0
  0
CIRCLE
  5
E32
330
2
100
AcDbEntity
  8
0
100
AcDbCircle
 10
883.36947304185
 20
535.2427203907796
 30
0.0
 40
36.0
  0
ARC
  5
E33
330
2
100
AcDbEntity
  8
0
100
AcDbCircle
 10
847.5635734179686
 20
369.2020295169154
 30
0.0
 40
100.0
100
AcDbArc
 50
85.33227731211809
 51
99.42952112167255
  0
ARC
  5
E34
330
2
100
AcDbEntity
  8
0
100
AcDbCircle
 10
919.1753726657333
 20
369.2020295169154
 30
0.0
 40
100.0
100
AcDbArc
 50
80.57047887832746
 51
94.66772268788192
  0
ARC
  5
E35
330
2
100
AcDbEntity
  8
0
100
AcDbCircle
 10
717.3287821679894
 20
499.4368207668962
 30
0.0
 40
100.0
100
AcDbArc
 50
350.5704788783795
 51
4.667722687882723
  0
ARC
  5
E36
330
2
100
AcDbEntity
  8
0
100
AcDbCircle
 10
717.3287821679894
 20
571.048620014661
 30
0.0
 40
100.0
100
AcDbArc
 50
355.3322773121172
 51
9.429521121620474
  0
ARC
  5
E37
330
2
100
AcDbEntity
  8
0
100
AcDbCircle
 10
847.5635734179686
 20
701.2834112646401
 30
0.0
 40
100.0
100
AcDbArc
 50
260.5704788783274
 51
274.6677226878819
  0
ARC
  5
E38
330
2
100
AcDbEntity
  8
0
100
AcDbCircle
 10
919.1753726657333
 20
701.2834112646401
 30
0.0
 40
100.0
100
AcDbArc
 50
265.332277312118
 51
279.4295211216725
  0
LINE
  5
E39
330
2
100
AcDbEntity
  8
CENTER
100
AcDbLine
 10
800.86947304185
 20
890.4413183702949
 30
0.0
 11
1141.839495041852
 21
890.4413183702949
 31
0.0
  0
LINE
  5
E3A
330
2
100
AcDbEntity
  8
0
100
AcDbLine
 10
1047.339495041849
 20
941.4413183702949
 30
0.0
 11
1047.339495041849
 21
839.4413183702949
 31
0.0
  0
LINE
  5
E3B
330
2
100
AcDbEntity
  8
0
100
AcDbLine
 10
1031.788494133741
 20
939.4936722669104
 30
0.0
 11
1030.504267316508
 21
890.4510287284525
 31
0.0
  0
LINE
  5
E3C
330
2
100
AcDbEntity
  8
CENTER
100
AcDbLine
 10
883.36947304185
 20
974.4413216991056
 30
0.0
 11
883.3694730418518
 21
790.4413216991056
 31
0.0
  0
LINE
  5
E3D
330
2
100
AcDbEntity
  8
0
100
AcDbLine
 10
823.36947304185
 20
832.4413183702949
 30
0.0
 11
943.3694730418499
 21
832.4413183702949
 31
0.0
  0
LINE
  5
E3E
330
2
100
AcDbEntity
  8
0
100
AcDbLine
 10
816.6505277091223
 20
837.4413183702952
 30
0.0
 11
950.0884183745805
 21
837.441318370295
 31
0.0
  0
LINE
  5
E3F
330
2
100
AcDbEntity
  8
0
100
AcDbLine
 10
841.8008505914658
 20
818.441318370295
 30
0.0
 11
924.9380954922362
 21
818.441318370295
 31
0.0
  0
LINE
  5
E40
330
2
100
AcDbEntity
  8
0
100
AcDbLine
 10
823.36947304185
 20
837.441318370295
 30
0.0
 11
823.36947304185
 21
832.4413183702949
 31
0.0
  0
LINE
  5
E41
330
2
100
AcDbEntity
  8
0
100
AcDbLine
 10
951.592840955395
 20
839.4480959358366
 30
0.0
 11
1000.255947603798
 21
839.4413183702949
 31
0.0
  0
LINE
  5
E42
330
2
100
AcDbEntity
  8
0
100
AcDbLine
 10
943.3694730418499
 20
837.441318370295
 30
0.0
 11
943.3694730418499
 21
832.4413183702949
 31
0.0
  0
LINE
  5
E43
330
2
100
AcDbEntity
  8
0
100
AcDbLine
 10
1047.339495041849
 20
839.4413183702949
 30
0.0
 11
1047.339495041849
 21
890.4413183702949
 31
0.0
  0
LINE
  5
E44
330
2
100
AcDbEntity
  8
0
100
AcDbLine
 10
1022.761943654615
 20
930.441318370295
 30
0.0
 11
1026.68066554998
 21
930.441318370295
 31
0.0
  0
LINE
  5
E45
330
2
100
AcDbEntity
  8
0
100
AcDbLine
 10
1018.792036179072
 20
890.4413183702949
 30
0.0
 11
1019.762971679689
 21
927.5198492152199
 31
0.0
  0
LINE
  5
E46
330
2
100
AcDbEntity
  8
0
100
AcDbLine
 10
1047.339495041849
 20
941.4413183702949
 30
0.0
 11
1033.787808783692
 21
941.4413183702949
 31
0.0
  0
ARC
  5
E47
330
2
100
AcDbEntity
  8
0
100
AcDbCircle
 10
958.8068641565023
 20
594.2427203907778
 30
0.0
 40
8.0
100
AcDbArc
 50
184.780191847234
 51
270.0
  0
ARC
  5
E48
330
2
100
AcDbEntity
  8
0
100
AcDbCircle
 10
958.8068641565023
 20
476.2427203907777
 30
0.0
 40
8.0
100
AcDbArc
 50
90.0
 51
175.2198081527659
  0
LINE
  5
E49
330
2
100
AcDbEntity
  8
0
100
AcDbLine
 10
876.227702292086
 20
479.7427203884203
 30
0.0
 11
879.1077035334181
 21
479.7427203884203
 31
0.0
  0
LINE
  5
E4A
330
2
100
AcDbEntity
  8
0
100
AcDbLine
 10
880.2277022920915
 20
487.742720388433
 30
0.0
 11
876.227702292086
 21
479.7427203884203
 31
0.0
  0
ARC
  5
E4B
330
2
100
AcDbEntity
  8
0
100
AcDbCircle
 10
886.8676295321019
 20
485.0227203884283
 30
0.0
 40
2.720000000003957
100
AcDbArc
 50
307.5189678668206
 51
90.0
  0
LINE
  5
E4C
330
2
100
AcDbEntity
  8
0
100
AcDbLine
 10
888.5241749117611
 20
482.8653475868127
 30
0.0
 11
890.5112437916157
 21
479.7427203884203
 31
0.0
  0
LINE
  5
E4D
330
2
100
AcDbEntity
  8
0
100
AcDbLine
 10
887.6312425502836
 20
479.7427203884203
 30
0.0
 11
890.5112437916157
 21
479.7427203884203
 31
0.0
  0
LINE
  5
E4E
330
2
100
AcDbEntity
  8
0
100
AcDbLine
 10
881.7477022920938
 20
479.7427203884203
 30
0.0
 11
884.1476295320971
 21
479.7427203884203
 31
0.0
  0
LINE
  5
E4F
330
2
100
AcDbEntity
  8
0
100
AcDbLine
 10
879.7077035334185
 20
480.9427203884228
 30
0.0
 11
879.1077035334181
 21
479.7427203884203
 31
0.0
  0
LINE
  5
E50
330
2
100
AcDbEntity
  8
0
100
AcDbLine
 10
879.7077035334185
 20
480.9427203884228
 30
0.0
 11
881.7477022920938
 21
480.9427203884228
 31
0.0
  0
LINE
  5
E51
330
2
100
AcDbEntity
  8
0
100
AcDbLine
 10
881.7477022920938
 20
480.9427203884228
 30
0.0
 11
881.7477022920938
 21
479.7427203884203
 31
0.0
  0
LINE
  5
E52
330
2
100
AcDbEntity
  8
0
100
AcDbLine
 10
880.987703533421
 20
483.502720388426
 30
0.0
 11
881.7477022920938
 21
483.502720388426
 31
0.0
  0
LINE
  5
E53
330
2
100
AcDbEntity
  8
0
100
AcDbLine
 10
881.7477022920938
 20
485.0227179057715
 30
0.0
 11
881.7477022920938
 21
483.502720388426
 31
0.0
  0
LINE
  5
E54
330
2
100
AcDbEntity
  8
0
100
AcDbLine
 10
881.7477022920938
 20
485.0227179057715
 30
0.0
 11
880.987703533421
 21
483.502720388426
 31
0.0
  0
LINE
  5
E55
330
2
100
AcDbEntity
  8
0
100
AcDbLine
 10
884.4877022920972
 20
484.6827203884281
 30
0.0
 11
887.6312425502836
 21
479.7427203884203
 31
0.0
  0
LINE
  5
E56
330
2
100
AcDbEntity
  8
0
100
AcDbLine
 10
884.1476295320971
 20
485.0227203884283
 30
0.0
 11
884.1476295320971
 21
479.7427203884203
 31
0.0
  0
LINE
  5
E57
330
2
100
AcDbEntity
  8
0
100
AcDbLine
 10
884.1476295320971
 20
485.0227203884283
 30
0.0
 11
886.6977022921
 21
485.0227203884283
 31
0.0
  0
LINE
  5
E58
330
2
100
AcDbEntity
  8
0
100
AcDbLine
 10
884.4877022920972
 20
484.6827203884281
 30
0.0
 11
886.6977022921018
 21
484.6827203884281
 31
0.0
  0
ARC
  5
E59
330
2
100
AcDbEntity
  8
0
100
AcDbCircle
 10
886.6977022921018
 20
484.8527203884282
 30
0.0
 40
0.1700000000002474
100
AcDbArc
 50
270.0
 51
90.0
  0
LINE
  5
E5A
330
2
100
AcDbEntity
  8
0
100
AcDbLine
 10
880.2277022920915
 20
487.742720388433
 30
0.0
 11
886.8676295321019
 21
487.742720388433
 31
0.0
  0
LINE
  5
E5B
330
2
100
AcDbEntity
  8
0
100
AcDbLine
 10
1019.839495041849
 20
572.2427203907777
 30
0.0
 11
1019.839495041849
 21
498.2427203907778
 31
0.0
  0
LINE
  5
E5C
330
2
100
AcDbEntity
  8
0
100
AcDbLine
 10
1007.369473041848
 20
563.2427203907777
 30
0.0
 11
1014.839495041849
 21
563.2427203907777
 31
0.0
  0
LINE
  5
E5D
330
2
100
AcDbEntity
  8
0
100
AcDbLine
 10
1005.369473041848
 20
568.2427203907777
 30
0.0
 11
1016.839495041849
 21
568.2427203907777
 31
0.0
  0
ARC
  5
E5E
330
2
100
AcDbEntity
  8
0
100
AcDbCircle
 10
1005.369473041848
 20
571.2427203907777
 30
0.0
 40
3.0
100
AcDbArc
 50
180.0
 51
270.0
  0
ARC
  5
E5F
330
2
100
AcDbEntity
  8
0
100
AcDbCircle
 10
1007.369473041848
 20
568.2427203907777
 30
0.0
 40
5.0
100
AcDbArc
 50
180.0
 51
270.0
  0
ARC
  5
E60
330
2
100
AcDbEntity
  8
0
100
AcDbCircle
 10
1014.839495041849
 20
568.2427203907777
 30
0.0
 40
5.0
100
AcDbArc
 50
270.0
 51
0.0
  0
ARC
  5
E61
330
2
100
AcDbEntity
  8
0
100
AcDbCircle
 10
1016.839495041849
 20
571.2427203907777
 30
0.0
 40
3.0
100
AcDbArc
 50
270.0
 51
0.0
  0
LINE
  5
E62
330
2
100
AcDbEntity
  8
0
100
AcDbLine
 10
1007.369473041848
 20
507.2427203907778
 30
0.0
 11
1014.839495041849
 21
507.2427203907778
 31
0.0
  0
LINE
  5
E63
330
2
100
AcDbEntity
  8
0
100
AcDbLine
 10
1005.369473041848
 20
502.2427203907778
 30
0.0
 11
1016.839495041849
 21
502.2427203907778
 31
0.0
  0
ARC
  5
E64
330
2
100
AcDbEntity
  8
0
100
AcDbCircle
 10
1007.369473041848
 20
502.2427203907778
 30
0.0
 40
5.0
100
AcDbArc
 50
90.0
 51
180.0
  0
ARC
  5
E65
330
2
100
AcDbEntity
  8
0
100
AcDbCircle
 10
1005.369473041848
 20
499.2427203907777
 30
0.0
 40
3.0
100
AcDbArc
 50
90.0
 51
180.0
  0
ARC
  5
E66
330
2
100
AcDbEntity
  8
0
100
AcDbCircle
 10
1016.839495041849
 20
499.2427203907777
 30
0.0
 40
3.0
100
AcDbArc
 50
0.0
 51
90.0
  0
ARC
  5
E67
330
2
100
AcDbEntity
  8
0
100
AcDbCircle
 10
1014.839495041849
 20
502.2427203907778
 30
0.0
 40
5.0
100
AcDbArc
 50
0.0
 51
90.0
  0
LINE
  5
E68
330
2
100
AcDbEntity
  8
0
100
AcDbLine
 10
1022.839495041849
 20
495.2427203907777
 30
0.0
 11
1026.839495041849
 21
495.2427203907777
 31
0.0
  0
LINE
  5
E69
330
2
100
AcDbEntity
  8
0
100
AcDbLine
 10
1005.369473041851
 20
537.7427203907777
 30
0.0
 11
1016.839495041849
 21
537.7427203907777
 31
0.0
  0
LINE
  5
E6A
330
2
100
AcDbEntity
  8
0
100
AcDbLine
 10
1005.369473041851
 20
532.7427203907777
 30
0.0
 11
1016.839495041849
 21
532.7427203907777
 31
0.0
  0
ARC
  5
E6B
330
2
100
AcDbEntity
  8
0
100
AcDbCircle
 10
1005.369473041851
 20
540.7427203907777
 30
0.0
 40
3.0
100
AcDbArc
 50
180.0
 51
270.0
  0
ARC
  5
E6C
330
2
100
AcDbEntity
  8
0
100
AcDbCircle
 10
1016.839495041849
 20
540.7427203907777
 30
0.0
 40
3.0
100
AcDbArc
 50
270.0
 51
0.0
  0
ARC
  5
E6D
330
2
100
AcDbEntity
  8
0
100
AcDbCircle
 10
1016.839495041849
 20
529.7427203907777
 30
0.0
 40
3.0
100
AcDbArc
 50
0.0
 51
90.0
  0
ARC
  5
E6E
330
2
100
AcDbEntity
  8
0
100
AcDbCircle
 10
1005.369473041851
 20
529.7427203907777
 30
0.0
 40
3.0
100
AcDbArc
 50
90.0
 51
180.0
  0
LINE
  5
E6F
330
2
100
AcDbEntity
  8
0
100
AcDbLine
 10
1007.395844037153
 20
918.441318370295
 30
0.0
 11
1014.65445762841
 21
918.441318370295
 31
0.0
  0
LINE
  5
E70
330
2
100
AcDbEntity
  8
0
100
AcDbLine
 10
1005.369473041848
 20
923.4413183702949
 30
0.0
 11
1016.733700978102
 21
923.4413183702949
 31
0.0
  0
LINE
  5
E71
330
2
100
AcDbEntity
  8
0
100
AcDbLine
 10
1005.635756744631
 20
887.9413183702949
 30
0.0
 11
1015.935030370232
 21
887.9413183702949
 31
0.0
  0
LINE
  5
E72
330
2
100
AcDbEntity
  8
0
100
AcDbLine
 10
1005.635756744621
 20
892.941318370295
 30
0.0
 11
1015.935030370232
 21
892.941318370295
 31
0.0
  0
LINE
  5
E73
330
2
100
AcDbEntity
  8
0
100
AcDbLine
 10
1022.761943654615
 20
850.4413183702949
 30
0.0
 11
1026.68066554998
 21
850.4413183702949
 31
0.0
  0
LINE
  5
E74
330
2
100
AcDbEntity
  8
0
100
AcDbLine
 10
1018.792036179072
 20
890.4413183702949
 30
0.0
 11
1019.762971679689
 21
853.3627875253719
 31
0.0
  0
ARC
  5
E75
330
2
100
AcDbEntity
  8
0
100
AcDbCircle
 10
1014.65445762841
 20
923.4413183702949
 30
0.0
 40
5.0
100
AcDbArc
 50
270.0
 51
358.5000000000103
  0
ARC
  5
E76
330
2
100
AcDbEntity
  8
0
100
AcDbCircle
 10
1016.733700978102
 20
926.441318370295
 30
0.0
 40
3.0
100
AcDbArc
 50
270.0
 51
358.5000000000103
  0
ARC
  5
E77
330
2
100
AcDbEntity
  8
0
100
AcDbCircle
 10
1016.733700978102
 20
854.441318370295
 30
0.0
 40
3.0
100
AcDbArc
 50
1.499999999989688
 51
90.0
  0
LINE
  5
E78
330
2
100
AcDbEntity
  8
0
100
AcDbLine
 10
1005.369473041848
 20
857.4413183702949
 30
0.0
 11
1016.733700978102
 21
857.4413183702949
 31
0.0
  0
LINE
  5
E79
330
2
100
AcDbEntity
  8
0
100
AcDbLine
 10
1007.395844037155
 20
862.441318370295
 30
0.0
 11
1014.65445762841
 21
862.441318370295
 31
0.0
  0
ARC
  5
E7A
330
2
100
AcDbEntity
  8
0
100
AcDbCircle
 10
1014.65445762841
 20
857.4413183702949
 30
0.0
 40
5.0
100
AcDbArc
 50
1.499999999989688
 51
90.0
  0
ARC
  5
E7B
330
2
100
AcDbEntity
  8
0
100
AcDbCircle
 10
1015.935030370232
 20
895.9413183702949
 30
0.0
 40
3.0
100
AcDbArc
 50
270.0
 51
358.5000000000103
  0
ARC
  5
E7C
330
2
100
AcDbEntity
  8
0
100
AcDbCircle
 10
1015.935030370232
 20
884.9413183702949
 30
0.0
 40
3.0
100
AcDbArc
 50
1.499999999989688
 51
90.0
  0
LINE
  5
E7D
330
2
100
AcDbEntity
  8
0
100
AcDbLine
 10
839.8020689374259
 20
820.3715193768898
 30
0.0
 11
839.4479863733902
 21
830.5111173637001
 31
0.0
  0
ARC
  5
E7E
330
2
100
AcDbEntity
  8
0
100
AcDbCircle
 10
837.4492047193523
 20
830.441318370295
 30
0.0
 40
2.0
100
AcDbArc
 50
2.00000000000365
 51
90.0
  0
ARC
  5
E7F
330
2
100
AcDbEntity
  8
0
100
AcDbCircle
 10
841.8008505914658
 20
820.441318370295
 30
0.0
 40
2.0
100
AcDbArc
 50
182.0000000000036
 51
270.0
  0
ARC
  5
E80
330
2
100
AcDbEntity
  8
0
100
AcDbCircle
 10
929.2897413643494
 20
830.441318370295
 30
0.0
 40
2.0
100
AcDbArc
 50
90.0
 51
177.9999999999963
  0
LINE
  5
E81
330
2
100
AcDbEntity
  8
0
100
AcDbLine
 10
926.9368771462758
 20
820.3715193768898
 30
0.0
 11
927.2909597103115
 21
830.5111173637001
 31
0.0
  0
ARC
  5
E82
330
2
100
AcDbEntity
  8
0
100
AcDbCircle
 10
924.9380954922362
 20
820.441318370295
 30
0.0
 40
2.0
100
AcDbArc
 50
270.0
 51
357.9999999999963
  0
ARC
  5
E83
330
2
100
AcDbEntity
  8
0
100
AcDbCircle
 10
1026.68066554998
 20
935.441318370295
 30
0.0
 40
5.0
100
AcDbArc
 50
270.0
 51
358.5000000000103
  0
ARC
  5
E84
330
2
100
AcDbEntity
  8
0
100
AcDbCircle
 10
1033.787808783692
 20
939.4413183702949
 30
0.0
 40
2.0
100
AcDbArc
 50
90.0
 51
178.5000000000103
  0
ARC
  5
E85
330
2
100
AcDbEntity
  8
0
100
AcDbCircle
 10
1026.68066554998
 20
845.441318370295
 30
0.0
 40
5.0
100
AcDbArc
 50
1.499999999989688
 51
90.0
  0
ARC
  5
E86
330
2
100
AcDbEntity
  8
0
100
AcDbCircle
 10
1033.787808783692
 20
841.4413183702949
 30
0.0
 40
2.0
100
AcDbArc
 50
181.4999999999896
 51
270.0
  0
LINE
  5
E87
330
2
100
AcDbEntity
  8
0
100
AcDbLine
 10
1047.339495041849
 20
839.4413183702949
 30
0.0
 11
1033.787808783692
 21
839.4413183702949
 31
0.0
  0
LINE
  5
E88
330
2
100
AcDbEntity
  8
0
100
AcDbLine
 10
1031.788494133741
 20
841.3889644736796
 30
0.0
 11
1030.504267316508
 21
890.4316080121375
 31
0.0
  0
ARC
  5
E89
330
2
100
AcDbEntity
  8
0
100
AcDbCircle
 10
1022.761943654615
 20
927.441318370295
 30
0.0
 40
3.0
100
AcDbArc
 50
90.0
 51
178.5000000000103
  0
ARC
  5
E8A
330
2
100
AcDbEntity
  8
0
100
AcDbCircle
 10
1022.761943654615
 20
853.441318370295
 30
0.0
 40
3.0
100
AcDbArc
 50
181.4999999999896
 51
270.0
  0
ARC
  5
E8B
330
2
100
AcDbEntity
  8
0
100
AcDbCircle
 10
1022.839495041849
 20
498.2427203907778
 30
0.0
 40
3.0
100
AcDbArc
 50
180.0
 51
270.0
  0
ARC
  5
E8C
330
2
100
AcDbEntity
  8
0
100
AcDbCircle
 10
1022.839495041849
 20
572.2427203907777
 30
0.0
 40
3.0
100
AcDbArc
 50
90.0
 51
180.0
  0
ARC
  5
E8D
330
2
100
AcDbEntity
  8
0
100
AcDbCircle
 10
951.592840955395
 20
837.9480959358366
 30
0.0
 40
1.5
100
AcDbArc
 50
90.0
 51
180.0
  0
LINE
  5
E8E
330
2
100
AcDbEntity
  8
0
100
AcDbLine
 10
940.8694730418517
 20
926.4413183703096
 30
0.0
 11
940.8694730418501
 21
838.9413183703004
 31
0.0
  0
LINE
  5
E8F
330
2
100
AcDbEntity
  8
0
100
AcDbLine
 10
936.8694730418502
 20
926.4413183703096
 30
0.0
 11
936.86947304185
 21
838.9413183703004
 31
0.0
  0
LINE
  5
E90
330
2
100
AcDbEntity
  8
0
100
AcDbLine
 10
825.8694730418536
 20
926.4413183703096
 30
0.0
 11
825.8694730418573
 21
838.9413183702968
 31
0.0
  0
LINE
  5
E91
330
2
100
AcDbEntity
  8
0
100
AcDbLine
 10
829.8694730418537
 20
926.4413183703096
 30
0.0
 11
829.8694730418572
 21
838.9413183702968
 31
0.0
  0
LINE
  5
E92
330
2
100
AcDbEntity
  8
0
100
AcDbLine
 10
855.7012778779263
 20
926.4413183703096
 30
0.0
 11
855.7012778779279
 21
838.9413183702968
 31
0.0
  0
LINE
  5
E93
330
2
100
AcDbEntity
  8
0
100
AcDbLine
 10
911.0376682057738
 20
926.4413183703096
 30
0.0
 11
911.0376682057738
 21
838.9413183703004
 31
0.0
  0
LINE
  5
E94
330
2
100
AcDbEntity
  8
0
100
AcDbLine
 10
994.3825660026359
 20
926.4413183703023
 30
0.0
 11
995.2997587250282
 21
891.415141421989
 31
0.0
  0
LINE
  5
E95
330
2
100
AcDbEntity
  8
0
100
AcDbLine
 10
1002.369473041855
 20
890.4413183702949
 30
0.0
 11
996.2994160500038
 21
890.4413183702949
 31
0.0
  0
ARC
  5
E96
330
2
100
AcDbEntity
  8
0
100
AcDbCircle
 10
996.2994160500038
 20
891.4413183702949
 30
0.0
 40
1.0
100
AcDbArc
 50
181.4999999998854
 51
270.0
  0
LINE
  5
E97
330
2
100
AcDbEntity
  8
0
100
AcDbLine
 10
1030.504267316508
 20
890.4316080121375
 30
0.0
 11
1047.339495041849
 21
890.4413183702949
 31
0.0
  0
LINE
  5
E98
330
2
100
AcDbEntity
  8
0
100
AcDbLine
 10
1047.339495041849
 20
586.7427203907777
 30
0.0
 11
1033.839495041849
 21
586.7427203907777
 31
0.0
  0
ARC
  5
E99
330
2
100
AcDbEntity
  8
0
100
AcDbCircle
 10
1033.839495041849
 20
584.7427203907777
 30
0.0
 40
2.0
100
AcDbArc
 50
90.0
 51
180.0
  0
LINE
  5
E9A
330
2
100
AcDbEntity
  8
0
100
AcDbLine
 10
1047.339495041849
 20
483.7427203907777
 30
0.0
 11
1033.839495041849
 21
483.7427203907777
 31
0.0
  0
ARC
  5
E9B
330
2
100
AcDbEntity
  8
0
100
AcDbCircle
 10
1033.839495041849
 20
485.7427203907778
 30
0.0
 40
2.0
100
AcDbArc
 50
180.0
 51
270.0
  0
LINE
  5
E9C
330
2
100
AcDbEntity
  8
CENTER
100
AcDbLine
 10
342.2318041001639
 20
617.7427203907796
 30
0.0
 11
342.2318041001639
 21
452.7427203907778
 31
0.0
  0
LINE
  5
E9D
330
2
100
AcDbEntity
  8
0
100
AcDbLine
 10
178.2617821001643
 20
586.7427203907777
 30
0.0
 11
178.2617821001662
 21
483.7427203907777
 31
0.0
  0
LINE
  5
E9E
330
2
100
AcDbEntity
  8
0
100
AcDbLine
 10
193.7617821001662
 20
485.7427203907778
 30
0.0
 11
193.7617821001662
 21
584.7427203907777
 31
0.0
  0
ARC
  5
E9F
330
2
100
AcDbEntity
  8
0
100
AcDbCircle
 10
198.7617821001662
 20
580.2427203907777
 30
0.0
 40
5.0
100
AcDbArc
 50
180.0
 51
270.0
  0
LINE
  5
EA0
330
2
100
AcDbEntity
  8
0
100
AcDbLine
 10
202.7617821001653
 20
575.2427203907777
 30
0.0
 11
198.7617821001662
 21
575.2427203907777
 31
0.0
  0
ARC
  5
EA1
330
2
100
AcDbEntity
  8
0
100
AcDbCircle
 10
191.7617821001662
 20
584.2427203907777
 30
0.0
 40
2.0
100
AcDbArc
 50
0.0
 51
90.0
  0
LINE
  5
EA2
330
2
100
AcDbEntity
  8
0
100
AcDbLine
 10
178.2617821001653
 20
586.2427203907778
 30
0.0
 11
191.7617821001662
 21
586.2427203907778
 31
0.0
  0
ARC
  5
EA3
330
2
100
AcDbEntity
  8
0
100
AcDbCircle
 10
198.7617821001662
 20
490.2427203907778
 30
0.0
 40
5.0
100
AcDbArc
 50
90.0
 51
180.0
  0
LINE
  5
EA4
330
2
100
AcDbEntity
  8
0
100
AcDbLine
 10
202.7617821001653
 20
495.2427203907777
 30
0.0
 11
198.7617821001662
 21
495.2427203907777
 31
0.0
  0
LINE
  5
EA5
330
2
100
AcDbEntity
  8
0
100
AcDbLine
 10
178.2617821001653
 20
484.2427203907777
 30
0.0
 11
191.7617821001653
 21
484.2427203907777
 31
0.0
  0
ARC
  5
EA6
330
2
100
AcDbEntity
  8
0
100
AcDbCircle
 10
191.7617821001653
 20
486.2427203907778
 30
0.0
 40
2.0
100
AcDbArc
 50
270.0
 51
0.0
  0
LINE
  5
EA7
330
2
100
AcDbEntity
  8
0
100
AcDbLine
 10
218.2318041001666
 20
507.2427203907778
 30
0.0
 11
210.7617821001653
 21
507.2427203907778
 31
0.0
  0
LINE
  5
EA8
330
2
100
AcDbEntity
  8
0
100
AcDbLine
 10
220.2318041001666
 20
502.2427203907778
 30
0.0
 11
208.7617821001653
 21
502.2427203907778
 31
0.0
  0
ARC
  5
EA9
330
2
100
AcDbEntity
  8
0
100
AcDbCircle
 10
218.2318041001666
 20
502.2427203907778
 30
0.0
 40
5.0
100
AcDbArc
 50
0.0
 51
90.0
  0
ARC
  5
EAA
330
2
100
AcDbEntity
  8
0
100
AcDbCircle
 10
220.2318041001666
 20
499.2427203907777
 30
0.0
 40
3.0
100
AcDbArc
 50
0.0
 51
90.0
  0
ARC
  5
EAB
330
2
100
AcDbEntity
  8
0
100
AcDbCircle
 10
208.7617821001653
 20
499.2427203907777
 30
0.0
 40
3.0
100
AcDbArc
 50
90.0
 51
180.0
  0
ARC
  5
EAC
330
2
100
AcDbEntity
  8
0
100
AcDbCircle
 10
210.7617821001653
 20
502.2427203907778
 30
0.0
 40
5.0
100
AcDbArc
 50
90.0
 51
180.0
  0
ARC
  5
EAD
330
2
100
AcDbEntity
  8
0
100
AcDbCircle
 10
208.7617821001653
 20
529.7427203907777
 30
0.0
 40
3.0
100
AcDbArc
 50
90.0
 51
180.0
  0
ARC
  5
EAE
330
2
100
AcDbEntity
  8
0
100
AcDbCircle
 10
220.2318041001638
 20
529.7427203907777
 30
0.0
 40
3.0
100
AcDbArc
 50
0.0
 51
90.0
  0
LINE
  5
EAF
330
2
100
AcDbEntity
  8
0
100
AcDbLine
 10
220.2318041001638
 20
537.7427203907777
 30
0.0
 11
208.7617821001653
 21
537.7427203907777
 31
0.0
  0
ARC
  5
EB0
330
2
100
AcDbEntity
  8
0
100
AcDbCircle
 10
220.2318041001638
 20
540.7427203907777
 30
0.0
 40
3.0
100
AcDbArc
 50
270.0
 51
0.0
  0
ARC
  5
EB1
330
2
100
AcDbEntity
  8
0
100
AcDbCircle
 10
208.7617821001653
 20
540.7427203907777
 30
0.0
 40
3.0
100
AcDbArc
 50
180.0
 51
270.0
  0
LINE
  5
EB2
330
2
100
AcDbEntity
  8
0
100
AcDbLine
 10
220.2318041001638
 20
532.7427203907777
 30
0.0
 11
208.7617821001653
 21
532.7427203907777
 31
0.0
  0
LINE
  5
EB3
330
2
100
AcDbEntity
  8
0
100
AcDbLine
 10
220.2318041001666
 20
568.2427203907777
 30
0.0
 11
208.7617821001653
 21
568.2427203907777
 31
0.0
  0
LINE
  5
EB4
330
2
100
AcDbEntity
  8
0
100
AcDbLine
 10
218.2318041001666
 20
563.2427203907777
 30
0.0
 11
210.7617821001653
 21
563.2427203907777
 31
0.0
  0
ARC
  5
EB5
330
2
100
AcDbEntity
  8
0
100
AcDbCircle
 10
220.2318041001666
 20
571.2427203907777
 30
0.0
 40
3.0
100
AcDbArc
 50
270.0
 51
0.0
  0
ARC
  5
EB6
330
2
100
AcDbEntity
  8
0
100
AcDbCircle
 10
218.2318041001666
 20
568.2427203907777
 30
0.0
 40
5.0
100
AcDbArc
 50
270.0
 51
0.0
  0
ARC
  5
EB7
330
2
100
AcDbEntity
  8
0
100
AcDbCircle
 10
210.7617821001653
 20
568.2427203907777
 30
0.0
 40
5.0
100
AcDbArc
 50
180.0
 51
270.0
  0
ARC
  5
EB8
330
2
100
AcDbEntity
  8
0
100
AcDbCircle
 10
208.7617821001653
 20
571.2427203907777
 30
0.0
 40
3.0
100
AcDbArc
 50
180.0
 51
270.0
  0
LINE
  5
EB9
330
2
100
AcDbEntity
  8
0
100
AcDbLine
 10
205.7617821001652
 20
498.2427203907778
 30
0.0
 11
205.7617821001652
 21
572.2427203907777
 31
0.0
  0
ARC
  5
EBA
330
2
100
AcDbEntity
  8
0
100
AcDbCircle
 10
202.7617821001653
 20
498.2427203907778
 30
0.0
 40
3.0
100
AcDbArc
 50
270.0
 51
0.0
  0
ARC
  5
EBB
330
2
100
AcDbEntity
  8
0
100
AcDbCircle
 10
202.7617821001653
 20
572.2427203907777
 30
0.0
 40
3.0
100
AcDbArc
 50
0.0
 51
90.0
  0
LINE
  5
EBC
330
2
100
AcDbEntity
  8
0
100
AcDbLine
 10
178.2617821001653
 20
483.7427203907777
 30
0.0
 11
191.7617821001653
 21
483.7427203907777
 31
0.0
  0
ARC
  5
EBD
330
2
100
AcDbEntity
  8
0
100
AcDbCircle
 10
191.7617821001653
 20
485.7427203907778
 30
0.0
 40
2.0
100
AcDbArc
 50
270.0
 51
0.0
  0
LINE
  5
EBE
330
2
100
AcDbEntity
  8
0
100
AcDbLine
 10
178.2617821001653
 20
586.7427203907777
 30
0.0
 11
191.7617821001662
 21
586.7427203907777
 31
0.0
  0
ARC
  5
EBF
330
2
100
AcDbEntity
  8
0
100
AcDbCircle
 10
191.7617821001662
 20
584.7427203907777
 30
0.0
 40
2.0
100
AcDbArc
 50
0.0
 51
90.0
  0
LINE
  5
EC0
330
2
100
AcDbEntity
  8
CENTER
100
AcDbLine
 10
424.7318041001639
 20
535.2427203907778
 30
0.0
 11
83.76178210016167
 21
535.2427203907775
 31
0.0
  0
LINE
  5
EC1
330
2
100
AcDbEntity
  8
CENTER
100
AcDbLine
 10
593.8628323130522
 20
453.0568876310706
 30
0.0
 11
593.8628323130522
 21
617.4285531501364
 31
0.0
  0
LINE
  5
EC2
330
2
100
AcDbEntity
  8
0
100
AcDbLine
 10
665.8628289842416
 20
493.6740979401315
 30
0.0
 11
665.8628289842416
 21
576.8113428409019
 31
0.0
  0
LINE
  5
EC3
330
2
100
AcDbEntity
  8
0
100
AcDbLine
 10
651.8628289842417
 20
475.2427203906031
 30
0.0
 11
651.8628289842417
 21
595.2427203906031
 31
0.0
  0
LINE
  5
EC4
330
2
100
AcDbEntity
  8
CENTER
100
AcDbLine
 10
485.8628323130481
 20
535.2427203905149
 30
0.0
 11
693.8628289842417
 21
535.2427203905158
 31
0.0
  0
LINE
  5
EC5
330
2
100
AcDbEntity
  8
0
100
AcDbLine
 10
557.8628323130518
 20
467.7427203906031
 30
0.0
 11
646.8628289842416
 21
468.5194115949311
 31
0.0
  0
LINE
  5
EC6
330
2
100
AcDbEntity
  8
0
100
AcDbLine
 10
646.8628289842416
 20
475.2427203906031
 30
0.0
 11
651.8628289842417
 21
475.2427203906031
 31
0.0
  0
LINE
  5
EC7
330
2
100
AcDbEntity
  8
0
100
AcDbLine
 10
646.8628289842435
 20
601.9660291862769
 30
0.0
 11
557.8628323130518
 21
602.7427203906031
 31
0.0
  0
LINE
  5
EC8
330
2
100
AcDbEntity
  8
0
100
AcDbLine
 10
646.8628289842416
 20
595.2427203906031
 30
0.0
 11
651.8628289842417
 21
595.2427203906031
 31
0.0
  0
LINE
  5
EC9
330
2
100
AcDbEntity
  8
0
100
AcDbLine
 10
646.8628289842435
 20
601.9660291862769
 30
0.0
 11
646.8628289842416
 21
468.5194115949311
 31
0.0
  0
LINE
  5
ECA
330
2
100
AcDbEntity
  8
0
100
AcDbLine
 10
663.9326279776468
 20
491.6753162860918
 30
0.0
 11
653.7930299908365
 21
491.3212337220561
 31
0.0
  0
LINE
  5
ECB
330
2
100
AcDbEntity
  8
0
100
AcDbLine
 10
663.9326279776468
 20
578.8101244949416
 30
0.0
 11
653.7930299908365
 21
579.1642070589773
 31
0.0
  0
ARC
  5
ECC
330
2
100
AcDbEntity
  8
0
100
AcDbCircle
 10
653.8628289842416
 20
581.1629887130152
 30
0.0
 40
2.0
100
AcDbArc
 50
180.0
 51
267.9999999999963
  0
ARC
  5
ECD
330
2
100
AcDbEntity
  8
0
100
AcDbCircle
 10
653.8628289842416
 20
489.3224520680182
 30
0.0
 40
2.0
100
AcDbArc
 50
92.00000000000365
 51
180.0
  0
ARC
  5
ECE
330
2
100
AcDbEntity
  8
0
100
AcDbCircle
 10
663.8628289842416
 20
493.6740979401315
 30
0.0
 40
2.0
100
AcDbArc
 50
272.0000000000036
 51
0.0
  0
ARC
  5
ECF
330
2
100
AcDbEntity
  8
0
100
AcDbCircle
 10
663.8628289842416
 20
576.8113428409019
 30
0.0
 40
2.0
100
AcDbArc
 50
0.0
 51
87.99999999999636
  0
LINE
  5
ED0
330
2
100
AcDbEntity
  8
0
100
AcDbLine
 10
646.8628289842416
 20
592.7427203907777
 30
0.0
 11
557.8628323130518
 21
592.7427203907777
 31
0.0
  0
LINE
  5
ED1
330
2
100
AcDbEntity
  8
0
100
AcDbLine
 10
646.8628289842416
 20
588.7427203907777
 30
0.0
 11
557.8628323130518
 21
588.7427203907777
 31
0.0
  0
LINE
  5
ED2
330
2
100
AcDbEntity
  8
0
100
AcDbLine
 10
646.8628289842416
 20
562.9109155546853
 30
0.0
 11
557.8628323130518
 21
562.9109155546853
 31
0.0
  0
LINE
  5
ED3
330
2
100
AcDbEntity
  8
0
100
AcDbLine
 10
646.8628289842416
 20
477.7427203902557
 30
0.0
 11
557.8628323130518
 21
477.7427203902557
 31
0.0
  0
LINE
  5
ED4
330
2
100
AcDbEntity
  8
0
100
AcDbLine
 10
646.8628289842416
 20
481.7427203902557
 30
0.0
 11
557.8628323130518
 21
481.7427203902557
 31
0.0
  0
LINE
  5
ED5
330
2
100
AcDbEntity
  8
0
100
AcDbLine
 10
646.8628289842416
 20
507.5745252263482
 30
0.0
 11
557.8628323130518
 21
507.5745252263482
 31
0.0
  0
LINE
  5
ED6
330
2
100
AcDbEntity
  8
0
100
AcDbLine
 10
1002.255871449928
 20
841.4238652992976
 30
0.0
 11
1002.683640282324
 21
890.4413183702949
 31
0.0
  0
ARC
  5
ED7
330
2
100
AcDbEntity
  8
0
100
AcDbCircle
 10
1005.635756744631
 20
884.9413183702949
 30
0.0
 40
3.0
100
AcDbArc
 50
90.0
 51
179.5000000000344
  0
ARC
  5
ED8
330
2
100
AcDbEntity
  8
0
100
AcDbCircle
 10
1005.369587277009
 20
854.441318370295
 30
0.0
 40
3.0
100
AcDbArc
 50
90.0
 51
179.5000000000344
  0
ARC
  5
ED9
330
2
100
AcDbEntity
  8
0
100
AcDbCircle
 10
1007.395844037155
 20
857.4413183702949
 30
0.0
 40
5.0
100
AcDbArc
 50
90.0
 51
179.5000000000344
  0
ARC
  5
EDA
330
2
100
AcDbEntity
  8
0
100
AcDbCircle
 10
1000.255947603798
 20
841.4413183702949
 30
0.0
 40
2.0
100
AcDbArc
 50
270.0
 51
359.5000000000345
  0
LINE
  5
EDB
330
2
100
AcDbEntity
  8
0
100
AcDbLine
 10
1002.369473041851
 20
926.4413183703023
 30
0.0
 11
1002.683640282313
 21
890.4413183702949
 31
0.0
  0
ARC
  5
EDC
330
2
100
AcDbEntity
  8
0
100
AcDbCircle
 10
1005.369587277009
 20
926.441318370295
 30
0.0
 40
3.0
100
AcDbArc
 50
180.4999999999655
 51
270.0
  0
ARC
  5
EDD
330
2
100
AcDbEntity
  8
0
100
AcDbCircle
 10
1007.395844037153
 20
923.4413183702949
 30
0.0
 40
5.0
100
AcDbArc
 50
180.4999999999655
 51
270.0
  0
ARC
  5
EDE
330
2
100
AcDbEntity
  8
0
100
AcDbCircle
 10
1005.635756744621
 20
895.9413183702949
 30
0.0
 40
3.0
100
AcDbArc
 50
180.4999999999655
 51
270.0
  0
LINE
  5
EDF
330
2
100
AcDbEntity
  8
0
100
AcDbLine
 10
950.8694730419591
 20
926.9413183702932
 30
0.0
 11
950.0884183745805
 21
837.441318370295
 31
0.0
  0
LINE
  5
EE0
330
2
100
AcDbEntity
  8
0
100
AcDbLine
 10
266.7944129855117
 20
586.2427203907778
 30
0.0
 11
231.2318041001639
 21
586.2427203907778
 31
0.0
  0
CIRCLE
  5
EE1
330
2
100
AcDbEntity
  8
0
100
AcDbCircle
 10
245.7318041001639
 20
580.7427203907777
 30
0.0
 40
2.0
  0
CIRCLE
  5
EE2
330
2
100
AcDbEntity
  8
HOJO
100
AcDbCircle
 10
245.7318041001639
 20
580.7427203907777
 30
0.0
 40
2.5
  0
CIRCLE
  5
EE3
330
2
100
AcDbEntity
  8
0
100
AcDbCircle
 10
245.7318041001639
 20
580.7427203907777
 30
0.0
 40
3.5
  0
CIRCLE
  5
EE4
330
2
100
AcDbEntity
  8
0
100
AcDbCircle
 10
245.7318041001639
 20
580.7427203907777
 30
0.0
 40
4.0
  0
LINE
  5
EE5
330
2
100
AcDbEntity
  8
CENTER
100
AcDbLine
 10
253.7318041001639
 20
580.7427203907796
 30
0.0
 11
237.7318041001639
 21
580.7427203907777
 31
0.0
  0
LINE
  5
EE6
330
2
100
AcDbEntity
  8
0
100
AcDbLine
 10
266.7944129855117
 20
484.2427203907777
 30
0.0
 11
231.2318041001639
 21
484.2427203907777
 31
0.0
  0
CIRCLE
  5
EE7
330
2
100
AcDbEntity
  8
0
100
AcDbCircle
 10
245.7318041001648
 20
489.7427203907778
 30
0.0
 40
4.0
  0
CIRCLE
  5
EE8
330
2
100
AcDbEntity
  8
HOJO
100
AcDbCircle
 10
245.7318041001648
 20
489.7427203907778
 30
0.0
 40
2.5
  0
CIRCLE
  5
EE9
330
2
100
AcDbEntity
  8
0
100
AcDbCircle
 10
245.7318041001648
 20
489.7427203907778
 30
0.0
 40
3.5
  0
CIRCLE
  5
EEA
330
2
100
AcDbEntity
  8
0
100
AcDbCircle
 10
245.7318041001648
 20
489.7427203907778
 30
0.0
 40
2.0
  0
LINE
  5
EEB
330
2
100
AcDbEntity
  8
0
100
AcDbLine
 10
223.2318041001639
 20
492.2427203907777
 30
0.0
 11
223.2318041001639
 21
578.2427203907777
 31
0.0
  0
LINE
  5
EEC
330
2
100
AcDbEntity
  8
CENTER
100
AcDbLine
 10
231.2318041001639
 20
588.9927203907777
 30
0.0
 11
231.2318041001657
 21
567.4927203907778
 31
0.0
  0
LINE
  5
EED
330
2
100
AcDbEntity
  8
0
100
AcDbLine
 10
231.2318041001657
 20
569.7427203907778
 30
0.0
 11
225.2318041001648
 21
569.7427203907814
 31
0.0
  0
LINE
  5
EEE
330
2
100
AcDbEntity
  8
CENTER
100
AcDbLine
 10
241.9818041001639
 20
578.2427203907795
 30
0.0
 11
220.4818041001639
 21
578.2427203907777
 31
0.0
  0
ARC
  5
EEF
330
2
100
AcDbEntity
  8
0
100
AcDbCircle
 10
231.2318041001639
 20
578.2427203907777
 30
0.0
 40
8.0
100
AcDbArc
 50
90.0
 51
180.0
  0
LINE
  5
EF0
330
2
100
AcDbEntity
  8
0
100
AcDbLine
 10
239.7318041001712
 20
578.2427203907722
 30
0.0
 11
239.7318041001739
 21
584.2427203907796
 31
0.0
  0
LINE
  5
EF1
330
2
100
AcDbEntity
  8
CENTER
100
AcDbLine
 10
245.7318041001639
 20
588.7427203907777
 30
0.0
 11
245.7318041001648
 21
572.7427203907778
 31
0.0
  0
ARC
  5
EF2
330
2
100
AcDbEntity
  8
0
100
AcDbCircle
 10
231.2318041001712
 20
578.2427203907777
 30
0.0
 40
8.5
100
AcDbArc
 50
269.9999999999739
 51
359.9999999998958
  0
ARC
  5
EF3
330
2
100
AcDbEntity
  8
0
100
AcDbCircle
 10
231.2318041001712
 20
492.2427203907777
 30
0.0
 40
8.5
100
AcDbArc
 50
0.0
 51
90.00000000002605
  0
LINE
  5
EF4
330
2
100
AcDbEntity
  8
0
100
AcDbLine
 10
231.2318041001657
 20
500.7427203907777
 30
0.0
 11
225.2318041001648
 21
500.7427203907741
 31
0.0
  0
ARC
  5
EF5
330
2
100
AcDbEntity
  8
0
100
AcDbCircle
 10
231.2318041001639
 20
492.2427203907777
 30
0.0
 40
8.0
100
AcDbArc
 50
180.0
 51
270.0
  0
LINE
  5
EF6
330
2
100
AcDbEntity
  8
0
100
AcDbLine
 10
239.7318041001712
 20
492.2427203907832
 30
0.0
 11
239.7318041001739
 21
486.2427203907778
 31
0.0
  0
ARC
  5
EF7
330
2
100
AcDbEntity
  8
0
100
AcDbCircle
 10
241.7318041001739
 20
486.2427203907778
 30
0.0
 40
2.0
100
AcDbArc
 50
180.0
 51
270.0
  0
ARC
  5
EF8
330
2
100
AcDbEntity
  8
0
100
AcDbCircle
 10
225.2318041001639
 20
502.7427203907741
 30
0.0
 40
2.0
100
AcDbArc
 50
180.0
 51
270.000000000026
  0
ARC
  5
EF9
330
2
100
AcDbEntity
  8
0
100
AcDbCircle
 10
225.2318041001639
 20
567.7427203907813
 30
0.0
 40
2.0
100
AcDbArc
 50
89.99999999997395
 51
180.0
  0
ARC
  5
EFA
330
2
100
AcDbEntity
  8
0
100
AcDbCircle
 10
241.7318041001739
 20
584.2427203907777
 30
0.0
 40
2.0
100
AcDbArc
 50
90.0
 51
179.9999999998957
  0
ARC
  5
EFB
330
2
100
AcDbEntity
  8
0
100
AcDbCircle
 10
266.7944129855117
 20
476.2427203907777
 30
0.0
 40
8.0
100
AcDbArc
 50
4.780191847234032
 51
90.0
  0
ARC
  5
EFC
330
2
100
AcDbEntity
  8
0
100
AcDbCircle
 10
266.7944129855117
 20
594.2427203907778
 30
0.0
 40
8.0
100
AcDbArc
 50
270.0
 51
355.2198081527659
  0
LINE
  5
EFD
330
2
100
AcDbEntity
  8
CENTER
100
AcDbLine
 10
253.7318041001639
 20
489.7427203907778
 30
0.0
 11
237.7318041001639
 21
489.7427203907778
 31
0.0
  0
LINE
  5
EFE
330
2
100
AcDbEntity
  8
CENTER
100
AcDbLine
 10
231.2318041001639
 20
481.4927203907777
 30
0.0
 11
231.2318041001657
 21
502.9927203907777
 31
0.0
  0
LINE
  5
EFF
330
2
100
AcDbEntity
  8
CENTER
100
AcDbLine
 10
241.9818041001639
 20
492.2427203907777
 30
0.0
 11
220.4818041001639
 21
492.2427203907796
 31
0.0
  0
LINE
  5
F00
330
2
100
AcDbEntity
  8
CENTER
100
AcDbLine
 10
245.7318041001639
 20
481.7427203907778
 30
0.0
 11
245.7318041001648
 21
497.7427203907778
 31
0.0
  0
CIRCLE
  5
F01
330
2
100
AcDbEntity
  8
0
100
AcDbCircle
 10
231.2318041001712
 20
578.2427203907777
 30
0.0
 40
5.63397459621558
  0
CIRCLE
  5
F02
330
2
100
AcDbEntity
  8
0
100
AcDbCircle
 10
231.2318041001712
 20
578.2427203907777
 30
0.0
 40
6.5
  0
LINE
  5
F03
330
2
100
AcDbEntity
  8
0
100
AcDbLine
 10
234.2318041001711
 20
576.5106695832096
 30
0.0
 11
234.2318041001711
 21
579.9747711983477
 31
0.0
  0
LINE
  5
F04
330
2
100
AcDbEntity
  8
0
100
AcDbLine
 10
228.2318041001711
 20
579.9747711983477
 30
0.0
 11
228.2318041001711
 21
576.5106695832096
 31
0.0
  0
LINE
  5
F05
330
2
100
AcDbEntity
  8
0
100
AcDbLine
 10
231.2318041001712
 20
574.7786187756414
 30
0.0
 11
234.2318041001711
 21
576.5106695832096
 31
0.0
  0
LINE
  5
F06
330
2
100
AcDbEntity
  8
0
100
AcDbLine
 10
228.2318041001711
 20
576.5106695832096
 30
0.0
 11
231.2318041001712
 21
574.7786187756414
 31
0.0
  0
LINE
  5
F07
330
2
100
AcDbEntity
  8
0
100
AcDbLine
 10
228.2318041001711
 20
579.9747711983477
 30
0.0
 11
231.2318041001712
 21
581.7068220059159
 31
0.0
  0
LINE
  5
F08
330
2
100
AcDbEntity
  8
0
100
AcDbLine
 10
231.2318041001712
 20
581.7068220059159
 30
0.0
 11
234.2318041001711
 21
579.9747711983477
 31
0.0
  0
CIRCLE
  5
F09
330
2
100
AcDbEntity
  8
0
100
AcDbCircle
 10
231.2318041001648
 20
492.2427203907777
 30
0.0
 40
5.63397459621558
  0
CIRCLE
  5
F0A
330
2
100
AcDbEntity
  8
0
100
AcDbCircle
 10
231.2318041001648
 20
492.2427203907777
 30
0.0
 40
6.5
  0
LINE
  5
F0B
330
2
100
AcDbEntity
  8
0
100
AcDbLine
 10
234.2318041001648
 20
490.5106695832095
 30
0.0
 11
234.2318041001648
 21
493.9747711983478
 31
0.0
  0
LINE
  5
F0C
330
2
100
AcDbEntity
  8
0
100
AcDbLine
 10
228.2318041001648
 20
493.9747711983478
 30
0.0
 11
228.2318041001648
 21
490.5106695832095
 31
0.0
  0
LINE
  5
F0D
330
2
100
AcDbEntity
  8
0
100
AcDbLine
 10
231.2318041001648
 20
488.7786187756396
 30
0.0
 11
234.2318041001648
 21
490.5106695832095
 31
0.0
  0
LINE
  5
F0E
330
2
100
AcDbEntity
  8
0
100
AcDbLine
 10
228.2318041001648
 20
490.5106695832095
 30
0.0
 11
231.2318041001648
 21
488.7786187756396
 31
0.0
  0
LINE
  5
F0F
330
2
100
AcDbEntity
  8
0
100
AcDbLine
 10
228.2318041001648
 20
493.9747711983478
 30
0.0
 11
231.2318041001648
 21
495.7068220059158
 31
0.0
  0
LINE
  5
F10
330
2
100
AcDbEntity
  8
0
100
AcDbLine
 10
231.2318041001648
 20
495.7068220059158
 30
0.0
 11
234.2318041001648
 21
493.9747711983478
 31
0.0
  0
ARC
  5
F11
330
2
100
AcDbEntity
  8
0
100
AcDbCircle
 10
539.3628323130518
 20
600.5811971796161
 30
0.0
 40
2.0
100
AcDbArc
 50
90.49999999999155
 51
180.0
  0
LINE
  5
F12
330
2
100
AcDbEntity
  8
0
100
AcDbLine
 10
536.7770458754251
 20
589.6569339528891
 30
0.0
 11
535.9486187506785
 21
588.8285068281443
 31
0.0
  0
LINE
  5
F13
330
2
100
AcDbEntity
  8
0
100
AcDbLine
 10
526.8628323130518
 20
577.1653701213276
 30
0.0
 11
526.8628323130527
 21
493.320070659704
 31
0.0
  0
LINE
  5
F14
330
2
100
AcDbEntity
  8
0
100
AcDbLine
 10
535.3628323130518
 20
580.2427203905158
 30
0.0
 11
534.8628323130518
 21
579.7427203905158
 31
0.0
  0
LINE
  5
F15
330
2
100
AcDbEntity
  8
0
100
AcDbLine
 10
531.3628323130518
 20
577.5427203905169
 30
0.0
 11
531.5628323130517
 21
577.7427203905158
 31
0.0
  0
LINE
  5
F16
330
2
100
AcDbEntity
  8
0
100
AcDbLine
 10
529.5628323130516
 20
577.0427203905169
 30
0.0
 11
531.162832313052
 21
577.0427203905169
 31
0.0
  0
LINE
  5
F17
330
2
100
AcDbEntity
  8
0
100
AcDbLine
 10
527.8628323130518
 20
577.7427203905158
 30
0.0
 11
526.8628323130518
 21
577.1653701213276
 31
0.0
  0
LINE
  5
F18
330
2
100
AcDbEntity
  8
0
100
AcDbLine
 10
527.8628323130518
 20
577.7427203905158
 30
0.0
 11
529.162832313052
 21
577.7427203905158
 31
0.0
  0
LINE
  5
F19
330
2
100
AcDbEntity
  8
0
100
AcDbLine
 10
531.5628323130517
 20
577.7427203905158
 30
0.0
 11
534.8628323130518
 21
577.7427203905158
 31
0.0
  0
LINE
  5
F1A
330
2
100
AcDbEntity
  8
0
100
AcDbLine
 10
535.3628323130473
 20
483.0711475152624
 30
0.0
 11
535.36283231306
 21
587.414293265771
 31
0.0
  0
LINE
  5
F1B
330
2
100
AcDbEntity
  8
0
100
AcDbLine
 10
535.3628323130481
 20
490.2427203905158
 30
0.0
 11
534.8628323130482
 21
490.7427203905158
 31
0.0
  0
LINE
  5
F1C
330
2
100
AcDbEntity
  8
0
100
AcDbLine
 10
531.3628323130481
 20
492.9427203905166
 30
0.0
 11
531.3628323130481
 21
577.5427203905133
 31
0.0
  0
LINE
  5
F1D
330
2
100
AcDbEntity
  8
0
100
AcDbLine
 10
531.3628323130481
 20
492.9427203905166
 30
0.0
 11
531.562832313048
 21
492.7427203905158
 31
0.0
  0
LINE
  5
F1E
330
2
100
AcDbEntity
  8
0
100
AcDbLine
 10
529.3628323130482
 20
492.9427203905166
 30
0.0
 11
529.3628323129836
 21
577.5427203905169
 31
0.0
  0
LINE
  5
F1F
330
2
100
AcDbEntity
  8
0
100
AcDbLine
 10
527.8628323130482
 20
492.7427203905158
 30
0.0
 11
529.1628323130474
 21
492.7427203905158
 31
0.0
  0
LINE
  5
F20
330
2
100
AcDbEntity
  8
0
100
AcDbLine
 10
529.562832313048
 20
493.4427203905165
 30
0.0
 11
531.1628323130475
 21
493.4427203905165
 31
0.0
  0
LINE
  5
F21
330
2
100
AcDbEntity
  8
0
100
AcDbLine
 10
527.8628323130482
 20
492.7427203905158
 30
0.0
 11
526.8628323130482
 21
493.3200706597058
 31
0.0
  0
LINE
  5
F22
330
2
100
AcDbEntity
  8
0
100
AcDbLine
 10
534.8628323130482
 20
490.7427203905158
 30
0.0
 11
534.8628323130482
 21
579.7427203905122
 31
0.0
  0
LINE
  5
F23
330
2
100
AcDbEntity
  8
0
100
AcDbLine
 10
531.562832313048
 20
492.7427203905158
 30
0.0
 11
534.8628323130482
 21
492.7427203905158
 31
0.0
  0
LINE
  5
F24
330
2
100
AcDbEntity
  8
0
100
AcDbLine
 10
537.3628323130473
 20
469.9042436014174
 30
0.0
 11
537.3628323130473
 21
600.5811971796161
 31
0.0
  0
LINE
  5
F25
330
2
100
AcDbEntity
  8
0
100
AcDbLine
 10
536.7770458754206
 20
480.8285068281425
 30
0.0
 11
535.9486187506739
 21
481.6569339528891
 31
0.0
  0
LINE
  5
F26
330
2
100
AcDbEntity
  8
0
100
AcDbLine
 10
539.3453792420554
 20
602.5811210257439
 30
0.0
 11
557.8628323130518
 21
602.7427203905176
 31
0.0
  0
ARC
  5
F27
330
2
100
AcDbEntity
  8
0
100
AcDbCircle
 10
537.3628323130473
 20
483.0711475152624
 30
0.0
 40
2.0
100
AcDbArc
 50
180.0
 51
225.0000000000091
  0
ARC
  5
F28
330
2
100
AcDbEntity
  8
0
100
AcDbCircle
 10
535.3628323130473
 20
479.414293265771
 30
0.0
 40
2.0
100
AcDbArc
 50
0.0
 51
45.00000000000921
  0
ARC
  5
F29
330
2
100
AcDbEntity
  8
0
100
AcDbCircle
 10
537.3628323130518
 20
587.414293265771
 30
0.0
 40
2.0
100
AcDbArc
 50
134.9999999999907
 51
180.0
  0
ARC
  5
F2A
330
2
100
AcDbEntity
  8
0
100
AcDbCircle
 10
535.3628323130518
 20
591.0711475152624
 30
0.0
 40
2.0
100
AcDbArc
 50
314.9999999999907
 51
0.0
  0
ARC
  5
F2B
330
2
100
AcDbEntity
  8
0
100
AcDbCircle
 10
529.162832313052
 20
577.5427203905169
 30
0.0
 40
0.2
100
AcDbArc
 50
0.0
 51
90.0
  0
ARC
  5
F2C
330
2
100
AcDbEntity
  8
0
100
AcDbCircle
 10
529.5628323130516
 20
577.2427203905176
 30
0.0
 40
0.2
100
AcDbArc
 50
180.0
 51
270.0
  0
ARC
  5
F2D
330
2
100
AcDbEntity
  8
0
100
AcDbCircle
 10
531.162832313052
 20
577.2427203905176
 30
0.0
 40
0.2
100
AcDbArc
 50
270.0
 51
0.0
  0
ARC
  5
F2E
330
2
100
AcDbEntity
  8
0
100
AcDbCircle
 10
529.1628323130474
 20
492.9427203905166
 30
0.0
 40
0.2
100
AcDbArc
 50
270.0
 51
0.0
  0
ARC
  5
F2F
330
2
100
AcDbEntity
  8
0
100
AcDbCircle
 10
529.562832313048
 20
493.2427203905158
 30
0.0
 40
0.2
100
AcDbArc
 50
90.0
 51
180.0
  0
ARC
  5
F30
330
2
100
AcDbEntity
  8
0
100
AcDbCircle
 10
531.1628323130475
 20
493.2427203905158
 30
0.0
 40
0.2
100
AcDbArc
 50
0.0
 51
90.0
  0
LINE
  5
F31
330
2
100
AcDbEntity
  8
0
100
AcDbLine
 10
527.8628323130518
 20
577.7427203905158
 30
0.0
 11
527.8628323130482
 21
492.7427203905158
 31
0.0
  0
LINE
  5
F32
330
2
100
AcDbEntity
  8
0
100
AcDbLine
 10
547.3671955807916
 20
584.2383950342796
 30
0.0
 11
539.3453792420499
 21
584.1683897036496
 31
0.0
  0
LINE
  5
F33
330
2
100
AcDbEntity
  8
0
100
AcDbLine
 10
547.8628323130427
 20
584.7383759958143
 30
0.0
 11
547.8628323130427
 21
601.6641405020132
 31
0.0
  0
ARC
  5
F34
330
2
100
AcDbEntity
  8
0
100
AcDbCircle
 10
547.3628323130427
 20
584.7383759958143
 30
0.0
 40
0.5
100
AcDbArc
 50
270.5000000000175
 51
0.0
  0
ARC
  5
F35
330
2
100
AcDbEntity
  8
0
100
AcDbCircle
 10
548.8628323130427
 20
601.6641405020132
 30
0.0
 40
1.0
100
AcDbArc
 50
90.50000000001761
 51
180.0
  0
ARC
  5
F36
330
2
100
AcDbEntity
  8
0
100
AcDbCircle
 10
539.3628323130473
 20
582.1684658575218
 30
0.0
 40
2.0
100
AcDbArc
 50
90.49999999999155
 51
180.0
  0
LINE
  5
F37
330
2
100
AcDbEntity
  8
0
100
AcDbLine
 10
548.8541057775449
 20
592.7427203905176
 30
0.0
 11
557.8628323130518
 21
592.7427203905176
 31
0.0
  0
LINE
  5
F38
330
2
100
AcDbEntity
  8
0
100
AcDbLine
 10
548.8541057775449
 20
588.7427203905176
 30
0.0
 11
557.8628323130518
 21
588.7427203905176
 31
0.0
  0
LINE
  5
F39
330
2
100
AcDbEntity
  8
0
100
AcDbLine
 10
539.3453792420499
 20
562.9109155546853
 30
0.0
 11
557.8628323130518
 21
562.9109155546853
 31
0.0
  0
LINE
  5
F3A
330
2
100
AcDbEntity
  8
0
100
AcDbLine
 10
548.8541057775449
 20
477.7427203905158
 30
0.0
 11
557.8628323130518
 21
477.7427203905158
 31
0.0
  0
LINE
  5
F3B
330
2
100
AcDbEntity
  8
0
100
AcDbLine
 10
548.8541057775449
 20
481.7427203905158
 30
0.0
 11
557.8628323130518
 21
481.7427203905158
 31
0.0
  0
LINE
  5
F3C
330
2
100
AcDbEntity
  8
0
100
AcDbLine
 10
539.3453792420499
 20
507.5745252263482
 30
0.0
 11
557.8628323130518
 21
507.5745252263482
 31
0.0
  0
ARC
  5
F3D
330
2
100
AcDbEntity
  8
0
100
AcDbCircle
 10
539.3628323130518
 20
469.9042436014174
 30
0.0
 40
2.0
100
AcDbArc
 50
180.0
 51
269.5000000000084
  0
LINE
  5
F3E
330
2
100
AcDbEntity
  8
0
100
AcDbLine
 10
539.3453792420554
 20
467.9043197552896
 30
0.0
 11
557.8628323130518
 21
467.7427203905158
 31
0.0
  0
ARC
  5
F3F
330
2
100
AcDbEntity
  8
0
100
AcDbCircle
 10
548.8628323130427
 20
468.8213002790202
 30
0.0
 40
1.0
100
AcDbArc
 50
180.0
 51
269.4999999999824
  0
LINE
  5
F40
330
2
100
AcDbEntity
  8
0
100
AcDbLine
 10
547.3671955807916
 20
486.2470457467538
 30
0.0
 11
539.3453792420499
 21
486.3170510773839
 31
0.0
  0
LINE
  5
F41
330
2
100
AcDbEntity
  8
0
100
AcDbLine
 10
547.8628323130427
 20
485.7470647852192
 30
0.0
 11
547.8628323130427
 21
468.8213002790202
 31
0.0
  0
ARC
  5
F42
330
2
100
AcDbEntity
  8
0
100
AcDbCircle
 10
547.3628323130427
 20
485.7470647852192
 30
0.0
 40
0.5
100
AcDbArc
 50
0.0
 51
89.49999999998238
  0
ARC
  5
F43
330
2
100
AcDbEntity
  8
0
100
AcDbCircle
 10
539.3628323130473
 20
488.3169749235117
 30
0.0
 40
2.0
100
AcDbArc
 50
180.0
 51
269.5000000000084
  0
LINE
  5
F44
330
2
100
AcDbEntity
  8
0
100
AcDbLine
 10
557.8628323130518
 20
602.7427203905176
 30
0.0
 11
557.8628323130518
 21
467.7427203905158
 31
0.0
  0
LINE
  5
F45
330
2
100
AcDbEntity
  8
0
100
AcDbLine
 10
537.8628323130427
 20
598.3766949867336
 30
0.0
 11
537.8628323130427
 21
587.1087457943035
 31
0.0
  0
LINE
  5
F46
330
2
100
AcDbEntity
  8
0
100
AcDbLine
 10
545.8628323130427
 20
599.2427203905176
 30
0.0
 11
545.8628323130437
 21
586.2427203905176
 31
0.0
  0
LINE
  5
F47
330
2
100
AcDbEntity
  8
0
100
AcDbLine
 10
538.3628323130428
 20
586.2427203905176
 30
0.0
 11
537.8628323130427
 21
587.1087457943035
 31
0.0
  0
LINE
  5
F48
330
2
100
AcDbEntity
  8
0
100
AcDbLine
 10
545.8628323130427
 20
586.2427203905176
 30
0.0
 11
538.3628323130428
 21
586.2427203905176
 31
0.0
  0
LINE
  5
F49
330
2
100
AcDbEntity
  8
0
100
AcDbLine
 10
538.3628323130428
 20
599.2427203905176
 30
0.0
 11
537.8628323130427
 21
598.3766949867336
 31
0.0
  0
LINE
  5
F4A
330
2
100
AcDbEntity
  8
0
100
AcDbLine
 10
545.8628323130427
 20
599.2427203905176
 30
0.0
 11
538.3628323130428
 21
599.2427203905176
 31
0.0
  0
LINE
  5
F4B
330
2
100
AcDbEntity
  8
0
100
AcDbLine
 10
538.3628323130428
 20
599.2427203905176
 30
0.0
 11
538.3628323130428
 21
586.2427203905176
 31
0.0
  0
LINE
  5
F4C
330
2
100
AcDbEntity
  8
0
100
AcDbLine
 10
537.8628323130427
 20
472.1087457942998
 30
0.0
 11
537.8628323130427
 21
483.3766949867299
 31
0.0
  0
LINE
  5
F4D
330
2
100
AcDbEntity
  8
0
100
AcDbLine
 10
545.8628323130427
 20
471.2427203905158
 30
0.0
 11
545.8628323130437
 21
484.2427203905158
 31
0.0
  0
LINE
  5
F4E
330
2
100
AcDbEntity
  8
0
100
AcDbLine
 10
538.3628323130428
 20
484.2427203905158
 30
0.0
 11
537.8628323130427
 21
483.3766949867299
 31
0.0
  0
LINE
  5
F4F
330
2
100
AcDbEntity
  8
0
100
AcDbLine
 10
545.8628323130427
 20
484.2427203905158
 30
0.0
 11
538.3628323130428
 21
484.2427203905158
 31
0.0
  0
LINE
  5
F50
330
2
100
AcDbEntity
  8
0
100
AcDbLine
 10
538.3628323130428
 20
471.2427203905158
 30
0.0
 11
537.8628323130427
 21
472.1087457942998
 31
0.0
  0
LINE
  5
F51
330
2
100
AcDbEntity
  8
0
100
AcDbLine
 10
545.8628323130427
 20
471.2427203905158
 30
0.0
 11
538.3628323130428
 21
471.2427203905158
 31
0.0
  0
LINE
  5
F52
330
2
100
AcDbEntity
  8
0
100
AcDbLine
 10
538.3628323130428
 20
471.2427203905158
 30
0.0
 11
538.3628323130428
 21
484.2427203905158
 31
0.0
  0
LINE
  5
F53
330
2
100
AcDbEntity
  8
0
100
AcDbLine
 10
987.86947304185
 20
941.441318370315
 30
0.0
 11
952.86947304185
 21
941.441318370315
 31
0.0
  0
ARC
  5
F54
330
2
100
AcDbEntity
  8
0
100
AcDbCircle
 10
1000.255947603798
 20
939.441318370315
 30
0.0
 40
2.0
100
AcDbArc
 50
0.4999999999654928
 51
72.13575521911796
  0
LINE
  5
F55
330
2
100
AcDbEntity
  8
0
100
AcDbLine
 10
815.8694730418499
 20
926.4413183703096
 30
0.0
 11
1002.369473041849
 21
926.4413183703096
 31
0.0
  0
ARC
  5
F56
330
2
100
AcDbEntity
  8
0
100
AcDbCircle
 10
818.0309962527516
 20
944.9413183703095
 30
0.0
 40
2.0
100
AcDbArc
 50
90.0
 51
179.5000000000344
  0
LINE
  5
F57
330
2
100
AcDbEntity
  8
0
100
AcDbLine
 10
828.9552594794766
 20
947.5271048079362
 30
0.0
 11
829.7836866042233
 21
948.3555319326828
 31
0.0
  0
LINE
  5
F58
330
2
100
AcDbEntity
  8
0
100
AcDbLine
 10
841.4468233110399
 20
957.4413183703095
 30
0.0
 11
925.2921227726636
 21
957.4413183703095
 31
0.0
  0
LINE
  5
F59
330
2
100
AcDbEntity
  8
0
100
AcDbLine
 10
838.36947304185
 20
948.9413183703096
 30
0.0
 11
838.86947304185
 21
949.4413183703095
 31
0.0
  0
LINE
  5
F5A
330
2
100
AcDbEntity
  8
0
100
AcDbLine
 10
841.0694730418507
 20
952.9413183703095
 30
0.0
 11
840.8694730418499
 21
952.7413183703107
 31
0.0
  0
LINE
  5
F5B
330
2
100
AcDbEntity
  8
0
100
AcDbLine
 10
841.5694730418508
 20
954.7413183703106
 30
0.0
 11
841.5694730418508
 21
953.1413183703103
 31
0.0
  0
LINE
  5
F5C
330
2
100
AcDbEntity
  8
0
100
AcDbLine
 10
840.8694730418499
 20
956.4413183703095
 30
0.0
 11
841.4468233110399
 21
957.4413183703095
 31
0.0
  0
LINE
  5
F5D
330
2
100
AcDbEntity
  8
0
100
AcDbLine
 10
840.8694730418499
 20
956.4413183703095
 30
0.0
 11
840.8694730418499
 21
955.1413183703102
 31
0.0
  0
LINE
  5
F5E
330
2
100
AcDbEntity
  8
0
100
AcDbLine
 10
840.8694730418499
 20
952.7413183703107
 30
0.0
 11
840.8694730418499
 21
949.4413183703095
 31
0.0
  0
LINE
  5
F5F
330
2
100
AcDbEntity
  8
0
100
AcDbLine
 10
935.5410459171034
 20
948.9413183703149
 30
0.0
 11
831.1979001665967
 21
948.9413183703023
 31
0.0
  0
LINE
  5
F60
330
2
100
AcDbEntity
  8
0
100
AcDbLine
 10
928.3694730418501
 20
948.9413183703149
 30
0.0
 11
927.86947304185
 21
949.4413183703132
 31
0.0
  0
LINE
  5
F61
330
2
100
AcDbEntity
  8
0
100
AcDbLine
 10
925.669473041851
 20
952.9413183703132
 30
0.0
 11
841.0694730418544
 21
952.9413183703132
 31
0.0
  0
LINE
  5
F62
330
2
100
AcDbEntity
  8
0
100
AcDbLine
 10
925.669473041851
 20
952.9413183703132
 30
0.0
 11
925.86947304185
 21
952.7413183703142
 31
0.0
  0
LINE
  5
F63
330
2
100
AcDbEntity
  8
0
100
AcDbLine
 10
925.669473041851
 20
954.9413183703132
 30
0.0
 11
841.0694730418507
 21
954.9413183703787
 31
0.0
  0
LINE
  5
F64
330
2
100
AcDbEntity
  8
0
100
AcDbLine
 10
925.86947304185
 20
956.4413183703132
 30
0.0
 11
925.86947304185
 21
955.1413183703139
 31
0.0
  0
LINE
  5
F65
330
2
100
AcDbEntity
  8
0
100
AcDbLine
 10
925.1694730418511
 20
954.7413183703142
 30
0.0
 11
925.1694730418511
 21
953.1413183703138
 31
0.0
  0
LINE
  5
F66
330
2
100
AcDbEntity
  8
0
100
AcDbLine
 10
925.86947304185
 20
956.4413183703132
 30
0.0
 11
925.29212277266
 21
957.4413183703132
 31
0.0
  0
LINE
  5
F67
330
2
100
AcDbEntity
  8
0
100
AcDbLine
 10
927.86947304185
 20
949.4413183703132
 30
0.0
 11
838.8694730418537
 21
949.4413183703132
 31
0.0
  0
LINE
  5
F68
330
2
100
AcDbEntity
  8
0
100
AcDbLine
 10
925.86947304185
 20
952.7413183703142
 30
0.0
 11
925.86947304185
 21
949.4413183703132
 31
0.0
  0
LINE
  5
F69
330
2
100
AcDbEntity
  8
0
100
AcDbLine
 10
948.8694730418499
 20
946.9413183703149
 30
0.0
 11
818.0309962527516
 21
946.9413183703149
 31
0.0
  0
LINE
  5
F6A
330
2
100
AcDbEntity
  8
0
100
AcDbLine
 10
937.7836866042233
 20
947.5271048079417
 30
0.0
 11
936.9552594794766
 21
948.3555319326884
 31
0.0
  0
LINE
  5
F6B
330
2
100
AcDbEntity
  8
0
100
AcDbLine
 10
950.86947304185
 20
943.4413183703149
 30
0.0
 11
950.86947304185
 21
944.941318370315
 31
0.0
  0
ARC
  5
F6C
330
2
100
AcDbEntity
  8
0
100
AcDbCircle
 10
952.86947304185
 20
943.4413183703149
 30
0.0
 40
2.0
100
AcDbArc
 50
180.0
 51
270.0
  0
LINE
  5
F6D
330
2
100
AcDbEntity
  8
0
100
AcDbLine
 10
1002.369473041849
 20
926.4413183703096
 30
0.0
 11
1002.255871449926
 21
939.4587714413106
 31
0.0
  0
ARC
  5
F6E
330
2
100
AcDbEntity
  8
0
100
AcDbCircle
 10
1001.290893153347
 20
935.4413183703186
 30
0.0
 40
1.0
100
AcDbArc
 50
0.4999999999654928
 51
90.0
  0
LINE
  5
F6F
330
2
100
AcDbEntity
  8
0
100
AcDbLine
 10
816.0310724066219
 20
944.9587714413068
 30
0.0
 11
815.8694730418499
 21
926.4413183703096
 31
0.0
  0
ARC
  5
F70
330
2
100
AcDbEntity
  8
0
100
AcDbCircle
 10
948.8694730418499
 20
944.941318370315
 30
0.0
 40
2.0
100
AcDbArc
 50
0.0
 51
90.0
  0
ARC
  5
F71
330
2
100
AcDbEntity
  8
0
100
AcDbCircle
 10
935.5410459171052
 20
946.9413183703149
 30
0.0
 40
2.0
100
AcDbArc
 50
45.00000000000915
 51
90.0
  0
ARC
  5
F72
330
2
100
AcDbEntity
  8
0
100
AcDbCircle
 10
939.1979001665967
 20
948.9413183703149
 30
0.0
 40
2.0
100
AcDbArc
 50
225.0000000000091
 51
270.0
  0
ARC
  5
F73
330
2
100
AcDbEntity
  8
0
100
AcDbCircle
 10
831.1979001665967
 20
946.9413183703094
 30
0.0
 40
2.0
100
AcDbArc
 50
90.0
 51
134.9999999999908
  0
ARC
  5
F74
330
2
100
AcDbEntity
  8
0
100
AcDbCircle
 10
827.5410459171034
 20
948.9413183703096
 30
0.0
 40
2.0
100
AcDbArc
 50
270.0
 51
314.9999999999908
  0
ARC
  5
F75
330
2
100
AcDbEntity
  8
0
100
AcDbCircle
 10
841.0694730418507
 20
955.1413183703102
 30
0.0
 40
0.2
100
AcDbArc
 50
180.0
 51
270.0
  0
ARC
  5
F76
330
2
100
AcDbEntity
  8
0
100
AcDbCircle
 10
841.36947304185
 20
954.7413183703106
 30
0.0
 40
0.2
100
AcDbArc
 50
0.0
 51
90.0
  0
ARC
  5
F77
330
2
100
AcDbEntity
  8
0
100
AcDbCircle
 10
841.36947304185
 20
953.1413183703103
 30
0.0
 40
0.2
100
AcDbArc
 50
270.0
 51
0.0
  0
ARC
  5
F78
330
2
100
AcDbEntity
  8
0
100
AcDbCircle
 10
925.669473041851
 20
955.1413183703139
 30
0.0
 40
0.2
100
AcDbArc
 50
270.0
 51
0.0
  0
ARC
  5
F79
330
2
100
AcDbEntity
  8
0
100
AcDbCircle
 10
925.36947304185
 20
954.7413183703142
 30
0.0
 40
0.2
100
AcDbArc
 50
90.0
 51
180.0
  0
ARC
  5
F7A
330
2
100
AcDbEntity
  8
0
100
AcDbCircle
 10
925.36947304185
 20
953.1413183703138
 30
0.0
 40
0.2
100
AcDbArc
 50
180.0
 51
270.0
  0
LINE
  5
F7B
330
2
100
AcDbEntity
  8
0
100
AcDbLine
 10
840.8694730418499
 20
956.4413183703095
 30
0.0
 11
925.86947304185
 21
956.4413183703132
 31
0.0
  0
LINE
  5
F7C
330
2
100
AcDbEntity
  8
0
100
AcDbLine
 10
985.9204739499544
 20
939.4936722669303
 30
0.0
 11
985.9876524226654
 21
936.9282298961648
 31
0.0
  0
LINE
  5
F7D
330
2
100
AcDbEntity
  8
0
100
AcDbLine
 10
986.4874810851542
 20
936.4413183703186
 30
0.0
 11
1001.290893153347
 21
936.4413183703186
 31
0.0
  0
ARC
  5
F7E
330
2
100
AcDbEntity
  8
0
100
AcDbCircle
 10
986.4874810851542
 20
936.9413183703185
 30
0.0
 40
0.5
100
AcDbArc
 50
181.4999999999896
 51
270.0
  0
ARC
  5
F7F
330
2
100
AcDbEntity
  8
0
100
AcDbCircle
 10
983.9211593000035
 20
939.441318370315
 30
0.0
 40
2.0
100
AcDbArc
 50
1.499999999989688
 51
90.0
  0
LINE
  5
F80
330
2
100
AcDbEntity
  8
0
100
AcDbLine
 10
834.3737983980862
 20
936.9369551025707
 30
0.0
 11
834.4438037287162
 21
944.9587714413123
 31
0.0
  0
LINE
  5
F81
330
2
100
AcDbEntity
  8
0
100
AcDbLine
 10
833.8738174365515
 20
936.4413183703186
 30
0.0
 11
816.9480529303527
 21
936.4413183703186
 31
0.0
  0
ARC
  5
F82
330
2
100
AcDbEntity
  8
0
100
AcDbCircle
 10
833.8738174365515
 20
936.9413183703185
 30
0.0
 40
0.5
100
AcDbArc
 50
270.0
 51
359.5000000000345
  0
ARC
  5
F83
330
2
100
AcDbEntity
  8
0
100
AcDbCircle
 10
816.9480529303527
 20
935.4413183703186
 30
0.0
 40
1.0
100
AcDbArc
 50
90.0
 51
179.5000000000344
  0
ARC
  5
F84
330
2
100
AcDbEntity
  8
0
100
AcDbCircle
 10
836.4437275748459
 20
944.941318370315
 30
0.0
 40
2.0
100
AcDbArc
 50
90.0
 51
179.5000000000344
  0
LINE
  5
F85
330
2
100
AcDbEntity
  8
0
100
AcDbLine
 10
950.86947304185
 20
926.4413183703096
 30
0.0
 11
950.86947304185
 21
944.941318370315
 31
0.0
  0
LINE
  5
F86
330
2
100
AcDbEntity
  8
0
100
AcDbLine
 10
825.86947304185
 20
935.4500449058164
 30
0.0
 11
825.86947304185
 21
926.4413183703096
 31
0.0
  0
LINE
  5
F87
330
2
100
AcDbEntity
  8
0
100
AcDbLine
 10
829.86947304185
 20
935.4500449058164
 30
0.0
 11
829.86947304185
 21
926.4413183703096
 31
0.0
  0
LINE
  5
F88
330
2
100
AcDbEntity
  8
0
100
AcDbLine
 10
855.7012778779261
 20
944.9587714413123
 30
0.0
 11
855.7012778779261
 21
926.4413183703096
 31
0.0
  0
LINE
  5
F89
330
2
100
AcDbEntity
  8
0
100
AcDbLine
 10
940.8694730418501
 20
944.941318370315
 30
0.0
 11
940.8694730418501
 21
926.4413183703096
 31
0.0
  0
LINE
  5
F8A
330
2
100
AcDbEntity
  8
0
100
AcDbLine
 10
936.86947304185
 20
944.941318370315
 30
0.0
 11
936.86947304185
 21
926.4413183703096
 31
0.0
  0
LINE
  5
F8B
330
2
100
AcDbEntity
  8
0
100
AcDbLine
 10
911.0376682057738
 20
944.9587714413123
 30
0.0
 11
911.0376682057738
 21
926.4413183703096
 31
0.0
  0
LINE
  5
F8C
330
2
100
AcDbEntity
  8
0
100
AcDbLine
 10
988.735498445636
 20
946.4413183703186
 30
0.0
 11
1000.003447638066
 21
946.4413183703186
 31
0.0
  0
LINE
  5
F8D
330
2
100
AcDbEntity
  8
0
100
AcDbLine
 10
987.86947304185
 20
936.4413183703186
 30
0.0
 11
1000.86947304185
 21
936.4413183703186
 31
0.0
  0
LINE
  5
F8E
330
2
100
AcDbEntity
  8
0
100
AcDbLine
 10
987.86947304185
 20
938.4413183703186
 30
0.0
 11
1000.86947304185
 21
938.4413183703186
 31
0.0
  0
LINE
  5
F8F
330
2
100
AcDbEntity
  8
0
100
AcDbLine
 10
1000.86947304185
 20
945.9413183703187
 30
0.0
 11
1000.003447638066
 21
946.4413183703186
 31
0.0
  0
LINE
  5
F90
330
2
100
AcDbEntity
  8
0
100
AcDbLine
 10
1000.86947304185
 20
938.4413183703186
 30
0.0
 11
1000.86947304185
 21
945.9413183703187
 31
0.0
  0
LINE
  5
F91
330
2
100
AcDbEntity
  8
0
100
AcDbLine
 10
987.86947304185
 20
945.9413183703187
 30
0.0
 11
988.735498445634
 21
946.4413183703186
 31
0.0
  0
LINE
  5
F92
330
2
100
AcDbEntity
  8
0
100
AcDbLine
 10
987.86947304185
 20
938.4413183703186
 30
0.0
 11
987.86947304185
 21
945.9413183703187
 31
0.0
  0
LINE
  5
F93
330
2
100
AcDbEntity
  8
0
100
AcDbLine
 10
987.86947304185
 20
945.9413183703187
 30
0.0
 11
1000.86947304185
 21
945.9413183703187
 31
0.0
  0
LINE
  5
F94
330
2
100
AcDbEntity
  8
0
100
AcDbLine
 10
820.2354984456341
 20
946.4413183703186
 30
0.0
 11
831.5034476380642
 21
946.4413183703186
 31
0.0
  0
LINE
  5
F95
330
2
100
AcDbEntity
  8
0
100
AcDbLine
 10
819.3694730418481
 20
936.4413183703186
 30
0.0
 11
832.3694730418482
 21
936.4413183703186
 31
0.0
  0
LINE
  5
F96
330
2
100
AcDbEntity
  8
0
100
AcDbLine
 10
819.3694730418481
 20
938.4413183703186
 30
0.0
 11
832.3694730418482
 21
938.4413183703186
 31
0.0
  0
LINE
  5
F97
330
2
100
AcDbEntity
  8
0
100
AcDbLine
 10
832.3694730418482
 20
945.9413183703187
 30
0.0
 11
831.5034476380642
 21
946.4413183703186
 31
0.0
  0
LINE
  5
F98
330
2
100
AcDbEntity
  8
0
100
AcDbLine
 10
832.3694730418482
 20
938.4413183703186
 30
0.0
 11
832.3694730418482
 21
945.9413183703187
 31
0.0
  0
LINE
  5
F99
330
2
100
AcDbEntity
  8
0
100
AcDbLine
 10
819.3694730418481
 20
945.9413183703187
 30
0.0
 11
820.2354984456341
 21
946.4413183703186
 31
0.0
  0
LINE
  5
F9A
330
2
100
AcDbEntity
  8
0
100
AcDbLine
 10
819.3694730418481
 20
938.4413183703186
 30
0.0
 11
819.3694730418481
 21
945.9413183703187
 31
0.0
  0
LINE
  5
F9B
330
2
100
AcDbEntity
  8
0
100
AcDbLine
 10
819.3694730418481
 20
945.9413183703187
 30
0.0
 11
832.3694730418482
 21
945.9413183703187
 31
0.0
  0
ARC
  5
F9C
330
2
100
AcDbEntity
  8
0
100
AcDbCircle
 10
883.3694730418518
 20
535.2427203907778
 30
0.0
 40
16.0
100
AcDbArc
 50
108.2099568642693
 51
71.79004313573061
  0
LINE
  5
F9D
330
2
100
AcDbEntity
  8
0
100
AcDbLine
 10
878.3694730418519
 20
554.542723390778
 30
0.0
 11
878.3694730418519
 21
550.4414045443486
 31
0.0
  0
LINE
  5
F9E
330
2
100
AcDbEntity
  8
0
100
AcDbLine
 10
888.3694730418518
 20
554.542723390778
 30
0.0
 11
888.3694730418518
 21
550.4414045443486
 31
0.0
  0
LINE
  5
F9F
330
2
100
AcDbEntity
  8
0
100
AcDbLine
 10
878.3694730418519
 20
554.542723390778
 30
0.0
 11
888.3694730418518
 21
554.542723390778
 31
0.0
  0
CIRCLE
  5
FA0
330
2
100
AcDbEntity
  8
0
100
AcDbCircle
 10
883.3694730418518
 20
535.2427203907778
 30
0.0
 40
24.49999999582681
  0
ARC
  5
FA1
330
2
100
AcDbEntity
  8
0
100
AcDbCircle
 10
883.3694730418518
 20
535.2427203907778
 30
0.0
 40
17.15469399582682
100
AcDbArc
 50
106.9457086469731
 51
73.0542913530269
  0
LINE
  5
FA2
330
2
100
AcDbEntity
  8
CENTER
100
AcDbLine
 10
635.224758848224
 20
126.0366368218324
 30
0.0
 11
635.224758848224
 21
290.4083023408988
 31
0.0
  0
LINE
  5
FA3
330
2
100
AcDbEntity
  8
0
100
AcDbLine
 10
707.2247555194134
 20
166.6538471308931
 30
0.0
 11
707.2247555194134
 21
183.7224695812792
 31
0.0
  0
LINE
  5
FA4
330
2
100
AcDbEntity
  8
0
100
AcDbLine
 10
707.2247555194134
 20
232.7224695812792
 30
0.0
 11
707.2247555194134
 21
249.7910920316653
 31
0.0
  0
LINE
  5
FA5
330
2
100
AcDbEntity
  8
0
100
AcDbLine
 10
693.2247555194134
 20
148.2224695813647
 30
0.0
 11
693.2247555194134
 21
185.1048910078216
 31
0.0
  0
LINE
  5
FA6
330
2
100
AcDbEntity
  8
0
100
AcDbLine
 10
693.2247555194134
 20
231.3400481547369
 30
0.0
 11
693.2247555194134
 21
268.2224695813665
 31
0.0
  0
LINE
  5
FA7
330
2
100
AcDbEntity
  8
CENTER
100
AcDbLine
 10
551.2247555194139
 20
208.2224695812792
 30
0.0
 11
735.2247555194134
 21
208.2224695812792
 31
0.0
  0
LINE
  5
FA8
330
2
100
AcDbEntity
  8
0
100
AcDbLine
 10
599.2247588482236
 20
140.7224695813647
 30
0.0
 11
688.2247555194133
 21
141.4991607856927
 31
0.0
  0
LINE
  5
FA9
330
2
100
AcDbEntity
  8
0
100
AcDbLine
 10
688.2247555194133
 20
148.2224695813647
 30
0.0
 11
693.2247555194134
 21
148.2224695813647
 31
0.0
  0
LINE
  5
FAA
330
2
100
AcDbEntity
  8
0
100
AcDbLine
 10
688.2247555194152
 20
274.9457783770385
 30
0.0
 11
599.2247588482236
 21
275.7224695813665
 31
0.0
  0
LINE
  5
FAB
330
2
100
AcDbEntity
  8
0
100
AcDbLine
 10
688.2247555194133
 20
268.2224695813665
 30
0.0
 11
693.2247555194134
 21
268.2224695813665
 31
0.0
  0
LINE
  5
FAC
330
2
100
AcDbEntity
  8
0
100
AcDbLine
 10
688.2247555194152
 20
274.9457783770385
 30
0.0
 11
688.2247555194152
 21
229.1743739192543
 31
0.0
  0
LINE
  5
FAD
330
2
100
AcDbEntity
  8
0
100
AcDbLine
 10
688.2247555194152
 20
187.2705652433041
 30
0.0
 11
688.2247555194133
 21
141.4991607856927
 31
0.0
  0
LINE
  5
FAE
330
2
100
AcDbEntity
  8
0
100
AcDbLine
 10
705.2945545128185
 20
164.6550654768552
 30
0.0
 11
695.1549565260083
 21
164.3009829128177
 31
0.0
  0
LINE
  5
FAF
330
2
100
AcDbEntity
  8
0
100
AcDbLine
 10
705.2945545128185
 20
251.7898736857032
 30
0.0
 11
695.1549565260083
 21
252.1439562497389
 31
0.0
  0
ARC
  5
FB0
330
2
100
AcDbEntity
  8
0
100
AcDbCircle
 10
695.2247555194134
 20
254.1427379037786
 30
0.0
 40
2.0
100
AcDbArc
 50
180.0
 51
267.9999999999963
  0
ARC
  5
FB1
330
2
100
AcDbEntity
  8
0
100
AcDbCircle
 10
695.2247555194134
 20
162.3022012587798
 30
0.0
 40
2.0
100
AcDbArc
 50
92.00000000000365
 51
180.0
  0
ARC
  5
FB2
330
2
100
AcDbEntity
  8
0
100
AcDbCircle
 10
705.2247555194134
 20
166.6538471308931
 30
0.0
 40
2.0
100
AcDbArc
 50
272.0000000000036
 51
0.0
  0
ARC
  5
FB3
330
2
100
AcDbEntity
  8
0
100
AcDbCircle
 10
705.2247555194134
 20
249.7910920316653
 30
0.0
 40
2.0
100
AcDbArc
 50
0.0
 51
87.99999999999636
  0
LINE
  5
FB4
330
2
100
AcDbEntity
  8
0
100
AcDbLine
 10
688.2247555194133
 20
265.7224695815411
 30
0.0
 11
599.2247588482236
 21
265.7224695815411
 31
0.0
  0
LINE
  5
FB5
330
2
100
AcDbEntity
  8
0
100
AcDbLine
 10
688.2247555194133
 20
261.7224695815412
 30
0.0
 11
599.2247588482236
 21
261.7224695815412
 31
0.0
  0
LINE
  5
FB6
330
2
100
AcDbEntity
  8
0
100
AcDbLine
 10
688.2247555194133
 20
235.8906647454468
 30
0.0
 11
599.2247588482236
 21
235.8906647454468
 31
0.0
  0
LINE
  5
FB7
330
2
100
AcDbEntity
  8
0
100
AcDbLine
 10
688.2247555194133
 20
150.7224695810173
 30
0.0
 11
599.2247588482236
 21
150.7224695810173
 31
0.0
  0
LINE
  5
FB8
330
2
100
AcDbEntity
  8
0
100
AcDbLine
 10
688.2247555194133
 20
154.7224695810173
 30
0.0
 11
599.2247588482236
 21
154.7224695810173
 31
0.0
  0
LINE
  5
FB9
330
2
100
AcDbEntity
  8
0
100
AcDbLine
 10
688.2247555194133
 20
180.5542744171098
 30
0.0
 11
599.2247588482236
 21
180.5542744171098
 31
0.0
  0
ARC
  5
FBA
330
2
100
AcDbEntity
  8
0
100
AcDbCircle
 10
580.7247588482235
 20
273.5609463703776
 30
0.0
 40
2.0
100
AcDbArc
 50
90.49999999999155
 51
180.0
  0
LINE
  5
FBB
330
2
100
AcDbEntity
  8
0
100
AcDbLine
 10
578.1389724105969
 20
262.6366831436525
 30
0.0
 11
577.3105452858502
 21
261.8082560189059
 31
0.0
  0
LINE
  5
FBC
330
2
100
AcDbEntity
  8
0
100
AcDbLine
 10
568.2247588482235
 20
250.1451193120892
 30
0.0
 11
568.2247588482235
 21
232.7224695812792
 31
0.0
  0
LINE
  5
FBD
330
2
100
AcDbEntity
  8
0
100
AcDbLine
 10
568.2247588482235
 20
183.7224695812792
 30
0.0
 11
568.2247588482245
 21
166.2998198504674
 31
0.0
  0
LINE
  5
FBE
330
2
100
AcDbEntity
  8
0
100
AcDbLine
 10
579.2247588482235
 20
244.6177258950019
 30
0.0
 11
579.2247588482235
 21
232.7224695812792
 31
0.0
  0
LINE
  5
FBF
330
2
100
AcDbEntity
  8
0
100
AcDbLine
 10
579.2247588482235
 20
183.7224695812792
 30
0.0
 11
579.2247588482235
 21
171.8272132675565
 31
0.0
  0
LINE
  5
FC0
330
2
100
AcDbEntity
  8
0
100
AcDbLine
 10
569.2247588482236
 20
244.2224695812792
 30
0.0
 11
569.2247588482236
 21
232.7224695812792
 31
0.0
  0
LINE
  5
FC1
330
2
100
AcDbEntity
  8
0
100
AcDbLine
 10
569.2247588482236
 20
183.7224695812792
 30
0.0
 11
569.2247588482236
 21
172.2224695812792
 31
0.0
  0
LINE
  5
FC2
330
2
100
AcDbEntity
  8
0
100
AcDbLine
 10
576.7247588482235
 20
253.2224695812792
 30
0.0
 11
576.2247588482235
 21
252.7224695812792
 31
0.0
  0
LINE
  5
FC3
330
2
100
AcDbEntity
  8
0
100
AcDbLine
 10
579.2247588482235
 20
244.2224695812792
 30
0.0
 11
569.2247588482236
 21
244.2224695812792
 31
0.0
  0
LINE
  5
FC4
330
2
100
AcDbEntity
  8
0
100
AcDbLine
 10
572.7247588482235
 20
250.5224695812785
 30
0.0
 11
572.9247588482234
 21
250.7224695812792
 31
0.0
  0
LINE
  5
FC5
330
2
100
AcDbEntity
  8
0
100
AcDbLine
 10
570.9247588482234
 20
250.0224695812785
 30
0.0
 11
572.5247588482237
 21
250.0224695812785
 31
0.0
  0
LINE
  5
FC6
330
2
100
AcDbEntity
  8
0
100
AcDbLine
 10
569.2247588482236
 20
250.7224695812792
 30
0.0
 11
568.2247588482235
 21
250.1451193120892
 31
0.0
  0
LINE
  5
FC7
330
2
100
AcDbEntity
  8
0
100
AcDbLine
 10
569.2247588482236
 20
250.7224695812792
 30
0.0
 11
570.5247588482238
 21
250.7224695812792
 31
0.0
  0
LINE
  5
FC8
330
2
100
AcDbEntity
  8
0
100
AcDbLine
 10
572.9247588482234
 20
250.7224695812792
 30
0.0
 11
576.2247588482235
 21
250.7224695812792
 31
0.0
  0
LINE
  5
FC9
330
2
100
AcDbEntity
  8
0
100
AcDbLine
 10
569.2247588482254
 20
244.2224695812792
 30
0.0
 11
568.2247588482254
 21
244.7998198504692
 31
0.0
  0
LINE
  5
FCA
330
2
100
AcDbEntity
  8
0
100
AcDbLine
 10
576.724758848219
 20
156.0508967060259
 30
0.0
 11
576.7247588482208
 21
169.884817296107
 31
0.0
  0
LINE
  5
FCB
330
2
100
AcDbEntity
  8
0
100
AcDbLine
 10
576.7247588482299
 20
246.5601218664496
 30
0.0
 11
576.7247588482318
 21
260.3940424565326
 31
0.0
  0
LINE
  5
FCC
330
2
100
AcDbEntity
  8
0
100
AcDbLine
 10
576.7247588482199
 20
163.2224695812792
 30
0.0
 11
576.2247588482199
 21
163.7224695812792
 31
0.0
  0
LINE
  5
FCD
330
2
100
AcDbEntity
  8
0
100
AcDbLine
 10
579.2247588482235
 20
172.2224695812792
 30
0.0
 11
569.2247588482236
 21
172.2224695812792
 31
0.0
  0
LINE
  5
FCE
330
2
100
AcDbEntity
  8
0
100
AcDbLine
 10
581.0579898267246
 20
171.7792084249349
 30
0.0
 11
579.2247588482235
 21
171.8272132675565
 31
0.0
  0
LINE
  5
FCF
330
2
100
AcDbEntity
  8
0
100
AcDbLine
 10
569.2247588482236
 20
172.2224695812792
 30
0.0
 11
568.2247588482235
 21
171.6451193120892
 31
0.0
  0
LINE
  5
FD0
330
2
100
AcDbEntity
  8
0
100
AcDbLine
 10
572.7247588482199
 20
165.9224695812781
 30
0.0
 11
572.7247588482199
 21
169.6571095236859
 31
0.0
  0
LINE
  5
FD1
330
2
100
AcDbEntity
  8
0
100
AcDbLine
 10
572.7247588482199
 20
246.7878296388726
 30
0.0
 11
572.7247588482199
 21
250.5224695812748
 31
0.0
  0
LINE
  5
FD2
330
2
100
AcDbEntity
  8
0
100
AcDbLine
 10
572.7247588482199
 20
165.9224695812781
 30
0.0
 11
572.9247588482198
 21
165.7224695812792
 31
0.0
  0
LINE
  5
FD3
330
2
100
AcDbEntity
  8
0
100
AcDbLine
 10
570.7247588482199
 20
165.9224695812781
 30
0.0
 11
570.7247588482172
 21
169.4422047428406
 31
0.0
  0
LINE
  5
FD4
330
2
100
AcDbEntity
  8
0
100
AcDbLine
 10
570.7247588481581
 20
247.0027344197251
 30
0.0
 11
570.7247588481553
 21
250.5224695812785
 31
0.0
  0
LINE
  5
FD5
330
2
100
AcDbEntity
  8
0
100
AcDbLine
 10
569.2247588482199
 20
165.7224695812792
 30
0.0
 11
570.5247588482192
 21
165.7224695812792
 31
0.0
  0
LINE
  5
FD6
330
2
100
AcDbEntity
  8
0
100
AcDbLine
 10
570.9247588482197
 20
166.4224695812781
 30
0.0
 11
572.5247588482192
 21
166.4224695812781
 31
0.0
  0
LINE
  5
FD7
330
2
100
AcDbEntity
  8
0
100
AcDbLine
 10
569.2247588482199
 20
165.7224695812792
 30
0.0
 11
568.2247588482199
 21
166.2998198504692
 31
0.0
  0
LINE
  5
FD8
330
2
100
AcDbEntity
  8
0
100
AcDbLine
 10
576.2247588482199
 20
163.7224695812792
 30
0.0
 11
576.2247588482199
 21
169.8445767456951
 31
0.0
  0
LINE
  5
FD9
330
2
100
AcDbEntity
  8
0
100
AcDbLine
 10
576.2247588482199
 20
246.6003624168633
 30
0.0
 11
576.2247588482199
 21
252.7224695812756
 31
0.0
  0
LINE
  5
FDA
330
2
100
AcDbEntity
  8
0
100
AcDbLine
 10
572.9247588482198
 20
165.7224695812792
 30
0.0
 11
576.2247588482199
 21
165.7224695812792
 31
0.0
  0
LINE
  5
FDB
330
2
100
AcDbEntity
  8
0
100
AcDbLine
 10
578.724758848219
 20
142.883992792179
 30
0.0
 11
578.7247588482199
 21
170.2263021873141
 31
0.0
  0
LINE
  5
FDC
330
2
100
AcDbEntity
  8
0
100
AcDbLine
 10
578.7247588482199
 20
246.2186369752444
 30
0.0
 11
578.724758848219
 21
273.5609463703776
 31
0.0
  0
LINE
  5
FDD
330
2
100
AcDbEntity
  8
0
100
AcDbLine
 10
578.1389724105923
 20
153.8082560189059
 30
0.0
 11
577.3105452858457
 21
154.6366831436525
 31
0.0
  0
LINE
  5
FDE
330
2
100
AcDbEntity
  8
0
100
AcDbLine
 10
580.7073057772271
 20
275.5608702165072
 30
0.0
 11
599.2247588482236
 21
275.7224695812792
 31
0.0
  0
LINE
  5
FDF
330
2
100
AcDbEntity
  8
0
100
AcDbLine
 10
581.0579898267246
 20
244.6657307376235
 30
0.0
 11
579.2247588482235
 21
244.6177258950019
 31
0.0
  0
ARC
  5
FE0
330
2
100
AcDbEntity
  8
0
100
AcDbCircle
 10
578.724758848219
 20
156.0508967060259
 30
0.0
 40
2.0
100
AcDbArc
 50
180.0
 51
225.0000000000091
  0
ARC
  5
FE1
330
2
100
AcDbEntity
  8
0
100
AcDbCircle
 10
576.724758848219
 20
152.3940424565325
 30
0.0
 40
2.0
100
AcDbArc
 50
0.0
 51
45.00000000000921
  0
ARC
  5
FE2
330
2
100
AcDbEntity
  8
0
100
AcDbCircle
 10
578.7247588482236
 20
260.3940424565326
 30
0.0
 40
2.0
100
AcDbArc
 50
134.9999999999907
 51
180.0
  0
ARC
  5
FE3
330
2
100
AcDbEntity
  8
0
100
AcDbCircle
 10
576.7247588482235
 20
264.0508967060259
 30
0.0
 40
2.0
100
AcDbArc
 50
314.9999999999907
 51
0.0
  0
ARC
  5
FE4
330
2
100
AcDbEntity
  8
0
100
AcDbCircle
 10
570.5247588482238
 20
250.5224695812785
 30
0.0
 40
0.2
100
AcDbArc
 50
0.0
 51
90.0
  0
ARC
  5
FE5
330
2
100
AcDbEntity
  8
0
100
AcDbCircle
 10
570.9247588482234
 20
250.2224695812792
 30
0.0
 40
0.2
100
AcDbArc
 50
180.0
 51
270.0
  0
ARC
  5
FE6
330
2
100
AcDbEntity
  8
0
100
AcDbCircle
 10
572.5247588482237
 20
250.2224695812792
 30
0.0
 40
0.2
100
AcDbArc
 50
270.0
 51
0.0
  0
ARC
  5
FE7
330
2
100
AcDbEntity
  8
0
100
AcDbCircle
 10
570.5247588482192
 20
165.9224695812781
 30
0.0
 40
0.2
100
AcDbArc
 50
270.0
 51
0.0
  0
ARC
  5
FE8
330
2
100
AcDbEntity
  8
0
100
AcDbCircle
 10
570.9247588482197
 20
166.2224695812792
 30
0.0
 40
0.2
100
AcDbArc
 50
90.0
 51
180.0
  0
ARC
  5
FE9
330
2
100
AcDbEntity
  8
0
100
AcDbCircle
 10
572.5247588482192
 20
166.2224695812792
 30
0.0
 40
0.2
100
AcDbArc
 50
0.0
 51
90.0
  0
LINE
  5
FEA
330
2
100
AcDbEntity
  8
0
100
AcDbLine
 10
569.2247588482236
 20
250.7224695812792
 30
0.0
 11
569.2247588482236
 21
247.2240363902337
 31
0.0
  0
LINE
  5
FEB
330
2
100
AcDbEntity
  8
0
100
AcDbLine
 10
569.2247588482199
 20
169.2209027723247
 30
0.0
 11
569.2247588482199
 21
165.7224695812792
 31
0.0
  0
LINE
  5
FEC
330
2
100
AcDbEntity
  8
0
100
AcDbLine
 10
588.7291221159633
 20
257.218144225043
 30
0.0
 11
580.7073057772217
 21
257.148138894413
 31
0.0
  0
LINE
  5
FED
330
2
100
AcDbEntity
  8
0
100
AcDbLine
 10
589.2247588482145
 20
257.7181251865777
 30
0.0
 11
589.2247588482145
 21
274.6438896927766
 31
0.0
  0
ARC
  5
FEE
330
2
100
AcDbEntity
  8
0
100
AcDbCircle
 10
588.7247588482145
 20
257.7181251865777
 30
0.0
 40
0.5
100
AcDbArc
 50
270.5000000000175
 51
0.0
  0
ARC
  5
FEF
330
2
100
AcDbEntity
  8
0
100
AcDbCircle
 10
590.2247588482144
 20
274.6438896927766
 30
0.0
 40
1.0
100
AcDbArc
 50
90.50000000001761
 51
180.0
  0
ARC
  5
FF0
330
2
100
AcDbEntity
  8
0
100
AcDbCircle
 10
580.724758848219
 20
255.1482150482834
 30
0.0
 40
2.0
100
AcDbArc
 50
90.49999999999155
 51
180.0
  0
LINE
  5
FF1
330
2
100
AcDbEntity
  8
0
100
AcDbLine
 10
590.2160323127167
 20
265.7224695812792
 30
0.0
 11
599.2247588482236
 21
265.7224695812792
 31
0.0
  0
LINE
  5
FF2
330
2
100
AcDbEntity
  8
0
100
AcDbLine
 10
590.2160323127167
 20
261.7224695812792
 30
0.0
 11
599.2247588482236
 21
261.7224695812792
 31
0.0
  0
LINE
  5
FF3
330
2
100
AcDbEntity
  8
0
100
AcDbLine
 10
582.1049533104974
 20
235.8906647454468
 30
0.0
 11
599.2247588482236
 21
235.8906647454468
 31
0.0
  0
LINE
  5
FF4
330
2
100
AcDbEntity
  8
0
100
AcDbLine
 10
590.2160323127167
 20
150.7224695812792
 30
0.0
 11
599.2247588482236
 21
150.7224695812792
 31
0.0
  0
LINE
  5
FF5
330
2
100
AcDbEntity
  8
0
100
AcDbLine
 10
590.2160323127167
 20
154.7224695812792
 30
0.0
 11
599.2247588482236
 21
154.7224695812792
 31
0.0
  0
LINE
  5
FF6
330
2
100
AcDbEntity
  8
0
100
AcDbLine
 10
582.1049533104975
 20
180.5542744171098
 30
0.0
 11
599.2247588482236
 21
180.5542744171098
 31
0.0
  0
ARC
  5
FF7
330
2
100
AcDbEntity
  8
0
100
AcDbCircle
 10
580.7247588482235
 20
142.883992792179
 30
0.0
 40
2.0
100
AcDbArc
 50
180.0
 51
269.5000000000084
  0
LINE
  5
FF8
330
2
100
AcDbEntity
  8
0
100
AcDbLine
 10
580.7073057772271
 20
140.8840689460512
 30
0.0
 11
599.2247588482236
 21
140.7224695812792
 31
0.0
  0
ARC
  5
FF9
330
2
100
AcDbEntity
  8
0
100
AcDbCircle
 10
590.2247588482144
 20
141.8010494697819
 30
0.0
 40
1.0
100
AcDbArc
 50
180.0
 51
269.4999999999824
  0
LINE
  5
FFA
330
2
100
AcDbEntity
  8
0
100
AcDbLine
 10
588.7291221159633
 20
159.2267949375154
 30
0.0
 11
580.7073057772217
 21
159.2968002681454
 31
0.0
  0
LINE
  5
FFB
330
2
100
AcDbEntity
  8
0
100
AcDbLine
 10
589.2247588482145
 20
158.7268139759808
 30
0.0
 11
589.2247588482145
 21
141.8010494697819
 31
0.0
  0
ARC
  5
FFC
330
2
100
AcDbEntity
  8
0
100
AcDbCircle
 10
588.7247588482145
 20
158.7268139759808
 30
0.0
 40
0.5
100
AcDbArc
 50
0.0
 51
89.49999999998238
  0
ARC
  5
FFD
330
2
100
AcDbEntity
  8
0
100
AcDbCircle
 10
580.724758848219
 20
161.2967241142732
 30
0.0
 40
2.0
100
AcDbArc
 50
180.0
 51
269.5000000000084
  0
LINE
  5
FFE
330
2
100
AcDbEntity
  8
0
100
AcDbLine
 10
599.2247588482236
 20
275.7224695812792
 30
0.0
 11
599.2247588482236
 21
230.2396679639778
 31
0.0
  0
LINE
  5
FFF
330
2
100
AcDbEntity
  8
0
100
AcDbLine
 10
599.2247588482236
 20
186.2052711985807
 30
0.0
 11
599.2247588482236
 21
140.7224695812792
 31
0.0
  0
LINE
  5
1000
330
2
100
AcDbEntity
  8
0
100
AcDbLine
 10
579.2247588482145
 20
271.3564441774952
 30
0.0
 11
579.2247588482145
 21
260.0884949850651
 31
0.0
  0
LINE
  5
1001
330
2
100
AcDbEntity
  8
0
100
AcDbLine
 10
589.2247588482145
 20
272.222469581281
 30
0.0
 11
589.2247588482145
 21
259.222469581281
 31
0.0
  0
LINE
  5
1002
330
2
100
AcDbEntity
  8
0
100
AcDbLine
 10
587.2247588482145
 20
272.222469581281
 30
0.0
 11
587.2247588482154
 21
259.222469581281
 31
0.0
  0
LINE
  5
1003
330
2
100
AcDbEntity
  8
0
100
AcDbLine
 10
579.7247588482145
 20
259.222469581281
 30
0.0
 11
579.2247588482145
 21
260.0884949850651
 31
0.0
  0
LINE
  5
1004
330
2
100
AcDbEntity
  8
0
100
AcDbLine
 10
587.2247588482145
 20
259.222469581281
 30
0.0
 11
579.7247588482145
 21
259.222469581281
 31
0.0
  0
LINE
  5
1005
330
2
100
AcDbEntity
  8
0
100
AcDbLine
 10
579.7247588482145
 20
272.222469581281
 30
0.0
 11
579.2247588482145
 21
271.3564441774952
 31
0.0
  0
LINE
  5
1006
330
2
100
AcDbEntity
  8
0
100
AcDbLine
 10
587.2247588482145
 20
272.222469581281
 30
0.0
 11
579.7247588482145
 21
272.222469581281
 31
0.0
  0
LINE
  5
1007
330
2
100
AcDbEntity
  8
0
100
AcDbLine
 10
579.7247588482145
 20
272.222469581281
 30
0.0
 11
579.7247588482145
 21
259.222469581281
 31
0.0
  0
LINE
  5
1008
330
2
100
AcDbEntity
  8
0
100
AcDbLine
 10
579.2247588482145
 20
145.0884949850633
 30
0.0
 11
579.2247588482145
 21
156.3564441774933
 31
0.0
  0
LINE
  5
1009
330
2
100
AcDbEntity
  8
0
100
AcDbLine
 10
587.2247588482145
 20
144.2224695812774
 30
0.0
 11
587.2247588482154
 21
157.2224695812774
 31
0.0
  0
LINE
  5
100A
330
2
100
AcDbEntity
  8
0
100
AcDbLine
 10
579.7247588482145
 20
157.2224695812774
 30
0.0
 11
579.2247588482145
 21
156.3564441774933
 31
0.0
  0
LINE
  5
100B
330
2
100
AcDbEntity
  8
0
100
AcDbLine
 10
587.2247588482145
 20
157.2224695812774
 30
0.0
 11
579.7247588482145
 21
157.2224695812774
 31
0.0
  0
LINE
  5
100C
330
2
100
AcDbEntity
  8
0
100
AcDbLine
 10
579.7247588482145
 20
144.2224695812774
 30
0.0
 11
579.2247588482145
 21
145.0884949850615
 31
0.0
  0
LINE
  5
100D
330
2
100
AcDbEntity
  8
0
100
AcDbLine
 10
587.2247588482145
 20
144.2224695812774
 30
0.0
 11
579.7247588482145
 21
144.2224695812774
 31
0.0
  0
LINE
  5
100E
330
2
100
AcDbEntity
  8
0
100
AcDbLine
 10
579.7247588482145
 20
144.2224695812774
 30
0.0
 11
579.7247588482145
 21
157.2224695812774
 31
0.0
  0
LINE
  5
100F
330
2
100
AcDbEntity
  8
0
100
AcDbLine
 10
696.2247555194133
 20
172.0105147185413
 30
0.0
 11
694.6381082735168
 21
171.9689668982018
 31
0.0
  0
LINE
  5
1010
330
2
100
AcDbEntity
  8
0
100
AcDbLine
 10
706.2247555194134
 20
172.2224695812792
 30
0.0
 11
706.2247555194134
 21
183.7224695812792
 31
0.0
  0
LINE
  5
1011
330
2
100
AcDbEntity
  8
0
100
AcDbLine
 10
706.2247555194134
 20
232.7224695812792
 30
0.0
 11
706.2247555194134
 21
244.2224695812792
 31
0.0
  0
LINE
  5
1012
330
2
100
AcDbEntity
  8
0
100
AcDbLine
 10
696.2247555194133
 20
172.0105147185413
 30
0.0
 11
696.2247555194133
 21
183.7224695812792
 31
0.0
  0
LINE
  5
1013
330
2
100
AcDbEntity
  8
0
100
AcDbLine
 10
696.2247555194133
 20
232.7224695812792
 30
0.0
 11
696.2247555194133
 21
244.4344244440171
 31
0.0
  0
LINE
  5
1014
330
2
100
AcDbEntity
  8
0
100
AcDbLine
 10
706.2247555194134
 20
172.2224695812792
 30
0.0
 11
696.2247555194133
 21
172.2224695812792
 31
0.0
  0
LINE
  5
1015
330
2
100
AcDbEntity
  8
0
100
AcDbLine
 10
706.2247555194134
 20
172.2224695812792
 30
0.0
 11
707.2247555194134
 21
171.6451193120892
 31
0.0
  0
LINE
  5
1016
330
2
100
AcDbEntity
  8
0
100
AcDbLine
 10
706.2247555194134
 20
244.2224695812792
 30
0.0
 11
696.2247555194133
 21
244.2224695812792
 31
0.0
  0
LINE
  5
1017
330
2
100
AcDbEntity
  8
0
100
AcDbLine
 10
706.2247555194134
 20
244.2224695812792
 30
0.0
 11
707.2247555194134
 21
244.7998198504692
 31
0.0
  0
LINE
  5
1018
330
2
100
AcDbEntity
  8
0
100
AcDbLine
 10
696.2247555194133
 20
244.4344244440171
 30
0.0
 11
694.6381082735168
 21
244.4759722643566
 31
0.0
  0
LINE
  5
1019
330
2
100
AcDbEntity
  8
0
100
AcDbLine
 10
677.2247555194134
 20
224.7224695812792
 30
0.0
 11
601.2247555194139
 21
224.7224695812792
 31
0.0
  0
LINE
  5
101A
330
2
100
AcDbEntity
  8
0
100
AcDbLine
 10
720.2247555194134
 20
227.5224725812795
 30
0.0
 11
566.2247555194138
 21
227.5224725812795
 31
0.0
  0
LINE
  5
101B
330
2
100
AcDbEntity
  8
0
100
AcDbLine
 10
720.2247555194134
 20
232.7224695812792
 30
0.0
 11
720.2247555194134
 21
183.7224695812792
 31
0.0
  0
LINE
  5
101C
330
2
100
AcDbEntity
  8
0
100
AcDbLine
 10
720.2247555194134
 20
183.7224695812792
 30
0.0
 11
693.7669282770619
 21
183.7224695812792
 31
0.0
  0
LINE
  5
101D
330
2
100
AcDbEntity
  8
0
100
AcDbLine
 10
716.2245924977304
 20
191.7225370967816
 30
0.0
 11
707.2245924971902
 21
191.722402063885
 31
0.0
  0
LINE
  5
101E
330
2
100
AcDbEntity
  8
0
100
AcDbLine
 10
716.2247045415223
 20
224.7224695812792
 30
0.0
 11
707.2247045415146
 21
224.722469581279
 31
0.0
  0
LINE
  5
101F
330
2
100
AcDbEntity
  8
0
100
AcDbLine
 10
718.224822602462
 20
192.2224619147755
 30
0.0
 11
718.224688436362
 21
224.2224695812792
 31
0.0
  0
LINE
  5
1020
330
2
100
AcDbEntity
  8
CENTER
100
AcDbLine
 10
711.7246485194136
 20
215.4648319983598
 30
0.0
 11
711.7246485194136
 21
241.8802599489054
 31
0.0
  0
LINE
  5
1021
330
2
100
AcDbEntity
  8
0
100
AcDbLine
 10
716.2247045415223
 20
224.7224695812792
 30
0.0
 11
716.2245924977304
 21
191.7225370967816
 31
0.0
  0
LINE
  5
1022
330
2
100
AcDbEntity
  8
0
100
AcDbLine
 10
718.224822602462
 20
192.2224619147755
 30
0.0
 11
716.224715602624
 21
192.2223775814081
 31
0.0
  0
LINE
  5
1023
330
2
100
AcDbEntity
  8
0
100
AcDbLine
 10
718.224822602462
 20
192.2224619147755
 30
0.0
 11
720.2248270287545
 21
191.0677755814167
 31
0.0
  0
LINE
  5
1024
330
2
100
AcDbEntity
  8
0
100
AcDbLine
 10
718.2247555194134
 20
224.2224695812792
 30
0.0
 11
716.2246485194136
 21
224.2224695812792
 31
0.0
  0
LINE
  5
1025
330
2
100
AcDbEntity
  8
0
100
AcDbLine
 10
718.2247555194134
 20
224.2224695812792
 30
0.0
 11
720.2247555194134
 21
225.37716358128
 31
0.0
  0
LINE
  5
1026
330
2
100
AcDbEntity
  8
0
100
AcDbLine
 10
694.5747555194137
 20
191.3723775812786
 30
0.0
 11
694.5747555194137
 21
225.0724695812796
 31
0.0
  0
LINE
  5
1027
330
2
100
AcDbEntity
  8
0
100
AcDbLine
 10
693.2247555194134
 20
191.3723775812786
 30
0.0
 11
693.2247555194134
 21
225.0724695812796
 31
0.0
  0
LINE
  5
1028
330
2
100
AcDbEntity
  8
0
100
AcDbLine
 10
707.2245924971902
 20
191.722402063885
 30
0.0
 11
707.2247045415146
 21
224.722469581279
 31
0.0
  0
LINE
  5
1029
330
2
100
AcDbEntity
  8
0
100
AcDbLine
 10
693.2247555194134
 20
192.2224695812792
 30
0.0
 11
677.2247555194134
 21
192.2224695812792
 31
0.0
  0
LINE
  5
102A
330
2
100
AcDbEntity
  8
0
100
AcDbLine
 10
707.2246485194135
 20
192.222377581279
 30
0.0
 11
694.5747555194137
 21
192.222377581279
 31
0.0
  0
LINE
  5
102B
330
2
100
AcDbEntity
  8
0
100
AcDbLine
 10
693.2247555194134
 20
191.3723775812786
 30
0.0
 11
694.5747555194137
 21
191.3723775812786
 31
0.0
  0
LINE
  5
102C
330
2
100
AcDbEntity
  8
0
100
AcDbLine
 10
693.2247555194134
 20
224.2224695812792
 30
0.0
 11
677.2247555194134
 21
224.2224695812792
 31
0.0
  0
LINE
  5
102D
330
2
100
AcDbEntity
  8
0
100
AcDbLine
 10
707.2246485194135
 20
224.2224695812792
 30
0.0
 11
694.5747555194137
 21
224.2224695812792
 31
0.0
  0
LINE
  5
102E
330
2
100
AcDbEntity
  8
0
100
AcDbLine
 10
693.2247555194134
 20
225.0724695812796
 30
0.0
 11
694.5747555194137
 21
225.0724695812796
 31
0.0
  0
LINE
  5
102F
330
2
100
AcDbEntity
  8
0
100
AcDbLine
 10
677.2247555194134
 20
224.7224695812792
 30
0.0
 11
677.2247555194134
 21
191.7224695812792
 31
0.0
  0
LINE
  5
1030
330
2
100
AcDbEntity
  8
0
100
AcDbLine
 10
720.2247555194134
 20
232.7224695812792
 30
0.0
 11
693.7669282770619
 21
232.7224695812792
 31
0.0
  0
LINE
  5
1031
330
2
100
AcDbEntity
  8
HOJO
100
AcDbLine
 10
715.7246485194136
 20
227.5224725812795
 30
0.0
 11
715.7246485194136
 21
232.7224695812792
 31
0.0
  0
LINE
  5
1032
330
2
100
AcDbEntity
  8
0
  6
CONTINUOUS
 62
     7
100
AcDbLine
 10
714.9746485194135
 20
227.5224725812795
 30
0.0
 11
714.9746485194135
 21
232.7224695812792
 31
0.0
  0
LINE
  5
1033
330
2
100
AcDbEntity
  8
0
  6
CONTINUOUS
 62
     7
100
AcDbLine
 10
708.4746485194135
 20
227.5224725812795
 30
0.0
 11
708.4746485194135
 21
232.7224695812792
 31
0.0
  0
LINE
  5
1034
330
2
100
AcDbEntity
  8
HOJO
100
AcDbLine
 10
707.7246485194136
 20
227.5224725812795
 30
0.0
 11
707.7246485194136
 21
232.7224695812792
 31
0.0
  0
LINE
  5
1035
330
2
100
AcDbEntity
  8
0
100
AcDbLine
 10
582.8747555194143
 20
192.2224695812792
 30
0.0
 11
568.2247555194138
 21
192.2224695812792
 31
0.0
  0
LINE
  5
1036
330
2
100
AcDbEntity
  8
0
100
AcDbLine
 10
581.8867632827418
 20
232.7224695812792
 30
0.0
 11
566.2247555194138
 21
232.7224695812792
 31
0.0
  0
LINE
  5
1037
330
2
100
AcDbEntity
  8
0
100
AcDbLine
 10
582.8747555194143
 20
224.2224695812792
 30
0.0
 11
568.2247555194138
 21
224.2224695812792
 31
0.0
  0
LINE
  5
1038
330
2
100
AcDbEntity
  8
0
100
AcDbLine
 10
581.8867632827418
 20
183.7224695812792
 30
0.0
 11
566.2247555194138
 21
183.7224695812792
 31
0.0
  0
LINE
  5
1039
330
2
100
AcDbEntity
  8
0
100
AcDbLine
 10
582.8747555194143
 20
191.3724695812788
 30
0.0
 11
582.8747555194143
 21
225.0724695812796
 31
0.0
  0
LINE
  5
103A
330
2
100
AcDbEntity
  8
0
100
AcDbLine
 10
584.2247555194139
 20
191.3724695812788
 30
0.0
 11
584.2247555194139
 21
225.0724695812796
 31
0.0
  0
LINE
  5
103B
330
2
100
AcDbEntity
  8
0
100
AcDbLine
 10
584.2247555194139
 20
191.3724695812788
 30
0.0
 11
582.8747555194143
 21
191.3724695812788
 31
0.0
  0
LINE
  5
103C
330
2
100
AcDbEntity
  8
0
100
AcDbLine
 10
601.2247555194139
 20
192.2224695812792
 30
0.0
 11
584.2247555194139
 21
192.2224695812792
 31
0.0
  0
LINE
  5
103D
330
2
100
AcDbEntity
  8
0
100
AcDbLine
 10
601.2247555194139
 20
224.2224695812792
 30
0.0
 11
584.2247555194139
 21
224.2224695812792
 31
0.0
  0
LINE
  5
103E
330
2
100
AcDbEntity
  8
0
100
AcDbLine
 10
601.2247555194139
 20
224.7224695812792
 30
0.0
 11
601.2247555194139
 21
191.7224695812792
 31
0.0
  0
LINE
  5
103F
330
2
100
AcDbEntity
  8
0
100
AcDbLine
 10
584.2247555194139
 20
225.0724695812796
 30
0.0
 11
582.8747555194143
 21
225.0724695812796
 31
0.0
  0
LINE
  5
1040
330
2
100
AcDbEntity
  8
0
100
AcDbLine
 10
566.2247555194138
 20
232.7224695812792
 30
0.0
 11
566.2247555194138
 21
183.7224695812792
 31
0.0
  0
LINE
  5
1041
330
2
100
AcDbEntity
  8
0
100
AcDbLine
 10
568.2247555194138
 20
192.2224695812792
 30
0.0
 11
568.2247555194138
 21
224.2224695812792
 31
0.0
  0
LINE
  5
1042
330
2
100
AcDbEntity
  8
0
100
AcDbLine
 10
568.2247555194138
 20
192.2224695812792
 30
0.0
 11
566.2247555194138
 21
191.0677755812785
 31
0.0
  0
LINE
  5
1043
330
2
100
AcDbEntity
  8
0
100
AcDbLine
 10
568.2247555194138
 20
224.2224695812792
 30
0.0
 11
566.2247555194138
 21
225.37716358128
 31
0.0
  0
LINE
  5
1044
330
2
100
AcDbEntity
  8
0
100
AcDbLine
 10
677.2247555194134
 20
191.7224695812792
 30
0.0
 11
601.2247555194139
 21
191.7224695812792
 31
0.0
  0
SPLINE
  5
1045
330
2
100
AcDbEntity
  8
HOJO
100
AcDbSpline
210
0.0
220
0.0
230
1.0
 70
     8
 71
     3
 72
    25
 73
    21
 74
     0
 42
0.0000000001
 43
0.0000000001
 40
1.152877297004389
 40
1.152877297004389
 40
1.152877297004389
 40
1.152877297004389
 40
6.290824812401083
 40
13.22928773580738
 40
23.01248433513514
 40
27.44936952537695
 40
39.39209791902025
 40
50.54497002145325
 40
68.81910560968197
 40
80.92562652941472
 40
95.32109287512382
 40
103.9668883716656
 40
119.0932917203498
 40
131.2170228200582
 40
138.4912660645576
 40
145.0351343874091
 40
153.1132143022935
 40
157.4594543935925
 40
163.7674011214698
 40
166.1490771881331
 40
166.1490771881331
 40
166.1490771881331
 40
166.1490771881331
 10
568.2247588482308
 20
247.3905629715145
 30
0.0
 10
569.8643117394316
 20
247.1093433873365
 30
0.0
 10
573.785790680556
 20
246.5102019432188
 30
0.0
 10
582.4584896666668
 20
246.8614937741195
 30
0.0
 10
582.4952800309715
 20
237.8546371115599
 30
0.0
 10
581.0106995790114
 20
228.1630665801194
 30
0.0
 10
594.896299439179
 20
231.0289571257608
 30
0.0
 10
606.9578240649783
 20
229.1959059493811
 30
0.0
 10
621.5167964070623
 20
231.7127405847104
 30
0.0
 10
636.0716946553055
 20
227.6980012722042
 30
0.0
 10
647.882154572373
 20
229.9661606272666
 30
0.0
 10
660.5443267606678
 20
227.7545593028871
 30
0.0
 10
672.6110712978314
 20
232.8199968748949
 30
0.0
 10
683.074432965075
 20
229.1181516118367
 30
0.0
 10
693.6344900470357
 20
228.9440259181601
 30
0.0
 10
694.508888797125
 20
237.3734582520274
 30
0.0
 10
692.9148270462555
 20
244.7517068594397
 30
0.0
 10
699.62428599152
 20
247.1363777614069
 30
0.0
 10
703.9900045576886
 20
246.8917522509318
 30
0.0
 10
706.539671992481
 20
248.1878743622591
 30
0.0
 10
707.2247555194134
 20
248.5987209472923
 30
0.0
  0
SPLINE
  5
1046
330
2
100
AcDbEntity
  8
HOJO
100
AcDbSpline
210
0.0
220
0.0
230
1.0
 70
     8
 71
     3
 72
    25
 73
    21
 74
     0
 42
0.0000000001
 43
0.0000000001
 40
1.152877297004389
 40
1.152877297004389
 40
1.152877297004389
 40
1.152877297004389
 40
6.290824812401083
 40
13.22928773580738
 40
23.01248433513514
 40
27.44936952537695
 40
39.39209791902025
 40
50.54497002145325
 40
68.81910560968197
 40
80.92562652941472
 40
95.32109287512382
 40
103.9668883716656
 40
119.0932917203498
 40
131.2170228200582
 40
138.4912660645576
 40
145.0351343874091
 40
153.1132143022935
 40
157.4594543935925
 40
163.7674011214698
 40
166.1490771881331
 40
166.1490771881331
 40
166.1490771881331
 40
166.1490771881331
 10
568.2247588482308
 20
169.0543761910439
 30
0.0
 10
569.8643117394316
 20
169.3355957752219
 30
0.0
 10
573.785790680556
 20
169.9347372193396
 30
0.0
 10
582.4584896666668
 20
169.583445388439
 30
0.0
 10
582.4952800309715
 20
178.5903020509968
 30
0.0
 10
581.0106995790114
 20
188.281872582439
 30
0.0
 10
594.896299439179
 20
185.4159820367977
 30
0.0
 10
606.9578240649783
 20
187.2490332131774
 30
0.0
 10
621.5167964070623
 20
184.732198577848
 30
0.0
 10
636.0716946553055
 20
188.7469378903542
 30
0.0
 10
647.882154572373
 20
186.4787785352918
 30
0.0
 10
660.5443267606678
 20
188.6903798596713
 30
0.0
 10
672.6110712978314
 20
183.6249422876635
 30
0.0
 10
683.074432965075
 20
187.3267875507217
 30
0.0
 10
693.6344900470357
 20
187.5009132443983
 30
0.0
 10
694.508888797125
 20
179.0714809105311
 30
0.0
 10
692.9148270462555
 20
171.6932323031187
 30
0.0
 10
699.62428599152
 20
169.3085614011515
 30
0.0
 10
703.9900045576886
 20
169.5531869116266
 30
0.0
 10
706.539671992481
 20
168.2570648002993
 30
0.0
 10
707.2247555194134
 20
167.8462182152661
 30
0.0
  0
LINE
  5
1047
330
2
100
AcDbEntity
  8
0
100
AcDbLine
 10
706.2247555194134
 20
244.2224695812792
 30
0.0
 11
696.2247555194133
 21
232.7224695812792
 31
0.0
  0
LINE
  5
1048
330
2
100
AcDbEntity
  8
0
100
AcDbLine
 10
696.2247555194133
 20
244.2224695812792
 30
0.0
 11
706.2247555194134
 21
232.7224695812792
 31
0.0
  0
LINE
  5
1049
330
2
100
AcDbEntity
  8
0
100
AcDbLine
 10
706.2247555194134
 20
183.7224695812792
 30
0.0
 11
696.2247555194133
 21
172.2224695812792
 31
0.0
  0
LINE
  5
104A
330
2
100
AcDbEntity
  8
0
100
AcDbLine
 10
706.2247555194134
 20
172.2224695812792
 30
0.0
 11
696.2247555194133
 21
183.7224695812792
 31
0.0
  0
LINE
  5
104B
330
2
100
AcDbEntity
  8
0
100
AcDbLine
 10
569.2247588482254
 20
244.2224695812792
 30
0.0
 11
579.2247588482235
 21
232.7224695812792
 31
0.0
  0
LINE
  5
104C
330
2
100
AcDbEntity
  8
0
100
AcDbLine
 10
579.2247588482235
 20
244.2224695812792
 30
0.0
 11
569.2247588482236
 21
232.7224695812792
 31
0.0
  0
LINE
  5
104D
330
2
100
AcDbEntity
  8
0
100
AcDbLine
 10
579.2247588482235
 20
183.7224695812792
 30
0.0
 11
569.2247588482236
 21
172.2224695812792
 31
0.0
  0
LINE
  5
104E
330
2
100
AcDbEntity
  8
0
100
AcDbLine
 10
569.2247588482236
 20
183.7224695812792
 30
0.0
 11
579.2247588482235
 21
172.2224695812792
 31
0.0
  0
LINE
  5
104F
330
2
100
AcDbEntity
  8
0
100
AcDbLine
 10
678.8628289842416
 20
559.7427203905158
 30
0.0
 11
678.8628289842416
 21
510.7427203905158
 31
0.0
  0
LINE
  5
1050
330
2
100
AcDbEntity
  8
0
100
AcDbLine
 10
678.8628289842416
 20
510.7427203905158
 30
0.0
 11
665.8628289842416
 21
510.7427203905158
 31
0.0
  0
LINE
  5
1051
330
2
100
AcDbEntity
  8
0
100
AcDbLine
 10
678.8628289842416
 20
559.7427203905158
 30
0.0
 11
665.8628289842416
 21
559.7427203905158
 31
0.0
  0
LINE
  5
1052
330
2
100
AcDbEntity
  8
0
100
AcDbLine
 10
526.8628323130518
 20
559.7427203905158
 30
0.0
 11
524.8628289842421
 21
559.7427203905158
 31
0.0
  0
LINE
  5
1053
330
2
100
AcDbEntity
  8
0
100
AcDbLine
 10
526.8628323130518
 20
510.7427203905158
 30
0.0
 11
524.8628289842421
 21
510.7427203905158
 31
0.0
  0
LINE
  5
1054
330
2
100
AcDbEntity
  8
0
100
AcDbLine
 10
524.8628289842421
 20
559.7427203905158
 30
0.0
 11
524.8628289842421
 21
510.7427203905158
 31
0.0
  0
CIRCLE
  5
1055
330
2
100
AcDbEntity
  8
0
 48
0.5
100
AcDbCircle
 10
670.3627219842418
 20
535.2427203905158
 30
0.0
 40
3.2
  0
CIRCLE
  5
1056
330
2
100
AcDbEntity
  8
HOJO
 48
0.5
100
AcDbCircle
 10
670.3627219842418
 20
535.2427203905158
 30
0.0
 40
4.0
  0
LINE
  5
1057
330
2
100
AcDbEntity
  8
CENTER
100
AcDbLine
 10
670.36272198424
 20
546.101865355004
 30
0.0
 11
670.36272198424
 21
524.3835754260294
 31
0.0
  0
LINE
  5
1058
330
2
100
AcDbEntity
  8
0
100
AcDbLine
 10
907.8694730418519
 20
805.4413216991056
 30
0.0
 11
858.8694730418518
 21
805.4413216991056
 31
0.0
  0
LINE
  5
1059
330
2
100
AcDbEntity
  8
0
100
AcDbLine
 10
858.8694730418518
 20
805.4413216991056
 30
0.0
 11
858.8694730418518
 21
818.4413216991057
 31
0.0
  0
LINE
  5
105A
330
2
100
AcDbEntity
  8
0
100
AcDbLine
 10
907.8694730418519
 20
805.4413216991056
 30
0.0
 11
907.8694730418519
 21
818.4413216991057
 31
0.0
  0
LINE
  5
105B
330
2
100
AcDbEntity
  8
0
100
AcDbLine
 10
907.8694730418519
 20
957.4413183702949
 30
0.0
 11
907.8694730418519
 21
959.4413216991055
 31
0.0
  0
LINE
  5
105C
330
2
100
AcDbEntity
  8
0
100
AcDbLine
 10
858.8694730418518
 20
957.4413183702949
 30
0.0
 11
858.8694730418518
 21
959.4413216991055
 31
0.0
  0
LINE
  5
105D
330
2
100
AcDbEntity
  8
0
100
AcDbLine
 10
907.8694730418519
 20
959.4413216991055
 30
0.0
 11
858.8694730418518
 21
959.4413216991055
 31
0.0
  0
CIRCLE
  5
105E
330
2
100
AcDbEntity
  8
0
 48
0.5
100
AcDbCircle
 10
883.3694730418518
 20
813.9414286991055
 30
0.0
 40
3.2
  0
CIRCLE
  5
105F
330
2
100
AcDbEntity
  8
HOJO
 48
0.5
100
AcDbCircle
 10
883.3694730418518
 20
813.9414286991055
 30
0.0
 40
4.0
  0
LINE
  5
1060
330
2
100
AcDbEntity
  8
CENTER
100
AcDbLine
 10
894.2286180063382
 20
813.9414286991073
 30
0.0
 11
872.5103280773636
 21
813.9414286991073
 31
0.0
  0
LINE
  5
1061
330
2
100
AcDbEntity
  8
PHAS
  6
SEKKEI_P_S
100
AcDbLine
 10
534.3628323130491
 20
579.7427203945949
 30
0.0
 11
534.3628323130482
 21
490.7427203864367
 31
0.0
  0
LINE
  5
1063
330
2
100
AcDbEntity
  8
PHAS
  6
SEKKEI_P_S
100
AcDbLine
 10
500.8628323130482
 20
507.6171679851145
 30
0.0
 11
500.8628323130482
 21
562.8682727877599
 31
0.0
  0
LINE
  5
1064
330
2
100
AcDbEntity
  8
PHAS
  6
SEKKEI_P_S
100
AcDbLine
 10
524.5628323130489
 20
576.6235689607933
 30
0.0
 11
524.5628323130489
 21
535.2427203864367
 31
0.0
  0
LINE
  5
1065
330
2
100
AcDbEntity
  8
PHAS
  6
SEKKEI_P_S
100
AcDbLine
 10
534.3628323130482
 20
490.7427203864367
 30
0.0
 11
527.5104750937365
 21
490.8623287266114
 31
0.0
  0
ARC
  5
1066
330
2
100
AcDbEntity
  8
PHAS
  6
SEKKEI_P_S
100
AcDbCircle
 10
523.5628323130489
 20
498.4036207552604
 30
0.0
 40
1.0
100
AcDbArc
 50
0.0
 51
79.99999999999483
  0
LINE
  5
1067
330
2
100
AcDbEntity
  8
PHAS
  6
SEKKEI_P_S
100
AcDbLine
 10
523.7364804907151
 20
499.3884285082717
 30
0.0
 11
504.994591424714
 21
502.6931292200528
 31
0.0
  0
LINE
  5
1068
330
2
100
AcDbEntity
  8
PHAS
  6
SEKKEI_P_S
100
AcDbLine
 10
524.5628323130489
 20
493.8618718120801
 30
0.0
 11
524.5628323130489
 21
535.2427203864367
 31
0.0
  0
ARC
  5
1069
330
2
100
AcDbEntity
  8
PHAS
  6
SEKKEI_P_S
100
AcDbCircle
 10
505.8628323130482
 20
507.6171679851145
 30
0.0
 40
5.0
100
AcDbArc
 50
180.0
 51
259.9999999999948
  0
ARC
  5
106A
330
2
100
AcDbEntity
  8
PHAS
  6
SEKKEI_P_S
100
AcDbCircle
 10
527.5628323130489
 20
493.8618718120801
 30
0.0
 40
3.0
100
AcDbArc
 50
180.0
 51
268.9999999999721
  0
ARC
  5
106B
330
2
100
AcDbEntity
  8
PHAS
  6
SEKKEI_P_S
100
AcDbCircle
 10
523.5628323130489
 20
572.081820017614
 30
0.0
 40
1.0
100
AcDbArc
 50
280.0000000000051
 51
0.0
  0
LINE
  5
106C
330
2
100
AcDbEntity
  8
PHAS
  6
SEKKEI_P_S
100
AcDbLine
 10
523.7364804907151
 20
571.0970122646017
 30
0.0
 11
504.994591424714
 21
567.7923115528215
 31
0.0
  0
ARC
  5
106D
330
2
100
AcDbEntity
  8
PHAS
  6
SEKKEI_P_S
100
AcDbCircle
 10
505.8628323130482
 20
562.8682727877599
 30
0.0
 40
5.0
100
AcDbArc
 50
100.0000000000051
 51
180.0
  0
LINE
  5
106E
330
2
100
AcDbEntity
  8
PHAS
  6
SEKKEI_P_S
100
AcDbLine
 10
534.3628323130491
 20
579.7427203945949
 30
0.0
 11
527.5104750937365
 21
579.6231120544202
 31
0.0
  0
ARC
  5
106F
330
2
100
AcDbEntity
  8
PHAS
  6
SEKKEI_P_S
100
AcDbCircle
 10
527.5628323130489
 20
576.6235689689515
 30
0.0
 40
3.0
100
AcDbArc
 50
91.00000000002784
 51
180.0
  0
LINE
  5
109E
330
2
100
AcDbEntity
  8
0
100
AcDbLine
 10
274.7318041001639
 20
477.7427203907777
 30
0.0
 11
274.7318041001639
 21
592.7427203907777
 31
0.0
  0
ARC
  5
109F
330
2
100
AcDbEntity
  8
0
100
AcDbCircle
 10
284.7318041001638
 20
592.7427203907777
 30
0.0
 40
10.0
100
AcDbArc
 50
90.0
 51
175.2198081527659
  0
ARC
  5
10A0
330
2
100
AcDbEntity
  8
0
100
AcDbCircle
 10
288.7318041001639
 20
594.7427203907778
 30
0.0
 40
8.0
100
AcDbArc
 50
80.5704788783308
 51
90.0
  0
ARC
  5
10A1
330
2
100
AcDbEntity
  8
0
100
AcDbCircle
 10
306.4259044762851
 20
701.2834112646392
 30
0.0
 40
100.0
100
AcDbArc
 50
260.5704788783308
 51
274.6677226878296
  0
LINE
  5
10A2
330
2
100
AcDbEntity
  8
0
100
AcDbLine
 10
288.7318041001639
 20
602.7427203907778
 30
0.0
 11
284.7318041001638
 21
602.7427203907778
 31
0.0
  0
LINE
  5
10A3
330
2
100
AcDbEntity
  8
0
100
AcDbLine
 10
391.2318041001611
 20
592.7427203907777
 30
0.0
 11
391.2318041001621
 21
599.8995263678303
 31
0.0
  0
ARC
  5
10A4
330
2
100
AcDbEntity
  8
0
100
AcDbCircle
 10
399.7318041001639
 20
592.7427203907777
 30
0.0
 40
10.0
100
AcDbArc
 50
0.0
 51
90.0
  0
LINE
  5
10A5
330
2
100
AcDbEntity
  8
0
100
AcDbLine
 10
399.7318041001639
 20
602.7427203907778
 30
0.0
 11
395.7318041001639
 21
602.7427203907778
 31
0.0
  0
ARC
  5
10A6
330
2
100
AcDbEntity
  8
0
100
AcDbCircle
 10
395.7318041001639
 20
594.7427203907778
 30
0.0
 40
8.0
100
AcDbArc
 50
90.0
 51
99.42952112166921
  0
LINE
  5
10A7
330
2
100
AcDbEntity
  8
CENTER
100
AcDbLine
 10
410.4818041001602
 20
592.7427203907796
 30
0.0
 11
388.9818041001611
 21
592.7427203907777
 31
0.0
  0
ARC
  5
10A8
330
2
100
AcDbEntity
  8
0
100
AcDbCircle
 10
399.7318041001602
 20
592.7427203907796
 30
0.0
 40
8.5
100
AcDbArc
 50
180.0
 51
270.0
  0
LINE
  5
10A9
330
2
100
AcDbEntity
  8
0
100
AcDbLine
 10
409.7318041001638
 20
588.7427203907777
 30
0.0
 11
409.7318041001638
 21
592.7427203907777
 31
0.0
  0
ARC
  5
10AA
330
2
100
AcDbEntity
  8
0
100
AcDbCircle
 10
401.7318041001638
 20
588.7427203907777
 30
0.0
 40
8.0
100
AcDbArc
 50
350.5704788783308
 51
0.0
  0
ARC
  5
10AB
330
2
100
AcDbEntity
  8
0
100
AcDbCircle
 10
508.2724949740272
 20
571.0486200146638
 30
0.0
 40
100.0
100
AcDbArc
 50
170.5704788783307
 51
184.6677226878296
  0
ARC
  5
10AC
330
2
100
AcDbEntity
  8
0
100
AcDbCircle
 10
406.8886100772182
 20
582.2427203907795
 30
0.0
 40
2.0
100
AcDbArc
 50
353.6993214717073
 51
90.0
  0
CIRCLE
  5
10AD
330
2
100
AcDbEntity
  8
0
100
AcDbCircle
 10
402.7318041001566
 20
578.2427203907741
 30
0.0
 40
4.0
  0
CIRCLE
  5
10AE
330
2
100
AcDbEntity
  8
HOJO
100
AcDbCircle
 10
402.7318041001566
 20
578.2427203907741
 30
0.0
 40
2.5
  0
CIRCLE
  5
10AF
330
2
100
AcDbEntity
  8
0
100
AcDbCircle
 10
402.7318041001566
 20
578.2427203907741
 30
0.0
 40
3.5
  0
CIRCLE
  5
10B0
330
2
100
AcDbEntity
  8
0
100
AcDbCircle
 10
402.7318041001566
 20
578.2427203907741
 30
0.0
 40
2.0
  0
LINE
  5
10B1
330
2
100
AcDbEntity
  8
0
100
AcDbLine
 10
399.7318041001611
 20
584.2427203907796
 30
0.0
 11
406.8886100772182
 21
584.2427203907796
 31
0.0
  0
ARC
  5
10B2
330
2
100
AcDbEntity
  8
0
100
AcDbCircle
 10
284.7318041001638
 20
477.7427203907777
 30
0.0
 40
10.0
100
AcDbArc
 50
184.780191847234
 51
270.0
  0
ARC
  5
10B3
330
2
100
AcDbEntity
  8
0
100
AcDbCircle
 10
288.7318041001639
 20
475.7427203907777
 30
0.0
 40
8.0
100
AcDbArc
 50
270.0
 51
279.4295211216691
  0
ARC
  5
10B4
330
2
100
AcDbEntity
  8
0
100
AcDbCircle
 10
306.4259044762778
 20
369.2020295169144
 30
0.0
 40
100.0
100
AcDbArc
 50
85.33227731217035
 51
99.42952112166921
  0
LINE
  5
10B5
330
2
100
AcDbEntity
  8
0
100
AcDbLine
 10
288.7318041001639
 20
467.7427203907777
 30
0.0
 11
284.7318041001638
 21
467.7427203907777
 31
0.0
  0
LINE
  5
10B6
330
2
100
AcDbEntity
  8
0
100
AcDbLine
 10
391.2318041001621
 20
477.7427203907795
 30
0.0
 11
391.2318041001621
 21
470.5859144137242
 31
0.0
  0
ARC
  5
10B7
330
2
100
AcDbEntity
  8
0
100
AcDbCircle
 10
399.7318041001639
 20
477.7427203907777
 30
0.0
 40
10.0
100
AcDbArc
 50
270.0
 51
0.0
  0
ARC
  5
10B8
330
2
100
AcDbEntity
  8
0
100
AcDbCircle
 10
399.7318041001621
 20
477.7427203907777
 30
0.0
 40
8.5
100
AcDbArc
 50
90.0
 51
180.0
  0
CIRCLE
  5
10B9
330
2
100
AcDbEntity
  8
HOJO
100
AcDbCircle
 10
402.7318041001612
 20
492.2427203907814
 30
0.0
 40
2.5
  0
CIRCLE
  5
10BA
330
2
100
AcDbEntity
  8
0
100
AcDbCircle
 10
402.7318041001612
 20
492.2427203907814
 30
0.0
 40
2.0
  0
CIRCLE
  5
10BB
330
2
100
AcDbEntity
  8
0
100
AcDbCircle
 10
402.7318041001612
 20
492.2427203907814
 30
0.0
 40
3.5
  0
CIRCLE
  5
10BC
330
2
100
AcDbEntity
  8
0
100
AcDbCircle
 10
402.7318041001612
 20
492.2427203907814
 30
0.0
 40
4.0
  0
LINE
  5
10BD
330
2
100
AcDbEntity
  8
0
100
AcDbLine
 10
399.7318041001621
 20
486.2427203907777
 30
0.0
 11
406.8886100772182
 21
486.2427203907795
 31
0.0
  0
LINE
  5
10BE
330
2
100
AcDbEntity
  8
0
100
AcDbLine
 10
409.7318041001638
 20
477.7427203907777
 30
0.0
 11
409.7318041001638
 21
481.7427203907777
 31
0.0
  0
ARC
  5
10BF
330
2
100
AcDbEntity
  8
0
100
AcDbCircle
 10
401.7318041001638
 20
481.7427203907777
 30
0.0
 40
8.0
100
AcDbArc
 50
0.0
 51
9.429521121669196
  0
LINE
  5
10C0
330
2
100
AcDbEntity
  8
0
100
AcDbLine
 10
399.7318041001639
 20
467.7427203907777
 30
0.0
 11
395.7318041001639
 21
467.7427203907777
 31
0.0
  0
ARC
  5
10C1
330
2
100
AcDbEntity
  8
0
100
AcDbCircle
 10
395.7318041001639
 20
475.7427203907777
 30
0.0
 40
8.0
100
AcDbArc
 50
260.5704788783308
 51
270.0
  0
ARC
  5
10C2
330
2
100
AcDbEntity
  8
0
100
AcDbCircle
 10
380.2318041001639
 20
497.2427203907777
 30
0.0
 40
15.0
100
AcDbArc
 50
270.0
 51
0.0
  0
ARC
  5
10C3
330
2
100
AcDbEntity
  8
0
100
AcDbCircle
 10
380.2318041001639
 20
497.2427203907777
 30
0.0
 40
17.0
100
AcDbArc
 50
270.0
 51
0.0
  0
ARC
  5
10C4
330
2
100
AcDbEntity
  8
0
100
AcDbCircle
 10
380.2318041001639
 20
573.2427203907778
 30
0.0
 40
17.0
100
AcDbArc
 50
0.0
 51
90.0
  0
ARC
  5
10C5
330
2
100
AcDbEntity
  8
0
100
AcDbCircle
 10
380.2318041001639
 20
573.2427203907778
 30
0.0
 40
15.0
100
AcDbArc
 50
0.0
 51
90.0
  0
ARC
  5
10C6
330
2
100
AcDbEntity
  8
0
100
AcDbCircle
 10
304.2318041001639
 20
497.2427203907777
 30
0.0
 40
15.0
100
AcDbArc
 50
180.0
 51
270.0
  0
ARC
  5
10C7
330
2
100
AcDbEntity
  8
0
100
AcDbCircle
 10
304.2318041001639
 20
497.2427203907777
 30
0.0
 40
17.0
100
AcDbArc
 50
180.0
 51
270.0
  0
CIRCLE
  5
10C8
330
2
100
AcDbEntity
  8
0
100
AcDbCircle
 10
342.2318041001639
 20
535.2427203907778
 30
0.0
 40
45.0
  0
CIRCLE
  5
10C9
330
2
100
AcDbEntity
  8
0
100
AcDbCircle
 10
342.2318041001639
 20
535.2427203907778
 30
0.0
 40
44.5
  0
CIRCLE
  5
10CA
330
2
100
AcDbEntity
  8
0
100
AcDbCircle
 10
342.2318041001639
 20
535.2427203907778
 30
0.0
 40
42.5
  0
ARC
  5
10CB
330
2
100
AcDbEntity
  8
0
100
AcDbCircle
 10
304.2318041001639
 20
573.2427203907778
 30
0.0
 40
15.0
100
AcDbArc
 50
90.0
 51
180.0
  0
ARC
  5
10CC
330
2
100
AcDbEntity
  8
0
100
AcDbCircle
 10
304.2318041001639
 20
573.2427203907778
 30
0.0
 40
17.0
100
AcDbArc
 50
90.0
 51
180.0
  0
LINE
  5
10CD
330
2
100
AcDbEntity
  8
0
100
AcDbLine
 10
287.2318041001639
 20
497.2427203907777
 30
0.0
 11
287.2318041001639
 21
573.2427203907778
 31
0.0
  0
LINE
  5
10CE
330
2
100
AcDbEntity
  8
0
100
AcDbLine
 10
289.2318041001639
 20
497.2427203907777
 30
0.0
 11
289.2318041001639
 21
573.2427203907778
 31
0.0
  0
CIRCLE
  5
10CF
330
2
100
AcDbEntity
  8
0
100
AcDbCircle
 10
342.2318041001639
 20
535.2427203907778
 30
0.0
 40
36.57739999999999
  0
CIRCLE
  5
10D0
330
2
100
AcDbEntity
  8
0
100
AcDbCircle
 10
342.2318041001639
 20
535.2427203907778
 30
0.0
 40
41.9226
  0
CIRCLE
  5
10D1
330
2
100
AcDbEntity
  8
0
100
AcDbCircle
 10
342.2318041001639
 20
535.2427203907778
 30
0.0
 40
36.0
  0
LINE
  5
10D2
330
2
100
AcDbEntity
  8
0
100
AcDbLine
 10
304.2318041001639
 20
590.2427203907778
 30
0.0
 11
380.2318041001639
 21
590.2427203907778
 31
0.0
  0
LINE
  5
10D3
330
2
100
AcDbEntity
  8
0
100
AcDbLine
 10
304.2318041001639
 20
588.2427203907777
 30
0.0
 11
380.2318041001639
 21
588.2427203907777
 31
0.0
  0
LINE
  5
10D4
330
2
100
AcDbEntity
  8
0
100
AcDbLine
 10
380.2318041001639
 20
480.2427203907777
 30
0.0
 11
304.2318041001639
 21
480.2427203907777
 31
0.0
  0
LINE
  5
10D5
330
2
100
AcDbEntity
  8
0
100
AcDbLine
 10
380.2318041001639
 20
482.2427203907777
 30
0.0
 11
304.2318041001639
 21
482.2427203907777
 31
0.0
  0
LINE
  5
10D6
330
2
100
AcDbEntity
  8
0
100
AcDbLine
 10
397.2318041001639
 20
573.2427203907778
 30
0.0
 11
397.2318041001639
 21
497.2427203907777
 31
0.0
  0
LINE
  5
10D7
330
2
100
AcDbEntity
  8
0
100
AcDbLine
 10
395.2318041001639
 20
573.2427203907778
 30
0.0
 11
395.2318041001639
 21
497.2427203907777
 31
0.0
  0
LINE
  5
10D8
330
2
100
AcDbEntity
  8
0
100
AcDbLine
 10
392.2526193803354
 20
585.2635356709493
 30
0.0
 11
390.838405817962
 21
583.849322108576
 31
0.0
  0
LINE
  5
10D9
330
2
100
AcDbEntity
  8
0
100
AcDbLine
 10
392.2526193803354
 20
485.2219051106062
 30
0.0
 11
390.838405817962
 21
486.6361186729795
 31
0.0
  0
LINE
  5
10DA
330
2
100
AcDbEntity
  8
0
100
AcDbLine
 10
292.2109888199924
 20
585.2635356709493
 30
0.0
 11
293.6252023823657
 21
583.849322108576
 31
0.0
  0
LINE
  5
10DB
330
2
100
AcDbEntity
  8
0
100
AcDbLine
 10
292.2109888199924
 20
485.2219051106062
 30
0.0
 11
293.6252023823657
 21
486.6361186729795
 31
0.0
  0
LINE
  5
10DC
330
2
100
AcDbEntity
  8
CENTER
100
AcDbLine
 10
399.7318041001657
 20
603.4927203907741
 30
0.0
 11
399.7318041001639
 21
581.9927203907759
 31
0.0
  0
LINE
  5
10DD
330
2
100
AcDbEntity
  8
CENTER
100
AcDbLine
 10
410.4818041001602
 20
477.7427203907759
 30
0.0
 11
388.9818041001611
 21
477.7427203907777
 31
0.0
  0
LINE
  5
10DE
330
2
100
AcDbEntity
  8
CENTER
100
AcDbLine
 10
399.7318041001657
 20
466.9927203907813
 30
0.0
 11
399.7318041001639
 21
488.4927203907813
 31
0.0
  0
LINE
  5
10DF
330
2
100
AcDbEntity
  8
CENTER
100
AcDbLine
 10
402.7318041001556
 20
584.6327295593915
 30
0.0
 11
402.7318041001556
 21
571.8527112221586
 31
0.0
  0
LINE
  5
10E0
330
2
100
AcDbEntity
  8
CENTER
100
AcDbLine
 10
396.3417949315393
 20
578.2427203907741
 30
0.0
 11
409.1218132687721
 21
578.2427203907741
 31
0.0
  0
LINE
  5
10E1
330
2
100
AcDbEntity
  8
CENTER
100
AcDbLine
 10
402.7318041001556
 20
485.8527112221658
 30
0.0
 11
402.7318041001556
 21
498.6327295593986
 31
0.0
  0
LINE
  5
10E2
330
2
100
AcDbEntity
  8
CENTER
100
AcDbLine
 10
396.3417949315393
 20
492.2427203907814
 30
0.0
 11
409.1218132687721
 21
492.2427203907814
 31
0.0
  0
CIRCLE
  5
10E3
330
2
100
AcDbEntity
  8
0
100
AcDbCircle
 10
399.7318041001639
 20
592.7427203907796
 30
0.0
 40
5.63397459621558
  0
CIRCLE
  5
10E4
330
2
100
AcDbEntity
  8
0
100
AcDbCircle
 10
399.7318041001639
 20
592.7427203907796
 30
0.0
 40
6.5
  0
LINE
  5
10E5
330
2
100
AcDbEntity
  8
0
100
AcDbLine
 10
402.7318041001639
 20
591.0106695832096
 30
0.0
 11
402.7318041001639
 21
594.4747711983477
 31
0.0
  0
LINE
  5
10E6
330
2
100
AcDbEntity
  8
0
100
AcDbLine
 10
396.7318041001639
 20
594.4747711983477
 30
0.0
 11
396.7318041001639
 21
591.0106695832096
 31
0.0
  0
LINE
  5
10E7
330
2
100
AcDbEntity
  8
0
100
AcDbLine
 10
399.7318041001639
 20
589.2786187756414
 30
0.0
 11
402.7318041001639
 21
591.0106695832096
 31
0.0
  0
LINE
  5
10E8
330
2
100
AcDbEntity
  8
0
100
AcDbLine
 10
396.7318041001639
 20
591.0106695832096
 30
0.0
 11
399.7318041001639
 21
589.2786187756414
 31
0.0
  0
LINE
  5
10E9
330
2
100
AcDbEntity
  8
0
100
AcDbLine
 10
396.7318041001639
 20
594.4747711983477
 30
0.0
 11
399.7318041001639
 21
596.2068220059177
 31
0.0
  0
LINE
  5
10EA
330
2
100
AcDbEntity
  8
0
100
AcDbLine
 10
399.7318041001639
 20
596.2068220059158
 30
0.0
 11
402.7318041001639
 21
594.4747711983477
 31
0.0
  0
CIRCLE
  5
10EB
330
2
100
AcDbEntity
  8
0
100
AcDbCircle
 10
399.7318041001639
 20
477.7427203907777
 30
0.0
 40
5.63397459621558
  0
CIRCLE
  5
10EC
330
2
100
AcDbEntity
  8
0
100
AcDbCircle
 10
399.7318041001639
 20
477.7427203907777
 30
0.0
 40
6.5
  0
LINE
  5
10ED
330
2
100
AcDbEntity
  8
0
100
AcDbLine
 10
402.7318041001639
 20
476.0106695832095
 30
0.0
 11
402.7318041001639
 21
479.4747711983458
 31
0.0
  0
LINE
  5
10EE
330
2
100
AcDbEntity
  8
0
100
AcDbLine
 10
396.7318041001639
 20
479.4747711983458
 30
0.0
 11
396.7318041001639
 21
476.0106695832077
 31
0.0
  0
LINE
  5
10EF
330
2
100
AcDbEntity
  8
0
100
AcDbLine
 10
399.7318041001639
 20
474.2786187756395
 30
0.0
 11
402.7318041001639
 21
476.0106695832095
 31
0.0
  0
LINE
  5
10F0
330
2
100
AcDbEntity
  8
0
100
AcDbLine
 10
396.7318041001639
 20
476.0106695832077
 30
0.0
 11
399.7318041001639
 21
474.2786187756395
 31
0.0
  0
LINE
  5
10F1
330
2
100
AcDbEntity
  8
0
100
AcDbLine
 10
396.7318041001639
 20
479.4747711983458
 30
0.0
 11
399.7318041001639
 21
481.2068220059158
 31
0.0
  0
LINE
  5
10F2
330
2
100
AcDbEntity
  8
0
100
AcDbLine
 10
399.7318041001639
 20
481.2068220059158
 30
0.0
 11
402.7318041001639
 21
479.4747711983458
 31
0.0
  0
ARC
  5
10F3
330
2
100
AcDbEntity
  8
0
100
AcDbCircle
 10
342.2318041001639
 20
535.2427203907778
 30
0.0
 40
16.0
100
AcDbArc
 50
108.2099568642864
 51
71.79004313571356
  0
LINE
  5
10F4
330
2
100
AcDbEntity
  8
0
100
AcDbLine
 10
337.2318041001639
 20
554.542723390778
 30
0.0
 11
337.2318041001639
 21
550.4414045443486
 31
0.0
  0
LINE
  5
10F5
330
2
100
AcDbEntity
  8
0
100
AcDbLine
 10
347.2318041001638
 20
554.542723390778
 30
0.0
 11
347.2318041001638
 21
550.4414045443486
 31
0.0
  0
LINE
  5
10F6
330
2
100
AcDbEntity
  8
0
100
AcDbLine
 10
337.2318041001639
 20
554.542723390778
 30
0.0
 11
347.2318041001638
 21
554.542723390778
 31
0.0
  0
CIRCLE
  5
10F7
330
2
100
AcDbEntity
  8
0
100
AcDbCircle
 10
342.2318041001639
 20
535.2427203907778
 30
0.0
 40
24.49999999582681
  0
ARC
  5
10F8
330
2
100
AcDbEntity
  8
0
100
AcDbCircle
 10
342.2318041001639
 20
535.2427203907778
 30
0.0
 40
17.15469399582682
100
AcDbArc
 50
106.9457086470002
 51
73.05429135299971
  0
ARC
  5
10F9
330
2
100
AcDbEntity
  8
0
100
AcDbCircle
 10
342.2318041001639
 20
262.7427203907767
 30
0.0
 40
340.0
100
AcDbArc
 50
85.33227731217035
 51
94.66772268782964
  0
ARC
  5
10FA
330
2
100
AcDbEntity
  8
0
100
AcDbCircle
 10
378.0377037240426
 20
701.2834112646392
 30
0.0
 40
100.0
100
AcDbArc
 50
265.3322773121704
 51
279.4295211216691
  0
ARC
  5
10FB
330
2
100
AcDbEntity
  8
0
100
AcDbCircle
 10
389.2318041001611
 20
599.8995263678303
 30
0.0
 40
2.0
100
AcDbArc
 50
0.0
 51
96.30067852829258
  0
ARC
  5
10FC
330
2
100
AcDbEntity
  8
0
100
AcDbCircle
 10
342.2318041001639
 20
807.7427203907769
 30
0.0
 40
340.0
100
AcDbArc
 50
265.3322773121704
 51
274.6677226878296
  0
ARC
  5
10FD
330
2
100
AcDbEntity
  8
0
100
AcDbCircle
 10
378.0377037240499
 20
369.2020295169144
 30
0.0
 40
100.0
100
AcDbArc
 50
80.5704788783308
 51
94.66772268782964
  0
ARC
  5
10FE
330
2
100
AcDbEntity
  8
0
100
AcDbCircle
 10
389.2318041001611
 20
470.5859144137242
 30
0.0
 40
2.0
100
AcDbArc
 50
263.6993214717074
 51
0.0
  0
ARC
  5
10FF
330
2
100
AcDbEntity
  8
0
100
AcDbCircle
 10
69.73180410016482
 20
535.2427203907778
 30
0.0
 40
340.0
100
AcDbArc
 50
355.3322773121704
 51
4.667722687829638
  0
ARC
  5
1100
330
2
100
AcDbEntity
  8
0
100
AcDbCircle
 10
508.2724949740272
 20
499.4368207668917
 30
0.0
 40
100.0
100
AcDbArc
 50
175.3322773121703
 51
189.4295211216692
  0
ARC
  5
1101
330
2
100
AcDbEntity
  8
0
100
AcDbCircle
 10
406.8886100772173
 20
488.2427203907795
 30
0.0
 40
2.0
100
AcDbArc
 50
270.0
 51
6.300678528292576
  0
LINE
  5
1102
330
2
100
AcDbEntity
  8
0
100
AcDbLine
 10
815.8738364756379
 20
926.4413183703082
 30
0.0
 11
816.6505277091223
 21
837.4413183702952
 31
0.0
  0
CIRCLE
  5
1103
330
2
100
AcDbEntity
  8
0
100
AcDbCircle
 10
883.3694730418518
 20
535.2427203907778
 30
0.0
 40
36.57739999999999
  0
LINE
  5
1104
330
2
100
AcDbEntity
  8
CENTER
100
AcDbLine
 10
1378.344933818576
 20
617.4285531501374
 30
0.0
 11
1378.344933818576
 21
453.0568876310717
 31
0.0
  0
LINE
  5
1105
330
2
100
AcDbEntity
  8
0
100
AcDbLine
 10
1306.344937147387
 20
576.8113428410766
 30
0.0
 11
1306.344937147387
 21
493.6740979403043
 31
0.0
  0
LINE
  5
1106
330
2
100
AcDbEntity
  8
0
100
AcDbLine
 10
1320.344937147387
 20
595.2427203906049
 30
0.0
 11
1320.344937147387
 21
475.242720390605
 31
0.0
  0
LINE
  5
1107
330
2
100
AcDbEntity
  8
CENTER
100
AcDbLine
 10
1462.344937147387
 20
535.2427203906905
 30
0.0
 11
1278.344937147387
 21
535.2427203906905
 31
0.0
  0
LINE
  5
1108
330
2
100
AcDbEntity
  8
0
100
AcDbLine
 10
1414.344933818576
 20
602.7427203906049
 30
0.0
 11
1325.344937147387
 21
601.9660291862769
 31
0.0
  0
LINE
  5
1109
330
2
100
AcDbEntity
  8
0
100
AcDbLine
 10
1325.344937147387
 20
595.2427203906049
 30
0.0
 11
1320.344937147387
 21
595.2427203906049
 31
0.0
  0
LINE
  5
110A
330
2
100
AcDbEntity
  8
0
100
AcDbLine
 10
1325.344937147387
 20
468.5194115949311
 30
0.0
 11
1414.344933818576
 21
467.742720390605
 31
0.0
  0
LINE
  5
110B
330
2
100
AcDbEntity
  8
0
100
AcDbLine
 10
1325.344937147387
 20
475.242720390605
 30
0.0
 11
1320.344937147387
 21
475.242720390605
 31
0.0
  0
LINE
  5
110C
330
2
100
AcDbEntity
  8
0
100
AcDbLine
 10
1327.34493714747
 20
486.9889437143979
 30
0.0
 11
1327.344937147467
 21
491.1279504367548
 31
0.0
  0
LINE
  5
1120
330
2
100
AcDbEntity
  8
0
100
AcDbLine
 10
1414.344933818576
 20
602.7427203906049
 30
0.0
 11
1414.344933818576
 21
586.3897758292046
 31
0.0
  0
LINE
  5
1121
330
2
100
AcDbEntity
  8
0
100
AcDbLine
 10
1414.344933818576
 20
484.0956649521763
 30
0.0
 11
1414.344933818576
 21
467.742720390605
 31
0.0
  0
LINE
  5
1122
330
2
100
AcDbEntity
  8
0
100
AcDbLine
 10
1325.344937147387
 20
468.5194115949311
 30
0.0
 11
1325.344937147387
 21
601.9660291862769
 31
0.0
  0
LINE
  5
1123
330
2
100
AcDbEntity
  8
0
100
AcDbLine
 10
1378.344933818576
 20
586.7427155519313
 30
0.0
 11
1421.423362381006
 21
586.3203797565898
 31
0.0
  0
ARC
  5
1124
330
2
100
AcDbEntity
  8
0
100
AcDbCircle
 10
1421.344935100483
 20
578.3207641932226
 30
0.0
 40
8.0
100
AcDbArc
 50
44.60542829750029
 51
89.438296980908
  0
ARC
  5
1126
330
2
100
AcDbEntity
  8
0
100
AcDbCircle
 10
1335.344932536671
 20
578.3207641932226
 30
0.0
 40
8.0
100
AcDbArc
 50
90.56170301909203
 51
135.3945717018363
  0
LINE
  5
1127
330
2
100
AcDbEntity
  8
0
100
AcDbLine
 10
1378.344933818576
 20
483.7427252294496
 30
0.0
 11
1335.266505256146
 21
484.1650610247911
 31
0.0
  0
LINE
  5
1128
330
2
100
AcDbEntity
  8
0
100
AcDbLine
 10
1378.344933818576
 20
483.7427252294496
 30
0.0
 11
1421.423362381006
 21
484.1650610247911
 31
0.0
  0
ARC
  5
1129
330
2
100
AcDbEntity
  8
0
100
AcDbCircle
 10
1335.344932536671
 20
492.16467658816
 30
0.0
 40
8.0
100
AcDbArc
 50
224.6054282984995
 51
269.4382969809079
  0
ARC
  5
112A
330
2
100
AcDbEntity
  8
0
100
AcDbCircle
 10
1421.344935100483
 20
492.16467658816
 30
0.0
 40
8.0
100
AcDbArc
 50
270.5617030190919
 51
315.3945717021634
  0
LINE
  5
112B
330
2
100
AcDbEntity
  8
0
100
AcDbLine
 10
1331.853062503163
 20
585.5184613019578
 30
0.0
 11
1329.327484076389
 21
585.4964209129325
 31
0.0
  0
LINE
  5
112C
330
2
100
AcDbEntity
  8
0
100
AcDbLine
 10
1308.275138153982
 20
578.8101244951144
 30
0.0
 11
1318.414736140792
 21
579.1642070591519
 31
0.0
  0
LINE
  5
112D
330
2
100
AcDbEntity
  8
0
100
AcDbLine
 10
1308.275138153982
 20
491.6753162862664
 30
0.0
 11
1318.414736140792
 21
491.3212337222307
 31
0.0
  0
ARC
  5
112E
330
2
100
AcDbEntity
  8
0
100
AcDbCircle
 10
1318.344937147387
 20
489.3224520681928
 30
0.0
 40
2.0
100
AcDbArc
 50
0.0
 51
87.99999999999636
  0
ARC
  5
112F
330
2
100
AcDbEntity
  8
0
100
AcDbCircle
 10
1318.344937147387
 20
581.1629887131898
 30
0.0
 40
2.0
100
AcDbArc
 50
272.0000000000036
 51
0.0
  0
ARC
  5
1130
330
2
100
AcDbEntity
  8
0
100
AcDbCircle
 10
1308.344937147387
 20
576.8113428410766
 30
0.0
 40
2.0
100
AcDbArc
 50
92.00000000000365
 51
180.0
  0
ARC
  5
1131
330
2
100
AcDbEntity
  8
0
100
AcDbCircle
 10
1308.344937147387
 20
493.6740979403043
 30
0.0
 40
2.0
100
AcDbArc
 50
180.0
 51
267.9999999999963
  0
ARC
  5
1132
330
2
100
AcDbEntity
  8
0
100
AcDbCircle
 10
1329.344937147387
 20
583.4964970668047
 30
0.0
 40
2.0
100
AcDbArc
 50
90.49999999996549
 51
180.0
  0
ARC
  5
1133
330
2
100
AcDbEntity
  8
0
100
AcDbCircle
 10
1329.34493714747
 20
486.9889437144015
 30
0.0
 40
2.0
100
AcDbArc
 50
180.0000000001042
 51
269.5000000000866
  0
LINE
  5
1134
330
2
100
AcDbEntity
  8
0
100
AcDbLine
 10
1331.853057277179
 20
484.9669795248596
 30
0.0
 11
1329.327484076477
 21
484.9890198682738
 31
0.0
  0
ARC
  5
1135
330
2
100
AcDbEntity
  8
0
100
AcDbCircle
 10
1432.844933818576
 20
600.5811971797907
 30
0.0
 40
2.0
100
AcDbArc
 50
0.0
 51
89.49999999998238
  0
LINE
  5
1136
330
2
100
AcDbEntity
  8
0
100
AcDbLine
 10
1435.430720256203
 20
589.6569339530637
 30
0.0
 11
1436.259147380949
 21
588.8285068283189
 31
0.0
  0
LINE
  5
1137
330
2
100
AcDbEntity
  8
0
100
AcDbLine
 10
1445.344933818576
 20
577.1653701215004
 30
0.0
 11
1445.344933818576
 21
493.3200706598786
 31
0.0
  0
LINE
  5
1138
330
2
100
AcDbEntity
  8
0
100
AcDbLine
 10
1436.844933818576
 20
580.2427203906904
 30
0.0
 11
1437.344933818576
 21
579.7427203906904
 31
0.0
  0
LINE
  5
1139
330
2
100
AcDbEntity
  8
0
100
AcDbLine
 10
1440.844933818576
 20
577.5427203906915
 30
0.0
 11
1440.644933818577
 21
577.7427203906905
 31
0.0
  0
LINE
  5
113A
330
2
100
AcDbEntity
  8
0
100
AcDbLine
 10
1442.644933818577
 20
577.0427203906915
 30
0.0
 11
1441.044933818577
 21
577.0427203906915
 31
0.0
  0
LINE
  5
113B
330
2
100
AcDbEntity
  8
0
100
AcDbLine
 10
1444.344933818576
 20
577.7427203906905
 30
0.0
 11
1445.344933818576
 21
577.1653701215022
 31
0.0
  0
LINE
  5
113C
330
2
100
AcDbEntity
  8
0
100
AcDbLine
 10
1444.344933818576
 20
577.7427203906905
 30
0.0
 11
1443.044933818577
 21
577.7427203906905
 31
0.0
  0
LINE
  5
113D
330
2
100
AcDbEntity
  8
0
100
AcDbLine
 10
1440.644933818577
 20
577.7427203906905
 30
0.0
 11
1437.344933818576
 21
577.7427203906905
 31
0.0
  0
LINE
  5
113E
330
2
100
AcDbEntity
  8
0
100
AcDbLine
 10
1436.844933818582
 20
483.0711475154371
 30
0.0
 11
1436.844933818569
 21
587.4142932659456
 31
0.0
  0
LINE
  5
113F
330
2
100
AcDbEntity
  8
0
100
AcDbLine
 10
1436.84493381858
 20
490.2427203906905
 30
0.0
 11
1437.34493381858
 21
490.7427203906904
 31
0.0
  0
LINE
  5
1140
330
2
100
AcDbEntity
  8
0
100
AcDbLine
 10
1440.84493381858
 20
492.9427203906912
 30
0.0
 11
1440.84493381858
 21
577.5427203906879
 31
0.0
  0
LINE
  5
1141
330
2
100
AcDbEntity
  8
0
100
AcDbLine
 10
1440.84493381858
 20
492.9427203906912
 30
0.0
 11
1440.644933818581
 21
492.7427203906904
 31
0.0
  0
LINE
  5
1142
330
2
100
AcDbEntity
  8
0
100
AcDbLine
 10
1442.84493381858
 20
492.9427203906912
 30
0.0
 11
1442.844933818645
 21
577.5427203906915
 31
0.0
  0
LINE
  5
1143
330
2
100
AcDbEntity
  8
0
100
AcDbLine
 10
1444.34493381858
 20
492.7427203906904
 30
0.0
 11
1443.044933818581
 21
492.7427203906904
 31
0.0
  0
LINE
  5
1144
330
2
100
AcDbEntity
  8
0
100
AcDbLine
 10
1442.644933818581
 20
493.4427203906912
 30
0.0
 11
1441.04493381858
 21
493.4427203906912
 31
0.0
  0
LINE
  5
1145
330
2
100
AcDbEntity
  8
0
100
AcDbLine
 10
1444.34493381858
 20
492.7427203906904
 30
0.0
 11
1445.34493381858
 21
493.3200706598804
 31
0.0
  0
LINE
  5
1146
330
2
100
AcDbEntity
  8
0
100
AcDbLine
 10
1437.34493381858
 20
490.7427203906904
 30
0.0
 11
1437.34493381858
 21
579.7427203906868
 31
0.0
  0
LINE
  5
1147
330
2
100
AcDbEntity
  8
0
100
AcDbLine
 10
1440.644933818581
 20
492.7427203906904
 30
0.0
 11
1437.34493381858
 21
492.7427203906904
 31
0.0
  0
LINE
  5
1148
330
2
100
AcDbEntity
  8
0
100
AcDbLine
 10
1434.844933818582
 20
469.904243601592
 30
0.0
 11
1434.844933818582
 21
600.5811971797907
 31
0.0
  0
LINE
  5
1149
330
2
100
AcDbEntity
  8
0
100
AcDbLine
 10
1435.430720256208
 20
480.8285068283171
 30
0.0
 11
1436.259147380955
 21
481.6569339530637
 31
0.0
  0
LINE
  5
114A
330
2
100
AcDbEntity
  8
0
100
AcDbLine
 10
1432.862386889573
 20
602.5811210259185
 30
0.0
 11
1414.344933818576
 21
602.7427203906905
 31
0.0
  0
ARC
  5
114B
330
2
100
AcDbEntity
  8
0
100
AcDbCircle
 10
1434.844933818582
 20
483.0711475154371
 30
0.0
 40
2.0
100
AcDbArc
 50
314.9999999999907
 51
0.0
  0
ARC
  5
114C
330
2
100
AcDbEntity
  8
0
100
AcDbCircle
 10
1436.844933818582
 20
479.4142932659438
 30
0.0
 40
2.0
100
AcDbArc
 50
134.9999999999907
 51
180.0
  0
ARC
  5
114D
330
2
100
AcDbEntity
  8
0
100
AcDbCircle
 10
1434.844933818576
 20
587.4142932659456
 30
0.0
 40
2.0
100
AcDbArc
 50
0.0
 51
45.00000000000919
  0
ARC
  5
114E
330
2
100
AcDbEntity
  8
0
100
AcDbCircle
 10
1436.844933818576
 20
591.0711475154371
 30
0.0
 40
2.0
100
AcDbArc
 50
180.0
 51
225.0000000000091
  0
ARC
  5
114F
330
2
100
AcDbEntity
  8
0
100
AcDbCircle
 10
1443.044933818577
 20
577.5427203906915
 30
0.0
 40
0.2
100
AcDbArc
 50
90.0
 51
180.0
  0
ARC
  5
1150
330
2
100
AcDbEntity
  8
0
100
AcDbCircle
 10
1442.644933818577
 20
577.2427203906905
 30
0.0
 40
0.2
100
AcDbArc
 50
270.0
 51
0.0
  0
ARC
  5
1151
330
2
100
AcDbEntity
  8
0
100
AcDbCircle
 10
1441.044933818577
 20
577.2427203906905
 30
0.0
 40
0.2
100
AcDbArc
 50
180.0
 51
270.0
  0
ARC
  5
1152
330
2
100
AcDbEntity
  8
0
100
AcDbCircle
 10
1443.044933818581
 20
492.9427203906912
 30
0.0
 40
0.2
100
AcDbArc
 50
180.0
 51
270.0
  0
ARC
  5
1153
330
2
100
AcDbEntity
  8
0
100
AcDbCircle
 10
1442.644933818581
 20
493.2427203906904
 30
0.0
 40
0.2
100
AcDbArc
 50
0.0
 51
90.0
  0
ARC
  5
1154
330
2
100
AcDbEntity
  8
0
100
AcDbCircle
 10
1441.04493381858
 20
493.2427203906904
 30
0.0
 40
0.2
100
AcDbArc
 50
90.0
 51
180.0
  0
LINE
  5
1155
330
2
100
AcDbEntity
  8
0
100
AcDbLine
 10
1444.344933818576
 20
577.7427203906905
 30
0.0
 11
1444.34493381858
 21
492.7427203906904
 31
0.0
  0
ARC
  5
1156
330
2
100
AcDbEntity
  8
0
100
AcDbCircle
 10
1432.844933818576
 20
469.904243601592
 30
0.0
 40
2.0
100
AcDbArc
 50
270.5000000000175
 51
0.0
  0
LINE
  5
1157
330
2
100
AcDbEntity
  8
0
100
AcDbLine
 10
1432.862386889573
 20
467.9043197554624
 30
0.0
 11
1414.344933818576
 21
467.7427203906904
 31
0.0
  0
ARC
  5
1159
330
2
100
AcDbEntity
  8
0
100
AcDbCircle
 10
1427.344933818576
 20
584.1291949526407
 30
0.0
 40
2.0
100
AcDbArc
 50
17.86424478083667
 51
89.50000000000846
  0
LINE
  5
115A
330
2
100
AcDbEntity
  8
0
100
AcDbLine
 10
1427.362386889573
 20
586.1291187987685
 30
0.0
 11
1422.900571260412
 21
586.1680564738712
 31
0.0
  0
ARC
  5
115B
330
2
100
AcDbEntity
  8
0
100
AcDbCircle
 10
1427.344933818576
 20
486.3562458287419
 30
0.0
 40
2.0
100
AcDbArc
 50
270.4999999999915
 51
342.1357552191632
  0
LINE
  5
115C
330
2
100
AcDbEntity
  8
0
100
AcDbLine
 10
1427.362386889573
 20
484.3563219826141
 30
0.0
 11
1422.900571260414
 21
484.3173843075114
 31
0.0
  0
LINE
  5
115D
330
2
100
AcDbEntity
  8
0
100
AcDbLine
 10
1434.344933818576
 20
583.8766949869046
 30
0.0
 11
1434.344933818576
 21
572.6087457944745
 31
0.0
  0
LINE
  5
115E
330
2
100
AcDbEntity
  8
0
100
AcDbLine
 10
1426.344933818576
 20
584.7427203906904
 30
0.0
 11
1426.344933818576
 21
584.5657632179668
 31
0.0
  0
LINE
  5
115F
330
2
100
AcDbEntity
  8
0
100
AcDbLine
 10
1433.844933818576
 20
571.7427203906904
 30
0.0
 11
1434.344933818576
 21
572.6087457944745
 31
0.0
  0
LINE
  5
1160
330
2
100
AcDbEntity
  8
0
100
AcDbLine
 10
1429.487090681323
 20
571.7427203906904
 30
0.0
 11
1433.844933818576
 21
571.7427203906904
 31
0.0
  0
LINE
  5
1161
330
2
100
AcDbEntity
  8
0
100
AcDbLine
 10
1433.844933818576
 20
584.7427203906904
 30
0.0
 11
1434.344933818576
 21
583.8766949869063
 31
0.0
  0
LINE
  5
1162
330
2
100
AcDbEntity
  8
0
100
AcDbLine
 10
1426.344933818576
 20
584.7427203906904
 30
0.0
 11
1433.844933818576
 21
584.7427203906904
 31
0.0
  0
LINE
  5
1163
330
2
100
AcDbEntity
  8
0
100
AcDbLine
 10
1433.844933818576
 20
584.7427203906904
 30
0.0
 11
1433.844933818576
 21
571.7427203906904
 31
0.0
  0
LINE
  5
1164
330
2
100
AcDbEntity
  8
0
100
AcDbLine
 10
1434.344933818576
 20
497.8766949869063
 30
0.0
 11
1434.344933818576
 21
486.6087457944764
 31
0.0
  0
LINE
  5
1165
330
2
100
AcDbEntity
  8
0
100
AcDbLine
 10
1426.344933818576
 20
485.919677563414
 30
0.0
 11
1426.344933818576
 21
485.7427203906922
 31
0.0
  0
LINE
  5
1166
330
2
100
AcDbEntity
  8
0
100
AcDbLine
 10
1433.844933818576
 20
485.7427203906922
 30
0.0
 11
1434.344933818576
 21
486.6087457944764
 31
0.0
  0
LINE
  5
1167
330
2
100
AcDbEntity
  8
0
100
AcDbLine
 10
1426.344933818576
 20
485.7427203906922
 30
0.0
 11
1433.844933818576
 21
485.7427203906922
 31
0.0
  0
LINE
  5
1168
330
2
100
AcDbEntity
  8
0
100
AcDbLine
 10
1433.844933818576
 20
498.7427203906922
 30
0.0
 11
1434.344933818576
 21
497.8766949869082
 31
0.0
  0
LINE
  5
1169
330
2
100
AcDbEntity
  8
0
100
AcDbLine
 10
1429.487090681325
 20
498.7427203906922
 30
0.0
 11
1433.844933818576
 21
498.7427203906922
 31
0.0
  0
LINE
  5
116A
330
2
100
AcDbEntity
  8
0
100
AcDbLine
 10
1433.844933818576
 20
498.7427203906922
 30
0.0
 11
1433.844933818576
 21
485.7427203906922
 31
0.0
  0
LINE
  5
116B
330
2
100
AcDbEntity
  8
0
100
AcDbLine
 10
1293.344937147387
 20
510.7427203906031
 30
0.0
 11
1293.344937147387
 21
559.7427203906031
 31
0.0
  0
LINE
  5
116C
330
2
100
AcDbEntity
  8
0
100
AcDbLine
 10
1293.344937147387
 20
559.7427203906031
 30
0.0
 11
1306.344937147387
 21
559.7427203906031
 31
0.0
  0
LINE
  5
116D
330
2
100
AcDbEntity
  8
0
100
AcDbLine
 10
1293.344937147387
 20
510.7427203906031
 30
0.0
 11
1306.344937147387
 21
510.7427203906031
 31
0.0
  0
LINE
  5
116E
330
2
100
AcDbEntity
  8
0
100
AcDbLine
 10
1445.344933818576
 20
510.7427203906031
 30
0.0
 11
1447.344937147387
 21
510.7427203906031
 31
0.0
  0
LINE
  5
116F
330
2
100
AcDbEntity
  8
0
100
AcDbLine
 10
1445.344933818576
 20
559.7427203906031
 30
0.0
 11
1447.344937147387
 21
559.7427203906031
 31
0.0
  0
LINE
  5
1170
330
2
100
AcDbEntity
  8
0
100
AcDbLine
 10
1447.344937147387
 20
510.7427203906031
 30
0.0
 11
1447.344937147387
 21
559.7427203906031
 31
0.0
  0
LINE
  5
1171
330
2
100
AcDbEntity
  8
0
 48
0.3
100
AcDbLine
 10
545.8628323130429
 20
599.9927203905176
 30
0.0
 11
545.8628323130429
 21
585.4927203905176
 31
0.0
  0
LINE
  5
1172
330
2
100
AcDbEntity
  8
0
 48
0.3
100
AcDbLine
 10
545.8628323130429
 20
585.4927203905176
 30
0.0
 11
547.8628323130428
 21
585.4927203905176
 31
0.0
  0
LINE
  5
1173
330
2
100
AcDbEntity
  8
0
 48
0.3
100
AcDbLine
 10
545.8628323130429
 20
599.9927203905176
 30
0.0
 11
547.8628323130428
 21
599.9927203905176
 31
0.0
  0
LINE
  5
1174
330
2
100
AcDbEntity
  8
0
100
AcDbLine
 10
547.8628323130428
 20
599.9927203905176
 30
0.0
 11
547.8628323130428
 21
585.4927203905176
 31
0.0
  0
LINE
  5
1175
330
2
100
AcDbEntity
  8
0
 48
0.3
100
AcDbLine
 10
545.8628323130429
 20
484.9927203905158
 30
0.0
 11
545.8628323130429
 21
470.4927203905158
 31
0.0
  0
LINE
  5
1176
330
2
100
AcDbEntity
  8
0
 48
0.3
100
AcDbLine
 10
545.8628323130429
 20
470.4927203905158
 30
0.0
 11
547.8628323130428
 21
470.4927203905158
 31
0.0
  0
LINE
  5
1177
330
2
100
AcDbEntity
  8
0
 48
0.3
100
AcDbLine
 10
545.8628323130429
 20
484.9927203905158
 30
0.0
 11
547.8628323130428
 21
484.9927203905158
 31
0.0
  0
LINE
  5
1178
330
2
100
AcDbEntity
  8
0
100
AcDbLine
 10
547.8628323130428
 20
484.9927203905158
 30
0.0
 11
547.8628323130428
 21
470.4927203905158
 31
0.0
  0
LINE
  5
1179
330
2
100
AcDbEntity
  8
0
 48
0.3
100
AcDbLine
 10
587.2247588482146
 20
272.972469581281
 30
0.0
 11
587.2247588482146
 21
258.472469581281
 31
0.0
  0
LINE
  5
117A
330
2
100
AcDbEntity
  8
0
 48
0.3
100
AcDbLine
 10
587.2247588482146
 20
258.472469581281
 30
0.0
 11
589.2247588482145
 21
258.472469581281
 31
0.0
  0
LINE
  5
117B
330
2
100
AcDbEntity
  8
0
 48
0.3
100
AcDbLine
 10
587.2247588482146
 20
272.972469581281
 30
0.0
 11
589.2247588482145
 21
272.972469581281
 31
0.0
  0
LINE
  5
117C
330
2
100
AcDbEntity
  8
0
100
AcDbLine
 10
589.2247588482145
 20
272.972469581281
 30
0.0
 11
589.2247588482145
 21
258.472469581281
 31
0.0
  0
LINE
  5
117D
330
2
100
AcDbEntity
  8
0
 48
0.3
100
AcDbLine
 10
587.2247588482146
 20
157.9724695812774
 30
0.0
 11
587.2247588482146
 21
143.4724695812774
 31
0.0
  0
LINE
  5
117E
330
2
100
AcDbEntity
  8
0
 48
0.3
100
AcDbLine
 10
587.2247588482146
 20
143.4724695812774
 30
0.0
 11
589.2247588482145
 21
143.4724695812774
 31
0.0
  0
LINE
  5
117F
330
2
100
AcDbEntity
  8
0
 48
0.3
100
AcDbLine
 10
587.2247588482146
 20
157.9724695812774
 30
0.0
 11
589.2247588482145
 21
157.9724695812774
 31
0.0
  0
LINE
  5
1180
330
2
100
AcDbEntity
  8
0
100
AcDbLine
 10
589.2247588482145
 20
157.9724695812774
 30
0.0
 11
589.2247588482145
 21
143.4724695812774
 31
0.0
  0
LINE
  5
1181
330
2
100
AcDbEntity
  8
0
 48
0.3
100
AcDbLine
 10
833.11947304185
 20
938.4413183703186
 30
0.0
 11
818.6194730418501
 21
938.4413183703186
 31
0.0
  0
LINE
  5
1182
330
2
100
AcDbEntity
  8
0
 48
0.3
100
AcDbLine
 10
818.6194730418501
 20
938.4413183703186
 30
0.0
 11
818.6194730418501
 21
936.4413183703186
 31
0.0
  0
LINE
  5
1183
330
2
100
AcDbEntity
  8
0
 48
0.3
100
AcDbLine
 10
833.11947304185
 20
938.4413183703186
 30
0.0
 11
833.11947304185
 21
936.4413183703186
 31
0.0
  0
LINE
  5
1184
330
2
100
AcDbEntity
  8
0
100
AcDbLine
 10
833.11947304185
 20
936.4413183703186
 30
0.0
 11
818.6194730418501
 21
936.4413183703186
 31
0.0
  0
LINE
  5
1185
330
2
100
AcDbEntity
  8
0
 48
0.3
100
AcDbLine
 10
1001.61947304185
 20
938.4413183703186
 30
0.0
 11
987.1194730418501
 21
938.4413183703186
 31
0.0
  0
LINE
  5
1186
330
2
100
AcDbEntity
  8
0
 48
0.3
100
AcDbLine
 10
987.1194730418501
 20
938.4413183703186
 30
0.0
 11
987.1194730418501
 21
936.4413183703186
 31
0.0
  0
LINE
  5
1187
330
2
100
AcDbEntity
  8
0
 48
0.3
100
AcDbLine
 10
1001.61947304185
 20
938.4413183703186
 30
0.0
 11
1001.61947304185
 21
936.4413183703186
 31
0.0
  0
LINE
  5
1188
330
2
100
AcDbEntity
  8
0
100
AcDbLine
 10
1001.61947304185
 20
936.4413183703186
 30
0.0
 11
987.1194730418501
 21
936.4413183703186
 31
0.0
  0
CIRCLE
  5
1189
330
2
100
AcDbEntity
  8
0
100
AcDbCircle
 10
231.2318041001658
 20
578.2427203907777
 30
0.0
 40
7.250000000001591
  0
CIRCLE
  5
118A
330
2
100
AcDbEntity
  8
0
100
AcDbCircle
 10
231.2318041001658
 20
492.2427203907777
 30
0.0
 40
7.250000000001591
  0
CIRCLE
  5
118B
330
2
100
AcDbEntity
  8
0
100
AcDbCircle
 10
399.7318041001658
 20
477.7427203907759
 30
0.0
 40
7.250000000001591
  0
CIRCLE
  5
118C
330
2
100
AcDbEntity
  8
0
100
AcDbCircle
 10
399.7318041001658
 20
592.7427203907777
 30
0.0
 40
7.250000000001591
  0
LINE
  5
118D
330
2
100
AcDbEntity
  8
CENTER
100
AcDbLine
 10
551.8628323130428
 20
592.7427203905176
 30
0.0
 11
534.8628323130428
 21
592.7427203905176
 31
0.0
  0
LINE
  5
118E
330
2
100
AcDbEntity
  8
CENTER
100
AcDbLine
 10
551.8628323130428
 20
477.7427203905158
 30
0.0
 11
534.8628323130428
 21
477.7427203905158
 31
0.0
  0
LINE
  5
118F
330
2
100
AcDbEntity
  8
CENTER
100
AcDbLine
 10
593.2247588482145
 20
265.722469581281
 30
0.0
 11
576.2247588482146
 21
265.722469581281
 31
0.0
  0
LINE
  5
1190
330
2
100
AcDbEntity
  8
CENTER
100
AcDbLine
 10
593.2247588482145
 20
150.7224695812774
 30
0.0
 11
576.2247588482146
 21
150.7224695812774
 31
0.0
  0
LINE
  5
1191
330
2
100
AcDbEntity
  8
CENTER
100
AcDbLine
 10
825.86947304185
 20
932.4413183703185
 30
0.0
 11
825.86947304185
 21
949.4413183703185
 31
0.0
  0
LINE
  5
1192
330
2
100
AcDbEntity
  8
CENTER
100
AcDbLine
 10
994.3694730418519
 20
932.4413183703185
 30
0.0
 11
994.3694730418519
 21
949.4413183703185
 31
0.0
  0
LINE
  5
1193
330
2
100
AcDbEntity
  8
0
 48
0.3
100
AcDbLine
 10
1426.344933818576
 20
584.5657632179681
 30
0.0
 11
1426.344933818576
 21
585.4927203906904
 31
0.0
  0
LINE
  5
1194
330
2
100
AcDbEntity
  8
0
 48
0.3
100
AcDbLine
 10
1426.344933818576
 20
585.4927203906904
 30
0.0
 11
1424.889373603491
 21
585.4927203906904
 31
0.0
  0
LINE
  5
1195
330
2
100
AcDbEntity
  8
0
 48
0.3
100
AcDbLine
 10
1426.344933818576
 20
484.9927203906922
 30
0.0
 11
1426.344933818576
 21
485.9196775634146
 31
0.0
  0
LINE
  5
1196
330
2
100
AcDbEntity
  8
0
 48
0.3
100
AcDbLine
 10
1426.344933818576
 20
484.9927203906922
 30
0.0
 11
1424.889373603491
 21
484.9927203906922
 31
0.0
  0
LINE
  5
1197
330
2
100
AcDbEntity
  8
CENTER
100
AcDbLine
 10
1438.961722655378
 20
578.2427203906904
 30
0.0
 11
1424.08167908092
 21
578.2427203906904
 31
0.0
  0
LINE
  5
1198
330
2
100
AcDbEntity
  8
CENTER
100
AcDbLine
 10
1438.961722655378
 20
492.2427203906923
 30
0.0
 11
1424.08167908092
 21
492.2427203906923
 31
0.0
  0
LINE
  5
1199
330
2
100
AcDbEntity
  8
HIDS
  6
SEKKEI_H
100
AcDbLine
 10
987.8694730418501
 20
941.441318370315
 30
0.0
 11
1000.255947603798
 21
941.4413183703151
 31
0.0
  0
ARC
  5
119A
330
2
100
AcDbEntity
  8
HIDS
  6
SEKKEI_H
100
AcDbCircle
 10
1000.255947603798
 20
939.441318370315
 30
0.0
 40
2.000000000000015
100
AcDbArc
 50
72.13575521910413
 51
90.0
  0
LINE
  5
1638
330
2
100
AcDbEntity
  8
0
100
AcDbLine
 10
1047.33949504185
 20
586.2427203907778
 30
0.0
 11
1047.33949504185
 21
484.2427203907777
 31
0.0
  0
LINE
  5
1665
330
2
100
AcDbEntity
  8
0
100
AcDbLine
 10
178.2617821001653
 20
586.2427203907775
 30
0.0
 11
178.2617821001653
 21
484.2427203907775
 31
0.0
  0
LINE
  5
192D
330
2
100
AcDbEntity
  8
0
100
AcDbLine
 10
1327.34493714739
 20
579.357490344083
 30
0.0
 11
1327.344937147387
 21
583.4964970668047
 31
0.0
  0
LINE
  5
1930
330
2
100
AcDbEntity
  8
0
100
AcDbLine
 10
1378.344933818576
 20
586.742715551931
 30
0.0
 11
1335.266505256146
 21
586.3203797565898
 31
0.0
  0
TEXT
  5
1B9D
330
2
100
AcDbEntity
  8
TITLE
100
AcDbText
 10
554.1439174795691
 20
934.7243058252896
 30
0.0
 40
10.0
  1
AFCZ32S-10~30M1000K61
100
AcDbText
  0
TEXT
  5
1B9E
330
2
100
AcDbEntity
  8
TITLE
100
AcDbText
 10
554.1439174795691
 20
919.4458820064213
 30
0.0
 40
10.0
  1
AFCZ32S-10~30L1000K61
100
AcDbText
  0
LINE
  5
1E31
330
2
100
AcDbEntity
  8
0
100
AcDbLine
 10
1047.33949504185
 20
586.2427203907778
 30
0.0
 11
1047.33949504185
 21
484.2427203907777
 31
0.0
  0
LINE
  5
208C
330
2
100
AcDbEntity
  8
0
100
AcDbLine
 10
1047.33949504185
 20
586.2427203907778
 30
0.0
 11
1047.33949504185
 21
484.2427203907777
 31
0.0
  0
LINE
  5
234D
330
2
100
AcDbEntity
  8
0
100
AcDbLine
 10
1047.33949504185
 20
484.2427203907777
 30
0.0
 11
1047.33949504185
 21
586.2427203907782
 31
0.0
  0
LINE
  5
234E
330
2
100
AcDbEntity
  8
0
100
AcDbLine
 10
1060.873795905931
 20
486.2078155779036
 30
0.0
 11
1061.729703353188
 21
535.2427203907782
 31
0.0
  0
LINE
  5
234F
330
2
100
AcDbEntity
  8
0
100
AcDbLine
 10
1100.995126664656
 20
554.9715715070358
 30
0.0
 11
1100.956092879204
 21
557.2078155779031
 31
0.0
  0
ARC
  5
2350
330
2
100
AcDbEntity
  8
0
100
AcDbCircle
 10
1102.955788269517
 20
557.2427203907778
 30
0.0
 40
2.0
100
AcDbArc
 50
90.0
 51
181.0000000000017
  0
LINE
  5
2351
330
2
100
AcDbEntity
  8
0
100
AcDbLine
 10
1131.839495041849
 20
490.2427203907782
 30
0.0
 11
1131.839495041849
 21
580.2427203907777
 31
0.0
  0
LINE
  5
2353
330
2
100
AcDbEntity
  8
0
100
AcDbLine
 10
1131.839495041849
 20
580.2427203907781
 30
0.0
 11
1103.017694304205
 21
580.2427203907768
 31
0.0
  0
LINE
  5
2354
330
2
100
AcDbEntity
  8
0
100
AcDbLine
 10
1098.603333895244
 20
586.2427203907782
 30
0.0
 11
1047.33949504185
 21
586.2427203907778
 31
0.0
  0
ARC
  5
2355
330
2
100
AcDbEntity
  8
0
100
AcDbCircle
 10
1098.603333895244
 20
584.2427203907782
 30
0.0
 40
2.0
100
AcDbArc
 50
9.999999999988984
 51
90.0
  0
LINE
  5
2356
330
2
100
AcDbEntity
  8
0
100
AcDbLine
 10
1101.04807879818
 20
581.8954240354428
 30
0.0
 11
1100.572949401269
 21
584.5900167461122
 31
0.0
  0
ARC
  5
2357
330
2
100
AcDbEntity
  8
0
100
AcDbCircle
 10
1103.017694304205
 20
582.2427203907769
 30
0.0
 40
2.0
100
AcDbArc
 50
189.999999999989
 51
270.0
  0
LINE
  5
2358
330
2
100
AcDbEntity
  8
0
100
AcDbLine
 10
1131.839495041849
 20
490.2427203907782
 30
0.0
 11
1103.017694304205
 21
490.2427203907786
 31
0.0
  0
LINE
  5
2359
330
2
100
AcDbEntity
  8
0
100
AcDbLine
 10
1098.603333895244
 20
484.2427203907777
 30
0.0
 11
1047.33949504185
 21
484.2427203907782
 31
0.0
  0
ARC
  5
235A
330
2
100
AcDbEntity
  8
0
100
AcDbCircle
 10
1058.874100515619
 20
486.2427203907778
 30
0.0
 40
2.0
100
AcDbArc
 50
270.0
 51
358.9999999999982
  0
LINE
  5
235B
330
2
100
AcDbEntity
  8
0
100
AcDbLine
 10
1107.793022073896
 20
559.2427203907782
 30
0.0
 11
1102.955788269517
 21
559.2427203907777
 31
0.0
  0
ARC
  5
235C
330
2
100
AcDbEntity
  8
0
100
AcDbCircle
 10
1107.793022073896
 20
561.2427203907814
 30
0.0
 40
2.0
100
AcDbArc
 50
270.0
 51
358.9999999999982
  0
LINE
  5
235D
330
2
100
AcDbEntity
  8
0
100
AcDbLine
 10
1109.792717464209
 20
561.2078155779068
 30
0.0
 11
1110.090672099538
 21
578.2776252036551
 31
0.0
  0
ARC
  5
235E
330
2
100
AcDbEntity
  8
0
100
AcDbCircle
 10
1112.090367489851
 20
578.2427203907805
 30
0.0
 40
2.0
100
AcDbArc
 50
90.0
 51
178.9999999999982
  0
LINE
  5
235F
330
2
100
AcDbEntity
  8
0
100
AcDbLine
 10
1131.839495041849
 20
535.2427203907782
 30
0.0
 11
1047.33949504185
 21
535.2427203907778
 31
0.0
  0
LINE
  5
2360
330
2
100
AcDbEntity
  8
0
100
AcDbLine
 10
1101.339495041849
 20
535.2427203907782
 30
0.0
 11
1100.956092879204
 21
513.2776252036528
 31
0.0
  0
ARC
  5
2361
330
2
100
AcDbEntity
  8
0
100
AcDbCircle
 10
1102.955788269517
 20
513.2427203907782
 30
0.0
 40
2.0
100
AcDbArc
 50
178.9999999999982
 51
270.0
  0
ARC
  5
2362
330
2
100
AcDbEntity
  8
0
100
AcDbCircle
 10
1098.603333895244
 20
486.2427203907778
 30
0.0
 40
2.0
100
AcDbArc
 50
270.0
 51
350.0000000000078
  0
LINE
  5
2363
330
2
100
AcDbEntity
  8
0
100
AcDbLine
 10
1101.04807879818
 20
488.5900167461131
 30
0.0
 11
1100.572949401269
 21
485.8954240354441
 31
0.0
  0
ARC
  5
2364
330
2
100
AcDbEntity
  8
0
100
AcDbCircle
 10
1103.017694304205
 20
488.2427203907791
 30
0.0
 40
2.0
100
AcDbArc
 50
90.0
 51
170.0000000000077
  0
LINE
  5
2365
330
2
100
AcDbEntity
  8
0
100
AcDbLine
 10
1107.793022073896
 20
511.2427203907778
 30
0.0
 11
1102.955788269517
 21
511.2427203907782
 31
0.0
  0
LINE
  5
2366
330
2
100
AcDbEntity
  8
0
100
AcDbLine
 10
1110.090672099538
 20
492.2078155779031
 30
0.0
 11
1109.792717464209
 21
509.2776252036523
 31
0.0
  0
ARC
  5
2367
330
2
100
AcDbEntity
  8
0
100
AcDbCircle
 10
1107.793022073895
 20
509.2427203907777
 30
0.0
 40
2.0
100
AcDbArc
 50
1.000000000001761
 51
90.0
  0
ARC
  5
2368
330
2
100
AcDbEntity
  8
0
100
AcDbCircle
 10
1112.090367489851
 20
492.2427203907777
 30
0.0
 40
2.0
100
AcDbArc
 50
181.0000000000017
 51
270.0
  0
LINE
  5
2369
330
2
100
AcDbEntity
  8
0
100
AcDbLine
 10
1060.873795905931
 20
584.2776252036523
 30
0.0
 11
1061.408762249308
 21
553.6294239177918
 31
0.0
  0
ARC
  5
236A
330
2
100
AcDbEntity
  8
0
100
AcDbCircle
 10
1058.874100515619
 20
584.2427203907777
 30
0.0
 40
2.0
100
AcDbArc
 50
1.000000000001761
 51
90.0
  0
LINE
  5
236B
330
2
100
AcDbEntity
  8
0
100
AcDbLine
 10
1104.265247578283
 20
576.0327203907731
 30
0.0
 11
1099.280938570201
 21
576.0327203907731
 31
0.0
  0
ARC
  5
236C
330
2
100
AcDbEntity
  8
0
100
AcDbCircle
 10
1099.280938570201
 20
578.0327203907732
 30
0.0
 40
2.0
100
AcDbArc
 50
270.0
 51
358.4999999999973
  0
LINE
  5
236D
330
2
100
AcDbEntity
  8
0
100
AcDbLine
 10
1101.288494133743
 20
578.295074287389
 30
0.0
 11
1101.280253220153
 21
577.9803664941574
 31
0.0
  0
ARC
  5
236E
330
2
100
AcDbEntity
  8
0
100
AcDbCircle
 10
1103.287808783695
 20
578.2427203907732
 30
0.0
 40
2.0
100
AcDbArc
 50
90.0
 51
178.4999999999973
  0
LINE
  5
236F
330
2
100
AcDbEntity
  8
0
100
AcDbLine
 10
1047.339495041849
 20
941.941318370295
 30
0.0
 11
1047.339495041849
 21
838.941318370295
 31
0.0
  0
LINE
  5
2370
330
2
100
AcDbEntity
  8
0
100
AcDbLine
 10
1060.839495041849
 20
939.941318370295
 30
0.0
 11
1060.839495041849
 21
840.941318370295
 31
0.0
  0
LINE
  5
2371
330
2
100
AcDbEntity
  8
CENTER
100
AcDbLine
 10
1113.339495041848
 20
880.941318370295
 30
0.0
 11
1113.339495041848
 21
859.9413183702949
 31
0.0
  0
LINE
  5
2372
330
2
100
AcDbEntity
  8
0
100
AcDbLine
 10
1109.339495041849
 20
857.941318370295
 30
0.0
 11
1109.339495041849
 21
847.4413183702955
 31
0.0
  0
ARC
  5
2373
330
2
100
AcDbEntity
  8
0
100
AcDbCircle
 10
1111.339495041849
 20
847.4413183702955
 30
0.0
 40
2.0
100
AcDbArc
 50
180.0
 51
270.0
  0
LINE
  5
2374
330
2
100
AcDbEntity
  8
0
100
AcDbLine
 10
1131.839495041848
 20
935.4413183702945
 30
0.0
 11
1131.839495041848
 21
845.4413183702952
 31
0.0
  0
LINE
  5
2376
330
2
100
AcDbEntity
  8
0
100
AcDbLine
 10
1107.339495041848
 20
914.4413183702946
 30
0.0
 11
1103.339495041849
 21
914.4413183702949
 31
0.0
  0
ARC
  5
2377
330
2
100
AcDbEntity
  8
0
100
AcDbCircle
 10
1107.339495041848
 20
916.4413183702945
 30
0.0
 40
2.0
100
AcDbArc
 50
270.0
 51
0.0
  0
LINE
  5
2378
330
2
100
AcDbEntity
  8
0
100
AcDbLine
 10
1107.339495041849
 20
859.9413183702949
 30
0.0
 11
1103.339495041849
 21
859.9413183702946
 31
0.0
  0
ARC
  5
2379
330
2
100
AcDbEntity
  8
0
100
AcDbCircle
 10
1103.339495041849
 20
861.9413183702945
 30
0.0
 40
2.0
100
AcDbArc
 50
180.0
 51
270.0
  0
ARC
  5
237A
330
2
100
AcDbEntity
  8
0
100
AcDbCircle
 10
1107.339495041849
 20
857.941318370295
 30
0.0
 40
2.0
100
AcDbArc
 50
0.0
 51
90.0
  0
LINE
  5
237B
330
2
100
AcDbEntity
  8
CENTER
100
AcDbLine
 10
1123.839495041848
 20
870.441318370295
 30
0.0
 11
1102.839495041848
 21
870.441318370295
 31
0.0
  0
LINE
  5
237C
330
2
100
AcDbEntity
  8
0
100
AcDbLine
 10
1131.839495041848
 20
845.4413183702952
 30
0.0
 11
1103.017694304204
 21
845.4413183702959
 31
0.0
  0
LINE
  5
237D
330
2
100
AcDbEntity
  8
0
100
AcDbLine
 10
1098.603333895243
 20
839.4413183702949
 30
0.0
 11
1060.775986714952
 21
839.4413183702949
 31
0.0
  0
ARC
  5
237E
330
2
100
AcDbEntity
  8
0
100
AcDbCircle
 10
1058.839495041849
 20
841.4413183702949
 30
0.0
 40
2.0
100
AcDbArc
 50
270.0
 51
0.0
  0
LINE
  5
237F
330
2
100
AcDbEntity
  8
0
100
AcDbLine
 10
1047.339495041849
 20
838.941318370295
 30
0.0
 11
1058.839495041849
 21
838.941318370295
 31
0.0
  0
ARC
  5
2380
330
2
100
AcDbEntity
  8
0
100
AcDbCircle
 10
1058.839495041849
 20
840.941318370295
 30
0.0
 40
2.0
100
AcDbArc
 50
270.0
 51
0.0
  0
ARC
  5
2381
330
2
100
AcDbEntity
  8
0
100
AcDbCircle
 10
1060.775986714953
 20
837.441318370295
 30
0.0
 40
2.0
100
AcDbArc
 50
90.0
 51
118.9550243718461
  0
LINE
  5
2382
330
2
100
AcDbEntity
  8
0
100
AcDbLine
 10
1058.839495041849
 20
839.4413183702949
 30
0.0
 11
1047.339495041849
 21
839.4413183702949
 31
0.0
  0
LINE
  5
2383
330
2
100
AcDbEntity
  8
0
100
AcDbLine
 10
1101.339495041848
 20
912.441318370295
 30
0.0
 11
1101.339495041849
 21
861.9413183702945
 31
0.0
  0
ARC
  5
2384
330
2
100
AcDbEntity
  8
0
100
AcDbCircle
 10
1103.339495041848
 20
912.441318370295
 30
0.0
 40
2.0
100
AcDbArc
 50
90.0
 51
180.0
  0
LINE
  5
2385
330
2
100
AcDbEntity
  8
0
100
AcDbLine
 10
1131.839495041848
 20
935.4413183702945
 30
0.0
 11
1103.017694304204
 21
935.4413183702945
 31
0.0
  0
LINE
  5
2386
330
2
100
AcDbEntity
  8
0
100
AcDbLine
 10
1098.603333895243
 20
941.4413183702949
 30
0.0
 11
1060.775986714952
 21
941.4413183702949
 31
0.0
  0
LINE
  5
2387
330
2
100
AcDbEntity
  8
0
100
AcDbLine
 10
1109.339495041849
 20
933.4413183702945
 30
0.0
 11
1109.339495041848
 21
916.4413183702945
 31
0.0
  0
ARC
  5
2388
330
2
100
AcDbEntity
  8
0
100
AcDbCircle
 10
1111.339495041849
 20
933.4413183702945
 30
0.0
 40
2.0
100
AcDbArc
 50
90.0
 51
180.0
  0
ARC
  5
2389
330
2
100
AcDbEntity
  8
0
100
AcDbCircle
 10
1058.839495041849
 20
939.4413183702949
 30
0.0
 40
2.0
100
AcDbArc
 50
0.0
 51
90.0
  0
LINE
  5
238A
330
2
100
AcDbEntity
  8
0
100
AcDbLine
 10
1047.339495041849
 20
941.941318370295
 30
0.0
 11
1058.839495041849
 21
941.941318370295
 31
0.0
  0
ARC
  5
238B
330
2
100
AcDbEntity
  8
0
100
AcDbCircle
 10
1058.839495041849
 20
939.941318370295
 30
0.0
 40
2.0
100
AcDbArc
 50
0.0
 51
90.0
  0
ARC
  5
238C
330
2
100
AcDbEntity
  8
0
100
AcDbCircle
 10
1060.775986714953
 20
943.441318370295
 30
0.0
 40
2.0
100
AcDbArc
 50
241.0449756281539
 51
270.0
  0
LINE
  5
238D
330
2
100
AcDbEntity
  8
0
100
AcDbLine
 10
1058.839495041849
 20
941.4413183702949
 30
0.0
 11
1047.339495041849
 21
941.4413183702949
 31
0.0
  0
ARC
  5
238E
330
2
100
AcDbEntity
  8
0
100
AcDbCircle
 10
1098.603333895243
 20
841.4413183702945
 30
0.0
 40
2.0
100
AcDbArc
 50
270.0
 51
350.0000000000078
  0
LINE
  5
238F
330
2
100
AcDbEntity
  8
0
100
AcDbLine
 10
1101.048078798179
 20
843.78861472563
 30
0.0
 11
1100.572949401268
 21
841.0940220149608
 31
0.0
  0
ARC
  5
2390
330
2
100
AcDbEntity
  8
0
100
AcDbCircle
 10
1103.017694304204
 20
843.4413183702959
 30
0.0
 40
2.0
100
AcDbArc
 50
90.0
 51
170.0000000000077
  0
ARC
  5
2391
330
2
100
AcDbEntity
  8
0
100
AcDbCircle
 10
1098.603333895243
 20
939.4413183702949
 30
0.0
 40
2.0
100
AcDbArc
 50
9.999999999992192
 51
90.0
  0
LINE
  5
2392
330
2
100
AcDbEntity
  8
0
100
AcDbLine
 10
1101.048078798179
 20
937.0940220149595
 30
0.0
 11
1100.572949401268
 21
939.788614725629
 31
0.0
  0
ARC
  5
2393
330
2
100
AcDbEntity
  8
0
100
AcDbCircle
 10
1103.017694304204
 20
937.4413183702936
 30
0.0
 40
2.0
100
AcDbArc
 50
189.9999999999922
 51
270.0
  0
LINE
  5
23B1
330
2
100
AcDbEntity
  8
0
100
AcDbLine
 10
178.2617821001654
 20
484.2427203907776
 30
0.0
 11
178.2617821001654
 21
586.2427203907781
 31
0.0
  0
LINE
  5
23B2
330
2
100
AcDbEntity
  8
0
100
AcDbLine
 10
164.7274812360842
 20
486.2078155779035
 30
0.0
 11
163.8715737888273
 21
535.242720390778
 31
0.0
  0
LINE
  5
23B3
330
2
100
AcDbEntity
  8
0
100
AcDbLine
 10
124.2617821001663
 20
535.2427203907776
 30
0.0
 11
124.6451842628116
 21
557.207815577903
 31
0.0
  0
ARC
  5
23B4
330
2
100
AcDbEntity
  8
0
100
AcDbCircle
 10
122.6454888724988
 20
557.2427203907777
 30
0.0
 40
2.0
100
AcDbArc
 50
358.9999999999982
 51
90.0
  0
LINE
  5
23B5
330
2
100
AcDbEntity
  8
0
100
AcDbLine
 10
93.76178210016632
 20
490.2427203907787
 30
0.0
 11
93.76178210016588
 21
580.2427203907772
 31
0.0
  0
LINE
  5
23B7
330
2
100
AcDbEntity
  8
0
100
AcDbLine
 10
93.76178210016632
 20
580.2427203907774
 30
0.0
 11
122.5835828378108
 21
580.2427203907767
 31
0.0
  0
LINE
  5
23B8
330
2
100
AcDbEntity
  8
0
100
AcDbLine
 10
126.9979432467712
 20
586.2427203907781
 30
0.0
 11
178.2617821001654
 21
586.2427203907777
 31
0.0
  0
ARC
  5
23B9
330
2
100
AcDbEntity
  8
0
100
AcDbCircle
 10
126.9979432467712
 20
584.2427203907781
 30
0.0
 40
2.0
100
AcDbArc
 50
90.0
 51
170.0000000000089
  0
LINE
  5
23BA
330
2
100
AcDbEntity
  8
0
100
AcDbLine
 10
124.5531983438354
 20
581.8954240354427
 30
0.0
 11
125.0283277407465
 21
584.5900167461121
 31
0.0
  0
ARC
  5
23BB
330
2
100
AcDbEntity
  8
0
100
AcDbCircle
 10
122.5835828378108
 20
582.2427203907767
 30
0.0
 40
2.0
100
AcDbArc
 50
270.0
 51
350.0000000000089
  0
LINE
  5
23BC
330
2
100
AcDbEntity
  8
0
100
AcDbLine
 10
93.76178210016632
 20
490.2427203907783
 30
0.0
 11
122.5835828378108
 21
490.2427203907786
 31
0.0
  0
LINE
  5
23BD
330
2
100
AcDbEntity
  8
0
100
AcDbLine
 10
126.9979432467712
 20
484.2427203907776
 30
0.0
 11
178.2617821001654
 21
484.2427203907781
 31
0.0
  0
ARC
  5
23BE
330
2
100
AcDbEntity
  8
0
100
AcDbCircle
 10
166.727176626397
 20
486.2427203907777
 30
0.0
 40
2.0
100
AcDbArc
 50
180.9999999999887
 51
270.0
  0
LINE
  5
23BF
330
2
100
AcDbEntity
  8
0
100
AcDbLine
 10
117.8082550681197
 20
559.2427203907781
 30
0.0
 11
122.6454888724988
 21
559.2427203907776
 31
0.0
  0
ARC
  5
23C0
330
2
100
AcDbEntity
  8
0
100
AcDbCircle
 10
117.8082550681197
 20
561.2427203907812
 30
0.0
 40
2.0
100
AcDbArc
 50
180.9999999999887
 51
270.0
  0
LINE
  5
23C1
330
2
100
AcDbEntity
  8
0
100
AcDbLine
 10
115.8085596778068
 20
561.2078155779066
 30
0.0
 11
115.5106050424769
 21
578.2776252036549
 31
0.0
  0
ARC
  5
23C2
330
2
100
AcDbEntity
  8
0
100
AcDbCircle
 10
113.5109096521641
 20
578.2427203907803
 30
0.0
 40
2.0
100
AcDbArc
 50
1.000000000001761
 51
90.0
  0
LINE
  5
23C3
330
2
100
AcDbEntity
  8
0
100
AcDbLine
 10
93.76178210016632
 20
535.242720390778
 30
0.0
 11
178.2617821001654
 21
535.2427203907776
 31
0.0
  0
LINE
  5
23C4
330
2
100
AcDbEntity
  8
0
100
AcDbLine
 10
124.2617821001663
 20
535.242720390778
 30
0.0
 11
124.6451842628116
 21
513.2776252036527
 31
0.0
  0
ARC
  5
23C5
330
2
100
AcDbEntity
  8
0
100
AcDbCircle
 10
122.6454888724988
 20
513.2427203907781
 30
0.0
 40
2.0
100
AcDbArc
 50
270.0
 51
1.000000000001761
  0
ARC
  5
23C6
330
2
100
AcDbEntity
  8
0
100
AcDbCircle
 10
126.9979432467712
 20
486.2427203907777
 30
0.0
 40
2.0
100
AcDbArc
 50
189.9999999999878
 51
270.0
  0
LINE
  5
23C7
330
2
100
AcDbEntity
  8
0
100
AcDbLine
 10
124.5531983438354
 20
488.590016746113
 30
0.0
 11
125.0283277407465
 21
485.8954240354441
 31
0.0
  0
ARC
  5
23C8
330
2
100
AcDbEntity
  8
0
100
AcDbCircle
 10
122.5835828378108
 20
488.242720390779
 30
0.0
 40
2.0
100
AcDbArc
 50
9.999999999987855
 51
90.0
  0
LINE
  5
23C9
330
2
100
AcDbEntity
  8
0
100
AcDbLine
 10
117.8082550681197
 20
511.2427203907777
 30
0.0
 11
122.6454888724988
 21
511.2427203907781
 31
0.0
  0
LINE
  5
23CA
330
2
100
AcDbEntity
  8
0
100
AcDbLine
 10
115.5106050424778
 20
492.207815577903
 30
0.0
 11
115.8085596778068
 21
509.2776252036522
 31
0.0
  0
ARC
  5
23CB
330
2
100
AcDbEntity
  8
0
100
AcDbCircle
 10
117.8082550681206
 20
509.2427203907776
 30
0.0
 40
2.0
100
AcDbArc
 50
90.0
 51
178.9999999999982
  0
ARC
  5
23CC
330
2
100
AcDbEntity
  8
0
100
AcDbCircle
 10
113.510909652165
 20
492.2427203907776
 30
0.0
 40
2.0
100
AcDbArc
 50
270.0
 51
358.9999999999982
  0
LINE
  5
23CD
330
2
100
AcDbEntity
  8
0
100
AcDbLine
 10
164.7274812360842
 20
584.2776252036522
 30
0.0
 11
163.8715737888273
 21
535.2427203907776
 31
0.0
  0
ARC
  5
23CE
330
2
100
AcDbEntity
  8
0
100
AcDbCircle
 10
166.727176626397
 20
584.2427203907776
 30
0.0
 40
2.0
100
AcDbArc
 50
90.0
 51
178.9999999999982
  0
LINE
  5
23D0
330
2
100
AcDbEntity
  8
0
100
AcDbLine
 10
1417.231439012715
 20
580.24272039069
 30
0.0
 11
1339.458428624437
 21
580.24272039069
 31
0.0
  0
LINE
  5
23D1
330
2
100
AcDbEntity
  8
0
100
AcDbLine
 10
1417.231439012715
 20
490.2427203906905
 30
0.0
 11
1339.458428624437
 21
490.24272039069
 31
0.0
  0
LINE
  5
23D3
330
2
100
AcDbEntity
  8
0
100
AcDbLine
 10
1423.231413617793
 20
574.2601771492404
 30
0.0
 11
1423.344933818577
 21
535.2427203906905
 31
0.0
  0
ARC
  5
23D4
330
2
100
AcDbEntity
  8
0
100
AcDbCircle
 10
1417.231439012715
 20
574.2427203906904
 30
0.0
 40
6.0
100
AcDbArc
 50
0.1667000000095737
 51
90.0
  0
LINE
  5
23D5
330
2
100
AcDbEntity
  8
HIDS
  6
SEKKEI_H
100
AcDbLine
 10
1347.810632954494
 20
578.2776252035646
 30
0.0
 11
1347.669436555359
 21
570.1884889147181
 31
0.0
  0
ARC
  5
23D6
330
2
100
AcDbEntity
  8
HIDS
  6
SEKKEI_H
100
AcDbCircle
 10
1349.810328344807
 20
578.24272039069
 30
0.0
 40
2.0
100
AcDbArc
 50
90.0
 51
178.9999999999982
  0
LINE
  5
23D7
330
2
100
AcDbEntity
  8
0
100
AcDbLine
 10
1335.26688690429
 20
586.2427203833649
 30
0.0
 11
1421.422980732862
 21
586.2427203833649
 31
0.0
  0
ARC
  5
23D8
330
2
100
AcDbEntity
  8
0
100
AcDbCircle
 10
1335.26688690429
 20
578.2427203833649
 30
0.0
 40
8.0
100
AcDbArc
 50
90.0
 51
179.438294667338
  0
LINE
  5
23D9
330
2
100
AcDbEntity
  8
0
100
AcDbLine
 10
1406.879539292322
 20
586.2427203906682
 30
0.0
 11
1349.810328344814
 21
586.2427203906673
 31
0.0
  0
LINE
  5
23DA
330
2
100
AcDbEntity
  8
0
100
AcDbLine
 10
1406.879539292322
 20
484.2427203907123
 30
0.0
 11
1349.810328344814
 21
484.2427203907127
 31
0.0
  0
LINE
  5
23DB
330
2
100
AcDbEntity
  8
CENTER
100
AcDbLine
 10
1413.700272877903
 20
565.0980594500179
 30
0.0
 11
1413.700272877903
 21
576.0980594500178
 31
0.0
  0
LINE
  5
23DC
330
2
100
AcDbEntity
  8
CENTER
100
AcDbLine
 10
1408.200272877904
 20
570.5980594500179
 30
0.0
 11
1419.200272877904
 21
570.5980594500179
 31
0.0
  0
ARC
  5
23DD
330
2
100
AcDbEntity
  8
HIDS
  6
SEKKEI_H
100
AcDbCircle
 10
1378.344933818575
 20
535.2427203906922
 30
0.0
 40
50.99999999999756
100
AcDbArc
 50
106.3235402486149
 51
151.760358373201
  0
ARC
  5
23DE
330
2
100
AcDbEntity
  8
HIDS
  6
SEKKEI_H
100
AcDbCircle
 10
1378.344933818576
 20
535.242720390689
 30
0.0
 40
50.99999999999896
100
AcDbArc
 50
208.2396416267989
 51
241.9275130641455
  0
ARC
  5
23DF
330
2
100
AcDbEntity
  8
HIDS
  6
SEKKEI_H
100
AcDbCircle
 10
1378.344933818577
 20
535.242720390689
 30
0.0
 40
50.99999999999878
100
AcDbArc
 50
298.0724869358544
 51
331.760358373201
  0
ARC
  5
23E0
330
2
100
AcDbEntity
  8
0
100
AcDbCircle
 10
1378.344933818575
 20
535.2427203906899
 30
0.0
 40
51.000000000001
100
AcDbArc
 50
331.760358373201
 51
28.23964162679892
  0
ARC
  5
23E1
330
2
100
AcDbEntity
  8
HIDS
  6
SEKKEI_H
100
AcDbCircle
 10
1378.344933818572
 20
535.2427203906863
 30
0.0
 40
51.0000000000057
100
AcDbArc
 50
28.23964162679892
 51
61.9275130641455
  0
ARC
  5
23E2
330
2
100
AcDbEntity
  8
0
100
AcDbCircle
 10
1378.344933818577
 20
535.2427203906899
 30
0.0
 40
51.00000000000008
100
AcDbArc
 50
151.760358373201
 51
208.2396416267989
  0
LINE
  5
23E3
330
2
100
AcDbEntity
  8
0
100
AcDbLine
 10
1335.266886904289
 20
484.2427203980159
 30
0.0
 11
1421.422980732863
 21
484.2427203980159
 31
0.0
  0
LINE
  5
23E4
330
2
100
AcDbEntity
  8
CENTER
100
AcDbLine
 10
1345.1685269474
 20
577.6691272618681
 30
0.0
 11
1326.6685269474
 21
577.6691272618681
 31
0.0
  0
LINE
  5
23E5
330
2
100
AcDbEntity
  8
CENTER
100
AcDbLine
 10
1335.9185269474
 20
586.9191272618682
 30
0.0
 11
1335.9185269474
 21
568.4191272618686
 31
0.0
  0
LINE
  5
23E6
330
2
100
AcDbEntity
  8
CENTER
100
AcDbLine
 10
1411.521340689752
 20
577.6691272618681
 30
0.0
 11
1430.021340689752
 21
577.6691272618681
 31
0.0
  0
LINE
  5
23E7
330
2
100
AcDbEntity
  8
CENTER
100
AcDbLine
 10
1420.771340689752
 20
586.9191272618682
 30
0.0
 11
1420.771340689752
 21
568.4191272618686
 31
0.0
  0
LINE
  5
23E8
330
2
100
AcDbEntity
  8
CENTER
100
AcDbLine
 10
1345.1685269474
 20
492.8163135195118
 30
0.0
 11
1326.6685269474
 21
492.8163135195118
 31
0.0
  0
LINE
  5
23E9
330
2
100
AcDbEntity
  8
CENTER
100
AcDbLine
 10
1335.9185269474
 20
483.5663135195118
 30
0.0
 11
1335.9185269474
 21
502.0663135195118
 31
0.0
  0
LINE
  5
23EA
330
2
100
AcDbEntity
  8
CENTER
100
AcDbLine
 10
1411.521340689752
 20
492.8163135195118
 30
0.0
 11
1430.021340689752
 21
492.8163135195118
 31
0.0
  0
LINE
  5
23EB
330
2
100
AcDbEntity
  8
CENTER
100
AcDbLine
 10
1420.771340689752
 20
483.5663135195118
 30
0.0
 11
1420.771340689752
 21
502.0663135195118
 31
0.0
  0
ARC
  5
23EC
330
2
100
AcDbEntity
  8
0
100
AcDbCircle
 10
1378.344933811248
 20
535.2427203833622
 30
0.0
 40
51.00000000000004
100
AcDbArc
 50
61.92751308162695
 51
106.3235402268956
  0
ARC
  5
23ED
330
2
100
AcDbEntity
  8
0
100
AcDbCircle
 10
1378.344933825904
 20
535.2427203980187
 30
0.0
 40
51.00000000000004
100
AcDbArc
 50
241.927513081656
 51
298.0724869183439
  0
LINE
  5
23EE
330
2
100
AcDbEntity
  8
0
100
AcDbLine
 10
1327.267271344089
 20
578.3211479869078
 30
0.0
 11
1326.844933818576
 21
535.2427203906899
 31
0.0
  0
LINE
  5
23EF
330
2
100
AcDbEntity
  8
0
100
AcDbLine
 10
1327.267271344089
 20
492.1642927944731
 30
0.0
 11
1326.844933818576
 21
535.2427203906905
 31
0.0
  0
ARC
  5
23F0
330
2
100
AcDbEntity
  8
0
100
AcDbCircle
 10
1335.266886904289
 20
492.2427203980159
 30
0.0
 40
8.0
100
AcDbArc
 50
180.5617053326619
 51
270.0
  0
LINE
  5
23F1
330
2
100
AcDbEntity
  8
0
100
AcDbLine
 10
1429.422596293062
 20
578.3211479869073
 30
0.0
 11
1429.844933818577
 21
535.2427203906899
 31
0.0
  0
ARC
  5
23F2
330
2
100
AcDbEntity
  8
0
100
AcDbCircle
 10
1421.422980732862
 20
578.2427203833649
 30
0.0
 40
8.0
100
AcDbArc
 50
0.5617053326619182
 51
90.0
  0
LINE
  5
23F3
330
2
100
AcDbEntity
  8
0
100
AcDbLine
 10
1429.422596293063
 20
492.1642927944731
 30
0.0
 11
1429.844933818577
 21
535.2427203906905
 31
0.0
  0
ARC
  5
23F4
330
2
100
AcDbEntity
  8
0
100
AcDbCircle
 10
1421.422980732863
 20
492.2427203980159
 30
0.0
 40
8.0
100
AcDbArc
 50
270.0
 51
359.4382946673641
  0
LINE
  5
23F5
330
2
100
AcDbEntity
  8
CENTER
100
AcDbLine
 10
1413.700272877903
 20
494.387381331363
 30
0.0
 11
1413.700272877903
 21
505.387381331363
 31
0.0
  0
LINE
  5
23F6
330
2
100
AcDbEntity
  8
CENTER
100
AcDbLine
 10
1408.200272877904
 20
499.887381331363
 30
0.0
 11
1419.200272877904
 21
499.887381331363
 31
0.0
  0
LINE
  5
23F7
330
2
100
AcDbEntity
  8
CENTER
100
AcDbLine
 10
1342.989594759249
 20
494.387381331363
 30
0.0
 11
1342.989594759249
 21
505.387381331363
 31
0.0
  0
LINE
  5
23F8
330
2
100
AcDbEntity
  8
CENTER
100
AcDbLine
 10
1337.489594759249
 20
499.887381331363
 30
0.0
 11
1348.489594759249
 21
499.887381331363
 31
0.0
  0
LINE
  5
23F9
330
2
100
AcDbEntity
  8
CENTER
100
AcDbLine
 10
1342.989594759249
 20
565.0980594500179
 30
0.0
 11
1342.989594759249
 21
576.0980594500178
 31
0.0
  0
LINE
  5
23FA
330
2
100
AcDbEntity
  8
CENTER
100
AcDbLine
 10
1337.489594759249
 20
570.5980594500179
 30
0.0
 11
1348.489594759249
 21
570.5980594500179
 31
0.0
  0
LINE
  5
23FB
330
2
100
AcDbEntity
  8
0
100
AcDbLine
 10
1333.458454019359
 20
574.2601771492404
 30
0.0
 11
1333.344933818576
 21
535.2427203906905
 31
0.0
  0
ARC
  5
23FC
330
2
100
AcDbEntity
  8
0
100
AcDbCircle
 10
1339.458428624437
 20
574.2427203906904
 30
0.0
 40
6.000000000000002
100
AcDbArc
 50
90.0
 51
179.8332999999904
  0
LINE
  5
23FD
330
2
100
AcDbEntity
  8
0
100
AcDbLine
 10
1423.231413617793
 20
496.22526363214
 30
0.0
 11
1423.344933818577
 21
535.2427203906899
 31
0.0
  0
ARC
  5
23FE
330
2
100
AcDbEntity
  8
0
100
AcDbCircle
 10
1417.231439012715
 20
496.24272039069
 30
0.0
 40
6.0
100
AcDbArc
 50
270.0
 51
359.8332999999904
  0
LINE
  5
23FF
330
2
100
AcDbEntity
  8
0
100
AcDbLine
 10
1333.458454019359
 20
496.22526363214
 30
0.0
 11
1333.344933818576
 21
535.2427203906899
 31
0.0
  0
ARC
  5
2400
330
2
100
AcDbEntity
  8
0
100
AcDbCircle
 10
1339.458428624437
 20
496.24272039069
 30
0.0
 40
6.000000000000002
100
AcDbArc
 50
180.1667000000095
 51
270.0
  0
LINE
  5
2401
330
2
100
AcDbEntity
  8
0
100
AcDbLine
 10
1423.344933818577
 20
535.2427203906899
 30
0.0
 11
1429.844933818577
 21
535.2427203906899
 31
0.0
  0
LINE
  5
2402
330
2
100
AcDbEntity
  8
0
100
AcDbLine
 10
1333.344933818576
 20
535.2427203906899
 30
0.0
 11
1326.844933818576
 21
535.2427203906905
 31
0.0
  0
CIRCLE
  5
2403
330
2
100
AcDbEntity
  8
CENTER
100
AcDbCircle
 10
1378.344933818576
 20
535.2427203906905
 30
0.0
 40
50.0000000000004
  0
CIRCLE
  5
2404
330
2
100
AcDbEntity
  8
HOJO
100
AcDbCircle
 10
1413.700272877903
 20
570.5980594500183
 30
0.0
 40
3.0
  0
CIRCLE
  5
2405
330
2
100
AcDbEntity
  8
0
100
AcDbCircle
 10
1413.700272877903
 20
570.5980594500183
 30
0.0
 40
2.5
  0
CIRCLE
  5
2406
330
2
100
AcDbEntity
  8
HOJO
100
AcDbCircle
 10
1413.700272877903
 20
499.8873813313634
 30
0.0
 40
3.0
  0
CIRCLE
  5
2407
330
2
100
AcDbEntity
  8
0
100
AcDbCircle
 10
1413.700272877903
 20
499.8873813313634
 30
0.0
 40
2.5
  0
CIRCLE
  5
2408
330
2
100
AcDbEntity
  8
HOJO
100
AcDbCircle
 10
1342.989594759249
 20
499.8873813313625
 30
0.0
 40
3.0
  0
CIRCLE
  5
2409
330
2
100
AcDbEntity
  8
0
100
AcDbCircle
 10
1342.989594759249
 20
499.8873813313625
 30
0.0
 40
2.5
  0
CIRCLE
  5
240A
330
2
100
AcDbEntity
  8
HOJO
100
AcDbCircle
 10
1342.989594759249
 20
570.5980594500183
 30
0.0
 40
3.0
  0
CIRCLE
  5
240B
330
2
100
AcDbEntity
  8
0
100
AcDbCircle
 10
1342.989594759249
 20
570.5980594500183
 30
0.0
 40
2.5
  0
CIRCLE
  5
240C
330
2
100
AcDbEntity
  8
0
100
AcDbCircle
 10
1378.344933818576
 20
535.2427203906905
 30
0.0
 40
37.99999999999533
  0
CIRCLE
  5
240D
330
2
100
AcDbEntity
  8
0
100
AcDbCircle
 10
1378.344933818576
 20
535.2427203906905
 30
0.0
 40
40.00000000000068
  0
CIRCLE
  5
240E
330
2
100
AcDbEntity
  8
HIDS
  6
SEKKEI_H
100
AcDbCircle
 10
1378.344933818576
 20
535.2427203906905
 30
0.0
 40
45.0
  0
ARC
  5
240F
330
2
100
AcDbEntity
  8
HIDS
  6
SEKKEI_H
100
AcDbCircle
 10
1342.670198079578
 20
570.2757509469043
 30
0.0
 40
5.0
100
AcDbArc
 50
315.5199710189969
 51
358.9999999999982
  0
LINE
  5
2410
330
2
100
AcDbEntity
  8
HIDS
  6
SEKKEI_H
100
AcDbLine
 10
1408.879234682658
 20
492.2078155778162
 30
0.0
 11
1409.020431081793
 21
500.2969518666632
 31
0.0
  0
ARC
  5
2411
330
2
100
AcDbEntity
  8
HIDS
  6
SEKKEI_H
100
AcDbCircle
 10
1406.879539292345
 20
492.2427203906909
 30
0.0
 40
2.0
100
AcDbArc
 50
270.0
 51
358.9999999999982
  0
ARC
  5
2412
330
2
100
AcDbEntity
  8
HIDS
  6
SEKKEI_H
100
AcDbCircle
 10
1414.019669557575
 20
500.2096898344766
 30
0.0
 40
5.0
100
AcDbArc
 50
135.5199710189969
 51
178.9999999999982
  0
LINE
  5
2415
330
2
100
AcDbEntity
  8
HIDS
  6
SEKKEI_H
100
AcDbLine
 10
1363.931913251893
 20
570.4032783803472
 30
0.0
 11
1364.10366135104
 21
580.24272039069
 31
0.0
  0
LINE
  5
2416
330
2
100
AcDbEntity
  8
HIDS
  6
SEKKEI_H
100
AcDbLine
 10
1352.879369361374
 20
563.447419057327
 30
0.0
 11
1352.586206286113
 21
580.2427203906898
 31
0.0
  0
CIRCLE
  5
2418
330
2
100
AcDbEntity
  8
0
100
AcDbCircle
 10
1113.339495041848
 20
870.441318370295
 30
0.0
 40
9.0
  0
LINE
  5
2419
330
2
100
AcDbEntity
  8
CENTER
100
AcDbLine
 10
1113.339495041849
 20
587.7427203907777
 30
0.0
 11
1113.339495041849
 21
574.4825495335553
 31
0.0
  0
LINE
  5
241A
330
2
100
AcDbEntity
  8
0
100
AcDbLine
 10
1118.339495041849
 20
584.2427203907768
 30
0.0
 11
1108.339495041849
 21
584.2427203907768
 31
0.0
  0
ARC
  5
241B
330
2
100
AcDbEntity
  8
0
100
AcDbCircle
 10
1108.339495041849
 20
580.2427203907768
 30
0.0
 40
4.0
100
AcDbArc
 50
90.0
 51
180.0
  0
ARC
  5
241C
330
2
100
AcDbEntity
  8
0
100
AcDbCircle
 10
1118.339495041849
 20
580.2427203907768
 30
0.0
 40
4.0
100
AcDbArc
 50
0.0
 51
90.0
  0
LINE
  5
241D
330
2
100
AcDbEntity
  8
CENTER
  6
CENTERX2
100
AcDbLine
 10
112.2617821001663
 20
587.7427203907776
 30
0.0
 11
112.2617821001663
 21
574.4825495335552
 31
0.0
  0
LINE
  5
241E
330
2
100
AcDbEntity
  8
0
100
AcDbLine
 10
117.2617821001663
 20
584.2427203907767
 30
0.0
 11
107.2617821001663
 21
584.2427203907767
 31
0.0
  0
ARC
  5
241F
330
2
100
AcDbEntity
  8
0
100
AcDbCircle
 10
107.2617821001663
 20
580.2427203907767
 30
0.0
 40
4.0
100
AcDbArc
 50
90.0
 51
180.0
  0
ARC
  5
2420
330
2
100
AcDbEntity
  8
0
100
AcDbCircle
 10
117.2617821001663
 20
580.2427203907767
 30
0.0
 40
4.0
100
AcDbArc
 50
0.0
 51
90.0
  0
LINE
  5
2421
330
2
100
AcDbEntity
  8
0
100
AcDbLine
 10
1363.344933818577
 20
584.24272039069
 30
0.0
 11
1353.344933818577
 21
584.24272039069
 31
0.0
  0
ARC
  5
2422
330
2
100
AcDbEntity
  8
0
100
AcDbCircle
 10
1353.344933818577
 20
580.24272039069
 30
0.0
 40
4.0
100
AcDbArc
 50
90.0
 51
180.0
  0
ARC
  5
2423
330
2
100
AcDbEntity
  8
0
100
AcDbCircle
 10
1363.344933818577
 20
580.24272039069
 30
0.0
 40
4.0
100
AcDbArc
 50
0.0
 51
90.0
  0
ARC
  5
2424
330
2
100
AcDbEntity
  8
0
100
AcDbCircle
 10
1420.771340689747
 20
577.6691272618681
 30
0.0
 40
5.000000000000113
100
AcDbArc
 50
299.5091786427827
 51
149.0213506037771
  0
ARC
  5
2425
330
2
100
AcDbEntity
  8
0
100
AcDbCircle
 10
1420.771340689747
 20
577.6691272618681
 30
0.0
 40
4.307179676972509
100
AcDbArc
 50
304.8368549824812
 51
143.3182102282608
  0
LINE
  5
2426
330
2
100
AcDbEntity
  8
0
100
AcDbLine
 10
1423.271340689747
 20
579.1125029348422
 30
0.0
 11
1423.271340689747
 21
576.2257515888941
 31
0.0
  0
LINE
  5
2427
330
2
100
AcDbEntity
  8
0
100
AcDbLine
 10
1422.954958519408
 20
576.0430882576825
 30
0.0
 11
1423.271340689747
 21
576.2257515888941
 31
0.0
  0
LINE
  5
2428
330
2
100
AcDbEntity
  8
0
100
AcDbLine
 10
1423.271340689747
 20
579.1125029348422
 30
0.0
 11
1420.771340689747
 21
580.5558786078163
 31
0.0
  0
LINE
  5
2429
330
2
100
AcDbEntity
  8
0
100
AcDbLine
 10
1419.475034336987
 20
579.8074557860982
 30
0.0
 11
1420.771340689747
 21
580.5558786078163
 31
0.0
  0
ARC
  5
242A
330
2
100
AcDbEntity
  8
0
 48
12.0
100
AcDbCircle
 10
1420.771340689752
 20
577.6691272618681
 30
0.0
 40
5.749999999999829
100
AcDbArc
 50
295.3877731485946
 51
153.4113844692914
  0
ARC
  5
242B
330
2
100
AcDbEntity
  8
0
100
AcDbCircle
 10
1335.918526947396
 20
577.6691272618681
 30
0.0
 40
5.000000000000113
100
AcDbArc
 50
30.97864939622287
 51
240.4908213573368
  0
ARC
  5
242C
330
2
100
AcDbEntity
  8
0
100
AcDbCircle
 10
1335.918526947396
 20
577.6691272618681
 30
0.0
 40
4.307179676972509
100
AcDbArc
 50
36.68178977173912
 51
235.1631450176776
  0
LINE
  5
242D
330
2
100
AcDbEntity
  8
0
100
AcDbLine
 10
1337.21483330016
 20
579.8074557860964
 30
0.0
 11
1335.918526947396
 21
580.5558786078163
 31
0.0
  0
LINE
  5
242E
330
2
100
AcDbEntity
  8
0
100
AcDbLine
 10
1333.418526947396
 20
579.1125029348422
 30
0.0
 11
1333.418526947396
 21
576.2257515888941
 31
0.0
  0
LINE
  5
242F
330
2
100
AcDbEntity
  8
0
100
AcDbLine
 10
1333.734909117742
 20
576.0430882576783
 30
0.0
 11
1333.418526947396
 21
576.2257515888941
 31
0.0
  0
LINE
  5
2430
330
2
100
AcDbEntity
  8
0
100
AcDbLine
 10
1333.418526947396
 20
579.1125029348422
 30
0.0
 11
1335.918526947396
 21
580.5558786078163
 31
0.0
  0
ARC
  5
2431
330
2
100
AcDbEntity
  8
0
 48
12.0
100
AcDbCircle
 10
1335.9185269474
 20
577.6691272618681
 30
0.0
 40
5.749999999999829
100
AcDbArc
 50
26.58861553070855
 51
244.6122268514039
  0
ARC
  5
2432
330
2
100
AcDbEntity
  8
0
100
AcDbCircle
 10
1335.918526947396
 20
492.8163135195118
 30
0.0
 40
5.000000000000113
100
AcDbArc
 50
119.5091786426631
 51
329.0213506037771
  0
ARC
  5
2433
330
2
100
AcDbEntity
  8
0
100
AcDbCircle
 10
1335.918526947396
 20
492.8163135195118
 30
0.0
 40
4.307179676972509
100
AcDbArc
 50
124.8368549823222
 51
323.3182102282608
  0
LINE
  5
2434
330
2
100
AcDbEntity
  8
0
100
AcDbLine
 10
1335.918526947396
 20
489.9295621735636
 30
0.0
 11
1337.21483330016
 21
490.6779849952845
 31
0.0
  0
LINE
  5
2435
330
2
100
AcDbEntity
  8
0
100
AcDbLine
 10
1333.418526947396
 20
494.2596891924859
 30
0.0
 11
1333.418526947396
 21
491.3729378465377
 31
0.0
  0
LINE
  5
2436
330
2
100
AcDbEntity
  8
0
100
AcDbLine
 10
1335.918526947396
 20
489.9295621735636
 30
0.0
 11
1333.418526947396
 21
491.3729378465377
 31
0.0
  0
LINE
  5
2437
330
2
100
AcDbEntity
  8
0
100
AcDbLine
 10
1333.418526947396
 20
494.2596891924859
 30
0.0
 11
1333.734909117742
 21
494.4423525237025
 31
0.0
  0
ARC
  5
2438
330
2
100
AcDbEntity
  8
0
 48
12.0
100
AcDbCircle
 10
1335.9185269474
 20
492.8163135195118
 30
0.0
 40
5.749999999999829
100
AcDbArc
 50
115.387773148596
 51
333.4113844692915
  0
ARC
  5
2439
330
2
100
AcDbEntity
  8
0
100
AcDbCircle
 10
1420.771340689747
 20
492.8163135195118
 30
0.0
 40
5.000000000000113
100
AcDbArc
 50
210.9786493962228
 51
60.49082135721729
  0
ARC
  5
243A
330
2
100
AcDbEntity
  8
0
100
AcDbCircle
 10
1420.771340689747
 20
492.8163135195118
 30
0.0
 40
4.307179676972509
100
AcDbArc
 50
216.6817897717391
 51
55.16314501751869
  0
LINE
  5
243B
330
2
100
AcDbEntity
  8
0
100
AcDbLine
 10
1423.271340689747
 20
494.2596891924859
 30
0.0
 11
1423.271340689747
 21
491.3729378465377
 31
0.0
  0
LINE
  5
243C
330
2
100
AcDbEntity
  8
0
100
AcDbLine
 10
1420.771340689747
 20
489.9295621735636
 30
0.0
 11
1423.271340689747
 21
491.3729378465377
 31
0.0
  0
LINE
  5
243D
330
2
100
AcDbEntity
  8
0
100
AcDbLine
 10
1423.271340689747
 20
494.2596891924859
 30
0.0
 11
1422.954958519408
 21
494.4423525236984
 31
0.0
  0
LINE
  5
243E
330
2
100
AcDbEntity
  8
0
100
AcDbLine
 10
1420.771340689747
 20
489.9295621735636
 30
0.0
 11
1419.475034336987
 21
490.6779849952827
 31
0.0
  0
ARC
  5
243F
330
2
100
AcDbEntity
  8
0
 48
12.0
100
AcDbCircle
 10
1420.771340689752
 20
492.8163135195118
 30
0.0
 40
5.749999999999829
100
AcDbArc
 50
206.5886155307085
 51
64.61222685140396
  0
LINE
  5
2440
330
2
100
AcDbEntity
  8
0
100
AcDbLine
 10
164.511762852097
 20
583.4191272619554
 30
0.0
 11
163.011762852097
 21
583.4191272619554
 31
0.0
  0
LINE
  5
2441
330
2
100
AcDbEntity
  8
0
100
AcDbLine
 10
164.511762852097
 20
571.9191272619553
 30
0.0
 11
163.0117628520961
 21
571.9191272619553
 31
0.0
  0
LINE
  5
2442
330
2
100
AcDbEntity
  8
0
100
AcDbLine
 10
157.4117628520966
 20
582.6691272619558
 30
0.0
 11
157.011762852097
 21
581.9763069389286
 31
0.0
  0
LINE
  5
2443
330
2
100
AcDbEntity
  8
0
100
AcDbLine
 10
163.011762852097
 20
583.4191272619554
 30
0.0
 11
163.0117628520961
 21
571.9191272619553
 31
0.0
  0
LINE
  5
2444
330
2
100
AcDbEntity
  8
0
100
AcDbLine
 10
157.4117628520966
 20
582.6691272619558
 30
0.0
 11
157.4117628520966
 21
572.6691272619558
 31
0.0
  0
LINE
  5
2445
330
2
100
AcDbEntity
  8
0
100
AcDbLine
 10
163.011762852097
 20
582.6691272619553
 30
0.0
 11
157.4117628520966
 21
582.6691272619558
 31
0.0
  0
LINE
  5
2446
330
2
100
AcDbEntity
  8
0
100
AcDbLine
 10
163.0117628520961
 20
572.6691272619554
 30
0.0
 11
157.4117628520966
 21
572.6691272619558
 31
0.0
  0
LINE
  5
2447
330
2
100
AcDbEntity
  8
0
100
AcDbLine
 10
157.4117628520966
 20
572.6691272619558
 30
0.0
 11
157.011762852097
 21
573.3619475849831
 31
0.0
  0
LINE
  5
2448
330
2
100
AcDbEntity
  8
0
100
AcDbLine
 10
157.011762852097
 20
581.9763069389286
 30
0.0
 11
157.011762852097
 21
573.3619475849831
 31
0.0
  0
LINE
  5
2449
330
2
100
AcDbEntity
  8
0
 48
12.0
100
AcDbLine
 10
164.511762852097
 20
571.9191272619553
 30
0.0
 11
164.511762852097
 21
583.4191272619554
 31
0.0
  0
LINE
  5
244A
330
2
100
AcDbEntity
  8
0
100
AcDbLine
 10
1060.839495041849
 20
927.1177252414695
 30
0.0
 11
1062.339495041849
 21
927.1177252414695
 31
0.0
  0
LINE
  5
244B
330
2
100
AcDbEntity
  8
0
100
AcDbLine
 10
1060.839495041849
 20
938.6177252414695
 30
0.0
 11
1062.33949504185
 21
938.6177252414695
 31
0.0
  0
LINE
  5
244C
330
2
100
AcDbEntity
  8
0
100
AcDbLine
 10
1067.939495041849
 20
927.8677252414695
 30
0.0
 11
1068.339495041849
 21
928.5605455644967
 31
0.0
  0
LINE
  5
244D
330
2
100
AcDbEntity
  8
0
100
AcDbLine
 10
1062.339495041849
 20
927.1177252414695
 30
0.0
 11
1062.33949504185
 21
938.6177252414695
 31
0.0
  0
LINE
  5
244E
330
2
100
AcDbEntity
  8
0
100
AcDbLine
 10
1067.939495041849
 20
927.8677252414695
 30
0.0
 11
1067.939495041849
 21
937.8677252414695
 31
0.0
  0
LINE
  5
244F
330
2
100
AcDbEntity
  8
0
100
AcDbLine
 10
1062.339495041849
 20
927.8677252414695
 30
0.0
 11
1067.939495041849
 21
927.8677252414695
 31
0.0
  0
LINE
  5
2450
330
2
100
AcDbEntity
  8
0
100
AcDbLine
 10
1062.33949504185
 20
937.8677252414695
 30
0.0
 11
1067.939495041849
 21
937.8677252414695
 31
0.0
  0
LINE
  5
2451
330
2
100
AcDbEntity
  8
0
100
AcDbLine
 10
1067.939495041849
 20
937.8677252414695
 30
0.0
 11
1068.339495041849
 21
937.1749049184423
 31
0.0
  0
LINE
  5
2452
330
2
100
AcDbEntity
  8
0
100
AcDbLine
 10
1068.339495041849
 20
928.5605455644967
 30
0.0
 11
1068.339495041849
 21
937.1749049184423
 31
0.0
  0
LINE
  5
2453
330
2
100
AcDbEntity
  8
0
 48
12.0
100
AcDbLine
 10
1060.839495041849
 20
938.6177252414695
 30
0.0
 11
1060.839495041849
 21
927.1177252414695
 31
0.0
  0
LINE
  5
2454
330
2
100
AcDbEntity
  8
0
100
AcDbLine
 10
1061.089514289919
 20
487.0663135195996
 30
0.0
 11
1062.589514289918
 21
487.0663135195996
 31
0.0
  0
LINE
  5
2455
330
2
100
AcDbEntity
  8
0
100
AcDbLine
 10
1061.089514289919
 20
498.5663135195991
 30
0.0
 11
1062.589514289919
 21
498.5663135195996
 31
0.0
  0
LINE
  5
2456
330
2
100
AcDbEntity
  8
0
100
AcDbLine
 10
1068.189514289919
 20
487.8163135195991
 30
0.0
 11
1068.589514289919
 21
488.5091338426263
 31
0.0
  0
LINE
  5
2457
330
2
100
AcDbEntity
  8
0
100
AcDbLine
 10
1062.589514289918
 20
487.0663135195996
 30
0.0
 11
1062.589514289919
 21
498.5663135195996
 31
0.0
  0
LINE
  5
2458
330
2
100
AcDbEntity
  8
0
100
AcDbLine
 10
1068.189514289919
 20
487.8163135195991
 30
0.0
 11
1068.189514289919
 21
497.8163135195991
 31
0.0
  0
LINE
  5
2459
330
2
100
AcDbEntity
  8
0
100
AcDbLine
 10
1062.589514289918
 20
487.8163135195996
 30
0.0
 11
1068.189514289919
 21
487.8163135195991
 31
0.0
  0
LINE
  5
245A
330
2
100
AcDbEntity
  8
0
100
AcDbLine
 10
1062.589514289919
 20
497.8163135195996
 30
0.0
 11
1068.189514289919
 21
497.8163135195991
 31
0.0
  0
LINE
  5
245B
330
2
100
AcDbEntity
  8
0
100
AcDbLine
 10
1068.189514289919
 20
497.8163135195991
 30
0.0
 11
1068.589514289919
 21
497.1234931965718
 31
0.0
  0
LINE
  5
245C
330
2
100
AcDbEntity
  8
0
100
AcDbLine
 10
1068.589514289919
 20
488.5091338426263
 30
0.0
 11
1068.589514289919
 21
497.1234931965718
 31
0.0
  0
LINE
  5
245D
330
2
100
AcDbEntity
  8
0
 48
12.0
100
AcDbLine
 10
1061.089514289919
 20
498.5663135195991
 30
0.0
 11
1061.089514289919
 21
487.0663135195996
 31
0.0
  0
LINE
  5
245E
330
2
100
AcDbEntity
  8
0
100
AcDbLine
 10
1061.089514289919
 20
571.9191272619554
 30
0.0
 11
1062.589514289918
 21
571.9191272619554
 31
0.0
  0
LINE
  5
245F
330
2
100
AcDbEntity
  8
0
100
AcDbLine
 10
1061.089514289919
 20
583.4191272619555
 30
0.0
 11
1062.589514289919
 21
583.4191272619555
 31
0.0
  0
LINE
  5
2460
330
2
100
AcDbEntity
  8
0
100
AcDbLine
 10
1068.189514289919
 20
572.6691272619555
 30
0.0
 11
1068.589514289919
 21
573.3619475849828
 31
0.0
  0
LINE
  5
2461
330
2
100
AcDbEntity
  8
0
100
AcDbLine
 10
1062.589514289918
 20
571.9191272619554
 30
0.0
 11
1062.589514289919
 21
583.4191272619555
 31
0.0
  0
LINE
  5
2462
330
2
100
AcDbEntity
  8
0
100
AcDbLine
 10
1068.189514289919
 20
572.6691272619555
 30
0.0
 11
1068.189514289919
 21
582.6691272619554
 31
0.0
  0
LINE
  5
2463
330
2
100
AcDbEntity
  8
0
100
AcDbLine
 10
1062.589514289918
 20
572.6691272619555
 30
0.0
 11
1068.189514289919
 21
572.6691272619555
 31
0.0
  0
LINE
  5
2464
330
2
100
AcDbEntity
  8
0
100
AcDbLine
 10
1062.589514289919
 20
582.6691272619554
 30
0.0
 11
1068.189514289919
 21
582.6691272619554
 31
0.0
  0
LINE
  5
2465
330
2
100
AcDbEntity
  8
0
100
AcDbLine
 10
1068.189514289919
 20
582.6691272619554
 30
0.0
 11
1068.589514289919
 21
581.9763069389282
 31
0.0
  0
LINE
  5
2466
330
2
100
AcDbEntity
  8
0
100
AcDbLine
 10
1068.589514289919
 20
573.3619475849828
 30
0.0
 11
1068.589514289919
 21
581.9763069389282
 31
0.0
  0
LINE
  5
2467
330
2
100
AcDbEntity
  8
0
 48
12.0
100
AcDbLine
 10
1061.089514289919
 20
583.4191272619555
 30
0.0
 11
1061.089514289919
 21
571.9191272619554
 31
0.0
  0
LINE
  5
2468
330
2
100
AcDbEntity
  8
0
100
AcDbLine
 10
164.511762852097
 20
498.566313519599
 30
0.0
 11
163.011762852097
 21
498.5663135195994
 31
0.0
  0
LINE
  5
2469
330
2
100
AcDbEntity
  8
0
100
AcDbLine
 10
164.511762852097
 20
487.0663135195995
 30
0.0
 11
163.0117628520961
 21
487.0663135195995
 31
0.0
  0
LINE
  5
246A
330
2
100
AcDbEntity
  8
0
100
AcDbLine
 10
157.4117628520966
 20
497.8163135195995
 30
0.0
 11
157.011762852097
 21
497.1234931965722
 31
0.0
  0
LINE
  5
246B
330
2
100
AcDbEntity
  8
0
100
AcDbLine
 10
163.011762852097
 20
498.5663135195994
 30
0.0
 11
163.0117628520961
 21
487.0663135195995
 31
0.0
  0
LINE
  5
246C
330
2
100
AcDbEntity
  8
0
100
AcDbLine
 10
157.4117628520966
 20
497.8163135195995
 30
0.0
 11
157.4117628520966
 21
487.8163135195994
 31
0.0
  0
LINE
  5
246D
330
2
100
AcDbEntity
  8
0
100
AcDbLine
 10
163.011762852097
 20
497.8163135195995
 30
0.0
 11
157.4117628520966
 21
497.8163135195995
 31
0.0
  0
LINE
  5
246E
330
2
100
AcDbEntity
  8
0
100
AcDbLine
 10
163.0117628520961
 20
487.8163135195994
 30
0.0
 11
157.4117628520966
 21
487.8163135195994
 31
0.0
  0
LINE
  5
246F
330
2
100
AcDbEntity
  8
0
100
AcDbLine
 10
157.4117628520966
 20
487.8163135195994
 30
0.0
 11
157.011762852097
 21
488.5091338426267
 31
0.0
  0
LINE
  5
2470
330
2
100
AcDbEntity
  8
0
100
AcDbLine
 10
157.011762852097
 20
497.1234931965722
 30
0.0
 11
157.011762852097
 21
488.5091338426267
 31
0.0
  0
LINE
  5
2471
330
2
100
AcDbEntity
  8
0
 48
12.0
100
AcDbLine
 10
164.511762852097
 20
487.0663135195995
 30
0.0
 11
164.511762852097
 21
498.566313519599
 31
0.0
  0
LINE
  5
2472
330
2
100
AcDbEntity
  8
CENTER
100
AcDbLine
 10
1358.34493381859
 20
512.3681343025177
 30
0.0
 11
1358.344933818576
 21
591.2427203906672
 31
0.0
  0
LINE
  5
2473
330
2
100
AcDbEntity
  8
HIDS
  6
SEKKEI_H
100
AcDbLine
 10
1353.265061410616
 20
545.2427203907054
 30
0.0
 11
1366.094933818584
 21
545.242720390705
 31
0.0
  0
LINE
  5
2474
330
2
100
AcDbEntity
  8
HIDS
  6
SEKKEI_H
100
AcDbLine
 10
1362.844933818584
 20
535.9927203907022
 30
0.0
 11
1362.844933818584
 21
545.242720390705
 31
0.0
  0
LINE
  5
2475
330
2
100
AcDbEntity
  8
HIDS
  6
SEKKEI_H
100
AcDbLine
 10
1353.844933818584
 20
535.9927203907022
 30
0.0
 11
1353.844933818584
 21
545.2427203907054
 31
0.0
  0
LINE
  5
2476
330
2
100
AcDbEntity
  8
HIDS
  6
SEKKEI_H
100
AcDbLine
 10
1354.944933818583
 20
521.772753798316
 30
0.0
 11
1354.944933818583
 21
534.4927203907023
 31
0.0
  0
LINE
  5
2477
330
2
100
AcDbEntity
  8
HIDS
  6
SEKKEI_H
100
AcDbLine
 10
1354.344933818584
 20
522.242720390705
 30
0.0
 11
1354.344933818584
 21
534.4927203907027
 31
0.0
  0
LINE
  5
2478
330
2
100
AcDbEntity
  8
HIDS
  6
SEKKEI_H
100
AcDbLine
 10
1362.344933818584
 20
513.4941572197703
 30
0.0
 11
1362.344933818584
 21
534.4927203907027
 31
0.0
  0
LINE
  5
2479
330
2
100
AcDbEntity
  8
HIDS
  6
SEKKEI_H
100
AcDbLine
 10
1361.744933818584
 20
513.9485897439722
 30
0.0
 11
1361.744933818584
 21
534.4927203907027
 31
0.0
  0
LINE
  5
247A
330
2
100
AcDbEntity
  8
HIDS
  6
SEKKEI_H
100
AcDbLine
 10
1364.84493381859
 20
554.7427203907054
 30
0.0
 11
1359.670084421604
 21
554.742720390705
 31
0.0
  0
LINE
  5
247B
330
2
100
AcDbEntity
  8
HIDS
  6
SEKKEI_H
100
AcDbLine
 10
1363.978908414804
 20
555.2427203907054
 30
0.0
 11
1360.20657667137
 21
555.242720390705
 31
0.0
  0
LINE
  5
247C
330
2
100
AcDbEntity
  8
HIDS
  6
SEKKEI_H
100
AcDbLine
 10
1365.59493381859
 20
547.2427203907054
 30
0.0
 11
1354.158160573689
 21
547.242720390705
 31
0.0
  0
LINE
  5
247D
330
2
100
AcDbEntity
  8
HIDS
  6
SEKKEI_H
100
AcDbLine
 10
1361.144933818598
 20
522.242720390705
 30
0.0
 11
1355.544933818584
 21
522.242720390705
 31
0.0
  0
LINE
  5
247E
330
2
100
AcDbEntity
  8
HIDS
  6
SEKKEI_H
100
AcDbLine
 10
1362.344933818584
 20
523.4427203907053
 30
0.0
 11
1354.344933818584
 21
523.4427203907053
 31
0.0
  0
LINE
  5
247F
330
2
100
AcDbEntity
  8
0
 48
0.3
100
AcDbLine
 10
1351.09493381859
 20
547.242720390705
 30
0.0
 11
1351.09493381859
 21
545.242720390705
 31
0.0
  0
LINE
  5
2480
330
2
100
AcDbEntity
  8
0
 48
0.3
100
AcDbLine
 10
1351.84493381859
 20
554.742720390705
 30
0.0
 11
1352.710959222375
 21
555.242720390705
 31
0.0
  0
LINE
  5
2481
330
2
100
AcDbEntity
  8
0
 48
0.3
100
AcDbLine
 10
1351.84493381859
 20
554.742720390705
 30
0.0
 11
1351.84493381859
 21
547.242720390705
 31
0.0
  0
LINE
  5
2482
330
2
100
AcDbEntity
  8
HIDS
  6
SEKKEI_H
100
AcDbLine
 10
1365.59493381859
 20
547.2427203907054
 30
0.0
 11
1365.59493381859
 21
545.2427203907054
 31
0.0
  0
LINE
  5
2483
330
2
100
AcDbEntity
  8
HIDS
  6
SEKKEI_H
100
AcDbLine
 10
1364.84493381859
 20
554.7427203907045
 30
0.0
 11
1363.978908414806
 21
555.2427203907045
 31
0.0
  0
LINE
  5
2484
330
2
100
AcDbEntity
  8
HIDS
  6
SEKKEI_H
100
AcDbLine
 10
1364.84493381859
 20
554.7427203907045
 30
0.0
 11
1364.84493381859
 21
547.2427203907054
 31
0.0
  0
LINE
  5
2485
330
2
100
AcDbEntity
  8
HIDS
  6
SEKKEI_H
100
AcDbLine
 10
1366.044933818591
 20
545.2427203907054
 30
0.0
 11
1353.265061410616
 21
545.242720390705
 31
0.0
  0
LINE
  5
2486
330
2
100
AcDbEntity
  8
HIDS
  6
SEKKEI_H
100
AcDbLine
 10
1362.344933818584
 20
535.9927203907022
 30
0.0
 11
1362.344933818584
 21
545.242720390705
 31
0.0
  0
LINE
  5
2487
330
2
100
AcDbEntity
  8
HIDS
  6
SEKKEI_H
100
AcDbLine
 10
1361.744933818584
 20
535.9927203907022
 30
0.0
 11
1361.744933818584
 21
545.242720390705
 31
0.0
  0
LINE
  5
2488
330
2
100
AcDbEntity
  8
HIDS
  6
SEKKEI_H
100
AcDbLine
 10
1354.944933818583
 20
535.9927203907022
 30
0.0
 11
1354.944933818583
 21
545.242720390705
 31
0.0
  0
LINE
  5
2489
330
2
100
AcDbEntity
  8
HIDS
  6
SEKKEI_H
100
AcDbLine
 10
1354.344933818584
 20
535.9927203907022
 30
0.0
 11
1354.344933818584
 21
545.2427203907054
 31
0.0
  0
LINE
  5
248A
330
2
100
AcDbEntity
  8
0
100
AcDbLine
 10
1360.20657667137
 20
555.242720390705
 30
0.0
 11
1352.710959222375
 21
555.242720390705
 31
0.0
  0
LINE
  5
248B
330
2
100
AcDbEntity
  8
0
100
AcDbLine
 10
1359.670084421604
 20
554.742720390705
 30
0.0
 11
1351.84493381859
 21
554.742720390705
 31
0.0
  0
LINE
  5
248C
330
2
100
AcDbEntity
  8
0
100
AcDbLine
 10
1354.158160573689
 20
547.242720390705
 30
0.0
 11
1351.09493381859
 21
547.242720390705
 31
0.0
  0
LINE
  5
248D
330
2
100
AcDbEntity
  8
0
100
AcDbLine
 10
1353.265061410616
 20
545.242720390705
 30
0.0
 11
1351.09493381859
 21
545.242720390705
 31
0.0
  0
LINE
  5
248E
330
2
100
AcDbEntity
  8
HIDS
  6
SEKKEI_H
100
AcDbLine
 10
1354.344933818584
 20
523.4427203907053
 30
0.0
 11
1355.544933818584
 21
522.242720390705
 31
0.0
  0
LINE
  5
248F
330
2
100
AcDbEntity
  8
HIDS
  6
SEKKEI_H
100
AcDbLine
 10
1362.344933818597
 20
523.4427203907053
 30
0.0
 11
1361.144933818598
 21
522.242720390705
 31
0.0
  0
CIRCLE
  5
2490
330
2
100
AcDbEntity
  8
0
100
AcDbCircle
 10
1378.344933818576
 20
535.2427203906905
 30
0.0
 40
26.99999999999249
  0
LINE
  5
2491
330
2
100
AcDbEntity
  8
0
100
AcDbLine
 10
1101.839495041849
 20
554.9414107328149
 30
0.0
 11
1101.839495041849
 21
535.2427203907778
 31
0.0
  0
LINE
  5
2492
330
2
100
AcDbEntity
  8
0
100
AcDbLine
 10
1123.839495041849
 20
535.2427203907782
 30
0.0
 11
1123.839495041849
 21
562.2427203907805
 31
0.0
  0
LINE
  5
2493
330
2
100
AcDbEntity
  8
0
100
AcDbLine
 10
1121.839495041849
 20
535.2427203907782
 30
0.0
 11
1121.839495041849
 21
544.7427203907846
 31
0.0
  0
LINE
  5
2494
330
2
100
AcDbEntity
  8
0
100
AcDbLine
 10
1103.839495041849
 20
554.7665532302427
 30
0.0
 11
1103.839495041849
 21
535.2427203907778
 31
0.0
  0
LINE
  5
2495
330
2
100
AcDbEntity
  8
0
100
AcDbLine
 10
1060.33949504185
 20
535.2427203907778
 30
0.0
 11
1060.339495041849
 21
545.2427203907827
 31
0.0
  0
LINE
  5
2496
330
2
100
AcDbEntity
  8
0
 48
0.3
100
AcDbLine
 10
1080.33949504185
 20
545.2427203907832
 30
0.0
 11
1060.339495041849
 21
545.2427203907827
 31
0.0
  0
LINE
  5
2497
330
2
100
AcDbEntity
  8
0
 48
0.3
100
AcDbLine
 10
1080.33949504185
 20
544.7427203907832
 30
0.0
 11
1101.839495041849
 21
544.7427203907836
 31
0.0
  0
LINE
  5
2498
330
2
100
AcDbEntity
  8
0
100
AcDbLine
 10
1080.33949504185
 20
535.2427203907778
 30
0.0
 11
1080.339495041849
 21
545.2427203907832
 31
0.0
  0
LINE
  5
2499
330
2
100
AcDbEntity
  8
0
100
AcDbLine
 10
1111.04277809616
 20
562.2427203907805
 30
0.0
 11
1123.839495041849
 21
562.2427203907805
 31
0.0
  0
LINE
  5
249A
330
2
100
AcDbEntity
  8
0
 48
0.3
100
AcDbLine
 10
1103.839495041849
 20
544.7427203907841
 30
0.0
 11
1121.839495041849
 21
544.7427203907846
 31
0.0
  0
LINE
  5
249B
330
2
100
AcDbEntity
  8
0
 48
0.3
100
AcDbLine
 10
1055.143342619139
 20
535.2427203907782
 30
0.0
 11
1060.339495041849
 21
544.2427203907827
 31
0.0
  0
LINE
  5
249C
330
2
100
AcDbEntity
  8
0
100
AcDbLine
 10
1121.839495041849
 20
544.74272039078
 30
0.0
 11
1123.83949504185
 21
545.8974209291596
 31
0.0
  0
SPLINE
  5
249D
330
2
100
AcDbEntity
  8
HOJO
100
AcDbSpline
210
0.0
220
0.0
230
1.0
 70
     8
 71
     3
 72
    20
 73
    16
 74
     0
 42
0.0000000001
 43
0.0000000001
 40
0.0
 40
0.0
 40
0.0
 40
0.0
 40
10.36993282177743
 40
16.30371211690467
 40
22.46412091066676
 40
30.12711443002843
 40
39.57908467708598
 40
48.05835774814536
 40
53.91763599907932
 40
60.02314881903616
 40
64.41726715555319
 40
70.98949777462724
 40
83.26840745268052
 40
92.52386187203924
 40
96.70774074775394
 40
96.70774074775394
 40
96.70774074775394
 40
96.70774074775394
 10
1049.842574496175
 20
535.242720390778
 30
0.0
 10
1049.842574496175
 20
535.242720390778
 30
0.0
 10
1052.730394460455
 20
544.5929600457871
 30
0.0
 10
1057.95574115906
 20
552.1984751074103
 30
0.0
 10
1063.706129747008
 20
554.8930201573468
 30
0.0
 10
1073.15690652697
 20
554.3207488078567
 30
0.0
 10
1081.431077580666
 20
554.8930839255636
 30
0.0
 10
1090.441934719213
 20
553.5886533328528
 30
0.0
 10
1096.342676184306
 20
554.8250100884181
 30
0.0
 10
1101.87124656914
 20
555.1522453095746
 30
0.0
 10
1107.503911610882
 20
554.130034457024
 30
0.0
 10
1111.405871887788
 20
563.1137233887777
 30
0.0
 10
1115.333243899686
 20
571.9232641880346
 30
0.0
 10
1119.069041024265
 20
576.998327109535
 30
0.0
 10
1122.44622455896
 20
579.612493860405
 30
0.0
 10
1123.85168595317
 20
580.2427203907773
 30
0.0
  0
LINE
  5
249E
330
2
100
AcDbEntity
  8
0
100
AcDbLine
 10
1124.839495041853
 20
575.2427203907791
 30
0.0
 11
1131.839495041849
 21
575.2427203907793
 31
0.0
  0
LINE
  5
249F
330
2
100
AcDbEntity
  8
0
100
AcDbLine
 10
1124.839495041853
 20
573.4128943126973
 30
0.0
 11
1116.571228547712
 21
573.3407382441447
 31
0.0
  0
LINE
  5
24A0
330
2
100
AcDbEntity
  8
0
100
AcDbLine
 10
1124.839495041853
 20
575.2427203907791
 30
0.0
 11
1124.839495041853
 21
535.2427203907782
 31
0.0
  0
LINE
  5
24A1
330
2
100
AcDbEntity
  8
0
100
AcDbLine
 10
1351.355352495414
 20
534.4927203907023
 30
0.0
 11
1368.874585356134
 21
534.4927203907023
 31
0.0
  0
LINE
  5
24A2
330
2
100
AcDbEntity
  8
0
100
AcDbLine
 10
1387.815282281017
 20
534.4927203907023
 30
0.0
 11
1404.353653864632
 21
534.4927203907023
 31
0.0
  0
LINE
  5
24A3
330
2
100
AcDbEntity
  8
0
100
AcDbLine
 10
1351.355352495414
 20
535.9927203907022
 30
0.0
 11
1368.874585356137
 21
535.9927203907022
 31
0.0
  0
LINE
  5
24A4
330
2
100
AcDbEntity
  8
0
100
AcDbLine
 10
1387.815282281015
 20
535.9927203907027
 30
0.0
 11
1404.353653864632
 21
535.9927203907022
 31
0.0
  0
LINE
  5
24A5
330
2
100
AcDbEntity
  8
0
100
AcDbLine
 10
1404.353653864632
 20
535.9927203907022
 30
0.0
 11
1404.353653864632
 21
534.4927203907023
 31
0.0
  0
LINE
  5
24A6
330
2
100
AcDbEntity
  8
HOJO
100
AcDbLine
 10
1354.944933818583
 20
534.4927203907023
 30
0.0
 11
1354.944933818583
 21
535.9927203907022
 31
0.0
  0
LINE
  5
24A7
330
2
100
AcDbEntity
  8
0
100
AcDbLine
 10
1354.344933818584
 20
534.4927203907027
 30
0.0
 11
1354.344933818584
 21
535.9927203907022
 31
0.0
  0
LINE
  5
24A8
330
2
100
AcDbEntity
  8
HOJO
100
AcDbLine
 10
1361.744933818584
 20
534.4927203907027
 30
0.0
 11
1361.744933818584
 21
535.9927203907022
 31
0.0
  0
LINE
  5
24A9
330
2
100
AcDbEntity
  8
0
100
AcDbLine
 10
1362.344933818584
 20
534.4927203907027
 30
0.0
 11
1362.344933818584
 21
535.9927203907022
 31
0.0
  0
CIRCLE
  5
24AA
330
2
100
AcDbEntity
  8
0
100
AcDbCircle
 10
1378.344933818576
 20
535.2427203906905
 30
0.0
 40
9.500000000002447
  0
ARC
  5
24AB
330
2
100
AcDbEntity
  8
0
100
AcDbCircle
 10
1378.344933818576
 20
535.2427203906905
 30
0.0
 40
10.65470053838138
100
AcDbArc
 50
184.0364720826717
 51
355.9635279173283
  0
ARC
  5
24AC
330
2
100
AcDbEntity
  8
0
100
AcDbCircle
 10
1378.344933818576
 20
535.2427203906905
 30
0.0
 40
10.65470053838138
100
AcDbArc
 50
4.03647208280233
 51
175.9635279171976
  0
LINE
  5
24AE
330
2
100
AcDbEntity
  8
HIDS
  6
SEKKEI_H
100
AcDbLine
 10
1366.094933818584
 20
545.242720390705
 30
0.0
 11
1366.094933818583
 21
559.3038404810053
 31
0.0
  0
LINE
  5
24AF
330
2
100
AcDbEntity
  8
0
100
AcDbLine
 10
1060.839495041849
 20
853.7649114991204
 30
0.0
 11
1062.339495041849
 21
853.7649114991204
 31
0.0
  0
LINE
  5
24B0
330
2
100
AcDbEntity
  8
0
100
AcDbLine
 10
1060.839495041849
 20
842.2649114991203
 30
0.0
 11
1062.33949504185
 21
842.2649114991203
 31
0.0
  0
LINE
  5
24B1
330
2
100
AcDbEntity
  8
0
100
AcDbLine
 10
1067.939495041849
 20
853.0149114991203
 30
0.0
 11
1068.339495041849
 21
852.3220911760931
 31
0.0
  0
LINE
  5
24B2
330
2
100
AcDbEntity
  8
0
100
AcDbLine
 10
1062.339495041849
 20
853.7649114991204
 30
0.0
 11
1062.33949504185
 21
842.2649114991203
 31
0.0
  0
LINE
  5
24B3
330
2
100
AcDbEntity
  8
0
100
AcDbLine
 10
1067.939495041849
 20
853.0149114991203
 30
0.0
 11
1067.939495041849
 21
843.0149114991204
 31
0.0
  0
LINE
  5
24B4
330
2
100
AcDbEntity
  8
0
100
AcDbLine
 10
1062.339495041849
 20
853.0149114991203
 30
0.0
 11
1067.939495041849
 21
853.0149114991203
 31
0.0
  0
LINE
  5
24B5
330
2
100
AcDbEntity
  8
0
100
AcDbLine
 10
1062.33949504185
 20
843.0149114991204
 30
0.0
 11
1067.939495041849
 21
843.0149114991204
 31
0.0
  0
LINE
  5
24B6
330
2
100
AcDbEntity
  8
0
100
AcDbLine
 10
1067.939495041849
 20
843.0149114991204
 30
0.0
 11
1068.339495041849
 21
843.7077318221477
 31
0.0
  0
LINE
  5
24B7
330
2
100
AcDbEntity
  8
0
100
AcDbLine
 10
1068.339495041849
 20
852.3220911760931
 30
0.0
 11
1068.339495041849
 21
843.7077318221477
 31
0.0
  0
LINE
  5
24B8
330
2
100
AcDbEntity
  8
0
 48
12.0
100
AcDbLine
 10
1060.839495041849
 20
842.2649114991203
 30
0.0
 11
1060.839495041849
 21
853.7649114991204
 31
0.0
  0
LINE
  5
24B9
330
2
100
AcDbEntity
  8
CENTER
  6
CENTERX2
100
AcDbLine
 10
1057.839495041849
 20
932.8677252414699
 30
0.0
 11
1071.33949504185
 21
932.8677252414696
 31
0.0
  0
LINE
  5
24BA
330
2
100
AcDbEntity
  8
CENTER
  6
CENTERX2
100
AcDbLine
 10
1057.839495041849
 20
848.0149114991208
 30
0.0
 11
1071.33949504185
 21
848.0149114991204
 31
0.0
  0
LINE
  5
24BB
330
2
100
AcDbEntity
  8
CENTER
  6
CENTERX2
100
AcDbLine
 10
1058.089514289918
 20
577.6691272619559
 30
0.0
 11
1071.589514289919
 21
577.6691272619554
 31
0.0
  0
LINE
  5
24BC
330
2
100
AcDbEntity
  8
CENTER
  6
CENTERX2
100
AcDbLine
 10
1058.089514289918
 20
492.8163135195996
 30
0.0
 11
1071.589514289919
 21
492.8163135195991
 31
0.0
  0
LINE
  5
24BD
330
2
100
AcDbEntity
  8
CENTER
  6
CENTERX2
100
AcDbLine
 10
167.511762852097
 20
577.6691272619561
 30
0.0
 11
154.0056535793714
 21
577.6691272619558
 31
0.0
  0
LINE
  5
24BE
330
2
100
AcDbEntity
  8
CENTER
  6
CENTERX2
100
AcDbLine
 10
167.511762852097
 20
492.8163135195997
 30
0.0
 11
154.0056535793714
 21
492.8163135195994
 31
0.0
  0
CIRCLE
  5
24BF
330
2
100
AcDbEntity
  8
0
100
AcDbCircle
 10
1378.344933818576
 20
535.2427203906925
 30
0.0
 40
37.49999999999977
  0
CIRCLE
  5
24C0
330
2
100
AcDbEntity
  8
0
100
AcDbCircle
 10
1378.344933818576
 20
535.2427203906925
 30
0.0
 40
38.16581048802308
  0
LINE
  5
24C1
330
2
100
AcDbEntity
  8
0
100
AcDbLine
 10
126.5271834816867
 20
502.3518088122447
 30
0.0
 11
117.687973759102
 21
502.3518088122447
 31
0.0
  0
LINE
  5
24C2
330
2
100
AcDbEntity
  8
0
100
AcDbLine
 10
124.3127830082721
 20
492.1903664941631
 30
0.0
 11
124.5278688317352
 21
500.4041627088603
 31
0.0
  0
ARC
  5
24C3
330
2
100
AcDbEntity
  8
0
100
AcDbCircle
 10
122.3134683583211
 20
492.2427203907788
 30
0.0
 40
2.0
100
AcDbArc
 50
270.0
 51
358.4999999999972
  0
ARC
  5
24C4
330
2
100
AcDbEntity
  8
0
100
AcDbCircle
 10
126.5271834816867
 20
500.3518088122446
 30
0.0
 40
2.0
100
AcDbArc
 50
90.0
 51
178.4999999999971
  0
ENDSEC
  0
SECTION
  2
OBJECTS
  0
DICTIONARY
  5
7
330
0
100
AcDbDictionary
  3
ACAD_COLOR
350
832
  3
ACAD_GROUP
350
75
  3
ACAD_LAYOUT
350
61
  3
ACAD_MATERIAL
350
808
  3
ACAD_MLEADERSTYLE
350
857
  3
ACAD_MLINESTYLE
350
76
  3
ACAD_PLOTSETTINGS
350
77
  3
ACAD_PLOTSTYLENAME
350
6
  3
ACAD_SCALELIST
350
835
  3
ACAD_TABLESTYLE
350
833
  3
ACAD_VISUALSTYLE
350
821
  3
ACADDIM
350
480
  3
ACDB_RECOMPOSE_DATA
350
88E
  3
ACDBHEADERROUNDTRIPXREC
350
27D8
  3
ACDBVARIABLEDICTIONARY
350
102
  3
DWGPROPS
350
27AE
  0
DICTIONARY
  5
1BB4
330
6E
100
AcDbDictionary
280
     1
  3
ACAD_XREC_ROUNDTRIP
360
27B2
  0
DICTIONARY
  5
86B
330
66
100
AcDbDictionary
280
     1
  3
ACAD_LAYERSTATES
360
86C
  0
DICTIONARY
  5
1A25
330
5E
100
AcDbDictionary
280
     1
  3
ADSK_XREC_LAYER_RECONCILED
360
1A26
  0
DICTIONARY
  5
1A27
330
3E
100
AcDbDictionary
280
     1
  3
ADSK_XREC_LAYER_RECONCILED
360
1A28
  0
DICTIONARY
  5
1A2D
330
2B5
100
AcDbDictionary
280
     1
  3
ADSK_XREC_LAYER_RECONCILED
360
1A2E
  0
DICTIONARY
  5
1A2F
330
2BA
100
AcDbDictionary
280
     1
  3
ADSK_XREC_LAYER_RECONCILED
360
1A30
  0
DICTIONARY
  5
1A33
330
3FA
100
AcDbDictionary
280
     1
  3
ADSK_XREC_LAYER_RECONCILED
360
1A34
  0
DICTIONARY
  5
1A35
330
478
100
AcDbDictionary
280
     1
  3
ADSK_XREC_LAYER_RECONCILED
360
1A36
  0
DICTIONARY
  5
192E
330
2
100
AcDbDictionary
280
     1
  3
ACAD_LAYOUTSELFREF
360
27F9
  3
ACAD_SORTENTS
360
192F
  0
DICTIONARY
  5
27FA
330
27D2
100
AcDbDictionary
280
     1
  3
ACAD_LAYOUTSELFREF
360
27FB
  0
DICTIONARY
  5
832
102
{ACAD_REACTORS
330
7
102
}
330
7
100
AcDbDictionary
  0
DICTIONARY
  5
75
102
{ACAD_REACTORS
330
7
102
}
330
7
100
AcDbDictionary
  0
DICTIONARY
  5
61
102
{ACAD_REACTORS
330
7
102
}
330
7
100
AcDbDictionary
  0
DICTIONARY
  5
808
102
{ACAD_REACTORS
330
7
102
}
330
7
100
AcDbDictionary
  3
BYBLOCK
350
811
  3
BYLAYER
350
809
  3
GLOBAL
350
819
  0
DICTIONARY
  5
857
102
{ACAD_REACTORS
330
7
102
}
330
7
100
AcDbDictionary
  3
STANDARD
350
858
  0
DICTIONARY
  5
76
102
{ACAD_REACTORS
330
7
102
}
330
7
100
AcDbDictionary
  3
STANDARD
350
78
  0
DICTIONARY
  5
77
102
{ACAD_REACTORS
330
7
102
}
330
7
100
AcDbDictionary
  0
ACDBDICTIONARYWDFLT
  5
6
102
{ACAD_REACTORS
330
7
102
}
330
7
100
AcDbDictionary
281
     1
  3
Normal
350
5
100
AcDbDictionaryWithDefault
340
5
  0
DICTIONARY
  5
835
102
{ACAD_REACTORS
330
7
102
}
330
7
100
AcDbDictionary
  3
A0
350
836
  3
A1
350
837
  3
A2
350
838
  3
A3
350
839
  3
A4
350
83A
  3
A5
350
83B
  3
A6
350
83C
  3
A7
350
83D
  3
A8
350
83E
  3
A9
350
83F
  3
B0
350
840
  3
B1
350
841
  3
B2
350
842
  3
B3
350
843
  3
B4
350
844
  3
B5
350
845
  3
B6
350
846
  3
B7
350
847
  3
B8
350
848
  3
B9
350
849
  3
C0
350
84A
  3
C1
350
84B
  3
C2
350
84C
  3
C3
350
84D
  3
C4
350
84E
  3
C5
350
84F
  3
C6
350
850
  3
C7
350
851
  3
C8
350
852
  3
C9
350
853
  3
D0
350
854
  3
D1
350
855
  3
D2
350
856
  0
DICTIONARY
  5
833
102
{ACAD_REACTORS
330
7
102
}
330
7
100
AcDbDictionary
  3
STANDARD
350
834
  0
DICTIONARY
  5
821
102
{ACAD_REACTORS
330
7
102
}
330
7
100
AcDbDictionary
  3
2DWIREFRAME
350
827
  3
3D_HIDDEN
350
829
  3
3DWIREFRAME
350
828
  3
BASIC
350
826
  3
BRIGHTEN
350
82D
  3
COLORCHANGE
350
831
  3
CONCEPTUAL
350
82A
  3
DIM
350
82C
  3
FACEPATTERN
350
830
  3
FLAT
350
822
  3
FLATWITHEDGES
350
823
  3
GOURAUD
350
824
  3
GOURAUDWITHEDGES
350
825
  3
LINEPATTERN
350
82F
  3
REALISTIC
350
82B
  3
THICKEN
350
82E
  0
XRECORD
  5
480
102
{ACAD_REACTORS
330
7
102
}
330
7
100
AcDbXrecord
 90
   990106
  3

 60
     0
 61
     0
 62
     1
 63
     3
 64
     1
 65
     0
 66
     0
 67
     3
 68
     1
 69
     0
 70
     0
 71
     0
 72
     0
 40
0.0
170
     2
340
0
  0
XRECORD
  5
88E
102
{ACAD_REACTORS
330
7
102
}
330
7
100
AcDbXrecord
 90
        1
330
834
  0
DICTIONARY
  5
27D8
102
{ACAD_REACTORS
330
7
102
}
330
7
100
AcDbDictionary
  3
CEPSNTYPE
350
27E2
  3
DIMSTYLEDATA
350
27E6
  3
FINGERPRINTGUID
350
27E3
  3
HYPERLINKBASE
350
27DB
  3
INSUNITS
350
27E1
  3
LAYOUTDICT
350
27DD
  3
LWETCUNION
350
27E0
  3
PLOTSETDICT
350
27DE
  3
PLOTSTYLNAMDICT
350
27DF
  3
PSVPSCALE
350
27E5
  3
PUCSBASE
350
27E9
  3
PUCSORGBACK
350
27EF
  3
PUCSORGBOTTOM
350
27EB
  3
PUCSORGFRONT
350
27EE
  3
PUCSORGLEFT
350
27EC
  3
PUCSORGRIGHT
350
27ED
  3
PUCSORGTOP
350
27EA
  3
PUCSORTHOREF
350
27E7
  3
PUCSORTHOVIEW
350
27E8
  3
STYLESHEET
350
27DC
  3
TSTACKALIGN
350
27D9
  3
TSTACKSIZE
350
27DA
  3
UCSBASE
350
27F2
  3
UCSORGBACK
350
27F8
  3
UCSORGBOTTOM
350
27F4
  3
UCSORGFRONT
350
27F7
  3
UCSORGLEFT
350
27F5
  3
UCSORGRIGHT
350
27F6
  3
UCSORGTOP
350
27F3
  3
UCSORTHOREF
350
27F0
  3
UCSORTHOVIEW
350
27F1
  3
VERSIONGUID
350
27E4
  0
DICTIONARY
  5
102
102
{ACAD_REACTORS
330
7
102
}
330
7
100
AcDbDictionary
  3
CANNOSCALE
350
892
  3
CMLEADERSTYLE
350
890
  3
CTABLESTYLE
350
88F
  3
DIMASSOC
350
103
  3
INDEXCTL
350
1BC3
  3
LIGHTINGUNITS
350
893
  3
MSLTSCALE
350
891
  3
SORTENTS
350
549
  0
XRECORD
  5
27AE
102
{ACAD_REACTORS
330
7
102
}
330
7
100
AcDbXrecord
  1
DWGPROPS COOKIE
  2

  3

  4

  6

  7

  8
knsuzuki
  9

300
=
301
=
302
=
303
=
304
=
305
=
306
=
307
=
308
=
309
=
 40
0.0790366203703704
 41
2454889.560527523
 42
2454904.372672696
  1

 90
        0
  0
XRECORD
  5
27B2
102
{ACAD_REACTORS
330
1BB4
102
}
330
1BB4
100
AcDbXrecord
102
VTR_0.000_0.000_1.000_1.000_VISUALSTYLE
340
827
102
VTR_0.000_0.000_1.000_1.000_GRIDDISPLAY
 70
     3
102
VTR_0.000_0.000_1.000_1.000_GRIDMAJOR
 70
     5
102
VTR_0.000_0.000_1.000_1.000_DEFAULTLIGHTING
280
     1
102
VTR_0.000_0.000_1.000_1.000_DEFAULTLIGHTINGTYPE
 70
     1
102
VTR_0.000_0.000_1.000_1.000_BRIGHTNESS
141
0.0
102
VTR_0.000_0.000_1.000_1.000_CONTRAST
142
0.0
  0
DICTIONARY
  5
86C
102
{ACAD_REACTORS
330
86B
102
}
330
86B
100
AcDbDictionary
  0
XRECORD
  5
1A26
102
{ACAD_REACTORS
330
1A25
102
}
330
1A25
100
AcDbXrecord
290
     1
  0
XRECORD
  5
1A28
102
{ACAD_REACTORS
330
1A27
102
}
330
1A27
100
AcDbXrecord
290
     1
  0
XRECORD
  5
1A2E
102
{ACAD_REACTORS
330
1A2D
102
}
330
1A2D
100
AcDbXrecord
290
     1
  0
XRECORD
  5
1A30
102
{ACAD_REACTORS
330
1A2F
102
}
330
1A2F
100
AcDbXrecord
290
     1
  0
XRECORD
  5
1A34
102
{ACAD_REACTORS
330
1A33
102
}
330
1A33
100
AcDbXrecord
290
     1
  0
XRECORD
  5
1A36
102
{ACAD_REACTORS
330
1A35
102
}
330
1A35
100
AcDbXrecord
290
     1
  0
XRECORD
  5
27F9
102
{ACAD_REACTORS
330
192E
102
}
330
192E
100
AcDbXrecord
340
2
  0
SORTENTSTABLE
  5
192F
102
{ACAD_REACTORS
330
192E
102
}
330
192E
100
AcDbSortentsTable
330
2
331
EE5
  5
EE5
331
E6F
  5
E6F
331
EAE
  5
EAE
331
F24
  5
F24
331
F5B
  5
F5B
331
F9A
  5
F9A
331
FD1
  5
FD1
331
1010
  5
1010
331
1100
  5
1100
331
104B
  5
104B
331
108A
  5
108A
331
10C1
  5
10C1
331
EED
  5
EED
331
EB6
  5
EB6
331
E77
  5
E77
331
F2C
  5
F2C
331
F63
  5
F63
331
FA2
  5
FA2
331
FD9
  5
FD9
331
1018
  5
1018
331
E34
  5
E34
331
118E
  5
1190
331
114F
  5
1151
331
1108
  5
1108
331
1053
  5
1053
331
1092
  5
1092
331
10C9
  5
10C9
331
E3C
  5
E3C
331
FAA
  5
FAA
331
F34
  5
F34
331
F6B
  5
F6B
331
EBE
  5
EBE
331
EF5
  5
EF5
331
E7F
  5
E7F
331
FE1
  5
FE1
331
1020
  5
1020
331
DFD
  5
DFD
331
1196
  5
1198
331
1120
  5
1121
331
1157
  5
115A
331
109A
  5
109A
331
105B
  5
105B
331
10D1
  5
10D1
331
E87
  5
E87
331
EFD
  5
EFD
331
F73
  5
F73
331
FE9
  5
FE9
331
E05
  5
E05
331
E44
  5
E44
331
10D9
  5
10D9
331
1063
  5
1063
331
115F
  5
1161
331
E0D
  5
E0D
331
1167
  5
1169
331
E48
  5
E48
331
EC6
  5
EC6
331
E50
  5
E50
331
E8F
  5
E8F
331
F05
  5
F05
331
F3C
  5
F3C
331
F7B
  5
F7B
331
FB2
  5
FB2
331
FF1
  5
FF1
331
1128
  5
112A
331
10E1
  5
10E1
331
102C
  5
102C
331
106B
  5
106B
331
10A2
  5
10A2
331
ECE
  5
ECE
331
E58
  5
E58
331
E97
  5
E97
331
F0D
  5
F0D
331
F44
  5
F44
331
F83
  5
F83
331
FBA
  5
FBA
331
FF9
  5
FF9
331
E15
  5
E15
331
116F
  5
1171
331
1130
  5
1132
331
10E9
  5
10E9
331
1034
  5
1034
331
1073
  5
1073
331
10AA
  5
10AA
331
F4C
  5
F4C
331
ED6
  5
ED6
331
E60
  5
E60
331
E9F
  5
E9F
331
F15
  5
F15
331
F8B
  5
F8B
331
FC2
  5
FC2
331
1001
  5
1001
331
E1D
  5
E1D
331
1177
  5
1179
331
1138
  5
113A
331
10F1
  5
10F1
331
103C
  5
103C
331
107B
  5
107B
331
10B2
  5
10B2
331
EDE
  5
EDE
331
EA7
  5
EA7
331
F1D
  5
F1D
331
F54
  5
F54
331
F93
  5
F93
331
FCA
  5
FCA
331
1009
  5
1009
331
E25
  5
E25
331
1140
  5
1142
331
10F9
  5
10F9
331
1044
  5
1044
331
1083
  5
1083
331
10BA
  5
10BA
331
117F
  5
1181
331
E2D
  5
E2D
331
1187
  5
1189
331
E68
  5
E68
331
EE6
  5
EE6
331
E70
  5
E70
331
EAF
  5
EAF
331
F25
  5
F25
331
F5C
  5
F5C
331
F9B
  5
F9B
331
FD2
  5
FD2
331
1011
  5
1011
331
1148
  5
114A
331
1101
  5
1101
331
104C
  5
104C
331
108B
  5
108B
331
10C2
  5
10C2
331
EEE
  5
EEE
331
EB7
  5
EB7
331
E78
  5
E78
331
F2D
  5
F2D
331
F64
  5
F64
331
FA3
  5
FA3
331
FDA
  5
FDA
331
1019
  5
1019
331
E35
  5
E35
331
118F
  5
1191
331
1150
  5
1152
331
1109
  5
1109
331
1054
  5
1054
331
1093
  5
1093
331
10CA
  5
10CA
331
FAB
  5
FAB
331
F35
  5
F35
331
F6C
  5
F6C
331
EBF
  5
EBF
331
E80
  5
E80
331
EF6
  5
EF6
331
FE2
  5
FE2
331
1021
  5
1021
331
DFE
  5
DFE
331
E3D
  5
E3D
331
1121
  5
1122
331
1197
  5
1199
331
109B
  5
109B
331
105C
  5
105C
331
10D2
  5
10D2
331
EFE
  5
EFE
331
F74
  5
F74
331
FEA
  5
FEA
331
E06
  5
E06
331
E45
  5
E45
331
1064
  5
1064
331
10DA
  5
10DA
331
1160
  5
1162
331
E0E
  5
E0E
331
192D
  5
1120
331
E49
  5
E49
331
E88
  5
E88
331
E51
  5
E51
331
E90
  5
E90
331
EC7
  5
EC7
331
F06
  5
F06
331
F3D
  5
F3D
331
F7C
  5
F7C
331
FB3
  5
FB3
331
FF2
  5
FF2
331
102D
  5
102D
331
106C
  5
106C
331
10A3
  5
10A3
331
10E2
  5
10E2
331
1129
  5
112B
331
1168
  5
116A
331
E59
  5
E59
331
E98
  5
E98
331
ECF
  5
ECF
331
F0E
  5
F0E
331
F45
  5
F45
331
F84
  5
F84
331
FBB
  5
FBB
331
FFA
  5
FFA
331
E16
  5
E16
331
1035
  5
1035
331
1074
  5
1074
331
10AB
  5
10AB
331
10EA
  5
10EA
331
1131
  5
1133
331
1170
  5
1172
331
F16
  5
F16
331
E61
  5
E61
331
EA0
  5
EA0
331
ED7
  5
ED7
331
F4D
  5
F4D
331
F8C
  5
F8C
331
FC3
  5
FC3
331
1002
  5
1002
331
E1E
  5
E1E
331
103D
  5
103D
331
107C
  5
107C
331
10B3
  5
10B3
331
10F2
  5
10F2
331
1139
  5
113B
331
1178
  5
117A
331
EDF
  5
EDF
331
F1E
  5
F1E
331
F55
  5
F55
331
F94
  5
F94
331
FCB
  5
FCB
331
100A
  5
100A
331
E26
  5
E26
331
E2E
  5
E2E
331
1045
  5
1045
331
1084
  5
1084
331
10BB
  5
10BB
331
10FA
  5
10FA
331
1141
  5
1143
331
1180
  5
1182
331
E69
  5
E69
331
EA8
  5
EA8
331
E71
  5
E71
331
EB0
  5
EB0
331
EE7
  5
EE7
331
F26
  5
F26
331
F5D
  5
F5D
331
F9C
  5
F9C
331
FD3
  5
FD3
331
1012
  5
1012
331
1188
  5
118A
331
EB8
  5
EB8
331
E79
  5
E79
331
EEF
  5
EEF
331
F2E
  5
F2E
331
F65
  5
F65
331
FA4
  5
FA4
331
FDB
  5
FDB
331
101A
  5
101A
331
E36
  5
E36
331
104D
  5
104D
331
108C
  5
108C
331
10C3
  5
10C3
331
1102
  5
1102
331
1149
  5
114B
331
FAC
  5
FAC
331
F36
  5
F36
331
E81
  5
E81
331
EF7
  5
EF7
331
F6D
  5
F6D
331
FE3
  5
FE3
331
1022
  5
1022
331
DFF
  5
DFF
331
E3E
  5
E3E
331
1055
  5
1055
331
1094
  5
1094
331
10CB
  5
10CB
331
110A
  5
110A
331
1151
  5
1153
331
1190
  5
1192
331
1198
  5
119A
331
1122
  5
1123
331
109C
  5
109C
331
EFF
  5
EFF
331
F75
  5
F75
331
FEB
  5
FEB
331
E07
  5
E07
331
E46
  5
E46
331
105D
  5
105D
331
10D3
  5
10D3
331
1159
  5
115B
331
E0F
  5
E0F
331
1065
  5
1065
331
10DB
  5
10DB
331
1161
  5
1163
331
E4A
  5
E4A
331
E89
  5
E89
331
EC0
  5
EC0
331
E52
  5
E52
331
E91
  5
E91
331
EC8
  5
EC8
331
F07
  5
F07
331
F3E
  5
F3E
331
F7D
  5
F7D
331
FB4
  5
FB4
331
FF3
  5
FF3
331
1169
  5
116B
331
E5A
  5
E5A
331
E99
  5
E99
331
ED0
  5
ED0
331
F0F
  5
F0F
331
F46
  5
F46
331
F85
  5
F85
331
FBC
  5
FBC
331
FFB
  5
FFB
331
E17
  5
E17
331
102E
  5
102E
331
106D
  5
106D
331
10A4
  5
10A4
331
10E3
  5
10E3
331
112A
  5
112C
331
E62
  5
E62
331
EA1
  5
EA1
331
ED8
  5
ED8
331
F17
  5
F17
331
F4E
  5
F4E
331
F8D
  5
F8D
331
FC4
  5
FC4
331
1003
  5
1003
331
E1F
  5
E1F
331
1036
  5
1036
331
1075
  5
1075
331
10AC
  5
10AC
331
10EB
  5
10EB
331
1132
  5
1134
331
1171
  5
1173
331
F1F
  5
F1F
331
F56
  5
F56
331
F95
  5
F95
331
FCC
  5
FCC
331
100B
  5
100B
331
E27
  5
E27
331
103E
  5
103E
331
107D
  5
107D
331
10B4
  5
10B4
331
10F3
  5
10F3
331
113A
  5
113C
331
1179
  5
117B
331
E2F
  5
E2F
331
1046
  5
1046
331
1085
  5
1085
331
10BC
  5
10BC
331
10FB
  5
10FB
331
1142
  5
1144
331
1181
  5
1183
331
E6A
  5
E6A
331
EA9
  5
EA9
331
EE0
  5
EE0
331
E72
  5
E72
331
EB1
  5
EB1
331
EE8
  5
EE8
331
F27
  5
F27
331
F5E
  5
F5E
331
F9D
  5
F9D
331
FD4
  5
FD4
331
1013
  5
1013
331
114A
  5
114C
331
EB9
  5
EB9
331
E7A
  5
E7A
331
EF0
  5
EF0
331
F2F
  5
F2F
331
F66
  5
F66
331
FA5
  5
FA5
331
FDC
  5
FDC
331
101B
  5
101B
331
E37
  5
E37
331
104E
  5
104E
331
108D
  5
108D
331
10C4
  5
10C4
331
1103
  5
1103
331
1189
  5
118B
331
FAD
  5
FAD
331
F37
  5
F37
331
EF8
  5
EF8
331
E82
  5
E82
331
F6E
  5
F6E
331
FE4
  5
FE4
331
1023
  5
1023
331
E00
  5
E00
331
E3F
  5
E3F
331
1056
  5
1056
331
1095
  5
1095
331
10CC
  5
10CC
331
110B
  5
110B
331
1152
  5
1154
331
1191
  5
1193
331
1199
  5
1605
331
1123
  5
1124
331
109D
  5
109D
331
F76
  5
F76
331
FEC
  5
FEC
331
E08
  5
E08
331
E47
  5
E47
331
105E
  5
105E
331
10D4
  5
10D4
331
115A
  5
115C
331
1162
  5
1164
331
10DC
  5
10DC
331
1066
  5
1066
331
F00
  5
F00
331
EC1
  5
EC1
331
E8A
  5
E8A
331
E4B
  5
E4B
331
F08
  5
F08
331
EC9
  5
EC9
331
E92
  5
E92
331
E53
  5
E53
331
F3F
  5
F3F
331
F7E
  5
F7E
331
FB5
  5
FB5
331
FF4
  5
FF4
331
E10
  5
E10
331
116A
  5
116C
331
112B
  5
112D
331
10E4
  5
10E4
331
F10
  5
F10
331
ED1
  5
ED1
331
E9A
  5
E9A
331
E5B
  5
E5B
331
F47
  5
F47
331
F86
  5
F86
331
FBD
  5
FBD
331
FFC
  5
FFC
331
E18
  5
E18
331
102F
  5
102F
331
106E
  5
106E
331
10A5
  5
10A5
331
1172
  5
1174
331
1133
  5
1135
331
10EC
  5
10EC
331
F4F
  5
F4F
331
F8E
  5
F8E
331
FC5
  5
FC5
331
1004
  5
1004
331
E20
  5
E20
331
1037
  5
1037
331
1076
  5
1076
331
10AD
  5
10AD
331
F18
  5
F18
331
ED9
  5
ED9
331
EA2
  5
EA2
331
E63
  5
E63
331
117A
  5
117C
331
113B
  5
113D
331
10F4
  5
10F4
331
E28
  5
E28
331
103F
  5
103F
331
107E
  5
107E
331
10B5
  5
10B5
331
F57
  5
F57
331
F96
  5
F96
331
FCD
  5
FCD
331
100C
  5
100C
331
1182
  5
1184
331
1143
  5
1145
331
10FC
  5
10FC
331
1047
  5
1047
331
1086
  5
1086
331
10BD
  5
10BD
331
F20
  5
F20
331
EE1
  5
EE1
331
EAA
  5
EAA
331
E6B
  5
E6B
331
E30
  5
E30
331
F28
  5
F28
331
EE9
  5
EE9
331
EB2
  5
EB2
331
E73
  5
E73
331
F5F
  5
F5F
331
F9E
  5
F9E
331
FD5
  5
FD5
331
1014
  5
1014
331
118A
  5
118C
331
114B
  5
114D
331
1104
  5
1104
331
E38
  5
E38
331
DF9
  5
DF9
331
104F
  5
104F
331
108E
  5
108E
331
10C5
  5
10C5
331
F30
  5
F30
331
EBA
  5
EBA
331
EF1
  5
EF1
331
E7B
  5
E7B
331
F67
  5
F67
331
FA6
  5
FA6
331
FDD
  5
FDD
331
101C
  5
101C
331
1192
  5
1194
331
1153
  5
1155
331
110C
  5
110C
331
1024
  5
1024
331
E01
  5
E01
331
E40
  5
E40
331
1057
  5
1057
331
1096
  5
1096
331
10CD
  5
10CD
331
FAE
  5
FAE
331
EF9
  5
EF9
331
E83
  5
E83
331
F6F
  5
F6F
331
FE5
  5
FE5
331
119A
  5
1606
331
1124
  5
1125
331
115B
  5
115D
331
109E
  5
109E
331
E09
  5
E09
331
105F
  5
105F
331
10D5
  5
10D5
331
F77
  5
F77
331
FED
  5
FED
331
1163
  5
1165
331
10DD
  5
10DD
331
1067
  5
1067
331
1930
  5
1127
331
F01
  5
F01
331
EC2
  5
EC2
331
E8B
  5
E8B
331
E4C
  5
E4C
331
F38
  5
F38
331
E11
  5
E11
331
1028
  5
1028
331
F09
  5
F09
331
ECA
  5
ECA
331
E93
  5
E93
331
E54
  5
E54
331
F40
  5
F40
331
F7F
  5
F7F
331
FB6
  5
FB6
331
FF5
  5
FF5
331
116B
  5
116D
331
112C
  5
112E
331
10E5
  5
10E5
331
E19
  5
E19
331
1030
  5
1030
331
106F
  5
106F
331
10A6
  5
10A6
331
F11
  5
F11
331
ED2
  5
ED2
331
E9B
  5
E9B
331
E5C
  5
E5C
331
F48
  5
F48
331
F87
  5
F87
331
FBE
  5
FBE
331
FFD
  5
FFD
331
1173
  5
1175
331
1134
  5
1136
331
10ED
  5
10ED
331
E21
  5
E21
331
1038
  5
1038
331
1077
  5
1077
331
10AE
  5
10AE
331
F19
  5
F19
331
EDA
  5
EDA
331
EA3
  5
EA3
331
E64
  5
E64
331
F50
  5
F50
331
F8F
  5
F8F
331
FC6
  5
FC6
331
1005
  5
1005
331
117B
  5
117D
331
113C
  5
113E
331
10F5
  5
10F5
331
E29
  5
E29
331
1040
  5
1040
331
107F
  5
107F
331
10B6
  5
10B6
331
F97
  5
F97
331
FCE
  5
FCE
331
100D
  5
100D
331
1183
  5
1185
331
1144
  5
1146
331
10FD
  5
10FD
331
1087
  5
1087
331
10BE
  5
10BE
331
1901
  5
1930
331
F21
  5
F21
331
EE2
  5
EE2
331
EAB
  5
EAB
331
E6C
  5
E6C
331
F58
  5
F58
331
E31
  5
E31
331
1048
  5
1048
331
F29
  5
F29
331
EEA
  5
EEA
331
EB3
  5
EB3
331
E74
  5
E74
331
F60
  5
F60
331
F9F
  5
F9F
331
FD6
  5
FD6
331
1015
  5
1015
331
118B
  5
118D
331
114C
  5
114E
331
1105
  5
1105
331
10C6
  5
10C6
331
E39
  5
E39
331
DFA
  5
DFA
331
1050
  5
1050
331
108F
  5
108F
331
101D
  5
101D
331
F31
  5
F31
331
EBB
  5
EBB
331
EF2
  5
EF2
331
E7C
  5
E7C
331
F68
  5
F68
331
FA7
  5
FA7
331
FDE
  5
FDE
331
1193
  5
1195
331
1154
  5
1156
331
1025
  5
1025
331
E02
  5
E02
331
E41
  5
E41
331
1058
  5
1058
331
1097
  5
1097
331
10CE
  5
10CE
331
FAF
  5
FAF
331
E84
  5
E84
331
EFA
  5
EFA
331
F70
  5
F70
331
FE6
  5
FE6
331
115C
  5
115E
331
109F
  5
109F
331
E0A
  5
E0A
331
1060
  5
1060
331
10D6
  5
10D6
331
FEE
  5
FEE
331
1164
  5
1166
331
10DE
  5
10DE
331
1665
  5
1667
331
EC3
  5
EC3
331
E4D
  5
E4D
331
E8C
  5
E8C
331
F02
  5
F02
331
F39
  5
F39
331
F78
  5
F78
331
E12
  5
E12
331
1029
  5
1029
331
1068
  5
1068
331
ECB
  5
ECB
331
E55
  5
E55
331
E94
  5
E94
331
F0A
  5
F0A
331
F41
  5
F41
331
F80
  5
F80
331
FB7
  5
FB7
331
FF6
  5
FF6
331
116C
  5
116E
331
112D
  5
112F
331
10E6
  5
10E6
331
10A7
  5
10A7
331
E1A
  5
E1A
331
1031
  5
1031
331
FFE
  5
FFE
331
ED3
  5
ED3
331
E5D
  5
E5D
331
E9C
  5
E9C
331
F12
  5
F12
331
F49
  5
F49
331
F88
  5
F88
331
FBF
  5
FBF
331
1174
  5
1176
331
1135
  5
1137
331
10EE
  5
10EE
331
E22
  5
E22
331
1039
  5
1039
331
1078
  5
1078
331
10AF
  5
10AF
331
EDB
  5
EDB
331
E65
  5
E65
331
EA4
  5
EA4
331
F1A
  5
F1A
331
F51
  5
F51
331
F90
  5
F90
331
FC7
  5
FC7
331
1006
  5
1006
331
117C
  5
117E
331
113D
  5
113F
331
10F6
  5
10F6
331
1041
  5
1041
331
1080
  5
1080
331
10B7
  5
10B7
331
FCF
  5
FCF
331
100E
  5
100E
331
E2A
  5
E2A
331
1184
  5
1186
331
1145
  5
1147
331
10FE
  5
10FE
331
10BF
  5
10BF
331
EE3
  5
EE3
331
E6D
  5
E6D
331
EAC
  5
EAC
331
F22
  5
F22
331
F59
  5
F59
331
F98
  5
F98
331
1049
  5
1049
331
1088
  5
1088
331
EEB
  5
EEB
331
EB4
  5
EB4
331
E75
  5
E75
331
F2A
  5
F2A
331
F61
  5
F61
331
FA0
  5
FA0
331
FD7
  5
FD7
331
1016
  5
1016
331
E32
  5
E32
331
118C
  5
118E
331
114D
  5
114F
331
1106
  5
1106
331
1090
  5
1090
331
1051
  5
1051
331
10C7
  5
10C7
331
FA8
  5
FA8
331
FDF
  5
FDF
331
F32
  5
F32
331
EBC
  5
EBC
331
EF3
  5
EF3
331
E7D
  5
E7D
331
F69
  5
F69
331
101E
  5
101E
331
DFB
  5
DFB
331
E3A
  5
E3A
331
1194
  5
1196
331
1155
  5
1157
331
1098
  5
1098
331
E42
  5
E42
331
1059
  5
1059
331
10CF
  5
10CF
331
E85
  5
E85
331
EFB
  5
EFB
331
F71
  5
F71
331
FE7
  5
FE7
331
1026
  5
1026
331
E03
  5
E03
331
1126
  5
1128
331
115D
  5
115F
331
1061
  5
1061
331
10D7
  5
10D7
331
FEF
  5
FEF
331
E0B
  5
E0B
331
1165
  5
1167
331
10DF
  5
10DF
331
EC4
  5
EC4
331
E4E
  5
E4E
331
E8D
  5
E8D
331
F03
  5
F03
331
F3A
  5
F3A
331
F79
  5
F79
331
FB0
  5
FB0
331
102A
  5
102A
331
1069
  5
1069
331
10A0
  5
10A0
331
ECC
  5
ECC
331
E56
  5
E56
331
E95
  5
E95
331
F0B
  5
F0B
331
F42
  5
F42
331
F81
  5
F81
331
FB8
  5
FB8
331
FF7
  5
FF7
331
E13
  5
E13
331
116D
  5
116F
331
112E
  5
1130
331
10E7
  5
10E7
331
10A8
  5
10A8
331
1032
  5
1032
331
FC0
  5
FC0
331
ED4
  5
ED4
331
E5E
  5
E5E
331
E9D
  5
E9D
331
F13
  5
F13
331
F4A
  5
F4A
331
F89
  5
F89
331
FFF
  5
FFF
331
E1B
  5
E1B
331
1175
  5
1177
331
1136
  5
1138
331
10EF
  5
10EF
331
103A
  5
103A
331
1079
  5
1079
331
10B0
  5
10B0
331
EDC
  5
EDC
331
E66
  5
E66
331
EA5
  5
EA5
331
F1B
  5
F1B
331
F52
  5
F52
331
F91
  5
F91
331
FC8
  5
FC8
331
1007
  5
1007
331
E23
  5
E23
331
117D
  5
117F
331
113E
  5
1140
331
1042
  5
1042
331
1081
  5
1081
331
10B8
  5
10B8
331
10F7
  5
10F7
331
100F
  5
100F
331
E2B
  5
E2B
331
1185
  5
1187
331
1146
  5
1148
331
10FF
  5
10FF
331
EE4
  5
EE4
331
E6E
  5
E6E
331
EAD
  5
EAD
331
F23
  5
F23
331
F5A
  5
F5A
331
F99
  5
F99
331
FD0
  5
FD0
331
104A
  5
104A
331
1089
  5
1089
331
10C0
  5
10C0
331
EEC
  5
EEC
331
EB5
  5
EB5
331
E76
  5
E76
331
F2B
  5
F2B
331
F62
  5
F62
331
FA1
  5
FA1
331
FD8
  5
FD8
331
1017
  5
1017
331
E33
  5
E33
331
118D
  5
118F
331
114E
  5
1150
331
1107
  5
1107
331
1052
  5
1052
331
1091
  5
1091
331
10C8
  5
10C8
331
FA9
  5
FA9
331
FE0
  5
FE0
331
F33
  5
F33
331
EBD
  5
EBD
331
EF4
  5
EF4
331
E7E
  5
E7E
331
F6A
  5
F6A
331
101F
  5
101F
331
DFC
  5
DFC
331
E3B
  5
E3B
331
1195
  5
1197
331
1156
  5
1159
331
1099
  5
1099
331
E43
  5
E43
331
105A
  5
105A
331
10D0
  5
10D0
331
E86
  5
E86
331
EFC
  5
EFC
331
F72
  5
F72
331
FE8
  5
FE8
331
1027
  5
1027
331
E04
  5
E04
331
1127
  5
1129
331
10D8
  5
10D8
331
115E
  5
1160
331
E0C
  5
E0C
331
1166
  5
1168
331
EC5
  5
EC5
331
E4F
  5
E4F
331
E8E
  5
E8E
331
F04
  5
F04
331
F3B
  5
F3B
331
F7A
  5
F7A
331
FB1
  5
FB1
331
FF0
  5
FF0
331
10E0
  5
10E0
331
102B
  5
102B
331
106A
  5
106A
331
10A1
  5
10A1
331
ECD
  5
ECD
331
E57
  5
E57
331
E96
  5
E96
331
F0C
  5
F0C
331
F43
  5
F43
331
F82
  5
F82
331
FB9
  5
FB9
331
FF8
  5
FF8
331
E14
  5
E14
331
116E
  5
1170
331
112F
  5
1131
331
10E8
  5
10E8
331
1033
  5
1033
331
1072
  5
1072
331
10A9
  5
10A9
331
F8A
  5
F8A
331
ED5
  5
ED5
331
E5F
  5
E5F
331
E9E
  5
E9E
331
F14
  5
F14
331
F4B
  5
F4B
331
FC1
  5
FC1
331
1000
  5
1000
331
E1C
  5
E1C
331
1176
  5
1178
331
1137
  5
1139
331
10F0
  5
10F0
331
103B
  5
103B
331
107A
  5
107A
331
10B1
  5
10B1
331
EDD
  5
EDD
331
E67
  5
E67
331
EA6
  5
EA6
331
F1C
  5
F1C
331
F53
  5
F53
331
F92
  5
F92
331
FC9
  5
FC9
331
1008
  5
1008
331
E24
  5
E24
331
117E
  5
1180
331
10F8
  5
10F8
331
1043
  5
1043
331
1082
  5
1082
331
10B9
  5
10B9
331
113F
  5
1141
331
E2C
  5
E2C
331
1186
  5
1188
331
1147
  5
1149
331
1638
  5
163A
  0
XRECORD
  5
27FB
102
{ACAD_REACTORS
330
27FA
102
}
330
27FA
100
AcDbXrecord
340
27D2
  0
ACAD_PROXY_OBJECT
  5
811
102
{ACAD_XDICTIONARY
360
812
102
}
102
{ACAD_REACTORS
330
808
102
}
330
808
100
AcDbProxyObject
 90
      499
 91
      512
 93
     1340
310
42109E509B1BD8DAC02004014080404555555555555953FAA155555555555654FEA9AA400014080404555555555555953FAA155555555555654FEA9AA400000000000000E03F4080404555555555555953FAA155555555555654FEA9AA4014080404555555555555953FAA155555555555654FEA9AA4010201011555555555
310
55654FEA8555555555555953FAA6A9005020101155555555555654FEA8555555555555953FAA6A9000
 94
        0
1001
ACAD
1000
AcadProxyRoundTripData
1071
      504
1071
   851991
1070
     0
  0
ACAD_PROXY_OBJECT
  5
809
102
{ACAD_XDICTIONARY
360
80A
102
}
102
{ACAD_REACTORS
330
808
102
}
330
808
100
AcDbProxyObject
 90
      499
 91
      512
 93
     1340
310
42109E53185E595C802004014080404555555555555953FAA155555555555654FEA9AA400014080404555555555555953FAA155555555555654FEA9AA400000000000000E03F4080404555555555555953FAA155555555555654FEA9AA4014080404555555555555953FAA155555555555654FEA9AA4010201011555555555
310
55654FEA8555555555555953FAA6A9005020101155555555555654FEA8555555555555953FAA6A9000
 94
        0
1001
ACAD
1000
AcadProxyRoundTripData
1071
      504
1071
   851991
1070
     0
  0
ACAD_PROXY_OBJECT
  5
819
102
{ACAD_XDICTIONARY
360
81A
102
}
102
{ACAD_REACTORS
330
808
102
}
330
808
100
AcDbProxyObject
 90
      499
 91
      512
 93
     1332
310
41D1DB1BD8985B002004014080404555555555555953FAA155555555555654FEA9AA400014080404555555555555953FAA155555555555654FEA9AA400000000000000E03F4080404555555555555953FAA155555555555654FEA9AA4014080404555555555555953FAA155555555555654FEA9AA401020101155555555555
310
654FEA8555555555555953FAA6A9005020101155555555555654FEA8555555555555953FAA6A9000
 94
        0
1001
ACAD
1000
AcadProxyRoundTripData
1071
      504
1071
   851991
1070
     0
  0
ACAD_PROXY_OBJECT
  5
858
102
{ACAD_REACTORS
330
857
102
}
330
857
100
AcDbProxyObject
 90
      499
 91
      512
 93
      618
310
40901902A4063FBFFFFFE056BD1B81E855B9FC0AD7A3703D0AD73F4254DD185B99185C990000AD7A3703D0AC73F90141901A02B5E8DC0F42B1CFC02B5E8DC0F42B1CFE5764000000000000300FC6
340
6A
340
0
340
16
340
0
 94
        0
1001
ACAD_MLEADERVER
1070
     2
1001
ACAD
1000
AcadProxyRoundTripData
1071
      508
1071
   851991
1070
     0
  0
MLINESTYLE
  5
78
102
{ACAD_REACTORS
330
76
102
}
330
76
100
AcDbMlineStyle
  2
STANDARD
 70
     0
  3

 62
     0
 51
90.0
 52
90.0
 71
     2
 49
0.5
 62
   256
  6
BYLAYER
 49
-0.5
 62
   256
  6
BYLAYER
  0
ACDBPLACEHOLDER
  5
5
102
{ACAD_REACTORS
330
6
102
}
330
6
100
AcDbPlaceHolder
280
     0
  0
ACAD_PROXY_OBJECT
  5
836
102
{ACAD_REACTORS
330
835
102
}
330
835
100
AcDbProxyObject
 90
      499
 91
      512
 93
       49
310
904313A3100598
 94
        0
1001
ACAD
1000
AcadProxyRoundTripData
1071
      507
1071
   851991
1070
     0
  0
ACAD_PROXY_OBJECT
  5
837
102
{ACAD_REACTORS
330
835
102
}
330
835
100
AcDbProxyObject
 90
      499
 91
      512
 93
      113
310
904313A3200400000000000000406B
 94
        0
1001
ACAD
1000
AcadProxyRoundTripData
1071
      507
1071
   851991
1070
     0
  0
ACAD_PROXY_OBJECT
  5
838
102
{ACAD_REACTORS
330
835
102
}
330
835
100
AcDbProxyObject
 90
      499
 91
      512
 93
      113
310
904313A3400400000000000010406B
 94
        0
1001
ACAD
1000
AcadProxyRoundTripData
1071
      507
1071
   851991
1070
     0
  0
ACAD_PROXY_OBJECT
  5
839
102
{ACAD_REACTORS
330
835
102
}
330
835
100
AcDbProxyObject
 90
      499
 91
      512
 93
      113
310
904313A3500400000000000014406B
 94
        0
1001
ACAD
1000
AcadProxyRoundTripData
1071
      507
1071
   851991
1070
     0
  0
ACAD_PROXY_OBJECT
  5
83A
102
{ACAD_REACTORS
330
835
102
}
330
835
100
AcDbProxyObject
 90
      499
 91
      512
 93
      113
310
904313A3800400000000000020406B
 94
        0
1001
ACAD
1000
AcadProxyRoundTripData
1071
      507
1071
   851991
1070
     0
  0
ACAD_PROXY_OBJECT
  5
83B
102
{ACAD_REACTORS
330
835
102
}
330
835
100
AcDbProxyObject
 90
      499
 91
      512
 93
      121
310
905313A3130004000000000000244051
 94
        0
1001
ACAD
1000
AcadProxyRoundTripData
1071
      507
1071
   851991
1070
     0
  0
ACAD_PROXY_OBJECT
  5
83C
102
{ACAD_REACTORS
330
835
102
}
330
835
100
AcDbProxyObject
 90
      499
 91
      512
 93
      121
310
905313A3136004000000000000304051
 94
        0
1001
ACAD
1000
AcadProxyRoundTripData
1071
      507
1071
   851991
1070
     0
  0
ACAD_PROXY_OBJECT
  5
83D
102
{ACAD_REACTORS
330
835
102
}
330
835
100
AcDbProxyObject
 90
      499
 91
      512
 93
      121
310
905313A3230004000000000000344051
 94
        0
1001
ACAD
1000
AcadProxyRoundTripData
1071
      507
1071
   851991
1070
     0
  0
ACAD_PROXY_OBJECT
  5
83E
102
{ACAD_REACTORS
330
835
102
}
330
835
100
AcDbProxyObject
 90
      499
 91
      512
 93
      121
310
905313A33300040000000000003E4051
 94
        0
1001
ACAD
1000
AcadProxyRoundTripData
1071
      507
1071
   851991
1070
     0
  0
ACAD_PROXY_OBJECT
  5
83F
102
{ACAD_REACTORS
330
835
102
}
330
835
100
AcDbProxyObject
 90
      499
 91
      512
 93
      121
310
905313A3430004000000000000444051
 94
        0
1001
ACAD
1000
AcadProxyRoundTripData
1071
      507
1071
   851991
1070
     0
  0
ACAD_PROXY_OBJECT
  5
840
102
{ACAD_REACTORS
330
835
102
}
330
835
100
AcDbProxyObject
 90
      499
 91
      512
 93
      121
310
905313A3530004000000000000494051
 94
        0
1001
ACAD
1000
AcadProxyRoundTripData
1071
      507
1071
   851991
1070
     0
  0
ACAD_PROXY_OBJECT
  5
841
102
{ACAD_REACTORS
330
835
102
}
330
835
100
AcDbProxyObject
 90
      499
 91
      512
 93
      129
310
906313A313030004000000000000594038
 94
        0
1001
ACAD
1000
AcadProxyRoundTripData
1071
      507
1071
   851991
1070
     0
  0
ACAD_PROXY_OBJECT
  5
842
102
{ACAD_REACTORS
330
835
102
}
330
835
100
AcDbProxyObject
 90
      499
 91
      512
 93
      113
310
904323A31000000000000000010159
 94
        0
1001
ACAD
1000
AcadProxyRoundTripData
1071
      507
1071
   851991
1070
     0
  0
ACAD_PROXY_OBJECT
  5
843
102
{ACAD_REACTORS
330
835
102
}
330
835
100
AcDbProxyObject
 90
      499
 91
      512
 93
      113
310
904343A31000000000000000410159
 94
        0
1001
ACAD
1000
AcadProxyRoundTripData
1071
      507
1071
   851991
1070
     0
  0
ACAD_PROXY_OBJECT
  5
844
102
{ACAD_REACTORS
330
835
102
}
330
835
100
AcDbProxyObject
 90
      499
 91
      512
 93
      113
310
904383A31000000000000000810159
 94
        0
1001
ACAD
1000
AcadProxyRoundTripData
1071
      507
1071
   851991
1070
     0
  0
ACAD_PROXY_OBJECT
  5
845
102
{ACAD_REACTORS
330
835
102
}
330
835
100
AcDbProxyObject
 90
      499
 91
      512
 93
      121
310
90531303A31000000000000000910140
 94
        0
1001
ACAD
1000
AcadProxyRoundTripData
1071
      507
1071
   851991
1070
     0
  0
ACAD_PROXY_OBJECT
  5
846
102
{ACAD_REACTORS
330
835
102
}
330
835
100
AcDbProxyObject
 90
      499
 91
      512
 93
      129
310
9063130303A31000000000000001650138
 94
        0
1001
ACAD
1000
AcadProxyRoundTripData
1071
      507
1071
   851991
1070
     0
  0
ACAD_PROXY_OBJECT
  5
847
102
{ACAD_REACTORS
330
835
102
}
330
835
100
AcDbProxyObject
 90
      499
 91
      512
 93
      265
310
90F312F31323822203D2031272D302200000000000000200FC00000000000028402B
 94
        0
1001
ACAD
1000
AcadProxyRoundTripData
1071
      507
1071
   851991
1070
     0
  0
ACAD_PROXY_OBJECT
  5
848
102
{ACAD_REACTORS
330
835
102
}
330
835
100
AcDbProxyObject
 90
      499
 91
      512
 93
      257
310
90E312F363422203D2031272D302200000000000000240FC000000000000284040
 94
        0
1001
ACAD
1000
AcadProxyRoundTripData
1071
      507
1071
   851991
1070
     0
  0
ACAD_PROXY_OBJECT
  5
849
102
{ACAD_REACTORS
330
835
102
}
330
835
100
AcDbProxyObject
 90
      499
 91
      512
 93
      257
310
90E312F333222203D2031272D302200000000000000280FC000000000000284040
 94
        0
1001
ACAD
1000
AcadProxyRoundTripData
1071
      507
1071
   851991
1070
     0
  0
ACAD_PROXY_OBJECT
  5
84A
102
{ACAD_REACTORS
330
835
102
}
330
835
100
AcDbProxyObject
 90
      499
 91
      512
 93
      257
310
90E312F313622203D2031272D3022000000000000002C0FC000000000000284040
 94
        0
1001
ACAD
1000
AcadProxyRoundTripData
1071
      507
1071
   851991
1070
     0
  0
ACAD_PROXY_OBJECT
  5
84B
102
{ACAD_REACTORS
330
835
102
}
330
835
100
AcDbProxyObject
 90
      499
 91
      512
 93
      257
310
90E332F333222203D2031272D3022000000000000002E0FC000000000000284040
 94
        0
1001
ACAD
1000
AcadProxyRoundTripData
1071
      507
1071
   851991
1070
     0
  0
ACAD_PROXY_OBJECT
  5
84C
102
{ACAD_REACTORS
330
835
102
}
330
835
100
AcDbProxyObject
 90
      499
 91
      512
 93
      249
310
90D312F3822203D2031272D302200000000000000300FC000000000000284040
 94
        0
1001
ACAD
1000
AcadProxyRoundTripData
1071
      507
1071
   851991
1070
     0
  0
ACAD_PROXY_OBJECT
  5
84D
102
{ACAD_REACTORS
330
835
102
}
330
835
100
AcDbProxyObject
 90
      499
 91
      512
 93
      257
310
90E332F313622203D2031272D302200000000000000320FC000000000000284040
 94
        0
1001
ACAD
1000
AcadProxyRoundTripData
1071
      507
1071
   851991
1070
     0
  0
ACAD_PROXY_OBJECT
  5
84E
102
{ACAD_REACTORS
330
835
102
}
330
835
100
AcDbProxyObject
 90
      499
 91
      512
 93
      249
310
90D312F3422203D2031272D302200000000000000340FC000000000000284040
 94
        0
1001
ACAD
1000
AcadProxyRoundTripData
1071
      507
1071
   851991
1070
     0
  0
ACAD_PROXY_OBJECT
  5
84F
102
{ACAD_REACTORS
330
835
102
}
330
835
100
AcDbProxyObject
 90
      499
 91
      512
 93
      249
310
90D332F3822203D2031272D302200000000000000360FC000000000000284040
 94
        0
1001
ACAD
1000
AcadProxyRoundTripData
1071
      507
1071
   851991
1070
     0
  0
ACAD_PROXY_OBJECT
  5
850
102
{ACAD_REACTORS
330
835
102
}
330
835
100
AcDbProxyObject
 90
      499
 91
      512
 93
      249
310
90D312F3222203D2031272D302200000000000000380FC000000000000284040
 94
        0
1001
ACAD
1000
AcadProxyRoundTripData
1071
      507
1071
   851991
1070
     0
  0
ACAD_PROXY_OBJECT
  5
851
102
{ACAD_REACTORS
330
835
102
}
330
835
100
AcDbProxyObject
 90
      499
 91
      512
 93
      249
310
90D332F3422203D2031272D3022000000000000003A0FC000000000000284040
 94
        0
1001
ACAD
1000
AcadProxyRoundTripData
1071
      507
1071
   851991
1070
     0
  0
ACAD_PROXY_OBJECT
  5
852
102
{ACAD_REACTORS
330
835
102
}
330
835
100
AcDbProxyObject
 90
      499
 91
      512
 93
      169
310
90B3122203D2031272D3022004000000000000284020
 94
        0
1001
ACAD
1000
AcadProxyRoundTripData
1071
      507
1071
   851991
1070
     0
  0
ACAD_PROXY_OBJECT
  5
853
102
{ACAD_REACTORS
330
835
102
}
330
835
100
AcDbProxyObject
 90
      499
 91
      512
 93
      265
310
90F312D312F3222203D2031272D3022000000000000003E0FC00000000000028402B
 94
        0
1001
ACAD
1000
AcadProxyRoundTripData
1071
      507
1071
   851991
1070
     0
  0
ACAD_PROXY_OBJECT
  5
854
102
{ACAD_REACTORS
330
835
102
}
330
835
100
AcDbProxyObject
 90
      499
 91
      512
 93
      233
310
90B3322203D2031272D30220000000000000002100000000000000284000
 94
        0
1001
ACAD
1000
AcadProxyRoundTripData
1071
      507
1071
   851991
1070
     0
  0
ACAD_PROXY_OBJECT
  5
855
102
{ACAD_REACTORS
330
835
102
}
330
835
100
AcDbProxyObject
 90
      499
 91
      512
 93
      233
310
90B3622203D2031272D30220000000000000006100000000000000284000
 94
        0
1001
ACAD
1000
AcadProxyRoundTripData
1071
      507
1071
   851991
1070
     0
  0
ACAD_PROXY_OBJECT
  5
856
102
{ACAD_REACTORS
330
835
102
}
330
835
100
AcDbProxyObject
 90
      499
 91
      512
 93
      257
310
90E31272D3022203D2031272D3022000000000000000A100000000000000284040
 94
        0
1001
ACAD
1000
AcadProxyRoundTripData
1071
      507
1071
   851991
1070
     0
  0
ACAD_PROXY_OBJECT
  5
834
102
{ACAD_XDICTIONARY
360
88C
102
}
102
{ACAD_REACTORS
330
833
102
}
330
833
100
AcDbProxyObject
 90
      499
 91
      512
 93
     1849
310
4254DD185B99185C990028B81E85EB51B8AE3F2E07A17AD46E2B8FC02B5E8DC0F42B1CFD028000000C1008070000C3001FDFF8000000C1003FBFF000000182007F7FE00000030400FEFFC00000060801FDFF8000000C1003FBFF00000018200000000000000681FA0B0000001820100E000186003FBFF000000182007F7FE0
310
0000030400FEFFC00000060801FDFF8000000C1003FBFF000000182007F7FE000000304000AD7A3703D0AC73F4160000003040201C00030C007F7FE00000030400FEFFC00000060801FDFF8000000C1003FBFF000000182007F7FE00000030400FEFFC000000608071
340
16
340
16
340
16
 94
        0
1001
ACAD
1000
AcadProxyRoundTripData
1071
      506
1071
   851991
1070
     0
  0
ACAD_PROXY_OBJECT
  5
827
102
{ACAD_REACTORS
330
821
102
}
330
821
100
AcDbProxyObject
 90
      499
 91
      512
 93
      444
310
430C9915DA5C99599C985B59401049028333333333333E3BF0000000000000FB0107901411070040501600405405064090741402480A0340
 94
        0
1001
ACAD
1000
AcDbSavedByObjectVersion
1070
     0
1000
AcadProxyRoundTripData
1071
      505
1071
   851991
1070
     0
  0
ACAD_PROXY_OBJECT
  5
829
102
{ACAD_REACTORS
330
821
102
}
330
821
100
AcDbProxyObject
 90
      499
 91
      512
 93
      508
310
428CD108121A5919195B8010640502408333333333333E3BF0000000000000FB01079024090700405020000000000001110200405405064090740C02480A0340
 94
        0
1001
ACAD
1000
AcDbSavedByObjectVersion
1070
     0
1000
AcadProxyRoundTripData
1071
      505
1071
   851991
1070
     0
  0
ACAD_PROXY_OBJECT
  5
828
102
{ACAD_REACTORS
330
821
102
}
330
821
100
AcDbProxyObject
 90
      499
 91
      512
 93
      444
310
430CD915DA5C99599C985B59401059028333333333333E3BF0000000000000FB0107901411070040501600405405064090741402480A0340
 94
        0
1001
ACAD
1000
AcDbSavedByObjectVersion
1070
     0
1000
AcadProxyRoundTripData
1071
      505
1071
   851991
1070
     0
  0
ACAD_PROXY_OBJECT
  5
826
102
{ACAD_REACTORS
330
821
102
}
330
821
100
AcDbProxyObject
 90
      499
 91
      512
 93
      396
310
4190985CDA58C0107406404333333333333E3BF0000000000000FB0107A41107004050150841D405064090741402480A0356
 94
        0
1001
ACAD
1000
AcDbSavedByObjectVersion
1070
     0
1000
AcadProxyRoundTripData
1071
      505
1071
   851991
1070
     0
  0
ACAD_PROXY_OBJECT
  5
82D
102
{ACAD_REACTORS
330
821
102
}
330
821
100
AcDbProxyObject
 90
      499
 91
      512
 93
      436
310
42509C9A59DA1D195B8010C409028333333333333E3BF0000000000000FB010790141107004050150841D405064090741402480A029956
 94
        0
1001
ACAD
1000
AcDbSavedByObjectVersion
1070
     0
1000
AcadProxyRoundTripData
1071
      505
1071
   851991
1070
     0
  0
ACAD_PROXY_OBJECT
  5
831
102
{ACAD_REACTORS
330
821
102
}
330
821
100
AcDbProxyObject
 90
      499
 91
      512
 93
      460
310
4310DBDB1BDC90DA185B99D9401104090240C333333333333E3BF0000000000000FB0108901411070040501508421405064090741402480A0354
 94
        0
1001
ACAD
1000
AcDbSavedByObjectVersion
1070
     0
1000
AcadProxyRoundTripData
1071
      505
1071
   851991
1070
     0
  0
ACAD_PROXY_OBJECT
  5
82A
102
{ACAD_REACTORS
330
821
102
}
330
821
100
AcDbProxyObject
 90
      499
 91
      512
 93
      508
310
42D0DBDB98D95C1D1D585B0010940D028333333333333E3BF0000000000000FB0107902409070040501000000000000111010841D405064090740C02480A0340
 94
        0
1001
ACAD
1000
AcDbSavedByObjectVersion
1070
     0
1000
AcadProxyRoundTripData
1071
      505
1071
   851991
1070
     0
  0
ACAD_PROXY_OBJECT
  5
82C
102
{ACAD_REACTORS
330
821
102
}
330
821
100
AcDbProxyObject
 90
      499
 91
      512
 93
      420
310
41111A5B4010B409028333333333333E3BF0000000000000FB010790141107004050150841D405064090741402480A02677FFFFFDB
 94
        0
1001
ACAD
1000
AcDbSavedByObjectVersion
1070
     0
1000
AcadProxyRoundTripData
1071
      505
1071
   851991
1070
     0
  0
ACAD_PROXY_OBJECT
  5
830
102
{ACAD_REACTORS
330
821
102
}
330
821
100
AcDbProxyObject
 90
      499
 91
      512
 93
      452
310
43119858D95C185D1D195C9B8010F409028333333333333E3BF0000000000000FB010790141107004050150841D405064090741402480A0350
 94
        0
1001
ACAD
1000
AcDbSavedByObjectVersion
1070
     0
1000
AcadProxyRoundTripData
1071
      505
1071
   851991
1070
     0
  0
ACAD_PROXY_OBJECT
  5
822
102
{ACAD_REACTORS
330
821
102
}
330
821
100
AcDbProxyObject
 90
      499
 91
      512
 93
      396
310
41519B185D00240901404333333333333E3BF0000000000000F9010740A41107004050150841D405064090741402480A1B55
 94
        0
1001
ACAD
1000
AcDbSavedByObjectVersion
1070
     0
1000
AcadProxyRoundTripData
1071
      505
1071
   851991
1070
     0
  0
ACAD_PROXY_OBJECT
  5
823
102
{ACAD_REACTORS
330
821
102
}
330
821
100
AcDbProxyObject
 90
      499
 91
      512
 93
      484
310
43919B185D15DA5D1A115919D95CC010140901404333333333333E3BF0000000000000F9010740901411070040501600405405064090741402480A1B50
 94
        0
1001
ACAD
1000
AcDbSavedByObjectVersion
1070
     0
1000
AcadProxyRoundTripData
1071
      505
1071
   851991
1070
     0
  0
ACAD_PROXY_OBJECT
  5
824
102
{ACAD_REACTORS
330
821
102
}
330
821
100
AcDbProxyObject
 90
      499
 91
      512
 93
      420
310
4211DBDD5C985D590010240902404333333333333E3BF0000000000000F9010740A411070040501641D405064090741402480A1B50
 94
        0
1001
ACAD
1000
AcDbSavedByObjectVersion
1070
     0
1000
AcadProxyRoundTripData
1071
      505
1071
   851991
1070
     0
  0
ACAD_PROXY_OBJECT
  5
825
102
{ACAD_REACTORS
330
821
102
}
330
821
100
AcDbProxyObject
 90
      499
 91
      512
 93
      508
310
4451DBDD5C985D5915DA5D1A115919D95CC010340902404333333333333E3BF0000000000000F9010740901411070040501600405405064090741402480A1B50
 94
        0
1001
ACAD
1000
AcDbSavedByObjectVersion
1070
     0
1000
AcadProxyRoundTripData
1071
      505
1071
   851991
1070
     0
  0
ACAD_PROXY_OBJECT
  5
82F
102
{ACAD_REACTORS
330
821
102
}
330
821
100
AcDbProxyObject
 90
      499
 91
      512
 93
      452
310
43131A5B995C185D1D195C9B8010E409028333333333333E3BF0000000000000FB010790141107004050750841D405064090741402483A0350
 94
        0
1001
ACAD
1000
AcDbSavedByObjectVersion
1070
     0
1000
AcadProxyRoundTripData
1071
      505
1071
   851991
1070
     0
  0
ACAD_PROXY_OBJECT
  5
82B
102
{ACAD_REACTORS
330
821
102
}
330
821
100
AcDbProxyObject
 90
      499
 91
      512
 93
      428
310
429499585B1A5CDD1A58C0108409028333333333333E3BF0000000000000FB01079019070040501508421405064090741402480A1B45
 94
        0
1001
ACAD
1000
AcDbSavedByObjectVersion
1070
     0
1000
AcadProxyRoundTripData
1071
      505
1071
   851991
1070
     0
  0
ACAD_PROXY_OBJECT
  5
82E
102
{ACAD_REACTORS
330
821
102
}
330
821
100
AcDbProxyObject
 90
      499
 91
      512
 93
      420
310
42151A1A58DAD95B8010D409028333333333333E3BF0000000000000FB010790141107004050150C41D405064090741402480A0352
 94
        0
1001
ACAD
1000
AcDbSavedByObjectVersion
1070
     0
1000
AcadProxyRoundTripData
1071
      505
1071
   851991
1070
     0
  0
XRECORD
  5
27E2
102
{ACAD_REACTORS
330
27D8
102
}
330
27D8
100
AcDbXrecord
 90
        0
  0
XRECORD
  5
27E6
102
{ACAD_REACTORS
330
27D8
102
}
330
27D8
100
AcDbXrecord
1000
DSTYLE
1002
{
1070
   179
 70
     2
1070
   277
 70
     6
1002
}
  0
XRECORD
  5
27E3
102
{ACAD_REACTORS
330
27D8
102
}
330
27D8
100
AcDbXrecord
  1
{91BB5BC1-F61B-45BC-857E-FA9F3B90751E}
  0
XRECORD
  5
27DB
102
{ACAD_REACTORS
330
27D8
102
}
330
27D8
100
AcDbXrecord
  1

  0
XRECORD
  5
27E1
102
{ACAD_REACTORS
330
27D8
102
}
330
27D8
100
AcDbXrecord
 90
        0
  0
XRECORD
  5
27DD
102
{ACAD_REACTORS
330
27D8
102
}
330
27D8
100
AcDbXrecord
340
61
  0
XRECORD
  5
27E0
102
{ACAD_REACTORS
330
27D8
102
}
330
27D8
100
AcDbXrecord
 90
    10781
  0
XRECORD
  5
27DE
102
{ACAD_REACTORS
330
27D8
102
}
330
27D8
100
AcDbXrecord
340
77
  0
XRECORD
  5
27DF
102
{ACAD_REACTORS
330
27D8
102
}
330
27D8
100
AcDbXrecord
340
6
  0
XRECORD
  5
27E5
102
{ACAD_REACTORS
330
27D8
102
}
330
27D8
100
AcDbXrecord
 40
0.0
  0
XRECORD
  5
27E9
102
{ACAD_REACTORS
330
27D8
102
}
330
27D8
100
AcDbXrecord
340
0
  0
XRECORD
  5
27EF
102
{ACAD_REACTORS
330
27D8
102
}
330
27D8
100
AcDbXrecord
 10
0.0
 20
0.0
 30
0.0
  0
XRECORD
  5
27EB
102
{ACAD_REACTORS
330
27D8
102
}
330
27D8
100
AcDbXrecord
 10
0.0
 20
0.0
 30
0.0
  0
XRECORD
  5
27EE
102
{ACAD_REACTORS
330
27D8
102
}
330
27D8
100
AcDbXrecord
 10
0.0
 20
0.0
 30
0.0
  0
XRECORD
  5
27EC
102
{ACAD_REACTORS
330
27D8
102
}
330
27D8
100
AcDbXrecord
 10
0.0
 20
0.0
 30
0.0
  0
XRECORD
  5
27ED
102
{ACAD_REACTORS
330
27D8
102
}
330
27D8
100
AcDbXrecord
 10
0.0
 20
0.0
 30
0.0
  0
XRECORD
  5
27EA
102
{ACAD_REACTORS
330
27D8
102
}
330
27D8
100
AcDbXrecord
 10
0.0
 20
0.0
 30
0.0
  0
XRECORD
  5
27E7
102
{ACAD_REACTORS
330
27D8
102
}
330
27D8
100
AcDbXrecord
340
0
  0
XRECORD
  5
27E8
102
{ACAD_REACTORS
330
27D8
102
}
330
27D8
100
AcDbXrecord
 70
     0
  0
XRECORD
  5
27DC
102
{ACAD_REACTORS
330
27D8
102
}
330
27D8
100
AcDbXrecord
  1
Sekkei.ctb
  0
XRECORD
  5
27D9
102
{ACAD_REACTORS
330
27D8
102
}
330
27D8
100
AcDbXrecord
 90
        1
  0
XRECORD
  5
27DA
102
{ACAD_REACTORS
330
27D8
102
}
330
27D8
100
AcDbXrecord
 90
       70
  0
XRECORD
  5
27F2
102
{ACAD_REACTORS
330
27D8
102
}
330
27D8
100
AcDbXrecord
340
0
  0
XRECORD
  5
27F8
102
{ACAD_REACTORS
330
27D8
102
}
330
27D8
100
AcDbXrecord
 10
0.0
 20
0.0
 30
0.0
  0
XRECORD
  5
27F4
102
{ACAD_REACTORS
330
27D8
102
}
330
27D8
100
AcDbXrecord
 10
0.0
 20
0.0
 30
0.0
  0
XRECORD
  5
27F7
102
{ACAD_REACTORS
330
27D8
102
}
330
27D8
100
AcDbXrecord
 10
0.0
 20
0.0
 30
0.0
  0
XRECORD
  5
27F5
102
{ACAD_REACTORS
330
27D8
102
}
330
27D8
100
AcDbXrecord
 10
0.0
 20
0.0
 30
0.0
  0
XRECORD
  5
27F6
102
{ACAD_REACTORS
330
27D8
102
}
330
27D8
100
AcDbXrecord
 10
0.0
 20
0.0
 30
0.0
  0
XRECORD
  5
27F3
102
{ACAD_REACTORS
330
27D8
102
}
330
27D8
100
AcDbXrecord
 10
0.0
 20
0.0
 30
0.0
  0
XRECORD
  5
27F0
102
{ACAD_REACTORS
330
27D8
102
}
330
27D8
100
AcDbXrecord
340
0
  0
XRECORD
  5
27F1
102
{ACAD_REACTORS
330
27D8
102
}
330
27D8
100
AcDbXrecord
 70
     0
  0
XRECORD
  5
27E4
102
{ACAD_REACTORS
330
27D8
102
}
330
27D8
100
AcDbXrecord
  1
{285BAFD3-133E-4C6E-AEC2-61B5E0D52928}
  0
DICTIONARYVAR
  5
892
102
{ACAD_REACTORS
330
102
102
}
330
102
100
DictionaryVariables
280
     0
  1
1:1
  0
DICTIONARYVAR
  5
890
102
{ACAD_REACTORS
330
102
102
}
330
102
100
DictionaryVariables
280
     0
  1
STANDARD
  0
DICTIONARYVAR
  5
88F
102
{ACAD_REACTORS
330
102
102
}
330
102
100
DictionaryVariables
280
     0
  1
STANDARD
  0
DICTIONARYVAR
  5
103
102
{ACAD_REACTORS
330
102
102
}
330
102
100
DictionaryVariables
280
     0
  1
1
  0
DICTIONARYVAR
  5
1BC3
102
{ACAD_REACTORS
330
102
102
}
330
102
100
DictionaryVariables
280
     0
  1
0
  0
DICTIONARYVAR
  5
893
102
{ACAD_REACTORS
330
102
102
}
330
102
100
DictionaryVariables
280
     0
  1
0
  0
DICTIONARYVAR
  5
891
102
{ACAD_REACTORS
330
102
102
}
330
102
100
DictionaryVariables
280
     0
  1
0
  0
DICTIONARYVAR
  5
549
102
{ACAD_REACTORS
330
102
102
}
330
102
100
DictionaryVariables
280
     0
  1
96
  0
DICTIONARY
  5
812
330
811
100
AcDbDictionary
280
     1
  3
ACAD_XREC_ROUNDTRIP
360
27B6
  3
BUMPTILE
360
814
  3
DIFFUSETILE
360
813
  3
OPACITYTILE
360
817
  3
REFLECTIONTILE
360
816
  3
REFRACTIONTILE
360
818
  3
SPECULARTILE
360
815
  0
DICTIONARY
  5
80A
330
809
100
AcDbDictionary
280
     1
  3
ACAD_XREC_ROUNDTRIP
360
27B5
  3
BUMPTILE
360
80C
  3
DIFFUSETILE
360
80B
  3
OPACITYTILE
360
80F
  3
REFLECTIONTILE
360
80E
  3
REFRACTIONTILE
360
810
  3
SPECULARTILE
360
80D
  0
DICTIONARY
  5
81A
330
819
100
AcDbDictionary
280
     1
  3
ACAD_XREC_ROUNDTRIP
360
27B7
  3
BUMPTILE
360
81C
  3
DIFFUSETILE
360
81B
  3
OPACITYTILE
360
81F
  3
REFLECTIONTILE
360
81E
  3
REFRACTIONTILE
360
820
  3
SPECULARTILE
360
81D
  0
DICTIONARY
  5
88C
330
834
100
AcDbDictionary
280
     1
  3
ACAD_ROUNDTRIP_2008_TABLES
360
27AD
  3
ACAD_XREC_ROUNDTRIP
360
27B8
  0
XRECORD
  5
27B6
102
{ACAD_REACTORS
330
812
102
}
330
812
100
AcDbXrecord
102
MATERIAL
148
0.0
149
0.0
149
0.0
 93
        0
 94
      127
282
     0
 72
     0
 77
     0
171
     0
175
     0
179
     0
273
     0
  0
XRECORD
  5
814
102
{ACAD_REACTORS
330
812
102
}
330
812
100
AcDbXrecord
270
     1
271
     1
  0
XRECORD
  5
813
102
{ACAD_REACTORS
330
812
102
}
330
812
100
AcDbXrecord
270
     1
271
     1
  0
XRECORD
  5
817
102
{ACAD_REACTORS
330
812
102
}
330
812
100
AcDbXrecord
270
     1
271
     1
  0
XRECORD
  5
816
102
{ACAD_REACTORS
330
812
102
}
330
812
100
AcDbXrecord
270
     1
271
     1
  0
XRECORD
  5
818
102
{ACAD_REACTORS
330
812
102
}
330
812
100
AcDbXrecord
270
     1
271
     1
  0
XRECORD
  5
815
102
{ACAD_REACTORS
330
812
102
}
330
812
100
AcDbXrecord
270
     1
271
     1
  0
XRECORD
  5
27B5
102
{ACAD_REACTORS
330
80A
102
}
330
80A
100
AcDbXrecord
102
MATERIAL
148
0.0
149
0.0
149
0.0
 93
        0
 94
      127
282
     0
 72
     0
 77
     0
171
     0
175
     0
179
     0
273
     0
  0
XRECORD
  5
80C
102
{ACAD_REACTORS
330
80A
102
}
330
80A
100
AcDbXrecord
270
     1
271
     1
  0
XRECORD
  5
80B
102
{ACAD_REACTORS
330
80A
102
}
330
80A
100
AcDbXrecord
270
     1
271
     1
  0
XRECORD
  5
80F
102
{ACAD_REACTORS
330
80A
102
}
330
80A
100
AcDbXrecord
270
     1
271
     1
  0
XRECORD
  5
80E
102
{ACAD_REACTORS
330
80A
102
}
330
80A
100
AcDbXrecord
270
     1
271
     1
  0
XRECORD
  5
810
102
{ACAD_REACTORS
330
80A
102
}
330
80A
100
AcDbXrecord
270
     1
271
     1
  0
XRECORD
  5
80D
102
{ACAD_REACTORS
330
80A
102
}
330
80A
100
AcDbXrecord
270
     1
271
     1
  0
XRECORD
  5
27B7
102
{ACAD_REACTORS
330
81A
102
}
330
81A
100
AcDbXrecord
102
MATERIAL
148
0.0
149
0.0
149
0.0
 93
        0
 94
      127
282
     0
 72
     0
 77
     0
171
     0
175
     0
179
     0
273
     0
  0
XRECORD
  5
81C
102
{ACAD_REACTORS
330
81A
102
}
330
81A
100
AcDbXrecord
270
     1
271
     1
  0
XRECORD
  5
81B
102
{ACAD_REACTORS
330
81A
102
}
330
81A
100
AcDbXrecord
270
     1
271
     1
  0
XRECORD
  5
81F
102
{ACAD_REACTORS
330
81A
102
}
330
81A
100
AcDbXrecord
270
     1
271
     1
  0
XRECORD
  5
81E
102
{ACAD_REACTORS
330
81A
102
}
330
81A
100
AcDbXrecord
270
     1
271
     1
  0
XRECORD
  5
820
102
{ACAD_REACTORS
330
81A
102
}
330
81A
100
AcDbXrecord
270
     1
271
     1
  0
XRECORD
  5
81D
102
{ACAD_REACTORS
330
81A
102
}
330
81A
100
AcDbXrecord
270
     1
271
     1
  0
ACAD_PROXY_OBJECT
  5
27AD
102
{ACAD_REACTORS
330
88C
102
}
330
88C
100
AcDbProxyObject
 90
      499
 91
      512
 93
     1044
310
40D054060020000020000003200101A000080002A5058000000C100000000000000340FE901405075F5449544C450041501A8000000C800406800020000A9416000000304000AD7A3703D0AC73FA409014217D2115051115480105406A0000003200101A000080002A5028000000C10002B5E8DC0F42B1CFE903409065F444
310
15441003
340
16
340
16
340
16
 94
        0
1001
ACAD
1000
AcadProxyRoundTripData
1071
      510
1071
   851991
1070
     0
  0
XRECORD
  5
27B8
102
{ACAD_REACTORS
330
88C
102
}
330
88C
100
AcDbXrecord
102
ACAD_ROUNDTRIP_PRE2007_TABLESTYLE
 90
      512
 91
        0
  1

 92
      512
 93
        0
  2

 94
      512
 95
        0
  3

  0
ENDSEC
  0
EOF
