  0
SECTION
  2
HEADER
  9
$ACADVER
  1
AC1014
  9
$ACADMAINTVER
 70
     9
  9
$DWGCODEPAGE
  3
ANSI_932
  9
$INSBASE
 10
0.0
 20
0.0
 30
0.0
  9
$EXTMIN
 10
-3.885367083344817
 20
-11.54265846566641
 30
0.0
  9
$EXTMAX
 10
1359.924358010703
 20
841.9012521591454
 30
0.0
  9
$LIMMIN
 10
0.0
 20
0.0
  9
$LIMMAX
 10
297.0
 20
210.0
  9
$ORTHOMODE
 70
     0
  9
$REGENMODE
 70
     1
  9
$FILLMODE
 70
     1
  9
$QTEXTMODE
 70
     0
  9
$MIRRTEXT
 70
     0
  9
$DRAGMODE
 70
     2
  9
$LTSCALE
 40
4.0
  9
$OSMODE
 70
    37
  9
$ATTMODE
 70
     1
  9
$TEXTSIZE
 40
2.0
  9
$TRACEWID
 40
1.0
  9
$TEXTSTYLE
  7
STANDARD
  9
$CLAYER
  8
0
  9
$CELTYPE
  6
BYLAYER
  9
$CECOLOR
 62
   256
  9
$CELTSCALE
 40
1.0
  9
$DELOBJ
 70
     1
  9
$DISPSILH
 70
     0
  9
$DIMSCALE
 40
4.0
  9
$DIMASZ
 40
1.8
  9
$DIMEXO
 40
0.625
  9
$DIMDLI
 40
3.75
  9
$DIMRND
 40
0.0
  9
$DIMDLE
 40
0.0
  9
$DIMEXE
 40
0.8
  9
$DIMTP
 40
0.0
  9
$DIMTM
 40
0.0
  9
$DIMTXT
 40
1.8
  9
$DIMCEN
 40
2.5
  9
$DIMTSZ
 40
0.0
  9
$DIMTOL
 70
     0
  9
$DIMLIM
 70
     0
  9
$DIMTIH
 70
     0
  9
$DIMTOH
 70
     0
  9
$DIMSE1
 70
     0
  9
$DIMSE2
 70
     0
  9
$DIMTAD
 70
     1
  9
$DIMZIN
 70
     8
  9
$DIMBLK
  1

  9
$DIMASO
 70
     1
  9
$DIMSHO
 70
     1
  9
$DIMPOST
  1

  9
$DIMAPOST
  1

  9
$DIMALT
 70
     0
  9
$DIMALTD
 70
     4
  9
$DIMALTF
 40
0.0394
  9
$DIMLFAC
 40
1.0
  9
$DIMTOFL
 70
     1
  9
$DIMTVP
 40
0.0
  9
$DIMTIX
 70
     0
  9
$DIMSOXD
 70
     0
  9
$DIMSAH
 70
     0
  9
$DIMBLK1
  1

  9
$DIMBLK2
  1

  9
$DIMSTYLE
  2
STANDARD
  9
$DIMCLRD
 70
     0
  9
$DIMCLRE
 70
     0
  9
$DIMCLRT
 70
     0
  9
$DIMTFAC
 40
1.0
  9
$DIMGAP
 40
0.75
  9
$DIMJUST
 70
     0
  9
$DIMSD1
 70
     0
  9
$DIMSD2
 70
     0
  9
$DIMTOLJ
 70
     1
  9
$DIMTZIN
 70
     0
  9
$DIMALTZ
 70
     0
  9
$DIMALTTZ
 70
     0
  9
$DIMFIT
 70
     3
  9
$DIMUPT
 70
     0
  9
$DIMUNIT
 70
     8
  9
$DIMDEC
 70
     2
  9
$DIMTDEC
 70
     2
  9
$DIMALTU
 70
     8
  9
$DIMALTTD
 70
     4
  9
$DIMTXSTY
  7
STANDARD
  9
$DIMAUNIT
 70
     0
  9
$LUNITS
 70
     2
  9
$LUPREC
 70
     3
  9
$SKETCHINC
 40
1.0
  9
$FILLETRAD
 40
10.0
  9
$AUNITS
 70
     0
  9
$AUPREC
 70
     2
  9
$MENU
  1
.
  9
$ELEVATION
 40
0.0
  9
$PELEVATION
 40
0.0
  9
$THICKNESS
 40
0.0
  9
$LIMCHECK
 70
     0
  9
$BLIPMODE
 70
     0
  9
$CHAMFERA
 40
0.0
  9
$CHAMFERB
 40
0.0
  9
$CHAMFERC
 40
20.0
  9
$CHAMFERD
 40
0.0
  9
$SKPOLY
 70
     0
  9
$TDCREATE
 40
2454889.454828194
  9
$TDUPDATE
 40
2454909.818278749
  9
$TDINDWG
 40
0.1735617361
  9
$TDUSRTIMER
 40
0.1735615509
  9
$USRTIMER
 70
     1
  9
$ANGBASE
 50
0.0
  9
$ANGDIR
 70
     0
  9
$PDMODE
 70
     0
  9
$PDSIZE
 40
-10.0
  9
$PLINEWID
 40
0.0
  9
$COORDS
 70
     1
  9
$SPLFRAME
 70
     0
  9
$SPLINETYPE
 70
     6
  9
$SPLINESEGS
 70
     8
  9
$ATTDIA
 70
     0
  9
$ATTREQ
 70
     1
  9
$HANDLING
 70
 22529
  9
$HANDSEED
  5
3662
  9
$SURFTAB1
 70
     6
  9
$SURFTAB2
 70
     6
  9
$SURFTYPE
 70
     6
  9
$SURFU
 70
     6
  9
$SURFV
 70
     6
  9
$UCSNAME
  2

  9
$UCSORG
 10
0.0
 20
0.0
 30
0.0
  9
$UCSXDIR
 10
1.0
 20
0.0
 30
0.0
  9
$UCSYDIR
 10
0.0
 20
1.0
 30
0.0
  9
$PUCSNAME
  2

  9
$PUCSORG
 10
0.0
 20
0.0
 30
0.0
  9
$PUCSXDIR
 10
1.0
 20
0.0
 30
0.0
  9
$PUCSYDIR
 10
0.0
 20
1.0
 30
0.0
  9
$USERI1
 70
     0
  9
$USERI2
 70
     0
  9
$USERI3
 70
     0
  9
$USERI4
 70
     0
  9
$USERI5
 70
     0
  9
$USERR1
 40
0.0
  9
$USERR2
 40
0.0
  9
$USERR3
 40
0.0
  9
$USERR4
 40
0.0
  9
$USERR5
 40
0.0
  9
$WORLDVIEW
 70
     1
  9
$SHADEDGE
 70
     3
  9
$SHADEDIF
 70
    70
  9
$TILEMODE
 70
     1
  9
$MAXACTVP
 70
    48
  9
$PINSBASE
 10
0.0
 20
0.0
 30
0.0
  9
$PLIMCHECK
 70
     0
  9
$PEXTMIN
 10
0.0
 20
0.0
 30
0.0
  9
$PEXTMAX
 10
0.0
 20
0.0
 30
0.0
  9
$PLIMMIN
 10
0.0
 20
0.0
  9
$PLIMMAX
 10
12.0
 20
9.0
  9
$UNITMODE
 70
     0
  9
$VISRETAIN
 70
     1
  9
$PLINEGEN
 70
     0
  9
$PSLTSCALE
 70
     1
  9
$TREEDEPTH
 70
  3020
  9
$PICKSTYLE
 70
     1
  9
$CMLSTYLE
  2
STANDARD
  9
$CMLJUST
 70
     0
  9
$CMLSCALE
 40
1.0
  9
$PROXYGRAPHICS
 70
     1
  9
$MEASUREMENT
 70
     0
  0
ENDSEC
  0
SECTION
  2
CLASSES
  0
CLASS
  1
DICTIONARYVAR
  2
AcDbDictionaryVar
  3
AutoCAD 2000
 90
        0
280
     0
281
     0
  0
CLASS
  1
ACDBDICTIONARYWDFLT
  2
AcDbDictionaryWithDefault
  3
AutoCAD 2000
 90
        0
280
     0
281
     0
  0
CLASS
  1
ACDBPLACEHOLDER
  2
AcDbPlaceHolder
  3
AutoCAD 2000
 90
        0
280
     0
281
     0
  0
CLASS
  1
LAYOUT
  2
AcDbLayout
  3
AutoCAD 2000
 90
        0
280
     0
281
     0
  0
CLASS
  1
MATERIAL
  2
AcDbMaterial
  3
ObjectDBX Classes
 90
     1153
280
     0
281
     0
  0
CLASS
  1
VISUALSTYLE
  2
AcDbVisualStyle
  3
ObjectDBX Classes
 90
     4095
280
     0
281
     0
  0
CLASS
  1
TABLESTYLE
  2
AcDbTableStyle
  3
ObjectDBX Classes
 90
     4095
280
     0
281
     0
  0
CLASS
  1
SCALE
  2
AcDbScale
  3
ObjectDBX Classes
 90
     1153
280
     0
281
     0
  0
CLASS
  1
MLEADERSTYLE
  2
AcDbMLeaderStyle
  3
ACDB_MLEADERSTYLE_CLASS
 90
     4095
280
     0
281
     0
  0
CLASS
  1
PLOTSETTINGS
  2
AcDbPlotSettings
  3
AutoCAD 2000
 90
        0
280
     0
281
     0
  0
CLASS
  1
CELLSTYLEMAP
  2
AcDbCellStyleMap
  3
ObjectDBX Classes
 90
     1152
280
     0
281
     0
  0
CLASS
  1
SORTENTSTABLE
  2
AcDbSortentsTable
  3
AutoCAD 2000
 90
        0
280
     0
281
     0
  0
CLASS
  1
ACAD_PROXY_OBJECT_WRAPPER
  2
AcDbProxyObjectWrapper
  3
AutoCAD 2000
 90
        0
280
     0
281
     0
  0
CLASS
  1
LONG_TRANSACTION
  2
AcDbLongTransaction
  3
AutoCAD 2000
 90
        0
280
     0
281
     0
  0
CLASS
  1
LWPOLYLINE
  2
AcDbPolyline
  3
AutoCAD 2000
 90
        0
280
     0
281
     1
  0
CLASS
  1
HATCH
  2
AcDbHatch
  3
AutoCAD 2000
 90
        0
280
     0
281
     1
  0
CLASS
  1
XRECORD
  2
AcDbXrecord
  3
AutoCAD 2000
 90
        0
280
     0
281
     0
  0
ENDSEC
  0
SECTION
  2
TABLES
  0
TABLE
  2
VPORT
  5
6E
102
{ACAD_XDICTIONARY
360
1BAE
102
}
330
0
100
AcDbSymbolTable
 70
     2
  0
VPORT
  5
363D
330
6E
100
AcDbSymbolTableRecord
100
AcDbViewportTableRecord
  2
*ACTIVE
 70
     0
 10
0.0
 20
0.0
 11
1.0
 21
1.0
 12
754.2512402622658
 22
396.2490046571311
 13
0.0
 23
0.0
 14
10.0
 24
10.0
 15
10.0
 25
10.0
 16
0.0
 26
0.0
 36
1.0
 17
0.0
 27
0.0
 37
0.0
 40
955.3060815924922
 41
1.593429158110883
 42
50.0
 43
0.0
 44
0.0
 50
0.0
 51
0.0
 71
     0
 72
   100
 73
     1
 74
     3
 75
     0
 76
     0
 77
     0
 78
     0
  0
ENDTAB
  0
TABLE
  2
LTYPE
  5
69
330
0
100
AcDbSymbolTable
 70
     7
  0
LTYPE
  5
6A
330
69
100
AcDbSymbolTableRecord
100
AcDbLinetypeTableRecord
  2
BYBLOCK
 70
     0
  3

 72
    65
 73
     0
 40
0.0
  0
LTYPE
  5
6B
330
69
100
AcDbSymbolTableRecord
100
AcDbLinetypeTableRecord
  2
BYLAYER
 70
     0
  3

 72
    65
 73
     0
 40
0.0
  0
LTYPE
  5
8
330
69
100
AcDbSymbolTableRecord
100
AcDbLinetypeTableRecord
  2
CONTINUOUS
 70
     0
  3
Solid line
 72
    65
 73
     0
 40
0.0
  0
LTYPE
  5
27C
330
69
100
AcDbSymbolTableRecord
100
AcDbLinetypeTableRecord
  2
SEKKEI_A2_
 70
     0
  3
center(A2)  ____ _ ____ _ ____ _ ____ _ ____ _ 
 72
    65
 73
     4
 40
14.28749999999999
 49
9.525
 74
     0
 49
-1.587499999999999
 74
     0
 49
1.587499999999999
 74
     0
 49
-1.587499999999999
 74
     0
  0
LTYPE
  5
2B4
330
69
100
AcDbSymbolTableRecord
100
AcDbLinetypeTableRecord
  2
HIDDEN2
 70
     0
  3
Hidden (.5x) _ _ _ _ _ _ _ _ _ _ _ _ _ _ _ _ _
 72
    65
 73
     2
 40
4.762499999999999
 49
3.174999999999999
 74
     0
 49
-1.587499999999999
 74
     0
  0
LTYPE
  5
477
330
69
100
AcDbSymbolTableRecord
100
AcDbLinetypeTableRecord
  2
SEKKEI-P_A4_
 70
     0
  3
Phantom(A4)  ____ _ _ ____ _ _ ____ _ _ _____
 72
    65
 73
     6
 40
15.0
 49
7.5
 74
     0
 49
-1.5
 74
     0
 49
1.5
 74
     0
 49
-1.5
 74
     0
 49
1.5
 74
     0
 49
-1.5
 74
     0
  0
LTYPE
  5
48F
330
69
100
AcDbSymbolTableRecord
100
AcDbLinetypeTableRecord
  2
SEKKEI_H
 70
     0
  3
Hidden-S _ _ _ _ _ _ _ _ _ _ _ _ _ _ _ _ _
 72
    65
 73
     2
 40
2.381249999999999
 49
1.587499999999999
 74
     0
 49
-0.79375
 74
     0
  0
LTYPE
  5
494
330
69
100
AcDbSymbolTableRecord
100
AcDbLinetypeTableRecord
  2
SEKKEI_P_S
 70
     0
  3
Phantom_S   __ _ _ __ _ _ __ _ _ ___
 72
    65
 73
     6
 40
7.5
 49
3.75
 74
     0
 49
-0.75
 74
     0
 49
0.75
 74
     0
 49
-0.75
 74
     0
 49
0.75
 74
     0
 49
-0.75
 74
     0
  0
LTYPE
  5
54A
330
69
100
AcDbSymbolTableRecord
100
AcDbLinetypeTableRecord
  2
CENTERX2
 70
     0
  3
Center (2x) ________  __  ________  __  _____
 72
    65
 73
     4
 40
4.0
 49
2.5
 74
     0
 49
-0.5
 74
     0
 49
0.5
 74
     0
 49
-0.5
 74
     0
  0
ENDTAB
  0
TABLE
  2
LAYER
  5
66
102
{ACAD_XDICTIONARY
360
86B
102
}
330
0
100
AcDbSymbolTable
 70
    10
  0
LAYER
  5
5E
102
{ACAD_XDICTIONARY
360
1AF7
102
}
330
66
100
AcDbSymbolTableRecord
100
AcDbLayerTableRecord
  2
0
 70
     0
 62
     7
  6
CONTINUOUS
  0
LAYER
  5
3E
102
{ACAD_XDICTIONARY
360
1AF9
102
}
330
66
100
AcDbSymbolTableRecord
100
AcDbLayerTableRecord
  2
CENTER
 70
     0
 62
     3
  6
SEKKEI_A2_
  0
LAYER
  5
2B5
102
{ACAD_XDICTIONARY
360
1AFF
102
}
330
66
100
AcDbSymbolTableRecord
100
AcDbLayerTableRecord
  2
HIDS
 70
     0
 62
     1
  6
HIDDEN2
  0
LAYER
  5
2BA
102
{ACAD_XDICTIONARY
360
1B01
102
}
330
66
100
AcDbSymbolTableRecord
100
AcDbLayerTableRecord
  2
HOJO
 70
     0
 62
     4
  6
CONTINUOUS
  0
LAYER
  5
3FA
102
{ACAD_XDICTIONARY
360
1B05
102
}
330
66
100
AcDbSymbolTableRecord
100
AcDbLayerTableRecord
  2
TITLE
 70
     0
 62
     4
  6
CONTINUOUS
  0
LAYER
  5
478
102
{ACAD_XDICTIONARY
360
1B07
102
}
330
66
100
AcDbSymbolTableRecord
100
AcDbLayerTableRecord
  2
PHAS
 70
     0
 62
     2
  6
SEKKEI-P_A4_
  0
ENDTAB
  0
TABLE
  2
STYLE
  5
67
330
0
100
AcDbSymbolTable
 70
     3
  0
STYLE
  5
16
330
67
100
AcDbSymbolTableRecord
100
AcDbTextStyleTableRecord
  2
STANDARD
 70
     0
 40
0.0
 41
1.0
 50
0.0
 71
     0
 42
2.0
  3
simplex.shx
  4
extfont.shx
  0
ENDTAB
  0
TABLE
  2
VIEW
  5
6C
330
0
100
AcDbSymbolTable
 70
     0
  0
ENDTAB
  0
TABLE
  2
UCS
  5
6D
330
0
100
AcDbSymbolTable
 70
     0
  0
ENDTAB
  0
TABLE
  2
APPID
  5
70
330
0
100
AcDbSymbolTable
 70
     7
  0
APPID
  5
71
330
70
100
AcDbSymbolTableRecord
100
AcDbRegAppTableRecord
  2
ACAD
 70
     0
  0
APPID
  5
859
330
70
100
AcDbSymbolTableRecord
100
AcDbRegAppTableRecord
  2
ACAD_MLEADERVER
 70
     0
  0
APPID
  5
866
330
70
100
AcDbSymbolTableRecord
100
AcDbRegAppTableRecord
  2
ACAD_PSEXT
 70
     0
  0
APPID
  5
12FA
330
70
100
AcDbSymbolTableRecord
100
AcDbRegAppTableRecord
  2
ACAD_EXEMPT_FROM_CAD_STANDARDS
 70
     0
  0
APPID
  5
135B
330
70
100
AcDbSymbolTableRecord
100
AcDbRegAppTableRecord
  2
ACAD_DSTYLE_DIMJAG
 70
     0
  0
APPID
  5
135C
330
70
100
AcDbSymbolTableRecord
100
AcDbRegAppTableRecord
  2
ACAD_DSTYLE_DIMTALN
 70
     0
  0
APPID
  5
150D
330
70
100
AcDbSymbolTableRecord
100
AcDbRegAppTableRecord
  2
ACAD_DSTYLE_DIMRADIAL_EXTENSION
 70
     0
  0
ENDTAB
  0
TABLE
  2
DIMSTYLE
  5
72
330
0
100
AcDbSymbolTable
 70
     2
  0
DIMSTYLE
105
73
330
72
100
AcDbSymbolTableRecord
100
AcDbDimStyleTableRecord
  2
STANDARD
 70
     0
  3

  4

  5

  6

  7

 40
4.0
 41
1.8
 42
0.625
 43
3.75
 44
0.8
 45
0.0
 46
0.0
 47
0.0
 48
0.0
140
1.8
141
2.5
142
0.0
143
0.0394
144
1.0
145
0.0
146
1.0
147
0.75
 71
     0
 72
     0
 73
     0
 74
     0
 75
     0
 76
     0
 77
     1
 78
     8
170
     0
171
     4
172
     1
173
     0
174
     0
175
     0
176
     0
177
     0
178
     0
270
     8
271
     2
272
     2
273
     8
274
     4
340
16
275
     0
280
     0
281
     0
282
     0
283
     1
284
     0
285
     0
286
     0
287
     3
288
     0
1001
ACAD_DSTYLE_DIMJAG
1070
   388
1040
1.5
1001
ACAD_DSTYLE_DIMTALN
1070
   392
1070
     0
  0
ENDTAB
  0
TABLE
  2
BLOCK_RECORD
  5
1
330
0
100
AcDbSymbolTable
 70
    55
  0
BLOCK_RECORD
  5
2
102
{ACAD_XDICTIONARY
360
3168
102
}
330
1
100
AcDbSymbolTableRecord
100
AcDbBlockTableRecord
  2
*MODEL_SPACE
  0
BLOCK_RECORD
  5
3638
102
{ACAD_XDICTIONARY
360
3660
102
}
330
1
100
AcDbSymbolTableRecord
100
AcDbBlockTableRecord
  2
*PAPER_SPACE
  0
ENDTAB
  0
ENDSEC
  0
SECTION
  2
BLOCKS
  0
BLOCK
  5
5D
330
2
100
AcDbEntity
  8
0
100
AcDbBlockBegin
  2
*MODEL_SPACE
 70
     0
 10
0.0
 20
0.0
 30
0.0
  3
*MODEL_SPACE
  1

  0
ENDBLK
  5
5F
330
2
100
AcDbEntity
  8
0
100
AcDbBlockEnd
  0
BLOCK
  5
363A
330
3638
100
AcDbEntity
 67
     1
  8
0
100
AcDbBlockBegin
  2
*PAPER_SPACE
 70
     0
 10
0.0
 20
0.0
 30
0.0
  3
*PAPER_SPACE
  1

  0
ENDBLK
  5
363B
330
3638
100
AcDbEntity
 67
     1
  8
0
100
AcDbBlockEnd
  0
ENDSEC
  0
SECTION
  2
ENTITIES
  0
LINE
  5
C93
330
2
100
AcDbEntity
  8
0
 48
0.5
100
AcDbLine
 10
712.0990569942129
 20
804.9012521591425
 30
0.0
 11
712.9891975088683
 21
702.9012521591521
 31
0.0
  0
LINE
  5
C94
330
2
100
AcDbEntity
  8
CENTER
100
AcDbLine
 10
779.5946935603167
 20
841.9012521591454
 30
0.0
 11
779.5946935603167
 21
660.9012521591503
 31
0.0
  0
LINE
  5
C95
330
2
100
AcDbEntity
  8
0
100
AcDbLine
 10
827.1077865211015
 20
804.9012521591489
 30
0.0
 11
827.9987933219679
 21
770.8750752108429
 31
0.0
  0
LINE
  5
C96
330
2
100
AcDbEntity
  8
0
100
AcDbLine
 10
719.5946935603158
 20
697.9012521591489
 30
0.0
 11
839.5946935603166
 21
697.9012521591505
 31
0.0
  0
LINE
  5
C97
330
2
100
AcDbEntity
  8
CENTER
100
AcDbLine
 10
702.4041165830315
 20
769.9012521591507
 30
0.0
 11
1002.09469356032
 21
769.9012521591507
 31
0.0
  0
LINE
  5
C98
330
2
100
AcDbEntity
  8
0
100
AcDbLine
 10
846.4794493810689
 20
804.9012521591501
 30
0.0
 11
712.0946935603176
 21
804.9012521591425
 31
0.0
  0
LINE
  5
C99
330
2
100
AcDbEntity
  8
0
100
AcDbLine
 10
879.7984904426591
 20
769.9012521591507
 30
0.0
 11
881.0181921981545
 21
816.4797830040736
 31
0.0
  0
ARC
  5
C9A
330
2
100
AcDbEntity
  8
0
100
AcDbCircle
 10
876.9545775945996
 20
775.9012521591512
 30
0.0
 40
3.0
100
AcDbArc
 50
270.0
 51
358.5000000000103
  0
LINE
  5
C9B
330
2
100
AcDbEntity
  8
0
100
AcDbLine
 10
872.8955568086218
 20
803.9012521591507
 30
0.0
 11
871.0171641730809
 21
803.9012521591505
 31
0.0
  0
ARC
  5
C9C
330
2
100
AcDbEntity
  8
0
100
AcDbCircle
 10
872.8955568086218
 20
811.9012521591507
 30
0.0
 40
8.0
100
AcDbArc
 50
270.0
 51
358.5000000000103
  0
LINE
  5
C9D
330
2
100
AcDbEntity
  8
0
100
AcDbLine
 10
886.4489570292359
 20
720.4012521591504
 30
0.0
 11
884.0171421730817
 21
720.401252159151
 31
0.0
  0
ARC
  5
C9E
330
2
100
AcDbEntity
  8
0
100
AcDbCircle
 10
886.4489570292342
 20
715.4012521591504
 30
0.0
 40
5.0
100
AcDbArc
 50
1.500000000015752
 51
89.99999999994789
  0
ARC
  5
C9F
330
2
100
AcDbEntity
  8
0
100
AcDbCircle
 10
884.0171421730827
 20
723.4012521591511
 30
0.0
 40
3.0
100
AcDbArc
 50
181.5000000000418
 51
270.0
  0
LINE
  5
CA0
330
2
100
AcDbEntity
  8
0
100
AcDbLine
 10
872.895534808619
 20
735.9012521591504
 30
0.0
 11
871.0171641730809
 21
735.9012521591504
 31
0.0
  0
LINE
  5
CA1
330
2
100
AcDbEntity
  8
0
100
AcDbLine
 10
881.0181701981562
 20
723.3227213142262
 30
0.0
 11
879.798468442607
 21
769.9012521591505
 31
0.0
  0
ARC
  5
CA2
330
2
100
AcDbEntity
  8
0
100
AcDbCircle
 10
872.895534808619
 20
727.9012521591504
 30
0.0
 40
8.0
100
AcDbArc
 50
1.500000000054848
 51
90.0
  0
LINE
  5
CA3
330
2
100
AcDbEntity
  8
0
 48
0.3
100
AcDbLine
 10
893.5430073021604
 20
829.9012521591505
 30
0.0
 11
907.5946935603212
 21
829.9012521591505
 31
0.0
  0
ARC
  5
CA4
330
2
100
AcDbEntity
  8
0
 48
0.5
100
AcDbCircle
 10
893.5430073021604
 20
827.9012521591507
 30
0.0
 40
2.0
100
AcDbArc
 50
90.0
 51
178.4999999999972
  0
LINE
  5
CA5
330
2
100
AcDbEntity
  8
0
100
AcDbLine
 10
891.5436926522104
 20
827.9536060557656
 30
0.0
 11
890.0235382661611
 21
769.9012521591507
 31
0.0
  0
ARC
  5
CA6
330
2
100
AcDbEntity
  8
0
100
AcDbCircle
 10
886.4489570292333
 20
824.4012521591498
 30
0.0
 40
5.0
100
AcDbArc
 50
270.0
 51
358.5000000000103
  0
LINE
  5
CA7
330
2
100
AcDbEntity
  8
0
100
AcDbLine
 10
884.017164173081
 20
819.4012521591499
 30
0.0
 11
886.4489570292333
 21
819.4012521591499
 31
0.0
  0
ARC
  5
CA8
330
2
100
AcDbEntity
  8
0
100
AcDbCircle
 10
884.017164173081
 20
816.4012521591498
 30
0.0
 40
3.0
100
AcDbArc
 50
90.0
 51
178.4999999999972
  0
LINE
  5
CA9
330
2
100
AcDbEntity
  8
0
 48
0.5
100
AcDbLine
 10
846.505858450403
 20
737.9274317656454
 30
0.0
 11
846.4449226865124
 21
730.9448848366415
 31
0.0
  0
ARC
  5
CAA
330
2
100
AcDbEntity
  8
0
 48
0.5
100
AcDbCircle
 10
849.5057442195955
 20
737.9012521591509
 30
0.0
 40
3.0
100
AcDbArc
 50
90.0
 51
179.5000000000084
  0
ARC
  5
CAB
330
2
100
AcDbEntity
  8
0
 48
0.5
100
AcDbCircle
 10
849.7326427821496
 20
763.9012521591507
 30
0.0
 40
3.0
100
AcDbArc
 50
90.0
 51
179.5000000000084
  0
LINE
  5
CAC
330
2
100
AcDbEntity
  8
0
 48
0.5
100
AcDbLine
 10
846.7848897537376
 20
769.901252159151
 30
0.0
 11
846.2001896117651
 21
702.9012521591575
 31
0.0
  0
LINE
  5
CAD
330
2
100
AcDbEntity
  8
0
 48
0.5
100
AcDbLine
 10
846.7848897537495
 20
769.9012521591507
 30
0.0
 11
846.4794493810693
 21
804.9012521591501
 31
0.0
  0
LINE
  5
CAE
330
2
100
AcDbEntity
  8
0
 48
0.3
100
AcDbLine
 10
893.5430073021604
 20
709.9012521591508
 30
0.0
 11
907.5946935603212
 21
709.9012521591507
 31
0.0
  0
ARC
  5
CAF
330
2
100
AcDbEntity
  8
0
 48
0.5
100
AcDbCircle
 10
893.5430073021604
 20
711.9012521591506
 30
0.0
 40
2.0
100
AcDbArc
 50
181.5000000000157
 51
270.0
  0
LINE
  5
CB0
330
2
100
AcDbEntity
  8
0
100
AcDbLine
 10
891.5436926522104
 20
711.8488982625357
 30
0.0
 11
890.0235382661746
 21
769.9012521591507
 31
0.0
  0
LINE
  5
CB1
330
2
100
AcDbEntity
  8
0
100
AcDbLine
 10
907.5946935603168
 20
709.9012521591507
 30
0.0
 11
907.5946935603168
 21
829.9012521591507
 31
0.0
  0
LINE
  5
CB2
330
2
100
AcDbEntity
  8
0
100
AcDbLine
 10
712.9891975088683
 20
702.9012521591521
 30
0.0
 11
846.2001896117651
 21
702.9012521591578
 31
0.0
  0
LINE
  5
CB3
330
2
100
AcDbEntity
  8
0
100
AcDbLine
 10
849.7326427821587
 20
772.901252159151
 30
0.0
 11
876.9545775945996
 21
772.9012521591516
 31
0.0
  0
ARC
  5
CB4
330
2
100
AcDbEntity
  8
0
100
AcDbCircle
 10
864.3604593789085
 20
775.9012521591512
 30
0.0
 40
3.0
100
AcDbArc
 50
270.0
 51
358.4999999999972
  0
ARC
  5
CB5
330
2
100
AcDbEntity
  8
0
100
AcDbCircle
 10
849.7326427821587
 20
775.9012521591509
 30
0.0
 40
3.0
100
AcDbArc
 50
180.5000000000045
 51
270.0
  0
LINE
  5
CB6
330
2
100
AcDbEntity
  8
0
100
AcDbLine
 10
849.7326427821496
 20
766.9012521591508
 30
0.0
 11
876.9545555945549
 21
766.9012521591501
 31
0.0
  0
ARC
  5
CB7
330
2
100
AcDbEntity
  8
0
100
AcDbCircle
 10
876.9545555945549
 20
763.9012521591505
 30
0.0
 40
3.0
100
AcDbArc
 50
1.500000000041816
 51
90.0
  0
LINE
  5
CB8
330
2
100
AcDbEntity
  8
0
100
AcDbLine
 10
828.9984506469433
 20
769.9012521591507
 30
0.0
 11
907.5946935603168
 21
769.9012521591507
 31
0.0
  0
ARC
  5
CB9
330
2
100
AcDbEntity
  8
0
100
AcDbCircle
 10
828.9984506469433
 20
770.9012521591508
 30
0.0
 40
1.0
100
AcDbArc
 50
181.5000000000027
 51
270.0
  0
LINE
  5
CBA
330
2
100
AcDbEntity
  8
0
100
AcDbLine
 10
722.0946935603181
 20
804.9012521591459
 30
0.0
 11
722.0946935603167
 21
704.4012521591522
 31
0.0
  0
LINE
  5
CBB
330
2
100
AcDbEntity
  8
0
100
AcDbLine
 10
867.3594313538339
 20
763.979783004074
 30
0.0
 11
868.0181921981555
 21
738.8227213142272
 31
0.0
  0
ARC
  5
CBC
330
2
100
AcDbEntity
  8
0
100
AcDbCircle
 10
864.3604593789076
 20
763.9012521591505
 30
0.0
 40
3.0
100
AcDbArc
 50
1.500000000002719
 51
90.0
  0
LINE
  5
CBD
330
2
100
AcDbEntity
  8
0
100
AcDbLine
 10
865.1010843899809
 20
740.9012521591507
 30
0.0
 11
849.5057442195955
 21
740.901252159151
 31
0.0
  0
ARC
  5
CBE
330
2
100
AcDbEntity
  8
0
100
AcDbCircle
 10
871.0171641730809
 20
738.9012521591507
 30
0.0
 40
3.0
100
AcDbArc
 50
181.5000000000027
 51
270.0
  0
ARC
  5
CBF
330
2
100
AcDbEntity
  8
0
100
AcDbCircle
 10
865.1010843899809
 20
737.9012521591509
 30
0.0
 40
3.0
100
AcDbArc
 50
9.594068226868994
 51
90.0
  0
LINE
  5
CC0
330
2
100
AcDbEntity
  8
0
100
AcDbLine
 10
865.1010843899809
 20
798.9012521591512
 30
0.0
 11
849.5057442195991
 21
798.9012521591507
 31
0.0
  0
ARC
  5
CC1
330
2
100
AcDbEntity
  8
0
100
AcDbCircle
 10
849.5057442195991
 20
801.9012521591507
 30
0.0
 40
3.0
100
AcDbArc
 50
180.5000000000045
 51
270.0
  0
ARC
  5
CC2
330
2
100
AcDbEntity
  8
0
100
AcDbCircle
 10
871.0171641730809
 20
800.9012521591511
 30
0.0
 40
3.0
100
AcDbArc
 50
90.0
 51
178.4999999999972
  0
ARC
  5
CC3
330
2
100
AcDbEntity
  8
0
100
AcDbCircle
 10
865.1010843899809
 20
801.9012521591509
 30
0.0
 40
3.0
100
AcDbArc
 50
270.0
 51
350.4059317731516
  0
LINE
  5
CC4
330
2
100
AcDbEntity
  8
0
100
AcDbLine
 10
867.3594313538348
 20
775.8227213142279
 30
0.0
 11
868.0181921981555
 21
800.979783004074
 31
0.0
  0
LINE
  5
CC5
330
2
100
AcDbEntity
  8
0
100
AcDbLine
 10
732.0946935603176
 20
704.4012521591529
 30
0.0
 11
732.0946935603176
 21
804.901252159146
 31
0.0
  0
LINE
  5
CC6
330
2
100
AcDbEntity
  8
0
100
AcDbLine
 10
755.0339032696135
 20
704.4012521591538
 30
0.0
 11
755.0339032696131
 21
804.901252159146
 31
0.0
  0
LINE
  5
CC7
330
2
100
AcDbEntity
  8
0
100
AcDbLine
 10
837.0946935603154
 20
804.9012521591469
 30
0.0
 11
837.0946935603168
 21
704.4012521591522
 31
0.0
  0
LINE
  5
CC8
330
2
100
AcDbEntity
  8
0
100
AcDbLine
 10
827.0946935603157
 20
704.4012521591529
 30
0.0
 11
827.0946935603157
 21
769.901252159151
 31
0.0
  0
LINE
  5
CC9
330
2
100
AcDbEntity
  8
0
100
AcDbLine
 10
804.1554838510199
 20
704.4012521591538
 30
0.0
 11
804.1554838510212
 21
804.9012521591466
 31
0.0
  0
LINE
  5
CCA
330
2
100
AcDbEntity
  8
0
100
AcDbLine
 10
907.5946935603212
 20
709.9012521591507
 30
0.0
 11
907.5946935603212
 21
829.9012521591507
 31
0.0
  0
LINE
  5
CCB
330
2
100
AcDbEntity
  8
0
 48
0.5
100
AcDbLine
 10
719.5946935603167
 20
702.9012521591504
 30
0.0
 11
719.5946935603158
 21
697.9012521591489
 31
0.0
  0
LINE
  5
CCC
330
2
100
AcDbEntity
  8
0
 48
0.5
100
AcDbLine
 10
839.5946935603166
 20
702.9012521591504
 30
0.0
 11
839.5946935603166
 21
697.9012521591505
 31
0.0
  0
ARC
  5
CCD
330
2
100
AcDbEntity
  8
0
100
AcDbCircle
 10
879.2411037425342
 20
719.7695229690936
 30
0.0
 40
3.0
100
AcDbArc
 50
37.24958326181094
 51
114.9999999999782
  0
LINE
  5
CCE
330
2
100
AcDbEntity
  8
0
100
AcDbLine
 10
877.9732489573133
 20
722.4884463302036
 30
0.0
 11
847.9575100243453
 21
708.4918774005792
 31
0.0
  0
ARC
  5
CCF
330
2
100
AcDbEntity
  8
0
100
AcDbCircle
 10
849.2253648095672
 20
705.7729540394692
 30
0.0
 40
3.0
100
AcDbArc
 50
114.9999999999782
 51
179.5000000000084
  0
ARC
  5
CD0
330
2
100
AcDbEntity
  8
0
100
AcDbCircle
 10
878.2096439054173
 20
817.9088026029738
 30
0.0
 40
3.0
100
AcDbArc
 50
294.9999999999781
 51
345.4480092603792
  0
LINE
  5
CD1
330
2
100
AcDbEntity
  8
0
100
AcDbLine
 10
879.4774986906393
 20
815.1898792418641
 30
0.0
 11
849.3417905265904
 21
801.1373677410425
 31
0.0
  0
ARC
  5
CD2
330
2
100
AcDbEntity
  8
0
100
AcDbCircle
 10
848.4965540031087
 20
802.9499833151158
 30
0.0
 40
2.0
100
AcDbArc
 50
180.5000000024668
 51
294.9999999999781
  0
LINE
  5
CD3
330
2
100
AcDbEntity
  8
0
100
AcDbLine
 10
735.8032773166467
 20
685.5539558038165
 30
0.0
 11
734.7917808050777
 21
691.2904375804844
 31
0.0
  0
LINE
  5
CD4
330
2
100
AcDbEntity
  8
0
100
AcDbLine
 10
823.3861098039866
 20
685.5539558038165
 30
0.0
 11
824.3976063155557
 21
691.2904375804861
 31
0.0
  0
ARC
  5
CD5
330
2
100
AcDbEntity
  8
0
100
AcDbCircle
 10
821.4164942979621
 20
685.9012521591504
 30
0.0
 40
2.0
100
AcDbArc
 50
270.0
 51
350.0000000000006
  0
LINE
  5
CD6
330
2
100
AcDbEntity
  8
0
100
AcDbLine
 10
737.7728928226713
 20
683.9012521591504
 30
0.0
 11
821.4164942979621
 21
683.9012521591504
 31
0.0
  0
ARC
  5
CD7
330
2
100
AcDbEntity
  8
0
100
AcDbCircle
 10
737.7728928226713
 20
685.9012521591504
 30
0.0
 40
2.0
100
AcDbArc
 50
189.9999999999993
 51
270.0
  0
ARC
  5
CD8
330
2
100
AcDbEntity
  8
0
100
AcDbCircle
 10
726.9133187809805
 20
689.9012521591489
 30
0.0
 40
8.0
100
AcDbArc
 50
9.999999999999367
 51
90.0
  0
ARC
  5
CD9
330
2
100
AcDbEntity
  8
0
100
AcDbCircle
 10
832.2760683396534
 20
689.9012521591505
 30
0.0
 40
8.0
100
AcDbArc
 50
90.0
 51
170.0000000000006
  0
LINE
  5
D0A
330
2
100
AcDbEntity
  8
CENTER
100
AcDbLine
 10
-3.885367083344817
 20
385.0678655566773
 30
0.0
 11
296.1146329166588
 21
385.0678655566773
 31
0.0
  0
LINE
  5
D0B
330
2
100
AcDbEntity
  8
0
100
AcDbLine
 10
125.1146329166601
 20
419.0678655566773
 30
0.0
 11
127.1146329166565
 21
419.0678655566773
 31
0.0
  0
LINE
  5
D0C
330
2
100
AcDbEntity
  8
0
100
AcDbLine
 10
111.6146329166601
 20
335.5678655566773
 30
0.0
 11
114.1146329166601
 21
335.5678655566773
 31
0.0
  0
LINE
  5
D0D
330
2
100
AcDbEntity
  8
0
100
AcDbLine
 10
111.6146329166601
 20
434.5678655566772
 30
0.0
 11
114.1146329166601
 21
434.5678655566772
 31
0.0
  0
ARC
  5
D0E
330
2
100
AcDbEntity
  8
0
100
AcDbCircle
 10
111.6146329166601
 20
439.5678655566773
 30
0.0
 40
5.0
100
AcDbArc
 50
180.0
 51
270.0
  0
LINE
  5
D0F
330
2
100
AcDbEntity
  8
0
100
AcDbLine
 10
117.1146329166601
 20
338.5678655566773
 30
0.0
 11
117.1146329166601
 21
431.5678655566773
 31
0.0
  0
ARC
  5
D10
330
2
100
AcDbEntity
  8
0
100
AcDbCircle
 10
125.1146329166601
 20
427.0678655566773
 30
0.0
 40
8.0
100
AcDbArc
 50
180.0
 51
270.0
  0
ARC
  5
D11
330
2
100
AcDbEntity
  8
0
100
AcDbCircle
 10
114.1146329166601
 20
338.5678655566773
 30
0.0
 40
3.0
100
AcDbArc
 50
270.0
 51
0.0
  0
ARC
  5
D12
330
2
100
AcDbEntity
  8
0
100
AcDbCircle
 10
119.3451986544148
 20
335.6282767992099
 30
0.0
 40
3.0
100
AcDbArc
 50
79.99999999999484
 51
150.6639232879818
  0
ARC
  5
D13
330
2
100
AcDbEntity
  8
0
100
AcDbCircle
 10
114.1146329166601
 20
431.5678655566773
 30
0.0
 40
3.0
100
AcDbArc
 50
0.0
 51
90.0
  0
ARC
  5
D14
330
2
100
AcDbEntity
  8
0
100
AcDbCircle
 10
119.3451986544148
 20
434.5074543141446
 30
0.0
 40
3.0
100
AcDbArc
 50
209.3360767120181
 51
279.9999999999522
  0
LINE
  5
D15
330
2
100
AcDbEntity
  8
0
100
AcDbLine
 10
106.6146329166601
 20
326.5678655566773
 30
0.0
 11
106.6146329166601
 21
443.5678655566773
 31
0.0
  0
ARC
  5
D16
330
2
100
AcDbEntity
  8
0
100
AcDbCircle
 10
104.6146329166601
 20
443.5678655566773
 30
0.0
 40
2.0
100
AcDbArc
 50
0.0
 51
90.0
  0
ARC
  5
D17
330
2
100
AcDbEntity
  8
0
100
AcDbCircle
 10
104.6146329166601
 20
327.0678655566773
 30
0.0
 40
2.0
100
AcDbArc
 50
270.0
 51
0.0
  0
ARC
  5
D18
330
2
100
AcDbEntity
  8
0
100
AcDbCircle
 10
104.6146329166601
 20
443.0678655566772
 30
0.0
 40
2.0
100
AcDbArc
 50
0.0
 51
90.0
  0
LINE
  5
D19
330
2
100
AcDbEntity
  8
CENTER
100
AcDbLine
 10
218.6146329166583
 20
307.5678655566773
 30
0.0
 11
218.6146329166593
 21
462.5678655566773
 31
0.0
  0
ARC
  5
D1A
330
2
100
AcDbEntity
  8
0
100
AcDbCircle
 10
111.6146329166601
 20
330.5678655566773
 30
0.0
 40
5.0
100
AcDbArc
 50
90.0
 51
180.0
  0
LINE
  5
D1B
330
2
100
AcDbEntity
  8
0
100
AcDbLine
 10
125.1146329166601
 20
351.0678655566771
 30
0.0
 11
127.1146329166565
 21
351.0678655566771
 31
0.0
  0
ARC
  5
D1C
330
2
100
AcDbEntity
  8
0
100
AcDbCircle
 10
125.1146329166601
 20
343.0678655566771
 30
0.0
 40
8.0
100
AcDbArc
 50
90.0
 51
180.0
  0
LINE
  5
D1D
330
2
100
AcDbEntity
  8
0
100
AcDbLine
 10
104.6146329166601
 20
325.0678655566773
 30
0.0
 11
90.61463291665381
 21
325.0678655566771
 31
0.0
  0
LINE
  5
D1E
330
2
100
AcDbEntity
  8
0
100
AcDbLine
 10
104.6146329166601
 20
445.067865556677
 30
0.0
 11
90.61463291665381
 21
445.0678655566768
 31
0.0
  0
LINE
  5
D1F
330
2
100
AcDbEntity
  8
0
100
AcDbLine
 10
90.61463291665381
 20
445.5678655566773
 30
0.0
 11
90.61463291665381
 21
324.5678655566773
 31
0.0
  0
LINE
  5
D20
330
2
100
AcDbEntity
  8
0
100
AcDbLine
 10
119.866143187414
 20
431.5530310551079
 30
0.0
 11
148.9453812562412
 21
436.6804853050868
 31
0.0
  0
LINE
  5
D21
330
2
100
AcDbEntity
  8
0
100
AcDbLine
 10
119.8661431874159
 20
338.5827000582466
 30
0.0
 11
148.9453812562357
 21
333.4552458082685
 31
0.0
  0
ARC
  5
D22
330
2
100
AcDbEntity
  8
0
100
AcDbCircle
 10
148.4244367232347
 20
330.5008225492317
 30
0.0
 40
3.0
100
AcDbArc
 50
0.0
 51
79.99999999999484
  0
ARC
  5
D23
330
2
100
AcDbEntity
  8
0
100
AcDbCircle
 10
148.4244367232374
 20
417.0678655566772
 30
0.0
 40
3.0
100
AcDbArc
 50
270.0
 51
0.0
  0
ARC
  5
D24
330
2
100
AcDbEntity
  8
0
100
AcDbCircle
 10
148.4244367232402
 20
439.6349085641236
 30
0.0
 40
3.0
100
AcDbArc
 50
280.0000000000051
 51
0.0
  0
LINE
  5
D25
330
2
100
AcDbEntity
  8
0
100
AcDbLine
 10
125.1146329166601
 20
419.0678655566773
 30
0.0
 11
127.1146329166565
 21
419.0678655566773
 31
0.0
  0
ARC
  5
D26
330
2
100
AcDbEntity
  8
0
100
AcDbCircle
 10
127.1146329166565
 20
416.0678655566773
 30
0.0
 40
3.0
100
AcDbArc
 50
0.0
 51
90.0
  0
ARC
  5
D27
330
2
100
AcDbEntity
  8
0
100
AcDbCircle
 10
133.0307126997556
 20
417.0678655566775
 30
0.0
 40
3.0
100
AcDbArc
 50
189.5940682268689
 51
270.0
  0
LINE
  5
D28
330
2
100
AcDbEntity
  8
0
100
AcDbLine
 10
125.1146329166601
 20
351.0678655566771
 30
0.0
 11
127.1146329166565
 21
351.0678655566773
 31
0.0
  0
LINE
  5
D29
330
2
100
AcDbEntity
  8
0
100
AcDbLine
 10
130.1146329166565
 20
416.0678655566773
 30
0.0
 11
130.1146329166565
 21
388.0678655566752
 31
0.0
  0
LINE
  5
D2A
330
2
100
AcDbEntity
  8
0
100
AcDbLine
 10
130.1146329166565
 20
382.0678655566748
 30
0.0
 11
130.1146329166565
 21
354.0678655566773
 31
0.0
  0
ARC
  5
D2B
330
2
100
AcDbEntity
  8
0
100
AcDbCircle
 10
127.1146329166565
 20
354.0678655566773
 30
0.0
 40
3.0
100
AcDbArc
 50
270.0
 51
0.0
  0
ARC
  5
D2C
330
2
100
AcDbEntity
  8
0
100
AcDbCircle
 10
133.0307126997565
 20
353.0678655566775
 30
0.0
 40
3.0
100
AcDbArc
 50
90.0
 51
170.4059317731516
  0
LINE
  5
D2D
330
2
100
AcDbEntity
  8
0
100
AcDbLine
 10
133.0307126997556
 20
414.0678655566775
 30
0.0
 11
148.4244367232374
 21
414.0678655566772
 31
0.0
  0
LINE
  5
D2E
330
2
100
AcDbEntity
  8
0
100
AcDbLine
 10
133.0307126997565
 20
356.0678655566775
 30
0.0
 11
148.4244367232402
 21
356.0678655566775
 31
0.0
  0
ARC
  5
D2F
330
2
100
AcDbEntity
  8
0
100
AcDbCircle
 10
148.4244367232402
 20
353.0678655566775
 30
0.0
 40
3.0
100
AcDbArc
 50
0.0
 51
90.0
  0
LINE
  5
D30
330
2
100
AcDbEntity
  8
0
100
AcDbLine
 10
151.4244367232311
 20
442.5678655566775
 30
0.0
 11
151.4244367232311
 21
327.5678655566773
 31
0.0
  0
ARC
  5
D31
330
2
100
AcDbEntity
  8
0
100
AcDbCircle
 10
161.4244367232311
 20
442.5678655566775
 30
0.0
 40
10.0
100
AcDbArc
 50
90.0
 51
180.0
  0
ARC
  5
D32
330
2
100
AcDbEntity
  8
0
100
AcDbCircle
 10
161.4244367232311
 20
327.5678655566773
 30
0.0
 40
10.0
100
AcDbArc
 50
180.0
 51
270.0
  0
ARC
  5
D33
330
2
100
AcDbEntity
  8
0
100
AcDbCircle
 10
120.1146329166597
 20
391.067865556675
 30
0.0
 40
3.0
100
AcDbArc
 50
180.0
 51
270.0
  0
ARC
  5
D34
330
2
100
AcDbEntity
  8
0
100
AcDbCircle
 10
148.4244367232297
 20
391.067865556675
 30
0.0
 40
3.0
100
AcDbArc
 50
270.0
 51
0.0
  0
LINE
  5
D35
330
2
100
AcDbEntity
  8
0
100
AcDbLine
 10
148.4244367232297
 20
382.0678655566748
 30
0.0
 11
120.1146329166597
 21
382.0678655566747
 31
0.0
  0
ARC
  5
D36
330
2
100
AcDbEntity
  8
0
100
AcDbCircle
 10
120.1146329166597
 20
379.0678655566745
 30
0.0
 40
3.0
100
AcDbArc
 50
90.0
 51
180.0
  0
ARC
  5
D37
330
2
100
AcDbEntity
  8
0
100
AcDbCircle
 10
148.4244367232297
 20
379.0678655566748
 30
0.0
 40
3.0
100
AcDbArc
 50
0.0
 51
90.0
  0
LINE
  5
D38
330
2
100
AcDbEntity
  8
0
100
AcDbLine
 10
148.4244367232297
 20
388.067865556675
 30
0.0
 11
120.1146329166597
 21
388.0678655566752
 31
0.0
  0
LINE
  5
D39
330
2
100
AcDbEntity
  8
CENTER
100
AcDbLine
 10
361.5202955304159
 20
385.0678655566773
 30
0.0
 11
566.5202955304128
 21
385.0678655566773
 31
0.0
  0
LINE
  5
D3A
330
2
100
AcDbEntity
  8
0
100
AcDbLine
 10
529.5202955304136
 20
325.0678655566762
 30
0.0
 11
529.5202955304119
 21
445.0678655566773
 31
0.0
  0
LINE
  5
D3B
330
2
100
AcDbEntity
  8
CENTER
100
AcDbLine
 10
457.5202955304119
 20
307.8729251454964
 30
0.0
 11
457.5202955304119
 21
462.2628059678582
 31
0.0
  0
LINE
  5
D3C
330
2
100
AcDbEntity
  8
0
100
AcDbLine
 10
422.5202955304127
 20
452.5678655566773
 30
0.0
 11
422.52029553042
 21
317.5678655566782
 31
0.0
  0
LINE
  5
D3D
330
2
100
AcDbEntity
  8
0
100
AcDbLine
 10
524.5202955304123
 20
318.4623695052288
 30
0.0
 11
524.520295530405
 21
451.6733616081258
 31
0.0
  0
LINE
  5
D3E
330
2
100
AcDbEntity
  8
0
100
AcDbLine
 10
422.5202955304168
 20
327.5678655566782
 30
0.0
 11
523.0202955304105
 21
327.5678655566772
 31
0.0
  0
LINE
  5
D3F
330
2
100
AcDbEntity
  8
0
100
AcDbLine
 10
523.02029553041
 20
337.5678655566782
 30
0.0
 11
422.5202955304164
 21
337.5678655566782
 31
0.0
  0
LINE
  5
D40
330
2
100
AcDbEntity
  8
0
100
AcDbLine
 10
523.0202955304092
 20
360.5070752659741
 30
0.0
 11
422.5202955304164
 21
360.5070752659732
 31
0.0
  0
LINE
  5
D41
330
2
100
AcDbEntity
  8
0
100
AcDbLine
 10
422.5202955304164
 20
442.5678655566764
 30
0.0
 11
523.0202955304105
 21
442.5678655566772
 31
0.0
  0
LINE
  5
D42
330
2
100
AcDbEntity
  8
0
100
AcDbLine
 10
523.02029553041
 20
432.5678655566764
 30
0.0
 11
422.5202955304164
 21
432.5678655566764
 31
0.0
  0
LINE
  5
D43
330
2
100
AcDbEntity
  8
0
100
AcDbLine
 10
523.0202955304092
 20
409.6286558473805
 30
0.0
 11
422.5202955304164
 21
409.6286558473813
 31
0.0
  0
LINE
  5
D44
330
2
100
AcDbEntity
  8
0
 48
0.5
100
AcDbLine
 10
524.5202955304123
 20
325.0678655566773
 30
0.0
 11
529.5202955304136
 21
325.0678655566763
 31
0.0
  0
LINE
  5
D45
330
2
100
AcDbEntity
  8
0
 48
0.5
100
AcDbLine
 10
524.5202955304123
 20
445.0678655566773
 30
0.0
 11
529.5202955304119
 21
445.0678655566773
 31
0.0
  0
LINE
  5
D46
330
2
100
AcDbEntity
  8
0
100
AcDbLine
 10
541.8675918857464
 20
341.2764493130075
 30
0.0
 11
536.1311101090784
 21
340.2649528014383
 31
0.0
  0
LINE
  5
D47
330
2
100
AcDbEntity
  8
0
100
AcDbLine
 10
541.8675918857464
 20
428.8592818003472
 30
0.0
 11
536.1311101090766
 21
429.8707783119166
 31
0.0
  0
ARC
  5
D48
330
2
100
AcDbEntity
  8
0
100
AcDbCircle
 10
541.5202955304123
 20
426.8896662943228
 30
0.0
 40
2.0
100
AcDbArc
 50
0.0
 51
79.99999999999484
  0
LINE
  5
D49
330
2
100
AcDbEntity
  8
0
100
AcDbLine
 10
543.5202955304123
 20
343.2460648190319
 30
0.0
 11
543.5202955304123
 21
426.8896662943228
 31
0.0
  0
ARC
  5
D4A
330
2
100
AcDbEntity
  8
0
100
AcDbCircle
 10
541.5202955304123
 20
343.2460648190319
 30
0.0
 40
2.0
100
AcDbArc
 50
280.0000000000051
 51
0.0
  0
ARC
  5
D4B
330
2
100
AcDbEntity
  8
0
100
AcDbCircle
 10
537.5202955304136
 20
332.3864907773409
 30
0.0
 40
8.0
100
AcDbArc
 50
100.0000000000051
 51
180.0
  0
ARC
  5
D4C
330
2
100
AcDbEntity
  8
0
100
AcDbCircle
 10
537.5202955304123
 20
437.7492403360142
 30
0.0
 40
8.0
100
AcDbArc
 50
180.0
 51
259.9999999999948
  0
LINE
  5
D4D
330
2
100
AcDbEntity
  8
0
100
AcDbLine
 10
397.5202955304209
 20
385.0678655566771
 30
0.0
 11
397.5202955304209
 21
426.9905152874897
 31
0.0
  0
LINE
  5
D4E
330
2
100
AcDbEntity
  8
0
 48
0.5
100
AcDbLine
 10
414.5028424594195
 20
452.4978983037079
 30
0.0
 11
422.5202955304159
 21
452.5678655566771
 31
0.0
  0
ARC
  5
D4F
330
2
100
AcDbEntity
  8
0
100
AcDbCircle
 10
414.5202955304164
 20
450.4979744575796
 30
0.0
 40
2.0
100
AcDbArc
 50
90.49999999999155
 51
180.0
  0
ARC
  5
D50
330
2
100
AcDbEntity
  8
0
 48
0.5
100
AcDbCircle
 10
399.7202955304167
 20
427.2678655566772
 30
0.0
 40
0.3
100
AcDbArc
 50
0.0000000000065138
 51
90.0
  0
ARC
  5
D51
330
2
100
AcDbEntity
  8
0
100
AcDbCircle
 10
400.3202955304166
 20
427.1678655566772
 30
0.0
 40
0.3
100
AcDbArc
 50
180.0000000000065
 51
270.0
  0
LINE
  5
D52
330
2
100
AcDbEntity
  8
0
100
AcDbLine
 10
405.5202955304164
 20
429.5678655566776
 30
0.0
 11
405.5202955304168
 21
427.5678655566776
 31
0.0
  0
LINE
  5
D53
330
2
100
AcDbEntity
  8
0
 48
0.5
100
AcDbLine
 10
402.2202955304167
 20
427.5678655566776
 30
0.0
 11
405.5202955304168
 21
427.5678655566776
 31
0.0
  0
LINE
  5
D54
330
2
100
AcDbEntity
  8
0
 48
0.5
100
AcDbLine
 10
400.3202955304166
 20
426.8678655566773
 30
0.0
 11
401.7202955304167
 21
426.8678655566773
 31
0.0
  0
LINE
  5
D55
330
2
100
AcDbEntity
  8
0
 48
0.5
100
AcDbLine
 10
402.0202955304164
 20
427.3678655566773
 30
0.0
 11
402.2202955304167
 21
427.5678655566776
 31
0.0
  0
LINE
  5
D56
330
2
100
AcDbEntity
  8
0
100
AcDbLine
 10
402.0202955304164
 20
427.3678655566773
 30
0.0
 11
402.0202955304169
 21
342.767865556677
 31
0.0
  0
ARC
  5
D57
330
2
100
AcDbEntity
  8
0
100
AcDbCircle
 10
401.7202955304167
 20
427.1678655566775
 30
0.0
 40
0.3
100
AcDbArc
 50
270.0
 51
0.0000000000065138
  0
ARC
  5
D58
330
2
100
AcDbEntity
  8
HIDS
  6
SEKKEI_H
100
AcDbCircle
 10
408.0202955304114
 20
440.2394384319301
 30
0.0
 40
2.0
100
AcDbArc
 50
135.0000000000074
 51
180.0000000000065
  0
ARC
  5
D59
330
2
100
AcDbEntity
  8
HIDS
  6
SEKKEI_H
100
AcDbCircle
 10
410.5202955304159
 20
448.3962926814235
 30
0.0
 40
2.0
100
AcDbArc
 50
315.0000000000074
 51
0.0
  0
LINE
  5
D5A
330
2
100
AcDbEntity
  8
HIDS
  6
SEKKEI_H
100
AcDbLine
 10
411.9345090927892
 20
446.9820791190504
 30
0.0
 11
406.6060819680403
 21
441.6536519943007
 31
0.0
  0
LINE
  5
D5B
330
2
100
AcDbEntity
  8
0
 48
0.5
100
AcDbLine
 10
406.0202955304164
 20
430.0678655566776
 30
0.0
 11
405.5202955304164
 21
429.5678655566776
 31
0.0
  0
LINE
  5
D5C
330
2
100
AcDbEntity
  8
0
100
AcDbLine
 10
406.0202955304164
 20
436.0678655566773
 30
0.0
 11
406.0202955304168
 21
430.0678655566779
 31
0.0
  0
LINE
  5
D5D
330
2
100
AcDbEntity
  8
0
100
AcDbLine
 10
398.5202955304168
 20
427.5678655566771
 30
0.0
 11
397.5202955304169
 21
426.9905152874872
 31
0.0
  0
LINE
  5
D5E
330
2
100
AcDbEntity
  8
0
 48
0.5
100
AcDbLine
 10
398.5202955304164
 20
427.5678655566771
 30
0.0
 11
399.7202955304167
 21
427.5678655566771
 31
0.0
  0
LINE
  5
D5F
330
2
100
AcDbEntity
  8
0
100
AcDbLine
 10
400.0202955304168
 20
427.2678655566772
 30
0.0
 11
400.0202955304168
 21
342.8678655566772
 31
0.0
  0
LINE
  5
D60
330
2
100
AcDbEntity
  8
0
100
AcDbLine
 10
397.5202955304209
 20
385.0678655566771
 30
0.0
 11
397.5202955304214
 21
343.1452158258647
 31
0.0
  0
LINE
  5
D61
330
2
100
AcDbEntity
  8
0
 48
0.5
100
AcDbLine
 10
414.5028424594199
 20
317.6378328096466
 30
0.0
 11
422.5202955304164
 21
317.5678655566774
 31
0.0
  0
LINE
  5
D62
330
2
100
AcDbEntity
  8
0
100
AcDbLine
 10
412.5202955304168
 20
319.637756655775
 30
0.0
 11
412.5202955304164
 21
450.4979744575796
 31
0.0
  0
ARC
  5
D63
330
2
100
AcDbEntity
  8
0
100
AcDbCircle
 10
414.5202955304169
 20
319.637756655775
 30
0.0
 40
2.0
100
AcDbArc
 50
180.0
 51
269.5000000000084
  0
ARC
  5
D64
330
2
100
AcDbEntity
  8
0
 48
0.5
100
AcDbCircle
 10
399.7202955304171
 20
342.8678655566772
 30
0.0
 40
0.3
100
AcDbArc
 50
270.0
 51
359.9999999999934
  0
ARC
  5
D65
330
2
100
AcDbEntity
  8
0
100
AcDbCircle
 10
400.320295530417
 20
342.9678655566771
 30
0.0
 40
0.3
100
AcDbArc
 50
90.0
 51
179.9999999999934
  0
LINE
  5
D66
330
2
100
AcDbEntity
  8
0
100
AcDbLine
 10
405.5202955304168
 20
340.5678655566767
 30
0.0
 11
405.5202955304168
 21
342.5678655566767
 31
0.0
  0
LINE
  5
D67
330
2
100
AcDbEntity
  8
0
 48
0.5
100
AcDbLine
 10
402.2202955304171
 20
342.5678655566767
 30
0.0
 11
405.5202955304168
 21
342.5678655566767
 31
0.0
  0
LINE
  5
D68
330
2
100
AcDbEntity
  8
0
 48
0.5
100
AcDbLine
 10
400.320295530417
 20
343.267865556677
 30
0.0
 11
401.7202955304171
 21
343.267865556677
 31
0.0
  0
LINE
  5
D69
330
2
100
AcDbEntity
  8
0
 48
0.5
100
AcDbLine
 10
402.0202955304169
 20
342.767865556677
 30
0.0
 11
402.2202955304171
 21
342.5678655566767
 31
0.0
  0
ARC
  5
D6A
330
2
100
AcDbEntity
  8
0
100
AcDbCircle
 10
401.7202955304171
 20
342.9678655566768
 30
0.0
 40
0.3
100
AcDbArc
 50
359.9999999999934
 51
90.0
  0
ARC
  5
D6B
330
2
100
AcDbEntity
  8
HIDS
  6
SEKKEI_H
100
AcDbCircle
 10
408.0202955304119
 20
329.8962926814243
 30
0.0
 40
2.0
100
AcDbArc
 50
179.9999999999934
 51
224.9999999999926
  0
ARC
  5
D6C
330
2
100
AcDbEntity
  8
HIDS
  6
SEKKEI_H
100
AcDbCircle
 10
410.5202955304164
 20
321.7394384319309
 30
0.0
 40
2.0
100
AcDbArc
 50
0.0
 51
44.99999999999261
  0
LINE
  5
D6D
330
2
100
AcDbEntity
  8
HIDS
  6
SEKKEI_H
100
AcDbLine
 10
411.9345090927898
 20
323.1536519943041
 30
0.0
 11
406.6060819680408
 21
328.4820791190536
 31
0.0
  0
LINE
  5
D6E
330
2
100
AcDbEntity
  8
0
 48
0.5
100
AcDbLine
 10
406.0202955304168
 20
340.0678655566768
 30
0.0
 11
405.5202955304168
 21
340.5678655566767
 31
0.0
  0
LINE
  5
D6F
330
2
100
AcDbEntity
  8
0
100
AcDbLine
 10
406.0202955304168
 20
334.0678655566772
 30
0.0
 11
406.0202955304173
 21
340.0678655566765
 31
0.0
  0
LINE
  5
D70
330
2
100
AcDbEntity
  8
0
100
AcDbLine
 10
398.5202955304168
 20
342.5678655566772
 30
0.0
 11
397.5202955304169
 21
343.1452158258672
 31
0.0
  0
LINE
  5
D71
330
2
100
AcDbEntity
  8
0
 48
0.5
100
AcDbLine
 10
398.5202955304168
 20
342.5678655566772
 30
0.0
 11
399.7202955304171
 21
342.5678655566772
 31
0.0
  0
LINE
  5
D72
330
2
100
AcDbEntity
  8
0
100
AcDbLine
 10
398.5202955304164
 20
427.5678655566771
 30
0.0
 11
398.5202955304168
 21
342.5678655566772
 31
0.0
  0
LINE
  5
D73
330
2
100
AcDbEntity
  8
0
100
AcDbLine
 10
402.2202955304171
 20
342.5678655566767
 30
0.0
 11
402.2202955304167
 21
427.5678655566776
 31
0.0
  0
LINE
  5
D74
330
2
100
AcDbEntity
  8
0
100
AcDbLine
 10
405.5202955304168
 20
427.5678655566776
 30
0.0
 11
405.5202955304168
 21
342.5678655566767
 31
0.0
  0
LINE
  5
D75
330
2
100
AcDbEntity
  8
0
100
AcDbLine
 10
406.0202955304173
 20
340.0678655566765
 30
0.0
 11
406.0202955304168
 21
430.0678655566779
 31
0.0
  0
LINE
  5
D76
330
2
100
AcDbEntity
  8
0
100
AcDbLine
 10
422.5202955304159
 20
452.5678655566771
 30
0.0
 11
422.5202955304168
 21
317.5678655566774
 31
0.0
  0
LINE
  5
D77
330
2
100
AcDbEntity
  8
0
100
AcDbLine
 10
422.5202955304164
 20
432.5678655566767
 30
0.0
 11
414.0202955304164
 21
432.5678655566767
 31
0.0
  0
LINE
  5
D78
330
2
100
AcDbEntity
  8
0
100
AcDbLine
 10
422.5202955304164
 20
409.6286558473904
 30
0.0
 11
414.0202955304164
 21
409.6286558473904
 31
0.0
  0
LINE
  5
D79
330
2
100
AcDbEntity
  8
0
100
AcDbLine
 10
422.5202955304164
 20
442.5678655571092
 30
0.0
 11
414.0202955304164
 21
442.5678655571092
 31
0.0
  0
LINE
  5
D7A
330
2
100
AcDbEntity
  8
0
100
AcDbLine
 10
422.5202955304164
 20
337.5678655566779
 30
0.0
 11
414.0202955304164
 21
337.5678655566778
 31
0.0
  0
LINE
  5
D7B
330
2
100
AcDbEntity
  8
0
100
AcDbLine
 10
422.5202955304164
 20
360.507075265964
 30
0.0
 11
414.0202955304164
 21
360.507075265964
 31
0.0
  0
LINE
  5
D7C
330
2
100
AcDbEntity
  8
0
100
AcDbLine
 10
422.5202955304168
 20
327.5678655562452
 30
0.0
 11
414.0202955304168
 21
327.5678655562452
 31
0.0
  0
LINE
  5
D81
330
2
100
AcDbEntity
  8
HIDS
  6
SEKKEI_H
100
AcDbLine
 10
407.436965090447
 20
324.9852266436766
 30
0.0
 11
410.125337547224
 21
324.9628235398702
 31
0.0
  0
ARC
  5
D82
330
2
100
AcDbEntity
  8
0
100
AcDbCircle
 10
407.5202955304123
 20
334.9848794395394
 30
0.0
 40
10.0
100
AcDbArc
 50
180.0
 51
240.00000000003
  0
LINE
  5
D83
330
2
100
AcDbEntity
  8
0
100
AcDbLine
 10
397.5202955304128
 20
334.9848794395394
 30
0.0
 11
397.5202955304123
 21
435.150851673815
 31
0.0
  0
LINE
  5
D84
330
2
100
AcDbEntity
  8
HIDS
  6
SEKKEI_H
100
AcDbLine
 10
407.4369650904466
 20
445.1505044696761
 30
0.0
 11
410.1253375472217
 21
445.1729075734826
 31
0.0
  0
ARC
  5
D85
330
2
100
AcDbEntity
  8
0
100
AcDbCircle
 10
407.5202955304123
 20
435.150851673815
 30
0.0
 40
10.0
100
AcDbArc
 50
119.9999999999698
 51
180.0
  0
LINE
  5
D86
330
2
100
AcDbEntity
  8
0
100
AcDbLine
 10
249.1034856287976
 20
329.0678655571093
 30
0.0
 11
188.1257802053839
 21
329.0678655571093
 31
0.0
  0
ARC
  5
D87
330
2
100
AcDbEntity
  8
0
100
AcDbCircle
 10
249.1034856287976
 20
337.0678655571092
 30
0.0
 40
8.0
100
AcDbArc
 50
270.0
 51
315.0000000000074
  0
LINE
  5
D88
330
2
100
AcDbEntity
  8
0
100
AcDbLine
 10
249.1034856287976
 20
441.0678655571093
 30
0.0
 11
188.1257802053839
 21
441.0678655571093
 31
0.0
  0
ARC
  5
D89
330
2
100
AcDbEntity
  8
0
100
AcDbCircle
 10
188.1257802053839
 20
433.0678655571093
 30
0.0
 40
8.0
100
AcDbArc
 50
90.0
 51
135.0000000000074
  0
LINE
  5
D8A
330
2
100
AcDbEntity
  8
0
100
AcDbLine
 10
249.1034856287976
 20
447.5678655571093
 30
0.0
 11
188.1257802053839
 21
447.5678655571093
 31
0.0
  0
ARC
  5
D8B
330
2
100
AcDbEntity
  8
0
100
AcDbCircle
 10
188.1257802053839
 20
433.0678655571093
 30
0.0
 40
14.5
100
AcDbArc
 50
90.0
 51
135.0000000000074
  0
LINE
  5
D8C
330
2
100
AcDbEntity
  8
0
100
AcDbLine
 10
249.1034856287976
 20
322.5678655571092
 30
0.0
 11
188.1257802053839
 21
322.5678655571093
 31
0.0
  0
ARC
  5
D8D
330
2
100
AcDbEntity
  8
0
100
AcDbCircle
 10
249.1034856287976
 20
337.0678655571092
 30
0.0
 40
14.5
100
AcDbArc
 50
270.0
 51
315.0000000000074
  0
LINE
  5
D8E
330
2
100
AcDbEntity
  8
0
100
AcDbLine
 10
151.7246329170909
 20
327.5678655571335
 30
0.0
 11
151.7246329170909
 21
442.5678655566772
 31
0.0
  0
ARC
  5
D8F
330
2
100
AcDbEntity
  8
0
100
AcDbCircle
 10
161.7246329170909
 20
442.5678655566772
 30
0.0
 40
10.0
100
AcDbArc
 50
90.0
 51
180.0
  0
ARC
  5
D90
330
2
100
AcDbEntity
  8
0
100
AcDbCircle
 10
161.7246329170909
 20
327.5678655571335
 30
0.0
 40
10.0
100
AcDbArc
 50
180.0
 51
269.9999999972121
  0
CIRCLE
  5
D91
330
2
100
AcDbEntity
  8
0
100
AcDbCircle
 10
218.6146329170908
 20
385.0678655571093
 30
0.0
 40
36.00000000000003
  0
CIRCLE
  5
D92
330
2
100
AcDbEntity
  8
0
100
AcDbCircle
 10
218.6146329170908
 20
385.0678655571093
 30
0.0
 40
42.50000000000002
  0
CIRCLE
  5
D93
330
2
100
AcDbEntity
  8
0
100
AcDbCircle
 10
218.6146329170908
 20
385.0678655571093
 30
0.0
 40
44.50000000000048
  0
CIRCLE
  5
D94
330
2
100
AcDbEntity
  8
0
100
AcDbCircle
 10
218.6146329170908
 20
385.0678655571093
 30
0.0
 40
41.92264973081003
  0
LINE
  5
D95
330
2
100
AcDbEntity
  8
0
100
AcDbLine
 10
281.1146329170913
 20
415.556718268816
 30
0.0
 11
281.1146329170913
 21
354.5790128454026
 31
0.0
  0
ARC
  5
D96
330
2
100
AcDbEntity
  8
0
100
AcDbCircle
 10
266.6146329170913
 20
415.556718268816
 30
0.0
 40
14.5
100
AcDbArc
 50
0.0
 51
44.99999999999261
  0
LINE
  5
D97
330
2
100
AcDbEntity
  8
0
100
AcDbLine
 10
274.6146329170903
 20
415.5567182688169
 30
0.0
 11
274.6146329170903
 21
354.5790128454017
 31
0.0
  0
ARC
  5
D98
330
2
100
AcDbEntity
  8
0
100
AcDbCircle
 10
266.6146329170903
 20
415.5567182688169
 30
0.0
 40
8.0
100
AcDbArc
 50
0.0
 51
44.99999999999261
  0
LINE
  5
D99
330
2
100
AcDbEntity
  8
0
100
AcDbLine
 10
162.6146329170917
 20
415.5567182688168
 30
0.0
 11
162.6146329170917
 21
354.5790128454019
 31
0.0
  0
ARC
  5
D9A
330
2
100
AcDbEntity
  8
0
100
AcDbCircle
 10
170.6146329170917
 20
354.5790128454019
 30
0.0
 40
8.0
100
AcDbArc
 50
180.0
 51
224.9999999999926
  0
LINE
  5
D9B
330
2
100
AcDbEntity
  8
0
100
AcDbLine
 10
156.1146329170908
 20
415.556718268816
 30
0.0
 11
156.1146329170908
 21
354.5790128454027
 31
0.0
  0
LINE
  5
D9C
330
2
100
AcDbEntity
  8
0
100
AcDbLine
 10
160.3615845898859
 20
425.8097665960208
 30
0.0
 11
177.8727318781791
 21
443.3209138843142
 31
0.0
  0
ARC
  5
D9D
330
2
100
AcDbEntity
  8
0
100
AcDbCircle
 10
170.6146329170908
 20
415.556718268816
 30
0.0
 40
14.5
100
AcDbArc
 50
135.0000000000074
 51
180.0
  0
LINE
  5
D9E
330
2
100
AcDbEntity
  8
0
100
AcDbLine
 10
259.3565339560025
 20
326.8148172299043
 30
0.0
 11
276.8676812442961
 21
344.3259645181977
 31
0.0
  0
ARC
  5
D9F
330
2
100
AcDbEntity
  8
0
100
AcDbCircle
 10
266.6146329170913
 20
354.5790128454026
 30
0.0
 40
14.5
100
AcDbArc
 50
315.0000000000074
 51
0.0
  0
LINE
  5
DA0
330
2
100
AcDbEntity
  8
0
100
AcDbLine
 10
254.76033987829
 20
331.4110113076169
 30
0.0
 11
272.2714871665823
 21
348.9221585959094
 31
0.0
  0
ARC
  5
DA1
330
2
100
AcDbEntity
  8
0
100
AcDbCircle
 10
266.6146329170903
 20
354.5790128454017
 30
0.0
 40
8.0
100
AcDbArc
 50
315.0000000000074
 51
0.0
  0
LINE
  5
DA2
330
2
100
AcDbEntity
  8
0
100
AcDbLine
 10
164.9577786675993
 20
421.2135725183091
 30
0.0
 11
182.468925955892
 21
438.7247198066017
 31
0.0
  0
ARC
  5
DA3
330
2
100
AcDbEntity
  8
0
100
AcDbCircle
 10
170.6146329170917
 20
415.5567182688168
 30
0.0
 40
8.0
100
AcDbArc
 50
135.0000000000074
 51
180.0
  0
LINE
  5
DA4
330
2
100
AcDbEntity
  8
0
100
AcDbLine
 10
177.8727318781791
 20
326.8148172299043
 30
0.0
 11
160.3615845898859
 21
344.3259645181977
 31
0.0
  0
ARC
  5
DA5
330
2
100
AcDbEntity
  8
0
100
AcDbCircle
 10
170.6146329170908
 20
354.5790128454027
 30
0.0
 40
14.5
100
AcDbArc
 50
180.0
 51
224.9999999999926
  0
ARC
  5
DA6
330
2
100
AcDbEntity
  8
0
100
AcDbCircle
 10
188.1257802053839
 20
337.0678655571093
 30
0.0
 40
14.5
100
AcDbArc
 50
224.9999999999926
 51
270.0
  0
LINE
  5
DA7
330
2
100
AcDbEntity
  8
0
100
AcDbLine
 10
276.8676812442961
 20
425.8097665960209
 30
0.0
 11
259.3565339560025
 21
443.3209138843142
 31
0.0
  0
ARC
  5
DA8
330
2
100
AcDbEntity
  8
0
100
AcDbCircle
 10
249.1034856287976
 20
433.0678655571093
 30
0.0
 40
14.5
100
AcDbArc
 50
44.99999999999261
 51
90.0
  0
LINE
  5
DA9
330
2
100
AcDbEntity
  8
0
100
AcDbLine
 10
182.468925955892
 20
331.4110113076169
 30
0.0
 11
164.9577786675993
 21
348.9221585959096
 31
0.0
  0
ARC
  5
DAA
330
2
100
AcDbEntity
  8
0
100
AcDbCircle
 10
188.1257802053839
 20
337.0678655571093
 30
0.0
 40
8.0
100
AcDbArc
 50
224.9999999999926
 51
270.0
  0
LINE
  5
DAB
330
2
100
AcDbEntity
  8
0
100
AcDbLine
 10
272.2714871665828
 20
421.2135725183093
 30
0.0
 11
254.76033987829
 21
438.7247198066017
 31
0.0
  0
ARC
  5
DAC
330
2
100
AcDbEntity
  8
0
100
AcDbCircle
 10
249.1034856287976
 20
433.0678655571093
 30
0.0
 40
8.0
100
AcDbArc
 50
44.99999999999261
 51
90.0
  0
LINE
  5
DAD
330
2
100
AcDbEntity
  8
CENTER
100
AcDbLine
 10
286.1146329175232
 20
327.5678655571092
 30
0.0
 11
266.1146329166592
 21
327.5678655571092
 31
0.0
  0
LINE
  5
DAE
330
2
100
AcDbEntity
  8
CENTER
100
AcDbLine
 10
276.1146329170908
 20
337.5678655575412
 30
0.0
 11
276.1146329170908
 21
317.5678655566772
 31
0.0
  0
LINE
  5
DAF
330
2
100
AcDbEntity
  8
CENTER
100
AcDbLine
 10
286.1146329166588
 20
442.5678655571094
 30
0.0
 11
266.1146329175223
 21
442.5678655571094
 31
0.0
  0
LINE
  5
DB0
330
2
100
AcDbEntity
  8
CENTER
100
AcDbLine
 10
276.1146329170908
 20
432.567865557541
 30
0.0
 11
276.1146329170908
 21
452.5678655566773
 31
0.0
  0
LINE
  5
DB1
330
2
100
AcDbEntity
  8
CENTER
100
AcDbLine
 10
151.1332552566916
 20
327.5678655571092
 30
0.0
 11
171.0960105774899
 21
327.5678655571092
 31
0.0
  0
LINE
  5
DB2
330
2
100
AcDbEntity
  8
CENTER
100
AcDbLine
 10
161.1146329170912
 20
337.5492432175084
 30
0.0
 11
161.1146329170912
 21
317.5864878967102
 31
0.0
  0
LINE
  5
DB3
330
2
100
AcDbEntity
  8
CENTER
100
AcDbLine
 10
151.1098351485377
 20
442.5678655571094
 30
0.0
 11
171.1194306856448
 21
442.5678655571094
 31
0.0
  0
LINE
  5
DB4
330
2
100
AcDbEntity
  8
CENTER
100
AcDbLine
 10
161.1146329170912
 20
432.5630677885557
 30
0.0
 11
161.1146329170912
 21
452.5726633256633
 31
0.0
  0
CIRCLE
  5
DB5
330
2
100
AcDbEntity
  8
HOJO
100
AcDbCircle
 10
278.6146329170908
 20
339.0678655571092
 30
0.0
 40
2.5
  0
CIRCLE
  5
DB6
330
2
100
AcDbEntity
  8
0
100
AcDbCircle
 10
278.6146329170908
 20
339.0678655571092
 30
0.0
 40
2.0
  0
LINE
  5
DB7
330
2
100
AcDbEntity
  8
CENTER
100
AcDbLine
 10
278.6146329170908
 20
331.7018358111993
 30
0.0
 11
278.6146329170908
 21
346.4338953030189
 31
0.0
  0
LINE
  5
DB8
330
2
100
AcDbEntity
  8
CENTER
100
AcDbLine
 10
285.9806626630009
 20
339.0678655571091
 30
0.0
 11
271.2486031711812
 21
339.0678655571091
 31
0.0
  0
CIRCLE
  5
DB9
330
2
100
AcDbEntity
  8
HOJO
100
AcDbCircle
 10
158.6146329170908
 20
431.0678655571093
 30
0.0
 40
2.5
  0
CIRCLE
  5
DBA
330
2
100
AcDbEntity
  8
0
100
AcDbCircle
 10
158.6146329170908
 20
431.0678655571093
 30
0.0
 40
2.0
  0
LINE
  5
DBB
330
2
100
AcDbEntity
  8
CENTER
100
AcDbLine
 10
158.6146329170908
 20
437.9578655571093
 30
0.0
 11
158.6146329170908
 21
424.1778655571093
 31
0.0
  0
LINE
  5
DBC
330
2
100
AcDbEntity
  8
CENTER
100
AcDbLine
 10
151.7246329170909
 20
431.0678655571094
 30
0.0
 11
165.5046329170911
 21
431.0678655571094
 31
0.0
  0
LINE
  5
DBD
330
2
100
AcDbEntity
  8
CENTER
100
AcDbLine
 10
147.9744516529933
 20
314.4276842930119
 30
0.0
 11
289.2548141811882
 21
455.708046821207
 31
0.0
  0
LINE
  5
DBE
330
2
100
AcDbEntity
  8
CENTER
100
AcDbLine
 10
289.2548141816207
 20
314.4276842925796
 30
0.0
 11
147.9744516534258
 21
455.7080468207749
 31
0.0
  0
LINE
  5
DBF
330
2
100
AcDbEntity
  8
0
100
AcDbLine
 10
182.5768704360905
 20
323.6716123356957
 30
0.0
 11
185.0643127464634
 21
329.6768292970191
 31
0.0
  0
LINE
  5
DC0
330
2
100
AcDbEntity
  8
0
100
AcDbLine
 10
157.2183796956771
 20
349.0301030761089
 30
0.0
 11
163.2235966570012
 21
351.5175453864813
 31
0.0
  0
LINE
  5
DC1
330
2
100
AcDbEntity
  8
0
100
AcDbLine
 10
280.0108861376404
 20
349.0301030761089
 30
0.0
 11
274.0056691763168
 21
351.5175453864819
 31
0.0
  0
LINE
  5
DC2
330
2
100
AcDbEntity
  8
0
100
AcDbLine
 10
254.6523953972271
 20
323.6716123356957
 30
0.0
 11
252.1649530868546
 21
329.6768292970198
 31
0.0
  0
LINE
  5
DC3
330
2
100
AcDbEntity
  8
0
100
AcDbLine
 10
254.6523953972271
 20
446.4641187776589
 30
0.0
 11
252.1649530868542
 21
440.4589018163355
 31
0.0
  0
LINE
  5
DC4
330
2
100
AcDbEntity
  8
0
100
AcDbLine
 10
280.0108861376404
 20
421.1056280372456
 30
0.0
 11
274.0056691763163
 21
418.6181857268733
 31
0.0
  0
LINE
  5
DC5
330
2
100
AcDbEntity
  8
0
100
AcDbLine
 10
157.2183796956771
 20
421.1056280372457
 30
0.0
 11
163.2235966570003
 21
418.6181857268726
 31
0.0
  0
LINE
  5
DC6
330
2
100
AcDbEntity
  8
0
100
AcDbLine
 10
182.5768704360905
 20
446.464118777659
 30
0.0
 11
185.0643127464629
 21
440.4589018163348
 31
0.0
  0
LINE
  5
DC7
330
2
100
AcDbEntity
  8
CENTER
 48
0.2
100
AcDbLine
 10
218.6146329170908
 20
332.099457612758
 30
0.0
 11
218.6146329170908
 21
338.0362735005963
 31
0.0
  0
CIRCLE
  5
DC8
330
2
100
AcDbEntity
  8
0
100
AcDbCircle
 10
218.6146329170908
 20
385.0678655571095
 30
0.0
 40
36.57735026918982
  0
CIRCLE
  5
DC9
330
2
100
AcDbEntity
  8
0
100
AcDbCircle
 10
218.6146329166588
 20
385.0678655566773
 30
0.0
 40
44.99999999956847
  0
ARC
  5
DCA
330
2
100
AcDbEntity
  8
0
100
AcDbCircle
 10
218.6146329166588
 20
657.5678655566774
 30
0.0
 40
340.0
100
AcDbArc
 50
265.8574811972686
 51
274.1425188027313
  0
ARC
  5
DCB
330
2
100
AcDbEntity
  8
0
100
AcDbCircle
 10
276.1146329166578
 20
327.5678655566772
 30
0.0
 40
10.0
100
AcDbArc
 50
270.0
 51
0.0
  0
LINE
  5
DCC
330
2
100
AcDbEntity
  8
0
100
AcDbLine
 10
276.1146329166578
 20
317.5678655566772
 30
0.0
 11
266.1146329166579
 21
317.5678655566772
 31
0.0
  0
ARC
  5
DCD
330
2
100
AcDbEntity
  8
0
100
AcDbCircle
 10
250.3991850575814
 20
218.7173873238274
 30
0.0
 40
100.0
100
AcDbArc
 50
81.63298947741269
 51
94.14251880273134
  0
LINE
  5
DCE
330
2
100
AcDbEntity
  8
0
100
AcDbLine
 10
286.1146329166588
 20
327.5678655566774
 30
0.0
 11
286.1146329166588
 21
337.5678655566774
 31
0.0
  0
ARC
  5
DCF
330
2
100
AcDbEntity
  8
0
100
AcDbCircle
 10
278.1146329166588
 20
337.5678655566774
 30
0.0
 40
8.0
100
AcDbArc
 50
0.0
 51
8.367010522602193
  0
ARC
  5
DD0
330
2
100
AcDbEntity
  8
0
100
AcDbCircle
 10
384.9651111495088
 20
353.2833134157539
 30
0.0
 40
100.0
100
AcDbArc
 50
175.8574811972767
 51
188.3670105226022
  0
ARC
  5
DD1
330
2
100
AcDbEntity
  8
0
100
AcDbCircle
 10
171.1146329166588
 20
325.5678655566772
 30
0.0
 40
8.0
100
AcDbArc
 50
270.0
 51
278.3670105225872
  0
ARC
  5
DD2
330
2
100
AcDbEntity
  8
0
100
AcDbCircle
 10
186.8300807757352
 20
218.7173873238274
 30
0.0
 40
100.0
100
AcDbArc
 50
85.85748119726863
 51
98.3670105225873
  0
LINE
  5
DD3
330
2
100
AcDbEntity
  8
0
100
AcDbLine
 10
161.7246329166048
 20
317.5678655571335
 30
0.0
 11
171.1146329166588
 21
317.5678655566772
 31
0.0
  0
ARC
  5
DD4
330
2
100
AcDbEntity
  8
0
100
AcDbCircle
 10
276.1146329166578
 20
442.5678655566772
 30
0.0
 40
10.0
100
AcDbArc
 50
0.0
 51
90.0
  0
LINE
  5
DD5
330
2
100
AcDbEntity
  8
0
100
AcDbLine
 10
276.1146329166578
 20
452.5678655566773
 30
0.0
 11
266.1146329166579
 21
452.5678655566773
 31
0.0
  0
ARC
  5
DD6
330
2
100
AcDbEntity
  8
0
100
AcDbCircle
 10
266.1146329166579
 20
444.5678655566773
 30
0.0
 40
8.0
100
AcDbArc
 50
90.0
 51
98.3670105225873
  0
ARC
  5
DD7
330
2
100
AcDbEntity
  8
0
100
AcDbCircle
 10
250.3991850575814
 20
551.4183437895269
 30
0.0
 40
100.0
100
AcDbArc
 50
265.8574811972686
 51
278.3670105225872
  0
LINE
  5
DD8
330
2
100
AcDbEntity
  8
0
100
AcDbLine
 10
286.1146329166588
 20
442.5678655566768
 30
0.0
 11
286.1146329166588
 21
432.5678655566768
 31
0.0
  0
ARC
  5
DD9
330
2
100
AcDbEntity
  8
0
100
AcDbCircle
 10
278.1146329166588
 20
432.5678655566768
 30
0.0
 40
8.0
100
AcDbArc
 50
351.6329894774043
 51
0.0
  0
ARC
  5
DDA
330
2
100
AcDbEntity
  8
0
100
AcDbCircle
 10
384.9651111495088
 20
416.8524176976004
 30
0.0
 40
100.0
100
AcDbArc
 50
171.6329894773977
 51
184.1425188027296
  0
ARC
  5
DDB
330
2
100
AcDbEntity
  8
0
100
AcDbCircle
 10
171.1146329166588
 20
444.5678655566773
 30
0.0
 40
8.0
100
AcDbArc
 50
81.63298947741269
 51
90.0
  0
ARC
  5
DDC
330
2
100
AcDbEntity
  8
0
100
AcDbCircle
 10
186.8300807757352
 20
551.4183437895269
 30
0.0
 40
100.0
100
AcDbArc
 50
261.6329894774127
 51
274.1425188027313
  0
LINE
  5
DDD
330
2
100
AcDbEntity
  8
0
100
AcDbLine
 10
161.7246329170909
 20
452.5678655566773
 30
0.0
 11
171.1146329166588
 21
452.5678655566773
 31
0.0
  0
ARC
  5
DDE
330
2
100
AcDbEntity
  8
0
100
AcDbCircle
 10
218.6146329166588
 20
112.5678655566773
 30
0.0
 40
340.0
100
AcDbArc
 50
85.85748119726863
 51
94.14251880273134
  0
ARC
  5
DDF
330
2
100
AcDbEntity
  8
0
100
AcDbCircle
 10
-53.88536708334118
 20
385.0678655566773
 30
0.0
 40
340.0
100
AcDbArc
 50
355.8574811972767
 51
4.14251880271665
  0
ARC
  5
DE0
330
2
100
AcDbEntity
  8
0
100
AcDbCircle
 10
266.1146329166588
 20
325.5678655566772
 30
0.0
 40
8.0
100
AcDbArc
 50
261.63298947736
 51
270.0
  0
LINE
  5
DE1
330
2
100
AcDbEntity
  8
0
100
AcDbLine
 10
161.4244367240955
 20
317.5678655566773
 30
0.0
 11
161.7246329166048
 21
317.5678655571335
 31
0.0
  0
LINE
  5
DE2
330
2
100
AcDbEntity
  8
0
100
AcDbLine
 10
161.4244367240955
 20
452.5678655566775
 30
0.0
 11
161.7246329170909
 21
452.5678655566773
 31
0.0
  0
LINE
  5
DE3
330
2
100
AcDbEntity
  8
0
100
AcDbLine
 10
846.4147263073476
 20
812.9187052301436
 30
0.0
 11
846.4846935603166
 21
804.9012521591469
 31
0.0
  0
ARC
  5
DE4
330
2
100
AcDbEntity
  8
0
100
AcDbCircle
 10
844.4148024612193
 20
812.9012521591466
 30
0.0
 40
2.0
100
AcDbArc
 50
0.499999999998063
 51
90.0
  0
LINE
  5
DE5
330
2
100
AcDbEntity
  8
0
100
AcDbLine
 10
779.5946935603167
 20
829.9012521591418
 30
0.0
 11
821.517343291129
 21
829.9012521591416
 31
0.0
  0
ARC
  5
DE6
330
2
100
AcDbEntity
  8
0
 48
0.5
100
AcDbCircle
 10
821.7946935603166
 20
827.7012521591462
 30
0.0
 40
0.3
100
AcDbArc
 50
270.0
 51
0.0000000000065138
  0
ARC
  5
DE7
330
2
100
AcDbEntity
  8
0
100
AcDbCircle
 10
821.6946935603166
 20
827.1012521591462
 30
0.0
 40
0.3
100
AcDbArc
 50
90.0
 51
180.0000000000065
  0
LINE
  5
DE8
330
2
100
AcDbEntity
  8
0
100
AcDbLine
 10
824.0946935603167
 20
821.9012521591462
 30
0.0
 11
822.0946935603167
 21
821.9012521591462
 31
0.0
  0
LINE
  5
DE9
330
2
100
AcDbEntity
  8
0
 48
0.5
100
AcDbLine
 10
822.0946935603167
 20
825.2012521591462
 30
0.0
 11
822.0946935603167
 21
821.9012521591462
 31
0.0
  0
LINE
  5
DEA
330
2
100
AcDbEntity
  8
0
 48
0.5
100
AcDbLine
 10
821.394693560317
 20
827.1012521591462
 30
0.0
 11
821.394693560317
 21
825.7012521591461
 31
0.0
  0
LINE
  5
DEB
330
2
100
AcDbEntity
  8
0
 48
0.5
100
AcDbLine
 10
821.8946935603169
 20
825.4012521591462
 30
0.0
 11
822.0946935603167
 21
825.2012521591462
 31
0.0
  0
LINE
  5
DEC
330
2
100
AcDbEntity
  8
0
100
AcDbLine
 10
821.8946935603169
 20
825.4012521591462
 30
0.0
 11
737.2946935603165
 21
825.4012521591455
 31
0.0
  0
ARC
  5
DED
330
2
100
AcDbEntity
  8
0
100
AcDbCircle
 10
821.6946935603171
 20
825.7012521591461
 30
0.0
 40
0.3
100
AcDbArc
 50
180.0
 51
270.0
  0
ARC
  5
DEE
330
2
100
AcDbEntity
  8
HIDS
  6
SEKKEI_H
100
AcDbCircle
 10
834.7662664355695
 20
819.4012521591517
 30
0.0
 40
2.0
100
AcDbArc
 50
44.99999999999245
 51
90.0
  0
ARC
  5
DEF
330
2
100
AcDbEntity
  8
HIDS
  6
SEKKEI_H
100
AcDbCircle
 10
842.9231206850628
 20
816.9012521591469
 30
0.0
 40
2.0
100
AcDbArc
 50
224.9999999999924
 51
270.0
  0
LINE
  5
DF0
330
2
100
AcDbEntity
  8
HIDS
  6
SEKKEI_H
100
AcDbLine
 10
841.5089071226899
 20
815.4870385967738
 30
0.0
 11
836.1804799979402
 21
820.8154657215224
 31
0.0
  0
LINE
  5
DF1
330
2
100
AcDbEntity
  8
0
 48
0.5
100
AcDbLine
 10
824.5946935603168
 20
821.4012521591465
 30
0.0
 11
824.0946935603167
 21
821.9012521591462
 31
0.0
  0
LINE
  5
DF2
330
2
100
AcDbEntity
  8
0
100
AcDbLine
 10
830.5946935603166
 20
821.4012521591467
 30
0.0
 11
824.5946935603171
 21
821.401252159146
 31
0.0
  0
LINE
  5
DF3
330
2
100
AcDbEntity
  8
0
100
AcDbLine
 10
822.0946935603167
 20
828.9012521591462
 30
0.0
 11
821.5173432911267
 21
829.9012521591462
 31
0.0
  0
LINE
  5
DF4
330
2
100
AcDbEntity
  8
0
 48
0.5
100
AcDbLine
 10
822.0946935603167
 20
828.9012521591462
 30
0.0
 11
822.0946935603167
 21
827.7012521591462
 31
0.0
  0
LINE
  5
DF5
330
2
100
AcDbEntity
  8
0
100
AcDbLine
 10
821.7946935603166
 20
827.4012521591462
 30
0.0
 11
737.3946935603164
 21
827.4012521591455
 31
0.0
  0
LINE
  5
DF6
330
2
100
AcDbEntity
  8
0
100
AcDbLine
 10
779.5946935603167
 20
829.9012521591418
 30
0.0
 11
737.6720438295039
 21
829.9012521591409
 31
0.0
  0
LINE
  5
DF7
330
2
100
AcDbEntity
  8
0
 48
0.5
100
AcDbLine
 10
712.1646608132857
 20
812.9187052301425
 30
0.0
 11
712.0946935603167
 21
804.9012521591457
 31
0.0
  0
LINE
  5
DF8
330
2
100
AcDbEntity
  8
0
100
AcDbLine
 10
714.1645846594144
 20
814.9012521591457
 30
0.0
 11
844.4148024612193
 21
814.9012521591467
 31
0.0
  0
ARC
  5
DF9
330
2
100
AcDbEntity
  8
0
100
AcDbCircle
 10
714.1645846594144
 20
812.9012521591457
 30
0.0
 40
2.0
100
AcDbArc
 50
90.0
 51
179.4999999999954
  0
ARC
  5
DFA
330
2
100
AcDbEntity
  8
0
 48
0.5
100
AcDbCircle
 10
737.3946935603164
 20
827.7012521591455
 30
0.0
 40
0.3
100
AcDbArc
 50
179.9999999999934
 51
270.0
  0
ARC
  5
DFB
330
2
100
AcDbEntity
  8
0
100
AcDbCircle
 10
737.4946935603163
 20
827.1012521591455
 30
0.0
 40
0.3
100
AcDbArc
 50
359.9999999999934
 51
90.0
  0
LINE
  5
DFC
330
2
100
AcDbEntity
  8
0
100
AcDbLine
 10
735.0946935603162
 20
821.9012521591455
 30
0.0
 11
737.0946935603162
 21
821.9012521591455
 31
0.0
  0
LINE
  5
DFD
330
2
100
AcDbEntity
  8
0
 48
0.5
100
AcDbLine
 10
737.0946935603158
 20
825.2012521591455
 30
0.0
 11
737.0946935603162
 21
821.9012521591455
 31
0.0
  0
LINE
  5
DFE
330
2
100
AcDbEntity
  8
0
 48
0.5
100
AcDbLine
 10
737.7946935603165
 20
827.1012521591455
 30
0.0
 11
737.7946935603165
 21
825.7012521591455
 31
0.0
  0
LINE
  5
DFF
330
2
100
AcDbEntity
  8
0
 48
0.5
100
AcDbLine
 10
737.2946935603165
 20
825.4012521591455
 30
0.0
 11
737.0946935603158
 21
825.2012521591455
 31
0.0
  0
ARC
  5
E00
330
2
100
AcDbEntity
  8
0
100
AcDbCircle
 10
737.4946935603163
 20
825.7012521591455
 30
0.0
 40
0.3
100
AcDbArc
 50
270.0
 51
0.0
  0
ARC
  5
E01
330
2
100
AcDbEntity
  8
HIDS
  6
SEKKEI_H
100
AcDbCircle
 10
724.4231206850634
 20
819.4012521591508
 30
0.0
 40
2.0
100
AcDbArc
 50
90.0
 51
135.0000000000075
  0
ARC
  5
E02
330
2
100
AcDbEntity
  8
HIDS
  6
SEKKEI_H
100
AcDbCircle
 10
716.26626643557
 20
816.9012521591458
 30
0.0
 40
2.0
100
AcDbArc
 50
270.0
 51
315.0000000000074
  0
LINE
  5
E03
330
2
100
AcDbEntity
  8
HIDS
  6
SEKKEI_H
100
AcDbLine
 10
717.6804799979434
 20
815.4870385967726
 30
0.0
 11
723.0089071226927
 21
820.8154657215215
 31
0.0
  0
LINE
  5
E04
330
2
100
AcDbEntity
  8
0
 48
0.5
100
AcDbLine
 10
734.5946935603162
 20
821.4012521591458
 30
0.0
 11
735.0946935603162
 21
821.9012521591455
 31
0.0
  0
LINE
  5
E05
330
2
100
AcDbEntity
  8
0
100
AcDbLine
 10
728.5946935603167
 20
821.4012521591458
 30
0.0
 11
734.5946935603158
 21
821.4012521591453
 31
0.0
  0
LINE
  5
E06
330
2
100
AcDbEntity
  8
0
100
AcDbLine
 10
737.0946935603167
 20
828.9012521591455
 30
0.0
 11
737.6720438295067
 21
829.9012521591455
 31
0.0
  0
LINE
  5
E07
330
2
100
AcDbEntity
  8
0
 48
0.5
100
AcDbLine
 10
737.0946935603167
 20
828.9012521591455
 30
0.0
 11
737.0946935603167
 21
827.7012521591455
 31
0.0
  0
LINE
  5
E08
330
2
100
AcDbEntity
  8
0
100
AcDbLine
 10
822.0946935603167
 20
828.9012521591462
 30
0.0
 11
737.0946935603167
 21
828.9012521591455
 31
0.0
  0
LINE
  5
E09
330
2
100
AcDbEntity
  8
0
100
AcDbLine
 10
737.0946935603158
 20
825.2012521591455
 30
0.0
 11
822.0946935603167
 21
825.2012521591462
 31
0.0
  0
LINE
  5
E0A
330
2
100
AcDbEntity
  8
0
100
AcDbLine
 10
822.0946935603167
 20
821.9012521591462
 30
0.0
 11
737.0946935603162
 21
821.9012521591455
 31
0.0
  0
LINE
  5
E0B
330
2
100
AcDbEntity
  8
0
100
AcDbLine
 10
734.5946935603158
 20
821.4012521591453
 30
0.0
 11
824.5946935603171
 21
821.401252159146
 31
0.0
  0
LINE
  5
E0C
330
2
100
AcDbEntity
  8
0
100
AcDbLine
 10
846.4846935603166
 20
804.9012521591469
 30
0.0
 11
712.0946935603167
 21
804.9012521591457
 31
0.0
  0
LINE
  5
E0D
330
2
100
AcDbEntity
  8
0
100
AcDbLine
 10
827.0946935603163
 20
804.9012521591489
 30
0.0
 11
827.0946935603157
 21
813.4012521591467
 31
0.0
  0
LINE
  5
E0E
330
2
100
AcDbEntity
  8
0
100
AcDbLine
 10
804.1554838510299
 20
804.9012521591478
 30
0.0
 11
804.1554838510299
 21
813.4012521591465
 31
0.0
  0
LINE
  5
E0F
330
2
100
AcDbEntity
  8
0
100
AcDbLine
 10
837.0946935607488
 20
804.9012521591496
 30
0.0
 11
837.0946935607488
 21
813.4012521591467
 31
0.0
  0
LINE
  5
E10
330
2
100
AcDbEntity
  8
0
100
AcDbLine
 10
732.0946935603172
 20
804.9012521591434
 30
0.0
 11
732.0946935603172
 21
813.4012521591458
 31
0.0
  0
LINE
  5
E11
330
2
100
AcDbEntity
  8
0
100
AcDbLine
 10
755.0339032696036
 20
804.9012521591448
 30
0.0
 11
755.0339032696036
 21
813.401252159146
 31
0.0
  0
LINE
  5
E12
330
2
100
AcDbEntity
  8
0
100
AcDbLine
 10
722.0946935598846
 20
804.901252159143
 30
0.0
 11
722.0946935598846
 21
813.4012521591458
 31
0.0
  0
LINE
  5
E1F
330
2
100
AcDbEntity
  8
0
 48
0.3
100
AcDbLine
 10
403.0202955304164
 20
334.0678655566772
 30
0.0
 11
403.0202955304169
 21
321.0678655566773
 31
0.0
  0
LINE
  5
E20
330
2
100
AcDbEntity
  8
0
 48
0.3
100
AcDbLine
 10
402.5202955304164
 20
333.2018401528914
 30
0.0
 11
402.5202955304169
 21
321.9338909604618
 31
0.0
  0
LINE
  5
E21
330
2
100
AcDbEntity
  8
CENTER
 48
0.5
100
AcDbLine
 10
399.5202955304169
 20
327.5678655566772
 30
0.0
 11
418.5202955304168
 21
327.5678655566772
 31
0.0
  0
LINE
  5
E22
330
2
100
AcDbEntity
  8
0
 48
0.3
100
AcDbLine
 10
403.0202955304169
 20
321.0678655566773
 30
0.0
 11
402.5202955304169
 21
321.9338909604618
 31
0.0
  0
LINE
  5
E23
330
2
100
AcDbEntity
  8
0
 48
0.3
100
AcDbLine
 10
403.0202955304169
 20
321.0678655566773
 30
0.0
 11
410.5202955304169
 21
321.0678655566773
 31
0.0
  0
LINE
  5
E24
330
2
100
AcDbEntity
  8
0
 48
0.3
100
AcDbLine
 10
403.0202955304173
 20
334.0678655566768
 30
0.0
 11
402.5202955304173
 21
333.2018401528925
 31
0.0
  0
LINE
  5
E25
330
2
100
AcDbEntity
  8
0
 48
0.3
100
AcDbLine
 10
403.0202955304173
 20
334.0678655566772
 30
0.0
 11
410.5202955304164
 21
334.0678655566772
 31
0.0
  0
LINE
  5
E26
330
2
100
AcDbEntity
  8
0
 48
0.3
100
AcDbLine
 10
403.0202955304164
 20
449.0678655566773
 30
0.0
 11
403.0202955304164
 21
436.0678655566773
 31
0.0
  0
LINE
  5
E27
330
2
100
AcDbEntity
  8
0
 48
0.3
100
AcDbLine
 10
402.5202955304164
 20
448.2018401528914
 30
0.0
 11
402.5202955304164
 21
436.9338909604618
 31
0.0
  0
LINE
  5
E28
330
2
100
AcDbEntity
  8
CENTER
 48
0.5
100
AcDbLine
 10
399.5202955304164
 20
442.5678655566772
 30
0.0
 11
418.5202955304164
 21
442.5678655566772
 31
0.0
  0
LINE
  5
E29
330
2
100
AcDbEntity
  8
0
 48
0.3
100
AcDbLine
 10
403.0202955304164
 20
436.0678655566773
 30
0.0
 11
402.5202955304164
 21
436.9338909604618
 31
0.0
  0
LINE
  5
E2A
330
2
100
AcDbEntity
  8
0
 48
0.3
100
AcDbLine
 10
403.0202955304164
 20
436.0678655566773
 30
0.0
 11
410.5202955304164
 21
436.0678655566773
 31
0.0
  0
LINE
  5
E2B
330
2
100
AcDbEntity
  8
0
 48
0.3
100
AcDbLine
 10
403.0202955304169
 20
449.0678655566768
 30
0.0
 11
402.5202955304169
 21
448.2018401528925
 31
0.0
  0
LINE
  5
E2C
330
2
100
AcDbEntity
  8
0
 48
0.3
100
AcDbLine
 10
403.0202955304173
 20
449.0678655566773
 30
0.0
 11
410.5202955304164
 21
449.0678655566773
 31
0.0
  0
LINE
  5
E2D
330
2
100
AcDbEntity
  8
0
 48
0.3
100
AcDbLine
 10
728.5946935603167
 20
824.4012521591459
 30
0.0
 11
715.5946935603167
 21
824.4012521591457
 31
0.0
  0
LINE
  5
E2E
330
2
100
AcDbEntity
  8
0
 48
0.3
100
AcDbLine
 10
727.7286681565308
 20
824.901252159146
 30
0.0
 11
716.4607189641012
 21
824.9012521591458
 31
0.0
  0
LINE
  5
E2F
330
2
100
AcDbEntity
  8
CENTER
 48
0.5
100
AcDbLine
 10
722.0946935603167
 20
827.9012521591457
 30
0.0
 11
722.0946935603167
 21
808.9012521591458
 31
0.0
  0
LINE
  5
E30
330
2
100
AcDbEntity
  8
0
 48
0.3
100
AcDbLine
 10
715.5946935603167
 20
824.4012521591457
 30
0.0
 11
716.4607189641012
 21
824.9012521591458
 31
0.0
  0
LINE
  5
E31
330
2
100
AcDbEntity
  8
0
 48
0.3
100
AcDbLine
 10
715.5946935603167
 20
824.4012521591457
 30
0.0
 11
715.5946935603167
 21
816.9012521591458
 31
0.0
  0
LINE
  5
E32
330
2
100
AcDbEntity
  8
0
 48
0.3
100
AcDbLine
 10
728.5946935603162
 20
824.4012521591454
 30
0.0
 11
727.7286681565317
 21
824.9012521591453
 31
0.0
  0
LINE
  5
E33
330
2
100
AcDbEntity
  8
0
 48
0.3
100
AcDbLine
 10
728.5946935603167
 20
824.401252159145
 30
0.0
 11
728.5946935603167
 21
816.901252159146
 31
0.0
  0
LINE
  5
E34
330
2
100
AcDbEntity
  8
0
 48
0.3
100
AcDbLine
 10
843.5946935603167
 20
824.4012521591466
 30
0.0
 11
830.5946935603166
 21
824.4012521591464
 31
0.0
  0
LINE
  5
E35
330
2
100
AcDbEntity
  8
0
 48
0.3
100
AcDbLine
 10
842.7286681565307
 20
824.9012521591467
 30
0.0
 11
831.4607189641012
 21
824.9012521591463
 31
0.0
  0
LINE
  5
E36
330
2
100
AcDbEntity
  8
CENTER
 48
0.5
100
AcDbLine
 10
837.0946935603168
 20
827.9012521591466
 30
0.0
 11
837.0946935603168
 21
808.9012521591467
 31
0.0
  0
LINE
  5
E37
330
2
100
AcDbEntity
  8
0
 48
0.3
100
AcDbLine
 10
830.5946935603166
 20
824.4012521591464
 30
0.0
 11
831.4607189641012
 21
824.9012521591463
 31
0.0
  0
LINE
  5
E38
330
2
100
AcDbEntity
  8
0
 48
0.3
100
AcDbLine
 10
830.5946935603166
 20
824.4012521591464
 30
0.0
 11
830.5946935603166
 21
816.9012521591465
 31
0.0
  0
LINE
  5
E39
330
2
100
AcDbEntity
  8
0
 48
0.3
100
AcDbLine
 10
843.5946935603162
 20
824.4012521591459
 30
0.0
 11
842.7286681565316
 21
824.9012521591462
 31
0.0
  0
LINE
  5
E3A
330
2
100
AcDbEntity
  8
0
 48
0.3
100
AcDbLine
 10
843.5946935603167
 20
824.4012521591457
 30
0.0
 11
843.5946935603167
 21
816.9012521591467
 31
0.0
  0
LINE
  5
E3B
330
2
100
AcDbEntity
  8
0
100
AcDbLine
 10
276.1146329170908
 20
439.1037639419717
 30
0.0
 11
279.1146329170903
 21
440.8358147495406
 31
0.0
  0
LINE
  5
E3C
330
2
100
AcDbEntity
  8
0
100
AcDbLine
 10
273.1146329170908
 20
444.2999163646782
 30
0.0
 11
276.1146329170908
 21
446.0319671722472
 31
0.0
  0
CIRCLE
  5
E3D
330
2
100
AcDbEntity
  8
0
100
AcDbCircle
 10
276.1146329170908
 20
442.5678655571094
 30
0.0
 40
6.5
  0
LINE
  5
E3E
330
2
100
AcDbEntity
  8
0
100
AcDbLine
 10
279.1146329170903
 20
444.2999163646782
 30
0.0
 11
276.1146329170908
 21
446.0319671722471
 31
0.0
  0
LINE
  5
E3F
330
2
100
AcDbEntity
  8
0
100
AcDbLine
 10
276.1146329170908
 20
439.1037639419718
 30
0.0
 11
273.1146329170908
 21
440.8358147495405
 31
0.0
  0
LINE
  5
E40
330
2
100
AcDbEntity
  8
0
100
AcDbLine
 10
279.1146329170903
 20
440.8358147495408
 30
0.0
 11
279.1146329170903
 21
444.2999163646783
 31
0.0
  0
LINE
  5
E41
330
2
100
AcDbEntity
  8
0
100
AcDbLine
 10
273.1146329170908
 20
440.8358147495404
 30
0.0
 11
273.1146329170908
 21
444.2999163646782
 31
0.0
  0
CIRCLE
  5
E42
330
2
100
AcDbEntity
  8
0
100
AcDbCircle
 10
276.1146329170908
 20
442.5678655571094
 30
0.0
 40
5.633974596215466
  0
LINE
  5
E43
330
2
100
AcDbEntity
  8
0
100
AcDbLine
 10
161.1146329170912
 20
439.1037639419717
 30
0.0
 11
164.1146329170912
 21
440.8358147495406
 31
0.0
  0
LINE
  5
E44
330
2
100
AcDbEntity
  8
0
100
AcDbLine
 10
158.1146329170912
 20
444.2999163646782
 30
0.0
 11
161.1146329170912
 21
446.0319671722472
 31
0.0
  0
CIRCLE
  5
E45
330
2
100
AcDbEntity
  8
0
100
AcDbCircle
 10
161.1146329170912
 20
442.5678655571094
 30
0.0
 40
6.5
  0
LINE
  5
E46
330
2
100
AcDbEntity
  8
0
100
AcDbLine
 10
164.1146329170912
 20
444.2999163646782
 30
0.0
 11
161.1146329170912
 21
446.0319671722471
 31
0.0
  0
LINE
  5
E47
330
2
100
AcDbEntity
  8
0
100
AcDbLine
 10
161.1146329170912
 20
439.1037639419718
 30
0.0
 11
158.1146329170912
 21
440.8358147495405
 31
0.0
  0
LINE
  5
E48
330
2
100
AcDbEntity
  8
0
100
AcDbLine
 10
164.1146329170912
 20
440.8358147495408
 30
0.0
 11
164.1146329170912
 21
444.2999163646783
 31
0.0
  0
LINE
  5
E49
330
2
100
AcDbEntity
  8
0
100
AcDbLine
 10
158.1146329170912
 20
440.8358147495404
 30
0.0
 11
158.1146329170912
 21
444.2999163646782
 31
0.0
  0
CIRCLE
  5
E4A
330
2
100
AcDbEntity
  8
0
100
AcDbCircle
 10
161.1146329170912
 20
442.5678655571094
 30
0.0
 40
5.633974596215466
  0
LINE
  5
E4B
330
2
100
AcDbEntity
  8
0
100
AcDbLine
 10
161.1146329170912
 20
324.1037639419715
 30
0.0
 11
164.1146329170912
 21
325.8358147495405
 31
0.0
  0
LINE
  5
E4C
330
2
100
AcDbEntity
  8
0
100
AcDbLine
 10
158.1146329170912
 20
329.2999163646781
 30
0.0
 11
161.1146329170912
 21
331.031967172247
 31
0.0
  0
CIRCLE
  5
E4D
330
2
100
AcDbEntity
  8
0
100
AcDbCircle
 10
161.1146329170912
 20
327.5678655571092
 30
0.0
 40
6.5
  0
LINE
  5
E4E
330
2
100
AcDbEntity
  8
0
100
AcDbLine
 10
164.1146329170912
 20
329.2999163646781
 30
0.0
 11
161.1146329170912
 21
331.0319671722469
 31
0.0
  0
LINE
  5
E4F
330
2
100
AcDbEntity
  8
0
100
AcDbLine
 10
161.1146329170912
 20
324.1037639419717
 30
0.0
 11
158.1146329170912
 21
325.8358147495404
 31
0.0
  0
LINE
  5
E50
330
2
100
AcDbEntity
  8
0
100
AcDbLine
 10
164.1146329170912
 20
325.8358147495406
 30
0.0
 11
164.1146329170912
 21
329.2999163646782
 31
0.0
  0
LINE
  5
E51
330
2
100
AcDbEntity
  8
0
100
AcDbLine
 10
158.1146329170912
 20
325.8358147495403
 30
0.0
 11
158.1146329170912
 21
329.2999163646781
 31
0.0
  0
CIRCLE
  5
E52
330
2
100
AcDbEntity
  8
0
100
AcDbCircle
 10
161.1146329170912
 20
327.5678655571092
 30
0.0
 40
5.633974596215466
  0
LINE
  5
E53
330
2
100
AcDbEntity
  8
0
100
AcDbLine
 10
276.1146329170908
 20
324.1037639419715
 30
0.0
 11
279.1146329170903
 21
325.8358147495405
 31
0.0
  0
LINE
  5
E54
330
2
100
AcDbEntity
  8
0
100
AcDbLine
 10
273.1146329170908
 20
329.2999163646781
 30
0.0
 11
276.1146329170908
 21
331.031967172247
 31
0.0
  0
CIRCLE
  5
E55
330
2
100
AcDbEntity
  8
0
100
AcDbCircle
 10
276.1146329170908
 20
327.5678655571092
 30
0.0
 40
6.5
  0
LINE
  5
E56
330
2
100
AcDbEntity
  8
0
100
AcDbLine
 10
279.1146329170903
 20
329.2999163646781
 30
0.0
 11
276.1146329170908
 21
331.0319671722469
 31
0.0
  0
LINE
  5
E57
330
2
100
AcDbEntity
  8
0
100
AcDbLine
 10
276.1146329170908
 20
324.1037639419717
 30
0.0
 11
273.1146329170908
 21
325.8358147495404
 31
0.0
  0
LINE
  5
E58
330
2
100
AcDbEntity
  8
0
100
AcDbLine
 10
279.1146329170903
 20
325.8358147495406
 30
0.0
 11
279.1146329170903
 21
329.2999163646782
 31
0.0
  0
LINE
  5
E59
330
2
100
AcDbEntity
  8
0
100
AcDbLine
 10
273.1146329170908
 20
325.8358147495403
 30
0.0
 11
273.1146329170908
 21
329.2999163646781
 31
0.0
  0
CIRCLE
  5
E5A
330
2
100
AcDbEntity
  8
0
100
AcDbCircle
 10
276.1146329170908
 20
327.5678655571092
 30
0.0
 40
5.633974596215466
  0
LINE
  5
E5B
330
2
100
AcDbEntity
  8
HIDS
  6
SEKKEI_H
100
AcDbLine
 10
406.0202955304114
 20
440.23943843193
 30
0.0
 11
406.0202955304164
 21
436.0678655566773
 31
0.0
  0
LINE
  5
E5C
330
2
100
AcDbEntity
  8
HIDS
  6
SEKKEI_H
100
AcDbLine
 10
406.0202955304118
 20
329.8962926814245
 30
0.0
 11
406.0202955304168
 21
334.0678655566772
 31
0.0
  0
ARC
  5
E5D
330
2
100
AcDbEntity
  8
HIDS
  6
SEKKEI_H
100
AcDbCircle
 10
407.5202955304123
 20
435.150851673815
 30
0.0
 40
10.00000000000001
100
AcDbArc
 50
90.47745377731077
 51
119.9999999999698
  0
ARC
  5
E5E
330
2
100
AcDbEntity
  8
HIDS
  6
SEKKEI_H
100
AcDbCircle
 10
407.5202955304123
 20
334.9848794395394
 30
0.0
 40
10.00000000000001
100
AcDbArc
 50
240.00000000003
 51
269.5225462226892
  0
LINE
  5
E5F
330
2
100
AcDbEntity
  8
HIDS
  6
SEKKEI_H
100
AcDbLine
 10
728.5946935603167
 20
821.4012521591458
 30
0.0
 11
724.4231206850638
 21
821.4012521591508
 31
0.0
  0
LINE
  5
E60
330
2
100
AcDbEntity
  8
HIDS
  6
SEKKEI_H
100
AcDbLine
 10
830.5946935603166
 20
821.4012521591467
 30
0.0
 11
834.7662664355691
 21
821.4012521591516
 31
0.0
  0
CIRCLE
  5
E61
330
2
100
AcDbEntity
  8
0
100
AcDbCircle
 10
276.1146329170908
 20
327.5678655571092
 30
0.0
 40
7.25
  0
CIRCLE
  5
E62
330
2
100
AcDbEntity
  8
0
100
AcDbCircle
 10
276.1146329170908
 20
442.5678655571094
 30
0.0
 40
7.25
  0
CIRCLE
  5
E63
330
2
100
AcDbEntity
  8
0
100
AcDbCircle
 10
161.1146329170912
 20
442.5678655571095
 30
0.0
 40
7.25
  0
CIRCLE
  5
E64
330
2
100
AcDbEntity
  8
0
100
AcDbCircle
 10
161.1146329170912
 20
327.5678655571092
 30
0.0
 40
7.25
  0
LINE
  5
E65
330
2
100
AcDbEntity
  8
0
 48
0.3
100
AcDbLine
 10
410.5202955304164
 20
449.8178655566773
 30
0.0
 11
410.5202955304164
 21
435.3178655566773
 31
0.0
  0
LINE
  5
E66
330
2
100
AcDbEntity
  8
0
 48
0.3
100
AcDbLine
 10
410.5202955304164
 20
435.3178655566773
 30
0.0
 11
412.5202955304164
 21
435.3178655566773
 31
0.0
  0
LINE
  5
E67
330
2
100
AcDbEntity
  8
0
 48
0.3
100
AcDbLine
 10
410.5202955304164
 20
449.8178655566773
 30
0.0
 11
412.5202955304164
 21
449.8178655566773
 31
0.0
  0
LINE
  5
E68
330
2
100
AcDbEntity
  8
0
100
AcDbLine
 10
412.5202955304164
 20
449.8178655566773
 30
0.0
 11
412.5202955304164
 21
435.3178655566773
 31
0.0
  0
LINE
  5
E69
330
2
100
AcDbEntity
  8
0
 48
0.3
100
AcDbLine
 10
410.5202955304169
 20
334.8178655566773
 30
0.0
 11
410.5202955304169
 21
320.3178655566773
 31
0.0
  0
LINE
  5
E6A
330
2
100
AcDbEntity
  8
0
 48
0.3
100
AcDbLine
 10
410.5202955304169
 20
320.3178655566773
 30
0.0
 11
412.5202955304168
 21
320.3178655566773
 31
0.0
  0
LINE
  5
E6B
330
2
100
AcDbEntity
  8
0
 48
0.3
100
AcDbLine
 10
410.5202955304169
 20
334.8178655566773
 30
0.0
 11
412.5202955304168
 21
334.8178655566773
 31
0.0
  0
LINE
  5
E6C
330
2
100
AcDbEntity
  8
0
100
AcDbLine
 10
412.5202955304168
 20
334.8178655566773
 30
0.0
 11
412.5202955304168
 21
320.3178655566773
 31
0.0
  0
LINE
  5
E6D
330
2
100
AcDbEntity
  8
0
 48
0.3
100
AcDbLine
 10
729.3446935603167
 20
816.9012521591458
 30
0.0
 11
714.8446935603167
 21
816.9012521591458
 31
0.0
  0
LINE
  5
E6E
330
2
100
AcDbEntity
  8
0
 48
0.3
100
AcDbLine
 10
714.8446935603167
 20
816.9012521591458
 30
0.0
 11
714.8446935603167
 21
814.9012521591457
 31
0.0
  0
LINE
  5
E6F
330
2
100
AcDbEntity
  8
0
 48
0.3
100
AcDbLine
 10
729.3446935603167
 20
816.901252159146
 30
0.0
 11
729.3446935603167
 21
814.901252159146
 31
0.0
  0
LINE
  5
E70
330
2
100
AcDbEntity
  8
0
100
AcDbLine
 10
729.3446935603167
 20
814.901252159146
 30
0.0
 11
714.8446935603167
 21
814.9012521591457
 31
0.0
  0
LINE
  5
E71
330
2
100
AcDbEntity
  8
0
 48
0.3
100
AcDbLine
 10
844.3446935603168
 20
816.9012521591467
 30
0.0
 11
829.8446935603166
 21
816.9012521591467
 31
0.0
  0
LINE
  5
E72
330
2
100
AcDbEntity
  8
0
 48
0.3
100
AcDbLine
 10
829.8446935603166
 20
816.9012521591467
 30
0.0
 11
829.8446935603166
 21
814.9012521591464
 31
0.0
  0
LINE
  5
E73
330
2
100
AcDbEntity
  8
0
 48
0.3
100
AcDbLine
 10
844.3446935603168
 20
816.9012521591467
 30
0.0
 11
844.3446935603168
 21
814.9012521591467
 31
0.0
  0
LINE
  5
E74
330
2
100
AcDbEntity
  8
0
100
AcDbLine
 10
844.3446935603168
 20
814.9012521591467
 30
0.0
 11
829.8446935603166
 21
814.9012521591467
 31
0.0
  0
LINE
  5
E83
330
2
100
AcDbEntity
  8
0
 48
0.5
100
AcDbLine
 10
422.52029553042
 20
317.5722289905735
 30
0.0
 11
524.5202955304123
 21
318.4623695052288
 31
0.0
  0
LINE
  5
E84
330
2
100
AcDbEntity
  8
0
 48
0.5
100
AcDbLine
 10
422.52029553042
 20
452.563502122781
 30
0.0
 11
524.520295530405
 21
451.6733616081258
 31
0.0
  0
LINE
  5
E8C
330
2
100
AcDbEntity
  8
0
100
AcDbLine
 10
90.61463291665381
 20
445.5678655566773
 30
0.0
 11
104.6146329166601
 21
445.5678655566773
 31
0.0
  0
ARC
  5
E8D
330
2
100
AcDbEntity
  8
0
100
AcDbCircle
 10
104.6146329166601
 20
326.5678655566773
 30
0.0
 40
2.0
100
AcDbArc
 50
270.0
 51
0.0
  0
LINE
  5
E8E
330
2
100
AcDbEntity
  8
0
100
AcDbLine
 10
90.61463291665381
 20
324.5678655566774
 30
0.0
 11
104.6146329166601
 21
324.5678655566773
 31
0.0
  0
LINE
  5
E93
330
2
100
AcDbEntity
  8
CENTER
100
AcDbLine
 10
413.7497952098844
 20
65.65228194551446
 30
0.0
 11
594.7497952098799
 21
65.65228194551446
 31
0.0
  0
LINE
  5
E94
330
2
100
AcDbEntity
  8
0
100
AcDbLine
 10
426.7497952098835
 20
101.6522819455144
 30
0.0
 11
436.7497952098836
 21
101.6522819455144
 31
0.0
  0
LINE
  5
E95
330
2
100
AcDbEntity
  8
0
100
AcDbLine
 10
557.7497952098808
 20
5.65228194551345
 30
0.0
 11
557.7497952098804
 21
42.31805496090498
 31
0.0
  0
LINE
  5
E96
330
2
100
AcDbEntity
  8
0
100
AcDbLine
 10
557.7497952098794
 20
88.98650893012268
 30
0.0
 11
557.749795209879
 21
125.6522819455144
 31
0.0
  0
LINE
  5
E97
330
2
100
AcDbEntity
  8
CENTER
100
AcDbLine
 10
485.749795209879
 20
-11.54265846566641
 30
0.0
 11
485.749795209879
 21
142.8472223566954
 31
0.0
  0
LINE
  5
E98
330
2
100
AcDbEntity
  8
0
100
AcDbLine
 10
450.7497952098799
 20
133.1522819455144
 30
0.0
 11
450.7497952098822
 21
87.2929430209777
 31
0.0
  0
LINE
  5
E99
330
2
100
AcDbEntity
  8
0
100
AcDbLine
 10
450.7497952098849
 20
44.01162087005118
 30
0.0
 11
450.7497952098872
 21
-1.84771805448463
 31
0.0
  0
LINE
  5
E9A
330
2
100
AcDbEntity
  8
0
100
AcDbLine
 10
552.7497952098794
 20
-0.9532141059339664
 30
0.0
 11
552.7497952098772
 21
44.49978666539126
 31
0.0
  0
LINE
  5
E9B
330
2
100
AcDbEntity
  8
0
100
AcDbLine
 10
552.7497952098749
 20
86.80477722563756
 30
0.0
 11
552.7497952098721
 21
132.2577779969629
 31
0.0
  0
LINE
  5
E9C
330
2
100
AcDbEntity
  8
0
100
AcDbLine
 10
450.749795209884
 20
8.152281945515369
 30
0.0
 11
551.2497952098776
 21
8.152281945514459
 31
0.0
  0
LINE
  5
E9D
330
2
100
AcDbEntity
  8
0
100
AcDbLine
 10
551.2497952098772
 20
18.15228194551536
 30
0.0
 11
450.7497952098836
 21
18.15228194551536
 31
0.0
  0
LINE
  5
E9E
330
2
100
AcDbEntity
  8
0
100
AcDbLine
 10
551.2497952098763
 20
41.0914916548113
 30
0.0
 11
450.7497952098836
 21
41.09149165481039
 31
0.0
  0
LINE
  5
E9F
330
2
100
AcDbEntity
  8
0
100
AcDbLine
 10
450.7497952098836
 20
123.1522819455136
 30
0.0
 11
551.2497952098776
 21
123.1522819455144
 31
0.0
  0
LINE
  5
EA0
330
2
100
AcDbEntity
  8
0
100
AcDbLine
 10
551.2497952098772
 20
113.1522819455135
 30
0.0
 11
450.7497952098836
 21
113.1522819455135
 31
0.0
  0
LINE
  5
EA1
330
2
100
AcDbEntity
  8
0
100
AcDbLine
 10
551.2497952098763
 20
90.21307223621761
 30
0.0
 11
450.7497952098836
 21
90.21307223621858
 31
0.0
  0
LINE
  5
EA2
330
2
100
AcDbEntity
  8
0
 48
0.5
100
AcDbLine
 10
552.7497952098794
 20
5.652281945514459
 30
0.0
 11
557.7497952098808
 21
5.65228194551345
 31
0.0
  0
LINE
  5
EA3
330
2
100
AcDbEntity
  8
0
 48
0.5
100
AcDbLine
 10
552.7497952098794
 20
125.6522819455144
 30
0.0
 11
557.7497952098794
 21
125.6522819455144
 31
0.0
  0
LINE
  5
EA4
330
2
100
AcDbEntity
  8
0
100
AcDbLine
 10
570.0970915652135
 20
21.86086570184465
 30
0.0
 11
564.3606097885456
 21
20.84936919027552
 31
0.0
  0
LINE
  5
EA5
330
2
100
AcDbEntity
  8
0
100
AcDbLine
 10
570.0970915652135
 20
109.4436981891843
 30
0.0
 11
564.3606097885437
 21
110.4551947007537
 31
0.0
  0
ARC
  5
EA6
330
2
100
AcDbEntity
  8
0
100
AcDbCircle
 10
569.7497952098794
 20
107.4740826831599
 30
0.0
 40
2.0
100
AcDbArc
 50
0.0
 51
79.99999999999481
  0
LINE
  5
EA7
330
2
100
AcDbEntity
  8
0
100
AcDbLine
 10
571.7497952098795
 20
23.83048120786907
 30
0.0
 11
571.749795209879
 21
41.15228194551355
 31
0.0
  0
LINE
  5
EA8
330
2
100
AcDbEntity
  8
0
100
AcDbLine
 10
571.7497952098795
 20
90.15228194551481
 30
0.0
 11
571.7497952098795
 21
107.4740826831599
 31
0.0
  0
ARC
  5
EA9
330
2
100
AcDbEntity
  8
0
100
AcDbCircle
 10
569.7497952098794
 20
23.83048120786907
 30
0.0
 40
2.0
100
AcDbArc
 50
280.0000000000051
 51
0.0
  0
ARC
  5
EAA
330
2
100
AcDbEntity
  8
0
100
AcDbCircle
 10
565.7497952098808
 20
12.9709071661781
 30
0.0
 40
8.0
100
AcDbArc
 50
100.0000000000051
 51
180.0
  0
ARC
  5
EAB
330
2
100
AcDbEntity
  8
0
100
AcDbCircle
 10
565.7497952098794
 20
118.3336567248513
 30
0.0
 40
8.0
100
AcDbArc
 50
180.0
 51
259.9999999999948
  0
LINE
  5
EAC
330
2
100
AcDbEntity
  8
0
100
AcDbLine
 10
425.7497952098881
 20
90.15228194551463
 30
0.0
 11
425.7497952098881
 21
107.5749316763268
 31
0.0
  0
LINE
  5
EAD
330
2
100
AcDbEntity
  8
0
 48
0.5
100
AcDbLine
 10
442.7323421388867
 20
133.082314692545
 30
0.0
 11
450.7497952098831
 21
133.1522819455143
 31
0.0
  0
ARC
  5
EAE
330
2
100
AcDbEntity
  8
0
100
AcDbCircle
 10
442.7497952098836
 20
131.0823908464167
 30
0.0
 40
2.0
100
AcDbArc
 50
90.49999999999155
 51
180.0
  0
ARC
  5
EAF
330
2
100
AcDbEntity
  8
0
 48
0.5
100
AcDbCircle
 10
427.9497952098838
 20
107.8522819455143
 30
0.0
 40
0.3
100
AcDbArc
 50
0.0000000000065138
 51
90.0
  0
ARC
  5
EB0
330
2
100
AcDbEntity
  8
0
100
AcDbCircle
 10
428.5497952098837
 20
107.7522819455144
 30
0.0
 40
0.3
100
AcDbArc
 50
180.0000000000065
 51
270.0
  0
LINE
  5
EB1
330
2
100
AcDbEntity
  8
0
100
AcDbLine
 10
433.7497952098836
 20
110.1522819455148
 30
0.0
 11
433.749795209884
 21
108.1522819455148
 31
0.0
  0
LINE
  5
EB2
330
2
100
AcDbEntity
  8
0
 48
0.5
100
AcDbLine
 10
430.4497952098838
 20
108.1522819455148
 30
0.0
 11
433.749795209884
 21
108.1522819455148
 31
0.0
  0
LINE
  5
EB3
330
2
100
AcDbEntity
  8
0
 48
0.5
100
AcDbLine
 10
428.5497952098837
 20
107.4522819455145
 30
0.0
 11
429.9497952098838
 21
107.4522819455145
 31
0.0
  0
LINE
  5
EB4
330
2
100
AcDbEntity
  8
0
 48
0.5
100
AcDbLine
 10
430.2497952098836
 20
107.9522819455145
 30
0.0
 11
430.4497952098838
 21
108.1522819455148
 31
0.0
  0
LINE
  5
EB5
330
2
100
AcDbEntity
  8
0
100
AcDbLine
 10
430.2497952098836
 20
107.9522819455145
 30
0.0
 11
430.249795209884
 21
104.7310457751831
 31
0.0
  0
ARC
  5
EB6
330
2
100
AcDbEntity
  8
0
100
AcDbCircle
 10
429.9497952098838
 20
107.7522819455147
 30
0.0
 40
0.3
100
AcDbArc
 50
270.0
 51
0.0000000000065138
  0
ARC
  5
EB7
330
2
100
AcDbEntity
  8
HIDS
  6
SEKKEI_H
100
AcDbCircle
 10
436.2497952098785
 20
120.8238548207673
 30
0.0
 40
2.0
100
AcDbArc
 50
135.0000000000086
 51
180.0000000000065
  0
ARC
  5
EB8
330
2
100
AcDbEntity
  8
HIDS
  6
SEKKEI_H
100
AcDbCircle
 10
438.7497952098831
 20
128.9807090702606
 30
0.0
 40
2.0
100
AcDbArc
 50
315.0000000000086
 51
0.0
  0
LINE
  5
EB9
330
2
100
AcDbEntity
  8
HIDS
  6
SEKKEI_H
100
AcDbLine
 10
440.1640087722564
 20
127.5664955078875
 30
0.0
 11
434.8355816475075
 21
122.2380683831379
 31
0.0
  0
LINE
  5
EBA
330
2
100
AcDbEntity
  8
0
 48
0.5
100
AcDbLine
 10
434.2497952098836
 20
110.6522819455147
 30
0.0
 11
433.7497952098836
 21
110.1522819455148
 31
0.0
  0
LINE
  5
EBB
330
2
100
AcDbEntity
  8
0
100
AcDbLine
 10
434.2497952098836
 20
116.6522819455144
 30
0.0
 11
434.249795209884
 21
110.652281945515
 31
0.0
  0
LINE
  5
EBC
330
2
100
AcDbEntity
  8
0
100
AcDbLine
 10
426.749795209884
 20
108.1522819455143
 30
0.0
 11
425.749795209884
 21
107.5749316763243
 31
0.0
  0
LINE
  5
EBD
330
2
100
AcDbEntity
  8
0
 48
0.5
100
AcDbLine
 10
426.7497952098835
 20
108.1522819455143
 30
0.0
 11
427.9497952098838
 21
108.1522819455143
 31
0.0
  0
LINE
  5
EBE
330
2
100
AcDbEntity
  8
0
100
AcDbLine
 10
428.249795209884
 20
107.8522819455143
 30
0.0
 11
428.249795209884
 21
104.7852429748468
 31
0.0
  0
LINE
  5
EBF
330
2
100
AcDbEntity
  8
0
100
AcDbLine
 10
425.7497952098881
 20
41.15228194551346
 30
0.0
 11
425.7497952098885
 21
23.72963221470186
 31
0.0
  0
LINE
  5
EC0
330
2
100
AcDbEntity
  8
0
 48
0.5
100
AcDbLine
 10
442.7323421388871
 20
-1.777750801516219
 30
0.0
 11
450.7497952098836
 21
-1.847718054485426
 31
0.0
  0
LINE
  5
EC1
330
2
100
AcDbEntity
  8
0
100
AcDbLine
 10
440.749795209884
 20
0.2221730446121057
 30
0.0
 11
440.749795209884
 21
41.59754138360375
 31
0.0
  0
LINE
  5
EC2
330
2
100
AcDbEntity
  8
0
100
AcDbLine
 10
440.7497952098835
 20
89.70702250742533
 30
0.0
 11
440.7497952098835
 21
131.0823908464167
 31
0.0
  0
ARC
  5
EC3
330
2
100
AcDbEntity
  8
0
100
AcDbCircle
 10
442.749795209884
 20
0.2221730446121342
 30
0.0
 40
2.0
100
AcDbArc
 50
180.0
 51
269.5000000000084
  0
ARC
  5
EC4
330
2
100
AcDbEntity
  8
0
 48
0.5
100
AcDbCircle
 10
427.9497952098843
 20
23.45228194551435
 30
0.0
 40
0.3
100
AcDbArc
 50
270.0
 51
359.9999999999934
  0
ARC
  5
EC5
330
2
100
AcDbEntity
  8
0
100
AcDbCircle
 10
428.5497952098842
 20
23.55228194551426
 30
0.0
 40
0.3
100
AcDbArc
 50
90.0
 51
179.9999999999934
  0
LINE
  5
EC6
330
2
100
AcDbEntity
  8
0
100
AcDbLine
 10
433.749795209884
 20
21.15228194551397
 30
0.0
 11
433.749795209884
 21
23.15228194551397
 31
0.0
  0
LINE
  5
EC7
330
2
100
AcDbEntity
  8
0
 48
0.5
100
AcDbLine
 10
430.4497952098842
 20
23.15228194551394
 30
0.0
 11
433.749795209884
 21
23.15228194551397
 31
0.0
  0
LINE
  5
EC8
330
2
100
AcDbEntity
  8
0
 48
0.5
100
AcDbLine
 10
428.5497952098842
 20
23.85228194551422
 30
0.0
 11
429.9497952098843
 21
23.85228194551422
 31
0.0
  0
LINE
  5
EC9
330
2
100
AcDbEntity
  8
0
 48
0.5
100
AcDbLine
 10
430.249795209884
 20
23.35228194551422
 30
0.0
 11
430.4497952098842
 21
23.15228194551394
 31
0.0
  0
ARC
  5
ECA
330
2
100
AcDbEntity
  8
0
100
AcDbCircle
 10
429.9497952098843
 20
23.55228194551404
 30
0.0
 40
0.3
100
AcDbArc
 50
359.9999999999934
 51
90.0
  0
ARC
  5
ECB
330
2
100
AcDbEntity
  8
HIDS
  6
SEKKEI_H
100
AcDbCircle
 10
436.249795209879
 20
10.48070907026146
 30
0.0
 40
2.0
100
AcDbArc
 50
179.9999999999934
 51
224.9999999999912
  0
ARC
  5
ECC
330
2
100
AcDbEntity
  8
HIDS
  6
SEKKEI_H
100
AcDbCircle
 10
438.7497952098835
 20
2.323854820768133
 30
0.0
 40
2.0
100
AcDbArc
 50
0.0
 51
44.99999999999128
  0
LINE
  5
ECD
330
2
100
AcDbEntity
  8
HIDS
  6
SEKKEI_H
100
AcDbLine
 10
440.1640087722569
 20
3.738068383141268
 30
0.0
 11
434.835581647508
 21
9.066495507890863
 31
0.0
  0
LINE
  5
ECE
330
2
100
AcDbEntity
  8
0
 48
0.5
100
AcDbLine
 10
434.249795209884
 20
20.65228194551397
 30
0.0
 11
433.749795209884
 21
21.15228194551397
 31
0.0
  0
LINE
  5
ECF
330
2
100
AcDbEntity
  8
0
100
AcDbLine
 10
434.249795209884
 20
14.65228194551445
 30
0.0
 11
434.2497952098844
 21
20.65228194551374
 31
0.0
  0
LINE
  5
ED0
330
2
100
AcDbEntity
  8
0
100
AcDbLine
 10
426.749795209884
 20
23.15228194551437
 30
0.0
 11
425.749795209884
 21
23.72963221470436
 31
0.0
  0
LINE
  5
ED1
330
2
100
AcDbEntity
  8
0
 48
0.5
100
AcDbLine
 10
426.749795209884
 20
23.15228194551437
 30
0.0
 11
427.9497952098843
 21
23.1522819455144
 31
0.0
  0
LINE
  5
ED2
330
2
100
AcDbEntity
  8
0
100
AcDbLine
 10
426.7497952098835
 20
101.6522819455144
 30
0.0
 11
426.7497952098835
 21
90.15228194551458
 31
0.0
  0
LINE
  5
ED3
330
2
100
AcDbEntity
  8
0
100
AcDbLine
 10
436.7497952098831
 20
101.6522819455144
 30
0.0
 11
436.7497952098836
 21
90.15228194551426
 31
0.0
  0
LINE
  5
ED4
330
2
100
AcDbEntity
  8
0
100
AcDbLine
 10
430.4497952098838
 20
104.7219661616836
 30
0.0
 11
430.4497952098838
 21
108.1522819455148
 31
0.0
  0
LINE
  5
ED5
330
2
100
AcDbEntity
  8
0
100
AcDbLine
 10
433.749795209884
 20
108.1522819455148
 30
0.0
 11
433.749795209884
 21
104.4270257538626
 31
0.0
  0
LINE
  5
ED6
330
2
100
AcDbEntity
  8
0
100
AcDbLine
 10
434.249795209884
 20
104.3385661016295
 30
0.0
 11
434.249795209884
 21
110.652281945515
 31
0.0
  0
LINE
  5
ED7
330
2
100
AcDbEntity
  8
0
100
AcDbLine
 10
450.7497952098831
 20
133.1522819455143
 30
0.0
 11
450.7497952098836
 21
87.29294302097773
 31
0.0
  0
LINE
  5
ED8
330
2
100
AcDbEntity
  8
0
100
AcDbLine
 10
450.7497952098836
 20
44.01162087005121
 30
0.0
 11
450.749795209884
 21
-1.847718054485426
 31
0.0
  0
LINE
  5
ED9
330
2
100
AcDbEntity
  8
0
100
AcDbLine
 10
450.7497952098836
 20
113.1522819455139
 30
0.0
 11
442.2497952098836
 21
113.1522819455138
 31
0.0
  0
LINE
  5
EDA
330
2
100
AcDbEntity
  8
0
100
AcDbLine
 10
450.7497952098836
 20
90.21307223622756
 30
0.0
 11
442.2497952098836
 21
90.21307223622761
 31
0.0
  0
LINE
  5
EDB
330
2
100
AcDbEntity
  8
0
100
AcDbLine
 10
450.7497952098836
 20
123.1522819459464
 30
0.0
 11
442.2497952098836
 21
123.1522819459464
 31
0.0
  0
LINE
  5
EDC
330
2
100
AcDbEntity
  8
0
100
AcDbLine
 10
450.7497952098836
 20
18.15228194551505
 30
0.0
 11
442.2497952098836
 21
18.15228194551494
 31
0.0
  0
LINE
  5
EDD
330
2
100
AcDbEntity
  8
0
100
AcDbLine
 10
450.7497952098836
 20
41.09149165480121
 30
0.0
 11
442.2497952098836
 21
41.09149165480118
 31
0.0
  0
LINE
  5
EDE
330
2
100
AcDbEntity
  8
0
100
AcDbLine
 10
450.749795209884
 20
8.152281945082421
 30
0.0
 11
442.249795209884
 21
8.152281945082364
 31
0.0
  0
LINE
  5
EE5
330
2
100
AcDbEntity
  8
0
 48
0.3
100
AcDbLine
 10
431.2497952098835
 20
14.65228194551445
 30
0.0
 11
431.249795209884
 21
1.652281945514459
 31
0.0
  0
LINE
  5
EE6
330
2
100
AcDbEntity
  8
0
 48
0.3
100
AcDbLine
 10
430.7497952098835
 20
13.78625654172856
 30
0.0
 11
430.749795209884
 21
2.518307349298993
 31
0.0
  0
LINE
  5
EE7
330
2
100
AcDbEntity
  8
CENTER
 48
0.5
100
AcDbLine
 10
427.749795209884
 20
8.152281945514459
 30
0.0
 11
446.749795209884
 21
8.152281945514459
 31
0.0
  0
LINE
  5
EE8
330
2
100
AcDbEntity
  8
0
 48
0.3
100
AcDbLine
 10
431.249795209884
 20
1.652281945514459
 30
0.0
 11
430.749795209884
 21
2.518307349298993
 31
0.0
  0
LINE
  5
EE9
330
2
100
AcDbEntity
  8
0
 48
0.3
100
AcDbLine
 10
431.249795209884
 20
1.652281945514459
 30
0.0
 11
438.749795209884
 21
1.652281945514459
 31
0.0
  0
LINE
  5
EEA
330
2
100
AcDbEntity
  8
0
 48
0.3
100
AcDbLine
 10
431.2497952098844
 20
14.652281945514
 30
0.0
 11
430.7497952098844
 21
13.7862565417297
 31
0.0
  0
LINE
  5
EEB
330
2
100
AcDbEntity
  8
0
 48
0.3
100
AcDbLine
 10
431.2497952098844
 20
14.65228194551445
 30
0.0
 11
438.7497952098835
 21
14.65228194551445
 31
0.0
  0
LINE
  5
EEC
330
2
100
AcDbEntity
  8
0
 48
0.3
100
AcDbLine
 10
431.2497952098835
 20
129.6522819455144
 30
0.0
 11
431.2497952098835
 21
116.6522819455144
 31
0.0
  0
LINE
  5
EED
330
2
100
AcDbEntity
  8
0
 48
0.3
100
AcDbLine
 10
430.7497952098835
 20
128.7862565417285
 30
0.0
 11
430.7497952098835
 21
117.518307349299
 31
0.0
  0
LINE
  5
EEE
330
2
100
AcDbEntity
  8
CENTER
 48
0.5
100
AcDbLine
 10
427.7497952098835
 20
123.1522819455144
 30
0.0
 11
446.7497952098836
 21
123.1522819455144
 31
0.0
  0
LINE
  5
EEF
330
2
100
AcDbEntity
  8
0
 48
0.3
100
AcDbLine
 10
431.2497952098835
 20
116.6522819455144
 30
0.0
 11
430.7497952098835
 21
117.518307349299
 31
0.0
  0
LINE
  5
EF0
330
2
100
AcDbEntity
  8
0
 48
0.3
100
AcDbLine
 10
431.2497952098835
 20
116.6522819455144
 30
0.0
 11
438.7497952098835
 21
116.6522819455144
 31
0.0
  0
LINE
  5
EF1
330
2
100
AcDbEntity
  8
0
 48
0.3
100
AcDbLine
 10
431.249795209884
 20
129.652281945514
 30
0.0
 11
430.749795209884
 21
128.7862565417297
 31
0.0
  0
LINE
  5
EF2
330
2
100
AcDbEntity
  8
0
 48
0.3
100
AcDbLine
 10
431.2497952098844
 20
129.6522819455144
 30
0.0
 11
438.7497952098835
 21
129.6522819455144
 31
0.0
  0
LINE
  5
EF3
330
2
100
AcDbEntity
  8
HIDS
  6
SEKKEI_H
100
AcDbLine
 10
434.2497952098786
 20
120.8238548207671
 30
0.0
 11
434.2497952098836
 21
116.6522819455144
 31
0.0
  0
LINE
  5
EF4
330
2
100
AcDbEntity
  8
HIDS
  6
SEKKEI_H
100
AcDbLine
 10
434.249795209879
 20
10.48070907026169
 30
0.0
 11
434.249795209884
 21
14.65228194551445
 31
0.0
  0
LINE
  5
EF7
330
2
100
AcDbEntity
  8
0
 48
0.3
100
AcDbLine
 10
438.7497952098835
 20
130.4022819455144
 30
0.0
 11
438.7497952098835
 21
115.9022819455144
 31
0.0
  0
LINE
  5
EF8
330
2
100
AcDbEntity
  8
0
 48
0.3
100
AcDbLine
 10
438.7497952098835
 20
115.9022819455144
 30
0.0
 11
440.7497952098835
 21
115.9022819455144
 31
0.0
  0
LINE
  5
EF9
330
2
100
AcDbEntity
  8
0
 48
0.3
100
AcDbLine
 10
438.7497952098835
 20
130.4022819455144
 30
0.0
 11
440.7497952098835
 21
130.4022819455144
 31
0.0
  0
LINE
  5
EFA
330
2
100
AcDbEntity
  8
0
100
AcDbLine
 10
440.7497952098835
 20
130.4022819455144
 30
0.0
 11
440.7497952098835
 21
115.9022819455144
 31
0.0
  0
LINE
  5
EFB
330
2
100
AcDbEntity
  8
0
 48
0.3
100
AcDbLine
 10
438.749795209884
 20
15.40228194551445
 30
0.0
 11
438.749795209884
 21
0.9022819455144599
 31
0.0
  0
LINE
  5
EFC
330
2
100
AcDbEntity
  8
0
 48
0.3
100
AcDbLine
 10
438.749795209884
 20
0.9022819455144599
 30
0.0
 11
440.749795209884
 21
0.9022819455144599
 31
0.0
  0
LINE
  5
EFD
330
2
100
AcDbEntity
  8
0
 48
0.3
100
AcDbLine
 10
438.749795209884
 20
15.40228194551445
 30
0.0
 11
440.749795209884
 21
15.40228194551445
 31
0.0
  0
LINE
  5
EFE
330
2
100
AcDbEntity
  8
0
100
AcDbLine
 10
440.749795209884
 20
15.40228194551445
 30
0.0
 11
440.749795209884
 21
0.9022819455144599
 31
0.0
  0
LINE
  5
EFF
330
2
100
AcDbEntity
  8
0
100
AcDbLine
 10
459.7497952098844
 20
82.152281945514
 30
0.0
 11
541.7497952098795
 21
82.15228194551377
 31
0.0
  0
LINE
  5
F00
330
2
100
AcDbEntity
  8
0
100
AcDbLine
 10
582.7497952098794
 20
81.65228194551366
 30
0.0
 11
582.7497952098794
 21
49.65228194551378
 31
0.0
  0
LINE
  5
F01
330
2
100
AcDbEntity
  8
CENTER
100
AcDbLine
 10
576.2497952098795
 20
79.18596380475361
 30
0.0
 11
576.2497952098795
 21
93.10680274917473
 31
0.0
  0
LINE
  5
F02
330
2
100
AcDbEntity
  8
0
100
AcDbLine
 10
584.7497952098795
 20
90.15228194551481
 30
0.0
 11
584.7497952098795
 21
41.15228194551355
 31
0.0
  0
LINE
  5
F03
330
2
100
AcDbEntity
  8
0
100
AcDbLine
 10
541.7497952098795
 20
82.15228194551377
 30
0.0
 11
541.7497952098795
 21
65.65228194551384
 31
0.0
  0
LINE
  5
F04
330
2
100
AcDbEntity
  8
0
100
AcDbLine
 10
580.7497952098795
 20
82.15228194551366
 30
0.0
 11
580.7497952098795
 21
49.15228194551378
 31
0.0
  0
LINE
  5
F05
330
2
100
AcDbEntity
  8
0
100
AcDbLine
 10
559.0997952098794
 20
82.50228194551368
 30
0.0
 11
559.0997952098794
 21
48.80228194551364
 31
0.0
  0
LINE
  5
F06
330
2
100
AcDbEntity
  8
0
100
AcDbLine
 10
557.7497952098794
 20
82.50228194551368
 30
0.0
 11
557.7497952098794
 21
48.80228194551364
 31
0.0
  0
LINE
  5
F07
330
2
100
AcDbEntity
  8
0
100
AcDbLine
 10
558.371164557984
 20
90.15228194551468
 30
0.0
 11
584.7497952098795
 21
90.15228194551491
 31
0.0
  0
LINE
  5
F08
330
2
100
AcDbEntity
  8
0
100
AcDbLine
 10
559.0997952098794
 20
81.65228194551378
 30
0.0
 11
571.7497952098795
 21
81.65228194551366
 31
0.0
  0
LINE
  5
F09
330
2
100
AcDbEntity
  8
0
100
AcDbLine
 10
571.7497952098795
 20
82.15228194551366
 30
0.0
 11
580.7497952098795
 21
82.15228194551377
 31
0.0
  0
LINE
  5
F0A
330
2
100
AcDbEntity
  8
0
100
AcDbLine
 10
580.7497952098795
 20
81.65228194551355
 30
0.0
 11
582.7497952098794
 21
81.65228194551366
 31
0.0
  0
LINE
  5
F0B
330
2
100
AcDbEntity
  8
0
100
AcDbLine
 10
582.7497952098794
 20
81.65228194551366
 30
0.0
 11
584.7497952098795
 21
82.80698248389297
 31
0.0
  0
LINE
  5
F0C
330
2
100
AcDbEntity
  8
0
100
AcDbLine
 10
541.7497952098795
 20
81.65228194551389
 30
0.0
 11
557.7497952098794
 21
81.65228194551378
 31
0.0
  0
LINE
  5
F0D
330
2
100
AcDbEntity
  8
0
100
AcDbLine
 10
557.7497952098794
 20
82.50228194551368
 30
0.0
 11
559.0997952098794
 21
82.50228194551368
 31
0.0
  0
LINE
  5
F0E
330
2
100
AcDbEntity
  8
0
100
AcDbLine
 10
558.3711645579844
 20
41.15228194551355
 30
0.0
 11
584.7497952098795
 21
41.15228194551355
 31
0.0
  0
LINE
  5
F0F
330
2
100
AcDbEntity
  8
0
100
AcDbLine
 10
559.0997952098794
 20
49.65228194551355
 30
0.0
 11
571.7497952098795
 21
49.65228194551378
 31
0.0
  0
LINE
  5
F10
330
2
100
AcDbEntity
  8
0
100
AcDbLine
 10
571.7497952098795
 20
49.15228194551378
 30
0.0
 11
580.7497952098795
 21
49.15228194551378
 31
0.0
  0
LINE
  5
F11
330
2
100
AcDbEntity
  8
HOJO
100
AcDbLine
 10
580.2497952098795
 20
84.95228194551378
 30
0.0
 11
580.2497952098795
 21
90.15228194551406
 31
0.0
  0
LINE
  5
F12
330
2
100
AcDbEntity
  8
0
100
AcDbLine
 10
579.4497952098793
 20
84.95228194551378
 30
0.0
 11
579.4497952098793
 21
90.15228194551406
 31
0.0
  0
LINE
  5
F13
330
2
100
AcDbEntity
  8
0
100
AcDbLine
 10
580.7497952098795
 20
49.65228194551378
 30
0.0
 11
582.7497952098794
 21
49.65228194551378
 31
0.0
  0
LINE
  5
F14
330
2
100
AcDbEntity
  8
0
100
AcDbLine
 10
582.7497952098794
 20
49.652281945514
 30
0.0
 11
584.7497952098795
 21
48.49758140713447
 31
0.0
  0
LINE
  5
F15
330
2
100
AcDbEntity
  8
0
100
AcDbLine
 10
557.7497952098794
 20
48.80228194551364
 30
0.0
 11
559.0997952098794
 21
48.80228194551364
 31
0.0
  0
LINE
  5
F16
330
2
100
AcDbEntity
  8
0
100
AcDbLine
 10
425.7497952098844
 20
81.65228194551401
 30
0.0
 11
425.7497952098844
 21
49.652281945514
 31
0.0
  0
LINE
  5
F17
330
2
100
AcDbEntity
  8
0
100
AcDbLine
 10
423.7497952098845
 20
90.15228194551468
 30
0.0
 11
423.7497952098845
 21
41.152281945514
 31
0.0
  0
LINE
  5
F18
330
2
100
AcDbEntity
  8
0
100
AcDbLine
 10
459.7497952098844
 20
82.15228194551389
 30
0.0
 11
459.749795209884
 21
65.65228194551394
 31
0.0
  0
LINE
  5
F19
330
2
100
AcDbEntity
  8
0
100
AcDbLine
 10
440.3997952098846
 20
82.50228194551391
 30
0.0
 11
440.3997952098846
 21
48.8022819455141
 31
0.0
  0
LINE
  5
F1A
330
2
100
AcDbEntity
  8
0
100
AcDbLine
 10
441.7497952098845
 20
82.50228194551391
 30
0.0
 11
441.7497952098845
 21
48.8022819455141
 31
0.0
  0
LINE
  5
F1B
330
2
100
AcDbEntity
  8
0
100
AcDbLine
 10
425.7497952098844
 20
81.65228194551401
 30
0.0
 11
440.3997952098846
 21
81.65228194551401
 31
0.0
  0
LINE
  5
F1C
330
2
100
AcDbEntity
  8
0
100
AcDbLine
 10
440.3890691831882
 20
90.15228194551415
 30
0.0
 11
423.7497952098845
 21
90.15228194551468
 31
0.0
  0
LINE
  5
F1D
330
2
100
AcDbEntity
  8
0
100
AcDbLine
 10
441.7497952098845
 20
81.65228194551401
 30
0.0
 11
459.7497952098844
 21
81.65228194551389
 31
0.0
  0
LINE
  5
F1E
330
2
100
AcDbEntity
  8
0
100
AcDbLine
 10
440.3997952098846
 20
82.50228194551391
 30
0.0
 11
441.7497952098845
 21
82.50228194551391
 31
0.0
  0
LINE
  5
F1F
330
2
100
AcDbEntity
  8
0
100
AcDbLine
 10
425.7497952098821
 20
81.65228194551355
 30
0.0
 11
423.7497952098817
 21
82.80698248389251
 31
0.0
  0
LINE
  5
F20
330
2
100
AcDbEntity
  8
0
100
AcDbLine
 10
440.3890691831877
 20
41.15228194551398
 30
0.0
 11
423.7497952098845
 21
41.15228194551337
 31
0.0
  0
LINE
  5
F21
330
2
100
AcDbEntity
  8
0
100
AcDbLine
 10
425.7497952098844
 20
49.652281945514
 30
0.0
 11
440.3997952098846
 21
49.652281945514
 31
0.0
  0
LINE
  5
F22
330
2
100
AcDbEntity
  8
0
100
AcDbLine
 10
440.3997952098846
 20
48.8022819455141
 30
0.0
 11
441.7497952098845
 21
48.8022819455141
 31
0.0
  0
LINE
  5
F23
330
2
100
AcDbEntity
  8
0
100
AcDbLine
 10
425.7497952098844
 20
49.652281945514
 30
0.0
 11
423.7497952098845
 21
48.4975814071347
 31
0.0
  0
LINE
  5
F24
330
2
100
AcDbEntity
  8
HOJO
100
AcDbLine
 10
572.2497952098795
 20
84.95228194551382
 30
0.0
 11
572.2497952098795
 21
90.1522819455141
 31
0.0
  0
LINE
  5
F25
330
2
100
AcDbEntity
  8
0
100
AcDbLine
 10
573.0497952098792
 20
84.95228194551382
 30
0.0
 11
573.0497952098792
 21
90.1522819455141
 31
0.0
  0
LINE
  5
F26
330
2
100
AcDbEntity
  8
0
100
AcDbLine
 10
571.7497952098795
 20
82.15228194551366
 30
0.0
 11
571.7497952098795
 21
49.15228194551378
 31
0.0
  0
LINE
  5
F27
330
2
100
AcDbEntity
  8
0
 48
0.5
100
AcDbLine
 10
571.7497952098795
 20
82.15228194551377
 30
0.0
 11
571.7497952098795
 21
49.15228194551378
 31
0.0
  0
LINE
  5
F28
330
2
100
AcDbEntity
  8
0
100
AcDbLine
 10
423.7497952098845
 20
84.95228494551382
 30
0.0
 11
584.7497952098795
 21
84.95228494551383
 31
0.0
  0
LINE
  5
F29
330
2
100
AcDbEntity
  8
0
100
AcDbLine
 10
459.7497952098844
 20
49.1522819455152
 30
0.0
 11
541.7497952098795
 21
49.15228194551435
 31
0.0
  0
LINE
  5
F2A
330
2
100
AcDbEntity
  8
0
100
AcDbLine
 10
541.7497952098795
 20
49.15228194551435
 30
0.0
 11
541.7497952098795
 21
65.65228194551432
 31
0.0
  0
LINE
  5
F2B
330
2
100
AcDbEntity
  8
0
100
AcDbLine
 10
541.7497952098795
 20
49.65228194551423
 30
0.0
 11
557.7497952098794
 21
49.65228194551418
 31
0.0
  0
LINE
  5
F2C
330
2
100
AcDbEntity
  8
0
100
AcDbLine
 10
459.7497952098844
 20
49.15228194551531
 30
0.0
 11
459.749795209884
 21
65.65228194551526
 31
0.0
  0
LINE
  5
F2D
330
2
100
AcDbEntity
  8
0
100
AcDbLine
 10
441.7497952098845
 20
49.65228194551542
 30
0.0
 11
459.7497952098844
 21
49.65228194551531
 31
0.0
  0
LINE
  5
F2E
330
2
100
AcDbEntity
  8
0
100
AcDbLine
 10
436.7497952098836
 20
101.6522819455144
 30
0.0
 11
426.7497952098835
 21
90.15228194551458
 31
0.0
  0
LINE
  5
F2F
330
2
100
AcDbEntity
  8
0
100
AcDbLine
 10
426.7497952098835
 20
101.6522819455144
 30
0.0
 11
436.7497952098836
 21
90.15228194551426
 31
0.0
  0
LINE
  5
F30
330
2
100
AcDbEntity
  8
0
100
AcDbLine
 10
426.7497952098835
 20
90.15228194551458
 30
0.0
 11
436.7497952098836
 21
90.15228194551426
 31
0.0
  0
LINE
  5
F31
330
2
100
AcDbEntity
  8
0
100
AcDbLine
 10
560.7497952098794
 20
101.652281945515
 30
0.0
 11
570.7497952098795
 21
101.652281945515
 31
0.0
  0
LINE
  5
F32
330
2
100
AcDbEntity
  8
0
100
AcDbLine
 10
560.7497952098794
 20
101.652281945515
 30
0.0
 11
560.7497952098794
 21
90.15228194551514
 31
0.0
  0
LINE
  5
F33
330
2
100
AcDbEntity
  8
0
100
AcDbLine
 10
570.749795209879
 20
101.652281945515
 30
0.0
 11
570.7497952098795
 21
90.15228194551481
 31
0.0
  0
LINE
  5
F34
330
2
100
AcDbEntity
  8
0
100
AcDbLine
 10
570.7497952098795
 20
101.652281945515
 30
0.0
 11
560.7497952098794
 21
90.15228194551514
 31
0.0
  0
LINE
  5
F35
330
2
100
AcDbEntity
  8
0
100
AcDbLine
 10
560.7497952098794
 20
101.652281945515
 30
0.0
 11
570.7497952098795
 21
90.15228194551481
 31
0.0
  0
LINE
  5
F36
330
2
100
AcDbEntity
  8
0
100
AcDbLine
 10
560.7497952098794
 20
90.15228194551514
 30
0.0
 11
570.7497952098795
 21
90.15228194551481
 31
0.0
  0
LINE
  5
F37
330
2
100
AcDbEntity
  8
0
100
AcDbLine
 10
426.7497952098876
 20
101.6522819455144
 30
0.0
 11
425.7497952098876
 21
102.229632214704
 31
0.0
  0
LINE
  5
F38
330
2
100
AcDbEntity
  8
0
100
AcDbLine
 10
438.03124105769
 20
102.0748083273608
 30
0.0
 11
436.7497952098908
 21
102.0300592522937
 31
0.0
  0
LINE
  5
F39
330
2
100
AcDbEntity
  8
0
100
AcDbLine
 10
436.7497952098908
 20
102.0300592522937
 30
0.0
 11
436.7497952098831
 21
101.6522819455144
 31
0.0
  0
SPLINE
  5
F3A
330
2
100
AcDbEntity
  8
HOJO
100
AcDbSpline
210
0.0
220
0.0
230
1.0
 70
     8
 71
     3
 72
    29
 73
    25
 74
    23
 42
0.0000000001
 43
0.0000000001
 44
0.0000000001
 40
0.0
 40
0.0
 40
0.0
 40
0.0
 40
6.445364168595244
 40
11.6005599060358
 40
16.43116643330773
 40
23.39935915012152
 40
28.86322000075915
 40
37.18645652083846
 40
41.19132774222779
 40
51.06271043180663
 40
57.00790235621015
 40
65.41939714830168
 40
72.69987336758835
 40
79.44282627976336
 40
87.34366366321456
 40
98.11595080058189
 40
106.7574459398993
 40
119.0295999011755
 40
129.4569000974927
 40
143.0549393859583
 40
150.8384148048675
 40
157.773767995327
 40
165.4374744840414
 40
170.8106207466574
 40
170.8106207466574
 40
170.8106207466574
 40
170.8106207466574
 10
425.7497952098881
 20
104.7946791299091
 30
0.0
 10
427.8530018543898
 20
104.7967827438319
 30
0.0
 10
431.6384163067175
 20
104.800568891316
 30
0.0
 10
437.6104604287332
 20
103.9173389645155
 30
0.0
 10
439.9279911163439
 20
97.96444494298709
 30
0.0
 10
438.1905943768115
 20
92.03808277320419
 30
0.0
 10
443.8966866319717
 20
86.23538300887545
 30
0.0
 10
450.2170570960827
 20
87.74381790532375
 30
0.0
 10
457.4657396194482
 20
86.33577720355328
 30
0.0
 10
464.1188484384916
 20
85.92336999216778
 30
0.0
 10
472.1705339322989
 20
86.81672046337428
 30
0.0
 10
479.369834461895
 20
85.92107917049347
 30
0.0
 10
486.8608910489493
 20
86.04104038749307
 30
0.0
 10
494.1274323615837
 20
87.04642365413107
 30
0.0
 10
502.608966414214
 20
86.27850559154001
 30
0.0
 10
511.7132786095819
 20
87.15798800747345
 30
0.0
 10
522.2271134912815
 20
86.80147927799733
 30
0.0
 10
532.9056792815966
 20
85.98758846101665
 30
0.0
 10
544.1240902909616
 20
88.44534420864984
 30
0.0
 10
557.9898622067559
 20
84.72676734875381
 30
0.0
 10
559.7043643456308
 20
95.69812969532511
 30
0.0
 10
557.4767674937111
 20
104.0982429672971
 30
0.0
 10
565.8676456453422
 20
106.0484318521424
 30
0.0
 10
570.0330297757854
 20
105.8306787482176
 30
0.0
 10
571.749795209879
 20
105.7409316828143
 30
0.0
 11
425.7497952098881
 21
104.7946791299091
 31
0.0
 11
432.1924358040384
 21
104.6073253458071
 31
0.0
 11
437.1249317478093
 21
103.1084835075835
 31
0.0
 11
439.1664003072608
 21
98.73045135351095
 31
0.0
 11
439.5060387281725
 21
91.77054075913565
 31
0.0
 11
443.2844898148694
 21
87.82375944006435
 31
0.0
 11
451.5897548203017
 21
87.27709742499246
 31
0.0
 11
455.5607284654786
 21
86.75713414818984
 31
0.0
 11
465.4162083145718
 21
86.19703313209084
 31
0.0
 11
471.3518944170616
 21
86.53309489829098
 31
0.0
 11
479.7514458999183
 21
86.08501061579046
 31
0.0
 11
487.0310602396646
 21
86.19703313209084
 31
0.0
 11
493.7507105897627
 21
86.75713414818984
 31
0.0
 11
501.6494230078758
 21
86.57390343109728
 31
0.0
 11
512.4145396433475
 21
86.9668843397685
 31
0.0
 11
521.0542196959802
 21
86.78977750481317
 31
0.0
 11
533.3242452810143
 21
86.56122774682444
 31
0.0
 11
543.7181449941424
 21
87.39515708289037
 31
0.0
 11
557.2783622138874
 21
88.40865668525111
 31
0.0
 11
559.0968660263067
 21
95.97671677228664
 31
0.0
 11
559.2613381515682
 21
102.9101194575796
 31
0.0
 11
566.3766728061371
 21
105.7569439865337
 31
0.0
 11
571.749795209879
 21
105.7409316828143
 31
0.0
  0
LINE
  5
F3B
330
2
100
AcDbEntity
  8
0
100
AcDbLine
 10
570.7497952098781
 20
101.6522819455144
 30
0.0
 11
560.7497952098794
 21
101.6522819455144
 31
0.0
  0
LINE
  5
F3C
330
2
100
AcDbEntity
  8
0
100
AcDbLine
 10
570.7497952098795
 20
101.6522819455144
 30
0.0
 11
571.7497952098795
 21
102.2296322147044
 31
0.0
  0
LINE
  5
F3D
330
2
100
AcDbEntity
  8
0
100
AcDbLine
 10
560.7497952098799
 20
102.1521438474676
 30
0.0
 11
558.9421954141974
 21
102.1994775139469
 31
0.0
  0
LINE
  5
F3E
330
2
100
AcDbEntity
  8
0
100
AcDbLine
 10
560.7497952098799
 20
102.1521438474676
 30
0.0
 11
560.7497952098794
 21
101.652281945515
 31
0.0
  0
LINE
  5
F3F
330
2
100
AcDbEntity
  8
0
100
AcDbLine
 10
426.7497952098835
 20
29.65228194551446
 30
0.0
 11
436.7497952098836
 21
29.65228194551446
 31
0.0
  0
LINE
  5
F40
330
2
100
AcDbEntity
  8
0
100
AcDbLine
 10
426.7497952098835
 20
29.65228194551446
 30
0.0
 11
426.7497952098835
 21
41.15228194551434
 31
0.0
  0
LINE
  5
F41
330
2
100
AcDbEntity
  8
0
100
AcDbLine
 10
436.7497952098831
 20
29.65228194551446
 30
0.0
 11
436.7497952098836
 21
41.15228194551465
 31
0.0
  0
LINE
  5
F42
330
2
100
AcDbEntity
  8
0
100
AcDbLine
 10
436.7497952098836
 20
29.65228194551446
 30
0.0
 11
426.7497952098835
 21
41.15228194551434
 31
0.0
  0
LINE
  5
F43
330
2
100
AcDbEntity
  8
0
100
AcDbLine
 10
426.7497952098835
 20
29.65228194551446
 30
0.0
 11
436.7497952098836
 21
41.15228194551465
 31
0.0
  0
LINE
  5
F44
330
2
100
AcDbEntity
  8
0
100
AcDbLine
 10
426.7497952098835
 20
41.15228194551434
 30
0.0
 11
436.7497952098836
 21
41.15228194551465
 31
0.0
  0
LINE
  5
F45
330
2
100
AcDbEntity
  8
0
100
AcDbLine
 10
560.7497952098794
 20
29.65228194551391
 30
0.0
 11
570.7497952098795
 21
29.65228194551391
 31
0.0
  0
LINE
  5
F46
330
2
100
AcDbEntity
  8
0
100
AcDbLine
 10
560.7497952098794
 20
29.65228194551391
 30
0.0
 11
560.7497952098794
 21
41.15228194551377
 31
0.0
  0
LINE
  5
F47
330
2
100
AcDbEntity
  8
0
100
AcDbLine
 10
570.749795209879
 20
29.65228194551391
 30
0.0
 11
570.7497952098795
 21
41.15228194551412
 31
0.0
  0
LINE
  5
F48
330
2
100
AcDbEntity
  8
0
100
AcDbLine
 10
570.7497952098795
 20
29.65228194551391
 30
0.0
 11
560.7497952098794
 21
41.15228194551377
 31
0.0
  0
LINE
  5
F49
330
2
100
AcDbEntity
  8
0
100
AcDbLine
 10
560.7497952098794
 20
29.65228194551391
 30
0.0
 11
570.7497952098795
 21
41.15228194551412
 31
0.0
  0
LINE
  5
F4A
330
2
100
AcDbEntity
  8
0
100
AcDbLine
 10
560.7497952098794
 20
41.15228194551377
 30
0.0
 11
570.7497952098795
 21
41.15228194551412
 31
0.0
  0
LINE
  5
F4B
330
2
100
AcDbEntity
  8
0
100
AcDbLine
 10
426.7497952098876
 20
29.65228194551446
 30
0.0
 11
425.7497952098876
 21
29.07493167632492
 31
0.0
  0
LINE
  5
F4C
330
2
100
AcDbEntity
  8
0
100
AcDbLine
 10
438.03124105769
 20
29.22975556366807
 30
0.0
 11
436.7497952098908
 21
29.27450463873521
 31
0.0
  0
LINE
  5
F4D
330
2
100
AcDbEntity
  8
0
100
AcDbLine
 10
436.7497952098908
 20
29.27450463873521
 30
0.0
 11
436.7497952098831
 21
29.65228194551446
 31
0.0
  0
LINE
  5
F4E
330
2
100
AcDbEntity
  8
0
100
AcDbLine
 10
570.7497952098781
 20
29.65228194551446
 30
0.0
 11
560.7497952098794
 21
29.65228194551446
 31
0.0
  0
LINE
  5
F4F
330
2
100
AcDbEntity
  8
0
100
AcDbLine
 10
570.7497952098795
 20
29.65228194551446
 30
0.0
 11
571.7497952098795
 21
29.07493167632447
 31
0.0
  0
LINE
  5
F50
330
2
100
AcDbEntity
  8
0
100
AcDbLine
 10
560.7497952098799
 20
29.15242004356128
 30
0.0
 11
558.9421954141974
 21
29.10508637708199
 31
0.0
  0
LINE
  5
F51
330
2
100
AcDbEntity
  8
0
100
AcDbLine
 10
560.7497952098799
 20
29.15242004356128
 30
0.0
 11
560.7497952098794
 21
29.65228194551391
 31
0.0
  0
SPLINE
  5
F52
330
2
100
AcDbEntity
  8
HOJO
100
AcDbSpline
210
0.0
220
0.0
230
1.0
 70
     8
 71
     3
 72
    29
 73
    25
 74
    23
 42
0.0000000001
 43
0.0000000001
 44
0.0000000001
 40
0.0
 40
0.0
 40
0.0
 40
0.0
 40
6.445364168595244
 40
11.6005599060358
 40
16.43116643330773
 40
23.39935915012152
 40
28.86322000075915
 40
37.18645652083846
 40
41.19132774222779
 40
51.06271043180663
 40
57.00790235621015
 40
65.41939714830168
 40
72.69987336758835
 40
79.44282627976336
 40
87.34366366321456
 40
98.11595080058189
 40
106.7574459398993
 40
119.0295999011755
 40
129.4569000974927
 40
143.0549393859583
 40
150.8384148048675
 40
157.773767995327
 40
165.4374744840414
 40
170.8106207466574
 40
170.8106207466574
 40
170.8106207466574
 40
170.8106207466574
 10
425.7497952098881
 20
26.50988476111979
 30
0.0
 10
427.8530018543898
 20
26.50778114719695
 30
0.0
 10
431.6384163067175
 20
26.50399499971285
 30
0.0
 10
437.6104604287332
 20
27.38722492651337
 30
0.0
 10
439.9279911163439
 20
33.34011894804184
 30
0.0
 10
438.1905943768115
 20
39.26648111782469
 30
0.0
 10
443.8966866319717
 20
45.06918088215347
 30
0.0
 10
450.2170570960827
 20
43.56074598570518
 30
0.0
 10
457.4657396194482
 20
44.96878668747562
 30
0.0
 10
464.1188484384916
 20
45.38119389886114
 30
0.0
 10
472.1705339322989
 20
44.48784342765467
 30
0.0
 10
479.369834461895
 20
45.38348472053541
 30
0.0
 10
486.8608910489493
 20
45.26352350353583
 30
0.0
 10
494.1274323615837
 20
44.25814023689785
 30
0.0
 10
502.608966414214
 20
45.02605829948895
 30
0.0
 10
511.7132786095819
 20
44.14657588355544
 30
0.0
 10
522.2271134912815
 20
44.50308461303158
 30
0.0
 10
532.9056792815966
 20
45.31697543001228
 30
0.0
 10
544.1240902909616
 20
42.8592196823791
 30
0.0
 10
557.9898622067559
 20
46.57779654227506
 30
0.0
 10
559.7043643456308
 20
35.60643419570379
 30
0.0
 10
557.4767674937111
 20
27.20632092373171
 30
0.0
 10
565.8676456453422
 20
25.25613203888648
 30
0.0
 10
570.0330297757854
 20
25.4738851428113
 30
0.0
 10
571.749795209879
 20
25.56363220821458
 30
0.0
 11
425.7497952098881
 21
26.50988476111979
 31
0.0
 11
432.1924358040384
 21
26.6972385452218
 31
0.0
 11
437.1249317478093
 21
28.1960803834454
 31
0.0
 11
439.1664003072608
 21
32.57411253751797
 31
0.0
 11
439.5060387281725
 21
39.53402313189326
 31
0.0
 11
443.2844898148694
 21
43.48080445096456
 31
0.0
 11
451.5897548203017
 21
44.02746646603645
 31
0.0
 11
455.5607284654786
 21
44.54742974283909
 31
0.0
 11
465.4162083145718
 21
45.10753075893808
 31
0.0
 11
471.3518944170616
 21
44.77146899273793
 31
0.0
 11
479.7514458999183
 21
45.21955327523847
 31
0.0
 11
487.0310602396646
 21
45.10753075893808
 31
0.0
 11
493.7507105897627
 21
44.54742974283909
 31
0.0
 11
501.6494230078758
 21
44.73066045993164
 31
0.0
 11
512.4145396433475
 21
44.3376795512604
 31
0.0
 11
521.0542196959802
 21
44.51478638621575
 31
0.0
 11
533.3242452810143
 21
44.74333614420447
 31
0.0
 11
543.7181449941424
 21
43.90940680813855
 31
0.0
 11
557.2783622138874
 21
42.8959072057778
 31
0.0
 11
559.0968660263067
 21
35.32784711874228
 31
0.0
 11
559.2613381515682
 21
28.39444443344928
 31
0.0
 11
566.3766728061371
 21
25.54761990449515
 31
0.0
 11
571.749795209879
 21
25.56363220821458
 31
0.0
  0
LINE
  5
F53
330
2
100
AcDbEntity
  8
0
100
AcDbLine
 10
426.749795209884
 20
23.15228194551437
 30
0.0
 11
426.749795209884
 21
26.50965484978007
 31
0.0
  0
LINE
  5
F54
330
2
100
AcDbEntity
  8
0
100
AcDbLine
 10
428.2497952098845
 20
23.45228194551432
 30
0.0
 11
428.2497952098845
 21
26.51932091618206
 31
0.0
  0
LINE
  5
F55
330
2
100
AcDbEntity
  8
0
100
AcDbLine
 10
430.249795209884
 20
23.35228194551422
 30
0.0
 11
430.249795209884
 21
26.57351811584698
 31
0.0
  0
LINE
  5
F56
330
2
100
AcDbEntity
  8
0
100
AcDbLine
 10
433.749795209884
 20
23.15228194551397
 30
0.0
 11
433.749795209884
 21
26.87753813716625
 31
0.0
  0
LINE
  5
F57
330
2
100
AcDbEntity
  8
0
100
AcDbLine
 10
434.2497952098844
 20
20.65228194551374
 30
0.0
 11
434.2497952098844
 21
26.96599778939929
 31
0.0
  0
LINE
  5
F58
330
2
100
AcDbEntity
  8
0
100
AcDbLine
 10
430.4497952098842
 20
23.15228194551394
 30
0.0
 11
430.4497952098842
 21
26.58259772934596
 31
0.0
  0
LINE
  5
F59
330
2
100
AcDbEntity
  8
0
 48
0.5
100
AcDbLine
 10
450.7497952098872
 20
-1.843354620589252
 30
0.0
 11
552.7497952098794
 21
-0.9532141059339522
 31
0.0
  0
LINE
  5
F5A
330
2
100
AcDbEntity
  8
0
 48
0.5
100
AcDbLine
 10
450.7497952098872
 20
133.1479185116181
 30
0.0
 11
552.7497952098721
 21
132.2577779969629
 31
0.0
  0
LINE
  5
F5B
330
2
100
AcDbEntity
  8
0
100
AcDbLine
 10
213.6146329175232
 20
404.3678685566773
 30
0.0
 11
223.6146329175233
 21
404.3678685566773
 31
0.0
  0
LINE
  5
F5C
330
2
100
AcDbEntity
  8
0
100
AcDbLine
 10
213.6146329175232
 20
404.3678685566773
 30
0.0
 11
213.6146329175232
 21
400.2665497102478
 31
0.0
  0
LINE
  5
F5D
330
2
100
AcDbEntity
  8
0
100
AcDbLine
 10
223.6146329175233
 20
404.3678685566773
 30
0.0
 11
223.6146329175233
 21
400.2665497102478
 31
0.0
  0
ARC
  5
F5E
330
2
100
AcDbEntity
  8
0
100
AcDbCircle
 10
218.6146329175233
 20
385.0678655566771
 30
0.0
 40
15.99999999999977
100
AcDbArc
 50
108.2099568642829
 51
71.790043135717
  0
ARC
  5
F5F
330
2
100
AcDbEntity
  8
0
100
AcDbCircle
 10
218.6146329175233
 20
385.0678655566771
 30
0.0
 40
17.1547005383793
100
AcDbArc
 50
106.9457019888465
 51
73.05429801115348
  0
LINE
  5
F60
330
2
100
AcDbEntity
  8
0
100
AcDbLine
 10
556.5202955304123
 20
360.5678655566764
 30
0.0
 11
556.5202955304128
 21
409.5678655566776
 31
0.0
  0
LINE
  5
F61
330
2
100
AcDbEntity
  8
0
100
AcDbLine
 10
543.5202955304123
 20
360.5678655566764
 30
0.0
 11
556.5202955304123
 21
360.5678655566762
 31
0.0
  0
LINE
  5
F62
330
2
100
AcDbEntity
  8
0
100
AcDbLine
 10
543.5202955304127
 20
409.5678655566776
 30
0.0
 11
556.5202955304123
 21
409.5678655566776
 31
0.0
  0
CIRCLE
  5
F63
330
2
100
AcDbEntity
  8
HOJO
 48
0.5
100
AcDbCircle
 10
548.0202955304128
 20
385.0678655566774
 30
0.0
 40
4.0
  0
CIRCLE
  5
F64
330
2
100
AcDbEntity
  8
0
 48
0.5
100
AcDbCircle
 10
548.0202955304128
 20
385.0678655566774
 30
0.0
 40
3.2
  0
LINE
  5
F65
330
2
100
AcDbEntity
  8
0
100
AcDbLine
 10
395.5202955304173
 20
360.5678655566765
 30
0.0
 11
395.5202955304173
 21
409.5678655566771
 31
0.0
  0
LINE
  5
F66
330
2
100
AcDbEntity
  8
0
100
AcDbLine
 10
397.5202955304177
 20
360.5678655566765
 30
0.0
 11
395.5202955304173
 21
360.5678655566765
 31
0.0
  0
LINE
  5
F67
330
2
100
AcDbEntity
  8
0
100
AcDbLine
 10
397.5202955304173
 20
409.5678655566777
 30
0.0
 11
395.5202955304173
 21
409.5678655566779
 31
0.0
  0
LINE
  5
F68
330
2
100
AcDbEntity
  8
CENTER
100
AcDbLine
 10
548.0202955304128
 20
376.0342544549927
 30
0.0
 11
548.0202955304128
 21
393.1930715029918
 31
0.0
  0
LINE
  5
F69
330
2
100
AcDbEntity
  8
PHAS
  6
SEKKEI_P_S
100
AcDbLine
 10
405.0202955304173
 20
429.5678655607572
 30
0.0
 11
405.0202955304164
 21
340.5678655525989
 31
0.0
  0
LINE
  5
F6A
330
2
100
AcDbEntity
  8
PHAS
  6
SEKKEI_P_S
100
AcDbLine
 10
371.5202955304164
 20
357.4423131512767
 30
0.0
 11
371.5202955304164
 21
412.6934179539222
 31
0.0
  0
LINE
  5
F6B
330
2
100
AcDbEntity
  8
PHAS
  6
SEKKEI_P_S
100
AcDbLine
 10
395.2202955304171
 20
426.4487141269555
 30
0.0
 11
395.2202955304171
 21
385.0678655525989
 31
0.0
  0
LINE
  5
F6C
330
2
100
AcDbEntity
  8
PHAS
  6
SEKKEI_P_S
100
AcDbLine
 10
405.0202955304164
 20
340.5678655525989
 30
0.0
 11
398.1679383111047
 21
340.6874738927736
 31
0.0
  0
ARC
  5
F6D
330
2
100
AcDbEntity
  8
PHAS
  6
SEKKEI_P_S
100
AcDbCircle
 10
394.2202955304171
 20
348.2287659214225
 30
0.0
 40
1.0
100
AcDbArc
 50
0.0
 51
79.99999999999484
  0
LINE
  5
F6E
330
2
100
AcDbEntity
  8
PHAS
  6
SEKKEI_P_S
100
AcDbLine
 10
394.3939437080832
 20
349.2135736744339
 30
0.0
 11
375.6520546420822
 21
352.5182743862151
 31
0.0
  0
LINE
  5
F6F
330
2
100
AcDbEntity
  8
PHAS
  6
SEKKEI_P_S
100
AcDbLine
 10
395.2202955304171
 20
343.6870169782423
 30
0.0
 11
395.2202955304171
 21
385.0678655525989
 31
0.0
  0
ARC
  5
F70
330
2
100
AcDbEntity
  8
PHAS
  6
SEKKEI_P_S
100
AcDbCircle
 10
376.5202955304164
 20
357.4423131512767
 30
0.0
 40
5.0
100
AcDbArc
 50
180.0
 51
259.9999999999948
  0
ARC
  5
F71
330
2
100
AcDbEntity
  8
PHAS
  6
SEKKEI_P_S
100
AcDbCircle
 10
398.2202955304171
 20
343.6870169782423
 30
0.0
 40
3.0
100
AcDbArc
 50
180.0
 51
268.9999999999721
  0
ARC
  5
F72
330
2
100
AcDbEntity
  8
PHAS
  6
SEKKEI_P_S
100
AcDbCircle
 10
394.2202955304171
 20
421.9069651837763
 30
0.0
 40
1.0
100
AcDbArc
 50
280.0000000000051
 51
0.0
  0
LINE
  5
F73
330
2
100
AcDbEntity
  8
PHAS
  6
SEKKEI_P_S
100
AcDbLine
 10
394.3939437080832
 20
420.9221574307639
 30
0.0
 11
375.6520546420822
 21
417.6174567189837
 31
0.0
  0
ARC
  5
F74
330
2
100
AcDbEntity
  8
PHAS
  6
SEKKEI_P_S
100
AcDbCircle
 10
376.5202955304164
 20
412.6934179539222
 30
0.0
 40
5.0
100
AcDbArc
 50
100.0000000000051
 51
180.0
  0
LINE
  5
F75
330
2
100
AcDbEntity
  8
PHAS
  6
SEKKEI_P_S
100
AcDbLine
 10
405.0202955304173
 20
429.5678655607572
 30
0.0
 11
398.1679383111047
 21
429.4482572205825
 31
0.0
  0
ARC
  5
F76
330
2
100
AcDbEntity
  8
PHAS
  6
SEKKEI_P_S
100
AcDbCircle
 10
398.2202955304171
 20
426.4487141351137
 30
0.0
 40
3.0
100
AcDbArc
 50
91.00000000002784
 51
180.0
  0
LINE
  5
F77
330
2
100
AcDbEntity
  8
CENTER
100
AcDbLine
 10
788.560789058665
 20
679.4012521591505
 30
0.0
 11
768.479492164233
 21
679.4012521591501
 31
0.0
  0
LINE
  5
F78
330
2
100
AcDbEntity
  8
0
100
AcDbLine
 10
755.0946935603158
 20
670.9012521591505
 30
0.0
 11
804.0946935603171
 21
670.9012521591501
 31
0.0
  0
LINE
  5
F79
330
2
100
AcDbEntity
  8
0
100
AcDbLine
 10
755.0946935603158
 20
683.9012521591505
 30
0.0
 11
755.0946935603158
 21
670.9012521591505
 31
0.0
  0
LINE
  5
F7A
330
2
100
AcDbEntity
  8
0
100
AcDbLine
 10
804.0946935603168
 20
683.90125215915
 30
0.0
 11
804.0946935603171
 21
670.9012521591505
 31
0.0
  0
CIRCLE
  5
F7B
330
2
100
AcDbEntity
  8
HOJO
 48
0.5
100
AcDbCircle
 10
779.5946935603167
 20
679.4012521591501
 30
0.0
 40
4.0
  0
CIRCLE
  5
F7C
330
2
100
AcDbEntity
  8
0
 48
0.5
100
AcDbCircle
 10
779.5946935603167
 20
679.4012521591501
 30
0.0
 40
3.2
  0
LINE
  5
F7D
330
2
100
AcDbEntity
  8
0
100
AcDbLine
 10
755.0946935603153
 20
831.9012521591455
 30
0.0
 11
804.0946935603157
 21
831.9012521591455
 31
0.0
  0
LINE
  5
F7E
330
2
100
AcDbEntity
  8
0
100
AcDbLine
 10
755.0946935603153
 20
829.901252159145
 30
0.0
 11
755.0946935603153
 21
831.9012521591455
 31
0.0
  0
LINE
  5
F7F
330
2
100
AcDbEntity
  8
0
100
AcDbLine
 10
804.0946935603162
 20
829.9012521591455
 30
0.0
 11
804.0946935603162
 21
831.9012521591455
 31
0.0
  0
CIRCLE
  5
F86
330
2
100
AcDbEntity
  8
0
100
AcDbCircle
 10
218.6146329157192
 20
385.0678655557381
 30
0.0
 40
24.5
  0
LINE
  5
1147
330
2
100
AcDbEntity
  8
0
100
AcDbLine
 10
907.5946935603218
 20
445.0678655566789
 30
0.0
 11
907.5946935603218
 21
325.0678655566771
 31
0.0
  0
ARC
  5
1208
330
2
100
AcDbEntity
  8
0
100
AcDbCircle
 10
407.4373094132726
 20
435.0678655566873
 30
0.0
 40
10.0
100
AcDbArc
 50
134.6637861676429
 51
179.5225462226762
  0
LINE
  5
1209
330
2
100
AcDbEntity
  8
0
100
AcDbLine
 10
397.4376566174114
 20
435.151195996653
 30
0.0
 11
397.2244621970762
 21
409.5678655566779
 31
0.0
  0
ARC
  5
120C
330
2
100
AcDbEntity
  8
0
100
AcDbCircle
 10
407.4373094132726
 20
335.0678655566677
 30
0.0
 40
10.0
100
AcDbArc
 50
180.4774537773237
 51
225.3362138322008
  0
LINE
  5
120D
330
2
100
AcDbEntity
  8
0
100
AcDbLine
 10
397.4376566174114
 20
334.9845351167015
 30
0.0
 11
397.2244621970762
 21
360.5678655566765
 31
0.0
  0
LINE
  5
120F
330
2
100
AcDbEntity
  8
0
100
AcDbLine
 10
90.61463291665381
 20
445.0678655566791
 30
0.0
 11
90.61463291665381
 21
325.0678655566773
 31
0.0
  0
TEXT
  5
1B1C
330
2
100
AcDbEntity
  8
TITLE
100
AcDbText
 10
401.3548919300465
 20
808.9742159285346
 30
0.0
 40
10.0
  1
AFCZ32S-7.5~10M2000K41
100
AcDbText
  0
TEXT
  5
1B1D
330
2
100
AcDbEntity
  8
TITLE
100
AcDbText
 10
401.3548919300465
 20
792.9321720757311
 30
0.0
 40
10.0
  1
AFCZ32S-7.5~10L2000K41
100
AcDbText
  0
LINE
  5
1D94
330
2
100
AcDbEntity
  8
0
100
AcDbLine
 10
907.5946935603218
 20
445.067865556679
 30
0.0
 11
907.5946935603218
 21
325.0678655566772
 31
0.0
  0
LINE
  5
1FEE
330
2
100
AcDbEntity
  8
0
100
AcDbLine
 10
907.5946935603218
 20
445.067865556679
 30
0.0
 11
907.5946935603218
 21
325.0678655566772
 31
0.0
  0
LINE
  5
227C
330
2
100
AcDbEntity
  8
0
100
AcDbLine
 10
907.5946935603218
 20
445.067865556679
 30
0.0
 11
907.5946935603218
 21
325.0678655566772
 31
0.0
  0
LINE
  5
2554
330
2
100
AcDbEntity
  8
0
100
AcDbLine
 10
907.5946935603218
 20
445.0678655566772
 30
0.0
 11
907.5946935603218
 21
325.0678655566772
 31
0.0
  0
LINE
  5
2621
330
2
100
AcDbEntity
  8
0
100
AcDbLine
 10
90.61463291665381
 20
445.0678655566774
 30
0.0
 11
90.61463291665381
 21
325.0678655566773
 31
0.0
  0
LINE
  5
2891
330
2
100
AcDbEntity
  8
0
100
AcDbLine
 10
907.5946935603218
 20
445.0678655566772
 30
0.0
 11
907.5946935603218
 21
325.0678655566772
 31
0.0
  0
LINE
  5
2AB1
330
2
100
AcDbEntity
  8
0
100
AcDbLine
 10
907.5946935603218
 20
445.0678655566772
 30
0.0
 11
907.5946935603218
 21
325.0678655566772
 31
0.0
  0
LINE
  5
2CA1
330
2
100
AcDbEntity
  8
0
100
AcDbLine
 10
907.5946935603218
 20
445.0678655566772
 30
0.0
 11
907.5946935603218
 21
325.0678655566772
 31
0.0
  0
LINE
  5
2E2E
330
2
100
AcDbEntity
  8
CENTER
100
AcDbLine
 10
1281.56824757898
 20
462.2584425339625
 30
0.0
 11
1281.56824757898
 21
307.877288579392
 31
0.0
  0
LINE
  5
2E2F
330
2
100
AcDbEntity
  8
CENTER
100
AcDbLine
 10
1359.924358010703
 20
385.0678655566772
 30
0.0
 11
1172.56824757898
 21
385.0678655566772
 31
0.0
  0
LINE
  5
2E30
330
2
100
AcDbEntity
  8
0
100
AcDbLine
 10
1331.651578018945
 20
445.1505044696779
 30
0.0
 11
1281.56824757898
 21
445.5678655566773
 31
0.0
  0
ARC
  5
2E32
330
2
100
AcDbEntity
  8
0
100
AcDbCircle
 10
1331.568247578979
 20
435.150851673815
 30
0.0
 40
10.0
100
AcDbArc
 50
44.6638139935388
 51
89.52254622268922
  0
LINE
  5
2E38
330
2
100
AcDbEntity
  8
0
 48
0.5
100
AcDbLine
 10
1316.568247578972
 20
452.563502122781
 30
0.0
 11
1214.56824757898
 21
451.6733616081257
 31
0.0
  0
LINE
  5
2E39
330
2
100
AcDbEntity
  8
0
100
AcDbLine
 10
1209.568247578978
 20
445.0678655566782
 30
0.0
 11
1209.56824757898
 21
325.0678655566773
 31
0.0
  0
LINE
  5
2E3A
330
2
100
AcDbEntity
  8
0
 48
0.5
100
AcDbLine
 10
1316.568247578972
 20
317.5722289905735
 30
0.0
 11
1214.56824757898
 21
318.4623695052289
 31
0.0
  0
LINE
  5
2E3B
330
2
100
AcDbEntity
  8
0
100
AcDbLine
 10
1316.568247578972
 20
452.5678655566763
 30
0.0
 11
1316.568247578972
 21
445.2720322233437
 31
0.0
  0
LINE
  5
2E3C
330
2
100
AcDbEntity
  8
0
100
AcDbLine
 10
1316.568247578972
 20
324.8636988900108
 30
0.0
 11
1316.568247578972
 21
317.5678655566782
 31
0.0
  0
LINE
  5
2E3D
330
2
100
AcDbEntity
  8
0
 48
0.5
100
AcDbLine
 10
1281.56824757898
 20
452.2580617501064
 30
0.0
 11
1316.568247578972
 21
451.952621377429
 31
0.0
  0
LINE
  5
2E3E
330
2
100
AcDbEntity
  8
0
 48
0.5
100
AcDbLine
 10
1281.56824757898
 20
317.8776693632473
 30
0.0
 11
1316.568247578972
 21
318.1831097359248
 31
0.0
  0
LINE
  5
2E3F
330
2
100
AcDbEntity
  8
0
100
AcDbLine
 10
1231.484917139014
 20
445.1505044696779
 30
0.0
 11
1255.262231366799
 21
445.3486487549094
 31
0.0
  0
ARC
  5
2E41
330
2
100
AcDbEntity
  8
0
100
AcDbCircle
 10
1231.56824757898
 20
435.1508516738169
 30
0.0
 40
10.0
100
AcDbArc
 50
90.47745377731077
 51
135.3362029899242
  0
LINE
  5
2E43
330
2
100
AcDbEntity
  8
0
100
AcDbLine
 10
1331.651578018945
 20
324.9852266436784
 30
0.0
 11
1281.56824757898
 21
324.5678655566773
 31
0.0
  0
ARC
  5
2E45
330
2
100
AcDbEntity
  8
0
100
AcDbCircle
 10
1331.568247578979
 20
334.9848794395394
 30
0.0
 40
10.0
100
AcDbArc
 50
270.4774537773107
 51
315.3362424034169
  0
LINE
  5
2E47
330
2
100
AcDbEntity
  8
0
100
AcDbLine
 10
1231.484917139014
 20
324.9852266436775
 30
0.0
 11
1281.56824757898
 21
324.5678655566773
 31
0.0
  0
ARC
  5
2E49
330
2
100
AcDbEntity
  8
0
100
AcDbCircle
 10
1231.56824757898
 20
334.9848794395386
 30
0.0
 40
10.0
100
AcDbArc
 50
224.663847780377
 51
269.5225462226892
  0
LINE
  5
2E4B
330
2
100
AcDbEntity
  8
0
 48
0.5
100
AcDbLine
 10
1214.56824757898
 20
445.0678655566773
 30
0.0
 11
1209.568247578978
 21
445.0678655566782
 31
0.0
  0
LINE
  5
2E4C
330
2
100
AcDbEntity
  8
0
 48
0.5
100
AcDbLine
 10
1214.56824757898
 20
325.0678655566773
 30
0.0
 11
1209.56824757898
 21
325.0678655566773
 31
0.0
  0
LINE
  5
2E4D
330
2
100
AcDbEntity
  8
0
100
AcDbLine
 10
1214.56824757898
 20
318.4623695052288
 30
0.0
 11
1214.56824757898
 21
451.6733616081256
 31
0.0
  0
LINE
  5
2E4E
330
2
100
AcDbEntity
  8
0
 48
0.5
100
AcDbLine
 10
1324.585700649969
 20
317.6378328096467
 30
0.0
 11
1316.568247578972
 21
317.5678655566774
 31
0.0
  0
ARC
  5
2E4F
330
2
100
AcDbEntity
  8
0
100
AcDbCircle
 10
1324.568247578972
 20
319.637756655775
 30
0.0
 40
2.0
100
AcDbArc
 50
270.4999999999915
 51
0.0
  0
ARC
  5
2E50
330
2
100
AcDbEntity
  8
0
100
AcDbCircle
 10
1328.568247578972
 20
321.7394384319311
 30
0.0
 40
2.0
100
AcDbArc
 50
135.0000000000092
 51
180.0
  0
LINE
  5
2E51
330
2
100
AcDbEntity
  8
0
100
AcDbLine
 10
1327.154034016599
 20
323.1536519943042
 30
0.0
 11
1328.963205562166
 21
324.9628235398719
 31
0.0
  0
LINE
  5
2E52
330
2
100
AcDbEntity
  8
0
 48
0.5
100
AcDbLine
 10
1324.585700649968
 20
452.497898303708
 30
0.0
 11
1316.568247578972
 21
452.5678655566771
 31
0.0
  0
LINE
  5
2E53
330
2
100
AcDbEntity
  8
0
100
AcDbLine
 10
1326.568247578971
 20
450.4979744575797
 30
0.0
 11
1326.568247578971
 21
445.1928655566777
 31
0.0
  0
LINE
  5
2E54
330
2
100
AcDbEntity
  8
0
100
AcDbLine
 10
1326.568247578972
 20
324.9428655566786
 30
0.0
 11
1326.568247578972
 21
319.637756655775
 31
0.0
  0
ARC
  5
2E55
330
2
100
AcDbEntity
  8
0
100
AcDbCircle
 10
1324.568247578971
 20
450.4979744575796
 30
0.0
 40
2.0
100
AcDbArc
 50
0.0
 51
89.50000000000846
  0
ARC
  5
2E56
330
2
100
AcDbEntity
  8
0
100
AcDbCircle
 10
1328.568247578972
 20
448.3962926814236
 30
0.0
 40
2.0
100
AcDbArc
 50
180.0
 51
224.9999999999908
  0
LINE
  5
2E57
330
2
100
AcDbEntity
  8
0
100
AcDbLine
 10
1327.154034016598
 20
446.9820791190506
 30
0.0
 11
1328.963205562164
 21
445.1729075734844
 31
0.0
  0
LINE
  5
2E58
330
2
100
AcDbEntity
  8
0
100
AcDbLine
 10
1316.568247578972
 20
317.5678655566774
 30
0.0
 11
1316.568247578972
 21
324.8595322233449
 31
0.0
  0
LINE
  5
2E59
330
2
100
AcDbEntity
  8
0
100
AcDbLine
 10
1316.568247578971
 20
445.2761988900109
 30
0.0
 11
1316.568247578971
 21
452.5678655566771
 31
0.0
  0
LINE
  5
2E5A
330
2
100
AcDbEntity
  8
0
 48
0.3
100
AcDbLine
 10
1336.068247578975
 20
444.0811372235631
 30
0.0
 11
1336.068247578975
 21
449.0678655566772
 31
0.0
  0
LINE
  5
2E5B
330
2
100
AcDbEntity
  8
0
 48
0.3
100
AcDbLine
 10
1336.568247578975
 20
443.811105711662
 30
0.0
 11
1336.568247578975
 21
448.2018401528927
 31
0.0
  0
LINE
  5
2E5C
330
2
100
AcDbEntity
  8
0
 48
0.3
100
AcDbLine
 10
1336.068247578975
 20
449.0678655566772
 30
0.0
 11
1336.568247578975
 21
448.2018401528927
 31
0.0
  0
LINE
  5
2E5D
330
2
100
AcDbEntity
  8
0
 48
0.3
100
AcDbLine
 10
1336.068247578975
 20
449.0678655566772
 30
0.0
 11
1328.568247578975
 21
449.0678655566772
 31
0.0
  0
LINE
  5
2E5E
330
2
100
AcDbEntity
  8
0
 48
0.3
100
AcDbLine
 10
1336.068247578976
 20
321.0678655566772
 30
0.0
 11
1336.068247578976
 21
326.0545938897917
 31
0.0
  0
LINE
  5
2E5F
330
2
100
AcDbEntity
  8
0
 48
0.3
100
AcDbLine
 10
1336.568247578976
 20
321.9338909604631
 30
0.0
 11
1336.568247578976
 21
326.324625401693
 31
0.0
  0
LINE
  5
2E60
330
2
100
AcDbEntity
  8
0
 48
0.3
100
AcDbLine
 10
1336.068247578975
 20
321.0678655566777
 30
0.0
 11
1336.568247578975
 21
321.933890960462
 31
0.0
  0
LINE
  5
2E61
330
2
100
AcDbEntity
  8
0
 48
0.3
100
AcDbLine
 10
1336.068247578975
 20
321.0678655566772
 30
0.0
 11
1328.568247578976
 21
321.0678655566772
 31
0.0
  0
LINE
  5
2E62
330
2
100
AcDbEntity
  8
0
 48
0.3
100
AcDbLine
 10
1328.568247578976
 20
320.3178655566772
 30
0.0
 11
1328.568247578975
 21
324.567865556681
 31
0.0
  0
LINE
  5
2E63
330
2
100
AcDbEntity
  8
0
 48
0.3
100
AcDbLine
 10
1328.568247578976
 20
320.3178655566772
 30
0.0
 11
1326.568247578976
 21
320.3178655566772
 31
0.0
  0
LINE
  5
2E64
330
2
100
AcDbEntity
  8
0
100
AcDbLine
 10
1326.568247578976
 20
320.3178655566772
 30
0.0
 11
1326.568247578976
 21
324.9428655566786
 31
0.0
  0
LINE
  5
2E65
330
2
100
AcDbEntity
  8
0
 48
0.3
100
AcDbLine
 10
1328.568247578975
 20
445.5678655566734
 30
0.0
 11
1328.568247578975
 21
449.8178655566772
 31
0.0
  0
LINE
  5
2E66
330
2
100
AcDbEntity
  8
0
 48
0.3
100
AcDbLine
 10
1328.568247578975
 20
449.8178655566772
 30
0.0
 11
1326.568247578975
 21
449.8178655566772
 31
0.0
  0
LINE
  5
2E67
330
2
100
AcDbEntity
  8
0
100
AcDbLine
 10
1326.568247578975
 20
445.1928655566776
 30
0.0
 11
1326.568247578975
 21
449.8178655566772
 31
0.0
  0
LINE
  5
2E68
330
2
100
AcDbEntity
  8
0
100
AcDbLine
 10
1197.220951223646
 20
428.8592818003471
 30
0.0
 11
1202.957433000314
 21
429.8707783119163
 31
0.0
  0
LINE
  5
2E69
330
2
100
AcDbEntity
  8
0
100
AcDbLine
 10
1197.220951223646
 20
341.2764493130072
 30
0.0
 11
1202.957433000316
 21
340.264952801438
 31
0.0
  0
ARC
  5
2E6A
330
2
100
AcDbEntity
  8
0
100
AcDbCircle
 10
1197.56824757898
 20
343.2460648190319
 30
0.0
 40
2.0
100
AcDbArc
 50
180.0
 51
259.9999999999949
  0
LINE
  5
2E6B
330
2
100
AcDbEntity
  8
0
100
AcDbLine
 10
1195.56824757898
 20
426.8896662943227
 30
0.0
 11
1195.56824757898
 21
343.2460648190319
 31
0.0
  0
ARC
  5
2E6C
330
2
100
AcDbEntity
  8
0
100
AcDbCircle
 10
1197.56824757898
 20
426.8896662943227
 30
0.0
 40
2.0
100
AcDbArc
 50
100.000000000005
 51
180.0
  0
ARC
  5
2E6D
330
2
100
AcDbEntity
  8
0
100
AcDbCircle
 10
1201.568247578978
 20
437.7492403360135
 30
0.0
 40
8.0
100
AcDbArc
 50
280.000000000005
 51
0.0
  0
ARC
  5
2E6E
330
2
100
AcDbEntity
  8
0
100
AcDbCircle
 10
1201.56824757898
 20
332.3864907773403
 30
0.0
 40
8.0
100
AcDbArc
 50
0.0
 51
79.99999999999499
  0
LINE
  5
2E6F
330
2
100
AcDbEntity
  8
0
100
AcDbLine
 10
1182.56824757898
 20
409.5678655566781
 30
0.0
 11
1182.568247578979
 21
360.5678655566769
 31
0.0
  0
LINE
  5
2E70
330
2
100
AcDbEntity
  8
0
100
AcDbLine
 10
1195.56824757898
 20
409.5678655566782
 30
0.0
 11
1182.56824757898
 21
409.5678655566782
 31
0.0
  0
LINE
  5
2E71
330
2
100
AcDbEntity
  8
0
100
AcDbLine
 10
1195.568247578979
 20
360.567865556677
 30
0.0
 11
1182.56824757898
 21
360.5678655566769
 31
0.0
  0
LINE
  5
2E72
330
2
100
AcDbEntity
  8
0
100
AcDbLine
 10
1343.568247578975
 20
409.5678655566787
 30
0.0
 11
1343.568247578975
 21
360.5678655566781
 31
0.0
  0
LINE
  5
2E73
330
2
100
AcDbEntity
  8
0
100
AcDbLine
 10
1341.864080812251
 20
409.5678655566787
 30
0.0
 11
1343.568247578975
 21
409.5678655566787
 31
0.0
  0
LINE
  5
2E74
330
2
100
AcDbEntity
  8
0
100
AcDbLine
 10
1341.864080811459
 20
360.5678655566776
 30
0.0
 11
1343.568247578975
 21
360.5678655566774
 31
0.0
  0
LINE
  5
2FF2
330
2
100
AcDbEntity
  8
0
100
AcDbLine
 10
907.5946935603218
 20
445.0678655566772
 30
0.0
 11
907.5946935603218
 21
325.0678655566772
 31
0.0
  0
LINE
  5
2FF3
330
2
100
AcDbEntity
  8
0
100
AcDbLine
 10
922.6419974560133
 20
385.0678655566771
 30
0.0
 11
921.628994424401
 21
327.0329607438022
 31
0.0
  0
LINE
  5
2FF4
330
2
100
AcDbEntity
  8
0
100
AcDbLine
 10
979.0600880865543
 20
325.0678655566775
 30
0.0
 11
992.0946935603254
 21
325.0678655566773
 31
0.0
  0
ARC
  5
2FF5
330
2
100
AcDbEntity
  8
0
100
AcDbCircle
 10
979.0600880865543
 20
327.0678655566776
 30
0.0
 40
2.0
100
AcDbArc
 50
181.0000000001451
 51
270.0
  0
LINE
  5
2FF6
330
2
100
AcDbEntity
  8
0
100
AcDbLine
 10
929.3117573996052
 20
437.5678655566769
 30
0.0
 11
963.0248733006126
 21
437.5678655566767
 31
0.0
  0
LINE
  5
2FF7
330
2
100
AcDbEntity
  8
0
100
AcDbLine
 10
907.5946935603209
 20
445.0678655566774
 30
0.0
 11
919.6292990340865
 21
445.0678655566769
 31
0.0
  0
ARC
  5
2FF8
330
2
100
AcDbEntity
  8
0
100
AcDbCircle
 10
919.6292990340865
 20
443.067865556677
 30
0.0
 40
2.0
100
AcDbArc
 50
1.000000000001761
 51
90.0
  0
ARC
  5
2FF9
330
2
100
AcDbEntity
  8
0
100
AcDbCircle
 10
929.3117573996052
 20
445.5678655566769
 30
0.0
 40
8.0
100
AcDbArc
 50
194.4775121859294
 51
232.6089831347951
  0
LINE
  5
2FFA
330
2
100
AcDbEntity
  8
0
100
AcDbLine
 10
907.5946935603209
 20
325.0678655566774
 30
0.0
 11
919.6292990340891
 21
325.0678655566768
 31
0.0
  0
ARC
  5
2FFB
330
2
100
AcDbEntity
  8
0
100
AcDbCircle
 10
919.6292990340891
 20
327.0678655566767
 30
0.0
 40
2.0
100
AcDbArc
 50
270.0
 51
358.9999999999982
  0
ARC
  5
2FFC
330
2
100
AcDbEntity
  8
0
100
AcDbCircle
 10
929.3117573996081
 20
324.5678655566774
 30
0.0
 40
8.0
100
AcDbArc
 50
127.3910168324932
 51
165.5224878140705
  0
LINE
  5
2FFD
330
2
100
AcDbEntity
  8
0
100
AcDbLine
 10
929.311757399609
 20
332.5678655566774
 30
0.0
 11
972.0502942577816
 21
332.5678655566771
 31
0.0
  0
ARC
  5
2FFE
330
2
100
AcDbEntity
  8
0
100
AcDbCircle
 10
972.0502942577816
 20
327.5678655566772
 30
0.0
 40
5.0
100
AcDbArc
 50
1.000000000145156
 51
90.0
  0
LINE
  5
2FFF
330
2
100
AcDbEntity
  8
0
100
AcDbLine
 10
992.0946935603256
 20
325.0678655566773
 30
0.0
 11
992.0946935603263
 21
445.0678655566784
 31
0.0
  0
LINE
  5
3000
330
2
100
AcDbEntity
  8
0
100
AcDbLine
 10
977.0603926962415
 20
327.032960743803
 30
0.0
 11
976.0473896645018
 21
385.0678655566771
 31
0.0
  0
LINE
  5
3001
330
2
100
AcDbEntity
  8
0
100
AcDbLine
 10
992.0946935603254
 20
385.0678655566771
 30
0.0
 11
907.5946935603218
 21
385.0678655566771
 31
0.0
  0
LINE
  5
3002
330
2
100
AcDbEntity
  8
CENTER
100
AcDbLine
 10
973.5946935603244
 20
431.8154862745267
 30
0.0
 11
973.5946935603244
 21
449.1842664228769
 31
0.0
  0
LINE
  5
3003
330
2
100
AcDbEntity
  8
0
100
AcDbLine
 10
963.0603926962441
 20
439.6027703695522
 30
0.0
 11
963.0591741646933
 21
439.5329607438009
 31
0.0
  0
ARC
  5
3004
330
2
100
AcDbEntity
  8
0
 48
0.5
100
AcDbCircle
 10
961.0594787743805
 20
439.5678655566761
 30
0.0
 40
2.0
100
AcDbArc
 50
270.0
 51
358.9999999999721
  0
LINE
  5
3005
330
2
100
AcDbEntity
  8
0
100
AcDbLine
 10
976.0509035699589
 20
441.5678655566776
 30
0.0
 11
965.060088086556
 21
441.5678655566772
 31
0.0
  0
ARC
  5
3006
330
2
100
AcDbEntity
  8
0
100
AcDbCircle
 10
965.060088086556
 20
439.5678655566771
 30
0.0
 40
2.0
100
AcDbArc
 50
90.0
 51
178.9999999999982
  0
ARC
  5
3007
330
2
100
AcDbEntity
  8
0
100
AcDbCircle
 10
976.0509035699589
 20
442.5678655566776
 30
0.0
 40
1.0
100
AcDbArc
 50
270.0
 51
358.9999999998548
  0
LINE
  5
3008
330
2
100
AcDbEntity
  8
0
100
AcDbLine
 10
992.0946935603263
 20
445.0678655566784
 30
0.0
 11
979.0600880865543
 21
445.0678655566776
 31
0.0
  0
LINE
  5
3009
330
2
100
AcDbEntity
  8
0
100
AcDbLine
 10
922.3052252243101
 20
404.3615337892171
 30
0.0
 11
921.6289944244001
 21
443.1027703695516
 31
0.0
  0
LINE
  5
300A
330
2
100
AcDbEntity
  8
0
100
AcDbLine
 10
977.0603926962442
 20
443.1027703695521
 30
0.0
 11
976.9456092784889
 21
436.5268327723139
 31
0.0
  0
ARC
  5
300B
330
2
100
AcDbEntity
  8
0
100
AcDbCircle
 10
979.0600880865543
 20
443.0678655566776
 30
0.0
 40
2.0
100
AcDbArc
 50
90.0
 51
178.9999999999461
  0
LINE
  5
300D
330
2
100
AcDbEntity
  8
0
100
AcDbLine
 10
921.5946935603216
 20
711.9012521591512
 30
0.0
 11
921.5946935603199
 21
827.9012521591512
 31
0.0
  0
ARC
  5
300E
330
2
100
AcDbEntity
  8
0
100
AcDbCircle
 10
919.5946935603208
 20
711.9012521591512
 30
0.0
 40
2.0
100
AcDbArc
 50
270.0
 51
0.0
  0
ARC
  5
300F
330
2
100
AcDbEntity
  8
0
100
AcDbCircle
 10
929.2771519258396
 20
709.4012521591512
 30
0.0
 40
8.0
100
AcDbArc
 50
90.0
 51
91.30687510196528
  0
ARC
  5
3010
330
2
100
AcDbEntity
  8
0
100
AcDbCircle
 10
929.2771519258396
 20
709.4012521591512
 30
0.0
 40
8.0
100
AcDbArc
 50
127.3910168652191
 51
165.5224878140705
  0
ARC
  5
3011
330
2
100
AcDbEntity
  8
0
100
AcDbCircle
 10
919.594693560319
 20
828.4012521591511
 30
0.0
 40
2.0
100
AcDbArc
 50
11.53695903280536
 51
90.0
  0
ARC
  5
3012
330
2
100
AcDbEntity
  8
0
100
AcDbCircle
 10
929.3926525314521
 20
830.4012521591502
 30
0.0
 40
8.0
100
AcDbArc
 50
191.5369590328053
 51
232.6089831347808
  0
ARC
  5
3013
330
2
100
AcDbEntity
  8
0
100
AcDbCircle
 10
929.3926525314521
 20
830.4012521591502
 30
0.0
 40
8.0
100
AcDbArc
 50
267.8655323847083
 51
270.0
  0
LINE
  5
3014
330
2
100
AcDbEntity
  8
0
100
AcDbLine
 10
907.5946935603209
 20
709.4012521591507
 30
0.0
 11
907.5946935603218
 21
830.4012521591502
 31
0.0
  0
LINE
  5
3015
330
2
100
AcDbEntity
  8
0
100
AcDbLine
 10
979.0946935603262
 20
829.9012521591503
 30
0.0
 11
992.0946935603254
 21
829.901252159151
 31
0.0
  0
ARC
  5
3016
330
2
100
AcDbEntity
  8
0
100
AcDbCircle
 10
979.0946935603262
 20
827.9012521591504
 30
0.0
 40
2.0
100
AcDbArc
 50
90.0
 51
179.9999999999869
  0
LINE
  5
3017
330
2
100
AcDbEntity
  8
0
100
AcDbLine
 10
965.0946935603244
 20
739.4012521591507
 30
0.0
 11
975.0946935603236
 21
739.401252159151
 31
0.0
  0
ARC
  5
3018
330
2
100
AcDbEntity
  8
0
100
AcDbCircle
 10
965.0946935603244
 20
741.4012521591508
 30
0.0
 40
2.0
100
AcDbArc
 50
179.9999999999869
 51
270.0
  0
ARC
  5
3019
330
2
100
AcDbEntity
  8
0
100
AcDbCircle
 10
975.0946935603236
 20
737.4012521591509
 30
0.0
 40
2.0
100
AcDbArc
 50
0.0
 51
90.0
  0
LINE
  5
301A
330
2
100
AcDbEntity
  8
0
100
AcDbLine
 10
929.3926525314548
 20
717.4012521591512
 30
0.0
 11
972.0946935603244
 21
717.4012521591516
 31
0.0
  0
ARC
  5
301B
330
2
100
AcDbEntity
  8
0
100
AcDbCircle
 10
972.0946935603244
 20
712.4012521591517
 30
0.0
 40
5.0
100
AcDbArc
 50
0.0
 51
90.0
  0
LINE
  5
301C
330
2
100
AcDbEntity
  8
0
100
AcDbLine
 10
907.5946935603209
 20
709.9012521591507
 30
0.0
 11
919.5946935603208
 21
709.9012521591512
 31
0.0
  0
LINE
  5
301D
330
2
100
AcDbEntity
  8
0
100
AcDbLine
 10
907.5946935603209
 20
709.4012521591503
 30
0.0
 11
919.5946935603217
 21
709.4012521591512
 31
0.0
  0
ARC
  5
301E
330
2
100
AcDbEntity
  8
0
100
AcDbCircle
 10
919.5946935603217
 20
711.4012521591511
 30
0.0
 40
2.0
100
AcDbArc
 50
270.0
 51
348.4630409671946
  0
ARC
  5
301F
330
2
100
AcDbEntity
  8
0
100
AcDbCircle
 10
929.3926525314548
 20
709.4012521591512
 30
0.0
 40
8.0
100
AcDbArc
 50
90.0
 51
92.13446761530471
  0
ARC
  5
3020
330
2
100
AcDbEntity
  8
0
100
AcDbCircle
 10
929.3926525314548
 20
709.4012521591512
 30
0.0
 40
8.0
100
AcDbArc
 50
127.3910168652191
 51
168.4630409671818
  0
LINE
  5
3021
330
2
100
AcDbEntity
  8
0
100
AcDbLine
 10
907.5946935603218
 20
829.9012521591503
 30
0.0
 11
919.5946935603199
 21
829.9012521591512
 31
0.0
  0
ARC
  5
3022
330
2
100
AcDbEntity
  8
0
100
AcDbCircle
 10
919.5946935603199
 20
827.9012521591512
 30
0.0
 40
2.0
100
AcDbArc
 50
0.0
 51
90.0
  0
ARC
  5
3023
330
2
100
AcDbEntity
  8
0
100
AcDbCircle
 10
929.2771519258387
 20
830.4012521591502
 30
0.0
 40
8.0
100
AcDbArc
 50
194.4775121859294
 51
232.6089831347808
  0
ARC
  5
3024
330
2
100
AcDbEntity
  8
0
100
AcDbCircle
 10
929.2771519258387
 20
830.4012521591502
 30
0.0
 40
8.0
100
AcDbArc
 50
268.6931248980216
 51
270.0
  0
LINE
  5
3025
330
2
100
AcDbEntity
  8
0
100
AcDbLine
 10
907.5946935603218
 20
830.4012521591507
 30
0.0
 11
919.594693560319
 21
830.4012521591513
 31
0.0
  0
LINE
  5
3026
330
2
100
AcDbEntity
  8
0
100
AcDbLine
 10
929.2771519258396
 20
822.4012521591502
 30
0.0
 11
972.0946935603253
 21
822.4012521591502
 31
0.0
  0
ARC
  5
3027
330
2
100
AcDbEntity
  8
0
100
AcDbCircle
 10
972.0946935603253
 20
827.4012521591503
 30
0.0
 40
5.0
100
AcDbArc
 50
270.0
 51
359.9999999999869
  0
LINE
  5
3028
330
2
100
AcDbEntity
  8
0
100
AcDbLine
 10
977.0946935603262
 20
827.9012521591504
 30
0.0
 11
977.094693560207
 21
762.7756453487391
 31
0.0
  0
ARC
  5
3029
330
2
100
AcDbEntity
  8
0
100
AcDbCircle
 10
975.0946935603254
 20
771.9012521591507
 30
0.0
 40
2.0
100
AcDbArc
 50
270.0
 51
0.0
  0
LINE
  5
302A
330
2
100
AcDbEntity
  8
0
100
AcDbLine
 10
977.0946935603245
 20
737.4012521591509
 30
0.0
 11
977.0946935603245
 21
711.9012521591512
 31
0.0
  0
ARC
  5
302B
330
2
100
AcDbEntity
  8
0
100
AcDbCircle
 10
979.0946935603244
 20
711.9012521591512
 30
0.0
 40
2.0
100
AcDbArc
 50
180.0
 51
270.0
  0
LINE
  5
302C
330
2
100
AcDbEntity
  8
0
100
AcDbLine
 10
992.0946935603252
 20
829.901252159151
 30
0.0
 11
992.0946935603245
 21
709.9012521591507
 31
0.0
  0
LINE
  5
302D
330
2
100
AcDbEntity
  8
0
100
AcDbLine
 10
965.0946935603263
 20
769.9012521591507
 30
0.0
 11
975.0946935603254
 21
769.9012521591507
 31
0.0
  0
LINE
  5
302E
330
2
100
AcDbEntity
  8
0
100
AcDbLine
 10
963.0946935603262
 20
767.9012521591507
 30
0.0
 11
963.0946935603244
 21
741.4012521591508
 31
0.0
  0
ARC
  5
302F
330
2
100
AcDbEntity
  8
0
100
AcDbCircle
 10
965.0946935603263
 20
767.9012521591507
 30
0.0
 40
2.0
100
AcDbArc
 50
90.0
 51
180.0
  0
LINE
  5
3030
330
2
100
AcDbEntity
  8
CENTER
100
AcDbLine
 10
959.8446935603272
 20
749.9012521591508
 30
0.0
 11
987.3446935603263
 21
749.9012521591508
 31
0.0
  0
LINE
  5
3031
330
2
100
AcDbEntity
  8
CENTER
100
AcDbLine
 10
973.5946935603253
 20
736.1512521591508
 30
0.0
 11
973.5946935603271
 21
763.6512521591507
 31
0.0
  0
LINE
  5
3032
330
2
100
AcDbEntity
  8
0
100
AcDbLine
 10
979.0946935603244
 20
709.9012521591512
 30
0.0
 11
992.0946935603245
 21
709.9012521591507
 31
0.0
  0
ARC
  5
3033
330
2
100
AcDbEntity
  8
0
100
AcDbCircle
 10
973.5946935603271
 20
749.9012521591508
 30
0.0
 40
12.0
100
AcDbArc
 50
293.1323963992815
 51
66.86760360071845
  0
ARC
  5
3034
330
2
100
AcDbEntity
  8
0
100
AcDbCircle
 10
979.0946935603244
 20
762.7756453487354
 30
0.0
 40
2.0
100
AcDbArc
 50
180.0
 51
246.8676036007184
  0
ARC
  5
3035
330
2
100
AcDbEntity
  8
0
100
AcDbCircle
 10
979.0946935603244
 20
737.0268589695661
 30
0.0
 40
2.0
100
AcDbArc
 50
113.1323963992815
 51
179.9999999999869
  0
LINE
  5
3038
330
2
100
AcDbEntity
  8
0
100
AcDbLine
 10
1331.652208881577
 20
325.0678655566772
 30
0.0
 11
1231.484286013686
 21
325.0678655566772
 31
0.0
  0
ARC
  5
3039
330
2
100
AcDbEntity
  8
0
100
AcDbCircle
 10
1331.422760762111
 20
335.0678655566772
 30
0.0
 40
10.0
100
AcDbArc
 50
270.0
 51
359.833333340008
  0
LINE
  5
303A
330
2
100
AcDbEntity
  8
HIDS
  6
SEKKEI_H
100
AcDbLine
 10
1251.033946707705
 20
439.60277036142
 30
0.0
 11
1250.867298545469
 21
430.0555035411462
 31
0.0
  0
LINE
  5
303B
330
2
100
AcDbEntity
  8
HIDS
  6
SEKKEI_H
100
AcDbLine
 10
1281.602548443064
 20
439.6027703614255
 30
0.0
 11
1281.604430947692
 21
439.4949217434906
 31
0.0
  0
LINE
  5
303C
330
2
100
AcDbEntity
  8
0
100
AcDbLine
 10
1331.422760762117
 20
445.0678655566772
 30
0.0
 11
1268.504739237388
 21
445.0678655566772
 31
0.0
  0
LINE
  5
303D
330
2
100
AcDbEntity
  8
0
100
AcDbLine
 10
1261.568247578981
 20
445.0678655566772
 30
0.0
 11
1231.484206362324
 21
445.0678655566772
 31
0.0
  0
ARC
  5
303E
330
2
100
AcDbEntity
  8
0
100
AcDbCircle
 10
1231.713734395848
 20
435.0678655566772
 30
0.0
 40
10.0
100
AcDbArc
 50
90.0
 51
179.833333340008
  0
CIRCLE
  5
303F
330
2
100
AcDbEntity
  8
HIDS
  6
SEKKEI_H
100
AcDbCircle
 10
1281.568247563521
 20
385.0678655412195
 30
0.0
 40
52.49999999999999
  0
ARC
  5
3040
330
2
100
AcDbEntity
  8
HIDS
  6
SEKKEI_H
100
AcDbCircle
 10
1283.604126338004
 20
439.5298265563679
 30
0.0
 40
2.0
100
AcDbArc
 50
181.0000000001059
 51
267.8591851844463
  0
ARC
  5
3041
330
2
100
AcDbEntity
  8
HIDS
  6
SEKKEI_H
100
AcDbCircle
 10
1245.868060069687
 20
430.1427655733333
 30
0.0
 40
5.0
100
AcDbArc
 50
308.3799009022199
 51
358.9999999999982
  0
LINE
  5
3042
330
2
100
AcDbEntity
  8
0
100
AcDbLine
 10
1331.652288845371
 20
445.0678655566772
 30
0.0
 11
1231.484206353374
 21
445.0678655566763
 31
0.0
  0
LINE
  5
3043
330
2
100
AcDbEntity
  8
0
100
AcDbLine
 10
1221.568247578986
 20
385.0678655566763
 30
0.0
 11
1221.713776703788
 21
435.0969543353559
 31
0.0
  0
LINE
  5
3044
330
2
100
AcDbEntity
  8
0
100
AcDbLine
 10
1341.568247578975
 20
385.0678655566763
 30
0.0
 11
1341.422718454175
 21
435.0969543353559
 31
0.0
  0
ARC
  5
3045
330
2
100
AcDbEntity
  8
0
100
AcDbCircle
 10
1331.422760762117
 20
435.0678655566772
 30
0.0
 40
10.0
100
AcDbArc
 50
0.1666666599919667
 51
90.0
  0
LINE
  5
3046
330
2
100
AcDbEntity
  8
0
100
AcDbLine
 10
1221.568247578986
 20
385.0678655566772
 30
0.0
 11
1221.713776703788
 21
335.0387767779976
 31
0.0
  0
ARC
  5
3047
330
2
100
AcDbEntity
  8
0
100
AcDbCircle
 10
1231.713734395846
 20
335.0678655566772
 30
0.0
 40
10.0
100
AcDbArc
 50
180.1666666599919
 51
270.0
  0
LINE
  5
3048
330
2
100
AcDbEntity
  8
0
100
AcDbLine
 10
1341.568247578975
 20
385.0678655566772
 30
0.0
 11
1341.42271845417
 21
335.0387767779976
 31
0.0
  0
ARC
  5
3049
330
2
100
AcDbEntity
  8
HIDS
  6
SEKKEI_H
100
AcDbCircle
 10
1253.033642098015
 20
439.5678655485454
 30
0.0
 40
2.0
100
AcDbArc
 50
89.99999999994789
 51
178.9999999999721
  0
LINE
  5
304A
330
2
100
AcDbEntity
  8
HIDS
  6
SEKKEI_H
100
AcDbLine
 10
1250.72094484209
 20
441.5678655485463
 30
0.0
 11
1279.602853052754
 21
441.5678655485463
 31
0.0
  0
ARC
  5
304B
330
2
100
AcDbEntity
  8
HIDS
  6
SEKKEI_H
100
AcDbCircle
 10
1279.602853052754
 20
439.5678655485482
 30
0.0
 40
2.0
100
AcDbArc
 50
1.000000000053863
 51
90.00000000005213
  0
ARC
  5
304C
330
2
100
AcDbEntity
  8
HIDS
  6
SEKKEI_H
100
AcDbCircle
 10
1275.424734832609
 20
443.0678655566835
 30
0.0
 40
2.0
100
AcDbArc
 50
90.0
 51
178.99999999992
  0
ARC
  5
304D
330
2
100
AcDbEntity
  8
HIDS
  6
SEKKEI_H
100
AcDbCircle
 10
1247.711760325353
 20
443.0678655566835
 30
0.0
 40
2.0
100
AcDbArc
 50
1.000000000079915
 51
90.0
  0
ARC
  5
304E
330
2
100
AcDbEntity
  8
HIDS
  6
SEKKEI_H
100
AcDbCircle
 10
1250.72094484209
 20
442.5678655485463
 30
0.0
 40
1.000000000000001
100
AcDbArc
 50
181.0000000000017
 51
270.0
  0
LINE
  5
304F
330
2
100
AcDbEntity
  8
HIDS
  6
SEKKEI_H
100
AcDbLine
 10
1249.711455715666
 20
443.1027703695609
 30
0.0
 11
1249.721097146935
 21
442.5504131421076
 31
0.0
  0
ARC
  5
3050
330
2
100
AcDbEntity
  8
HIDS
  6
SEKKEI_H
100
AcDbCircle
 10
1272.415550315872
 20
442.5678655485463
 30
0.0
 40
1.000000000000001
100
AcDbArc
 50
270.0
 51
358.9999999999982
  0
LINE
  5
3051
330
2
100
AcDbEntity
  8
HIDS
  6
SEKKEI_H
100
AcDbLine
 10
1273.425039442299
 20
443.1027703695609
 30
0.0
 11
1273.415398011027
 21
442.5504131421076
 31
0.0
  0
CIRCLE
  5
3052
330
2
100
AcDbEntity
  8
0
100
AcDbCircle
 10
1281.56824757898
 20
385.0678655566772
 30
0.0
 40
40.99999999186798
  0
CIRCLE
  5
3053
330
2
100
AcDbEntity
  8
0
100
AcDbCircle
 10
1281.56824757898
 20
385.0678655566772
 30
0.0
 40
54.99999999186821
  0
CIRCLE
  5
3054
330
2
100
AcDbEntity
  8
HOJO
100
AcDbCircle
 10
1230.303005942955
 20
436.3331071927019
 30
0.0
 40
4.0
  0
CIRCLE
  5
3055
330
2
100
AcDbEntity
  8
0
100
AcDbCircle
 10
1230.303005942955
 20
436.3331071927019
 30
0.0
 40
3.399999999999999
  0
LINE
  5
3056
330
2
100
AcDbEntity
  8
CENTER
100
AcDbLine
 10
1230.303005942955
 20
443.999588273295
 30
0.0
 11
1230.303005942955
 21
428.6666261121089
 31
0.0
  0
LINE
  5
3057
330
2
100
AcDbEntity
  8
CENTER
100
AcDbLine
 10
1222.636524862362
 20
436.3331071927019
 30
0.0
 11
1237.969487023548
 21
436.3331071927019
 31
0.0
  0
CIRCLE
  5
3058
330
2
100
AcDbEntity
  8
HOJO
100
AcDbCircle
 10
1332.833489215003
 20
436.3331071927031
 30
0.0
 40
4.0
  0
CIRCLE
  5
3059
330
2
100
AcDbEntity
  8
0
100
AcDbCircle
 10
1332.833489215003
 20
436.3331071927031
 30
0.0
 40
3.399999999999999
  0
CIRCLE
  5
305A
330
2
100
AcDbEntity
  8
HOJO
100
AcDbCircle
 10
1230.303005942955
 20
333.8026239206525
 30
0.0
 40
4.0
  0
CIRCLE
  5
305B
330
2
100
AcDbEntity
  8
0
100
AcDbCircle
 10
1230.303005942955
 20
333.8026239206525
 30
0.0
 40
3.399999999999999
  0
CIRCLE
  5
305C
330
2
100
AcDbEntity
  8
HOJO
100
AcDbCircle
 10
1332.833489215003
 20
333.8026239206513
 30
0.0
 40
4.0
  0
CIRCLE
  5
305D
330
2
100
AcDbEntity
  8
0
100
AcDbCircle
 10
1332.833489215003
 20
333.8026239206513
 30
0.0
 40
3.399999999999999
  0
CIRCLE
  5
305E
330
2
100
AcDbEntity
  8
0
100
AcDbCircle
 10
1281.56824757898
 20
385.0678655566772
 30
0.0
 40
40.49999999186735
  0
LINE
  5
305F
330
2
100
AcDbEntity
  8
HIDS
  6
SEKKEI_H
100
AcDbLine
 10
1267.009785221578
 20
423.3960689277463
 30
0.0
 11
1267.326975111447
 21
441.5678655485464
 31
0.0
  0
LINE
  5
3060
330
2
100
AcDbEntity
  8
HIDS
  6
SEKKEI_H
100
AcDbLine
 10
1256.233058273575
 20
417.3033767709704
 30
0.0
 11
1255.809520046515
 21
441.5678655485463
 31
0.0
  0
ARC
  5
3061
330
2
100
AcDbEntity
  8
0
100
AcDbCircle
 10
1281.568247548057
 20
385.0678655566708
 30
0.0
 40
59.50000000732598
100
AcDbArc
 50
300.4819941566239
 51
306.5033059355235
  0
ARC
  5
3062
330
2
100
AcDbEntity
  8
0
100
AcDbCircle
 10
1312.76520256826
 20
332.0678655721286
 30
0.0
 40
2.0
100
AcDbArc
 50
120.4819941566238
 51
270.0
  0
LINE
  5
3063
330
2
100
AcDbEntity
  8
0
100
AcDbLine
 10
1242.71022981337
 20
330.0678655721286
 30
0.0
 11
1250.371292558773
 21
330.0678655721286
 31
0.0
  0
LINE
  5
3064
330
2
100
AcDbEntity
  8
0
100
AcDbLine
 10
1226.659483490142
 20
353.7106237806188
 30
0.0
 11
1226.680999506743
 21
346.313982687996
 31
0.0
  0
LINE
  5
3065
330
2
100
AcDbEntity
  8
0
100
AcDbLine
 10
1320.426265282744
 20
330.0678655721286
 30
0.0
 11
1312.76520256826
 21
330.0678655721286
 31
0.0
  0
LINE
  5
3066
330
2
100
AcDbEntity
  8
0
100
AcDbLine
 10
1226.659483490142
 20
416.4251073636357
 30
0.0
 11
1226.680999506652
 21
423.821748425433
 31
0.0
  0
LINE
  5
3067
330
2
100
AcDbEntity
  8
0
100
AcDbLine
 10
1320.426265313372
 20
440.0678655721286
 30
0.0
 11
1312.76520256826
 21
440.0678655721286
 31
0.0
  0
ARC
  5
3068
330
2
100
AcDbEntity
  8
0
100
AcDbCircle
 10
1281.568247578976
 20
385.0678655566708
 30
0.0
 40
59.50000000732598
100
AcDbArc
 50
233.4966940363409
 51
239.5180058433761
  0
ARC
  5
3069
330
2
100
AcDbEntity
  8
0
100
AcDbCircle
 10
1250.371292558773
 20
332.0678655721286
 30
0.0
 40
2.0
100
AcDbArc
 50
270.0
 51
59.51800584337612
  0
ARC
  5
306A
330
2
100
AcDbEntity
  8
0
100
AcDbCircle
 10
1281.568247578976
 20
385.0678655566708
 30
0.0
 40
59.50000000732598
100
AcDbArc
 50
210.6491269688235
 51
216.5033059251364
  0
ARC
  5
306B
330
2
100
AcDbEntity
  8
0
100
AcDbCircle
 10
1232.133161459418
 20
348.4834117374201
 30
0.0
 40
2.0
100
AcDbArc
 50
290.3231475420369
 51
36.5033059251365
  0
ARC
  5
306C
330
2
100
AcDbEntity
  8
0
100
AcDbCircle
 10
1228.659475028553
 20
353.716441536355
 30
0.0
 40
2.0
100
AcDbArc
 50
30.64912696882352
 51
180.166666660018
  0
ARC
  5
306D
330
2
100
AcDbEntity
  8
0
100
AcDbCircle
 10
1281.568247548057
 20
385.0678655875864
 30
0.0
 40
59.50000000732598
100
AcDbArc
 50
53.49669405403984
 51
59.51800584337612
  0
ARC
  5
306E
330
2
100
AcDbEntity
  8
0
100
AcDbCircle
 10
1312.76520256826
 20
438.0678655721286
 30
0.0
 40
2.0
100
AcDbArc
 50
90.0
 51
239.5180058433761
  0
ARC
  5
306F
330
2
100
AcDbEntity
  8
0
100
AcDbCircle
 10
1281.568247578976
 20
385.0678655875864
 30
0.0
 40
59.50000000732598
100
AcDbArc
 50
143.4966941029827
 51
149.3508730311764
  0
ARC
  5
3070
330
2
100
AcDbEntity
  8
0
100
AcDbCircle
 10
1228.659475028551
 20
416.4192896078994
 30
0.0
 40
2.0
100
AcDbArc
 50
179.8333333399819
 51
329.3508730311764
  0
ARC
  5
3071
330
2
100
AcDbEntity
  8
0
100
AcDbCircle
 10
1235.606306770931
 20
339.1059247795455
 30
0.0
 40
8.0
100
AcDbArc
 50
315.266843248591
 51
339.6768524193829
  0
ARC
  5
3072
330
2
100
AcDbEntity
  8
0
100
AcDbCircle
 10
1242.71022981337
 20
332.0678655721286
 30
0.0
 40
2.0
100
AcDbArc
 50
135.266843248591
 51
270.0
  0
ARC
  5
3073
330
2
100
AcDbEntity
  8
0
100
AcDbCircle
 10
1244.983793726469
 20
335.6327794617233
 30
0.0
 40
2.0
100
AcDbArc
 50
53.49669403634091
 51
159.6768524193828
  0
ARC
  5
3074
330
2
100
AcDbEntity
  8
0
100
AcDbCircle
 10
1235.606306770931
 20
339.1059247795455
 30
0.0
 40
8.0
100
AcDbArc
 50
110.3231475420369
 51
133.8308403702429
  0
ARC
  5
3075
330
2
100
AcDbEntity
  8
0
100
AcDbCircle
 10
1228.680991045155
 20
346.3198004437318
 30
0.0
 40
2.0
100
AcDbArc
 50
180.1666666599919
 51
313.830840370243
  0
ARC
  5
3076
330
2
100
AcDbEntity
  8
0
100
AcDbCircle
 10
1235.606306770931
 20
431.0298063337962
 30
0.0
 40
8.0
100
AcDbArc
 50
226.169159629036
 51
249.6768523482129
  0
ARC
  5
3077
330
2
100
AcDbEntity
  8
0
100
AcDbCircle
 10
1232.133161441459
 20
421.6523193825723
 30
0.0
 40
2.0
100
AcDbArc
 50
323.4966941029997
 51
69.676852348213
  0
ARC
  5
3078
330
2
100
AcDbEntity
  8
0
100
AcDbCircle
 10
1228.680991045065
 20
423.8159306696978
 30
0.0
 40
2.0
100
AcDbArc
 50
46.16915962903604
 51
179.833333340008
  0
ARC
  5
3079
330
2
100
AcDbEntity
  8
0
100
AcDbCircle
 10
1327.530188325183
 20
431.0298063337967
 30
0.0
 40
8.0
100
AcDbArc
 50
135.266842999223
 51
159.676852161415
  0
ARC
  5
307A
330
2
100
AcDbEntity
  8
0
100
AcDbCircle
 10
1320.426265313372
 20
438.0678655721286
 30
0.0
 40
2.0
100
AcDbArc
 50
315.266842999223
 51
90.0
  0
ARC
  5
307B
330
2
100
AcDbEntity
  8
0
100
AcDbCircle
 10
1318.152701385283
 20
434.5029516938425
 30
0.0
 40
2.0
100
AcDbArc
 50
233.4966940540398
 51
339.676852161415
  0
ARC
  5
307C
330
2
100
AcDbEntity
  8
0
100
AcDbCircle
 10
1327.530188325183
 20
339.1059247795447
 30
0.0
 40
8.0
100
AcDbArc
 50
200.3231476903412
 51
224.7331567514089
  0
ARC
  5
307D
330
2
100
AcDbEntity
  8
0
100
AcDbCircle
 10
1320.426265282744
 20
332.0678655721286
 30
0.0
 40
2.0
100
AcDbArc
 50
270.0
 51
44.73315675140893
  0
ARC
  5
307E
330
2
100
AcDbEntity
  8
0
100
AcDbCircle
 10
1318.152701376297
 20
335.6327794437638
 30
0.0
 40
2.0
100
AcDbArc
 50
20.32314769032371
 51
126.5033059355235
  0
CIRCLE
  5
307F
330
2
100
AcDbEntity
  8
CENTER
100
AcDbCircle
 10
1281.568247618647
 20
385.0678655701128
 30
0.0
 40
72.50000001854868
  0
LINE
  5
30A2
330
2
100
AcDbEntity
  8
0
100
AcDbLine
 10
90.61463291665381
 20
445.0678655566774
 30
0.0
 11
90.61463291665381
 21
325.0678655566773
 31
0.0
  0
LINE
  5
30A3
330
2
100
AcDbEntity
  8
0
100
AcDbLine
 10
75.56732902096223
 20
385.0678655566773
 30
0.0
 11
76.58033205257448
 21
327.0329607438024
 31
0.0
  0
LINE
  5
30A4
330
2
100
AcDbEntity
  8
0
100
AcDbLine
 10
19.14923839042126
 20
325.0678655566777
 30
0.0
 11
6.11463291665018
 21
325.0678655566774
 31
0.0
  0
ARC
  5
30A5
330
2
100
AcDbEntity
  8
0
100
AcDbCircle
 10
19.14923839042126
 20
327.0678655566778
 30
0.0
 40
2.0
100
AcDbArc
 50
270.0
 51
358.9999999998549
  0
LINE
  5
30A6
330
2
100
AcDbEntity
  8
0
100
AcDbLine
 10
68.89756907737023
 20
437.5678655566771
 30
0.0
 11
26.1590322191912
 21
437.567865556677
 31
0.0
  0
ARC
  5
30A7
330
2
100
AcDbEntity
  8
0
100
AcDbCircle
 10
26.1590322191912
 20
442.567865556677
 30
0.0
 40
5.0
100
AcDbArc
 50
181.0000000000538
 51
270.0
  0
LINE
  5
30A8
330
2
100
AcDbEntity
  8
0
100
AcDbLine
 10
90.61463291665473
 20
445.0678655566775
 30
0.0
 11
78.5800274428891
 21
445.0678655566771
 31
0.0
  0
ARC
  5
30A9
330
2
100
AcDbEntity
  8
0
100
AcDbCircle
 10
78.5800274428891
 20
443.0678655566771
 30
0.0
 40
2.0
100
AcDbArc
 50
90.0
 51
178.9999999999982
  0
ARC
  5
30AA
330
2
100
AcDbEntity
  8
0
100
AcDbCircle
 10
68.89756907737023
 20
445.5678655566771
 30
0.0
 40
8.0
100
AcDbArc
 50
307.3910168652191
 51
345.5224878140705
  0
LINE
  5
30AB
330
2
100
AcDbEntity
  8
0
100
AcDbLine
 10
90.61463291665473
 20
325.0678655566776
 30
0.0
 11
78.58002744288637
 21
325.067865556677
 31
0.0
  0
ARC
  5
30AC
330
2
100
AcDbEntity
  8
0
100
AcDbCircle
 10
78.58002744288637
 20
327.0678655566769
 30
0.0
 40
2.0
100
AcDbArc
 50
181.0000000000017
 51
270.0
  0
ARC
  5
30AD
330
2
100
AcDbEntity
  8
0
100
AcDbCircle
 10
68.8975690773675
 20
324.5678655566775
 30
0.0
 40
8.0
100
AcDbArc
 50
14.47751218592945
 51
52.60898316750672
  0
LINE
  5
30AE
330
2
100
AcDbEntity
  8
0
100
AcDbLine
 10
68.8975690773666
 20
332.5678655566775
 30
0.0
 11
26.15903221919393
 21
332.5678655566773
 31
0.0
  0
ARC
  5
30AF
330
2
100
AcDbEntity
  8
0
100
AcDbCircle
 10
26.15903221919393
 20
327.5678655566773
 30
0.0
 40
5.0
100
AcDbArc
 50
90.0
 51
178.9999999998419
  0
LINE
  5
30B0
330
2
100
AcDbEntity
  8
0
100
AcDbLine
 10
6.11463291665018
 20
325.0678655566774
 30
0.0
 11
6.11463291664927
 21
445.0678655566782
 31
0.0
  0
LINE
  5
30B1
330
2
100
AcDbEntity
  8
0
100
AcDbLine
 10
21.14893378073407
 20
327.0329607438032
 30
0.0
 11
22.16193681247364
 21
385.0678655566773
 31
0.0
  0
LINE
  5
30B2
330
2
100
AcDbEntity
  8
0
100
AcDbLine
 10
6.11463291665018
 20
385.0678655566773
 30
0.0
 11
90.61463291665381
 21
385.0678655566773
 31
0.0
  0
LINE
  5
30B3
330
2
100
AcDbEntity
  8
CENTER
100
AcDbLine
 10
24.61463291665109
 20
431.8154862745269
 30
0.0
 11
24.61463291665109
 21
449.1842664228771
 31
0.0
  0
LINE
  5
30B4
330
2
100
AcDbEntity
  8
0
100
AcDbLine
 10
35.14893378073134
 20
439.6027703695524
 30
0.0
 11
35.15015231228221
 21
439.5329607438011
 31
0.0
  0
ARC
  5
30B5
330
2
100
AcDbEntity
  8
0
 48
0.5
100
AcDbCircle
 10
37.14984770259502
 20
439.5678655566763
 30
0.0
 40
2.0
100
AcDbArc
 50
181.0000000000148
 51
270.0
  0
LINE
  5
30B6
330
2
100
AcDbEntity
  8
0
100
AcDbLine
 10
22.15842290701652
 20
441.5678655566778
 30
0.0
 11
33.14923839041944
 21
441.5678655566773
 31
0.0
  0
ARC
  5
30B7
330
2
100
AcDbEntity
  8
0
100
AcDbCircle
 10
33.14923839041944
 20
439.5678655566773
 30
0.0
 40
2.0
100
AcDbArc
 50
1.000000000001761
 51
90.0
  0
ARC
  5
30B8
330
2
100
AcDbEntity
  8
0
100
AcDbCircle
 10
22.15842290701652
 20
442.5678655566778
 30
0.0
 40
1.0
100
AcDbArc
 50
181.000000000132
 51
270.0
  0
LINE
  5
30B9
330
2
100
AcDbEntity
  8
0
100
AcDbLine
 10
6.11463291664927
 20
445.0678655566784
 30
0.0
 11
19.14923839042126
 21
445.0678655566778
 31
0.0
  0
LINE
  5
30BA
330
2
100
AcDbEntity
  8
0
100
AcDbLine
 10
75.56732902096223
 20
385.0678655566773
 30
0.0
 11
76.58033205257538
 21
443.1027703695518
 31
0.0
  0
LINE
  5
30BB
330
2
100
AcDbEntity
  8
0
100
AcDbLine
 10
21.14893378073134
 20
443.1027703695523
 30
0.0
 11
22.16193681262188
 21
385.0678655566773
 31
0.0
  0
ARC
  5
30BC
330
2
100
AcDbEntity
  8
0
100
AcDbCircle
 10
19.14923839042126
 20
443.0678655566778
 30
0.0
 40
2.0
100
AcDbArc
 50
1.000000000053863
 51
90.0
  0
LINE
  5
30BE
330
2
100
AcDbEntity
  8
0
100
AcDbLine
 10
978.5946935603245
 20
445.5678655566772
 30
0.0
 11
968.5946935603244
 21
445.5678655566772
 31
0.0
  0
ARC
  5
30BF
330
2
100
AcDbEntity
  8
0
100
AcDbCircle
 10
968.5946935603244
 20
441.5678655566772
 30
0.0
 40
4.0
100
AcDbArc
 50
90.0
 51
180.0
  0
ARC
  5
30C0
330
2
100
AcDbEntity
  8
0
100
AcDbCircle
 10
978.5946935603245
 20
441.5678655566772
 30
0.0
 40
4.0
100
AcDbArc
 50
61.04497562815389
 51
90.0
  0
LINE
  5
30C1
330
2
100
AcDbEntity
  8
0
100
AcDbLine
 10
29.61463291665109
 20
445.5678655566774
 30
0.0
 11
19.61463291665109
 21
445.5678655566774
 31
0.0
  0
ARC
  5
30C2
330
2
100
AcDbEntity
  8
0
100
AcDbCircle
 10
19.61463291665109
 20
441.5678655566773
 30
0.0
 40
4.0
100
AcDbArc
 50
90.0
 51
118.9550243718315
  0
ARC
  5
30C3
330
2
100
AcDbEntity
  8
0
100
AcDbCircle
 10
29.61463291665109
 20
441.5678655566773
 30
0.0
 40
4.0
100
AcDbArc
 50
0.0
 51
90.0
  0
LINE
  5
30C4
330
2
100
AcDbEntity
  8
0
100
AcDbLine
 10
1266.568247578981
 20
445.5678655485461
 30
0.0
 11
1256.568247578981
 21
445.5678655485461
 31
0.0
  0
ARC
  5
30C5
330
2
100
AcDbEntity
  8
HIDS
  6
SEKKEI_H
100
AcDbCircle
 10
1256.568247578981
 20
441.5678655485461
 30
0.0
 40
4.0
100
AcDbArc
 50
118.9550241313059
 51
180.0
  0
ARC
  5
30C6
330
2
100
AcDbEntity
  8
HIDS
  6
SEKKEI_H
100
AcDbCircle
 10
1266.568247578981
 20
441.5678655485461
 30
0.0
 40
4.0
100
AcDbArc
 50
0.0
 51
61.04497586870856
  0
LINE
  5
30CA
330
2
100
AcDbEntity
  8
0
100
AcDbLine
 10
33.14923839041944
 20
441.5678655566773
 30
0.0
 11
33.61463291665109
 21
441.5678655566773
 31
0.0
  0
LINE
  5
30CB
330
2
100
AcDbEntity
  8
0
100
AcDbLine
 10
965.060088086556
 20
441.5678655566772
 30
0.0
 11
964.5946935603245
 21
441.5678655566772
 31
0.0
  0
ARC
  5
30CC
330
2
100
AcDbEntity
  8
0
100
AcDbCircle
 10
1256.568247578981
 20
441.5678655485461
 30
0.0
 40
3.999999999999957
100
AcDbArc
 50
90.0
 51
118.9550241313059
  0
ARC
  5
30CD
330
2
100
AcDbEntity
  8
0
100
AcDbCircle
 10
1266.568247578981
 20
441.5678655485461
 30
0.0
 40
3.999999999999991
100
AcDbArc
 50
61.04497586870856
 51
90.0
  0
LINE
  5
30CE
330
2
100
AcDbEntity
  8
0
100
AcDbLine
 10
76.32477273462473
 20
439.9617868497837
 30
0.0
 11
74.82477273462428
 21
439.9617868497837
 31
0.0
  0
LINE
  5
30CF
330
2
100
AcDbEntity
  8
0
100
AcDbLine
 10
76.3247727346245
 20
428.4617868497837
 30
0.0
 11
74.82477273462382
 21
428.4617868497837
 31
0.0
  0
LINE
  5
30D0
330
2
100
AcDbEntity
  8
0
100
AcDbLine
 10
69.22477273462437
 20
439.2117868497841
 30
0.0
 11
68.82477273462473
 21
438.5189665267569
 31
0.0
  0
LINE
  5
30D1
330
2
100
AcDbEntity
  8
0
100
AcDbLine
 10
74.82477273462428
 20
439.9617868497837
 30
0.0
 11
74.82477273462382
 21
428.4617868497837
 31
0.0
  0
LINE
  5
30D2
330
2
100
AcDbEntity
  8
0
100
AcDbLine
 10
69.22477273462437
 20
439.2117868497841
 30
0.0
 11
69.22477273462414
 21
429.2117868497841
 31
0.0
  0
LINE
  5
30D3
330
2
100
AcDbEntity
  8
0
100
AcDbLine
 10
74.82477273462428
 20
439.2117868497837
 30
0.0
 11
69.22477273462437
 21
439.2117868497841
 31
0.0
  0
LINE
  5
30D4
330
2
100
AcDbEntity
  8
0
100
AcDbLine
 10
74.82477273462382
 20
429.2117868497837
 30
0.0
 11
69.22477273462414
 21
429.2117868497841
 31
0.0
  0
LINE
  5
30D5
330
2
100
AcDbEntity
  8
0
100
AcDbLine
 10
69.22477273462414
 20
429.2117868497841
 30
0.0
 11
68.8247727346245
 21
429.9046071728114
 31
0.0
  0
LINE
  5
30D6
330
2
100
AcDbEntity
  8
0
100
AcDbLine
 10
68.82477273462473
 20
438.5189665267569
 30
0.0
 11
68.8247727346245
 21
429.9046071728114
 31
0.0
  0
LINE
  5
30D7
330
2
100
AcDbEntity
  8
0
 48
12.0
100
AcDbLine
 10
76.3247727346245
 20
428.4617868497837
 30
0.0
 11
76.32477273462473
 21
439.9617868497837
 31
0.0
  0
LINE
  5
30D8
330
2
100
AcDbEntity
  8
0
100
AcDbLine
 10
921.5946935603199
 20
813.2951734522578
 30
0.0
 11
923.0946935603206
 21
813.2951734522578
 31
0.0
  0
LINE
  5
30D9
330
2
100
AcDbEntity
  8
0
100
AcDbLine
 10
921.59469356032
 20
824.7951734522578
 30
0.0
 11
923.0946935603208
 21
824.7951734522578
 31
0.0
  0
LINE
  5
30DA
330
2
100
AcDbEntity
  8
0
100
AcDbLine
 10
928.6946935603202
 20
814.0451734522578
 30
0.0
 11
929.09469356032
 21
814.737993775285
 31
0.0
  0
LINE
  5
30DB
330
2
100
AcDbEntity
  8
0
100
AcDbLine
 10
923.0946935603206
 20
813.2951734522578
 30
0.0
 11
923.0946935603208
 21
824.7951734522578
 31
0.0
  0
LINE
  5
30DC
330
2
100
AcDbEntity
  8
0
100
AcDbLine
 10
928.6946935603202
 20
814.0451734522578
 30
0.0
 11
928.6946935603205
 21
824.0451734522578
 31
0.0
  0
LINE
  5
30DD
330
2
100
AcDbEntity
  8
0
100
AcDbLine
 10
923.0946935603206
 20
814.0451734522578
 30
0.0
 11
928.6946935603202
 21
814.0451734522578
 31
0.0
  0
LINE
  5
30DE
330
2
100
AcDbEntity
  8
0
100
AcDbLine
 10
923.0946935603208
 20
824.0451734522578
 30
0.0
 11
928.6946935603205
 21
824.0451734522578
 31
0.0
  0
LINE
  5
30DF
330
2
100
AcDbEntity
  8
0
100
AcDbLine
 10
928.6946935603205
 20
824.0451734522578
 30
0.0
 11
929.0946935603201
 21
823.3523531292306
 31
0.0
  0
LINE
  5
30E0
330
2
100
AcDbEntity
  8
0
100
AcDbLine
 10
929.09469356032
 20
814.737993775285
 30
0.0
 11
929.0946935603201
 21
823.3523531292306
 31
0.0
  0
LINE
  5
30E1
330
2
100
AcDbEntity
  8
0
 48
12.0
100
AcDbLine
 10
921.59469356032
 20
824.7951734522578
 30
0.0
 11
921.5946935603199
 21
813.2951734522578
 31
0.0
  0
LINE
  5
30E2
330
2
100
AcDbEntity
  8
0
100
AcDbLine
 10
921.8845537424002
 20
330.1739442663448
 30
0.0
 11
923.3845537424006
 21
330.1739442663448
 31
0.0
  0
LINE
  5
30E3
330
2
100
AcDbEntity
  8
0
100
AcDbLine
 10
921.8845537424002
 20
341.6739442663447
 30
0.0
 11
923.3845537424008
 21
341.6739442663447
 31
0.0
  0
LINE
  5
30E4
330
2
100
AcDbEntity
  8
0
100
AcDbLine
 10
928.9845537424005
 20
330.9239442663445
 30
0.0
 11
929.3845537424001
 21
331.6167645893718
 31
0.0
  0
LINE
  5
30E5
330
2
100
AcDbEntity
  8
0
100
AcDbLine
 10
923.3845537424006
 20
330.1739442663448
 30
0.0
 11
923.3845537424008
 21
341.6739442663447
 31
0.0
  0
LINE
  5
30E6
330
2
100
AcDbEntity
  8
0
100
AcDbLine
 10
928.9845537424005
 20
330.9239442663445
 30
0.0
 11
928.9845537424005
 21
340.9239442663445
 31
0.0
  0
LINE
  5
30E7
330
2
100
AcDbEntity
  8
0
100
AcDbLine
 10
923.3845537424006
 20
330.9239442663447
 30
0.0
 11
928.9845537424005
 21
330.9239442663445
 31
0.0
  0
LINE
  5
30E8
330
2
100
AcDbEntity
  8
0
100
AcDbLine
 10
923.3845537424008
 20
340.9239442663448
 30
0.0
 11
928.9845537424005
 21
340.9239442663445
 31
0.0
  0
LINE
  5
30E9
330
2
100
AcDbEntity
  8
0
100
AcDbLine
 10
928.9845537424005
 20
340.9239442663445
 30
0.0
 11
929.3845537424001
 21
340.2311239433172
 31
0.0
  0
LINE
  5
30EA
330
2
100
AcDbEntity
  8
0
100
AcDbLine
 10
929.3845537424001
 20
331.6167645893718
 30
0.0
 11
929.3845537424001
 21
340.2311239433172
 31
0.0
  0
LINE
  5
30EB
330
2
100
AcDbEntity
  8
0
 48
12.0
100
AcDbLine
 10
921.8845537424002
 20
341.6739442663447
 30
0.0
 11
921.8845537424002
 21
330.1739442663448
 31
0.0
  0
LINE
  5
30EC
330
2
100
AcDbEntity
  8
0
100
AcDbLine
 10
921.884553742351
 20
428.4617868497835
 30
0.0
 11
923.3845537423515
 21
428.4617868497835
 31
0.0
  0
LINE
  5
30ED
330
2
100
AcDbEntity
  8
0
100
AcDbLine
 10
921.884553742351
 20
439.9617868497835
 30
0.0
 11
923.3845537423519
 21
439.9617868497835
 31
0.0
  0
LINE
  5
30EE
330
2
100
AcDbEntity
  8
0
100
AcDbLine
 10
928.9845537423515
 20
429.2117868497832
 30
0.0
 11
929.3845537423511
 21
429.9046071728105
 31
0.0
  0
LINE
  5
30EF
330
2
100
AcDbEntity
  8
0
100
AcDbLine
 10
923.3845537423517
 20
428.4617868497835
 30
0.0
 11
923.3845537423519
 21
439.9617868497835
 31
0.0
  0
LINE
  5
30F0
330
2
100
AcDbEntity
  8
0
100
AcDbLine
 10
928.9845537423515
 20
429.2117868497832
 30
0.0
 11
928.9845537423515
 21
439.2117868497833
 31
0.0
  0
LINE
  5
30F1
330
2
100
AcDbEntity
  8
0
100
AcDbLine
 10
923.3845537423515
 20
429.2117868497835
 30
0.0
 11
928.9845537423515
 21
429.2117868497832
 31
0.0
  0
LINE
  5
30F2
330
2
100
AcDbEntity
  8
0
100
AcDbLine
 10
923.3845537423519
 20
439.2117868497835
 30
0.0
 11
928.9845537423515
 21
439.2117868497833
 31
0.0
  0
LINE
  5
30F3
330
2
100
AcDbEntity
  8
0
100
AcDbLine
 10
928.9845537423515
 20
439.2117868497833
 30
0.0
 11
929.3845537423511
 21
438.518966526756
 31
0.0
  0
LINE
  5
30F4
330
2
100
AcDbEntity
  8
0
100
AcDbLine
 10
929.3845537423511
 20
429.9046071728105
 30
0.0
 11
929.3845537423511
 21
438.518966526756
 31
0.0
  0
LINE
  5
30F5
330
2
100
AcDbEntity
  8
0
 48
12.0
100
AcDbLine
 10
921.884553742351
 20
439.9617868497835
 30
0.0
 11
921.884553742351
 21
428.4617868497835
 31
0.0
  0
LINE
  5
30F6
330
2
100
AcDbEntity
  8
0
100
AcDbLine
 10
76.32477273457539
 20
341.6739442663449
 30
0.0
 11
74.82477273457494
 21
341.6739442663449
 31
0.0
  0
LINE
  5
30F7
330
2
100
AcDbEntity
  8
0
100
AcDbLine
 10
76.32477273457516
 20
330.1739442663449
 30
0.0
 11
74.82477273457448
 21
330.1739442663449
 31
0.0
  0
LINE
  5
30F8
330
2
100
AcDbEntity
  8
0
100
AcDbLine
 10
69.22477273457502
 20
340.9239442663454
 30
0.0
 11
68.82477273457539
 21
340.2311239433181
 31
0.0
  0
LINE
  5
30F9
330
2
100
AcDbEntity
  8
0
100
AcDbLine
 10
74.82477273457494
 20
341.6739442663449
 30
0.0
 11
74.82477273457448
 21
330.1739442663449
 31
0.0
  0
LINE
  5
30FA
330
2
100
AcDbEntity
  8
0
100
AcDbLine
 10
69.22477273457502
 20
340.9239442663454
 30
0.0
 11
69.2247727345748
 21
330.9239442663454
 31
0.0
  0
LINE
  5
30FB
330
2
100
AcDbEntity
  8
0
100
AcDbLine
 10
74.82477273457494
 20
340.9239442663449
 30
0.0
 11
69.22477273457502
 21
340.9239442663454
 31
0.0
  0
LINE
  5
30FC
330
2
100
AcDbEntity
  8
0
100
AcDbLine
 10
74.82477273457448
 20
330.9239442663449
 30
0.0
 11
69.2247727345748
 21
330.9239442663454
 31
0.0
  0
LINE
  5
30FD
330
2
100
AcDbEntity
  8
0
100
AcDbLine
 10
69.2247727345748
 20
330.9239442663454
 30
0.0
 11
68.82477273457516
 21
331.6167645893727
 31
0.0
  0
LINE
  5
30FE
330
2
100
AcDbEntity
  8
0
100
AcDbLine
 10
68.82477273457539
 20
340.2311239433181
 30
0.0
 11
68.82477273457516
 21
331.6167645893727
 31
0.0
  0
LINE
  5
30FF
330
2
100
AcDbEntity
  8
0
 48
12.0
100
AcDbLine
 10
76.32477273457516
 20
330.1739442663449
 30
0.0
 11
76.32477273457539
 21
341.6739442663449
 31
0.0
  0
CIRCLE
  5
3100
330
2
100
AcDbEntity
  8
0
100
AcDbCircle
 10
973.5946935603262
 20
749.9012521591508
 30
0.0
 40
9.0
  0
LINE
  5
3101
330
2
100
AcDbEntity
  8
0
100
AcDbLine
 10
962.0946935603193
 20
406.597277409251
 30
0.0
 11
962.0946935603196
 21
385.067865556677
 31
0.0
  0
LINE
  5
3102
330
2
100
AcDbEntity
  8
0
100
AcDbLine
 10
984.0946935603197
 20
385.0678655566771
 30
0.0
 11
984.0946935603192
 21
412.0678655566796
 31
0.0
  0
LINE
  5
3103
330
2
100
AcDbEntity
  8
0
100
AcDbLine
 10
982.0946935603197
 20
385.0678655566771
 30
0.0
 11
982.0946935603192
 21
394.5678655566793
 31
0.0
  0
LINE
  5
3104
330
2
100
AcDbEntity
  8
0
100
AcDbLine
 10
964.0946935603192
 20
407.6681913920936
 30
0.0
 11
964.0946935603196
 21
385.067865556677
 31
0.0
  0
LINE
  5
3105
330
2
100
AcDbEntity
  8
0
100
AcDbLine
 10
920.5946935603197
 20
385.0678655566767
 30
0.0
 11
920.5946935603197
 21
395.0678655566779
 31
0.0
  0
LINE
  5
3106
330
2
100
AcDbEntity
  8
0
 48
0.3
100
AcDbLine
 10
940.5946935603202
 20
395.0678655566781
 30
0.0
 11
920.5946935603197
 21
395.0678655566779
 31
0.0
  0
LINE
  5
3107
330
2
100
AcDbEntity
  8
0
 48
0.3
100
AcDbLine
 10
940.5946935603202
 20
394.5678655566783
 30
0.0
 11
962.0946935603193
 21
394.5678655566785
 31
0.0
  0
LINE
  5
3108
330
2
100
AcDbEntity
  8
0
100
AcDbLine
 10
940.5946935603202
 20
385.0678655566768
 30
0.0
 11
940.5946935603202
 21
395.0678655566781
 31
0.0
  0
LINE
  5
3109
330
2
100
AcDbEntity
  8
0
100
AcDbLine
 10
967.7136682069493
 20
412.0678655566792
 30
0.0
 11
984.0946935603192
 21
412.0678655566796
 31
0.0
  0
LINE
  5
310A
330
2
100
AcDbEntity
  8
0
 48
0.3
100
AcDbLine
 10
964.0946935603192
 20
394.567865556679
 30
0.0
 11
982.0946935603192
 21
394.5678655566794
 31
0.0
  0
LINE
  5
310B
330
2
100
AcDbEntity
  8
0
 48
0.3
100
AcDbLine
 10
915.3985411376124
 20
385.0678655566771
 30
0.0
 11
920.5946935603197
 21
394.0678655566778
 31
0.0
  0
LINE
  5
310C
330
2
100
AcDbEntity
  8
0
100
AcDbLine
 10
982.0946935603197
 20
394.5678655566751
 30
0.0
 11
984.0946935603197
 21
395.7225660950544
 31
0.0
  0
SPLINE
  5
310D
330
2
100
AcDbEntity
  8
HOJO
100
AcDbSpline
210
0.0
220
0.0
230
1.0
 70
     8
 71
     3
 72
    19
 73
    15
 74
    13
 42
0.0000000001
 43
0.0000000001
 44
0.0000000001
 40
0.0
 40
0.0
 40
0.0
 40
0.0
 40
18.37115282813626
 40
26.82686419010492
 40
34.41443027196517
 40
43.69308705430969
 40
52.15458482579997
 40
61.0219005937996
 40
64.21194539914488
 40
69.29056184957153
 40
80.51270150590049
 40
90.35074264380439
 40
102.4999819168683
 40
107.4886059916838
 40
107.4886059916838
 40
107.4886059916838
 40
107.4886059916838
 10
909.2746309670124
 20
385.0678655566771
 30
0.0
 10
911.154696286808
 20
391.209675917011
 30
0.0
 10
913.9001014050672
 20
400.1783843023504
 30
0.0
 10
924.848251868674
 20
406.0374601264601
 30
0.0
 10
933.3799575503695
 20
404.6329443642364
 30
0.0
 10
941.7946016723396
 20
405.4105001099052
 30
0.0
 10
950.6371711017928
 20
405.8141347793669
 30
0.0
 10
957.5634312530182
 20
405.2269019242212
 30
0.0
 10
963.1084514177899
 20
406.7621706827296
 30
0.0
 10
968.5962374220853
 20
410.9554271194928
 30
0.0
 10
969.0747423819857
 20
420.5021240052394
 30
0.0
 10
976.1235245221067
 20
429.4055574917816
 30
0.0
 10
976.8334578453961
 20
438.8507126005731
 30
0.0
 10
979.9803307358144
 20
443.6661501229925
 30
0.0
 10
980.8963472509926
 20
445.0678655566776
 30
0.0
 11
909.2746309670124
 21
385.0678655566771
 31
0.0
 11
917.6295896298212
 21
401.4292200842674
 31
0.0
 11
925.2082289982904
 21
405.1793240774404
 31
0.0
 11
932.7941402156147
 21
405.0208625695943
 31
0.0
 11
942.0665890918312
 21
405.360220083877
 31
0.0
 11
950.5238784348502
 21
405.6270561859904
 31
0.0
 11
959.3887481891066
 21
405.8353184473051
 31
0.0
 11
962.4456006287459
 21
406.7474801776911
 31
0.0
 11
966.4499436305286
 21
409.8711930605627
 31
0.0
 11
970.2598463876174
 21
420.426810496207
 31
0.0
 11
974.8144883815839
 21
429.147033528784
 31
0.0
 11
978.3767228928217
 21
440.7623036591385
 31
0.0
 11
980.8963472509926
 21
445.0678655566776
 31
0.0
  0
LINE
  5
310E
330
2
100
AcDbEntity
  8
0
100
AcDbLine
 10
985.0946935603262
 20
385.0678655566771
 30
0.0
 11
985.0946935603287
 21
440.0678655566773
 31
0.0
  0
LINE
  5
310F
330
2
100
AcDbEntity
  8
0
100
AcDbLine
 10
985.0946935603278
 20
440.0678655566773
 30
0.0
 11
992.0946935603263
 21
440.0678655566768
 31
0.0
  0
LINE
  5
3110
330
2
100
AcDbEntity
  8
0
100
AcDbLine
 10
984.0946935603271
 20
385.0678655566771
 30
0.0
 11
984.0946935603305
 21
437.7178655567022
 31
0.0
  0
LINE
  5
3111
330
2
100
AcDbEntity
  8
0
100
AcDbLine
 10
984.0946935603055
 20
437.7178655566773
 30
0.0
 11
985.0946935603287
 21
438.7178655567018
 31
0.0
  0
LINE
  5
3112
330
2
100
AcDbEntity
  8
0
100
AcDbLine
 10
979.7756658858329
 20
429.0973345324684
 30
0.0
 11
979.9629344486657
 21
429.1303550327343
 31
0.0
  0
ARC
  5
3113
330
2
100
AcDbEntity
  8
0
100
AcDbCircle
 10
979.0946935603308
 20
434.0543937977957
 30
0.0
 40
5.0
100
AcDbArc
 50
280.000000000005
 51
359.9999999999869
  0
LINE
  5
3115
330
2
100
AcDbEntity
  8
CENTER
100
AcDbLine
 10
1261.568247578994
 20
362.1932794685047
 30
0.0
 11
1261.568247578994
 21
449.184266422877
 31
0.0
  0
LINE
  5
3116
330
2
100
AcDbEntity
  8
HIDS
  6
SEKKEI_H
100
AcDbLine
 10
1256.48837517102
 20
395.067865556692
 30
0.0
 11
1269.318247578987
 21
395.0678655566917
 31
0.0
  0
LINE
  5
3117
330
2
100
AcDbEntity
  8
HIDS
  6
SEKKEI_H
100
AcDbLine
 10
1266.068247578987
 20
385.8178655566888
 30
0.0
 11
1266.068247578987
 21
395.0678655566917
 31
0.0
  0
LINE
  5
3118
330
2
100
AcDbEntity
  8
HIDS
  6
SEKKEI_H
100
AcDbLine
 10
1257.068247578988
 20
385.8178655566888
 30
0.0
 11
1257.068247578988
 21
395.067865556692
 31
0.0
  0
LINE
  5
3119
330
2
100
AcDbEntity
  8
HIDS
  6
SEKKEI_H
100
AcDbLine
 10
1258.168247578987
 20
371.5978989643027
 30
0.0
 11
1258.168247578987
 21
384.3178655566891
 31
0.0
  0
LINE
  5
311A
330
2
100
AcDbEntity
  8
HIDS
  6
SEKKEI_H
100
AcDbLine
 10
1257.568247578987
 20
372.067865556692
 30
0.0
 11
1257.568247578987
 21
384.3178655566893
 31
0.0
  0
LINE
  5
311B
330
2
100
AcDbEntity
  8
HIDS
  6
SEKKEI_H
100
AcDbLine
 10
1265.568247578988
 20
363.3193023857571
 30
0.0
 11
1265.568247578988
 21
384.3178655566893
 31
0.0
  0
LINE
  5
311C
330
2
100
AcDbEntity
  8
HIDS
  6
SEKKEI_H
100
AcDbLine
 10
1264.968247578987
 20
363.773734909959
 30
0.0
 11
1264.968247578987
 21
384.3178655566893
 31
0.0
  0
LINE
  5
311D
330
2
100
AcDbEntity
  8
0
100
AcDbLine
 10
1254.578666255818
 20
384.3178655566891
 30
0.0
 11
1272.097899116543
 21
384.3178655566891
 31
0.0
  0
LINE
  5
311E
330
2
100
AcDbEntity
  8
0
100
AcDbLine
 10
1291.038596041416
 20
384.3178655566891
 30
0.0
 11
1307.576967625035
 21
384.3178655566893
 31
0.0
  0
LINE
  5
311F
330
2
100
AcDbEntity
  8
0
100
AcDbLine
 10
1254.578666255818
 20
385.8178655566888
 30
0.0
 11
1272.097899116545
 21
385.8178655566891
 31
0.0
  0
LINE
  5
3120
330
2
100
AcDbEntity
  8
0
100
AcDbLine
 10
1291.038596041414
 20
385.8178655566894
 30
0.0
 11
1307.576967625035
 21
385.817865556689
 31
0.0
  0
LINE
  5
3121
330
2
100
AcDbEntity
  8
0
100
AcDbLine
 10
1307.576967625035
 20
385.817865556689
 30
0.0
 11
1307.576967625035
 21
384.3178655566893
 31
0.0
  0
LINE
  5
3122
330
2
100
AcDbEntity
  8
HIDS
  6
SEKKEI_H
100
AcDbLine
 10
1268.068247578994
 20
404.567865556692
 30
0.0
 11
1262.893398182007
 21
404.567865556692
 31
0.0
  0
LINE
  5
3123
330
2
100
AcDbEntity
  8
HIDS
  6
SEKKEI_H
100
AcDbLine
 10
1267.202222175209
 20
405.067865556692
 30
0.0
 11
1263.429890431774
 21
405.067865556692
 31
0.0
  0
LINE
  5
3124
330
2
100
AcDbEntity
  8
HIDS
  6
SEKKEI_H
100
AcDbLine
 10
1268.818247578994
 20
397.067865556692
 30
0.0
 11
1257.381474334093
 21
397.067865556692
 31
0.0
  0
LINE
  5
3125
330
2
100
AcDbEntity
  8
HIDS
  6
SEKKEI_H
100
AcDbLine
 10
1264.368247579001
 20
372.067865556692
 30
0.0
 11
1258.768247578987
 21
372.067865556692
 31
0.0
  0
LINE
  5
3126
330
2
100
AcDbEntity
  8
HIDS
  6
SEKKEI_H
100
AcDbLine
 10
1265.568247578988
 20
373.267865556692
 30
0.0
 11
1257.568247578987
 21
373.2678655566918
 31
0.0
  0
LINE
  5
3127
330
2
100
AcDbEntity
  8
0
 48
0.3
100
AcDbLine
 10
1254.318247578994
 20
397.0678655566917
 30
0.0
 11
1254.318247578994
 21
395.0678655566917
 31
0.0
  0
LINE
  5
3128
330
2
100
AcDbEntity
  8
0
 48
0.3
100
AcDbLine
 10
1255.068247578994
 20
404.5678655566917
 30
0.0
 11
1255.934272982779
 21
405.0678655566917
 31
0.0
  0
LINE
  5
3129
330
2
100
AcDbEntity
  8
0
 48
0.3
100
AcDbLine
 10
1255.068247578994
 20
404.5678655566917
 30
0.0
 11
1255.068247578994
 21
397.0678655566917
 31
0.0
  0
LINE
  5
312A
330
2
100
AcDbEntity
  8
HIDS
  6
SEKKEI_H
100
AcDbLine
 10
1268.818247578994
 20
397.067865556692
 30
0.0
 11
1268.818247578994
 21
395.067865556692
 31
0.0
  0
LINE
  5
312B
330
2
100
AcDbEntity
  8
HIDS
  6
SEKKEI_H
100
AcDbLine
 10
1268.068247578994
 20
404.5678655566913
 30
0.0
 11
1267.202222175209
 21
405.0678655566915
 31
0.0
  0
LINE
  5
312C
330
2
100
AcDbEntity
  8
HIDS
  6
SEKKEI_H
100
AcDbLine
 10
1268.068247578994
 20
404.5678655566911
 30
0.0
 11
1268.068247578994
 21
397.067865556692
 31
0.0
  0
LINE
  5
312D
330
2
100
AcDbEntity
  8
HIDS
  6
SEKKEI_H
100
AcDbLine
 10
1269.268247578994
 20
395.067865556692
 30
0.0
 11
1256.48837517102
 21
395.0678655566917
 31
0.0
  0
LINE
  5
312E
330
2
100
AcDbEntity
  8
HOJO
100
AcDbLine
 10
1258.168247578987
 20
384.3178655566891
 30
0.0
 11
1258.168247578987
 21
385.8178655566888
 31
0.0
  0
LINE
  5
312F
330
2
100
AcDbEntity
  8
0
100
AcDbLine
 10
1257.568247578987
 20
384.3178655566893
 30
0.0
 11
1257.568247578987
 21
385.8178655566888
 31
0.0
  0
LINE
  5
3130
330
2
100
AcDbEntity
  8
HOJO
100
AcDbLine
 10
1264.968247578987
 20
384.3178655566893
 30
0.0
 11
1264.968247578987
 21
385.817865556689
 31
0.0
  0
LINE
  5
3131
330
2
100
AcDbEntity
  8
0
100
AcDbLine
 10
1265.568247578988
 20
384.3178655566893
 30
0.0
 11
1265.568247578988
 21
385.817865556689
 31
0.0
  0
LINE
  5
3132
330
2
100
AcDbEntity
  8
HIDS
  6
SEKKEI_H
100
AcDbLine
 10
1265.568247578988
 20
385.817865556689
 30
0.0
 11
1265.568247578988
 21
395.0678655566917
 31
0.0
  0
LINE
  5
3133
330
2
100
AcDbEntity
  8
HIDS
  6
SEKKEI_H
100
AcDbLine
 10
1264.968247578987
 20
385.817865556689
 30
0.0
 11
1264.968247578987
 21
395.0678655566917
 31
0.0
  0
LINE
  5
3134
330
2
100
AcDbEntity
  8
HIDS
  6
SEKKEI_H
100
AcDbLine
 10
1258.168247578987
 20
385.8178655566888
 30
0.0
 11
1258.168247578987
 21
395.067865556692
 31
0.0
  0
LINE
  5
3135
330
2
100
AcDbEntity
  8
HIDS
  6
SEKKEI_H
100
AcDbLine
 10
1257.568247578987
 20
385.8178655566888
 30
0.0
 11
1257.568247578987
 21
395.067865556692
 31
0.0
  0
LINE
  5
3136
330
2
100
AcDbEntity
  8
0
100
AcDbLine
 10
1263.429890431774
 20
405.067865556692
 30
0.0
 11
1255.934272982779
 21
405.0678655566917
 31
0.0
  0
LINE
  5
3137
330
2
100
AcDbEntity
  8
0
100
AcDbLine
 10
1262.893398182007
 20
404.567865556692
 30
0.0
 11
1255.068247578994
 21
404.5678655566917
 31
0.0
  0
LINE
  5
3138
330
2
100
AcDbEntity
  8
0
100
AcDbLine
 10
1257.381474334093
 20
397.067865556692
 30
0.0
 11
1254.318247578994
 21
397.0678655566917
 31
0.0
  0
LINE
  5
3139
330
2
100
AcDbEntity
  8
0
100
AcDbLine
 10
1256.48837517102
 20
395.0678655566917
 30
0.0
 11
1254.318247578994
 21
395.0678655566917
 31
0.0
  0
LINE
  5
313A
330
2
100
AcDbEntity
  8
HIDS
  6
SEKKEI_H
100
AcDbLine
 10
1257.568247578987
 20
373.2678655566918
 30
0.0
 11
1258.768247578987
 21
372.067865556692
 31
0.0
  0
LINE
  5
313B
330
2
100
AcDbEntity
  8
HIDS
  6
SEKKEI_H
100
AcDbLine
 10
1265.568247579001
 20
373.2678655566918
 30
0.0
 11
1264.368247579001
 21
372.067865556692
 31
0.0
  0
CIRCLE
  5
313C
330
2
100
AcDbEntity
  8
0
100
AcDbCircle
 10
1281.56824757898
 20
385.0678655566772
 30
0.0
 40
26.99999999999249
  0
CIRCLE
  5
313D
330
2
100
AcDbEntity
  8
0
100
AcDbCircle
 10
1281.56824757898
 20
385.067865556677
 30
0.0
 40
9.499999999997783
  0
ARC
  5
313E
330
2
100
AcDbEntity
  8
0
100
AcDbCircle
 10
1281.56824757898
 20
385.0678655566778
 30
0.0
 40
10.6547005383764
100
AcDbArc
 50
4.03647208280233
 51
175.9635279172106
  0
ARC
  5
313F
330
2
100
AcDbEntity
  8
0
100
AcDbCircle
 10
1281.56824757898
 20
385.0678655566778
 30
0.0
 40
10.6547005383764
100
AcDbArc
 50
184.0364720826719
 51
355.963527917328
  0
LINE
  5
3140
330
2
100
AcDbEntity
  8
HIDS
  6
SEKKEI_H
100
AcDbLine
 10
1269.318247578987
 20
395.0678655566917
 30
0.0
 11
1269.318247578987
 21
409.1289856469922
 31
0.0
  0
LINE
  5
3141
330
2
100
AcDbEntity
  8
0
100
AcDbLine
 10
921.5946935603199
 20
726.5073308660437
 30
0.0
 11
923.0946935603206
 21
726.5073308660437
 31
0.0
  0
LINE
  5
3142
330
2
100
AcDbEntity
  8
0
100
AcDbLine
 10
921.59469356032
 20
715.0073308660437
 30
0.0
 11
923.0946935603208
 21
715.0073308660437
 31
0.0
  0
LINE
  5
3143
330
2
100
AcDbEntity
  8
0
100
AcDbLine
 10
928.6946935603202
 20
725.7573308660437
 30
0.0
 11
929.09469356032
 21
725.0645105430164
 31
0.0
  0
LINE
  5
3144
330
2
100
AcDbEntity
  8
0
100
AcDbLine
 10
923.0946935603206
 20
726.5073308660437
 30
0.0
 11
923.0946935603208
 21
715.0073308660437
 31
0.0
  0
LINE
  5
3145
330
2
100
AcDbEntity
  8
0
100
AcDbLine
 10
928.6946935603202
 20
725.7573308660437
 30
0.0
 11
928.6946935603205
 21
715.7573308660437
 31
0.0
  0
LINE
  5
3146
330
2
100
AcDbEntity
  8
0
100
AcDbLine
 10
923.0946935603206
 20
725.7573308660437
 30
0.0
 11
928.6946935603202
 21
725.7573308660437
 31
0.0
  0
LINE
  5
3147
330
2
100
AcDbEntity
  8
0
100
AcDbLine
 10
923.0946935603208
 20
715.7573308660437
 30
0.0
 11
928.6946935603205
 21
715.7573308660437
 31
0.0
  0
LINE
  5
3148
330
2
100
AcDbEntity
  8
0
100
AcDbLine
 10
928.6946935603205
 20
715.7573308660437
 30
0.0
 11
929.0946935603201
 21
716.4501511890709
 31
0.0
  0
LINE
  5
3149
330
2
100
AcDbEntity
  8
0
100
AcDbLine
 10
929.09469356032
 20
725.0645105430164
 30
0.0
 11
929.0946935603201
 21
716.4501511890709
 31
0.0
  0
LINE
  5
314A
330
2
100
AcDbEntity
  8
0
 48
12.0
100
AcDbLine
 10
921.59469356032
 20
715.0073308660437
 30
0.0
 11
921.5946935603199
 21
726.5073308660437
 31
0.0
  0
LINE
  5
314B
330
2
100
AcDbEntity
  8
CENTER
  6
CENTERX2
100
AcDbLine
 10
918.5946935603201
 20
819.0451734522582
 30
0.0
 11
932.094693560321
 21
819.0451734522579
 31
0.0
  0
LINE
  5
314C
330
2
100
AcDbEntity
  8
CENTER
  6
CENTERX2
100
AcDbLine
 10
918.5946935603201
 20
720.7573308660442
 30
0.0
 11
932.094693560321
 21
720.7573308660437
 31
0.0
  0
LINE
  5
314D
330
2
100
AcDbEntity
  8
CENTER
  6
CENTERX2
100
AcDbLine
 10
918.8845537423512
 20
434.2117868497838
 30
0.0
 11
932.3845537423521
 21
434.2117868497834
 31
0.0
  0
LINE
  5
314E
330
2
100
AcDbEntity
  8
CENTER
  6
CENTERX2
100
AcDbLine
 10
918.8845537424004
 20
335.9239442663451
 30
0.0
 11
932.3845537424013
 21
335.9239442663446
 31
0.0
  0
LINE
  5
314F
330
2
100
AcDbEntity
  8
CENTER
  6
CENTERX2
100
AcDbLine
 10
79.32477273462473
 20
434.2117868497844
 30
0.0
 11
65.81866346189895
 21
434.2117868497841
 31
0.0
  0
LINE
  5
3150
330
2
100
AcDbEntity
  8
CENTER
  6
CENTERX2
100
AcDbLine
 10
79.32477273457539
 20
335.9239442663456
 30
0.0
 11
65.81866346184961
 21
335.9239442663454
 31
0.0
  0
LINE
  5
3151
330
2
100
AcDbEntity
  8
CENTER
100
AcDbLine
 10
1332.833489215003
 20
443.999588273296
 30
0.0
 11
1332.833489215003
 21
428.6666261121099
 31
0.0
  0
LINE
  5
3152
330
2
100
AcDbEntity
  8
CENTER
100
AcDbLine
 10
1325.16700813441
 20
436.333107192703
 30
0.0
 11
1340.499970295596
 21
436.333107192703
 31
0.0
  0
LINE
  5
3153
330
2
100
AcDbEntity
  8
CENTER
100
AcDbLine
 10
1332.833489215003
 20
341.4691050012443
 30
0.0
 11
1332.833489215003
 21
326.1361428400582
 31
0.0
  0
LINE
  5
3154
330
2
100
AcDbEntity
  8
CENTER
100
AcDbLine
 10
1325.16700813441
 20
333.8026239206512
 30
0.0
 11
1340.499970295596
 21
333.8026239206512
 31
0.0
  0
LINE
  5
3155
330
2
100
AcDbEntity
  8
CENTER
100
AcDbLine
 10
1230.303005942955
 20
341.4691050012454
 30
0.0
 11
1230.303005942955
 21
326.1361428400594
 31
0.0
  0
LINE
  5
3156
330
2
100
AcDbEntity
  8
CENTER
100
AcDbLine
 10
1222.636524862362
 20
333.8026239206524
 30
0.0
 11
1237.969487023548
 21
333.8026239206524
 31
0.0
  0
CIRCLE
  5
3157
330
2
100
AcDbEntity
  8
0
100
AcDbCircle
 10
1281.56824757898
 20
385.0678655566767
 30
0.0
 40
44.79103006366023
  0
CIRCLE
  5
3158
330
2
100
AcDbEntity
  8
0
100
AcDbCircle
 10
1281.56824757898
 20
385.0678655566767
 30
0.0
 40
52.64999997843251
  0
CIRCLE
  5
3159
330
2
100
AcDbEntity
  8
0
100
AcDbCircle
 10
1281.56824757898
 20
385.0678655566767
 30
0.0
 40
53.64999997845711
  0
LINE
  5
315A
330
2
100
AcDbEntity
  8
0
 48
0.5
100
AcDbLine
 10
1221.068247478514
 20
385.0678656042312
 30
0.0
 11
1221.485608565515
 21
435.1511960442041
 31
0.0
  0
LINE
  5
315B
330
2
100
AcDbEntity
  8
0
 48
0.5
100
AcDbLine
 10
1341.650886391522
 20
435.1511960442032
 30
0.0
 11
1342.06824747852
 21
385.0678656042312
 31
0.0
  0
LINE
  5
315C
330
2
100
AcDbEntity
  8
0
 48
0.5
100
AcDbLine
 10
1221.068247478514
 20
385.0678656042321
 30
0.0
 11
1221.485608565515
 21
334.9845351642591
 31
0.0
  0
LINE
  5
315D
330
2
100
AcDbEntity
  8
0
 48
0.5
100
AcDbLine
 10
1341.650886391523
 20
334.98453516426
 30
0.0
 11
1342.06824747852
 21
385.0678656042321
 31
0.0
  0
ARC
  5
315E
330
2
100
AcDbEntity
  8
0
 48
0.5
100
AcDbCircle
 10
1231.485261486581
 20
435.0678656123416
 30
0.0
 40
10.0
100
AcDbArc
 50
90.0
 51
179.5225462226892
  0
ARC
  5
315F
330
2
100
AcDbEntity
  8
0
 48
0.5
100
AcDbCircle
 10
1331.651233720865
 20
435.0678656123416
 30
0.0
 40
10.0
100
AcDbArc
 50
0.4774537773107715
 51
90.0
  0
LINE
  5
3160
330
2
100
AcDbEntity
  8
0
100
AcDbLine
 10
1341.568247578975
 20
385.0678656042321
 30
0.0
 11
1342.06824747852
 21
385.0678656042312
 31
0.0
  0
LINE
  5
3161
330
2
100
AcDbEntity
  8
0
100
AcDbLine
 10
1221.068247478514
 20
385.0678656042312
 30
0.0
 11
1221.568247578986
 21
385.0678656042321
 31
0.0
  0
ARC
  5
3162
330
2
100
AcDbEntity
  8
0
 48
0.5
100
AcDbCircle
 10
1231.485261330446
 20
335.0678655091151
 30
0.0
 40
10.0
100
AcDbArc
 50
180.4774537773107
 51
270.0
  0
ARC
  5
3163
330
2
100
AcDbEntity
  8
0
 48
0.5
100
AcDbCircle
 10
1331.65123356473
 20
335.0678655091151
 30
0.0
 40
10.0
100
AcDbArc
 50
270.0
 51
359.5225462226892
  0
LINE
  5
3164
330
2
100
AcDbEntity
  8
0
100
AcDbLine
 10
963.0591741646906
 20
439.5329607437796
 30
0.0
 11
962.8856708191953
 21
429.5929607437805
 31
0.0
  0
ARC
  5
3165
330
2
100
AcDbEntity
  8
0
100
AcDbCircle
 10
960.8859754288825
 20
429.627865556677
 30
0.0
 40
2.0
100
AcDbArc
 50
270.0
 51
358.9999999993597
  0
LINE
  5
3166
330
2
100
AcDbEntity
  8
0
100
AcDbLine
 10
971.7895155876833
 20
427.6278655566774
 30
0.0
 11
960.8859754288825
 21
427.627865556677
 31
0.0
  0
LINE
  5
3167
330
2
100
AcDbEntity
  8
0
100
AcDbLine
 10
1267.528605720064
 20
445.4508685411865
 30
0.0
 11
1281.56824757898
 21
445.5678655566773
 31
0.0
  0
LINE
  5
3376
330
2
100
AcDbEntity
  8
CENTER
100
AcDbLine
 10
1002.094693560309
 20
385.0678655566881
 30
0.0
 11
691.5946935603168
 21
385.0678655566917
 31
0.0
  0
LINE
  5
3377
330
2
100
AcDbEntity
  8
0
100
AcDbLine
 10
886.5946935603043
 20
335.5678655566884
 30
0.0
 11
884.0946935603042
 21
335.5678655566884
 31
0.0
  0
LINE
  5
3378
330
2
100
AcDbEntity
  8
0
100
AcDbLine
 10
886.5946935603043
 20
434.5678655566883
 30
0.0
 11
884.0946935603042
 21
434.5678655566883
 31
0.0
  0
ARC
  5
3379
330
2
100
AcDbEntity
  8
0
100
AcDbCircle
 10
886.5946935603043
 20
439.5678655566883
 30
0.0
 40
5.0
100
AcDbArc
 50
270.0
 51
0.0
  0
LINE
  5
337A
330
2
100
AcDbEntity
  8
0
100
AcDbLine
 10
850.0946935603062
 20
388.0678655566883
 30
0.0
 11
878.0946935603044
 21
388.0678655566883
 31
0.0
  0
ARC
  5
337B
330
2
100
AcDbEntity
  8
0
100
AcDbCircle
 10
878.0946935603044
 20
391.0678655566886
 30
0.0
 40
3.0
100
AcDbArc
 50
270.0
 51
0.0
  0
LINE
  5
337C
330
2
100
AcDbEntity
  8
0
100
AcDbLine
 10
881.0946935603043
 20
338.5678655566883
 30
0.0
 11
881.0946935603043
 21
431.5678655566883
 31
0.0
  0
ARC
  5
337D
330
2
100
AcDbEntity
  8
0
100
AcDbCircle
 10
884.0946935603042
 20
338.5678655566883
 30
0.0
 40
3.0
100
AcDbArc
 50
180.0
 51
270.0
  0
ARC
  5
337E
330
2
100
AcDbEntity
  8
0
100
AcDbCircle
 10
884.0946935603042
 20
431.5678655566883
 30
0.0
 40
3.0
100
AcDbArc
 50
90.0
 51
180.0
  0
LINE
  5
337F
330
2
100
AcDbEntity
  8
0
100
AcDbLine
 10
891.5946935603043
 20
326.567865556688
 30
0.0
 11
891.5946935603043
 21
443.5678655566883
 31
0.0
  0
ARC
  5
3380
330
2
100
AcDbEntity
  8
0
100
AcDbCircle
 10
893.5946935603043
 20
327.0678655566884
 30
0.0
 40
2.0
100
AcDbArc
 50
180.0
 51
270.0
  0
ARC
  5
3381
330
2
100
AcDbEntity
  8
0
100
AcDbCircle
 10
893.5946935603043
 20
443.0678655566883
 30
0.0
 40
2.0
100
AcDbArc
 50
90.0
 51
180.0
  0
LINE
  5
3382
330
2
100
AcDbEntity
  8
0
100
AcDbLine
 10
850.0946935603062
 20
382.0678655566881
 30
0.0
 11
878.0946935603044
 21
382.0678655566879
 31
0.0
  0
ARC
  5
3383
330
2
100
AcDbEntity
  8
0
100
AcDbCircle
 10
878.0946935603044
 20
379.0678655566881
 30
0.0
 40
3.0
100
AcDbArc
 50
0.0
 51
90.0
  0
CIRCLE
  5
3384
330
2
100
AcDbEntity
  8
HOJO
100
AcDbCircle
 10
723.0261510653828
 20
328.4993230617645
 30
0.0
 40
5.0
  0
CIRCLE
  5
3385
330
2
100
AcDbEntity
  8
0
100
AcDbCircle
 10
723.0261510653828
 20
328.4993230617645
 30
0.0
 40
4.0
  0
CIRCLE
  5
3386
330
2
100
AcDbEntity
  8
HOJO
100
AcDbCircle
 10
723.0261510653828
 20
441.6364080516122
 30
0.0
 40
5.0
  0
CIRCLE
  5
3387
330
2
100
AcDbEntity
  8
0
100
AcDbCircle
 10
723.0261510653828
 20
441.6364080516122
 30
0.0
 40
4.0
  0
ARC
  5
3388
330
2
100
AcDbEntity
  8
0
100
AcDbCircle
 10
850.0946935603007
 20
353.0678655566883
 30
0.0
 40
3.0
100
AcDbArc
 50
90.0
 51
179.9999999999869
  0
LINE
  5
3389
330
2
100
AcDbEntity
  8
0
100
AcDbLine
 10
772.4529228105404
 20
329.5678655543312
 30
0.0
 11
775.3329240518724
 21
329.5678655543307
 31
0.0
  0
LINE
  5
338A
330
2
100
AcDbEntity
  8
0
100
AcDbLine
 10
776.4529228105458
 20
337.5678655543425
 30
0.0
 11
772.4529228105404
 21
329.5678655543312
 31
0.0
  0
ARC
  5
338B
330
2
100
AcDbEntity
  8
0
100
AcDbCircle
 10
782.922922810556
 20
334.6778655543381
 30
0.0
 40
0.1700000000002474
100
AcDbArc
 50
270.0
 51
90.0
  0
LINE
  5
338C
330
2
100
AcDbEntity
  8
0
100
AcDbLine
 10
780.7129228105515
 20
334.5078655543376
 30
0.0
 11
782.922922810556
 21
334.5078655543376
 31
0.0
  0
LINE
  5
338D
330
2
100
AcDbEntity
  8
0
100
AcDbLine
 10
780.3728500505513
 20
334.8478655543386
 30
0.0
 11
782.9229228105543
 21
334.8478655543386
 31
0.0
  0
LINE
  5
338E
330
2
100
AcDbEntity
  8
0
100
AcDbLine
 10
776.4529228105458
 20
337.5678655543425
 30
0.0
 11
783.0928500505562
 21
337.5678655543425
 31
0.0
  0
LINE
  5
338F
330
2
100
AcDbEntity
  8
0
100
AcDbLine
 10
775.9329240518728
 20
330.7678655543328
 30
0.0
 11
777.972922810548
 21
330.7678655543323
 31
0.0
  0
LINE
  5
3390
330
2
100
AcDbEntity
  8
0
100
AcDbLine
 10
775.9329240518728
 20
330.7678655543328
 30
0.0
 11
775.3329240518724
 21
329.5678655543307
 31
0.0
  0
LINE
  5
3391
330
2
100
AcDbEntity
  8
0
100
AcDbLine
 10
783.8564630687398
 20
329.5678655543307
 30
0.0
 11
786.73646431007
 21
329.5678655543312
 31
0.0
  0
LINE
  5
3392
330
2
100
AcDbEntity
  8
0
100
AcDbLine
 10
784.7493954302154
 20
332.6904927527231
 30
0.0
 11
786.73646431007
 21
329.5678655543312
 31
0.0
  0
LINE
  5
3393
330
2
100
AcDbEntity
  8
0
100
AcDbLine
 10
777.972922810548
 20
329.5678655543307
 30
0.0
 11
780.3728500505513
 21
329.5678655543302
 31
0.0
  0
LINE
  5
3394
330
2
100
AcDbEntity
  8
0
100
AcDbLine
 10
777.2129240518753
 20
333.3278655543355
 30
0.0
 11
777.972922810548
 21
333.327865554336
 31
0.0
  0
LINE
  5
3395
330
2
100
AcDbEntity
  8
0
100
AcDbLine
 10
777.972922810548
 20
330.7678655543323
 30
0.0
 11
777.972922810548
 21
329.5678655543307
 31
0.0
  0
ARC
  5
3396
330
2
100
AcDbEntity
  8
0
100
AcDbCircle
 10
783.0928500505562
 20
334.8478655543382
 30
0.0
 40
2.720000000003957
100
AcDbArc
 50
307.5189678668038
 51
90.0
  0
LINE
  5
3397
330
2
100
AcDbEntity
  8
0
100
AcDbLine
 10
780.7129228105515
 20
334.5078655543376
 30
0.0
 11
783.8564630687398
 21
329.5678655543307
 31
0.0
  0
LINE
  5
3398
330
2
100
AcDbEntity
  8
0
100
AcDbLine
 10
777.972922810548
 20
334.8478630716819
 30
0.0
 11
777.2129240518753
 21
333.3278655543355
 31
0.0
  0
LINE
  5
3399
330
2
100
AcDbEntity
  8
0
100
AcDbLine
 10
777.972922810548
 20
334.8478630716819
 30
0.0
 11
777.972922810548
 21
333.327865554336
 31
0.0
  0
LINE
  5
339A
330
2
100
AcDbEntity
  8
0
100
AcDbLine
 10
780.3728500505513
 20
334.8478655543386
 30
0.0
 11
780.3728500505513
 21
329.5678655543302
 31
0.0
  0
CIRCLE
  5
339B
330
2
100
AcDbEntity
  8
HOJO
100
AcDbCircle
 10
836.1632360552304
 20
328.4993230617648
 30
0.0
 40
5.0
  0
CIRCLE
  5
339C
330
2
100
AcDbEntity
  8
0
100
AcDbCircle
 10
836.1632360552304
 20
328.4993230617648
 30
0.0
 40
4.0
  0
CIRCLE
  5
339D
330
2
100
AcDbEntity
  8
HOJO
100
AcDbCircle
 10
836.1632360552304
 20
441.6364080516122
 30
0.0
 40
5.0
  0
CIRCLE
  5
339E
330
2
100
AcDbEntity
  8
0
100
AcDbCircle
 10
836.1632360552304
 20
441.6364080516122
 30
0.0
 40
4.0
  0
ARC
  5
339F
330
2
100
AcDbEntity
  8
0
100
AcDbCircle
 10
886.5946935603043
 20
330.5678655566883
 30
0.0
 40
5.0
100
AcDbArc
 50
0.0
 51
90.0
  0
ARC
  5
33A0
330
2
100
AcDbEntity
  8
0
100
AcDbCircle
 10
850.0946935603062
 20
391.0678655566886
 30
0.0
 40
3.0
100
AcDbArc
 50
180.0
 51
270.0
  0
ARC
  5
33A1
330
2
100
AcDbEntity
  8
0
100
AcDbCircle
 10
850.0946935603062
 20
379.0678655566881
 30
0.0
 40
3.0
100
AcDbArc
 50
90.0
 51
180.0
  0
LINE
  5
33A2
330
2
100
AcDbEntity
  8
0
100
AcDbLine
 10
893.5946935603043
 20
325.0678655566884
 30
0.0
 11
907.5946935603107
 21
325.0678655566882
 31
0.0
  0
LINE
  5
33A3
330
2
100
AcDbEntity
  8
0
100
AcDbLine
 10
893.5946935603043
 20
445.0678655566881
 30
0.0
 11
907.5946935603107
 21
445.0678655566879
 31
0.0
  0
LINE
  5
33A4
330
2
100
AcDbEntity
  8
0
100
AcDbLine
 10
907.5946935603107
 20
445.5678655566883
 30
0.0
 11
907.5946935603107
 21
324.567865556688
 31
0.0
  0
LINE
  5
33A5
330
2
100
AcDbEntity
  8
0
100
AcDbLine
 10
873.0946935603043
 20
351.0678655566886
 30
0.0
 11
871.0946935603043
 21
351.0678655566886
 31
0.0
  0
ARC
  5
33A6
330
2
100
AcDbEntity
  8
0
100
AcDbCircle
 10
873.0946935603043
 20
343.0678655566886
 30
0.0
 40
8.0
100
AcDbArc
 50
0.0
 51
90.0
  0
ARC
  5
33A7
330
2
100
AcDbEntity
  8
0
100
AcDbCircle
 10
878.8641278225496
 20
434.507454314156
 30
0.0
 40
3.0
100
AcDbArc
 50
259.9999999999949
 51
330.6639232880097
  0
ARC
  5
33A8
330
2
100
AcDbEntity
  8
0
100
AcDbCircle
 10
878.8641278225496
 20
335.6282767992212
 30
0.0
 40
3.0
100
AcDbArc
 50
29.33607671199027
 51
99.999999999952
  0
ARC
  5
33A9
330
2
100
AcDbEntity
  8
0
100
AcDbCircle
 10
850.0946935602998
 20
330.5554493190676
 30
0.0
 40
3.0
100
AcDbArc
 50
100.000000000005
 51
180.000000000013
  0
LINE
  5
33AA
330
2
100
AcDbEntity
  8
0
100
AcDbLine
 10
873.0946935603043
 20
419.0678655566886
 30
0.0
 11
871.0946935603052
 21
419.0678655566886
 31
0.0
  0
ARC
  5
33AB
330
2
100
AcDbEntity
  8
0
100
AcDbCircle
 10
873.0946935603043
 20
427.0678655566886
 30
0.0
 40
8.0
100
AcDbArc
 50
270.0
 51
0.0
  0
LINE
  5
33AC
330
2
100
AcDbEntity
  8
0
100
AcDbLine
 10
878.3431832895503
 20
338.5827000582579
 30
0.0
 11
849.5737490272986
 21
333.5098725781043
 31
0.0
  0
LINE
  5
33AD
330
2
100
AcDbEntity
  8
0
100
AcDbLine
 10
878.3431832895486
 20
431.5530310551195
 30
0.0
 11
849.5737490272651
 21
436.625858535279
 31
0.0
  0
ARC
  5
33AE
330
2
100
AcDbEntity
  8
0
100
AcDbCircle
 10
850.0946935602661
 20
439.5802817943155
 30
0.0
 40
3.0
100
AcDbArc
 50
180.000000000013
 51
259.9999999999949
  0
LINE
  5
33AF
330
2
100
AcDbEntity
  8
0
100
AcDbLine
 10
873.0946935603043
 20
419.0678655566886
 30
0.0
 11
871.0946935603052
 21
419.0678655566888
 31
0.0
  0
LINE
  5
33B0
330
2
100
AcDbEntity
  8
0
100
AcDbLine
 10
868.0946935603088
 20
416.067865556689
 30
0.0
 11
868.0946935603079
 21
391.0678655566881
 31
0.0
  0
ARC
  5
33B1
330
2
100
AcDbEntity
  8
0
100
AcDbCircle
 10
865.094693560308
 20
391.0678655566883
 30
0.0
 40
3.0
100
AcDbArc
 50
270.0
 51
359.9999999999869
  0
LINE
  5
33B2
330
2
100
AcDbEntity
  8
0
100
AcDbLine
 10
868.0946935603044
 20
379.0678655566881
 30
0.0
 11
868.0946935603044
 21
354.0678655566886
 31
0.0
  0
ARC
  5
33B3
330
2
100
AcDbEntity
  8
0
100
AcDbCircle
 10
865.0946935603043
 20
379.0678655566881
 30
0.0
 40
3.0
100
AcDbArc
 50
359.9999999999869
 51
90.0
  0
ARC
  5
33B4
330
2
100
AcDbEntity
  8
0
100
AcDbCircle
 10
871.0946935603043
 20
354.0678655566884
 30
0.0
 40
3.0
100
AcDbArc
 50
179.9999999999869
 51
270.0
  0
ARC
  5
33B5
330
2
100
AcDbEntity
  8
0
100
AcDbCircle
 10
865.1786137772052
 20
353.0678655566881
 30
0.0
 40
3.0
100
AcDbArc
 50
9.594068226868017
 51
90.0
  0
ARC
  5
33B6
330
2
100
AcDbEntity
  8
0
100
AcDbCircle
 10
871.0946935603052
 20
416.0678655566888
 30
0.0
 40
3.0
100
AcDbArc
 50
90.0
 51
179.9999999999869
  0
ARC
  5
33B7
330
2
100
AcDbEntity
  8
0
100
AcDbCircle
 10
865.1786137772052
 20
417.0678655566881
 30
0.0
 40
3.0
100
AcDbArc
 50
270.0
 51
350.4059317731512
  0
LINE
  5
33B8
330
2
100
AcDbEntity
  8
0
100
AcDbLine
 10
865.1786137772052
 20
356.0678655566881
 30
0.0
 11
850.0946935603007
 21
356.0678655566884
 31
0.0
  0
LINE
  5
33B9
330
2
100
AcDbEntity
  8
0
100
AcDbLine
 10
865.1786137772052
 20
414.0678655566881
 30
0.0
 11
850.0946935603051
 21
414.0678655566881
 31
0.0
  0
ARC
  5
33BA
330
2
100
AcDbEntity
  8
0
100
AcDbCircle
 10
850.0946935603051
 20
417.0678655566881
 30
0.0
 40
3.0
100
AcDbArc
 50
180.0
 51
270.0
  0
ARC
  5
33BB
330
2
100
AcDbEntity
  8
0
100
AcDbCircle
 10
779.5946935603061
 20
112.5678655566883
 30
0.0
 40
340.0
100
AcDbArc
 50
85.85748119726854
 51
94.14251880273145
  0
ARC
  5
33BC
330
2
100
AcDbEntity
  8
0
100
AcDbCircle
 10
722.0946935603071
 20
442.5678655566883
 30
0.0
 40
10.0
100
AcDbArc
 50
90.0
 51
180.0
  0
LINE
  5
33BD
330
2
100
AcDbEntity
  8
0
100
AcDbLine
 10
722.0946935603071
 20
452.5678655566884
 30
0.0
 11
732.094693560307
 21
452.5678655566884
 31
0.0
  0
ARC
  5
33BE
330
2
100
AcDbEntity
  8
0
100
AcDbCircle
 10
732.094693560307
 20
444.5678655566884
 30
0.0
 40
8.0
100
AcDbArc
 50
81.63298947741282
 51
90.0
  0
ARC
  5
33BF
330
2
100
AcDbEntity
  8
0
100
AcDbCircle
 10
837.0946935603061
 20
442.5678655566883
 30
0.0
 40
10.0
100
AcDbArc
 50
0.0
 51
90.0
  0
ARC
  5
33C0
330
2
100
AcDbEntity
  8
0
100
AcDbCircle
 10
747.8101414193835
 20
551.4183437895382
 30
0.0
 40
100.0
100
AcDbArc
 50
261.6329894774128
 51
274.1425188027314
  0
LINE
  5
33C1
330
2
100
AcDbEntity
  8
0
100
AcDbLine
 10
712.0946935603061
 20
442.5678655566882
 30
0.0
 11
712.0946935603061
 21
432.5678655566881
 31
0.0
  0
ARC
  5
33C2
330
2
100
AcDbEntity
  8
0
100
AcDbCircle
 10
720.0946935603061
 20
432.5678655566881
 30
0.0
 40
8.0
100
AcDbArc
 50
180.0
 51
188.3670105225876
  0
ARC
  5
33C3
330
2
100
AcDbEntity
  8
0
100
AcDbCircle
 10
613.2442153274561
 20
416.8524176976116
 30
0.0
 40
100.0
100
AcDbArc
 50
355.8574811972655
 51
8.36701052258765
  0
ARC
  5
33C4
330
2
100
AcDbEntity
  8
0
100
AcDbCircle
 10
827.0946935603062
 20
444.5678655566884
 30
0.0
 40
8.0
100
AcDbArc
 50
90.0
 51
98.36701052258717
  0
ARC
  5
33C5
330
2
100
AcDbEntity
  8
0
100
AcDbCircle
 10
811.3792457012296
 20
551.4183437895382
 30
0.0
 40
100.0
100
AcDbArc
 50
265.8574811972684
 51
278.3670105225871
  0
LINE
  5
33C6
330
2
100
AcDbEntity
  8
0
100
AcDbLine
 10
837.0946935603061
 20
452.5678655566884
 30
0.0
 11
827.0946935603062
 21
452.5678655566884
 31
0.0
  0
ARC
  5
33C7
330
2
100
AcDbEntity
  8
0
100
AcDbCircle
 10
722.0946935603071
 20
327.5678655566883
 30
0.0
 40
10.0
100
AcDbArc
 50
180.0
 51
270.0
  0
LINE
  5
33C8
330
2
100
AcDbEntity
  8
0
100
AcDbLine
 10
722.0946935603071
 20
317.5678655566883
 30
0.0
 11
732.094693560307
 21
317.5678655566883
 31
0.0
  0
ARC
  5
33C9
330
2
100
AcDbEntity
  8
0
100
AcDbCircle
 10
732.094693560307
 20
325.5678655566883
 30
0.0
 40
8.0
100
AcDbArc
 50
270.0
 51
278.3670105225871
  0
ARC
  5
33CA
330
2
100
AcDbEntity
  8
0
100
AcDbCircle
 10
837.0946935603061
 20
327.5678655566883
 30
0.0
 40
10.0
100
AcDbArc
 50
270.0
 51
0.0
  0
ARC
  5
33CB
330
2
100
AcDbEntity
  8
0
100
AcDbCircle
 10
747.8101414193835
 20
218.7173873238385
 30
0.0
 40
100.0
100
AcDbArc
 50
85.85748119726854
 51
98.36701052258717
  0
LINE
  5
33CC
330
2
100
AcDbEntity
  8
0
100
AcDbLine
 10
712.0946935603061
 20
327.5678655566886
 30
0.0
 11
712.0946935603061
 21
337.5678655566886
 31
0.0
  0
ARC
  5
33CD
330
2
100
AcDbEntity
  8
0
100
AcDbCircle
 10
720.0946935603061
 20
337.5678655566886
 30
0.0
 40
8.0
100
AcDbArc
 50
171.6329894774123
 51
180.0
  0
ARC
  5
33CE
330
2
100
AcDbEntity
  8
0
100
AcDbCircle
 10
613.2442153274561
 20
353.283313415765
 30
0.0
 40
100.0
100
AcDbArc
 50
351.6329894773897
 51
4.142518802734472
  0
ARC
  5
33CF
330
2
100
AcDbEntity
  8
0
100
AcDbCircle
 10
827.0946935603062
 20
325.5678655566883
 30
0.0
 40
8.0
100
AcDbArc
 50
261.6329894774128
 51
270.0
  0
ARC
  5
33D0
330
2
100
AcDbEntity
  8
0
100
AcDbCircle
 10
811.3792457012296
 20
218.7173873238385
 30
0.0
 40
100.0
100
AcDbArc
 50
81.63298947741282
 51
94.14251880273145
  0
LINE
  5
33D1
330
2
100
AcDbEntity
  8
0
100
AcDbLine
 10
847.0946935603061
 20
327.5678655566886
 30
0.0
 11
847.0946935603061
 21
442.5678655566883
 31
0.0
  0
LINE
  5
33D2
330
2
100
AcDbEntity
  8
0
100
AcDbLine
 10
837.0946935603061
 20
317.5678655566883
 30
0.0
 11
827.0946935603062
 21
317.5678655566883
 31
0.0
  0
ARC
  5
33D3
330
2
100
AcDbEntity
  8
0
100
AcDbCircle
 10
779.5946935603061
 20
657.5678655566884
 30
0.0
 40
340.0
100
AcDbArc
 50
265.8574811972684
 51
274.1425188027314
  0
ARC
  5
33D4
330
2
100
AcDbEntity
  8
0
100
AcDbCircle
 10
1052.094693560306
 20
385.0678655566884
 30
0.0
 40
340.0
100
AcDbArc
 50
175.8574811972817
 51
184.1425188027052
  0
CIRCLE
  5
33D5
330
2
100
AcDbEntity
  8
0
100
AcDbCircle
 10
779.5946935603057
 20
385.0678655566884
 30
0.0
 40
35.99999999999954
  0
CIRCLE
  5
33D6
330
2
100
AcDbEntity
  8
0
100
AcDbCircle
 10
779.5946935603057
 20
385.0678655566884
 30
0.0
 40
36.57735026918968
  0
CIRCLE
  5
33D7
330
2
100
AcDbEntity
  8
0
100
AcDbCircle
 10
779.5946935603057
 20
385.0678655566884
 30
0.0
 40
43.49999999999954
  0
CIRCLE
  5
33D8
330
2
100
AcDbEntity
  8
0
100
AcDbCircle
 10
779.5946935603057
 20
385.0678655566884
 30
0.0
 40
60.00000000000046
  0
LINE
  5
33D9
330
2
100
AcDbEntity
  8
CENTER
100
AcDbLine
 10
836.1632360552308
 20
452.5678655566884
 30
0.0
 11
836.1632360552308
 21
430.7049505465309
 31
0.0
  0
LINE
  5
33DA
330
2
100
AcDbEntity
  8
CENTER
100
AcDbLine
 10
825.2317785501505
 20
441.6364080516096
 30
0.0
 11
847.0946935603075
 21
441.6364080516096
 31
0.0
  0
LINE
  5
33DB
330
2
100
AcDbEntity
  8
CENTER
100
AcDbLine
 10
723.0261510653814
 20
452.5678655566884
 30
0.0
 11
723.026151065381
 21
430.7049505465325
 31
0.0
  0
LINE
  5
33DC
330
2
100
AcDbEntity
  8
CENTER
100
AcDbLine
 10
733.9576085704626
 20
441.6364080516104
 30
0.0
 11
712.0946935603066
 21
441.6364080516105
 31
0.0
  0
LINE
  5
33DD
330
2
100
AcDbEntity
  8
CENTER
100
AcDbLine
 10
836.1632360552308
 20
317.5678655566883
 30
0.0
 11
836.1632360552308
 21
339.4307805668412
 31
0.0
  0
LINE
  5
33DE
330
2
100
AcDbEntity
  8
CENTER
100
AcDbLine
 10
825.2317785501542
 20
328.4993230617665
 30
0.0
 11
847.0946935603066
 21
328.4993230617664
 31
0.0
  0
LINE
  5
33DF
330
2
100
AcDbEntity
  8
CENTER
100
AcDbLine
 10
723.026151065381
 20
317.5678655566883
 30
0.0
 11
723.026151065381
 21
339.4307805668427
 31
0.0
  0
LINE
  5
33E0
330
2
100
AcDbEntity
  8
CENTER
100
AcDbLine
 10
733.9576085704581
 20
328.4993230617661
 30
0.0
 11
712.0946935603038
 21
328.4993230617659
 31
0.0
  0
CIRCLE
  5
33E1
330
2
100
AcDbEntity
  8
CENTER
100
AcDbCircle
 10
779.5946935603057
 20
385.0678655566884
 30
0.0
 40
79.9999999999992
  0
LINE
  5
33E2
330
2
100
AcDbEntity
  8
CENTER
100
AcDbLine
 10
716.3982956312221
 20
385.0678655566883
 30
0.0
 11
732.7910914893892
 21
385.0678655566883
 31
0.0
  0
LINE
  5
33E3
330
2
100
AcDbEntity
  8
CENTER
100
AcDbLine
 10
851.4875382176594
 20
456.9607102140396
 30
0.0
 11
707.701848902952
 21
313.1750208993371
 31
0.0
  0
LINE
  5
33E4
330
2
100
AcDbEntity
  8
CENTER
100
AcDbLine
 10
707.7018489029539
 20
456.9607102140415
 30
0.0
 11
851.4875382176574
 21
313.1750208993353
 31
0.0
  0
LINE
  5
33E5
330
2
100
AcDbEntity
  8
0
100
AcDbLine
 10
907.5946935603107
 20
445.5678655566883
 30
0.0
 11
893.5946935603043
 21
445.5678655566883
 31
0.0
  0
ARC
  5
33E6
330
2
100
AcDbEntity
  8
0
100
AcDbCircle
 10
893.5946935603043
 20
443.5678655566883
 30
0.0
 40
2.0
100
AcDbArc
 50
90.0
 51
180.0
  0
LINE
  5
33E7
330
2
100
AcDbEntity
  8
0
100
AcDbLine
 10
907.5946935603107
 20
324.567865556688
 30
0.0
 11
893.5946935603043
 21
324.567865556688
 31
0.0
  0
ARC
  5
33E8
330
2
100
AcDbEntity
  8
0
100
AcDbCircle
 10
893.5946935603043
 20
326.567865556688
 30
0.0
 40
2.0
100
AcDbArc
 50
180.0
 51
270.0
  0
LINE
  5
33E9
330
2
100
AcDbEntity
  8
0
100
AcDbLine
 10
774.5946935603057
 20
404.3678685566884
 30
0.0
 11
784.5946935603056
 21
404.3678685566884
 31
0.0
  0
LINE
  5
33EA
330
2
100
AcDbEntity
  8
0
100
AcDbLine
 10
774.5946935603057
 20
404.3678685566884
 30
0.0
 11
774.5946935603057
 21
400.266549710259
 31
0.0
  0
LINE
  5
33EB
330
2
100
AcDbEntity
  8
0
100
AcDbLine
 10
784.5946935603056
 20
404.3678685566884
 30
0.0
 11
784.5946935603056
 21
400.266549710259
 31
0.0
  0
ARC
  5
33EC
330
2
100
AcDbEntity
  8
0
100
AcDbCircle
 10
779.5946935603057
 20
385.0678655566884
 30
0.0
 40
15.99999999999977
100
AcDbArc
 50
108.2099568642827
 51
71.79004313571723
  0
ARC
  5
33ED
330
2
100
AcDbEntity
  8
0
100
AcDbCircle
 10
779.5946935603057
 20
385.0678655566884
 30
0.0
 40
17.1547005383793
100
AcDbArc
 50
106.9457019888467
 51
73.05429801115323
  0
CIRCLE
  5
33EE
330
2
100
AcDbEntity
  8
0
100
AcDbCircle
 10
779.594693560307
 20
385.0678655566897
 30
0.0
 40
24.5
  0
LINE
  5
33EF
330
2
100
AcDbEntity
  8
CENTER
100
AcDbLine
 10
779.5946935603168
 20
473.0678655566918
 30
0.0
 11
779.5946935603168
 21
297.0678655566917
 31
0.0
  0
LINE
  5
35F0
330
2
100
AcDbEntity
  8
0
100
AcDbLine
 10
974.3543316473489
 20
428.1414070347856
 30
0.0
 11
979.9629344486659
 21
429.1303550327345
 31
0.0
  0
ENDSEC
  0
SECTION
  2
OBJECTS
  0
DICTIONARY
  5
7
330
0
100
AcDbDictionary
  3
ACAD_COLOR
350
832
  3
ACAD_GROUP
350
75
  3
ACAD_LAYOUT
350
61
  3
ACAD_MATERIAL
350
808
  3
ACAD_MLEADERSTYLE
350
857
  3
ACAD_MLINESTYLE
350
76
  3
ACAD_PLOTSETTINGS
350
77
  3
ACAD_PLOTSTYLENAME
350
6
  3
ACAD_SCALELIST
350
835
  3
ACAD_TABLESTYLE
350
833
  3
ACAD_VISUALSTYLE
350
821
  3
ACADDIM
350
480
  3
ACDB_RECOMPOSE_DATA
350
88E
  3
ACDBHEADERROUNDTRIPXREC
350
363E
  3
ACDBVARIABLEDICTIONARY
350
102
  3
DWGPROPS
350
3614
  0
DICTIONARY
  5
1BAE
330
6E
100
AcDbDictionary
280
     1
  3
ACAD_XREC_ROUNDTRIP
360
3618
  0
DICTIONARY
  5
86B
330
66
100
AcDbDictionary
280
     1
  3
ACAD_LAYERSTATES
360
86C
  0
DICTIONARY
  5
1AF7
330
5E
100
AcDbDictionary
280
     1
  3
ADSK_XREC_LAYER_RECONCILED
360
1AF8
  0
DICTIONARY
  5
1AF9
330
3E
100
AcDbDictionary
280
     1
  3
ADSK_XREC_LAYER_RECONCILED
360
1AFA
  0
DICTIONARY
  5
1AFF
330
2B5
100
AcDbDictionary
280
     1
  3
ADSK_XREC_LAYER_RECONCILED
360
1B00
  0
DICTIONARY
  5
1B01
330
2BA
100
AcDbDictionary
280
     1
  3
ADSK_XREC_LAYER_RECONCILED
360
1B02
  0
DICTIONARY
  5
1B05
330
3FA
100
AcDbDictionary
280
     1
  3
ADSK_XREC_LAYER_RECONCILED
360
1B06
  0
DICTIONARY
  5
1B07
330
478
100
AcDbDictionary
280
     1
  3
ADSK_XREC_LAYER_RECONCILED
360
1B08
  0
DICTIONARY
  5
3168
330
2
100
AcDbDictionary
280
     1
  3
ACAD_LAYOUTSELFREF
360
365F
  3
ACAD_SORTENTS
360
3169
  0
DICTIONARY
  5
3660
330
3638
100
AcDbDictionary
280
     1
  3
ACAD_LAYOUTSELFREF
360
3661
  0
DICTIONARY
  5
832
102
{ACAD_REACTORS
330
7
102
}
330
7
100
AcDbDictionary
  0
DICTIONARY
  5
75
102
{ACAD_REACTORS
330
7
102
}
330
7
100
AcDbDictionary
  0
DICTIONARY
  5
61
102
{ACAD_REACTORS
330
7
102
}
330
7
100
AcDbDictionary
  0
DICTIONARY
  5
808
102
{ACAD_REACTORS
330
7
102
}
330
7
100
AcDbDictionary
  3
BYBLOCK
350
811
  3
BYLAYER
350
809
  3
GLOBAL
350
819
  0
DICTIONARY
  5
857
102
{ACAD_REACTORS
330
7
102
}
330
7
100
AcDbDictionary
  3
STANDARD
350
858
  0
DICTIONARY
  5
76
102
{ACAD_REACTORS
330
7
102
}
330
7
100
AcDbDictionary
  3
STANDARD
350
78
  0
DICTIONARY
  5
77
102
{ACAD_REACTORS
330
7
102
}
330
7
100
AcDbDictionary
  0
ACDBDICTIONARYWDFLT
  5
6
102
{ACAD_REACTORS
330
7
102
}
330
7
100
AcDbDictionary
281
     1
  3
Normal
350
5
100
AcDbDictionaryWithDefault
340
5
  0
DICTIONARY
  5
835
102
{ACAD_REACTORS
330
7
102
}
330
7
100
AcDbDictionary
  3
A0
350
836
  3
A1
350
837
  3
A2
350
838
  3
A3
350
839
  3
A4
350
83A
  3
A5
350
83B
  3
A6
350
83C
  3
A7
350
83D
  3
A8
350
83E
  3
A9
350
83F
  3
B0
350
840
  3
B1
350
841
  3
B2
350
842
  3
B3
350
843
  3
B4
350
844
  3
B5
350
845
  3
B6
350
846
  3
B7
350
847
  3
B8
350
848
  3
B9
350
849
  3
C0
350
84A
  3
C1
350
84B
  3
C2
350
84C
  3
C3
350
84D
  3
C4
350
84E
  3
C5
350
84F
  3
C6
350
850
  3
C7
350
851
  3
C8
350
852
  3
C9
350
853
  3
D0
350
854
  3
D1
350
855
  3
D2
350
856
  0
DICTIONARY
  5
833
102
{ACAD_REACTORS
330
7
102
}
330
7
100
AcDbDictionary
  3
STANDARD
350
834
  0
DICTIONARY
  5
821
102
{ACAD_REACTORS
330
7
102
}
330
7
100
AcDbDictionary
  3
2DWIREFRAME
350
827
  3
3D_HIDDEN
350
829
  3
3DWIREFRAME
350
828
  3
BASIC
350
826
  3
BRIGHTEN
350
82D
  3
COLORCHANGE
350
831
  3
CONCEPTUAL
350
82A
  3
DIM
350
82C
  3
FACEPATTERN
350
830
  3
FLAT
350
822
  3
FLATWITHEDGES
350
823
  3
GOURAUD
350
824
  3
GOURAUDWITHEDGES
350
825
  3
LINEPATTERN
350
82F
  3
REALISTIC
350
82B
  3
THICKEN
350
82E
  0
XRECORD
  5
480
102
{ACAD_REACTORS
330
7
102
}
330
7
100
AcDbXrecord
 90
   990106
  3

 60
     0
 61
     0
 62
     1
 63
     3
 64
     1
 65
     0
 66
     0
 67
     3
 68
     1
 69
     0
 70
     0
 71
     0
 72
     0
 40
0.0
170
     2
340
0
  0
XRECORD
  5
88E
102
{ACAD_REACTORS
330
7
102
}
330
7
100
AcDbXrecord
 90
        1
330
834
  0
DICTIONARY
  5
363E
102
{ACAD_REACTORS
330
7
102
}
330
7
100
AcDbDictionary
  3
CEPSNTYPE
350
3648
  3
DIMSTYLEDATA
350
364C
  3
FINGERPRINTGUID
350
3649
  3
HYPERLINKBASE
350
3641
  3
INSUNITS
350
3647
  3
LAYOUTDICT
350
3643
  3
LWETCUNION
350
3646
  3
PLOTSETDICT
350
3644
  3
PLOTSTYLNAMDICT
350
3645
  3
PSVPSCALE
350
364B
  3
PUCSBASE
350
364F
  3
PUCSORGBACK
350
3655
  3
PUCSORGBOTTOM
350
3651
  3
PUCSORGFRONT
350
3654
  3
PUCSORGLEFT
350
3652
  3
PUCSORGRIGHT
350
3653
  3
PUCSORGTOP
350
3650
  3
PUCSORTHOREF
350
364D
  3
PUCSORTHOVIEW
350
364E
  3
STYLESHEET
350
3642
  3
TSTACKALIGN
350
363F
  3
TSTACKSIZE
350
3640
  3
UCSBASE
350
3658
  3
UCSORGBACK
350
365E
  3
UCSORGBOTTOM
350
365A
  3
UCSORGFRONT
350
365D
  3
UCSORGLEFT
350
365B
  3
UCSORGRIGHT
350
365C
  3
UCSORGTOP
350
3659
  3
UCSORTHOREF
350
3656
  3
UCSORTHOVIEW
350
3657
  3
VERSIONGUID
350
364A
  0
DICTIONARY
  5
102
102
{ACAD_REACTORS
330
7
102
}
330
7
100
AcDbDictionary
  3
CANNOSCALE
350
892
  3
CMLEADERSTYLE
350
890
  3
CTABLESTYLE
350
88F
  3
DIMASSOC
350
103
  3
INDEXCTL
350
1BBB
  3
LIGHTINGUNITS
350
893
  3
MSLTSCALE
350
891
  3
SORTENTS
350
549
  0
XRECORD
  5
3614
102
{ACAD_REACTORS
330
7
102
}
330
7
100
AcDbXrecord
  1
DWGPROPS COOKIE
  2

  3

  4

  6

  7

  8
knsuzuki
  9

300
=
301
=
302
=
303
=
304
=
305
=
306
=
307
=
308
=
309
=
 40
0.1726173726851852
 41
2454889.454828194
 42
2454904.389205544
  1

 90
        0
  0
XRECORD
  5
3618
102
{ACAD_REACTORS
330
1BAE
102
}
330
1BAE
100
AcDbXrecord
102
VTR_0.000_0.000_1.000_1.000_VISUALSTYLE
340
827
102
VTR_0.000_0.000_1.000_1.000_GRIDDISPLAY
 70
     3
102
VTR_0.000_0.000_1.000_1.000_GRIDMAJOR
 70
     5
102
VTR_0.000_0.000_1.000_1.000_DEFAULTLIGHTING
280
     1
102
VTR_0.000_0.000_1.000_1.000_DEFAULTLIGHTINGTYPE
 70
     1
102
VTR_0.000_0.000_1.000_1.000_BRIGHTNESS
141
0.0
102
VTR_0.000_0.000_1.000_1.000_CONTRAST
142
0.0
  0
DICTIONARY
  5
86C
102
{ACAD_REACTORS
330
86B
102
}
330
86B
100
AcDbDictionary
  0
XRECORD
  5
1AF8
102
{ACAD_REACTORS
330
1AF7
102
}
330
1AF7
100
AcDbXrecord
290
     1
  0
XRECORD
  5
1AFA
102
{ACAD_REACTORS
330
1AF9
102
}
330
1AF9
100
AcDbXrecord
290
     1
  0
XRECORD
  5
1B00
102
{ACAD_REACTORS
330
1AFF
102
}
330
1AFF
100
AcDbXrecord
290
     1
  0
XRECORD
  5
1B02
102
{ACAD_REACTORS
330
1B01
102
}
330
1B01
100
AcDbXrecord
290
     1
  0
XRECORD
  5
1B06
102
{ACAD_REACTORS
330
1B05
102
}
330
1B05
100
AcDbXrecord
290
     1
  0
XRECORD
  5
1B08
102
{ACAD_REACTORS
330
1B07
102
}
330
1B07
100
AcDbXrecord
290
     1
  0
XRECORD
  5
365F
102
{ACAD_REACTORS
330
3168
102
}
330
3168
100
AcDbXrecord
340
2
  0
SORTENTSTABLE
  5
3169
102
{ACAD_REACTORS
330
3168
102
}
330
3168
100
AcDbSortentsTable
330
2
331
30EF
  5
30F0
331
30D0
  5
30D1
331
30B1
  5
30B2
331
3072
  5
3073
331
301D
  5
301E
331
2FFE
  5
2FFF
331
303C
  5
303D
331
314C
  5
314D
331
310E
  5
310F
331
312D
  5
312E
331
18BC
  5
18BC
331
30B2
  5
30B3
331
303D
  5
303E
331
301E
  5
301F
331
2FFF
  5
3000
331
3073
  5
3074
331
30D1
  5
30D2
331
314D
  5
314E
331
310F
  5
3110
331
312E
  5
312F
331
30D2
  5
30D3
331
30B3
  5
30B4
331
3074
  5
3075
331
301F
  5
3020
331
303E
  5
303F
331
314E
  5
314F
331
312F
  5
3130
331
30B4
  5
30B5
331
303F
  5
3040
331
3075
  5
3076
331
30D3
  5
30D4
331
314F
  5
3150
331
30D4
  5
30D5
331
30B5
  5
30B6
331
3076
  5
3077
331
30B6
  5
30B7
331
3077
  5
3078
331
30D5
  5
30D6
331
30D6
  5
30D7
331
30B7
  5
30B8
331
19E5
  5
19E5
331
18D2
  5
18D2
331
1A92
  5
1A92
331
30D7
  5
30D8
331
1A0D
  5
1A0D
331
1806
  5
1806
331
1AE3
  5
1AE3
331
191B
  5
191B
331
1A46
  5
1A46
331
194B
  5
194B
331
1857
  5
1857
331
19C6
  5
19C6
331
CA0
  5
CA0
331
CC0
  5
CC0
331
CA1
  5
CA1
331
CA2
  5
CA2
331
CC1
  5
CC1
331
CC2
  5
CC2
331
CA3
  5
CA3
331
D20
  5
D20
331
F08
  5
F08
331
D0A
  5
D0A
331
CA4
  5
CA4
331
CC3
  5
CC3
331
D40
  5
D40
331
D21
  5
D21
331
F09
  5
F09
331
F28
  5
F28
331
CC4
  5
CC4
331
CA5
  5
CA5
331
D0B
  5
D0B
331
D60
  5
D60
331
D41
  5
D41
331
F48
  5
F48
331
D22
  5
D22
331
F29
  5
F29
331
F0A
  5
F0A
331
D0C
  5
D0C
331
CA6
  5
CA6
331
CC5
  5
CC5
331
D61
  5
D61
331
D42
  5
D42
331
F49
  5
F49
331
D23
  5
D23
331
F0B
  5
F0B
331
F2A
  5
F2A
331
F68
  5
F68
331
CC6
  5
CC6
331
CA7
  5
CA7
331
D0D
  5
D0D
331
D81
  5
D81
331
D98
  5
D98
331
D62
  5
D62
331
F69
  5
F69
331
D43
  5
D43
331
F4A
  5
F4A
331
D24
  5
D24
331
F2B
  5
F2B
331
F0C
  5
F0C
331
D0E
  5
D0E
331
CA8
  5
CA8
331
CC7
  5
CC7
331
DB8
  5
DB8
331
D82
  5
D82
331
D99
  5
D99
331
D63
  5
D63
331
D44
  5
D44
331
F4B
  5
F4B
331
D25
  5
D25
331
F2C
  5
F2C
331
F0D
  5
F0D
331
F6A
  5
F6A
331
CC8
  5
CC8
331
CA9
  5
CA9
331
D0F
  5
D0F
331
DD8
  5
DD8
331
D83
  5
D83
331
D9A
  5
D9A
331
DB9
  5
DB9
331
D64
  5
D64
331
F6B
  5
F6B
331
D45
  5
D45
331
D26
  5
D26
331
F2D
  5
F2D
331
F0E
  5
F0E
331
F4C
  5
F4C
331
D10
  5
D10
331
CAA
  5
CAA
331
CC9
  5
CC9
331
DF8
  5
DF8
331
D9B
  5
D9B
331
D84
  5
D84
331
DBA
  5
DBA
331
DD9
  5
DD9
331
D65
  5
D65
331
D46
  5
D46
331
F4D
  5
F4D
331
D27
  5
D27
331
F0F
  5
F0F
331
F2E
  5
F2E
331
F6C
  5
F6C
331
CCA
  5
CCA
331
CAB
  5
CAB
331
D11
  5
D11
331
DF9
  5
DF9
331
DDA
  5
DDA
331
D85
  5
D85
331
D9C
  5
D9C
331
DBB
  5
DBB
331
E10
  5
E10
331
D66
  5
D66
331
F6D
  5
F6D
331
D47
  5
D47
331
D28
  5
D28
331
F2F
  5
F2F
331
F10
  5
F10
331
F4E
  5
F4E
331
D12
  5
D12
331
CAC
  5
CAC
331
CCB
  5
CCB
331
E30
  5
E30
331
DFA
  5
DFA
331
D9D
  5
D9D
331
D86
  5
D86
331
DBC
  5
DBC
331
DDB
  5
DDB
331
E11
  5
E11
331
D67
  5
D67
331
D48
  5
D48
331
F4F
  5
F4F
331
D29
  5
D29
331
F11
  5
F11
331
F30
  5
F30
331
F6E
  5
F6E
331
CAD
  5
CAD
331
CCC
  5
CCC
331
D13
  5
D13
331
E50
  5
E50
331
DFB
  5
DFB
331
DBD
  5
DBD
331
D9E
  5
D9E
331
DDC
  5
DDC
331
E12
  5
E12
331
E31
  5
E31
331
D87
  5
D87
331
D68
  5
D68
331
F6F
  5
F6F
331
D49
  5
D49
331
D2A
  5
D2A
331
F31
  5
F31
331
F12
  5
F12
331
F50
  5
F50
331
F86
  5
F86
331
D14
  5
D14
331
CAE
  5
CAE
331
CCD
  5
CCD
331
E70
  5
E70
331
E32
  5
E32
331
DFC
  5
DFC
331
DBE
  5
DBE
331
DDD
  5
DDD
331
E51
  5
E51
331
D9F
  5
D9F
331
D88
  5
D88
331
1316
  5
1316
331
D69
  5
D69
331
D4A
  5
D4A
331
F51
  5
F51
331
D2B
  5
D2B
331
F13
  5
F13
331
F32
  5
F32
331
F70
  5
F70
331
CAF
  5
CAF
331
CCE
  5
CCE
331
D15
  5
D15
331
E52
  5
E52
331
DFD
  5
DFD
331
DBF
  5
DBF
331
D89
  5
D89
331
DA0
  5
DA0
331
DDE
  5
DDE
331
E33
  5
E33
331
E71
  5
E71
331
D6A
  5
D6A
331
F71
  5
F71
331
D4B
  5
D4B
331
D2C
  5
D2C
331
F33
  5
F33
331
F14
  5
F14
331
F52
  5
F52
331
2621
  5
2621
331
CCF
  5
CCF
331
CB0
  5
CB0
331
D16
  5
D16
331
EB0
  5
EB0
331
E72
  5
E72
331
E34
  5
E34
331
DFE
  5
DFE
331
E53
  5
E53
331
DDF
  5
DDF
331
D8A
  5
D8A
331
DA1
  5
DA1
331
DC0
  5
DC0
331
13CE
  5
13CE
331
D6B
  5
D6B
331
D4C
  5
D4C
331
F53
  5
F53
331
D2D
  5
D2D
331
F15
  5
F15
331
F34
  5
F34
331
F72
  5
F72
331
14BA
  5
14BA
331
2891
  5
2891
331
1D94
  5
1D94
331
2E30
  5
2E30
331
CD0
  5
CD0
331
CB1
  5
CB1
331
D17
  5
D17
331
EB1
  5
EB1
331
E54
  5
E54
331
DFF
  5
DFF
331
1378
  5
1378
331
DC1
  5
DC1
331
F73
  5
F73
331
D8B
  5
D8B
331
F54
  5
F54
331
F35
  5
F35
331
F16
  5
F16
331
D2E
  5
D2E
331
D4D
  5
D4D
331
D6C
  5
D6C
331
DA2
  5
DA2
331
DE0
  5
DE0
331
E35
  5
E35
331
E73
  5
E73
331
ED0
  5
ED0
331
2E50
  5
2E51
331
D18
  5
D18
331
CD1
  5
CD1
331
CB2
  5
CB2
331
C93
  5
C93
331
ED1
  5
ED1
331
E93
  5
E93
331
E74
  5
E74
331
144E
  5
144E
331
E36
  5
E36
331
DE1
  5
DE1
331
F74
  5
F74
331
D8C
  5
D8C
331
F55
  5
F55
331
F36
  5
F36
331
D4E
  5
D4E
331
F17
  5
F17
331
D2F
  5
D2F
331
D6D
  5
D6D
331
DA3
  5
DA3
331
DC2
  5
DC2
331
E00
  5
E00
331
E55
  5
E55
331
EB2
  5
EB2
331
EF0
  5
EF0
331
2E68
  5
2E69
331
2E51
  5
2E52
331
2E32
  5
2E32
331
30F0
  5
30F1
331
D19
  5
D19
331
CD2
  5
CD2
331
CB3
  5
CB3
331
C94
  5
C94
331
1791
  5
1791
331
EF1
  5
EF1
331
1682
  5
1682
331
EB3
  5
EB3
331
E94
  5
E94
331
E56
  5
E56
331
E01
  5
E01
331
DC3
  5
DC3
331
F75
  5
F75
331
D8D
  5
D8D
331
F56
  5
F56
331
F37
  5
F37
331
F18
  5
F18
331
D30
  5
D30
331
D4F
  5
D4F
331
D6E
  5
D6E
331
DA4
  5
DA4
331
DE2
  5
DE2
331
E37
  5
E37
331
ED2
  5
ED2
331
3000
  5
3001
331
2E69
  5
2E6A
331
2E52
  5
2E53
331
30F1
  5
30F2
331
3110
  5
3111
331
D1A
  5
D1A
331
CD3
  5
CD3
331
CB4
  5
CB4
331
C95
  5
C95
331
1792
  5
1792
331
ED3
  5
ED3
331
E95
  5
E95
331
E38
  5
E38
331
DE3
  5
DE3
331
F76
  5
F76
331
D8E
  5
D8E
331
F57
  5
F57
331
F38
  5
F38
331
D50
  5
D50
331
F19
  5
F19
331
D31
  5
D31
331
D6F
  5
D6F
331
DA5
  5
DA5
331
DC4
  5
DC4
331
E02
  5
E02
331
E57
  5
E57
331
EB4
  5
EB4
331
EF2
  5
EF2
331
3020
  5
3021
331
3001
  5
3002
331
2E6A
  5
2E6B
331
2E53
  5
2E54
331
30F2
  5
30F3
331
3111
  5
3112
331
3130
  5
3131
331
D1B
  5
D1B
331
CD4
  5
CD4
331
CB5
  5
CB5
331
C96
  5
C96
331
EF3
  5
EF3
331
E96
  5
E96
331
E58
  5
E58
331
E03
  5
E03
331
DC5
  5
DC5
331
F77
  5
F77
331
F58
  5
F58
331
D70
  5
D70
331
F39
  5
F39
331
F1A
  5
F1A
331
D32
  5
D32
331
D51
  5
D51
331
D8F
  5
D8F
331
DA6
  5
DA6
331
DE4
  5
DE4
331
E39
  5
E39
331
EB5
  5
EB5
331
ED4
  5
ED4
331
3021
  5
3022
331
3002
  5
3003
331
2E6B
  5
2E6C
331
2E54
  5
2E55
331
3040
  5
3041
331
3150
  5
3151
331
30F3
  5
30F4
331
3112
  5
3113
331
3131
  5
3132
331
D1C
  5
D1C
331
CD5
  5
CD5
331
CB6
  5
CB6
331
C97
  5
C97
331
EF4
  5
EF4
331
ED5
  5
ED5
331
14D0
  5
14D0
331
E97
  5
E97
331
E3A
  5
E3A
331
DE5
  5
DE5
331
D90
  5
D90
331
1147
  5
1147
331
F78
  5
F78
331
F59
  5
F59
331
F3A
  5
F3A
331
D52
  5
D52
331
F1B
  5
F1B
331
D33
  5
D33
331
D71
  5
D71
331
DA7
  5
DA7
331
DC6
  5
DC6
331
E04
  5
E04
331
E59
  5
E59
331
EB6
  5
EB6
331
3041
  5
3042
331
3022
  5
3023
331
3003
  5
3004
331
2E6C
  5
2E6D
331
2E55
  5
2E56
331
3058
  5
3059
331
30F4
  5
30F5
331
3113
  5
3114
331
3132
  5
3133
331
3151
  5
3152
331
D1D
  5
D1D
331
CD6
  5
CD6
331
CB7
  5
CB7
331
C98
  5
C98
331
15F7
  5
15F7
331
E98
  5
E98
331
E5A
  5
E5A
331
E05
  5
E05
331
DC7
  5
DC7
331
D91
  5
D91
331
1208
  5
1208
331
F79
  5
F79
331
DA8
  5
DA8
331
F5A
  5
F5A
331
D72
  5
D72
331
F3B
  5
F3B
331
F1C
  5
F1C
331
D34
  5
D34
331
D53
  5
D53
331
DE6
  5
DE6
331
E3B
  5
E3B
331
EB7
  5
EB7
331
ED6
  5
ED6
331
3023
  5
3024
331
3004
  5
3005
331
2E6D
  5
2E6E
331
2E56
  5
2E57
331
3042
  5
3043
331
3059
  5
305A
331
3078
  5
3079
331
3152
  5
3153
331
30F5
  5
30F6
331
3133
  5
3134
331
D1E
  5
D1E
331
CD7
  5
CD7
331
CB8
  5
CB8
331
C99
  5
C99
331
EB8
  5
EB8
331
E99
  5
E99
331
1415
  5
1415
331
E3C
  5
E3C
331
DE7
  5
DE7
331
D92
  5
D92
331
1209
  5
1209
331
F7A
  5
F7A
331
F5B
  5
F5B
331
F3C
  5
F3C
331
D54
  5
D54
331
F1D
  5
F1D
331
D35
  5
D35
331
D73
  5
D73
331
DA9
  5
DA9
331
DC8
  5
DC8
331
E06
  5
E06
331
E5B
  5
E5B
331
ED7
  5
ED7
331
305A
  5
305B
331
3043
  5
3044
331
3024
  5
3025
331
3005
  5
3006
331
2E6E
  5
2E6F
331
2AB1
  5
2AB1
331
2E38
  5
2E38
331
2E57
  5
2E58
331
3079
  5
307A
331
30B8
  5
30B9
331
30F6
  5
30F7
331
3115
  5
3116
331
3134
  5
3135
331
3153
  5
3154
331
D1F
  5
D1F
331
CD8
  5
CD8
331
CB9
  5
CB9
331
C9A
  5
C9A
331
EF7
  5
EF7
331
E9A
  5
E9A
331
E3D
  5
E3D
331
E07
  5
E07
331
DC9
  5
DC9
331
D93
  5
D93
331
F7B
  5
F7B
331
F5C
  5
F5C
331
D74
  5
D74
331
F3D
  5
F3D
331
F1E
  5
F1E
331
D36
  5
D36
331
D55
  5
D55
331
DAA
  5
DAA
331
DE8
  5
DE8
331
E5C
  5
E5C
331
E83
  5
E83
331
EB9
  5
EB9
331
ED8
  5
ED8
331
30D8
  5
30D9
331
305B
  5
305C
331
3025
  5
3026
331
3006
  5
3007
331
2E6F
  5
2E70
331
2E39
  5
2E39
331
227C
  5
227C
331
2E58
  5
2E59
331
3044
  5
3045
331
307A
  5
307B
331
30B9
  5
30BA
331
3154
  5
3155
331
30F7
  5
30F8
331
3116
  5
3117
331
3135
  5
3136
331
CD9
  5
CD9
331
CBA
  5
CBA
331
C9B
  5
C9B
331
EF8
  5
EF8
331
EBA
  5
EBA
331
150B
  5
150B
331
E9B
  5
E9B
331
E84
  5
E84
331
E08
  5
E08
331
E1F
  5
E1F
331
DE9
  5
DE9
331
DCA
  5
DCA
331
D94
  5
D94
331
F7C
  5
F7C
331
F5D
  5
F5D
331
D75
  5
D75
331
F3E
  5
F3E
331
D56
  5
D56
331
F1F
  5
F1F
331
D37
  5
D37
331
DAB
  5
DAB
331
E3E
  5
E3E
331
E5D
  5
E5D
331
ED9
  5
ED9
331
305C
  5
305D
331
3045
  5
3046
331
3026
  5
3027
331
3007
  5
3008
331
2E70
  5
2E71
331
2E3A
  5
2E3A
331
1FEE
  5
1FEE
331
2E59
  5
2E5A
331
307B
  5
307C
331
30BA
  5
30BB
331
30D9
  5
30DA
331
3117
  5
3118
331
30F8
  5
30F9
331
3136
  5
3137
331
3155
  5
3156
331
CBB
  5
CBB
331
C9C
  5
C9C
331
1799
  5
1799
331
EF9
  5
EF9
331
EDA
  5
EDA
331
150C
  5
150C
331
E3F
  5
E3F
331
E09
  5
E09
331
1392
  5
1392
331
D95
  5
D95
331
120C
  5
120C
331
F7D
  5
F7D
331
DAC
  5
DAC
331
F5E
  5
F5E
331
D76
  5
D76
331
D38
  5
D38
331
F3F
  5
F3F
331
F20
  5
F20
331
D57
  5
D57
331
DCB
  5
DCB
331
DEA
  5
DEA
331
E20
  5
E20
331
E5E
  5
E5E
331
E9C
  5
E9C
331
EBB
  5
EBB
331
305D
  5
305E
331
3027
  5
3028
331
3008
  5
3009
331
2E71
  5
2E72
331
2E3B
  5
2E3B
331
2E5A
  5
2E5B
331
3046
  5
3047
331
307C
  5
307D
331
30BB
  5
30BC
331
30DA
  5
30DB
331
3156
  5
3157
331
3118
  5
3119
331
30F9
  5
30FA
331
3137
  5
3138
331
CBC
  5
CBC
331
C9D
  5
C9D
331
179A
  5
179A
331
EFA
  5
EFA
331
EDB
  5
EDB
331
EBC
  5
EBC
331
E5F
  5
E5F
331
E0A
  5
E0A
331
DEB
  5
DEB
331
D96
  5
D96
331
120D
  5
120D
331
F7E
  5
F7E
331
D58
  5
D58
331
F5F
  5
F5F
331
D39
  5
D39
331
F40
  5
F40
331
F21
  5
F21
331
D77
  5
D77
331
DAD
  5
DAD
331
DCC
  5
DCC
331
E21
  5
E21
331
E40
  5
E40
331
E9D
  5
E9D
331
305E
  5
305F
331
3047
  5
3048
331
3028
  5
3029
331
3009
  5
300A
331
2E72
  5
2E73
331
2E3C
  5
2E3C
331
2E5B
  5
2E5C
331
307D
  5
307E
331
30BC
  5
30BD
331
30DB
  5
30DC
331
3119
  5
311A
331
30FA
  5
30FB
331
3138
  5
3139
331
3157
  5
3158
331
CBD
  5
CBD
331
C9E
  5
C9E
331
179B
  5
179B
331
EDC
  5
EDC
331
1490
  5
1490
331
E41
  5
E41
331
E0B
  5
E0B
331
D97
  5
D97
331
D78
  5
D78
331
F7F
  5
F7F
331
D59
  5
D59
331
F60
  5
F60
331
D3A
  5
D3A
331
F41
  5
F41
331
F22
  5
F22
331
DAE
  5
DAE
331
DCD
  5
DCD
331
DEC
  5
DEC
331
E22
  5
E22
331
E60
  5
E60
331
E9E
  5
E9E
331
EBD
  5
EBD
331
EFB
  5
EFB
331
305F
  5
3060
331
3029
  5
302A
331
300A
  5
300B
331
2E73
  5
2E74
331
2E3D
  5
2E3D
331
2E5C
  5
2E5D
331
3048
  5
3049
331
307E
  5
307F
331
30DC
  5
30DD
331
311A
  5
311B
331
30FB
  5
30FC
331
3139
  5
313A
331
3158
  5
3159
331
CBE
  5
CBE
331
C9F
  5
C9F
331
EFC
  5
EFC
331
EBE
  5
EBE
331
E61
  5
E61
331
E0C
  5
E0C
331
DCE
  5
DCE
331
D79
  5
D79
331
120F
  5
120F
331
D5A
  5
D5A
331
F61
  5
F61
331
D3B
  5
D3B
331
F42
  5
F42
331
F23
  5
F23
331
DAF
  5
DAF
331
DED
  5
DED
331
E23
  5
E23
331
E42
  5
E42
331
E9F
  5
E9F
331
EDD
  5
EDD
331
30DD
  5
30DE
331
307F
  5
3080
331
3060
  5
3061
331
302A
  5
302B
331
300B
  5
300D
331
2E74
  5
2FF2
331
2E3E
  5
2E3E
331
2E5D
  5
2E5E
331
3049
  5
304A
331
30BE
  5
30BF
331
311B
  5
311C
331
30FC
  5
30FD
331
313A
  5
313B
331
3159
  5
315A
331
CBF
  5
CBF
331
16BE
  5
16BE
331
EDE
  5
EDE
331
E43
  5
E43
331
E0D
  5
E0D
331
DB0
  5
DB0
331
D7A
  5
D7A
331
D5B
  5
D5B
331
F62
  5
F62
331
D3C
  5
D3C
331
F43
  5
F43
331
F24
  5
F24
331
DCF
  5
DCF
331
DEE
  5
DEE
331
E24
  5
E24
331
E62
  5
E62
331
EA0
  5
EA0
331
EBF
  5
EBF
331
EFD
  5
EFD
331
3061
  5
3062
331
302B
  5
302C
331
2E3F
  5
2E3F
331
2E5E
  5
2E5F
331
304A
  5
304B
331
30BF
  5
30C0
331
30DE
  5
30DF
331
311C
  5
311D
331
30FD
  5
30FE
331
313B
  5
313C
331
315A
  5
315B
331
EC0
  5
EC0
331
E63
  5
E63
331
1464
  5
1464
331
E0E
  5
E0E
331
13F6
  5
13F6
331
DD0
  5
DD0
331
DB1
  5
DB1
331
D7B
  5
D7B
331
D5C
  5
D5C
331
F63
  5
F63
331
D3D
  5
D3D
331
F44
  5
F44
331
F25
  5
F25
331
DEF
  5
DEF
331
E25
  5
E25
331
E44
  5
E44
331
EA1
  5
EA1
331
EFE
  5
EFE
331
30DF
  5
30E0
331
3062
  5
3063
331
302C
  5
302D
331
300D
  5
300E
331
2E5F
  5
2E60
331
2CA1
  5
2CA1
331
304B
  5
304C
331
30C0
  5
30C1
331
311D
  5
311E
331
30FE
  5
30FF
331
313C
  5
313D
331
315B
  5
315C
331
E45
  5
E45
331
E0F
  5
E0F
331
DF0
  5
DF0
331
DB2
  5
DB2
331
D7C
  5
D7C
331
DD1
  5
DD1
331
D5D
  5
D5D
331
F64
  5
F64
331
D3E
  5
D3E
331
F45
  5
F45
331
F26
  5
F26
331
E26
  5
E26
331
E64
  5
E64
331
EA2
  5
EA2
331
EC1
  5
EC1
331
EFF
  5
EFF
331
30A2
  5
30A3
331
3063
  5
3064
331
302D
  5
302E
331
2E60
  5
2E61
331
300E
  5
300F
331
2554
  5
2554
331
2E41
  5
2E43
331
304C
  5
304D
331
30C1
  5
30C2
331
30E0
  5
30E1
331
311E
  5
311F
331
30FF
  5
3100
331
313D
  5
313E
331
315C
  5
315D
331
EC2
  5
EC2
331
E8C
  5
E8C
331
E65
  5
E65
331
DD2
  5
DD2
331
DB3
  5
DB3
331
DF1
  5
DF1
331
D5E
  5
D5E
331
F65
  5
F65
331
D3F
  5
D3F
331
F46
  5
F46
331
F27
  5
F27
331
E27
  5
E27
331
E46
  5
E46
331
EA3
  5
EA3
331
F00
  5
F00
331
30A3
  5
30A4
331
3064
  5
3065
331
302E
  5
302F
331
2E61
  5
2E62
331
300F
  5
3010
331
304D
  5
304E
331
30C2
  5
30C3
331
30E1
  5
30E2
331
311F
  5
3120
331
3100
  5
3101
331
313E
  5
313F
331
315D
  5
315E
331
E8D
  5
E8D
331
1514
  5
1514
331
DF2
  5
DF2
331
E28
  5
E28
331
DB4
  5
DB4
331
DD3
  5
DD3
331
D5F
  5
D5F
331
F66
  5
F66
331
F47
  5
F47
331
13C2
  5
13C2
331
E47
  5
E47
331
E66
  5
E66
331
EA4
  5
EA4
331
EC3
  5
EC3
331
F01
  5
F01
331
30A4
  5
30A5
331
3065
  5
3066
331
302F
  5
3030
331
2E62
  5
2E63
331
2E43
  5
2E45
331
3010
  5
3011
331
304E
  5
304F
331
30C3
  5
30C4
331
30E2
  5
30E3
331
313F
  5
3140
331
3101
  5
3102
331
3120
  5
3121
331
315E
  5
315F
331
1905
  5
1905
331
EC4
  5
EC4
331
E8E
  5
E8E
331
1515
  5
1515
331
DD4
  5
DD4
331
DB5
  5
DB5
331
DF3
  5
DF3
331
E29
  5
E29
331
E48
  5
E48
331
F67
  5
F67
331
E67
  5
E67
331
EA5
  5
EA5
331
F02
  5
F02
331
30A5
  5
30A6
331
3066
  5
3067
331
304F
  5
3050
331
3030
  5
3031
331
2E63
  5
2E64
331
2FF2
  5
2FF3
331
3011
  5
3012
331
30C4
  5
30C5
331
30E3
  5
30E4
331
315F
  5
3160
331
3140
  5
3141
331
3102
  5
3103
331
3121
  5
3122
331
17DA
  5
17DA
331
163D
  5
163D
331
E49
  5
E49
331
DF4
  5
DF4
331
DB6
  5
DB6
331
DD5
  5
DD5
331
E2A
  5
E2A
331
E68
  5
E68
331
14EF
  5
14EF
331
EA6
  5
EA6
331
EC5
  5
EC5
331
F03
  5
F03
331
30A6
  5
30A7
331
3050
  5
3051
331
3067
  5
3068
331
2E64
  5
2E65
331
2E45
  5
2E47
331
2FF3
  5
2FF4
331
3012
  5
3013
331
3031
  5
3032
331
30C5
  5
30C6
331
30E4
  5
30E5
331
3141
  5
3142
331
3103
  5
3104
331
3122
  5
3123
331
3160
  5
3161
331
EE5
  5
EE5
331
E69
  5
E69
331
E4A
  5
E4A
331
DD6
  5
DD6
331
DB7
  5
DB7
331
DF5
  5
DF5
331
E2B
  5
E2B
331
147A
  5
147A
331
EA7
  5
EA7
331
EC6
  5
EC6
331
F04
  5
F04
331
30A7
  5
30A8
331
3051
  5
3052
331
3032
  5
3033
331
2E65
  5
2E66
331
2780
  5
2780
331
2FF4
  5
2FF5
331
3013
  5
3014
331
3068
  5
3069
331
30C6
  5
30C7
331
30E5
  5
30E6
331
3142
  5
3143
331
3104
  5
3105
331
3123
  5
3124
331
3161
  5
3162
331
1AB1
  5
1AB1
331
18A2
  5
18A2
331
17B5
  5
17B5
331
EE6
  5
EE6
331
E2C
  5
E2C
331
E4B
  5
E4B
331
E6A
  5
E6A
331
EA8
  5
EA8
331
DF6
  5
DF6
331
DD7
  5
DD7
331
1434
  5
1434
331
EC7
  5
EC7
331
F05
  5
F05
331
30E6
  5
30E7
331
3069
  5
306A
331
30A8
  5
30A9
331
2FF5
  5
2FF6
331
3014
  5
3015
331
3033
  5
3034
331
2E47
  5
2E49
331
2E66
  5
2E67
331
3052
  5
3053
331
3143
  5
3144
331
3124
  5
3125
331
3105
  5
3106
331
3162
  5
3163
331
1A6B
  5
1A6B
331
1A2C
  5
1A2C
331
181C
  5
181C
331
E6B
  5
E6B
331
DF7
  5
DF7
331
E2D
  5
E2D
331
E4C
  5
E4C
331
EA9
  5
EA9
331
EC8
  5
EC8
331
EE7
  5
EE7
331
F06
  5
F06
331
30E7
  5
30E8
331
306A
  5
306B
331
30A9
  5
30AA
331
3034
  5
3035
331
2FF6
  5
2FF7
331
3015
  5
3016
331
2E67
  5
2E68
331
3053
  5
3054
331
3144
  5
3145
331
3125
  5
3126
331
3106
  5
3107
331
3163
  5
3164
331
1931
  5
1931
331
EE8
  5
EE8
331
EC9
  5
EC9
331
EAA
  5
EAA
331
E2E
  5
E2E
331
E4D
  5
E4D
331
E6C
  5
E6C
331
159A
  5
159A
331
F07
  5
F07
331
306B
  5
306C
331
30AA
  5
30AB
331
30E8
  5
30E9
331
2E49
  5
2E4B
331
2FF7
  5
2FF8
331
3016
  5
3017
331
3035
  5
3036
331
3054
  5
3055
331
3145
  5
3146
331
3126
  5
3127
331
3107
  5
3108
331
3164
  5
3165
331
1961
  5
1961
331
EE9
  5
EE9
331
E4E
  5
E4E
331
E2F
  5
E2F
331
E6D
  5
E6D
331
EAB
  5
EAB
331
ECA
  5
ECA
331
1789
  5
1789
331
306C
  5
306D
331
30AB
  5
30AC
331
30CA
  5
30CB
331
30E9
  5
30EA
331
2FF8
  5
2FF9
331
3017
  5
3018
331
3055
  5
3056
331
3146
  5
3147
331
3127
  5
3128
331
3165
  5
3166
331
3108
  5
3109
331
17F0
  5
17F0
331
EEA
  5
EEA
331
ECB
  5
ECB
331
E4F
  5
E4F
331
E6E
  5
E6E
331
EAC
  5
EAC
331
178A
  5
178A
331
306D
  5
306E
331
30AC
  5
30AD
331
30CB
  5
30CC
331
30EA
  5
30EB
331
2FF9
  5
2FFA
331
2E4B
  5
2E4C
331
3018
  5
3019
331
3056
  5
3057
331
3147
  5
3148
331
3166
  5
3167
331
3128
  5
3129
331
3109
  5
310A
331
EEB
  5
EEB
331
E6F
  5
E6F
331
EAD
  5
EAD
331
ECC
  5
ECC
331
30CC
  5
30CD
331
306E
  5
306F
331
30AD
  5
30AE
331
30EB
  5
30EC
331
2FFA
  5
2FFB
331
2E4C
  5
2E4D
331
3019
  5
301A
331
3038
  5
3039
331
3057
  5
3058
331
3167
  5
2E41
331
3148
  5
3149
331
3129
  5
312A
331
310A
  5
310B
331
1B1C
  5
1B1C
331
1841
  5
1841
331
ECD
  5
ECD
331
EAE
  5
EAE
331
EEC
  5
EEC
331
2FFB
  5
2FFC
331
2E4D
  5
2E4E
331
2E2E
  5
2E2E
331
301A
  5
301B
331
3039
  5
303A
331
306F
  5
3070
331
30AE
  5
30AF
331
30CD
  5
30CE
331
30EC
  5
30ED
331
3149
  5
314A
331
312A
  5
312B
331
310B
  5
310C
331
1B1D
  5
1B1D
331
1AD7
  5
1AD7
331
EED
  5
EED
331
EAF
  5
EAF
331
ECE
  5
ECE
331
30CE
  5
30CF
331
3070
  5
3071
331
2FFC
  5
2FFD
331
2E4E
  5
2E4F
331
2E2F
  5
2E2F
331
301B
  5
301C
331
303A
  5
303B
331
30AF
  5
30B0
331
30ED
  5
30EE
331
314A
  5
314B
331
312B
  5
312C
331
310C
  5
310D
331
1AD8
  5
1AD8
331
ECF
  5
ECF
331
EEE
  5
EEE
331
30CF
  5
30D0
331
30EE
  5
30EF
331
30B0
  5
30B1
331
303B
  5
303C
331
301C
  5
301D
331
2FFD
  5
2FFE
331
2E4F
  5
2E50
331
3071
  5
3072
331
314B
  5
314C
331
310D
  5
310E
331
312C
  5
312D
331
1AD9
  5
1AD9
331
EEF
  5
EEF
  0
XRECORD
  5
3661
102
{ACAD_REACTORS
330
3660
102
}
330
3660
100
AcDbXrecord
340
3638
  0
ACAD_PROXY_OBJECT
  5
811
102
{ACAD_XDICTIONARY
360
812
102
}
102
{ACAD_REACTORS
330
808
102
}
330
808
100
AcDbProxyObject
 90
      499
 91
      512
 93
     1340
310
42109E509B1BD8DAC02004014080404555555555555953FAA155555555555654FEA9AA400014080404555555555555953FAA155555555555654FEA9AA400000000000000E03F4080404555555555555953FAA155555555555654FEA9AA4014080404555555555555953FAA155555555555654FEA9AA4010201011555555555
310
55654FEA8555555555555953FAA6A9005020101155555555555654FEA8555555555555953FAA6A9000
 94
        0
1001
ACAD
1000
AcadProxyRoundTripData
1071
      504
1071
   851991
1070
     0
  0
ACAD_PROXY_OBJECT
  5
809
102
{ACAD_XDICTIONARY
360
80A
102
}
102
{ACAD_REACTORS
330
808
102
}
330
808
100
AcDbProxyObject
 90
      499
 91
      512
 93
     1340
310
42109E53185E595C802004014080404555555555555953FAA155555555555654FEA9AA400014080404555555555555953FAA155555555555654FEA9AA400000000000000E03F4080404555555555555953FAA155555555555654FEA9AA4014080404555555555555953FAA155555555555654FEA9AA4010201011555555555
310
55654FEA8555555555555953FAA6A9005020101155555555555654FEA8555555555555953FAA6A9000
 94
        0
1001
ACAD
1000
AcadProxyRoundTripData
1071
      504
1071
   851991
1070
     0
  0
ACAD_PROXY_OBJECT
  5
819
102
{ACAD_XDICTIONARY
360
81A
102
}
102
{ACAD_REACTORS
330
808
102
}
330
808
100
AcDbProxyObject
 90
      499
 91
      512
 93
     1332
310
41D1DB1BD8985B002004014080404555555555555953FAA155555555555654FEA9AA400014080404555555555555953FAA155555555555654FEA9AA400000000000000E03F4080404555555555555953FAA155555555555654FEA9AA4014080404555555555555953FAA155555555555654FEA9AA401020101155555555555
310
654FEA8555555555555953FAA6A9005020101155555555555654FEA8555555555555953FAA6A9000
 94
        0
1001
ACAD
1000
AcadProxyRoundTripData
1071
      504
1071
   851991
1070
     0
  0
ACAD_PROXY_OBJECT
  5
858
102
{ACAD_REACTORS
330
857
102
}
330
857
100
AcDbProxyObject
 90
      499
 91
      512
 93
      618
310
40901902A4063FBFFFFFE056BD1B81E855B9FC0AD7A3703D0AD73F4254DD185B99185C990000AD7A3703D0AC73F90141901A02B5E8DC0F42B1CFC02B5E8DC0F42B1CFE5764000000000000300FC6
340
6A
340
0
340
16
340
0
 94
        0
1001
ACAD_MLEADERVER
1070
     2
1001
ACAD
1000
AcadProxyRoundTripData
1071
      508
1071
   851991
1070
     0
  0
MLINESTYLE
  5
78
102
{ACAD_REACTORS
330
76
102
}
330
76
100
AcDbMlineStyle
  2
STANDARD
 70
     0
  3

 62
     0
 51
90.0
 52
90.0
 71
     2
 49
0.5
 62
   256
  6
BYLAYER
 49
-0.5
 62
   256
  6
BYLAYER
  0
ACDBPLACEHOLDER
  5
5
102
{ACAD_REACTORS
330
6
102
}
330
6
100
AcDbPlaceHolder
280
     0
  0
ACAD_PROXY_OBJECT
  5
836
102
{ACAD_REACTORS
330
835
102
}
330
835
100
AcDbProxyObject
 90
      499
 91
      512
 93
       49
310
904313A3100598
 94
        0
1001
ACAD
1000
AcadProxyRoundTripData
1071
      507
1071
   851991
1070
     0
  0
ACAD_PROXY_OBJECT
  5
837
102
{ACAD_REACTORS
330
835
102
}
330
835
100
AcDbProxyObject
 90
      499
 91
      512
 93
      113
310
904313A3200400000000000000406B
 94
        0
1001
ACAD
1000
AcadProxyRoundTripData
1071
      507
1071
   851991
1070
     0
  0
ACAD_PROXY_OBJECT
  5
838
102
{ACAD_REACTORS
330
835
102
}
330
835
100
AcDbProxyObject
 90
      499
 91
      512
 93
      113
310
904313A3400400000000000010406B
 94
        0
1001
ACAD
1000
AcadProxyRoundTripData
1071
      507
1071
   851991
1070
     0
  0
ACAD_PROXY_OBJECT
  5
839
102
{ACAD_REACTORS
330
835
102
}
330
835
100
AcDbProxyObject
 90
      499
 91
      512
 93
      113
310
904313A3500400000000000014406B
 94
        0
1001
ACAD
1000
AcadProxyRoundTripData
1071
      507
1071
   851991
1070
     0
  0
ACAD_PROXY_OBJECT
  5
83A
102
{ACAD_REACTORS
330
835
102
}
330
835
100
AcDbProxyObject
 90
      499
 91
      512
 93
      113
310
904313A3800400000000000020406B
 94
        0
1001
ACAD
1000
AcadProxyRoundTripData
1071
      507
1071
   851991
1070
     0
  0
ACAD_PROXY_OBJECT
  5
83B
102
{ACAD_REACTORS
330
835
102
}
330
835
100
AcDbProxyObject
 90
      499
 91
      512
 93
      121
310
905313A3130004000000000000244051
 94
        0
1001
ACAD
1000
AcadProxyRoundTripData
1071
      507
1071
   851991
1070
     0
  0
ACAD_PROXY_OBJECT
  5
83C
102
{ACAD_REACTORS
330
835
102
}
330
835
100
AcDbProxyObject
 90
      499
 91
      512
 93
      121
310
905313A3136004000000000000304051
 94
        0
1001
ACAD
1000
AcadProxyRoundTripData
1071
      507
1071
   851991
1070
     0
  0
ACAD_PROXY_OBJECT
  5
83D
102
{ACAD_REACTORS
330
835
102
}
330
835
100
AcDbProxyObject
 90
      499
 91
      512
 93
      121
310
905313A3230004000000000000344051
 94
        0
1001
ACAD
1000
AcadProxyRoundTripData
1071
      507
1071
   851991
1070
     0
  0
ACAD_PROXY_OBJECT
  5
83E
102
{ACAD_REACTORS
330
835
102
}
330
835
100
AcDbProxyObject
 90
      499
 91
      512
 93
      121
310
905313A33300040000000000003E4051
 94
        0
1001
ACAD
1000
AcadProxyRoundTripData
1071
      507
1071
   851991
1070
     0
  0
ACAD_PROXY_OBJECT
  5
83F
102
{ACAD_REACTORS
330
835
102
}
330
835
100
AcDbProxyObject
 90
      499
 91
      512
 93
      121
310
905313A3430004000000000000444051
 94
        0
1001
ACAD
1000
AcadProxyRoundTripData
1071
      507
1071
   851991
1070
     0
  0
ACAD_PROXY_OBJECT
  5
840
102
{ACAD_REACTORS
330
835
102
}
330
835
100
AcDbProxyObject
 90
      499
 91
      512
 93
      121
310
905313A3530004000000000000494051
 94
        0
1001
ACAD
1000
AcadProxyRoundTripData
1071
      507
1071
   851991
1070
     0
  0
ACAD_PROXY_OBJECT
  5
841
102
{ACAD_REACTORS
330
835
102
}
330
835
100
AcDbProxyObject
 90
      499
 91
      512
 93
      129
310
906313A313030004000000000000594038
 94
        0
1001
ACAD
1000
AcadProxyRoundTripData
1071
      507
1071
   851991
1070
     0
  0
ACAD_PROXY_OBJECT
  5
842
102
{ACAD_REACTORS
330
835
102
}
330
835
100
AcDbProxyObject
 90
      499
 91
      512
 93
      113
310
904323A31000000000000000010159
 94
        0
1001
ACAD
1000
AcadProxyRoundTripData
1071
      507
1071
   851991
1070
     0
  0
ACAD_PROXY_OBJECT
  5
843
102
{ACAD_REACTORS
330
835
102
}
330
835
100
AcDbProxyObject
 90
      499
 91
      512
 93
      113
310
904343A31000000000000000410159
 94
        0
1001
ACAD
1000
AcadProxyRoundTripData
1071
      507
1071
   851991
1070
     0
  0
ACAD_PROXY_OBJECT
  5
844
102
{ACAD_REACTORS
330
835
102
}
330
835
100
AcDbProxyObject
 90
      499
 91
      512
 93
      113
310
904383A31000000000000000810159
 94
        0
1001
ACAD
1000
AcadProxyRoundTripData
1071
      507
1071
   851991
1070
     0
  0
ACAD_PROXY_OBJECT
  5
845
102
{ACAD_REACTORS
330
835
102
}
330
835
100
AcDbProxyObject
 90
      499
 91
      512
 93
      121
310
90531303A31000000000000000910140
 94
        0
1001
ACAD
1000
AcadProxyRoundTripData
1071
      507
1071
   851991
1070
     0
  0
ACAD_PROXY_OBJECT
  5
846
102
{ACAD_REACTORS
330
835
102
}
330
835
100
AcDbProxyObject
 90
      499
 91
      512
 93
      129
310
9063130303A31000000000000001650138
 94
        0
1001
ACAD
1000
AcadProxyRoundTripData
1071
      507
1071
   851991
1070
     0
  0
ACAD_PROXY_OBJECT
  5
847
102
{ACAD_REACTORS
330
835
102
}
330
835
100
AcDbProxyObject
 90
      499
 91
      512
 93
      265
310
90F312F31323822203D2031272D302200000000000000200FC00000000000028402B
 94
        0
1001
ACAD
1000
AcadProxyRoundTripData
1071
      507
1071
   851991
1070
     0
  0
ACAD_PROXY_OBJECT
  5
848
102
{ACAD_REACTORS
330
835
102
}
330
835
100
AcDbProxyObject
 90
      499
 91
      512
 93
      257
310
90E312F363422203D2031272D302200000000000000240FC000000000000284040
 94
        0
1001
ACAD
1000
AcadProxyRoundTripData
1071
      507
1071
   851991
1070
     0
  0
ACAD_PROXY_OBJECT
  5
849
102
{ACAD_REACTORS
330
835
102
}
330
835
100
AcDbProxyObject
 90
      499
 91
      512
 93
      257
310
90E312F333222203D2031272D302200000000000000280FC000000000000284040
 94
        0
1001
ACAD
1000
AcadProxyRoundTripData
1071
      507
1071
   851991
1070
     0
  0
ACAD_PROXY_OBJECT
  5
84A
102
{ACAD_REACTORS
330
835
102
}
330
835
100
AcDbProxyObject
 90
      499
 91
      512
 93
      257
310
90E312F313622203D2031272D3022000000000000002C0FC000000000000284040
 94
        0
1001
ACAD
1000
AcadProxyRoundTripData
1071
      507
1071
   851991
1070
     0
  0
ACAD_PROXY_OBJECT
  5
84B
102
{ACAD_REACTORS
330
835
102
}
330
835
100
AcDbProxyObject
 90
      499
 91
      512
 93
      257
310
90E332F333222203D2031272D3022000000000000002E0FC000000000000284040
 94
        0
1001
ACAD
1000
AcadProxyRoundTripData
1071
      507
1071
   851991
1070
     0
  0
ACAD_PROXY_OBJECT
  5
84C
102
{ACAD_REACTORS
330
835
102
}
330
835
100
AcDbProxyObject
 90
      499
 91
      512
 93
      249
310
90D312F3822203D2031272D302200000000000000300FC000000000000284040
 94
        0
1001
ACAD
1000
AcadProxyRoundTripData
1071
      507
1071
   851991
1070
     0
  0
ACAD_PROXY_OBJECT
  5
84D
102
{ACAD_REACTORS
330
835
102
}
330
835
100
AcDbProxyObject
 90
      499
 91
      512
 93
      257
310
90E332F313622203D2031272D302200000000000000320FC000000000000284040
 94
        0
1001
ACAD
1000
AcadProxyRoundTripData
1071
      507
1071
   851991
1070
     0
  0
ACAD_PROXY_OBJECT
  5
84E
102
{ACAD_REACTORS
330
835
102
}
330
835
100
AcDbProxyObject
 90
      499
 91
      512
 93
      249
310
90D312F3422203D2031272D302200000000000000340FC000000000000284040
 94
        0
1001
ACAD
1000
AcadProxyRoundTripData
1071
      507
1071
   851991
1070
     0
  0
ACAD_PROXY_OBJECT
  5
84F
102
{ACAD_REACTORS
330
835
102
}
330
835
100
AcDbProxyObject
 90
      499
 91
      512
 93
      249
310
90D332F3822203D2031272D302200000000000000360FC000000000000284040
 94
        0
1001
ACAD
1000
AcadProxyRoundTripData
1071
      507
1071
   851991
1070
     0
  0
ACAD_PROXY_OBJECT
  5
850
102
{ACAD_REACTORS
330
835
102
}
330
835
100
AcDbProxyObject
 90
      499
 91
      512
 93
      249
310
90D312F3222203D2031272D302200000000000000380FC000000000000284040
 94
        0
1001
ACAD
1000
AcadProxyRoundTripData
1071
      507
1071
   851991
1070
     0
  0
ACAD_PROXY_OBJECT
  5
851
102
{ACAD_REACTORS
330
835
102
}
330
835
100
AcDbProxyObject
 90
      499
 91
      512
 93
      249
310
90D332F3422203D2031272D3022000000000000003A0FC000000000000284040
 94
        0
1001
ACAD
1000
AcadProxyRoundTripData
1071
      507
1071
   851991
1070
     0
  0
ACAD_PROXY_OBJECT
  5
852
102
{ACAD_REACTORS
330
835
102
}
330
835
100
AcDbProxyObject
 90
      499
 91
      512
 93
      169
310
90B3122203D2031272D3022004000000000000284020
 94
        0
1001
ACAD
1000
AcadProxyRoundTripData
1071
      507
1071
   851991
1070
     0
  0
ACAD_PROXY_OBJECT
  5
853
102
{ACAD_REACTORS
330
835
102
}
330
835
100
AcDbProxyObject
 90
      499
 91
      512
 93
      265
310
90F312D312F3222203D2031272D3022000000000000003E0FC00000000000028402B
 94
        0
1001
ACAD
1000
AcadProxyRoundTripData
1071
      507
1071
   851991
1070
     0
  0
ACAD_PROXY_OBJECT
  5
854
102
{ACAD_REACTORS
330
835
102
}
330
835
100
AcDbProxyObject
 90
      499
 91
      512
 93
      233
310
90B3322203D2031272D30220000000000000002100000000000000284000
 94
        0
1001
ACAD
1000
AcadProxyRoundTripData
1071
      507
1071
   851991
1070
     0
  0
ACAD_PROXY_OBJECT
  5
855
102
{ACAD_REACTORS
330
835
102
}
330
835
100
AcDbProxyObject
 90
      499
 91
      512
 93
      233
310
90B3622203D2031272D30220000000000000006100000000000000284000
 94
        0
1001
ACAD
1000
AcadProxyRoundTripData
1071
      507
1071
   851991
1070
     0
  0
ACAD_PROXY_OBJECT
  5
856
102
{ACAD_REACTORS
330
835
102
}
330
835
100
AcDbProxyObject
 90
      499
 91
      512
 93
      257
310
90E31272D3022203D2031272D3022000000000000000A100000000000000284040
 94
        0
1001
ACAD
1000
AcadProxyRoundTripData
1071
      507
1071
   851991
1070
     0
  0
ACAD_PROXY_OBJECT
  5
834
102
{ACAD_XDICTIONARY
360
88C
102
}
102
{ACAD_REACTORS
330
833
102
}
330
833
100
AcDbProxyObject
 90
      499
 91
      512
 93
     1849
310
4254DD185B99185C990028B81E85EB51B8AE3F2E07A17AD46E2B8FC02B5E8DC0F42B1CFD028000000C1008070000C3001FDFF8000000C1003FBFF000000182007F7FE00000030400FEFFC00000060801FDFF8000000C1003FBFF00000018200000000000000681FA0B0000001820100E000186003FBFF000000182007F7FE0
310
0000030400FEFFC00000060801FDFF8000000C1003FBFF000000182007F7FE000000304000AD7A3703D0AC73F4160000003040201C00030C007F7FE00000030400FEFFC00000060801FDFF8000000C1003FBFF000000182007F7FE00000030400FEFFC000000608000
340
16
340
16
340
16
 94
        0
1001
ACAD
1000
AcadProxyRoundTripData
1071
      506
1071
   851991
1070
     0
  0
ACAD_PROXY_OBJECT
  5
827
102
{ACAD_REACTORS
330
821
102
}
330
821
100
AcDbProxyObject
 90
      499
 91
      512
 93
      444
310
430C9915DA5C99599C985B59401049028333333333333E3BF0000000000000FB0107901411070040501600405405064090741402480A0340
 94
        0
1001
ACAD
1000
AcDbSavedByObjectVersion
1070
     0
1000
AcadProxyRoundTripData
1071
      505
1071
   851991
1070
     0
  0
ACAD_PROXY_OBJECT
  5
829
102
{ACAD_REACTORS
330
821
102
}
330
821
100
AcDbProxyObject
 90
      499
 91
      512
 93
      508
310
428CD108121A5919195B8010640502408333333333333E3BF0000000000000FB01079024090700405020000000000001110200405405064090740C02480A0340
 94
        0
1001
ACAD
1000
AcDbSavedByObjectVersion
1070
     0
1000
AcadProxyRoundTripData
1071
      505
1071
   851991
1070
     0
  0
ACAD_PROXY_OBJECT
  5
828
102
{ACAD_REACTORS
330
821
102
}
330
821
100
AcDbProxyObject
 90
      499
 91
      512
 93
      444
310
430CD915DA5C99599C985B59401059028333333333333E3BF0000000000000FB0107901411070040501600405405064090741402480A0340
 94
        0
1001
ACAD
1000
AcDbSavedByObjectVersion
1070
     0
1000
AcadProxyRoundTripData
1071
      505
1071
   851991
1070
     0
  0
ACAD_PROXY_OBJECT
  5
826
102
{ACAD_REACTORS
330
821
102
}
330
821
100
AcDbProxyObject
 90
      499
 91
      512
 93
      396
310
4190985CDA58C0107406404333333333333E3BF0000000000000FB0107A41107004050150841D405064090741402480A0356
 94
        0
1001
ACAD
1000
AcDbSavedByObjectVersion
1070
     0
1000
AcadProxyRoundTripData
1071
      505
1071
   851991
1070
     0
  0
ACAD_PROXY_OBJECT
  5
82D
102
{ACAD_REACTORS
330
821
102
}
330
821
100
AcDbProxyObject
 90
      499
 91
      512
 93
      436
310
42509C9A59DA1D195B8010C409028333333333333E3BF0000000000000FB010790141107004050150841D405064090741402480A029956
 94
        0
1001
ACAD
1000
AcDbSavedByObjectVersion
1070
     0
1000
AcadProxyRoundTripData
1071
      505
1071
   851991
1070
     0
  0
ACAD_PROXY_OBJECT
  5
831
102
{ACAD_REACTORS
330
821
102
}
330
821
100
AcDbProxyObject
 90
      499
 91
      512
 93
      460
310
4310DBDB1BDC90DA185B99D9401104090240C333333333333E3BF0000000000000FB0108901411070040501508421405064090741402480A0354
 94
        0
1001
ACAD
1000
AcDbSavedByObjectVersion
1070
     0
1000
AcadProxyRoundTripData
1071
      505
1071
   851991
1070
     0
  0
ACAD_PROXY_OBJECT
  5
82A
102
{ACAD_REACTORS
330
821
102
}
330
821
100
AcDbProxyObject
 90
      499
 91
      512
 93
      508
310
42D0DBDB98D95C1D1D585B0010940D028333333333333E3BF0000000000000FB0107902409070040501000000000000111010841D405064090740C02480A0340
 94
        0
1001
ACAD
1000
AcDbSavedByObjectVersion
1070
     0
1000
AcadProxyRoundTripData
1071
      505
1071
   851991
1070
     0
  0
ACAD_PROXY_OBJECT
  5
82C
102
{ACAD_REACTORS
330
821
102
}
330
821
100
AcDbProxyObject
 90
      499
 91
      512
 93
      420
310
41111A5B4010B409028333333333333E3BF0000000000000FB010790141107004050150841D405064090741402480A02677FFFFFDB
 94
        0
1001
ACAD
1000
AcDbSavedByObjectVersion
1070
     0
1000
AcadProxyRoundTripData
1071
      505
1071
   851991
1070
     0
  0
ACAD_PROXY_OBJECT
  5
830
102
{ACAD_REACTORS
330
821
102
}
330
821
100
AcDbProxyObject
 90
      499
 91
      512
 93
      452
310
43119858D95C185D1D195C9B8010F409028333333333333E3BF0000000000000FB010790141107004050150841D405064090741402480A0350
 94
        0
1001
ACAD
1000
AcDbSavedByObjectVersion
1070
     0
1000
AcadProxyRoundTripData
1071
      505
1071
   851991
1070
     0
  0
ACAD_PROXY_OBJECT
  5
822
102
{ACAD_REACTORS
330
821
102
}
330
821
100
AcDbProxyObject
 90
      499
 91
      512
 93
      396
310
41519B185D00240901404333333333333E3BF0000000000000F9010740A41107004050150841D405064090741402480A1B55
 94
        0
1001
ACAD
1000
AcDbSavedByObjectVersion
1070
     0
1000
AcadProxyRoundTripData
1071
      505
1071
   851991
1070
     0
  0
ACAD_PROXY_OBJECT
  5
823
102
{ACAD_REACTORS
330
821
102
}
330
821
100
AcDbProxyObject
 90
      499
 91
      512
 93
      484
310
43919B185D15DA5D1A115919D95CC010140901404333333333333E3BF0000000000000F9010740901411070040501600405405064090741402480A1B50
 94
        0
1001
ACAD
1000
AcDbSavedByObjectVersion
1070
     0
1000
AcadProxyRoundTripData
1071
      505
1071
   851991
1070
     0
  0
ACAD_PROXY_OBJECT
  5
824
102
{ACAD_REACTORS
330
821
102
}
330
821
100
AcDbProxyObject
 90
      499
 91
      512
 93
      420
310
4211DBDD5C985D590010240902404333333333333E3BF0000000000000F9010740A411070040501641D405064090741402480A1B50
 94
        0
1001
ACAD
1000
AcDbSavedByObjectVersion
1070
     0
1000
AcadProxyRoundTripData
1071
      505
1071
   851991
1070
     0
  0
ACAD_PROXY_OBJECT
  5
825
102
{ACAD_REACTORS
330
821
102
}
330
821
100
AcDbProxyObject
 90
      499
 91
      512
 93
      508
310
4451DBDD5C985D5915DA5D1A115919D95CC010340902404333333333333E3BF0000000000000F9010740901411070040501600405405064090741402480A1B50
 94
        0
1001
ACAD
1000
AcDbSavedByObjectVersion
1070
     0
1000
AcadProxyRoundTripData
1071
      505
1071
   851991
1070
     0
  0
ACAD_PROXY_OBJECT
  5
82F
102
{ACAD_REACTORS
330
821
102
}
330
821
100
AcDbProxyObject
 90
      499
 91
      512
 93
      452
310
43131A5B995C185D1D195C9B8010E409028333333333333E3BF0000000000000FB010790141107004050750841D405064090741402483A0350
 94
        0
1001
ACAD
1000
AcDbSavedByObjectVersion
1070
     0
1000
AcadProxyRoundTripData
1071
      505
1071
   851991
1070
     0
  0
ACAD_PROXY_OBJECT
  5
82B
102
{ACAD_REACTORS
330
821
102
}
330
821
100
AcDbProxyObject
 90
      499
 91
      512
 93
      428
310
429499585B1A5CDD1A58C0108409028333333333333E3BF0000000000000FB01079019070040501508421405064090741402480A1B45
 94
        0
1001
ACAD
1000
AcDbSavedByObjectVersion
1070
     0
1000
AcadProxyRoundTripData
1071
      505
1071
   851991
1070
     0
  0
ACAD_PROXY_OBJECT
  5
82E
102
{ACAD_REACTORS
330
821
102
}
330
821
100
AcDbProxyObject
 90
      499
 91
      512
 93
      420
310
42151A1A58DAD95B8010D409028333333333333E3BF0000000000000FB010790141107004050150C41D405064090741402480A0352
 94
        0
1001
ACAD
1000
AcDbSavedByObjectVersion
1070
     0
1000
AcadProxyRoundTripData
1071
      505
1071
   851991
1070
     0
  0
XRECORD
  5
3648
102
{ACAD_REACTORS
330
363E
102
}
330
363E
100
AcDbXrecord
 90
        0
  0
XRECORD
  5
364C
102
{ACAD_REACTORS
330
363E
102
}
330
363E
100
AcDbXrecord
1000
DSTYLE
1002
{
1070
   179
 70
     2
1070
   277
 70
     6
1002
}
  0
XRECORD
  5
3649
102
{ACAD_REACTORS
330
363E
102
}
330
363E
100
AcDbXrecord
  1
{F8E7DCD7-EF2B-4E83-868E-1BB3A7734B1D}
  0
XRECORD
  5
3641
102
{ACAD_REACTORS
330
363E
102
}
330
363E
100
AcDbXrecord
  1

  0
XRECORD
  5
3647
102
{ACAD_REACTORS
330
363E
102
}
330
363E
100
AcDbXrecord
 90
        0
  0
XRECORD
  5
3643
102
{ACAD_REACTORS
330
363E
102
}
330
363E
100
AcDbXrecord
340
61
  0
XRECORD
  5
3646
102
{ACAD_REACTORS
330
363E
102
}
330
363E
100
AcDbXrecord
 90
    10781
  0
XRECORD
  5
3644
102
{ACAD_REACTORS
330
363E
102
}
330
363E
100
AcDbXrecord
340
77
  0
XRECORD
  5
3645
102
{ACAD_REACTORS
330
363E
102
}
330
363E
100
AcDbXrecord
340
6
  0
XRECORD
  5
364B
102
{ACAD_REACTORS
330
363E
102
}
330
363E
100
AcDbXrecord
 40
0.0
  0
XRECORD
  5
364F
102
{ACAD_REACTORS
330
363E
102
}
330
363E
100
AcDbXrecord
340
0
  0
XRECORD
  5
3655
102
{ACAD_REACTORS
330
363E
102
}
330
363E
100
AcDbXrecord
 10
0.0
 20
0.0
 30
0.0
  0
XRECORD
  5
3651
102
{ACAD_REACTORS
330
363E
102
}
330
363E
100
AcDbXrecord
 10
0.0
 20
0.0
 30
0.0
  0
XRECORD
  5
3654
102
{ACAD_REACTORS
330
363E
102
}
330
363E
100
AcDbXrecord
 10
0.0
 20
0.0
 30
0.0
  0
XRECORD
  5
3652
102
{ACAD_REACTORS
330
363E
102
}
330
363E
100
AcDbXrecord
 10
0.0
 20
0.0
 30
0.0
  0
XRECORD
  5
3653
102
{ACAD_REACTORS
330
363E
102
}
330
363E
100
AcDbXrecord
 10
0.0
 20
0.0
 30
0.0
  0
XRECORD
  5
3650
102
{ACAD_REACTORS
330
363E
102
}
330
363E
100
AcDbXrecord
 10
0.0
 20
0.0
 30
0.0
  0
XRECORD
  5
364D
102
{ACAD_REACTORS
330
363E
102
}
330
363E
100
AcDbXrecord
340
0
  0
XRECORD
  5
364E
102
{ACAD_REACTORS
330
363E
102
}
330
363E
100
AcDbXrecord
 70
     0
  0
XRECORD
  5
3642
102
{ACAD_REACTORS
330
363E
102
}
330
363E
100
AcDbXrecord
  1
Sekkei.ctb
  0
XRECORD
  5
363F
102
{ACAD_REACTORS
330
363E
102
}
330
363E
100
AcDbXrecord
 90
        1
  0
XRECORD
  5
3640
102
{ACAD_REACTORS
330
363E
102
}
330
363E
100
AcDbXrecord
 90
       70
  0
XRECORD
  5
3658
102
{ACAD_REACTORS
330
363E
102
}
330
363E
100
AcDbXrecord
340
0
  0
XRECORD
  5
365E
102
{ACAD_REACTORS
330
363E
102
}
330
363E
100
AcDbXrecord
 10
0.0
 20
0.0
 30
0.0
  0
XRECORD
  5
365A
102
{ACAD_REACTORS
330
363E
102
}
330
363E
100
AcDbXrecord
 10
0.0
 20
0.0
 30
0.0
  0
XRECORD
  5
365D
102
{ACAD_REACTORS
330
363E
102
}
330
363E
100
AcDbXrecord
 10
0.0
 20
0.0
 30
0.0
  0
XRECORD
  5
365B
102
{ACAD_REACTORS
330
363E
102
}
330
363E
100
AcDbXrecord
 10
0.0
 20
0.0
 30
0.0
  0
XRECORD
  5
365C
102
{ACAD_REACTORS
330
363E
102
}
330
363E
100
AcDbXrecord
 10
0.0
 20
0.0
 30
0.0
  0
XRECORD
  5
3659
102
{ACAD_REACTORS
330
363E
102
}
330
363E
100
AcDbXrecord
 10
0.0
 20
0.0
 30
0.0
  0
XRECORD
  5
3656
102
{ACAD_REACTORS
330
363E
102
}
330
363E
100
AcDbXrecord
340
0
  0
XRECORD
  5
3657
102
{ACAD_REACTORS
330
363E
102
}
330
363E
100
AcDbXrecord
 70
     0
  0
XRECORD
  5
364A
102
{ACAD_REACTORS
330
363E
102
}
330
363E
100
AcDbXrecord
  1
{E2F89E5F-95BC-43A5-B8D4-8C584E205082}
  0
DICTIONARYVAR
  5
892
102
{ACAD_REACTORS
330
102
102
}
330
102
100
DictionaryVariables
280
     0
  1
1:1
  0
DICTIONARYVAR
  5
890
102
{ACAD_REACTORS
330
102
102
}
330
102
100
DictionaryVariables
280
     0
  1
STANDARD
  0
DICTIONARYVAR
  5
88F
102
{ACAD_REACTORS
330
102
102
}
330
102
100
DictionaryVariables
280
     0
  1
STANDARD
  0
DICTIONARYVAR
  5
103
102
{ACAD_REACTORS
330
102
102
}
330
102
100
DictionaryVariables
280
     0
  1
1
  0
DICTIONARYVAR
  5
1BBB
102
{ACAD_REACTORS
330
102
102
}
330
102
100
DictionaryVariables
280
     0
  1
0
  0
DICTIONARYVAR
  5
893
102
{ACAD_REACTORS
330
102
102
}
330
102
100
DictionaryVariables
280
     0
  1
0
  0
DICTIONARYVAR
  5
891
102
{ACAD_REACTORS
330
102
102
}
330
102
100
DictionaryVariables
280
     0
  1
0
  0
DICTIONARYVAR
  5
549
102
{ACAD_REACTORS
330
102
102
}
330
102
100
DictionaryVariables
280
     0
  1
96
  0
DICTIONARY
  5
812
330
811
100
AcDbDictionary
280
     1
  3
ACAD_XREC_ROUNDTRIP
360
361C
  3
BUMPTILE
360
814
  3
DIFFUSETILE
360
813
  3
OPACITYTILE
360
817
  3
REFLECTIONTILE
360
816
  3
REFRACTIONTILE
360
818
  3
SPECULARTILE
360
815
  0
DICTIONARY
  5
80A
330
809
100
AcDbDictionary
280
     1
  3
ACAD_XREC_ROUNDTRIP
360
361B
  3
BUMPTILE
360
80C
  3
DIFFUSETILE
360
80B
  3
OPACITYTILE
360
80F
  3
REFLECTIONTILE
360
80E
  3
REFRACTIONTILE
360
810
  3
SPECULARTILE
360
80D
  0
DICTIONARY
  5
81A
330
819
100
AcDbDictionary
280
     1
  3
ACAD_XREC_ROUNDTRIP
360
361D
  3
BUMPTILE
360
81C
  3
DIFFUSETILE
360
81B
  3
OPACITYTILE
360
81F
  3
REFLECTIONTILE
360
81E
  3
REFRACTIONTILE
360
820
  3
SPECULARTILE
360
81D
  0
DICTIONARY
  5
88C
330
834
100
AcDbDictionary
280
     1
  3
ACAD_ROUNDTRIP_2008_TABLES
360
3613
  3
ACAD_XREC_ROUNDTRIP
360
361E
  0
XRECORD
  5
361C
102
{ACAD_REACTORS
330
812
102
}
330
812
100
AcDbXrecord
102
MATERIAL
148
0.0
149
0.0
149
0.0
 93
        0
 94
      127
282
     0
 72
     0
 77
     0
171
     0
175
     0
179
     0
273
     0
  0
XRECORD
  5
814
102
{ACAD_REACTORS
330
812
102
}
330
812
100
AcDbXrecord
270
     1
271
     1
  0
XRECORD
  5
813
102
{ACAD_REACTORS
330
812
102
}
330
812
100
AcDbXrecord
270
     1
271
     1
  0
XRECORD
  5
817
102
{ACAD_REACTORS
330
812
102
}
330
812
100
AcDbXrecord
270
     1
271
     1
  0
XRECORD
  5
816
102
{ACAD_REACTORS
330
812
102
}
330
812
100
AcDbXrecord
270
     1
271
     1
  0
XRECORD
  5
818
102
{ACAD_REACTORS
330
812
102
}
330
812
100
AcDbXrecord
270
     1
271
     1
  0
XRECORD
  5
815
102
{ACAD_REACTORS
330
812
102
}
330
812
100
AcDbXrecord
270
     1
271
     1
  0
XRECORD
  5
361B
102
{ACAD_REACTORS
330
80A
102
}
330
80A
100
AcDbXrecord
102
MATERIAL
148
0.0
149
0.0
149
0.0
 93
        0
 94
      127
282
     0
 72
     0
 77
     0
171
     0
175
     0
179
     0
273
     0
  0
XRECORD
  5
80C
102
{ACAD_REACTORS
330
80A
102
}
330
80A
100
AcDbXrecord
270
     1
271
     1
  0
XRECORD
  5
80B
102
{ACAD_REACTORS
330
80A
102
}
330
80A
100
AcDbXrecord
270
     1
271
     1
  0
XRECORD
  5
80F
102
{ACAD_REACTORS
330
80A
102
}
330
80A
100
AcDbXrecord
270
     1
271
     1
  0
XRECORD
  5
80E
102
{ACAD_REACTORS
330
80A
102
}
330
80A
100
AcDbXrecord
270
     1
271
     1
  0
XRECORD
  5
810
102
{ACAD_REACTORS
330
80A
102
}
330
80A
100
AcDbXrecord
270
     1
271
     1
  0
XRECORD
  5
80D
102
{ACAD_REACTORS
330
80A
102
}
330
80A
100
AcDbXrecord
270
     1
271
     1
  0
XRECORD
  5
361D
102
{ACAD_REACTORS
330
81A
102
}
330
81A
100
AcDbXrecord
102
MATERIAL
148
0.0
149
0.0
149
0.0
 93
        0
 94
      127
282
     0
 72
     0
 77
     0
171
     0
175
     0
179
     0
273
     0
  0
XRECORD
  5
81C
102
{ACAD_REACTORS
330
81A
102
}
330
81A
100
AcDbXrecord
270
     1
271
     1
  0
XRECORD
  5
81B
102
{ACAD_REACTORS
330
81A
102
}
330
81A
100
AcDbXrecord
270
     1
271
     1
  0
XRECORD
  5
81F
102
{ACAD_REACTORS
330
81A
102
}
330
81A
100
AcDbXrecord
270
     1
271
     1
  0
XRECORD
  5
81E
102
{ACAD_REACTORS
330
81A
102
}
330
81A
100
AcDbXrecord
270
     1
271
     1
  0
XRECORD
  5
820
102
{ACAD_REACTORS
330
81A
102
}
330
81A
100
AcDbXrecord
270
     1
271
     1
  0
XRECORD
  5
81D
102
{ACAD_REACTORS
330
81A
102
}
330
81A
100
AcDbXrecord
270
     1
271
     1
  0
ACAD_PROXY_OBJECT
  5
3613
102
{ACAD_REACTORS
330
88C
102
}
330
88C
100
AcDbProxyObject
 90
      499
 91
      512
 93
     1044
310
40D054060020000020000003200101A000080002A5058000000C100000000000000340FE901405075F5449544C450041501A8000000C800406800020000A9416000000304000AD7A3703D0AC73FA409014217D2115051115480105406A0000003200101A000080002A5028000000C10002B5E8DC0F42B1CFE903409065F444
310
1544100D
340
16
340
16
340
16
 94
        0
1001
ACAD
1000
AcadProxyRoundTripData
1071
      510
1071
   851991
1070
     0
  0
XRECORD
  5
361E
102
{ACAD_REACTORS
330
88C
102
}
330
88C
100
AcDbXrecord
102
ACAD_ROUNDTRIP_PRE2007_TABLESTYLE
 90
      512
 91
        0
  1

 92
      512
 93
        0
  2

 94
      512
 95
        0
  3

  0
ENDSEC
  0
EOF
