  0
SECTION
  2
HEADER
  9
$ACADVER
  1
AC1014
  9
$ACADMAINTVER
 70
     9
  9
$DWGCODEPAGE
  3
ANSI_932
  9
$INSBASE
 10
0.0
 20
0.0
 30
0.0
  9
$EXTMIN
 10
-13.88536708335027
 20
-42.54422728892842
 30
0.0
  9
$EXTMAX
 10
1393.575931331026
 20
873.0999421881552
 30
0.0
  9
$LIMMIN
 10
0.0
 20
0.0
  9
$LIMMAX
 10
297.0
 20
210.0
  9
$ORTHOMODE
 70
     0
  9
$REGENMODE
 70
     1
  9
$FILLMODE
 70
     1
  9
$QTEXTMODE
 70
     0
  9
$MIRRTEXT
 70
     0
  9
$DRAGMODE
 70
     2
  9
$LTSCALE
 40
4.0
  9
$OSMODE
 70
    37
  9
$ATTMODE
 70
     1
  9
$TEXTSIZE
 40
2.0
  9
$TRACEWID
 40
1.0
  9
$TEXTSTYLE
  7
STANDARD
  9
$CLAYER
  8
0
  9
$CELTYPE
  6
BYLAYER
  9
$CECOLOR
 62
   256
  9
$CELTSCALE
 40
1.0
  9
$DELOBJ
 70
     1
  9
$DISPSILH
 70
     0
  9
$DIMSCALE
 40
4.0
  9
$DIMASZ
 40
1.8
  9
$DIMEXO
 40
0.625
  9
$DIMDLI
 40
3.75
  9
$DIMRND
 40
0.0
  9
$DIMDLE
 40
0.0
  9
$DIMEXE
 40
0.8
  9
$DIMTP
 40
0.0
  9
$DIMTM
 40
0.0
  9
$DIMTXT
 40
1.8
  9
$DIMCEN
 40
2.5
  9
$DIMTSZ
 40
0.0
  9
$DIMTOL
 70
     0
  9
$DIMLIM
 70
     0
  9
$DIMTIH
 70
     0
  9
$DIMTOH
 70
     0
  9
$DIMSE1
 70
     0
  9
$DIMSE2
 70
     0
  9
$DIMTAD
 70
     1
  9
$DIMZIN
 70
     8
  9
$DIMBLK
  1

  9
$DIMASO
 70
     1
  9
$DIMSHO
 70
     1
  9
$DIMPOST
  1

  9
$DIMAPOST
  1

  9
$DIMALT
 70
     0
  9
$DIMALTD
 70
     4
  9
$DIMALTF
 40
0.0394
  9
$DIMLFAC
 40
1.0
  9
$DIMTOFL
 70
     1
  9
$DIMTVP
 40
0.0
  9
$DIMTIX
 70
     0
  9
$DIMSOXD
 70
     0
  9
$DIMSAH
 70
     0
  9
$DIMBLK1
  1

  9
$DIMBLK2
  1

  9
$DIMSTYLE
  2
STANDARD
  9
$DIMCLRD
 70
     0
  9
$DIMCLRE
 70
     0
  9
$DIMCLRT
 70
     0
  9
$DIMTFAC
 40
1.0
  9
$DIMGAP
 40
0.75
  9
$DIMJUST
 70
     0
  9
$DIMSD1
 70
     0
  9
$DIMSD2
 70
     0
  9
$DIMTOLJ
 70
     1
  9
$DIMTZIN
 70
     0
  9
$DIMALTZ
 70
     0
  9
$DIMALTTZ
 70
     0
  9
$DIMFIT
 70
     3
  9
$DIMUPT
 70
     0
  9
$DIMUNIT
 70
     8
  9
$DIMDEC
 70
     2
  9
$DIMTDEC
 70
     2
  9
$DIMALTU
 70
     8
  9
$DIMALTTD
 70
     4
  9
$DIMTXSTY
  7
STANDARD
  9
$DIMAUNIT
 70
     0
  9
$LUNITS
 70
     2
  9
$LUPREC
 70
     3
  9
$SKETCHINC
 40
1.0
  9
$FILLETRAD
 40
10.0
  9
$AUNITS
 70
     0
  9
$AUPREC
 70
     2
  9
$MENU
  1
.
  9
$ELEVATION
 40
0.0
  9
$PELEVATION
 40
0.0
  9
$THICKNESS
 40
0.0
  9
$LIMCHECK
 70
     0
  9
$BLIPMODE
 70
     0
  9
$CHAMFERA
 40
0.0
  9
$CHAMFERB
 40
0.0
  9
$CHAMFERC
 40
20.0
  9
$CHAMFERD
 40
0.0
  9
$SKPOLY
 70
     0
  9
$TDCREATE
 40
2454889.454828194
  9
$TDUPDATE
 40
2454909.817889930
  9
$TDINDWG
 40
0.2035040278
  9
$TDUSRTIMER
 40
0.2035038426
  9
$USRTIMER
 70
     1
  9
$ANGBASE
 50
0.0
  9
$ANGDIR
 70
     0
  9
$PDMODE
 70
     0
  9
$PDSIZE
 40
-10.0
  9
$PLINEWID
 40
0.0
  9
$COORDS
 70
     1
  9
$SPLFRAME
 70
     0
  9
$SPLINETYPE
 70
     6
  9
$SPLINESEGS
 70
     8
  9
$ATTDIA
 70
     0
  9
$ATTREQ
 70
     1
  9
$HANDLING
 70
 22529
  9
$HANDSEED
  5
3FF4
  9
$SURFTAB1
 70
     6
  9
$SURFTAB2
 70
     6
  9
$SURFTYPE
 70
     6
  9
$SURFU
 70
     6
  9
$SURFV
 70
     6
  9
$UCSNAME
  2

  9
$UCSORG
 10
0.0
 20
0.0
 30
0.0
  9
$UCSXDIR
 10
1.0
 20
0.0
 30
0.0
  9
$UCSYDIR
 10
0.0
 20
1.0
 30
0.0
  9
$PUCSNAME
  2

  9
$PUCSORG
 10
0.0
 20
0.0
 30
0.0
  9
$PUCSXDIR
 10
1.0
 20
0.0
 30
0.0
  9
$PUCSYDIR
 10
0.0
 20
1.0
 30
0.0
  9
$USERI1
 70
     0
  9
$USERI2
 70
     0
  9
$USERI3
 70
     0
  9
$USERI4
 70
     0
  9
$USERI5
 70
     0
  9
$USERR1
 40
0.0
  9
$USERR2
 40
0.0
  9
$USERR3
 40
0.0
  9
$USERR4
 40
0.0
  9
$USERR5
 40
0.0
  9
$WORLDVIEW
 70
     1
  9
$SHADEDGE
 70
     3
  9
$SHADEDIF
 70
    70
  9
$TILEMODE
 70
     1
  9
$MAXACTVP
 70
    48
  9
$PINSBASE
 10
0.0
 20
0.0
 30
0.0
  9
$PLIMCHECK
 70
     0
  9
$PEXTMIN
 10
0.0
 20
0.0
 30
0.0
  9
$PEXTMAX
 10
0.0
 20
0.0
 30
0.0
  9
$PLIMMIN
 10
0.0
 20
0.0
  9
$PLIMMAX
 10
12.0
 20
9.0
  9
$UNITMODE
 70
     0
  9
$VISRETAIN
 70
     1
  9
$PLINEGEN
 70
     0
  9
$PSLTSCALE
 70
     1
  9
$TREEDEPTH
 70
  3020
  9
$PICKSTYLE
 70
     1
  9
$CMLSTYLE
  2
STANDARD
  9
$CMLJUST
 70
     0
  9
$CMLSCALE
 40
1.0
  9
$PROXYGRAPHICS
 70
     1
  9
$MEASUREMENT
 70
     0
  0
ENDSEC
  0
SECTION
  2
CLASSES
  0
CLASS
  1
DICTIONARYVAR
  2
AcDbDictionaryVar
  3
AutoCAD 2000
 90
        0
280
     0
281
     0
  0
CLASS
  1
ACDBDICTIONARYWDFLT
  2
AcDbDictionaryWithDefault
  3
AutoCAD 2000
 90
        0
280
     0
281
     0
  0
CLASS
  1
ACDBPLACEHOLDER
  2
AcDbPlaceHolder
  3
AutoCAD 2000
 90
        0
280
     0
281
     0
  0
CLASS
  1
LAYOUT
  2
AcDbLayout
  3
AutoCAD 2000
 90
        0
280
     0
281
     0
  0
CLASS
  1
MATERIAL
  2
AcDbMaterial
  3
ObjectDBX Classes
 90
     1153
280
     0
281
     0
  0
CLASS
  1
VISUALSTYLE
  2
AcDbVisualStyle
  3
ObjectDBX Classes
 90
     4095
280
     0
281
     0
  0
CLASS
  1
TABLESTYLE
  2
AcDbTableStyle
  3
ObjectDBX Classes
 90
     4095
280
     0
281
     0
  0
CLASS
  1
SCALE
  2
AcDbScale
  3
ObjectDBX Classes
 90
     1153
280
     0
281
     0
  0
CLASS
  1
MLEADERSTYLE
  2
AcDbMLeaderStyle
  3
ACDB_MLEADERSTYLE_CLASS
 90
     4095
280
     0
281
     0
  0
CLASS
  1
PLOTSETTINGS
  2
AcDbPlotSettings
  3
AutoCAD 2000
 90
        0
280
     0
281
     0
  0
CLASS
  1
CELLSTYLEMAP
  2
AcDbCellStyleMap
  3
ObjectDBX Classes
 90
     1152
280
     0
281
     0
  0
CLASS
  1
SORTENTSTABLE
  2
AcDbSortentsTable
  3
AutoCAD 2000
 90
        0
280
     0
281
     0
  0
CLASS
  1
ACAD_PROXY_OBJECT_WRAPPER
  2
AcDbProxyObjectWrapper
  3
AutoCAD 2000
 90
        0
280
     0
281
     0
  0
CLASS
  1
LONG_TRANSACTION
  2
AcDbLongTransaction
  3
AutoCAD 2000
 90
        0
280
     0
281
     0
  0
CLASS
  1
LWPOLYLINE
  2
AcDbPolyline
  3
AutoCAD 2000
 90
        0
280
     0
281
     1
  0
CLASS
  1
HATCH
  2
AcDbHatch
  3
AutoCAD 2000
 90
        0
280
     0
281
     1
  0
CLASS
  1
XRECORD
  2
AcDbXrecord
  3
AutoCAD 2000
 90
        0
280
     0
281
     0
  0
ENDSEC
  0
SECTION
  2
TABLES
  0
TABLE
  2
VPORT
  5
6E
102
{ACAD_XDICTIONARY
360
1BAE
102
}
330
0
100
AcDbSymbolTable
 70
     2
  0
VPORT
  5
3FCF
330
6E
100
AcDbSymbolTableRecord
100
AcDbViewportTableRecord
  2
*ACTIVE
 70
     0
 10
0.0
 20
0.0
 11
1.0
 21
1.0
 12
751.2137885344546
 22
396.3475654048263
 13
0.0
 23
0.0
 14
10.0
 24
10.0
 15
10.0
 25
10.0
 16
0.0
 26
0.0
 36
1.0
 17
0.0
 27
0.0
 37
0.0
 40
964.0793879377643
 41
1.593429158110883
 42
50.0
 43
0.0
 44
0.0
 50
0.0
 51
0.0
 71
     0
 72
   100
 73
     1
 74
     3
 75
     0
 76
     0
 77
     0
 78
     0
  0
ENDTAB
  0
TABLE
  2
LTYPE
  5
69
330
0
100
AcDbSymbolTable
 70
     7
  0
LTYPE
  5
6A
330
69
100
AcDbSymbolTableRecord
100
AcDbLinetypeTableRecord
  2
BYBLOCK
 70
     0
  3

 72
    65
 73
     0
 40
0.0
  0
LTYPE
  5
6B
330
69
100
AcDbSymbolTableRecord
100
AcDbLinetypeTableRecord
  2
BYLAYER
 70
     0
  3

 72
    65
 73
     0
 40
0.0
  0
LTYPE
  5
8
330
69
100
AcDbSymbolTableRecord
100
AcDbLinetypeTableRecord
  2
CONTINUOUS
 70
     0
  3
Solid line
 72
    65
 73
     0
 40
0.0
  0
LTYPE
  5
27C
330
69
100
AcDbSymbolTableRecord
100
AcDbLinetypeTableRecord
  2
SEKKEI_A2_
 70
     0
  3
center(A2)  ____ _ ____ _ ____ _ ____ _ ____ _ 
 72
    65
 73
     4
 40
14.28749999999999
 49
9.525
 74
     0
 49
-1.587499999999999
 74
     0
 49
1.587499999999999
 74
     0
 49
-1.587499999999999
 74
     0
  0
LTYPE
  5
2B4
330
69
100
AcDbSymbolTableRecord
100
AcDbLinetypeTableRecord
  2
HIDDEN2
 70
     0
  3
Hidden (.5x) _ _ _ _ _ _ _ _ _ _ _ _ _ _ _ _ _
 72
    65
 73
     2
 40
4.762499999999999
 49
3.174999999999999
 74
     0
 49
-1.587499999999999
 74
     0
  0
LTYPE
  5
477
330
69
100
AcDbSymbolTableRecord
100
AcDbLinetypeTableRecord
  2
SEKKEI-P_A4_
 70
     0
  3
Phantom(A4)  ____ _ _ ____ _ _ ____ _ _ _____
 72
    65
 73
     6
 40
15.0
 49
7.5
 74
     0
 49
-1.5
 74
     0
 49
1.5
 74
     0
 49
-1.5
 74
     0
 49
1.5
 74
     0
 49
-1.5
 74
     0
  0
LTYPE
  5
48F
330
69
100
AcDbSymbolTableRecord
100
AcDbLinetypeTableRecord
  2
SEKKEI_H
 70
     0
  3
Hidden-S _ _ _ _ _ _ _ _ _ _ _ _ _ _ _ _ _
 72
    65
 73
     2
 40
2.381249999999999
 49
1.587499999999999
 74
     0
 49
-0.79375
 74
     0
  0
LTYPE
  5
494
330
69
100
AcDbSymbolTableRecord
100
AcDbLinetypeTableRecord
  2
SEKKEI_P_S
 70
     0
  3
Phantom_S   __ _ _ __ _ _ __ _ _ ___
 72
    65
 73
     6
 40
7.5
 49
3.75
 74
     0
 49
-0.75
 74
     0
 49
0.75
 74
     0
 49
-0.75
 74
     0
 49
0.75
 74
     0
 49
-0.75
 74
     0
  0
LTYPE
  5
54A
330
69
100
AcDbSymbolTableRecord
100
AcDbLinetypeTableRecord
  2
CENTERX2
 70
     0
  3
Center (2x) ________  __  ________  __  _____
 72
    65
 73
     4
 40
4.0
 49
2.5
 74
     0
 49
-0.5
 74
     0
 49
0.5
 74
     0
 49
-0.5
 74
     0
  0
ENDTAB
  0
TABLE
  2
LAYER
  5
66
102
{ACAD_XDICTIONARY
360
86B
102
}
330
0
100
AcDbSymbolTable
 70
    10
  0
LAYER
  5
5E
102
{ACAD_XDICTIONARY
360
1AF7
102
}
330
66
100
AcDbSymbolTableRecord
100
AcDbLayerTableRecord
  2
0
 70
     0
 62
     7
  6
CONTINUOUS
  0
LAYER
  5
3E
102
{ACAD_XDICTIONARY
360
1AF9
102
}
330
66
100
AcDbSymbolTableRecord
100
AcDbLayerTableRecord
  2
CENTER
 70
     0
 62
     3
  6
SEKKEI_A2_
  0
LAYER
  5
2B5
102
{ACAD_XDICTIONARY
360
1AFF
102
}
330
66
100
AcDbSymbolTableRecord
100
AcDbLayerTableRecord
  2
HIDS
 70
     0
 62
     1
  6
HIDDEN2
  0
LAYER
  5
2BA
102
{ACAD_XDICTIONARY
360
1B01
102
}
330
66
100
AcDbSymbolTableRecord
100
AcDbLayerTableRecord
  2
HOJO
 70
     0
 62
     4
  6
CONTINUOUS
  0
LAYER
  5
3FA
102
{ACAD_XDICTIONARY
360
1B05
102
}
330
66
100
AcDbSymbolTableRecord
100
AcDbLayerTableRecord
  2
TITLE
 70
     0
 62
     4
  6
CONTINUOUS
  0
LAYER
  5
478
102
{ACAD_XDICTIONARY
360
1B07
102
}
330
66
100
AcDbSymbolTableRecord
100
AcDbLayerTableRecord
  2
PHAS
 70
     0
 62
     2
  6
SEKKEI-P_A4_
  0
ENDTAB
  0
TABLE
  2
STYLE
  5
67
330
0
100
AcDbSymbolTable
 70
     3
  0
STYLE
  5
16
330
67
100
AcDbSymbolTableRecord
100
AcDbTextStyleTableRecord
  2
STANDARD
 70
     0
 40
0.0
 41
1.0
 50
0.0
 71
     0
 42
2.0
  3
simplex.shx
  4
extfont.shx
  0
ENDTAB
  0
TABLE
  2
VIEW
  5
6C
330
0
100
AcDbSymbolTable
 70
     0
  0
ENDTAB
  0
TABLE
  2
UCS
  5
6D
330
0
100
AcDbSymbolTable
 70
     0
  0
ENDTAB
  0
TABLE
  2
APPID
  5
70
330
0
100
AcDbSymbolTable
 70
     7
  0
APPID
  5
71
330
70
100
AcDbSymbolTableRecord
100
AcDbRegAppTableRecord
  2
ACAD
 70
     0
  0
APPID
  5
859
330
70
100
AcDbSymbolTableRecord
100
AcDbRegAppTableRecord
  2
ACAD_MLEADERVER
 70
     0
  0
APPID
  5
866
330
70
100
AcDbSymbolTableRecord
100
AcDbRegAppTableRecord
  2
ACAD_PSEXT
 70
     0
  0
APPID
  5
12FA
330
70
100
AcDbSymbolTableRecord
100
AcDbRegAppTableRecord
  2
ACAD_EXEMPT_FROM_CAD_STANDARDS
 70
     0
  0
APPID
  5
135B
330
70
100
AcDbSymbolTableRecord
100
AcDbRegAppTableRecord
  2
ACAD_DSTYLE_DIMJAG
 70
     0
  0
APPID
  5
135C
330
70
100
AcDbSymbolTableRecord
100
AcDbRegAppTableRecord
  2
ACAD_DSTYLE_DIMTALN
 70
     0
  0
APPID
  5
150D
330
70
100
AcDbSymbolTableRecord
100
AcDbRegAppTableRecord
  2
ACAD_DSTYLE_DIMRADIAL_EXTENSION
 70
     0
  0
ENDTAB
  0
TABLE
  2
DIMSTYLE
  5
72
330
0
100
AcDbSymbolTable
 70
     1
  0
DIMSTYLE
105
73
330
72
100
AcDbSymbolTableRecord
100
AcDbDimStyleTableRecord
  2
STANDARD
 70
     0
  3

  4

  5

  6

  7

 40
4.0
 41
1.8
 42
0.625
 43
3.75
 44
0.8
 45
0.0
 46
0.0
 47
0.0
 48
0.0
140
1.8
141
2.5
142
0.0
143
0.0394
144
1.0
145
0.0
146
1.0
147
0.75
 71
     0
 72
     0
 73
     0
 74
     0
 75
     0
 76
     0
 77
     1
 78
     8
170
     0
171
     4
172
     1
173
     0
174
     0
175
     0
176
     0
177
     0
178
     0
270
     8
271
     2
272
     2
273
     8
274
     4
340
16
275
     0
280
     0
281
     0
282
     0
283
     1
284
     0
285
     0
286
     0
287
     3
288
     0
1001
ACAD_DSTYLE_DIMJAG
1070
   388
1040
1.5
1001
ACAD_DSTYLE_DIMTALN
1070
   392
1070
     0
  0
ENDTAB
  0
TABLE
  2
BLOCK_RECORD
  5
1
330
0
100
AcDbSymbolTable
 70
    54
  0
BLOCK_RECORD
  5
2
102
{ACAD_XDICTIONARY
360
3168
102
}
330
1
100
AcDbSymbolTableRecord
100
AcDbBlockTableRecord
  2
*MODEL_SPACE
  0
BLOCK_RECORD
  5
3FCA
102
{ACAD_XDICTIONARY
360
3FF2
102
}
330
1
100
AcDbSymbolTableRecord
100
AcDbBlockTableRecord
  2
*PAPER_SPACE
  0
ENDTAB
  0
ENDSEC
  0
SECTION
  2
BLOCKS
  0
BLOCK
  5
5D
330
2
100
AcDbEntity
  8
0
100
AcDbBlockBegin
  2
*MODEL_SPACE
 70
     0
 10
0.0
 20
0.0
 30
0.0
  3
*MODEL_SPACE
  1

  0
ENDBLK
  5
5F
330
2
100
AcDbEntity
  8
0
100
AcDbBlockEnd
  0
BLOCK
  5
3FCC
330
3FCA
100
AcDbEntity
 67
     1
  8
0
100
AcDbBlockBegin
  2
*PAPER_SPACE
 70
     0
 10
0.0
 20
0.0
 30
0.0
  3
*PAPER_SPACE
  1

  0
ENDBLK
  5
3FCD
330
3FCA
100
AcDbEntity
 67
     1
  8
0
100
AcDbBlockEnd
  0
ENDSEC
  0
SECTION
  2
ENTITIES
  0
LINE
  5
C93
330
2
100
AcDbEntity
  8
0
 48
0.5
100
AcDbLine
 10
712.0990569942129
 20
819.4786218445869
 30
0.0
 11
712.9891975088683
 21
717.4786218445965
 31
0.0
  0
LINE
  5
C94
330
2
100
AcDbEntity
  8
CENTER
100
AcDbLine
 10
779.5946935603167
 20
856.4786218445899
 30
0.0
 11
779.5946935603167
 21
675.4786218445947
 31
0.0
  0
LINE
  5
C95
330
2
100
AcDbEntity
  8
0
100
AcDbLine
 10
827.1077865211015
 20
819.4786218445933
 30
0.0
 11
827.9987933219679
 21
785.4524448962872
 31
0.0
  0
LINE
  5
C96
330
2
100
AcDbEntity
  8
0
100
AcDbLine
 10
719.5946935603158
 20
712.4786218445933
 30
0.0
 11
839.5946935603166
 21
712.4786218445949
 31
0.0
  0
LINE
  5
C97
330
2
100
AcDbEntity
  8
CENTER
100
AcDbLine
 10
702.4041165830315
 20
784.4786218445952
 30
0.0
 11
1012.094693560325
 21
784.4786218445935
 31
0.0
  0
LINE
  5
C98
330
2
100
AcDbEntity
  8
0
100
AcDbLine
 10
846.4794493810689
 20
819.4786218445944
 30
0.0
 11
712.0946935603176
 21
819.4786218445869
 31
0.0
  0
LINE
  5
C99
330
2
100
AcDbEntity
  8
0
100
AcDbLine
 10
879.7984904426591
 20
784.4786218445952
 30
0.0
 11
881.0181921981545
 21
831.0571526895181
 31
0.0
  0
ARC
  5
C9A
330
2
100
AcDbEntity
  8
0
100
AcDbCircle
 10
876.9545775945996
 20
790.4786218445956
 30
0.0
 40
3.0
100
AcDbArc
 50
270.0
 51
358.5000000000103
  0
LINE
  5
C9B
330
2
100
AcDbEntity
  8
0
100
AcDbLine
 10
872.8955568086218
 20
818.4786218445951
 30
0.0
 11
871.0171641730809
 21
818.478621844595
 31
0.0
  0
ARC
  5
C9C
330
2
100
AcDbEntity
  8
0
100
AcDbCircle
 10
872.8955568086218
 20
826.4786218445951
 30
0.0
 40
8.0
100
AcDbArc
 50
270.0
 51
358.5000000000103
  0
LINE
  5
C9D
330
2
100
AcDbEntity
  8
0
100
AcDbLine
 10
886.4489570292359
 20
734.9786218445948
 30
0.0
 11
884.0171421730817
 21
734.9786218445955
 31
0.0
  0
ARC
  5
C9E
330
2
100
AcDbEntity
  8
0
100
AcDbCircle
 10
886.4489570292342
 20
729.9786218445948
 30
0.0
 40
5.0
100
AcDbArc
 50
1.500000000015752
 51
89.99999999994789
  0
ARC
  5
C9F
330
2
100
AcDbEntity
  8
0
100
AcDbCircle
 10
884.0171421730827
 20
737.9786218445955
 30
0.0
 40
3.0
100
AcDbArc
 50
181.5000000000418
 51
270.0
  0
LINE
  5
CA0
330
2
100
AcDbEntity
  8
0
100
AcDbLine
 10
872.895534808619
 20
750.4786218445948
 30
0.0
 11
871.0171641730809
 21
750.4786218445948
 31
0.0
  0
LINE
  5
CA1
330
2
100
AcDbEntity
  8
0
100
AcDbLine
 10
881.0181701981562
 20
737.9000909996705
 30
0.0
 11
879.798468442607
 21
784.4786218445949
 31
0.0
  0
ARC
  5
CA2
330
2
100
AcDbEntity
  8
0
100
AcDbCircle
 10
872.895534808619
 20
742.4786218445948
 30
0.0
 40
8.0
100
AcDbArc
 50
1.500000000054848
 51
90.0
  0
LINE
  5
CA3
330
2
100
AcDbEntity
  8
0
 48
0.3
100
AcDbLine
 10
893.5430073021604
 20
844.4786218445949
 30
0.0
 11
907.5946935603212
 21
844.4786218445949
 31
0.0
  0
ARC
  5
CA4
330
2
100
AcDbEntity
  8
0
 48
0.5
100
AcDbCircle
 10
893.5430073021604
 20
842.4786218445952
 30
0.0
 40
2.0
100
AcDbArc
 50
90.0
 51
178.4999999999972
  0
LINE
  5
CA5
330
2
100
AcDbEntity
  8
0
100
AcDbLine
 10
891.5436926522104
 20
842.5309757412101
 30
0.0
 11
890.0235382661611
 21
784.4786218445952
 31
0.0
  0
ARC
  5
CA6
330
2
100
AcDbEntity
  8
0
100
AcDbCircle
 10
886.4489570292333
 20
838.9786218445943
 30
0.0
 40
5.0
100
AcDbArc
 50
270.0
 51
358.5000000000103
  0
LINE
  5
CA7
330
2
100
AcDbEntity
  8
0
100
AcDbLine
 10
884.017164173081
 20
833.9786218445942
 30
0.0
 11
886.4489570292333
 21
833.9786218445942
 31
0.0
  0
ARC
  5
CA8
330
2
100
AcDbEntity
  8
0
100
AcDbCircle
 10
884.017164173081
 20
830.9786218445943
 30
0.0
 40
3.0
100
AcDbArc
 50
90.0
 51
178.4999999999972
  0
LINE
  5
CA9
330
2
100
AcDbEntity
  8
0
 48
0.5
100
AcDbLine
 10
846.505858450403
 20
752.5048014510899
 30
0.0
 11
846.4449226865124
 21
745.5222545220859
 31
0.0
  0
ARC
  5
CAA
330
2
100
AcDbEntity
  8
0
 48
0.5
100
AcDbCircle
 10
849.5057442195955
 20
752.4786218445954
 30
0.0
 40
3.0
100
AcDbArc
 50
90.0
 51
179.5000000000084
  0
ARC
  5
CAB
330
2
100
AcDbEntity
  8
0
 48
0.5
100
AcDbCircle
 10
849.7326427821496
 20
778.4786218445952
 30
0.0
 40
3.0
100
AcDbArc
 50
90.0
 51
179.5000000000084
  0
LINE
  5
CAC
330
2
100
AcDbEntity
  8
0
 48
0.5
100
AcDbLine
 10
846.7848897537376
 20
784.4786218445954
 30
0.0
 11
846.2001896117651
 21
717.478621844602
 31
0.0
  0
LINE
  5
CAD
330
2
100
AcDbEntity
  8
0
 48
0.5
100
AcDbLine
 10
846.7848897537495
 20
784.4786218445952
 30
0.0
 11
846.4794493810693
 21
819.4786218445944
 31
0.0
  0
LINE
  5
CAE
330
2
100
AcDbEntity
  8
0
 48
0.3
100
AcDbLine
 10
893.5430073021604
 20
724.4786218445953
 30
0.0
 11
907.5946935603212
 21
724.4786218445952
 31
0.0
  0
ARC
  5
CAF
330
2
100
AcDbEntity
  8
0
 48
0.5
100
AcDbCircle
 10
893.5430073021604
 20
726.4786218445951
 30
0.0
 40
2.0
100
AcDbArc
 50
181.5000000000157
 51
270.0
  0
LINE
  5
CB0
330
2
100
AcDbEntity
  8
0
100
AcDbLine
 10
891.5436926522104
 20
726.4262679479801
 30
0.0
 11
890.0235382661746
 21
784.4786218445952
 31
0.0
  0
LINE
  5
CB1
330
2
100
AcDbEntity
  8
0
100
AcDbLine
 10
907.5946935603168
 20
724.4786218445952
 30
0.0
 11
907.5946935603168
 21
844.4786218445951
 31
0.0
  0
LINE
  5
CB2
330
2
100
AcDbEntity
  8
0
100
AcDbLine
 10
712.9891975088683
 20
717.4786218445965
 30
0.0
 11
846.2001896117651
 21
717.4786218446022
 31
0.0
  0
LINE
  5
CB3
330
2
100
AcDbEntity
  8
0
100
AcDbLine
 10
849.7326427821587
 20
787.4786218445954
 30
0.0
 11
876.9545775945996
 21
787.4786218445961
 31
0.0
  0
ARC
  5
CB4
330
2
100
AcDbEntity
  8
0
100
AcDbCircle
 10
864.3604593789085
 20
790.4786218445956
 30
0.0
 40
3.0
100
AcDbArc
 50
270.0
 51
358.4999999999972
  0
ARC
  5
CB5
330
2
100
AcDbEntity
  8
0
100
AcDbCircle
 10
849.7326427821587
 20
790.4786218445954
 30
0.0
 40
3.0
100
AcDbArc
 50
180.5000000000045
 51
270.0
  0
LINE
  5
CB6
330
2
100
AcDbEntity
  8
0
100
AcDbLine
 10
849.7326427821496
 20
781.4786218445951
 30
0.0
 11
876.9545555945549
 21
781.4786218445945
 31
0.0
  0
ARC
  5
CB7
330
2
100
AcDbEntity
  8
0
100
AcDbCircle
 10
876.9545555945549
 20
778.4786218445949
 30
0.0
 40
3.0
100
AcDbArc
 50
1.500000000041816
 51
90.0
  0
LINE
  5
CB8
330
2
100
AcDbEntity
  8
0
100
AcDbLine
 10
828.9984506469433
 20
784.4786218445952
 30
0.0
 11
907.5946935603168
 21
784.4786218445952
 31
0.0
  0
ARC
  5
CB9
330
2
100
AcDbEntity
  8
0
100
AcDbCircle
 10
828.9984506469433
 20
785.4786218445951
 30
0.0
 40
1.0
100
AcDbArc
 50
181.5000000000027
 51
270.0
  0
LINE
  5
CBA
330
2
100
AcDbEntity
  8
0
100
AcDbLine
 10
722.0946935603181
 20
819.4786218445903
 30
0.0
 11
722.0946935603167
 21
718.9786218445966
 31
0.0
  0
LINE
  5
CBB
330
2
100
AcDbEntity
  8
0
100
AcDbLine
 10
867.3594313538339
 20
778.5571526895185
 30
0.0
 11
868.0181921981555
 21
753.4000909996716
 31
0.0
  0
ARC
  5
CBC
330
2
100
AcDbEntity
  8
0
100
AcDbCircle
 10
864.3604593789076
 20
778.4786218445949
 30
0.0
 40
3.0
100
AcDbArc
 50
1.500000000002719
 51
90.0
  0
LINE
  5
CBD
330
2
100
AcDbEntity
  8
0
100
AcDbLine
 10
865.1010843899809
 20
755.4786218445951
 30
0.0
 11
849.5057442195955
 21
755.4786218445954
 31
0.0
  0
ARC
  5
CBE
330
2
100
AcDbEntity
  8
0
100
AcDbCircle
 10
871.0171641730809
 20
753.4786218445951
 30
0.0
 40
3.0
100
AcDbArc
 50
181.5000000000027
 51
270.0
  0
ARC
  5
CBF
330
2
100
AcDbEntity
  8
0
100
AcDbCircle
 10
865.1010843899809
 20
752.4786218445954
 30
0.0
 40
3.0
100
AcDbArc
 50
9.594068226868996
 51
90.0
  0
LINE
  5
CC0
330
2
100
AcDbEntity
  8
0
100
AcDbLine
 10
865.1010843899809
 20
813.4786218445956
 30
0.0
 11
849.5057442195991
 21
813.4786218445951
 31
0.0
  0
ARC
  5
CC1
330
2
100
AcDbEntity
  8
0
100
AcDbCircle
 10
849.5057442195991
 20
816.4786218445952
 30
0.0
 40
3.0
100
AcDbArc
 50
180.5000000000045
 51
270.0
  0
ARC
  5
CC2
330
2
100
AcDbEntity
  8
0
100
AcDbCircle
 10
871.0171641730809
 20
815.4786218445956
 30
0.0
 40
3.0
100
AcDbArc
 50
90.0
 51
178.4999999999972
  0
ARC
  5
CC3
330
2
100
AcDbEntity
  8
0
100
AcDbCircle
 10
865.1010843899809
 20
816.4786218445954
 30
0.0
 40
3.0
100
AcDbArc
 50
270.0
 51
350.4059317731516
  0
LINE
  5
CC4
330
2
100
AcDbEntity
  8
0
100
AcDbLine
 10
867.3594313538348
 20
790.4000909996723
 30
0.0
 11
868.0181921981555
 21
815.5571526895185
 31
0.0
  0
LINE
  5
CC5
330
2
100
AcDbEntity
  8
0
100
AcDbLine
 10
732.0946935603176
 20
718.9786218445973
 30
0.0
 11
732.0946935603176
 21
819.4786218445903
 31
0.0
  0
LINE
  5
CC6
330
2
100
AcDbEntity
  8
0
100
AcDbLine
 10
755.0339032696135
 20
718.9786218445982
 30
0.0
 11
755.0339032696131
 21
819.4786218445905
 31
0.0
  0
LINE
  5
CC7
330
2
100
AcDbEntity
  8
0
100
AcDbLine
 10
837.0946935603154
 20
819.4786218445912
 30
0.0
 11
837.0946935603168
 21
718.9786218445966
 31
0.0
  0
LINE
  5
CC8
330
2
100
AcDbEntity
  8
0
100
AcDbLine
 10
827.0946935603157
 20
718.9786218445973
 30
0.0
 11
827.0946935603157
 21
784.4786218445954
 31
0.0
  0
LINE
  5
CC9
330
2
100
AcDbEntity
  8
0
100
AcDbLine
 10
804.1554838510199
 20
718.9786218445982
 30
0.0
 11
804.1554838510212
 21
819.4786218445909
 31
0.0
  0
LINE
  5
CCA
330
2
100
AcDbEntity
  8
0
100
AcDbLine
 10
907.5946935603212
 20
724.4786218445952
 30
0.0
 11
907.5946935603212
 21
844.4786218445951
 31
0.0
  0
LINE
  5
CCB
330
2
100
AcDbEntity
  8
0
 48
0.5
100
AcDbLine
 10
719.5946935603167
 20
717.4786218445948
 30
0.0
 11
719.5946935603158
 21
712.4786218445933
 31
0.0
  0
LINE
  5
CCC
330
2
100
AcDbEntity
  8
0
 48
0.5
100
AcDbLine
 10
839.5946935603166
 20
717.4786218445948
 30
0.0
 11
839.5946935603166
 21
712.4786218445949
 31
0.0
  0
ARC
  5
CCD
330
2
100
AcDbEntity
  8
0
100
AcDbCircle
 10
879.2411037425342
 20
734.346892654538
 30
0.0
 40
3.0
100
AcDbArc
 50
37.24958326181087
 51
114.9999999999782
  0
LINE
  5
CCE
330
2
100
AcDbEntity
  8
0
100
AcDbLine
 10
877.9732489573133
 20
737.065816015648
 30
0.0
 11
847.9575100243453
 21
723.0692470860236
 31
0.0
  0
ARC
  5
CCF
330
2
100
AcDbEntity
  8
0
100
AcDbCircle
 10
849.2253648095672
 20
720.3503237249137
 30
0.0
 40
3.0
100
AcDbArc
 50
114.9999999999782
 51
179.5000000000084
  0
ARC
  5
CD0
330
2
100
AcDbEntity
  8
0
100
AcDbCircle
 10
878.2096439054173
 20
832.4861722884181
 30
0.0
 40
3.0
100
AcDbArc
 50
294.9999999999781
 51
345.4480092603792
  0
LINE
  5
CD1
330
2
100
AcDbEntity
  8
0
100
AcDbLine
 10
879.4774986906393
 20
829.7672489273086
 30
0.0
 11
849.3417905265904
 21
815.7147374264868
 31
0.0
  0
ARC
  5
CD2
330
2
100
AcDbEntity
  8
0
100
AcDbCircle
 10
848.4965540031087
 20
817.5273530005602
 30
0.0
 40
2.0
100
AcDbArc
 50
180.5000000024668
 51
294.9999999999781
  0
LINE
  5
CD3
330
2
100
AcDbEntity
  8
0
100
AcDbLine
 10
735.8032773166467
 20
700.1313254892608
 30
0.0
 11
734.7917808050777
 21
705.8678072659288
 31
0.0
  0
LINE
  5
CD4
330
2
100
AcDbEntity
  8
0
100
AcDbLine
 10
823.3861098039866
 20
700.1313254892608
 30
0.0
 11
824.3976063155557
 21
705.8678072659305
 31
0.0
  0
ARC
  5
CD5
330
2
100
AcDbEntity
  8
0
100
AcDbCircle
 10
821.4164942979621
 20
700.4786218445948
 30
0.0
 40
2.0
100
AcDbArc
 50
270.0
 51
350.0000000000006
  0
LINE
  5
CD6
330
2
100
AcDbEntity
  8
0
100
AcDbLine
 10
737.7728928226713
 20
698.4786218445948
 30
0.0
 11
821.4164942979621
 21
698.4786218445948
 31
0.0
  0
ARC
  5
CD7
330
2
100
AcDbEntity
  8
0
100
AcDbCircle
 10
737.7728928226713
 20
700.4786218445948
 30
0.0
 40
2.0
100
AcDbArc
 50
189.9999999999993
 51
270.0
  0
ARC
  5
CD8
330
2
100
AcDbEntity
  8
0
100
AcDbCircle
 10
726.9133187809805
 20
704.4786218445933
 30
0.0
 40
8.0
100
AcDbArc
 50
9.999999999999365
 51
90.0
  0
ARC
  5
CD9
330
2
100
AcDbEntity
  8
0
100
AcDbCircle
 10
832.2760683396534
 20
704.4786218445949
 30
0.0
 40
8.0
100
AcDbArc
 50
90.0
 51
170.0000000000006
  0
LINE
  5
D0A
330
2
100
AcDbEntity
  8
CENTER
100
AcDbLine
 10
-13.88536708335027
 20
385.0678655566773
 30
0.0
 11
296.1146329166588
 21
385.0678655566773
 31
0.0
  0
LINE
  5
D0B
330
2
100
AcDbEntity
  8
0
100
AcDbLine
 10
125.1146329166601
 20
419.0678655566773
 30
0.0
 11
127.1146329166565
 21
419.0678655566773
 31
0.0
  0
LINE
  5
D0C
330
2
100
AcDbEntity
  8
0
100
AcDbLine
 10
111.6146329166601
 20
335.5678655566773
 30
0.0
 11
114.1146329166601
 21
335.5678655566773
 31
0.0
  0
LINE
  5
D0D
330
2
100
AcDbEntity
  8
0
100
AcDbLine
 10
111.6146329166601
 20
434.5678655566772
 30
0.0
 11
114.1146329166601
 21
434.5678655566772
 31
0.0
  0
ARC
  5
D0E
330
2
100
AcDbEntity
  8
0
100
AcDbCircle
 10
111.6146329166601
 20
439.5678655566773
 30
0.0
 40
5.0
100
AcDbArc
 50
180.0
 51
270.0
  0
LINE
  5
D0F
330
2
100
AcDbEntity
  8
0
100
AcDbLine
 10
117.1146329166601
 20
338.5678655566773
 30
0.0
 11
117.1146329166601
 21
431.5678655566773
 31
0.0
  0
ARC
  5
D10
330
2
100
AcDbEntity
  8
0
100
AcDbCircle
 10
125.1146329166601
 20
427.0678655566773
 30
0.0
 40
8.0
100
AcDbArc
 50
180.0
 51
270.0
  0
ARC
  5
D11
330
2
100
AcDbEntity
  8
0
100
AcDbCircle
 10
114.1146329166601
 20
338.5678655566773
 30
0.0
 40
3.0
100
AcDbArc
 50
270.0
 51
0.0
  0
ARC
  5
D12
330
2
100
AcDbEntity
  8
0
100
AcDbCircle
 10
119.3451986544148
 20
335.6282767992099
 30
0.0
 40
3.0
100
AcDbArc
 50
79.99999999999484
 51
150.6639232879818
  0
ARC
  5
D13
330
2
100
AcDbEntity
  8
0
100
AcDbCircle
 10
114.1146329166601
 20
431.5678655566773
 30
0.0
 40
3.0
100
AcDbArc
 50
0.0
 51
90.0
  0
ARC
  5
D14
330
2
100
AcDbEntity
  8
0
100
AcDbCircle
 10
119.3451986544148
 20
434.5074543141446
 30
0.0
 40
3.0
100
AcDbArc
 50
209.3360767120181
 51
279.9999999999522
  0
LINE
  5
D15
330
2
100
AcDbEntity
  8
0
100
AcDbLine
 10
106.6146329166601
 20
326.5678655566773
 30
0.0
 11
106.6146329166601
 21
443.5678655566773
 31
0.0
  0
ARC
  5
D16
330
2
100
AcDbEntity
  8
0
100
AcDbCircle
 10
104.6146329166601
 20
443.5678655566773
 30
0.0
 40
2.0
100
AcDbArc
 50
0.0
 51
90.0
  0
ARC
  5
D17
330
2
100
AcDbEntity
  8
0
100
AcDbCircle
 10
104.6146329166601
 20
327.0678655566773
 30
0.0
 40
2.0
100
AcDbArc
 50
270.0
 51
0.0
  0
ARC
  5
D18
330
2
100
AcDbEntity
  8
0
100
AcDbCircle
 10
104.6146329166601
 20
443.0678655566772
 30
0.0
 40
2.0
100
AcDbArc
 50
0.0
 51
90.0
  0
LINE
  5
D19
330
2
100
AcDbEntity
  8
CENTER
100
AcDbLine
 10
218.6146329166583
 20
307.5678655566773
 30
0.0
 11
218.6146329166593
 21
462.5678655566773
 31
0.0
  0
ARC
  5
D1A
330
2
100
AcDbEntity
  8
0
100
AcDbCircle
 10
111.6146329166601
 20
330.5678655566773
 30
0.0
 40
5.0
100
AcDbArc
 50
90.0
 51
180.0
  0
LINE
  5
D1B
330
2
100
AcDbEntity
  8
0
100
AcDbLine
 10
125.1146329166601
 20
351.0678655566771
 30
0.0
 11
127.1146329166565
 21
351.0678655566771
 31
0.0
  0
ARC
  5
D1C
330
2
100
AcDbEntity
  8
0
100
AcDbCircle
 10
125.1146329166601
 20
343.0678655566771
 30
0.0
 40
8.0
100
AcDbArc
 50
90.0
 51
180.0
  0
LINE
  5
D1D
330
2
100
AcDbEntity
  8
0
100
AcDbLine
 10
104.6146329166601
 20
325.0678655566773
 30
0.0
 11
90.61463291665381
 21
325.0678655566771
 31
0.0
  0
LINE
  5
D1E
330
2
100
AcDbEntity
  8
0
100
AcDbLine
 10
104.6146329166601
 20
445.067865556677
 30
0.0
 11
90.61463291665381
 21
445.0678655566768
 31
0.0
  0
LINE
  5
D1F
330
2
100
AcDbEntity
  8
0
100
AcDbLine
 10
90.61463291665381
 20
445.5678655566773
 30
0.0
 11
90.61463291665381
 21
324.5678655566773
 31
0.0
  0
LINE
  5
D20
330
2
100
AcDbEntity
  8
0
100
AcDbLine
 10
119.866143187414
 20
431.5530310551079
 30
0.0
 11
148.9453812562412
 21
436.6804853050868
 31
0.0
  0
LINE
  5
D21
330
2
100
AcDbEntity
  8
0
100
AcDbLine
 10
119.8661431874159
 20
338.5827000582466
 30
0.0
 11
148.9453812562357
 21
333.4552458082685
 31
0.0
  0
ARC
  5
D22
330
2
100
AcDbEntity
  8
0
100
AcDbCircle
 10
148.4244367232347
 20
330.5008225492317
 30
0.0
 40
3.0
100
AcDbArc
 50
0.0
 51
79.99999999999484
  0
ARC
  5
D23
330
2
100
AcDbEntity
  8
0
100
AcDbCircle
 10
148.4244367232374
 20
417.0678655566772
 30
0.0
 40
3.0
100
AcDbArc
 50
270.0
 51
0.0
  0
ARC
  5
D24
330
2
100
AcDbEntity
  8
0
100
AcDbCircle
 10
148.4244367232402
 20
439.6349085641236
 30
0.0
 40
3.0
100
AcDbArc
 50
280.0000000000051
 51
0.0
  0
LINE
  5
D25
330
2
100
AcDbEntity
  8
0
100
AcDbLine
 10
125.1146329166601
 20
419.0678655566773
 30
0.0
 11
127.1146329166565
 21
419.0678655566773
 31
0.0
  0
ARC
  5
D26
330
2
100
AcDbEntity
  8
0
100
AcDbCircle
 10
127.1146329166565
 20
416.0678655566773
 30
0.0
 40
3.0
100
AcDbArc
 50
0.0
 51
90.0
  0
ARC
  5
D27
330
2
100
AcDbEntity
  8
0
100
AcDbCircle
 10
133.0307126997556
 20
417.0678655566775
 30
0.0
 40
3.0
100
AcDbArc
 50
189.5940682268689
 51
270.0
  0
LINE
  5
D28
330
2
100
AcDbEntity
  8
0
100
AcDbLine
 10
125.1146329166601
 20
351.0678655566771
 30
0.0
 11
127.1146329166565
 21
351.0678655566773
 31
0.0
  0
LINE
  5
D29
330
2
100
AcDbEntity
  8
0
100
AcDbLine
 10
130.1146329166565
 20
416.0678655566773
 30
0.0
 11
130.1146329166565
 21
388.0678655566752
 31
0.0
  0
LINE
  5
D2A
330
2
100
AcDbEntity
  8
0
100
AcDbLine
 10
130.1146329166565
 20
382.0678655566748
 30
0.0
 11
130.1146329166565
 21
354.0678655566773
 31
0.0
  0
ARC
  5
D2B
330
2
100
AcDbEntity
  8
0
100
AcDbCircle
 10
127.1146329166565
 20
354.0678655566773
 30
0.0
 40
3.0
100
AcDbArc
 50
270.0
 51
0.0
  0
ARC
  5
D2C
330
2
100
AcDbEntity
  8
0
100
AcDbCircle
 10
133.0307126997565
 20
353.0678655566775
 30
0.0
 40
3.0
100
AcDbArc
 50
90.0
 51
170.4059317731516
  0
LINE
  5
D2D
330
2
100
AcDbEntity
  8
0
100
AcDbLine
 10
133.0307126997556
 20
414.0678655566775
 30
0.0
 11
148.4244367232374
 21
414.0678655566772
 31
0.0
  0
LINE
  5
D2E
330
2
100
AcDbEntity
  8
0
100
AcDbLine
 10
133.0307126997565
 20
356.0678655566775
 30
0.0
 11
148.4244367232402
 21
356.0678655566775
 31
0.0
  0
ARC
  5
D2F
330
2
100
AcDbEntity
  8
0
100
AcDbCircle
 10
148.4244367232402
 20
353.0678655566775
 30
0.0
 40
3.0
100
AcDbArc
 50
0.0
 51
90.0
  0
LINE
  5
D30
330
2
100
AcDbEntity
  8
0
100
AcDbLine
 10
151.4244367232311
 20
442.5678655566775
 30
0.0
 11
151.4244367232311
 21
327.5678655566773
 31
0.0
  0
ARC
  5
D31
330
2
100
AcDbEntity
  8
0
100
AcDbCircle
 10
161.4244367232311
 20
442.5678655566775
 30
0.0
 40
10.0
100
AcDbArc
 50
90.0
 51
180.0
  0
ARC
  5
D32
330
2
100
AcDbEntity
  8
0
100
AcDbCircle
 10
161.4244367232311
 20
327.5678655566773
 30
0.0
 40
10.0
100
AcDbArc
 50
180.0
 51
270.0
  0
ARC
  5
D33
330
2
100
AcDbEntity
  8
0
100
AcDbCircle
 10
120.1146329166597
 20
391.067865556675
 30
0.0
 40
3.0
100
AcDbArc
 50
180.0
 51
270.0
  0
ARC
  5
D34
330
2
100
AcDbEntity
  8
0
100
AcDbCircle
 10
148.4244367232297
 20
391.067865556675
 30
0.0
 40
3.0
100
AcDbArc
 50
270.0
 51
0.0
  0
LINE
  5
D35
330
2
100
AcDbEntity
  8
0
100
AcDbLine
 10
148.4244367232297
 20
382.0678655566748
 30
0.0
 11
120.1146329166597
 21
382.0678655566747
 31
0.0
  0
ARC
  5
D36
330
2
100
AcDbEntity
  8
0
100
AcDbCircle
 10
120.1146329166597
 20
379.0678655566745
 30
0.0
 40
3.0
100
AcDbArc
 50
90.0
 51
180.0
  0
ARC
  5
D37
330
2
100
AcDbEntity
  8
0
100
AcDbCircle
 10
148.4244367232297
 20
379.0678655566748
 30
0.0
 40
3.0
100
AcDbArc
 50
0.0
 51
90.0
  0
LINE
  5
D38
330
2
100
AcDbEntity
  8
0
100
AcDbLine
 10
148.4244367232297
 20
388.067865556675
 30
0.0
 11
120.1146329166597
 21
388.0678655566752
 31
0.0
  0
LINE
  5
D3A
330
2
100
AcDbEntity
  8
0
100
AcDbLine
 10
529.5202955304136
 20
325.0678655566762
 30
0.0
 11
529.5202955304119
 21
445.0678655566773
 31
0.0
  0
LINE
  5
D3C
330
2
100
AcDbEntity
  8
0
100
AcDbLine
 10
422.5202955304127
 20
452.5678655566773
 30
0.0
 11
422.52029553042
 21
317.5678655566782
 31
0.0
  0
LINE
  5
D3D
330
2
100
AcDbEntity
  8
0
100
AcDbLine
 10
524.5202955304123
 20
318.4623695052288
 30
0.0
 11
524.520295530405
 21
451.6733616081258
 31
0.0
  0
LINE
  5
D3E
330
2
100
AcDbEntity
  8
0
100
AcDbLine
 10
422.5202955304168
 20
327.5678655566782
 30
0.0
 11
523.0202955304105
 21
327.5678655566772
 31
0.0
  0
LINE
  5
D3F
330
2
100
AcDbEntity
  8
0
100
AcDbLine
 10
523.02029553041
 20
337.5678655566782
 30
0.0
 11
422.5202955304164
 21
337.5678655566782
 31
0.0
  0
LINE
  5
D40
330
2
100
AcDbEntity
  8
0
100
AcDbLine
 10
523.0202955304092
 20
360.5070752659741
 30
0.0
 11
422.5202955304164
 21
360.5070752659732
 31
0.0
  0
LINE
  5
D41
330
2
100
AcDbEntity
  8
0
100
AcDbLine
 10
422.5202955304164
 20
442.5678655566764
 30
0.0
 11
523.0202955304105
 21
442.5678655566772
 31
0.0
  0
LINE
  5
D42
330
2
100
AcDbEntity
  8
0
100
AcDbLine
 10
523.02029553041
 20
432.5678655566764
 30
0.0
 11
422.5202955304164
 21
432.5678655566764
 31
0.0
  0
LINE
  5
D43
330
2
100
AcDbEntity
  8
0
100
AcDbLine
 10
523.0202955304092
 20
409.6286558473805
 30
0.0
 11
422.5202955304164
 21
409.6286558473813
 31
0.0
  0
LINE
  5
D44
330
2
100
AcDbEntity
  8
0
 48
0.5
100
AcDbLine
 10
524.5202955304123
 20
325.0678655566773
 30
0.0
 11
529.5202955304136
 21
325.0678655566763
 31
0.0
  0
LINE
  5
D45
330
2
100
AcDbEntity
  8
0
 48
0.5
100
AcDbLine
 10
524.5202955304123
 20
445.0678655566773
 30
0.0
 11
529.5202955304119
 21
445.0678655566773
 31
0.0
  0
LINE
  5
D46
330
2
100
AcDbEntity
  8
0
100
AcDbLine
 10
541.8675918857464
 20
341.2764493130075
 30
0.0
 11
536.1311101090784
 21
340.2649528014383
 31
0.0
  0
LINE
  5
D47
330
2
100
AcDbEntity
  8
0
100
AcDbLine
 10
541.8675918857464
 20
428.8592818003472
 30
0.0
 11
536.1311101090766
 21
429.8707783119166
 31
0.0
  0
ARC
  5
D48
330
2
100
AcDbEntity
  8
0
100
AcDbCircle
 10
541.5202955304123
 20
426.8896662943228
 30
0.0
 40
2.0
100
AcDbArc
 50
0.0
 51
79.99999999999484
  0
LINE
  5
D49
330
2
100
AcDbEntity
  8
0
100
AcDbLine
 10
543.5202955304123
 20
343.2460648190319
 30
0.0
 11
543.5202955304123
 21
426.8896662943228
 31
0.0
  0
ARC
  5
D4A
330
2
100
AcDbEntity
  8
0
100
AcDbCircle
 10
541.5202955304123
 20
343.2460648190319
 30
0.0
 40
2.0
100
AcDbArc
 50
280.0000000000051
 51
0.0
  0
ARC
  5
D4B
330
2
100
AcDbEntity
  8
0
100
AcDbCircle
 10
537.5202955304136
 20
332.3864907773409
 30
0.0
 40
8.0
100
AcDbArc
 50
100.0000000000051
 51
180.0
  0
ARC
  5
D4C
330
2
100
AcDbEntity
  8
0
100
AcDbCircle
 10
537.5202955304123
 20
437.7492403360142
 30
0.0
 40
8.0
100
AcDbArc
 50
180.0
 51
259.9999999999948
  0
LINE
  5
D4D
330
2
100
AcDbEntity
  8
0
100
AcDbLine
 10
397.5202955304209
 20
385.0678655566771
 30
0.0
 11
397.5202955304209
 21
426.9905152874897
 31
0.0
  0
LINE
  5
D4E
330
2
100
AcDbEntity
  8
0
 48
0.5
100
AcDbLine
 10
414.5028424594195
 20
452.4978983037079
 30
0.0
 11
422.5202955304159
 21
452.5678655566771
 31
0.0
  0
ARC
  5
D4F
330
2
100
AcDbEntity
  8
0
100
AcDbCircle
 10
414.5202955304164
 20
450.4979744575796
 30
0.0
 40
2.0
100
AcDbArc
 50
90.49999999999155
 51
180.0
  0
ARC
  5
D50
330
2
100
AcDbEntity
  8
0
 48
0.5
100
AcDbCircle
 10
399.7202955304167
 20
427.2678655566772
 30
0.0
 40
0.3
100
AcDbArc
 50
0.0000000000065138
 51
90.0
  0
ARC
  5
D51
330
2
100
AcDbEntity
  8
0
100
AcDbCircle
 10
400.3202955304166
 20
427.1678655566772
 30
0.0
 40
0.3
100
AcDbArc
 50
180.0000000000065
 51
270.0
  0
LINE
  5
D52
330
2
100
AcDbEntity
  8
0
100
AcDbLine
 10
405.5202955304164
 20
429.5678655566776
 30
0.0
 11
405.5202955304168
 21
427.5678655566776
 31
0.0
  0
LINE
  5
D53
330
2
100
AcDbEntity
  8
0
 48
0.5
100
AcDbLine
 10
402.2202955304167
 20
427.5678655566776
 30
0.0
 11
405.5202955304168
 21
427.5678655566776
 31
0.0
  0
LINE
  5
D54
330
2
100
AcDbEntity
  8
0
 48
0.5
100
AcDbLine
 10
400.3202955304166
 20
426.8678655566773
 30
0.0
 11
401.7202955304167
 21
426.8678655566773
 31
0.0
  0
LINE
  5
D55
330
2
100
AcDbEntity
  8
0
 48
0.5
100
AcDbLine
 10
402.0202955304164
 20
427.3678655566773
 30
0.0
 11
402.2202955304167
 21
427.5678655566776
 31
0.0
  0
LINE
  5
D56
330
2
100
AcDbEntity
  8
0
100
AcDbLine
 10
402.0202955304164
 20
427.3678655566773
 30
0.0
 11
402.0202955304169
 21
342.767865556677
 31
0.0
  0
ARC
  5
D57
330
2
100
AcDbEntity
  8
0
100
AcDbCircle
 10
401.7202955304167
 20
427.1678655566775
 30
0.0
 40
0.3
100
AcDbArc
 50
270.0
 51
0.0000000000065138
  0
ARC
  5
D58
330
2
100
AcDbEntity
  8
HIDS
  6
SEKKEI_H
100
AcDbCircle
 10
408.0202955304114
 20
440.2394384319301
 30
0.0
 40
2.0
100
AcDbArc
 50
135.0000000000074
 51
180.0000000000065
  0
ARC
  5
D59
330
2
100
AcDbEntity
  8
HIDS
  6
SEKKEI_H
100
AcDbCircle
 10
410.5202955304159
 20
448.3962926814235
 30
0.0
 40
2.0
100
AcDbArc
 50
315.0000000000074
 51
0.0
  0
LINE
  5
D5A
330
2
100
AcDbEntity
  8
HIDS
  6
SEKKEI_H
100
AcDbLine
 10
411.9345090927892
 20
446.9820791190504
 30
0.0
 11
406.6060819680403
 21
441.6536519943007
 31
0.0
  0
LINE
  5
D5B
330
2
100
AcDbEntity
  8
0
 48
0.5
100
AcDbLine
 10
406.0202955304164
 20
430.0678655566776
 30
0.0
 11
405.5202955304164
 21
429.5678655566776
 31
0.0
  0
LINE
  5
D5C
330
2
100
AcDbEntity
  8
0
100
AcDbLine
 10
406.0202955304164
 20
436.0678655566773
 30
0.0
 11
406.0202955304168
 21
430.0678655566779
 31
0.0
  0
LINE
  5
D5D
330
2
100
AcDbEntity
  8
0
100
AcDbLine
 10
398.5202955304168
 20
427.5678655566771
 30
0.0
 11
397.5202955304169
 21
426.9905152874872
 31
0.0
  0
LINE
  5
D5E
330
2
100
AcDbEntity
  8
0
 48
0.5
100
AcDbLine
 10
398.5202955304164
 20
427.5678655566771
 30
0.0
 11
399.7202955304167
 21
427.5678655566771
 31
0.0
  0
LINE
  5
D5F
330
2
100
AcDbEntity
  8
0
100
AcDbLine
 10
400.0202955304168
 20
427.2678655566772
 30
0.0
 11
400.0202955304168
 21
342.8678655566772
 31
0.0
  0
LINE
  5
D60
330
2
100
AcDbEntity
  8
0
100
AcDbLine
 10
397.5202955304209
 20
385.0678655566771
 30
0.0
 11
397.5202955304214
 21
343.1452158258647
 31
0.0
  0
LINE
  5
D61
330
2
100
AcDbEntity
  8
0
 48
0.5
100
AcDbLine
 10
414.5028424594199
 20
317.6378328096466
 30
0.0
 11
422.5202955304164
 21
317.5678655566774
 31
0.0
  0
LINE
  5
D62
330
2
100
AcDbEntity
  8
0
100
AcDbLine
 10
412.5202955304168
 20
319.637756655775
 30
0.0
 11
412.5202955304164
 21
450.4979744575796
 31
0.0
  0
ARC
  5
D63
330
2
100
AcDbEntity
  8
0
100
AcDbCircle
 10
414.5202955304169
 20
319.637756655775
 30
0.0
 40
2.0
100
AcDbArc
 50
180.0
 51
269.5000000000084
  0
ARC
  5
D64
330
2
100
AcDbEntity
  8
0
 48
0.5
100
AcDbCircle
 10
399.7202955304171
 20
342.8678655566772
 30
0.0
 40
0.3
100
AcDbArc
 50
270.0
 51
359.9999999999934
  0
ARC
  5
D65
330
2
100
AcDbEntity
  8
0
100
AcDbCircle
 10
400.320295530417
 20
342.9678655566771
 30
0.0
 40
0.3
100
AcDbArc
 50
90.0
 51
179.9999999999934
  0
LINE
  5
D66
330
2
100
AcDbEntity
  8
0
100
AcDbLine
 10
405.5202955304168
 20
340.5678655566767
 30
0.0
 11
405.5202955304168
 21
342.5678655566767
 31
0.0
  0
LINE
  5
D67
330
2
100
AcDbEntity
  8
0
 48
0.5
100
AcDbLine
 10
402.2202955304171
 20
342.5678655566767
 30
0.0
 11
405.5202955304168
 21
342.5678655566767
 31
0.0
  0
LINE
  5
D68
330
2
100
AcDbEntity
  8
0
 48
0.5
100
AcDbLine
 10
400.320295530417
 20
343.267865556677
 30
0.0
 11
401.7202955304171
 21
343.267865556677
 31
0.0
  0
LINE
  5
D69
330
2
100
AcDbEntity
  8
0
 48
0.5
100
AcDbLine
 10
402.0202955304169
 20
342.767865556677
 30
0.0
 11
402.2202955304171
 21
342.5678655566767
 31
0.0
  0
ARC
  5
D6A
330
2
100
AcDbEntity
  8
0
100
AcDbCircle
 10
401.7202955304171
 20
342.9678655566768
 30
0.0
 40
0.3
100
AcDbArc
 50
359.9999999999934
 51
90.0
  0
ARC
  5
D6B
330
2
100
AcDbEntity
  8
HIDS
  6
SEKKEI_H
100
AcDbCircle
 10
408.0202955304119
 20
329.8962926814243
 30
0.0
 40
2.0
100
AcDbArc
 50
179.9999999999934
 51
224.9999999999926
  0
ARC
  5
D6C
330
2
100
AcDbEntity
  8
HIDS
  6
SEKKEI_H
100
AcDbCircle
 10
410.5202955304164
 20
321.7394384319309
 30
0.0
 40
2.0
100
AcDbArc
 50
0.0
 51
44.99999999999261
  0
LINE
  5
D6D
330
2
100
AcDbEntity
  8
HIDS
  6
SEKKEI_H
100
AcDbLine
 10
411.9345090927898
 20
323.1536519943041
 30
0.0
 11
406.6060819680408
 21
328.4820791190536
 31
0.0
  0
LINE
  5
D6E
330
2
100
AcDbEntity
  8
0
 48
0.5
100
AcDbLine
 10
406.0202955304168
 20
340.0678655566768
 30
0.0
 11
405.5202955304168
 21
340.5678655566767
 31
0.0
  0
LINE
  5
D6F
330
2
100
AcDbEntity
  8
0
100
AcDbLine
 10
406.0202955304168
 20
334.0678655566772
 30
0.0
 11
406.0202955304173
 21
340.0678655566765
 31
0.0
  0
LINE
  5
D70
330
2
100
AcDbEntity
  8
0
100
AcDbLine
 10
398.5202955304168
 20
342.5678655566772
 30
0.0
 11
397.5202955304169
 21
343.1452158258672
 31
0.0
  0
LINE
  5
D71
330
2
100
AcDbEntity
  8
0
 48
0.5
100
AcDbLine
 10
398.5202955304168
 20
342.5678655566772
 30
0.0
 11
399.7202955304171
 21
342.5678655566772
 31
0.0
  0
LINE
  5
D72
330
2
100
AcDbEntity
  8
0
100
AcDbLine
 10
398.5202955304164
 20
427.5678655566771
 30
0.0
 11
398.5202955304168
 21
342.5678655566772
 31
0.0
  0
LINE
  5
D73
330
2
100
AcDbEntity
  8
0
100
AcDbLine
 10
402.2202955304171
 20
342.5678655566767
 30
0.0
 11
402.2202955304167
 21
427.5678655566776
 31
0.0
  0
LINE
  5
D74
330
2
100
AcDbEntity
  8
0
100
AcDbLine
 10
405.5202955304168
 20
427.5678655566776
 30
0.0
 11
405.5202955304168
 21
342.5678655566767
 31
0.0
  0
LINE
  5
D75
330
2
100
AcDbEntity
  8
0
100
AcDbLine
 10
406.0202955304173
 20
340.0678655566765
 30
0.0
 11
406.0202955304168
 21
430.0678655566779
 31
0.0
  0
LINE
  5
D76
330
2
100
AcDbEntity
  8
0
100
AcDbLine
 10
422.5202955304159
 20
452.5678655566771
 30
0.0
 11
422.5202955304168
 21
317.5678655566774
 31
0.0
  0
LINE
  5
D77
330
2
100
AcDbEntity
  8
0
100
AcDbLine
 10
422.5202955304164
 20
432.5678655566767
 30
0.0
 11
414.0202955304164
 21
432.5678655566767
 31
0.0
  0
LINE
  5
D78
330
2
100
AcDbEntity
  8
0
100
AcDbLine
 10
422.5202955304164
 20
409.6286558473904
 30
0.0
 11
414.0202955304164
 21
409.6286558473904
 31
0.0
  0
LINE
  5
D79
330
2
100
AcDbEntity
  8
0
100
AcDbLine
 10
422.5202955304164
 20
442.5678655571092
 30
0.0
 11
414.0202955304164
 21
442.5678655571092
 31
0.0
  0
LINE
  5
D7A
330
2
100
AcDbEntity
  8
0
100
AcDbLine
 10
422.5202955304164
 20
337.5678655566779
 30
0.0
 11
414.0202955304164
 21
337.5678655566778
 31
0.0
  0
LINE
  5
D7B
330
2
100
AcDbEntity
  8
0
100
AcDbLine
 10
422.5202955304164
 20
360.507075265964
 30
0.0
 11
414.0202955304164
 21
360.507075265964
 31
0.0
  0
LINE
  5
D7C
330
2
100
AcDbEntity
  8
0
100
AcDbLine
 10
422.5202955304168
 20
327.5678655562452
 30
0.0
 11
414.0202955304168
 21
327.5678655562452
 31
0.0
  0
LINE
  5
D81
330
2
100
AcDbEntity
  8
HIDS
  6
SEKKEI_H
100
AcDbLine
 10
407.436965090447
 20
324.9852266436766
 30
0.0
 11
410.125337547224
 21
324.9628235398702
 31
0.0
  0
ARC
  5
D82
330
2
100
AcDbEntity
  8
0
100
AcDbCircle
 10
407.5202955304123
 20
334.9848794395394
 30
0.0
 40
10.0
100
AcDbArc
 50
180.0
 51
240.00000000003
  0
LINE
  5
D83
330
2
100
AcDbEntity
  8
0
100
AcDbLine
 10
397.5202955304128
 20
334.9848794395394
 30
0.0
 11
397.5202955304123
 21
435.150851673815
 31
0.0
  0
LINE
  5
D84
330
2
100
AcDbEntity
  8
HIDS
  6
SEKKEI_H
100
AcDbLine
 10
407.4369650904466
 20
445.1505044696761
 30
0.0
 11
410.1253375472217
 21
445.1729075734826
 31
0.0
  0
ARC
  5
D85
330
2
100
AcDbEntity
  8
0
100
AcDbCircle
 10
407.5202955304123
 20
435.150851673815
 30
0.0
 40
10.0
100
AcDbArc
 50
119.9999999999698
 51
180.0
  0
LINE
  5
D86
330
2
100
AcDbEntity
  8
0
100
AcDbLine
 10
249.1034856287976
 20
329.0678655571093
 30
0.0
 11
188.1257802053839
 21
329.0678655571093
 31
0.0
  0
ARC
  5
D87
330
2
100
AcDbEntity
  8
0
100
AcDbCircle
 10
249.1034856287976
 20
337.0678655571092
 30
0.0
 40
8.0
100
AcDbArc
 50
270.0
 51
315.0000000000074
  0
LINE
  5
D88
330
2
100
AcDbEntity
  8
0
100
AcDbLine
 10
249.1034856287976
 20
441.0678655571093
 30
0.0
 11
188.1257802053839
 21
441.0678655571093
 31
0.0
  0
ARC
  5
D89
330
2
100
AcDbEntity
  8
0
100
AcDbCircle
 10
188.1257802053839
 20
433.0678655571093
 30
0.0
 40
8.0
100
AcDbArc
 50
90.0
 51
135.0000000000074
  0
LINE
  5
D8A
330
2
100
AcDbEntity
  8
0
100
AcDbLine
 10
249.1034856287976
 20
447.5678655571093
 30
0.0
 11
188.1257802053839
 21
447.5678655571093
 31
0.0
  0
ARC
  5
D8B
330
2
100
AcDbEntity
  8
0
100
AcDbCircle
 10
188.1257802053839
 20
433.0678655571093
 30
0.0
 40
14.5
100
AcDbArc
 50
90.0
 51
135.0000000000074
  0
LINE
  5
D8C
330
2
100
AcDbEntity
  8
0
100
AcDbLine
 10
249.1034856287976
 20
322.5678655571092
 30
0.0
 11
188.1257802053839
 21
322.5678655571093
 31
0.0
  0
ARC
  5
D8D
330
2
100
AcDbEntity
  8
0
100
AcDbCircle
 10
249.1034856287976
 20
337.0678655571092
 30
0.0
 40
14.5
100
AcDbArc
 50
270.0
 51
315.0000000000074
  0
LINE
  5
D8E
330
2
100
AcDbEntity
  8
0
100
AcDbLine
 10
151.7246329170909
 20
327.5678655571335
 30
0.0
 11
151.7246329170909
 21
442.5678655566772
 31
0.0
  0
ARC
  5
D8F
330
2
100
AcDbEntity
  8
0
100
AcDbCircle
 10
161.7246329170909
 20
442.5678655566772
 30
0.0
 40
10.0
100
AcDbArc
 50
90.0
 51
180.0
  0
ARC
  5
D90
330
2
100
AcDbEntity
  8
0
100
AcDbCircle
 10
161.7246329170909
 20
327.5678655571335
 30
0.0
 40
10.0
100
AcDbArc
 50
180.0
 51
269.9999999972121
  0
CIRCLE
  5
D91
330
2
100
AcDbEntity
  8
0
100
AcDbCircle
 10
218.6146329170908
 20
385.0678655571093
 30
0.0
 40
36.00000000000003
  0
CIRCLE
  5
D92
330
2
100
AcDbEntity
  8
0
100
AcDbCircle
 10
218.6146329170908
 20
385.0678655571093
 30
0.0
 40
42.50000000000002
  0
CIRCLE
  5
D93
330
2
100
AcDbEntity
  8
0
100
AcDbCircle
 10
218.6146329170908
 20
385.0678655571093
 30
0.0
 40
44.50000000000048
  0
CIRCLE
  5
D94
330
2
100
AcDbEntity
  8
0
100
AcDbCircle
 10
218.6146329170908
 20
385.0678655571093
 30
0.0
 40
41.92264973081003
  0
LINE
  5
D95
330
2
100
AcDbEntity
  8
0
100
AcDbLine
 10
281.1146329170913
 20
415.556718268816
 30
0.0
 11
281.1146329170913
 21
354.5790128454026
 31
0.0
  0
ARC
  5
D96
330
2
100
AcDbEntity
  8
0
100
AcDbCircle
 10
266.6146329170913
 20
415.556718268816
 30
0.0
 40
14.5
100
AcDbArc
 50
0.0
 51
44.99999999999261
  0
LINE
  5
D97
330
2
100
AcDbEntity
  8
0
100
AcDbLine
 10
274.6146329170903
 20
415.5567182688169
 30
0.0
 11
274.6146329170903
 21
354.5790128454017
 31
0.0
  0
ARC
  5
D98
330
2
100
AcDbEntity
  8
0
100
AcDbCircle
 10
266.6146329170903
 20
415.5567182688169
 30
0.0
 40
8.0
100
AcDbArc
 50
0.0
 51
44.99999999999261
  0
LINE
  5
D99
330
2
100
AcDbEntity
  8
0
100
AcDbLine
 10
162.6146329170917
 20
415.5567182688168
 30
0.0
 11
162.6146329170917
 21
354.5790128454019
 31
0.0
  0
ARC
  5
D9A
330
2
100
AcDbEntity
  8
0
100
AcDbCircle
 10
170.6146329170917
 20
354.5790128454019
 30
0.0
 40
8.0
100
AcDbArc
 50
180.0
 51
224.9999999999926
  0
LINE
  5
D9B
330
2
100
AcDbEntity
  8
0
100
AcDbLine
 10
156.1146329170908
 20
415.556718268816
 30
0.0
 11
156.1146329170908
 21
354.5790128454027
 31
0.0
  0
LINE
  5
D9C
330
2
100
AcDbEntity
  8
0
100
AcDbLine
 10
160.3615845898859
 20
425.8097665960208
 30
0.0
 11
177.8727318781791
 21
443.3209138843142
 31
0.0
  0
ARC
  5
D9D
330
2
100
AcDbEntity
  8
0
100
AcDbCircle
 10
170.6146329170908
 20
415.556718268816
 30
0.0
 40
14.5
100
AcDbArc
 50
135.0000000000074
 51
180.0
  0
LINE
  5
D9E
330
2
100
AcDbEntity
  8
0
100
AcDbLine
 10
259.3565339560025
 20
326.8148172299043
 30
0.0
 11
276.8676812442961
 21
344.3259645181977
 31
0.0
  0
ARC
  5
D9F
330
2
100
AcDbEntity
  8
0
100
AcDbCircle
 10
266.6146329170913
 20
354.5790128454026
 30
0.0
 40
14.5
100
AcDbArc
 50
315.0000000000074
 51
0.0
  0
LINE
  5
DA0
330
2
100
AcDbEntity
  8
0
100
AcDbLine
 10
254.76033987829
 20
331.4110113076169
 30
0.0
 11
272.2714871665823
 21
348.9221585959094
 31
0.0
  0
ARC
  5
DA1
330
2
100
AcDbEntity
  8
0
100
AcDbCircle
 10
266.6146329170903
 20
354.5790128454017
 30
0.0
 40
8.0
100
AcDbArc
 50
315.0000000000074
 51
0.0
  0
LINE
  5
DA2
330
2
100
AcDbEntity
  8
0
100
AcDbLine
 10
164.9577786675993
 20
421.2135725183091
 30
0.0
 11
182.468925955892
 21
438.7247198066017
 31
0.0
  0
ARC
  5
DA3
330
2
100
AcDbEntity
  8
0
100
AcDbCircle
 10
170.6146329170917
 20
415.5567182688168
 30
0.0
 40
8.0
100
AcDbArc
 50
135.0000000000074
 51
180.0
  0
LINE
  5
DA4
330
2
100
AcDbEntity
  8
0
100
AcDbLine
 10
177.8727318781791
 20
326.8148172299043
 30
0.0
 11
160.3615845898859
 21
344.3259645181977
 31
0.0
  0
ARC
  5
DA5
330
2
100
AcDbEntity
  8
0
100
AcDbCircle
 10
170.6146329170908
 20
354.5790128454027
 30
0.0
 40
14.5
100
AcDbArc
 50
180.0
 51
224.9999999999926
  0
ARC
  5
DA6
330
2
100
AcDbEntity
  8
0
100
AcDbCircle
 10
188.1257802053839
 20
337.0678655571093
 30
0.0
 40
14.5
100
AcDbArc
 50
224.9999999999926
 51
270.0
  0
LINE
  5
DA7
330
2
100
AcDbEntity
  8
0
100
AcDbLine
 10
276.8676812442961
 20
425.8097665960209
 30
0.0
 11
259.3565339560025
 21
443.3209138843142
 31
0.0
  0
ARC
  5
DA8
330
2
100
AcDbEntity
  8
0
100
AcDbCircle
 10
249.1034856287976
 20
433.0678655571093
 30
0.0
 40
14.5
100
AcDbArc
 50
44.99999999999261
 51
90.0
  0
LINE
  5
DA9
330
2
100
AcDbEntity
  8
0
100
AcDbLine
 10
182.468925955892
 20
331.4110113076169
 30
0.0
 11
164.9577786675993
 21
348.9221585959096
 31
0.0
  0
ARC
  5
DAA
330
2
100
AcDbEntity
  8
0
100
AcDbCircle
 10
188.1257802053839
 20
337.0678655571093
 30
0.0
 40
8.0
100
AcDbArc
 50
224.9999999999926
 51
270.0
  0
LINE
  5
DAB
330
2
100
AcDbEntity
  8
0
100
AcDbLine
 10
272.2714871665828
 20
421.2135725183093
 30
0.0
 11
254.76033987829
 21
438.7247198066017
 31
0.0
  0
ARC
  5
DAC
330
2
100
AcDbEntity
  8
0
100
AcDbCircle
 10
249.1034856287976
 20
433.0678655571093
 30
0.0
 40
8.0
100
AcDbArc
 50
44.99999999999261
 51
90.0
  0
LINE
  5
DAD
330
2
100
AcDbEntity
  8
CENTER
100
AcDbLine
 10
286.1146329175232
 20
327.5678655571092
 30
0.0
 11
266.1146329166592
 21
327.5678655571092
 31
0.0
  0
LINE
  5
DAE
330
2
100
AcDbEntity
  8
CENTER
100
AcDbLine
 10
276.1146329170908
 20
337.5678655575412
 30
0.0
 11
276.1146329170908
 21
317.5678655566772
 31
0.0
  0
LINE
  5
DAF
330
2
100
AcDbEntity
  8
CENTER
100
AcDbLine
 10
286.1146329166588
 20
442.5678655571094
 30
0.0
 11
266.1146329175223
 21
442.5678655571094
 31
0.0
  0
LINE
  5
DB0
330
2
100
AcDbEntity
  8
CENTER
100
AcDbLine
 10
276.1146329170908
 20
432.567865557541
 30
0.0
 11
276.1146329170908
 21
452.5678655566773
 31
0.0
  0
LINE
  5
DB1
330
2
100
AcDbEntity
  8
CENTER
100
AcDbLine
 10
151.1332552566916
 20
327.5678655571092
 30
0.0
 11
171.0960105774899
 21
327.5678655571092
 31
0.0
  0
LINE
  5
DB2
330
2
100
AcDbEntity
  8
CENTER
100
AcDbLine
 10
161.1146329170912
 20
337.5492432175084
 30
0.0
 11
161.1146329170912
 21
317.5864878967102
 31
0.0
  0
LINE
  5
DB3
330
2
100
AcDbEntity
  8
CENTER
100
AcDbLine
 10
151.1098351485377
 20
442.5678655571094
 30
0.0
 11
171.1194306856448
 21
442.5678655571094
 31
0.0
  0
LINE
  5
DB4
330
2
100
AcDbEntity
  8
CENTER
100
AcDbLine
 10
161.1146329170912
 20
432.5630677885557
 30
0.0
 11
161.1146329170912
 21
452.5726633256633
 31
0.0
  0
CIRCLE
  5
DB5
330
2
100
AcDbEntity
  8
HOJO
100
AcDbCircle
 10
278.6146329170908
 20
339.0678655571092
 30
0.0
 40
2.5
  0
CIRCLE
  5
DB6
330
2
100
AcDbEntity
  8
0
100
AcDbCircle
 10
278.6146329170908
 20
339.0678655571092
 30
0.0
 40
2.0
  0
LINE
  5
DB7
330
2
100
AcDbEntity
  8
CENTER
100
AcDbLine
 10
278.6146329170908
 20
331.7018358111993
 30
0.0
 11
278.6146329170908
 21
346.4338953030189
 31
0.0
  0
LINE
  5
DB8
330
2
100
AcDbEntity
  8
CENTER
100
AcDbLine
 10
285.9806626630009
 20
339.0678655571091
 30
0.0
 11
271.2486031711812
 21
339.0678655571091
 31
0.0
  0
CIRCLE
  5
DB9
330
2
100
AcDbEntity
  8
HOJO
100
AcDbCircle
 10
158.6146329170908
 20
431.0678655571093
 30
0.0
 40
2.5
  0
CIRCLE
  5
DBA
330
2
100
AcDbEntity
  8
0
100
AcDbCircle
 10
158.6146329170908
 20
431.0678655571093
 30
0.0
 40
2.0
  0
LINE
  5
DBB
330
2
100
AcDbEntity
  8
CENTER
100
AcDbLine
 10
158.6146329170908
 20
437.9578655571093
 30
0.0
 11
158.6146329170908
 21
424.1778655571093
 31
0.0
  0
LINE
  5
DBC
330
2
100
AcDbEntity
  8
CENTER
100
AcDbLine
 10
151.7246329170909
 20
431.0678655571094
 30
0.0
 11
165.5046329170911
 21
431.0678655571094
 31
0.0
  0
LINE
  5
DBD
330
2
100
AcDbEntity
  8
CENTER
100
AcDbLine
 10
147.9744516529933
 20
314.4276842930119
 30
0.0
 11
289.2548141811882
 21
455.708046821207
 31
0.0
  0
LINE
  5
DBE
330
2
100
AcDbEntity
  8
CENTER
100
AcDbLine
 10
289.2548141816207
 20
314.4276842925796
 30
0.0
 11
147.9744516534258
 21
455.7080468207749
 31
0.0
  0
LINE
  5
DBF
330
2
100
AcDbEntity
  8
0
100
AcDbLine
 10
182.5768704360905
 20
323.6716123356957
 30
0.0
 11
185.0643127464634
 21
329.6768292970191
 31
0.0
  0
LINE
  5
DC0
330
2
100
AcDbEntity
  8
0
100
AcDbLine
 10
157.2183796956771
 20
349.0301030761089
 30
0.0
 11
163.2235966570012
 21
351.5175453864813
 31
0.0
  0
LINE
  5
DC1
330
2
100
AcDbEntity
  8
0
100
AcDbLine
 10
280.0108861376404
 20
349.0301030761089
 30
0.0
 11
274.0056691763168
 21
351.5175453864819
 31
0.0
  0
LINE
  5
DC2
330
2
100
AcDbEntity
  8
0
100
AcDbLine
 10
254.6523953972271
 20
323.6716123356957
 30
0.0
 11
252.1649530868546
 21
329.6768292970198
 31
0.0
  0
LINE
  5
DC3
330
2
100
AcDbEntity
  8
0
100
AcDbLine
 10
254.6523953972271
 20
446.4641187776589
 30
0.0
 11
252.1649530868542
 21
440.4589018163355
 31
0.0
  0
LINE
  5
DC4
330
2
100
AcDbEntity
  8
0
100
AcDbLine
 10
280.0108861376404
 20
421.1056280372456
 30
0.0
 11
274.0056691763163
 21
418.6181857268733
 31
0.0
  0
LINE
  5
DC5
330
2
100
AcDbEntity
  8
0
100
AcDbLine
 10
157.2183796956771
 20
421.1056280372457
 30
0.0
 11
163.2235966570003
 21
418.6181857268726
 31
0.0
  0
LINE
  5
DC6
330
2
100
AcDbEntity
  8
0
100
AcDbLine
 10
182.5768704360905
 20
446.464118777659
 30
0.0
 11
185.0643127464629
 21
440.4589018163348
 31
0.0
  0
LINE
  5
DC7
330
2
100
AcDbEntity
  8
CENTER
 48
0.2
100
AcDbLine
 10
218.6146329170908
 20
332.099457612758
 30
0.0
 11
218.6146329170908
 21
338.0362735005963
 31
0.0
  0
CIRCLE
  5
DC8
330
2
100
AcDbEntity
  8
0
100
AcDbCircle
 10
218.6146329170908
 20
385.0678655571095
 30
0.0
 40
36.57735026918982
  0
CIRCLE
  5
DC9
330
2
100
AcDbEntity
  8
0
100
AcDbCircle
 10
218.6146329166588
 20
385.0678655566773
 30
0.0
 40
44.99999999956847
  0
ARC
  5
DCA
330
2
100
AcDbEntity
  8
0
100
AcDbCircle
 10
218.6146329166588
 20
657.5678655566774
 30
0.0
 40
340.0
100
AcDbArc
 50
265.8574811972686
 51
274.1425188027313
  0
ARC
  5
DCB
330
2
100
AcDbEntity
  8
0
100
AcDbCircle
 10
276.1146329166578
 20
327.5678655566772
 30
0.0
 40
10.0
100
AcDbArc
 50
270.0
 51
0.0
  0
LINE
  5
DCC
330
2
100
AcDbEntity
  8
0
100
AcDbLine
 10
276.1146329166578
 20
317.5678655566772
 30
0.0
 11
266.1146329166579
 21
317.5678655566772
 31
0.0
  0
ARC
  5
DCD
330
2
100
AcDbEntity
  8
0
100
AcDbCircle
 10
250.3991850575814
 20
218.7173873238274
 30
0.0
 40
100.0
100
AcDbArc
 50
81.63298947741269
 51
94.14251880273134
  0
LINE
  5
DCE
330
2
100
AcDbEntity
  8
0
100
AcDbLine
 10
286.1146329166588
 20
327.5678655566774
 30
0.0
 11
286.1146329166588
 21
337.5678655566774
 31
0.0
  0
ARC
  5
DCF
330
2
100
AcDbEntity
  8
0
100
AcDbCircle
 10
278.1146329166588
 20
337.5678655566774
 30
0.0
 40
8.0
100
AcDbArc
 50
0.0
 51
8.367010522602193
  0
ARC
  5
DD0
330
2
100
AcDbEntity
  8
0
100
AcDbCircle
 10
384.9651111495088
 20
353.2833134157539
 30
0.0
 40
100.0
100
AcDbArc
 50
175.8574811972767
 51
188.3670105226022
  0
ARC
  5
DD1
330
2
100
AcDbEntity
  8
0
100
AcDbCircle
 10
171.1146329166588
 20
325.5678655566772
 30
0.0
 40
8.0
100
AcDbArc
 50
270.0
 51
278.3670105225872
  0
ARC
  5
DD2
330
2
100
AcDbEntity
  8
0
100
AcDbCircle
 10
186.8300807757352
 20
218.7173873238274
 30
0.0
 40
100.0
100
AcDbArc
 50
85.85748119726863
 51
98.3670105225873
  0
LINE
  5
DD3
330
2
100
AcDbEntity
  8
0
100
AcDbLine
 10
161.7246329166048
 20
317.5678655571335
 30
0.0
 11
171.1146329166588
 21
317.5678655566772
 31
0.0
  0
ARC
  5
DD4
330
2
100
AcDbEntity
  8
0
100
AcDbCircle
 10
276.1146329166578
 20
442.5678655566772
 30
0.0
 40
10.0
100
AcDbArc
 50
0.0
 51
90.0
  0
LINE
  5
DD5
330
2
100
AcDbEntity
  8
0
100
AcDbLine
 10
276.1146329166578
 20
452.5678655566773
 30
0.0
 11
266.1146329166579
 21
452.5678655566773
 31
0.0
  0
ARC
  5
DD6
330
2
100
AcDbEntity
  8
0
100
AcDbCircle
 10
266.1146329166579
 20
444.5678655566773
 30
0.0
 40
8.0
100
AcDbArc
 50
90.0
 51
98.3670105225873
  0
ARC
  5
DD7
330
2
100
AcDbEntity
  8
0
100
AcDbCircle
 10
250.3991850575814
 20
551.4183437895269
 30
0.0
 40
100.0
100
AcDbArc
 50
265.8574811972686
 51
278.3670105225872
  0
LINE
  5
DD8
330
2
100
AcDbEntity
  8
0
100
AcDbLine
 10
286.1146329166588
 20
442.5678655566768
 30
0.0
 11
286.1146329166588
 21
432.5678655566768
 31
0.0
  0
ARC
  5
DD9
330
2
100
AcDbEntity
  8
0
100
AcDbCircle
 10
278.1146329166588
 20
432.5678655566768
 30
0.0
 40
8.0
100
AcDbArc
 50
351.6329894774043
 51
0.0
  0
ARC
  5
DDA
330
2
100
AcDbEntity
  8
0
100
AcDbCircle
 10
384.9651111495088
 20
416.8524176976004
 30
0.0
 40
100.0
100
AcDbArc
 50
171.6329894773977
 51
184.1425188027296
  0
ARC
  5
DDB
330
2
100
AcDbEntity
  8
0
100
AcDbCircle
 10
171.1146329166588
 20
444.5678655566773
 30
0.0
 40
8.0
100
AcDbArc
 50
81.63298947741269
 51
90.0
  0
ARC
  5
DDC
330
2
100
AcDbEntity
  8
0
100
AcDbCircle
 10
186.8300807757352
 20
551.4183437895269
 30
0.0
 40
100.0
100
AcDbArc
 50
261.6329894774127
 51
274.1425188027313
  0
LINE
  5
DDD
330
2
100
AcDbEntity
  8
0
100
AcDbLine
 10
161.7246329170909
 20
452.5678655566773
 30
0.0
 11
171.1146329166588
 21
452.5678655566773
 31
0.0
  0
ARC
  5
DDE
330
2
100
AcDbEntity
  8
0
100
AcDbCircle
 10
218.6146329166588
 20
112.5678655566773
 30
0.0
 40
340.0
100
AcDbArc
 50
85.85748119726863
 51
94.14251880273134
  0
ARC
  5
DDF
330
2
100
AcDbEntity
  8
0
100
AcDbCircle
 10
-53.88536708334118
 20
385.0678655566773
 30
0.0
 40
340.0
100
AcDbArc
 50
355.8574811972767
 51
4.14251880271665
  0
ARC
  5
DE0
330
2
100
AcDbEntity
  8
0
100
AcDbCircle
 10
266.1146329166588
 20
325.5678655566772
 30
0.0
 40
8.0
100
AcDbArc
 50
261.63298947736
 51
270.0
  0
LINE
  5
DE1
330
2
100
AcDbEntity
  8
0
100
AcDbLine
 10
161.4244367240955
 20
317.5678655566773
 30
0.0
 11
161.7246329166048
 21
317.5678655571335
 31
0.0
  0
LINE
  5
DE2
330
2
100
AcDbEntity
  8
0
100
AcDbLine
 10
161.4244367240955
 20
452.5678655566775
 30
0.0
 11
161.7246329170909
 21
452.5678655566773
 31
0.0
  0
LINE
  5
DE3
330
2
100
AcDbEntity
  8
0
100
AcDbLine
 10
846.4147263073476
 20
827.496074915588
 30
0.0
 11
846.4846935603166
 21
819.4786218445912
 31
0.0
  0
ARC
  5
DE4
330
2
100
AcDbEntity
  8
0
100
AcDbCircle
 10
844.4148024612193
 20
827.478621844591
 30
0.0
 40
2.0
100
AcDbArc
 50
0.499999999998063
 51
90.0
  0
LINE
  5
DE5
330
2
100
AcDbEntity
  8
0
100
AcDbLine
 10
779.5946935603167
 20
844.4786218445862
 30
0.0
 11
821.517343291129
 21
844.4786218445861
 31
0.0
  0
ARC
  5
DE6
330
2
100
AcDbEntity
  8
0
 48
0.5
100
AcDbCircle
 10
821.7946935603166
 20
842.2786218445905
 30
0.0
 40
0.3
100
AcDbArc
 50
270.0
 51
0.0000000000065138
  0
ARC
  5
DE7
330
2
100
AcDbEntity
  8
0
100
AcDbCircle
 10
821.6946935603166
 20
841.6786218445906
 30
0.0
 40
0.3
100
AcDbArc
 50
90.0
 51
180.0000000000065
  0
LINE
  5
DE8
330
2
100
AcDbEntity
  8
0
100
AcDbLine
 10
824.0946935603167
 20
836.4786218445907
 30
0.0
 11
822.0946935603167
 21
836.4786218445907
 31
0.0
  0
LINE
  5
DE9
330
2
100
AcDbEntity
  8
0
 48
0.5
100
AcDbLine
 10
822.0946935603167
 20
839.7786218445906
 30
0.0
 11
822.0946935603167
 21
836.4786218445907
 31
0.0
  0
LINE
  5
DEA
330
2
100
AcDbEntity
  8
0
 48
0.5
100
AcDbLine
 10
821.394693560317
 20
841.6786218445906
 30
0.0
 11
821.394693560317
 21
840.2786218445905
 31
0.0
  0
LINE
  5
DEB
330
2
100
AcDbEntity
  8
0
 48
0.5
100
AcDbLine
 10
821.8946935603169
 20
839.9786218445907
 30
0.0
 11
822.0946935603167
 21
839.7786218445906
 31
0.0
  0
LINE
  5
DEC
330
2
100
AcDbEntity
  8
0
100
AcDbLine
 10
821.8946935603169
 20
839.9786218445907
 30
0.0
 11
737.2946935603165
 21
839.97862184459
 31
0.0
  0
ARC
  5
DED
330
2
100
AcDbEntity
  8
0
100
AcDbCircle
 10
821.6946935603171
 20
840.2786218445905
 30
0.0
 40
0.3
100
AcDbArc
 50
180.0
 51
270.0
  0
ARC
  5
DEE
330
2
100
AcDbEntity
  8
HIDS
  6
SEKKEI_H
100
AcDbCircle
 10
834.7662664355695
 20
833.9786218445961
 30
0.0
 40
2.0
100
AcDbArc
 50
44.99999999999242
 51
90.0
  0
ARC
  5
DEF
330
2
100
AcDbEntity
  8
HIDS
  6
SEKKEI_H
100
AcDbCircle
 10
842.9231206850628
 20
831.4786218445913
 30
0.0
 40
2.0
100
AcDbArc
 50
224.9999999999924
 51
270.0
  0
LINE
  5
DF0
330
2
100
AcDbEntity
  8
HIDS
  6
SEKKEI_H
100
AcDbLine
 10
841.5089071226899
 20
830.0644082822183
 30
0.0
 11
836.1804799979402
 21
835.3928354069669
 31
0.0
  0
LINE
  5
DF1
330
2
100
AcDbEntity
  8
0
 48
0.5
100
AcDbLine
 10
824.5946935603168
 20
835.9786218445908
 30
0.0
 11
824.0946935603167
 21
836.4786218445907
 31
0.0
  0
LINE
  5
DF2
330
2
100
AcDbEntity
  8
0
100
AcDbLine
 10
830.5946935603166
 20
835.9786218445911
 30
0.0
 11
824.5946935603171
 21
835.9786218445904
 31
0.0
  0
LINE
  5
DF3
330
2
100
AcDbEntity
  8
0
100
AcDbLine
 10
822.0946935603167
 20
843.4786218445905
 30
0.0
 11
821.5173432911267
 21
844.4786218445907
 31
0.0
  0
LINE
  5
DF4
330
2
100
AcDbEntity
  8
0
 48
0.5
100
AcDbLine
 10
822.0946935603167
 20
843.4786218445905
 30
0.0
 11
822.0946935603167
 21
842.2786218445905
 31
0.0
  0
LINE
  5
DF5
330
2
100
AcDbEntity
  8
0
100
AcDbLine
 10
821.7946935603166
 20
841.9786218445906
 30
0.0
 11
737.3946935603164
 21
841.9786218445899
 31
0.0
  0
LINE
  5
DF6
330
2
100
AcDbEntity
  8
0
100
AcDbLine
 10
779.5946935603167
 20
844.4786218445862
 30
0.0
 11
737.6720438295039
 21
844.4786218445853
 31
0.0
  0
LINE
  5
DF7
330
2
100
AcDbEntity
  8
0
 48
0.5
100
AcDbLine
 10
712.1646608132857
 20
827.4960749155868
 30
0.0
 11
712.0946935603167
 21
819.4786218445901
 31
0.0
  0
LINE
  5
DF8
330
2
100
AcDbEntity
  8
0
100
AcDbLine
 10
714.1645846594144
 20
829.4786218445901
 30
0.0
 11
844.4148024612193
 21
829.478621844591
 31
0.0
  0
ARC
  5
DF9
330
2
100
AcDbEntity
  8
0
100
AcDbCircle
 10
714.1645846594144
 20
827.4786218445902
 30
0.0
 40
2.0
100
AcDbArc
 50
90.0
 51
179.4999999999954
  0
ARC
  5
DFA
330
2
100
AcDbEntity
  8
0
 48
0.5
100
AcDbCircle
 10
737.3946935603164
 20
842.2786218445899
 30
0.0
 40
0.3
100
AcDbArc
 50
179.9999999999934
 51
270.0
  0
ARC
  5
DFB
330
2
100
AcDbEntity
  8
0
100
AcDbCircle
 10
737.4946935603163
 20
841.6786218445899
 30
0.0
 40
0.3
100
AcDbArc
 50
359.9999999999934
 51
90.0
  0
LINE
  5
DFC
330
2
100
AcDbEntity
  8
0
100
AcDbLine
 10
735.0946935603162
 20
836.47862184459
 30
0.0
 11
737.0946935603162
 21
836.47862184459
 31
0.0
  0
LINE
  5
DFD
330
2
100
AcDbEntity
  8
0
 48
0.5
100
AcDbLine
 10
737.0946935603158
 20
839.7786218445899
 30
0.0
 11
737.0946935603162
 21
836.47862184459
 31
0.0
  0
LINE
  5
DFE
330
2
100
AcDbEntity
  8
0
 48
0.5
100
AcDbLine
 10
737.7946935603165
 20
841.6786218445899
 30
0.0
 11
737.7946935603165
 21
840.2786218445898
 31
0.0
  0
LINE
  5
DFF
330
2
100
AcDbEntity
  8
0
 48
0.5
100
AcDbLine
 10
737.2946935603165
 20
839.97862184459
 30
0.0
 11
737.0946935603158
 21
839.7786218445899
 31
0.0
  0
ARC
  5
E00
330
2
100
AcDbEntity
  8
0
100
AcDbCircle
 10
737.4946935603163
 20
840.2786218445898
 30
0.0
 40
0.3
100
AcDbArc
 50
270.0
 51
0.0
  0
ARC
  5
E01
330
2
100
AcDbEntity
  8
HIDS
  6
SEKKEI_H
100
AcDbCircle
 10
724.4231206850634
 20
833.9786218445951
 30
0.0
 40
2.0
100
AcDbArc
 50
90.0
 51
135.0000000000075
  0
ARC
  5
E02
330
2
100
AcDbEntity
  8
HIDS
  6
SEKKEI_H
100
AcDbCircle
 10
716.26626643557
 20
831.4786218445901
 30
0.0
 40
2.0
100
AcDbArc
 50
270.0
 51
315.0000000000075
  0
LINE
  5
E03
330
2
100
AcDbEntity
  8
HIDS
  6
SEKKEI_H
100
AcDbLine
 10
717.6804799979434
 20
830.064408282217
 30
0.0
 11
723.0089071226927
 21
835.392835406966
 31
0.0
  0
LINE
  5
E04
330
2
100
AcDbEntity
  8
0
 48
0.5
100
AcDbLine
 10
734.5946935603162
 20
835.9786218445901
 30
0.0
 11
735.0946935603162
 21
836.47862184459
 31
0.0
  0
LINE
  5
E05
330
2
100
AcDbEntity
  8
0
100
AcDbLine
 10
728.5946935603167
 20
835.9786218445901
 30
0.0
 11
734.5946935603158
 21
835.9786218445897
 31
0.0
  0
LINE
  5
E06
330
2
100
AcDbEntity
  8
0
100
AcDbLine
 10
737.0946935603167
 20
843.47862184459
 30
0.0
 11
737.6720438295067
 21
844.47862184459
 31
0.0
  0
LINE
  5
E07
330
2
100
AcDbEntity
  8
0
 48
0.5
100
AcDbLine
 10
737.0946935603167
 20
843.47862184459
 30
0.0
 11
737.0946935603167
 21
842.2786218445899
 31
0.0
  0
LINE
  5
E08
330
2
100
AcDbEntity
  8
0
100
AcDbLine
 10
822.0946935603167
 20
843.4786218445905
 30
0.0
 11
737.0946935603167
 21
843.47862184459
 31
0.0
  0
LINE
  5
E09
330
2
100
AcDbEntity
  8
0
100
AcDbLine
 10
737.0946935603158
 20
839.7786218445899
 30
0.0
 11
822.0946935603167
 21
839.7786218445906
 31
0.0
  0
LINE
  5
E0A
330
2
100
AcDbEntity
  8
0
100
AcDbLine
 10
822.0946935603167
 20
836.4786218445907
 30
0.0
 11
737.0946935603162
 21
836.47862184459
 31
0.0
  0
LINE
  5
E0B
330
2
100
AcDbEntity
  8
0
100
AcDbLine
 10
734.5946935603158
 20
835.9786218445897
 30
0.0
 11
824.5946935603171
 21
835.9786218445904
 31
0.0
  0
LINE
  5
E0C
330
2
100
AcDbEntity
  8
0
100
AcDbLine
 10
846.4846935603166
 20
819.4786218445912
 30
0.0
 11
712.0946935603167
 21
819.4786218445901
 31
0.0
  0
LINE
  5
E0D
330
2
100
AcDbEntity
  8
0
100
AcDbLine
 10
827.0946935603163
 20
819.4786218445933
 30
0.0
 11
827.0946935603157
 21
827.9786218445911
 31
0.0
  0
LINE
  5
E0E
330
2
100
AcDbEntity
  8
0
100
AcDbLine
 10
804.1554838510299
 20
819.4786218445923
 30
0.0
 11
804.1554838510299
 21
827.9786218445908
 31
0.0
  0
LINE
  5
E0F
330
2
100
AcDbEntity
  8
0
100
AcDbLine
 10
837.0946935607488
 20
819.4786218445941
 30
0.0
 11
837.0946935607488
 21
827.9786218445911
 31
0.0
  0
LINE
  5
E10
330
2
100
AcDbEntity
  8
0
100
AcDbLine
 10
732.0946935603172
 20
819.4786218445878
 30
0.0
 11
732.0946935603172
 21
827.9786218445902
 31
0.0
  0
LINE
  5
E11
330
2
100
AcDbEntity
  8
0
100
AcDbLine
 10
755.0339032696036
 20
819.4786218445893
 30
0.0
 11
755.0339032696036
 21
827.9786218445904
 31
0.0
  0
LINE
  5
E12
330
2
100
AcDbEntity
  8
0
100
AcDbLine
 10
722.0946935598846
 20
819.4786218445875
 30
0.0
 11
722.0946935598846
 21
827.9786218445902
 31
0.0
  0
LINE
  5
E1F
330
2
100
AcDbEntity
  8
0
 48
0.3
100
AcDbLine
 10
403.0202955304164
 20
334.0678655566772
 30
0.0
 11
403.0202955304169
 21
321.0678655566773
 31
0.0
  0
LINE
  5
E20
330
2
100
AcDbEntity
  8
0
 48
0.3
100
AcDbLine
 10
402.5202955304164
 20
333.2018401528914
 30
0.0
 11
402.5202955304169
 21
321.9338909604618
 31
0.0
  0
LINE
  5
E21
330
2
100
AcDbEntity
  8
CENTER
 48
0.5
100
AcDbLine
 10
399.5202955304169
 20
327.5678655566772
 30
0.0
 11
418.5202955304168
 21
327.5678655566772
 31
0.0
  0
LINE
  5
E22
330
2
100
AcDbEntity
  8
0
 48
0.3
100
AcDbLine
 10
403.0202955304169
 20
321.0678655566773
 30
0.0
 11
402.5202955304169
 21
321.9338909604618
 31
0.0
  0
LINE
  5
E23
330
2
100
AcDbEntity
  8
0
 48
0.3
100
AcDbLine
 10
403.0202955304169
 20
321.0678655566773
 30
0.0
 11
410.5202955304169
 21
321.0678655566773
 31
0.0
  0
LINE
  5
E24
330
2
100
AcDbEntity
  8
0
 48
0.3
100
AcDbLine
 10
403.0202955304173
 20
334.0678655566768
 30
0.0
 11
402.5202955304173
 21
333.2018401528925
 31
0.0
  0
LINE
  5
E25
330
2
100
AcDbEntity
  8
0
 48
0.3
100
AcDbLine
 10
403.0202955304173
 20
334.0678655566772
 30
0.0
 11
410.5202955304164
 21
334.0678655566772
 31
0.0
  0
LINE
  5
E26
330
2
100
AcDbEntity
  8
0
 48
0.3
100
AcDbLine
 10
403.0202955304164
 20
449.0678655566773
 30
0.0
 11
403.0202955304164
 21
436.0678655566773
 31
0.0
  0
LINE
  5
E27
330
2
100
AcDbEntity
  8
0
 48
0.3
100
AcDbLine
 10
402.5202955304164
 20
448.2018401528914
 30
0.0
 11
402.5202955304164
 21
436.9338909604618
 31
0.0
  0
LINE
  5
E28
330
2
100
AcDbEntity
  8
CENTER
 48
0.5
100
AcDbLine
 10
399.5202955304164
 20
442.5678655566772
 30
0.0
 11
418.5202955304164
 21
442.5678655566772
 31
0.0
  0
LINE
  5
E29
330
2
100
AcDbEntity
  8
0
 48
0.3
100
AcDbLine
 10
403.0202955304164
 20
436.0678655566773
 30
0.0
 11
402.5202955304164
 21
436.9338909604618
 31
0.0
  0
LINE
  5
E2A
330
2
100
AcDbEntity
  8
0
 48
0.3
100
AcDbLine
 10
403.0202955304164
 20
436.0678655566773
 30
0.0
 11
410.5202955304164
 21
436.0678655566773
 31
0.0
  0
LINE
  5
E2B
330
2
100
AcDbEntity
  8
0
 48
0.3
100
AcDbLine
 10
403.0202955304169
 20
449.0678655566768
 30
0.0
 11
402.5202955304169
 21
448.2018401528925
 31
0.0
  0
LINE
  5
E2C
330
2
100
AcDbEntity
  8
0
 48
0.3
100
AcDbLine
 10
403.0202955304173
 20
449.0678655566773
 30
0.0
 11
410.5202955304164
 21
449.0678655566773
 31
0.0
  0
LINE
  5
E2D
330
2
100
AcDbEntity
  8
0
 48
0.3
100
AcDbLine
 10
728.5946935603167
 20
838.9786218445903
 30
0.0
 11
715.5946935603167
 21
838.9786218445902
 31
0.0
  0
LINE
  5
E2E
330
2
100
AcDbEntity
  8
0
 48
0.3
100
AcDbLine
 10
727.7286681565308
 20
839.4786218445904
 30
0.0
 11
716.4607189641012
 21
839.4786218445901
 31
0.0
  0
LINE
  5
E2F
330
2
100
AcDbEntity
  8
CENTER
 48
0.5
100
AcDbLine
 10
722.0946935603167
 20
842.4786218445902
 30
0.0
 11
722.0946935603167
 21
823.4786218445901
 31
0.0
  0
LINE
  5
E30
330
2
100
AcDbEntity
  8
0
 48
0.3
100
AcDbLine
 10
715.5946935603167
 20
838.9786218445902
 30
0.0
 11
716.4607189641012
 21
839.4786218445901
 31
0.0
  0
LINE
  5
E31
330
2
100
AcDbEntity
  8
0
 48
0.3
100
AcDbLine
 10
715.5946935603167
 20
838.9786218445902
 30
0.0
 11
715.5946935603167
 21
831.4786218445901
 31
0.0
  0
LINE
  5
E32
330
2
100
AcDbEntity
  8
0
 48
0.3
100
AcDbLine
 10
728.5946935603162
 20
838.9786218445896
 30
0.0
 11
727.7286681565317
 21
839.4786218445897
 31
0.0
  0
LINE
  5
E33
330
2
100
AcDbEntity
  8
0
 48
0.3
100
AcDbLine
 10
728.5946935603167
 20
838.9786218445895
 30
0.0
 11
728.5946935603167
 21
831.4786218445904
 31
0.0
  0
LINE
  5
E34
330
2
100
AcDbEntity
  8
0
 48
0.3
100
AcDbLine
 10
843.5946935603167
 20
838.9786218445911
 30
0.0
 11
830.5946935603166
 21
838.9786218445909
 31
0.0
  0
LINE
  5
E35
330
2
100
AcDbEntity
  8
0
 48
0.3
100
AcDbLine
 10
842.7286681565307
 20
839.4786218445911
 30
0.0
 11
831.4607189641012
 21
839.4786218445908
 31
0.0
  0
LINE
  5
E36
330
2
100
AcDbEntity
  8
CENTER
 48
0.5
100
AcDbLine
 10
837.0946935603168
 20
842.4786218445911
 30
0.0
 11
837.0946935603168
 21
823.4786218445911
 31
0.0
  0
LINE
  5
E37
330
2
100
AcDbEntity
  8
0
 48
0.3
100
AcDbLine
 10
830.5946935603166
 20
838.9786218445909
 30
0.0
 11
831.4607189641012
 21
839.4786218445908
 31
0.0
  0
LINE
  5
E38
330
2
100
AcDbEntity
  8
0
 48
0.3
100
AcDbLine
 10
830.5946935603166
 20
838.9786218445909
 30
0.0
 11
830.5946935603166
 21
831.4786218445908
 31
0.0
  0
LINE
  5
E39
330
2
100
AcDbEntity
  8
0
 48
0.3
100
AcDbLine
 10
843.5946935603162
 20
838.9786218445903
 30
0.0
 11
842.7286681565316
 21
839.4786218445906
 31
0.0
  0
LINE
  5
E3A
330
2
100
AcDbEntity
  8
0
 48
0.3
100
AcDbLine
 10
843.5946935603167
 20
838.9786218445902
 30
0.0
 11
843.5946935603167
 21
831.4786218445911
 31
0.0
  0
LINE
  5
E3B
330
2
100
AcDbEntity
  8
0
100
AcDbLine
 10
276.1146329170908
 20
439.1037639419717
 30
0.0
 11
279.1146329170903
 21
440.8358147495406
 31
0.0
  0
LINE
  5
E3C
330
2
100
AcDbEntity
  8
0
100
AcDbLine
 10
273.1146329170908
 20
444.2999163646782
 30
0.0
 11
276.1146329170908
 21
446.0319671722472
 31
0.0
  0
CIRCLE
  5
E3D
330
2
100
AcDbEntity
  8
0
100
AcDbCircle
 10
276.1146329170908
 20
442.5678655571094
 30
0.0
 40
6.5
  0
LINE
  5
E3E
330
2
100
AcDbEntity
  8
0
100
AcDbLine
 10
279.1146329170903
 20
444.2999163646782
 30
0.0
 11
276.1146329170908
 21
446.0319671722471
 31
0.0
  0
LINE
  5
E3F
330
2
100
AcDbEntity
  8
0
100
AcDbLine
 10
276.1146329170908
 20
439.1037639419718
 30
0.0
 11
273.1146329170908
 21
440.8358147495405
 31
0.0
  0
LINE
  5
E40
330
2
100
AcDbEntity
  8
0
100
AcDbLine
 10
279.1146329170903
 20
440.8358147495408
 30
0.0
 11
279.1146329170903
 21
444.2999163646783
 31
0.0
  0
LINE
  5
E41
330
2
100
AcDbEntity
  8
0
100
AcDbLine
 10
273.1146329170908
 20
440.8358147495404
 30
0.0
 11
273.1146329170908
 21
444.2999163646782
 31
0.0
  0
CIRCLE
  5
E42
330
2
100
AcDbEntity
  8
0
100
AcDbCircle
 10
276.1146329170908
 20
442.5678655571094
 30
0.0
 40
5.633974596215466
  0
LINE
  5
E43
330
2
100
AcDbEntity
  8
0
100
AcDbLine
 10
161.1146329170912
 20
439.1037639419717
 30
0.0
 11
164.1146329170912
 21
440.8358147495406
 31
0.0
  0
LINE
  5
E44
330
2
100
AcDbEntity
  8
0
100
AcDbLine
 10
158.1146329170912
 20
444.2999163646782
 30
0.0
 11
161.1146329170912
 21
446.0319671722472
 31
0.0
  0
CIRCLE
  5
E45
330
2
100
AcDbEntity
  8
0
100
AcDbCircle
 10
161.1146329170912
 20
442.5678655571094
 30
0.0
 40
6.5
  0
LINE
  5
E46
330
2
100
AcDbEntity
  8
0
100
AcDbLine
 10
164.1146329170912
 20
444.2999163646782
 30
0.0
 11
161.1146329170912
 21
446.0319671722471
 31
0.0
  0
LINE
  5
E47
330
2
100
AcDbEntity
  8
0
100
AcDbLine
 10
161.1146329170912
 20
439.1037639419718
 30
0.0
 11
158.1146329170912
 21
440.8358147495405
 31
0.0
  0
LINE
  5
E48
330
2
100
AcDbEntity
  8
0
100
AcDbLine
 10
164.1146329170912
 20
440.8358147495408
 30
0.0
 11
164.1146329170912
 21
444.2999163646783
 31
0.0
  0
LINE
  5
E49
330
2
100
AcDbEntity
  8
0
100
AcDbLine
 10
158.1146329170912
 20
440.8358147495404
 30
0.0
 11
158.1146329170912
 21
444.2999163646782
 31
0.0
  0
CIRCLE
  5
E4A
330
2
100
AcDbEntity
  8
0
100
AcDbCircle
 10
161.1146329170912
 20
442.5678655571094
 30
0.0
 40
5.633974596215466
  0
LINE
  5
E4B
330
2
100
AcDbEntity
  8
0
100
AcDbLine
 10
161.1146329170912
 20
324.1037639419715
 30
0.0
 11
164.1146329170912
 21
325.8358147495405
 31
0.0
  0
LINE
  5
E4C
330
2
100
AcDbEntity
  8
0
100
AcDbLine
 10
158.1146329170912
 20
329.2999163646781
 30
0.0
 11
161.1146329170912
 21
331.031967172247
 31
0.0
  0
CIRCLE
  5
E4D
330
2
100
AcDbEntity
  8
0
100
AcDbCircle
 10
161.1146329170912
 20
327.5678655571092
 30
0.0
 40
6.5
  0
LINE
  5
E4E
330
2
100
AcDbEntity
  8
0
100
AcDbLine
 10
164.1146329170912
 20
329.2999163646781
 30
0.0
 11
161.1146329170912
 21
331.0319671722469
 31
0.0
  0
LINE
  5
E4F
330
2
100
AcDbEntity
  8
0
100
AcDbLine
 10
161.1146329170912
 20
324.1037639419717
 30
0.0
 11
158.1146329170912
 21
325.8358147495404
 31
0.0
  0
LINE
  5
E50
330
2
100
AcDbEntity
  8
0
100
AcDbLine
 10
164.1146329170912
 20
325.8358147495406
 30
0.0
 11
164.1146329170912
 21
329.2999163646782
 31
0.0
  0
LINE
  5
E51
330
2
100
AcDbEntity
  8
0
100
AcDbLine
 10
158.1146329170912
 20
325.8358147495403
 30
0.0
 11
158.1146329170912
 21
329.2999163646781
 31
0.0
  0
CIRCLE
  5
E52
330
2
100
AcDbEntity
  8
0
100
AcDbCircle
 10
161.1146329170912
 20
327.5678655571092
 30
0.0
 40
5.633974596215466
  0
LINE
  5
E53
330
2
100
AcDbEntity
  8
0
100
AcDbLine
 10
276.1146329170908
 20
324.1037639419715
 30
0.0
 11
279.1146329170903
 21
325.8358147495405
 31
0.0
  0
LINE
  5
E54
330
2
100
AcDbEntity
  8
0
100
AcDbLine
 10
273.1146329170908
 20
329.2999163646781
 30
0.0
 11
276.1146329170908
 21
331.031967172247
 31
0.0
  0
CIRCLE
  5
E55
330
2
100
AcDbEntity
  8
0
100
AcDbCircle
 10
276.1146329170908
 20
327.5678655571092
 30
0.0
 40
6.5
  0
LINE
  5
E56
330
2
100
AcDbEntity
  8
0
100
AcDbLine
 10
279.1146329170903
 20
329.2999163646781
 30
0.0
 11
276.1146329170908
 21
331.0319671722469
 31
0.0
  0
LINE
  5
E57
330
2
100
AcDbEntity
  8
0
100
AcDbLine
 10
276.1146329170908
 20
324.1037639419717
 30
0.0
 11
273.1146329170908
 21
325.8358147495404
 31
0.0
  0
LINE
  5
E58
330
2
100
AcDbEntity
  8
0
100
AcDbLine
 10
279.1146329170903
 20
325.8358147495406
 30
0.0
 11
279.1146329170903
 21
329.2999163646782
 31
0.0
  0
LINE
  5
E59
330
2
100
AcDbEntity
  8
0
100
AcDbLine
 10
273.1146329170908
 20
325.8358147495403
 30
0.0
 11
273.1146329170908
 21
329.2999163646781
 31
0.0
  0
CIRCLE
  5
E5A
330
2
100
AcDbEntity
  8
0
100
AcDbCircle
 10
276.1146329170908
 20
327.5678655571092
 30
0.0
 40
5.633974596215466
  0
LINE
  5
E5B
330
2
100
AcDbEntity
  8
HIDS
  6
SEKKEI_H
100
AcDbLine
 10
406.0202955304114
 20
440.23943843193
 30
0.0
 11
406.0202955304164
 21
436.0678655566773
 31
0.0
  0
LINE
  5
E5C
330
2
100
AcDbEntity
  8
HIDS
  6
SEKKEI_H
100
AcDbLine
 10
406.0202955304118
 20
329.8962926814245
 30
0.0
 11
406.0202955304168
 21
334.0678655566772
 31
0.0
  0
ARC
  5
E5D
330
2
100
AcDbEntity
  8
HIDS
  6
SEKKEI_H
100
AcDbCircle
 10
407.5202955304123
 20
435.150851673815
 30
0.0
 40
10.00000000000001
100
AcDbArc
 50
90.47745377731077
 51
119.9999999999698
  0
ARC
  5
E5E
330
2
100
AcDbEntity
  8
HIDS
  6
SEKKEI_H
100
AcDbCircle
 10
407.5202955304123
 20
334.9848794395394
 30
0.0
 40
10.00000000000001
100
AcDbArc
 50
240.00000000003
 51
269.5225462226892
  0
LINE
  5
E5F
330
2
100
AcDbEntity
  8
HIDS
  6
SEKKEI_H
100
AcDbLine
 10
728.5946935603167
 20
835.9786218445901
 30
0.0
 11
724.4231206850638
 21
835.9786218445952
 31
0.0
  0
LINE
  5
E60
330
2
100
AcDbEntity
  8
HIDS
  6
SEKKEI_H
100
AcDbLine
 10
830.5946935603166
 20
835.9786218445911
 30
0.0
 11
834.7662664355691
 21
835.9786218445961
 31
0.0
  0
CIRCLE
  5
E61
330
2
100
AcDbEntity
  8
0
100
AcDbCircle
 10
276.1146329170908
 20
327.5678655571092
 30
0.0
 40
7.25
  0
CIRCLE
  5
E62
330
2
100
AcDbEntity
  8
0
100
AcDbCircle
 10
276.1146329170908
 20
442.5678655571094
 30
0.0
 40
7.25
  0
CIRCLE
  5
E63
330
2
100
AcDbEntity
  8
0
100
AcDbCircle
 10
161.1146329170912
 20
442.5678655571095
 30
0.0
 40
7.25
  0
CIRCLE
  5
E64
330
2
100
AcDbEntity
  8
0
100
AcDbCircle
 10
161.1146329170912
 20
327.5678655571092
 30
0.0
 40
7.25
  0
LINE
  5
E65
330
2
100
AcDbEntity
  8
0
 48
0.3
100
AcDbLine
 10
410.5202955304164
 20
449.8178655566773
 30
0.0
 11
410.5202955304164
 21
435.3178655566773
 31
0.0
  0
LINE
  5
E66
330
2
100
AcDbEntity
  8
0
 48
0.3
100
AcDbLine
 10
410.5202955304164
 20
435.3178655566773
 30
0.0
 11
412.5202955304164
 21
435.3178655566773
 31
0.0
  0
LINE
  5
E67
330
2
100
AcDbEntity
  8
0
 48
0.3
100
AcDbLine
 10
410.5202955304164
 20
449.8178655566773
 30
0.0
 11
412.5202955304164
 21
449.8178655566773
 31
0.0
  0
LINE
  5
E68
330
2
100
AcDbEntity
  8
0
100
AcDbLine
 10
412.5202955304164
 20
449.8178655566773
 30
0.0
 11
412.5202955304164
 21
435.3178655566773
 31
0.0
  0
LINE
  5
E69
330
2
100
AcDbEntity
  8
0
 48
0.3
100
AcDbLine
 10
410.5202955304169
 20
334.8178655566773
 30
0.0
 11
410.5202955304169
 21
320.3178655566773
 31
0.0
  0
LINE
  5
E6A
330
2
100
AcDbEntity
  8
0
 48
0.3
100
AcDbLine
 10
410.5202955304169
 20
320.3178655566773
 30
0.0
 11
412.5202955304168
 21
320.3178655566773
 31
0.0
  0
LINE
  5
E6B
330
2
100
AcDbEntity
  8
0
 48
0.3
100
AcDbLine
 10
410.5202955304169
 20
334.8178655566773
 30
0.0
 11
412.5202955304168
 21
334.8178655566773
 31
0.0
  0
LINE
  5
E6C
330
2
100
AcDbEntity
  8
0
100
AcDbLine
 10
412.5202955304168
 20
334.8178655566773
 30
0.0
 11
412.5202955304168
 21
320.3178655566773
 31
0.0
  0
LINE
  5
E6D
330
2
100
AcDbEntity
  8
0
 48
0.3
100
AcDbLine
 10
729.3446935603167
 20
831.4786218445901
 30
0.0
 11
714.8446935603167
 21
831.4786218445901
 31
0.0
  0
LINE
  5
E6E
330
2
100
AcDbEntity
  8
0
 48
0.3
100
AcDbLine
 10
714.8446935603167
 20
831.4786218445901
 30
0.0
 11
714.8446935603167
 21
829.4786218445901
 31
0.0
  0
LINE
  5
E6F
330
2
100
AcDbEntity
  8
0
 48
0.3
100
AcDbLine
 10
729.3446935603167
 20
831.4786218445904
 30
0.0
 11
729.3446935603167
 21
829.4786218445903
 31
0.0
  0
LINE
  5
E70
330
2
100
AcDbEntity
  8
0
100
AcDbLine
 10
729.3446935603167
 20
829.4786218445903
 30
0.0
 11
714.8446935603167
 21
829.4786218445901
 31
0.0
  0
LINE
  5
E71
330
2
100
AcDbEntity
  8
0
 48
0.3
100
AcDbLine
 10
844.3446935603168
 20
831.4786218445911
 30
0.0
 11
829.8446935603166
 21
831.4786218445911
 31
0.0
  0
LINE
  5
E72
330
2
100
AcDbEntity
  8
0
 48
0.3
100
AcDbLine
 10
829.8446935603166
 20
831.4786218445911
 30
0.0
 11
829.8446935603166
 21
829.4786218445908
 31
0.0
  0
LINE
  5
E73
330
2
100
AcDbEntity
  8
0
 48
0.3
100
AcDbLine
 10
844.3446935603168
 20
831.4786218445911
 30
0.0
 11
844.3446935603168
 21
829.478621844591
 31
0.0
  0
LINE
  5
E74
330
2
100
AcDbEntity
  8
0
100
AcDbLine
 10
844.3446935603168
 20
829.478621844591
 30
0.0
 11
829.8446935603166
 21
829.478621844591
 31
0.0
  0
LINE
  5
E83
330
2
100
AcDbEntity
  8
0
 48
0.5
100
AcDbLine
 10
422.52029553042
 20
317.5722289905735
 30
0.0
 11
524.5202955304123
 21
318.4623695052288
 31
0.0
  0
LINE
  5
E84
330
2
100
AcDbEntity
  8
0
 48
0.5
100
AcDbLine
 10
422.52029553042
 20
452.563502122781
 30
0.0
 11
524.520295530405
 21
451.6733616081258
 31
0.0
  0
LINE
  5
E8C
330
2
100
AcDbEntity
  8
0
100
AcDbLine
 10
90.61463291665381
 20
445.5678655566773
 30
0.0
 11
104.6146329166601
 21
445.5678655566773
 31
0.0
  0
ARC
  5
E8D
330
2
100
AcDbEntity
  8
0
100
AcDbCircle
 10
104.6146329166601
 20
326.5678655566773
 30
0.0
 40
2.0
100
AcDbArc
 50
270.0
 51
0.0
  0
LINE
  5
E8E
330
2
100
AcDbEntity
  8
0
100
AcDbLine
 10
90.61463291665381
 20
324.5678655566774
 30
0.0
 11
104.6146329166601
 21
324.5678655566773
 31
0.0
  0
LINE
  5
E93
330
2
100
AcDbEntity
  8
CENTER
100
AcDbLine
 10
413.7497952098844
 20
34.65071312225245
 30
0.0
 11
594.7497952098799
 21
34.65071312225245
 31
0.0
  0
LINE
  5
E94
330
2
100
AcDbEntity
  8
0
100
AcDbLine
 10
426.7497952098835
 20
70.65071312225246
 30
0.0
 11
436.7497952098836
 21
70.65071312225246
 31
0.0
  0
LINE
  5
E95
330
2
100
AcDbEntity
  8
0
100
AcDbLine
 10
557.7497952098808
 20
-25.34928687774855
 30
0.0
 11
557.7497952098804
 21
11.31648613764298
 31
0.0
  0
LINE
  5
E96
330
2
100
AcDbEntity
  8
0
100
AcDbLine
 10
557.7497952098794
 20
57.98494010686067
 30
0.0
 11
557.749795209879
 21
94.65071312225246
 31
0.0
  0
LINE
  5
E97
330
2
100
AcDbEntity
  8
CENTER
100
AcDbLine
 10
485.749795209879
 20
-42.54422728892842
 30
0.0
 11
485.749795209879
 21
111.8456535334334
 31
0.0
  0
LINE
  5
E98
330
2
100
AcDbEntity
  8
0
100
AcDbLine
 10
450.7497952098799
 20
102.1507131222524
 30
0.0
 11
450.7497952098822
 21
56.2913741977157
 31
0.0
  0
LINE
  5
E99
330
2
100
AcDbEntity
  8
0
100
AcDbLine
 10
450.7497952098849
 20
13.01005204678918
 30
0.0
 11
450.7497952098872
 21
-32.84928687774663
 31
0.0
  0
LINE
  5
E9A
330
2
100
AcDbEntity
  8
0
100
AcDbLine
 10
552.7497952098794
 20
-31.95478292919597
 30
0.0
 11
552.7497952098772
 21
13.49821784212926
 31
0.0
  0
LINE
  5
E9B
330
2
100
AcDbEntity
  8
0
100
AcDbLine
 10
552.7497952098749
 20
55.80320840237556
 30
0.0
 11
552.7497952098721
 21
101.2562091737009
 31
0.0
  0
LINE
  5
E9C
330
2
100
AcDbEntity
  8
0
100
AcDbLine
 10
450.749795209884
 20
-22.84928687774663
 30
0.0
 11
551.2497952098776
 21
-22.84928687774754
 31
0.0
  0
LINE
  5
E9D
330
2
100
AcDbEntity
  8
0
100
AcDbLine
 10
551.2497952098772
 20
-12.84928687774663
 30
0.0
 11
450.7497952098836
 21
-12.84928687774663
 31
0.0
  0
LINE
  5
E9E
330
2
100
AcDbEntity
  8
0
100
AcDbLine
 10
551.2497952098763
 20
10.0899228315493
 30
0.0
 11
450.7497952098836
 21
10.08992283154839
 31
0.0
  0
LINE
  5
E9F
330
2
100
AcDbEntity
  8
0
100
AcDbLine
 10
450.7497952098836
 20
92.15071312225161
 30
0.0
 11
551.2497952098776
 21
92.15071312225246
 31
0.0
  0
LINE
  5
EA0
330
2
100
AcDbEntity
  8
0
100
AcDbLine
 10
551.2497952098772
 20
82.15071312225154
 30
0.0
 11
450.7497952098836
 21
82.15071312225154
 31
0.0
  0
LINE
  5
EA1
330
2
100
AcDbEntity
  8
0
100
AcDbLine
 10
551.2497952098763
 20
59.21150341295561
 30
0.0
 11
450.7497952098836
 21
59.21150341295657
 31
0.0
  0
LINE
  5
EA2
330
2
100
AcDbEntity
  8
0
 48
0.5
100
AcDbLine
 10
552.7497952098794
 20
-25.34928687774754
 30
0.0
 11
557.7497952098808
 21
-25.34928687774855
 31
0.0
  0
LINE
  5
EA3
330
2
100
AcDbEntity
  8
0
 48
0.5
100
AcDbLine
 10
552.7497952098794
 20
94.65071312225246
 30
0.0
 11
557.7497952098794
 21
94.65071312225246
 31
0.0
  0
LINE
  5
EA4
330
2
100
AcDbEntity
  8
0
100
AcDbLine
 10
570.0970915652135
 20
-9.140703121417345
 30
0.0
 11
564.3606097885456
 21
-10.15219963298648
 31
0.0
  0
LINE
  5
EA5
330
2
100
AcDbEntity
  8
0
100
AcDbLine
 10
570.0970915652135
 20
78.44212936592237
 30
0.0
 11
564.3606097885437
 21
79.45362587749173
 31
0.0
  0
ARC
  5
EA6
330
2
100
AcDbEntity
  8
0
100
AcDbCircle
 10
569.7497952098794
 20
76.47251385989796
 30
0.0
 40
2.0
100
AcDbArc
 50
0.0
 51
79.9999999999948
  0
LINE
  5
EA7
330
2
100
AcDbEntity
  8
0
100
AcDbLine
 10
571.7497952098795
 20
-7.171087615392934
 30
0.0
 11
571.749795209879
 21
10.15071312225154
 31
0.0
  0
LINE
  5
EA8
330
2
100
AcDbEntity
  8
0
100
AcDbLine
 10
571.7497952098795
 20
59.15071312225279
 30
0.0
 11
571.7497952098795
 21
76.47251385989796
 31
0.0
  0
ARC
  5
EA9
330
2
100
AcDbEntity
  8
0
100
AcDbCircle
 10
569.7497952098794
 20
-7.171087615392934
 30
0.0
 40
2.0
100
AcDbArc
 50
280.0000000000051
 51
0.0
  0
ARC
  5
EAA
330
2
100
AcDbEntity
  8
0
100
AcDbCircle
 10
565.7497952098808
 20
-18.03066165708389
 30
0.0
 40
8.0
100
AcDbArc
 50
100.0000000000051
 51
180.0
  0
ARC
  5
EAB
330
2
100
AcDbEntity
  8
0
100
AcDbCircle
 10
565.7497952098794
 20
87.33208790158938
 30
0.0
 40
8.0
100
AcDbArc
 50
180.0
 51
259.9999999999948
  0
LINE
  5
EAC
330
2
100
AcDbEntity
  8
0
100
AcDbLine
 10
425.7497952098881
 20
59.15071312225262
 30
0.0
 11
425.7497952098881
 21
76.57336285306485
 31
0.0
  0
LINE
  5
EAD
330
2
100
AcDbEntity
  8
0
 48
0.5
100
AcDbLine
 10
442.7323421388867
 20
102.080745869283
 30
0.0
 11
450.7497952098831
 21
102.1507131222523
 31
0.0
  0
ARC
  5
EAE
330
2
100
AcDbEntity
  8
0
100
AcDbCircle
 10
442.7497952098836
 20
100.0808220231547
 30
0.0
 40
2.0
100
AcDbArc
 50
90.49999999999151
 51
180.0
  0
ARC
  5
EAF
330
2
100
AcDbEntity
  8
0
 48
0.5
100
AcDbCircle
 10
427.9497952098838
 20
76.85071312225239
 30
0.0
 40
0.3
100
AcDbArc
 50
0.0000000000065138
 51
90.0
  0
ARC
  5
EB0
330
2
100
AcDbEntity
  8
0
100
AcDbCircle
 10
428.5497952098837
 20
76.75071312225248
 30
0.0
 40
0.3
100
AcDbArc
 50
180.0000000000065
 51
270.0
  0
LINE
  5
EB1
330
2
100
AcDbEntity
  8
0
100
AcDbLine
 10
433.7497952098836
 20
79.15071312225279
 30
0.0
 11
433.749795209884
 21
77.1507131222528
 31
0.0
  0
LINE
  5
EB2
330
2
100
AcDbEntity
  8
0
 48
0.5
100
AcDbLine
 10
430.4497952098838
 20
77.1507131222528
 30
0.0
 11
433.749795209884
 21
77.1507131222528
 31
0.0
  0
LINE
  5
EB3
330
2
100
AcDbEntity
  8
0
 48
0.5
100
AcDbLine
 10
428.5497952098837
 20
76.45071312225252
 30
0.0
 11
429.9497952098838
 21
76.45071312225252
 31
0.0
  0
LINE
  5
EB4
330
2
100
AcDbEntity
  8
0
 48
0.5
100
AcDbLine
 10
430.2497952098836
 20
76.95071312225252
 30
0.0
 11
430.4497952098838
 21
77.1507131222528
 31
0.0
  0
LINE
  5
EB5
330
2
100
AcDbEntity
  8
0
100
AcDbLine
 10
430.2497952098836
 20
76.95071312225252
 30
0.0
 11
430.249795209884
 21
73.72947695192113
 31
0.0
  0
ARC
  5
EB6
330
2
100
AcDbEntity
  8
0
100
AcDbCircle
 10
429.9497952098838
 20
76.7507131222527
 30
0.0
 40
0.3
100
AcDbArc
 50
270.0
 51
0.0000000000065138
  0
ARC
  5
EB7
330
2
100
AcDbEntity
  8
HIDS
  6
SEKKEI_H
100
AcDbCircle
 10
436.2497952098785
 20
89.82228599750532
 30
0.0
 40
2.0
100
AcDbArc
 50
135.0000000000087
 51
180.0000000000065
  0
ARC
  5
EB8
330
2
100
AcDbEntity
  8
HIDS
  6
SEKKEI_H
100
AcDbCircle
 10
438.7497952098831
 20
97.97914024699867
 30
0.0
 40
2.0
100
AcDbArc
 50
315.0000000000086
 51
0.0
  0
LINE
  5
EB9
330
2
100
AcDbEntity
  8
HIDS
  6
SEKKEI_H
100
AcDbLine
 10
440.1640087722564
 20
96.56492668462556
 30
0.0
 11
434.8355816475075
 21
91.23649955987593
 31
0.0
  0
LINE
  5
EBA
330
2
100
AcDbEntity
  8
0
 48
0.5
100
AcDbLine
 10
434.2497952098836
 20
79.6507131222528
 30
0.0
 11
433.7497952098836
 21
79.15071312225279
 31
0.0
  0
LINE
  5
EBB
330
2
100
AcDbEntity
  8
0
100
AcDbLine
 10
434.2497952098836
 20
85.65071312225246
 30
0.0
 11
434.249795209884
 21
79.65071312225302
 31
0.0
  0
LINE
  5
EBC
330
2
100
AcDbEntity
  8
0
100
AcDbLine
 10
426.749795209884
 20
77.15071312225234
 30
0.0
 11
425.749795209884
 21
76.57336285306235
 31
0.0
  0
LINE
  5
EBD
330
2
100
AcDbEntity
  8
0
 48
0.5
100
AcDbLine
 10
426.7497952098835
 20
77.15071312225234
 30
0.0
 11
427.9497952098838
 21
77.15071312225234
 31
0.0
  0
LINE
  5
EBE
330
2
100
AcDbEntity
  8
0
100
AcDbLine
 10
428.249795209884
 20
76.85071312225239
 30
0.0
 11
428.249795209884
 21
73.78367415158485
 31
0.0
  0
LINE
  5
EBF
330
2
100
AcDbEntity
  8
0
100
AcDbLine
 10
425.7497952098881
 20
10.15071312225146
 30
0.0
 11
425.7497952098885
 21
-7.271936608560139
 31
0.0
  0
LINE
  5
EC0
330
2
100
AcDbEntity
  8
0
 48
0.5
100
AcDbLine
 10
442.7323421388871
 20
-32.77931962477822
 30
0.0
 11
450.7497952098836
 21
-32.84928687774743
 31
0.0
  0
LINE
  5
EC1
330
2
100
AcDbEntity
  8
0
100
AcDbLine
 10
440.749795209884
 20
-30.7793957786499
 30
0.0
 11
440.749795209884
 21
10.59597256034175
 31
0.0
  0
LINE
  5
EC2
330
2
100
AcDbEntity
  8
0
100
AcDbLine
 10
440.7497952098835
 20
58.70545368416333
 30
0.0
 11
440.7497952098835
 21
100.0808220231547
 31
0.0
  0
ARC
  5
EC3
330
2
100
AcDbEntity
  8
0
100
AcDbCircle
 10
442.749795209884
 20
-30.77939577864987
 30
0.0
 40
2.0
100
AcDbArc
 50
180.0
 51
269.5000000000084
  0
ARC
  5
EC4
330
2
100
AcDbEntity
  8
0
 48
0.5
100
AcDbCircle
 10
427.9497952098843
 20
-7.549286877747647
 30
0.0
 40
0.3
100
AcDbArc
 50
270.0
 51
359.9999999999934
  0
ARC
  5
EC5
330
2
100
AcDbEntity
  8
0
100
AcDbCircle
 10
428.5497952098842
 20
-7.449286877747738
 30
0.0
 40
0.3
100
AcDbArc
 50
90.0
 51
179.9999999999934
  0
LINE
  5
EC6
330
2
100
AcDbEntity
  8
0
100
AcDbLine
 10
433.749795209884
 20
-9.849286877748028
 30
0.0
 11
433.749795209884
 21
-7.849286877748028
 31
0.0
  0
LINE
  5
EC7
330
2
100
AcDbEntity
  8
0
 48
0.5
100
AcDbLine
 10
430.4497952098842
 20
-7.849286877748056
 30
0.0
 11
433.749795209884
 21
-7.849286877748028
 31
0.0
  0
LINE
  5
EC8
330
2
100
AcDbEntity
  8
0
 48
0.5
100
AcDbLine
 10
428.5497952098842
 20
-7.149286877747783
 30
0.0
 11
429.9497952098843
 21
-7.149286877747783
 31
0.0
  0
LINE
  5
EC9
330
2
100
AcDbEntity
  8
0
 48
0.5
100
AcDbLine
 10
430.249795209884
 20
-7.649286877747783
 30
0.0
 11
430.4497952098842
 21
-7.849286877748056
 31
0.0
  0
ARC
  5
ECA
330
2
100
AcDbEntity
  8
0
100
AcDbCircle
 10
429.9497952098843
 20
-7.449286877747965
 30
0.0
 40
0.3
100
AcDbArc
 50
359.9999999999934
 51
90.0
  0
ARC
  5
ECB
330
2
100
AcDbEntity
  8
HIDS
  6
SEKKEI_H
100
AcDbCircle
 10
436.249795209879
 20
-20.52085975300053
 30
0.0
 40
2.0
100
AcDbArc
 50
179.9999999999934
 51
224.9999999999912
  0
ARC
  5
ECC
330
2
100
AcDbEntity
  8
HIDS
  6
SEKKEI_H
100
AcDbCircle
 10
438.7497952098835
 20
-28.67771400249387
 30
0.0
 40
2.0
100
AcDbArc
 50
0.0
 51
44.99999999999126
  0
LINE
  5
ECD
330
2
100
AcDbEntity
  8
HIDS
  6
SEKKEI_H
100
AcDbLine
 10
440.1640087722569
 20
-27.26350044012074
 30
0.0
 11
434.835581647508
 21
-21.93507331537114
 31
0.0
  0
LINE
  5
ECE
330
2
100
AcDbEntity
  8
0
 48
0.5
100
AcDbLine
 10
434.249795209884
 20
-10.34928687774802
 30
0.0
 11
433.749795209884
 21
-9.849286877748028
 31
0.0
  0
LINE
  5
ECF
330
2
100
AcDbEntity
  8
0
100
AcDbLine
 10
434.249795209884
 20
-16.34928687774754
 30
0.0
 11
434.2497952098844
 21
-10.34928687774825
 31
0.0
  0
LINE
  5
ED0
330
2
100
AcDbEntity
  8
0
100
AcDbLine
 10
426.749795209884
 20
-7.84928687774763
 30
0.0
 11
425.749795209884
 21
-7.271936608557638
 31
0.0
  0
LINE
  5
ED1
330
2
100
AcDbEntity
  8
0
 48
0.5
100
AcDbLine
 10
426.749795209884
 20
-7.84928687774763
 30
0.0
 11
427.9497952098843
 21
-7.849286877747601
 31
0.0
  0
LINE
  5
ED2
330
2
100
AcDbEntity
  8
0
100
AcDbLine
 10
426.7497952098835
 20
70.65071312225246
 30
0.0
 11
426.7497952098835
 21
59.15071312225257
 31
0.0
  0
LINE
  5
ED3
330
2
100
AcDbEntity
  8
0
100
AcDbLine
 10
436.7497952098831
 20
70.65071312225246
 30
0.0
 11
436.7497952098836
 21
59.15071312225226
 31
0.0
  0
LINE
  5
ED4
330
2
100
AcDbEntity
  8
0
100
AcDbLine
 10
430.4497952098838
 20
73.72039733842163
 30
0.0
 11
430.4497952098838
 21
77.1507131222528
 31
0.0
  0
LINE
  5
ED5
330
2
100
AcDbEntity
  8
0
100
AcDbLine
 10
433.749795209884
 20
77.1507131222528
 30
0.0
 11
433.749795209884
 21
73.42545693060066
 31
0.0
  0
LINE
  5
ED6
330
2
100
AcDbEntity
  8
0
100
AcDbLine
 10
434.249795209884
 20
73.33699727836756
 30
0.0
 11
434.249795209884
 21
79.65071312225302
 31
0.0
  0
LINE
  5
ED7
330
2
100
AcDbEntity
  8
0
100
AcDbLine
 10
450.7497952098831
 20
102.1507131222523
 30
0.0
 11
450.7497952098836
 21
56.29137419771573
 31
0.0
  0
LINE
  5
ED8
330
2
100
AcDbEntity
  8
0
100
AcDbLine
 10
450.7497952098836
 20
13.01005204678921
 30
0.0
 11
450.749795209884
 21
-32.84928687774743
 31
0.0
  0
LINE
  5
ED9
330
2
100
AcDbEntity
  8
0
100
AcDbLine
 10
450.7497952098836
 20
82.15071312225195
 30
0.0
 11
442.2497952098836
 21
82.15071312225189
 31
0.0
  0
LINE
  5
EDA
330
2
100
AcDbEntity
  8
0
100
AcDbLine
 10
450.7497952098836
 20
59.21150341296556
 30
0.0
 11
442.2497952098836
 21
59.21150341296561
 31
0.0
  0
LINE
  5
EDB
330
2
100
AcDbEntity
  8
0
100
AcDbLine
 10
450.7497952098836
 20
92.15071312268447
 30
0.0
 11
442.2497952098836
 21
92.15071312268447
 31
0.0
  0
LINE
  5
EDC
330
2
100
AcDbEntity
  8
0
100
AcDbLine
 10
450.7497952098836
 20
-12.84928687774694
 30
0.0
 11
442.2497952098836
 21
-12.84928687774706
 31
0.0
  0
LINE
  5
EDD
330
2
100
AcDbEntity
  8
0
100
AcDbLine
 10
450.7497952098836
 20
10.08992283153921
 30
0.0
 11
442.2497952098836
 21
10.08992283153918
 31
0.0
  0
LINE
  5
EDE
330
2
100
AcDbEntity
  8
0
100
AcDbLine
 10
450.749795209884
 20
-22.84928687817958
 30
0.0
 11
442.249795209884
 21
-22.84928687817964
 31
0.0
  0
LINE
  5
EE5
330
2
100
AcDbEntity
  8
0
 48
0.3
100
AcDbLine
 10
431.2497952098835
 20
-16.34928687774754
 30
0.0
 11
431.249795209884
 21
-29.34928687774754
 31
0.0
  0
LINE
  5
EE6
330
2
100
AcDbEntity
  8
0
 48
0.3
100
AcDbLine
 10
430.7497952098835
 20
-17.21531228153344
 30
0.0
 11
430.749795209884
 21
-28.48326147396301
 31
0.0
  0
LINE
  5
EE7
330
2
100
AcDbEntity
  8
CENTER
 48
0.5
100
AcDbLine
 10
427.749795209884
 20
-22.84928687774754
 30
0.0
 11
446.749795209884
 21
-22.84928687774754
 31
0.0
  0
LINE
  5
EE8
330
2
100
AcDbEntity
  8
0
 48
0.3
100
AcDbLine
 10
431.249795209884
 20
-29.34928687774754
 30
0.0
 11
430.749795209884
 21
-28.48326147396301
 31
0.0
  0
LINE
  5
EE9
330
2
100
AcDbEntity
  8
0
 48
0.3
100
AcDbLine
 10
431.249795209884
 20
-29.34928687774754
 30
0.0
 11
438.749795209884
 21
-29.34928687774754
 31
0.0
  0
LINE
  5
EEA
330
2
100
AcDbEntity
  8
0
 48
0.3
100
AcDbLine
 10
431.2497952098844
 20
-16.349286877748
 30
0.0
 11
430.7497952098844
 21
-17.2153122815323
 31
0.0
  0
LINE
  5
EEB
330
2
100
AcDbEntity
  8
0
 48
0.3
100
AcDbLine
 10
431.2497952098844
 20
-16.34928687774754
 30
0.0
 11
438.7497952098835
 21
-16.34928687774754
 31
0.0
  0
LINE
  5
EEC
330
2
100
AcDbEntity
  8
0
 48
0.3
100
AcDbLine
 10
431.2497952098835
 20
98.65071312225246
 30
0.0
 11
431.2497952098835
 21
85.65071312225246
 31
0.0
  0
LINE
  5
EED
330
2
100
AcDbEntity
  8
0
 48
0.3
100
AcDbLine
 10
430.7497952098835
 20
97.78468771846656
 30
0.0
 11
430.7497952098835
 21
86.51673852603698
 31
0.0
  0
LINE
  5
EEE
330
2
100
AcDbEntity
  8
CENTER
 48
0.5
100
AcDbLine
 10
427.7497952098835
 20
92.15071312225246
 30
0.0
 11
446.7497952098836
 21
92.15071312225246
 31
0.0
  0
LINE
  5
EEF
330
2
100
AcDbEntity
  8
0
 48
0.3
100
AcDbLine
 10
431.2497952098835
 20
85.65071312225246
 30
0.0
 11
430.7497952098835
 21
86.51673852603698
 31
0.0
  0
LINE
  5
EF0
330
2
100
AcDbEntity
  8
0
 48
0.3
100
AcDbLine
 10
431.2497952098835
 20
85.65071312225246
 30
0.0
 11
438.7497952098835
 21
85.65071312225246
 31
0.0
  0
LINE
  5
EF1
330
2
100
AcDbEntity
  8
0
 48
0.3
100
AcDbLine
 10
431.249795209884
 20
98.650713122252
 30
0.0
 11
430.749795209884
 21
97.78468771846769
 31
0.0
  0
LINE
  5
EF2
330
2
100
AcDbEntity
  8
0
 48
0.3
100
AcDbLine
 10
431.2497952098844
 20
98.65071312225246
 30
0.0
 11
438.7497952098835
 21
98.65071312225246
 31
0.0
  0
LINE
  5
EF3
330
2
100
AcDbEntity
  8
HIDS
  6
SEKKEI_H
100
AcDbLine
 10
434.2497952098786
 20
89.82228599750511
 30
0.0
 11
434.2497952098836
 21
85.65071312225246
 31
0.0
  0
LINE
  5
EF4
330
2
100
AcDbEntity
  8
HIDS
  6
SEKKEI_H
100
AcDbLine
 10
434.249795209879
 20
-20.5208597530003
 30
0.0
 11
434.249795209884
 21
-16.34928687774754
 31
0.0
  0
LINE
  5
EF7
330
2
100
AcDbEntity
  8
0
 48
0.3
100
AcDbLine
 10
438.7497952098835
 20
99.40071312225246
 30
0.0
 11
438.7497952098835
 21
84.90071312225245
 31
0.0
  0
LINE
  5
EF8
330
2
100
AcDbEntity
  8
0
 48
0.3
100
AcDbLine
 10
438.7497952098835
 20
84.90071312225245
 30
0.0
 11
440.7497952098835
 21
84.90071312225245
 31
0.0
  0
LINE
  5
EF9
330
2
100
AcDbEntity
  8
0
 48
0.3
100
AcDbLine
 10
438.7497952098835
 20
99.40071312225246
 30
0.0
 11
440.7497952098835
 21
99.40071312225246
 31
0.0
  0
LINE
  5
EFA
330
2
100
AcDbEntity
  8
0
100
AcDbLine
 10
440.7497952098835
 20
99.40071312225246
 30
0.0
 11
440.7497952098835
 21
84.90071312225245
 31
0.0
  0
LINE
  5
EFB
330
2
100
AcDbEntity
  8
0
 48
0.3
100
AcDbLine
 10
438.749795209884
 20
-15.59928687774754
 30
0.0
 11
438.749795209884
 21
-30.09928687774754
 31
0.0
  0
LINE
  5
EFC
330
2
100
AcDbEntity
  8
0
 48
0.3
100
AcDbLine
 10
438.749795209884
 20
-30.09928687774754
 30
0.0
 11
440.749795209884
 21
-30.09928687774754
 31
0.0
  0
LINE
  5
EFD
330
2
100
AcDbEntity
  8
0
 48
0.3
100
AcDbLine
 10
438.749795209884
 20
-15.59928687774754
 30
0.0
 11
440.749795209884
 21
-15.59928687774754
 31
0.0
  0
LINE
  5
EFE
330
2
100
AcDbEntity
  8
0
100
AcDbLine
 10
440.749795209884
 20
-15.59928687774754
 30
0.0
 11
440.749795209884
 21
-30.09928687774754
 31
0.0
  0
LINE
  5
EFF
330
2
100
AcDbEntity
  8
0
100
AcDbLine
 10
459.7497952098844
 20
51.150713122252
 30
0.0
 11
541.7497952098795
 21
51.15071312225177
 31
0.0
  0
LINE
  5
F00
330
2
100
AcDbEntity
  8
0
100
AcDbLine
 10
582.7497952098794
 20
50.65071312225166
 30
0.0
 11
582.7497952098794
 21
18.65071312225177
 31
0.0
  0
LINE
  5
F01
330
2
100
AcDbEntity
  8
CENTER
100
AcDbLine
 10
576.2497952098795
 20
48.1843949814916
 30
0.0
 11
576.2497952098795
 21
62.10523392591273
 31
0.0
  0
LINE
  5
F02
330
2
100
AcDbEntity
  8
0
100
AcDbLine
 10
584.7497952098795
 20
59.15071312225279
 30
0.0
 11
584.7497952098795
 21
10.15071312225154
 31
0.0
  0
LINE
  5
F03
330
2
100
AcDbEntity
  8
0
100
AcDbLine
 10
541.7497952098795
 20
51.15071312225177
 30
0.0
 11
541.7497952098795
 21
34.65071312225183
 31
0.0
  0
LINE
  5
F04
330
2
100
AcDbEntity
  8
0
100
AcDbLine
 10
580.7497952098795
 20
51.15071312225166
 30
0.0
 11
580.7497952098795
 21
18.15071312225177
 31
0.0
  0
LINE
  5
F05
330
2
100
AcDbEntity
  8
0
100
AcDbLine
 10
559.0997952098794
 20
51.50071312225168
 30
0.0
 11
559.0997952098794
 21
17.80071312225163
 31
0.0
  0
LINE
  5
F06
330
2
100
AcDbEntity
  8
0
100
AcDbLine
 10
557.7497952098794
 20
51.50071312225168
 30
0.0
 11
557.7497952098794
 21
17.80071312225163
 31
0.0
  0
LINE
  5
F07
330
2
100
AcDbEntity
  8
0
100
AcDbLine
 10
558.371164557984
 20
59.15071312225268
 30
0.0
 11
584.7497952098795
 21
59.15071312225291
 31
0.0
  0
LINE
  5
F08
330
2
100
AcDbEntity
  8
0
100
AcDbLine
 10
559.0997952098794
 20
50.65071312225177
 30
0.0
 11
571.7497952098795
 21
50.65071312225166
 31
0.0
  0
LINE
  5
F09
330
2
100
AcDbEntity
  8
0
100
AcDbLine
 10
571.7497952098795
 20
51.15071312225166
 30
0.0
 11
580.7497952098795
 21
51.15071312225177
 31
0.0
  0
LINE
  5
F0A
330
2
100
AcDbEntity
  8
0
100
AcDbLine
 10
580.7497952098795
 20
50.65071312225154
 30
0.0
 11
582.7497952098794
 21
50.65071312225166
 31
0.0
  0
LINE
  5
F0B
330
2
100
AcDbEntity
  8
0
100
AcDbLine
 10
582.7497952098794
 20
50.65071312225166
 30
0.0
 11
584.7497952098795
 21
51.80541366063096
 31
0.0
  0
LINE
  5
F0C
330
2
100
AcDbEntity
  8
0
100
AcDbLine
 10
541.7497952098795
 20
50.65071312225189
 30
0.0
 11
557.7497952098794
 21
50.65071312225177
 31
0.0
  0
LINE
  5
F0D
330
2
100
AcDbEntity
  8
0
100
AcDbLine
 10
557.7497952098794
 20
51.50071312225168
 30
0.0
 11
559.0997952098794
 21
51.50071312225168
 31
0.0
  0
LINE
  5
F0E
330
2
100
AcDbEntity
  8
0
100
AcDbLine
 10
558.3711645579844
 20
10.15071312225154
 30
0.0
 11
584.7497952098795
 21
10.15071312225154
 31
0.0
  0
LINE
  5
F0F
330
2
100
AcDbEntity
  8
0
100
AcDbLine
 10
559.0997952098794
 20
18.65071312225154
 30
0.0
 11
571.7497952098795
 21
18.65071312225177
 31
0.0
  0
LINE
  5
F10
330
2
100
AcDbEntity
  8
0
100
AcDbLine
 10
571.7497952098795
 20
18.15071312225177
 30
0.0
 11
580.7497952098795
 21
18.15071312225177
 31
0.0
  0
LINE
  5
F11
330
2
100
AcDbEntity
  8
HOJO
100
AcDbLine
 10
580.2497952098795
 20
53.95071312225178
 30
0.0
 11
580.2497952098795
 21
59.15071312225205
 31
0.0
  0
LINE
  5
F12
330
2
100
AcDbEntity
  8
0
100
AcDbLine
 10
579.4497952098793
 20
53.95071312225178
 30
0.0
 11
579.4497952098793
 21
59.15071312225205
 31
0.0
  0
LINE
  5
F13
330
2
100
AcDbEntity
  8
0
100
AcDbLine
 10
580.7497952098795
 20
18.65071312225177
 30
0.0
 11
582.7497952098794
 21
18.65071312225177
 31
0.0
  0
LINE
  5
F14
330
2
100
AcDbEntity
  8
0
100
AcDbLine
 10
582.7497952098794
 20
18.650713122252
 30
0.0
 11
584.7497952098795
 21
17.49601258387247
 31
0.0
  0
LINE
  5
F15
330
2
100
AcDbEntity
  8
0
100
AcDbLine
 10
557.7497952098794
 20
17.80071312225163
 30
0.0
 11
559.0997952098794
 21
17.80071312225163
 31
0.0
  0
LINE
  5
F16
330
2
100
AcDbEntity
  8
0
100
AcDbLine
 10
425.7497952098844
 20
50.650713122252
 30
0.0
 11
425.7497952098844
 21
18.650713122252
 31
0.0
  0
LINE
  5
F17
330
2
100
AcDbEntity
  8
0
100
AcDbLine
 10
423.7497952098845
 20
59.15071312225268
 30
0.0
 11
423.7497952098845
 21
10.15071312225199
 31
0.0
  0
LINE
  5
F18
330
2
100
AcDbEntity
  8
0
100
AcDbLine
 10
459.7497952098844
 20
51.15071312225189
 30
0.0
 11
459.749795209884
 21
34.65071312225194
 31
0.0
  0
LINE
  5
F19
330
2
100
AcDbEntity
  8
0
100
AcDbLine
 10
440.3997952098846
 20
51.50071312225191
 30
0.0
 11
440.3997952098846
 21
17.80071312225209
 31
0.0
  0
LINE
  5
F1A
330
2
100
AcDbEntity
  8
0
100
AcDbLine
 10
441.7497952098845
 20
51.50071312225191
 30
0.0
 11
441.7497952098845
 21
17.80071312225209
 31
0.0
  0
LINE
  5
F1B
330
2
100
AcDbEntity
  8
0
100
AcDbLine
 10
425.7497952098844
 20
50.650713122252
 30
0.0
 11
440.3997952098846
 21
50.650713122252
 31
0.0
  0
LINE
  5
F1C
330
2
100
AcDbEntity
  8
0
100
AcDbLine
 10
440.3890691831882
 20
59.15071312225214
 30
0.0
 11
423.7497952098845
 21
59.15071312225268
 31
0.0
  0
LINE
  5
F1D
330
2
100
AcDbEntity
  8
0
100
AcDbLine
 10
441.7497952098845
 20
50.650713122252
 30
0.0
 11
459.7497952098844
 21
50.65071312225189
 31
0.0
  0
LINE
  5
F1E
330
2
100
AcDbEntity
  8
0
100
AcDbLine
 10
440.3997952098846
 20
51.50071312225191
 30
0.0
 11
441.7497952098845
 21
51.50071312225191
 31
0.0
  0
LINE
  5
F1F
330
2
100
AcDbEntity
  8
0
100
AcDbLine
 10
425.7497952098821
 20
50.65071312225154
 30
0.0
 11
423.7497952098817
 21
51.8054136606305
 31
0.0
  0
LINE
  5
F20
330
2
100
AcDbEntity
  8
0
100
AcDbLine
 10
440.3890691831877
 20
10.15071312225197
 30
0.0
 11
423.7497952098845
 21
10.15071312225137
 31
0.0
  0
LINE
  5
F21
330
2
100
AcDbEntity
  8
0
100
AcDbLine
 10
425.7497952098844
 20
18.650713122252
 30
0.0
 11
440.3997952098846
 21
18.650713122252
 31
0.0
  0
LINE
  5
F22
330
2
100
AcDbEntity
  8
0
100
AcDbLine
 10
440.3997952098846
 20
17.80071312225209
 30
0.0
 11
441.7497952098845
 21
17.80071312225209
 31
0.0
  0
LINE
  5
F23
330
2
100
AcDbEntity
  8
0
100
AcDbLine
 10
425.7497952098844
 20
18.650713122252
 30
0.0
 11
423.7497952098845
 21
17.49601258387269
 31
0.0
  0
LINE
  5
F24
330
2
100
AcDbEntity
  8
HOJO
100
AcDbLine
 10
572.2497952098795
 20
53.95071312225181
 30
0.0
 11
572.2497952098795
 21
59.15071312225208
 31
0.0
  0
LINE
  5
F25
330
2
100
AcDbEntity
  8
0
100
AcDbLine
 10
573.0497952098792
 20
53.95071312225181
 30
0.0
 11
573.0497952098792
 21
59.15071312225208
 31
0.0
  0
LINE
  5
F26
330
2
100
AcDbEntity
  8
0
100
AcDbLine
 10
571.7497952098795
 20
51.15071312225166
 30
0.0
 11
571.7497952098795
 21
18.15071312225177
 31
0.0
  0
LINE
  5
F27
330
2
100
AcDbEntity
  8
0
 48
0.5
100
AcDbLine
 10
571.7497952098795
 20
51.15071312225177
 30
0.0
 11
571.7497952098795
 21
18.15071312225177
 31
0.0
  0
LINE
  5
F28
330
2
100
AcDbEntity
  8
0
100
AcDbLine
 10
423.7497952098845
 20
53.9507161222518
 30
0.0
 11
584.7497952098795
 21
53.95071612225184
 31
0.0
  0
LINE
  5
F29
330
2
100
AcDbEntity
  8
0
100
AcDbLine
 10
459.7497952098844
 20
18.15071312225319
 30
0.0
 11
541.7497952098795
 21
18.15071312225234
 31
0.0
  0
LINE
  5
F2A
330
2
100
AcDbEntity
  8
0
100
AcDbLine
 10
541.7497952098795
 20
18.15071312225234
 30
0.0
 11
541.7497952098795
 21
34.65071312225231
 31
0.0
  0
LINE
  5
F2B
330
2
100
AcDbEntity
  8
0
100
AcDbLine
 10
541.7497952098795
 20
18.65071312225222
 30
0.0
 11
557.7497952098794
 21
18.65071312225217
 31
0.0
  0
LINE
  5
F2C
330
2
100
AcDbEntity
  8
0
100
AcDbLine
 10
459.7497952098844
 20
18.1507131222533
 30
0.0
 11
459.749795209884
 21
34.65071312225325
 31
0.0
  0
LINE
  5
F2D
330
2
100
AcDbEntity
  8
0
100
AcDbLine
 10
441.7497952098845
 20
18.65071312225342
 30
0.0
 11
459.7497952098844
 21
18.6507131222533
 31
0.0
  0
LINE
  5
F2E
330
2
100
AcDbEntity
  8
0
100
AcDbLine
 10
436.7497952098836
 20
70.65071312225246
 30
0.0
 11
426.7497952098835
 21
59.15071312225257
 31
0.0
  0
LINE
  5
F2F
330
2
100
AcDbEntity
  8
0
100
AcDbLine
 10
426.7497952098835
 20
70.65071312225246
 30
0.0
 11
436.7497952098836
 21
59.15071312225226
 31
0.0
  0
LINE
  5
F30
330
2
100
AcDbEntity
  8
0
100
AcDbLine
 10
426.7497952098835
 20
59.15071312225257
 30
0.0
 11
436.7497952098836
 21
59.15071312225226
 31
0.0
  0
LINE
  5
F31
330
2
100
AcDbEntity
  8
0
100
AcDbLine
 10
560.7497952098794
 20
70.65071312225299
 30
0.0
 11
570.7497952098795
 21
70.65071312225299
 31
0.0
  0
LINE
  5
F32
330
2
100
AcDbEntity
  8
0
100
AcDbLine
 10
560.7497952098794
 20
70.65071312225299
 30
0.0
 11
560.7497952098794
 21
59.15071312225314
 31
0.0
  0
LINE
  5
F33
330
2
100
AcDbEntity
  8
0
100
AcDbLine
 10
570.749795209879
 20
70.65071312225299
 30
0.0
 11
570.7497952098795
 21
59.15071312225279
 31
0.0
  0
LINE
  5
F34
330
2
100
AcDbEntity
  8
0
100
AcDbLine
 10
570.7497952098795
 20
70.65071312225299
 30
0.0
 11
560.7497952098794
 21
59.15071312225314
 31
0.0
  0
LINE
  5
F35
330
2
100
AcDbEntity
  8
0
100
AcDbLine
 10
560.7497952098794
 20
70.65071312225299
 30
0.0
 11
570.7497952098795
 21
59.15071312225279
 31
0.0
  0
LINE
  5
F36
330
2
100
AcDbEntity
  8
0
100
AcDbLine
 10
560.7497952098794
 20
59.15071312225314
 30
0.0
 11
570.7497952098795
 21
59.15071312225279
 31
0.0
  0
LINE
  5
F37
330
2
100
AcDbEntity
  8
0
100
AcDbLine
 10
426.7497952098876
 20
70.65071312225246
 30
0.0
 11
425.7497952098876
 21
71.22806339144199
 31
0.0
  0
LINE
  5
F38
330
2
100
AcDbEntity
  8
0
100
AcDbLine
 10
438.03124105769
 20
71.07323950409884
 30
0.0
 11
436.7497952098908
 21
71.0284904290317
 31
0.0
  0
LINE
  5
F39
330
2
100
AcDbEntity
  8
0
100
AcDbLine
 10
436.7497952098908
 20
71.0284904290317
 30
0.0
 11
436.7497952098831
 21
70.65071312225246
 31
0.0
  0
SPLINE
  5
F3A
330
2
100
AcDbEntity
  8
HOJO
100
AcDbSpline
210
0.0
220
0.0
230
1.0
 70
     8
 71
     3
 72
    29
 73
    25
 74
    23
 42
0.0000000001
 43
0.0000000001
 44
0.0000000001
 40
0.0
 40
0.0
 40
0.0
 40
0.0
 40
6.445364168595244
 40
11.6005599060358
 40
16.43116643330773
 40
23.39935915012152
 40
28.86322000075915
 40
37.18645652083846
 40
41.19132774222779
 40
51.06271043180663
 40
57.00790235621015
 40
65.41939714830168
 40
72.69987336758835
 40
79.44282627976336
 40
87.34366366321456
 40
98.11595080058189
 40
106.7574459398993
 40
119.0295999011755
 40
129.4569000974927
 40
143.0549393859583
 40
150.8384148048675
 40
157.773767995327
 40
165.4374744840414
 40
170.8106207466574
 40
170.8106207466574
 40
170.8106207466574
 40
170.8106207466574
 10
425.7497952098881
 20
73.79311030664712
 30
0.0
 10
427.8530018543898
 20
73.79521392056993
 30
0.0
 10
431.6384163067175
 20
73.79900006805403
 30
0.0
 10
437.6104604287332
 20
72.91577014125356
 30
0.0
 10
439.9279911163439
 20
66.96287611972505
 30
0.0
 10
438.1905943768115
 20
61.03651394994222
 30
0.0
 10
443.8966866319717
 20
55.23381418561344
 30
0.0
 10
450.2170570960827
 20
56.74224908206173
 30
0.0
 10
457.4657396194482
 20
55.33420838029128
 30
0.0
 10
464.1188484384916
 20
54.92180116890577
 30
0.0
 10
472.1705339322989
 20
55.81515164011225
 30
0.0
 10
479.369834461895
 20
54.91951034723149
 30
0.0
 10
486.8608910489493
 20
55.03947156423108
 30
0.0
 10
494.1274323615837
 20
56.04485483086905
 30
0.0
 10
502.608966414214
 20
55.27693676827798
 30
0.0
 10
511.7132786095819
 20
56.15641918421146
 30
0.0
 10
522.2271134912815
 20
55.79991045473533
 30
0.0
 10
532.9056792815966
 20
54.98601963775463
 30
0.0
 10
544.1240902909616
 20
57.44377538538784
 30
0.0
 10
557.9898622067559
 20
53.72519852549181
 30
0.0
 10
559.7043643456308
 20
64.6965608720631
 30
0.0
 10
557.4767674937111
 20
73.0966741440352
 30
0.0
 10
565.8676456453422
 20
75.04686302888043
 30
0.0
 10
570.0330297757854
 20
74.82910992495563
 30
0.0
 10
571.749795209879
 20
74.73936285955232
 30
0.0
 11
425.7497952098881
 21
73.79311030664712
 31
0.0
 11
432.1924358040384
 21
73.6057565225451
 31
0.0
 11
437.1249317478093
 21
72.10691468432151
 31
0.0
 11
439.1664003072608
 21
67.72888253024894
 31
0.0
 11
439.5060387281725
 21
60.76897193587365
 31
0.0
 11
443.2844898148694
 21
56.82219061680235
 31
0.0
 11
451.5897548203017
 21
56.27552860173046
 31
0.0
 11
455.5607284654786
 21
55.75556532492782
 31
0.0
 11
465.4162083145718
 21
55.19546430882883
 31
0.0
 11
471.3518944170616
 21
55.53152607502898
 31
0.0
 11
479.7514458999183
 21
55.08344179252844
 31
0.0
 11
487.0310602396646
 21
55.19546430882883
 31
0.0
 11
493.7507105897627
 21
55.75556532492782
 31
0.0
 11
501.6494230078758
 21
55.57233460783527
 31
0.0
 11
512.4145396433475
 21
55.96531551650651
 31
0.0
 11
521.0542196959802
 21
55.78820868155117
 31
0.0
 11
533.3242452810143
 21
55.55965892356244
 31
0.0
 11
543.7181449941424
 21
56.39358825962836
 31
0.0
 11
557.2783622138874
 21
57.40708786198911
 31
0.0
 11
559.0968660263067
 21
64.97514794902463
 31
0.0
 11
559.2613381515682
 21
71.90855063431763
 31
0.0
 11
566.3766728061371
 21
74.75537516327176
 31
0.0
 11
571.749795209879
 21
74.73936285955232
 31
0.0
  0
LINE
  5
F3B
330
2
100
AcDbEntity
  8
0
100
AcDbLine
 10
570.7497952098781
 20
70.65071312225246
 30
0.0
 11
560.7497952098794
 21
70.65071312225246
 31
0.0
  0
LINE
  5
F3C
330
2
100
AcDbEntity
  8
0
100
AcDbLine
 10
570.7497952098795
 20
70.65071312225246
 30
0.0
 11
571.7497952098795
 21
71.22806339144244
 31
0.0
  0
LINE
  5
F3D
330
2
100
AcDbEntity
  8
0
100
AcDbLine
 10
560.7497952098799
 20
71.15057502420564
 30
0.0
 11
558.9421954141974
 21
71.19790869068492
 31
0.0
  0
LINE
  5
F3E
330
2
100
AcDbEntity
  8
0
100
AcDbLine
 10
560.7497952098799
 20
71.15057502420564
 30
0.0
 11
560.7497952098794
 21
70.65071312225299
 31
0.0
  0
LINE
  5
F3F
330
2
100
AcDbEntity
  8
0
100
AcDbLine
 10
426.7497952098835
 20
-1.349286877747545
 30
0.0
 11
436.7497952098836
 21
-1.349286877747545
 31
0.0
  0
LINE
  5
F40
330
2
100
AcDbEntity
  8
0
100
AcDbLine
 10
426.7497952098835
 20
-1.349286877747545
 30
0.0
 11
426.7497952098835
 21
10.15071312225234
 31
0.0
  0
LINE
  5
F41
330
2
100
AcDbEntity
  8
0
100
AcDbLine
 10
436.7497952098831
 20
-1.349286877747545
 30
0.0
 11
436.7497952098836
 21
10.15071312225265
 31
0.0
  0
LINE
  5
F42
330
2
100
AcDbEntity
  8
0
100
AcDbLine
 10
436.7497952098836
 20
-1.349286877747545
 30
0.0
 11
426.7497952098835
 21
10.15071312225234
 31
0.0
  0
LINE
  5
F43
330
2
100
AcDbEntity
  8
0
100
AcDbLine
 10
426.7497952098835
 20
-1.349286877747545
 30
0.0
 11
436.7497952098836
 21
10.15071312225265
 31
0.0
  0
LINE
  5
F44
330
2
100
AcDbEntity
  8
0
100
AcDbLine
 10
426.7497952098835
 20
10.15071312225234
 30
0.0
 11
436.7497952098836
 21
10.15071312225265
 31
0.0
  0
LINE
  5
F45
330
2
100
AcDbEntity
  8
0
100
AcDbLine
 10
560.7497952098794
 20
-1.349286877748085
 30
0.0
 11
570.7497952098795
 21
-1.349286877748085
 31
0.0
  0
LINE
  5
F46
330
2
100
AcDbEntity
  8
0
100
AcDbLine
 10
560.7497952098794
 20
-1.349286877748085
 30
0.0
 11
560.7497952098794
 21
10.15071312225177
 31
0.0
  0
LINE
  5
F47
330
2
100
AcDbEntity
  8
0
100
AcDbLine
 10
570.749795209879
 20
-1.349286877748085
 30
0.0
 11
570.7497952098795
 21
10.15071312225211
 31
0.0
  0
LINE
  5
F48
330
2
100
AcDbEntity
  8
0
100
AcDbLine
 10
570.7497952098795
 20
-1.349286877748085
 30
0.0
 11
560.7497952098794
 21
10.15071312225177
 31
0.0
  0
LINE
  5
F49
330
2
100
AcDbEntity
  8
0
100
AcDbLine
 10
560.7497952098794
 20
-1.349286877748085
 30
0.0
 11
570.7497952098795
 21
10.15071312225211
 31
0.0
  0
LINE
  5
F4A
330
2
100
AcDbEntity
  8
0
100
AcDbLine
 10
560.7497952098794
 20
10.15071312225177
 30
0.0
 11
570.7497952098795
 21
10.15071312225211
 31
0.0
  0
LINE
  5
F4B
330
2
100
AcDbEntity
  8
0
100
AcDbLine
 10
426.7497952098876
 20
-1.349286877747545
 30
0.0
 11
425.7497952098876
 21
-1.926637146937082
 31
0.0
  0
LINE
  5
F4C
330
2
100
AcDbEntity
  8
0
100
AcDbLine
 10
438.03124105769
 20
-1.771813259593926
 30
0.0
 11
436.7497952098908
 21
-1.727064184526795
 31
0.0
  0
LINE
  5
F4D
330
2
100
AcDbEntity
  8
0
100
AcDbLine
 10
436.7497952098908
 20
-1.727064184526795
 30
0.0
 11
436.7497952098831
 21
-1.349286877747545
 31
0.0
  0
LINE
  5
F4E
330
2
100
AcDbEntity
  8
0
100
AcDbLine
 10
570.7497952098781
 20
-1.349286877747545
 30
0.0
 11
560.7497952098794
 21
-1.349286877747545
 31
0.0
  0
LINE
  5
F4F
330
2
100
AcDbEntity
  8
0
100
AcDbLine
 10
570.7497952098795
 20
-1.349286877747545
 30
0.0
 11
571.7497952098795
 21
-1.926637146937537
 31
0.0
  0
LINE
  5
F50
330
2
100
AcDbEntity
  8
0
100
AcDbLine
 10
560.7497952098799
 20
-1.849148779700726
 30
0.0
 11
558.9421954141974
 21
-1.896482446180016
 31
0.0
  0
LINE
  5
F51
330
2
100
AcDbEntity
  8
0
100
AcDbLine
 10
560.7497952098799
 20
-1.849148779700726
 30
0.0
 11
560.7497952098794
 21
-1.349286877748085
 31
0.0
  0
SPLINE
  5
F52
330
2
100
AcDbEntity
  8
HOJO
100
AcDbSpline
210
0.0
220
0.0
230
1.0
 70
     8
 71
     3
 72
    29
 73
    25
 74
    23
 42
0.0000000001
 43
0.0000000001
 44
0.0000000001
 40
0.0
 40
0.0
 40
0.0
 40
0.0
 40
6.445364168595244
 40
11.6005599060358
 40
16.43116643330773
 40
23.39935915012152
 40
28.86322000075915
 40
37.18645652083846
 40
41.19132774222779
 40
51.06271043180663
 40
57.00790235621015
 40
65.41939714830168
 40
72.69987336758835
 40
79.44282627976336
 40
87.34366366321456
 40
98.11595080058189
 40
106.7574459398993
 40
119.0295999011755
 40
129.4569000974927
 40
143.0549393859583
 40
150.8384148048675
 40
157.773767995327
 40
165.4374744840414
 40
170.8106207466574
 40
170.8106207466574
 40
170.8106207466574
 40
170.8106207466574
 10
425.7497952098881
 20
-4.491684062142212
 30
0.0
 10
427.8530018543898
 20
-4.493787676065048
 30
0.0
 10
431.6384163067175
 20
-4.497573823549148
 30
0.0
 10
437.6104604287332
 20
-3.614343896748642
 30
0.0
 10
439.9279911163439
 20
2.338550124779842
 30
0.0
 10
438.1905943768115
 20
8.264912294562687
 30
0.0
 10
443.8966866319717
 20
14.06761205889146
 30
0.0
 10
450.2170570960827
 20
12.55917716244318
 30
0.0
 10
457.4657396194482
 20
13.96721786421363
 30
0.0
 10
464.1188484384916
 20
14.37962507559912
 30
0.0
 10
472.1705339322989
 20
13.48627460439266
 30
0.0
 10
479.369834461895
 20
14.38191589727341
 30
0.0
 10
486.8608910489493
 20
14.26195468027382
 30
0.0
 10
494.1274323615837
 20
13.25657141363584
 30
0.0
 10
502.608966414214
 20
14.02448947622693
 30
0.0
 10
511.7132786095819
 20
13.14500706029344
 30
0.0
 10
522.2271134912815
 20
13.50151578976958
 30
0.0
 10
532.9056792815966
 20
14.31540660675027
 30
0.0
 10
544.1240902909616
 20
11.85765085911709
 30
0.0
 10
557.9898622067559
 20
15.57622771901307
 30
0.0
 10
559.7043643456308
 20
4.604865372441786
 30
0.0
 10
557.4767674937111
 20
-3.795247899530282
 30
0.0
 10
565.8676456453422
 20
-5.745436784375526
 30
0.0
 10
570.0330297757854
 20
-5.527683680450707
 30
0.0
 10
571.749795209879
 20
-5.437936615047419
 30
0.0
 11
425.7497952098881
 21
-4.491684062142212
 31
0.0
 11
432.1924358040384
 21
-4.304330278040197
 31
0.0
 11
437.1249317478093
 21
-2.805488439816599
 31
0.0
 11
439.1664003072608
 21
1.572543714255971
 31
0.0
 11
439.5060387281725
 21
8.532454308631258
 31
0.0
 11
443.2844898148694
 21
12.47923562770256
 31
0.0
 11
451.5897548203017
 21
13.02589764277445
 31
0.0
 11
455.5607284654786
 21
13.54586091957708
 31
0.0
 11
465.4162083145718
 21
14.10596193567607
 31
0.0
 11
471.3518944170616
 21
13.76990016947593
 31
0.0
 11
479.7514458999183
 21
14.21798445197646
 31
0.0
 11
487.0310602396646
 21
14.10596193567607
 31
0.0
 11
493.7507105897627
 21
13.54586091957708
 31
0.0
 11
501.6494230078758
 21
13.72909163666963
 31
0.0
 11
512.4145396433475
 21
13.3361107279984
 31
0.0
 11
521.0542196959802
 21
13.51321756295374
 31
0.0
 11
533.3242452810143
 21
13.74176732094247
 31
0.0
 11
543.7181449941424
 21
12.90783798487655
 31
0.0
 11
557.2783622138874
 21
11.89433838251579
 31
0.0
 11
559.0968660263067
 21
4.326278295480278
 31
0.0
 11
559.2613381515682
 21
-2.607124389812724
 31
0.0
 11
566.3766728061371
 21
-5.453948918766855
 31
0.0
 11
571.749795209879
 21
-5.437936615047419
 31
0.0
  0
LINE
  5
F53
330
2
100
AcDbEntity
  8
0
100
AcDbLine
 10
426.749795209884
 20
-7.84928687774763
 30
0.0
 11
426.749795209884
 21
-4.491913973481928
 31
0.0
  0
LINE
  5
F54
330
2
100
AcDbEntity
  8
0
100
AcDbLine
 10
428.2497952098845
 20
-7.549286877747675
 30
0.0
 11
428.2497952098845
 21
-4.482247907079937
 31
0.0
  0
LINE
  5
F55
330
2
100
AcDbEntity
  8
0
100
AcDbLine
 10
430.249795209884
 20
-7.649286877747783
 30
0.0
 11
430.249795209884
 21
-4.428050707415025
 31
0.0
  0
LINE
  5
F56
330
2
100
AcDbEntity
  8
0
100
AcDbLine
 10
433.749795209884
 20
-7.849286877748028
 30
0.0
 11
433.749795209884
 21
-4.12403068609575
 31
0.0
  0
LINE
  5
F57
330
2
100
AcDbEntity
  8
0
100
AcDbLine
 10
434.2497952098844
 20
-10.34928687774825
 30
0.0
 11
434.2497952098844
 21
-4.035571033862709
 31
0.0
  0
LINE
  5
F58
330
2
100
AcDbEntity
  8
0
100
AcDbLine
 10
430.4497952098842
 20
-7.849286877748056
 30
0.0
 11
430.4497952098842
 21
-4.418971093916042
 31
0.0
  0
LINE
  5
F59
330
2
100
AcDbEntity
  8
0
 48
0.5
100
AcDbLine
 10
450.7497952098872
 20
-32.84492344385125
 30
0.0
 11
552.7497952098794
 21
-31.95478292919595
 31
0.0
  0
LINE
  5
F5A
330
2
100
AcDbEntity
  8
0
 48
0.5
100
AcDbLine
 10
450.7497952098872
 20
102.1463496883561
 30
0.0
 11
552.7497952098721
 21
101.2562091737009
 31
0.0
  0
LINE
  5
F5B
330
2
100
AcDbEntity
  8
0
100
AcDbLine
 10
213.6146329175232
 20
404.3678685566773
 30
0.0
 11
223.6146329175233
 21
404.3678685566773
 31
0.0
  0
LINE
  5
F5C
330
2
100
AcDbEntity
  8
0
100
AcDbLine
 10
213.6146329175232
 20
404.3678685566773
 30
0.0
 11
213.6146329175232
 21
400.2665497102478
 31
0.0
  0
LINE
  5
F5D
330
2
100
AcDbEntity
  8
0
100
AcDbLine
 10
223.6146329175233
 20
404.3678685566773
 30
0.0
 11
223.6146329175233
 21
400.2665497102478
 31
0.0
  0
ARC
  5
F5E
330
2
100
AcDbEntity
  8
0
100
AcDbCircle
 10
218.6146329175233
 20
385.0678655566771
 30
0.0
 40
15.99999999999977
100
AcDbArc
 50
108.2099568642829
 51
71.790043135717
  0
ARC
  5
F5F
330
2
100
AcDbEntity
  8
0
100
AcDbCircle
 10
218.6146329175233
 20
385.0678655566771
 30
0.0
 40
17.1547005383793
100
AcDbArc
 50
106.9457019888465
 51
73.05429801115348
  0
LINE
  5
F60
330
2
100
AcDbEntity
  8
0
100
AcDbLine
 10
556.5202955304123
 20
360.5678655566764
 30
0.0
 11
556.5202955304128
 21
409.5678655566776
 31
0.0
  0
LINE
  5
F61
330
2
100
AcDbEntity
  8
0
100
AcDbLine
 10
543.5202955304123
 20
360.5678655566764
 30
0.0
 11
556.5202955304123
 21
360.5678655566762
 31
0.0
  0
LINE
  5
F62
330
2
100
AcDbEntity
  8
0
100
AcDbLine
 10
543.5202955304127
 20
409.5678655566776
 30
0.0
 11
556.5202955304123
 21
409.5678655566776
 31
0.0
  0
CIRCLE
  5
F63
330
2
100
AcDbEntity
  8
HOJO
 48
0.5
100
AcDbCircle
 10
548.0202955304128
 20
385.0678655566774
 30
0.0
 40
4.0
  0
CIRCLE
  5
F64
330
2
100
AcDbEntity
  8
0
 48
0.5
100
AcDbCircle
 10
548.0202955304128
 20
385.0678655566774
 30
0.0
 40
3.2
  0
LINE
  5
F65
330
2
100
AcDbEntity
  8
0
100
AcDbLine
 10
395.5202955304173
 20
360.5678655566765
 30
0.0
 11
395.5202955304173
 21
409.5678655566771
 31
0.0
  0
LINE
  5
F66
330
2
100
AcDbEntity
  8
0
100
AcDbLine
 10
397.5202955304177
 20
360.5678655566765
 30
0.0
 11
395.5202955304173
 21
360.5678655566765
 31
0.0
  0
LINE
  5
F67
330
2
100
AcDbEntity
  8
0
100
AcDbLine
 10
397.5202955304173
 20
409.5678655566777
 30
0.0
 11
395.5202955304173
 21
409.5678655566779
 31
0.0
  0
LINE
  5
F68
330
2
100
AcDbEntity
  8
CENTER
100
AcDbLine
 10
548.0202955304128
 20
376.0342544549927
 30
0.0
 11
548.0202955304128
 21
393.1930715029918
 31
0.0
  0
LINE
  5
F69
330
2
100
AcDbEntity
  8
PHAS
  6
SEKKEI_P_S
100
AcDbLine
 10
405.0202955304173
 20
429.5678655607572
 30
0.0
 11
405.0202955304164
 21
340.5678655525989
 31
0.0
  0
LINE
  5
F6A
330
2
100
AcDbEntity
  8
PHAS
  6
SEKKEI_P_S
100
AcDbLine
 10
371.5202955304164
 20
357.4423131512767
 30
0.0
 11
371.5202955304164
 21
412.6934179539222
 31
0.0
  0
LINE
  5
F6B
330
2
100
AcDbEntity
  8
PHAS
  6
SEKKEI_P_S
100
AcDbLine
 10
395.2202955304171
 20
426.4487141269555
 30
0.0
 11
395.2202955304171
 21
385.0678655525989
 31
0.0
  0
LINE
  5
F6C
330
2
100
AcDbEntity
  8
PHAS
  6
SEKKEI_P_S
100
AcDbLine
 10
405.0202955304164
 20
340.5678655525989
 30
0.0
 11
398.1679383111047
 21
340.6874738927736
 31
0.0
  0
ARC
  5
F6D
330
2
100
AcDbEntity
  8
PHAS
  6
SEKKEI_P_S
100
AcDbCircle
 10
394.2202955304171
 20
348.2287659214225
 30
0.0
 40
1.0
100
AcDbArc
 50
0.0
 51
79.99999999999484
  0
LINE
  5
F6E
330
2
100
AcDbEntity
  8
PHAS
  6
SEKKEI_P_S
100
AcDbLine
 10
394.3939437080832
 20
349.2135736744339
 30
0.0
 11
375.6520546420822
 21
352.5182743862151
 31
0.0
  0
LINE
  5
F6F
330
2
100
AcDbEntity
  8
PHAS
  6
SEKKEI_P_S
100
AcDbLine
 10
395.2202955304171
 20
343.6870169782423
 30
0.0
 11
395.2202955304171
 21
385.0678655525989
 31
0.0
  0
ARC
  5
F70
330
2
100
AcDbEntity
  8
PHAS
  6
SEKKEI_P_S
100
AcDbCircle
 10
376.5202955304164
 20
357.4423131512767
 30
0.0
 40
5.0
100
AcDbArc
 50
180.0
 51
259.9999999999948
  0
ARC
  5
F71
330
2
100
AcDbEntity
  8
PHAS
  6
SEKKEI_P_S
100
AcDbCircle
 10
398.2202955304171
 20
343.6870169782423
 30
0.0
 40
3.0
100
AcDbArc
 50
180.0
 51
268.9999999999721
  0
ARC
  5
F72
330
2
100
AcDbEntity
  8
PHAS
  6
SEKKEI_P_S
100
AcDbCircle
 10
394.2202955304171
 20
421.9069651837763
 30
0.0
 40
1.0
100
AcDbArc
 50
280.0000000000051
 51
0.0
  0
LINE
  5
F73
330
2
100
AcDbEntity
  8
PHAS
  6
SEKKEI_P_S
100
AcDbLine
 10
394.3939437080832
 20
420.9221574307639
 30
0.0
 11
375.6520546420822
 21
417.6174567189837
 31
0.0
  0
ARC
  5
F74
330
2
100
AcDbEntity
  8
PHAS
  6
SEKKEI_P_S
100
AcDbCircle
 10
376.5202955304164
 20
412.6934179539222
 30
0.0
 40
5.0
100
AcDbArc
 50
100.0000000000051
 51
180.0
  0
LINE
  5
F75
330
2
100
AcDbEntity
  8
PHAS
  6
SEKKEI_P_S
100
AcDbLine
 10
405.0202955304173
 20
429.5678655607572
 30
0.0
 11
398.1679383111047
 21
429.4482572205825
 31
0.0
  0
ARC
  5
F76
330
2
100
AcDbEntity
  8
PHAS
  6
SEKKEI_P_S
100
AcDbCircle
 10
398.2202955304171
 20
426.4487141351137
 30
0.0
 40
3.0
100
AcDbArc
 50
91.00000000002784
 51
180.0
  0
LINE
  5
F77
330
2
100
AcDbEntity
  8
CENTER
100
AcDbLine
 10
788.560789058665
 20
693.978621844595
 30
0.0
 11
768.479492164233
 21
693.9786218445945
 31
0.0
  0
LINE
  5
F78
330
2
100
AcDbEntity
  8
0
100
AcDbLine
 10
755.0946935603158
 20
685.478621844595
 30
0.0
 11
804.0946935603171
 21
685.4786218445944
 31
0.0
  0
LINE
  5
F79
330
2
100
AcDbEntity
  8
0
100
AcDbLine
 10
755.0946935603158
 20
698.4786218445949
 30
0.0
 11
755.0946935603158
 21
685.478621844595
 31
0.0
  0
LINE
  5
F7A
330
2
100
AcDbEntity
  8
0
100
AcDbLine
 10
804.0946935603168
 20
698.4786218445945
 30
0.0
 11
804.0946935603171
 21
685.478621844595
 31
0.0
  0
CIRCLE
  5
F7B
330
2
100
AcDbEntity
  8
HOJO
 48
0.5
100
AcDbCircle
 10
779.5946935603167
 20
693.9786218445945
 30
0.0
 40
4.0
  0
CIRCLE
  5
F7C
330
2
100
AcDbEntity
  8
0
 48
0.5
100
AcDbCircle
 10
779.5946935603167
 20
693.9786218445945
 30
0.0
 40
3.2
  0
LINE
  5
F7D
330
2
100
AcDbEntity
  8
0
100
AcDbLine
 10
755.0946935603153
 20
846.4786218445899
 30
0.0
 11
804.0946935603157
 21
846.4786218445899
 31
0.0
  0
LINE
  5
F7E
330
2
100
AcDbEntity
  8
0
100
AcDbLine
 10
755.0946935603153
 20
844.4786218445894
 30
0.0
 11
755.0946935603153
 21
846.4786218445899
 31
0.0
  0
LINE
  5
F7F
330
2
100
AcDbEntity
  8
0
100
AcDbLine
 10
804.0946935603162
 20
844.47862184459
 30
0.0
 11
804.0946935603162
 21
846.4786218445899
 31
0.0
  0
CIRCLE
  5
F86
330
2
100
AcDbEntity
  8
0
100
AcDbCircle
 10
218.6146329157192
 20
385.0678655557381
 30
0.0
 40
24.5
  0
LINE
  5
1147
330
2
100
AcDbEntity
  8
0
100
AcDbLine
 10
907.5946935603218
 20
445.0678655566789
 30
0.0
 11
907.5946935603218
 21
325.0678655566771
 31
0.0
  0
LINE
  5
120F
330
2
100
AcDbEntity
  8
0
100
AcDbLine
 10
90.61463291665381
 20
445.0678655566791
 30
0.0
 11
90.61463291665381
 21
325.0678655566773
 31
0.0
  0
TEXT
  5
1B1C
330
2
100
AcDbEntity
  8
TITLE
100
AcDbText
 10
401.3548919300465
 20
823.5515856139791
 30
0.0
 40
10.0
  1
AFCZ32S-7.5~10M2000K75
100
AcDbText
  0
TEXT
  5
1B1D
330
2
100
AcDbEntity
  8
TITLE
100
AcDbText
 10
401.3548919300465
 20
807.5095417611755
 30
0.0
 40
10.0
  1
AFCZ32S-3~5M3000K75
100
AcDbText
  0
LINE
  5
1D94
330
2
100
AcDbEntity
  8
0
100
AcDbLine
 10
907.5946935603218
 20
445.067865556679
 30
0.0
 11
907.5946935603218
 21
325.0678655566772
 31
0.0
  0
LINE
  5
1FEE
330
2
100
AcDbEntity
  8
0
100
AcDbLine
 10
907.5946935603218
 20
445.067865556679
 30
0.0
 11
907.5946935603218
 21
325.0678655566772
 31
0.0
  0
LINE
  5
227C
330
2
100
AcDbEntity
  8
0
100
AcDbLine
 10
907.5946935603218
 20
445.067865556679
 30
0.0
 11
907.5946935603218
 21
325.0678655566772
 31
0.0
  0
LINE
  5
2554
330
2
100
AcDbEntity
  8
0
100
AcDbLine
 10
907.5946935603218
 20
445.0678655566772
 30
0.0
 11
907.5946935603218
 21
325.0678655566772
 31
0.0
  0
LINE
  5
25BD
330
2
100
AcDbEntity
  8
CENTER
100
AcDbLine
 10
510.716688125957
 20
385.0678655257613
 30
0.0
 11
501.716688125957
 21
385.0678655257613
 31
0.0
  0
LINE
  5
25BE
330
2
100
AcDbEntity
  8
CENTER
100
AcDbLine
 10
413.3239029039511
 20
385.0678655566773
 30
0.0
 11
404.3239029039511
 21
385.0678655566773
 31
0.0
  0
LINE
  5
2621
330
2
100
AcDbEntity
  8
0
100
AcDbLine
 10
90.61463291665381
 20
445.0678655566774
 30
0.0
 11
90.61463291665381
 21
325.0678655566773
 31
0.0
  0
LINE
  5
2891
330
2
100
AcDbEntity
  8
0
100
AcDbLine
 10
907.5946935603218
 20
445.0678655566772
 30
0.0
 11
907.5946935603218
 21
325.0678655566772
 31
0.0
  0
LINE
  5
2AB1
330
2
100
AcDbEntity
  8
0
100
AcDbLine
 10
907.5946935603218
 20
445.0678655566772
 30
0.0
 11
907.5946935603218
 21
325.0678655566772
 31
0.0
  0
LINE
  5
2CA1
330
2
100
AcDbEntity
  8
0
100
AcDbLine
 10
907.5946935603218
 20
445.0678655566772
 30
0.0
 11
907.5946935603218
 21
325.0678655566772
 31
0.0
  0
LINE
  5
2E6F
330
2
100
AcDbEntity
  8
0
100
AcDbLine
 10
1189.57593133102
 20
409.5678655566781
 30
0.0
 11
1189.575931331019
 21
360.5678655566769
 31
0.0
  0
LINE
  5
2E70
330
2
100
AcDbEntity
  8
0
100
AcDbLine
 10
1200.647199143139
 20
409.5678655566782
 30
0.0
 11
1189.57593133102
 21
409.5678655566782
 31
0.0
  0
LINE
  5
2E71
330
2
100
AcDbEntity
  8
0
100
AcDbLine
 10
1200.647199143139
 20
360.567865556677
 30
0.0
 11
1189.57593133102
 21
360.5678655566769
 31
0.0
  0
LINE
  5
2FF2
330
2
100
AcDbEntity
  8
0
100
AcDbLine
 10
907.5946935603218
 20
445.0678655566772
 30
0.0
 11
907.5946935603218
 21
325.0678655566772
 31
0.0
  0
LINE
  5
30A2
330
2
100
AcDbEntity
  8
0
100
AcDbLine
 10
90.61463291665381
 20
445.0678655566774
 30
0.0
 11
90.61463291665381
 21
325.0678655566773
 31
0.0
  0
LINE
  5
335E
330
2
100
AcDbEntity
  8
0
100
AcDbLine
 10
907.5946935603218
 20
445.0678655566772
 30
0.0
 11
907.5946935603218
 21
325.0678655566772
 31
0.0
  0
TEXT
  5
3492
330
2
100
AcDbEntity
  8
TITLE
100
AcDbText
 10
401.3548919300465
 20
792.1423703212972
 30
0.0
 40
10.0
  1
AFCZ32S-7.5~10L2000K75
100
AcDbText
  0
TEXT
  5
3493
330
2
100
AcDbEntity
  8
TITLE
100
AcDbText
 10
401.3548919300465
 20
776.1003264684936
 30
0.0
 40
10.0
  1
AFCZ32S-3~5L3000K75
100
AcDbText
  0
LINE
  5
3688
330
2
100
AcDbEntity
  8
0
100
AcDbLine
 10
976.7615240462452
 20
444.0678655566749
 30
0.0
 11
922.3882591577702
 21
444.0678655566747
 31
0.0
  0
ARC
  5
3689
330
2
100
AcDbEntity
  8
0
100
AcDbCircle
 10
976.7615240462452
 20
454.0678655566749
 30
0.0
 40
10.0
100
AcDbArc
 50
270.0
 51
358.9999999999982
  0
ARC
  5
368A
330
2
100
AcDbEntity
  8
0
100
AcDbCircle
 10
974.5171641730919
 20
441.0678655566747
 30
0.0
 40
3.0
100
AcDbArc
 50
90.0
 51
178.4999999999973
  0
LINE
  5
368B
330
2
100
AcDbEntity
  8
0
100
AcDbLine
 10
907.5946935603212
 20
325.0678655566772
 30
0.0
 11
918.6466017709742
 21
325.0678655566772
 31
0.0
  0
ARC
  5
368C
330
2
100
AcDbEntity
  8
0
100
AcDbCircle
 10
918.6466017709742
 20
328.0678655566772
 30
0.0
 40
3.0
100
AcDbArc
 50
270.0
 51
358.9999999999982
  0
ARC
  5
368D
330
2
100
AcDbEntity
  8
0
100
AcDbCircle
 10
922.3882591577483
 20
321.5678655566772
 30
0.0
 40
4.5
100
AcDbArc
 50
90.0
 51
119.9264348666175
  0
LINE
  5
368E
330
2
100
AcDbEntity
  8
0
100
AcDbLine
 10
922.3882591577474
 20
326.0678655566772
 30
0.0
 11
976.7615240462498
 21
326.0678655566781
 31
0.0
  0
LINE
  5
368F
330
2
100
AcDbEntity
  8
0
100
AcDbLine
 10
987.043242264205
 20
300.0155083373657
 30
0.0
 11
985.5586478466346
 21
385.0678655566774
 31
0.0
  0
ARC
  5
3690
330
2
100
AcDbEntity
  8
0
100
AcDbCircle
 10
982.6716487845358
 20
378.5678655566774
 30
0.0
 40
3.0
100
AcDbArc
 50
1.000000000001761
 51
90.0
  0
ARC
  5
3691
330
2
100
AcDbEntity
  8
0
100
AcDbCircle
 10
976.7615240462498
 20
316.0678655566781
 30
0.0
 40
10.0
100
AcDbArc
 50
1.000000000001761
 51
90.0
  0
LINE
  5
3692
330
2
100
AcDbEntity
  8
0
100
AcDbLine
 10
1002.094693560326
 20
297.0678655566772
 30
0.0
 11
1002.094693560325
 21
473.0678655566793
 31
0.0
  0
LINE
  5
3693
330
2
100
AcDbEntity
  8
CENTER
100
AcDbLine
 10
983.5946935603258
 20
433.5118692653654
 30
0.0
 11
983.5946935603258
 21
453.1501623147875
 31
0.0
  0
LINE
  5
3694
330
2
100
AcDbEntity
  8
0
100
AcDbLine
 10
971.3324785358407
 20
434.0542777669972
 30
0.0
 11
971.5181921981645
 21
441.1463964015985
 31
0.0
  0
LINE
  5
3695
330
2
100
AcDbEntity
  8
0
100
AcDbLine
 10
962.5946935603257
 20
381.5678655566772
 30
0.0
 11
962.5946935603257
 21
385.0678655566777
 31
0.0
  0
LINE
  5
3696
330
2
100
AcDbEntity
  8
0
100
AcDbLine
 10
921.646144856443
 20
328.0155083373653
 30
0.0
 11
922.6419974560137
 21
385.0678655566774
 31
0.0
  0
LINE
  5
3697
330
2
100
AcDbEntity
  8
0
100
AcDbLine
 10
907.5946935603221
 20
325.0678655566772
 30
0.0
 11
907.5946935603212
 21
445.0678655566772
 31
0.0
  0
LINE
  5
3698
330
2
100
AcDbEntity
  8
0
100
AcDbLine
 10
1002.094693560326
 20
297.0678655566772
 30
0.0
 11
990.0427853496736
 21
297.0678655566777
 31
0.0
  0
ARC
  5
3699
330
2
100
AcDbEntity
  8
0
100
AcDbCircle
 10
990.0427853496736
 20
300.0678655566777
 30
0.0
 40
3.0
100
AcDbArc
 50
181.0000000000017
 51
270.0
  0
LINE
  5
369A
330
2
100
AcDbEntity
  8
0
100
AcDbLine
 10
982.6716487845358
 20
381.5678655566774
 30
0.0
 11
965.5946935603259
 21
381.5678655566772
 31
0.0
  0
ARC
  5
369B
330
2
100
AcDbEntity
  8
0
100
AcDbCircle
 10
965.5946935603259
 20
378.5678655566772
 30
0.0
 40
3.0
100
AcDbArc
 50
90.0
 51
180.0
  0
LINE
  5
369C
330
2
100
AcDbEntity
  8
0
100
AcDbLine
 10
963.4733732167665
 20
325.1891859002374
 30
0.0
 11
986.1576813021024
 21
302.5048778149006
 31
0.0
  0
LINE
  5
369D
330
2
100
AcDbEntity
  8
0
100
AcDbLine
 10
962.5946935603257
 20
385.0678655566777
 30
0.0
 11
962.5946935603257
 21
381.567865556679
 31
0.0
  0
LINE
  5
369E
330
2
100
AcDbEntity
  8
0
100
AcDbLine
 10
1002.094693560325
 20
473.0678655566793
 30
0.0
 11
990.0427853496683
 21
473.067865556679
 31
0.0
  0
ARC
  5
369F
330
2
100
AcDbEntity
  8
0
100
AcDbCircle
 10
990.0427853496683
 20
470.067865556679
 30
0.0
 40
3.0
100
AcDbArc
 50
90.0
 51
178.9999999999982
  0
LINE
  5
36A0
330
2
100
AcDbEntity
  8
0
100
AcDbLine
 10
907.5946935603212
 20
445.067865556679
 30
0.0
 11
918.6466017709879
 21
445.067865556679
 31
0.0
  0
LINE
  5
36A1
330
2
100
AcDbEntity
  8
0
100
AcDbLine
 10
907.5946935603218
 20
385.0678655566772
 30
0.0
 11
1002.094693560326
 21
385.0678655566774
 31
0.0
  0
LINE
  5
36A2
330
2
100
AcDbEntity
  8
0
100
AcDbLine
 10
921.6461448564567
 20
442.120222775991
 30
0.0
 11
922.1481064443381
 21
413.3628626660869
 31
0.0
  0
ARC
  5
36A3
330
2
100
AcDbEntity
  8
0
100
AcDbCircle
 10
918.6466017709879
 20
442.067865556679
 30
0.0
 40
3.0
100
AcDbArc
 50
1.000000000001761
 51
90.0
  0
ARC
  5
36A4
330
2
100
AcDbEntity
  8
0
100
AcDbCircle
 10
922.3882591577691
 20
448.5678655566747
 30
0.0
 40
4.5
100
AcDbArc
 50
240.073565133321
 51
270.0
  0
LINE
  5
36A5
330
2
100
AcDbEntity
  8
0
100
AcDbLine
 10
987.0432422641995
 20
470.1202227759909
 30
0.0
 11
986.5620063373654
 21
442.5502349924296
 31
0.0
  0
LINE
  5
36A7
330
2
100
AcDbEntity
  8
0
100
AcDbLine
 10
982.9884074764176
 20
431.1328086119202
 30
0.0
 11
968.3335065609142
 21
431.1328086119202
 31
0.0
  0
ARC
  5
36A8
330
2
100
AcDbEntity
  8
0
100
AcDbCircle
 10
968.3335065609142
 20
434.1328086119203
 30
0.0
 40
3.0
100
AcDbArc
 50
270.0
 51
358.5000000000103
  0
ARC
  5
36A9
330
2
100
AcDbEntity
  8
0
100
AcDbCircle
 10
961.3520528732067
 20
323.0678655566777
 30
0.0
 40
3.0
100
AcDbArc
 50
44.99999999999078
 51
90.0
  0
ARC
  5
36AA
330
2
100
AcDbEntity
  8
0
100
AcDbCircle
 10
984.0363609585429
 20
300.3835574713408
 30
0.0
 40
3.0
100
AcDbArc
 50
1.000000000001761
 51
44.99999999999078
  0
LINE
  5
36AB
330
2
100
AcDbEntity
  8
0
100
AcDbLine
 10
963.4733732167674
 20
444.9465452131181
 30
0.0
 11
986.1576813021038
 21
467.6308532984545
 31
0.0
  0
ARC
  5
36AC
330
2
100
AcDbEntity
  8
0
100
AcDbCircle
 10
961.3520528732079
 20
447.0678655566777
 30
0.0
 40
3.0
100
AcDbArc
 50
270.0
 51
315.0000000000092
  0
ARC
  5
36AD
330
2
100
AcDbEntity
  8
0
100
AcDbCircle
 10
984.0363609585443
 20
469.752173642014
 30
0.0
 40
3.0
100
AcDbArc
 50
315.0000000000092
 51
358.9999999999852
  0
LINE
  5
36AF
330
2
100
AcDbEntity
  8
0
100
AcDbLine
 10
977.0946935603246
 20
843.478621844593
 30
0.0
 11
922.3363509471042
 21
843.4786218445953
 31
0.0
  0
LINE
  5
36B0
330
2
100
AcDbEntity
  8
0
100
AcDbLine
 10
922.3363509471024
 20
725.4786218445935
 30
0.0
 11
977.0946935603255
 21
725.4786218445957
 31
0.0
  0
LINE
  5
36B1
330
2
100
AcDbEntity
  8
0
100
AcDbLine
 10
987.0946935603253
 20
699.4786218445946
 30
0.0
 11
987.0946935603249
 21
746.4601160099877
 31
0.0
  0
ARC
  5
36B2
330
2
100
AcDbEntity
  8
0
100
AcDbCircle
 10
984.0946935603248
 20
744.9786218445946
 30
0.0
 40
3.0
100
AcDbArc
 50
0.0
 51
90.0
  0
LINE
  5
36B3
330
2
100
AcDbEntity
  8
0
100
AcDbLine
 10
987.0946935603251
 20
773.4971276792015
 30
0.0
 11
987.0946935603249
 21
869.4786218445955
 31
0.0
  0
ARC
  5
36B4
330
2
100
AcDbEntity
  8
0
100
AcDbCircle
 10
984.0946935603254
 20
790.9786218445964
 30
0.0
 40
3.0
100
AcDbArc
 50
270.0
 51
0.0
  0
ARC
  5
36B5
330
2
100
AcDbEntity
  8
0
100
AcDbCircle
 10
984.0946935603252
 20
777.9786218445946
 30
0.0
 40
3.0
100
AcDbArc
 50
0.0
 51
90.0
  0
ARC
  5
36B6
330
2
100
AcDbEntity
  8
0
100
AcDbCircle
 10
977.0946935603255
 20
715.4786218445957
 30
0.0
 40
10.0
100
AcDbArc
 50
0.0
 51
90.0
  0
ARC
  5
36B7
330
2
100
AcDbEntity
  8
0
100
AcDbCircle
 10
977.0946935603259
 20
853.478621844593
 30
0.0
 40
10.0
100
AcDbArc
 50
270.0
 51
0.0
  0
LINE
  5
36B8
330
2
100
AcDbEntity
  8
0
100
AcDbLine
 10
1002.094693560325
 20
696.4786218445939
 30
0.0
 11
1002.094693560325
 21
872.4786218445954
 31
0.0
  0
LINE
  5
36B9
330
2
100
AcDbEntity
  8
0
100
AcDbLine
 10
962.594693560325
 20
780.9786218445939
 30
0.0
 11
962.594693560325
 21
787.9786218445939
 31
0.0
  0
LINE
  5
36BA
330
2
100
AcDbEntity
  8
0
100
AcDbLine
 10
921.5946935603211
 20
726.9786218445916
 30
0.0
 11
921.5946935603211
 21
841.4786218445989
 31
0.0
  0
ARC
  5
36BB
330
2
100
AcDbEntity
  8
0
100
AcDbCircle
 10
918.594693560321
 20
727.4786218445898
 30
0.0
 40
3.0
100
AcDbArc
 50
270.0
 51
0.0
  0
ARC
  5
36BC
330
2
100
AcDbEntity
  8
0
100
AcDbCircle
 10
922.3363509471024
 20
720.9786218445944
 30
0.0
 40
4.5
100
AcDbArc
 50
90.0
 51
119.9264348666788
  0
LINE
  5
36BD
330
2
100
AcDbEntity
  8
0
100
AcDbLine
 10
907.594693560321
 20
723.9786218445953
 30
0.0
 11
907.5946935603212
 21
844.9786218445961
 31
0.0
  0
LINE
  5
36BE
330
2
100
AcDbEntity
  8
0
100
AcDbLine
 10
1002.094693560325
 20
696.4786218445937
 30
0.0
 11
990.0946935603254
 21
696.4786218445945
 31
0.0
  0
ARC
  5
36BF
330
2
100
AcDbEntity
  8
0
100
AcDbCircle
 10
990.0946935603254
 20
699.4786218445946
 30
0.0
 40
3.0
100
AcDbArc
 50
180.0
 51
270.0
  0
LINE
  5
36C0
330
2
100
AcDbEntity
  8
0
100
AcDbLine
 10
984.0946935603252
 20
780.9786218445946
 30
0.0
 11
965.5946935603251
 21
780.9786218445939
 31
0.0
  0
ARC
  5
36C1
330
2
100
AcDbEntity
  8
0
100
AcDbCircle
 10
968.5946935603487
 20
777.9786218445939
 30
0.0
 40
3.0
100
AcDbArc
 50
0.0
 51
90.0
  0
ARC
  5
36C2
330
2
100
AcDbEntity
  8
0
100
AcDbCircle
 10
965.5946935603251
 20
777.9786218445939
 30
0.0
 40
3.0
100
AcDbArc
 50
90.0
 51
180.0
  0
LINE
  5
36C3
330
2
100
AcDbEntity
  8
0
100
AcDbLine
 10
962.594693560325
 20
787.9786218445957
 30
0.0
 11
962.594693560325
 21
780.9786218445958
 31
0.0
  0
LINE
  5
36C4
330
2
100
AcDbEntity
  8
0
100
AcDbLine
 10
1002.094693560325
 20
872.4786218445954
 30
0.0
 11
990.0946935603258
 21
872.4786218445954
 31
0.0
  0
ARC
  5
36C5
330
2
100
AcDbEntity
  8
0
100
AcDbCircle
 10
990.0946935603258
 20
869.4786218445955
 30
0.0
 40
3.0
100
AcDbArc
 50
90.0
 51
180.0
  0
LINE
  5
36C6
330
2
100
AcDbEntity
  8
0
100
AcDbLine
 10
984.0946935603252
 20
787.9786218445964
 30
0.0
 11
965.5946935603251
 21
787.9786218445957
 31
0.0
  0
ARC
  5
36C7
330
2
100
AcDbEntity
  8
0
100
AcDbCircle
 10
965.5946935603253
 20
790.9786218445957
 30
0.0
 40
3.0
100
AcDbArc
 50
180.0
 51
270.0
  0
LINE
  5
36C8
330
2
100
AcDbEntity
  8
0
100
AcDbLine
 10
963.473373216763
 20
844.357301501034
 30
0.0
 11
986.2160139038849
 21
867.0999421881589
 31
0.0
  0
LINE
  5
36C9
330
2
100
AcDbEntity
  8
0
100
AcDbLine
 10
907.5946935603212
 20
844.4786218445964
 30
0.0
 11
918.5946935603203
 21
844.4786218445988
 31
0.0
  0
ARC
  5
36CA
330
2
100
AcDbEntity
  8
0
100
AcDbCircle
 10
918.594693560321
 20
841.4786218445989
 30
0.0
 40
3.0
100
AcDbArc
 50
0.0
 51
90.0
  0
ARC
  5
36CB
330
2
100
AcDbEntity
  8
0
100
AcDbCircle
 10
922.3363509471043
 20
847.9786218445934
 30
0.0
 40
4.5
100
AcDbArc
 50
240.0735651333211
 51
270.0
  0
LINE
  5
36CC
330
2
100
AcDbEntity
  8
0
100
AcDbLine
 10
907.5946935603212
 20
844.9786218445964
 30
0.0
 11
918.5946935603203
 21
844.9786218445989
 31
0.0
  0
ARC
  5
36CD
330
2
100
AcDbEntity
  8
0
100
AcDbCircle
 10
918.594693560321
 20
841.9786218445988
 30
0.0
 40
3.0
100
AcDbArc
 50
53.13010235406478
 51
90.0
  0
ARC
  5
36CE
330
2
100
AcDbEntity
  8
0
100
AcDbCircle
 10
923.0946935603267
 20
847.9786218445944
 30
0.0
 40
4.5
100
AcDbArc
 50
233.1301023541299
 51
270.0
  0
LINE
  5
36CF
330
2
100
AcDbEntity
  8
0
100
AcDbLine
 10
907.594693560321
 20
724.4786218445944
 30
0.0
 11
918.5946935603201
 21
724.4786218445898
 31
0.0
  0
LINE
  5
36D0
330
2
100
AcDbEntity
  8
0
100
AcDbLine
 10
907.594693560321
 20
723.9786218445943
 30
0.0
 11
918.5946935603201
 21
723.9786218445916
 31
0.0
  0
ARC
  5
36D1
330
2
100
AcDbEntity
  8
0
100
AcDbCircle
 10
918.594693560321
 20
726.9786218445916
 30
0.0
 40
3.0
100
AcDbArc
 50
270.0
 51
306.86989764587
  0
ARC
  5
36D2
330
2
100
AcDbEntity
  8
0
100
AcDbCircle
 10
923.0946935603256
 20
720.978621844595
 30
0.0
 40
4.5
100
AcDbArc
 50
90.0
 51
126.86989764587
  0
LINE
  5
36D3
330
2
100
AcDbEntity
  8
0
100
AcDbLine
 10
974.5946935603486
 20
747.9786218445948
 30
0.0
 11
984.0946935603248
 21
747.9786218445946
 31
0.0
  0
LINE
  5
36D4
330
2
100
AcDbEntity
  8
CENTER
100
AcDbLine
 10
972.8446935603486
 20
759.9786218445948
 30
0.0
 11
994.3446935603486
 21
759.9786218445946
 31
0.0
  0
LINE
  5
36D5
330
2
100
AcDbEntity
  8
CENTER
100
AcDbLine
 10
983.5946935603486
 20
749.2286218445946
 30
0.0
 11
983.5946935603486
 21
770.7286218445946
 31
0.0
  0
LINE
  5
36D6
330
2
100
AcDbEntity
  8
0
100
AcDbLine
 10
971.5946935603485
 20
750.9786218445948
 30
0.0
 11
971.5946935603488
 21
777.9786218445939
 31
0.0
  0
ARC
  5
36D7
330
2
100
AcDbEntity
  8
0
100
AcDbCircle
 10
974.5946935603486
 20
750.9786218445948
 30
0.0
 40
3.0
100
AcDbArc
 50
180.0
 51
270.0
  0
ARC
  5
36D8
330
2
100
AcDbEntity
  8
0
100
AcDbCircle
 10
983.5946935603486
 20
759.9786218445946
 30
0.0
 40
12.0
100
AcDbArc
 50
295.6792886193456
 51
64.32071138065437
  0
ARC
  5
36D9
330
2
100
AcDbEntity
  8
0
100
AcDbCircle
 10
990.0946935603251
 20
773.4971276792015
 30
0.0
 40
3.0
100
AcDbArc
 50
180.0
 51
244.3207113806543
  0
ARC
  5
36DA
330
2
100
AcDbEntity
  8
0
100
AcDbCircle
 10
990.0946935603249
 20
746.4601160099877
 30
0.0
 40
3.0
100
AcDbArc
 50
115.6792886193456
 51
180.0
  0
ARC
  5
36DB
330
2
100
AcDbEntity
  8
0
100
AcDbCircle
 10
961.3520528732033
 20
846.4786218445935
 30
0.0
 40
3.0
100
AcDbArc
 50
270.0
 51
315.0000000000088
  0
ARC
  5
36DC
330
2
100
AcDbEntity
  8
0
100
AcDbCircle
 10
984.0946935603248
 20
869.2212625317184
 30
0.0
 40
3.0
100
AcDbArc
 50
315.0000000000088
 51
0.0
  0
LINE
  5
36DD
330
2
100
AcDbEntity
  8
0
100
AcDbLine
 10
963.4733732167612
 20
724.5999421881545
 30
0.0
 11
986.2160139038822
 21
701.8573015010289
 31
0.0
  0
ARC
  5
36DE
330
2
100
AcDbEntity
  8
0
100
AcDbCircle
 10
961.3520528732012
 20
722.4786218445951
 30
0.0
 40
3.0
100
AcDbArc
 50
44.99999999999114
 51
90.0
  0
ARC
  5
36DF
330
2
100
AcDbEntity
  8
0
100
AcDbCircle
 10
984.0946935603222
 20
699.7359811574696
 30
0.0
 40
3.0
100
AcDbArc
 50
0.0
 51
44.99999999999114
  0
LINE
  5
36E1
330
2
100
AcDbEntity
  8
0
100
AcDbLine
 10
1292.075931331019
 20
451.4001540744256
 30
0.0
 11
1292.075931331019
 21
463.0678655566766
 31
0.0
  0
LINE
  5
36E2
330
2
100
AcDbEntity
  8
0
100
AcDbLine
 10
1285.075931331018
 20
451.4001540744271
 30
0.0
 11
1285.075931331018
 21
463.0678655566771
 31
0.0
  0
ARC
  5
36E3
330
2
100
AcDbEntity
  8
0
100
AcDbCircle
 10
1282.075931331019
 20
463.0678655566771
 30
0.0
 40
3.0
100
AcDbArc
 50
0.0
 51
90.0
  0
LINE
  5
36E5
330
2
100
AcDbEntity
  8
0
100
AcDbLine
 10
1366.348995580186
 20
297.067865556678
 30
0.0
 11
1210.802867081841
 21
297.0678655566753
 31
0.0
  0
ARC
  5
36E6
330
2
100
AcDbEntity
  8
0
100
AcDbCircle
 10
1210.802867081841
 20
307.0678655566753
 30
0.0
 40
10.0
100
AcDbArc
 50
180.1666666666621
 51
270.0
  0
LINE
  5
36E7
330
2
100
AcDbEntity
  8
0
100
AcDbLine
 10
1366.348995580185
 20
473.0678655566761
 30
0.0
 11
1210.802867081842
 21
473.0678655566761
 31
0.0
  0
ARC
  5
36E8
330
2
100
AcDbEntity
  8
0
100
AcDbCircle
 10
1366.348995580185
 20
463.0678655566762
 30
0.0
 40
10.0
100
AcDbArc
 50
0.1666666666621019
 51
90.0
  0
LINE
  5
36E9
330
2
100
AcDbEntity
  8
CENTER
100
AcDbLine
 10
1348.28660944967
 20
314.357187438025
 30
0.0
 11
1370.28660944967
 21
314.357187438025
 31
0.0
  0
LINE
  5
36EA
330
2
100
AcDbEntity
  8
CENTER
100
AcDbLine
 10
1359.28660944967
 20
325.3571874380195
 30
0.0
 11
1359.28660944967
 21
303.3571874380195
 31
0.0
  0
LINE
  5
36EB
330
2
100
AcDbEntity
  8
CENTER
100
AcDbLine
 10
1359.286609449672
 20
444.7785436753283
 30
0.0
 11
1359.286609449672
 21
466.7785436753283
 31
0.0
  0
LINE
  5
36EC
330
2
100
AcDbEntity
  8
CENTER
100
AcDbLine
 10
1348.286609449677
 20
455.7785436753284
 30
0.0
 11
1370.286609449677
 21
455.7785436753284
 31
0.0
  0
LINE
  5
36ED
330
2
100
AcDbEntity
  8
CENTER
100
AcDbLine
 10
1228.865253212367
 20
455.7785436753301
 30
0.0
 11
1206.865253212367
 21
455.7785436753301
 31
0.0
  0
LINE
  5
36EE
330
2
100
AcDbEntity
  8
CENTER
100
AcDbLine
 10
1217.865253212367
 20
444.7785436753356
 30
0.0
 11
1217.865253212367
 21
466.7785436753356
 31
0.0
  0
LINE
  5
36EF
330
2
100
AcDbEntity
  8
CENTER
100
AcDbLine
 10
1217.865253212365
 20
325.3571874380268
 30
0.0
 11
1217.865253212365
 21
303.3571874380267
 31
0.0
  0
LINE
  5
36F0
330
2
100
AcDbEntity
  8
CENTER
100
AcDbLine
 10
1228.86525321236
 20
314.3571874380268
 30
0.0
 11
1206.86525321236
 21
314.3571874380268
 31
0.0
  0
ARC
  5
36F1
330
2
100
AcDbEntity
  8
0
100
AcDbCircle
 10
1288.575931331013
 20
385.0678655566625
 30
0.0
 40
63.650000000006
100
AcDbArc
 50
322.1562536252309
 51
37.8437463747782
  0
ARC
  5
36F2
330
2
100
AcDbEntity
  8
0
100
AcDbCircle
 10
1288.575931331013
 20
385.0678655566625
 30
0.0
 40
63.650000000006
100
AcDbArc
 50
52.15625362520237
 51
127.8437463747507
  0
ARC
  5
36F3
330
2
100
AcDbEntity
  8
0
100
AcDbCircle
 10
1288.575931331013
 20
385.0678655566625
 30
0.0
 40
63.650000000006
100
AcDbArc
 50
142.1562536252023
 51
217.843746374769
  0
ARC
  5
36F4
330
2
100
AcDbEntity
  8
0
100
AcDbCircle
 10
1288.575931331013
 20
385.0678655566625
 30
0.0
 40
63.650000000006
100
AcDbArc
 50
232.1562536252023
 51
307.8437463747832
  0
ARC
  5
36F5
330
2
100
AcDbEntity
  8
0
100
AcDbCircle
 10
1279.148627798677
 20
451.0477749845563
 30
0.0
 40
3.0
100
AcDbArc
 50
180.0
 51
278.1314658326825
  0
ARC
  5
36F6
330
2
100
AcDbEntity
  8
0
100
AcDbCircle
 10
1295.07593133102
 20
451.4001540744256
 30
0.0
 40
3.0
100
AcDbArc
 50
180.0
 51
264.4033689414049
  0
ARC
  5
36F7
330
2
100
AcDbEntity
  8
0
100
AcDbCircle
 10
1282.075931331018
 20
451.4001540744271
 30
0.0
 40
3.0
100
AcDbArc
 50
275.596631058595
 51
0.0
  0
ARC
  5
36F8
330
2
100
AcDbEntity
  8
0
100
AcDbCircle
 10
1217.865253212367
 20
314.3571874380277
 30
0.0
 40
12.5
100
AcDbArc
 50
331.9476024175648
 51
118.0523975824643
  0
ARC
  5
36F9
330
2
100
AcDbEntity
  8
0
100
AcDbCircle
 10
1210.575931331018
 20
328.0362146881684
 30
0.0
 40
3.0
100
AcDbArc
 50
180.0
 51
298.0523975824643
  0
LINE
  5
36FA
330
2
100
AcDbEntity
  8
0
100
AcDbLine
 10
1207.575931331018
 20
442.0995164251857
 30
0.0
 11
1207.575931331018
 21
328.0362146881684
 31
0.0
  0
ARC
  5
36FB
330
2
100
AcDbEntity
  8
0
100
AcDbCircle
 10
1231.544280462508
 20
307.067865556678
 30
0.0
 40
3.0
100
AcDbArc
 50
151.9476024175356
 51
270.0
  0
LINE
  5
36FC
330
2
100
AcDbEntity
  8
0
100
AcDbLine
 10
1345.607582199507
 20
304.0678655566762
 30
0.0
 11
1231.544280462508
 21
304.067865556678
 31
0.0
  0
ARC
  5
36FD
330
2
100
AcDbEntity
  8
0
100
AcDbCircle
 10
1359.286609449648
 20
314.3571874380167
 30
0.0
 40
12.5
100
AcDbArc
 50
61.94760241753566
 51
208.0523975824643
  0
ARC
  5
36FE
330
2
100
AcDbEntity
  8
0
100
AcDbCircle
 10
1345.607582199507
 20
307.067865556668
 30
0.0
 40
3.0
100
AcDbArc
 50
270.0
 51
28.05239758246432
  0
ARC
  5
36FF
330
2
100
AcDbEntity
  8
0
100
AcDbCircle
 10
1366.575931330997
 20
328.036214688158
 30
0.0
 40
3.0
100
AcDbArc
 50
241.9476024175356
 51
0.0
  0
LINE
  5
3700
330
2
100
AcDbEntity
  8
0
100
AcDbLine
 10
1369.575931331001
 20
442.0995164251985
 30
0.0
 11
1369.575931330997
 21
328.036214688158
 31
0.0
  0
ARC
  5
3701
330
2
100
AcDbEntity
  8
0
100
AcDbCircle
 10
1217.865253212367
 20
455.7785436753265
 30
0.0
 40
12.5
100
AcDbArc
 50
241.9476024175356
 51
28.05239758246432
  0
ARC
  5
3702
330
2
100
AcDbEntity
  8
0
100
AcDbCircle
 10
1210.575931331018
 20
442.0995164251857
 30
0.0
 40
3.0
100
AcDbArc
 50
61.94760241753566
 51
180.0
  0
ARC
  5
3703
330
2
100
AcDbEntity
  8
0
100
AcDbCircle
 10
1231.544280462508
 20
463.0678655566762
 30
0.0
 40
3.0
100
AcDbArc
 50
90.0
 51
208.0523975824643
  0
LINE
  5
3704
330
2
100
AcDbEntity
  8
0
100
AcDbLine
 10
1345.607582199507
 20
466.0678655566771
 30
0.0
 11
1231.544280462508
 21
466.0678655566762
 31
0.0
  0
ARC
  5
3705
330
2
100
AcDbEntity
  8
0
100
AcDbCircle
 10
1279.148627798677
 20
463.0678655566766
 30
0.0
 40
3.0
100
AcDbArc
 50
90.0
 51
180.0
  0
ARC
  5
3706
330
2
100
AcDbEntity
  8
0
100
AcDbCircle
 10
1249.00323486338
 20
463.0678655566762
 30
0.0
 40
3.0
100
AcDbArc
 50
0.0
 51
90.0
  0
ARC
  5
3707
330
2
100
AcDbEntity
  8
0
100
AcDbCircle
 10
1295.07593133102
 20
463.0678655566766
 30
0.0
 40
3.0
100
AcDbArc
 50
90.0
 51
180.0
  0
ARC
  5
3708
330
2
100
AcDbEntity
  8
0
100
AcDbCircle
 10
1359.286609449648
 20
455.7785436753374
 30
0.0
 40
12.5
100
AcDbArc
 50
151.9476024175356
 51
298.0523975824643
  0
ARC
  5
3709
330
2
100
AcDbEntity
  8
0
100
AcDbCircle
 10
1366.575931331
 20
442.0995164251985
 30
0.0
 40
3.0
100
AcDbArc
 50
0.0
 51
118.0523975824643
  0
ARC
  5
370A
330
2
100
AcDbEntity
  8
0
100
AcDbCircle
 10
1345.607582199507
 20
463.0678655566862
 30
0.0
 40
3.0
100
AcDbArc
 50
331.9476024175356
 51
90.0
  0
LINE
  5
370B
330
2
100
AcDbEntity
  8
0
100
AcDbLine
 10
1222.243642813271
 20
388.5678655566762
 30
0.0
 11
1210.57593133102
 21
388.5678655566762
 31
0.0
  0
LINE
  5
370C
330
2
100
AcDbEntity
  8
0
100
AcDbLine
 10
1222.24364281327
 20
381.5678655566753
 30
0.0
 11
1210.57593133102
 21
381.5678655566753
 31
0.0
  0
ARC
  5
370D
330
2
100
AcDbEntity
  8
0
100
AcDbCircle
 10
1210.57593133102
 20
378.5678655566753
 30
0.0
 40
3.0
100
AcDbArc
 50
90.0
 51
180.0
  0
ARC
  5
370E
330
2
100
AcDbEntity
  8
0
100
AcDbCircle
 10
1222.243642813271
 20
391.5678655566762
 30
0.0
 40
3.0
100
AcDbArc
 50
270.0
 51
354.4033689414049
  0
ARC
  5
370F
330
2
100
AcDbEntity
  8
0
100
AcDbCircle
 10
1222.24364281327
 20
378.5678655566744
 30
0.0
 40
3.0
100
AcDbArc
 50
5.59663105859507
 51
90.0
  0
ARC
  5
3710
330
2
100
AcDbEntity
  8
0
100
AcDbCircle
 10
1210.57593133102
 20
391.5678655566762
 30
0.0
 40
3.0
100
AcDbArc
 50
180.0
 51
270.0
  0
LINE
  5
3711
330
2
100
AcDbEntity
  8
0
100
AcDbLine
 10
1285.075931331021
 20
318.7355770389285
 30
0.0
 11
1285.075931331021
 21
307.0678655566775
 31
0.0
  0
LINE
  5
3712
330
2
100
AcDbEntity
  8
0
100
AcDbLine
 10
1292.075931331022
 20
318.7355770389276
 30
0.0
 11
1292.075931331022
 21
307.0678655566771
 31
0.0
  0
ARC
  5
3713
330
2
100
AcDbEntity
  8
0
100
AcDbCircle
 10
1295.075931331022
 20
307.0678655566771
 30
0.0
 40
3.0
100
AcDbArc
 50
180.0
 51
270.0
  0
ARC
  5
3714
330
2
100
AcDbEntity
  8
0
100
AcDbCircle
 10
1282.075931331021
 20
318.7355770389285
 30
0.0
 40
3.0
100
AcDbArc
 50
0.0
 51
84.40336894140491
  0
ARC
  5
3715
330
2
100
AcDbEntity
  8
0
100
AcDbCircle
 10
1295.075931331023
 20
318.7355770389276
 30
0.0
 40
3.0
100
AcDbArc
 50
95.59663105859508
 51
180.0
  0
ARC
  5
3716
330
2
100
AcDbEntity
  8
0
100
AcDbCircle
 10
1282.075931331021
 20
307.0678655566775
 30
0.0
 40
3.0
100
AcDbArc
 50
270.0
 51
0.0
  0
LINE
  5
3717
330
2
100
AcDbEntity
  8
0
100
AcDbLine
 10
1354.90821984877
 20
381.567865556678
 30
0.0
 11
1366.57593133102
 21
381.567865556678
 31
0.0
  0
LINE
  5
3718
330
2
100
AcDbEntity
  8
0
100
AcDbLine
 10
1354.908219848771
 20
388.5678655566789
 30
0.0
 11
1366.57593133102
 21
388.5678655566789
 31
0.0
  0
ARC
  5
3719
330
2
100
AcDbEntity
  8
0
100
AcDbCircle
 10
1366.57593133102
 20
391.5678655566789
 30
0.0
 40
3.0
100
AcDbArc
 50
270.0
 51
0.0
  0
ARC
  5
371A
330
2
100
AcDbEntity
  8
0
100
AcDbCircle
 10
1354.90821984877
 20
378.567865556678
 30
0.0
 40
3.0
100
AcDbArc
 50
90.0
 51
174.4033689414049
  0
ARC
  5
371B
330
2
100
AcDbEntity
  8
0
100
AcDbCircle
 10
1354.908219848771
 20
391.5678655566798
 30
0.0
 40
3.0
100
AcDbArc
 50
185.596631058595
 51
270.0
  0
ARC
  5
371C
330
2
100
AcDbEntity
  8
0
100
AcDbCircle
 10
1366.57593133102
 20
378.567865556678
 30
0.0
 40
3.0
100
AcDbArc
 50
0.0
 51
90.0
  0
LINE
  5
371D
330
2
100
AcDbEntity
  8
0
100
AcDbLine
 10
1376.348953272239
 20
463.0969543365186
 30
0.0
 11
1376.575931331021
 21
385.0678655566771
 31
0.0
  0
LINE
  5
371E
330
2
100
AcDbEntity
  8
0
100
AcDbLine
 10
1376.348953272241
 20
307.0387767768356
 30
0.0
 11
1376.575931331021
 21
385.0678655566771
 31
0.0
  0
ARC
  5
371F
330
2
100
AcDbEntity
  8
0
100
AcDbCircle
 10
1366.348995580186
 20
307.067865556678
 30
0.0
 40
10.0
100
AcDbArc
 50
270.0
 51
359.8333333333378
  0
LINE
  5
3720
330
2
100
AcDbEntity
  8
0
100
AcDbLine
 10
1200.802909389787
 20
463.096954336519
 30
0.0
 11
1200.575931331005
 21
385.0678655566773
 31
0.0
  0
ARC
  5
3721
330
2
100
AcDbEntity
  8
0
100
AcDbCircle
 10
1210.802867081842
 20
463.0678655566762
 30
0.0
 40
10.0
100
AcDbArc
 50
90.0
 51
179.8333333333378
  0
LINE
  5
3722
330
2
100
AcDbEntity
  8
0
100
AcDbLine
 10
1200.802909389786
 20
307.0387767768325
 30
0.0
 11
1200.575931331005
 21
385.0678655566773
 31
0.0
  0
CIRCLE
  5
3723
330
2
100
AcDbEntity
  8
HIDS
  6
SEKKEI_H
100
AcDbCircle
 10
1288.575931331016
 20
385.0678655566516
 30
0.0
 40
59.00000000733051
  0
LINE
  5
3724
330
2
100
AcDbEntity
  8
0
100
AcDbLine
 10
1276.148627798678
 20
463.0678655566766
 30
0.0
 11
1276.148627798677
 21
451.0477749845567
 31
0.0
  0
CIRCLE
  5
3725
330
2
100
AcDbEntity
  8
0
100
AcDbCircle
 10
1337.719852623482
 20
335.9239442642001
 30
0.0
 40
5.5
  0
CIRCLE
  5
3726
330
2
100
AcDbEntity
  8
0
100
AcDbCircle
 10
1337.719852623475
 20
434.2117868491313
 30
0.0
 40
5.5
  0
CIRCLE
  5
3727
330
2
100
AcDbEntity
  8
0
100
AcDbCircle
 10
1239.432010038544
 20
434.211786849125
 30
0.0
 40
5.5
  0
CIRCLE
  5
3728
330
2
100
AcDbEntity
  8
0
100
AcDbCircle
 10
1239.432010038551
 20
335.9239442641937
 30
0.0
 40
5.5
  0
LINE
  5
3729
330
2
100
AcDbEntity
  8
CENTER
100
AcDbLine
 10
1337.71985262347
 20
426.4507052426925
 30
0.0
 11
1337.71985262347
 21
441.9728684555702
 31
0.0
  0
LINE
  5
372A
330
2
100
AcDbEntity
  8
CENTER
100
AcDbLine
 10
1329.958771017037
 20
434.2117868491313
 30
0.0
 11
1345.480934229914
 21
434.2117868491313
 31
0.0
  0
CIRCLE
  5
372B
330
2
100
AcDbEntity
  8
HOJO
100
AcDbCircle
 10
1359.286609449671
 20
455.7785436753284
 30
0.0
 40
6.0
  0
CIRCLE
  5
372C
330
2
100
AcDbEntity
  8
0
100
AcDbCircle
 10
1359.286609449671
 20
455.7785436753284
 30
0.0
 40
5.15
  0
CIRCLE
  5
372D
330
2
100
AcDbEntity
  8
HOJO
100
AcDbCircle
 10
1217.865253212376
 20
455.7785436753301
 30
0.0
 40
6.0
  0
CIRCLE
  5
372E
330
2
100
AcDbEntity
  8
0
100
AcDbCircle
 10
1217.865253212376
 20
455.7785436753301
 30
0.0
 40
5.15
  0
CIRCLE
  5
372F
330
2
100
AcDbEntity
  8
HOJO
100
AcDbCircle
 10
1217.865253212365
 20
314.357187438025
 30
0.0
 40
6.0
  0
CIRCLE
  5
3730
330
2
100
AcDbEntity
  8
0
100
AcDbCircle
 10
1217.865253212365
 20
314.357187438025
 30
0.0
 40
5.15
  0
CIRCLE
  5
3731
330
2
100
AcDbEntity
  8
HOJO
100
AcDbCircle
 10
1359.286609449669
 20
314.3571874380186
 30
0.0
 40
6.0
  0
CIRCLE
  5
3732
330
2
100
AcDbEntity
  8
0
100
AcDbCircle
 10
1359.286609449669
 20
314.3571874380186
 30
0.0
 40
5.15
  0
CIRCLE
  5
3733
330
2
100
AcDbEntity
  8
0
100
AcDbCircle
 10
1288.57593133102
 20
385.0678655566789
 30
0.0
 40
57.14999999998963
  0
CIRCLE
  5
3734
330
2
100
AcDbEntity
  8
CENTER
100
AcDbCircle
 10
1288.575931331018
 20
385.0678655566771
 30
0.0
 40
99.99999999999339
  0
LINE
  5
3735
330
2
100
AcDbEntity
  8
0
100
AcDbLine
 10
1233.379175991608
 20
324.921362748958
 30
0.0
 11
1230.290001317588
 21
321.8321880749381
 31
0.0
  0
LINE
  5
3736
330
2
100
AcDbEntity
  8
0
100
AcDbLine
 10
1228.429428523303
 20
329.871110217264
 30
0.0
 11
1225.340253849283
 21
326.781935543245
 31
0.0
  0
ARC
  5
3737
330
2
100
AcDbEntity
  8
0
100
AcDbCircle
 10
1249.003234863383
 20
438.698306486086
 30
0.0
 40
3.0
100
AcDbArc
 50
306.4227819605217
 51
0.0
  0
ARC
  5
3738
330
2
100
AcDbEntity
  8
0
100
AcDbCircle
 10
1325.785323307508
 20
337.1733601438222
 30
0.0
 40
3.0
100
AcDbArc
 50
307.8437463747832
 51
354.023523082027
  0
ARC
  5
3739
330
2
100
AcDbEntity
  8
0
100
AcDbCircle
 10
1232.411321661148
 20
319.7108677313786
 30
0.0
 40
3.0
100
AcDbArc
 50
135.0000000000092
 51
200.2061375369399
  0
ARC
  5
373A
330
2
100
AcDbEntity
  8
0
100
AcDbCircle
 10
1223.218933505723
 20
328.9032558868045
 30
0.0
 40
3.0
100
AcDbArc
 50
249.793862463031
 51
315.0000000000092
  0
LINE
  5
373B
330
2
100
AcDbEntity
  8
0
100
AcDbLine
 10
1348.722434138724
 20
329.8711102172501
 30
0.0
 11
1351.811608812736
 21
326.7819355432338
 31
0.0
  0
LINE
  5
373C
330
2
100
AcDbEntity
  8
0
100
AcDbLine
 10
1343.772686670416
 20
324.9213627489439
 30
0.0
 11
1346.86186134443
 21
321.832188074929
 31
0.0
  0
ARC
  5
373D
330
2
100
AcDbEntity
  8
0
100
AcDbCircle
 10
1353.932929156297
 20
328.9032558867938
 30
0.0
 40
3.0
100
AcDbArc
 50
224.9999999999907
 51
290.2061375369689
  0
ARC
  5
373E
330
2
100
AcDbEntity
  8
0
100
AcDbCircle
 10
1344.740541000871
 20
319.710867731369
 30
0.0
 40
3.0
100
AcDbArc
 50
339.793862463031
 51
44.99999999999077
  0
LINE
  5
373F
330
2
100
AcDbEntity
  8
0
100
AcDbLine
 10
1233.379175991607
 20
445.2143683643932
 30
0.0
 11
1230.290001317588
 21
448.3035430384124
 31
0.0
  0
LINE
  5
3740
330
2
100
AcDbEntity
  8
0
100
AcDbLine
 10
1228.4294285233
 20
440.2646208960891
 30
0.0
 11
1225.340253849283
 21
443.3537955701058
 31
0.0
  0
ARC
  5
3741
330
2
100
AcDbEntity
  8
0
100
AcDbCircle
 10
1232.411321661148
 20
450.424863381972
 30
0.0
 40
3.0
100
AcDbArc
 50
159.7938624630599
 51
224.9999999999907
  0
ARC
  5
3742
330
2
100
AcDbEntity
  8
0
100
AcDbCircle
 10
1223.218933505723
 20
441.2324752265463
 30
0.0
 40
3.0
100
AcDbArc
 50
44.99999999999077
 51
110.2061375369689
  0
LINE
  5
3743
330
2
100
AcDbEntity
  8
0
100
AcDbLine
 10
1348.722434138723
 20
440.2646208961045
 30
0.0
 11
1351.811608812736
 21
443.3537955701167
 31
0.0
  0
LINE
  5
3744
330
2
100
AcDbEntity
  8
0
100
AcDbLine
 10
1343.772686670419
 20
445.2143683644107
 30
0.0
 11
1346.86186134443
 21
448.3035430384216
 31
0.0
  0
ARC
  5
3745
330
2
100
AcDbEntity
  8
0
100
AcDbCircle
 10
1353.932929156297
 20
441.2324752265567
 30
0.0
 40
3.0
100
AcDbArc
 50
69.79386246303104
 51
135.0000000000092
  0
ARC
  5
3746
330
2
100
AcDbEntity
  8
0
100
AcDbCircle
 10
1344.740541000871
 20
450.4248633819815
 30
0.0
 40
3.0
100
AcDbArc
 50
315.0000000000092
 51
20.20613753696897
  0
LINE
  5
3747
330
2
100
AcDbEntity
  8
0
100
AcDbLine
 10
1252.003234863382
 20
463.0678655566744
 30
0.0
 11
1252.003234863384
 21
438.698306486086
 31
0.0
  0
ARC
  5
3748
330
2
100
AcDbEntity
  8
0
100
AcDbCircle
 10
1337.719852623484
 20
335.9239442641988
 30
0.0
 40
8.999751248844436
100
AcDbArc
 50
95.97647691799958
 51
174.0235230820269
  0
ARC
  5
3749
330
2
100
AcDbEntity
  8
0
100
AcDbCircle
 10
1336.470436743858
 20
347.8584735801744
 30
0.0
 40
3.0
100
AcDbArc
 50
275.9764769179996
 51
322.1562536252166
  0
LINE
  5
374A
330
2
100
AcDbEntity
  8
0
100
AcDbLine
 10
1346.601113795167
 20
331.9924305608096
 30
0.0
 11
1341.651366326859
 21
327.0426830924993
 31
0.0
  0
ARC
  5
374B
330
2
100
AcDbEntity
  8
0
100
AcDbCircle
 10
1350.843754482284
 20
331.9924305608085
 30
0.0
 40
3.0
100
AcDbArc
 50
135.0000000000092
 51
224.9999999999907
  0
ARC
  5
374C
330
2
100
AcDbEntity
  8
0
100
AcDbCircle
 10
1341.651366326856
 20
322.8000424053839
 30
0.0
 40
3.0
100
AcDbArc
 50
44.99999999999077
 51
135.0000000000092
  0
LINE
  5
374D
330
2
100
AcDbEntity
  8
0
100
AcDbLine
 10
1341.651366326888
 20
443.0930480208234
 30
0.0
 11
1346.601113795198
 21
438.1433005525159
 31
0.0
  0
ARC
  5
374E
330
2
100
AcDbEntity
  8
0
100
AcDbCircle
 10
1341.651366326889
 20
447.3356887079408
 30
0.0
 40
3.0
100
AcDbArc
 50
224.9999999999907
 51
315.0000000000092
  0
ARC
  5
374F
330
2
100
AcDbEntity
  8
0
100
AcDbCircle
 10
1350.843754482313
 20
438.1433005525131
 30
0.0
 40
3.0
100
AcDbArc
 50
135.0000000000092
 51
224.9999999999907
  0
LINE
  5
3750
330
2
100
AcDbEntity
  8
0
100
AcDbLine
 10
1230.550748866874
 20
438.143300552545
 30
0.0
 11
1235.500496335181
 21
443.0930480208551
 31
0.0
  0
ARC
  5
3751
330
2
100
AcDbEntity
  8
0
100
AcDbCircle
 10
1226.308108179757
 20
438.1433005525459
 30
0.0
 40
3.0
100
AcDbArc
 50
315.0000000000092
 51
44.99999999999077
  0
ARC
  5
3752
330
2
100
AcDbEntity
  8
0
100
AcDbCircle
 10
1235.500496335184
 20
447.3356887079705
 30
0.0
 40
3.0
100
AcDbArc
 50
224.9999999999907
 51
315.0000000000092
  0
LINE
  5
3753
330
2
100
AcDbEntity
  8
0
100
AcDbLine
 10
1235.500496335152
 20
327.0426830925307
 30
0.0
 11
1230.550748866842
 21
331.9924305608383
 31
0.0
  0
ARC
  5
3754
330
2
100
AcDbEntity
  8
0
100
AcDbCircle
 10
1235.500496335151
 20
322.8000424054134
 30
0.0
 40
3.0
100
AcDbArc
 50
44.99999999999077
 51
135.0000000000092
  0
ARC
  5
3755
330
2
100
AcDbEntity
  8
0
100
AcDbCircle
 10
1226.308108179727
 20
331.992430560841
 30
0.0
 40
3.0
100
AcDbArc
 50
315.0000000000092
 51
44.99999999999077
  0
ARC
  5
3756
330
2
100
AcDbEntity
  8
0
100
AcDbCircle
 10
1336.470436743876
 20
422.2772575331646
 30
0.0
 40
3.0
100
AcDbArc
 50
37.84374637479763
 51
84.02352308205292
  0
ARC
  5
3757
330
2
100
AcDbEntity
  8
0
100
AcDbCircle
 10
1337.719852623499
 20
434.2117868491405
 30
0.0
 40
8.999751248844436
100
AcDbArc
 50
185.9764769179996
 51
264.0235230820529
  0
ARC
  5
3758
330
2
100
AcDbEntity
  8
0
100
AcDbCircle
 10
1325.785323307523
 20
432.9623709695152
 30
0.0
 40
3.0
100
AcDbArc
 50
5.976476917999615
 51
52.15625362521666
  0
ARC
  5
3759
330
2
100
AcDbEntity
  8
0
100
AcDbCircle
 10
1251.366539354533
 20
432.9623709695324
 30
0.0
 40
3.0
100
AcDbArc
 50
127.8437463748484
 51
174.0235230820133
  0
ARC
  5
375A
330
2
100
AcDbEntity
  8
0
100
AcDbCircle
 10
1239.432010038557
 20
434.2117868491559
 30
0.0
 40
8.999751248844436
100
AcDbArc
 50
275.976476917947
 51
354.0235230820133
  0
ARC
  5
375B
330
2
100
AcDbEntity
  8
0
100
AcDbCircle
 10
1240.681425918182
 20
422.27725753318
 30
0.0
 40
3.0
100
AcDbArc
 50
95.97647691794714
 51
142.1562536252166
  0
ARC
  5
375C
330
2
100
AcDbEntity
  8
0
100
AcDbCircle
 10
1240.681425918165
 20
347.8584735801896
 30
0.0
 40
3.0
100
AcDbArc
 50
217.8437463747833
 51
264.0235230820529
  0
ARC
  5
375D
330
2
100
AcDbEntity
  8
0
100
AcDbCircle
 10
1239.432010038542
 20
335.9239442642138
 30
0.0
 40
8.999751248844436
100
AcDbArc
 50
5.976476917999615
 51
84.02352308205292
  0
ARC
  5
375E
330
2
100
AcDbEntity
  8
0
100
AcDbCircle
 10
1251.366539354517
 20
337.173360143839
 30
0.0
 40
3.0
100
AcDbArc
 50
185.9764769179996
 51
232.1562536252166
  0
LINE
  5
3760
330
2
100
AcDbEntity
  8
0
100
AcDbLine
 10
21.44780243073023
 20
444.0678655566751
 30
0.0
 11
75.82106731920544
 21
444.0678655566748
 31
0.0
  0
ARC
  5
3761
330
2
100
AcDbEntity
  8
0
100
AcDbCircle
 10
21.44780243073023
 20
454.067865556675
 30
0.0
 40
10.0
100
AcDbArc
 50
181.0000000000017
 51
270.0
  0
LINE
  5
3762
330
2
100
AcDbEntity
  8
0
100
AcDbLine
 10
90.61463291665427
 20
325.0678655566773
 30
0.0
 11
79.56272470600129
 21
325.0678655566773
 31
0.0
  0
ARC
  5
3763
330
2
100
AcDbEntity
  8
0
100
AcDbCircle
 10
79.56272470600129
 20
328.0678655566773
 30
0.0
 40
3.0
100
AcDbArc
 50
181.0000000000017
 51
270.0
  0
ARC
  5
3764
330
2
100
AcDbEntity
  8
0
100
AcDbCircle
 10
75.82106731922727
 20
321.5678655566773
 30
0.0
 40
4.5
100
AcDbArc
 50
60.07356513338243
 51
90.0
  0
LINE
  5
3765
330
2
100
AcDbEntity
  8
0
100
AcDbLine
 10
75.82106731922817
 20
326.0678655566773
 30
0.0
 11
21.44780243072568
 21
326.0678655566782
 31
0.0
  0
LINE
  5
3766
330
2
100
AcDbEntity
  8
0
100
AcDbLine
 10
11.16608421277055
 20
300.0155083373658
 30
0.0
 11
12.65067863034096
 21
385.0678655566775
 31
0.0
  0
ARC
  5
3767
330
2
100
AcDbEntity
  8
0
100
AcDbCircle
 10
15.53767769243973
 20
378.5678655566775
 30
0.0
 40
3.0
100
AcDbArc
 50
90.0
 51
178.9999999999851
  0
ARC
  5
3768
330
2
100
AcDbEntity
  8
0
100
AcDbCircle
 10
21.44780243072568
 20
316.0678655566782
 30
0.0
 40
10.0
100
AcDbArc
 50
90.0
 51
178.9999999999982
  0
LINE
  5
3769
330
2
100
AcDbEntity
  8
0
100
AcDbLine
 10
-3.885367083350956
 20
297.0678655566773
 30
0.0
 11
-3.885367083350274
 21
473.0678655566794
 31
0.0
  0
LINE
  5
376A
330
2
100
AcDbEntity
  8
0
100
AcDbLine
 10
35.61463291664972
 20
381.5678655566773
 30
0.0
 11
35.61463291664972
 21
388.5678655566773
 31
0.0
  0
LINE
  5
376B
330
2
100
AcDbEntity
  8
0
100
AcDbLine
 10
76.56318162053253
 20
328.0155083373654
 30
0.0
 11
75.56732902096178
 21
385.0678655566775
 31
0.0
  0
LINE
  5
376C
330
2
100
AcDbEntity
  8
0
100
AcDbLine
 10
90.61463291665337
 20
325.0678655566773
 30
0.0
 11
90.61463291665427
 21
445.0678655566774
 31
0.0
  0
LINE
  5
376D
330
2
100
AcDbEntity
  8
0
100
AcDbLine
 10
-3.885367083350956
 20
297.0678655566773
 30
0.0
 11
8.166541127301798
 21
297.0678655566778
 31
0.0
  0
ARC
  5
376E
330
2
100
AcDbEntity
  8
0
100
AcDbCircle
 10
8.166541127301798
 20
300.0678655566778
 30
0.0
 40
3.0
100
AcDbArc
 50
270.0
 51
358.9999999999982
  0
LINE
  5
376F
330
2
100
AcDbEntity
  8
0
100
AcDbLine
 10
15.53767769243973
 20
381.5678655566776
 30
0.0
 11
32.61463291664972
 21
381.5678655566773
 31
0.0
  0
ARC
  5
3770
330
2
100
AcDbEntity
  8
0
100
AcDbCircle
 10
32.61463291664972
 20
378.5678655566773
 30
0.0
 40
3.0
100
AcDbArc
 50
0.0
 51
90.0
  0
LINE
  5
3771
330
2
100
AcDbEntity
  8
0
100
AcDbLine
 10
34.73595326020904
 20
325.1891859002375
 30
0.0
 11
12.0516451748731
 21
302.5048778149007
 31
0.0
  0
LINE
  5
3772
330
2
100
AcDbEntity
  8
0
100
AcDbLine
 10
35.61463291664972
 20
388.5678655566792
 30
0.0
 11
35.61463291664972
 21
381.5678655566792
 31
0.0
  0
LINE
  5
3773
330
2
100
AcDbEntity
  8
0
100
AcDbLine
 10
-3.885367083350274
 20
473.0678655566794
 30
0.0
 11
8.166541127307255
 21
473.0678655566792
 31
0.0
  0
ARC
  5
3774
330
2
100
AcDbEntity
  8
0
100
AcDbCircle
 10
8.166541127307255
 20
470.0678655566791
 30
0.0
 40
3.0
100
AcDbArc
 50
1.000000000001761
 51
90.0
  0
LINE
  5
3775
330
2
100
AcDbEntity
  8
0
100
AcDbLine
 10
15.53767769243882
 20
388.5678655566792
 30
0.0
 11
32.61463291664972
 21
388.5678655566792
 31
0.0
  0
ARC
  5
3776
330
2
100
AcDbEntity
  8
0
100
AcDbCircle
 10
32.61463291664972
 20
391.5678655566791
 30
0.0
 40
3.0
100
AcDbArc
 50
270.0
 51
0.0
  0
LINE
  5
3777
330
2
100
AcDbEntity
  8
0
100
AcDbLine
 10
90.61463291665427
 20
445.0678655566791
 30
0.0
 11
79.56272470598765
 21
445.0678655566791
 31
0.0
  0
LINE
  5
3778
330
2
100
AcDbEntity
  8
0
100
AcDbLine
 10
90.61463291665381
 20
385.0678655566773
 30
0.0
 11
-3.885367083350729
 21
385.0678655566775
 31
0.0
  0
LINE
  5
3779
330
2
100
AcDbEntity
  8
0
100
AcDbLine
 10
76.56318162051888
 20
442.1202227759911
 30
0.0
 11
75.56732902094996
 21
385.0678655566591
 31
0.0
  0
ARC
  5
377A
330
2
100
AcDbEntity
  8
0
100
AcDbCircle
 10
79.56272470598765
 20
442.0678655566791
 30
0.0
 40
3.0
100
AcDbArc
 50
90.0
 51
178.9999999999982
  0
ARC
  5
377B
330
2
100
AcDbEntity
  8
0
100
AcDbCircle
 10
75.82106731920635
 20
448.5678655566748
 30
0.0
 40
4.5
100
AcDbArc
 50
270.0
 51
299.9264348666789
  0
LINE
  5
377C
330
2
100
AcDbEntity
  8
0
100
AcDbLine
 10
11.16608421277601
 20
470.1202227759911
 30
0.0
 11
12.65067863034278
 21
385.0678655566775
 31
0.0
  0
ARC
  5
377D
330
2
100
AcDbEntity
  8
0
100
AcDbCircle
 10
15.53767769243882
 20
391.5678655566791
 30
0.0
 40
3.0
100
AcDbArc
 50
181.0000000000017
 51
270.0
  0
ARC
  5
377E
330
2
100
AcDbEntity
  8
0
100
AcDbCircle
 10
36.85727360376882
 20
323.0678655566778
 30
0.0
 40
3.0
100
AcDbArc
 50
90.0
 51
135.0000000000092
  0
ARC
  5
377F
330
2
100
AcDbEntity
  8
0
100
AcDbCircle
 10
14.17296551843264
 20
300.3835574713409
 30
0.0
 40
3.0
100
AcDbArc
 50
135.0000000000092
 51
178.9999999999982
  0
LINE
  5
3780
330
2
100
AcDbEntity
  8
0
100
AcDbLine
 10
34.73595326020813
 20
444.9465452131183
 30
0.0
 11
12.05164517487173
 21
467.6308532984546
 31
0.0
  0
ARC
  5
3781
330
2
100
AcDbEntity
  8
0
100
AcDbCircle
 10
36.85727360376768
 20
447.0678655566778
 30
0.0
 40
3.0
100
AcDbArc
 50
224.9999999999908
 51
270.0
  0
ARC
  5
3782
330
2
100
AcDbEntity
  8
0
100
AcDbCircle
 10
14.17296551843128
 20
469.7521736420141
 30
0.0
 40
3.0
100
AcDbArc
 50
181.0000000000017
 51
224.9999999999908
  0
LINE
  5
3784
330
2
100
AcDbEntity
  8
0
100
AcDbLine
 10
921.8845653171255
 20
428.4617868492619
 30
0.0
 11
923.3845653171263
 21
428.4617868492619
 31
0.0
  0
LINE
  5
3785
330
2
100
AcDbEntity
  8
0
100
AcDbLine
 10
921.8845653171259
 20
439.961786849262
 30
0.0
 11
923.3845653171265
 21
439.961786849262
 31
0.0
  0
LINE
  5
3786
330
2
100
AcDbEntity
  8
0
100
AcDbLine
 10
928.984565317126
 20
429.2117868492617
 30
0.0
 11
929.3845653171256
 21
429.904607172289
 31
0.0
  0
LINE
  5
3787
330
2
100
AcDbEntity
  8
0
100
AcDbLine
 10
923.3845653171263
 20
428.4617868492619
 30
0.0
 11
923.3845653171265
 21
439.961786849262
 31
0.0
  0
LINE
  5
3788
330
2
100
AcDbEntity
  8
0
100
AcDbLine
 10
928.984565317126
 20
429.2117868492617
 30
0.0
 11
928.9845653171262
 21
439.2117868492618
 31
0.0
  0
LINE
  5
3789
330
2
100
AcDbEntity
  8
0
100
AcDbLine
 10
923.3845653171263
 20
429.211786849262
 30
0.0
 11
928.984565317126
 21
429.2117868492617
 31
0.0
  0
LINE
  5
378A
330
2
100
AcDbEntity
  8
0
100
AcDbLine
 10
923.3845653171265
 20
439.2117868492619
 30
0.0
 11
928.9845653171262
 21
439.2117868492618
 31
0.0
  0
LINE
  5
378B
330
2
100
AcDbEntity
  8
0
100
AcDbLine
 10
928.9845653171262
 20
439.2117868492618
 30
0.0
 11
929.3845653171258
 21
438.5189665262345
 31
0.0
  0
LINE
  5
378C
330
2
100
AcDbEntity
  8
0
100
AcDbLine
 10
929.3845653171256
 20
429.904607172289
 30
0.0
 11
929.3845653171258
 21
438.5189665262345
 31
0.0
  0
LINE
  5
378D
330
2
100
AcDbEntity
  8
0
 48
12.0
100
AcDbLine
 10
921.8845653171259
 20
439.961786849262
 30
0.0
 11
921.8845653171255
 21
428.4617868492619
 31
0.0
  0
LINE
  5
378E
330
2
100
AcDbEntity
  8
0
100
AcDbLine
 10
921.5946935603211
 20
827.8725431370583
 30
0.0
 11
923.0946935603217
 21
827.8725431370583
 31
0.0
  0
LINE
  5
378F
330
2
100
AcDbEntity
  8
0
100
AcDbLine
 10
921.5946935603213
 20
839.3725431370583
 30
0.0
 11
923.0946935603219
 21
839.3725431370583
 31
0.0
  0
LINE
  5
3790
330
2
100
AcDbEntity
  8
0
100
AcDbLine
 10
928.6946935603214
 20
828.622543137058
 30
0.0
 11
929.094693560321
 21
829.3153634600853
 31
0.0
  0
LINE
  5
3791
330
2
100
AcDbEntity
  8
0
100
AcDbLine
 10
923.0946935603217
 20
827.8725431370583
 30
0.0
 11
923.0946935603219
 21
839.3725431370583
 31
0.0
  0
LINE
  5
3792
330
2
100
AcDbEntity
  8
0
100
AcDbLine
 10
928.6946935603214
 20
828.622543137058
 30
0.0
 11
928.6946935603216
 21
838.6225431370581
 31
0.0
  0
LINE
  5
3793
330
2
100
AcDbEntity
  8
0
100
AcDbLine
 10
923.0946935603217
 20
828.6225431370583
 30
0.0
 11
928.6946935603214
 21
828.622543137058
 31
0.0
  0
LINE
  5
3794
330
2
100
AcDbEntity
  8
0
100
AcDbLine
 10
923.0946935603219
 20
838.6225431370583
 30
0.0
 11
928.6946935603216
 21
838.6225431370581
 31
0.0
  0
LINE
  5
3795
330
2
100
AcDbEntity
  8
0
100
AcDbLine
 10
928.6946935603216
 20
838.6225431370581
 30
0.0
 11
929.0946935603212
 21
837.9297228140307
 31
0.0
  0
LINE
  5
3796
330
2
100
AcDbEntity
  8
0
100
AcDbLine
 10
929.094693560321
 20
829.3153634600853
 30
0.0
 11
929.0946935603212
 21
837.9297228140307
 31
0.0
  0
LINE
  5
3797
330
2
100
AcDbEntity
  8
0
 48
12.0
100
AcDbLine
 10
921.5946935603213
 20
839.3725431370583
 30
0.0
 11
921.5946935603211
 21
827.8725431370583
 31
0.0
  0
LINE
  5
3798
330
2
100
AcDbEntity
  8
0
100
AcDbLine
 10
76.32478430936021
 20
341.6732811473032
 30
0.0
 11
74.82478430935976
 21
341.6732811473032
 31
0.0
  0
LINE
  5
3799
330
2
100
AcDbEntity
  8
0
100
AcDbLine
 10
76.32478430935998
 20
330.1732811473032
 30
0.0
 11
74.8247843093593
 21
330.1732811473032
 31
0.0
  0
LINE
  5
379A
330
2
100
AcDbEntity
  8
0
100
AcDbLine
 10
69.22478430935985
 20
340.9232811473034
 30
0.0
 11
68.82478430936021
 21
340.2304608242761
 31
0.0
  0
LINE
  5
379B
330
2
100
AcDbEntity
  8
0
100
AcDbLine
 10
74.82478430935976
 20
341.6732811473032
 30
0.0
 11
74.8247843093593
 21
330.1732811473032
 31
0.0
  0
LINE
  5
379C
330
2
100
AcDbEntity
  8
0
100
AcDbLine
 10
69.22478430935985
 20
340.9232811473034
 30
0.0
 11
69.22478430935962
 21
330.9232811473034
 31
0.0
  0
LINE
  5
379D
330
2
100
AcDbEntity
  8
0
100
AcDbLine
 10
74.82478430935976
 20
340.9232811473032
 30
0.0
 11
69.22478430935985
 21
340.9232811473034
 31
0.0
  0
LINE
  5
379E
330
2
100
AcDbEntity
  8
0
100
AcDbLine
 10
74.8247843093593
 20
330.9232811473032
 30
0.0
 11
69.22478430935962
 21
330.9232811473034
 31
0.0
  0
LINE
  5
379F
330
2
100
AcDbEntity
  8
0
100
AcDbLine
 10
69.22478430935962
 20
330.9232811473034
 30
0.0
 11
68.82478430935998
 21
331.6161014703307
 31
0.0
  0
LINE
  5
37A0
330
2
100
AcDbEntity
  8
0
100
AcDbLine
 10
68.82478430936021
 20
340.2304608242761
 30
0.0
 11
68.82478430935998
 21
331.6161014703307
 31
0.0
  0
LINE
  5
37A1
330
2
100
AcDbEntity
  8
0
 48
12.0
100
AcDbLine
 10
76.32478430935998
 20
330.1732811473032
 30
0.0
 11
76.32478430936021
 21
341.6732811473032
 31
0.0
  0
LINE
  5
37A2
330
2
100
AcDbEntity
  8
0
100
AcDbLine
 10
76.32476115984991
 20
439.9611237322362
 30
0.0
 11
74.82476115984946
 21
439.9611237322362
 31
0.0
  0
LINE
  5
37A3
330
2
100
AcDbEntity
  8
0
100
AcDbLine
 10
76.32476115984991
 20
428.4611237322362
 30
0.0
 11
74.824761159849
 21
428.4611237322362
 31
0.0
  0
LINE
  5
37A4
330
2
100
AcDbEntity
  8
0
100
AcDbLine
 10
69.22476115984955
 20
439.2111237322365
 30
0.0
 11
68.82476115984991
 21
438.5183034092092
 31
0.0
  0
LINE
  5
37A5
330
2
100
AcDbEntity
  8
0
100
AcDbLine
 10
74.82476115984946
 20
439.9611237322362
 30
0.0
 11
74.824761159849
 21
428.4611237322362
 31
0.0
  0
LINE
  5
37A6
330
2
100
AcDbEntity
  8
0
100
AcDbLine
 10
69.22476115984955
 20
439.2111237322365
 30
0.0
 11
69.22476115984955
 21
429.2111237322365
 31
0.0
  0
LINE
  5
37A7
330
2
100
AcDbEntity
  8
0
100
AcDbLine
 10
74.82476115984946
 20
439.2111237322362
 30
0.0
 11
69.22476115984955
 21
439.2111237322365
 31
0.0
  0
LINE
  5
37A8
330
2
100
AcDbEntity
  8
0
100
AcDbLine
 10
74.824761159849
 20
429.2111237322362
 30
0.0
 11
69.22476115984955
 21
429.2111237322365
 31
0.0
  0
LINE
  5
37A9
330
2
100
AcDbEntity
  8
0
100
AcDbLine
 10
69.22476115984955
 20
429.2111237322365
 30
0.0
 11
68.82476115984991
 21
429.9039440552637
 31
0.0
  0
LINE
  5
37AA
330
2
100
AcDbEntity
  8
0
100
AcDbLine
 10
68.82476115984991
 20
438.5183034092092
 30
0.0
 11
68.82476115984991
 21
429.9039440552637
 31
0.0
  0
LINE
  5
37AB
330
2
100
AcDbEntity
  8
0
 48
12.0
100
AcDbLine
 10
76.32476115984991
 20
428.4611237322362
 30
0.0
 11
76.32476115984991
 21
439.9611237322362
 31
0.0
  0
CIRCLE
  5
37AC
330
2
100
AcDbEntity
  8
0
100
AcDbCircle
 10
983.5946935603486
 20
759.9786218445946
 30
0.0
 40
9.0
  0
LINE
  5
37AD
330
2
100
AcDbEntity
  8
0
100
AcDbLine
 10
984.7615240462449
 20
448.0678655566745
 30
0.0
 11
978.5946935603258
 21
448.0678655566745
 31
0.0
  0
ARC
  5
37AE
330
2
100
AcDbEntity
  8
0
100
AcDbCircle
 10
978.5946935603258
 20
444.0678655566745
 30
0.0
 40
4.0
100
AcDbArc
 50
90.0
 51
180.0
  0
LINE
  5
37AF
330
2
100
AcDbEntity
  8
0
100
AcDbLine
 10
972.0946935603265
 20
385.0678655566774
 30
0.0
 11
972.0946935603267
 21
412.5504895736304
 31
0.0
  0
LINE
  5
37B0
330
2
100
AcDbEntity
  8
0
100
AcDbLine
 10
994.0946935603262
 20
385.0678655566774
 30
0.0
 11
994.0946935603262
 21
417.0678655566777
 31
0.0
  0
LINE
  5
37B1
330
2
100
AcDbEntity
  8
0
100
AcDbLine
 10
992.0946935603263
 20
385.0678655566774
 30
0.0
 11
992.0946935603263
 21
402.5678655566776
 31
0.0
  0
LINE
  5
37B2
330
2
100
AcDbEntity
  8
0
100
AcDbLine
 10
974.0946935603265
 20
385.0678655566774
 30
0.0
 11
974.0946935603265
 21
413.2821200150598
 31
0.0
  0
LINE
  5
37B3
330
2
100
AcDbEntity
  8
0
100
AcDbLine
 10
978.3573904785946
 20
417.0678655566777
 30
0.0
 11
994.0946935603262
 21
417.0678655566777
 31
0.0
  0
LINE
  5
37B4
330
2
100
AcDbEntity
  8
0
100
AcDbLine
 10
920.5946935603263
 20
385.0678655566774
 30
0.0
 11
920.5946935603263
 21
403.0678655566772
 31
0.0
  0
LINE
  5
37B5
330
2
100
AcDbEntity
  8
0
 48
0.3
100
AcDbLine
 10
940.5946935603267
 20
402.5678655566772
 30
0.0
 11
972.0946935603263
 21
402.5678655566772
 31
0.0
  0
LINE
  5
37B6
330
2
100
AcDbEntity
  8
0
 48
0.3
100
AcDbLine
 10
974.0946935603263
 20
402.5678655566776
 30
0.0
 11
992.0946935603263
 21
402.5678655566776
 31
0.0
  0
LINE
  5
37B7
330
2
100
AcDbEntity
  8
0
100
AcDbLine
 10
940.5946935603267
 20
385.0678655566774
 30
0.0
 11
940.5946935603267
 21
403.0678655566772
 31
0.0
  0
LINE
  5
37B8
330
2
100
AcDbEntity
  8
0
100
AcDbLine
 10
920.5946935603263
 20
402.0678655566772
 30
0.0
 11
910.7797389841037
 21
385.0678655566777
 31
0.0
  0
LINE
  5
37B9
330
2
100
AcDbEntity
  8
0
100
AcDbLine
 10
940.5946935603262
 20
403.0678655566772
 30
0.0
 11
920.5946935603263
 21
403.0678655566772
 31
0.0
  0
LINE
  5
37BA
330
2
100
AcDbEntity
  8
0
100
AcDbLine
 10
992.0946935603263
 20
402.5678655566776
 30
0.0
 11
994.0946935603262
 21
403.722566095057
 31
0.0
  0
LINE
  5
37BB
330
2
100
AcDbEntity
  8
0
100
AcDbLine
 10
995.0946935603308
 20
442.2178655566782
 30
0.0
 11
995.0946935603262
 21
385.0678655566779
 31
0.0
  0
LINE
  5
37BC
330
2
100
AcDbEntity
  8
0
100
AcDbLine
 10
994.5946935603267
 20
440.3178655566783
 30
0.0
 11
994.5946935603247
 21
385.0678655566772
 31
0.0
  0
LINE
  5
37BD
330
2
100
AcDbEntity
  8
0
100
AcDbLine
 10
983.6058252811374
 20
433.5094251671935
 30
0.0
 11
992.1156380933277
 21
435.0099347667605
 31
0.0
  0
ARC
  5
37BE
330
2
100
AcDbEntity
  8
0
100
AcDbCircle
 10
991.5946935603267
 20
437.9643580257972
 30
0.0
 40
3.0
100
AcDbArc
 50
280.000000000005
 51
0.0
  0
LINE
  5
37BF
330
2
100
AcDbEntity
  8
0
100
AcDbLine
 10
995.0946935603308
 20
440.8178655566797
 30
0.0
 11
994.5946935603267
 21
440.3178655566783
 31
0.0
  0
LINE
  5
37C0
330
2
100
AcDbEntity
  8
0
100
AcDbLine
 10
1002.094693560326
 20
442.217865556678
 30
0.0
 11
995.0946935603308
 21
442.2178655566782
 31
0.0
  0
LINE
  5
37C2
330
2
100
AcDbEntity
  8
CENTER
100
AcDbLine
 10
1264.07593133102
 20
362.1932794685087
 30
0.0
 11
1264.075931331029
 21
478.0678655566762
 31
0.0
  0
LINE
  5
37C3
330
2
100
AcDbEntity
  8
HIDS
  6
SEKKEI_H
100
AcDbLine
 10
1258.178563023888
 20
395.0678655566962
 30
0.0
 11
1271.825931331013
 21
395.0678655566957
 31
0.0
  0
LINE
  5
37C4
330
2
100
AcDbEntity
  8
HIDS
  6
SEKKEI_H
100
AcDbLine
 10
1271.825931331013
 20
395.0678655566957
 30
0.0
 11
1271.825931331013
 21
412.3339158757162
 31
0.0
  0
LINE
  5
37C5
330
2
100
AcDbEntity
  8
HIDS
  6
SEKKEI_H
100
AcDbLine
 10
1268.575931331013
 20
385.817865556693
 30
0.0
 11
1268.575931331013
 21
395.067865556696
 31
0.0
  0
LINE
  5
37C9
330
2
100
AcDbEntity
  8
0
100
AcDbLine
 10
1256.584721600854
 20
384.317865556693
 30
0.0
 11
1271.092010146121
 21
384.317865556693
 31
0.0
  0
LINE
  5
37CA
330
2
100
AcDbEntity
  8
0
100
AcDbLine
 10
1306.059852515935
 20
384.317865556693
 30
0.0
 11
1318.662052975415
 21
384.3178655566934
 31
0.0
  0
LINE
  5
37CB
330
2
100
AcDbEntity
  8
0
100
AcDbLine
 10
1256.584721600854
 20
385.817865556693
 30
0.0
 11
1271.092010146122
 21
385.817865556693
 31
0.0
  0
LINE
  5
37CC
330
2
100
AcDbEntity
  8
0
100
AcDbLine
 10
1306.059852515934
 20
385.8178655566934
 30
0.0
 11
1318.662052975415
 21
385.817865556693
 31
0.0
  0
LINE
  5
37CE
330
2
100
AcDbEntity
  8
HIDS
  6
SEKKEI_H
100
AcDbLine
 10
1259.575931331027
 20
385.817865556693
 30
0.0
 11
1259.575931331027
 21
395.067865556696
 31
0.0
  0
LINE
  5
37CF
330
2
100
AcDbEntity
  8
0
100
AcDbLine
 10
1318.662052975415
 20
384.3178655566934
 30
0.0
 11
1318.662052975415
 21
385.817865556693
 31
0.0
  0
ARC
  5
37D0
330
2
100
AcDbEntity
  8
0
100
AcDbCircle
 10
1288.57593133102
 20
385.0678655566771
 30
0.0
 40
18.65470053837964
100
AcDbArc
 50
182.3041602576043
 51
357.6958397423956
  0
ARC
  5
37D1
330
2
100
AcDbEntity
  8
0
100
AcDbCircle
 10
1288.57593133102
 20
385.0678655566771
 30
0.0
 40
18.65470053837964
100
AcDbArc
 50
2.304160257695482
 51
177.6958397423045
  0
CIRCLE
  5
37D2
330
2
100
AcDbEntity
  8
0
100
AcDbCircle
 10
1288.57593133102
 20
385.0678655566771
 30
0.0
 40
17.50000000000857
  0
CIRCLE
  5
37D3
330
2
100
AcDbEntity
  8
0
100
AcDbCircle
 10
1288.57593133102
 20
385.0678655566771
 30
0.0
 40
31.99999999999173
  0
LINE
  5
37D4
330
2
100
AcDbEntity
  8
HIDS
  6
SEKKEI_H
100
AcDbLine
 10
1270.575931331022
 20
404.5678655566962
 30
0.0
 11
1263.203702418315
 21
404.5678655566964
 31
0.0
  0
LINE
  5
37D5
330
2
100
AcDbEntity
  8
HIDS
  6
SEKKEI_H
100
AcDbLine
 10
1269.709905927237
 20
405.0678655566962
 30
0.0
 11
1263.595939337452
 21
405.0678655566962
 31
0.0
  0
LINE
  5
37D6
330
2
100
AcDbEntity
  8
HIDS
  6
SEKKEI_H
100
AcDbLine
 10
1271.325931331023
 20
397.0678655566962
 30
0.0
 11
1258.911137382654
 21
397.0678655566962
 31
0.0
  0
LINE
  5
37D9
330
2
100
AcDbEntity
  8
0
 48
0.3
100
AcDbLine
 10
1256.825931331023
 20
397.067865556696
 30
0.0
 11
1256.825931331023
 21
395.067865556696
 31
0.0
  0
LINE
  5
37DA
330
2
100
AcDbEntity
  8
0
 48
0.3
100
AcDbLine
 10
1257.575931331023
 20
404.567865556696
 30
0.0
 11
1258.441956734807
 21
405.067865556696
 31
0.0
  0
LINE
  5
37DB
330
2
100
AcDbEntity
  8
0
 48
0.3
100
AcDbLine
 10
1257.575931331023
 20
404.567865556696
 30
0.0
 11
1257.575931331023
 21
397.067865556696
 31
0.0
  0
LINE
  5
37DC
330
2
100
AcDbEntity
  8
HIDS
  6
SEKKEI_H
100
AcDbLine
 10
1271.325931331023
 20
397.0678655566962
 30
0.0
 11
1271.325931331023
 21
395.0678655566962
 31
0.0
  0
LINE
  5
37DD
330
2
100
AcDbEntity
  8
HIDS
  6
SEKKEI_H
100
AcDbLine
 10
1270.575931331022
 20
404.5678655566955
 30
0.0
 11
1269.709905927238
 21
405.0678655566957
 31
0.0
  0
LINE
  5
37DE
330
2
100
AcDbEntity
  8
HIDS
  6
SEKKEI_H
100
AcDbLine
 10
1270.575931331022
 20
404.5678655566953
 30
0.0
 11
1270.575931331022
 21
397.0678655566962
 31
0.0
  0
LINE
  5
37DF
330
2
100
AcDbEntity
  8
0
100
AcDbLine
 10
1263.595939337453
 20
405.0678655566962
 30
0.0
 11
1258.441956734807
 21
405.067865556696
 31
0.0
  0
LINE
  5
37E0
330
2
100
AcDbEntity
  8
0
100
AcDbLine
 10
1263.203702418315
 20
404.5678655566962
 30
0.0
 11
1257.575931331023
 21
404.567865556696
 31
0.0
  0
LINE
  5
37E1
330
2
100
AcDbEntity
  8
0
100
AcDbLine
 10
1258.911137382654
 20
397.067865556696
 30
0.0
 11
1256.825931331023
 21
397.067865556696
 31
0.0
  0
LINE
  5
37E2
330
2
100
AcDbEntity
  8
0
100
AcDbLine
 10
1258.178563023894
 20
395.0678655566962
 30
0.0
 11
1256.825931331023
 21
395.067865556696
 31
0.0
  0
LINE
  5
37E4
330
2
100
AcDbEntity
  8
HIDS
  6
SEKKEI_H
100
AcDbLine
 10
1258.996058923048
 20
395.067865556696
 30
0.0
 11
1271.325931331023
 21
395.0678655566962
 31
0.0
  0
LINE
  5
37E5
330
2
100
AcDbEntity
  8
HOJO
100
AcDbLine
 10
1260.675931331016
 20
384.317865556693
 30
0.0
 11
1260.675931331016
 21
385.817865556693
 31
0.0
  0
LINE
  5
37E6
330
2
100
AcDbEntity
  8
0
100
AcDbLine
 10
1260.075931331016
 20
384.3178655566934
 30
0.0
 11
1260.075931331016
 21
385.817865556693
 31
0.0
  0
LINE
  5
37E7
330
2
100
AcDbEntity
  8
HOJO
100
AcDbLine
 10
1267.475931331015
 20
384.3178655566934
 30
0.0
 11
1267.475931331015
 21
385.817865556693
 31
0.0
  0
LINE
  5
37E8
330
2
100
AcDbEntity
  8
0
100
AcDbLine
 10
1268.075931331016
 20
384.3178655566934
 30
0.0
 11
1268.075931331016
 21
385.817865556693
 31
0.0
  0
LINE
  5
37E9
330
2
100
AcDbEntity
  8
HIDS
  6
SEKKEI_H
100
AcDbLine
 10
1268.075931331016
 20
385.817865556693
 30
0.0
 11
1268.075931331016
 21
395.0678655566957
 31
0.0
  0
LINE
  5
37EA
330
2
100
AcDbEntity
  8
HIDS
  6
SEKKEI_H
100
AcDbLine
 10
1267.475931331015
 20
385.817865556693
 30
0.0
 11
1267.475931331015
 21
395.0678655566957
 31
0.0
  0
LINE
  5
37EB
330
2
100
AcDbEntity
  8
HIDS
  6
SEKKEI_H
100
AcDbLine
 10
1260.675931331016
 20
385.817865556693
 30
0.0
 11
1260.675931331016
 21
395.0678655566962
 31
0.0
  0
LINE
  5
37EC
330
2
100
AcDbEntity
  8
HIDS
  6
SEKKEI_H
100
AcDbLine
 10
1260.075931331016
 20
385.817865556693
 30
0.0
 11
1260.075931331016
 21
395.0678655566962
 31
0.0
  0
LINE
  5
37F2
330
2
100
AcDbEntity
  8
CENTER
100
AcDbLine
 10
457.5202955304132
 20
287.06786555679
 30
0.0
 11
457.5202955304105
 21
483.0678655567895
 31
0.0
  0
LINE
  5
37F3
330
2
100
AcDbEntity
  8
0
100
AcDbLine
 10
397.224462197104
 20
409.5678655566779
 30
0.0
 11
397.4376566174032
 21
435.1511959894284
 31
0.0
  0
LINE
  5
37F4
330
2
100
AcDbEntity
  8
CENTER
  6
CENTERX2
100
AcDbLine
 10
482.0202955304166
 20
447.4063517139739
 30
0.0
 11
482.0202955304166
 21
478.0678655567895
 31
0.0
  0
LINE
  5
37F5
330
2
100
AcDbEntity
  8
CENTER
100
AcDbLine
 10
397.8096174117617
 20
314.3571874381401
 30
0.0
 11
375.8096174117618
 21
314.3571874381401
 31
0.0
  0
LINE
  5
37F6
330
2
100
AcDbEntity
  8
CENTER
100
AcDbLine
 10
386.8096174117617
 20
325.3571874381346
 30
0.0
 11
386.8096174117617
 21
303.3571874381347
 31
0.0
  0
LINE
  5
37F7
330
2
100
AcDbEntity
  8
CENTER
100
AcDbLine
 10
386.8096174117599
 20
444.7785436754435
 30
0.0
 11
386.8096174117599
 21
466.7785436754435
 31
0.0
  0
LINE
  5
37F8
330
2
100
AcDbEntity
  8
CENTER
100
AcDbLine
 10
397.8096174117545
 20
455.7785436754435
 30
0.0
 11
375.8096174117545
 21
455.7785436754435
 31
0.0
  0
LINE
  5
37F9
330
2
100
AcDbEntity
  8
CENTER
100
AcDbLine
 10
517.2309736490642
 20
455.7785436754453
 30
0.0
 11
539.2309736490642
 21
455.7785436754453
 31
0.0
  0
LINE
  5
37FA
330
2
100
AcDbEntity
  8
CENTER
100
AcDbLine
 10
528.2309736490642
 20
444.7785436754507
 30
0.0
 11
528.2309736490642
 21
466.7785436754508
 31
0.0
  0
LINE
  5
37FB
330
2
100
AcDbEntity
  8
CENTER
100
AcDbLine
 10
528.2309736490661
 20
325.3571874381419
 30
0.0
 11
528.2309736490661
 21
303.3571874381419
 31
0.0
  0
LINE
  5
37FC
330
2
100
AcDbEntity
  8
CENTER
100
AcDbLine
 10
517.2309736490715
 20
314.3571874381419
 30
0.0
 11
539.2309736490715
 21
314.3571874381419
 31
0.0
  0
ARC
  5
3809
330
2
100
AcDbEntity
  8
0
100
AcDbCircle
 10
407.4373094132633
 20
435.0678655494526
 30
0.0
 40
10.0
100
AcDbArc
 50
134.6637886472791
 51
179.5225462226371
  0
LINE
  5
380A
330
2
100
AcDbEntity
  8
0
100
AcDbLine
 10
535.2933597795908
 20
297.0678655567914
 30
0.0
 11
379.7472312812451
 21
297.0678655567886
 31
0.0
  0
ARC
  5
380B
330
2
100
AcDbEntity
  8
0
100
AcDbCircle
 10
535.2933597795908
 20
307.0678655567913
 30
0.0
 40
10.0
100
AcDbArc
 50
270.0
 51
359.8333333333378
  0
LINE
  5
380C
330
2
100
AcDbEntity
  8
0
100
AcDbLine
 10
535.2933597795908
 20
473.0678655567896
 30
0.0
 11
379.747231190463
 21
473.0678655567896
 31
0.0
  0
ARC
  5
380D
330
2
100
AcDbEntity
  8
0
100
AcDbCircle
 10
535.2933597795908
 20
463.0678655567895
 30
0.0
 40
10.0
100
AcDbArc
 50
0.166666666662102
 51
90.0
  0
LINE
  5
380E
330
2
100
AcDbEntity
  8
0
100
AcDbLine
 10
397.2244621971054
 20
360.5678655566765
 30
0.0
 11
397.4376566174023
 21
334.9845351241562
 31
0.0
  0
ARC
  5
380F
330
2
100
AcDbEntity
  8
0
100
AcDbCircle
 10
407.4373094132633
 20
335.0678655641319
 30
0.0
 40
10.0
100
AcDbArc
 50
180.4774537773628
 51
225.3362112737917
  0
LINE
  5
3815
330
2
100
AcDbEntity
  8
0
100
AcDbLine
 10
369.5202955304111
 20
385.0678655566204
 30
0.0
 11
395.5202955304173
 21
385.0678655567799
 31
0.0
  0
LINE
  5
381C
330
2
100
AcDbEntity
  8
0
100
AcDbLine
 10
460.0189693594484
 20
469.0678655568014
 30
0.0
 11
455.0189693594484
 21
469.0678655568014
 31
0.0
  0
LINE
  5
381D
330
2
100
AcDbEntity
  8
0
100
AcDbLine
 10
454.5983743594105
 20
465.9893347118782
 30
0.0
 11
454.2395580402483
 21
452.2866923124379
 31
0.0
  0
LINE
  5
381E
330
2
100
AcDbEntity
  8
0
100
AcDbLine
 10
460.4422167014108
 20
465.9893347118778
 30
0.0
 11
460.8025327986241
 21
452.2294180994076
 31
0.0
  0
ARC
  5
381F
330
2
100
AcDbEntity
  8
0
100
AcDbCircle
 10
463.4411886763373
 20
466.0678655568022
 30
0.0
 40
3.0
100
AcDbArc
 50
90.0
 51
181.5000000000158
  0
ARC
  5
3820
330
2
100
AcDbEntity
  8
0
100
AcDbCircle
 10
451.5994023844823
 20
466.0678655568022
 30
0.0
 40
3.000000000000001
100
AcDbArc
 50
358.4999999999841
 51
90.0
  0
LINE
  5
3823
330
2
100
AcDbEntity
  8
0
100
AcDbLine
 10
455.0216217013776
 20
301.0678655567831
 30
0.0
 11
460.0216217013776
 21
301.0678655567831
 31
0.0
  0
LINE
  5
3824
330
2
100
AcDbEntity
  8
0
100
AcDbLine
 10
460.4422167014154
 20
304.1463964017062
 30
0.0
 11
460.8025327986221
 21
317.9063130139468
 31
0.0
  0
LINE
  5
3825
330
2
100
AcDbEntity
  8
0
100
AcDbLine
 10
454.5983743594152
 20
304.1463964017067
 30
0.0
 11
454.2395580402581
 21
317.8490388009166
 31
0.0
  0
ARC
  5
3826
330
2
100
AcDbEntity
  8
0
100
AcDbCircle
 10
451.5994023844887
 20
304.0678655567822
 30
0.0
 40
3.0
100
AcDbArc
 50
270.0
 51
1.500000000015846
  0
ARC
  5
3827
330
2
100
AcDbEntity
  8
0
100
AcDbCircle
 10
463.4411886763436
 20
304.0678655567822
 30
0.0
 40
3.000000000000001
100
AcDbArc
 50
178.4999999999841
 51
270.0
  0
LINE
  5
3829
330
2
100
AcDbEntity
  8
0
100
AcDbLine
 10
369.7472735891906
 20
463.0969543366278
 30
0.0
 11
369.5202955303673
 21
385.067865542043
 31
0.0
  0
ARC
  5
382A
330
2
100
AcDbEntity
  8
0
100
AcDbCircle
 10
379.7472312812105
 20
463.0678655567904
 30
0.0
 40
10.0
100
AcDbArc
 50
90.0
 51
179.8333333333639
  0
LINE
  5
382B
330
2
100
AcDbEntity
  8
0
100
AcDbLine
 10
369.7472735891906
 20
307.0387767769462
 30
0.0
 11
369.5202955304532
 21
385.0678655420427
 31
0.0
  0
ARC
  5
382C
330
2
100
AcDbEntity
  8
0
100
AcDbCircle
 10
379.7472312812451
 20
307.0678655567886
 30
0.0
 40
10.0
100
AcDbArc
 50
180.1666666666621
 51
270.0
  0
LINE
  5
382D
330
2
100
AcDbEntity
  8
0
100
AcDbLine
 10
545.2933174716454
 20
463.0969543366319
 30
0.0
 11
545.4490277182931
 21
409.5678655566777
 31
0.0
  0
LINE
  5
382E
330
2
100
AcDbEntity
  8
0
100
AcDbLine
 10
545.2933174716454
 20
307.038776776949
 30
0.0
 11
545.4490277182925
 21
360.5678655566764
 31
0.0
  0
ARC
  5
3831
330
2
100
AcDbEntity
  8
HOJO
100
AcDbCircle
 10
528.2309736490637
 20
455.7785436754451
 30
0.0
 40
6.0
100
AcDbArc
 50
231.7972324982373
 51
223.0959104295564
  0
CIRCLE
  5
3832
330
2
100
AcDbEntity
  8
0
100
AcDbCircle
 10
528.2309736490637
 20
455.7785436754451
 30
0.0
 40
5.15
  0
CIRCLE
  5
3833
330
2
100
AcDbEntity
  8
HOJO
100
AcDbCircle
 10
386.8096174117595
 20
455.7785436754433
 30
0.0
 40
6.0
  0
CIRCLE
  5
3834
330
2
100
AcDbEntity
  8
0
100
AcDbCircle
 10
386.8096174117595
 20
455.7785436754433
 30
0.0
 40
5.15
  0
CIRCLE
  5
3835
330
2
100
AcDbEntity
  8
HOJO
100
AcDbCircle
 10
386.8096174117613
 20
314.3571874381348
 30
0.0
 40
6.0
  0
CIRCLE
  5
3836
330
2
100
AcDbEntity
  8
0
100
AcDbCircle
 10
386.8096174117613
 20
314.3571874381348
 30
0.0
 40
5.15
  0
ARC
  5
3837
330
2
100
AcDbEntity
  8
HOJO
100
AcDbCircle
 10
528.2309736490656
 20
314.3571874381418
 30
0.0
 40
6.0
100
AcDbArc
 50
136.9040895735085
 51
128.2027675016962
  0
CIRCLE
  5
3838
330
2
100
AcDbEntity
  8
0
100
AcDbCircle
 10
528.2309736490656
 20
314.3571874381418
 30
0.0
 40
5.15
  0
LINE
  5
383D
330
2
100
AcDbEntity
  8
CENTER
100
AcDbLine
 10
359.5202532222549
 20
385.0678655460151
 30
0.0
 11
566.5202955304127
 21
385.067865568536
 31
0.0
  0
LINE
  5
3842
330
2
100
AcDbEntity
  8
0
100
AcDbLine
 10
376.5232852711085
 20
388.5621001303135
 30
0.0
 11
395.5202955304173
 21
388.5634523265438
 31
0.0
  0
ARC
  5
3843
330
2
100
AcDbEntity
  8
0
100
AcDbCircle
 10
376.5230717328397
 20
391.5621001227128
 30
0.0
 40
3.0
100
AcDbArc
 50
180.0040782801648
 51
270.004078280217
  0
LINE
  5
3845
330
2
100
AcDbEntity
  8
0
100
AcDbLine
 10
376.5237834314514
 20
381.5634263780988
 30
0.0
 11
395.5202955304173
 21
381.5647785322642
 31
0.0
  0
ARC
  5
3846
330
2
100
AcDbEntity
  8
0
100
AcDbCircle
 10
376.523996968677
 20
378.5634263856993
 30
0.0
 40
3.0
100
AcDbArc
 50
90.00407826091018
 51
180.0040782609557
  0
LINE
  5
3847
330
2
100
AcDbEntity
  8
0
100
AcDbLine
 10
373.5202955304018
 20
387.5665393858256
 30
0.0
 11
373.5202955304018
 21
382.5665393858256
 31
0.0
  0
ARC
  5
3848
330
2
100
AcDbEntity
  8
0
100
AcDbCircle
 10
466.3384331919578
 20
470.0678655567895
 30
0.0
 40
3.0
100
AcDbArc
 50
1.499999999996311
 51
90.0
  0
LINE
  5
3849
330
2
100
AcDbEntity
  8
0
100
AcDbLine
 10
469.808635839815
 20
452.1508230288575
 30
0.0
 11
469.3374051668852
 21
470.1463964017126
 31
0.0
  0
ARC
  5
384A
330
2
100
AcDbEntity
  8
0
100
AcDbCircle
 10
497.7021432669898
 20
470.0673079332481
 30
0.0
 40
3.000000000000001
100
AcDbArc
 50
90.0
 51
178.5000000000036
  0
LINE
  5
384B
330
2
100
AcDbEntity
  8
0
100
AcDbLine
 10
494.2263752529438
 20
451.9377326452503
 30
0.0
 11
494.7031712920634
 21
470.1458387781713
 31
0.0
  0
LINE
  5
384F
330
2
100
AcDbEntity
  8
0
100
AcDbLine
 10
921.5946935603197
 20
741.0847005521315
 30
0.0
 11
923.0946935603203
 21
741.0847005521313
 31
0.0
  0
LINE
  5
3850
330
2
100
AcDbEntity
  8
0
100
AcDbLine
 10
921.5946935603195
 20
729.5847005521315
 30
0.0
 11
923.0946935603203
 21
729.5847005521314
 31
0.0
  0
LINE
  5
3851
330
2
100
AcDbEntity
  8
0
100
AcDbLine
 10
928.69469356032
 20
740.3347005521315
 30
0.0
 11
929.0946935603196
 21
739.6418802291042
 31
0.0
  0
LINE
  5
3852
330
2
100
AcDbEntity
  8
0
100
AcDbLine
 10
923.0946935603203
 20
741.0847005521313
 30
0.0
 11
923.0946935603203
 21
729.5847005521314
 31
0.0
  0
LINE
  5
3853
330
2
100
AcDbEntity
  8
0
100
AcDbLine
 10
928.69469356032
 20
740.3347005521315
 30
0.0
 11
928.6946935603198
 21
730.3347005521315
 31
0.0
  0
LINE
  5
3854
330
2
100
AcDbEntity
  8
0
100
AcDbLine
 10
923.0946935603203
 20
740.3347005521314
 30
0.0
 11
928.69469356032
 21
740.3347005521315
 31
0.0
  0
LINE
  5
3855
330
2
100
AcDbEntity
  8
0
100
AcDbLine
 10
923.0946935603203
 20
730.3347005521313
 30
0.0
 11
928.6946935603198
 21
730.3347005521315
 31
0.0
  0
LINE
  5
3856
330
2
100
AcDbEntity
  8
0
100
AcDbLine
 10
928.6946935603198
 20
730.3347005521315
 30
0.0
 11
929.0946935603194
 21
731.0275208751587
 31
0.0
  0
LINE
  5
3857
330
2
100
AcDbEntity
  8
0
100
AcDbLine
 10
929.0946935603196
 20
739.6418802291042
 30
0.0
 11
929.0946935603194
 21
731.0275208751587
 31
0.0
  0
LINE
  5
3858
330
2
100
AcDbEntity
  8
0
 48
12.0
100
AcDbLine
 10
921.5946935603195
 20
729.5847005521315
 30
0.0
 11
921.5946935603197
 21
741.0847005521315
 31
0.0
  0
LINE
  5
3859
330
2
100
AcDbEntity
  8
0
100
AcDbLine
 10
921.8845653171252
 20
341.6739442640938
 30
0.0
 11
923.3845653171256
 21
341.6739442640938
 31
0.0
  0
LINE
  5
385A
330
2
100
AcDbEntity
  8
0
100
AcDbLine
 10
921.8845653171252
 20
330.1739442640938
 30
0.0
 11
923.3845653171256
 21
330.1739442640938
 31
0.0
  0
LINE
  5
385B
330
2
100
AcDbEntity
  8
0
100
AcDbLine
 10
928.9845653171255
 20
340.9239442640939
 30
0.0
 11
929.3845653171251
 21
340.2311239410666
 31
0.0
  0
LINE
  5
385C
330
2
100
AcDbEntity
  8
0
100
AcDbLine
 10
923.3845653171256
 20
341.6739442640938
 30
0.0
 11
923.3845653171256
 21
330.1739442640938
 31
0.0
  0
LINE
  5
385D
330
2
100
AcDbEntity
  8
0
100
AcDbLine
 10
928.9845653171255
 20
340.9239442640939
 30
0.0
 11
928.9845653171255
 21
330.9239442640939
 31
0.0
  0
LINE
  5
385E
330
2
100
AcDbEntity
  8
0
100
AcDbLine
 10
923.3845653171256
 20
340.9239442640938
 30
0.0
 11
928.9845653171255
 21
340.9239442640939
 31
0.0
  0
LINE
  5
385F
330
2
100
AcDbEntity
  8
0
100
AcDbLine
 10
923.3845653171256
 20
330.9239442640938
 30
0.0
 11
928.9845653171255
 21
330.9239442640939
 31
0.0
  0
LINE
  5
3860
330
2
100
AcDbEntity
  8
0
100
AcDbLine
 10
928.9845653171255
 20
330.9239442640939
 30
0.0
 11
929.3845653171251
 21
331.6167645871212
 31
0.0
  0
LINE
  5
3861
330
2
100
AcDbEntity
  8
0
100
AcDbLine
 10
929.3845653171251
 20
340.2311239410666
 30
0.0
 11
929.3845653171251
 21
331.6167645871212
 31
0.0
  0
LINE
  5
3862
330
2
100
AcDbEntity
  8
0
 48
12.0
100
AcDbLine
 10
921.8845653171252
 20
330.1739442640938
 30
0.0
 11
921.8845653171252
 21
341.6739442640938
 31
0.0
  0
LINE
  5
3863
330
2
100
AcDbEntity
  8
CENTER
  6
CENTERX2
100
AcDbLine
 10
918.5946935603212
 20
833.6225431370586
 30
0.0
 11
932.0946935603222
 21
833.622543137058
 31
0.0
  0
LINE
  5
3864
330
2
100
AcDbEntity
  8
CENTER
  6
CENTERX2
100
AcDbLine
 10
918.5946935603199
 20
735.3347005521318
 30
0.0
 11
932.0946935603208
 21
735.3347005521314
 31
0.0
  0
LINE
  5
3865
330
2
100
AcDbEntity
  8
CENTER
  6
CENTERX2
100
AcDbLine
 10
918.8845653171261
 20
434.2117868492623
 30
0.0
 11
932.384565317127
 21
434.2117868492619
 31
0.0
  0
LINE
  5
3866
330
2
100
AcDbEntity
  8
CENTER
  6
CENTERX2
100
AcDbLine
 10
918.8845653171252
 20
335.9239442640944
 30
0.0
 11
932.3845653171261
 21
335.9239442640939
 31
0.0
  0
LINE
  5
3867
330
2
100
AcDbEntity
  8
CENTER
  6
CENTERX2
100
AcDbLine
 10
79.32476115984991
 20
434.2111237322368
 30
0.0
 11
65.81865188712413
 21
434.2111237322366
 31
0.0
  0
LINE
  5
3868
330
2
100
AcDbEntity
  8
CENTER
  6
CENTERX2
100
AcDbLine
 10
79.32478430936021
 20
335.9232811473038
 30
0.0
 11
65.81867503663443
 21
335.9232811473035
 31
0.0
  0
CIRCLE
  5
3869
330
2
100
AcDbEntity
  8
0
100
AcDbCircle
 10
1288.57593133102
 20
385.0678655566772
 30
0.0
 40
45.99999999998874
  0
CIRCLE
  5
386A
330
2
100
AcDbEntity
  8
0
100
AcDbCircle
 10
1288.57593133102
 20
385.0678655566772
 30
0.0
 40
46.4999999999892
  0
CIRCLE
  5
386B
330
2
100
AcDbEntity
  8
0
100
AcDbCircle
 10
1288.57593133102
 20
385.0678655566772
 30
0.0
 40
50.37919357557564
  0
CIRCLE
  5
386C
330
2
100
AcDbEntity
  8
0
100
AcDbCircle
 10
1288.57593133102
 20
385.0678655566772
 30
0.0
 40
55.24999999998965
  0
CIRCLE
  5
386D
330
2
100
AcDbEntity
  8
0
100
AcDbCircle
 10
1288.57593133102
 20
385.0678655566772
 30
0.0
 40
55.74999999999104
  0
LINE
  5
386E
330
2
100
AcDbEntity
  8
CENTER
100
AcDbLine
 10
1239.432010038544
 20
426.4507052426861
 30
0.0
 11
1239.432010038544
 21
441.9728684555638
 31
0.0
  0
LINE
  5
386F
330
2
100
AcDbEntity
  8
CENTER
100
AcDbLine
 10
1231.670928432111
 20
434.211786849125
 30
0.0
 11
1247.193091644989
 21
434.211786849125
 31
0.0
  0
LINE
  5
3870
330
2
100
AcDbEntity
  8
CENTER
100
AcDbLine
 10
1239.43201003855
 20
328.1628626577548
 30
0.0
 11
1239.432010038551
 21
343.6850258706326
 31
0.0
  0
LINE
  5
3871
330
2
100
AcDbEntity
  8
CENTER
100
AcDbLine
 10
1231.670928432117
 20
335.9239442641937
 30
0.0
 11
1247.193091644995
 21
335.9239442641937
 31
0.0
  0
LINE
  5
3872
330
2
100
AcDbEntity
  8
CENTER
100
AcDbLine
 10
1337.719852623482
 20
328.1628626577612
 30
0.0
 11
1337.719852623482
 21
343.685025870639
 31
0.0
  0
LINE
  5
3873
330
2
100
AcDbEntity
  8
CENTER
100
AcDbLine
 10
1329.958771017048
 20
335.9239442642001
 30
0.0
 11
1345.480934229926
 21
335.9239442642001
 31
0.0
  0
LINE
  5
3D39
330
2
100
AcDbEntity
  8
CENTER
100
AcDbLine
 10
1012.094693560326
 20
385.0678655566894
 30
0.0
 11
691.594693560318
 21
385.0678655566932
 31
0.0
  0
LINE
  5
3D3A
330
2
100
AcDbEntity
  8
0
100
AcDbLine
 10
886.5946935603055
 20
335.5678655566898
 30
0.0
 11
884.0946935603055
 21
335.5678655566898
 31
0.0
  0
LINE
  5
3D3B
330
2
100
AcDbEntity
  8
0
100
AcDbLine
 10
886.5946935603055
 20
434.5678655566898
 30
0.0
 11
884.0946935603055
 21
434.5678655566898
 31
0.0
  0
ARC
  5
3D3C
330
2
100
AcDbEntity
  8
0
100
AcDbCircle
 10
886.5946935603055
 20
439.5678655566897
 30
0.0
 40
5.0
100
AcDbArc
 50
270.0
 51
0.0
  0
LINE
  5
3D3D
330
2
100
AcDbEntity
  8
0
100
AcDbLine
 10
850.0946935603074
 20
388.0678655566898
 30
0.0
 11
878.0946935603056
 21
388.0678655566898
 31
0.0
  0
ARC
  5
3D3E
330
2
100
AcDbEntity
  8
0
100
AcDbCircle
 10
878.0946935603056
 20
391.06786555669
 30
0.0
 40
3.0
100
AcDbArc
 50
270.0
 51
0.0
  0
LINE
  5
3D3F
330
2
100
AcDbEntity
  8
0
100
AcDbLine
 10
881.0946935603055
 20
338.5678655566898
 30
0.0
 11
881.0946935603055
 21
431.5678655566897
 31
0.0
  0
ARC
  5
3D40
330
2
100
AcDbEntity
  8
0
100
AcDbCircle
 10
884.0946935603055
 20
338.5678655566898
 30
0.0
 40
3.0
100
AcDbArc
 50
180.0
 51
270.0
  0
ARC
  5
3D41
330
2
100
AcDbEntity
  8
0
100
AcDbCircle
 10
884.0946935603055
 20
431.5678655566897
 30
0.0
 40
3.0
100
AcDbArc
 50
90.0
 51
180.0
  0
LINE
  5
3D42
330
2
100
AcDbEntity
  8
0
100
AcDbLine
 10
891.5946935603056
 20
326.5678655566894
 30
0.0
 11
891.5946935603056
 21
443.5678655566897
 31
0.0
  0
ARC
  5
3D43
330
2
100
AcDbEntity
  8
0
100
AcDbCircle
 10
893.5946935603055
 20
327.0678655566898
 30
0.0
 40
2.0
100
AcDbArc
 50
180.0
 51
270.0
  0
ARC
  5
3D44
330
2
100
AcDbEntity
  8
0
100
AcDbCircle
 10
893.5946935603055
 20
443.0678655566897
 30
0.0
 40
2.0
100
AcDbArc
 50
90.0
 51
180.0
  0
LINE
  5
3D45
330
2
100
AcDbEntity
  8
0
100
AcDbLine
 10
850.0946935603074
 20
382.0678655566895
 30
0.0
 11
878.0946935603056
 21
382.0678655566893
 31
0.0
  0
ARC
  5
3D46
330
2
100
AcDbEntity
  8
0
100
AcDbCircle
 10
878.0946935603056
 20
379.0678655566896
 30
0.0
 40
3.0
100
AcDbArc
 50
0.0
 51
90.0
  0
CIRCLE
  5
3D47
330
2
100
AcDbEntity
  8
HOJO
100
AcDbCircle
 10
723.026151065384
 20
328.499323061766
 30
0.0
 40
5.0
  0
CIRCLE
  5
3D48
330
2
100
AcDbEntity
  8
0
100
AcDbCircle
 10
723.026151065384
 20
328.499323061766
 30
0.0
 40
4.0
  0
CIRCLE
  5
3D49
330
2
100
AcDbEntity
  8
HOJO
100
AcDbCircle
 10
723.026151065384
 20
441.6364080516136
 30
0.0
 40
5.0
  0
CIRCLE
  5
3D4A
330
2
100
AcDbEntity
  8
0
100
AcDbCircle
 10
723.026151065384
 20
441.6364080516136
 30
0.0
 40
4.0
  0
ARC
  5
3D4B
330
2
100
AcDbEntity
  8
0
100
AcDbCircle
 10
850.0946935603019
 20
353.0678655566898
 30
0.0
 40
3.0
100
AcDbArc
 50
90.0
 51
179.9999999999869
  0
LINE
  5
3D4C
330
2
100
AcDbEntity
  8
0
100
AcDbLine
 10
772.4529228105416
 20
329.5678655543326
 30
0.0
 11
775.3329240518738
 21
329.5678655543321
 31
0.0
  0
LINE
  5
3D4D
330
2
100
AcDbEntity
  8
0
100
AcDbLine
 10
776.452922810547
 20
337.567865554344
 30
0.0
 11
772.4529228105416
 21
329.5678655543326
 31
0.0
  0
ARC
  5
3D4E
330
2
100
AcDbEntity
  8
0
100
AcDbCircle
 10
782.9229228105573
 20
334.6778655543396
 30
0.0
 40
0.1700000000002474
100
AcDbArc
 50
270.0
 51
90.0
  0
LINE
  5
3D4F
330
2
100
AcDbEntity
  8
0
100
AcDbLine
 10
780.7129228105528
 20
334.507865554339
 30
0.0
 11
782.9229228105573
 21
334.507865554339
 31
0.0
  0
LINE
  5
3D50
330
2
100
AcDbEntity
  8
0
100
AcDbLine
 10
780.3728500505526
 20
334.84786555434
 30
0.0
 11
782.9229228105555
 21
334.84786555434
 31
0.0
  0
LINE
  5
3D51
330
2
100
AcDbEntity
  8
0
100
AcDbLine
 10
776.452922810547
 20
337.567865554344
 30
0.0
 11
783.0928500505574
 21
337.567865554344
 31
0.0
  0
LINE
  5
3D52
330
2
100
AcDbEntity
  8
0
100
AcDbLine
 10
775.9329240518741
 20
330.7678655543342
 30
0.0
 11
777.9729228105493
 21
330.7678655543337
 31
0.0
  0
LINE
  5
3D53
330
2
100
AcDbEntity
  8
0
100
AcDbLine
 10
775.9329240518741
 20
330.7678655543342
 30
0.0
 11
775.3329240518738
 21
329.5678655543321
 31
0.0
  0
LINE
  5
3D54
330
2
100
AcDbEntity
  8
0
100
AcDbLine
 10
783.856463068741
 20
329.5678655543321
 30
0.0
 11
786.7364643100714
 21
329.5678655543326
 31
0.0
  0
LINE
  5
3D55
330
2
100
AcDbEntity
  8
0
100
AcDbLine
 10
784.7493954302167
 20
332.6904927527245
 30
0.0
 11
786.7364643100714
 21
329.5678655543326
 31
0.0
  0
LINE
  5
3D56
330
2
100
AcDbEntity
  8
0
100
AcDbLine
 10
777.9729228105493
 20
329.5678655543321
 30
0.0
 11
780.3728500505526
 21
329.5678655543317
 31
0.0
  0
LINE
  5
3D57
330
2
100
AcDbEntity
  8
0
100
AcDbLine
 10
777.2129240518766
 20
333.3278655543369
 30
0.0
 11
777.9729228105493
 21
333.3278655543374
 31
0.0
  0
LINE
  5
3D58
330
2
100
AcDbEntity
  8
0
100
AcDbLine
 10
777.9729228105493
 20
330.7678655543337
 30
0.0
 11
777.9729228105493
 21
329.5678655543321
 31
0.0
  0
ARC
  5
3D59
330
2
100
AcDbEntity
  8
0
100
AcDbCircle
 10
783.0928500505574
 20
334.8478655543396
 30
0.0
 40
2.720000000003957
100
AcDbArc
 50
307.5189678668038
 51
90.0
  0
LINE
  5
3D5A
330
2
100
AcDbEntity
  8
0
100
AcDbLine
 10
780.7129228105528
 20
334.507865554339
 30
0.0
 11
783.856463068741
 21
329.5678655543321
 31
0.0
  0
LINE
  5
3D5B
330
2
100
AcDbEntity
  8
0
100
AcDbLine
 10
777.9729228105493
 20
334.8478630716833
 30
0.0
 11
777.2129240518766
 21
333.3278655543369
 31
0.0
  0
LINE
  5
3D5C
330
2
100
AcDbEntity
  8
0
100
AcDbLine
 10
777.9729228105493
 20
334.8478630716833
 30
0.0
 11
777.9729228105493
 21
333.3278655543374
 31
0.0
  0
LINE
  5
3D5D
330
2
100
AcDbEntity
  8
0
100
AcDbLine
 10
780.3728500505526
 20
334.84786555434
 30
0.0
 11
780.3728500505526
 21
329.5678655543317
 31
0.0
  0
CIRCLE
  5
3D5E
330
2
100
AcDbEntity
  8
HOJO
100
AcDbCircle
 10
836.1632360552317
 20
328.4993230617662
 30
0.0
 40
5.0
  0
CIRCLE
  5
3D5F
330
2
100
AcDbEntity
  8
0
100
AcDbCircle
 10
836.1632360552317
 20
328.4993230617662
 30
0.0
 40
4.0
  0
CIRCLE
  5
3D60
330
2
100
AcDbEntity
  8
HOJO
100
AcDbCircle
 10
836.1632360552317
 20
441.6364080516136
 30
0.0
 40
5.0
  0
CIRCLE
  5
3D61
330
2
100
AcDbEntity
  8
0
100
AcDbCircle
 10
836.1632360552317
 20
441.6364080516136
 30
0.0
 40
4.0
  0
ARC
  5
3D62
330
2
100
AcDbEntity
  8
0
100
AcDbCircle
 10
886.5946935603055
 20
330.5678655566897
 30
0.0
 40
5.0
100
AcDbArc
 50
0.0
 51
90.0
  0
ARC
  5
3D63
330
2
100
AcDbEntity
  8
0
100
AcDbCircle
 10
850.0946935603074
 20
391.06786555669
 30
0.0
 40
3.0
100
AcDbArc
 50
180.0
 51
270.0
  0
ARC
  5
3D64
330
2
100
AcDbEntity
  8
0
100
AcDbCircle
 10
850.0946935603074
 20
379.0678655566896
 30
0.0
 40
3.0
100
AcDbArc
 50
90.0
 51
180.0
  0
LINE
  5
3D65
330
2
100
AcDbEntity
  8
0
100
AcDbLine
 10
893.5946935603055
 20
325.0678655566898
 30
0.0
 11
907.594693560312
 21
325.0678655566896
 31
0.0
  0
LINE
  5
3D66
330
2
100
AcDbEntity
  8
0
100
AcDbLine
 10
893.5946935603055
 20
445.0678655566895
 30
0.0
 11
907.594693560312
 21
445.0678655566894
 31
0.0
  0
LINE
  5
3D67
330
2
100
AcDbEntity
  8
0
100
AcDbLine
 10
907.594693560312
 20
445.5678655566897
 30
0.0
 11
907.594693560312
 21
324.5678655566894
 31
0.0
  0
LINE
  5
3D68
330
2
100
AcDbEntity
  8
0
100
AcDbLine
 10
873.0946935603055
 20
351.06786555669
 30
0.0
 11
871.0946935603056
 21
351.06786555669
 31
0.0
  0
ARC
  5
3D69
330
2
100
AcDbEntity
  8
0
100
AcDbCircle
 10
873.0946935603055
 20
343.06786555669
 30
0.0
 40
8.0
100
AcDbArc
 50
0.0
 51
90.0
  0
ARC
  5
3D6A
330
2
100
AcDbEntity
  8
0
100
AcDbCircle
 10
878.864127822551
 20
434.5074543141574
 30
0.0
 40
3.0
100
AcDbArc
 50
259.9999999999949
 51
330.6639232880097
  0
ARC
  5
3D6B
330
2
100
AcDbEntity
  8
0
100
AcDbCircle
 10
878.864127822551
 20
335.6282767992226
 30
0.0
 40
3.0
100
AcDbArc
 50
29.33607671199027
 51
99.999999999952
  0
ARC
  5
3D6C
330
2
100
AcDbEntity
  8
0
100
AcDbCircle
 10
850.094693560301
 20
330.555449319069
 30
0.0
 40
3.0
100
AcDbArc
 50
100.000000000005
 51
180.000000000013
  0
LINE
  5
3D6D
330
2
100
AcDbEntity
  8
0
100
AcDbLine
 10
873.0946935603055
 20
419.06786555669
 30
0.0
 11
871.0946935603065
 21
419.06786555669
 31
0.0
  0
ARC
  5
3D6E
330
2
100
AcDbEntity
  8
0
100
AcDbCircle
 10
873.0946935603055
 20
427.06786555669
 30
0.0
 40
8.0
100
AcDbArc
 50
270.0
 51
0.0
  0
LINE
  5
3D6F
330
2
100
AcDbEntity
  8
0
100
AcDbLine
 10
878.3431832895516
 20
338.5827000582593
 30
0.0
 11
849.5737490272999
 21
333.5098725781057
 31
0.0
  0
LINE
  5
3D70
330
2
100
AcDbEntity
  8
0
100
AcDbLine
 10
878.3431832895498
 20
431.5530310551209
 30
0.0
 11
849.5737490272663
 21
436.6258585352804
 31
0.0
  0
ARC
  5
3D71
330
2
100
AcDbEntity
  8
0
100
AcDbCircle
 10
850.0946935602673
 20
439.5802817943169
 30
0.0
 40
3.0
100
AcDbArc
 50
180.000000000013
 51
259.9999999999949
  0
LINE
  5
3D72
330
2
100
AcDbEntity
  8
0
100
AcDbLine
 10
873.0946935603055
 20
419.06786555669
 30
0.0
 11
871.0946935603065
 21
419.0678655566903
 31
0.0
  0
LINE
  5
3D73
330
2
100
AcDbEntity
  8
0
100
AcDbLine
 10
868.0946935603101
 20
416.0678655566904
 30
0.0
 11
868.0946935603092
 21
391.0678655566895
 31
0.0
  0
ARC
  5
3D74
330
2
100
AcDbEntity
  8
0
100
AcDbCircle
 10
865.0946935603093
 20
391.0678655566897
 30
0.0
 40
3.0
100
AcDbArc
 50
270.0
 51
359.9999999999869
  0
LINE
  5
3D75
330
2
100
AcDbEntity
  8
0
100
AcDbLine
 10
868.0946935603056
 20
379.0678655566896
 30
0.0
 11
868.0946935603056
 21
354.06786555669
 31
0.0
  0
ARC
  5
3D76
330
2
100
AcDbEntity
  8
0
100
AcDbCircle
 10
865.0946935603055
 20
379.0678655566896
 30
0.0
 40
3.0
100
AcDbArc
 50
359.9999999999869
 51
90.0
  0
ARC
  5
3D77
330
2
100
AcDbEntity
  8
0
100
AcDbCircle
 10
871.0946935603056
 20
354.0678655566898
 30
0.0
 40
3.0
100
AcDbArc
 50
179.9999999999869
 51
270.0
  0
ARC
  5
3D78
330
2
100
AcDbEntity
  8
0
100
AcDbCircle
 10
865.1786137772065
 20
353.0678655566895
 30
0.0
 40
3.0
100
AcDbArc
 50
9.594068226868017
 51
90.0
  0
ARC
  5
3D79
330
2
100
AcDbEntity
  8
0
100
AcDbCircle
 10
871.0946935603065
 20
416.0678655566902
 30
0.0
 40
3.0
100
AcDbArc
 50
90.0
 51
179.9999999999869
  0
ARC
  5
3D7A
330
2
100
AcDbEntity
  8
0
100
AcDbCircle
 10
865.1786137772065
 20
417.0678655566895
 30
0.0
 40
3.0
100
AcDbArc
 50
270.0
 51
350.4059317731512
  0
LINE
  5
3D7B
330
2
100
AcDbEntity
  8
0
100
AcDbLine
 10
865.1786137772065
 20
356.0678655566896
 30
0.0
 11
850.0946935603019
 21
356.0678655566898
 31
0.0
  0
LINE
  5
3D7C
330
2
100
AcDbEntity
  8
0
100
AcDbLine
 10
865.1786137772065
 20
414.0678655566896
 30
0.0
 11
850.0946935603064
 21
414.0678655566896
 31
0.0
  0
ARC
  5
3D7D
330
2
100
AcDbEntity
  8
0
100
AcDbCircle
 10
850.0946935603064
 20
417.0678655566895
 30
0.0
 40
3.0
100
AcDbArc
 50
180.0
 51
270.0
  0
ARC
  5
3D7E
330
2
100
AcDbEntity
  8
0
100
AcDbCircle
 10
779.5946935603073
 20
112.5678655566898
 30
0.0
 40
340.0
100
AcDbArc
 50
85.85748119726854
 51
94.14251880273145
  0
ARC
  5
3D7F
330
2
100
AcDbEntity
  8
0
100
AcDbCircle
 10
722.0946935603083
 20
442.5678655566898
 30
0.0
 40
10.0
100
AcDbArc
 50
90.0
 51
180.0
  0
LINE
  5
3D80
330
2
100
AcDbEntity
  8
0
100
AcDbLine
 10
722.0946935603083
 20
452.5678655566898
 30
0.0
 11
732.0946935603083
 21
452.5678655566898
 31
0.0
  0
ARC
  5
3D81
330
2
100
AcDbEntity
  8
0
100
AcDbCircle
 10
732.0946935603083
 20
444.5678655566898
 30
0.0
 40
8.0
100
AcDbArc
 50
81.63298947741282
 51
90.0
  0
ARC
  5
3D82
330
2
100
AcDbEntity
  8
0
100
AcDbCircle
 10
837.0946935603074
 20
442.5678655566898
 30
0.0
 40
10.0
100
AcDbArc
 50
0.0
 51
90.0
  0
ARC
  5
3D83
330
2
100
AcDbEntity
  8
0
100
AcDbCircle
 10
747.8101414193847
 20
551.4183437895396
 30
0.0
 40
100.0
100
AcDbArc
 50
261.6329894774128
 51
274.1425188027314
  0
LINE
  5
3D84
330
2
100
AcDbEntity
  8
0
100
AcDbLine
 10
712.0946935603074
 20
442.5678655566896
 30
0.0
 11
712.0946935603074
 21
432.5678655566895
 31
0.0
  0
ARC
  5
3D85
330
2
100
AcDbEntity
  8
0
100
AcDbCircle
 10
720.0946935603074
 20
432.5678655566895
 30
0.0
 40
8.0
100
AcDbArc
 50
180.0
 51
188.3670105225876
  0
ARC
  5
3D86
330
2
100
AcDbEntity
  8
0
100
AcDbCircle
 10
613.2442153274573
 20
416.8524176976131
 30
0.0
 40
100.0
100
AcDbArc
 50
355.8574811972655
 51
8.36701052258765
  0
ARC
  5
3D87
330
2
100
AcDbEntity
  8
0
100
AcDbCircle
 10
827.0946935603074
 20
444.5678655566898
 30
0.0
 40
8.0
100
AcDbArc
 50
90.0
 51
98.36701052258717
  0
ARC
  5
3D88
330
2
100
AcDbEntity
  8
0
100
AcDbCircle
 10
811.3792457012309
 20
551.4183437895396
 30
0.0
 40
100.0
100
AcDbArc
 50
265.8574811972684
 51
278.3670105225871
  0
LINE
  5
3D89
330
2
100
AcDbEntity
  8
0
100
AcDbLine
 10
837.0946935603074
 20
452.5678655566898
 30
0.0
 11
827.0946935603074
 21
452.5678655566898
 31
0.0
  0
ARC
  5
3D8A
330
2
100
AcDbEntity
  8
0
100
AcDbCircle
 10
722.0946935603083
 20
327.5678655566898
 30
0.0
 40
10.0
100
AcDbArc
 50
180.0
 51
270.0
  0
LINE
  5
3D8B
330
2
100
AcDbEntity
  8
0
100
AcDbLine
 10
722.0946935603083
 20
317.5678655566898
 30
0.0
 11
732.0946935603083
 21
317.5678655566898
 31
0.0
  0
ARC
  5
3D8C
330
2
100
AcDbEntity
  8
0
100
AcDbCircle
 10
732.0946935603083
 20
325.5678655566898
 30
0.0
 40
8.0
100
AcDbArc
 50
270.0
 51
278.3670105225871
  0
ARC
  5
3D8D
330
2
100
AcDbEntity
  8
0
100
AcDbCircle
 10
837.0946935603074
 20
327.5678655566898
 30
0.0
 40
10.0
100
AcDbArc
 50
270.0
 51
0.0
  0
ARC
  5
3D8E
330
2
100
AcDbEntity
  8
0
100
AcDbCircle
 10
747.8101414193847
 20
218.7173873238399
 30
0.0
 40
100.0
100
AcDbArc
 50
85.85748119726854
 51
98.36701052258717
  0
LINE
  5
3D8F
330
2
100
AcDbEntity
  8
0
100
AcDbLine
 10
712.0946935603074
 20
327.56786555669
 30
0.0
 11
712.0946935603074
 21
337.56786555669
 31
0.0
  0
ARC
  5
3D90
330
2
100
AcDbEntity
  8
0
100
AcDbCircle
 10
720.0946935603074
 20
337.56786555669
 30
0.0
 40
8.0
100
AcDbArc
 50
171.6329894774123
 51
180.0
  0
ARC
  5
3D91
330
2
100
AcDbEntity
  8
0
100
AcDbCircle
 10
613.2442153274573
 20
353.2833134157665
 30
0.0
 40
100.0
100
AcDbArc
 50
351.6329894773897
 51
4.142518802734472
  0
ARC
  5
3D92
330
2
100
AcDbEntity
  8
0
100
AcDbCircle
 10
827.0946935603074
 20
325.5678655566898
 30
0.0
 40
8.0
100
AcDbArc
 50
261.6329894774128
 51
270.0
  0
ARC
  5
3D93
330
2
100
AcDbEntity
  8
0
100
AcDbCircle
 10
811.3792457012309
 20
218.7173873238399
 30
0.0
 40
100.0
100
AcDbArc
 50
81.63298947741282
 51
94.14251880273145
  0
LINE
  5
3D94
330
2
100
AcDbEntity
  8
0
100
AcDbLine
 10
847.0946935603073
 20
327.56786555669
 30
0.0
 11
847.0946935603073
 21
442.5678655566898
 31
0.0
  0
LINE
  5
3D95
330
2
100
AcDbEntity
  8
0
100
AcDbLine
 10
837.0946935603074
 20
317.5678655566898
 30
0.0
 11
827.0946935603074
 21
317.5678655566898
 31
0.0
  0
ARC
  5
3D96
330
2
100
AcDbEntity
  8
0
100
AcDbCircle
 10
779.5946935603073
 20
657.5678655566898
 30
0.0
 40
340.0
100
AcDbArc
 50
265.8574811972684
 51
274.1425188027314
  0
ARC
  5
3D97
330
2
100
AcDbEntity
  8
0
100
AcDbCircle
 10
1052.094693560307
 20
385.0678655566898
 30
0.0
 40
340.0
100
AcDbArc
 50
175.8574811972817
 51
184.1425188027052
  0
CIRCLE
  5
3D98
330
2
100
AcDbEntity
  8
0
100
AcDbCircle
 10
779.5946935603069
 20
385.0678655566898
 30
0.0
 40
35.99999999999954
  0
CIRCLE
  5
3D99
330
2
100
AcDbEntity
  8
0
100
AcDbCircle
 10
779.5946935603069
 20
385.0678655566898
 30
0.0
 40
36.57735026918968
  0
CIRCLE
  5
3D9A
330
2
100
AcDbEntity
  8
0
100
AcDbCircle
 10
779.5946935603069
 20
385.0678655566898
 30
0.0
 40
43.49999999999954
  0
CIRCLE
  5
3D9B
330
2
100
AcDbEntity
  8
0
100
AcDbCircle
 10
779.5946935603069
 20
385.0678655566898
 30
0.0
 40
60.00000000000046
  0
LINE
  5
3D9C
330
2
100
AcDbEntity
  8
CENTER
100
AcDbLine
 10
836.163236055232
 20
452.5678655566898
 30
0.0
 11
836.163236055232
 21
430.7049505465323
 31
0.0
  0
LINE
  5
3D9D
330
2
100
AcDbEntity
  8
CENTER
100
AcDbLine
 10
825.2317785501517
 20
441.636408051611
 30
0.0
 11
847.0946935603087
 21
441.636408051611
 31
0.0
  0
LINE
  5
3D9E
330
2
100
AcDbEntity
  8
CENTER
100
AcDbLine
 10
723.0261510653827
 20
452.5678655566898
 30
0.0
 11
723.0261510653822
 21
430.7049505465339
 31
0.0
  0
LINE
  5
3D9F
330
2
100
AcDbEntity
  8
CENTER
100
AcDbLine
 10
733.9576085704639
 20
441.6364080516118
 30
0.0
 11
712.0946935603078
 21
441.6364080516119
 31
0.0
  0
LINE
  5
3DA0
330
2
100
AcDbEntity
  8
CENTER
100
AcDbLine
 10
836.163236055232
 20
317.5678655566898
 30
0.0
 11
836.163236055232
 21
339.4307805668426
 31
0.0
  0
LINE
  5
3DA1
330
2
100
AcDbEntity
  8
CENTER
100
AcDbLine
 10
825.2317785501555
 20
328.499323061768
 30
0.0
 11
847.0946935603079
 21
328.4993230617678
 31
0.0
  0
LINE
  5
3DA2
330
2
100
AcDbEntity
  8
CENTER
100
AcDbLine
 10
723.0261510653822
 20
317.5678655566898
 30
0.0
 11
723.0261510653822
 21
339.4307805668441
 31
0.0
  0
LINE
  5
3DA3
330
2
100
AcDbEntity
  8
CENTER
100
AcDbLine
 10
733.9576085704593
 20
328.4993230617675
 30
0.0
 11
712.0946935603051
 21
328.4993230617673
 31
0.0
  0
CIRCLE
  5
3DA4
330
2
100
AcDbEntity
  8
CENTER
100
AcDbCircle
 10
779.5946935603069
 20
385.0678655566898
 30
0.0
 40
79.9999999999992
  0
LINE
  5
3DA5
330
2
100
AcDbEntity
  8
CENTER
100
AcDbLine
 10
716.3982956312233
 20
385.0678655566897
 30
0.0
 11
732.7910914893905
 21
385.0678655566897
 31
0.0
  0
LINE
  5
3DA6
330
2
100
AcDbEntity
  8
CENTER
100
AcDbLine
 10
851.4875382176606
 20
456.960710214041
 30
0.0
 11
707.7018489029533
 21
313.1750208993385
 31
0.0
  0
LINE
  5
3DA7
330
2
100
AcDbEntity
  8
CENTER
100
AcDbLine
 10
707.7018489029551
 20
456.9607102140429
 30
0.0
 11
851.4875382176587
 21
313.1750208993367
 31
0.0
  0
LINE
  5
3DA8
330
2
100
AcDbEntity
  8
0
100
AcDbLine
 10
907.594693560312
 20
445.5678655566897
 30
0.0
 11
893.5946935603055
 21
445.5678655566897
 31
0.0
  0
ARC
  5
3DA9
330
2
100
AcDbEntity
  8
0
100
AcDbCircle
 10
893.5946935603055
 20
443.5678655566897
 30
0.0
 40
2.0
100
AcDbArc
 50
90.0
 51
180.0
  0
LINE
  5
3DAA
330
2
100
AcDbEntity
  8
0
100
AcDbLine
 10
907.594693560312
 20
324.5678655566894
 30
0.0
 11
893.5946935603055
 21
324.5678655566894
 31
0.0
  0
ARC
  5
3DAB
330
2
100
AcDbEntity
  8
0
100
AcDbCircle
 10
893.5946935603055
 20
326.5678655566894
 30
0.0
 40
2.0
100
AcDbArc
 50
180.0
 51
270.0
  0
LINE
  5
3DAC
330
2
100
AcDbEntity
  8
0
100
AcDbLine
 10
774.5946935603069
 20
404.3678685566899
 30
0.0
 11
784.5946935603069
 21
404.3678685566899
 31
0.0
  0
LINE
  5
3DAD
330
2
100
AcDbEntity
  8
0
100
AcDbLine
 10
774.5946935603069
 20
404.3678685566899
 30
0.0
 11
774.5946935603069
 21
400.2665497102604
 31
0.0
  0
LINE
  5
3DAE
330
2
100
AcDbEntity
  8
0
100
AcDbLine
 10
784.5946935603069
 20
404.3678685566899
 30
0.0
 11
784.5946935603069
 21
400.2665497102604
 31
0.0
  0
ARC
  5
3DAF
330
2
100
AcDbEntity
  8
0
100
AcDbCircle
 10
779.5946935603069
 20
385.0678655566898
 30
0.0
 40
15.99999999999977
100
AcDbArc
 50
108.2099568642827
 51
71.79004313571723
  0
ARC
  5
3DB0
330
2
100
AcDbEntity
  8
0
100
AcDbCircle
 10
779.5946935603069
 20
385.0678655566898
 30
0.0
 40
17.1547005383793
100
AcDbArc
 50
106.9457019888467
 51
73.05429801115323
  0
CIRCLE
  5
3DB1
330
2
100
AcDbEntity
  8
0
100
AcDbCircle
 10
779.5946935603083
 20
385.0678655566911
 30
0.0
 40
24.5
  0
LINE
  5
3DB2
330
2
100
AcDbEntity
  8
CENTER
100
AcDbLine
 10
779.5946935603181
 20
473.0678655566932
 30
0.0
 11
779.5946935603181
 21
297.0678655566932
 31
0.0
  0
LINE
  5
3DE7
330
2
100
AcDbEntity
  8
CENTER
100
AcDbLine
 10
1288.575931331026
 20
490.0678655566735
 30
0.0
 11
1288.575931331026
 21
280.0678655566735
 31
0.0
  0
LINE
  5
3DE8
330
2
100
AcDbEntity
  8
CENTER
100
AcDbLine
 10
1179.57593133102
 20
385.0678655566772
 30
0.0
 11
1393.575931331026
 21
385.0678655566735
 31
0.0
  0
LINE
  5
3E54
330
2
100
AcDbEntity
  8
HIDS
  6
SEKKEI_H
100
AcDbLine
 10
1268.07593133102
 20
360.4965408060919
 30
0.0
 11
1268.075931331019
 21
384.3178655566915
 31
0.0
  0
LINE
  5
3E55
330
2
100
AcDbEntity
  8
HIDS
  6
SEKKEI_H
100
AcDbLine
 10
1267.475931331019
 20
361.0098107724951
 30
0.0
 11
1267.475931331019
 21
384.3178655566915
 31
0.0
  0
LINE
  5
3E56
330
2
100
AcDbEntity
  8
HIDS
  6
SEKKEI_H
100
AcDbLine
 10
1260.075931331019
 20
370.5162333458516
 30
0.0
 11
1260.075931331022
 21
384.3178655566911
 31
0.0
  0
LINE
  5
3E57
330
2
100
AcDbEntity
  8
HIDS
  6
SEKKEI_H
100
AcDbLine
 10
1260.675931331022
 20
384.3178655566911
 30
0.0
 11
1260.675931331033
 21
369.3965541884507
 31
0.0
  0
LINE
  5
3E58
330
2
100
AcDbEntity
  8
HIDS
  6
SEKKEI_H
100
AcDbLine
 10
1266.875931331036
 20
372.0678655566943
 30
0.0
 11
1261.275931331022
 21
372.0678655566943
 31
0.0
  0
LINE
  5
3E59
330
2
100
AcDbEntity
  8
HIDS
  6
SEKKEI_H
100
AcDbLine
 10
1268.075931331023
 20
373.2678655566944
 30
0.0
 11
1260.075931331022
 21
373.2678655566942
 31
0.0
  0
LINE
  5
3E5A
330
2
100
AcDbEntity
  8
HIDS
  6
SEKKEI_H
100
AcDbLine
 10
1260.075931331022
 20
373.2678655566942
 30
0.0
 11
1261.275931331022
 21
372.0678655566943
 31
0.0
  0
LINE
  5
3E5B
330
2
100
AcDbEntity
  8
HIDS
  6
SEKKEI_H
100
AcDbLine
 10
1268.075931331036
 20
373.2678655566942
 30
0.0
 11
1266.875931331036
 21
372.0678655566943
 31
0.0
  0
SPLINE
  5
3F41
330
2
100
AcDbEntity
  8
HOJO
100
AcDbSpline
210
0.0
220
0.0
230
1.0
 70
     8
 71
     3
 72
    21
 73
    17
 74
    15
 42
0.0000000001
 43
0.0000000001
 44
0.0000000001
 40
0.0
 40
0.0
 40
0.0
 40
0.0
 40
9.634164564468115
 40
15.25055571708112
 40
26.41850204930545
 40
34.3920634693519
 40
47.06796833141576
 40
54.09595855280389
 40
66.71884038850736
 40
80.64775812888111
 40
91.88687819068613
 40
99.21329587729481
 40
107.2245208990503
 40
115.4887742063672
 40
120.7000556987149
 40
134.5571991491902
 40
134.5571991491902
 40
134.5571991491902
 40
134.5571991491902
 10
1002.094693560325
 20
448.051995732816
 30
0.0
 10
998.8318037315851
 20
448.111339055829
 30
0.0
 10
993.6667598091014
 20
448.2052775232476
 30
0.0
 10
985.5945283827498
 20
443.464623432
 30
0.0
 10
984.0529979403093
 20
434.5161151768745
 30
0.0
 10
981.1183556659941
 20
424.7977535812136
 30
0.0
 10
978.7760518103281
 20
414.5081608801409
 30
0.0
 10
967.6710307498886
 20
411.0047309064177
 30
0.0
 10
956.6002326634606
 20
412.9918641268626
 30
0.0
 10
944.0260273270419
 20
412.4361506947054
 30
0.0
 10
933.0282788225884
 20
410.9882779466056
 30
0.0
 10
924.5953632834877
 20
414.9461057738093
 30
0.0
 10
916.3613355047425
 20
411.0650000680059
 30
0.0
 10
914.0169718477016
 20
404.0261959612284
 30
0.0
 10
910.1643689473844
 20
395.8081708499682
 30
0.0
 10
908.6761740691573
 20
389.588059388216
 30
0.0
 10
907.5946935603216
 20
385.0678655566909
 30
0.0
 11
1002.094693560325
 21
448.051995732816
 31
0.0
 11
992.507639038096
 21
447.1004115573264
 31
0.0
 11
987.7480445805558
 21
444.1187827777993
 31
0.0
 11
983.6588246330766
 21
433.7264151216499
 31
0.0
 11
981.5754867386594
 21
426.0298324425034
 31
0.0
 11
976.1868733726496
 21
414.5563233862576
 31
0.0
 11
969.627790709287
 21
412.0322233155188
 31
0.0
 11
957.012544716154
 21
412.4712157651954
 31
0.0
 11
943.0869610755399
 21
412.1664704840866
 31
0.0
 11
931.8478990850904
 21
412.1303410154844
 31
0.0
 11
924.7021806981598
 21
413.7474695982921
 31
0.0
 11
917.3950809189705
 21
410.463262058234
 31
0.0
 11
913.5224710263328
 21
403.1625240580765
 31
0.0
 11
911.4726159961291
 21
398.3713290977734
 31
0.0
 11
907.5946935603216
 21
385.0678655566909
 31
0.0
  0
ENDSEC
  0
SECTION
  2
OBJECTS
  0
DICTIONARY
  5
7
330
0
100
AcDbDictionary
  3
ACAD_COLOR
350
832
  3
ACAD_GROUP
350
75
  3
ACAD_LAYOUT
350
61
  3
ACAD_MATERIAL
350
808
  3
ACAD_MLEADERSTYLE
350
857
  3
ACAD_MLINESTYLE
350
76
  3
ACAD_PLOTSETTINGS
350
77
  3
ACAD_PLOTSTYLENAME
350
6
  3
ACAD_SCALELIST
350
835
  3
ACAD_TABLESTYLE
350
833
  3
ACAD_VISUALSTYLE
350
821
  3
ACADDIM
350
480
  3
ACDB_RECOMPOSE_DATA
350
88E
  3
ACDBHEADERROUNDTRIPXREC
350
3FD0
  3
ACDBVARIABLEDICTIONARY
350
102
  3
DWGPROPS
350
3F9F
  0
DICTIONARY
  5
1BAE
330
6E
100
AcDbDictionary
280
     1
  3
ACAD_XREC_ROUNDTRIP
360
3FA3
  0
DICTIONARY
  5
86B
330
66
100
AcDbDictionary
280
     1
  3
ACAD_LAYERSTATES
360
86C
  0
DICTIONARY
  5
1AF7
330
5E
100
AcDbDictionary
280
     1
  3
ADSK_XREC_LAYER_RECONCILED
360
1AF8
  0
DICTIONARY
  5
1AF9
330
3E
100
AcDbDictionary
280
     1
  3
ADSK_XREC_LAYER_RECONCILED
360
1AFA
  0
DICTIONARY
  5
1AFF
330
2B5
100
AcDbDictionary
280
     1
  3
ADSK_XREC_LAYER_RECONCILED
360
1B00
  0
DICTIONARY
  5
1B01
330
2BA
100
AcDbDictionary
280
     1
  3
ADSK_XREC_LAYER_RECONCILED
360
1B02
  0
DICTIONARY
  5
1B05
330
3FA
100
AcDbDictionary
280
     1
  3
ADSK_XREC_LAYER_RECONCILED
360
1B06
  0
DICTIONARY
  5
1B07
330
478
100
AcDbDictionary
280
     1
  3
ADSK_XREC_LAYER_RECONCILED
360
1B08
  0
DICTIONARY
  5
3168
330
2
100
AcDbDictionary
280
     1
  3
ACAD_LAYOUTSELFREF
360
3FF1
  3
ACAD_SORTENTS
360
3169
  0
DICTIONARY
  5
3FF2
330
3FCA
100
AcDbDictionary
280
     1
  3
ACAD_LAYOUTSELFREF
360
3FF3
  0
DICTIONARY
  5
832
102
{ACAD_REACTORS
330
7
102
}
330
7
100
AcDbDictionary
  0
DICTIONARY
  5
75
102
{ACAD_REACTORS
330
7
102
}
330
7
100
AcDbDictionary
  0
DICTIONARY
  5
61
102
{ACAD_REACTORS
330
7
102
}
330
7
100
AcDbDictionary
  0
DICTIONARY
  5
808
102
{ACAD_REACTORS
330
7
102
}
330
7
100
AcDbDictionary
  3
BYBLOCK
350
811
  3
BYLAYER
350
809
  3
GLOBAL
350
819
  0
DICTIONARY
  5
857
102
{ACAD_REACTORS
330
7
102
}
330
7
100
AcDbDictionary
  3
STANDARD
350
858
  0
DICTIONARY
  5
76
102
{ACAD_REACTORS
330
7
102
}
330
7
100
AcDbDictionary
  3
STANDARD
350
78
  0
DICTIONARY
  5
77
102
{ACAD_REACTORS
330
7
102
}
330
7
100
AcDbDictionary
  0
ACDBDICTIONARYWDFLT
  5
6
102
{ACAD_REACTORS
330
7
102
}
330
7
100
AcDbDictionary
281
     1
  3
Normal
350
5
100
AcDbDictionaryWithDefault
340
5
  0
DICTIONARY
  5
835
102
{ACAD_REACTORS
330
7
102
}
330
7
100
AcDbDictionary
  3
A0
350
836
  3
A1
350
837
  3
A2
350
838
  3
A3
350
839
  3
A4
350
83A
  3
A5
350
83B
  3
A6
350
83C
  3
A7
350
83D
  3
A8
350
83E
  3
A9
350
83F
  3
B0
350
840
  3
B1
350
841
  3
B2
350
842
  3
B3
350
843
  3
B4
350
844
  3
B5
350
845
  3
B6
350
846
  3
B7
350
847
  3
B8
350
848
  3
B9
350
849
  3
C0
350
84A
  3
C1
350
84B
  3
C2
350
84C
  3
C3
350
84D
  3
C4
350
84E
  3
C5
350
84F
  3
C6
350
850
  3
C7
350
851
  3
C8
350
852
  3
C9
350
853
  3
D0
350
854
  3
D1
350
855
  3
D2
350
856
  0
DICTIONARY
  5
833
102
{ACAD_REACTORS
330
7
102
}
330
7
100
AcDbDictionary
  3
STANDARD
350
834
  0
DICTIONARY
  5
821
102
{ACAD_REACTORS
330
7
102
}
330
7
100
AcDbDictionary
  3
2DWIREFRAME
350
827
  3
3D_HIDDEN
350
829
  3
3DWIREFRAME
350
828
  3
BASIC
350
826
  3
BRIGHTEN
350
82D
  3
COLORCHANGE
350
831
  3
CONCEPTUAL
350
82A
  3
DIM
350
82C
  3
FACEPATTERN
350
830
  3
FLAT
350
822
  3
FLATWITHEDGES
350
823
  3
GOURAUD
350
824
  3
GOURAUDWITHEDGES
350
825
  3
LINEPATTERN
350
82F
  3
REALISTIC
350
82B
  3
THICKEN
350
82E
  0
XRECORD
  5
480
102
{ACAD_REACTORS
330
7
102
}
330
7
100
AcDbXrecord
 90
   990106
  3

 60
     0
 61
     0
 62
     1
 63
     3
 64
     1
 65
     0
 66
     0
 67
     3
 68
     1
 69
     0
 70
     0
 71
     0
 72
     0
 40
0.0
170
     2
340
0
  0
XRECORD
  5
88E
102
{ACAD_REACTORS
330
7
102
}
330
7
100
AcDbXrecord
 90
        1
330
834
  0
DICTIONARY
  5
3FD0
102
{ACAD_REACTORS
330
7
102
}
330
7
100
AcDbDictionary
  3
CEPSNTYPE
350
3FDA
  3
DIMSTYLEDATA
350
3FDE
  3
FINGERPRINTGUID
350
3FDB
  3
HYPERLINKBASE
350
3FD3
  3
INSUNITS
350
3FD9
  3
LAYOUTDICT
350
3FD5
  3
LWETCUNION
350
3FD8
  3
PLOTSETDICT
350
3FD6
  3
PLOTSTYLNAMDICT
350
3FD7
  3
PSVPSCALE
350
3FDD
  3
PUCSBASE
350
3FE1
  3
PUCSORGBACK
350
3FE7
  3
PUCSORGBOTTOM
350
3FE3
  3
PUCSORGFRONT
350
3FE6
  3
PUCSORGLEFT
350
3FE4
  3
PUCSORGRIGHT
350
3FE5
  3
PUCSORGTOP
350
3FE2
  3
PUCSORTHOREF
350
3FDF
  3
PUCSORTHOVIEW
350
3FE0
  3
STYLESHEET
350
3FD4
  3
TSTACKALIGN
350
3FD1
  3
TSTACKSIZE
350
3FD2
  3
UCSBASE
350
3FEA
  3
UCSORGBACK
350
3FF0
  3
UCSORGBOTTOM
350
3FEC
  3
UCSORGFRONT
350
3FEF
  3
UCSORGLEFT
350
3FED
  3
UCSORGRIGHT
350
3FEE
  3
UCSORGTOP
350
3FEB
  3
UCSORTHOREF
350
3FE8
  3
UCSORTHOVIEW
350
3FE9
  3
VERSIONGUID
350
3FDC
  0
DICTIONARY
  5
102
102
{ACAD_REACTORS
330
7
102
}
330
7
100
AcDbDictionary
  3
CANNOSCALE
350
892
  3
CMLEADERSTYLE
350
890
  3
CTABLESTYLE
350
88F
  3
DIMASSOC
350
103
  3
INDEXCTL
350
1BBB
  3
LIGHTINGUNITS
350
893
  3
MSLTSCALE
350
891
  3
SORTENTS
350
549
  0
XRECORD
  5
3F9F
102
{ACAD_REACTORS
330
7
102
}
330
7
100
AcDbXrecord
  1
DWGPROPS COOKIE
  2

  3

  4

  6

  7

  8
knsuzuki
  9

300
=
301
=
302
=
303
=
304
=
305
=
306
=
307
=
308
=
309
=
 40
0.2021184027777778
 41
2454889.454828194
 42
2454904.652812858
  1

 90
        0
  0
XRECORD
  5
3FA3
102
{ACAD_REACTORS
330
1BAE
102
}
330
1BAE
100
AcDbXrecord
102
VTR_0.000_0.000_1.000_1.000_VISUALSTYLE
340
827
102
VTR_0.000_0.000_1.000_1.000_GRIDDISPLAY
 70
     3
102
VTR_0.000_0.000_1.000_1.000_GRIDMAJOR
 70
     5
102
VTR_0.000_0.000_1.000_1.000_DEFAULTLIGHTING
280
     1
102
VTR_0.000_0.000_1.000_1.000_DEFAULTLIGHTINGTYPE
 70
     1
102
VTR_0.000_0.000_1.000_1.000_BRIGHTNESS
141
0.0
102
VTR_0.000_0.000_1.000_1.000_CONTRAST
142
0.0
  0
DICTIONARY
  5
86C
102
{ACAD_REACTORS
330
86B
102
}
330
86B
100
AcDbDictionary
  0
XRECORD
  5
1AF8
102
{ACAD_REACTORS
330
1AF7
102
}
330
1AF7
100
AcDbXrecord
290
     1
  0
XRECORD
  5
1AFA
102
{ACAD_REACTORS
330
1AF9
102
}
330
1AF9
100
AcDbXrecord
290
     1
  0
XRECORD
  5
1B00
102
{ACAD_REACTORS
330
1AFF
102
}
330
1AFF
100
AcDbXrecord
290
     1
  0
XRECORD
  5
1B02
102
{ACAD_REACTORS
330
1B01
102
}
330
1B01
100
AcDbXrecord
290
     1
  0
XRECORD
  5
1B06
102
{ACAD_REACTORS
330
1B05
102
}
330
1B05
100
AcDbXrecord
290
     1
  0
XRECORD
  5
1B08
102
{ACAD_REACTORS
330
1B07
102
}
330
1B07
100
AcDbXrecord
290
     1
  0
XRECORD
  5
3FF1
102
{ACAD_REACTORS
330
3168
102
}
330
3168
100
AcDbXrecord
340
2
  0
SORTENTSTABLE
  5
3169
102
{ACAD_REACTORS
330
3168
102
}
330
3168
100
AcDbSortentsTable
330
2
331
D17
  5
D17
331
CD0
  5
CD0
331
CB1
  5
CB1
331
3D53
  5
3D55
331
3D6A
  5
3D6C
331
3D89
  5
3D8B
331
3DA8
  5
3DAA
331
CB2
  5
CB2
331
C93
  5
C93
331
CD1
  5
CD1
331
D18
  5
D18
331
3DE7
  5
3DE8
331
3D54
  5
3D56
331
3D6B
  5
3D6D
331
3D8A
  5
3D8C
331
3DA9
  5
3DAB
331
F08
  5
F08
331
CD2
  5
CD2
331
C94
  5
C94
331
CB3
  5
CB3
331
D19
  5
D19
331
3DE8
  5
3E30
331
3D55
  5
3D57
331
3D6C
  5
3D6E
331
3D8B
  5
3D8D
331
3DAA
  5
3DAC
331
F09
  5
F09
331
F28
  5
F28
331
CB4
  5
CB4
331
C95
  5
C95
331
CD3
  5
CD3
331
D1A
  5
D1A
331
3D56
  5
3D58
331
3D6D
  5
3D6F
331
3D8C
  5
3D8E
331
3DAB
  5
3DAD
331
F0A
  5
F0A
331
F29
  5
F29
331
F48
  5
F48
331
CD4
  5
CD4
331
C96
  5
C96
331
CB5
  5
CB5
331
D1B
  5
D1B
331
3D57
  5
3D59
331
3D6E
  5
3D70
331
3D8D
  5
3D8F
331
3DAC
  5
3DAE
331
F0B
  5
F0B
331
F2A
  5
F2A
331
F49
  5
F49
331
F68
  5
F69
331
CB6
  5
CB6
331
C97
  5
C97
331
CD5
  5
CD5
331
D1C
  5
D1C
331
3D6F
  5
3D71
331
3D8E
  5
3D90
331
3DAD
  5
3DAF
331
3D39
  5
3D3B
331
3D58
  5
3D5A
331
F0C
  5
F0C
331
F2B
  5
F2B
331
F4A
  5
F4A
331
F69
  5
F6A
331
CD6
  5
CD6
331
C98
  5
C98
331
CB7
  5
CB7
331
D1D
  5
D1D
331
3D70
  5
3D72
331
3D8F
  5
3D91
331
3DAE
  5
3DB0
331
3D3A
  5
3D3C
331
3D59
  5
3D5B
331
F0D
  5
F0D
331
F2C
  5
F2C
331
F4B
  5
F4B
331
F6A
  5
F6B
331
CD7
  5
CD7
331
D1E
  5
D1E
331
CB8
  5
CB8
331
C99
  5
C99
331
3D71
  5
3D73
331
3D90
  5
3D92
331
3DAF
  5
3DB1
331
3D3B
  5
3D3D
331
3D5A
  5
3D5C
331
F0E
  5
F0E
331
F2D
  5
F2D
331
F4C
  5
F4C
331
F6B
  5
F6C
331
D1F
  5
D1F
331
CD8
  5
CD8
331
C9A
  5
C9A
331
CB9
  5
CB9
331
3D72
  5
3D74
331
3D91
  5
3D93
331
3DB0
  5
3DB2
331
3D3C
  5
3D3E
331
3D5B
  5
3D5D
331
F0F
  5
F0F
331
F2E
  5
F2E
331
F4D
  5
F4D
331
F6C
  5
F6D
331
CBA
  5
CBA
331
C9B
  5
C9B
331
CD9
  5
CD9
331
3D73
  5
3D75
331
3D92
  5
3D94
331
3DB1
  5
3DE0
331
3D3D
  5
3D3F
331
3D5C
  5
3D5E
331
F10
  5
F10
331
F2F
  5
F2F
331
F4E
  5
F4E
331
F6D
  5
F6E
331
CBB
  5
CBB
331
C9C
  5
C9C
331
3D74
  5
3D76
331
3D93
  5
3D95
331
3DB2
  5
3DE7
331
3D3E
  5
3D40
331
3D5D
  5
3D5F
331
F11
  5
F11
331
F30
  5
F30
331
F4F
  5
F4F
331
F6E
  5
F6F
331
CBC
  5
CBC
331
C9D
  5
C9D
331
3D75
  5
3D77
331
3D94
  5
3D96
331
3D3F
  5
3D41
331
3D5E
  5
3D60
331
F31
  5
F31
331
F12
  5
F12
331
F50
  5
F50
331
F6F
  5
F70
331
F86
  5
1147
331
CBD
  5
CBD
331
C9E
  5
C9E
331
3D76
  5
3D78
331
3D95
  5
3D97
331
3D5F
  5
3D61
331
3D40
  5
3D42
331
F13
  5
F13
331
F32
  5
F32
331
F51
  5
F51
331
F70
  5
F71
331
1316
  5
1378
331
C9F
  5
C9F
331
CBE
  5
CBE
331
3D77
  5
3D79
331
3D96
  5
3D98
331
3D41
  5
3D43
331
F71
  5
F72
331
F14
  5
F14
331
F33
  5
F33
331
F52
  5
F52
331
CBF
  5
CBF
331
3D97
  5
3D99
331
3D42
  5
3D44
331
3D78
  5
3D7A
331
F53
  5
F53
331
F15
  5
F15
331
F34
  5
F34
331
F72
  5
F73
331
1415
  5
1434
331
3D43
  5
3D45
331
3D79
  5
3D7B
331
3D98
  5
3D9A
331
159A
  5
15F7
331
F16
  5
F16
331
F35
  5
F35
331
F54
  5
F54
331
F73
  5
F74
331
1378
  5
1392
331
3D44
  5
3D46
331
3C75
  5
3D3A
331
3D7A
  5
3D7C
331
3D99
  5
3D9B
331
1791
  5
1792
331
F17
  5
F17
331
F36
  5
F36
331
F55
  5
F55
331
F74
  5
F75
331
3D45
  5
3D47
331
3D7B
  5
3D7D
331
3D9A
  5
3D9C
331
D20
  5
D20
331
1792
  5
1799
331
F37
  5
F37
331
F18
  5
F18
331
F56
  5
F56
331
F75
  5
F76
331
36C0
  5
36C2
331
3D46
  5
3D48
331
3D7C
  5
3D7E
331
3D9B
  5
3D9D
331
D40
  5
D40
331
D21
  5
D21
331
17DA
  5
17F0
331
F19
  5
F19
331
F38
  5
F38
331
F57
  5
F57
331
F76
  5
F77
331
36C1
  5
36C3
331
3D47
  5
3D49
331
3D7D
  5
3D7F
331
3D9C
  5
3D9E
331
D60
  5
D60
331
D41
  5
D41
331
D22
  5
D22
331
F58
  5
F58
331
F1A
  5
F1A
331
F39
  5
F39
331
F77
  5
F78
331
36C2
  5
36C4
331
36E1
  5
36E7
331
3700
  5
3705
331
3D7E
  5
3D80
331
3D9D
  5
3D9F
331
D61
  5
D61
331
D42
  5
D42
331
D23
  5
D23
331
1147
  5
120F
331
F1B
  5
F1B
331
F3A
  5
F3A
331
F59
  5
F59
331
F78
  5
F79
331
36C3
  5
36C5
331
36E2
  5
36E8
331
3701
  5
3706
331
3720
  5
3725
331
3D7F
  5
3D81
331
3D9E
  5
3DA0
331
D98
  5
D98
331
D81
  5
D81
331
D62
  5
D62
331
D43
  5
D43
331
D24
  5
D24
331
14BA
  5
14D0
331
F1C
  5
F1C
331
F3B
  5
F3B
331
F5A
  5
F5A
331
F79
  5
F7A
331
36C4
  5
36C6
331
36E3
  5
36E9
331
3702
  5
3707
331
3721
  5
3726
331
3738
  5
373D
331
3D9F
  5
3DA1
331
D99
  5
D99
331
D82
  5
D82
331
D63
  5
D63
331
D44
  5
D44
331
D25
  5
D25
331
DB8
  5
DB8
331
1464
  5
147A
331
13F6
  5
1415
331
F1D
  5
F1D
331
F3C
  5
F3C
331
F5B
  5
F5B
331
F7A
  5
F7B
331
3758
  5
375D
331
3722
  5
3727
331
36C5
  5
36C7
331
3703
  5
3708
331
3739
  5
373E
331
DB9
  5
DB9
331
D9A
  5
D9A
331
D83
  5
D83
331
D64
  5
D64
331
D45
  5
D45
331
D26
  5
D26
331
DD8
  5
DD8
331
150B
  5
150C
331
F1E
  5
F1E
331
F3D
  5
F3D
331
F5C
  5
F5C
331
F7B
  5
F7C
331
194B
  5
1961
331
373A
  5
373F
331
36C6
  5
36C8
331
36E5
  5
36EA
331
3704
  5
3709
331
3723
  5
3728
331
3759
  5
375E
331
3778
  5
377D
331
DD9
  5
DD9
331
DBA
  5
DBA
331
D84
  5
D84
331
D65
  5
D65
331
D46
  5
D46
331
D27
  5
D27
331
D9B
  5
D9B
331
DF8
  5
DF8
331
17F0
  5
1806
331
1799
  5
179A
331
150C
  5
1514
331
F1F
  5
F1F
331
F3E
  5
F3E
331
F5D
  5
F5D
331
F7C
  5
F7D
331
1AD8
  5
1AD9
331
373B
  5
3740
331
1905
  5
191B
331
36C7
  5
36C9
331
36E6
  5
36EB
331
3705
  5
370A
331
3724
  5
3729
331
375A
  5
375F
331
3779
  5
377E
331
3798
  5
379D
331
E10
  5
E10
331
DBB
  5
DBB
331
D9C
  5
D9C
331
D85
  5
D85
331
D66
  5
D66
331
D28
  5
D28
331
D47
  5
D47
331
DDA
  5
DDA
331
DF9
  5
DF9
331
179A
  5
179B
331
1392
  5
13C2
331
F3F
  5
F3F
331
F5E
  5
F5E
331
F7D
  5
F7E
331
F20
  5
F20
331
1AD9
  5
1AE3
331
373C
  5
3741
331
36C8
  5
36CA
331
36E7
  5
36EC
331
3706
  5
370B
331
3725
  5
372A
331
375B
  5
3760
331
377A
  5
377F
331
3799
  5
379E
331
37B0
  5
37B5
331
E11
  5
E11
331
DDB
  5
DDB
331
DBC
  5
DBC
331
D86
  5
D86
331
D67
  5
D67
331
D48
  5
D48
331
D29
  5
D29
331
D9D
  5
D9D
331
DFA
  5
DFA
331
E30
  5
E30
331
179B
  5
17B5
331
F5F
  5
F5F
331
F7E
  5
F7F
331
F21
  5
F21
331
F40
  5
F40
331
1A6B
  5
1A92
331
373D
  5
3742
331
36C9
  5
36CB
331
36E8
  5
36ED
331
3707
  5
370C
331
3726
  5
372B
331
375C
  5
3761
331
377B
  5
3780
331
379A
  5
379F
331
37B1
  5
37B6
331
37D0
  5
37D5
331
E31
  5
E31
331
E12
  5
E12
331
DDC
  5
DDC
331
D9E
  5
D9E
331
D87
  5
D87
331
D68
  5
D68
331
D49
  5
D49
331
D2A
  5
D2A
331
DBD
  5
DBD
331
DFB
  5
DFB
331
E50
  5
E50
331
14D0
  5
14EF
331
F7F
  5
F80
331
F22
  5
F22
331
F41
  5
F41
331
F60
  5
F60
331
373E
  5
3743
331
36CA
  5
36CC
331
36E9
  5
36EE
331
3708
  5
370D
331
3727
  5
372C
331
375D
  5
3763
331
377C
  5
3781
331
379B
  5
37A0
331
37B2
  5
37B7
331
37D1
  5
37D6
331
E51
  5
E51
331
DDD
  5
DDD
331
DBE
  5
DBE
331
D88
  5
D88
331
D69
  5
D69
331
D4A
  5
D4A
331
D2B
  5
D2B
331
D9F
  5
D9F
331
DFC
  5
DFC
331
E32
  5
E32
331
E70
  5
E70
331
16BE
  5
1789
331
15F7
  5
163D
331
120F
  5
1316
331
147A
  5
1490
331
F23
  5
F23
331
F42
  5
F42
331
F61
  5
F62
331
373F
  5
3744
331
18A2
  5
18BC
331
36CB
  5
36CD
331
36EA
  5
36EF
331
3709
  5
370E
331
3728
  5
372D
331
375E
  5
3764
331
377D
  5
3782
331
379C
  5
37A1
331
37B3
  5
37B8
331
37D2
  5
37D7
331
E71
  5
E71
331
E33
  5
E33
331
DDE
  5
DDE
331
DA0
  5
DA0
331
D89
  5
D89
331
D6A
  5
D6A
331
D4B
  5
D4B
331
D2C
  5
D2C
331
DBF
  5
DBF
331
DFD
  5
DFD
331
E52
  5
E52
331
1434
  5
144E
331
F24
  5
F24
331
F43
  5
F43
331
F62
  5
F63
331
2621
  5
2891
331
1961
  5
19C6
331
181C
  5
1841
331
36EB
  5
36F0
331
36CC
  5
36CE
331
370A
  5
370F
331
3729
  5
372E
331
3740
  5
3745
331
377E
  5
3783
331
379D
  5
37A2
331
37B4
  5
37B9
331
37D3
  5
37D8
331
37F2
  5
37F7
331
EB0
  5
EB0
331
E53
  5
E53
331
DFE
  5
DFE
331
DC0
  5
DC0
331
DA1
  5
DA1
331
D8A
  5
D8A
331
D6B
  5
D6B
331
D4C
  5
D4C
331
D2D
  5
D2D
331
DDF
  5
DDF
331
E34
  5
E34
331
E72
  5
E72
331
F25
  5
F25
331
F44
  5
F44
331
F63
  5
F64
331
2CA1
  5
2E2F
331
3850
  5
3855
331
1B1C
  5
1B1D
331
37F3
  5
37F8
331
37B5
  5
37BA
331
3741
  5
3746
331
36EC
  5
36F1
331
36CD
  5
36CF
331
370B
  5
3710
331
372A
  5
372F
331
3760
  5
3765
331
377F
  5
3784
331
379E
  5
37A3
331
37D4
  5
37D9
331
3831
  5
3836
331
EB1
  5
EB1
331
E73
  5
E73
331
E35
  5
E35
331
DE0
  5
DE0
331
DA2
  5
DA2
331
D8B
  5
D8B
331
D6C
  5
D6C
331
D4D
  5
D4D
331
D2E
  5
D2E
331
DC1
  5
DC1
331
DFF
  5
DFF
331
E54
  5
E54
331
ED0
  5
ED0
331
F26
  5
F26
331
F45
  5
F45
331
F64
  5
F65
331
3688
  5
3689
331
3851
  5
3856
331
1B1D
  5
1D94
331
37B6
  5
37BB
331
3742
  5
3747
331
36ED
  5
36F2
331
36CE
  5
36D0
331
370C
  5
3711
331
372B
  5
3730
331
3761
  5
3766
331
3780
  5
3785
331
379F
  5
37A4
331
37D5
  5
37DA
331
37F4
  5
37F9
331
3832
  5
3837
331
3870
  5
387B
331
E93
  5
E93
331
E55
  5
E55
331
E00
  5
E00
331
DC2
  5
DC2
331
DA3
  5
DA3
331
D6D
  5
D6D
331
D2F
  5
D2F
331
D4E
  5
D4E
331
D8C
  5
D8C
331
DE1
  5
DE1
331
E36
  5
E36
331
E74
  5
E74
331
EB2
  5
EB2
331
ED1
  5
ED1
331
EF0
  5
EF0
331
1514
  5
1515
331
F27
  5
F27
331
F46
  5
F46
331
F65
  5
F66
331
3689
  5
368A
331
36A8
  5
36AA
331
30A2
  5
31DD
331
3833
  5
3838
331
3762
  5
3767
331
36EE
  5
36F3
331
36CF
  5
36D1
331
370D
  5
3712
331
372C
  5
3731
331
3743
  5
3748
331
3781
  5
3787
331
37A0
  5
37A5
331
37B7
  5
37BC
331
37D6
  5
37DB
331
37F5
  5
37FA
331
381C
  5
3823
331
3852
  5
3857
331
3871
  5
387C
331
E94
  5
E94
331
E37
  5
E37
331
DE2
  5
DE2
331
DA4
  5
DA4
331
D6E
  5
D6E
331
D4F
  5
D4F
331
D30
  5
D30
331
D8D
  5
D8D
331
DC3
  5
DC3
331
E01
  5
E01
331
E56
  5
E56
331
EB3
  5
EB3
331
ED2
  5
ED2
331
EF1
  5
EF1
331
1515
  5
159A
331
F47
  5
F47
331
F66
  5
F67
331
368A
  5
368B
331
36A9
  5
36AB
331
3853
  5
3858
331
1FEE
  5
227C
331
1A92
  5
1AB1
331
3763
  5
3768
331
372D
  5
3732
331
36EF
  5
36F4
331
36D0
  5
36D2
331
370E
  5
3713
331
3744
  5
3749
331
3782
  5
3788
331
37A1
  5
37A6
331
37B8
  5
37BD
331
37F6
  5
37FB
331
381D
  5
3824
331
3834
  5
383D
331
3872
  5
3B79
331
E95
  5
E95
331
E57
  5
E57
331
E02
  5
E02
331
DC4
  5
DC4
331
DA5
  5
DA5
331
D6F
  5
D6F
331
D31
  5
D31
331
D50
  5
D50
331
D8E
  5
D8E
331
DE3
  5
DE3
331
E38
  5
E38
331
EB4
  5
EB4
331
ED3
  5
ED3
331
EF2
  5
EF2
331
F67
  5
F68
331
1490
  5
14BA
331
368B
  5
368C
331
36AA
  5
36AC
331
3854
  5
3859
331
1A2C
  5
1A46
331
19E5
  5
1A0D
331
372E
  5
3733
331
1841
  5
1857
331
36F0
  5
36F5
331
36D1
  5
36D3
331
370F
  5
3714
331
3745
  5
374A
331
3764
  5
3769
331
37A2
  5
37A7
331
37B9
  5
37BE
331
37F7
  5
37FC
331
381E
  5
3825
331
3835
  5
3842
331
3873
  5
3C75
331
E96
  5
E96
331
E39
  5
E39
331
DE4
  5
DE4
331
DA6
  5
DA6
331
D8F
  5
D8F
331
D51
  5
D51
331
D32
  5
D32
331
D70
  5
D70
331
DC5
  5
DC5
331
E03
  5
E03
331
E58
  5
E58
331
EB5
  5
EB5
331
ED4
  5
ED4
331
EF3
  5
EF3
331
368C
  5
368D
331
36AB
  5
36AD
331
3836
  5
3843
331
1AE3
  5
1B1C
331
3765
  5
376A
331
372F
  5
3734
331
36F1
  5
36F6
331
36D2
  5
36D4
331
3710
  5
3715
331
3746
  5
374B
331
3784
  5
3789
331
37A3
  5
37A8
331
37BA
  5
37BF
331
37D9
  5
37DE
331
37F8
  5
3809
331
381F
  5
3826
331
3855
  5
385A
331
E97
  5
E97
331
E59
  5
E59
331
E04
  5
E04
331
DC6
  5
DC6
331
DA7
  5
DA7
331
DE5
  5
DE5
331
E3A
  5
E3A
331
EB6
  5
EB6
331
ED5
  5
ED5
331
EF4
  5
EF4
331
D71
  5
D71
331
D33
  5
D33
331
D52
  5
D52
331
D90
  5
D90
331
17B5
  5
17DA
331
368D
  5
368E
331
36AC
  5
36AE
331
3837
  5
3845
331
3766
  5
376B
331
3730
  5
3735
331
36F2
  5
36F7
331
36D3
  5
36D5
331
3711
  5
3716
331
3747
  5
374C
331
3785
  5
378A
331
37A4
  5
37A9
331
37BB
  5
37C0
331
37DA
  5
37DF
331
37F9
  5
380A
331
3820
  5
3827
331
3856
  5
385B
331
E98
  5
E98
331
E3B
  5
E3B
331
DE6
  5
DE6
331
DA8
  5
DA8
331
DC7
  5
DC7
331
E05
  5
E05
331
E5A
  5
E5A
331
EB7
  5
EB7
331
ED6
  5
ED6
331
D53
  5
D53
331
D34
  5
D34
331
D72
  5
D72
331
D91
  5
D91
331
13CE
  5
13F6
331
368E
  5
368F
331
36AD
  5
36B0
331
2891
  5
2AB1
331
3767
  5
376C
331
3731
  5
3736
331
36F3
  5
36F8
331
36D4
  5
36D6
331
3712
  5
3717
331
3748
  5
374D
331
3786
  5
378B
331
37A5
  5
37AA
331
37BC
  5
37C1
331
37DB
  5
37E0
331
37FA
  5
380B
331
3838
  5
3846
331
3857
  5
385C
331
E99
  5
E99
331
E5B
  5
E5B
331
E06
  5
E06
331
DC8
  5
DC8
331
DA9
  5
DA9
331
DE7
  5
DE7
331
E3C
  5
E3C
331
EB8
  5
EB8
331
ED7
  5
ED7
331
D73
  5
D73
331
D35
  5
D35
331
D54
  5
D54
331
D92
  5
D92
331
1806
  5
181C
331
368F
  5
3690
331
37FB
  5
380C
331
3768
  5
376D
331
3732
  5
3737
331
191B
  5
1931
331
18BC
  5
18D2
331
36D5
  5
36D7
331
36F4
  5
36F9
331
3713
  5
3718
331
3749
  5
374E
331
3787
  5
378C
331
37A6
  5
37AB
331
37BD
  5
37C2
331
37DC
  5
37E1
331
3858
  5
385D
331
E9A
  5
E9A
331
E83
  5
E83
331
E5C
  5
E5C
331
DE8
  5
DE8
331
DAA
  5
DAA
331
DC9
  5
DC9
331
E07
  5
E07
331
E3D
  5
E3D
331
EB9
  5
EB9
331
ED8
  5
ED8
331
EF7
  5
EF7
331
D55
  5
D55
331
D36
  5
D36
331
D74
  5
D74
331
D93
  5
D93
331
1789
  5
178A
331
144E
  5
1464
331
3690
  5
3691
331
36AF
  5
36B1
331
227C
  5
2554
331
37DD
  5
37E2
331
3769
  5
376E
331
3733
  5
3738
331
36F5
  5
36FA
331
36D6
  5
36D8
331
3714
  5
3719
331
374A
  5
374F
331
3788
  5
378D
331
37A7
  5
37AC
331
37BE
  5
37C3
331
37FC
  5
380D
331
3823
  5
3829
331
3859
  5
385E
331
E9B
  5
E9B
331
E5D
  5
E5D
331
E3E
  5
E3E
331
E1F
  5
E1F
331
E84
  5
E84
331
EBA
  5
EBA
331
ED9
  5
ED9
331
EF8
  5
EF8
331
DCA
  5
DCA
331
DAB
  5
DAB
331
DE9
  5
DE9
331
D75
  5
D75
331
D37
  5
D37
331
D56
  5
D56
331
D94
  5
D94
331
E08
  5
E08
331
178A
  5
1791
331
3691
  5
3692
331
36B0
  5
36B2
331
3824
  5
382A
331
37A8
  5
37AD
331
1AB1
  5
1AD7
331
376A
  5
376F
331
3734
  5
3739
331
36F6
  5
36FB
331
36D7
  5
36D9
331
3715
  5
371A
331
374B
  5
3750
331
3789
  5
378E
331
37BF
  5
37C4
331
37DE
  5
37E3
331
385A
  5
385F
331
E5E
  5
E5E
331
E20
  5
E20
331
E3F
  5
E3F
331
E9C
  5
E9C
331
EBB
  5
EBB
331
EDA
  5
EDA
331
EF9
  5
EF9
331
DEA
  5
DEA
331
DCB
  5
DCB
331
DAC
  5
DAC
331
E09
  5
E09
331
D57
  5
D57
331
D76
  5
D76
331
D95
  5
D95
331
D38
  5
D38
331
3692
  5
3693
331
36B1
  5
36B3
331
3825
  5
382B
331
37A9
  5
37AE
331
376B
  5
3770
331
3735
  5
373A
331
36D8
  5
36DA
331
36F7
  5
36FC
331
3716
  5
371B
331
374C
  5
3751
331
378A
  5
378F
331
37C0
  5
37C5
331
37DF
  5
37E4
331
385B
  5
3860
331
E40
  5
E40
331
E21
  5
E21
331
E5F
  5
E5F
331
E9D
  5
E9D
331
EBC
  5
EBC
331
EDB
  5
EDB
331
EFA
  5
EFA
331
DCC
  5
DCC
331
DAD
  5
DAD
331
DEB
  5
DEB
331
E0A
  5
E0A
331
D77
  5
D77
331
D96
  5
D96
331
D58
  5
D58
331
163D
  5
1682
331
14EF
  5
150B
331
3693
  5
3695
331
36B2
  5
36B4
331
383D
  5
3847
331
37AA
  5
37AF
331
376C
  5
3771
331
374D
  5
3752
331
378B
  5
3790
331
37E0
  5
37E5
331
3826
  5
382C
331
385C
  5
3861
331
3736
  5
373B
331
36D9
  5
36DB
331
36F8
  5
36FD
331
3717
  5
371C
331
19C6
  5
19E5
331
E60
  5
E60
331
E22
  5
E22
331
E41
  5
E41
331
E9E
  5
E9E
331
EBD
  5
EBD
331
EDC
  5
EDC
331
EFB
  5
EFB
331
DEC
  5
DEC
331
DCD
  5
DCD
331
DAE
  5
DAE
331
E0B
  5
E0B
331
D97
  5
D97
331
D59
  5
D59
331
D3A
  5
D3A
331
D78
  5
D78
331
3694
  5
3696
331
36B3
  5
36B5
331
3827
  5
382D
331
37AB
  5
37B0
331
376D
  5
3772
331
3737
  5
373C
331
36DA
  5
36DC
331
36F9
  5
36FE
331
3718
  5
371D
331
374E
  5
3753
331
378C
  5
3791
331
37C2
  5
37C7
331
37E1
  5
37E6
331
385D
  5
3862
331
E42
  5
E42
331
E23
  5
E23
331
E61
  5
E61
331
E9F
  5
E9F
331
EBE
  5
EBE
331
EDD
  5
EDD
331
EFC
  5
EFC
331
DED
  5
DED
331
DAF
  5
DAF
331
DCE
  5
DCE
331
E0C
  5
E0C
331
D79
  5
D79
331
D5A
  5
D5A
331
3695
  5
3697
331
36B4
  5
36B6
331
2E6F
  5
2E71
331
37AC
  5
37B1
331
37C3
  5
37C8
331
1A46
  5
1A6B
331
374F
  5
3754
331
376E
  5
3773
331
378D
  5
3792
331
37E2
  5
37E7
331
3809
  5
380E
331
385E
  5
3863
331
3719
  5
371E
331
36DB
  5
36DD
331
36FA
  5
36FF
331
18D2
  5
1905
331
1931
  5
194B
331
EFD
  5
EFD
331
EDE
  5
EDE
331
E62
  5
E62
331
E24
  5
E24
331
E43
  5
E43
331
EA0
  5
EA0
331
EBF
  5
EBF
331
DEE
  5
DEE
331
DCF
  5
DCF
331
E0D
  5
E0D
331
DB0
  5
DB0
331
D5B
  5
D5B
331
D3C
  5
D3C
331
D7A
  5
D7A
331
3696
  5
3698
331
36B5
  5
36B7
331
2E70
  5
2E72
331
385F
  5
3864
331
3829
  5
382E
331
37AD
  5
37B2
331
37C4
  5
37C9
331
36DC
  5
36DE
331
36FB
  5
3700
331
371A
  5
371F
331
3750
  5
3755
331
376F
  5
3774
331
378E
  5
3793
331
380A
  5
380F
331
2AB1
  5
2CA1
331
E44
  5
E44
331
E25
  5
E25
331
E63
  5
E63
331
EA1
  5
EA1
331
EC0
  5
EC0
331
EFE
  5
EFE
331
DEF
  5
DEF
331
E0E
  5
E0E
331
DB1
  5
DB1
331
D7B
  5
D7B
331
D5C
  5
D5C
331
D3D
  5
D3D
331
DD0
  5
DD0
331
CA0
  5
CA0
331
3697
  5
3699
331
36B6
  5
36B8
331
2E71
  5
2FF3
331
3860
  5
3865
331
37C5
  5
37CA
331
37E4
  5
37E9
331
380B
  5
3815
331
36DD
  5
36DF
331
36FC
  5
3701
331
371B
  5
3720
331
3751
  5
3756
331
3770
  5
3775
331
378F
  5
3794
331
37AE
  5
37B3
331
382A
  5
3831
331
CC0
  5
CC0
331
E64
  5
E64
331
E26
  5
E26
331
E45
  5
E45
331
EA2
  5
EA2
331
EC1
  5
EC1
331
EFF
  5
EFF
331
E0F
  5
E0F
331
DD1
  5
DD1
331
DB2
  5
DB2
331
D5D
  5
D5D
331
D3E
  5
D3E
331
D7C
  5
D7C
331
DF0
  5
DF0
331
CA1
  5
CA1
331
3698
  5
369A
331
36B7
  5
36B9
331
3842
  5
3848
331
3861
  5
3866
331
2554
  5
25BD
331
37E5
  5
37EA
331
380C
  5
381C
331
382B
  5
3832
331
3752
  5
3757
331
36DE
  5
36E0
331
36FD
  5
3702
331
371C
  5
3721
331
3771
  5
3776
331
3790
  5
3795
331
37AF
  5
37B4
331
CC1
  5
CC1
331
EC2
  5
EC2
331
EA3
  5
EA3
331
E46
  5
E46
331
E27
  5
E27
331
E65
  5
E65
331
E8C
  5
E8C
331
DF1
  5
DF1
331
DB3
  5
DB3
331
D5E
  5
D5E
331
D3F
  5
D3F
331
DD2
  5
DD2
331
F00
  5
F00
331
CA2
  5
CA2
331
36B8
  5
36BA
331
3699
  5
369B
331
3843
  5
3849
331
3862
  5
3867
331
3753
  5
3758
331
36FE
  5
3703
331
371D
  5
3722
331
3772
  5
3777
331
3791
  5
3796
331
37E6
  5
37EB
331
380D
  5
381D
331
36DF
  5
36E6
331
1857
  5
18A2
331
382C
  5
3833
331
CC2
  5
CC2
331
EC3
  5
EC3
331
EA4
  5
EA4
331
E66
  5
E66
331
E47
  5
E47
331
E8D
  5
E8D
331
DD3
  5
DD3
331
D5F
  5
D5F
331
DB4
  5
DB4
331
DF2
  5
DF2
331
E28
  5
E28
331
F01
  5
F01
331
CA3
  5
CA3
331
36B9
  5
36BB
331
369A
  5
369C
331
3863
  5
3868
331
3754
  5
3759
331
36FF
  5
3704
331
371E
  5
3723
331
3773
  5
3778
331
3792
  5
3797
331
37E7
  5
37EC
331
380E
  5
381E
331
382D
  5
3834
331
D0A
  5
D0A
331
CC3
  5
CC3
331
EA5
  5
EA5
331
EC4
  5
EC4
331
E67
  5
E67
331
E8E
  5
E8E
331
E48
  5
E48
331
DF3
  5
DF3
331
DB5
  5
DB5
331
DD4
  5
DD4
331
E29
  5
E29
331
F02
  5
F02
331
CA4
  5
CA4
331
3B79
  5
3D39
331
36BA
  5
36BC
331
369B
  5
369D
331
3845
  5
384A
331
3864
  5
3869
331
3774
  5
3779
331
3793
  5
3798
331
37C9
  5
37CE
331
37E8
  5
37ED
331
380F
  5
381F
331
371F
  5
3724
331
3755
  5
375A
331
1A0D
  5
1A2C
331
382E
  5
3835
331
D0B
  5
D0B
331
CC4
  5
CC4
331
EA6
  5
EA6
331
EC5
  5
EC5
331
E68
  5
E68
331
DD5
  5
DD5
331
DB6
  5
DB6
331
DF4
  5
DF4
331
E2A
  5
E2A
331
E49
  5
E49
331
F03
  5
F03
331
CA5
  5
CA5
331
36BB
  5
36BD
331
369C
  5
369E
331
3756
  5
375B
331
3775
  5
377A
331
3794
  5
3799
331
37CA
  5
37CF
331
37E9
  5
37EE
331
3846
  5
384B
331
3865
  5
386A
331
D0C
  5
D0C
331
CC5
  5
CC5
331
EA7
  5
EA7
331
EC6
  5
EC6
331
EE5
  5
EE5
331
E4A
  5
E4A
331
DF5
  5
DF5
331
DB7
  5
DB7
331
DD6
  5
DD6
331
E2B
  5
E2B
331
E69
  5
E69
331
F04
  5
F04
331
CA6
  5
CA6
331
3D48
  5
3D4A
331
36BC
  5
36BE
331
335E
  5
3458
331
369D
  5
369F
331
3757
  5
375C
331
3776
  5
377B
331
3795
  5
379A
331
37CB
  5
37D0
331
37EA
  5
37EF
331
3847
  5
384F
331
3866
  5
386B
331
D0D
  5
D0D
331
CC6
  5
CC6
331
EC7
  5
EC7
331
EE6
  5
EE6
331
E6A
  5
E6A
331
E4B
  5
E4B
331
DD7
  5
DD7
331
DF6
  5
DF6
331
E2C
  5
E2C
331
EA8
  5
EA8
331
F05
  5
F05
331
CA7
  5
CA7
331
3D60
  5
3D62
331
3D49
  5
3D4B
331
36BD
  5
36BF
331
369E
  5
36A0
331
37CC
  5
37D1
331
3777
  5
377C
331
3796
  5
379B
331
37EB
  5
37F0
331
3848
  5
3850
331
3867
  5
386C
331
D0E
  5
D0E
331
CC7
  5
CC7
331
EE7
  5
EE7
331
E4C
  5
E4C
331
DF7
  5
DF7
331
E2D
  5
E2D
331
E6B
  5
E6B
331
EA9
  5
EA9
331
EC8
  5
EC8
331
F06
  5
F06
331
CA8
  5
CA8
331
3D61
  5
3D63
331
3D4A
  5
3D4C
331
3D80
  5
3D82
331
36BE
  5
36C0
331
369F
  5
36A1
331
1D94
  5
1FEE
331
1AD7
  5
1AD8
331
3797
  5
379C
331
37EC
  5
37F1
331
3849
  5
3851
331
3868
  5
386D
331
D0F
  5
D0F
331
CC8
  5
CC8
331
E6C
  5
E6C
331
E4D
  5
E4D
331
E2E
  5
E2E
331
EAA
  5
EAA
331
EC9
  5
EC9
331
EE8
  5
EE8
331
F07
  5
F07
331
CA9
  5
CA9
331
3D62
  5
3D64
331
3D4B
  5
3D4D
331
3D81
  5
3D83
331
3DA0
  5
3DA2
331
36BF
  5
36C1
331
36A0
  5
36A2
331
2FF2
  5
30A3
331
37CE
  5
37D3
331
384A
  5
3852
331
3869
  5
386E
331
D10
  5
D10
331
CC9
  5
CC9
331
E6D
  5
E6D
331
E2F
  5
E2F
331
E4E
  5
E4E
331
EAB
  5
EAB
331
ECA
  5
ECA
331
EE9
  5
EE9
331
CAA
  5
CAA
331
3D63
  5
3D65
331
3D4C
  5
3D4E
331
3D82
  5
3D84
331
3DA1
  5
3DA3
331
3492
  5
3493
331
36A1
  5
36A3
331
25BD
  5
25BE
331
384B
  5
3853
331
37CF
  5
37D4
331
3815
  5
3820
331
386A
  5
386F
331
D11
  5
D11
331
CCA
  5
CCA
331
E6E
  5
E6E
331
E4F
  5
E4F
331
EAC
  5
EAC
331
ECB
  5
ECB
331
EEA
  5
EEA
331
CAB
  5
CAB
331
3D64
  5
3D66
331
3D4D
  5
3D4F
331
3D83
  5
3D85
331
3DA2
  5
3DA4
331
3493
  5
3687
331
36A2
  5
36A4
331
25BE
  5
2621
331
386B
  5
3870
331
D12
  5
D12
331
CCB
  5
CCB
331
E6F
  5
E6F
331
EAD
  5
EAD
331
ECC
  5
ECC
331
EEB
  5
EEB
331
CAC
  5
CAC
331
3D65
  5
3D67
331
3D4E
  5
3D50
331
3D84
  5
3D86
331
3DA3
  5
3DA5
331
36A3
  5
36A5
331
386C
  5
3871
331
D13
  5
D13
331
CCC
  5
CCC
331
EAE
  5
EAE
331
ECD
  5
ECD
331
EEC
  5
EEC
331
CAD
  5
CAD
331
3D4F
  5
3D51
331
3D66
  5
3D68
331
3D85
  5
3D87
331
3DA4
  5
3DA6
331
36A4
  5
36A6
331
386D
  5
3872
331
D14
  5
D14
331
CCD
  5
CCD
331
EAF
  5
EAF
331
ECE
  5
ECE
331
EED
  5
EED
331
CAE
  5
CAE
331
3D50
  5
3D52
331
3D67
  5
3D69
331
3D86
  5
3D88
331
3DA5
  5
3DA7
331
36A5
  5
36A7
331
384F
  5
3854
331
386E
  5
3873
331
D15
  5
D15
331
CCE
  5
CCE
331
ECF
  5
ECF
331
EEE
  5
EEE
331
CAF
  5
CAF
331
3D51
  5
3D53
331
3D68
  5
3D6A
331
3D87
  5
3D89
331
3DA6
  5
3DA8
331
386F
  5
387A
331
D16
  5
D16
331
CCF
  5
CCF
331
EEF
  5
EEF
331
CB0
  5
CB0
331
3D52
  5
3D54
331
3D69
  5
3D6B
331
3D88
  5
3D8A
331
3DA7
  5
3DA9
331
36A7
  5
36A9
  0
XRECORD
  5
3FF3
102
{ACAD_REACTORS
330
3FF2
102
}
330
3FF2
100
AcDbXrecord
340
3FCA
  0
ACAD_PROXY_OBJECT
  5
811
102
{ACAD_XDICTIONARY
360
812
102
}
102
{ACAD_REACTORS
330
808
102
}
330
808
100
AcDbProxyObject
 90
      499
 91
      512
 93
     1340
310
42109E509B1BD8DAC02004014080404555555555555953FAA155555555555654FEA9AA400014080404555555555555953FAA155555555555654FEA9AA400000000000000E03F4080404555555555555953FAA155555555555654FEA9AA4014080404555555555555953FAA155555555555654FEA9AA4010201011555555555
310
55654FEA8555555555555953FAA6A9005020101155555555555654FEA8555555555555953FAA6A9003
 94
        0
1001
ACAD
1000
AcadProxyRoundTripData
1071
      504
1071
   851991
1070
     0
  0
ACAD_PROXY_OBJECT
  5
809
102
{ACAD_XDICTIONARY
360
80A
102
}
102
{ACAD_REACTORS
330
808
102
}
330
808
100
AcDbProxyObject
 90
      499
 91
      512
 93
     1340
310
42109E53185E595C802004014080404555555555555953FAA155555555555654FEA9AA400014080404555555555555953FAA155555555555654FEA9AA400000000000000E03F4080404555555555555953FAA155555555555654FEA9AA4014080404555555555555953FAA155555555555654FEA9AA4010201011555555555
310
55654FEA8555555555555953FAA6A9005020101155555555555654FEA8555555555555953FAA6A9003
 94
        0
1001
ACAD
1000
AcadProxyRoundTripData
1071
      504
1071
   851991
1070
     0
  0
ACAD_PROXY_OBJECT
  5
819
102
{ACAD_XDICTIONARY
360
81A
102
}
102
{ACAD_REACTORS
330
808
102
}
330
808
100
AcDbProxyObject
 90
      499
 91
      512
 93
     1332
310
41D1DB1BD8985B002004014080404555555555555953FAA155555555555654FEA9AA400014080404555555555555953FAA155555555555654FEA9AA400000000000000E03F4080404555555555555953FAA155555555555654FEA9AA4014080404555555555555953FAA155555555555654FEA9AA401020101155555555555
310
654FEA8555555555555953FAA6A9005020101155555555555654FEA8555555555555953FAA6A9000
 94
        0
1001
ACAD
1000
AcadProxyRoundTripData
1071
      504
1071
   851991
1070
     0
  0
ACAD_PROXY_OBJECT
  5
858
102
{ACAD_REACTORS
330
857
102
}
330
857
100
AcDbProxyObject
 90
      499
 91
      512
 93
      618
310
40901902A4063FBFFFFFE056BD1B81E855B9FC0AD7A3703D0AD73F4254DD185B99185C990000AD7A3703D0AC73F90141901A02B5E8DC0F42B1CFC02B5E8DC0F42B1CFE5764000000000000300FC6
340
6A
340
0
340
16
340
0
 94
        0
1001
ACAD_MLEADERVER
1070
     2
1001
ACAD
1000
AcadProxyRoundTripData
1071
      508
1071
   851991
1070
     0
  0
MLINESTYLE
  5
78
102
{ACAD_REACTORS
330
76
102
}
330
76
100
AcDbMlineStyle
  2
STANDARD
 70
     0
  3

 62
     0
 51
90.0
 52
90.0
 71
     2
 49
0.5
 62
   256
  6
BYLAYER
 49
-0.5
 62
   256
  6
BYLAYER
  0
ACDBPLACEHOLDER
  5
5
102
{ACAD_REACTORS
330
6
102
}
330
6
100
AcDbPlaceHolder
280
     0
  0
ACAD_PROXY_OBJECT
  5
836
102
{ACAD_REACTORS
330
835
102
}
330
835
100
AcDbProxyObject
 90
      499
 91
      512
 93
       49
310
904313A3100598
 94
        0
1001
ACAD
1000
AcadProxyRoundTripData
1071
      507
1071
   851991
1070
     0
  0
ACAD_PROXY_OBJECT
  5
837
102
{ACAD_REACTORS
330
835
102
}
330
835
100
AcDbProxyObject
 90
      499
 91
      512
 93
      113
310
904313A3200400000000000000406B
 94
        0
1001
ACAD
1000
AcadProxyRoundTripData
1071
      507
1071
   851991
1070
     0
  0
ACAD_PROXY_OBJECT
  5
838
102
{ACAD_REACTORS
330
835
102
}
330
835
100
AcDbProxyObject
 90
      499
 91
      512
 93
      113
310
904313A3400400000000000010406B
 94
        0
1001
ACAD
1000
AcadProxyRoundTripData
1071
      507
1071
   851991
1070
     0
  0
ACAD_PROXY_OBJECT
  5
839
102
{ACAD_REACTORS
330
835
102
}
330
835
100
AcDbProxyObject
 90
      499
 91
      512
 93
      113
310
904313A3500400000000000014406B
 94
        0
1001
ACAD
1000
AcadProxyRoundTripData
1071
      507
1071
   851991
1070
     0
  0
ACAD_PROXY_OBJECT
  5
83A
102
{ACAD_REACTORS
330
835
102
}
330
835
100
AcDbProxyObject
 90
      499
 91
      512
 93
      113
310
904313A3800400000000000020406B
 94
        0
1001
ACAD
1000
AcadProxyRoundTripData
1071
      507
1071
   851991
1070
     0
  0
ACAD_PROXY_OBJECT
  5
83B
102
{ACAD_REACTORS
330
835
102
}
330
835
100
AcDbProxyObject
 90
      499
 91
      512
 93
      121
310
905313A3130004000000000000244051
 94
        0
1001
ACAD
1000
AcadProxyRoundTripData
1071
      507
1071
   851991
1070
     0
  0
ACAD_PROXY_OBJECT
  5
83C
102
{ACAD_REACTORS
330
835
102
}
330
835
100
AcDbProxyObject
 90
      499
 91
      512
 93
      121
310
905313A3136004000000000000304051
 94
        0
1001
ACAD
1000
AcadProxyRoundTripData
1071
      507
1071
   851991
1070
     0
  0
ACAD_PROXY_OBJECT
  5
83D
102
{ACAD_REACTORS
330
835
102
}
330
835
100
AcDbProxyObject
 90
      499
 91
      512
 93
      121
310
905313A3230004000000000000344051
 94
        0
1001
ACAD
1000
AcadProxyRoundTripData
1071
      507
1071
   851991
1070
     0
  0
ACAD_PROXY_OBJECT
  5
83E
102
{ACAD_REACTORS
330
835
102
}
330
835
100
AcDbProxyObject
 90
      499
 91
      512
 93
      121
310
905313A33300040000000000003E4051
 94
        0
1001
ACAD
1000
AcadProxyRoundTripData
1071
      507
1071
   851991
1070
     0
  0
ACAD_PROXY_OBJECT
  5
83F
102
{ACAD_REACTORS
330
835
102
}
330
835
100
AcDbProxyObject
 90
      499
 91
      512
 93
      121
310
905313A3430004000000000000444051
 94
        0
1001
ACAD
1000
AcadProxyRoundTripData
1071
      507
1071
   851991
1070
     0
  0
ACAD_PROXY_OBJECT
  5
840
102
{ACAD_REACTORS
330
835
102
}
330
835
100
AcDbProxyObject
 90
      499
 91
      512
 93
      121
310
905313A3530004000000000000494051
 94
        0
1001
ACAD
1000
AcadProxyRoundTripData
1071
      507
1071
   851991
1070
     0
  0
ACAD_PROXY_OBJECT
  5
841
102
{ACAD_REACTORS
330
835
102
}
330
835
100
AcDbProxyObject
 90
      499
 91
      512
 93
      129
310
906313A313030004000000000000594038
 94
        0
1001
ACAD
1000
AcadProxyRoundTripData
1071
      507
1071
   851991
1070
     0
  0
ACAD_PROXY_OBJECT
  5
842
102
{ACAD_REACTORS
330
835
102
}
330
835
100
AcDbProxyObject
 90
      499
 91
      512
 93
      113
310
904323A31000000000000000010159
 94
        0
1001
ACAD
1000
AcadProxyRoundTripData
1071
      507
1071
   851991
1070
     0
  0
ACAD_PROXY_OBJECT
  5
843
102
{ACAD_REACTORS
330
835
102
}
330
835
100
AcDbProxyObject
 90
      499
 91
      512
 93
      113
310
904343A31000000000000000410159
 94
        0
1001
ACAD
1000
AcadProxyRoundTripData
1071
      507
1071
   851991
1070
     0
  0
ACAD_PROXY_OBJECT
  5
844
102
{ACAD_REACTORS
330
835
102
}
330
835
100
AcDbProxyObject
 90
      499
 91
      512
 93
      113
310
904383A31000000000000000810159
 94
        0
1001
ACAD
1000
AcadProxyRoundTripData
1071
      507
1071
   851991
1070
     0
  0
ACAD_PROXY_OBJECT
  5
845
102
{ACAD_REACTORS
330
835
102
}
330
835
100
AcDbProxyObject
 90
      499
 91
      512
 93
      121
310
90531303A31000000000000000910140
 94
        0
1001
ACAD
1000
AcadProxyRoundTripData
1071
      507
1071
   851991
1070
     0
  0
ACAD_PROXY_OBJECT
  5
846
102
{ACAD_REACTORS
330
835
102
}
330
835
100
AcDbProxyObject
 90
      499
 91
      512
 93
      129
310
9063130303A31000000000000001650138
 94
        0
1001
ACAD
1000
AcadProxyRoundTripData
1071
      507
1071
   851991
1070
     0
  0
ACAD_PROXY_OBJECT
  5
847
102
{ACAD_REACTORS
330
835
102
}
330
835
100
AcDbProxyObject
 90
      499
 91
      512
 93
      265
310
90F312F31323822203D2031272D302200000000000000200FC00000000000028402B
 94
        0
1001
ACAD
1000
AcadProxyRoundTripData
1071
      507
1071
   851991
1070
     0
  0
ACAD_PROXY_OBJECT
  5
848
102
{ACAD_REACTORS
330
835
102
}
330
835
100
AcDbProxyObject
 90
      499
 91
      512
 93
      257
310
90E312F363422203D2031272D302200000000000000240FC000000000000284040
 94
        0
1001
ACAD
1000
AcadProxyRoundTripData
1071
      507
1071
   851991
1070
     0
  0
ACAD_PROXY_OBJECT
  5
849
102
{ACAD_REACTORS
330
835
102
}
330
835
100
AcDbProxyObject
 90
      499
 91
      512
 93
      257
310
90E312F333222203D2031272D302200000000000000280FC000000000000284040
 94
        0
1001
ACAD
1000
AcadProxyRoundTripData
1071
      507
1071
   851991
1070
     0
  0
ACAD_PROXY_OBJECT
  5
84A
102
{ACAD_REACTORS
330
835
102
}
330
835
100
AcDbProxyObject
 90
      499
 91
      512
 93
      257
310
90E312F313622203D2031272D3022000000000000002C0FC000000000000284040
 94
        0
1001
ACAD
1000
AcadProxyRoundTripData
1071
      507
1071
   851991
1070
     0
  0
ACAD_PROXY_OBJECT
  5
84B
102
{ACAD_REACTORS
330
835
102
}
330
835
100
AcDbProxyObject
 90
      499
 91
      512
 93
      257
310
90E332F333222203D2031272D3022000000000000002E0FC000000000000284040
 94
        0
1001
ACAD
1000
AcadProxyRoundTripData
1071
      507
1071
   851991
1070
     0
  0
ACAD_PROXY_OBJECT
  5
84C
102
{ACAD_REACTORS
330
835
102
}
330
835
100
AcDbProxyObject
 90
      499
 91
      512
 93
      249
310
90D312F3822203D2031272D302200000000000000300FC000000000000284040
 94
        0
1001
ACAD
1000
AcadProxyRoundTripData
1071
      507
1071
   851991
1070
     0
  0
ACAD_PROXY_OBJECT
  5
84D
102
{ACAD_REACTORS
330
835
102
}
330
835
100
AcDbProxyObject
 90
      499
 91
      512
 93
      257
310
90E332F313622203D2031272D302200000000000000320FC000000000000284040
 94
        0
1001
ACAD
1000
AcadProxyRoundTripData
1071
      507
1071
   851991
1070
     0
  0
ACAD_PROXY_OBJECT
  5
84E
102
{ACAD_REACTORS
330
835
102
}
330
835
100
AcDbProxyObject
 90
      499
 91
      512
 93
      249
310
90D312F3422203D2031272D302200000000000000340FC000000000000284040
 94
        0
1001
ACAD
1000
AcadProxyRoundTripData
1071
      507
1071
   851991
1070
     0
  0
ACAD_PROXY_OBJECT
  5
84F
102
{ACAD_REACTORS
330
835
102
}
330
835
100
AcDbProxyObject
 90
      499
 91
      512
 93
      249
310
90D332F3822203D2031272D302200000000000000360FC000000000000284040
 94
        0
1001
ACAD
1000
AcadProxyRoundTripData
1071
      507
1071
   851991
1070
     0
  0
ACAD_PROXY_OBJECT
  5
850
102
{ACAD_REACTORS
330
835
102
}
330
835
100
AcDbProxyObject
 90
      499
 91
      512
 93
      249
310
90D312F3222203D2031272D302200000000000000380FC000000000000284040
 94
        0
1001
ACAD
1000
AcadProxyRoundTripData
1071
      507
1071
   851991
1070
     0
  0
ACAD_PROXY_OBJECT
  5
851
102
{ACAD_REACTORS
330
835
102
}
330
835
100
AcDbProxyObject
 90
      499
 91
      512
 93
      249
310
90D332F3422203D2031272D3022000000000000003A0FC000000000000284040
 94
        0
1001
ACAD
1000
AcadProxyRoundTripData
1071
      507
1071
   851991
1070
     0
  0
ACAD_PROXY_OBJECT
  5
852
102
{ACAD_REACTORS
330
835
102
}
330
835
100
AcDbProxyObject
 90
      499
 91
      512
 93
      169
310
90B3122203D2031272D3022004000000000000284020
 94
        0
1001
ACAD
1000
AcadProxyRoundTripData
1071
      507
1071
   851991
1070
     0
  0
ACAD_PROXY_OBJECT
  5
853
102
{ACAD_REACTORS
330
835
102
}
330
835
100
AcDbProxyObject
 90
      499
 91
      512
 93
      265
310
90F312D312F3222203D2031272D3022000000000000003E0FC00000000000028402B
 94
        0
1001
ACAD
1000
AcadProxyRoundTripData
1071
      507
1071
   851991
1070
     0
  0
ACAD_PROXY_OBJECT
  5
854
102
{ACAD_REACTORS
330
835
102
}
330
835
100
AcDbProxyObject
 90
      499
 91
      512
 93
      233
310
90B3322203D2031272D30220000000000000002100000000000000284000
 94
        0
1001
ACAD
1000
AcadProxyRoundTripData
1071
      507
1071
   851991
1070
     0
  0
ACAD_PROXY_OBJECT
  5
855
102
{ACAD_REACTORS
330
835
102
}
330
835
100
AcDbProxyObject
 90
      499
 91
      512
 93
      233
310
90B3622203D2031272D30220000000000000006100000000000000284000
 94
        0
1001
ACAD
1000
AcadProxyRoundTripData
1071
      507
1071
   851991
1070
     0
  0
ACAD_PROXY_OBJECT
  5
856
102
{ACAD_REACTORS
330
835
102
}
330
835
100
AcDbProxyObject
 90
      499
 91
      512
 93
      257
310
90E31272D3022203D2031272D3022000000000000000A100000000000000284040
 94
        0
1001
ACAD
1000
AcadProxyRoundTripData
1071
      507
1071
   851991
1070
     0
  0
ACAD_PROXY_OBJECT
  5
834
102
{ACAD_XDICTIONARY
360
88C
102
}
102
{ACAD_REACTORS
330
833
102
}
330
833
100
AcDbProxyObject
 90
      499
 91
      512
 93
     1849
310
4254DD185B99185C990028B81E85EB51B8AE3F2E07A17AD46E2B8FC02B5E8DC0F42B1CFD028000000C1008070000C3001FDFF8000000C1003FBFF000000182007F7FE00000030400FEFFC00000060801FDFF8000000C1003FBFF00000018200000000000000681FA0B0000001820100E000186003FBFF000000182007F7FE0
310
0000030400FEFFC00000060801FDFF8000000C1003FBFF000000182007F7FE000000304000AD7A3703D0AC73F4160000003040201C00030C007F7FE00000030400FEFFC00000060801FDFF8000000C1003FBFF000000182007F7FE00000030400FEFFC000000608075
340
16
340
16
340
16
 94
        0
1001
ACAD
1000
AcadProxyRoundTripData
1071
      506
1071
   851991
1070
     0
  0
ACAD_PROXY_OBJECT
  5
827
102
{ACAD_REACTORS
330
821
102
}
330
821
100
AcDbProxyObject
 90
      499
 91
      512
 93
      444
310
430C9915DA5C99599C985B59401049028333333333333E3BF0000000000000FB0107901411070040501600405405064090741402480A0340
 94
        0
1001
ACAD
1000
AcDbSavedByObjectVersion
1070
     0
1000
AcadProxyRoundTripData
1071
      505
1071
   851991
1070
     0
  0
ACAD_PROXY_OBJECT
  5
829
102
{ACAD_REACTORS
330
821
102
}
330
821
100
AcDbProxyObject
 90
      499
 91
      512
 93
      508
310
428CD108121A5919195B8010640502408333333333333E3BF0000000000000FB01079024090700405020000000000001110200405405064090740C02480A0340
 94
        0
1001
ACAD
1000
AcDbSavedByObjectVersion
1070
     0
1000
AcadProxyRoundTripData
1071
      505
1071
   851991
1070
     0
  0
ACAD_PROXY_OBJECT
  5
828
102
{ACAD_REACTORS
330
821
102
}
330
821
100
AcDbProxyObject
 90
      499
 91
      512
 93
      444
310
430CD915DA5C99599C985B59401059028333333333333E3BF0000000000000FB0107901411070040501600405405064090741402480A0340
 94
        0
1001
ACAD
1000
AcDbSavedByObjectVersion
1070
     0
1000
AcadProxyRoundTripData
1071
      505
1071
   851991
1070
     0
  0
ACAD_PROXY_OBJECT
  5
826
102
{ACAD_REACTORS
330
821
102
}
330
821
100
AcDbProxyObject
 90
      499
 91
      512
 93
      396
310
4190985CDA58C0107406404333333333333E3BF0000000000000FB0107A41107004050150841D405064090741402480A0356
 94
        0
1001
ACAD
1000
AcDbSavedByObjectVersion
1070
     0
1000
AcadProxyRoundTripData
1071
      505
1071
   851991
1070
     0
  0
ACAD_PROXY_OBJECT
  5
82D
102
{ACAD_REACTORS
330
821
102
}
330
821
100
AcDbProxyObject
 90
      499
 91
      512
 93
      436
310
42509C9A59DA1D195B8010C409028333333333333E3BF0000000000000FB010790141107004050150841D405064090741402480A029956
 94
        0
1001
ACAD
1000
AcDbSavedByObjectVersion
1070
     0
1000
AcadProxyRoundTripData
1071
      505
1071
   851991
1070
     0
  0
ACAD_PROXY_OBJECT
  5
831
102
{ACAD_REACTORS
330
821
102
}
330
821
100
AcDbProxyObject
 90
      499
 91
      512
 93
      460
310
4310DBDB1BDC90DA185B99D9401104090240C333333333333E3BF0000000000000FB0108901411070040501508421405064090741402480A0354
 94
        0
1001
ACAD
1000
AcDbSavedByObjectVersion
1070
     0
1000
AcadProxyRoundTripData
1071
      505
1071
   851991
1070
     0
  0
ACAD_PROXY_OBJECT
  5
82A
102
{ACAD_REACTORS
330
821
102
}
330
821
100
AcDbProxyObject
 90
      499
 91
      512
 93
      508
310
42D0DBDB98D95C1D1D585B0010940D028333333333333E3BF0000000000000FB0107902409070040501000000000000111010841D405064090740C02480A0340
 94
        0
1001
ACAD
1000
AcDbSavedByObjectVersion
1070
     0
1000
AcadProxyRoundTripData
1071
      505
1071
   851991
1070
     0
  0
ACAD_PROXY_OBJECT
  5
82C
102
{ACAD_REACTORS
330
821
102
}
330
821
100
AcDbProxyObject
 90
      499
 91
      512
 93
      420
310
41111A5B4010B409028333333333333E3BF0000000000000FB010790141107004050150841D405064090741402480A02677FFFFFDB
 94
        0
1001
ACAD
1000
AcDbSavedByObjectVersion
1070
     0
1000
AcadProxyRoundTripData
1071
      505
1071
   851991
1070
     0
  0
ACAD_PROXY_OBJECT
  5
830
102
{ACAD_REACTORS
330
821
102
}
330
821
100
AcDbProxyObject
 90
      499
 91
      512
 93
      452
310
43119858D95C185D1D195C9B8010F409028333333333333E3BF0000000000000FB010790141107004050150841D405064090741402480A0350
 94
        0
1001
ACAD
1000
AcDbSavedByObjectVersion
1070
     0
1000
AcadProxyRoundTripData
1071
      505
1071
   851991
1070
     0
  0
ACAD_PROXY_OBJECT
  5
822
102
{ACAD_REACTORS
330
821
102
}
330
821
100
AcDbProxyObject
 90
      499
 91
      512
 93
      396
310
41519B185D00240901404333333333333E3BF0000000000000F9010740A41107004050150841D405064090741402480A1B55
 94
        0
1001
ACAD
1000
AcDbSavedByObjectVersion
1070
     0
1000
AcadProxyRoundTripData
1071
      505
1071
   851991
1070
     0
  0
ACAD_PROXY_OBJECT
  5
823
102
{ACAD_REACTORS
330
821
102
}
330
821
100
AcDbProxyObject
 90
      499
 91
      512
 93
      484
310
43919B185D15DA5D1A115919D95CC010140901404333333333333E3BF0000000000000F9010740901411070040501600405405064090741402480A1B50
 94
        0
1001
ACAD
1000
AcDbSavedByObjectVersion
1070
     0
1000
AcadProxyRoundTripData
1071
      505
1071
   851991
1070
     0
  0
ACAD_PROXY_OBJECT
  5
824
102
{ACAD_REACTORS
330
821
102
}
330
821
100
AcDbProxyObject
 90
      499
 91
      512
 93
      420
310
4211DBDD5C985D590010240902404333333333333E3BF0000000000000F9010740A411070040501641D405064090741402480A1B50
 94
        0
1001
ACAD
1000
AcDbSavedByObjectVersion
1070
     0
1000
AcadProxyRoundTripData
1071
      505
1071
   851991
1070
     0
  0
ACAD_PROXY_OBJECT
  5
825
102
{ACAD_REACTORS
330
821
102
}
330
821
100
AcDbProxyObject
 90
      499
 91
      512
 93
      508
310
4451DBDD5C985D5915DA5D1A115919D95CC010340902404333333333333E3BF0000000000000F9010740901411070040501600405405064090741402480A1B50
 94
        0
1001
ACAD
1000
AcDbSavedByObjectVersion
1070
     0
1000
AcadProxyRoundTripData
1071
      505
1071
   851991
1070
     0
  0
ACAD_PROXY_OBJECT
  5
82F
102
{ACAD_REACTORS
330
821
102
}
330
821
100
AcDbProxyObject
 90
      499
 91
      512
 93
      452
310
43131A5B995C185D1D195C9B8010E409028333333333333E3BF0000000000000FB010790141107004050750841D405064090741402483A0350
 94
        0
1001
ACAD
1000
AcDbSavedByObjectVersion
1070
     0
1000
AcadProxyRoundTripData
1071
      505
1071
   851991
1070
     0
  0
ACAD_PROXY_OBJECT
  5
82B
102
{ACAD_REACTORS
330
821
102
}
330
821
100
AcDbProxyObject
 90
      499
 91
      512
 93
      428
310
429499585B1A5CDD1A58C0108409028333333333333E3BF0000000000000FB01079019070040501508421405064090741402480A1B45
 94
        0
1001
ACAD
1000
AcDbSavedByObjectVersion
1070
     0
1000
AcadProxyRoundTripData
1071
      505
1071
   851991
1070
     0
  0
ACAD_PROXY_OBJECT
  5
82E
102
{ACAD_REACTORS
330
821
102
}
330
821
100
AcDbProxyObject
 90
      499
 91
      512
 93
      420
310
42151A1A58DAD95B8010D409028333333333333E3BF0000000000000FB010790141107004050150C41D405064090741402480A0352
 94
        0
1001
ACAD
1000
AcDbSavedByObjectVersion
1070
     0
1000
AcadProxyRoundTripData
1071
      505
1071
   851991
1070
     0
  0
XRECORD
  5
3FDA
102
{ACAD_REACTORS
330
3FD0
102
}
330
3FD0
100
AcDbXrecord
 90
        0
  0
XRECORD
  5
3FDE
102
{ACAD_REACTORS
330
3FD0
102
}
330
3FD0
100
AcDbXrecord
1000
DSTYLE
1002
{
1070
   179
 70
     2
1070
   277
 70
     6
1002
}
  0
XRECORD
  5
3FDB
102
{ACAD_REACTORS
330
3FD0
102
}
330
3FD0
100
AcDbXrecord
  1
{F8E7DCD7-EF2B-4E83-868E-1BB3A7734B1D}
  0
XRECORD
  5
3FD3
102
{ACAD_REACTORS
330
3FD0
102
}
330
3FD0
100
AcDbXrecord
  1

  0
XRECORD
  5
3FD9
102
{ACAD_REACTORS
330
3FD0
102
}
330
3FD0
100
AcDbXrecord
 90
        0
  0
XRECORD
  5
3FD5
102
{ACAD_REACTORS
330
3FD0
102
}
330
3FD0
100
AcDbXrecord
340
61
  0
XRECORD
  5
3FD8
102
{ACAD_REACTORS
330
3FD0
102
}
330
3FD0
100
AcDbXrecord
 90
    10781
  0
XRECORD
  5
3FD6
102
{ACAD_REACTORS
330
3FD0
102
}
330
3FD0
100
AcDbXrecord
340
77
  0
XRECORD
  5
3FD7
102
{ACAD_REACTORS
330
3FD0
102
}
330
3FD0
100
AcDbXrecord
340
6
  0
XRECORD
  5
3FDD
102
{ACAD_REACTORS
330
3FD0
102
}
330
3FD0
100
AcDbXrecord
 40
0.0
  0
XRECORD
  5
3FE1
102
{ACAD_REACTORS
330
3FD0
102
}
330
3FD0
100
AcDbXrecord
340
0
  0
XRECORD
  5
3FE7
102
{ACAD_REACTORS
330
3FD0
102
}
330
3FD0
100
AcDbXrecord
 10
0.0
 20
0.0
 30
0.0
  0
XRECORD
  5
3FE3
102
{ACAD_REACTORS
330
3FD0
102
}
330
3FD0
100
AcDbXrecord
 10
0.0
 20
0.0
 30
0.0
  0
XRECORD
  5
3FE6
102
{ACAD_REACTORS
330
3FD0
102
}
330
3FD0
100
AcDbXrecord
 10
0.0
 20
0.0
 30
0.0
  0
XRECORD
  5
3FE4
102
{ACAD_REACTORS
330
3FD0
102
}
330
3FD0
100
AcDbXrecord
 10
0.0
 20
0.0
 30
0.0
  0
XRECORD
  5
3FE5
102
{ACAD_REACTORS
330
3FD0
102
}
330
3FD0
100
AcDbXrecord
 10
0.0
 20
0.0
 30
0.0
  0
XRECORD
  5
3FE2
102
{ACAD_REACTORS
330
3FD0
102
}
330
3FD0
100
AcDbXrecord
 10
0.0
 20
0.0
 30
0.0
  0
XRECORD
  5
3FDF
102
{ACAD_REACTORS
330
3FD0
102
}
330
3FD0
100
AcDbXrecord
340
0
  0
XRECORD
  5
3FE0
102
{ACAD_REACTORS
330
3FD0
102
}
330
3FD0
100
AcDbXrecord
 70
     0
  0
XRECORD
  5
3FD4
102
{ACAD_REACTORS
330
3FD0
102
}
330
3FD0
100
AcDbXrecord
  1
Sekkei.ctb
  0
XRECORD
  5
3FD1
102
{ACAD_REACTORS
330
3FD0
102
}
330
3FD0
100
AcDbXrecord
 90
        1
  0
XRECORD
  5
3FD2
102
{ACAD_REACTORS
330
3FD0
102
}
330
3FD0
100
AcDbXrecord
 90
       70
  0
XRECORD
  5
3FEA
102
{ACAD_REACTORS
330
3FD0
102
}
330
3FD0
100
AcDbXrecord
340
0
  0
XRECORD
  5
3FF0
102
{ACAD_REACTORS
330
3FD0
102
}
330
3FD0
100
AcDbXrecord
 10
0.0
 20
0.0
 30
0.0
  0
XRECORD
  5
3FEC
102
{ACAD_REACTORS
330
3FD0
102
}
330
3FD0
100
AcDbXrecord
 10
0.0
 20
0.0
 30
0.0
  0
XRECORD
  5
3FEF
102
{ACAD_REACTORS
330
3FD0
102
}
330
3FD0
100
AcDbXrecord
 10
0.0
 20
0.0
 30
0.0
  0
XRECORD
  5
3FED
102
{ACAD_REACTORS
330
3FD0
102
}
330
3FD0
100
AcDbXrecord
 10
0.0
 20
0.0
 30
0.0
  0
XRECORD
  5
3FEE
102
{ACAD_REACTORS
330
3FD0
102
}
330
3FD0
100
AcDbXrecord
 10
0.0
 20
0.0
 30
0.0
  0
XRECORD
  5
3FEB
102
{ACAD_REACTORS
330
3FD0
102
}
330
3FD0
100
AcDbXrecord
 10
0.0
 20
0.0
 30
0.0
  0
XRECORD
  5
3FE8
102
{ACAD_REACTORS
330
3FD0
102
}
330
3FD0
100
AcDbXrecord
340
0
  0
XRECORD
  5
3FE9
102
{ACAD_REACTORS
330
3FD0
102
}
330
3FD0
100
AcDbXrecord
 70
     0
  0
XRECORD
  5
3FDC
102
{ACAD_REACTORS
330
3FD0
102
}
330
3FD0
100
AcDbXrecord
  1
{F9DA3BC5-F131-4FE6-A5BF-52F0490F9E5A}
  0
DICTIONARYVAR
  5
892
102
{ACAD_REACTORS
330
102
102
}
330
102
100
DictionaryVariables
280
     0
  1
1:1
  0
DICTIONARYVAR
  5
890
102
{ACAD_REACTORS
330
102
102
}
330
102
100
DictionaryVariables
280
     0
  1
STANDARD
  0
DICTIONARYVAR
  5
88F
102
{ACAD_REACTORS
330
102
102
}
330
102
100
DictionaryVariables
280
     0
  1
STANDARD
  0
DICTIONARYVAR
  5
103
102
{ACAD_REACTORS
330
102
102
}
330
102
100
DictionaryVariables
280
     0
  1
1
  0
DICTIONARYVAR
  5
1BBB
102
{ACAD_REACTORS
330
102
102
}
330
102
100
DictionaryVariables
280
     0
  1
0
  0
DICTIONARYVAR
  5
893
102
{ACAD_REACTORS
330
102
102
}
330
102
100
DictionaryVariables
280
     0
  1
0
  0
DICTIONARYVAR
  5
891
102
{ACAD_REACTORS
330
102
102
}
330
102
100
DictionaryVariables
280
     0
  1
0
  0
DICTIONARYVAR
  5
549
102
{ACAD_REACTORS
330
102
102
}
330
102
100
DictionaryVariables
280
     0
  1
96
  0
DICTIONARY
  5
812
330
811
100
AcDbDictionary
280
     1
  3
ACAD_XREC_ROUNDTRIP
360
3FA7
  3
BUMPTILE
360
814
  3
DIFFUSETILE
360
813
  3
OPACITYTILE
360
817
  3
REFLECTIONTILE
360
816
  3
REFRACTIONTILE
360
818
  3
SPECULARTILE
360
815
  0
DICTIONARY
  5
80A
330
809
100
AcDbDictionary
280
     1
  3
ACAD_XREC_ROUNDTRIP
360
3FA6
  3
BUMPTILE
360
80C
  3
DIFFUSETILE
360
80B
  3
OPACITYTILE
360
80F
  3
REFLECTIONTILE
360
80E
  3
REFRACTIONTILE
360
810
  3
SPECULARTILE
360
80D
  0
DICTIONARY
  5
81A
330
819
100
AcDbDictionary
280
     1
  3
ACAD_XREC_ROUNDTRIP
360
3FA8
  3
BUMPTILE
360
81C
  3
DIFFUSETILE
360
81B
  3
OPACITYTILE
360
81F
  3
REFLECTIONTILE
360
81E
  3
REFRACTIONTILE
360
820
  3
SPECULARTILE
360
81D
  0
DICTIONARY
  5
88C
330
834
100
AcDbDictionary
280
     1
  3
ACAD_ROUNDTRIP_2008_TABLES
360
3F9E
  3
ACAD_XREC_ROUNDTRIP
360
3FA9
  0
XRECORD
  5
3FA7
102
{ACAD_REACTORS
330
812
102
}
330
812
100
AcDbXrecord
102
MATERIAL
148
0.0
149
0.0
149
0.0
 93
        0
 94
      127
282
     0
 72
     0
 77
     0
171
     0
175
     0
179
     0
273
     0
  0
XRECORD
  5
814
102
{ACAD_REACTORS
330
812
102
}
330
812
100
AcDbXrecord
270
     1
271
     1
  0
XRECORD
  5
813
102
{ACAD_REACTORS
330
812
102
}
330
812
100
AcDbXrecord
270
     1
271
     1
  0
XRECORD
  5
817
102
{ACAD_REACTORS
330
812
102
}
330
812
100
AcDbXrecord
270
     1
271
     1
  0
XRECORD
  5
816
102
{ACAD_REACTORS
330
812
102
}
330
812
100
AcDbXrecord
270
     1
271
     1
  0
XRECORD
  5
818
102
{ACAD_REACTORS
330
812
102
}
330
812
100
AcDbXrecord
270
     1
271
     1
  0
XRECORD
  5
815
102
{ACAD_REACTORS
330
812
102
}
330
812
100
AcDbXrecord
270
     1
271
     1
  0
XRECORD
  5
3FA6
102
{ACAD_REACTORS
330
80A
102
}
330
80A
100
AcDbXrecord
102
MATERIAL
148
0.0
149
0.0
149
0.0
 93
        0
 94
      127
282
     0
 72
     0
 77
     0
171
     0
175
     0
179
     0
273
     0
  0
XRECORD
  5
80C
102
{ACAD_REACTORS
330
80A
102
}
330
80A
100
AcDbXrecord
270
     1
271
     1
  0
XRECORD
  5
80B
102
{ACAD_REACTORS
330
80A
102
}
330
80A
100
AcDbXrecord
270
     1
271
     1
  0
XRECORD
  5
80F
102
{ACAD_REACTORS
330
80A
102
}
330
80A
100
AcDbXrecord
270
     1
271
     1
  0
XRECORD
  5
80E
102
{ACAD_REACTORS
330
80A
102
}
330
80A
100
AcDbXrecord
270
     1
271
     1
  0
XRECORD
  5
810
102
{ACAD_REACTORS
330
80A
102
}
330
80A
100
AcDbXrecord
270
     1
271
     1
  0
XRECORD
  5
80D
102
{ACAD_REACTORS
330
80A
102
}
330
80A
100
AcDbXrecord
270
     1
271
     1
  0
XRECORD
  5
3FA8
102
{ACAD_REACTORS
330
81A
102
}
330
81A
100
AcDbXrecord
102
MATERIAL
148
0.0
149
0.0
149
0.0
 93
        0
 94
      127
282
     0
 72
     0
 77
     0
171
     0
175
     0
179
     0
273
     0
  0
XRECORD
  5
81C
102
{ACAD_REACTORS
330
81A
102
}
330
81A
100
AcDbXrecord
270
     1
271
     1
  0
XRECORD
  5
81B
102
{ACAD_REACTORS
330
81A
102
}
330
81A
100
AcDbXrecord
270
     1
271
     1
  0
XRECORD
  5
81F
102
{ACAD_REACTORS
330
81A
102
}
330
81A
100
AcDbXrecord
270
     1
271
     1
  0
XRECORD
  5
81E
102
{ACAD_REACTORS
330
81A
102
}
330
81A
100
AcDbXrecord
270
     1
271
     1
  0
XRECORD
  5
820
102
{ACAD_REACTORS
330
81A
102
}
330
81A
100
AcDbXrecord
270
     1
271
     1
  0
XRECORD
  5
81D
102
{ACAD_REACTORS
330
81A
102
}
330
81A
100
AcDbXrecord
270
     1
271
     1
  0
ACAD_PROXY_OBJECT
  5
3F9E
102
{ACAD_REACTORS
330
88C
102
}
330
88C
100
AcDbProxyObject
 90
      499
 91
      512
 93
     1044
310
40D054060020000020000003200101A000080002A5058000000C100000000000000340FE901405075F5449544C450041501A8000000C800406800020000A9416000000304000AD7A3703D0AC73FA409014217D2115051115480105406A0000003200101A000080002A5028000000C10002B5E8DC0F42B1CFE903409065F444
310
15441003
340
16
340
16
340
16
 94
        0
1001
ACAD
1000
AcadProxyRoundTripData
1071
      510
1071
   851991
1070
     0
  0
XRECORD
  5
3FA9
102
{ACAD_REACTORS
330
88C
102
}
330
88C
100
AcDbXrecord
102
ACAD_ROUNDTRIP_PRE2007_TABLESTYLE
 90
      512
 91
        0
  1

 92
      512
 93
        0
  2

 94
      512
 95
        0
  3

  0
ENDSEC
  0
EOF
