  0
SECTION
  2
HEADER
  9
$ACADVER
  1
AC1014
  9
$ACADMAINTVER
 70
     9
  9
$DWGCODEPAGE
  3
ANSI_932
  9
$INSBASE
 10
0.0
 20
0.0
 30
0.0
  9
$EXTMIN
 10
-3.885367083344817
 20
-11.54265846566641
 30
0.0
  9
$EXTMAX
 10
1353.568247578975
 20
841.9012521591454
 30
0.0
  9
$LIMMIN
 10
0.0
 20
0.0
  9
$LIMMAX
 10
297.0
 20
210.0
  9
$ORTHOMODE
 70
     0
  9
$REGENMODE
 70
     1
  9
$FILLMODE
 70
     1
  9
$QTEXTMODE
 70
     0
  9
$MIRRTEXT
 70
     0
  9
$DRAGMODE
 70
     2
  9
$LTSCALE
 40
4.0
  9
$OSMODE
 70
    37
  9
$ATTMODE
 70
     1
  9
$TEXTSIZE
 40
2.0
  9
$TRACEWID
 40
1.0
  9
$TEXTSTYLE
  7
STANDARD
  9
$CLAYER
  8
0
  9
$CELTYPE
  6
BYLAYER
  9
$CECOLOR
 62
   256
  9
$CELTSCALE
 40
1.0
  9
$DELOBJ
 70
     1
  9
$DISPSILH
 70
     0
  9
$DIMSCALE
 40
4.0
  9
$DIMASZ
 40
1.8
  9
$DIMEXO
 40
0.625
  9
$DIMDLI
 40
3.75
  9
$DIMRND
 40
0.0
  9
$DIMDLE
 40
0.0
  9
$DIMEXE
 40
0.8
  9
$DIMTP
 40
0.0
  9
$DIMTM
 40
0.0
  9
$DIMTXT
 40
1.8
  9
$DIMCEN
 40
2.5
  9
$DIMTSZ
 40
0.0
  9
$DIMTOL
 70
     0
  9
$DIMLIM
 70
     0
  9
$DIMTIH
 70
     0
  9
$DIMTOH
 70
     0
  9
$DIMSE1
 70
     0
  9
$DIMSE2
 70
     0
  9
$DIMTAD
 70
     1
  9
$DIMZIN
 70
     8
  9
$DIMBLK
  1

  9
$DIMASO
 70
     1
  9
$DIMSHO
 70
     1
  9
$DIMPOST
  1

  9
$DIMAPOST
  1

  9
$DIMALT
 70
     0
  9
$DIMALTD
 70
     4
  9
$DIMALTF
 40
0.0394
  9
$DIMLFAC
 40
1.0
  9
$DIMTOFL
 70
     1
  9
$DIMTVP
 40
0.0
  9
$DIMTIX
 70
     0
  9
$DIMSOXD
 70
     0
  9
$DIMSAH
 70
     0
  9
$DIMBLK1
  1

  9
$DIMBLK2
  1

  9
$DIMSTYLE
  2
STANDARD
  9
$DIMCLRD
 70
     0
  9
$DIMCLRE
 70
     0
  9
$DIMCLRT
 70
     0
  9
$DIMTFAC
 40
1.0
  9
$DIMGAP
 40
0.75
  9
$DIMJUST
 70
     0
  9
$DIMSD1
 70
     0
  9
$DIMSD2
 70
     0
  9
$DIMTOLJ
 70
     1
  9
$DIMTZIN
 70
     0
  9
$DIMALTZ
 70
     0
  9
$DIMALTTZ
 70
     0
  9
$DIMFIT
 70
     3
  9
$DIMUPT
 70
     0
  9
$DIMUNIT
 70
     8
  9
$DIMDEC
 70
     2
  9
$DIMTDEC
 70
     2
  9
$DIMALTU
 70
     8
  9
$DIMALTTD
 70
     4
  9
$DIMTXSTY
  7
STANDARD
  9
$DIMAUNIT
 70
     0
  9
$LUNITS
 70
     2
  9
$LUPREC
 70
     3
  9
$SKETCHINC
 40
1.0
  9
$FILLETRAD
 40
10.0
  9
$AUNITS
 70
     0
  9
$AUPREC
 70
     2
  9
$MENU
  1
.
  9
$ELEVATION
 40
0.0
  9
$PELEVATION
 40
0.0
  9
$THICKNESS
 40
0.0
  9
$LIMCHECK
 70
     0
  9
$BLIPMODE
 70
     0
  9
$CHAMFERA
 40
0.0
  9
$CHAMFERB
 40
0.0
  9
$CHAMFERC
 40
20.0
  9
$CHAMFERD
 40
0.0
  9
$SKPOLY
 70
     0
  9
$TDCREATE
 40
2454889.454828194
  9
$TDUPDATE
 40
2454909.817112118
  9
$TDINDWG
 40
0.1132255556
  9
$TDUSRTIMER
 40
0.1132253704
  9
$USRTIMER
 70
     1
  9
$ANGBASE
 50
0.0
  9
$ANGDIR
 70
     0
  9
$PDMODE
 70
     0
  9
$PDSIZE
 40
-10.0
  9
$PLINEWID
 40
0.0
  9
$COORDS
 70
     1
  9
$SPLFRAME
 70
     0
  9
$SPLINETYPE
 70
     6
  9
$SPLINESEGS
 70
     8
  9
$ATTDIA
 70
     0
  9
$ATTREQ
 70
     1
  9
$HANDLING
 70
 22529
  9
$HANDSEED
  5
24D9
  9
$SURFTAB1
 70
     6
  9
$SURFTAB2
 70
     6
  9
$SURFTYPE
 70
     6
  9
$SURFU
 70
     6
  9
$SURFV
 70
     6
  9
$UCSNAME
  2

  9
$UCSORG
 10
0.0
 20
0.0
 30
0.0
  9
$UCSXDIR
 10
1.0
 20
0.0
 30
0.0
  9
$UCSYDIR
 10
0.0
 20
1.0
 30
0.0
  9
$PUCSNAME
  2

  9
$PUCSORG
 10
0.0
 20
0.0
 30
0.0
  9
$PUCSXDIR
 10
1.0
 20
0.0
 30
0.0
  9
$PUCSYDIR
 10
0.0
 20
1.0
 30
0.0
  9
$USERI1
 70
     0
  9
$USERI2
 70
     0
  9
$USERI3
 70
     0
  9
$USERI4
 70
     0
  9
$USERI5
 70
     0
  9
$USERR1
 40
0.0
  9
$USERR2
 40
0.0
  9
$USERR3
 40
0.0
  9
$USERR4
 40
0.0
  9
$USERR5
 40
0.0
  9
$WORLDVIEW
 70
     1
  9
$SHADEDGE
 70
     3
  9
$SHADEDIF
 70
    70
  9
$TILEMODE
 70
     1
  9
$MAXACTVP
 70
    48
  9
$PINSBASE
 10
0.0
 20
0.0
 30
0.0
  9
$PLIMCHECK
 70
     0
  9
$PEXTMIN
 10
0.0
 20
0.0
 30
0.0
  9
$PEXTMAX
 10
0.0
 20
0.0
 30
0.0
  9
$PLIMMIN
 10
0.0
 20
0.0
  9
$PLIMMAX
 10
12.0
 20
9.0
  9
$UNITMODE
 70
     0
  9
$VISRETAIN
 70
     1
  9
$PLINEGEN
 70
     0
  9
$PSLTSCALE
 70
     1
  9
$TREEDEPTH
 70
  3020
  9
$PICKSTYLE
 70
     1
  9
$CMLSTYLE
  2
STANDARD
  9
$CMLJUST
 70
     0
  9
$CMLSCALE
 40
1.0
  9
$PROXYGRAPHICS
 70
     1
  9
$MEASUREMENT
 70
     0
  0
ENDSEC
  0
SECTION
  2
CLASSES
  0
CLASS
  1
DICTIONARYVAR
  2
AcDbDictionaryVar
  3
AutoCAD 2000
 90
        0
280
     0
281
     0
  0
CLASS
  1
ACDBDICTIONARYWDFLT
  2
AcDbDictionaryWithDefault
  3
AutoCAD 2000
 90
        0
280
     0
281
     0
  0
CLASS
  1
ACDBPLACEHOLDER
  2
AcDbPlaceHolder
  3
AutoCAD 2000
 90
        0
280
     0
281
     0
  0
CLASS
  1
LAYOUT
  2
AcDbLayout
  3
AutoCAD 2000
 90
        0
280
     0
281
     0
  0
CLASS
  1
MATERIAL
  2
AcDbMaterial
  3
ObjectDBX Classes
 90
     1153
280
     0
281
     0
  0
CLASS
  1
VISUALSTYLE
  2
AcDbVisualStyle
  3
ObjectDBX Classes
 90
     4095
280
     0
281
     0
  0
CLASS
  1
TABLESTYLE
  2
AcDbTableStyle
  3
ObjectDBX Classes
 90
     4095
280
     0
281
     0
  0
CLASS
  1
SCALE
  2
AcDbScale
  3
ObjectDBX Classes
 90
     1153
280
     0
281
     0
  0
CLASS
  1
MLEADERSTYLE
  2
AcDbMLeaderStyle
  3
ACDB_MLEADERSTYLE_CLASS
 90
     4095
280
     0
281
     0
  0
CLASS
  1
PLOTSETTINGS
  2
AcDbPlotSettings
  3
AutoCAD 2000
 90
        0
280
     0
281
     0
  0
CLASS
  1
CELLSTYLEMAP
  2
AcDbCellStyleMap
  3
ObjectDBX Classes
 90
     1152
280
     0
281
     0
  0
CLASS
  1
SORTENTSTABLE
  2
AcDbSortentsTable
  3
AutoCAD 2000
 90
        0
280
     0
281
     0
  0
CLASS
  1
ACAD_PROXY_OBJECT_WRAPPER
  2
AcDbProxyObjectWrapper
  3
AutoCAD 2000
 90
        0
280
     0
281
     0
  0
CLASS
  1
LONG_TRANSACTION
  2
AcDbLongTransaction
  3
AutoCAD 2000
 90
        0
280
     0
281
     0
  0
CLASS
  1
LWPOLYLINE
  2
AcDbPolyline
  3
AutoCAD 2000
 90
        0
280
     0
281
     1
  0
CLASS
  1
HATCH
  2
AcDbHatch
  3
AutoCAD 2000
 90
        0
280
     0
281
     1
  0
CLASS
  1
XRECORD
  2
AcDbXrecord
  3
AutoCAD 2000
 90
        0
280
     0
281
     0
  0
ENDSEC
  0
SECTION
  2
TABLES
  0
TABLE
  2
VPORT
  5
6E
102
{ACAD_XDICTIONARY
360
1BAE
102
}
330
0
100
AcDbSymbolTable
 70
     2
  0
VPORT
  5
24B3
330
6E
100
AcDbSymbolTableRecord
100
AcDbViewportTableRecord
  2
*ACTIVE
 70
     0
 10
0.0
 20
0.0
 11
1.0
 21
1.0
 12
734.0294981698114
 22
396.2490046571311
 13
0.0
 23
0.0
 14
10.0
 24
10.0
 15
10.0
 25
10.0
 16
0.0
 26
0.0
 36
1.0
 17
0.0
 27
0.0
 37
0.0
 40
929.825247381159
 41
1.593429158110883
 42
50.0
 43
0.0
 44
0.0
 50
0.0
 51
0.0
 71
     0
 72
   100
 73
     1
 74
     3
 75
     0
 76
     0
 77
     0
 78
     0
  0
ENDTAB
  0
TABLE
  2
LTYPE
  5
69
330
0
100
AcDbSymbolTable
 70
     7
  0
LTYPE
  5
6A
330
69
100
AcDbSymbolTableRecord
100
AcDbLinetypeTableRecord
  2
BYBLOCK
 70
     0
  3

 72
    65
 73
     0
 40
0.0
  0
LTYPE
  5
6B
330
69
100
AcDbSymbolTableRecord
100
AcDbLinetypeTableRecord
  2
BYLAYER
 70
     0
  3

 72
    65
 73
     0
 40
0.0
  0
LTYPE
  5
8
330
69
100
AcDbSymbolTableRecord
100
AcDbLinetypeTableRecord
  2
CONTINUOUS
 70
     0
  3
Solid line
 72
    65
 73
     0
 40
0.0
  0
LTYPE
  5
27C
330
69
100
AcDbSymbolTableRecord
100
AcDbLinetypeTableRecord
  2
SEKKEI_A2_
 70
     0
  3
center(A2)  ____ _ ____ _ ____ _ ____ _ ____ _ 
 72
    65
 73
     4
 40
14.28749999999999
 49
9.525
 74
     0
 49
-1.587499999999999
 74
     0
 49
1.587499999999999
 74
     0
 49
-1.587499999999999
 74
     0
  0
LTYPE
  5
2B4
330
69
100
AcDbSymbolTableRecord
100
AcDbLinetypeTableRecord
  2
HIDDEN2
 70
     0
  3
Hidden (.5x) _ _ _ _ _ _ _ _ _ _ _ _ _ _ _ _ _
 72
    65
 73
     2
 40
4.762499999999999
 49
3.174999999999999
 74
     0
 49
-1.587499999999999
 74
     0
  0
LTYPE
  5
477
330
69
100
AcDbSymbolTableRecord
100
AcDbLinetypeTableRecord
  2
SEKKEI-P_A4_
 70
     0
  3
Phantom(A4)  ____ _ _ ____ _ _ ____ _ _ _____
 72
    65
 73
     6
 40
15.0
 49
7.5
 74
     0
 49
-1.5
 74
     0
 49
1.5
 74
     0
 49
-1.5
 74
     0
 49
1.5
 74
     0
 49
-1.5
 74
     0
  0
LTYPE
  5
48F
330
69
100
AcDbSymbolTableRecord
100
AcDbLinetypeTableRecord
  2
SEKKEI_H
 70
     0
  3
Hidden-S _ _ _ _ _ _ _ _ _ _ _ _ _ _ _ _ _
 72
    65
 73
     2
 40
2.381249999999999
 49
1.587499999999999
 74
     0
 49
-0.79375
 74
     0
  0
LTYPE
  5
494
330
69
100
AcDbSymbolTableRecord
100
AcDbLinetypeTableRecord
  2
SEKKEI_P_S
 70
     0
  3
Phantom_S   __ _ _ __ _ _ __ _ _ ___
 72
    65
 73
     6
 40
7.5
 49
3.75
 74
     0
 49
-0.75
 74
     0
 49
0.75
 74
     0
 49
-0.75
 74
     0
 49
0.75
 74
     0
 49
-0.75
 74
     0
  0
LTYPE
  5
54A
330
69
100
AcDbSymbolTableRecord
100
AcDbLinetypeTableRecord
  2
CENTERX2
 70
     0
  3
Center (2x) ________  __  ________  __  _____
 72
    65
 73
     4
 40
4.0
 49
2.5
 74
     0
 49
-0.5
 74
     0
 49
0.5
 74
     0
 49
-0.5
 74
     0
  0
ENDTAB
  0
TABLE
  2
LAYER
  5
66
102
{ACAD_XDICTIONARY
360
86B
102
}
330
0
100
AcDbSymbolTable
 70
    10
  0
LAYER
  5
5E
102
{ACAD_XDICTIONARY
360
1AF7
102
}
330
66
100
AcDbSymbolTableRecord
100
AcDbLayerTableRecord
  2
0
 70
     0
 62
     7
  6
CONTINUOUS
  0
LAYER
  5
3E
102
{ACAD_XDICTIONARY
360
1AF9
102
}
330
66
100
AcDbSymbolTableRecord
100
AcDbLayerTableRecord
  2
CENTER
 70
     0
 62
     3
  6
SEKKEI_A2_
  0
LAYER
  5
2B5
102
{ACAD_XDICTIONARY
360
1AFF
102
}
330
66
100
AcDbSymbolTableRecord
100
AcDbLayerTableRecord
  2
HIDS
 70
     0
 62
     1
  6
HIDDEN2
  0
LAYER
  5
2BA
102
{ACAD_XDICTIONARY
360
1B01
102
}
330
66
100
AcDbSymbolTableRecord
100
AcDbLayerTableRecord
  2
HOJO
 70
     0
 62
     4
  6
CONTINUOUS
  0
LAYER
  5
3FA
102
{ACAD_XDICTIONARY
360
1B05
102
}
330
66
100
AcDbSymbolTableRecord
100
AcDbLayerTableRecord
  2
TITLE
 70
     0
 62
     4
  6
CONTINUOUS
  0
LAYER
  5
478
102
{ACAD_XDICTIONARY
360
1B07
102
}
330
66
100
AcDbSymbolTableRecord
100
AcDbLayerTableRecord
  2
PHAS
 70
     0
 62
     2
  6
SEKKEI-P_A4_
  0
ENDTAB
  0
TABLE
  2
STYLE
  5
67
330
0
100
AcDbSymbolTable
 70
     3
  0
STYLE
  5
16
330
67
100
AcDbSymbolTableRecord
100
AcDbTextStyleTableRecord
  2
STANDARD
 70
     0
 40
0.0
 41
1.0
 50
0.0
 71
     0
 42
2.0
  3
simplex.shx
  4
extfont.shx
  0
ENDTAB
  0
TABLE
  2
VIEW
  5
6C
330
0
100
AcDbSymbolTable
 70
     0
  0
ENDTAB
  0
TABLE
  2
UCS
  5
6D
330
0
100
AcDbSymbolTable
 70
     0
  0
ENDTAB
  0
TABLE
  2
APPID
  5
70
330
0
100
AcDbSymbolTable
 70
     7
  0
APPID
  5
71
330
70
100
AcDbSymbolTableRecord
100
AcDbRegAppTableRecord
  2
ACAD
 70
     0
  0
APPID
  5
859
330
70
100
AcDbSymbolTableRecord
100
AcDbRegAppTableRecord
  2
ACAD_MLEADERVER
 70
     0
  0
APPID
  5
866
330
70
100
AcDbSymbolTableRecord
100
AcDbRegAppTableRecord
  2
ACAD_PSEXT
 70
     0
  0
APPID
  5
12FA
330
70
100
AcDbSymbolTableRecord
100
AcDbRegAppTableRecord
  2
ACAD_EXEMPT_FROM_CAD_STANDARDS
 70
     0
  0
APPID
  5
135B
330
70
100
AcDbSymbolTableRecord
100
AcDbRegAppTableRecord
  2
ACAD_DSTYLE_DIMJAG
 70
     0
  0
APPID
  5
135C
330
70
100
AcDbSymbolTableRecord
100
AcDbRegAppTableRecord
  2
ACAD_DSTYLE_DIMTALN
 70
     0
  0
APPID
  5
150D
330
70
100
AcDbSymbolTableRecord
100
AcDbRegAppTableRecord
  2
ACAD_DSTYLE_DIMRADIAL_EXTENSION
 70
     0
  0
ENDTAB
  0
TABLE
  2
DIMSTYLE
  5
72
330
0
100
AcDbSymbolTable
 70
     1
  0
DIMSTYLE
105
73
330
72
100
AcDbSymbolTableRecord
100
AcDbDimStyleTableRecord
  2
STANDARD
 70
     0
  3

  4

  5

  6

  7

 40
4.0
 41
1.8
 42
0.625
 43
3.75
 44
0.8
 45
0.0
 46
0.0
 47
0.0
 48
0.0
140
1.8
141
2.5
142
0.0
143
0.0394
144
1.0
145
0.0
146
1.0
147
0.75
 71
     0
 72
     0
 73
     0
 74
     0
 75
     0
 76
     0
 77
     1
 78
     8
170
     0
171
     4
172
     1
173
     0
174
     0
175
     0
176
     0
177
     0
178
     0
270
     8
271
     2
272
     2
273
     8
274
     4
340
16
275
     0
280
     0
281
     0
282
     0
283
     1
284
     0
285
     0
286
     0
287
     3
288
     0
1001
ACAD_DSTYLE_DIMJAG
1070
   388
1040
1.5
1001
ACAD_DSTYLE_DIMTALN
1070
   392
1070
     0
  0
ENDTAB
  0
TABLE
  2
BLOCK_RECORD
  5
1
330
0
100
AcDbSymbolTable
 70
    57
  0
BLOCK_RECORD
  5
2
102
{ACAD_XDICTIONARY
360
24D5
102
}
330
1
100
AcDbSymbolTableRecord
100
AcDbBlockTableRecord
  2
*MODEL_SPACE
  0
BLOCK_RECORD
  5
24AE
102
{ACAD_XDICTIONARY
360
24D7
102
}
330
1
100
AcDbSymbolTableRecord
100
AcDbBlockTableRecord
  2
*PAPER_SPACE
  0
ENDTAB
  0
ENDSEC
  0
SECTION
  2
BLOCKS
  0
BLOCK
  5
5D
330
2
100
AcDbEntity
  8
0
100
AcDbBlockBegin
  2
*MODEL_SPACE
 70
     0
 10
0.0
 20
0.0
 30
0.0
  3
*MODEL_SPACE
  1

  0
ENDBLK
  5
5F
330
2
100
AcDbEntity
  8
0
100
AcDbBlockEnd
  0
BLOCK
  5
24B0
330
24AE
100
AcDbEntity
 67
     1
  8
0
100
AcDbBlockBegin
  2
*PAPER_SPACE
 70
     0
 10
0.0
 20
0.0
 30
0.0
  3
*PAPER_SPACE
  1

  0
ENDBLK
  5
24B1
330
24AE
100
AcDbEntity
 67
     1
  8
0
100
AcDbBlockEnd
  0
ENDSEC
  0
SECTION
  2
ENTITIES
  0
LINE
  5
C93
330
2
100
AcDbEntity
  8
0
 48
0.5
100
AcDbLine
 10
712.0990569942129
 20
804.9012521591425
 30
0.0
 11
712.9891975088683
 21
702.9012521591521
 31
0.0
  0
LINE
  5
C94
330
2
100
AcDbEntity
  8
CENTER
100
AcDbLine
 10
779.5946935603167
 20
841.9012521591454
 30
0.0
 11
779.5946935603167
 21
660.9012521591503
 31
0.0
  0
LINE
  5
C95
330
2
100
AcDbEntity
  8
0
100
AcDbLine
 10
827.1077865211015
 20
804.9012521591489
 30
0.0
 11
827.9987933219679
 21
770.8750752108429
 31
0.0
  0
LINE
  5
C96
330
2
100
AcDbEntity
  8
0
100
AcDbLine
 10
719.5946935603158
 20
697.9012521591489
 30
0.0
 11
839.5946935603166
 21
697.9012521591505
 31
0.0
  0
LINE
  5
C97
330
2
100
AcDbEntity
  8
CENTER
100
AcDbLine
 10
702.4041165830315
 20
769.9012521591507
 30
0.0
 11
1002.09469356032
 21
769.9012521591507
 31
0.0
  0
LINE
  5
C98
330
2
100
AcDbEntity
  8
0
100
AcDbLine
 10
846.4794493810689
 20
804.9012521591501
 30
0.0
 11
712.0946935603176
 21
804.9012521591425
 31
0.0
  0
LINE
  5
C99
330
2
100
AcDbEntity
  8
0
100
AcDbLine
 10
879.7984904426591
 20
769.9012521591507
 30
0.0
 11
881.0181921981545
 21
816.4797830040736
 31
0.0
  0
ARC
  5
C9A
330
2
100
AcDbEntity
  8
0
100
AcDbCircle
 10
876.9545775945996
 20
775.9012521591512
 30
0.0
 40
3.0
100
AcDbArc
 50
270.0
 51
358.5000000000103
  0
LINE
  5
C9B
330
2
100
AcDbEntity
  8
0
100
AcDbLine
 10
872.8955568086218
 20
803.9012521591507
 30
0.0
 11
871.0171641730809
 21
803.9012521591505
 31
0.0
  0
ARC
  5
C9C
330
2
100
AcDbEntity
  8
0
100
AcDbCircle
 10
872.8955568086218
 20
811.9012521591507
 30
0.0
 40
8.0
100
AcDbArc
 50
270.0
 51
358.5000000000103
  0
LINE
  5
C9D
330
2
100
AcDbEntity
  8
0
100
AcDbLine
 10
886.4489570292359
 20
720.4012521591504
 30
0.0
 11
884.0171421730817
 21
720.401252159151
 31
0.0
  0
ARC
  5
C9E
330
2
100
AcDbEntity
  8
0
100
AcDbCircle
 10
886.4489570292342
 20
715.4012521591504
 30
0.0
 40
5.0
100
AcDbArc
 50
1.500000000015752
 51
89.99999999994789
  0
ARC
  5
C9F
330
2
100
AcDbEntity
  8
0
100
AcDbCircle
 10
884.0171421730827
 20
723.4012521591511
 30
0.0
 40
3.0
100
AcDbArc
 50
181.5000000000418
 51
270.0
  0
LINE
  5
CA0
330
2
100
AcDbEntity
  8
0
100
AcDbLine
 10
872.895534808619
 20
735.9012521591504
 30
0.0
 11
871.0171641730809
 21
735.9012521591504
 31
0.0
  0
LINE
  5
CA1
330
2
100
AcDbEntity
  8
0
100
AcDbLine
 10
881.0181701981562
 20
723.3227213142262
 30
0.0
 11
879.798468442607
 21
769.9012521591505
 31
0.0
  0
ARC
  5
CA2
330
2
100
AcDbEntity
  8
0
100
AcDbCircle
 10
872.895534808619
 20
727.9012521591504
 30
0.0
 40
8.0
100
AcDbArc
 50
1.500000000054848
 51
90.0
  0
LINE
  5
CA3
330
2
100
AcDbEntity
  8
0
 48
0.3
100
AcDbLine
 10
893.5430073021604
 20
829.9012521591505
 30
0.0
 11
907.5946935603212
 21
829.9012521591505
 31
0.0
  0
ARC
  5
CA4
330
2
100
AcDbEntity
  8
0
 48
0.5
100
AcDbCircle
 10
893.5430073021604
 20
827.9012521591507
 30
0.0
 40
2.0
100
AcDbArc
 50
90.0
 51
178.4999999999972
  0
LINE
  5
CA5
330
2
100
AcDbEntity
  8
0
100
AcDbLine
 10
891.5436926522104
 20
827.9536060557656
 30
0.0
 11
890.0235382661611
 21
769.9012521591507
 31
0.0
  0
ARC
  5
CA6
330
2
100
AcDbEntity
  8
0
100
AcDbCircle
 10
886.4489570292333
 20
824.4012521591498
 30
0.0
 40
5.0
100
AcDbArc
 50
270.0
 51
358.5000000000103
  0
LINE
  5
CA7
330
2
100
AcDbEntity
  8
0
100
AcDbLine
 10
884.017164173081
 20
819.4012521591499
 30
0.0
 11
886.4489570292333
 21
819.4012521591499
 31
0.0
  0
ARC
  5
CA8
330
2
100
AcDbEntity
  8
0
100
AcDbCircle
 10
884.017164173081
 20
816.4012521591498
 30
0.0
 40
3.0
100
AcDbArc
 50
90.0
 51
178.4999999999972
  0
LINE
  5
CA9
330
2
100
AcDbEntity
  8
0
 48
0.5
100
AcDbLine
 10
846.505858450403
 20
737.9274317656454
 30
0.0
 11
846.4449226865124
 21
730.9448848366415
 31
0.0
  0
ARC
  5
CAA
330
2
100
AcDbEntity
  8
0
 48
0.5
100
AcDbCircle
 10
849.5057442195955
 20
737.9012521591509
 30
0.0
 40
3.0
100
AcDbArc
 50
90.0
 51
179.5000000000084
  0
ARC
  5
CAB
330
2
100
AcDbEntity
  8
0
 48
0.5
100
AcDbCircle
 10
849.7326427821496
 20
763.9012521591507
 30
0.0
 40
3.0
100
AcDbArc
 50
90.0
 51
179.5000000000084
  0
LINE
  5
CAC
330
2
100
AcDbEntity
  8
0
 48
0.5
100
AcDbLine
 10
846.7848897537376
 20
769.901252159151
 30
0.0
 11
846.2001896117651
 21
702.9012521591575
 31
0.0
  0
LINE
  5
CAD
330
2
100
AcDbEntity
  8
0
 48
0.5
100
AcDbLine
 10
846.7848897537495
 20
769.9012521591507
 30
0.0
 11
846.4794493810693
 21
804.9012521591501
 31
0.0
  0
LINE
  5
CAE
330
2
100
AcDbEntity
  8
0
 48
0.3
100
AcDbLine
 10
893.5430073021604
 20
709.9012521591508
 30
0.0
 11
907.5946935603212
 21
709.9012521591507
 31
0.0
  0
ARC
  5
CAF
330
2
100
AcDbEntity
  8
0
 48
0.5
100
AcDbCircle
 10
893.5430073021604
 20
711.9012521591506
 30
0.0
 40
2.0
100
AcDbArc
 50
181.5000000000157
 51
270.0
  0
LINE
  5
CB0
330
2
100
AcDbEntity
  8
0
100
AcDbLine
 10
891.5436926522104
 20
711.8488982625357
 30
0.0
 11
890.0235382661746
 21
769.9012521591507
 31
0.0
  0
LINE
  5
CB1
330
2
100
AcDbEntity
  8
0
100
AcDbLine
 10
907.5946935603168
 20
709.9012521591507
 30
0.0
 11
907.5946935603168
 21
829.9012521591507
 31
0.0
  0
LINE
  5
CB2
330
2
100
AcDbEntity
  8
0
100
AcDbLine
 10
712.9891975088683
 20
702.9012521591521
 30
0.0
 11
846.2001896117651
 21
702.9012521591578
 31
0.0
  0
LINE
  5
CB3
330
2
100
AcDbEntity
  8
0
100
AcDbLine
 10
849.7326427821587
 20
772.901252159151
 30
0.0
 11
876.9545775945996
 21
772.9012521591516
 31
0.0
  0
ARC
  5
CB4
330
2
100
AcDbEntity
  8
0
100
AcDbCircle
 10
864.3604593789085
 20
775.9012521591512
 30
0.0
 40
3.0
100
AcDbArc
 50
270.0
 51
358.4999999999972
  0
ARC
  5
CB5
330
2
100
AcDbEntity
  8
0
100
AcDbCircle
 10
849.7326427821587
 20
775.9012521591509
 30
0.0
 40
3.0
100
AcDbArc
 50
180.5000000000045
 51
270.0
  0
LINE
  5
CB6
330
2
100
AcDbEntity
  8
0
100
AcDbLine
 10
849.7326427821496
 20
766.9012521591508
 30
0.0
 11
876.9545555945549
 21
766.9012521591501
 31
0.0
  0
ARC
  5
CB7
330
2
100
AcDbEntity
  8
0
100
AcDbCircle
 10
876.9545555945549
 20
763.9012521591505
 30
0.0
 40
3.0
100
AcDbArc
 50
1.500000000041816
 51
90.0
  0
LINE
  5
CB8
330
2
100
AcDbEntity
  8
0
100
AcDbLine
 10
828.9984506469433
 20
769.9012521591507
 30
0.0
 11
907.5946935603168
 21
769.9012521591507
 31
0.0
  0
ARC
  5
CB9
330
2
100
AcDbEntity
  8
0
100
AcDbCircle
 10
828.9984506469433
 20
770.9012521591508
 30
0.0
 40
1.0
100
AcDbArc
 50
181.5000000000027
 51
270.0
  0
LINE
  5
CBA
330
2
100
AcDbEntity
  8
0
100
AcDbLine
 10
722.0946935603181
 20
804.9012521591459
 30
0.0
 11
722.0946935603167
 21
704.4012521591522
 31
0.0
  0
LINE
  5
CBB
330
2
100
AcDbEntity
  8
0
100
AcDbLine
 10
867.3594313538339
 20
763.979783004074
 30
0.0
 11
868.0181921981555
 21
738.8227213142272
 31
0.0
  0
ARC
  5
CBC
330
2
100
AcDbEntity
  8
0
100
AcDbCircle
 10
864.3604593789076
 20
763.9012521591505
 30
0.0
 40
3.0
100
AcDbArc
 50
1.500000000002719
 51
90.0
  0
LINE
  5
CBD
330
2
100
AcDbEntity
  8
0
100
AcDbLine
 10
865.1010843899809
 20
740.9012521591507
 30
0.0
 11
849.5057442195955
 21
740.901252159151
 31
0.0
  0
ARC
  5
CBE
330
2
100
AcDbEntity
  8
0
100
AcDbCircle
 10
871.0171641730809
 20
738.9012521591507
 30
0.0
 40
3.0
100
AcDbArc
 50
181.5000000000027
 51
270.0
  0
ARC
  5
CBF
330
2
100
AcDbEntity
  8
0
100
AcDbCircle
 10
865.1010843899809
 20
737.9012521591509
 30
0.0
 40
3.0
100
AcDbArc
 50
9.594068226868994
 51
90.0
  0
LINE
  5
CC0
330
2
100
AcDbEntity
  8
0
100
AcDbLine
 10
865.1010843899809
 20
798.9012521591512
 30
0.0
 11
849.5057442195991
 21
798.9012521591507
 31
0.0
  0
ARC
  5
CC1
330
2
100
AcDbEntity
  8
0
100
AcDbCircle
 10
849.5057442195991
 20
801.9012521591507
 30
0.0
 40
3.0
100
AcDbArc
 50
180.5000000000045
 51
270.0
  0
ARC
  5
CC2
330
2
100
AcDbEntity
  8
0
100
AcDbCircle
 10
871.0171641730809
 20
800.9012521591511
 30
0.0
 40
3.0
100
AcDbArc
 50
90.0
 51
178.4999999999972
  0
ARC
  5
CC3
330
2
100
AcDbEntity
  8
0
100
AcDbCircle
 10
865.1010843899809
 20
801.9012521591509
 30
0.0
 40
3.0
100
AcDbArc
 50
270.0
 51
350.4059317731516
  0
LINE
  5
CC4
330
2
100
AcDbEntity
  8
0
100
AcDbLine
 10
867.3594313538348
 20
775.8227213142279
 30
0.0
 11
868.0181921981555
 21
800.979783004074
 31
0.0
  0
LINE
  5
CC5
330
2
100
AcDbEntity
  8
0
100
AcDbLine
 10
732.0946935603176
 20
704.4012521591529
 30
0.0
 11
732.0946935603176
 21
804.901252159146
 31
0.0
  0
LINE
  5
CC6
330
2
100
AcDbEntity
  8
0
100
AcDbLine
 10
755.0339032696135
 20
704.4012521591538
 30
0.0
 11
755.0339032696131
 21
804.901252159146
 31
0.0
  0
LINE
  5
CC7
330
2
100
AcDbEntity
  8
0
100
AcDbLine
 10
837.0946935603154
 20
804.9012521591469
 30
0.0
 11
837.0946935603168
 21
704.4012521591522
 31
0.0
  0
LINE
  5
CC8
330
2
100
AcDbEntity
  8
0
100
AcDbLine
 10
827.0946935603157
 20
704.4012521591529
 30
0.0
 11
827.0946935603157
 21
769.901252159151
 31
0.0
  0
LINE
  5
CC9
330
2
100
AcDbEntity
  8
0
100
AcDbLine
 10
804.1554838510199
 20
704.4012521591538
 30
0.0
 11
804.1554838510212
 21
804.9012521591466
 31
0.0
  0
LINE
  5
CCA
330
2
100
AcDbEntity
  8
0
100
AcDbLine
 10
907.5946935603212
 20
709.9012521591507
 30
0.0
 11
907.5946935603212
 21
829.9012521591507
 31
0.0
  0
LINE
  5
CCB
330
2
100
AcDbEntity
  8
0
 48
0.5
100
AcDbLine
 10
719.5946935603167
 20
702.9012521591504
 30
0.0
 11
719.5946935603158
 21
697.9012521591489
 31
0.0
  0
LINE
  5
CCC
330
2
100
AcDbEntity
  8
0
 48
0.5
100
AcDbLine
 10
839.5946935603166
 20
702.9012521591504
 30
0.0
 11
839.5946935603166
 21
697.9012521591505
 31
0.0
  0
ARC
  5
CCD
330
2
100
AcDbEntity
  8
0
100
AcDbCircle
 10
879.2411037425342
 20
719.7695229690936
 30
0.0
 40
3.0
100
AcDbArc
 50
37.24958326181094
 51
114.9999999999782
  0
LINE
  5
CCE
330
2
100
AcDbEntity
  8
0
100
AcDbLine
 10
877.9732489573133
 20
722.4884463302036
 30
0.0
 11
847.9575100243453
 21
708.4918774005792
 31
0.0
  0
ARC
  5
CCF
330
2
100
AcDbEntity
  8
0
100
AcDbCircle
 10
849.2253648095672
 20
705.7729540394692
 30
0.0
 40
3.0
100
AcDbArc
 50
114.9999999999782
 51
179.5000000000084
  0
ARC
  5
CD0
330
2
100
AcDbEntity
  8
0
100
AcDbCircle
 10
878.2096439054173
 20
817.9088026029738
 30
0.0
 40
3.0
100
AcDbArc
 50
294.9999999999781
 51
345.4480092603792
  0
LINE
  5
CD1
330
2
100
AcDbEntity
  8
0
100
AcDbLine
 10
879.4774986906393
 20
815.1898792418641
 30
0.0
 11
849.3417905265904
 21
801.1373677410425
 31
0.0
  0
ARC
  5
CD2
330
2
100
AcDbEntity
  8
0
100
AcDbCircle
 10
848.4965540031087
 20
802.9499833151158
 30
0.0
 40
2.0
100
AcDbArc
 50
180.5000000024668
 51
294.9999999999781
  0
LINE
  5
CD3
330
2
100
AcDbEntity
  8
0
100
AcDbLine
 10
735.8032773166467
 20
685.5539558038165
 30
0.0
 11
734.7917808050777
 21
691.2904375804844
 31
0.0
  0
LINE
  5
CD4
330
2
100
AcDbEntity
  8
0
100
AcDbLine
 10
823.3861098039866
 20
685.5539558038165
 30
0.0
 11
824.3976063155557
 21
691.2904375804861
 31
0.0
  0
ARC
  5
CD5
330
2
100
AcDbEntity
  8
0
100
AcDbCircle
 10
821.4164942979621
 20
685.9012521591504
 30
0.0
 40
2.0
100
AcDbArc
 50
270.0
 51
350.0000000000006
  0
LINE
  5
CD6
330
2
100
AcDbEntity
  8
0
100
AcDbLine
 10
737.7728928226713
 20
683.9012521591504
 30
0.0
 11
821.4164942979621
 21
683.9012521591504
 31
0.0
  0
ARC
  5
CD7
330
2
100
AcDbEntity
  8
0
100
AcDbCircle
 10
737.7728928226713
 20
685.9012521591504
 30
0.0
 40
2.0
100
AcDbArc
 50
189.9999999999993
 51
270.0
  0
ARC
  5
CD8
330
2
100
AcDbEntity
  8
0
100
AcDbCircle
 10
726.9133187809805
 20
689.9012521591489
 30
0.0
 40
8.0
100
AcDbArc
 50
9.999999999999367
 51
90.0
  0
ARC
  5
CD9
330
2
100
AcDbEntity
  8
0
100
AcDbCircle
 10
832.2760683396534
 20
689.9012521591505
 30
0.0
 40
8.0
100
AcDbArc
 50
90.0
 51
170.0000000000006
  0
LINE
  5
CDA
330
2
100
AcDbEntity
  8
CENTER
100
AcDbLine
 10
1281.56824757898
 20
462.2584425339625
 30
0.0
 11
1281.56824757898
 21
307.877288579392
 31
0.0
  0
LINE
  5
CDB
330
2
100
AcDbEntity
  8
CENTER
100
AcDbLine
 10
1353.568247578975
 20
385.0678655566772
 30
0.0
 11
1172.56824757898
 21
385.0678655566772
 31
0.0
  0
LINE
  5
CDC
330
2
100
AcDbEntity
  8
0
100
AcDbLine
 10
1331.651578018945
 20
445.1505044696779
 30
0.0
 11
1281.56824757898
 21
445.5678655566773
 31
0.0
  0
ARC
  5
CDE
330
2
100
AcDbEntity
  8
0
100
AcDbCircle
 10
1331.568247578979
 20
435.150851673815
 30
0.0
 40
10.0
100
AcDbArc
 50
44.08702223734382
 51
89.52254622268922
  0
LINE
  5
CEA
330
2
100
AcDbEntity
  8
0
 48
0.5
100
AcDbLine
 10
1316.568247578972
 20
452.563502122781
 30
0.0
 11
1214.56824757898
 21
451.6733616081257
 31
0.0
  0
LINE
  5
CEB
330
2
100
AcDbEntity
  8
0
100
AcDbLine
 10
1209.568247578978
 20
445.0678655566782
 30
0.0
 11
1209.56824757898
 21
325.0678655566773
 31
0.0
  0
LINE
  5
CEC
330
2
100
AcDbEntity
  8
0
 48
0.5
100
AcDbLine
 10
1316.568247578972
 20
317.5722289905735
 30
0.0
 11
1214.56824757898
 21
318.4623695052289
 31
0.0
  0
LINE
  5
CED
330
2
100
AcDbEntity
  8
0
100
AcDbLine
 10
1316.568247578972
 20
452.5678655566763
 30
0.0
 11
1316.568247578972
 21
445.2720322233437
 31
0.0
  0
LINE
  5
CEE
330
2
100
AcDbEntity
  8
0
100
AcDbLine
 10
1316.568247578972
 20
324.8636988900108
 30
0.0
 11
1316.568247578972
 21
317.5678655566782
 31
0.0
  0
LINE
  5
CEF
330
2
100
AcDbEntity
  8
0
 48
0.5
100
AcDbLine
 10
1281.56824757898
 20
452.2580617501064
 30
0.0
 11
1316.568247578972
 21
451.952621377429
 31
0.0
  0
LINE
  5
CF0
330
2
100
AcDbEntity
  8
0
 48
0.5
100
AcDbLine
 10
1281.56824757898
 20
317.8776693632473
 30
0.0
 11
1316.568247578972
 21
318.1831097359248
 31
0.0
  0
LINE
  5
CF1
330
2
100
AcDbEntity
  8
0
100
AcDbLine
 10
1231.484917139014
 20
445.1505044696779
 30
0.0
 11
1281.56824757898
 21
445.5678655566773
 31
0.0
  0
ARC
  5
CF3
330
2
100
AcDbEntity
  8
0
100
AcDbCircle
 10
1231.56824757898
 20
435.1508516738169
 30
0.0
 40
10.0
100
AcDbArc
 50
90.47745377731077
 51
135.912977762332
  0
LINE
  5
CF5
330
2
100
AcDbEntity
  8
0
100
AcDbLine
 10
1331.651578018945
 20
324.9852266436784
 30
0.0
 11
1281.56824757898
 21
324.5678655566773
 31
0.0
  0
ARC
  5
CF7
330
2
100
AcDbEntity
  8
0
100
AcDbCircle
 10
1331.568247578979
 20
334.9848794395394
 30
0.0
 40
10.0
100
AcDbArc
 50
270.4774537773107
 51
315.9129777632486
  0
LINE
  5
CF9
330
2
100
AcDbEntity
  8
0
100
AcDbLine
 10
1231.484917139014
 20
324.9852266436775
 30
0.0
 11
1281.56824757898
 21
324.5678655566773
 31
0.0
  0
ARC
  5
CFB
330
2
100
AcDbEntity
  8
0
100
AcDbCircle
 10
1231.56824757898
 20
334.9848794395386
 30
0.0
 40
10.0
100
AcDbArc
 50
224.0870222372323
 51
269.5225462226892
  0
LINE
  5
CFD
330
2
100
AcDbEntity
  8
0
 48
0.5
100
AcDbLine
 10
1214.56824757898
 20
445.0678655566773
 30
0.0
 11
1209.568247578978
 21
445.0678655566782
 31
0.0
  0
LINE
  5
CFE
330
2
100
AcDbEntity
  8
0
 48
0.5
100
AcDbLine
 10
1214.56824757898
 20
325.0678655566773
 30
0.0
 11
1209.56824757898
 21
325.0678655566773
 31
0.0
  0
LINE
  5
CFF
330
2
100
AcDbEntity
  8
0
100
AcDbLine
 10
1214.56824757898
 20
318.4623695052288
 30
0.0
 11
1214.56824757898
 21
451.6733616081256
 31
0.0
  0
LINE
  5
D0A
330
2
100
AcDbEntity
  8
CENTER
100
AcDbLine
 10
-3.885367083344817
 20
385.0678655566773
 30
0.0
 11
296.1146329166588
 21
385.0678655566773
 31
0.0
  0
LINE
  5
D0B
330
2
100
AcDbEntity
  8
0
100
AcDbLine
 10
125.1146329166601
 20
419.0678655566773
 30
0.0
 11
127.1146329166565
 21
419.0678655566773
 31
0.0
  0
LINE
  5
D0C
330
2
100
AcDbEntity
  8
0
100
AcDbLine
 10
111.6146329166601
 20
335.5678655566773
 30
0.0
 11
114.1146329166601
 21
335.5678655566773
 31
0.0
  0
LINE
  5
D0D
330
2
100
AcDbEntity
  8
0
100
AcDbLine
 10
111.6146329166601
 20
434.5678655566772
 30
0.0
 11
114.1146329166601
 21
434.5678655566772
 31
0.0
  0
ARC
  5
D0E
330
2
100
AcDbEntity
  8
0
100
AcDbCircle
 10
111.6146329166601
 20
439.5678655566773
 30
0.0
 40
5.0
100
AcDbArc
 50
180.0
 51
270.0
  0
LINE
  5
D0F
330
2
100
AcDbEntity
  8
0
100
AcDbLine
 10
117.1146329166601
 20
338.5678655566773
 30
0.0
 11
117.1146329166601
 21
431.5678655566773
 31
0.0
  0
ARC
  5
D10
330
2
100
AcDbEntity
  8
0
100
AcDbCircle
 10
125.1146329166601
 20
427.0678655566773
 30
0.0
 40
8.0
100
AcDbArc
 50
180.0
 51
270.0
  0
ARC
  5
D11
330
2
100
AcDbEntity
  8
0
100
AcDbCircle
 10
114.1146329166601
 20
338.5678655566773
 30
0.0
 40
3.0
100
AcDbArc
 50
270.0
 51
0.0
  0
ARC
  5
D12
330
2
100
AcDbEntity
  8
0
100
AcDbCircle
 10
119.3451986544148
 20
335.6282767992099
 30
0.0
 40
3.0
100
AcDbArc
 50
79.99999999999484
 51
150.6639232879818
  0
ARC
  5
D13
330
2
100
AcDbEntity
  8
0
100
AcDbCircle
 10
114.1146329166601
 20
431.5678655566773
 30
0.0
 40
3.0
100
AcDbArc
 50
0.0
 51
90.0
  0
ARC
  5
D14
330
2
100
AcDbEntity
  8
0
100
AcDbCircle
 10
119.3451986544148
 20
434.5074543141446
 30
0.0
 40
3.0
100
AcDbArc
 50
209.3360767120181
 51
279.9999999999522
  0
LINE
  5
D15
330
2
100
AcDbEntity
  8
0
100
AcDbLine
 10
106.6146329166601
 20
326.5678655566773
 30
0.0
 11
106.6146329166601
 21
443.5678655566773
 31
0.0
  0
ARC
  5
D16
330
2
100
AcDbEntity
  8
0
100
AcDbCircle
 10
104.6146329166601
 20
443.5678655566773
 30
0.0
 40
2.0
100
AcDbArc
 50
0.0
 51
90.0
  0
ARC
  5
D17
330
2
100
AcDbEntity
  8
0
100
AcDbCircle
 10
104.6146329166601
 20
327.0678655566773
 30
0.0
 40
2.0
100
AcDbArc
 50
270.0
 51
0.0
  0
ARC
  5
D18
330
2
100
AcDbEntity
  8
0
100
AcDbCircle
 10
104.6146329166601
 20
443.0678655566772
 30
0.0
 40
2.0
100
AcDbArc
 50
0.0
 51
90.0
  0
LINE
  5
D19
330
2
100
AcDbEntity
  8
CENTER
100
AcDbLine
 10
218.6146329166583
 20
307.5678655566773
 30
0.0
 11
218.6146329166593
 21
462.5678655566773
 31
0.0
  0
ARC
  5
D1A
330
2
100
AcDbEntity
  8
0
100
AcDbCircle
 10
111.6146329166601
 20
330.5678655566773
 30
0.0
 40
5.0
100
AcDbArc
 50
90.0
 51
180.0
  0
LINE
  5
D1B
330
2
100
AcDbEntity
  8
0
100
AcDbLine
 10
125.1146329166601
 20
351.0678655566771
 30
0.0
 11
127.1146329166565
 21
351.0678655566771
 31
0.0
  0
ARC
  5
D1C
330
2
100
AcDbEntity
  8
0
100
AcDbCircle
 10
125.1146329166601
 20
343.0678655566771
 30
0.0
 40
8.0
100
AcDbArc
 50
90.0
 51
180.0
  0
LINE
  5
D1D
330
2
100
AcDbEntity
  8
0
100
AcDbLine
 10
104.6146329166601
 20
325.0678655566773
 30
0.0
 11
90.61463291665381
 21
325.0678655566771
 31
0.0
  0
LINE
  5
D1E
330
2
100
AcDbEntity
  8
0
100
AcDbLine
 10
104.6146329166601
 20
445.067865556677
 30
0.0
 11
90.61463291665381
 21
445.0678655566768
 31
0.0
  0
LINE
  5
D1F
330
2
100
AcDbEntity
  8
0
100
AcDbLine
 10
90.61463291665381
 20
445.5678655566773
 30
0.0
 11
90.61463291665381
 21
324.5678655566773
 31
0.0
  0
LINE
  5
D20
330
2
100
AcDbEntity
  8
0
100
AcDbLine
 10
119.866143187414
 20
431.5530310551079
 30
0.0
 11
148.9453812562412
 21
436.6804853050868
 31
0.0
  0
LINE
  5
D21
330
2
100
AcDbEntity
  8
0
100
AcDbLine
 10
119.8661431874159
 20
338.5827000582466
 30
0.0
 11
148.9453812562357
 21
333.4552458082685
 31
0.0
  0
ARC
  5
D22
330
2
100
AcDbEntity
  8
0
100
AcDbCircle
 10
148.4244367232347
 20
330.5008225492317
 30
0.0
 40
3.0
100
AcDbArc
 50
0.0
 51
79.99999999999484
  0
ARC
  5
D23
330
2
100
AcDbEntity
  8
0
100
AcDbCircle
 10
148.4244367232374
 20
417.0678655566772
 30
0.0
 40
3.0
100
AcDbArc
 50
270.0
 51
0.0
  0
ARC
  5
D24
330
2
100
AcDbEntity
  8
0
100
AcDbCircle
 10
148.4244367232402
 20
439.6349085641236
 30
0.0
 40
3.0
100
AcDbArc
 50
280.0000000000051
 51
0.0
  0
LINE
  5
D25
330
2
100
AcDbEntity
  8
0
100
AcDbLine
 10
125.1146329166601
 20
419.0678655566773
 30
0.0
 11
127.1146329166565
 21
419.0678655566773
 31
0.0
  0
ARC
  5
D26
330
2
100
AcDbEntity
  8
0
100
AcDbCircle
 10
127.1146329166565
 20
416.0678655566773
 30
0.0
 40
3.0
100
AcDbArc
 50
0.0
 51
90.0
  0
ARC
  5
D27
330
2
100
AcDbEntity
  8
0
100
AcDbCircle
 10
133.0307126997556
 20
417.0678655566775
 30
0.0
 40
3.0
100
AcDbArc
 50
189.5940682268689
 51
270.0
  0
LINE
  5
D28
330
2
100
AcDbEntity
  8
0
100
AcDbLine
 10
125.1146329166601
 20
351.0678655566771
 30
0.0
 11
127.1146329166565
 21
351.0678655566773
 31
0.0
  0
LINE
  5
D29
330
2
100
AcDbEntity
  8
0
100
AcDbLine
 10
130.1146329166565
 20
416.0678655566773
 30
0.0
 11
130.1146329166565
 21
388.0678655566752
 31
0.0
  0
LINE
  5
D2A
330
2
100
AcDbEntity
  8
0
100
AcDbLine
 10
130.1146329166565
 20
382.0678655566748
 30
0.0
 11
130.1146329166565
 21
354.0678655566773
 31
0.0
  0
ARC
  5
D2B
330
2
100
AcDbEntity
  8
0
100
AcDbCircle
 10
127.1146329166565
 20
354.0678655566773
 30
0.0
 40
3.0
100
AcDbArc
 50
270.0
 51
0.0
  0
ARC
  5
D2C
330
2
100
AcDbEntity
  8
0
100
AcDbCircle
 10
133.0307126997565
 20
353.0678655566775
 30
0.0
 40
3.0
100
AcDbArc
 50
90.0
 51
170.4059317731516
  0
LINE
  5
D2D
330
2
100
AcDbEntity
  8
0
100
AcDbLine
 10
133.0307126997556
 20
414.0678655566775
 30
0.0
 11
148.4244367232374
 21
414.0678655566772
 31
0.0
  0
LINE
  5
D2E
330
2
100
AcDbEntity
  8
0
100
AcDbLine
 10
133.0307126997565
 20
356.0678655566775
 30
0.0
 11
148.4244367232402
 21
356.0678655566775
 31
0.0
  0
ARC
  5
D2F
330
2
100
AcDbEntity
  8
0
100
AcDbCircle
 10
148.4244367232402
 20
353.0678655566775
 30
0.0
 40
3.0
100
AcDbArc
 50
0.0
 51
90.0
  0
LINE
  5
D30
330
2
100
AcDbEntity
  8
0
100
AcDbLine
 10
151.4244367232311
 20
442.5678655566775
 30
0.0
 11
151.4244367232311
 21
327.5678655566773
 31
0.0
  0
ARC
  5
D31
330
2
100
AcDbEntity
  8
0
100
AcDbCircle
 10
161.4244367232311
 20
442.5678655566775
 30
0.0
 40
10.0
100
AcDbArc
 50
90.0
 51
180.0
  0
ARC
  5
D32
330
2
100
AcDbEntity
  8
0
100
AcDbCircle
 10
161.4244367232311
 20
327.5678655566773
 30
0.0
 40
10.0
100
AcDbArc
 50
180.0
 51
270.0
  0
ARC
  5
D33
330
2
100
AcDbEntity
  8
0
100
AcDbCircle
 10
120.1146329166597
 20
391.067865556675
 30
0.0
 40
3.0
100
AcDbArc
 50
180.0
 51
270.0
  0
ARC
  5
D34
330
2
100
AcDbEntity
  8
0
100
AcDbCircle
 10
148.4244367232297
 20
391.067865556675
 30
0.0
 40
3.0
100
AcDbArc
 50
270.0
 51
0.0
  0
LINE
  5
D35
330
2
100
AcDbEntity
  8
0
100
AcDbLine
 10
148.4244367232297
 20
382.0678655566748
 30
0.0
 11
120.1146329166597
 21
382.0678655566747
 31
0.0
  0
ARC
  5
D36
330
2
100
AcDbEntity
  8
0
100
AcDbCircle
 10
120.1146329166597
 20
379.0678655566745
 30
0.0
 40
3.0
100
AcDbArc
 50
90.0
 51
180.0
  0
ARC
  5
D37
330
2
100
AcDbEntity
  8
0
100
AcDbCircle
 10
148.4244367232297
 20
379.0678655566748
 30
0.0
 40
3.0
100
AcDbArc
 50
0.0
 51
90.0
  0
LINE
  5
D38
330
2
100
AcDbEntity
  8
0
100
AcDbLine
 10
148.4244367232297
 20
388.067865556675
 30
0.0
 11
120.1146329166597
 21
388.0678655566752
 31
0.0
  0
LINE
  5
D39
330
2
100
AcDbEntity
  8
CENTER
100
AcDbLine
 10
361.5202955304159
 20
385.0678655566773
 30
0.0
 11
566.5202955304128
 21
385.0678655566773
 31
0.0
  0
LINE
  5
D3A
330
2
100
AcDbEntity
  8
0
100
AcDbLine
 10
529.5202955304136
 20
325.0678655566762
 30
0.0
 11
529.5202955304119
 21
445.0678655566773
 31
0.0
  0
LINE
  5
D3B
330
2
100
AcDbEntity
  8
CENTER
100
AcDbLine
 10
457.5202955304119
 20
307.8729251454964
 30
0.0
 11
457.5202955304119
 21
462.2628059678582
 31
0.0
  0
LINE
  5
D3C
330
2
100
AcDbEntity
  8
0
100
AcDbLine
 10
422.5202955304127
 20
452.5678655566773
 30
0.0
 11
422.52029553042
 21
317.5678655566782
 31
0.0
  0
LINE
  5
D3D
330
2
100
AcDbEntity
  8
0
100
AcDbLine
 10
524.5202955304123
 20
318.4623695052288
 30
0.0
 11
524.520295530405
 21
451.6733616081258
 31
0.0
  0
LINE
  5
D3E
330
2
100
AcDbEntity
  8
0
100
AcDbLine
 10
422.5202955304168
 20
327.5678655566782
 30
0.0
 11
523.0202955304105
 21
327.5678655566772
 31
0.0
  0
LINE
  5
D3F
330
2
100
AcDbEntity
  8
0
100
AcDbLine
 10
523.02029553041
 20
337.5678655566782
 30
0.0
 11
422.5202955304164
 21
337.5678655566782
 31
0.0
  0
LINE
  5
D40
330
2
100
AcDbEntity
  8
0
100
AcDbLine
 10
523.0202955304092
 20
360.5070752659741
 30
0.0
 11
422.5202955304164
 21
360.5070752659732
 31
0.0
  0
LINE
  5
D41
330
2
100
AcDbEntity
  8
0
100
AcDbLine
 10
422.5202955304164
 20
442.5678655566764
 30
0.0
 11
523.0202955304105
 21
442.5678655566772
 31
0.0
  0
LINE
  5
D42
330
2
100
AcDbEntity
  8
0
100
AcDbLine
 10
523.02029553041
 20
432.5678655566764
 30
0.0
 11
422.5202955304164
 21
432.5678655566764
 31
0.0
  0
LINE
  5
D43
330
2
100
AcDbEntity
  8
0
100
AcDbLine
 10
523.0202955304092
 20
409.6286558473805
 30
0.0
 11
422.5202955304164
 21
409.6286558473813
 31
0.0
  0
LINE
  5
D44
330
2
100
AcDbEntity
  8
0
 48
0.5
100
AcDbLine
 10
524.5202955304123
 20
325.0678655566773
 30
0.0
 11
529.5202955304136
 21
325.0678655566763
 31
0.0
  0
LINE
  5
D45
330
2
100
AcDbEntity
  8
0
 48
0.5
100
AcDbLine
 10
524.5202955304123
 20
445.0678655566773
 30
0.0
 11
529.5202955304119
 21
445.0678655566773
 31
0.0
  0
LINE
  5
D46
330
2
100
AcDbEntity
  8
0
100
AcDbLine
 10
541.8675918857464
 20
341.2764493130075
 30
0.0
 11
536.1311101090784
 21
340.2649528014383
 31
0.0
  0
LINE
  5
D47
330
2
100
AcDbEntity
  8
0
100
AcDbLine
 10
541.8675918857464
 20
428.8592818003472
 30
0.0
 11
536.1311101090766
 21
429.8707783119166
 31
0.0
  0
ARC
  5
D48
330
2
100
AcDbEntity
  8
0
100
AcDbCircle
 10
541.5202955304123
 20
426.8896662943228
 30
0.0
 40
2.0
100
AcDbArc
 50
0.0
 51
79.99999999999484
  0
LINE
  5
D49
330
2
100
AcDbEntity
  8
0
100
AcDbLine
 10
543.5202955304123
 20
343.2460648190319
 30
0.0
 11
543.5202955304123
 21
426.8896662943228
 31
0.0
  0
ARC
  5
D4A
330
2
100
AcDbEntity
  8
0
100
AcDbCircle
 10
541.5202955304123
 20
343.2460648190319
 30
0.0
 40
2.0
100
AcDbArc
 50
280.0000000000051
 51
0.0
  0
ARC
  5
D4B
330
2
100
AcDbEntity
  8
0
100
AcDbCircle
 10
537.5202955304136
 20
332.3864907773409
 30
0.0
 40
8.0
100
AcDbArc
 50
100.0000000000051
 51
180.0
  0
ARC
  5
D4C
330
2
100
AcDbEntity
  8
0
100
AcDbCircle
 10
537.5202955304123
 20
437.7492403360142
 30
0.0
 40
8.0
100
AcDbArc
 50
180.0
 51
259.9999999999948
  0
LINE
  5
D4D
330
2
100
AcDbEntity
  8
0
100
AcDbLine
 10
397.5202955304209
 20
385.0678655566771
 30
0.0
 11
397.5202955304209
 21
426.9905152874897
 31
0.0
  0
LINE
  5
D4E
330
2
100
AcDbEntity
  8
0
 48
0.5
100
AcDbLine
 10
414.5028424594195
 20
452.4978983037079
 30
0.0
 11
422.5202955304159
 21
452.5678655566771
 31
0.0
  0
ARC
  5
D4F
330
2
100
AcDbEntity
  8
0
100
AcDbCircle
 10
414.5202955304164
 20
450.4979744575796
 30
0.0
 40
2.0
100
AcDbArc
 50
90.49999999999155
 51
180.0
  0
ARC
  5
D50
330
2
100
AcDbEntity
  8
0
 48
0.5
100
AcDbCircle
 10
399.7202955304167
 20
427.2678655566772
 30
0.0
 40
0.3
100
AcDbArc
 50
0.0000000000065138
 51
90.0
  0
ARC
  5
D51
330
2
100
AcDbEntity
  8
0
100
AcDbCircle
 10
400.3202955304166
 20
427.1678655566772
 30
0.0
 40
0.3
100
AcDbArc
 50
180.0000000000065
 51
270.0
  0
LINE
  5
D52
330
2
100
AcDbEntity
  8
0
100
AcDbLine
 10
405.5202955304164
 20
429.5678655566776
 30
0.0
 11
405.5202955304168
 21
427.5678655566776
 31
0.0
  0
LINE
  5
D53
330
2
100
AcDbEntity
  8
0
 48
0.5
100
AcDbLine
 10
402.2202955304167
 20
427.5678655566776
 30
0.0
 11
405.5202955304168
 21
427.5678655566776
 31
0.0
  0
LINE
  5
D54
330
2
100
AcDbEntity
  8
0
 48
0.5
100
AcDbLine
 10
400.3202955304166
 20
426.8678655566773
 30
0.0
 11
401.7202955304167
 21
426.8678655566773
 31
0.0
  0
LINE
  5
D55
330
2
100
AcDbEntity
  8
0
 48
0.5
100
AcDbLine
 10
402.0202955304164
 20
427.3678655566773
 30
0.0
 11
402.2202955304167
 21
427.5678655566776
 31
0.0
  0
LINE
  5
D56
330
2
100
AcDbEntity
  8
0
100
AcDbLine
 10
402.0202955304164
 20
427.3678655566773
 30
0.0
 11
402.0202955304169
 21
342.767865556677
 31
0.0
  0
ARC
  5
D57
330
2
100
AcDbEntity
  8
0
100
AcDbCircle
 10
401.7202955304167
 20
427.1678655566775
 30
0.0
 40
0.3
100
AcDbArc
 50
270.0
 51
0.0000000000065138
  0
ARC
  5
D58
330
2
100
AcDbEntity
  8
HIDS
  6
SEKKEI_H
100
AcDbCircle
 10
408.0202955304114
 20
440.2394384319301
 30
0.0
 40
2.0
100
AcDbArc
 50
135.0000000000074
 51
180.0000000000065
  0
ARC
  5
D59
330
2
100
AcDbEntity
  8
HIDS
  6
SEKKEI_H
100
AcDbCircle
 10
410.5202955304159
 20
448.3962926814235
 30
0.0
 40
2.0
100
AcDbArc
 50
315.0000000000074
 51
0.0
  0
LINE
  5
D5A
330
2
100
AcDbEntity
  8
HIDS
  6
SEKKEI_H
100
AcDbLine
 10
411.9345090927892
 20
446.9820791190504
 30
0.0
 11
406.6060819680403
 21
441.6536519943007
 31
0.0
  0
LINE
  5
D5B
330
2
100
AcDbEntity
  8
0
 48
0.5
100
AcDbLine
 10
406.0202955304164
 20
430.0678655566776
 30
0.0
 11
405.5202955304164
 21
429.5678655566776
 31
0.0
  0
LINE
  5
D5C
330
2
100
AcDbEntity
  8
0
100
AcDbLine
 10
406.0202955304164
 20
436.0678655566773
 30
0.0
 11
406.0202955304168
 21
430.0678655566779
 31
0.0
  0
LINE
  5
D5D
330
2
100
AcDbEntity
  8
0
100
AcDbLine
 10
398.5202955304168
 20
427.5678655566771
 30
0.0
 11
397.5202955304169
 21
426.9905152874872
 31
0.0
  0
LINE
  5
D5E
330
2
100
AcDbEntity
  8
0
 48
0.5
100
AcDbLine
 10
398.5202955304164
 20
427.5678655566771
 30
0.0
 11
399.7202955304167
 21
427.5678655566771
 31
0.0
  0
LINE
  5
D5F
330
2
100
AcDbEntity
  8
0
100
AcDbLine
 10
400.0202955304168
 20
427.2678655566772
 30
0.0
 11
400.0202955304168
 21
342.8678655566772
 31
0.0
  0
LINE
  5
D60
330
2
100
AcDbEntity
  8
0
100
AcDbLine
 10
397.5202955304209
 20
385.0678655566771
 30
0.0
 11
397.5202955304214
 21
343.1452158258647
 31
0.0
  0
LINE
  5
D61
330
2
100
AcDbEntity
  8
0
 48
0.5
100
AcDbLine
 10
414.5028424594199
 20
317.6378328096466
 30
0.0
 11
422.5202955304164
 21
317.5678655566774
 31
0.0
  0
LINE
  5
D62
330
2
100
AcDbEntity
  8
0
100
AcDbLine
 10
412.5202955304168
 20
319.637756655775
 30
0.0
 11
412.5202955304164
 21
450.4979744575796
 31
0.0
  0
ARC
  5
D63
330
2
100
AcDbEntity
  8
0
100
AcDbCircle
 10
414.5202955304169
 20
319.637756655775
 30
0.0
 40
2.0
100
AcDbArc
 50
180.0
 51
269.5000000000084
  0
ARC
  5
D64
330
2
100
AcDbEntity
  8
0
 48
0.5
100
AcDbCircle
 10
399.7202955304171
 20
342.8678655566772
 30
0.0
 40
0.3
100
AcDbArc
 50
270.0
 51
359.9999999999934
  0
ARC
  5
D65
330
2
100
AcDbEntity
  8
0
100
AcDbCircle
 10
400.320295530417
 20
342.9678655566771
 30
0.0
 40
0.3
100
AcDbArc
 50
90.0
 51
179.9999999999934
  0
LINE
  5
D66
330
2
100
AcDbEntity
  8
0
100
AcDbLine
 10
405.5202955304168
 20
340.5678655566767
 30
0.0
 11
405.5202955304168
 21
342.5678655566767
 31
0.0
  0
LINE
  5
D67
330
2
100
AcDbEntity
  8
0
 48
0.5
100
AcDbLine
 10
402.2202955304171
 20
342.5678655566767
 30
0.0
 11
405.5202955304168
 21
342.5678655566767
 31
0.0
  0
LINE
  5
D68
330
2
100
AcDbEntity
  8
0
 48
0.5
100
AcDbLine
 10
400.320295530417
 20
343.267865556677
 30
0.0
 11
401.7202955304171
 21
343.267865556677
 31
0.0
  0
LINE
  5
D69
330
2
100
AcDbEntity
  8
0
 48
0.5
100
AcDbLine
 10
402.0202955304169
 20
342.767865556677
 30
0.0
 11
402.2202955304171
 21
342.5678655566767
 31
0.0
  0
ARC
  5
D6A
330
2
100
AcDbEntity
  8
0
100
AcDbCircle
 10
401.7202955304171
 20
342.9678655566768
 30
0.0
 40
0.3
100
AcDbArc
 50
359.9999999999934
 51
90.0
  0
ARC
  5
D6B
330
2
100
AcDbEntity
  8
HIDS
  6
SEKKEI_H
100
AcDbCircle
 10
408.0202955304119
 20
329.8962926814243
 30
0.0
 40
2.0
100
AcDbArc
 50
179.9999999999934
 51
224.9999999999926
  0
ARC
  5
D6C
330
2
100
AcDbEntity
  8
HIDS
  6
SEKKEI_H
100
AcDbCircle
 10
410.5202955304164
 20
321.7394384319309
 30
0.0
 40
2.0
100
AcDbArc
 50
0.0
 51
44.99999999999261
  0
LINE
  5
D6D
330
2
100
AcDbEntity
  8
HIDS
  6
SEKKEI_H
100
AcDbLine
 10
411.9345090927898
 20
323.1536519943041
 30
0.0
 11
406.6060819680408
 21
328.4820791190536
 31
0.0
  0
LINE
  5
D6E
330
2
100
AcDbEntity
  8
0
 48
0.5
100
AcDbLine
 10
406.0202955304168
 20
340.0678655566768
 30
0.0
 11
405.5202955304168
 21
340.5678655566767
 31
0.0
  0
LINE
  5
D6F
330
2
100
AcDbEntity
  8
0
100
AcDbLine
 10
406.0202955304168
 20
334.0678655566772
 30
0.0
 11
406.0202955304173
 21
340.0678655566765
 31
0.0
  0
LINE
  5
D70
330
2
100
AcDbEntity
  8
0
100
AcDbLine
 10
398.5202955304168
 20
342.5678655566772
 30
0.0
 11
397.5202955304169
 21
343.1452158258672
 31
0.0
  0
LINE
  5
D71
330
2
100
AcDbEntity
  8
0
 48
0.5
100
AcDbLine
 10
398.5202955304168
 20
342.5678655566772
 30
0.0
 11
399.7202955304171
 21
342.5678655566772
 31
0.0
  0
LINE
  5
D72
330
2
100
AcDbEntity
  8
0
100
AcDbLine
 10
398.5202955304164
 20
427.5678655566771
 30
0.0
 11
398.5202955304168
 21
342.5678655566772
 31
0.0
  0
LINE
  5
D73
330
2
100
AcDbEntity
  8
0
100
AcDbLine
 10
402.2202955304171
 20
342.5678655566767
 30
0.0
 11
402.2202955304167
 21
427.5678655566776
 31
0.0
  0
LINE
  5
D74
330
2
100
AcDbEntity
  8
0
100
AcDbLine
 10
405.5202955304168
 20
427.5678655566776
 30
0.0
 11
405.5202955304168
 21
342.5678655566767
 31
0.0
  0
LINE
  5
D75
330
2
100
AcDbEntity
  8
0
100
AcDbLine
 10
406.0202955304173
 20
340.0678655566765
 30
0.0
 11
406.0202955304168
 21
430.0678655566779
 31
0.0
  0
LINE
  5
D76
330
2
100
AcDbEntity
  8
0
100
AcDbLine
 10
422.5202955304159
 20
452.5678655566771
 30
0.0
 11
422.5202955304168
 21
317.5678655566774
 31
0.0
  0
LINE
  5
D77
330
2
100
AcDbEntity
  8
0
100
AcDbLine
 10
422.5202955304164
 20
432.5678655566767
 30
0.0
 11
414.0202955304164
 21
432.5678655566767
 31
0.0
  0
LINE
  5
D78
330
2
100
AcDbEntity
  8
0
100
AcDbLine
 10
422.5202955304164
 20
409.6286558473904
 30
0.0
 11
414.0202955304164
 21
409.6286558473904
 31
0.0
  0
LINE
  5
D79
330
2
100
AcDbEntity
  8
0
100
AcDbLine
 10
422.5202955304164
 20
442.5678655571092
 30
0.0
 11
414.0202955304164
 21
442.5678655571092
 31
0.0
  0
LINE
  5
D7A
330
2
100
AcDbEntity
  8
0
100
AcDbLine
 10
422.5202955304164
 20
337.5678655566779
 30
0.0
 11
414.0202955304164
 21
337.5678655566778
 31
0.0
  0
LINE
  5
D7B
330
2
100
AcDbEntity
  8
0
100
AcDbLine
 10
422.5202955304164
 20
360.507075265964
 30
0.0
 11
414.0202955304164
 21
360.507075265964
 31
0.0
  0
LINE
  5
D7C
330
2
100
AcDbEntity
  8
0
100
AcDbLine
 10
422.5202955304168
 20
327.5678655562452
 30
0.0
 11
414.0202955304168
 21
327.5678655562452
 31
0.0
  0
LINE
  5
D81
330
2
100
AcDbEntity
  8
HIDS
  6
SEKKEI_H
100
AcDbLine
 10
407.436965090447
 20
324.9852266436766
 30
0.0
 11
410.125337547224
 21
324.9628235398702
 31
0.0
  0
ARC
  5
D82
330
2
100
AcDbEntity
  8
0
100
AcDbCircle
 10
407.5202955304123
 20
334.9848794395394
 30
0.0
 40
10.0
100
AcDbArc
 50
180.0
 51
240.00000000003
  0
LINE
  5
D83
330
2
100
AcDbEntity
  8
0
100
AcDbLine
 10
397.5202955304128
 20
334.9848794395394
 30
0.0
 11
397.5202955304123
 21
435.150851673815
 31
0.0
  0
LINE
  5
D84
330
2
100
AcDbEntity
  8
HIDS
  6
SEKKEI_H
100
AcDbLine
 10
407.4369650904466
 20
445.1505044696761
 30
0.0
 11
410.1253375472217
 21
445.1729075734826
 31
0.0
  0
ARC
  5
D85
330
2
100
AcDbEntity
  8
0
100
AcDbCircle
 10
407.5202955304123
 20
435.150851673815
 30
0.0
 40
10.0
100
AcDbArc
 50
119.9999999999698
 51
180.0
  0
LINE
  5
D86
330
2
100
AcDbEntity
  8
0
100
AcDbLine
 10
249.1034856287976
 20
329.0678655571093
 30
0.0
 11
188.1257802053839
 21
329.0678655571093
 31
0.0
  0
ARC
  5
D87
330
2
100
AcDbEntity
  8
0
100
AcDbCircle
 10
249.1034856287976
 20
337.0678655571092
 30
0.0
 40
8.0
100
AcDbArc
 50
270.0
 51
315.0000000000074
  0
LINE
  5
D88
330
2
100
AcDbEntity
  8
0
100
AcDbLine
 10
249.1034856287976
 20
441.0678655571093
 30
0.0
 11
188.1257802053839
 21
441.0678655571093
 31
0.0
  0
ARC
  5
D89
330
2
100
AcDbEntity
  8
0
100
AcDbCircle
 10
188.1257802053839
 20
433.0678655571093
 30
0.0
 40
8.0
100
AcDbArc
 50
90.0
 51
135.0000000000074
  0
LINE
  5
D8A
330
2
100
AcDbEntity
  8
0
100
AcDbLine
 10
249.1034856287976
 20
447.5678655571093
 30
0.0
 11
188.1257802053839
 21
447.5678655571093
 31
0.0
  0
ARC
  5
D8B
330
2
100
AcDbEntity
  8
0
100
AcDbCircle
 10
188.1257802053839
 20
433.0678655571093
 30
0.0
 40
14.5
100
AcDbArc
 50
90.0
 51
135.0000000000074
  0
LINE
  5
D8C
330
2
100
AcDbEntity
  8
0
100
AcDbLine
 10
249.1034856287976
 20
322.5678655571092
 30
0.0
 11
188.1257802053839
 21
322.5678655571093
 31
0.0
  0
ARC
  5
D8D
330
2
100
AcDbEntity
  8
0
100
AcDbCircle
 10
249.1034856287976
 20
337.0678655571092
 30
0.0
 40
14.5
100
AcDbArc
 50
270.0
 51
315.0000000000074
  0
LINE
  5
D8E
330
2
100
AcDbEntity
  8
0
100
AcDbLine
 10
151.7246329170909
 20
327.5678655571335
 30
0.0
 11
151.7246329170909
 21
442.5678655566772
 31
0.0
  0
ARC
  5
D8F
330
2
100
AcDbEntity
  8
0
100
AcDbCircle
 10
161.7246329170909
 20
442.5678655566772
 30
0.0
 40
10.0
100
AcDbArc
 50
90.0
 51
180.0
  0
ARC
  5
D90
330
2
100
AcDbEntity
  8
0
100
AcDbCircle
 10
161.7246329170909
 20
327.5678655571335
 30
0.0
 40
10.0
100
AcDbArc
 50
180.0
 51
269.9999999972121
  0
CIRCLE
  5
D91
330
2
100
AcDbEntity
  8
0
100
AcDbCircle
 10
218.6146329170908
 20
385.0678655571093
 30
0.0
 40
36.00000000000003
  0
CIRCLE
  5
D92
330
2
100
AcDbEntity
  8
0
100
AcDbCircle
 10
218.6146329170908
 20
385.0678655571093
 30
0.0
 40
42.50000000000002
  0
CIRCLE
  5
D93
330
2
100
AcDbEntity
  8
0
100
AcDbCircle
 10
218.6146329170908
 20
385.0678655571093
 30
0.0
 40
44.50000000000048
  0
CIRCLE
  5
D94
330
2
100
AcDbEntity
  8
0
100
AcDbCircle
 10
218.6146329170908
 20
385.0678655571093
 30
0.0
 40
41.92264973081003
  0
LINE
  5
D95
330
2
100
AcDbEntity
  8
0
100
AcDbLine
 10
281.1146329170913
 20
415.556718268816
 30
0.0
 11
281.1146329170913
 21
354.5790128454026
 31
0.0
  0
ARC
  5
D96
330
2
100
AcDbEntity
  8
0
100
AcDbCircle
 10
266.6146329170913
 20
415.556718268816
 30
0.0
 40
14.5
100
AcDbArc
 50
0.0
 51
44.99999999999261
  0
LINE
  5
D97
330
2
100
AcDbEntity
  8
0
100
AcDbLine
 10
274.6146329170903
 20
415.5567182688169
 30
0.0
 11
274.6146329170903
 21
354.5790128454017
 31
0.0
  0
ARC
  5
D98
330
2
100
AcDbEntity
  8
0
100
AcDbCircle
 10
266.6146329170903
 20
415.5567182688169
 30
0.0
 40
8.0
100
AcDbArc
 50
0.0
 51
44.99999999999261
  0
LINE
  5
D99
330
2
100
AcDbEntity
  8
0
100
AcDbLine
 10
162.6146329170917
 20
415.5567182688168
 30
0.0
 11
162.6146329170917
 21
354.5790128454019
 31
0.0
  0
ARC
  5
D9A
330
2
100
AcDbEntity
  8
0
100
AcDbCircle
 10
170.6146329170917
 20
354.5790128454019
 30
0.0
 40
8.0
100
AcDbArc
 50
180.0
 51
224.9999999999926
  0
LINE
  5
D9B
330
2
100
AcDbEntity
  8
0
100
AcDbLine
 10
156.1146329170908
 20
415.556718268816
 30
0.0
 11
156.1146329170908
 21
354.5790128454027
 31
0.0
  0
LINE
  5
D9C
330
2
100
AcDbEntity
  8
0
100
AcDbLine
 10
160.3615845898859
 20
425.8097665960208
 30
0.0
 11
177.8727318781791
 21
443.3209138843142
 31
0.0
  0
ARC
  5
D9D
330
2
100
AcDbEntity
  8
0
100
AcDbCircle
 10
170.6146329170908
 20
415.556718268816
 30
0.0
 40
14.5
100
AcDbArc
 50
135.0000000000074
 51
180.0
  0
LINE
  5
D9E
330
2
100
AcDbEntity
  8
0
100
AcDbLine
 10
259.3565339560025
 20
326.8148172299043
 30
0.0
 11
276.8676812442961
 21
344.3259645181977
 31
0.0
  0
ARC
  5
D9F
330
2
100
AcDbEntity
  8
0
100
AcDbCircle
 10
266.6146329170913
 20
354.5790128454026
 30
0.0
 40
14.5
100
AcDbArc
 50
315.0000000000074
 51
0.0
  0
LINE
  5
DA0
330
2
100
AcDbEntity
  8
0
100
AcDbLine
 10
254.76033987829
 20
331.4110113076169
 30
0.0
 11
272.2714871665823
 21
348.9221585959094
 31
0.0
  0
ARC
  5
DA1
330
2
100
AcDbEntity
  8
0
100
AcDbCircle
 10
266.6146329170903
 20
354.5790128454017
 30
0.0
 40
8.0
100
AcDbArc
 50
315.0000000000074
 51
0.0
  0
LINE
  5
DA2
330
2
100
AcDbEntity
  8
0
100
AcDbLine
 10
164.9577786675993
 20
421.2135725183091
 30
0.0
 11
182.468925955892
 21
438.7247198066017
 31
0.0
  0
ARC
  5
DA3
330
2
100
AcDbEntity
  8
0
100
AcDbCircle
 10
170.6146329170917
 20
415.5567182688168
 30
0.0
 40
8.0
100
AcDbArc
 50
135.0000000000074
 51
180.0
  0
LINE
  5
DA4
330
2
100
AcDbEntity
  8
0
100
AcDbLine
 10
177.8727318781791
 20
326.8148172299043
 30
0.0
 11
160.3615845898859
 21
344.3259645181977
 31
0.0
  0
ARC
  5
DA5
330
2
100
AcDbEntity
  8
0
100
AcDbCircle
 10
170.6146329170908
 20
354.5790128454027
 30
0.0
 40
14.5
100
AcDbArc
 50
180.0
 51
224.9999999999926
  0
ARC
  5
DA6
330
2
100
AcDbEntity
  8
0
100
AcDbCircle
 10
188.1257802053839
 20
337.0678655571093
 30
0.0
 40
14.5
100
AcDbArc
 50
224.9999999999926
 51
270.0
  0
LINE
  5
DA7
330
2
100
AcDbEntity
  8
0
100
AcDbLine
 10
276.8676812442961
 20
425.8097665960209
 30
0.0
 11
259.3565339560025
 21
443.3209138843142
 31
0.0
  0
ARC
  5
DA8
330
2
100
AcDbEntity
  8
0
100
AcDbCircle
 10
249.1034856287976
 20
433.0678655571093
 30
0.0
 40
14.5
100
AcDbArc
 50
44.99999999999261
 51
90.0
  0
LINE
  5
DA9
330
2
100
AcDbEntity
  8
0
100
AcDbLine
 10
182.468925955892
 20
331.4110113076169
 30
0.0
 11
164.9577786675993
 21
348.9221585959096
 31
0.0
  0
ARC
  5
DAA
330
2
100
AcDbEntity
  8
0
100
AcDbCircle
 10
188.1257802053839
 20
337.0678655571093
 30
0.0
 40
8.0
100
AcDbArc
 50
224.9999999999926
 51
270.0
  0
LINE
  5
DAB
330
2
100
AcDbEntity
  8
0
100
AcDbLine
 10
272.2714871665828
 20
421.2135725183093
 30
0.0
 11
254.76033987829
 21
438.7247198066017
 31
0.0
  0
ARC
  5
DAC
330
2
100
AcDbEntity
  8
0
100
AcDbCircle
 10
249.1034856287976
 20
433.0678655571093
 30
0.0
 40
8.0
100
AcDbArc
 50
44.99999999999261
 51
90.0
  0
LINE
  5
DAD
330
2
100
AcDbEntity
  8
CENTER
100
AcDbLine
 10
286.1146329175232
 20
327.5678655571092
 30
0.0
 11
266.1146329166592
 21
327.5678655571092
 31
0.0
  0
LINE
  5
DAE
330
2
100
AcDbEntity
  8
CENTER
100
AcDbLine
 10
276.1146329170908
 20
337.5678655575412
 30
0.0
 11
276.1146329170908
 21
317.5678655566772
 31
0.0
  0
LINE
  5
DAF
330
2
100
AcDbEntity
  8
CENTER
100
AcDbLine
 10
286.1146329166588
 20
442.5678655571094
 30
0.0
 11
266.1146329175223
 21
442.5678655571094
 31
0.0
  0
LINE
  5
DB0
330
2
100
AcDbEntity
  8
CENTER
100
AcDbLine
 10
276.1146329170908
 20
432.567865557541
 30
0.0
 11
276.1146329170908
 21
452.5678655566773
 31
0.0
  0
LINE
  5
DB1
330
2
100
AcDbEntity
  8
CENTER
100
AcDbLine
 10
151.1332552566916
 20
327.5678655571092
 30
0.0
 11
171.0960105774899
 21
327.5678655571092
 31
0.0
  0
LINE
  5
DB2
330
2
100
AcDbEntity
  8
CENTER
100
AcDbLine
 10
161.1146329170912
 20
337.5492432175084
 30
0.0
 11
161.1146329170912
 21
317.5864878967102
 31
0.0
  0
LINE
  5
DB3
330
2
100
AcDbEntity
  8
CENTER
100
AcDbLine
 10
151.1098351485377
 20
442.5678655571094
 30
0.0
 11
171.1194306856448
 21
442.5678655571094
 31
0.0
  0
LINE
  5
DB4
330
2
100
AcDbEntity
  8
CENTER
100
AcDbLine
 10
161.1146329170912
 20
432.5630677885557
 30
0.0
 11
161.1146329170912
 21
452.5726633256633
 31
0.0
  0
CIRCLE
  5
DB5
330
2
100
AcDbEntity
  8
HOJO
100
AcDbCircle
 10
278.6146329170908
 20
339.0678655571092
 30
0.0
 40
2.5
  0
CIRCLE
  5
DB6
330
2
100
AcDbEntity
  8
0
100
AcDbCircle
 10
278.6146329170908
 20
339.0678655571092
 30
0.0
 40
2.0
  0
LINE
  5
DB7
330
2
100
AcDbEntity
  8
CENTER
100
AcDbLine
 10
278.6146329170908
 20
331.7018358111993
 30
0.0
 11
278.6146329170908
 21
346.4338953030189
 31
0.0
  0
LINE
  5
DB8
330
2
100
AcDbEntity
  8
CENTER
100
AcDbLine
 10
285.9806626630009
 20
339.0678655571091
 30
0.0
 11
271.2486031711812
 21
339.0678655571091
 31
0.0
  0
CIRCLE
  5
DB9
330
2
100
AcDbEntity
  8
HOJO
100
AcDbCircle
 10
158.6146329170908
 20
431.0678655571093
 30
0.0
 40
2.5
  0
CIRCLE
  5
DBA
330
2
100
AcDbEntity
  8
0
100
AcDbCircle
 10
158.6146329170908
 20
431.0678655571093
 30
0.0
 40
2.0
  0
LINE
  5
DBB
330
2
100
AcDbEntity
  8
CENTER
100
AcDbLine
 10
158.6146329170908
 20
437.9578655571093
 30
0.0
 11
158.6146329170908
 21
424.1778655571093
 31
0.0
  0
LINE
  5
DBC
330
2
100
AcDbEntity
  8
CENTER
100
AcDbLine
 10
151.7246329170909
 20
431.0678655571094
 30
0.0
 11
165.5046329170911
 21
431.0678655571094
 31
0.0
  0
LINE
  5
DBD
330
2
100
AcDbEntity
  8
CENTER
100
AcDbLine
 10
147.9744516529933
 20
314.4276842930119
 30
0.0
 11
289.2548141811882
 21
455.708046821207
 31
0.0
  0
LINE
  5
DBE
330
2
100
AcDbEntity
  8
CENTER
100
AcDbLine
 10
289.2548141816207
 20
314.4276842925796
 30
0.0
 11
147.9744516534258
 21
455.7080468207749
 31
0.0
  0
LINE
  5
DBF
330
2
100
AcDbEntity
  8
0
100
AcDbLine
 10
182.5768704360905
 20
323.6716123356957
 30
0.0
 11
185.0643127464634
 21
329.6768292970191
 31
0.0
  0
LINE
  5
DC0
330
2
100
AcDbEntity
  8
0
100
AcDbLine
 10
157.2183796956771
 20
349.0301030761089
 30
0.0
 11
163.2235966570012
 21
351.5175453864813
 31
0.0
  0
LINE
  5
DC1
330
2
100
AcDbEntity
  8
0
100
AcDbLine
 10
280.0108861376404
 20
349.0301030761089
 30
0.0
 11
274.0056691763168
 21
351.5175453864819
 31
0.0
  0
LINE
  5
DC2
330
2
100
AcDbEntity
  8
0
100
AcDbLine
 10
254.6523953972271
 20
323.6716123356957
 30
0.0
 11
252.1649530868546
 21
329.6768292970198
 31
0.0
  0
LINE
  5
DC3
330
2
100
AcDbEntity
  8
0
100
AcDbLine
 10
254.6523953972271
 20
446.4641187776589
 30
0.0
 11
252.1649530868542
 21
440.4589018163355
 31
0.0
  0
LINE
  5
DC4
330
2
100
AcDbEntity
  8
0
100
AcDbLine
 10
280.0108861376404
 20
421.1056280372456
 30
0.0
 11
274.0056691763163
 21
418.6181857268733
 31
0.0
  0
LINE
  5
DC5
330
2
100
AcDbEntity
  8
0
100
AcDbLine
 10
157.2183796956771
 20
421.1056280372457
 30
0.0
 11
163.2235966570003
 21
418.6181857268726
 31
0.0
  0
LINE
  5
DC6
330
2
100
AcDbEntity
  8
0
100
AcDbLine
 10
182.5768704360905
 20
446.464118777659
 30
0.0
 11
185.0643127464629
 21
440.4589018163348
 31
0.0
  0
LINE
  5
DC7
330
2
100
AcDbEntity
  8
CENTER
 48
0.2
100
AcDbLine
 10
218.6146329170908
 20
332.099457612758
 30
0.0
 11
218.6146329170908
 21
338.0362735005963
 31
0.0
  0
CIRCLE
  5
DC8
330
2
100
AcDbEntity
  8
0
100
AcDbCircle
 10
218.6146329170908
 20
385.0678655571095
 30
0.0
 40
36.57735026918982
  0
CIRCLE
  5
DC9
330
2
100
AcDbEntity
  8
0
100
AcDbCircle
 10
218.6146329166588
 20
385.0678655566773
 30
0.0
 40
44.99999999956847
  0
ARC
  5
DCA
330
2
100
AcDbEntity
  8
0
100
AcDbCircle
 10
218.6146329166588
 20
657.5678655566774
 30
0.0
 40
340.0
100
AcDbArc
 50
265.8574811972686
 51
274.1425188027313
  0
ARC
  5
DCB
330
2
100
AcDbEntity
  8
0
100
AcDbCircle
 10
276.1146329166578
 20
327.5678655566772
 30
0.0
 40
10.0
100
AcDbArc
 50
270.0
 51
0.0
  0
LINE
  5
DCC
330
2
100
AcDbEntity
  8
0
100
AcDbLine
 10
276.1146329166578
 20
317.5678655566772
 30
0.0
 11
266.1146329166579
 21
317.5678655566772
 31
0.0
  0
ARC
  5
DCD
330
2
100
AcDbEntity
  8
0
100
AcDbCircle
 10
250.3991850575814
 20
218.7173873238274
 30
0.0
 40
100.0
100
AcDbArc
 50
81.63298947741269
 51
94.14251880273134
  0
LINE
  5
DCE
330
2
100
AcDbEntity
  8
0
100
AcDbLine
 10
286.1146329166588
 20
327.5678655566774
 30
0.0
 11
286.1146329166588
 21
337.5678655566774
 31
0.0
  0
ARC
  5
DCF
330
2
100
AcDbEntity
  8
0
100
AcDbCircle
 10
278.1146329166588
 20
337.5678655566774
 30
0.0
 40
8.0
100
AcDbArc
 50
0.0
 51
8.367010522602193
  0
ARC
  5
DD0
330
2
100
AcDbEntity
  8
0
100
AcDbCircle
 10
384.9651111495088
 20
353.2833134157539
 30
0.0
 40
100.0
100
AcDbArc
 50
175.8574811972767
 51
188.3670105226022
  0
ARC
  5
DD1
330
2
100
AcDbEntity
  8
0
100
AcDbCircle
 10
171.1146329166588
 20
325.5678655566772
 30
0.0
 40
8.0
100
AcDbArc
 50
270.0
 51
278.3670105225872
  0
ARC
  5
DD2
330
2
100
AcDbEntity
  8
0
100
AcDbCircle
 10
186.8300807757352
 20
218.7173873238274
 30
0.0
 40
100.0
100
AcDbArc
 50
85.85748119726863
 51
98.3670105225873
  0
LINE
  5
DD3
330
2
100
AcDbEntity
  8
0
100
AcDbLine
 10
161.7246329166048
 20
317.5678655571335
 30
0.0
 11
171.1146329166588
 21
317.5678655566772
 31
0.0
  0
ARC
  5
DD4
330
2
100
AcDbEntity
  8
0
100
AcDbCircle
 10
276.1146329166578
 20
442.5678655566772
 30
0.0
 40
10.0
100
AcDbArc
 50
0.0
 51
90.0
  0
LINE
  5
DD5
330
2
100
AcDbEntity
  8
0
100
AcDbLine
 10
276.1146329166578
 20
452.5678655566773
 30
0.0
 11
266.1146329166579
 21
452.5678655566773
 31
0.0
  0
ARC
  5
DD6
330
2
100
AcDbEntity
  8
0
100
AcDbCircle
 10
266.1146329166579
 20
444.5678655566773
 30
0.0
 40
8.0
100
AcDbArc
 50
90.0
 51
98.3670105225873
  0
ARC
  5
DD7
330
2
100
AcDbEntity
  8
0
100
AcDbCircle
 10
250.3991850575814
 20
551.4183437895269
 30
0.0
 40
100.0
100
AcDbArc
 50
265.8574811972686
 51
278.3670105225872
  0
LINE
  5
DD8
330
2
100
AcDbEntity
  8
0
100
AcDbLine
 10
286.1146329166588
 20
442.5678655566768
 30
0.0
 11
286.1146329166588
 21
432.5678655566768
 31
0.0
  0
ARC
  5
DD9
330
2
100
AcDbEntity
  8
0
100
AcDbCircle
 10
278.1146329166588
 20
432.5678655566768
 30
0.0
 40
8.0
100
AcDbArc
 50
351.6329894774043
 51
0.0
  0
ARC
  5
DDA
330
2
100
AcDbEntity
  8
0
100
AcDbCircle
 10
384.9651111495088
 20
416.8524176976004
 30
0.0
 40
100.0
100
AcDbArc
 50
171.6329894773977
 51
184.1425188027296
  0
ARC
  5
DDB
330
2
100
AcDbEntity
  8
0
100
AcDbCircle
 10
171.1146329166588
 20
444.5678655566773
 30
0.0
 40
8.0
100
AcDbArc
 50
81.63298947741269
 51
90.0
  0
ARC
  5
DDC
330
2
100
AcDbEntity
  8
0
100
AcDbCircle
 10
186.8300807757352
 20
551.4183437895269
 30
0.0
 40
100.0
100
AcDbArc
 50
261.6329894774127
 51
274.1425188027313
  0
LINE
  5
DDD
330
2
100
AcDbEntity
  8
0
100
AcDbLine
 10
161.7246329170909
 20
452.5678655566773
 30
0.0
 11
171.1146329166588
 21
452.5678655566773
 31
0.0
  0
ARC
  5
DDE
330
2
100
AcDbEntity
  8
0
100
AcDbCircle
 10
218.6146329166588
 20
112.5678655566773
 30
0.0
 40
340.0
100
AcDbArc
 50
85.85748119726863
 51
94.14251880273134
  0
ARC
  5
DDF
330
2
100
AcDbEntity
  8
0
100
AcDbCircle
 10
-53.88536708334118
 20
385.0678655566773
 30
0.0
 40
340.0
100
AcDbArc
 50
355.8574811972767
 51
4.14251880271665
  0
ARC
  5
DE0
330
2
100
AcDbEntity
  8
0
100
AcDbCircle
 10
266.1146329166588
 20
325.5678655566772
 30
0.0
 40
8.0
100
AcDbArc
 50
261.63298947736
 51
270.0
  0
LINE
  5
DE1
330
2
100
AcDbEntity
  8
0
100
AcDbLine
 10
161.4244367240955
 20
317.5678655566773
 30
0.0
 11
161.7246329166048
 21
317.5678655571335
 31
0.0
  0
LINE
  5
DE2
330
2
100
AcDbEntity
  8
0
100
AcDbLine
 10
161.4244367240955
 20
452.5678655566775
 30
0.0
 11
161.7246329170909
 21
452.5678655566773
 31
0.0
  0
LINE
  5
DE3
330
2
100
AcDbEntity
  8
0
100
AcDbLine
 10
846.4147263073476
 20
812.9187052301436
 30
0.0
 11
846.4846935603166
 21
804.9012521591469
 31
0.0
  0
ARC
  5
DE4
330
2
100
AcDbEntity
  8
0
100
AcDbCircle
 10
844.4148024612193
 20
812.9012521591466
 30
0.0
 40
2.0
100
AcDbArc
 50
0.499999999998063
 51
90.0
  0
LINE
  5
DE5
330
2
100
AcDbEntity
  8
0
100
AcDbLine
 10
779.5946935603167
 20
829.9012521591418
 30
0.0
 11
821.517343291129
 21
829.9012521591416
 31
0.0
  0
ARC
  5
DE6
330
2
100
AcDbEntity
  8
0
 48
0.5
100
AcDbCircle
 10
821.7946935603166
 20
827.7012521591462
 30
0.0
 40
0.3
100
AcDbArc
 50
270.0
 51
0.0000000000065138
  0
ARC
  5
DE7
330
2
100
AcDbEntity
  8
0
100
AcDbCircle
 10
821.6946935603166
 20
827.1012521591462
 30
0.0
 40
0.3
100
AcDbArc
 50
90.0
 51
180.0000000000065
  0
LINE
  5
DE8
330
2
100
AcDbEntity
  8
0
100
AcDbLine
 10
824.0946935603167
 20
821.9012521591462
 30
0.0
 11
822.0946935603167
 21
821.9012521591462
 31
0.0
  0
LINE
  5
DE9
330
2
100
AcDbEntity
  8
0
 48
0.5
100
AcDbLine
 10
822.0946935603167
 20
825.2012521591462
 30
0.0
 11
822.0946935603167
 21
821.9012521591462
 31
0.0
  0
LINE
  5
DEA
330
2
100
AcDbEntity
  8
0
 48
0.5
100
AcDbLine
 10
821.394693560317
 20
827.1012521591462
 30
0.0
 11
821.394693560317
 21
825.7012521591461
 31
0.0
  0
LINE
  5
DEB
330
2
100
AcDbEntity
  8
0
 48
0.5
100
AcDbLine
 10
821.8946935603169
 20
825.4012521591462
 30
0.0
 11
822.0946935603167
 21
825.2012521591462
 31
0.0
  0
LINE
  5
DEC
330
2
100
AcDbEntity
  8
0
100
AcDbLine
 10
821.8946935603169
 20
825.4012521591462
 30
0.0
 11
737.2946935603165
 21
825.4012521591455
 31
0.0
  0
ARC
  5
DED
330
2
100
AcDbEntity
  8
0
100
AcDbCircle
 10
821.6946935603171
 20
825.7012521591461
 30
0.0
 40
0.3
100
AcDbArc
 50
180.0
 51
270.0
  0
ARC
  5
DEE
330
2
100
AcDbEntity
  8
HIDS
  6
SEKKEI_H
100
AcDbCircle
 10
834.7662664355695
 20
819.4012521591517
 30
0.0
 40
2.0
100
AcDbArc
 50
44.99999999999245
 51
90.0
  0
ARC
  5
DEF
330
2
100
AcDbEntity
  8
HIDS
  6
SEKKEI_H
100
AcDbCircle
 10
842.9231206850628
 20
816.9012521591469
 30
0.0
 40
2.0
100
AcDbArc
 50
224.9999999999924
 51
270.0
  0
LINE
  5
DF0
330
2
100
AcDbEntity
  8
HIDS
  6
SEKKEI_H
100
AcDbLine
 10
841.5089071226899
 20
815.4870385967738
 30
0.0
 11
836.1804799979402
 21
820.8154657215224
 31
0.0
  0
LINE
  5
DF1
330
2
100
AcDbEntity
  8
0
 48
0.5
100
AcDbLine
 10
824.5946935603168
 20
821.4012521591465
 30
0.0
 11
824.0946935603167
 21
821.9012521591462
 31
0.0
  0
LINE
  5
DF2
330
2
100
AcDbEntity
  8
0
100
AcDbLine
 10
830.5946935603166
 20
821.4012521591467
 30
0.0
 11
824.5946935603171
 21
821.401252159146
 31
0.0
  0
LINE
  5
DF3
330
2
100
AcDbEntity
  8
0
100
AcDbLine
 10
822.0946935603167
 20
828.9012521591462
 30
0.0
 11
821.5173432911267
 21
829.9012521591462
 31
0.0
  0
LINE
  5
DF4
330
2
100
AcDbEntity
  8
0
 48
0.5
100
AcDbLine
 10
822.0946935603167
 20
828.9012521591462
 30
0.0
 11
822.0946935603167
 21
827.7012521591462
 31
0.0
  0
LINE
  5
DF5
330
2
100
AcDbEntity
  8
0
100
AcDbLine
 10
821.7946935603166
 20
827.4012521591462
 30
0.0
 11
737.3946935603164
 21
827.4012521591455
 31
0.0
  0
LINE
  5
DF6
330
2
100
AcDbEntity
  8
0
100
AcDbLine
 10
779.5946935603167
 20
829.9012521591418
 30
0.0
 11
737.6720438295039
 21
829.9012521591409
 31
0.0
  0
LINE
  5
DF7
330
2
100
AcDbEntity
  8
0
 48
0.5
100
AcDbLine
 10
712.1646608132857
 20
812.9187052301425
 30
0.0
 11
712.0946935603167
 21
804.9012521591457
 31
0.0
  0
LINE
  5
DF8
330
2
100
AcDbEntity
  8
0
100
AcDbLine
 10
714.1645846594144
 20
814.9012521591457
 30
0.0
 11
844.4148024612193
 21
814.9012521591467
 31
0.0
  0
ARC
  5
DF9
330
2
100
AcDbEntity
  8
0
100
AcDbCircle
 10
714.1645846594144
 20
812.9012521591457
 30
0.0
 40
2.0
100
AcDbArc
 50
90.0
 51
179.4999999999954
  0
ARC
  5
DFA
330
2
100
AcDbEntity
  8
0
 48
0.5
100
AcDbCircle
 10
737.3946935603164
 20
827.7012521591455
 30
0.0
 40
0.3
100
AcDbArc
 50
179.9999999999934
 51
270.0
  0
ARC
  5
DFB
330
2
100
AcDbEntity
  8
0
100
AcDbCircle
 10
737.4946935603163
 20
827.1012521591455
 30
0.0
 40
0.3
100
AcDbArc
 50
359.9999999999934
 51
90.0
  0
LINE
  5
DFC
330
2
100
AcDbEntity
  8
0
100
AcDbLine
 10
735.0946935603162
 20
821.9012521591455
 30
0.0
 11
737.0946935603162
 21
821.9012521591455
 31
0.0
  0
LINE
  5
DFD
330
2
100
AcDbEntity
  8
0
 48
0.5
100
AcDbLine
 10
737.0946935603158
 20
825.2012521591455
 30
0.0
 11
737.0946935603162
 21
821.9012521591455
 31
0.0
  0
LINE
  5
DFE
330
2
100
AcDbEntity
  8
0
 48
0.5
100
AcDbLine
 10
737.7946935603165
 20
827.1012521591455
 30
0.0
 11
737.7946935603165
 21
825.7012521591455
 31
0.0
  0
LINE
  5
DFF
330
2
100
AcDbEntity
  8
0
 48
0.5
100
AcDbLine
 10
737.2946935603165
 20
825.4012521591455
 30
0.0
 11
737.0946935603158
 21
825.2012521591455
 31
0.0
  0
ARC
  5
E00
330
2
100
AcDbEntity
  8
0
100
AcDbCircle
 10
737.4946935603163
 20
825.7012521591455
 30
0.0
 40
0.3
100
AcDbArc
 50
270.0
 51
0.0
  0
ARC
  5
E01
330
2
100
AcDbEntity
  8
HIDS
  6
SEKKEI_H
100
AcDbCircle
 10
724.4231206850634
 20
819.4012521591508
 30
0.0
 40
2.0
100
AcDbArc
 50
90.0
 51
135.0000000000075
  0
ARC
  5
E02
330
2
100
AcDbEntity
  8
HIDS
  6
SEKKEI_H
100
AcDbCircle
 10
716.26626643557
 20
816.9012521591458
 30
0.0
 40
2.0
100
AcDbArc
 50
270.0
 51
315.0000000000074
  0
LINE
  5
E03
330
2
100
AcDbEntity
  8
HIDS
  6
SEKKEI_H
100
AcDbLine
 10
717.6804799979434
 20
815.4870385967726
 30
0.0
 11
723.0089071226927
 21
820.8154657215215
 31
0.0
  0
LINE
  5
E04
330
2
100
AcDbEntity
  8
0
 48
0.5
100
AcDbLine
 10
734.5946935603162
 20
821.4012521591458
 30
0.0
 11
735.0946935603162
 21
821.9012521591455
 31
0.0
  0
LINE
  5
E05
330
2
100
AcDbEntity
  8
0
100
AcDbLine
 10
728.5946935603167
 20
821.4012521591458
 30
0.0
 11
734.5946935603158
 21
821.4012521591453
 31
0.0
  0
LINE
  5
E06
330
2
100
AcDbEntity
  8
0
100
AcDbLine
 10
737.0946935603167
 20
828.9012521591455
 30
0.0
 11
737.6720438295067
 21
829.9012521591455
 31
0.0
  0
LINE
  5
E07
330
2
100
AcDbEntity
  8
0
 48
0.5
100
AcDbLine
 10
737.0946935603167
 20
828.9012521591455
 30
0.0
 11
737.0946935603167
 21
827.7012521591455
 31
0.0
  0
LINE
  5
E08
330
2
100
AcDbEntity
  8
0
100
AcDbLine
 10
822.0946935603167
 20
828.9012521591462
 30
0.0
 11
737.0946935603167
 21
828.9012521591455
 31
0.0
  0
LINE
  5
E09
330
2
100
AcDbEntity
  8
0
100
AcDbLine
 10
737.0946935603158
 20
825.2012521591455
 30
0.0
 11
822.0946935603167
 21
825.2012521591462
 31
0.0
  0
LINE
  5
E0A
330
2
100
AcDbEntity
  8
0
100
AcDbLine
 10
822.0946935603167
 20
821.9012521591462
 30
0.0
 11
737.0946935603162
 21
821.9012521591455
 31
0.0
  0
LINE
  5
E0B
330
2
100
AcDbEntity
  8
0
100
AcDbLine
 10
734.5946935603158
 20
821.4012521591453
 30
0.0
 11
824.5946935603171
 21
821.401252159146
 31
0.0
  0
LINE
  5
E0C
330
2
100
AcDbEntity
  8
0
100
AcDbLine
 10
846.4846935603166
 20
804.9012521591469
 30
0.0
 11
712.0946935603167
 21
804.9012521591457
 31
0.0
  0
LINE
  5
E0D
330
2
100
AcDbEntity
  8
0
100
AcDbLine
 10
827.0946935603163
 20
804.9012521591489
 30
0.0
 11
827.0946935603157
 21
813.4012521591467
 31
0.0
  0
LINE
  5
E0E
330
2
100
AcDbEntity
  8
0
100
AcDbLine
 10
804.1554838510299
 20
804.9012521591478
 30
0.0
 11
804.1554838510299
 21
813.4012521591465
 31
0.0
  0
LINE
  5
E0F
330
2
100
AcDbEntity
  8
0
100
AcDbLine
 10
837.0946935607488
 20
804.9012521591496
 30
0.0
 11
837.0946935607488
 21
813.4012521591467
 31
0.0
  0
LINE
  5
E10
330
2
100
AcDbEntity
  8
0
100
AcDbLine
 10
732.0946935603172
 20
804.9012521591434
 30
0.0
 11
732.0946935603172
 21
813.4012521591458
 31
0.0
  0
LINE
  5
E11
330
2
100
AcDbEntity
  8
0
100
AcDbLine
 10
755.0339032696036
 20
804.9012521591448
 30
0.0
 11
755.0339032696036
 21
813.401252159146
 31
0.0
  0
LINE
  5
E12
330
2
100
AcDbEntity
  8
0
100
AcDbLine
 10
722.0946935598846
 20
804.901252159143
 30
0.0
 11
722.0946935598846
 21
813.4012521591458
 31
0.0
  0
LINE
  5
E13
330
2
100
AcDbEntity
  8
0
 48
0.5
100
AcDbLine
 10
1324.585700649969
 20
317.6378328096467
 30
0.0
 11
1316.568247578972
 21
317.5678655566774
 31
0.0
  0
ARC
  5
E14
330
2
100
AcDbEntity
  8
0
100
AcDbCircle
 10
1324.568247578972
 20
319.637756655775
 30
0.0
 40
2.0
100
AcDbArc
 50
270.4999999999915
 51
0.0
  0
ARC
  5
E15
330
2
100
AcDbEntity
  8
0
100
AcDbCircle
 10
1328.568247578972
 20
321.7394384319311
 30
0.0
 40
2.0
100
AcDbArc
 50
135.0000000000074
 51
180.0
  0
LINE
  5
E16
330
2
100
AcDbEntity
  8
0
100
AcDbLine
 10
1327.154034016599
 20
323.1536519943042
 30
0.0
 11
1328.963205562166
 21
324.9628235398719
 31
0.0
  0
LINE
  5
E17
330
2
100
AcDbEntity
  8
0
 48
0.5
100
AcDbLine
 10
1324.585700649968
 20
452.497898303708
 30
0.0
 11
1316.568247578972
 21
452.5678655566771
 31
0.0
  0
LINE
  5
E18
330
2
100
AcDbEntity
  8
0
100
AcDbLine
 10
1326.568247578971
 20
450.4979744575797
 30
0.0
 11
1326.568247578971
 21
445.1928655566777
 31
0.0
  0
LINE
  5
E19
330
2
100
AcDbEntity
  8
0
100
AcDbLine
 10
1326.568247578972
 20
324.9428655566786
 30
0.0
 11
1326.568247578972
 21
319.637756655775
 31
0.0
  0
ARC
  5
E1A
330
2
100
AcDbEntity
  8
0
100
AcDbCircle
 10
1324.568247578971
 20
450.4979744575796
 30
0.0
 40
2.0
100
AcDbArc
 50
0.0
 51
89.50000000000846
  0
ARC
  5
E1B
330
2
100
AcDbEntity
  8
0
100
AcDbCircle
 10
1328.568247578972
 20
448.3962926814236
 30
0.0
 40
2.0
100
AcDbArc
 50
180.0
 51
224.9999999999925
  0
LINE
  5
E1C
330
2
100
AcDbEntity
  8
0
100
AcDbLine
 10
1327.154034016598
 20
446.9820791190506
 30
0.0
 11
1328.963205562164
 21
445.1729075734844
 31
0.0
  0
LINE
  5
E1D
330
2
100
AcDbEntity
  8
0
100
AcDbLine
 10
1316.568247578972
 20
317.5678655566774
 30
0.0
 11
1316.568247578972
 21
324.8595322233449
 31
0.0
  0
LINE
  5
E1E
330
2
100
AcDbEntity
  8
0
100
AcDbLine
 10
1316.568247578971
 20
445.2761988900109
 30
0.0
 11
1316.568247578971
 21
452.5678655566771
 31
0.0
  0
LINE
  5
E1F
330
2
100
AcDbEntity
  8
0
 48
0.3
100
AcDbLine
 10
403.0202955304164
 20
334.0678655566772
 30
0.0
 11
403.0202955304169
 21
321.0678655566773
 31
0.0
  0
LINE
  5
E20
330
2
100
AcDbEntity
  8
0
 48
0.3
100
AcDbLine
 10
402.5202955304164
 20
333.2018401528914
 30
0.0
 11
402.5202955304169
 21
321.9338909604618
 31
0.0
  0
LINE
  5
E21
330
2
100
AcDbEntity
  8
CENTER
 48
0.5
100
AcDbLine
 10
399.5202955304169
 20
327.5678655566772
 30
0.0
 11
418.5202955304168
 21
327.5678655566772
 31
0.0
  0
LINE
  5
E22
330
2
100
AcDbEntity
  8
0
 48
0.3
100
AcDbLine
 10
403.0202955304169
 20
321.0678655566773
 30
0.0
 11
402.5202955304169
 21
321.9338909604618
 31
0.0
  0
LINE
  5
E23
330
2
100
AcDbEntity
  8
0
 48
0.3
100
AcDbLine
 10
403.0202955304169
 20
321.0678655566773
 30
0.0
 11
410.5202955304169
 21
321.0678655566773
 31
0.0
  0
LINE
  5
E24
330
2
100
AcDbEntity
  8
0
 48
0.3
100
AcDbLine
 10
403.0202955304173
 20
334.0678655566768
 30
0.0
 11
402.5202955304173
 21
333.2018401528925
 31
0.0
  0
LINE
  5
E25
330
2
100
AcDbEntity
  8
0
 48
0.3
100
AcDbLine
 10
403.0202955304173
 20
334.0678655566772
 30
0.0
 11
410.5202955304164
 21
334.0678655566772
 31
0.0
  0
LINE
  5
E26
330
2
100
AcDbEntity
  8
0
 48
0.3
100
AcDbLine
 10
403.0202955304164
 20
449.0678655566773
 30
0.0
 11
403.0202955304164
 21
436.0678655566773
 31
0.0
  0
LINE
  5
E27
330
2
100
AcDbEntity
  8
0
 48
0.3
100
AcDbLine
 10
402.5202955304164
 20
448.2018401528914
 30
0.0
 11
402.5202955304164
 21
436.9338909604618
 31
0.0
  0
LINE
  5
E28
330
2
100
AcDbEntity
  8
CENTER
 48
0.5
100
AcDbLine
 10
399.5202955304164
 20
442.5678655566772
 30
0.0
 11
418.5202955304164
 21
442.5678655566772
 31
0.0
  0
LINE
  5
E29
330
2
100
AcDbEntity
  8
0
 48
0.3
100
AcDbLine
 10
403.0202955304164
 20
436.0678655566773
 30
0.0
 11
402.5202955304164
 21
436.9338909604618
 31
0.0
  0
LINE
  5
E2A
330
2
100
AcDbEntity
  8
0
 48
0.3
100
AcDbLine
 10
403.0202955304164
 20
436.0678655566773
 30
0.0
 11
410.5202955304164
 21
436.0678655566773
 31
0.0
  0
LINE
  5
E2B
330
2
100
AcDbEntity
  8
0
 48
0.3
100
AcDbLine
 10
403.0202955304169
 20
449.0678655566768
 30
0.0
 11
402.5202955304169
 21
448.2018401528925
 31
0.0
  0
LINE
  5
E2C
330
2
100
AcDbEntity
  8
0
 48
0.3
100
AcDbLine
 10
403.0202955304173
 20
449.0678655566773
 30
0.0
 11
410.5202955304164
 21
449.0678655566773
 31
0.0
  0
LINE
  5
E2D
330
2
100
AcDbEntity
  8
0
 48
0.3
100
AcDbLine
 10
728.5946935603167
 20
824.4012521591459
 30
0.0
 11
715.5946935603167
 21
824.4012521591457
 31
0.0
  0
LINE
  5
E2E
330
2
100
AcDbEntity
  8
0
 48
0.3
100
AcDbLine
 10
727.7286681565308
 20
824.901252159146
 30
0.0
 11
716.4607189641012
 21
824.9012521591458
 31
0.0
  0
LINE
  5
E2F
330
2
100
AcDbEntity
  8
CENTER
 48
0.5
100
AcDbLine
 10
722.0946935603167
 20
827.9012521591457
 30
0.0
 11
722.0946935603167
 21
808.9012521591458
 31
0.0
  0
LINE
  5
E30
330
2
100
AcDbEntity
  8
0
 48
0.3
100
AcDbLine
 10
715.5946935603167
 20
824.4012521591457
 30
0.0
 11
716.4607189641012
 21
824.9012521591458
 31
0.0
  0
LINE
  5
E31
330
2
100
AcDbEntity
  8
0
 48
0.3
100
AcDbLine
 10
715.5946935603167
 20
824.4012521591457
 30
0.0
 11
715.5946935603167
 21
816.9012521591458
 31
0.0
  0
LINE
  5
E32
330
2
100
AcDbEntity
  8
0
 48
0.3
100
AcDbLine
 10
728.5946935603162
 20
824.4012521591454
 30
0.0
 11
727.7286681565317
 21
824.9012521591453
 31
0.0
  0
LINE
  5
E33
330
2
100
AcDbEntity
  8
0
 48
0.3
100
AcDbLine
 10
728.5946935603167
 20
824.401252159145
 30
0.0
 11
728.5946935603167
 21
816.901252159146
 31
0.0
  0
LINE
  5
E34
330
2
100
AcDbEntity
  8
0
 48
0.3
100
AcDbLine
 10
843.5946935603167
 20
824.4012521591466
 30
0.0
 11
830.5946935603166
 21
824.4012521591464
 31
0.0
  0
LINE
  5
E35
330
2
100
AcDbEntity
  8
0
 48
0.3
100
AcDbLine
 10
842.7286681565307
 20
824.9012521591467
 30
0.0
 11
831.4607189641012
 21
824.9012521591463
 31
0.0
  0
LINE
  5
E36
330
2
100
AcDbEntity
  8
CENTER
 48
0.5
100
AcDbLine
 10
837.0946935603168
 20
827.9012521591466
 30
0.0
 11
837.0946935603168
 21
808.9012521591467
 31
0.0
  0
LINE
  5
E37
330
2
100
AcDbEntity
  8
0
 48
0.3
100
AcDbLine
 10
830.5946935603166
 20
824.4012521591464
 30
0.0
 11
831.4607189641012
 21
824.9012521591463
 31
0.0
  0
LINE
  5
E38
330
2
100
AcDbEntity
  8
0
 48
0.3
100
AcDbLine
 10
830.5946935603166
 20
824.4012521591464
 30
0.0
 11
830.5946935603166
 21
816.9012521591465
 31
0.0
  0
LINE
  5
E39
330
2
100
AcDbEntity
  8
0
 48
0.3
100
AcDbLine
 10
843.5946935603162
 20
824.4012521591459
 30
0.0
 11
842.7286681565316
 21
824.9012521591462
 31
0.0
  0
LINE
  5
E3A
330
2
100
AcDbEntity
  8
0
 48
0.3
100
AcDbLine
 10
843.5946935603167
 20
824.4012521591457
 30
0.0
 11
843.5946935603167
 21
816.9012521591467
 31
0.0
  0
LINE
  5
E3B
330
2
100
AcDbEntity
  8
0
100
AcDbLine
 10
276.1146329170908
 20
439.1037639419717
 30
0.0
 11
279.1146329170903
 21
440.8358147495406
 31
0.0
  0
LINE
  5
E3C
330
2
100
AcDbEntity
  8
0
100
AcDbLine
 10
273.1146329170908
 20
444.2999163646782
 30
0.0
 11
276.1146329170908
 21
446.0319671722472
 31
0.0
  0
CIRCLE
  5
E3D
330
2
100
AcDbEntity
  8
0
100
AcDbCircle
 10
276.1146329170908
 20
442.5678655571094
 30
0.0
 40
6.5
  0
LINE
  5
E3E
330
2
100
AcDbEntity
  8
0
100
AcDbLine
 10
279.1146329170903
 20
444.2999163646782
 30
0.0
 11
276.1146329170908
 21
446.0319671722471
 31
0.0
  0
LINE
  5
E3F
330
2
100
AcDbEntity
  8
0
100
AcDbLine
 10
276.1146329170908
 20
439.1037639419718
 30
0.0
 11
273.1146329170908
 21
440.8358147495405
 31
0.0
  0
LINE
  5
E40
330
2
100
AcDbEntity
  8
0
100
AcDbLine
 10
279.1146329170903
 20
440.8358147495408
 30
0.0
 11
279.1146329170903
 21
444.2999163646783
 31
0.0
  0
LINE
  5
E41
330
2
100
AcDbEntity
  8
0
100
AcDbLine
 10
273.1146329170908
 20
440.8358147495404
 30
0.0
 11
273.1146329170908
 21
444.2999163646782
 31
0.0
  0
CIRCLE
  5
E42
330
2
100
AcDbEntity
  8
0
100
AcDbCircle
 10
276.1146329170908
 20
442.5678655571094
 30
0.0
 40
5.633974596215466
  0
LINE
  5
E43
330
2
100
AcDbEntity
  8
0
100
AcDbLine
 10
161.1146329170912
 20
439.1037639419717
 30
0.0
 11
164.1146329170912
 21
440.8358147495406
 31
0.0
  0
LINE
  5
E44
330
2
100
AcDbEntity
  8
0
100
AcDbLine
 10
158.1146329170912
 20
444.2999163646782
 30
0.0
 11
161.1146329170912
 21
446.0319671722472
 31
0.0
  0
CIRCLE
  5
E45
330
2
100
AcDbEntity
  8
0
100
AcDbCircle
 10
161.1146329170912
 20
442.5678655571094
 30
0.0
 40
6.5
  0
LINE
  5
E46
330
2
100
AcDbEntity
  8
0
100
AcDbLine
 10
164.1146329170912
 20
444.2999163646782
 30
0.0
 11
161.1146329170912
 21
446.0319671722471
 31
0.0
  0
LINE
  5
E47
330
2
100
AcDbEntity
  8
0
100
AcDbLine
 10
161.1146329170912
 20
439.1037639419718
 30
0.0
 11
158.1146329170912
 21
440.8358147495405
 31
0.0
  0
LINE
  5
E48
330
2
100
AcDbEntity
  8
0
100
AcDbLine
 10
164.1146329170912
 20
440.8358147495408
 30
0.0
 11
164.1146329170912
 21
444.2999163646783
 31
0.0
  0
LINE
  5
E49
330
2
100
AcDbEntity
  8
0
100
AcDbLine
 10
158.1146329170912
 20
440.8358147495404
 30
0.0
 11
158.1146329170912
 21
444.2999163646782
 31
0.0
  0
CIRCLE
  5
E4A
330
2
100
AcDbEntity
  8
0
100
AcDbCircle
 10
161.1146329170912
 20
442.5678655571094
 30
0.0
 40
5.633974596215466
  0
LINE
  5
E4B
330
2
100
AcDbEntity
  8
0
100
AcDbLine
 10
161.1146329170912
 20
324.1037639419715
 30
0.0
 11
164.1146329170912
 21
325.8358147495405
 31
0.0
  0
LINE
  5
E4C
330
2
100
AcDbEntity
  8
0
100
AcDbLine
 10
158.1146329170912
 20
329.2999163646781
 30
0.0
 11
161.1146329170912
 21
331.031967172247
 31
0.0
  0
CIRCLE
  5
E4D
330
2
100
AcDbEntity
  8
0
100
AcDbCircle
 10
161.1146329170912
 20
327.5678655571092
 30
0.0
 40
6.5
  0
LINE
  5
E4E
330
2
100
AcDbEntity
  8
0
100
AcDbLine
 10
164.1146329170912
 20
329.2999163646781
 30
0.0
 11
161.1146329170912
 21
331.0319671722469
 31
0.0
  0
LINE
  5
E4F
330
2
100
AcDbEntity
  8
0
100
AcDbLine
 10
161.1146329170912
 20
324.1037639419717
 30
0.0
 11
158.1146329170912
 21
325.8358147495404
 31
0.0
  0
LINE
  5
E50
330
2
100
AcDbEntity
  8
0
100
AcDbLine
 10
164.1146329170912
 20
325.8358147495406
 30
0.0
 11
164.1146329170912
 21
329.2999163646782
 31
0.0
  0
LINE
  5
E51
330
2
100
AcDbEntity
  8
0
100
AcDbLine
 10
158.1146329170912
 20
325.8358147495403
 30
0.0
 11
158.1146329170912
 21
329.2999163646781
 31
0.0
  0
CIRCLE
  5
E52
330
2
100
AcDbEntity
  8
0
100
AcDbCircle
 10
161.1146329170912
 20
327.5678655571092
 30
0.0
 40
5.633974596215466
  0
LINE
  5
E53
330
2
100
AcDbEntity
  8
0
100
AcDbLine
 10
276.1146329170908
 20
324.1037639419715
 30
0.0
 11
279.1146329170903
 21
325.8358147495405
 31
0.0
  0
LINE
  5
E54
330
2
100
AcDbEntity
  8
0
100
AcDbLine
 10
273.1146329170908
 20
329.2999163646781
 30
0.0
 11
276.1146329170908
 21
331.031967172247
 31
0.0
  0
CIRCLE
  5
E55
330
2
100
AcDbEntity
  8
0
100
AcDbCircle
 10
276.1146329170908
 20
327.5678655571092
 30
0.0
 40
6.5
  0
LINE
  5
E56
330
2
100
AcDbEntity
  8
0
100
AcDbLine
 10
279.1146329170903
 20
329.2999163646781
 30
0.0
 11
276.1146329170908
 21
331.0319671722469
 31
0.0
  0
LINE
  5
E57
330
2
100
AcDbEntity
  8
0
100
AcDbLine
 10
276.1146329170908
 20
324.1037639419717
 30
0.0
 11
273.1146329170908
 21
325.8358147495404
 31
0.0
  0
LINE
  5
E58
330
2
100
AcDbEntity
  8
0
100
AcDbLine
 10
279.1146329170903
 20
325.8358147495406
 30
0.0
 11
279.1146329170903
 21
329.2999163646782
 31
0.0
  0
LINE
  5
E59
330
2
100
AcDbEntity
  8
0
100
AcDbLine
 10
273.1146329170908
 20
325.8358147495403
 30
0.0
 11
273.1146329170908
 21
329.2999163646781
 31
0.0
  0
CIRCLE
  5
E5A
330
2
100
AcDbEntity
  8
0
100
AcDbCircle
 10
276.1146329170908
 20
327.5678655571092
 30
0.0
 40
5.633974596215466
  0
LINE
  5
E5B
330
2
100
AcDbEntity
  8
HIDS
  6
SEKKEI_H
100
AcDbLine
 10
406.0202955304114
 20
440.23943843193
 30
0.0
 11
406.0202955304164
 21
436.0678655566773
 31
0.0
  0
LINE
  5
E5C
330
2
100
AcDbEntity
  8
HIDS
  6
SEKKEI_H
100
AcDbLine
 10
406.0202955304118
 20
329.8962926814245
 30
0.0
 11
406.0202955304168
 21
334.0678655566772
 31
0.0
  0
ARC
  5
E5D
330
2
100
AcDbEntity
  8
HIDS
  6
SEKKEI_H
100
AcDbCircle
 10
407.5202955304123
 20
435.150851673815
 30
0.0
 40
10.00000000000001
100
AcDbArc
 50
90.47745377731077
 51
119.9999999999698
  0
ARC
  5
E5E
330
2
100
AcDbEntity
  8
HIDS
  6
SEKKEI_H
100
AcDbCircle
 10
407.5202955304123
 20
334.9848794395394
 30
0.0
 40
10.00000000000001
100
AcDbArc
 50
240.00000000003
 51
269.5225462226892
  0
LINE
  5
E5F
330
2
100
AcDbEntity
  8
HIDS
  6
SEKKEI_H
100
AcDbLine
 10
728.5946935603167
 20
821.4012521591458
 30
0.0
 11
724.4231206850638
 21
821.4012521591508
 31
0.0
  0
LINE
  5
E60
330
2
100
AcDbEntity
  8
HIDS
  6
SEKKEI_H
100
AcDbLine
 10
830.5946935603166
 20
821.4012521591467
 30
0.0
 11
834.7662664355691
 21
821.4012521591516
 31
0.0
  0
CIRCLE
  5
E61
330
2
100
AcDbEntity
  8
0
100
AcDbCircle
 10
276.1146329170908
 20
327.5678655571092
 30
0.0
 40
7.25
  0
CIRCLE
  5
E62
330
2
100
AcDbEntity
  8
0
100
AcDbCircle
 10
276.1146329170908
 20
442.5678655571094
 30
0.0
 40
7.25
  0
CIRCLE
  5
E63
330
2
100
AcDbEntity
  8
0
100
AcDbCircle
 10
161.1146329170912
 20
442.5678655571095
 30
0.0
 40
7.25
  0
CIRCLE
  5
E64
330
2
100
AcDbEntity
  8
0
100
AcDbCircle
 10
161.1146329170912
 20
327.5678655571092
 30
0.0
 40
7.25
  0
LINE
  5
E65
330
2
100
AcDbEntity
  8
0
 48
0.3
100
AcDbLine
 10
410.5202955304164
 20
449.8178655566773
 30
0.0
 11
410.5202955304164
 21
435.3178655566773
 31
0.0
  0
LINE
  5
E66
330
2
100
AcDbEntity
  8
0
 48
0.3
100
AcDbLine
 10
410.5202955304164
 20
435.3178655566773
 30
0.0
 11
412.5202955304164
 21
435.3178655566773
 31
0.0
  0
LINE
  5
E67
330
2
100
AcDbEntity
  8
0
 48
0.3
100
AcDbLine
 10
410.5202955304164
 20
449.8178655566773
 30
0.0
 11
412.5202955304164
 21
449.8178655566773
 31
0.0
  0
LINE
  5
E68
330
2
100
AcDbEntity
  8
0
100
AcDbLine
 10
412.5202955304164
 20
449.8178655566773
 30
0.0
 11
412.5202955304164
 21
435.3178655566773
 31
0.0
  0
LINE
  5
E69
330
2
100
AcDbEntity
  8
0
 48
0.3
100
AcDbLine
 10
410.5202955304169
 20
334.8178655566773
 30
0.0
 11
410.5202955304169
 21
320.3178655566773
 31
0.0
  0
LINE
  5
E6A
330
2
100
AcDbEntity
  8
0
 48
0.3
100
AcDbLine
 10
410.5202955304169
 20
320.3178655566773
 30
0.0
 11
412.5202955304168
 21
320.3178655566773
 31
0.0
  0
LINE
  5
E6B
330
2
100
AcDbEntity
  8
0
 48
0.3
100
AcDbLine
 10
410.5202955304169
 20
334.8178655566773
 30
0.0
 11
412.5202955304168
 21
334.8178655566773
 31
0.0
  0
LINE
  5
E6C
330
2
100
AcDbEntity
  8
0
100
AcDbLine
 10
412.5202955304168
 20
334.8178655566773
 30
0.0
 11
412.5202955304168
 21
320.3178655566773
 31
0.0
  0
LINE
  5
E6D
330
2
100
AcDbEntity
  8
0
 48
0.3
100
AcDbLine
 10
729.3446935603167
 20
816.9012521591458
 30
0.0
 11
714.8446935603167
 21
816.9012521591458
 31
0.0
  0
LINE
  5
E6E
330
2
100
AcDbEntity
  8
0
 48
0.3
100
AcDbLine
 10
714.8446935603167
 20
816.9012521591458
 30
0.0
 11
714.8446935603167
 21
814.9012521591457
 31
0.0
  0
LINE
  5
E6F
330
2
100
AcDbEntity
  8
0
 48
0.3
100
AcDbLine
 10
729.3446935603167
 20
816.901252159146
 30
0.0
 11
729.3446935603167
 21
814.901252159146
 31
0.0
  0
LINE
  5
E70
330
2
100
AcDbEntity
  8
0
100
AcDbLine
 10
729.3446935603167
 20
814.901252159146
 30
0.0
 11
714.8446935603167
 21
814.9012521591457
 31
0.0
  0
LINE
  5
E71
330
2
100
AcDbEntity
  8
0
 48
0.3
100
AcDbLine
 10
844.3446935603168
 20
816.9012521591467
 30
0.0
 11
829.8446935603166
 21
816.9012521591467
 31
0.0
  0
LINE
  5
E72
330
2
100
AcDbEntity
  8
0
 48
0.3
100
AcDbLine
 10
829.8446935603166
 20
816.9012521591467
 30
0.0
 11
829.8446935603166
 21
814.9012521591464
 31
0.0
  0
LINE
  5
E73
330
2
100
AcDbEntity
  8
0
 48
0.3
100
AcDbLine
 10
844.3446935603168
 20
816.9012521591467
 30
0.0
 11
844.3446935603168
 21
814.9012521591467
 31
0.0
  0
LINE
  5
E74
330
2
100
AcDbEntity
  8
0
100
AcDbLine
 10
844.3446935603168
 20
814.9012521591467
 30
0.0
 11
829.8446935603166
 21
814.9012521591467
 31
0.0
  0
LINE
  5
E75
330
2
100
AcDbEntity
  8
0
 48
0.3
100
AcDbLine
 10
1336.068247578975
 20
444.0811372235631
 30
0.0
 11
1336.068247578975
 21
449.0678655566772
 31
0.0
  0
LINE
  5
E76
330
2
100
AcDbEntity
  8
0
 48
0.3
100
AcDbLine
 10
1336.568247578975
 20
443.811105711662
 30
0.0
 11
1336.568247578975
 21
448.2018401528927
 31
0.0
  0
LINE
  5
E77
330
2
100
AcDbEntity
  8
0
 48
0.3
100
AcDbLine
 10
1336.068247578975
 20
449.0678655566772
 30
0.0
 11
1336.568247578975
 21
448.2018401528927
 31
0.0
  0
LINE
  5
E78
330
2
100
AcDbEntity
  8
0
 48
0.3
100
AcDbLine
 10
1336.068247578975
 20
449.0678655566772
 30
0.0
 11
1328.568247578975
 21
449.0678655566772
 31
0.0
  0
LINE
  5
E79
330
2
100
AcDbEntity
  8
0
 48
0.3
100
AcDbLine
 10
1336.068247578976
 20
321.0678655566772
 30
0.0
 11
1336.068247578976
 21
326.0545938897917
 31
0.0
  0
LINE
  5
E7A
330
2
100
AcDbEntity
  8
0
 48
0.3
100
AcDbLine
 10
1336.568247578976
 20
321.9338909604631
 30
0.0
 11
1336.568247578976
 21
326.324625401693
 31
0.0
  0
LINE
  5
E7B
330
2
100
AcDbEntity
  8
0
 48
0.3
100
AcDbLine
 10
1336.068247578975
 20
321.0678655566777
 30
0.0
 11
1336.568247578975
 21
321.933890960462
 31
0.0
  0
LINE
  5
E7C
330
2
100
AcDbEntity
  8
0
 48
0.3
100
AcDbLine
 10
1336.068247578975
 20
321.0678655566772
 30
0.0
 11
1328.568247578976
 21
321.0678655566772
 31
0.0
  0
LINE
  5
E7D
330
2
100
AcDbEntity
  8
0
 48
0.3
100
AcDbLine
 10
1328.568247578976
 20
320.3178655566772
 30
0.0
 11
1328.568247578975
 21
324.567865556681
 31
0.0
  0
LINE
  5
E7E
330
2
100
AcDbEntity
  8
0
 48
0.3
100
AcDbLine
 10
1328.568247578976
 20
320.3178655566772
 30
0.0
 11
1326.568247578976
 21
320.3178655566772
 31
0.0
  0
LINE
  5
E7F
330
2
100
AcDbEntity
  8
0
100
AcDbLine
 10
1326.568247578976
 20
320.3178655566772
 30
0.0
 11
1326.568247578976
 21
324.9428655566786
 31
0.0
  0
LINE
  5
E80
330
2
100
AcDbEntity
  8
0
 48
0.3
100
AcDbLine
 10
1328.568247578975
 20
445.5678655566734
 30
0.0
 11
1328.568247578975
 21
449.8178655566772
 31
0.0
  0
LINE
  5
E81
330
2
100
AcDbEntity
  8
0
 48
0.3
100
AcDbLine
 10
1328.568247578975
 20
449.8178655566772
 30
0.0
 11
1326.568247578975
 21
449.8178655566772
 31
0.0
  0
LINE
  5
E82
330
2
100
AcDbEntity
  8
0
100
AcDbLine
 10
1326.568247578975
 20
445.1928655566776
 30
0.0
 11
1326.568247578975
 21
449.8178655566772
 31
0.0
  0
LINE
  5
E83
330
2
100
AcDbEntity
  8
0
 48
0.5
100
AcDbLine
 10
422.52029553042
 20
317.5722289905735
 30
0.0
 11
524.5202955304123
 21
318.4623695052288
 31
0.0
  0
LINE
  5
E84
330
2
100
AcDbEntity
  8
0
 48
0.5
100
AcDbLine
 10
422.52029553042
 20
452.563502122781
 30
0.0
 11
524.520295530405
 21
451.6733616081258
 31
0.0
  0
LINE
  5
E85
330
2
100
AcDbEntity
  8
0
100
AcDbLine
 10
1197.220951223646
 20
428.8592818003471
 30
0.0
 11
1202.957433000314
 21
429.8707783119163
 31
0.0
  0
LINE
  5
E86
330
2
100
AcDbEntity
  8
0
100
AcDbLine
 10
1197.220951223646
 20
341.2764493130072
 30
0.0
 11
1202.957433000316
 21
340.264952801438
 31
0.0
  0
ARC
  5
E87
330
2
100
AcDbEntity
  8
0
100
AcDbCircle
 10
1197.56824757898
 20
343.2460648190319
 30
0.0
 40
2.0
100
AcDbArc
 50
180.0
 51
259.9999999999948
  0
LINE
  5
E88
330
2
100
AcDbEntity
  8
0
100
AcDbLine
 10
1195.56824757898
 20
426.8896662943227
 30
0.0
 11
1195.56824757898
 21
343.2460648190319
 31
0.0
  0
ARC
  5
E89
330
2
100
AcDbEntity
  8
0
100
AcDbCircle
 10
1197.56824757898
 20
426.8896662943227
 30
0.0
 40
2.0
100
AcDbArc
 50
100.0000000000051
 51
180.0
  0
ARC
  5
E8A
330
2
100
AcDbEntity
  8
0
100
AcDbCircle
 10
1201.568247578978
 20
437.7492403360135
 30
0.0
 40
8.0
100
AcDbArc
 50
280.0000000000051
 51
0.0
  0
ARC
  5
E8B
330
2
100
AcDbEntity
  8
0
100
AcDbCircle
 10
1201.56824757898
 20
332.3864907773403
 30
0.0
 40
8.0
100
AcDbArc
 50
0.0
 51
79.99999999999484
  0
LINE
  5
E8C
330
2
100
AcDbEntity
  8
0
100
AcDbLine
 10
90.61463291665381
 20
445.5678655566773
 30
0.0
 11
104.6146329166601
 21
445.5678655566773
 31
0.0
  0
ARC
  5
E8D
330
2
100
AcDbEntity
  8
0
100
AcDbCircle
 10
104.6146329166601
 20
326.5678655566773
 30
0.0
 40
2.0
100
AcDbArc
 50
270.0
 51
0.0
  0
LINE
  5
E8E
330
2
100
AcDbEntity
  8
0
100
AcDbLine
 10
90.61463291665381
 20
324.5678655566774
 30
0.0
 11
104.6146329166601
 21
324.5678655566773
 31
0.0
  0
LINE
  5
E93
330
2
100
AcDbEntity
  8
CENTER
100
AcDbLine
 10
413.7497952098844
 20
65.65228194551446
 30
0.0
 11
594.7497952098799
 21
65.65228194551446
 31
0.0
  0
LINE
  5
E94
330
2
100
AcDbEntity
  8
0
100
AcDbLine
 10
426.7497952098835
 20
101.6522819455144
 30
0.0
 11
436.7497952098836
 21
101.6522819455144
 31
0.0
  0
LINE
  5
E95
330
2
100
AcDbEntity
  8
0
100
AcDbLine
 10
557.7497952098808
 20
5.65228194551345
 30
0.0
 11
557.7497952098804
 21
42.31805496090498
 31
0.0
  0
LINE
  5
E96
330
2
100
AcDbEntity
  8
0
100
AcDbLine
 10
557.7497952098794
 20
88.98650893012268
 30
0.0
 11
557.749795209879
 21
125.6522819455144
 31
0.0
  0
LINE
  5
E97
330
2
100
AcDbEntity
  8
CENTER
100
AcDbLine
 10
485.749795209879
 20
-11.54265846566641
 30
0.0
 11
485.749795209879
 21
142.8472223566954
 31
0.0
  0
LINE
  5
E98
330
2
100
AcDbEntity
  8
0
100
AcDbLine
 10
450.7497952098799
 20
133.1522819455144
 30
0.0
 11
450.7497952098822
 21
87.2929430209777
 31
0.0
  0
LINE
  5
E99
330
2
100
AcDbEntity
  8
0
100
AcDbLine
 10
450.7497952098849
 20
44.01162087005118
 30
0.0
 11
450.7497952098872
 21
-1.84771805448463
 31
0.0
  0
LINE
  5
E9A
330
2
100
AcDbEntity
  8
0
100
AcDbLine
 10
552.7497952098794
 20
-0.9532141059339664
 30
0.0
 11
552.7497952098772
 21
44.49978666539126
 31
0.0
  0
LINE
  5
E9B
330
2
100
AcDbEntity
  8
0
100
AcDbLine
 10
552.7497952098749
 20
86.80477722563756
 30
0.0
 11
552.7497952098721
 21
132.2577779969629
 31
0.0
  0
LINE
  5
E9C
330
2
100
AcDbEntity
  8
0
100
AcDbLine
 10
450.749795209884
 20
8.152281945515369
 30
0.0
 11
551.2497952098776
 21
8.152281945514459
 31
0.0
  0
LINE
  5
E9D
330
2
100
AcDbEntity
  8
0
100
AcDbLine
 10
551.2497952098772
 20
18.15228194551536
 30
0.0
 11
450.7497952098836
 21
18.15228194551536
 31
0.0
  0
LINE
  5
E9E
330
2
100
AcDbEntity
  8
0
100
AcDbLine
 10
551.2497952098763
 20
41.0914916548113
 30
0.0
 11
450.7497952098836
 21
41.09149165481039
 31
0.0
  0
LINE
  5
E9F
330
2
100
AcDbEntity
  8
0
100
AcDbLine
 10
450.7497952098836
 20
123.1522819455136
 30
0.0
 11
551.2497952098776
 21
123.1522819455144
 31
0.0
  0
LINE
  5
EA0
330
2
100
AcDbEntity
  8
0
100
AcDbLine
 10
551.2497952098772
 20
113.1522819455135
 30
0.0
 11
450.7497952098836
 21
113.1522819455135
 31
0.0
  0
LINE
  5
EA1
330
2
100
AcDbEntity
  8
0
100
AcDbLine
 10
551.2497952098763
 20
90.21307223621761
 30
0.0
 11
450.7497952098836
 21
90.21307223621858
 31
0.0
  0
LINE
  5
EA2
330
2
100
AcDbEntity
  8
0
 48
0.5
100
AcDbLine
 10
552.7497952098794
 20
5.652281945514459
 30
0.0
 11
557.7497952098808
 21
5.65228194551345
 31
0.0
  0
LINE
  5
EA3
330
2
100
AcDbEntity
  8
0
 48
0.5
100
AcDbLine
 10
552.7497952098794
 20
125.6522819455144
 30
0.0
 11
557.7497952098794
 21
125.6522819455144
 31
0.0
  0
LINE
  5
EA4
330
2
100
AcDbEntity
  8
0
100
AcDbLine
 10
570.0970915652135
 20
21.86086570184465
 30
0.0
 11
564.3606097885456
 21
20.84936919027552
 31
0.0
  0
LINE
  5
EA5
330
2
100
AcDbEntity
  8
0
100
AcDbLine
 10
570.0970915652135
 20
109.4436981891843
 30
0.0
 11
564.3606097885437
 21
110.4551947007537
 31
0.0
  0
ARC
  5
EA6
330
2
100
AcDbEntity
  8
0
100
AcDbCircle
 10
569.7497952098794
 20
107.4740826831599
 30
0.0
 40
2.0
100
AcDbArc
 50
0.0
 51
79.99999999999481
  0
LINE
  5
EA7
330
2
100
AcDbEntity
  8
0
100
AcDbLine
 10
571.7497952098795
 20
23.83048120786907
 30
0.0
 11
571.749795209879
 21
41.15228194551355
 31
0.0
  0
LINE
  5
EA8
330
2
100
AcDbEntity
  8
0
100
AcDbLine
 10
571.7497952098795
 20
90.15228194551481
 30
0.0
 11
571.7497952098795
 21
107.4740826831599
 31
0.0
  0
ARC
  5
EA9
330
2
100
AcDbEntity
  8
0
100
AcDbCircle
 10
569.7497952098794
 20
23.83048120786907
 30
0.0
 40
2.0
100
AcDbArc
 50
280.0000000000051
 51
0.0
  0
ARC
  5
EAA
330
2
100
AcDbEntity
  8
0
100
AcDbCircle
 10
565.7497952098808
 20
12.9709071661781
 30
0.0
 40
8.0
100
AcDbArc
 50
100.0000000000051
 51
180.0
  0
ARC
  5
EAB
330
2
100
AcDbEntity
  8
0
100
AcDbCircle
 10
565.7497952098794
 20
118.3336567248513
 30
0.0
 40
8.0
100
AcDbArc
 50
180.0
 51
259.9999999999948
  0
LINE
  5
EAC
330
2
100
AcDbEntity
  8
0
100
AcDbLine
 10
425.7497952098881
 20
90.15228194551463
 30
0.0
 11
425.7497952098881
 21
107.5749316763268
 31
0.0
  0
LINE
  5
EAD
330
2
100
AcDbEntity
  8
0
 48
0.5
100
AcDbLine
 10
442.7323421388867
 20
133.082314692545
 30
0.0
 11
450.7497952098831
 21
133.1522819455143
 31
0.0
  0
ARC
  5
EAE
330
2
100
AcDbEntity
  8
0
100
AcDbCircle
 10
442.7497952098836
 20
131.0823908464167
 30
0.0
 40
2.0
100
AcDbArc
 50
90.49999999999155
 51
180.0
  0
ARC
  5
EAF
330
2
100
AcDbEntity
  8
0
 48
0.5
100
AcDbCircle
 10
427.9497952098838
 20
107.8522819455143
 30
0.0
 40
0.3
100
AcDbArc
 50
0.0000000000065138
 51
90.0
  0
ARC
  5
EB0
330
2
100
AcDbEntity
  8
0
100
AcDbCircle
 10
428.5497952098837
 20
107.7522819455144
 30
0.0
 40
0.3
100
AcDbArc
 50
180.0000000000065
 51
270.0
  0
LINE
  5
EB1
330
2
100
AcDbEntity
  8
0
100
AcDbLine
 10
433.7497952098836
 20
110.1522819455148
 30
0.0
 11
433.749795209884
 21
108.1522819455148
 31
0.0
  0
LINE
  5
EB2
330
2
100
AcDbEntity
  8
0
 48
0.5
100
AcDbLine
 10
430.4497952098838
 20
108.1522819455148
 30
0.0
 11
433.749795209884
 21
108.1522819455148
 31
0.0
  0
LINE
  5
EB3
330
2
100
AcDbEntity
  8
0
 48
0.5
100
AcDbLine
 10
428.5497952098837
 20
107.4522819455145
 30
0.0
 11
429.9497952098838
 21
107.4522819455145
 31
0.0
  0
LINE
  5
EB4
330
2
100
AcDbEntity
  8
0
 48
0.5
100
AcDbLine
 10
430.2497952098836
 20
107.9522819455145
 30
0.0
 11
430.4497952098838
 21
108.1522819455148
 31
0.0
  0
LINE
  5
EB5
330
2
100
AcDbEntity
  8
0
100
AcDbLine
 10
430.2497952098836
 20
107.9522819455145
 30
0.0
 11
430.249795209884
 21
104.7310457751831
 31
0.0
  0
ARC
  5
EB6
330
2
100
AcDbEntity
  8
0
100
AcDbCircle
 10
429.9497952098838
 20
107.7522819455147
 30
0.0
 40
0.3
100
AcDbArc
 50
270.0
 51
0.0000000000065138
  0
ARC
  5
EB7
330
2
100
AcDbEntity
  8
HIDS
  6
SEKKEI_H
100
AcDbCircle
 10
436.2497952098785
 20
120.8238548207673
 30
0.0
 40
2.0
100
AcDbArc
 50
135.0000000000086
 51
180.0000000000065
  0
ARC
  5
EB8
330
2
100
AcDbEntity
  8
HIDS
  6
SEKKEI_H
100
AcDbCircle
 10
438.7497952098831
 20
128.9807090702606
 30
0.0
 40
2.0
100
AcDbArc
 50
315.0000000000086
 51
0.0
  0
LINE
  5
EB9
330
2
100
AcDbEntity
  8
HIDS
  6
SEKKEI_H
100
AcDbLine
 10
440.1640087722564
 20
127.5664955078875
 30
0.0
 11
434.8355816475075
 21
122.2380683831379
 31
0.0
  0
LINE
  5
EBA
330
2
100
AcDbEntity
  8
0
 48
0.5
100
AcDbLine
 10
434.2497952098836
 20
110.6522819455147
 30
0.0
 11
433.7497952098836
 21
110.1522819455148
 31
0.0
  0
LINE
  5
EBB
330
2
100
AcDbEntity
  8
0
100
AcDbLine
 10
434.2497952098836
 20
116.6522819455144
 30
0.0
 11
434.249795209884
 21
110.652281945515
 31
0.0
  0
LINE
  5
EBC
330
2
100
AcDbEntity
  8
0
100
AcDbLine
 10
426.749795209884
 20
108.1522819455143
 30
0.0
 11
425.749795209884
 21
107.5749316763243
 31
0.0
  0
LINE
  5
EBD
330
2
100
AcDbEntity
  8
0
 48
0.5
100
AcDbLine
 10
426.7497952098835
 20
108.1522819455143
 30
0.0
 11
427.9497952098838
 21
108.1522819455143
 31
0.0
  0
LINE
  5
EBE
330
2
100
AcDbEntity
  8
0
100
AcDbLine
 10
428.249795209884
 20
107.8522819455143
 30
0.0
 11
428.249795209884
 21
104.7852429748468
 31
0.0
  0
LINE
  5
EBF
330
2
100
AcDbEntity
  8
0
100
AcDbLine
 10
425.7497952098881
 20
41.15228194551346
 30
0.0
 11
425.7497952098885
 21
23.72963221470186
 31
0.0
  0
LINE
  5
EC0
330
2
100
AcDbEntity
  8
0
 48
0.5
100
AcDbLine
 10
442.7323421388871
 20
-1.777750801516219
 30
0.0
 11
450.7497952098836
 21
-1.847718054485426
 31
0.0
  0
LINE
  5
EC1
330
2
100
AcDbEntity
  8
0
100
AcDbLine
 10
440.749795209884
 20
0.2221730446121057
 30
0.0
 11
440.749795209884
 21
41.59754138360375
 31
0.0
  0
LINE
  5
EC2
330
2
100
AcDbEntity
  8
0
100
AcDbLine
 10
440.7497952098835
 20
89.70702250742533
 30
0.0
 11
440.7497952098835
 21
131.0823908464167
 31
0.0
  0
ARC
  5
EC3
330
2
100
AcDbEntity
  8
0
100
AcDbCircle
 10
442.749795209884
 20
0.2221730446121342
 30
0.0
 40
2.0
100
AcDbArc
 50
180.0
 51
269.5000000000084
  0
ARC
  5
EC4
330
2
100
AcDbEntity
  8
0
 48
0.5
100
AcDbCircle
 10
427.9497952098843
 20
23.45228194551435
 30
0.0
 40
0.3
100
AcDbArc
 50
270.0
 51
359.9999999999934
  0
ARC
  5
EC5
330
2
100
AcDbEntity
  8
0
100
AcDbCircle
 10
428.5497952098842
 20
23.55228194551426
 30
0.0
 40
0.3
100
AcDbArc
 50
90.0
 51
179.9999999999934
  0
LINE
  5
EC6
330
2
100
AcDbEntity
  8
0
100
AcDbLine
 10
433.749795209884
 20
21.15228194551397
 30
0.0
 11
433.749795209884
 21
23.15228194551397
 31
0.0
  0
LINE
  5
EC7
330
2
100
AcDbEntity
  8
0
 48
0.5
100
AcDbLine
 10
430.4497952098842
 20
23.15228194551394
 30
0.0
 11
433.749795209884
 21
23.15228194551397
 31
0.0
  0
LINE
  5
EC8
330
2
100
AcDbEntity
  8
0
 48
0.5
100
AcDbLine
 10
428.5497952098842
 20
23.85228194551422
 30
0.0
 11
429.9497952098843
 21
23.85228194551422
 31
0.0
  0
LINE
  5
EC9
330
2
100
AcDbEntity
  8
0
 48
0.5
100
AcDbLine
 10
430.249795209884
 20
23.35228194551422
 30
0.0
 11
430.4497952098842
 21
23.15228194551394
 31
0.0
  0
ARC
  5
ECA
330
2
100
AcDbEntity
  8
0
100
AcDbCircle
 10
429.9497952098843
 20
23.55228194551404
 30
0.0
 40
0.3
100
AcDbArc
 50
359.9999999999934
 51
90.0
  0
ARC
  5
ECB
330
2
100
AcDbEntity
  8
HIDS
  6
SEKKEI_H
100
AcDbCircle
 10
436.249795209879
 20
10.48070907026146
 30
0.0
 40
2.0
100
AcDbArc
 50
179.9999999999934
 51
224.9999999999912
  0
ARC
  5
ECC
330
2
100
AcDbEntity
  8
HIDS
  6
SEKKEI_H
100
AcDbCircle
 10
438.7497952098835
 20
2.323854820768133
 30
0.0
 40
2.0
100
AcDbArc
 50
0.0
 51
44.99999999999128
  0
LINE
  5
ECD
330
2
100
AcDbEntity
  8
HIDS
  6
SEKKEI_H
100
AcDbLine
 10
440.1640087722569
 20
3.738068383141268
 30
0.0
 11
434.835581647508
 21
9.066495507890863
 31
0.0
  0
LINE
  5
ECE
330
2
100
AcDbEntity
  8
0
 48
0.5
100
AcDbLine
 10
434.249795209884
 20
20.65228194551397
 30
0.0
 11
433.749795209884
 21
21.15228194551397
 31
0.0
  0
LINE
  5
ECF
330
2
100
AcDbEntity
  8
0
100
AcDbLine
 10
434.249795209884
 20
14.65228194551445
 30
0.0
 11
434.2497952098844
 21
20.65228194551374
 31
0.0
  0
LINE
  5
ED0
330
2
100
AcDbEntity
  8
0
100
AcDbLine
 10
426.749795209884
 20
23.15228194551437
 30
0.0
 11
425.749795209884
 21
23.72963221470436
 31
0.0
  0
LINE
  5
ED1
330
2
100
AcDbEntity
  8
0
 48
0.5
100
AcDbLine
 10
426.749795209884
 20
23.15228194551437
 30
0.0
 11
427.9497952098843
 21
23.1522819455144
 31
0.0
  0
LINE
  5
ED2
330
2
100
AcDbEntity
  8
0
100
AcDbLine
 10
426.7497952098835
 20
101.6522819455144
 30
0.0
 11
426.7497952098835
 21
90.15228194551458
 31
0.0
  0
LINE
  5
ED3
330
2
100
AcDbEntity
  8
0
100
AcDbLine
 10
436.7497952098831
 20
101.6522819455144
 30
0.0
 11
436.7497952098836
 21
90.15228194551426
 31
0.0
  0
LINE
  5
ED4
330
2
100
AcDbEntity
  8
0
100
AcDbLine
 10
430.4497952098838
 20
104.7219661616836
 30
0.0
 11
430.4497952098838
 21
108.1522819455148
 31
0.0
  0
LINE
  5
ED5
330
2
100
AcDbEntity
  8
0
100
AcDbLine
 10
433.749795209884
 20
108.1522819455148
 30
0.0
 11
433.749795209884
 21
104.4270257538626
 31
0.0
  0
LINE
  5
ED6
330
2
100
AcDbEntity
  8
0
100
AcDbLine
 10
434.249795209884
 20
104.3385661016295
 30
0.0
 11
434.249795209884
 21
110.652281945515
 31
0.0
  0
LINE
  5
ED7
330
2
100
AcDbEntity
  8
0
100
AcDbLine
 10
450.7497952098831
 20
133.1522819455143
 30
0.0
 11
450.7497952098836
 21
87.29294302097773
 31
0.0
  0
LINE
  5
ED8
330
2
100
AcDbEntity
  8
0
100
AcDbLine
 10
450.7497952098836
 20
44.01162087005121
 30
0.0
 11
450.749795209884
 21
-1.847718054485426
 31
0.0
  0
LINE
  5
ED9
330
2
100
AcDbEntity
  8
0
100
AcDbLine
 10
450.7497952098836
 20
113.1522819455139
 30
0.0
 11
442.2497952098836
 21
113.1522819455138
 31
0.0
  0
LINE
  5
EDA
330
2
100
AcDbEntity
  8
0
100
AcDbLine
 10
450.7497952098836
 20
90.21307223622756
 30
0.0
 11
442.2497952098836
 21
90.21307223622761
 31
0.0
  0
LINE
  5
EDB
330
2
100
AcDbEntity
  8
0
100
AcDbLine
 10
450.7497952098836
 20
123.1522819459464
 30
0.0
 11
442.2497952098836
 21
123.1522819459464
 31
0.0
  0
LINE
  5
EDC
330
2
100
AcDbEntity
  8
0
100
AcDbLine
 10
450.7497952098836
 20
18.15228194551505
 30
0.0
 11
442.2497952098836
 21
18.15228194551494
 31
0.0
  0
LINE
  5
EDD
330
2
100
AcDbEntity
  8
0
100
AcDbLine
 10
450.7497952098836
 20
41.09149165480121
 30
0.0
 11
442.2497952098836
 21
41.09149165480118
 31
0.0
  0
LINE
  5
EDE
330
2
100
AcDbEntity
  8
0
100
AcDbLine
 10
450.749795209884
 20
8.152281945082421
 30
0.0
 11
442.249795209884
 21
8.152281945082364
 31
0.0
  0
LINE
  5
EE5
330
2
100
AcDbEntity
  8
0
 48
0.3
100
AcDbLine
 10
431.2497952098835
 20
14.65228194551445
 30
0.0
 11
431.249795209884
 21
1.652281945514459
 31
0.0
  0
LINE
  5
EE6
330
2
100
AcDbEntity
  8
0
 48
0.3
100
AcDbLine
 10
430.7497952098835
 20
13.78625654172856
 30
0.0
 11
430.749795209884
 21
2.518307349298993
 31
0.0
  0
LINE
  5
EE7
330
2
100
AcDbEntity
  8
CENTER
 48
0.5
100
AcDbLine
 10
427.749795209884
 20
8.152281945514459
 30
0.0
 11
446.749795209884
 21
8.152281945514459
 31
0.0
  0
LINE
  5
EE8
330
2
100
AcDbEntity
  8
0
 48
0.3
100
AcDbLine
 10
431.249795209884
 20
1.652281945514459
 30
0.0
 11
430.749795209884
 21
2.518307349298993
 31
0.0
  0
LINE
  5
EE9
330
2
100
AcDbEntity
  8
0
 48
0.3
100
AcDbLine
 10
431.249795209884
 20
1.652281945514459
 30
0.0
 11
438.749795209884
 21
1.652281945514459
 31
0.0
  0
LINE
  5
EEA
330
2
100
AcDbEntity
  8
0
 48
0.3
100
AcDbLine
 10
431.2497952098844
 20
14.652281945514
 30
0.0
 11
430.7497952098844
 21
13.7862565417297
 31
0.0
  0
LINE
  5
EEB
330
2
100
AcDbEntity
  8
0
 48
0.3
100
AcDbLine
 10
431.2497952098844
 20
14.65228194551445
 30
0.0
 11
438.7497952098835
 21
14.65228194551445
 31
0.0
  0
LINE
  5
EEC
330
2
100
AcDbEntity
  8
0
 48
0.3
100
AcDbLine
 10
431.2497952098835
 20
129.6522819455144
 30
0.0
 11
431.2497952098835
 21
116.6522819455144
 31
0.0
  0
LINE
  5
EED
330
2
100
AcDbEntity
  8
0
 48
0.3
100
AcDbLine
 10
430.7497952098835
 20
128.7862565417285
 30
0.0
 11
430.7497952098835
 21
117.518307349299
 31
0.0
  0
LINE
  5
EEE
330
2
100
AcDbEntity
  8
CENTER
 48
0.5
100
AcDbLine
 10
427.7497952098835
 20
123.1522819455144
 30
0.0
 11
446.7497952098836
 21
123.1522819455144
 31
0.0
  0
LINE
  5
EEF
330
2
100
AcDbEntity
  8
0
 48
0.3
100
AcDbLine
 10
431.2497952098835
 20
116.6522819455144
 30
0.0
 11
430.7497952098835
 21
117.518307349299
 31
0.0
  0
LINE
  5
EF0
330
2
100
AcDbEntity
  8
0
 48
0.3
100
AcDbLine
 10
431.2497952098835
 20
116.6522819455144
 30
0.0
 11
438.7497952098835
 21
116.6522819455144
 31
0.0
  0
LINE
  5
EF1
330
2
100
AcDbEntity
  8
0
 48
0.3
100
AcDbLine
 10
431.249795209884
 20
129.652281945514
 30
0.0
 11
430.749795209884
 21
128.7862565417297
 31
0.0
  0
LINE
  5
EF2
330
2
100
AcDbEntity
  8
0
 48
0.3
100
AcDbLine
 10
431.2497952098844
 20
129.6522819455144
 30
0.0
 11
438.7497952098835
 21
129.6522819455144
 31
0.0
  0
LINE
  5
EF3
330
2
100
AcDbEntity
  8
HIDS
  6
SEKKEI_H
100
AcDbLine
 10
434.2497952098786
 20
120.8238548207671
 30
0.0
 11
434.2497952098836
 21
116.6522819455144
 31
0.0
  0
LINE
  5
EF4
330
2
100
AcDbEntity
  8
HIDS
  6
SEKKEI_H
100
AcDbLine
 10
434.249795209879
 20
10.48070907026169
 30
0.0
 11
434.249795209884
 21
14.65228194551445
 31
0.0
  0
LINE
  5
EF7
330
2
100
AcDbEntity
  8
0
 48
0.3
100
AcDbLine
 10
438.7497952098835
 20
130.4022819455144
 30
0.0
 11
438.7497952098835
 21
115.9022819455144
 31
0.0
  0
LINE
  5
EF8
330
2
100
AcDbEntity
  8
0
 48
0.3
100
AcDbLine
 10
438.7497952098835
 20
115.9022819455144
 30
0.0
 11
440.7497952098835
 21
115.9022819455144
 31
0.0
  0
LINE
  5
EF9
330
2
100
AcDbEntity
  8
0
 48
0.3
100
AcDbLine
 10
438.7497952098835
 20
130.4022819455144
 30
0.0
 11
440.7497952098835
 21
130.4022819455144
 31
0.0
  0
LINE
  5
EFA
330
2
100
AcDbEntity
  8
0
100
AcDbLine
 10
440.7497952098835
 20
130.4022819455144
 30
0.0
 11
440.7497952098835
 21
115.9022819455144
 31
0.0
  0
LINE
  5
EFB
330
2
100
AcDbEntity
  8
0
 48
0.3
100
AcDbLine
 10
438.749795209884
 20
15.40228194551445
 30
0.0
 11
438.749795209884
 21
0.9022819455144599
 31
0.0
  0
LINE
  5
EFC
330
2
100
AcDbEntity
  8
0
 48
0.3
100
AcDbLine
 10
438.749795209884
 20
0.9022819455144599
 30
0.0
 11
440.749795209884
 21
0.9022819455144599
 31
0.0
  0
LINE
  5
EFD
330
2
100
AcDbEntity
  8
0
 48
0.3
100
AcDbLine
 10
438.749795209884
 20
15.40228194551445
 30
0.0
 11
440.749795209884
 21
15.40228194551445
 31
0.0
  0
LINE
  5
EFE
330
2
100
AcDbEntity
  8
0
100
AcDbLine
 10
440.749795209884
 20
15.40228194551445
 30
0.0
 11
440.749795209884
 21
0.9022819455144599
 31
0.0
  0
LINE
  5
EFF
330
2
100
AcDbEntity
  8
0
100
AcDbLine
 10
459.7497952098844
 20
82.152281945514
 30
0.0
 11
541.7497952098795
 21
82.15228194551377
 31
0.0
  0
LINE
  5
F00
330
2
100
AcDbEntity
  8
0
100
AcDbLine
 10
582.7497952098794
 20
81.65228194551366
 30
0.0
 11
582.7497952098794
 21
49.65228194551378
 31
0.0
  0
LINE
  5
F01
330
2
100
AcDbEntity
  8
CENTER
100
AcDbLine
 10
576.2497952098795
 20
79.18596380475361
 30
0.0
 11
576.2497952098795
 21
93.10680274917473
 31
0.0
  0
LINE
  5
F02
330
2
100
AcDbEntity
  8
0
100
AcDbLine
 10
584.7497952098795
 20
90.15228194551481
 30
0.0
 11
584.7497952098795
 21
41.15228194551355
 31
0.0
  0
LINE
  5
F03
330
2
100
AcDbEntity
  8
0
100
AcDbLine
 10
541.7497952098795
 20
82.15228194551377
 30
0.0
 11
541.7497952098795
 21
65.65228194551384
 31
0.0
  0
LINE
  5
F04
330
2
100
AcDbEntity
  8
0
100
AcDbLine
 10
580.7497952098795
 20
82.15228194551366
 30
0.0
 11
580.7497952098795
 21
49.15228194551378
 31
0.0
  0
LINE
  5
F05
330
2
100
AcDbEntity
  8
0
100
AcDbLine
 10
559.0997952098794
 20
82.50228194551368
 30
0.0
 11
559.0997952098794
 21
48.80228194551364
 31
0.0
  0
LINE
  5
F06
330
2
100
AcDbEntity
  8
0
100
AcDbLine
 10
557.7497952098794
 20
82.50228194551368
 30
0.0
 11
557.7497952098794
 21
48.80228194551364
 31
0.0
  0
LINE
  5
F07
330
2
100
AcDbEntity
  8
0
100
AcDbLine
 10
558.371164557984
 20
90.15228194551468
 30
0.0
 11
584.7497952098795
 21
90.15228194551491
 31
0.0
  0
LINE
  5
F08
330
2
100
AcDbEntity
  8
0
100
AcDbLine
 10
559.0997952098794
 20
81.65228194551378
 30
0.0
 11
571.7497952098795
 21
81.65228194551366
 31
0.0
  0
LINE
  5
F09
330
2
100
AcDbEntity
  8
0
100
AcDbLine
 10
571.7497952098795
 20
82.15228194551366
 30
0.0
 11
580.7497952098795
 21
82.15228194551377
 31
0.0
  0
LINE
  5
F0A
330
2
100
AcDbEntity
  8
0
100
AcDbLine
 10
580.7497952098795
 20
81.65228194551355
 30
0.0
 11
582.7497952098794
 21
81.65228194551366
 31
0.0
  0
LINE
  5
F0B
330
2
100
AcDbEntity
  8
0
100
AcDbLine
 10
582.7497952098794
 20
81.65228194551366
 30
0.0
 11
584.7497952098795
 21
82.80698248389297
 31
0.0
  0
LINE
  5
F0C
330
2
100
AcDbEntity
  8
0
100
AcDbLine
 10
541.7497952098795
 20
81.65228194551389
 30
0.0
 11
557.7497952098794
 21
81.65228194551378
 31
0.0
  0
LINE
  5
F0D
330
2
100
AcDbEntity
  8
0
100
AcDbLine
 10
557.7497952098794
 20
82.50228194551368
 30
0.0
 11
559.0997952098794
 21
82.50228194551368
 31
0.0
  0
LINE
  5
F0E
330
2
100
AcDbEntity
  8
0
100
AcDbLine
 10
558.3711645579844
 20
41.15228194551355
 30
0.0
 11
584.7497952098795
 21
41.15228194551355
 31
0.0
  0
LINE
  5
F0F
330
2
100
AcDbEntity
  8
0
100
AcDbLine
 10
559.0997952098794
 20
49.65228194551355
 30
0.0
 11
571.7497952098795
 21
49.65228194551378
 31
0.0
  0
LINE
  5
F10
330
2
100
AcDbEntity
  8
0
100
AcDbLine
 10
571.7497952098795
 20
49.15228194551378
 30
0.0
 11
580.7497952098795
 21
49.15228194551378
 31
0.0
  0
LINE
  5
F11
330
2
100
AcDbEntity
  8
HOJO
100
AcDbLine
 10
580.2497952098795
 20
84.95228194551378
 30
0.0
 11
580.2497952098795
 21
90.15228194551406
 31
0.0
  0
LINE
  5
F12
330
2
100
AcDbEntity
  8
0
100
AcDbLine
 10
579.4497952098793
 20
84.95228194551378
 30
0.0
 11
579.4497952098793
 21
90.15228194551406
 31
0.0
  0
LINE
  5
F13
330
2
100
AcDbEntity
  8
0
100
AcDbLine
 10
580.7497952098795
 20
49.65228194551378
 30
0.0
 11
582.7497952098794
 21
49.65228194551378
 31
0.0
  0
LINE
  5
F14
330
2
100
AcDbEntity
  8
0
100
AcDbLine
 10
582.7497952098794
 20
49.652281945514
 30
0.0
 11
584.7497952098795
 21
48.49758140713447
 31
0.0
  0
LINE
  5
F15
330
2
100
AcDbEntity
  8
0
100
AcDbLine
 10
557.7497952098794
 20
48.80228194551364
 30
0.0
 11
559.0997952098794
 21
48.80228194551364
 31
0.0
  0
LINE
  5
F16
330
2
100
AcDbEntity
  8
0
100
AcDbLine
 10
425.7497952098844
 20
81.65228194551401
 30
0.0
 11
425.7497952098844
 21
49.652281945514
 31
0.0
  0
LINE
  5
F17
330
2
100
AcDbEntity
  8
0
100
AcDbLine
 10
423.7497952098845
 20
90.15228194551468
 30
0.0
 11
423.7497952098845
 21
41.152281945514
 31
0.0
  0
LINE
  5
F18
330
2
100
AcDbEntity
  8
0
100
AcDbLine
 10
459.7497952098844
 20
82.15228194551389
 30
0.0
 11
459.749795209884
 21
65.65228194551394
 31
0.0
  0
LINE
  5
F19
330
2
100
AcDbEntity
  8
0
100
AcDbLine
 10
440.3997952098846
 20
82.50228194551391
 30
0.0
 11
440.3997952098846
 21
48.8022819455141
 31
0.0
  0
LINE
  5
F1A
330
2
100
AcDbEntity
  8
0
100
AcDbLine
 10
441.7497952098845
 20
82.50228194551391
 30
0.0
 11
441.7497952098845
 21
48.8022819455141
 31
0.0
  0
LINE
  5
F1B
330
2
100
AcDbEntity
  8
0
100
AcDbLine
 10
425.7497952098844
 20
81.65228194551401
 30
0.0
 11
440.3997952098846
 21
81.65228194551401
 31
0.0
  0
LINE
  5
F1C
330
2
100
AcDbEntity
  8
0
100
AcDbLine
 10
440.3890691831882
 20
90.15228194551415
 30
0.0
 11
423.7497952098845
 21
90.15228194551468
 31
0.0
  0
LINE
  5
F1D
330
2
100
AcDbEntity
  8
0
100
AcDbLine
 10
441.7497952098845
 20
81.65228194551401
 30
0.0
 11
459.7497952098844
 21
81.65228194551389
 31
0.0
  0
LINE
  5
F1E
330
2
100
AcDbEntity
  8
0
100
AcDbLine
 10
440.3997952098846
 20
82.50228194551391
 30
0.0
 11
441.7497952098845
 21
82.50228194551391
 31
0.0
  0
LINE
  5
F1F
330
2
100
AcDbEntity
  8
0
100
AcDbLine
 10
425.7497952098821
 20
81.65228194551355
 30
0.0
 11
423.7497952098817
 21
82.80698248389251
 31
0.0
  0
LINE
  5
F20
330
2
100
AcDbEntity
  8
0
100
AcDbLine
 10
440.3890691831877
 20
41.15228194551398
 30
0.0
 11
423.7497952098845
 21
41.15228194551337
 31
0.0
  0
LINE
  5
F21
330
2
100
AcDbEntity
  8
0
100
AcDbLine
 10
425.7497952098844
 20
49.652281945514
 30
0.0
 11
440.3997952098846
 21
49.652281945514
 31
0.0
  0
LINE
  5
F22
330
2
100
AcDbEntity
  8
0
100
AcDbLine
 10
440.3997952098846
 20
48.8022819455141
 30
0.0
 11
441.7497952098845
 21
48.8022819455141
 31
0.0
  0
LINE
  5
F23
330
2
100
AcDbEntity
  8
0
100
AcDbLine
 10
425.7497952098844
 20
49.652281945514
 30
0.0
 11
423.7497952098845
 21
48.4975814071347
 31
0.0
  0
LINE
  5
F24
330
2
100
AcDbEntity
  8
HOJO
100
AcDbLine
 10
572.2497952098795
 20
84.95228194551382
 30
0.0
 11
572.2497952098795
 21
90.1522819455141
 31
0.0
  0
LINE
  5
F25
330
2
100
AcDbEntity
  8
0
100
AcDbLine
 10
573.0497952098792
 20
84.95228194551382
 30
0.0
 11
573.0497952098792
 21
90.1522819455141
 31
0.0
  0
LINE
  5
F26
330
2
100
AcDbEntity
  8
0
100
AcDbLine
 10
571.7497952098795
 20
82.15228194551366
 30
0.0
 11
571.7497952098795
 21
49.15228194551378
 31
0.0
  0
LINE
  5
F27
330
2
100
AcDbEntity
  8
0
 48
0.5
100
AcDbLine
 10
571.7497952098795
 20
82.15228194551377
 30
0.0
 11
571.7497952098795
 21
49.15228194551378
 31
0.0
  0
LINE
  5
F28
330
2
100
AcDbEntity
  8
0
100
AcDbLine
 10
423.7497952098845
 20
84.95228494551382
 30
0.0
 11
584.7497952098795
 21
84.95228494551383
 31
0.0
  0
LINE
  5
F29
330
2
100
AcDbEntity
  8
0
100
AcDbLine
 10
459.7497952098844
 20
49.1522819455152
 30
0.0
 11
541.7497952098795
 21
49.15228194551435
 31
0.0
  0
LINE
  5
F2A
330
2
100
AcDbEntity
  8
0
100
AcDbLine
 10
541.7497952098795
 20
49.15228194551435
 30
0.0
 11
541.7497952098795
 21
65.65228194551432
 31
0.0
  0
LINE
  5
F2B
330
2
100
AcDbEntity
  8
0
100
AcDbLine
 10
541.7497952098795
 20
49.65228194551423
 30
0.0
 11
557.7497952098794
 21
49.65228194551418
 31
0.0
  0
LINE
  5
F2C
330
2
100
AcDbEntity
  8
0
100
AcDbLine
 10
459.7497952098844
 20
49.15228194551531
 30
0.0
 11
459.749795209884
 21
65.65228194551526
 31
0.0
  0
LINE
  5
F2D
330
2
100
AcDbEntity
  8
0
100
AcDbLine
 10
441.7497952098845
 20
49.65228194551542
 30
0.0
 11
459.7497952098844
 21
49.65228194551531
 31
0.0
  0
LINE
  5
F2E
330
2
100
AcDbEntity
  8
0
100
AcDbLine
 10
436.7497952098836
 20
101.6522819455144
 30
0.0
 11
426.7497952098835
 21
90.15228194551458
 31
0.0
  0
LINE
  5
F2F
330
2
100
AcDbEntity
  8
0
100
AcDbLine
 10
426.7497952098835
 20
101.6522819455144
 30
0.0
 11
436.7497952098836
 21
90.15228194551426
 31
0.0
  0
LINE
  5
F30
330
2
100
AcDbEntity
  8
0
100
AcDbLine
 10
426.7497952098835
 20
90.15228194551458
 30
0.0
 11
436.7497952098836
 21
90.15228194551426
 31
0.0
  0
LINE
  5
F31
330
2
100
AcDbEntity
  8
0
100
AcDbLine
 10
560.7497952098794
 20
101.652281945515
 30
0.0
 11
570.7497952098795
 21
101.652281945515
 31
0.0
  0
LINE
  5
F32
330
2
100
AcDbEntity
  8
0
100
AcDbLine
 10
560.7497952098794
 20
101.652281945515
 30
0.0
 11
560.7497952098794
 21
90.15228194551514
 31
0.0
  0
LINE
  5
F33
330
2
100
AcDbEntity
  8
0
100
AcDbLine
 10
570.749795209879
 20
101.652281945515
 30
0.0
 11
570.7497952098795
 21
90.15228194551481
 31
0.0
  0
LINE
  5
F34
330
2
100
AcDbEntity
  8
0
100
AcDbLine
 10
570.7497952098795
 20
101.652281945515
 30
0.0
 11
560.7497952098794
 21
90.15228194551514
 31
0.0
  0
LINE
  5
F35
330
2
100
AcDbEntity
  8
0
100
AcDbLine
 10
560.7497952098794
 20
101.652281945515
 30
0.0
 11
570.7497952098795
 21
90.15228194551481
 31
0.0
  0
LINE
  5
F36
330
2
100
AcDbEntity
  8
0
100
AcDbLine
 10
560.7497952098794
 20
90.15228194551514
 30
0.0
 11
570.7497952098795
 21
90.15228194551481
 31
0.0
  0
LINE
  5
F37
330
2
100
AcDbEntity
  8
0
100
AcDbLine
 10
426.7497952098876
 20
101.6522819455144
 30
0.0
 11
425.7497952098876
 21
102.229632214704
 31
0.0
  0
LINE
  5
F38
330
2
100
AcDbEntity
  8
0
100
AcDbLine
 10
438.03124105769
 20
102.0748083273608
 30
0.0
 11
436.7497952098908
 21
102.0300592522937
 31
0.0
  0
LINE
  5
F39
330
2
100
AcDbEntity
  8
0
100
AcDbLine
 10
436.7497952098908
 20
102.0300592522937
 30
0.0
 11
436.7497952098831
 21
101.6522819455144
 31
0.0
  0
SPLINE
  5
F3A
330
2
100
AcDbEntity
  8
HOJO
100
AcDbSpline
210
0.0
220
0.0
230
1.0
 70
     8
 71
     3
 72
    29
 73
    25
 74
    23
 42
0.0000000001
 43
0.0000000001
 44
0.0000000001
 40
0.0
 40
0.0
 40
0.0
 40
0.0
 40
6.445364168595244
 40
11.6005599060358
 40
16.43116643330773
 40
23.39935915012152
 40
28.86322000075915
 40
37.18645652083846
 40
41.19132774222779
 40
51.06271043180663
 40
57.00790235621015
 40
65.41939714830168
 40
72.69987336758835
 40
79.44282627976336
 40
87.34366366321456
 40
98.11595080058189
 40
106.7574459398993
 40
119.0295999011755
 40
129.4569000974927
 40
143.0549393859583
 40
150.8384148048675
 40
157.773767995327
 40
165.4374744840414
 40
170.8106207466574
 40
170.8106207466574
 40
170.8106207466574
 40
170.8106207466574
 10
425.7497952098881
 20
104.7946791299091
 30
0.0
 10
427.8530018543898
 20
104.7967827438319
 30
0.0
 10
431.6384163067175
 20
104.800568891316
 30
0.0
 10
437.6104604287332
 20
103.9173389645155
 30
0.0
 10
439.9279911163439
 20
97.96444494298709
 30
0.0
 10
438.1905943768115
 20
92.03808277320419
 30
0.0
 10
443.8966866319717
 20
86.23538300887545
 30
0.0
 10
450.2170570960827
 20
87.74381790532375
 30
0.0
 10
457.4657396194482
 20
86.33577720355328
 30
0.0
 10
464.1188484384916
 20
85.92336999216778
 30
0.0
 10
472.1705339322989
 20
86.81672046337428
 30
0.0
 10
479.369834461895
 20
85.92107917049347
 30
0.0
 10
486.8608910489493
 20
86.04104038749307
 30
0.0
 10
494.1274323615837
 20
87.04642365413107
 30
0.0
 10
502.608966414214
 20
86.27850559154001
 30
0.0
 10
511.7132786095819
 20
87.15798800747345
 30
0.0
 10
522.2271134912815
 20
86.80147927799733
 30
0.0
 10
532.9056792815966
 20
85.98758846101665
 30
0.0
 10
544.1240902909616
 20
88.44534420864984
 30
0.0
 10
557.9898622067559
 20
84.72676734875381
 30
0.0
 10
559.7043643456308
 20
95.69812969532511
 30
0.0
 10
557.4767674937111
 20
104.0982429672971
 30
0.0
 10
565.8676456453422
 20
106.0484318521424
 30
0.0
 10
570.0330297757854
 20
105.8306787482176
 30
0.0
 10
571.749795209879
 20
105.7409316828143
 30
0.0
 11
425.7497952098881
 21
104.7946791299091
 31
0.0
 11
432.1924358040384
 21
104.6073253458071
 31
0.0
 11
437.1249317478093
 21
103.1084835075835
 31
0.0
 11
439.1664003072608
 21
98.73045135351095
 31
0.0
 11
439.5060387281725
 21
91.77054075913565
 31
0.0
 11
443.2844898148694
 21
87.82375944006435
 31
0.0
 11
451.5897548203017
 21
87.27709742499246
 31
0.0
 11
455.5607284654786
 21
86.75713414818984
 31
0.0
 11
465.4162083145718
 21
86.19703313209084
 31
0.0
 11
471.3518944170616
 21
86.53309489829098
 31
0.0
 11
479.7514458999183
 21
86.08501061579046
 31
0.0
 11
487.0310602396646
 21
86.19703313209084
 31
0.0
 11
493.7507105897627
 21
86.75713414818984
 31
0.0
 11
501.6494230078758
 21
86.57390343109728
 31
0.0
 11
512.4145396433475
 21
86.9668843397685
 31
0.0
 11
521.0542196959802
 21
86.78977750481317
 31
0.0
 11
533.3242452810143
 21
86.56122774682444
 31
0.0
 11
543.7181449941424
 21
87.39515708289037
 31
0.0
 11
557.2783622138874
 21
88.40865668525111
 31
0.0
 11
559.0968660263067
 21
95.97671677228664
 31
0.0
 11
559.2613381515682
 21
102.9101194575796
 31
0.0
 11
566.3766728061371
 21
105.7569439865337
 31
0.0
 11
571.749795209879
 21
105.7409316828143
 31
0.0
  0
LINE
  5
F3B
330
2
100
AcDbEntity
  8
0
100
AcDbLine
 10
570.7497952098781
 20
101.6522819455144
 30
0.0
 11
560.7497952098794
 21
101.6522819455144
 31
0.0
  0
LINE
  5
F3C
330
2
100
AcDbEntity
  8
0
100
AcDbLine
 10
570.7497952098795
 20
101.6522819455144
 30
0.0
 11
571.7497952098795
 21
102.2296322147044
 31
0.0
  0
LINE
  5
F3D
330
2
100
AcDbEntity
  8
0
100
AcDbLine
 10
560.7497952098799
 20
102.1521438474676
 30
0.0
 11
558.9421954141974
 21
102.1994775139469
 31
0.0
  0
LINE
  5
F3E
330
2
100
AcDbEntity
  8
0
100
AcDbLine
 10
560.7497952098799
 20
102.1521438474676
 30
0.0
 11
560.7497952098794
 21
101.652281945515
 31
0.0
  0
LINE
  5
F3F
330
2
100
AcDbEntity
  8
0
100
AcDbLine
 10
426.7497952098835
 20
29.65228194551446
 30
0.0
 11
436.7497952098836
 21
29.65228194551446
 31
0.0
  0
LINE
  5
F40
330
2
100
AcDbEntity
  8
0
100
AcDbLine
 10
426.7497952098835
 20
29.65228194551446
 30
0.0
 11
426.7497952098835
 21
41.15228194551434
 31
0.0
  0
LINE
  5
F41
330
2
100
AcDbEntity
  8
0
100
AcDbLine
 10
436.7497952098831
 20
29.65228194551446
 30
0.0
 11
436.7497952098836
 21
41.15228194551465
 31
0.0
  0
LINE
  5
F42
330
2
100
AcDbEntity
  8
0
100
AcDbLine
 10
436.7497952098836
 20
29.65228194551446
 30
0.0
 11
426.7497952098835
 21
41.15228194551434
 31
0.0
  0
LINE
  5
F43
330
2
100
AcDbEntity
  8
0
100
AcDbLine
 10
426.7497952098835
 20
29.65228194551446
 30
0.0
 11
436.7497952098836
 21
41.15228194551465
 31
0.0
  0
LINE
  5
F44
330
2
100
AcDbEntity
  8
0
100
AcDbLine
 10
426.7497952098835
 20
41.15228194551434
 30
0.0
 11
436.7497952098836
 21
41.15228194551465
 31
0.0
  0
LINE
  5
F45
330
2
100
AcDbEntity
  8
0
100
AcDbLine
 10
560.7497952098794
 20
29.65228194551391
 30
0.0
 11
570.7497952098795
 21
29.65228194551391
 31
0.0
  0
LINE
  5
F46
330
2
100
AcDbEntity
  8
0
100
AcDbLine
 10
560.7497952098794
 20
29.65228194551391
 30
0.0
 11
560.7497952098794
 21
41.15228194551377
 31
0.0
  0
LINE
  5
F47
330
2
100
AcDbEntity
  8
0
100
AcDbLine
 10
570.749795209879
 20
29.65228194551391
 30
0.0
 11
570.7497952098795
 21
41.15228194551412
 31
0.0
  0
LINE
  5
F48
330
2
100
AcDbEntity
  8
0
100
AcDbLine
 10
570.7497952098795
 20
29.65228194551391
 30
0.0
 11
560.7497952098794
 21
41.15228194551377
 31
0.0
  0
LINE
  5
F49
330
2
100
AcDbEntity
  8
0
100
AcDbLine
 10
560.7497952098794
 20
29.65228194551391
 30
0.0
 11
570.7497952098795
 21
41.15228194551412
 31
0.0
  0
LINE
  5
F4A
330
2
100
AcDbEntity
  8
0
100
AcDbLine
 10
560.7497952098794
 20
41.15228194551377
 30
0.0
 11
570.7497952098795
 21
41.15228194551412
 31
0.0
  0
LINE
  5
F4B
330
2
100
AcDbEntity
  8
0
100
AcDbLine
 10
426.7497952098876
 20
29.65228194551446
 30
0.0
 11
425.7497952098876
 21
29.07493167632492
 31
0.0
  0
LINE
  5
F4C
330
2
100
AcDbEntity
  8
0
100
AcDbLine
 10
438.03124105769
 20
29.22975556366807
 30
0.0
 11
436.7497952098908
 21
29.27450463873521
 31
0.0
  0
LINE
  5
F4D
330
2
100
AcDbEntity
  8
0
100
AcDbLine
 10
436.7497952098908
 20
29.27450463873521
 30
0.0
 11
436.7497952098831
 21
29.65228194551446
 31
0.0
  0
LINE
  5
F4E
330
2
100
AcDbEntity
  8
0
100
AcDbLine
 10
570.7497952098781
 20
29.65228194551446
 30
0.0
 11
560.7497952098794
 21
29.65228194551446
 31
0.0
  0
LINE
  5
F4F
330
2
100
AcDbEntity
  8
0
100
AcDbLine
 10
570.7497952098795
 20
29.65228194551446
 30
0.0
 11
571.7497952098795
 21
29.07493167632447
 31
0.0
  0
LINE
  5
F50
330
2
100
AcDbEntity
  8
0
100
AcDbLine
 10
560.7497952098799
 20
29.15242004356128
 30
0.0
 11
558.9421954141974
 21
29.10508637708199
 31
0.0
  0
LINE
  5
F51
330
2
100
AcDbEntity
  8
0
100
AcDbLine
 10
560.7497952098799
 20
29.15242004356128
 30
0.0
 11
560.7497952098794
 21
29.65228194551391
 31
0.0
  0
SPLINE
  5
F52
330
2
100
AcDbEntity
  8
HOJO
100
AcDbSpline
210
0.0
220
0.0
230
1.0
 70
     8
 71
     3
 72
    29
 73
    25
 74
    23
 42
0.0000000001
 43
0.0000000001
 44
0.0000000001
 40
0.0
 40
0.0
 40
0.0
 40
0.0
 40
6.445364168595244
 40
11.6005599060358
 40
16.43116643330773
 40
23.39935915012152
 40
28.86322000075915
 40
37.18645652083846
 40
41.19132774222779
 40
51.06271043180663
 40
57.00790235621015
 40
65.41939714830168
 40
72.69987336758835
 40
79.44282627976336
 40
87.34366366321456
 40
98.11595080058189
 40
106.7574459398993
 40
119.0295999011755
 40
129.4569000974927
 40
143.0549393859583
 40
150.8384148048675
 40
157.773767995327
 40
165.4374744840414
 40
170.8106207466574
 40
170.8106207466574
 40
170.8106207466574
 40
170.8106207466574
 10
425.7497952098881
 20
26.50988476111979
 30
0.0
 10
427.8530018543898
 20
26.50778114719695
 30
0.0
 10
431.6384163067175
 20
26.50399499971285
 30
0.0
 10
437.6104604287332
 20
27.38722492651337
 30
0.0
 10
439.9279911163439
 20
33.34011894804184
 30
0.0
 10
438.1905943768115
 20
39.26648111782469
 30
0.0
 10
443.8966866319717
 20
45.06918088215347
 30
0.0
 10
450.2170570960827
 20
43.56074598570518
 30
0.0
 10
457.4657396194482
 20
44.96878668747562
 30
0.0
 10
464.1188484384916
 20
45.38119389886114
 30
0.0
 10
472.1705339322989
 20
44.48784342765467
 30
0.0
 10
479.369834461895
 20
45.38348472053541
 30
0.0
 10
486.8608910489493
 20
45.26352350353583
 30
0.0
 10
494.1274323615837
 20
44.25814023689785
 30
0.0
 10
502.608966414214
 20
45.02605829948895
 30
0.0
 10
511.7132786095819
 20
44.14657588355544
 30
0.0
 10
522.2271134912815
 20
44.50308461303158
 30
0.0
 10
532.9056792815966
 20
45.31697543001228
 30
0.0
 10
544.1240902909616
 20
42.8592196823791
 30
0.0
 10
557.9898622067559
 20
46.57779654227506
 30
0.0
 10
559.7043643456308
 20
35.60643419570379
 30
0.0
 10
557.4767674937111
 20
27.20632092373171
 30
0.0
 10
565.8676456453422
 20
25.25613203888648
 30
0.0
 10
570.0330297757854
 20
25.4738851428113
 30
0.0
 10
571.749795209879
 20
25.56363220821458
 30
0.0
 11
425.7497952098881
 21
26.50988476111979
 31
0.0
 11
432.1924358040384
 21
26.6972385452218
 31
0.0
 11
437.1249317478093
 21
28.1960803834454
 31
0.0
 11
439.1664003072608
 21
32.57411253751797
 31
0.0
 11
439.5060387281725
 21
39.53402313189326
 31
0.0
 11
443.2844898148694
 21
43.48080445096456
 31
0.0
 11
451.5897548203017
 21
44.02746646603645
 31
0.0
 11
455.5607284654786
 21
44.54742974283909
 31
0.0
 11
465.4162083145718
 21
45.10753075893808
 31
0.0
 11
471.3518944170616
 21
44.77146899273793
 31
0.0
 11
479.7514458999183
 21
45.21955327523847
 31
0.0
 11
487.0310602396646
 21
45.10753075893808
 31
0.0
 11
493.7507105897627
 21
44.54742974283909
 31
0.0
 11
501.6494230078758
 21
44.73066045993164
 31
0.0
 11
512.4145396433475
 21
44.3376795512604
 31
0.0
 11
521.0542196959802
 21
44.51478638621575
 31
0.0
 11
533.3242452810143
 21
44.74333614420447
 31
0.0
 11
543.7181449941424
 21
43.90940680813855
 31
0.0
 11
557.2783622138874
 21
42.8959072057778
 31
0.0
 11
559.0968660263067
 21
35.32784711874228
 31
0.0
 11
559.2613381515682
 21
28.39444443344928
 31
0.0
 11
566.3766728061371
 21
25.54761990449515
 31
0.0
 11
571.749795209879
 21
25.56363220821458
 31
0.0
  0
LINE
  5
F53
330
2
100
AcDbEntity
  8
0
100
AcDbLine
 10
426.749795209884
 20
23.15228194551437
 30
0.0
 11
426.749795209884
 21
26.50965484978007
 31
0.0
  0
LINE
  5
F54
330
2
100
AcDbEntity
  8
0
100
AcDbLine
 10
428.2497952098845
 20
23.45228194551432
 30
0.0
 11
428.2497952098845
 21
26.51932091618206
 31
0.0
  0
LINE
  5
F55
330
2
100
AcDbEntity
  8
0
100
AcDbLine
 10
430.249795209884
 20
23.35228194551422
 30
0.0
 11
430.249795209884
 21
26.57351811584698
 31
0.0
  0
LINE
  5
F56
330
2
100
AcDbEntity
  8
0
100
AcDbLine
 10
433.749795209884
 20
23.15228194551397
 30
0.0
 11
433.749795209884
 21
26.87753813716625
 31
0.0
  0
LINE
  5
F57
330
2
100
AcDbEntity
  8
0
100
AcDbLine
 10
434.2497952098844
 20
20.65228194551374
 30
0.0
 11
434.2497952098844
 21
26.96599778939929
 31
0.0
  0
LINE
  5
F58
330
2
100
AcDbEntity
  8
0
100
AcDbLine
 10
430.4497952098842
 20
23.15228194551394
 30
0.0
 11
430.4497952098842
 21
26.58259772934596
 31
0.0
  0
LINE
  5
F59
330
2
100
AcDbEntity
  8
0
 48
0.5
100
AcDbLine
 10
450.7497952098872
 20
-1.843354620589252
 30
0.0
 11
552.7497952098794
 21
-0.9532141059339522
 31
0.0
  0
LINE
  5
F5A
330
2
100
AcDbEntity
  8
0
 48
0.5
100
AcDbLine
 10
450.7497952098872
 20
133.1479185116181
 30
0.0
 11
552.7497952098721
 21
132.2577779969629
 31
0.0
  0
LINE
  5
F5B
330
2
100
AcDbEntity
  8
0
100
AcDbLine
 10
213.6146329175232
 20
404.3678685566773
 30
0.0
 11
223.6146329175233
 21
404.3678685566773
 31
0.0
  0
LINE
  5
F5C
330
2
100
AcDbEntity
  8
0
100
AcDbLine
 10
213.6146329175232
 20
404.3678685566773
 30
0.0
 11
213.6146329175232
 21
400.2665497102478
 31
0.0
  0
LINE
  5
F5D
330
2
100
AcDbEntity
  8
0
100
AcDbLine
 10
223.6146329175233
 20
404.3678685566773
 30
0.0
 11
223.6146329175233
 21
400.2665497102478
 31
0.0
  0
ARC
  5
F5E
330
2
100
AcDbEntity
  8
0
100
AcDbCircle
 10
218.6146329175233
 20
385.0678655566771
 30
0.0
 40
15.99999999999977
100
AcDbArc
 50
108.2099568642829
 51
71.790043135717
  0
ARC
  5
F5F
330
2
100
AcDbEntity
  8
0
100
AcDbCircle
 10
218.6146329175233
 20
385.0678655566771
 30
0.0
 40
17.1547005383793
100
AcDbArc
 50
106.9457019888465
 51
73.05429801115348
  0
LINE
  5
F60
330
2
100
AcDbEntity
  8
0
100
AcDbLine
 10
556.5202955304123
 20
360.5678655566764
 30
0.0
 11
556.5202955304128
 21
409.5678655566776
 31
0.0
  0
LINE
  5
F61
330
2
100
AcDbEntity
  8
0
100
AcDbLine
 10
543.5202955304123
 20
360.5678655566764
 30
0.0
 11
556.5202955304123
 21
360.5678655566762
 31
0.0
  0
LINE
  5
F62
330
2
100
AcDbEntity
  8
0
100
AcDbLine
 10
543.5202955304127
 20
409.5678655566776
 30
0.0
 11
556.5202955304123
 21
409.5678655566776
 31
0.0
  0
CIRCLE
  5
F63
330
2
100
AcDbEntity
  8
HOJO
 48
0.5
100
AcDbCircle
 10
548.0202955304128
 20
385.0678655566774
 30
0.0
 40
4.0
  0
CIRCLE
  5
F64
330
2
100
AcDbEntity
  8
0
 48
0.5
100
AcDbCircle
 10
548.0202955304128
 20
385.0678655566774
 30
0.0
 40
3.2
  0
LINE
  5
F65
330
2
100
AcDbEntity
  8
0
100
AcDbLine
 10
395.5202955304173
 20
360.5678655566765
 30
0.0
 11
395.5202955304173
 21
409.5678655566771
 31
0.0
  0
LINE
  5
F66
330
2
100
AcDbEntity
  8
0
100
AcDbLine
 10
397.5202955304177
 20
360.5678655566765
 30
0.0
 11
395.5202955304173
 21
360.5678655566765
 31
0.0
  0
LINE
  5
F67
330
2
100
AcDbEntity
  8
0
100
AcDbLine
 10
397.5202955304173
 20
409.5678655566777
 30
0.0
 11
395.5202955304173
 21
409.5678655566779
 31
0.0
  0
LINE
  5
F68
330
2
100
AcDbEntity
  8
CENTER
100
AcDbLine
 10
548.0202955304128
 20
376.0342544549927
 30
0.0
 11
548.0202955304128
 21
393.1930715029918
 31
0.0
  0
LINE
  5
F69
330
2
100
AcDbEntity
  8
PHAS
  6
SEKKEI_P_S
100
AcDbLine
 10
405.0202955304173
 20
429.5678655607572
 30
0.0
 11
405.0202955304164
 21
340.5678655525989
 31
0.0
  0
LINE
  5
F6A
330
2
100
AcDbEntity
  8
PHAS
  6
SEKKEI_P_S
100
AcDbLine
 10
371.5202955304164
 20
357.4423131512767
 30
0.0
 11
371.5202955304164
 21
412.6934179539222
 31
0.0
  0
LINE
  5
F6B
330
2
100
AcDbEntity
  8
PHAS
  6
SEKKEI_P_S
100
AcDbLine
 10
395.2202955304171
 20
426.4487141269555
 30
0.0
 11
395.2202955304171
 21
385.0678655525989
 31
0.0
  0
LINE
  5
F6C
330
2
100
AcDbEntity
  8
PHAS
  6
SEKKEI_P_S
100
AcDbLine
 10
405.0202955304164
 20
340.5678655525989
 30
0.0
 11
398.1679383111047
 21
340.6874738927736
 31
0.0
  0
ARC
  5
F6D
330
2
100
AcDbEntity
  8
PHAS
  6
SEKKEI_P_S
100
AcDbCircle
 10
394.2202955304171
 20
348.2287659214225
 30
0.0
 40
1.0
100
AcDbArc
 50
0.0
 51
79.99999999999484
  0
LINE
  5
F6E
330
2
100
AcDbEntity
  8
PHAS
  6
SEKKEI_P_S
100
AcDbLine
 10
394.3939437080832
 20
349.2135736744339
 30
0.0
 11
375.6520546420822
 21
352.5182743862151
 31
0.0
  0
LINE
  5
F6F
330
2
100
AcDbEntity
  8
PHAS
  6
SEKKEI_P_S
100
AcDbLine
 10
395.2202955304171
 20
343.6870169782423
 30
0.0
 11
395.2202955304171
 21
385.0678655525989
 31
0.0
  0
ARC
  5
F70
330
2
100
AcDbEntity
  8
PHAS
  6
SEKKEI_P_S
100
AcDbCircle
 10
376.5202955304164
 20
357.4423131512767
 30
0.0
 40
5.0
100
AcDbArc
 50
180.0
 51
259.9999999999948
  0
ARC
  5
F71
330
2
100
AcDbEntity
  8
PHAS
  6
SEKKEI_P_S
100
AcDbCircle
 10
398.2202955304171
 20
343.6870169782423
 30
0.0
 40
3.0
100
AcDbArc
 50
180.0
 51
268.9999999999721
  0
ARC
  5
F72
330
2
100
AcDbEntity
  8
PHAS
  6
SEKKEI_P_S
100
AcDbCircle
 10
394.2202955304171
 20
421.9069651837763
 30
0.0
 40
1.0
100
AcDbArc
 50
280.0000000000051
 51
0.0
  0
LINE
  5
F73
330
2
100
AcDbEntity
  8
PHAS
  6
SEKKEI_P_S
100
AcDbLine
 10
394.3939437080832
 20
420.9221574307639
 30
0.0
 11
375.6520546420822
 21
417.6174567189837
 31
0.0
  0
ARC
  5
F74
330
2
100
AcDbEntity
  8
PHAS
  6
SEKKEI_P_S
100
AcDbCircle
 10
376.5202955304164
 20
412.6934179539222
 30
0.0
 40
5.0
100
AcDbArc
 50
100.0000000000051
 51
180.0
  0
LINE
  5
F75
330
2
100
AcDbEntity
  8
PHAS
  6
SEKKEI_P_S
100
AcDbLine
 10
405.0202955304173
 20
429.5678655607572
 30
0.0
 11
398.1679383111047
 21
429.4482572205825
 31
0.0
  0
ARC
  5
F76
330
2
100
AcDbEntity
  8
PHAS
  6
SEKKEI_P_S
100
AcDbCircle
 10
398.2202955304171
 20
426.4487141351137
 30
0.0
 40
3.0
100
AcDbArc
 50
91.00000000002784
 51
180.0
  0
LINE
  5
F77
330
2
100
AcDbEntity
  8
CENTER
100
AcDbLine
 10
788.560789058665
 20
679.4012521591505
 30
0.0
 11
768.479492164233
 21
679.4012521591501
 31
0.0
  0
LINE
  5
F78
330
2
100
AcDbEntity
  8
0
100
AcDbLine
 10
755.0946935603158
 20
670.9012521591505
 30
0.0
 11
804.0946935603171
 21
670.9012521591501
 31
0.0
  0
LINE
  5
F79
330
2
100
AcDbEntity
  8
0
100
AcDbLine
 10
755.0946935603158
 20
683.9012521591505
 30
0.0
 11
755.0946935603158
 21
670.9012521591505
 31
0.0
  0
LINE
  5
F7A
330
2
100
AcDbEntity
  8
0
100
AcDbLine
 10
804.0946935603168
 20
683.90125215915
 30
0.0
 11
804.0946935603171
 21
670.9012521591505
 31
0.0
  0
CIRCLE
  5
F7B
330
2
100
AcDbEntity
  8
HOJO
 48
0.5
100
AcDbCircle
 10
779.5946935603167
 20
679.4012521591501
 30
0.0
 40
4.0
  0
CIRCLE
  5
F7C
330
2
100
AcDbEntity
  8
0
 48
0.5
100
AcDbCircle
 10
779.5946935603167
 20
679.4012521591501
 30
0.0
 40
3.2
  0
LINE
  5
F7D
330
2
100
AcDbEntity
  8
0
100
AcDbLine
 10
755.0946935603153
 20
831.9012521591455
 30
0.0
 11
804.0946935603157
 21
831.9012521591455
 31
0.0
  0
LINE
  5
F7E
330
2
100
AcDbEntity
  8
0
100
AcDbLine
 10
755.0946935603153
 20
829.901252159145
 30
0.0
 11
755.0946935603153
 21
831.9012521591455
 31
0.0
  0
LINE
  5
F7F
330
2
100
AcDbEntity
  8
0
100
AcDbLine
 10
804.0946935603162
 20
829.9012521591455
 30
0.0
 11
804.0946935603162
 21
831.9012521591455
 31
0.0
  0
CIRCLE
  5
F86
330
2
100
AcDbEntity
  8
0
100
AcDbCircle
 10
218.6146329157192
 20
385.0678655557381
 30
0.0
 40
24.5
  0
LINE
  5
F87
330
2
100
AcDbEntity
  8
0
100
AcDbLine
 10
1182.56824757898
 20
409.5678655566781
 30
0.0
 11
1182.568247578979
 21
360.5678655566769
 31
0.0
  0
LINE
  5
F88
330
2
100
AcDbEntity
  8
0
100
AcDbLine
 10
1195.56824757898
 20
409.5678655566782
 30
0.0
 11
1182.56824757898
 21
409.5678655566782
 31
0.0
  0
LINE
  5
F89
330
2
100
AcDbEntity
  8
0
100
AcDbLine
 10
1195.568247578979
 20
360.567865556677
 30
0.0
 11
1182.56824757898
 21
360.5678655566769
 31
0.0
  0
LINE
  5
F8A
330
2
100
AcDbEntity
  8
0
100
AcDbLine
 10
1343.568247578975
 20
409.5678655566787
 30
0.0
 11
1343.568247578975
 21
360.5678655566781
 31
0.0
  0
LINE
  5
F8B
330
2
100
AcDbEntity
  8
0
100
AcDbLine
 10
1341.863267071477
 20
409.5678655566787
 30
0.0
 11
1343.568247578975
 21
409.5678655566787
 31
0.0
  0
LINE
  5
F8C
330
2
100
AcDbEntity
  8
0
100
AcDbLine
 10
1341.863267071477
 20
360.5678655566776
 30
0.0
 11
1343.568247578975
 21
360.5678655566774
 31
0.0
  0
LINE
  5
1147
330
2
100
AcDbEntity
  8
0
100
AcDbLine
 10
907.5946935603218
 20
445.0678655566789
 30
0.0
 11
907.5946935603218
 21
325.0678655566771
 31
0.0
  0
LINE
  5
1173
330
2
100
AcDbEntity
  8
0
100
AcDbLine
 10
907.5946935603212
 20
709.4012521591507
 30
0.0
 11
907.5946935603212
 21
830.4012521591516
 31
0.0
  0
LINE
  5
1174
330
2
100
AcDbEntity
  8
0
 48
0.5
100
AcDbLine
 10
929.2771519258355
 20
822.4012521591507
 30
0.0
 11
955.0946935603246
 21
822.4012521591498
 31
0.0
  0
LINE
  5
1175
330
2
100
AcDbEntity
  8
0
 48
0.5
100
AcDbLine
 10
929.3926525314489
 20
717.4012521591508
 30
0.0
 11
955.0946935603247
 21
717.4012521591525
 31
0.0
  0
LINE
  5
1176
330
2
100
AcDbEntity
  8
0
100
AcDbLine
 10
907.5946935603212
 20
709.9012521591498
 30
0.0
 11
919.5946935603167
 21
709.9012521591475
 31
0.0
  0
LINE
  5
1177
330
2
100
AcDbEntity
  8
0
100
AcDbLine
 10
907.5946935603212
 20
829.9012521591507
 30
0.0
 11
919.5946935603167
 21
829.9012521591521
 31
0.0
  0
ARC
  5
1178
330
2
100
AcDbEntity
  8
0
100
AcDbCircle
 10
919.5946935603167
 20
827.9012521591521
 30
0.0
 40
2.0
100
AcDbArc
 50
0.0
 51
90.0
  0
ARC
  5
1179
330
2
100
AcDbEntity
  8
0
100
AcDbCircle
 10
929.2771519258355
 20
830.4012521591513
 30
0.0
 40
8.0
100
AcDbArc
 50
194.4775121859294
 51
232.6089831570099
  0
ARC
  5
117A
330
2
100
AcDbEntity
  8
0
100
AcDbCircle
 10
929.2771519258355
 20
830.4012521591513
 30
0.0
 40
8.0
100
AcDbArc
 50
268.6931248980217
 51
270.0
  0
LINE
  5
117B
330
2
100
AcDbEntity
  8
0
100
AcDbLine
 10
907.5946935603212
 20
830.4012521591507
 30
0.0
 11
919.5946935603167
 21
830.4012521591513
 31
0.0
  0
ARC
  5
117C
330
2
100
AcDbEntity
  8
0
100
AcDbCircle
 10
919.5946935603167
 20
828.4012521591517
 30
0.0
 40
2.0
100
AcDbArc
 50
11.53695903280536
 51
90.0
  0
ARC
  5
117D
330
2
100
AcDbEntity
  8
0
100
AcDbCircle
 10
929.3926525314498
 20
830.4012521591507
 30
0.0
 40
8.0
100
AcDbArc
 50
191.5369590328181
 51
232.6089831569976
  0
ARC
  5
117E
330
2
100
AcDbEntity
  8
0
100
AcDbCircle
 10
929.3926525314498
 20
830.4012521591507
 30
0.0
 40
8.0
100
AcDbArc
 50
267.8655323847083
 51
270.0
  0
LINE
  5
117F
330
2
100
AcDbEntity
  8
0
100
AcDbLine
 10
958.8027928038716
 20
719.9012521591567
 30
0.0
 11
992.0946935603195
 21
719.9012521591519
 31
0.0
  0
ARC
  5
1180
330
2
100
AcDbEntity
  8
0
100
AcDbCircle
 10
979.0946935603185
 20
721.9012521591535
 30
0.0
 40
2.0
100
AcDbArc
 50
180.0
 51
270.0
  0
LINE
  5
1181
330
2
100
AcDbEntity
  8
0
 48
0.5
100
AcDbLine
 10
958.8027928038711
 20
819.9012521591516
 30
0.0
 11
992.0946935603204
 21
819.9012521591509
 31
0.0
  0
ARC
  5
1182
330
2
100
AcDbEntity
  8
0
 48
0.5
100
AcDbCircle
 10
979.0946935603194
 20
817.9012521591507
 30
0.0
 40
2.0
100
AcDbArc
 50
90.0
 51
180.0
  0
LINE
  5
1183
330
2
100
AcDbEntity
  8
0
100
AcDbLine
 10
992.0946935603202
 20
819.9012521591507
 30
0.0
 11
992.0946935603195
 21
719.9012521591517
 31
0.0
  0
LINE
  5
1184
330
2
100
AcDbEntity
  8
0
100
AcDbLine
 10
921.5946935603167
 20
827.9012521591521
 30
0.0
 11
921.5946935603184
 21
711.901252159148
 31
0.0
  0
LINE
  5
1185
330
2
100
AcDbEntity
  8
CENTER
 48
0.5
100
AcDbLine
 10
962.8446935603204
 20
749.9012521591508
 30
0.0
 11
984.3446935603203
 21
749.9012521591508
 31
0.0
  0
LINE
  5
1186
330
2
100
AcDbEntity
  8
0
100
AcDbLine
 10
977.0946935603195
 20
736.4012521591503
 30
0.0
 11
977.0946935603195
 21
721.9012521591507
 31
0.0
  0
ARC
  5
1187
330
2
100
AcDbEntity
  8
0
100
AcDbCircle
 10
974.0946935603194
 20
736.4012521591503
 30
0.0
 40
3.0
100
AcDbArc
 50
0.0
 51
90.0
  0
LINE
  5
1188
330
2
100
AcDbEntity
  8
CENTER
 48
0.5
100
AcDbLine
 10
973.5946935603204
 20
760.6512521591508
 30
0.0
 11
973.5946935603204
 21
739.1512521591508
 31
0.0
  0
LINE
  5
1189
330
2
100
AcDbEntity
  8
0
100
AcDbLine
 10
977.0946935603213
 20
803.4012521591508
 30
0.0
 11
977.0946935603195
 21
817.9012521591507
 31
0.0
  0
LINE
  5
118A
330
2
100
AcDbEntity
  8
0
100
AcDbLine
 10
959.0946935603239
 20
739.4012521591507
 30
0.0
 11
974.0946935603194
 21
739.4012521591503
 31
0.0
  0
ARC
  5
118B
330
2
100
AcDbEntity
  8
0
100
AcDbCircle
 10
959.0946935603239
 20
741.4012521591508
 30
0.0
 40
2.0
100
AcDbArc
 50
180.0
 51
270.0
  0
LINE
  5
118C
330
2
100
AcDbEntity
  8
0
100
AcDbLine
 10
957.0946935603249
 20
798.4012521591507
 30
0.0
 11
957.0946935603249
 21
741.4012521591508
 31
0.0
  0
LINE
  5
118D
330
2
100
AcDbEntity
  8
0
100
AcDbLine
 10
907.5946935603212
 20
709.4012521591516
 30
0.0
 11
919.5946935603167
 21
709.4012521591507
 31
0.0
  0
LINE
  5
118E
330
2
100
AcDbEntity
  8
0
100
AcDbLine
 10
959.0946935603239
 20
800.4012521591507
 30
0.0
 11
974.0946935603213
 21
800.4012521591507
 31
0.0
  0
ARC
  5
118F
330
2
100
AcDbEntity
  8
0
100
AcDbCircle
 10
974.0946935603213
 20
803.4012521591508
 30
0.0
 40
3.0
100
AcDbArc
 50
270.0
 51
0.0
  0
ARC
  5
1190
330
2
100
AcDbEntity
  8
0
100
AcDbCircle
 10
959.0946935603239
 20
798.4012521591507
 30
0.0
 40
2.0
100
AcDbArc
 50
90.0
 51
180.0
  0
ARC
  5
1191
330
2
100
AcDbEntity
  8
0
100
AcDbCircle
 10
919.5946935603167
 20
711.9012521591494
 30
0.0
 40
2.0
100
AcDbArc
 50
270.0
 51
0.0
  0
ARC
  5
1192
330
2
100
AcDbEntity
  8
0
100
AcDbCircle
 10
929.2771519258355
 20
709.4012521591503
 30
0.0
 40
8.0
100
AcDbArc
 50
90.0
 51
91.30687510195221
  0
ARC
  5
1193
330
2
100
AcDbEntity
  8
0
100
AcDbCircle
 10
929.2771519258355
 20
709.4012521591503
 30
0.0
 40
8.0
100
AcDbArc
 50
127.39101684299
 51
165.5224878140705
  0
ARC
  5
1194
330
2
100
AcDbEntity
  8
0
100
AcDbCircle
 10
919.5946935603167
 20
711.4012521591498
 30
0.0
 40
2.0
100
AcDbArc
 50
270.0
 51
348.4630409671946
  0
ARC
  5
1195
330
2
100
AcDbEntity
  8
0
100
AcDbCircle
 10
929.3926525314498
 20
709.4012521591507
 30
0.0
 40
8.0
100
AcDbArc
 50
90.0
 51
92.13446761527865
  0
ARC
  5
1196
330
2
100
AcDbEntity
  8
0
100
AcDbCircle
 10
929.3926525314498
 20
709.4012521591507
 30
0.0
 40
8.0
100
AcDbArc
 50
127.3910168430023
 51
168.4630409671946
  0
LINE
  5
1197
330
2
100
AcDbEntity
  8
0
100
AcDbLine
 10
954.0946935603217
 20
727.0812521591579
 30
0.0
 11
974.0946935603181
 21
727.0812521591542
 31
0.0
  0
ARC
  5
1198
330
2
100
AcDbEntity
  8
0
100
AcDbCircle
 10
954.0946935603209
 20
724.0812521591578
 30
0.0
 40
3.0
100
AcDbArc
 50
0.0000000000130276
 51
90.0
  0
LINE
  5
1199
330
2
100
AcDbEntity
  8
0
100
AcDbLine
 10
957.0946935603199
 20
724.0812521591583
 30
0.0
 11
957.0946935603199
 21
721.9012521591571
 31
0.0
  0
ARC
  5
119A
330
2
100
AcDbEntity
  8
0
100
AcDbCircle
 10
959.0946935603199
 20
721.9012521591571
 30
0.0
 40
2.0
100
AcDbArc
 50
180.0
 51
270.0
  0
ARC
  5
119B
330
2
100
AcDbEntity
  8
0
100
AcDbCircle
 10
955.0946935603244
 20
719.4012521591512
 30
0.0
 40
2.0
100
AcDbArc
 50
270.0
 51
337.9756871629276
  0
ARC
  5
119C
330
2
100
AcDbEntity
  8
0
100
AcDbCircle
 10
958.8027928038711
 20
717.9012521591494
 30
0.0
 40
2.0
100
AcDbArc
 50
90.0
 51
157.9756871629276
  0
ARC
  5
119D
330
2
100
AcDbEntity
  8
0
 48
0.5
100
AcDbCircle
 10
959.094693560319
 20
817.9012521591516
 30
0.0
 40
2.0
100
AcDbArc
 50
90.0
 51
180.0
  0
LINE
  5
119E
330
2
100
AcDbEntity
  8
0
 48
0.5
100
AcDbLine
 10
954.0946935603189
 20
812.7212521591518
 30
0.0
 11
974.094693560319
 21
812.7212521591518
 31
0.0
  0
ARC
  5
119F
330
2
100
AcDbEntity
  8
0
 48
0.5
100
AcDbCircle
 10
954.0946935603189
 20
815.7212521591514
 30
0.0
 40
3.0
100
AcDbArc
 50
270.0
 51
0.0
  0
LINE
  5
11A0
330
2
100
AcDbEntity
  8
0
100
AcDbLine
 10
957.094693560319
 20
817.9012521591516
 30
0.0
 11
957.094693560319
 21
815.7212521591514
 31
0.0
  0
ARC
  5
11A1
330
2
100
AcDbEntity
  8
0
100
AcDbCircle
 10
955.0946935603244
 20
820.4012521591502
 30
0.0
 40
2.0
100
AcDbArc
 50
22.02431283707232
 51
90.0
  0
ARC
  5
11A2
330
2
100
AcDbEntity
  8
0
100
AcDbCircle
 10
958.8027928038711
 20
821.9012521591521
 30
0.0
 40
2.0
100
AcDbArc
 50
202.0243128370723
 51
270.0
  0
ARC
  5
1208
330
2
100
AcDbEntity
  8
0
100
AcDbCircle
 10
407.4373094132726
 20
435.0678655566873
 30
0.0
 40
10.0
100
AcDbArc
 50
134.6637861676429
 51
179.5225462226762
  0
LINE
  5
1209
330
2
100
AcDbEntity
  8
0
100
AcDbLine
 10
397.4376566174114
 20
435.151195996653
 30
0.0
 11
397.2244621970762
 21
409.5678655566779
 31
0.0
  0
ARC
  5
120C
330
2
100
AcDbEntity
  8
0
100
AcDbCircle
 10
407.4373094132726
 20
335.0678655566677
 30
0.0
 40
10.0
100
AcDbArc
 50
180.4774537773237
 51
225.3362138322008
  0
LINE
  5
120D
330
2
100
AcDbEntity
  8
0
100
AcDbLine
 10
397.4376566174114
 20
334.9845351167015
 30
0.0
 11
397.2244621970762
 21
360.5678655566765
 31
0.0
  0
LINE
  5
120F
330
2
100
AcDbEntity
  8
0
100
AcDbLine
 10
90.61463291665381
 20
445.0678655566791
 30
0.0
 11
90.61463291665381
 21
325.0678655566773
 31
0.0
  0
LINE
  5
1210
330
2
100
AcDbEntity
  8
0
100
AcDbLine
 10
90.61463291665381
 20
445.0678655566782
 30
0.0
 11
78.57733133858232
 21
445.06786555668
 31
0.0
  0
LINE
  5
1211
330
2
100
AcDbEntity
  8
0
100
AcDbLine
 10
90.61463291665381
 20
325.0678655566773
 30
0.0
 11
78.57733133858232
 21
325.0678655566755
 31
0.0
  0
LINE
  5
1212
330
2
100
AcDbEntity
  8
0
100
AcDbLine
 10
40.28620579190351
 20
435.0678655566674
 30
0.0
 11
6.114632916655637
 21
435.0678655566748
 31
0.0
  0
LINE
  5
1213
330
2
100
AcDbEntity
  8
0
 48
0.5
100
AcDbLine
 10
40.28620579190442
 20
335.0678655566764
 30
0.0
 11
6.114632916654727
 21
335.0678655566771
 31
0.0
  0
ARC
  5
1214
330
2
100
AcDbEntity
  8
0
 48
0.5
100
AcDbCircle
 10
19.14948514401214
 20
337.0678655566773
 30
0.0
 40
2.0
100
AcDbArc
 50
270.0
 51
358.9999999999982
  0
LINE
  5
1215
330
2
100
AcDbEntity
  8
0
100
AcDbLine
 10
6.114632916654727
 20
335.0678655566771
 30
0.0
 11
6.114632916655637
 21
435.0678655566746
 31
0.0
  0
LINE
  5
1216
330
2
100
AcDbEntity
  8
0
100
AcDbLine
 10
76.58063594826955
 20
327.0329607438009
 30
0.0
 11
75.56763291665459
 21
385.0678655566764
 31
0.0
  0
ARC
  5
1217
330
2
100
AcDbEntity
  8
0
100
AcDbCircle
 10
78.58033133858237
 20
327.0678655566755
 30
0.0
 40
2.0
100
AcDbArc
 50
181.0000000000017
 51
270.0
  0
ARC
  5
1218
330
2
100
AcDbEntity
  8
0
100
AcDbCircle
 10
68.89487297306345
 20
324.5678655566764
 30
0.0
 40
8.0
100
AcDbArc
 50
14.4775121859287
 51
52.60898312772083
  0
LINE
  5
1219
330
2
100
AcDbEntity
  8
0
100
AcDbLine
 10
21.40614194886609
 20
351.7542703233705
 30
0.0
 11
21.14918053432495
 21
337.0329607438027
 31
0.0
  0
ARC
  5
121A
330
2
100
AcDbEntity
  8
0
100
AcDbCircle
 10
24.40034522569192
 20
351.5678655566773
 30
0.0
 40
3.0
100
AcDbArc
 50
90.0
 51
178.9999999999982
  0
LINE
  5
121B
330
2
100
AcDbEntity
  8
CENTER
100
AcDbLine
 10
24.61463291665654
 20
428.7195912600434
 30
0.0
 11
24.61463291665654
 21
443.2909506812936
 31
0.0
  0
LINE
  5
121C
330
2
100
AcDbEntity
  8
0
100
AcDbLine
 10
90.61463291665381
 20
385.0678655566773
 30
0.0
 11
6.114632916655182
 21
385.0678655566771
 31
0.0
  0
LINE
  5
121D
330
2
100
AcDbEntity
  8
0
 48
0.5
100
AcDbLine
 10
68.82507663032858
 20
332.5678655566764
 30
0.0
 11
44.44306004139867
 21
332.5678655566782
 31
0.0
  0
LINE
  5
121E
330
2
100
AcDbEntity
  8
0
 48
0.5
100
AcDbLine
 10
68.82507663015755
 20
437.5678655566773
 30
0.0
 11
44.44306004139867
 21
437.5678655566746
 31
0.0
  0
LINE
  5
121F
330
2
100
AcDbEntity
  8
0
100
AcDbLine
 10
41.70041935427412
 20
435.6536519942958
 30
0.0
 11
43.02884647902715
 21
436.982079119048
 31
0.0
  0
ARC
  5
1220
330
2
100
AcDbEntity
  8
0
100
AcDbCircle
 10
44.44306004139867
 20
435.5678655566755
 30
0.0
 40
2.0
100
AcDbArc
 50
90.0
 51
135.0000000000822
  0
ARC
  5
1221
330
2
100
AcDbEntity
  8
0
100
AcDbCircle
 10
40.28620579190442
 20
437.0678655566664
 30
0.0
 40
2.0
100
AcDbArc
 50
269.9999999999478
 51
315.0000000000828
  0
LINE
  5
1222
330
2
100
AcDbEntity
  8
0
100
AcDbLine
 10
41.70041935427412
 20
334.4820791190588
 30
0.0
 11
43.02884647902715
 21
333.1536519943067
 31
0.0
  0
ARC
  5
1223
330
2
100
AcDbEntity
  8
0
100
AcDbCircle
 10
44.44306004139867
 20
334.5678655566791
 30
0.0
 40
2.0
100
AcDbArc
 50
224.9999999999177
 51
270.0
  0
ARC
  5
1224
330
2
100
AcDbEntity
  8
0
100
AcDbCircle
 10
40.28620579190442
 20
333.0678655566882
 30
0.0
 40
2.0
100
AcDbArc
 50
44.99999999991775
 51
90.00000000005213
  0
LINE
  5
1225
330
2
100
AcDbEntity
  8
0
100
AcDbLine
 10
76.58063594826955
 20
443.1027703695533
 30
0.0
 11
75.56763291665459
 21
385.0678655566778
 31
0.0
  0
ARC
  5
1226
330
2
100
AcDbEntity
  8
0
100
AcDbCircle
 10
78.58033133858237
 20
443.0678655566786
 30
0.0
 40
2.0
100
AcDbArc
 50
90.0
 51
178.9999999999721
  0
ARC
  5
1227
330
2
100
AcDbEntity
  8
0
100
AcDbCircle
 10
68.89487297306345
 20
445.5678655566778
 30
0.0
 40
8.0
100
AcDbArc
 50
307.3910167566154
 51
345.5224878140711
  0
ARC
  5
1228
330
2
100
AcDbEntity
  8
0
 48
0.5
100
AcDbCircle
 10
19.14948514401214
 20
433.0678655566774
 30
0.0
 40
2.0
100
AcDbArc
 50
1.000000000027811
 51
90.0
  0
LINE
  5
1229
330
2
100
AcDbEntity
  8
0
100
AcDbLine
 10
21.40614194886518
 20
418.3814607899864
 30
0.0
 11
21.14918053432495
 21
433.102770369552
 31
0.0
  0
ARC
  5
122A
330
2
100
AcDbEntity
  8
0
100
AcDbCircle
 10
24.40034522569101
 20
418.5678655566773
 30
0.0
 40
3.0
100
AcDbArc
 50
181.0000000000017
 51
270.0
  0
ARC
  5
122B
330
2
100
AcDbEntity
  8
0
 48
0.5
100
AcDbCircle
 10
39.14923839042262
 20
337.0678655566759
 30
0.0
 40
2.0
100
AcDbArc
 50
270.0
 51
358.9999999999982
  0
LINE
  5
122C
330
2
100
AcDbEntity
  8
0
100
AcDbLine
 10
41.14893378073634
 20
337.0329607438018
 30
0.0
 11
41.1916556102135
 21
339.4804927153561
 31
0.0
  0
LINE
  5
122D
330
2
100
AcDbEntity
  8
0
100
AcDbLine
 10
44.19119869568226
 20
342.4281354960428
 30
0.0
 11
24.24035365992518
 21
342.4281354960428
 31
0.0
  0
ARC
  5
122E
330
2
100
AcDbEntity
  8
0
100
AcDbCircle
 10
44.19119869568226
 20
339.4281354960442
 30
0.0
 40
3.0
100
AcDbArc
 50
90.0
 51
179.0000000000242
  0
ARC
  5
122F
330
2
100
AcDbEntity
  8
0
 48
0.5
100
AcDbCircle
 10
39.14923839042262
 20
433.0678655566787
 30
0.0
 40
2.0
100
AcDbArc
 50
0.9999999999757132
 51
90.0
  0
LINE
  5
1230
330
2
100
AcDbEntity
  8
0
100
AcDbLine
 10
41.14893378073634
 20
433.1027703695529
 30
0.0
 11
41.1916556102135
 21
430.6552383979985
 31
0.0
  0
LINE
  5
1231
330
2
100
AcDbEntity
  8
0
100
AcDbLine
 10
44.19119869568226
 20
427.7075956173119
 30
0.0
 11
24.24035365992518
 21
427.7075956173119
 31
0.0
  0
ARC
  5
1232
330
2
100
AcDbEntity
  8
0
100
AcDbCircle
 10
44.19119869568226
 20
430.7075956173105
 30
0.0
 40
3.0
100
AcDbArc
 50
180.9999999999757
 51
270.0
  0
LINE
  5
1233
330
2
100
AcDbEntity
  8
0
100
AcDbLine
 10
38.89882535653601
 20
354.5678655566773
 30
0.0
 11
24.40034522569226
 21
354.5678655566773
 31
0.0
  0
LINE
  5
1234
330
2
100
AcDbEntity
  8
0
100
AcDbLine
 10
38.89882535653601
 20
415.5678655566778
 30
0.0
 11
24.40034522569135
 21
415.5678655566773
 31
0.0
  0
LINE
  5
1235
330
2
100
AcDbEntity
  8
0
100
AcDbLine
 10
41.11463291665518
 20
368.9140186599195
 30
0.0
 11
40.83266647023196
 21
385.0678655566773
 31
0.0
  0
LINE
  5
1236
330
2
100
AcDbEntity
  8
0
100
AcDbLine
 10
40.89852074684881
 20
356.5329607438027
 30
0.0
 11
41.11463291665427
 21
368.9140186599195
 31
0.0
  0
ARC
  5
1237
330
2
100
AcDbEntity
  8
0
100
AcDbCircle
 10
38.89882535653601
 20
356.5678655566773
 30
0.0
 40
2.0
100
AcDbArc
 50
270.0
 51
358.9999999999982
  0
LINE
  5
1238
330
2
100
AcDbEntity
  8
0
100
AcDbLine
 10
41.11463291665518
 20
401.2217124534352
 30
0.0
 11
40.83266647023196
 21
385.0678655566773
 31
0.0
  0
LINE
  5
1239
330
2
100
AcDbEntity
  8
0
100
AcDbLine
 10
40.89852074684881
 20
413.6027703695519
 30
0.0
 11
41.11463291665427
 21
401.2217124534352
 31
0.0
  0
ARC
  5
123A
330
2
100
AcDbEntity
  8
0
100
AcDbCircle
 10
38.89882535653601
 20
413.5678655566773
 30
0.0
 40
2.0
100
AcDbArc
 50
1.000000000001762
 51
90.0
  0
LINE
  5
123F
330
2
100
AcDbEntity
  8
0
100
AcDbLine
 10
29.61463291665655
 20
439.0678655566714
 30
0.0
 11
19.61463291665654
 21
439.0678655566714
 31
0.0
  0
ARC
  5
1240
330
2
100
AcDbEntity
  8
0
100
AcDbCircle
 10
19.61463291665654
 20
435.0678655566714
 30
0.0
 40
4.0
100
AcDbArc
 50
90.0
 51
180.0
  0
ARC
  5
1241
330
2
100
AcDbEntity
  8
0
100
AcDbCircle
 10
29.61463291665655
 20
435.0678655566714
 30
0.0
 40
4.0
100
AcDbArc
 50
0.0
 51
90.0
  0
CIRCLE
  5
1245
330
2
100
AcDbEntity
  8
0
100
AcDbCircle
 10
973.5946935603204
 20
749.9012521591508
 30
0.0
 40
9.0
  0
LINE
  5
1246
330
2
100
AcDbEntity
  8
0
100
AcDbLine
 10
921.5946935603168
 20
813.2951734503745
 30
0.0
 11
923.0946935603174
 21
813.2951734503745
 31
0.0
  0
LINE
  5
1247
330
2
100
AcDbEntity
  8
0
100
AcDbLine
 10
921.5946935603168
 20
824.7951734503745
 30
0.0
 11
923.0946935603176
 21
824.7951734503745
 31
0.0
  0
LINE
  5
1248
330
2
100
AcDbEntity
  8
0
100
AcDbLine
 10
928.6946935603172
 20
814.0451734503745
 30
0.0
 11
929.0946935603168
 21
814.7379937734017
 31
0.0
  0
LINE
  5
1249
330
2
100
AcDbEntity
  8
0
100
AcDbLine
 10
923.0946935603174
 20
813.2951734503745
 30
0.0
 11
923.0946935603176
 21
824.7951734503745
 31
0.0
  0
LINE
  5
124A
330
2
100
AcDbEntity
  8
0
100
AcDbLine
 10
928.6946935603172
 20
814.0451734503745
 30
0.0
 11
928.6946935603173
 21
824.0451734503745
 31
0.0
  0
LINE
  5
124B
330
2
100
AcDbEntity
  8
0
100
AcDbLine
 10
923.0946935603174
 20
814.0451734503745
 30
0.0
 11
928.6946935603172
 21
814.0451734503745
 31
0.0
  0
LINE
  5
124C
330
2
100
AcDbEntity
  8
0
100
AcDbLine
 10
923.0946935603176
 20
824.0451734503745
 30
0.0
 11
928.6946935603173
 21
824.0451734503745
 31
0.0
  0
LINE
  5
124D
330
2
100
AcDbEntity
  8
0
100
AcDbLine
 10
928.6946935603173
 20
824.0451734503745
 30
0.0
 11
929.0946935603169
 21
823.3523531273473
 31
0.0
  0
LINE
  5
124E
330
2
100
AcDbEntity
  8
0
100
AcDbLine
 10
929.0946935603168
 20
814.7379937734017
 30
0.0
 11
929.0946935603169
 21
823.3523531273473
 31
0.0
  0
LINE
  5
124F
330
2
100
AcDbEntity
  8
0
 48
12.0
100
AcDbLine
 10
921.5946935603168
 20
824.7951734503745
 30
0.0
 11
921.5946935603168
 21
813.2951734503745
 31
0.0
  0
LINE
  5
1264
330
2
100
AcDbEntity
  8
0
100
AcDbLine
 10
76.32507663032868
 20
341.6739442629698
 30
0.0
 11
74.82507663032811
 21
341.6739442629698
 31
0.0
  0
LINE
  5
1265
330
2
100
AcDbEntity
  8
0
100
AcDbLine
 10
76.32507663032857
 20
330.1739442629698
 30
0.0
 11
74.82507663032777
 21
330.1739442629698
 31
0.0
  0
LINE
  5
1266
330
2
100
AcDbEntity
  8
0
100
AcDbLine
 10
69.22507663032831
 20
340.9239442629698
 30
0.0
 11
68.82507663032868
 21
340.2311239399425
 31
0.0
  0
LINE
  5
1267
330
2
100
AcDbEntity
  8
0
100
AcDbLine
 10
74.82507663032811
 20
341.6739442629698
 30
0.0
 11
74.82507663032777
 21
330.1739442629698
 31
0.0
  0
LINE
  5
1268
330
2
100
AcDbEntity
  8
0
100
AcDbLine
 10
69.22507663032831
 20
340.9239442629698
 30
0.0
 11
69.22507663032821
 21
330.9239442629698
 31
0.0
  0
LINE
  5
1269
330
2
100
AcDbEntity
  8
0
100
AcDbLine
 10
74.82507663032811
 20
340.9239442629698
 30
0.0
 11
69.22507663032831
 21
340.9239442629698
 31
0.0
  0
LINE
  5
126A
330
2
100
AcDbEntity
  8
0
100
AcDbLine
 10
74.82507663032777
 20
330.9239442629698
 30
0.0
 11
69.22507663032821
 21
330.9239442629698
 31
0.0
  0
LINE
  5
126B
330
2
100
AcDbEntity
  8
0
100
AcDbLine
 10
69.22507663032821
 20
330.9239442629698
 30
0.0
 11
68.82507663032857
 21
331.616764585997
 31
0.0
  0
LINE
  5
126C
330
2
100
AcDbEntity
  8
0
100
AcDbLine
 10
68.82507663032868
 20
340.2311239399425
 30
0.0
 11
68.82507663032857
 21
331.616764585997
 31
0.0
  0
LINE
  5
126D
330
2
100
AcDbEntity
  8
0
 48
12.0
100
AcDbLine
 10
76.32507663032857
 20
330.1739442629698
 30
0.0
 11
76.32507663032868
 21
341.6739442629698
 31
0.0
  0
LINE
  5
126E
330
2
100
AcDbEntity
  8
0
100
AcDbLine
 10
76.32507663015758
 20
439.9617868405764
 30
0.0
 11
74.82507663015713
 21
439.9617868405764
 31
0.0
  0
LINE
  5
126F
330
2
100
AcDbEntity
  8
0
100
AcDbLine
 10
76.32507663015747
 20
428.4617868405764
 30
0.0
 11
74.82507663015667
 21
428.4617868405764
 31
0.0
  0
LINE
  5
1270
330
2
100
AcDbEntity
  8
0
100
AcDbLine
 10
69.22507663015721
 20
439.2117868405764
 30
0.0
 11
68.82507663015758
 21
438.5189665175492
 31
0.0
  0
LINE
  5
1271
330
2
100
AcDbEntity
  8
0
100
AcDbLine
 10
74.82507663015701
 20
439.9617868405764
 30
0.0
 11
74.82507663015667
 21
428.4617868405764
 31
0.0
  0
LINE
  5
1272
330
2
100
AcDbEntity
  8
0
100
AcDbLine
 10
69.22507663015721
 20
439.2117868405764
 30
0.0
 11
69.22507663015711
 21
429.2117868405764
 31
0.0
  0
LINE
  5
1273
330
2
100
AcDbEntity
  8
0
100
AcDbLine
 10
74.82507663015713
 20
439.2117868405764
 30
0.0
 11
69.22507663015721
 21
439.2117868405764
 31
0.0
  0
LINE
  5
1274
330
2
100
AcDbEntity
  8
0
100
AcDbLine
 10
74.82507663015667
 20
429.2117868405764
 30
0.0
 11
69.22507663015711
 21
429.2117868405764
 31
0.0
  0
LINE
  5
1275
330
2
100
AcDbEntity
  8
0
100
AcDbLine
 10
69.22507663015711
 20
429.2117868405764
 30
0.0
 11
68.82507663015747
 21
429.9046071636037
 31
0.0
  0
LINE
  5
1276
330
2
100
AcDbEntity
  8
0
100
AcDbLine
 10
68.82507663015758
 20
438.5189665175492
 30
0.0
 11
68.82507663015747
 21
429.9046071636037
 31
0.0
  0
LINE
  5
1277
330
2
100
AcDbEntity
  8
0
 48
12.0
100
AcDbLine
 10
76.32507663015747
 20
428.4617868405764
 30
0.0
 11
76.32507663015758
 21
439.9617868405764
 31
0.0
  0
LINE
  5
12DC
330
2
100
AcDbEntity
  8
0
100
AcDbLine
 10
921.5946935603168
 20
726.507330867927
 30
0.0
 11
923.0946935603174
 21
726.507330867927
 31
0.0
  0
LINE
  5
12DD
330
2
100
AcDbEntity
  8
0
100
AcDbLine
 10
921.5946935603168
 20
715.007330867927
 30
0.0
 11
923.0946935603176
 21
715.007330867927
 31
0.0
  0
LINE
  5
12DE
330
2
100
AcDbEntity
  8
0
100
AcDbLine
 10
928.6946935603172
 20
725.757330867927
 30
0.0
 11
929.0946935603168
 21
725.0645105448998
 31
0.0
  0
LINE
  5
12DF
330
2
100
AcDbEntity
  8
0
100
AcDbLine
 10
923.0946935603174
 20
726.507330867927
 30
0.0
 11
923.0946935603176
 21
715.007330867927
 31
0.0
  0
LINE
  5
12E0
330
2
100
AcDbEntity
  8
0
100
AcDbLine
 10
928.6946935603172
 20
725.757330867927
 30
0.0
 11
928.6946935603173
 21
715.757330867927
 31
0.0
  0
LINE
  5
12E1
330
2
100
AcDbEntity
  8
0
100
AcDbLine
 10
923.0946935603174
 20
725.757330867927
 30
0.0
 11
928.6946935603172
 21
725.757330867927
 31
0.0
  0
LINE
  5
12E2
330
2
100
AcDbEntity
  8
0
100
AcDbLine
 10
923.0946935603176
 20
715.757330867927
 30
0.0
 11
928.6946935603173
 21
715.757330867927
 31
0.0
  0
LINE
  5
12E3
330
2
100
AcDbEntity
  8
0
100
AcDbLine
 10
928.6946935603173
 20
715.757330867927
 30
0.0
 11
929.0946935603169
 21
716.4501511909543
 31
0.0
  0
LINE
  5
12E4
330
2
100
AcDbEntity
  8
0
100
AcDbLine
 10
929.0946935603168
 20
725.0645105448998
 30
0.0
 11
929.0946935603169
 21
716.4501511909543
 31
0.0
  0
LINE
  5
12E5
330
2
100
AcDbEntity
  8
0
 48
12.0
100
AcDbLine
 10
921.5946935603168
 20
715.007330867927
 30
0.0
 11
921.5946935603168
 21
726.507330867927
 31
0.0
  0
LINE
  5
12E6
330
2
100
AcDbEntity
  8
CENTER
  6
CENTERX2
100
AcDbLine
 10
918.5946935603171
 20
819.0451734503749
 30
0.0
 11
932.0946935603179
 21
819.0451734503744
 31
0.0
  0
LINE
  5
12E7
330
2
100
AcDbEntity
  8
CENTER
  6
CENTERX2
100
AcDbLine
 10
918.5946935603169
 20
720.7573308679275
 30
0.0
 11
932.0946935603178
 21
720.757330867927
 31
0.0
  0
LINE
  5
12EA
330
2
100
AcDbEntity
  8
CENTER
  6
CENTERX2
100
AcDbLine
 10
79.32507663015758
 20
434.2117868405766
 30
0.0
 11
65.8189673574318
 21
434.2117868405764
 31
0.0
  0
LINE
  5
12EB
330
2
100
AcDbEntity
  8
CENTER
  6
CENTERX2
100
AcDbLine
 10
79.32507663032868
 20
335.92394426297
 30
0.0
 11
65.8189673576029
 21
335.9239442629698
 31
0.0
  0
TEXT
  5
1B1C
330
2
100
AcDbEntity
  8
TITLE
100
AcDbText
 10
401.3548919300465
 20
808.9742159285346
 30
0.0
 40
10.0
  1
AFCZ32S-7.5~10M2000K22
100
AcDbText
  0
TEXT
  5
1B1D
330
2
100
AcDbEntity
  8
TITLE
100
AcDbText
 10
401.3548919300465
 20
792.9321720757311
 30
0.0
 40
10.0
  1
AFCZ32S-3~5M3000K22
100
AcDbText
  0
TEXT
  5
1B1E
330
2
100
AcDbEntity
  8
TITLE
100
AcDbText
 10
401.3548919300465
 20
777.8495143147238
 30
0.0
 40
10.0
  1
AFCZ32S-7.5~10L2000K22
100
AcDbText
  0
TEXT
  5
1B1F
330
2
100
AcDbEntity
  8
TITLE
100
AcDbText
 10
401.3548919300465
 20
761.3101598546195
 30
0.0
 40
10.0
  1
AFCZ32S-3~5L3000K22
100
AcDbText
  0
LINE
  5
1D94
330
2
100
AcDbEntity
  8
0
100
AcDbLine
 10
907.5946935603218
 20
445.067865556679
 30
0.0
 11
907.5946935603218
 21
325.0678655566772
 31
0.0
  0
LINE
  5
1FEE
330
2
100
AcDbEntity
  8
0
100
AcDbLine
 10
907.5946935603218
 20
445.067865556679
 30
0.0
 11
907.5946935603218
 21
325.0678655566772
 31
0.0
  0
LINE
  5
1FEF
330
2
100
AcDbEntity
  8
0
100
AcDbLine
 10
907.5946935603218
 20
445.0678655566781
 30
0.0
 11
919.6319951383932
 21
445.0678655566798
 31
0.0
  0
LINE
  5
1FF0
330
2
100
AcDbEntity
  8
0
100
AcDbLine
 10
907.5946935603218
 20
325.0678655566772
 30
0.0
 11
919.6319951383932
 21
325.0678655566753
 31
0.0
  0
ARC
  5
1FF1
330
2
100
AcDbEntity
  8
0
 48
0.5
100
AcDbCircle
 10
979.0598413329638
 20
337.0678655566771
 30
0.0
 40
2.0
100
AcDbArc
 50
181.0000000000017
 51
270.0
  0
LINE
  5
1FF2
330
2
100
AcDbEntity
  8
0
100
AcDbLine
 10
921.6286905287063
 20
327.0329607438007
 30
0.0
 11
922.6416935603213
 21
385.0678655566762
 31
0.0
  0
ARC
  5
1FF3
330
2
100
AcDbEntity
  8
0
100
AcDbCircle
 10
919.6289951383935
 20
327.0678655566753
 30
0.0
 40
2.0
100
AcDbArc
 50
270.0
 51
358.9999999999982
  0
ARC
  5
1FF4
330
2
100
AcDbEntity
  8
0
100
AcDbCircle
 10
929.314453503912
 20
324.5678655566762
 30
0.0
 40
8.0
100
AcDbArc
 50
127.3910168722888
 51
165.5224878140705
  0
LINE
  5
1FF5
330
2
100
AcDbEntity
  8
0
100
AcDbLine
 10
976.8031845281095
 20
351.7542703233703
 30
0.0
 11
977.060145942651
 21
337.0329607438025
 31
0.0
  0
ARC
  5
1FF6
330
2
100
AcDbEntity
  8
0
100
AcDbCircle
 10
973.8089812512837
 20
351.5678655566771
 30
0.0
 40
3.0
100
AcDbArc
 50
1.000000000001761
 51
90.0
  0
LINE
  5
1FF7
330
2
100
AcDbEntity
  8
CENTER
100
AcDbLine
 10
973.5946935603189
 20
428.7195912600433
 30
0.0
 11
973.5946935603189
 21
443.2909506812935
 31
0.0
  0
LINE
  5
1FF8
330
2
100
AcDbEntity
  8
0
100
AcDbLine
 10
907.5946935603218
 20
385.0678655566771
 30
0.0
 11
992.0946935603204
 21
385.0678655566769
 31
0.0
  0
LINE
  5
1FF9
330
2
100
AcDbEntity
  8
0
 48
0.5
100
AcDbLine
 10
929.3144535039111
 20
332.5678655566763
 30
0.0
 11
953.7662664355769
 21
332.5678655566781
 31
0.0
  0
LINE
  5
1FFA
330
2
100
AcDbEntity
  8
0
 48
0.5
100
AcDbLine
 10
929.3144535039111
 20
437.5678655566772
 30
0.0
 11
953.7662664355769
 21
437.5678655566744
 31
0.0
  0
LINE
  5
1FFB
330
2
100
AcDbEntity
  8
0
100
AcDbLine
 10
956.5089071227014
 20
435.6536519942956
 30
0.0
 11
955.1804799979484
 21
436.9820791190478
 31
0.0
  0
ARC
  5
1FFC
330
2
100
AcDbEntity
  8
0
100
AcDbCircle
 10
953.7662664355769
 20
435.5678655566753
 30
0.0
 40
2.0
100
AcDbArc
 50
44.99999999991709
 51
90.0
  0
ARC
  5
1FFD
330
2
100
AcDbEntity
  8
0
100
AcDbCircle
 10
957.923120685071
 20
437.0678655566663
 30
0.0
 40
2.0
100
AcDbArc
 50
224.999999999917
 51
270.0000000000521
  0
LINE
  5
1FFE
330
2
100
AcDbEntity
  8
0
100
AcDbLine
 10
956.5089071227014
 20
334.4820791190587
 30
0.0
 11
955.1804799979484
 21
333.1536519943065
 31
0.0
  0
ARC
  5
1FFF
330
2
100
AcDbEntity
  8
0
100
AcDbCircle
 10
953.7662664355769
 20
334.567865556679
 30
0.0
 40
2.0
100
AcDbArc
 50
270.0
 51
315.0000000000829
  0
ARC
  5
2000
330
2
100
AcDbEntity
  8
0
100
AcDbCircle
 10
957.923120685071
 20
333.0678655566881
 30
0.0
 40
2.0
100
AcDbArc
 50
89.99999999994789
 51
135.0000000000828
  0
LINE
  5
2001
330
2
100
AcDbEntity
  8
0
100
AcDbLine
 10
921.6286905287063
 20
443.1027703695532
 30
0.0
 11
922.2745547568623
 21
406.1012335199047
 31
0.0
  0
ARC
  5
2002
330
2
100
AcDbEntity
  8
0
100
AcDbCircle
 10
919.6289951383935
 20
443.0678655566786
 30
0.0
 40
2.0
100
AcDbArc
 50
1.000000000027812
 51
90.0
  0
ARC
  5
2003
330
2
100
AcDbEntity
  8
0
100
AcDbCircle
 10
929.314453503912
 20
445.5678655566776
 30
0.0
 40
8.0
100
AcDbArc
 50
194.4775121859294
 51
232.608983243394
  0
ARC
  5
2004
330
2
100
AcDbEntity
  8
0
 48
0.5
100
AcDbCircle
 10
979.0598413329638
 20
433.0678655566772
 30
0.0
 40
2.0
100
AcDbArc
 50
90.0
 51
178.9999999999721
  0
LINE
  5
2005
330
2
100
AcDbEntity
  8
0
100
AcDbLine
 10
977.0079697811757
 20
430.113600080612
 30
0.0
 11
977.060145942651
 21
433.1027703695518
 31
0.0
  0
ARC
  5
2007
330
2
100
AcDbEntity
  8
0
 48
0.5
100
AcDbCircle
 10
959.060088086553
 20
337.0678655566758
 30
0.0
 40
2.0
100
AcDbArc
 50
181.0000000000017
 51
270.0
  0
LINE
  5
2008
330
2
100
AcDbEntity
  8
0
100
AcDbLine
 10
957.0603926962391
 20
337.0329607438016
 30
0.0
 11
957.017670866762
 21
339.4804927153559
 31
0.0
  0
LINE
  5
2009
330
2
100
AcDbEntity
  8
0
100
AcDbLine
 10
954.0181277812932
 20
342.4281354960426
 30
0.0
 11
973.9689728170503
 21
342.4281354960426
 31
0.0
  0
ARC
  5
200A
330
2
100
AcDbEntity
  8
0
100
AcDbCircle
 10
954.0181277812932
 20
339.428135496044
 30
0.0
 40
3.0
100
AcDbArc
 50
0.9999999999757104
 51
90.0
  0
ARC
  5
200B
330
2
100
AcDbEntity
  8
0
 48
0.5
100
AcDbCircle
 10
959.060088086553
 20
433.0678655566785
 30
0.0
 40
2.0
100
AcDbArc
 50
90.0
 51
179.0000000000242
  0
LINE
  5
200C
330
2
100
AcDbEntity
  8
0
100
AcDbLine
 10
957.0603926962391
 20
433.1027703695527
 30
0.0
 11
957.017670866762
 21
430.6552383979983
 31
0.0
  0
LINE
  5
200D
330
2
100
AcDbEntity
  8
0
100
AcDbLine
 10
954.0181277812932
 20
427.7075956173117
 30
0.0
 11
973.9689728170503
 21
427.7075956173117
 31
0.0
  0
ARC
  5
200E
330
2
100
AcDbEntity
  8
0
100
AcDbCircle
 10
954.0181277812932
 20
430.7075956173103
 30
0.0
 40
3.0
100
AcDbArc
 50
270.0
 51
359.0000000000242
  0
LINE
  5
200F
330
2
100
AcDbEntity
  8
0
100
AcDbLine
 10
959.3105011204395
 20
354.5678655566772
 30
0.0
 11
973.8089812512832
 21
354.5678655566772
 31
0.0
  0
LINE
  5
2010
330
2
100
AcDbEntity
  8
0
100
AcDbLine
 10
959.3105011204395
 20
415.5678655566776
 30
0.0
 11
971.3611029773039
 21
415.5678655566772
 31
0.0
  0
LINE
  5
2011
330
2
100
AcDbEntity
  8
0
100
AcDbLine
 10
957.0946935603203
 20
368.9140186599193
 30
0.0
 11
957.3766600067436
 21
385.0678655566771
 31
0.0
  0
LINE
  5
2012
330
2
100
AcDbEntity
  8
0
100
AcDbLine
 10
957.3108057301267
 20
356.5329607438025
 30
0.0
 11
957.0946935603213
 21
368.9140186599193
 31
0.0
  0
ARC
  5
2013
330
2
100
AcDbEntity
  8
0
100
AcDbCircle
 10
959.3105011204395
 20
356.5678655566772
 30
0.0
 40
2.0
100
AcDbArc
 50
181.0000000000017
 51
270.0
  0
LINE
  5
2014
330
2
100
AcDbEntity
  8
0
100
AcDbLine
 10
957.3108057301267
 20
413.6027703695518
 30
0.0
 11
957.1901261500627
 21
406.6890418580686
 31
0.0
  0
ARC
  5
2015
330
2
100
AcDbEntity
  8
0
100
AcDbCircle
 10
959.3105011204395
 20
413.5678655566771
 30
0.0
 40
2.0
100
AcDbArc
 50
90.0
 51
178.9999999999982
  0
LINE
  5
2017
330
2
100
AcDbEntity
  8
0
100
AcDbLine
 10
1331.568247578979
 20
385.0678655566772
 30
0.0
 11
1331.446006493868
 21
427.0911365878766
 31
0.0
  0
LINE
  5
2019
330
2
100
AcDbEntity
  8
0
100
AcDbLine
 10
1323.446040340224
 20
435.0678655640014
 30
0.0
 11
1239.690454817732
 21
435.0678655640014
 31
0.0
  0
ARC
  5
201A
330
2
100
AcDbEntity
  8
0
100
AcDbCircle
 10
1323.446040340224
 20
427.0678655640014
 30
0.0
 40
8.0
100
AcDbArc
 50
0.166666666662102
 51
90.0
  0
ARC
  5
201B
330
2
100
AcDbEntity
  8
HIDS
  6
SEKKEI_H
100
AcDbCircle
 10
1253.03364210493
 20
433.0678655640014
 30
0.0
 40
2.0
100
AcDbArc
 50
90.0
 51
178.9999999999721
  0
LINE
  5
201C
330
2
100
AcDbEntity
  8
0
100
AcDbLine
 10
1323.446040340266
 20
335.0678655640014
 30
0.0
 11
1239.690454817689
 21
335.0678655640014
 31
0.0
  0
ARC
  5
201D
330
2
100
AcDbEntity
  8
0
100
AcDbCircle
 10
1281.568247578973
 20
385.0678655802559
 30
0.0
 40
52.5
100
AcDbArc
 50
162.0797860355256
 51
197.9202139639882
  0
LINE
  5
201E
330
2
100
AcDbEntity
  8
CENTER
100
AcDbLine
 10
1330.712168872686
 20
346.1739442727786
 30
0.0
 11
1330.712168872686
 21
325.6739442727786
 31
0.0
  0
LINE
  5
201F
330
2
100
AcDbEntity
  8
CENTER
100
AcDbLine
 10
1320.462168872687
 20
335.9239442727786
 30
0.0
 11
1340.962168872687
 21
335.9239442727786
 31
0.0
  0
ARC
  5
2020
330
2
100
AcDbEntity
  8
0
100
AcDbCircle
 10
1281.568247578978
 20
385.0678655802559
 30
0.0
 40
52.5
100
AcDbArc
 50
342.0797860360323
 51
17.92021396446409
  0
ARC
  5
2021
330
2
100
AcDbEntity
  8
HIDS
  6
SEKKEI_H
100
AcDbCircle
 10
1281.568247571659
 20
385.0678655566754
 30
0.0
 40
52.5
100
AcDbArc
 50
17.92021393800853
 51
72.24720986428195
  0
ARC
  5
2022
330
2
100
AcDbEntity
  8
0
 48
0.5
100
AcDbCircle
 10
1281.568247571659
 20
385.0678655566754
 30
0.0
 40
52.5
100
AcDbArc
 50
72.24720986428195
 51
102.3325369910612
  0
ARC
  5
2023
330
2
100
AcDbEntity
  8
HIDS
  6
SEKKEI_H
100
AcDbCircle
 10
1281.568247571659
 20
385.0678655566754
 30
0.0
 40
52.5
100
AcDbArc
 50
102.3325369910612
 51
162.0797860095901
  0
ARC
  5
2024
330
2
100
AcDbEntity
  8
HIDS
  6
SEKKEI_H
100
AcDbCircle
 10
1247.96605798521
 20
429.2396082775186
 30
0.0
 40
3.0
100
AcDbArc
 50
307.2608602757576
 51
358.999999999946
  0
ARC
  5
2025
330
2
100
AcDbEntity
  8
HIDS
  6
SEKKEI_H
100
AcDbCircle
 10
1281.568247578978
 20
385.0678655802604
 30
0.0
 40
52.5
100
AcDbArc
 50
197.9202139639676
 51
252.2472098962364
  0
ARC
  5
2026
330
2
100
AcDbEntity
  8
0
 48
0.5
100
AcDbCircle
 10
1281.568247578978
 20
385.0678655802604
 30
0.0
 40
52.5
100
AcDbArc
 50
252.2472098962364
 51
287.7527901037635
  0
ARC
  5
2027
330
2
100
AcDbEntity
  8
HIDS
  6
SEKKEI_H
100
AcDbCircle
 10
1281.568247578978
 20
385.0678655802604
 30
0.0
 40
52.5
100
AcDbArc
 50
287.7527901037635
 51
342.0797860360323
  0
LINE
  5
2028
330
2
100
AcDbEntity
  8
HIDS
  6
SEKKEI_H
100
AcDbLine
 10
1251.033946714618
 20
433.1027703768778
 30
0.0
 11
1250.96560107068
 21
429.1872510582039
 31
0.0
  0
LINE
  5
2029
330
2
100
AcDbEntity
  8
0
100
AcDbLine
 10
1331.649570022863
 20
445.0678655566845
 30
0.0
 11
1231.486925135094
 21
445.0678655566863
 31
0.0
  0
LINE
  5
202A
330
2
100
AcDbEntity
  8
0
100
AcDbLine
 10
1221.487275112626
 20
435.1515281418488
 30
0.0
 11
1221.068247578975
 21
385.0678655566772
 31
0.0
  0
ARC
  5
202B
330
2
100
AcDbEntity
  8
0
100
AcDbCircle
 10
1231.486925135094
 20
435.0678655566863
 30
0.0
 40
10.0
100
AcDbArc
 50
90.0
 51
179.5206431045573
  0
LINE
  5
202C
330
2
100
AcDbEntity
  8
0
100
AcDbLine
 10
1231.486925135094
 20
325.067865556679
 30
0.0
 11
1331.649570022863
 21
325.0678655566781
 31
0.0
  0
LINE
  5
202D
330
2
100
AcDbEntity
  8
0
100
AcDbLine
 10
1221.487275112626
 20
334.9842029715065
 30
0.0
 11
1221.068247578975
 21
385.0678655566781
 31
0.0
  0
ARC
  5
202E
330
2
100
AcDbEntity
  8
0
100
AcDbCircle
 10
1231.486925135094
 20
335.0678655566699
 30
0.0
 40
10.0
100
AcDbArc
 50
180.4793568954686
 51
270.0
  0
LINE
  5
202F
330
2
100
AcDbEntity
  8
0
100
AcDbLine
 10
1341.649220045332
 20
435.1515281418488
 30
0.0
 11
1342.068247578982
 21
385.0678655566772
 31
0.0
  0
ARC
  5
2030
330
2
100
AcDbEntity
  8
0
100
AcDbCircle
 10
1331.649570022863
 20
435.0678655566863
 30
0.0
 40
10.0
100
AcDbArc
 50
0.4793568954426025
 51
90.0
  0
LINE
  5
2031
330
2
100
AcDbEntity
  8
0
100
AcDbLine
 10
1341.649220045332
 20
334.9842029715074
 30
0.0
 11
1342.068247578982
 21
385.0678655566781
 31
0.0
  0
ARC
  5
2032
330
2
100
AcDbEntity
  8
0
100
AcDbCircle
 10
1331.649570022863
 20
335.0678655566699
 30
0.0
 40
10.0
100
AcDbArc
 50
270.0
 51
359.5206431045312
  0
LINE
  5
2033
330
2
100
AcDbEntity
  8
0
100
AcDbLine
 10
1231.568247578977
 20
385.0678655566772
 30
0.0
 11
1231.690488664088
 21
427.091136587876
 31
0.0
  0
ARC
  5
2034
330
2
100
AcDbEntity
  8
0
100
AcDbCircle
 10
1239.690454817732
 20
427.0678655640014
 30
0.0
 40
8.0
100
AcDbArc
 50
90.0
 51
179.8333333333378
  0
LINE
  5
2035
330
2
100
AcDbEntity
  8
0
100
AcDbLine
 10
1331.568247578979
 20
385.0678655566772
 30
0.0
 11
1331.446006493911
 21
343.0445945401262
 31
0.0
  0
ARC
  5
2036
330
2
100
AcDbEntity
  8
0
100
AcDbCircle
 10
1323.446040340266
 20
343.0678655640014
 30
0.0
 40
8.0
100
AcDbArc
 50
270.0
 51
359.8333333333378
  0
LINE
  5
2037
330
2
100
AcDbEntity
  8
0
100
AcDbLine
 10
1231.568247578977
 20
385.0678655566772
 30
0.0
 11
1231.690488664046
 21
343.0445945401267
 31
0.0
  0
ARC
  5
2038
330
2
100
AcDbEntity
  8
0
100
AcDbCircle
 10
1239.690454817689
 20
343.0678655640014
 30
0.0
 40
8.0
100
AcDbArc
 50
180.1666666666621
 51
270.0
  0
LINE
  5
2039
330
2
100
AcDbEntity
  8
0
100
AcDbLine
 10
1331.568247578979
 20
385.0678655566772
 30
0.0
 11
1342.068247578982
 21
385.0678655566781
 31
0.0
  0
LINE
  5
203A
330
2
100
AcDbEntity
  8
0
100
AcDbLine
 10
1231.568247578977
 20
385.0678655566772
 30
0.0
 11
1221.068247578975
 21
385.0678655566781
 31
0.0
  0
LINE
  5
203B
330
2
100
AcDbEntity
  8
CENTER
100
AcDbLine
 10
1320.462168862876
 20
434.2117868503847
 30
0.0
 11
1340.962168862876
 21
434.2117868503847
 31
0.0
  0
LINE
  5
203C
330
2
100
AcDbEntity
  8
CENTER
100
AcDbLine
 10
1330.712168862876
 20
423.9617868503857
 30
0.0
 11
1330.712168862876
 21
444.4617868503857
 31
0.0
  0
LINE
  5
203D
330
2
100
AcDbEntity
  8
CENTER
100
AcDbLine
 10
1232.42432628527
 20
423.9617868405763
 30
0.0
 11
1232.42432628527
 21
444.4617868405763
 31
0.0
  0
LINE
  5
203E
330
2
100
AcDbEntity
  8
CENTER
100
AcDbLine
 10
1242.674326285269
 20
434.2117868405763
 30
0.0
 11
1222.174326285269
 21
434.2117868405763
 31
0.0
  0
LINE
  5
203F
330
2
100
AcDbEntity
  8
CENTER
100
AcDbLine
 10
1242.67432629508
 20
335.9239442629696
 30
0.0
 11
1222.17432629508
 21
335.9239442629696
 31
0.0
  0
LINE
  5
2040
330
2
100
AcDbEntity
  8
CENTER
100
AcDbLine
 10
1232.42432629508
 20
346.1739442629688
 30
0.0
 11
1232.42432629508
 21
325.6739442629688
 31
0.0
  0
LINE
  5
2041
330
2
100
AcDbEntity
  8
0
100
AcDbLine
 10
1331.568247586303
 20
385.0678655566772
 30
0.0
 11
1333.068247586303
 21
385.0678655571046
 31
0.0
  0
LINE
  5
2042
330
2
100
AcDbEntity
  8
0
100
AcDbLine
 10
1230.068247579348
 20
385.0678655566758
 30
0.0
 11
1231.568247579348
 21
385.0678655566749
 31
0.0
  0
LINE
  5
2043
330
2
100
AcDbEntity
  8
0
100
AcDbLine
 10
1331.568247579349
 20
385.0678655562484
 30
0.0
 11
1333.068247579348
 21
385.0678655566758
 31
0.0
  0
CIRCLE
  5
2044
330
2
100
AcDbEntity
  8
0
100
AcDbCircle
 10
1281.568247571659
 20
385.0678655566754
 30
0.0
 40
40.49999999999863
  0
CIRCLE
  5
2045
330
2
100
AcDbEntity
  8
0
100
AcDbCircle
 10
1281.56824757898
 20
385.0678655566772
 30
0.0
 40
40.99999999999863
  0
CIRCLE
  5
2046
330
2
100
AcDbEntity
  8
0
100
AcDbCircle
 10
1281.568247578978
 20
385.0678655566772
 30
0.0
 40
45.50000000000363
  0
CIRCLE
  5
2047
330
2
100
AcDbEntity
  8
0
100
AcDbCircle
 10
1281.568247578978
 20
385.0678655566772
 30
0.0
 40
46.49999999999929
  0
CIRCLE
  5
2048
330
2
100
AcDbEntity
  8
0
100
AcDbCircle
 10
1281.56824757898
 20
385.0678655566772
 30
0.0
 40
47.50000000000182
  0
ARC
  5
2049
330
2
100
AcDbEntity
  8
HIDS
  6
SEKKEI_H
100
AcDbCircle
 10
1310.102853050101
 20
433.0678655570383
 30
0.0
 40
2.0
100
AcDbArc
 50
0.9999999860471156
 51
89.9999999860084
  0
ARC
  5
204A
330
2
100
AcDbEntity
  8
HIDS
  6
SEKKEI_H
100
AcDbCircle
 10
1315.170437168887
 20
429.2396082693191
 30
0.0
 40
3.0
100
AcDbArc
 50
180.9999999860732
 51
232.7391397102628
  0
LINE
  5
204B
330
2
100
AcDbEntity
  8
HIDS
  6
SEKKEI_H
100
AcDbLine
 10
1312.102548440421
 20
433.1027703694267
 30
0.0
 11
1312.170894083404
 21
429.1872510507365
 31
0.0
  0
ARC
  5
204C
330
2
100
AcDbEntity
  8
HIDS
  6
SEKKEI_H
100
AcDbCircle
 10
1253.03364210493
 20
337.067865549353
 30
0.0
 40
2.0
100
AcDbArc
 50
181.0000000000278
 51
270.0
  0
ARC
  5
204D
330
2
100
AcDbEntity
  8
HIDS
  6
SEKKEI_H
100
AcDbCircle
 10
1247.96605798521
 20
340.8961228358358
 30
0.0
 40
3.0
100
AcDbArc
 50
1.000000000040838
 51
52.73913972424239
  0
LINE
  5
204E
330
2
100
AcDbEntity
  8
HIDS
  6
SEKKEI_H
100
AcDbLine
 10
1251.033946714618
 20
337.0329607364766
 30
0.0
 11
1250.96560107068
 21
340.9484800551505
 31
0.0
  0
ARC
  5
204F
330
2
100
AcDbEntity
  8
HIDS
  6
SEKKEI_H
100
AcDbCircle
 10
1310.102853050101
 20
337.0678655563161
 30
0.0
 40
2.0
100
AcDbArc
 50
270.0000000139785
 51
359.0000000139529
  0
ARC
  5
2050
330
2
100
AcDbEntity
  8
HIDS
  6
SEKKEI_H
100
AcDbCircle
 10
1315.170437168887
 20
340.8961228440354
 30
0.0
 40
3.0
100
AcDbArc
 50
127.2608602897371
 51
179.0000000139267
  0
LINE
  5
2051
330
2
100
AcDbEntity
  8
HIDS
  6
SEKKEI_H
100
AcDbLine
 10
1312.102548440421
 20
337.0329607439277
 30
0.0
 11
1312.170894083404
 21
340.9484800626183
 31
0.0
  0
LINE
  5
2052
330
2
100
AcDbEntity
  8
HIDS
  6
SEKKEI_H
100
AcDbLine
 10
1267.114600775123
 20
422.9009475654266
 30
0.0
 11
1267.326975118764
 21
435.0678655640011
 31
0.0
  0
LINE
  5
2053
330
2
100
AcDbEntity
  8
HIDS
  6
SEKKEI_H
100
AcDbLine
 10
1256.13216024791
 20
416.5838212245358
 30
0.0
 11
1255.809520053834
 21
435.0678655640014
 31
0.0
  0
LINE
  5
2055
330
2
100
AcDbEntity
  8
0
100
AcDbLine
 10
978.594693560319
 20
439.0678655566713
 30
0.0
 11
968.594693560319
 21
439.0678655566713
 31
0.0
  0
ARC
  5
2056
330
2
100
AcDbEntity
  8
0
100
AcDbCircle
 10
968.594693560319
 20
435.0678655566713
 30
0.0
 40
4.0
100
AcDbArc
 50
90.0
 51
180.0
  0
ARC
  5
2057
330
2
100
AcDbEntity
  8
0
100
AcDbCircle
 10
978.594693560319
 20
435.0678655566713
 30
0.0
 40
4.0
100
AcDbArc
 50
0.0
 51
90.0
  0
LINE
  5
2058
330
2
100
AcDbEntity
  8
0
100
AcDbLine
 10
1266.568247586299
 20
439.0678655640014
 30
0.0
 11
1256.568247586299
 21
439.0678655640014
 31
0.0
  0
ARC
  5
2059
330
2
100
AcDbEntity
  8
0
100
AcDbCircle
 10
1256.568247586299
 20
435.0678655640014
 30
0.0
 40
4.0
100
AcDbArc
 50
90.0
 51
180.0
  0
ARC
  5
205A
330
2
100
AcDbEntity
  8
0
100
AcDbCircle
 10
1266.568247586299
 20
435.0678655640014
 30
0.0
 40
4.0
100
AcDbArc
 50
0.0
 51
90.0
  0
LINE
  5
205B
330
2
100
AcDbEntity
  8
0
100
AcDbLine
 10
921.8842498468177
 20
428.4617868405763
 30
0.0
 11
923.3842498468186
 21
428.4617868405763
 31
0.0
  0
LINE
  5
205C
330
2
100
AcDbEntity
  8
0
100
AcDbLine
 10
921.8842498468182
 20
439.9617868405762
 30
0.0
 11
923.3842498468186
 21
439.9617868405762
 31
0.0
  0
LINE
  5
205D
330
2
100
AcDbEntity
  8
0
100
AcDbLine
 10
928.984249846818
 20
429.2117868405762
 30
0.0
 11
929.3842498468178
 21
429.9046071636035
 31
0.0
  0
LINE
  5
205E
330
2
100
AcDbEntity
  8
0
100
AcDbLine
 10
923.3842498468186
 20
428.4617868405763
 30
0.0
 11
923.3842498468186
 21
439.9617868405762
 31
0.0
  0
LINE
  5
205F
330
2
100
AcDbEntity
  8
0
100
AcDbLine
 10
928.984249846818
 20
429.2117868405762
 30
0.0
 11
928.9842498468185
 21
439.2117868405763
 31
0.0
  0
LINE
  5
2060
330
2
100
AcDbEntity
  8
0
100
AcDbLine
 10
923.3842498468186
 20
429.2117868405762
 30
0.0
 11
928.984249846818
 21
429.2117868405762
 31
0.0
  0
LINE
  5
2061
330
2
100
AcDbEntity
  8
0
100
AcDbLine
 10
923.3842498468186
 20
439.2117868405763
 30
0.0
 11
928.9842498468185
 21
439.2117868405763
 31
0.0
  0
LINE
  5
2062
330
2
100
AcDbEntity
  8
0
100
AcDbLine
 10
928.9842498468185
 20
439.2117868405763
 30
0.0
 11
929.3842498468182
 21
438.518966517549
 31
0.0
  0
LINE
  5
2063
330
2
100
AcDbEntity
  8
0
100
AcDbLine
 10
929.3842498468178
 20
429.9046071636035
 30
0.0
 11
929.3842498468182
 21
438.518966517549
 31
0.0
  0
LINE
  5
2064
330
2
100
AcDbEntity
  8
0
 48
12.0
100
AcDbLine
 10
921.8842498468182
 20
439.9617868405762
 30
0.0
 11
921.8842498468177
 21
428.4617868405763
 31
0.0
  0
LINE
  5
2065
330
2
100
AcDbEntity
  8
0
100
AcDbLine
 10
921.8842498466468
 20
330.1739442629696
 30
0.0
 11
923.3842498466476
 21
330.1739442629696
 31
0.0
  0
LINE
  5
2066
330
2
100
AcDbEntity
  8
0
100
AcDbLine
 10
921.8842498466468
 20
341.6739442629696
 30
0.0
 11
923.3842498466476
 21
341.6739442629696
 31
0.0
  0
LINE
  5
2067
330
2
100
AcDbEntity
  8
0
100
AcDbLine
 10
928.9842498466471
 20
330.9239442629696
 30
0.0
 11
929.3842498466467
 21
331.6167645859969
 31
0.0
  0
LINE
  5
2068
330
2
100
AcDbEntity
  8
0
100
AcDbLine
 10
923.3842498466476
 20
330.1739442629696
 30
0.0
 11
923.3842498466476
 21
341.6739442629696
 31
0.0
  0
LINE
  5
2069
330
2
100
AcDbEntity
  8
0
100
AcDbLine
 10
928.9842498466471
 20
330.9239442629696
 30
0.0
 11
928.9842498466471
 21
340.9239442629696
 31
0.0
  0
LINE
  5
206A
330
2
100
AcDbEntity
  8
0
100
AcDbLine
 10
923.3842498466476
 20
330.9239442629696
 30
0.0
 11
928.9842498466471
 21
330.9239442629696
 31
0.0
  0
LINE
  5
206B
330
2
100
AcDbEntity
  8
0
100
AcDbLine
 10
923.3842498466476
 20
340.9239442629696
 30
0.0
 11
928.9842498466471
 21
340.9239442629696
 31
0.0
  0
LINE
  5
206C
330
2
100
AcDbEntity
  8
0
100
AcDbLine
 10
928.9842498466471
 20
340.9239442629696
 30
0.0
 11
929.3842498466467
 21
340.2311239399423
 31
0.0
  0
LINE
  5
206D
330
2
100
AcDbEntity
  8
0
100
AcDbLine
 10
929.3842498466467
 20
331.6167645859969
 30
0.0
 11
929.3842498466467
 21
340.2311239399423
 31
0.0
  0
LINE
  5
206E
330
2
100
AcDbEntity
  8
0
 48
12.0
100
AcDbLine
 10
921.8842498466468
 20
341.6739442629696
 30
0.0
 11
921.8842498466468
 21
330.1739442629696
 31
0.0
  0
ARC
  5
206F
330
2
100
AcDbEntity
  8
0
100
AcDbCircle
 10
1330.712168862872
 20
434.2117868503847
 30
0.0
 40
5.000000000000113
100
AcDbArc
 50
275.0016630384282
 51
174.0265442060218
  0
ARC
  5
2070
330
2
100
AcDbEntity
  8
0
100
AcDbCircle
 10
1330.712168862872
 20
434.2117868503847
 30
0.0
 40
4.307179676972509
100
AcDbArc
 50
272.8219851704366
 51
176.2062220740117
  0
LINE
  5
2071
330
2
100
AcDbEntity
  8
0
100
AcDbLine
 10
1333.212168862871
 20
435.6551625233588
 30
0.0
 11
1333.212168862871
 21
432.7684111774106
 31
0.0
  0
LINE
  5
2072
330
2
100
AcDbEntity
  8
0
100
AcDbLine
 10
1330.712168862872
 20
431.3250355044366
 30
0.0
 11
1333.212168862871
 21
432.7684111774106
 31
0.0
  0
LINE
  5
2073
330
2
100
AcDbEntity
  8
0
100
AcDbLine
 10
1333.212168862871
 20
435.6551625233588
 30
0.0
 11
1330.712168862872
 21
437.0985381963329
 31
0.0
  0
LINE
  5
2074
330
2
100
AcDbEntity
  8
0
100
AcDbLine
 10
1328.212168862872
 20
435.6551625233588
 30
0.0
 11
1328.212168862872
 21
433.4931296757405
 31
0.0
  0
LINE
  5
2075
330
2
100
AcDbEntity
  8
0
100
AcDbLine
 10
1330.712168862872
 20
431.3250355044366
 30
0.0
 11
1329.901423896176
 21
431.793119329203
 31
0.0
  0
LINE
  5
2076
330
2
100
AcDbEntity
  8
0
100
AcDbLine
 10
1328.212168862872
 20
435.6551625233588
 30
0.0
 11
1330.712168862872
 21
437.0985381963329
 31
0.0
  0
ARC
  5
2077
330
2
100
AcDbEntity
  8
0
 48
12.0
100
AcDbCircle
 10
1330.712168862876
 20
434.2117868503847
 30
0.0
 40
5.749999999999829
100
AcDbArc
 50
276.0473863444505
 51
172.9808208999609
  0
ARC
  5
2078
330
2
100
AcDbEntity
  8
0
100
AcDbCircle
 10
1232.424326285265
 20
434.2117868405763
 30
0.0
 40
5.000000000000113
100
AcDbArc
 50
5.973455870736488
 51
264.9983370408858
  0
ARC
  5
2079
330
2
100
AcDbEntity
  8
0
100
AcDbCircle
 10
1232.424326285265
 20
434.2117868405763
 30
0.0
 40
4.307179676972509
100
AcDbArc
 50
3.793778002432017
 51
267.1780149091929
  0
LINE
  5
207A
330
2
100
AcDbEntity
  8
0
100
AcDbLine
 10
1234.924326285265
 20
435.6551625135503
 30
0.0
 11
1234.924326285265
 21
433.4931296684572
 31
0.0
  0
LINE
  5
207B
330
2
100
AcDbEntity
  8
0
100
AcDbLine
 10
1232.424326285265
 20
431.3250354946282
 30
0.0
 11
1233.235071256532
 21
431.793119322033
 31
0.0
  0
LINE
  5
207C
330
2
100
AcDbEntity
  8
0
100
AcDbLine
 10
1234.924326285265
 20
435.6551625135503
 30
0.0
 11
1232.424326285265
 21
437.0985381865245
 31
0.0
  0
LINE
  5
207D
330
2
100
AcDbEntity
  8
0
100
AcDbLine
 10
1229.924326285265
 20
435.6551625135503
 30
0.0
 11
1229.924326285265
 21
432.7684111676022
 31
0.0
  0
LINE
  5
207E
330
2
100
AcDbEntity
  8
0
100
AcDbLine
 10
1232.424326285265
 20
431.3250354946282
 30
0.0
 11
1229.924326285265
 21
432.7684111676022
 31
0.0
  0
LINE
  5
207F
330
2
100
AcDbEntity
  8
0
100
AcDbLine
 10
1229.924326285265
 20
435.6551625135503
 30
0.0
 11
1232.424326285265
 21
437.0985381865245
 31
0.0
  0
ARC
  5
2080
330
2
100
AcDbEntity
  8
0
 48
12.0
100
AcDbCircle
 10
1232.42432628527
 20
434.2117868405763
 30
0.0
 40
5.749999999999829
100
AcDbArc
 50
7.019179177061988
 51
263.9526137345189
  0
ARC
  5
2081
330
2
100
AcDbEntity
  8
0
100
AcDbCircle
 10
1232.424326295075
 20
335.9239442629696
 30
0.0
 40
5.000000000000113
100
AcDbArc
 50
95.00166299261836
 51
354.0265443695589
  0
ARC
  5
2082
330
2
100
AcDbEntity
  8
0
100
AcDbCircle
 10
1232.424326295075
 20
335.9239442629696
 30
0.0
 40
4.307179676972509
100
AcDbArc
 50
92.82198509811125
 51
356.2062222640703
  0
LINE
  5
2083
330
2
100
AcDbEntity
  8
0
100
AcDbLine
 10
1234.924326295075
 20
336.6426014522372
 30
0.0
 11
1234.924326295075
 21
334.4805685899956
 31
0.0
  0
LINE
  5
2084
330
2
100
AcDbEntity
  8
0
100
AcDbLine
 10
1232.424326295075
 20
333.0371929170215
 30
0.0
 11
1234.924326295075
 21
334.4805685899956
 31
0.0
  0
LINE
  5
2085
330
2
100
AcDbEntity
  8
0
100
AcDbLine
 10
1233.235071280284
 20
338.3426117734639
 30
0.0
 11
1232.424326295075
 21
338.8106956089178
 31
0.0
  0
LINE
  5
2086
330
2
100
AcDbEntity
  8
0
100
AcDbLine
 10
1229.924326295075
 20
337.3673199359437
 30
0.0
 11
1229.924326295075
 21
334.4805685899956
 31
0.0
  0
LINE
  5
2087
330
2
100
AcDbEntity
  8
0
100
AcDbLine
 10
1232.424326295075
 20
333.0371929170215
 30
0.0
 11
1229.924326295075
 21
334.4805685899956
 31
0.0
  0
LINE
  5
2088
330
2
100
AcDbEntity
  8
0
100
AcDbLine
 10
1229.924326295075
 20
337.3673199359437
 30
0.0
 11
1232.424326295075
 21
338.8106956089178
 31
0.0
  0
ARC
  5
2089
330
2
100
AcDbEntity
  8
0
 48
12.0
100
AcDbCircle
 10
1232.42432629508
 20
335.9239442629696
 30
0.0
 40
5.749999999999829
100
AcDbArc
 50
96.04738631878682
 51
352.9808210434273
  0
ARC
  5
208A
330
2
100
AcDbEntity
  8
0
100
AcDbCircle
 10
1330.712168872681
 20
335.9239442727786
 30
0.0
 40
5.000000000000113
100
AcDbArc
 50
185.9734557072518
 51
84.99833708649958
  0
ARC
  5
208B
330
2
100
AcDbEntity
  8
0
100
AcDbCircle
 10
1330.712168872681
 20
335.9239442727786
 30
0.0
 40
4.307179676972509
100
AcDbArc
 50
183.7937778124519
 51
87.17801498129672
  0
LINE
  5
208C
330
2
100
AcDbEntity
  8
0
100
AcDbLine
 10
1333.212168872681
 20
337.3673199457527
 30
0.0
 11
1333.212168872681
 21
334.4805685998045
 31
0.0
  0
LINE
  5
208D
330
2
100
AcDbEntity
  8
0
100
AcDbLine
 10
1330.712168872681
 20
333.0371929268304
 30
0.0
 11
1333.212168872681
 21
334.4805685998045
 31
0.0
  0
LINE
  5
208E
330
2
100
AcDbEntity
  8
0
100
AcDbLine
 10
1333.212168872681
 20
337.3673199457527
 30
0.0
 11
1330.712168872681
 21
338.8106956187267
 31
0.0
  0
LINE
  5
208F
330
2
100
AcDbEntity
  8
0
100
AcDbLine
 10
1328.212168872681
 20
336.6426014595082
 30
0.0
 11
1328.212168872681
 21
334.4805685998045
 31
0.0
  0
LINE
  5
2090
330
2
100
AcDbEntity
  8
0
100
AcDbLine
 10
1330.712168872681
 20
333.0371929268304
 30
0.0
 11
1328.212168872681
 21
334.4805685998045
 31
0.0
  0
LINE
  5
2091
330
2
100
AcDbEntity
  8
0
100
AcDbLine
 10
1329.901423882932
 20
338.3426117806508
 30
0.0
 11
1330.712168872681
 21
338.8106956187267
 31
0.0
  0
ARC
  5
2092
330
2
100
AcDbEntity
  8
0
 48
12.0
100
AcDbCircle
 10
1330.712168872686
 20
335.9239442727786
 30
0.0
 40
5.749999999999829
100
AcDbArc
 50
187.0191790335956
 51
83.95261376019588
  0
LINE
  5
2093
330
2
100
AcDbEntity
  8
0
100
AcDbLine
 10
962.0946935603198
 20
407.2736014803825
 30
0.0
 11
962.0946935603203
 21
385.0678655566771
 31
0.0
  0
LINE
  5
2094
330
2
100
AcDbEntity
  8
0
100
AcDbLine
 10
984.0946935603204
 20
385.0678655566771
 30
0.0
 11
984.0946935603199
 21
412.0678655566794
 31
0.0
  0
LINE
  5
2095
330
2
100
AcDbEntity
  8
0
100
AcDbLine
 10
982.0946935603203
 20
385.0678655566771
 30
0.0
 11
982.0946935603199
 21
396.0678655566794
 31
0.0
  0
LINE
  5
2096
330
2
100
AcDbEntity
  8
0
100
AcDbLine
 10
964.0946935603199
 20
407.8072403616748
 30
0.0
 11
964.0946935603203
 21
385.0678655566771
 31
0.0
  0
LINE
  5
2097
330
2
100
AcDbEntity
  8
0
100
AcDbLine
 10
920.5946935603208
 20
385.0678655566767
 30
0.0
 11
920.5946935603204
 21
396.567865556678
 31
0.0
  0
LINE
  5
2098
330
2
100
AcDbEntity
  8
0
 48
0.3
100
AcDbLine
 10
940.5946935603209
 20
396.567865556678
 30
0.0
 11
920.5946935603199
 21
396.567865556678
 31
0.0
  0
LINE
  5
2099
330
2
100
AcDbEntity
  8
0
 48
0.3
100
AcDbLine
 10
940.5946935603209
 20
396.0678655566785
 30
0.0
 11
962.0946935603198
 21
396.0678655566785
 31
0.0
  0
LINE
  5
209A
330
2
100
AcDbEntity
  8
0
100
AcDbLine
 10
940.5946935603209
 20
385.0678655566767
 30
0.0
 11
940.5946935603209
 21
396.567865556678
 31
0.0
  0
LINE
  5
209B
330
2
100
AcDbEntity
  8
0
100
AcDbLine
 10
969.4889857114016
 20
412.0678655566794
 30
0.0
 11
984.0946935603199
 21
412.0678655566794
 31
0.0
  0
LINE
  5
209C
330
2
100
AcDbEntity
  8
0
 48
0.3
100
AcDbLine
 10
964.0946935603199
 20
396.067865556679
 30
0.0
 11
982.0946935603199
 21
396.0678655566794
 31
0.0
  0
LINE
  5
209D
330
2
100
AcDbEntity
  8
0
 48
0.3
100
AcDbLine
 10
914.5325157338286
 20
385.0678655566771
 30
0.0
 11
920.5946935603199
 21
395.5678655566781
 31
0.0
  0
LINE
  5
209E
330
2
100
AcDbEntity
  8
0
100
AcDbLine
 10
982.0946935603203
 20
396.0678655566754
 30
0.0
 11
984.0946935603204
 21
397.2225660950544
 31
0.0
  0
LINE
  5
209F
330
2
100
AcDbEntity
  8
0
100
AcDbLine
 10
984.0946935603263
 20
430.5678655566799
 30
0.0
 11
985.0946935603245
 21
431.5678655566785
 31
0.0
  0
LINE
  5
20A0
330
2
100
AcDbEntity
  8
0
100
AcDbLine
 10
975.1546778137369
 20
426.2871008973158
 30
0.0
 11
983.6034197635401
 21
426.4345742366118
 31
0.0
  0
ARC
  5
20A1
330
2
100
AcDbEntity
  8
0
100
AcDbCircle
 10
983.5946935603226
 20
426.9344980841897
 30
0.0
 40
0.5
100
AcDbArc
 50
270.9999999999757
 51
0.0
  0
LINE
  5
20A2
330
2
100
AcDbEntity
  8
0
100
AcDbLine
 10
985.0946935603207
 20
432.5678655566762
 30
0.0
 11
985.0946935603207
 21
385.0678655566771
 31
0.0
  0
LINE
  5
20A3
330
2
100
AcDbEntity
  8
0
100
AcDbLine
 10
984.0946935603263
 20
430.5678655566799
 30
0.0
 11
984.0946935603263
 21
385.0678655566771
 31
0.0
  0
LINE
  5
20A4
330
2
100
AcDbEntity
  8
CENTER
100
AcDbLine
 10
1261.568247578995
 20
362.193279468505
 30
0.0
 11
1261.568247578995
 21
443.2909506812936
 31
0.0
  0
LINE
  5
20A5
330
2
100
AcDbEntity
  8
HIDS
  6
SEKKEI_H
100
AcDbLine
 10
1256.48837517102
 20
395.0678655566922
 30
0.0
 11
1269.318247578987
 21
395.0678655566917
 31
0.0
  0
LINE
  5
20A6
330
2
100
AcDbEntity
  8
HIDS
  6
SEKKEI_H
100
AcDbLine
 10
1266.068247578988
 20
385.817865556689
 30
0.0
 11
1266.068247578988
 21
395.0678655566917
 31
0.0
  0
LINE
  5
20A7
330
2
100
AcDbEntity
  8
HIDS
  6
SEKKEI_H
100
AcDbLine
 10
1257.068247578988
 20
385.817865556689
 30
0.0
 11
1257.068247578988
 21
395.0678655566922
 31
0.0
  0
LINE
  5
20A8
330
2
100
AcDbEntity
  8
HIDS
  6
SEKKEI_H
100
AcDbLine
 10
1258.168247578988
 20
371.5978989643027
 30
0.0
 11
1258.168247578988
 21
384.3178655566891
 31
0.0
  0
LINE
  5
20A9
330
2
100
AcDbEntity
  8
HIDS
  6
SEKKEI_H
100
AcDbLine
 10
1257.568247578987
 20
372.0678655566922
 30
0.0
 11
1257.568247578987
 21
384.3178655566895
 31
0.0
  0
LINE
  5
20AA
330
2
100
AcDbEntity
  8
HIDS
  6
SEKKEI_H
100
AcDbLine
 10
1265.568247578988
 20
363.3193023857571
 30
0.0
 11
1265.568247578988
 21
384.3178655566895
 31
0.0
  0
LINE
  5
20AB
330
2
100
AcDbEntity
  8
HIDS
  6
SEKKEI_H
100
AcDbLine
 10
1264.968247578988
 20
363.773734909959
 30
0.0
 11
1264.968247578988
 21
384.3178655566895
 31
0.0
  0
LINE
  5
20AC
330
2
100
AcDbEntity
  8
HIDS
  6
SEKKEI_H
100
AcDbLine
 10
1268.068247578995
 20
404.5678655566922
 30
0.0
 11
1262.893398182008
 21
404.5678655566922
 31
0.0
  0
LINE
  5
20AD
330
2
100
AcDbEntity
  8
HIDS
  6
SEKKEI_H
100
AcDbLine
 10
1267.202222175209
 20
405.0678655566922
 30
0.0
 11
1263.429890431774
 21
405.0678655566922
 31
0.0
  0
LINE
  5
20AE
330
2
100
AcDbEntity
  8
HIDS
  6
SEKKEI_H
100
AcDbLine
 10
1268.818247578995
 20
397.0678655566922
 30
0.0
 11
1257.381474334094
 21
397.0678655566922
 31
0.0
  0
LINE
  5
20AF
330
2
100
AcDbEntity
  8
HIDS
  6
SEKKEI_H
100
AcDbLine
 10
1264.368247579001
 20
372.0678655566922
 30
0.0
 11
1258.768247578987
 21
372.0678655566922
 31
0.0
  0
LINE
  5
20B0
330
2
100
AcDbEntity
  8
HIDS
  6
SEKKEI_H
100
AcDbLine
 10
1265.568247578988
 20
373.267865556692
 30
0.0
 11
1257.568247578987
 21
373.267865556692
 31
0.0
  0
LINE
  5
20B1
330
2
100
AcDbEntity
  8
0
 48
0.3
100
AcDbLine
 10
1254.318247578995
 20
397.0678655566917
 30
0.0
 11
1254.318247578995
 21
395.0678655566917
 31
0.0
  0
LINE
  5
20B2
330
2
100
AcDbEntity
  8
0
 48
0.3
100
AcDbLine
 10
1255.068247578995
 20
404.5678655566917
 30
0.0
 11
1255.934272982779
 21
405.0678655566917
 31
0.0
  0
LINE
  5
20B3
330
2
100
AcDbEntity
  8
0
 48
0.3
100
AcDbLine
 10
1255.068247578995
 20
404.5678655566917
 30
0.0
 11
1255.068247578995
 21
397.0678655566917
 31
0.0
  0
LINE
  5
20B4
330
2
100
AcDbEntity
  8
HIDS
  6
SEKKEI_H
100
AcDbLine
 10
1268.818247578995
 20
397.0678655566922
 30
0.0
 11
1268.818247578995
 21
395.0678655566922
 31
0.0
  0
LINE
  5
20B5
330
2
100
AcDbEntity
  8
HIDS
  6
SEKKEI_H
100
AcDbLine
 10
1268.068247578994
 20
404.5678655566913
 30
0.0
 11
1267.20222217521
 21
405.0678655566917
 31
0.0
  0
LINE
  5
20B6
330
2
100
AcDbEntity
  8
HIDS
  6
SEKKEI_H
100
AcDbLine
 10
1268.068247578995
 20
404.5678655566913
 30
0.0
 11
1268.068247578995
 21
397.0678655566922
 31
0.0
  0
LINE
  5
20B7
330
2
100
AcDbEntity
  8
HIDS
  6
SEKKEI_H
100
AcDbLine
 10
1269.268247578995
 20
395.0678655566922
 30
0.0
 11
1256.48837517102
 21
395.0678655566917
 31
0.0
  0
LINE
  5
20B8
330
2
100
AcDbEntity
  8
HOJO
100
AcDbLine
 10
1258.168247578988
 20
384.3178655566891
 30
0.0
 11
1258.168247578988
 21
385.817865556689
 31
0.0
  0
LINE
  5
20B9
330
2
100
AcDbEntity
  8
0
100
AcDbLine
 10
1257.568247578987
 20
384.3178655566895
 30
0.0
 11
1257.568247578987
 21
385.817865556689
 31
0.0
  0
LINE
  5
20BA
330
2
100
AcDbEntity
  8
HOJO
100
AcDbLine
 10
1264.968247578988
 20
384.3178655566895
 30
0.0
 11
1264.968247578988
 21
385.817865556689
 31
0.0
  0
LINE
  5
20BB
330
2
100
AcDbEntity
  8
0
100
AcDbLine
 10
1265.568247578988
 20
384.3178655566895
 30
0.0
 11
1265.568247578988
 21
385.817865556689
 31
0.0
  0
LINE
  5
20BC
330
2
100
AcDbEntity
  8
HIDS
  6
SEKKEI_H
100
AcDbLine
 10
1265.568247578988
 20
385.817865556689
 30
0.0
 11
1265.568247578988
 21
395.0678655566917
 31
0.0
  0
LINE
  5
20BD
330
2
100
AcDbEntity
  8
HIDS
  6
SEKKEI_H
100
AcDbLine
 10
1264.968247578988
 20
385.817865556689
 30
0.0
 11
1264.968247578988
 21
395.0678655566917
 31
0.0
  0
LINE
  5
20BE
330
2
100
AcDbEntity
  8
HIDS
  6
SEKKEI_H
100
AcDbLine
 10
1258.168247578988
 20
385.817865556689
 30
0.0
 11
1258.168247578988
 21
395.0678655566922
 31
0.0
  0
LINE
  5
20BF
330
2
100
AcDbEntity
  8
HIDS
  6
SEKKEI_H
100
AcDbLine
 10
1257.568247578987
 20
385.817865556689
 30
0.0
 11
1257.568247578987
 21
395.0678655566922
 31
0.0
  0
LINE
  5
20C0
330
2
100
AcDbEntity
  8
0
100
AcDbLine
 10
1263.429890431774
 20
405.0678655566922
 30
0.0
 11
1255.934272982779
 21
405.0678655566917
 31
0.0
  0
LINE
  5
20C1
330
2
100
AcDbEntity
  8
0
100
AcDbLine
 10
1262.893398182008
 20
404.5678655566922
 30
0.0
 11
1255.068247578995
 21
404.5678655566917
 31
0.0
  0
LINE
  5
20C2
330
2
100
AcDbEntity
  8
0
100
AcDbLine
 10
1257.381474334094
 20
397.0678655566922
 30
0.0
 11
1254.318247578995
 21
397.0678655566917
 31
0.0
  0
LINE
  5
20C3
330
2
100
AcDbEntity
  8
0
100
AcDbLine
 10
1256.48837517102
 20
395.0678655566917
 30
0.0
 11
1254.318247578995
 21
395.0678655566917
 31
0.0
  0
LINE
  5
20C4
330
2
100
AcDbEntity
  8
HIDS
  6
SEKKEI_H
100
AcDbLine
 10
1257.568247578987
 20
373.267865556692
 30
0.0
 11
1258.768247578987
 21
372.0678655566922
 31
0.0
  0
LINE
  5
20C5
330
2
100
AcDbEntity
  8
HIDS
  6
SEKKEI_H
100
AcDbLine
 10
1265.568247579001
 20
373.267865556692
 30
0.0
 11
1264.368247579001
 21
372.0678655566922
 31
0.0
  0
CIRCLE
  5
20C6
330
2
100
AcDbEntity
  8
0
100
AcDbCircle
 10
1281.56824757898
 20
385.0678655566772
 30
0.0
 40
26.99999999999249
  0
LINE
  5
20C7
330
2
100
AcDbEntity
  8
CENTER
100
AcDbLine
 10
1312.976887494922
 20
344.4092256427921
 30
0.0
 11
1331.476887494922
 21
344.4092256427921
 31
0.0
  0
LINE
  5
20C8
330
2
100
AcDbEntity
  8
CENTER
100
AcDbLine
 10
1322.226887494922
 20
335.1592256427922
 30
0.0
 11
1322.226887494922
 21
353.6592256427922
 31
0.0
  0
LINE
  5
20C9
330
2
100
AcDbEntity
  8
CENTER
100
AcDbLine
 10
1250.159607663033
 20
425.7265055014687
 30
0.0
 11
1231.659607663033
 21
425.7265055014687
 31
0.0
  0
LINE
  5
20CA
330
2
100
AcDbEntity
  8
CENTER
100
AcDbLine
 10
1240.909607663033
 20
434.9765055014687
 30
0.0
 11
1240.909607663033
 21
416.4765055014687
 31
0.0
  0
LINE
  5
20CB
330
2
100
AcDbEntity
  8
CENTER
100
AcDbLine
 10
1240.909607657769
 20
353.65922564806
 30
0.0
 11
1240.909607657769
 21
335.1592256480599
 31
0.0
  0
LINE
  5
20CC
330
2
100
AcDbEntity
  8
CENTER
100
AcDbLine
 10
1231.659607657769
 20
344.4092256480599
 30
0.0
 11
1250.159607657769
 21
344.4092256480599
 31
0.0
  0
LINE
  5
20CD
330
2
100
AcDbEntity
  8
CENTER
100
AcDbLine
 10
1312.976887494925
 20
425.7265055014687
 30
0.0
 11
1331.476887494925
 21
425.7265055014687
 31
0.0
  0
LINE
  5
20CE
330
2
100
AcDbEntity
  8
CENTER
100
AcDbLine
 10
1322.226887494925
 20
434.9765055014687
 30
0.0
 11
1322.226887494925
 21
416.4765055014687
 31
0.0
  0
CIRCLE
  5
20CF
330
2
100
AcDbEntity
  8
CENTER
100
AcDbCircle
 10
1281.568247578981
 20
385.0678655566758
 30
0.0
 40
57.49999999531469
  0
CIRCLE
  5
20D0
330
2
100
AcDbEntity
  8
HOJO
100
AcDbCircle
 10
1322.226887494918
 20
344.4092256427881
 30
0.0
 40
4.0
  0
CIRCLE
  5
20D1
330
2
100
AcDbEntity
  8
0
100
AcDbCircle
 10
1322.226887494918
 20
344.4092256427881
 30
0.0
 40
3.399999999999999
  0
CIRCLE
  5
20D2
330
2
100
AcDbEntity
  8
HOJO
100
AcDbCircle
 10
1322.226887464009
 20
425.7265055014646
 30
0.0
 40
4.0
  0
CIRCLE
  5
20D3
330
2
100
AcDbEntity
  8
0
100
AcDbCircle
 10
1322.226887464009
 20
425.7265055014646
 30
0.0
 40
3.399999999999999
  0
CIRCLE
  5
20D4
330
2
100
AcDbEntity
  8
HOJO
100
AcDbCircle
 10
1240.909607693941
 20
425.7265055014646
 30
0.0
 40
4.0
  0
CIRCLE
  5
20D5
330
2
100
AcDbEntity
  8
0
100
AcDbCircle
 10
1240.909607693941
 20
425.7265055014646
 30
0.0
 40
3.399999999999999
  0
CIRCLE
  5
20D6
330
2
100
AcDbEntity
  8
HOJO
100
AcDbCircle
 10
1240.909607657764
 20
344.4092256480558
 30
0.0
 40
4.0
  0
CIRCLE
  5
20D7
330
2
100
AcDbEntity
  8
0
100
AcDbCircle
 10
1240.909607657764
 20
344.4092256480558
 30
0.0
 40
3.399999999999999
  0
LINE
  5
20D9
330
2
100
AcDbEntity
  8
0
100
AcDbLine
 10
1254.578666255818
 20
384.3178655566891
 30
0.0
 11
1270.593845545157
 21
384.3178655566891
 31
0.0
  0
LINE
  5
20DA
330
2
100
AcDbEntity
  8
0
100
AcDbLine
 10
1292.542649612802
 20
384.3178655566891
 30
0.0
 11
1307.576967625036
 21
384.3178655566895
 31
0.0
  0
LINE
  5
20DB
330
2
100
AcDbEntity
  8
0
100
AcDbLine
 10
1254.578666255818
 20
385.817865556689
 30
0.0
 11
1270.593845545159
 21
385.8178655566895
 31
0.0
  0
LINE
  5
20DC
330
2
100
AcDbEntity
  8
0
100
AcDbLine
 10
1292.542649612801
 20
385.8178655566895
 30
0.0
 11
1307.576967625036
 21
385.817865556689
 31
0.0
  0
LINE
  5
20DD
330
2
100
AcDbEntity
  8
0
100
AcDbLine
 10
1307.576967625036
 20
385.817865556689
 30
0.0
 11
1307.576967625036
 21
384.3178655566895
 31
0.0
  0
CIRCLE
  5
20DE
330
2
100
AcDbEntity
  8
0
100
AcDbCircle
 10
1281.56824757898
 20
385.0678655566772
 30
0.0
 40
10.99999999999798
  0
ARC
  5
20DF
330
2
100
AcDbEntity
  8
0
100
AcDbCircle
 10
1281.56824757898
 20
385.0678655566772
 30
0.0
 40
12.15470053838154
100
AcDbArc
 50
3.537656083403279
 51
176.4623439165967
  0
ARC
  5
20E0
330
2
100
AcDbEntity
  8
0
100
AcDbCircle
 10
1281.56824757898
 20
385.0678655566772
 30
0.0
 40
12.15470053838154
100
AcDbArc
 50
183.5376560832988
 51
356.4623439167011
  0
LINE
  5
20E1
330
2
100
AcDbEntity
  8
HIDS
  6
SEKKEI_H
100
AcDbLine
 10
1269.318247578987
 20
395.0678655566917
 30
0.0
 11
1269.318247578987
 21
409.1289856469922
 31
0.0
  0
LINE
  5
20E2
330
2
100
AcDbEntity
  8
0
100
AcDbLine
 10
957.9231206850719
 20
435.0678655566672
 30
0.0
 11
992.0946935603199
 21
435.0678655566755
 31
0.0
  0
LINE
  5
20E3
330
2
100
AcDbEntity
  8
0
 48
0.5
100
AcDbLine
 10
957.923120685071
 20
335.0678655566762
 30
0.0
 11
992.0946935603208
 21
335.0678655566771
 31
0.0
  0
LINE
  5
20E4
330
2
100
AcDbEntity
  8
0
100
AcDbLine
 10
992.0946935603208
 20
335.0678655566771
 30
0.0
 11
992.0946935603199
 21
435.0678655566755
 31
0.0
  0
LINE
  5
20E5
330
2
100
AcDbEntity
  8
0
100
AcDbLine
 10
985.0946935603207
 20
432.5678655566762
 30
0.0
 11
992.0946935603199
 21
432.5678655566762
 31
0.0
  0
LINE
  5
20E6
330
2
100
AcDbEntity
  8
CENTER
  6
CENTERX2
100
AcDbLine
 10
918.8842498468186
 20
434.2117868405767
 30
0.0
 11
932.3842498468195
 21
434.2117868405763
 31
0.0
  0
LINE
  5
20E7
330
2
100
AcDbEntity
  8
CENTER
  6
CENTERX2
100
AcDbLine
 10
918.8842498466467
 20
335.92394426297
 30
0.0
 11
932.3842498466476
 21
335.9239442629696
 31
0.0
  0
CIRCLE
  5
20E8
330
2
100
AcDbEntity
  8
0
100
AcDbCircle
 10
1281.56824757898
 20
385.0678655566779
 30
0.0
 40
41.37528389595729
  0
LINE
  5
20E9
330
2
100
AcDbEntity
  8
HIDS
  6
SEKKEI_H
100
AcDbLine
 10
1329.48533574405
 20
354.5678655566749
 30
0.0
 11
1325.817541340797
 21
354.5678655566754
 31
0.0
  0
LINE
  5
20EA
330
2
100
AcDbEntity
  8
HIDS
  6
SEKKEI_H
100
AcDbLine
 10
1237.318953817156
 20
354.5678655566758
 30
0.0
 11
1233.651159413901
 21
354.5678655566768
 31
0.0
  0
ARC
  5
20EB
330
2
100
AcDbEntity
  8
HIDS
  6
SEKKEI_H
100
AcDbCircle
 10
1325.817541351329
 20
418.5678655566763
 30
0.0
 40
3.0
100
AcDbArc
 50
217.128425062663
 51
270.0
  0
ARC
  5
20EC
330
2
100
AcDbEntity
  8
HIDS
  6
SEKKEI_H
100
AcDbCircle
 10
1237.318953791982
 20
418.5678655566754
 30
0.0
 40
3.0
100
AcDbArc
 50
270.0
 51
322.8715749373649
  0
ARC
  5
20ED
330
2
100
AcDbEntity
  8
HIDS
  6
SEKKEI_H
100
AcDbCircle
 10
1237.318953817155
 20
351.5678655566763
 30
0.0
 40
3.0
100
AcDbArc
 50
37.12842509316089
 51
90.0
  0
ARC
  5
20EE
330
2
100
AcDbEntity
  8
HIDS
  6
SEKKEI_H
100
AcDbCircle
 10
1325.817541340796
 20
351.5678655566754
 30
0.0
 40
3.0
100
AcDbArc
 50
90.0
 51
142.8715749068391
  0
ARC
  5
20EF
330
2
100
AcDbEntity
  8
HIDS
  6
SEKKEI_H
100
AcDbCircle
 10
1329.48533574405
 20
356.5678655566758
 30
0.0
 40
2.0
100
AcDbArc
 50
270.0
 51
359.8333333333248
  0
ARC
  5
20F0
330
2
100
AcDbEntity
  8
HIDS
  6
SEKKEI_H
100
AcDbCircle
 10
1233.651159413901
 20
356.5678655566763
 30
0.0
 40
2.0
100
AcDbArc
 50
180.1666666666751
 51
270.0
  0
LINE
  5
20F1
330
2
100
AcDbEntity
  8
HIDS
  6
SEKKEI_H
100
AcDbLine
 10
1329.48533574405
 20
415.5678655566763
 30
0.0
 11
1325.817541351329
 21
415.5678655566759
 31
0.0
  0
LINE
  5
20F2
330
2
100
AcDbEntity
  8
HIDS
  6
SEKKEI_H
100
AcDbLine
 10
1237.318953791983
 20
415.5678655566759
 30
0.0
 11
1233.651159413901
 21
415.567865556675
 31
0.0
  0
ARC
  5
20F3
330
2
100
AcDbEntity
  8
HIDS
  6
SEKKEI_H
100
AcDbCircle
 10
1329.48533574405
 20
413.5678655566758
 30
0.0
 40
2.0
100
AcDbArc
 50
0.166666666688157
 51
90.0
  0
ARC
  5
20F4
330
2
100
AcDbEntity
  8
HIDS
  6
SEKKEI_H
100
AcDbCircle
 10
1233.651159413901
 20
413.5678655566754
 30
0.0
 40
2.0
100
AcDbArc
 50
90.0
 51
179.8333333333118
  0
LINE
  5
2212
330
2
100
AcDbEntity
  8
CENTER
100
AcDbLine
 10
1002.094693560309
 20
385.0678655566881
 30
0.0
 11
691.5946935603166
 21
385.0678655566917
 31
0.0
  0
LINE
  5
2213
330
2
100
AcDbEntity
  8
0
100
AcDbLine
 10
886.5946935603041
 20
335.5678655566884
 30
0.0
 11
884.0946935603041
 21
335.5678655566884
 31
0.0
  0
LINE
  5
2214
330
2
100
AcDbEntity
  8
0
100
AcDbLine
 10
886.5946935603041
 20
434.5678655566883
 30
0.0
 11
884.0946935603041
 21
434.5678655566883
 31
0.0
  0
ARC
  5
2215
330
2
100
AcDbEntity
  8
0
100
AcDbCircle
 10
886.5946935603041
 20
439.5678655566883
 30
0.0
 40
5.0
100
AcDbArc
 50
270.0
 51
0.0
  0
LINE
  5
2216
330
2
100
AcDbEntity
  8
0
100
AcDbLine
 10
850.0946935603058
 20
388.0678655566883
 30
0.0
 11
878.094693560304
 21
388.0678655566883
 31
0.0
  0
ARC
  5
2217
330
2
100
AcDbEntity
  8
0
100
AcDbCircle
 10
878.094693560304
 20
391.0678655566886
 30
0.0
 40
3.0
100
AcDbArc
 50
270.0
 51
0.0
  0
LINE
  5
2218
330
2
100
AcDbEntity
  8
0
100
AcDbLine
 10
881.0946935603041
 20
338.5678655566883
 30
0.0
 11
881.0946935603041
 21
431.5678655566883
 31
0.0
  0
ARC
  5
2219
330
2
100
AcDbEntity
  8
0
100
AcDbCircle
 10
884.0946935603041
 20
338.5678655566883
 30
0.0
 40
3.0
100
AcDbArc
 50
180.0
 51
270.0
  0
ARC
  5
221A
330
2
100
AcDbEntity
  8
0
100
AcDbCircle
 10
884.0946935603041
 20
431.5678655566883
 30
0.0
 40
3.0
100
AcDbArc
 50
90.0
 51
180.0
  0
LINE
  5
221B
330
2
100
AcDbEntity
  8
0
100
AcDbLine
 10
891.5946935603042
 20
326.567865556688
 30
0.0
 11
891.5946935603042
 21
443.5678655566883
 31
0.0
  0
ARC
  5
221C
330
2
100
AcDbEntity
  8
0
100
AcDbCircle
 10
893.5946935603041
 20
327.0678655566884
 30
0.0
 40
2.0
100
AcDbArc
 50
180.0
 51
270.0
  0
ARC
  5
221D
330
2
100
AcDbEntity
  8
0
100
AcDbCircle
 10
893.5946935603041
 20
443.0678655566883
 30
0.0
 40
2.0
100
AcDbArc
 50
90.0
 51
180.0
  0
LINE
  5
221E
330
2
100
AcDbEntity
  8
0
100
AcDbLine
 10
850.0946935603058
 20
382.0678655566881
 30
0.0
 11
878.094693560304
 21
382.0678655566879
 31
0.0
  0
ARC
  5
221F
330
2
100
AcDbEntity
  8
0
100
AcDbCircle
 10
878.094693560304
 20
379.0678655566881
 30
0.0
 40
3.0
100
AcDbArc
 50
0.0
 51
90.0
  0
CIRCLE
  5
2220
330
2
100
AcDbEntity
  8
HOJO
100
AcDbCircle
 10
723.0261510653825
 20
328.4993230617645
 30
0.0
 40
5.0
  0
CIRCLE
  5
2221
330
2
100
AcDbEntity
  8
0
100
AcDbCircle
 10
723.0261510653825
 20
328.4993230617645
 30
0.0
 40
4.0
  0
CIRCLE
  5
2222
330
2
100
AcDbEntity
  8
HOJO
100
AcDbCircle
 10
723.0261510653825
 20
441.6364080516122
 30
0.0
 40
5.0
  0
CIRCLE
  5
2223
330
2
100
AcDbEntity
  8
0
100
AcDbCircle
 10
723.0261510653825
 20
441.6364080516122
 30
0.0
 40
4.0
  0
ARC
  5
2224
330
2
100
AcDbEntity
  8
0
100
AcDbCircle
 10
850.0946935603005
 20
353.0678655566883
 30
0.0
 40
3.0
100
AcDbArc
 50
90.0
 51
179.9999999999869
  0
LINE
  5
2225
330
2
100
AcDbEntity
  8
0
100
AcDbLine
 10
772.4529228105401
 20
329.5678655543312
 30
0.0
 11
775.3329240518723
 21
329.5678655543307
 31
0.0
  0
LINE
  5
2226
330
2
100
AcDbEntity
  8
0
100
AcDbLine
 10
776.4529228105455
 20
337.5678655543425
 30
0.0
 11
772.4529228105401
 21
329.5678655543312
 31
0.0
  0
ARC
  5
2227
330
2
100
AcDbEntity
  8
0
100
AcDbCircle
 10
782.9229228105559
 20
334.6778655543381
 30
0.0
 40
0.1700000000002474
100
AcDbArc
 50
270.0
 51
90.0
  0
LINE
  5
2228
330
2
100
AcDbEntity
  8
0
100
AcDbLine
 10
780.7129228105512
 20
334.5078655543376
 30
0.0
 11
782.9229228105559
 21
334.5078655543376
 31
0.0
  0
LINE
  5
2229
330
2
100
AcDbEntity
  8
0
100
AcDbLine
 10
780.3728500505512
 20
334.8478655543386
 30
0.0
 11
782.922922810554
 21
334.8478655543386
 31
0.0
  0
LINE
  5
222A
330
2
100
AcDbEntity
  8
0
100
AcDbLine
 10
776.4529228105455
 20
337.5678655543425
 30
0.0
 11
783.0928500505559
 21
337.5678655543425
 31
0.0
  0
LINE
  5
222B
330
2
100
AcDbEntity
  8
0
100
AcDbLine
 10
775.9329240518726
 20
330.7678655543328
 30
0.0
 11
777.9729228105479
 21
330.7678655543323
 31
0.0
  0
LINE
  5
222C
330
2
100
AcDbEntity
  8
0
100
AcDbLine
 10
775.9329240518726
 20
330.7678655543328
 30
0.0
 11
775.3329240518723
 21
329.5678655543307
 31
0.0
  0
LINE
  5
222D
330
2
100
AcDbEntity
  8
0
100
AcDbLine
 10
783.8564630687395
 20
329.5678655543307
 30
0.0
 11
786.7364643100699
 21
329.5678655543312
 31
0.0
  0
LINE
  5
222E
330
2
100
AcDbEntity
  8
0
100
AcDbLine
 10
784.7493954302152
 20
332.6904927527231
 30
0.0
 11
786.7364643100699
 21
329.5678655543312
 31
0.0
  0
LINE
  5
222F
330
2
100
AcDbEntity
  8
0
100
AcDbLine
 10
777.9729228105479
 20
329.5678655543307
 30
0.0
 11
780.3728500505512
 21
329.5678655543302
 31
0.0
  0
LINE
  5
2230
330
2
100
AcDbEntity
  8
0
100
AcDbLine
 10
777.2129240518751
 20
333.3278655543355
 30
0.0
 11
777.9729228105479
 21
333.327865554336
 31
0.0
  0
LINE
  5
2231
330
2
100
AcDbEntity
  8
0
100
AcDbLine
 10
777.9729228105479
 20
330.7678655543323
 30
0.0
 11
777.9729228105479
 21
329.5678655543307
 31
0.0
  0
ARC
  5
2232
330
2
100
AcDbEntity
  8
0
100
AcDbCircle
 10
783.0928500505559
 20
334.8478655543382
 30
0.0
 40
2.720000000003957
100
AcDbArc
 50
307.5189678668038
 51
90.0
  0
LINE
  5
2233
330
2
100
AcDbEntity
  8
0
100
AcDbLine
 10
780.7129228105512
 20
334.5078655543376
 30
0.0
 11
783.8564630687395
 21
329.5678655543307
 31
0.0
  0
LINE
  5
2234
330
2
100
AcDbEntity
  8
0
100
AcDbLine
 10
777.9729228105479
 20
334.8478630716819
 30
0.0
 11
777.2129240518751
 21
333.3278655543355
 31
0.0
  0
LINE
  5
2235
330
2
100
AcDbEntity
  8
0
100
AcDbLine
 10
777.9729228105479
 20
334.8478630716819
 30
0.0
 11
777.9729228105479
 21
333.327865554336
 31
0.0
  0
LINE
  5
2236
330
2
100
AcDbEntity
  8
0
100
AcDbLine
 10
780.3728500505512
 20
334.8478655543386
 30
0.0
 11
780.3728500505512
 21
329.5678655543302
 31
0.0
  0
CIRCLE
  5
2237
330
2
100
AcDbEntity
  8
HOJO
100
AcDbCircle
 10
836.1632360552302
 20
328.4993230617648
 30
0.0
 40
5.0
  0
CIRCLE
  5
2238
330
2
100
AcDbEntity
  8
0
100
AcDbCircle
 10
836.1632360552302
 20
328.4993230617648
 30
0.0
 40
4.0
  0
CIRCLE
  5
2239
330
2
100
AcDbEntity
  8
HOJO
100
AcDbCircle
 10
836.1632360552302
 20
441.6364080516122
 30
0.0
 40
5.0
  0
CIRCLE
  5
223A
330
2
100
AcDbEntity
  8
0
100
AcDbCircle
 10
836.1632360552302
 20
441.6364080516122
 30
0.0
 40
4.0
  0
ARC
  5
223B
330
2
100
AcDbEntity
  8
0
100
AcDbCircle
 10
886.5946935603041
 20
330.5678655566883
 30
0.0
 40
5.0
100
AcDbArc
 50
0.0
 51
90.0
  0
ARC
  5
223C
330
2
100
AcDbEntity
  8
0
100
AcDbCircle
 10
850.0946935603058
 20
391.0678655566886
 30
0.0
 40
3.0
100
AcDbArc
 50
180.0
 51
270.0
  0
ARC
  5
223D
330
2
100
AcDbEntity
  8
0
100
AcDbCircle
 10
850.0946935603058
 20
379.0678655566881
 30
0.0
 40
3.0
100
AcDbArc
 50
90.0
 51
180.0
  0
LINE
  5
223E
330
2
100
AcDbEntity
  8
0
100
AcDbLine
 10
893.5946935603041
 20
325.0678655566884
 30
0.0
 11
907.5946935603104
 21
325.0678655566882
 31
0.0
  0
LINE
  5
223F
330
2
100
AcDbEntity
  8
0
100
AcDbLine
 10
893.5946935603041
 20
445.0678655566881
 30
0.0
 11
907.5946935603104
 21
445.0678655566879
 31
0.0
  0
LINE
  5
2240
330
2
100
AcDbEntity
  8
0
100
AcDbLine
 10
907.5946935603104
 20
445.5678655566883
 30
0.0
 11
907.5946935603104
 21
324.567865556688
 31
0.0
  0
LINE
  5
2241
330
2
100
AcDbEntity
  8
0
100
AcDbLine
 10
873.0946935603041
 20
351.0678655566886
 30
0.0
 11
871.0946935603042
 21
351.0678655566886
 31
0.0
  0
ARC
  5
2242
330
2
100
AcDbEntity
  8
0
100
AcDbCircle
 10
873.0946935603041
 20
343.0678655566886
 30
0.0
 40
8.0
100
AcDbArc
 50
0.0
 51
90.0
  0
ARC
  5
2243
330
2
100
AcDbEntity
  8
0
100
AcDbCircle
 10
878.8641278225494
 20
434.507454314156
 30
0.0
 40
3.0
100
AcDbArc
 50
259.9999999999949
 51
330.6639232880097
  0
ARC
  5
2244
330
2
100
AcDbEntity
  8
0
100
AcDbCircle
 10
878.8641278225494
 20
335.6282767992212
 30
0.0
 40
3.0
100
AcDbArc
 50
29.33607671199027
 51
99.999999999952
  0
ARC
  5
2245
330
2
100
AcDbEntity
  8
0
100
AcDbCircle
 10
850.0946935602994
 20
330.5554493190676
 30
0.0
 40
3.0
100
AcDbArc
 50
100.000000000005
 51
180.000000000013
  0
LINE
  5
2246
330
2
100
AcDbEntity
  8
0
100
AcDbLine
 10
873.0946935603041
 20
419.0678655566886
 30
0.0
 11
871.094693560305
 21
419.0678655566886
 31
0.0
  0
ARC
  5
2247
330
2
100
AcDbEntity
  8
0
100
AcDbCircle
 10
873.0946935603041
 20
427.0678655566886
 30
0.0
 40
8.0
100
AcDbArc
 50
270.0
 51
0.0
  0
LINE
  5
2248
330
2
100
AcDbEntity
  8
0
100
AcDbLine
 10
878.3431832895502
 20
338.5827000582579
 30
0.0
 11
849.5737490272984
 21
333.5098725781043
 31
0.0
  0
LINE
  5
2249
330
2
100
AcDbEntity
  8
0
100
AcDbLine
 10
878.3431832895484
 20
431.5530310551195
 30
0.0
 11
849.5737490272649
 21
436.625858535279
 31
0.0
  0
ARC
  5
224A
330
2
100
AcDbEntity
  8
0
100
AcDbCircle
 10
850.0946935602659
 20
439.5802817943155
 30
0.0
 40
3.0
100
AcDbArc
 50
180.000000000013
 51
259.9999999999949
  0
LINE
  5
224B
330
2
100
AcDbEntity
  8
0
100
AcDbLine
 10
873.0946935603041
 20
419.0678655566886
 30
0.0
 11
871.094693560305
 21
419.0678655566888
 31
0.0
  0
LINE
  5
224C
330
2
100
AcDbEntity
  8
0
100
AcDbLine
 10
868.0946935603087
 20
416.067865556689
 30
0.0
 11
868.0946935603078
 21
391.0678655566881
 31
0.0
  0
ARC
  5
224D
330
2
100
AcDbEntity
  8
0
100
AcDbCircle
 10
865.0946935603077
 20
391.0678655566883
 30
0.0
 40
3.0
100
AcDbArc
 50
270.0
 51
359.9999999999869
  0
LINE
  5
224E
330
2
100
AcDbEntity
  8
0
100
AcDbLine
 10
868.094693560304
 20
379.0678655566881
 30
0.0
 11
868.094693560304
 21
354.0678655566886
 31
0.0
  0
ARC
  5
224F
330
2
100
AcDbEntity
  8
0
100
AcDbCircle
 10
865.0946935603041
 20
379.0678655566881
 30
0.0
 40
3.0
100
AcDbArc
 50
359.9999999999869
 51
90.0
  0
ARC
  5
2250
330
2
100
AcDbEntity
  8
0
100
AcDbCircle
 10
871.0946935603042
 20
354.0678655566884
 30
0.0
 40
3.0
100
AcDbArc
 50
179.9999999999869
 51
270.0
  0
ARC
  5
2251
330
2
100
AcDbEntity
  8
0
100
AcDbCircle
 10
865.1786137772049
 20
353.0678655566881
 30
0.0
 40
3.0
100
AcDbArc
 50
9.594068226868017
 51
90.0
  0
ARC
  5
2252
330
2
100
AcDbEntity
  8
0
100
AcDbCircle
 10
871.094693560305
 20
416.0678655566888
 30
0.0
 40
3.0
100
AcDbArc
 50
90.0
 51
179.9999999999869
  0
ARC
  5
2253
330
2
100
AcDbEntity
  8
0
100
AcDbCircle
 10
865.1786137772049
 20
417.0678655566881
 30
0.0
 40
3.0
100
AcDbArc
 50
270.0
 51
350.4059317731512
  0
LINE
  5
2254
330
2
100
AcDbEntity
  8
0
100
AcDbLine
 10
865.1786137772049
 20
356.0678655566881
 30
0.0
 11
850.0946935603005
 21
356.0678655566884
 31
0.0
  0
LINE
  5
2255
330
2
100
AcDbEntity
  8
0
100
AcDbLine
 10
865.1786137772049
 20
414.0678655566881
 30
0.0
 11
850.094693560305
 21
414.0678655566881
 31
0.0
  0
ARC
  5
2256
330
2
100
AcDbEntity
  8
0
100
AcDbCircle
 10
850.094693560305
 20
417.0678655566881
 30
0.0
 40
3.0
100
AcDbArc
 50
180.0
 51
270.0
  0
ARC
  5
2257
330
2
100
AcDbEntity
  8
0
100
AcDbCircle
 10
779.5946935603059
 20
112.5678655566883
 30
0.0
 40
340.0
100
AcDbArc
 50
85.85748119726854
 51
94.14251880273145
  0
ARC
  5
2258
330
2
100
AcDbEntity
  8
0
100
AcDbCircle
 10
722.0946935603068
 20
442.5678655566883
 30
0.0
 40
10.0
100
AcDbArc
 50
90.0
 51
180.0
  0
LINE
  5
2259
330
2
100
AcDbEntity
  8
0
100
AcDbLine
 10
722.0946935603068
 20
452.5678655566884
 30
0.0
 11
732.0946935603068
 21
452.5678655566884
 31
0.0
  0
ARC
  5
225A
330
2
100
AcDbEntity
  8
0
100
AcDbCircle
 10
732.0946935603068
 20
444.5678655566884
 30
0.0
 40
8.0
100
AcDbArc
 50
81.63298947741282
 51
90.0
  0
ARC
  5
225B
330
2
100
AcDbEntity
  8
0
100
AcDbCircle
 10
837.0946935603059
 20
442.5678655566883
 30
0.0
 40
10.0
100
AcDbArc
 50
0.0
 51
90.0
  0
ARC
  5
225C
330
2
100
AcDbEntity
  8
0
100
AcDbCircle
 10
747.8101414193832
 20
551.4183437895382
 30
0.0
 40
100.0
100
AcDbArc
 50
261.6329894774128
 51
274.1425188027314
  0
LINE
  5
225D
330
2
100
AcDbEntity
  8
0
100
AcDbLine
 10
712.0946935603059
 20
442.5678655566882
 30
0.0
 11
712.0946935603059
 21
432.5678655566881
 31
0.0
  0
ARC
  5
225E
330
2
100
AcDbEntity
  8
0
100
AcDbCircle
 10
720.0946935603059
 20
432.5678655566881
 30
0.0
 40
8.0
100
AcDbArc
 50
180.0
 51
188.3670105225876
  0
ARC
  5
225F
330
2
100
AcDbEntity
  8
0
100
AcDbCircle
 10
613.2442153274559
 20
416.8524176976116
 30
0.0
 40
100.0
100
AcDbArc
 50
355.8574811972655
 51
8.36701052258765
  0
ARC
  5
2260
330
2
100
AcDbEntity
  8
0
100
AcDbCircle
 10
827.094693560306
 20
444.5678655566884
 30
0.0
 40
8.0
100
AcDbArc
 50
90.0
 51
98.36701052258717
  0
ARC
  5
2261
330
2
100
AcDbEntity
  8
0
100
AcDbCircle
 10
811.3792457012294
 20
551.4183437895382
 30
0.0
 40
100.0
100
AcDbArc
 50
265.8574811972684
 51
278.3670105225871
  0
LINE
  5
2262
330
2
100
AcDbEntity
  8
0
100
AcDbLine
 10
837.0946935603059
 20
452.5678655566884
 30
0.0
 11
827.094693560306
 21
452.5678655566884
 31
0.0
  0
ARC
  5
2263
330
2
100
AcDbEntity
  8
0
100
AcDbCircle
 10
722.0946935603068
 20
327.5678655566883
 30
0.0
 40
10.0
100
AcDbArc
 50
180.0
 51
270.0
  0
LINE
  5
2264
330
2
100
AcDbEntity
  8
0
100
AcDbLine
 10
722.0946935603068
 20
317.5678655566883
 30
0.0
 11
732.0946935603068
 21
317.5678655566883
 31
0.0
  0
ARC
  5
2265
330
2
100
AcDbEntity
  8
0
100
AcDbCircle
 10
732.0946935603068
 20
325.5678655566883
 30
0.0
 40
8.0
100
AcDbArc
 50
270.0
 51
278.3670105225871
  0
ARC
  5
2266
330
2
100
AcDbEntity
  8
0
100
AcDbCircle
 10
837.0946935603059
 20
327.5678655566883
 30
0.0
 40
10.0
100
AcDbArc
 50
270.0
 51
0.0
  0
ARC
  5
2267
330
2
100
AcDbEntity
  8
0
100
AcDbCircle
 10
747.8101414193832
 20
218.7173873238385
 30
0.0
 40
100.0
100
AcDbArc
 50
85.85748119726854
 51
98.36701052258717
  0
LINE
  5
2268
330
2
100
AcDbEntity
  8
0
100
AcDbLine
 10
712.0946935603059
 20
327.5678655566886
 30
0.0
 11
712.0946935603059
 21
337.5678655566886
 31
0.0
  0
ARC
  5
2269
330
2
100
AcDbEntity
  8
0
100
AcDbCircle
 10
720.0946935603059
 20
337.5678655566886
 30
0.0
 40
8.0
100
AcDbArc
 50
171.6329894774123
 51
180.0
  0
ARC
  5
226A
330
2
100
AcDbEntity
  8
0
100
AcDbCircle
 10
613.2442153274559
 20
353.283313415765
 30
0.0
 40
100.0
100
AcDbArc
 50
351.6329894773897
 51
4.142518802734472
  0
ARC
  5
226B
330
2
100
AcDbEntity
  8
0
100
AcDbCircle
 10
827.094693560306
 20
325.5678655566883
 30
0.0
 40
8.0
100
AcDbArc
 50
261.6329894774128
 51
270.0
  0
ARC
  5
226C
330
2
100
AcDbEntity
  8
0
100
AcDbCircle
 10
811.3792457012294
 20
218.7173873238385
 30
0.0
 40
100.0
100
AcDbArc
 50
81.63298947741282
 51
94.14251880273145
  0
LINE
  5
226D
330
2
100
AcDbEntity
  8
0
100
AcDbLine
 10
847.0946935603059
 20
327.5678655566886
 30
0.0
 11
847.0946935603059
 21
442.5678655566883
 31
0.0
  0
LINE
  5
226E
330
2
100
AcDbEntity
  8
0
100
AcDbLine
 10
837.0946935603059
 20
317.5678655566883
 30
0.0
 11
827.094693560306
 21
317.5678655566883
 31
0.0
  0
ARC
  5
226F
330
2
100
AcDbEntity
  8
0
100
AcDbCircle
 10
779.5946935603059
 20
657.5678655566884
 30
0.0
 40
340.0
100
AcDbArc
 50
265.8574811972684
 51
274.1425188027314
  0
ARC
  5
2270
330
2
100
AcDbEntity
  8
0
100
AcDbCircle
 10
1052.094693560306
 20
385.0678655566884
 30
0.0
 40
340.0
100
AcDbArc
 50
175.8574811972817
 51
184.1425188027052
  0
CIRCLE
  5
2271
330
2
100
AcDbEntity
  8
0
100
AcDbCircle
 10
779.5946935603055
 20
385.0678655566884
 30
0.0
 40
35.99999999999954
  0
CIRCLE
  5
2272
330
2
100
AcDbEntity
  8
0
100
AcDbCircle
 10
779.5946935603055
 20
385.0678655566884
 30
0.0
 40
36.57735026918968
  0
CIRCLE
  5
2273
330
2
100
AcDbEntity
  8
0
100
AcDbCircle
 10
779.5946935603055
 20
385.0678655566884
 30
0.0
 40
43.49999999999954
  0
CIRCLE
  5
2274
330
2
100
AcDbEntity
  8
0
100
AcDbCircle
 10
779.5946935603055
 20
385.0678655566884
 30
0.0
 40
60.00000000000046
  0
LINE
  5
2275
330
2
100
AcDbEntity
  8
CENTER
100
AcDbLine
 10
836.1632360552306
 20
452.5678655566884
 30
0.0
 11
836.1632360552306
 21
430.7049505465309
 31
0.0
  0
LINE
  5
2276
330
2
100
AcDbEntity
  8
CENTER
100
AcDbLine
 10
825.2317785501503
 20
441.6364080516096
 30
0.0
 11
847.0946935603073
 21
441.6364080516096
 31
0.0
  0
LINE
  5
2277
330
2
100
AcDbEntity
  8
CENTER
100
AcDbLine
 10
723.0261510653812
 20
452.5678655566884
 30
0.0
 11
723.0261510653807
 21
430.7049505465325
 31
0.0
  0
LINE
  5
2278
330
2
100
AcDbEntity
  8
CENTER
100
AcDbLine
 10
733.9576085704623
 20
441.6364080516104
 30
0.0
 11
712.0946935603064
 21
441.6364080516105
 31
0.0
  0
LINE
  5
2279
330
2
100
AcDbEntity
  8
CENTER
100
AcDbLine
 10
836.1632360552306
 20
317.5678655566883
 30
0.0
 11
836.1632360552306
 21
339.4307805668412
 31
0.0
  0
LINE
  5
227A
330
2
100
AcDbEntity
  8
CENTER
100
AcDbLine
 10
825.231778550154
 20
328.4993230617665
 30
0.0
 11
847.0946935603063
 21
328.4993230617664
 31
0.0
  0
LINE
  5
227B
330
2
100
AcDbEntity
  8
CENTER
100
AcDbLine
 10
723.0261510653807
 20
317.5678655566883
 30
0.0
 11
723.0261510653807
 21
339.4307805668427
 31
0.0
  0
LINE
  5
227C
330
2
100
AcDbEntity
  8
CENTER
100
AcDbLine
 10
733.9576085704578
 20
328.4993230617661
 30
0.0
 11
712.0946935603036
 21
328.4993230617659
 31
0.0
  0
CIRCLE
  5
227D
330
2
100
AcDbEntity
  8
CENTER
100
AcDbCircle
 10
779.5946935603055
 20
385.0678655566884
 30
0.0
 40
79.9999999999992
  0
LINE
  5
227E
330
2
100
AcDbEntity
  8
CENTER
100
AcDbLine
 10
716.3982956312219
 20
385.0678655566883
 30
0.0
 11
732.791091489389
 21
385.0678655566883
 31
0.0
  0
LINE
  5
227F
330
2
100
AcDbEntity
  8
CENTER
100
AcDbLine
 10
851.487538217659
 20
456.9607102140396
 30
0.0
 11
707.7018489029518
 21
313.1750208993371
 31
0.0
  0
LINE
  5
2280
330
2
100
AcDbEntity
  8
CENTER
100
AcDbLine
 10
707.7018489029536
 20
456.9607102140415
 30
0.0
 11
851.4875382176573
 21
313.1750208993353
 31
0.0
  0
LINE
  5
2281
330
2
100
AcDbEntity
  8
0
100
AcDbLine
 10
907.5946935603104
 20
445.5678655566883
 30
0.0
 11
893.5946935603041
 21
445.5678655566883
 31
0.0
  0
ARC
  5
2282
330
2
100
AcDbEntity
  8
0
100
AcDbCircle
 10
893.5946935603041
 20
443.5678655566883
 30
0.0
 40
2.0
100
AcDbArc
 50
90.0
 51
180.0
  0
LINE
  5
2283
330
2
100
AcDbEntity
  8
0
100
AcDbLine
 10
907.5946935603104
 20
324.567865556688
 30
0.0
 11
893.5946935603041
 21
324.567865556688
 31
0.0
  0
ARC
  5
2284
330
2
100
AcDbEntity
  8
0
100
AcDbCircle
 10
893.5946935603041
 20
326.567865556688
 30
0.0
 40
2.0
100
AcDbArc
 50
180.0
 51
270.0
  0
LINE
  5
2285
330
2
100
AcDbEntity
  8
0
100
AcDbLine
 10
774.5946935603054
 20
404.3678685566884
 30
0.0
 11
784.5946935603055
 21
404.3678685566884
 31
0.0
  0
LINE
  5
2286
330
2
100
AcDbEntity
  8
0
100
AcDbLine
 10
774.5946935603054
 20
404.3678685566884
 30
0.0
 11
774.5946935603054
 21
400.266549710259
 31
0.0
  0
LINE
  5
2287
330
2
100
AcDbEntity
  8
0
100
AcDbLine
 10
784.5946935603055
 20
404.3678685566884
 30
0.0
 11
784.5946935603055
 21
400.266549710259
 31
0.0
  0
ARC
  5
2288
330
2
100
AcDbEntity
  8
0
100
AcDbCircle
 10
779.5946935603055
 20
385.0678655566884
 30
0.0
 40
15.99999999999977
100
AcDbArc
 50
108.2099568642827
 51
71.79004313571723
  0
ARC
  5
2289
330
2
100
AcDbEntity
  8
0
100
AcDbCircle
 10
779.5946935603055
 20
385.0678655566884
 30
0.0
 40
17.1547005383793
100
AcDbArc
 50
106.9457019888467
 51
73.05429801115323
  0
CIRCLE
  5
228A
330
2
100
AcDbEntity
  8
0
100
AcDbCircle
 10
779.5946935603068
 20
385.0678655566897
 30
0.0
 40
24.5
  0
LINE
  5
228B
330
2
100
AcDbEntity
  8
CENTER
100
AcDbLine
 10
779.5946935603166
 20
473.0678655566918
 30
0.0
 11
779.5946935603166
 21
297.0678655566917
 31
0.0
  0
SPLINE
  5
2468
330
2
100
AcDbEntity
  8
HOJO
100
AcDbSpline
210
0.0
220
0.0
230
1.0
 70
     8
 71
     3
 72
    20
 73
    16
 74
    14
 42
0.0000000001
 43
0.0000000001
 44
0.0000000001
 40
0.0
 40
0.0
 40
0.0
 40
0.0
 40
14.52169659069893
 40
22.36548308125194
 40
28.98533191707967
 40
39.45196448989339
 40
45.93750953072308
 40
54.40392895588402
 40
63.29804273282771
 40
66.38910388412326
 40
71.14314445625265
 40
76.52630951524606
 40
82.04530040687416
 40
92.55882127425721
 40
100.5305202090467
 40
100.5305202090467
 40
100.5305202090467
 40
100.5305202090467
 10
908.8319497327022
 20
385.0678655566887
 30
0.0
 10
910.0281382534317
 20
389.7870156292124
 30
0.0
 10
911.8704391137526
 20
397.0551795414455
 30
0.0
 10
918.176235510084
 20
405.0166592801067
 30
0.0
 10
926.4469318655617
 20
407.4161929483143
 30
0.0
 10
934.3608460702562
 20
407.1299984444563
 30
0.0
 10
942.6978088929045
 20
405.3201900945508
 30
0.0
 10
950.6756603958535
 20
406.280814101636
 30
0.0
 10
957.4748019558082
 20
406.6309233473312
 30
0.0
 10
963.0010062614482
 20
407.3190195282696
 30
0.0
 10
967.2986359952945
 20
408.9112458370052
 30
0.0
 10
970.5090001659991
 20
413.2993016980695
 30
0.0
 10
973.140346808872
 20
419.9065581062067
 30
0.0
 10
975.1920406057534
 20
427.7586201950582
 30
0.0
 10
978.7090731621406
 20
432.8655265752369
 30
0.0
 10
980.2257835385072
 20
435.0678655566839
 30
0.0
 11
908.8319497327022
 21
385.0678655566887
 31
0.0
 11
913.6950890710723
 21
398.7510504070046
 31
0.0
 11
918.9282934810712
 21
404.5938714818407
 31
0.0
 11
925.1809569218631
 21
406.7679456538494
 31
0.0
 11
935.6473689886174
 21
406.7000055097305
 31
0.0
 11
942.066589091832
 21
405.7748526882367
 31
0.0
 11
950.5238784348509
 21
406.1679364594595
 31
0.0
 11
959.3887481891075
 21
406.8885917982231
 31
0.0
 11
962.4456006287468
 21
407.3471898829541
 31
0.0
 11
966.8270871486724
 21
409.1920415401782
 31
0.0
 11
970.2627000053466
 21
413.3363183590481
 31
0.0
 11
972.455618254035
 21
418.4009377935608
 31
0.0
 11
976.0358953311442
 21
428.2860648579958
 31
0.0
 11
980.2257835385072
 21
435.0678655566839
 31
0.0
  0
ENDSEC
  0
SECTION
  2
OBJECTS
  0
DICTIONARY
  5
7
330
0
100
AcDbDictionary
  3
ACAD_COLOR
350
832
  3
ACAD_GROUP
350
75
  3
ACAD_LAYOUT
350
61
  3
ACAD_MATERIAL
350
808
  3
ACAD_MLEADERSTYLE
350
857
  3
ACAD_MLINESTYLE
350
76
  3
ACAD_PLOTSETTINGS
350
77
  3
ACAD_PLOTSTYLENAME
350
6
  3
ACAD_SCALELIST
350
835
  3
ACAD_TABLESTYLE
350
833
  3
ACAD_VISUALSTYLE
350
821
  3
ACADDIM
350
480
  3
ACDB_RECOMPOSE_DATA
350
88E
  3
ACDBHEADERROUNDTRIPXREC
350
24B4
  3
ACDBVARIABLEDICTIONARY
350
102
  3
DWGPROPS
350
2483
  0
DICTIONARY
  5
1BAE
330
6E
100
AcDbDictionary
280
     1
  3
ACAD_XREC_ROUNDTRIP
360
2487
  0
DICTIONARY
  5
86B
330
66
100
AcDbDictionary
280
     1
  3
ACAD_LAYERSTATES
360
86C
  0
DICTIONARY
  5
1AF7
330
5E
100
AcDbDictionary
280
     1
  3
ADSK_XREC_LAYER_RECONCILED
360
1AF8
  0
DICTIONARY
  5
1AF9
330
3E
100
AcDbDictionary
280
     1
  3
ADSK_XREC_LAYER_RECONCILED
360
1AFA
  0
DICTIONARY
  5
1AFF
330
2B5
100
AcDbDictionary
280
     1
  3
ADSK_XREC_LAYER_RECONCILED
360
1B00
  0
DICTIONARY
  5
1B01
330
2BA
100
AcDbDictionary
280
     1
  3
ADSK_XREC_LAYER_RECONCILED
360
1B02
  0
DICTIONARY
  5
1B05
330
3FA
100
AcDbDictionary
280
     1
  3
ADSK_XREC_LAYER_RECONCILED
360
1B06
  0
DICTIONARY
  5
1B07
330
478
100
AcDbDictionary
280
     1
  3
ADSK_XREC_LAYER_RECONCILED
360
1B08
  0
DICTIONARY
  5
24D5
330
2
100
AcDbDictionary
280
     1
  3
ACAD_LAYOUTSELFREF
360
24D6
  0
DICTIONARY
  5
24D7
330
24AE
100
AcDbDictionary
280
     1
  3
ACAD_LAYOUTSELFREF
360
24D8
  0
DICTIONARY
  5
832
102
{ACAD_REACTORS
330
7
102
}
330
7
100
AcDbDictionary
  0
DICTIONARY
  5
75
102
{ACAD_REACTORS
330
7
102
}
330
7
100
AcDbDictionary
  0
DICTIONARY
  5
61
102
{ACAD_REACTORS
330
7
102
}
330
7
100
AcDbDictionary
  0
DICTIONARY
  5
808
102
{ACAD_REACTORS
330
7
102
}
330
7
100
AcDbDictionary
  3
BYBLOCK
350
811
  3
BYLAYER
350
809
  3
GLOBAL
350
819
  0
DICTIONARY
  5
857
102
{ACAD_REACTORS
330
7
102
}
330
7
100
AcDbDictionary
  3
STANDARD
350
858
  0
DICTIONARY
  5
76
102
{ACAD_REACTORS
330
7
102
}
330
7
100
AcDbDictionary
  3
STANDARD
350
78
  0
DICTIONARY
  5
77
102
{ACAD_REACTORS
330
7
102
}
330
7
100
AcDbDictionary
  0
ACDBDICTIONARYWDFLT
  5
6
102
{ACAD_REACTORS
330
7
102
}
330
7
100
AcDbDictionary
281
     1
  3
Normal
350
5
100
AcDbDictionaryWithDefault
340
5
  0
DICTIONARY
  5
835
102
{ACAD_REACTORS
330
7
102
}
330
7
100
AcDbDictionary
  3
A0
350
836
  3
A1
350
837
  3
A2
350
838
  3
A3
350
839
  3
A4
350
83A
  3
A5
350
83B
  3
A6
350
83C
  3
A7
350
83D
  3
A8
350
83E
  3
A9
350
83F
  3
B0
350
840
  3
B1
350
841
  3
B2
350
842
  3
B3
350
843
  3
B4
350
844
  3
B5
350
845
  3
B6
350
846
  3
B7
350
847
  3
B8
350
848
  3
B9
350
849
  3
C0
350
84A
  3
C1
350
84B
  3
C2
350
84C
  3
C3
350
84D
  3
C4
350
84E
  3
C5
350
84F
  3
C6
350
850
  3
C7
350
851
  3
C8
350
852
  3
C9
350
853
  3
D0
350
854
  3
D1
350
855
  3
D2
350
856
  0
DICTIONARY
  5
833
102
{ACAD_REACTORS
330
7
102
}
330
7
100
AcDbDictionary
  3
STANDARD
350
834
  0
DICTIONARY
  5
821
102
{ACAD_REACTORS
330
7
102
}
330
7
100
AcDbDictionary
  3
2DWIREFRAME
350
827
  3
3D_HIDDEN
350
829
  3
3DWIREFRAME
350
828
  3
BASIC
350
826
  3
BRIGHTEN
350
82D
  3
COLORCHANGE
350
831
  3
CONCEPTUAL
350
82A
  3
DIM
350
82C
  3
FACEPATTERN
350
830
  3
FLAT
350
822
  3
FLATWITHEDGES
350
823
  3
GOURAUD
350
824
  3
GOURAUDWITHEDGES
350
825
  3
LINEPATTERN
350
82F
  3
REALISTIC
350
82B
  3
THICKEN
350
82E
  0
XRECORD
  5
480
102
{ACAD_REACTORS
330
7
102
}
330
7
100
AcDbXrecord
 90
   990106
  3

 60
     0
 61
     0
 62
     1
 63
     3
 64
     1
 65
     0
 66
     0
 67
     3
 68
     1
 69
     0
 70
     0
 71
     0
 72
     0
 40
0.0
170
     2
340
0
  0
XRECORD
  5
88E
102
{ACAD_REACTORS
330
7
102
}
330
7
100
AcDbXrecord
 90
        1
330
834
  0
DICTIONARY
  5
24B4
102
{ACAD_REACTORS
330
7
102
}
330
7
100
AcDbDictionary
  3
CEPSNTYPE
350
24BE
  3
DIMSTYLEDATA
350
24C2
  3
FINGERPRINTGUID
350
24BF
  3
HYPERLINKBASE
350
24B7
  3
INSUNITS
350
24BD
  3
LAYOUTDICT
350
24B9
  3
LWETCUNION
350
24BC
  3
PLOTSETDICT
350
24BA
  3
PLOTSTYLNAMDICT
350
24BB
  3
PSVPSCALE
350
24C1
  3
PUCSBASE
350
24C5
  3
PUCSORGBACK
350
24CB
  3
PUCSORGBOTTOM
350
24C7
  3
PUCSORGFRONT
350
24CA
  3
PUCSORGLEFT
350
24C8
  3
PUCSORGRIGHT
350
24C9
  3
PUCSORGTOP
350
24C6
  3
PUCSORTHOREF
350
24C3
  3
PUCSORTHOVIEW
350
24C4
  3
STYLESHEET
350
24B8
  3
TSTACKALIGN
350
24B5
  3
TSTACKSIZE
350
24B6
  3
UCSBASE
350
24CE
  3
UCSORGBACK
350
24D4
  3
UCSORGBOTTOM
350
24D0
  3
UCSORGFRONT
350
24D3
  3
UCSORGLEFT
350
24D1
  3
UCSORGRIGHT
350
24D2
  3
UCSORGTOP
350
24CF
  3
UCSORTHOREF
350
24CC
  3
UCSORTHOVIEW
350
24CD
  3
VERSIONGUID
350
24C0
  0
DICTIONARY
  5
102
102
{ACAD_REACTORS
330
7
102
}
330
7
100
AcDbDictionary
  3
CANNOSCALE
350
892
  3
CMLEADERSTYLE
350
890
  3
CTABLESTYLE
350
88F
  3
DIMASSOC
350
103
  3
INDEXCTL
350
1BBB
  3
LIGHTINGUNITS
350
893
  3
MSLTSCALE
350
891
  3
SORTENTS
350
549
  0
XRECORD
  5
2483
102
{ACAD_REACTORS
330
7
102
}
330
7
100
AcDbXrecord
  1
DWGPROPS COOKIE
  2

  3

  4

  6

  7

  8
knsuzuki
  9

300
=
301
=
302
=
303
=
304
=
305
=
306
=
307
=
308
=
309
=
 40
0.1117835069444444
 41
2454889.454828194
 42
2454904.378138738
  1

 90
        0
  0
XRECORD
  5
2487
102
{ACAD_REACTORS
330
1BAE
102
}
330
1BAE
100
AcDbXrecord
102
VTR_0.000_0.000_1.000_1.000_VISUALSTYLE
340
827
102
VTR_0.000_0.000_1.000_1.000_GRIDDISPLAY
 70
     3
102
VTR_0.000_0.000_1.000_1.000_GRIDMAJOR
 70
     5
102
VTR_0.000_0.000_1.000_1.000_DEFAULTLIGHTING
280
     1
102
VTR_0.000_0.000_1.000_1.000_DEFAULTLIGHTINGTYPE
 70
     1
102
VTR_0.000_0.000_1.000_1.000_BRIGHTNESS
141
0.0
102
VTR_0.000_0.000_1.000_1.000_CONTRAST
142
0.0
  0
DICTIONARY
  5
86C
102
{ACAD_REACTORS
330
86B
102
}
330
86B
100
AcDbDictionary
  0
XRECORD
  5
1AF8
102
{ACAD_REACTORS
330
1AF7
102
}
330
1AF7
100
AcDbXrecord
290
     1
  0
XRECORD
  5
1AFA
102
{ACAD_REACTORS
330
1AF9
102
}
330
1AF9
100
AcDbXrecord
290
     1
  0
XRECORD
  5
1B00
102
{ACAD_REACTORS
330
1AFF
102
}
330
1AFF
100
AcDbXrecord
290
     1
  0
XRECORD
  5
1B02
102
{ACAD_REACTORS
330
1B01
102
}
330
1B01
100
AcDbXrecord
290
     1
  0
XRECORD
  5
1B06
102
{ACAD_REACTORS
330
1B05
102
}
330
1B05
100
AcDbXrecord
290
     1
  0
XRECORD
  5
1B08
102
{ACAD_REACTORS
330
1B07
102
}
330
1B07
100
AcDbXrecord
290
     1
  0
XRECORD
  5
24D6
102
{ACAD_REACTORS
330
24D5
102
}
330
24D5
100
AcDbXrecord
340
2
  0
XRECORD
  5
24D8
102
{ACAD_REACTORS
330
24D7
102
}
330
24D7
100
AcDbXrecord
340
24AE
  0
ACAD_PROXY_OBJECT
  5
811
102
{ACAD_XDICTIONARY
360
812
102
}
102
{ACAD_REACTORS
330
808
102
}
330
808
100
AcDbProxyObject
 90
      499
 91
      512
 93
     1340
310
42109E509B1BD8DAC02004014080404555555555555953FAA155555555555654FEA9AA400014080404555555555555953FAA155555555555654FEA9AA400000000000000E03F4080404555555555555953FAA155555555555654FEA9AA4014080404555555555555953FAA155555555555654FEA9AA4010201011555555555
310
55654FEA8555555555555953FAA6A9005020101155555555555654FEA8555555555555953FAA6A900C
 94
        0
1001
ACAD
1000
AcadProxyRoundTripData
1071
      504
1071
   851991
1070
     0
  0
ACAD_PROXY_OBJECT
  5
809
102
{ACAD_XDICTIONARY
360
80A
102
}
102
{ACAD_REACTORS
330
808
102
}
330
808
100
AcDbProxyObject
 90
      499
 91
      512
 93
     1340
310
42109E53185E595C802004014080404555555555555953FAA155555555555654FEA9AA400014080404555555555555953FAA155555555555654FEA9AA400000000000000E03F4080404555555555555953FAA155555555555654FEA9AA4014080404555555555555953FAA155555555555654FEA9AA4010201011555555555
310
55654FEA8555555555555953FAA6A9005020101155555555555654FEA8555555555555953FAA6A900C
 94
        0
1001
ACAD
1000
AcadProxyRoundTripData
1071
      504
1071
   851991
1070
     0
  0
ACAD_PROXY_OBJECT
  5
819
102
{ACAD_XDICTIONARY
360
81A
102
}
102
{ACAD_REACTORS
330
808
102
}
330
808
100
AcDbProxyObject
 90
      499
 91
      512
 93
     1332
310
41D1DB1BD8985B002004014080404555555555555953FAA155555555555654FEA9AA400014080404555555555555953FAA155555555555654FEA9AA400000000000000E03F4080404555555555555953FAA155555555555654FEA9AA4014080404555555555555953FAA155555555555654FEA9AA401020101155555555555
310
654FEA8555555555555953FAA6A9005020101155555555555654FEA8555555555555953FAA6A9000
 94
        0
1001
ACAD
1000
AcadProxyRoundTripData
1071
      504
1071
   851991
1070
     0
  0
ACAD_PROXY_OBJECT
  5
858
102
{ACAD_REACTORS
330
857
102
}
330
857
100
AcDbProxyObject
 90
      499
 91
      512
 93
      618
310
40901902A4063FBFFFFFE056BD1B81E855B9FC0AD7A3703D0AD73F4254DD185B99185C990000AD7A3703D0AC73F90141901A02B5E8DC0F42B1CFC02B5E8DC0F42B1CFE5764000000000000300FC6
340
6A
340
0
340
16
340
0
 94
        0
1001
ACAD_MLEADERVER
1070
     2
1001
ACAD
1000
AcadProxyRoundTripData
1071
      508
1071
   851991
1070
     0
  0
MLINESTYLE
  5
78
102
{ACAD_REACTORS
330
76
102
}
330
76
100
AcDbMlineStyle
  2
STANDARD
 70
     0
  3

 62
     0
 51
90.0
 52
90.0
 71
     2
 49
0.5
 62
   256
  6
BYLAYER
 49
-0.5
 62
   256
  6
BYLAYER
  0
ACDBPLACEHOLDER
  5
5
102
{ACAD_REACTORS
330
6
102
}
330
6
100
AcDbPlaceHolder
280
     0
  0
ACAD_PROXY_OBJECT
  5
836
102
{ACAD_REACTORS
330
835
102
}
330
835
100
AcDbProxyObject
 90
      499
 91
      512
 93
       49
310
904313A3100598
 94
        0
1001
ACAD
1000
AcadProxyRoundTripData
1071
      507
1071
   851991
1070
     0
  0
ACAD_PROXY_OBJECT
  5
837
102
{ACAD_REACTORS
330
835
102
}
330
835
100
AcDbProxyObject
 90
      499
 91
      512
 93
      113
310
904313A3200400000000000000406B
 94
        0
1001
ACAD
1000
AcadProxyRoundTripData
1071
      507
1071
   851991
1070
     0
  0
ACAD_PROXY_OBJECT
  5
838
102
{ACAD_REACTORS
330
835
102
}
330
835
100
AcDbProxyObject
 90
      499
 91
      512
 93
      113
310
904313A3400400000000000010406B
 94
        0
1001
ACAD
1000
AcadProxyRoundTripData
1071
      507
1071
   851991
1070
     0
  0
ACAD_PROXY_OBJECT
  5
839
102
{ACAD_REACTORS
330
835
102
}
330
835
100
AcDbProxyObject
 90
      499
 91
      512
 93
      113
310
904313A3500400000000000014406B
 94
        0
1001
ACAD
1000
AcadProxyRoundTripData
1071
      507
1071
   851991
1070
     0
  0
ACAD_PROXY_OBJECT
  5
83A
102
{ACAD_REACTORS
330
835
102
}
330
835
100
AcDbProxyObject
 90
      499
 91
      512
 93
      113
310
904313A3800400000000000020406B
 94
        0
1001
ACAD
1000
AcadProxyRoundTripData
1071
      507
1071
   851991
1070
     0
  0
ACAD_PROXY_OBJECT
  5
83B
102
{ACAD_REACTORS
330
835
102
}
330
835
100
AcDbProxyObject
 90
      499
 91
      512
 93
      121
310
905313A3130004000000000000244051
 94
        0
1001
ACAD
1000
AcadProxyRoundTripData
1071
      507
1071
   851991
1070
     0
  0
ACAD_PROXY_OBJECT
  5
83C
102
{ACAD_REACTORS
330
835
102
}
330
835
100
AcDbProxyObject
 90
      499
 91
      512
 93
      121
310
905313A3136004000000000000304051
 94
        0
1001
ACAD
1000
AcadProxyRoundTripData
1071
      507
1071
   851991
1070
     0
  0
ACAD_PROXY_OBJECT
  5
83D
102
{ACAD_REACTORS
330
835
102
}
330
835
100
AcDbProxyObject
 90
      499
 91
      512
 93
      121
310
905313A3230004000000000000344051
 94
        0
1001
ACAD
1000
AcadProxyRoundTripData
1071
      507
1071
   851991
1070
     0
  0
ACAD_PROXY_OBJECT
  5
83E
102
{ACAD_REACTORS
330
835
102
}
330
835
100
AcDbProxyObject
 90
      499
 91
      512
 93
      121
310
905313A33300040000000000003E4051
 94
        0
1001
ACAD
1000
AcadProxyRoundTripData
1071
      507
1071
   851991
1070
     0
  0
ACAD_PROXY_OBJECT
  5
83F
102
{ACAD_REACTORS
330
835
102
}
330
835
100
AcDbProxyObject
 90
      499
 91
      512
 93
      121
310
905313A3430004000000000000444051
 94
        0
1001
ACAD
1000
AcadProxyRoundTripData
1071
      507
1071
   851991
1070
     0
  0
ACAD_PROXY_OBJECT
  5
840
102
{ACAD_REACTORS
330
835
102
}
330
835
100
AcDbProxyObject
 90
      499
 91
      512
 93
      121
310
905313A3530004000000000000494051
 94
        0
1001
ACAD
1000
AcadProxyRoundTripData
1071
      507
1071
   851991
1070
     0
  0
ACAD_PROXY_OBJECT
  5
841
102
{ACAD_REACTORS
330
835
102
}
330
835
100
AcDbProxyObject
 90
      499
 91
      512
 93
      129
310
906313A313030004000000000000594038
 94
        0
1001
ACAD
1000
AcadProxyRoundTripData
1071
      507
1071
   851991
1070
     0
  0
ACAD_PROXY_OBJECT
  5
842
102
{ACAD_REACTORS
330
835
102
}
330
835
100
AcDbProxyObject
 90
      499
 91
      512
 93
      113
310
904323A31000000000000000010159
 94
        0
1001
ACAD
1000
AcadProxyRoundTripData
1071
      507
1071
   851991
1070
     0
  0
ACAD_PROXY_OBJECT
  5
843
102
{ACAD_REACTORS
330
835
102
}
330
835
100
AcDbProxyObject
 90
      499
 91
      512
 93
      113
310
904343A31000000000000000410159
 94
        0
1001
ACAD
1000
AcadProxyRoundTripData
1071
      507
1071
   851991
1070
     0
  0
ACAD_PROXY_OBJECT
  5
844
102
{ACAD_REACTORS
330
835
102
}
330
835
100
AcDbProxyObject
 90
      499
 91
      512
 93
      113
310
904383A31000000000000000810159
 94
        0
1001
ACAD
1000
AcadProxyRoundTripData
1071
      507
1071
   851991
1070
     0
  0
ACAD_PROXY_OBJECT
  5
845
102
{ACAD_REACTORS
330
835
102
}
330
835
100
AcDbProxyObject
 90
      499
 91
      512
 93
      121
310
90531303A31000000000000000910140
 94
        0
1001
ACAD
1000
AcadProxyRoundTripData
1071
      507
1071
   851991
1070
     0
  0
ACAD_PROXY_OBJECT
  5
846
102
{ACAD_REACTORS
330
835
102
}
330
835
100
AcDbProxyObject
 90
      499
 91
      512
 93
      129
310
9063130303A31000000000000001650138
 94
        0
1001
ACAD
1000
AcadProxyRoundTripData
1071
      507
1071
   851991
1070
     0
  0
ACAD_PROXY_OBJECT
  5
847
102
{ACAD_REACTORS
330
835
102
}
330
835
100
AcDbProxyObject
 90
      499
 91
      512
 93
      265
310
90F312F31323822203D2031272D302200000000000000200FC00000000000028402B
 94
        0
1001
ACAD
1000
AcadProxyRoundTripData
1071
      507
1071
   851991
1070
     0
  0
ACAD_PROXY_OBJECT
  5
848
102
{ACAD_REACTORS
330
835
102
}
330
835
100
AcDbProxyObject
 90
      499
 91
      512
 93
      257
310
90E312F363422203D2031272D302200000000000000240FC000000000000284040
 94
        0
1001
ACAD
1000
AcadProxyRoundTripData
1071
      507
1071
   851991
1070
     0
  0
ACAD_PROXY_OBJECT
  5
849
102
{ACAD_REACTORS
330
835
102
}
330
835
100
AcDbProxyObject
 90
      499
 91
      512
 93
      257
310
90E312F333222203D2031272D302200000000000000280FC000000000000284040
 94
        0
1001
ACAD
1000
AcadProxyRoundTripData
1071
      507
1071
   851991
1070
     0
  0
ACAD_PROXY_OBJECT
  5
84A
102
{ACAD_REACTORS
330
835
102
}
330
835
100
AcDbProxyObject
 90
      499
 91
      512
 93
      257
310
90E312F313622203D2031272D3022000000000000002C0FC000000000000284040
 94
        0
1001
ACAD
1000
AcadProxyRoundTripData
1071
      507
1071
   851991
1070
     0
  0
ACAD_PROXY_OBJECT
  5
84B
102
{ACAD_REACTORS
330
835
102
}
330
835
100
AcDbProxyObject
 90
      499
 91
      512
 93
      257
310
90E332F333222203D2031272D3022000000000000002E0FC000000000000284040
 94
        0
1001
ACAD
1000
AcadProxyRoundTripData
1071
      507
1071
   851991
1070
     0
  0
ACAD_PROXY_OBJECT
  5
84C
102
{ACAD_REACTORS
330
835
102
}
330
835
100
AcDbProxyObject
 90
      499
 91
      512
 93
      249
310
90D312F3822203D2031272D302200000000000000300FC000000000000284040
 94
        0
1001
ACAD
1000
AcadProxyRoundTripData
1071
      507
1071
   851991
1070
     0
  0
ACAD_PROXY_OBJECT
  5
84D
102
{ACAD_REACTORS
330
835
102
}
330
835
100
AcDbProxyObject
 90
      499
 91
      512
 93
      257
310
90E332F313622203D2031272D302200000000000000320FC000000000000284040
 94
        0
1001
ACAD
1000
AcadProxyRoundTripData
1071
      507
1071
   851991
1070
     0
  0
ACAD_PROXY_OBJECT
  5
84E
102
{ACAD_REACTORS
330
835
102
}
330
835
100
AcDbProxyObject
 90
      499
 91
      512
 93
      249
310
90D312F3422203D2031272D302200000000000000340FC000000000000284040
 94
        0
1001
ACAD
1000
AcadProxyRoundTripData
1071
      507
1071
   851991
1070
     0
  0
ACAD_PROXY_OBJECT
  5
84F
102
{ACAD_REACTORS
330
835
102
}
330
835
100
AcDbProxyObject
 90
      499
 91
      512
 93
      249
310
90D332F3822203D2031272D302200000000000000360FC000000000000284040
 94
        0
1001
ACAD
1000
AcadProxyRoundTripData
1071
      507
1071
   851991
1070
     0
  0
ACAD_PROXY_OBJECT
  5
850
102
{ACAD_REACTORS
330
835
102
}
330
835
100
AcDbProxyObject
 90
      499
 91
      512
 93
      249
310
90D312F3222203D2031272D302200000000000000380FC000000000000284040
 94
        0
1001
ACAD
1000
AcadProxyRoundTripData
1071
      507
1071
   851991
1070
     0
  0
ACAD_PROXY_OBJECT
  5
851
102
{ACAD_REACTORS
330
835
102
}
330
835
100
AcDbProxyObject
 90
      499
 91
      512
 93
      249
310
90D332F3422203D2031272D3022000000000000003A0FC000000000000284040
 94
        0
1001
ACAD
1000
AcadProxyRoundTripData
1071
      507
1071
   851991
1070
     0
  0
ACAD_PROXY_OBJECT
  5
852
102
{ACAD_REACTORS
330
835
102
}
330
835
100
AcDbProxyObject
 90
      499
 91
      512
 93
      169
310
90B3122203D2031272D3022004000000000000284020
 94
        0
1001
ACAD
1000
AcadProxyRoundTripData
1071
      507
1071
   851991
1070
     0
  0
ACAD_PROXY_OBJECT
  5
853
102
{ACAD_REACTORS
330
835
102
}
330
835
100
AcDbProxyObject
 90
      499
 91
      512
 93
      265
310
90F312D312F3222203D2031272D3022000000000000003E0FC00000000000028402B
 94
        0
1001
ACAD
1000
AcadProxyRoundTripData
1071
      507
1071
   851991
1070
     0
  0
ACAD_PROXY_OBJECT
  5
854
102
{ACAD_REACTORS
330
835
102
}
330
835
100
AcDbProxyObject
 90
      499
 91
      512
 93
      233
310
90B3322203D2031272D30220000000000000002100000000000000284000
 94
        0
1001
ACAD
1000
AcadProxyRoundTripData
1071
      507
1071
   851991
1070
     0
  0
ACAD_PROXY_OBJECT
  5
855
102
{ACAD_REACTORS
330
835
102
}
330
835
100
AcDbProxyObject
 90
      499
 91
      512
 93
      233
310
90B3622203D2031272D30220000000000000006100000000000000284000
 94
        0
1001
ACAD
1000
AcadProxyRoundTripData
1071
      507
1071
   851991
1070
     0
  0
ACAD_PROXY_OBJECT
  5
856
102
{ACAD_REACTORS
330
835
102
}
330
835
100
AcDbProxyObject
 90
      499
 91
      512
 93
      257
310
90E31272D3022203D2031272D3022000000000000000A100000000000000284040
 94
        0
1001
ACAD
1000
AcadProxyRoundTripData
1071
      507
1071
   851991
1070
     0
  0
ACAD_PROXY_OBJECT
  5
834
102
{ACAD_XDICTIONARY
360
88C
102
}
102
{ACAD_REACTORS
330
833
102
}
330
833
100
AcDbProxyObject
 90
      499
 91
      512
 93
     1849
310
4254DD185B99185C990028B81E85EB51B8AE3F2E07A17AD46E2B8FC02B5E8DC0F42B1CFD028000000C1008070000C3001FDFF8000000C1003FBFF000000182007F7FE00000030400FEFFC00000060801FDFF8000000C1003FBFF00000018200000000000000681FA0B0000001820100E000186003FBFF000000182007F7FE0
310
0000030400FEFFC00000060801FDFF8000000C1003FBFF000000182007F7FE000000304000AD7A3703D0AC73F4160000003040201C00030C007F7FE00000030400FEFFC00000060801FDFF8000000C1003FBFF000000182007F7FE00000030400FEFFC000000608034
340
16
340
16
340
16
 94
        0
1001
ACAD
1000
AcadProxyRoundTripData
1071
      506
1071
   851991
1070
     0
  0
ACAD_PROXY_OBJECT
  5
827
102
{ACAD_REACTORS
330
821
102
}
330
821
100
AcDbProxyObject
 90
      499
 91
      512
 93
      444
310
430C9915DA5C99599C985B59401049028333333333333E3BF0000000000000FB0107901411070040501600405405064090741402480A0340
 94
        0
1001
ACAD
1000
AcDbSavedByObjectVersion
1070
     0
1000
AcadProxyRoundTripData
1071
      505
1071
   851991
1070
     0
  0
ACAD_PROXY_OBJECT
  5
829
102
{ACAD_REACTORS
330
821
102
}
330
821
100
AcDbProxyObject
 90
      499
 91
      512
 93
      508
310
428CD108121A5919195B8010640502408333333333333E3BF0000000000000FB01079024090700405020000000000001110200405405064090740C02480A0340
 94
        0
1001
ACAD
1000
AcDbSavedByObjectVersion
1070
     0
1000
AcadProxyRoundTripData
1071
      505
1071
   851991
1070
     0
  0
ACAD_PROXY_OBJECT
  5
828
102
{ACAD_REACTORS
330
821
102
}
330
821
100
AcDbProxyObject
 90
      499
 91
      512
 93
      444
310
430CD915DA5C99599C985B59401059028333333333333E3BF0000000000000FB0107901411070040501600405405064090741402480A0340
 94
        0
1001
ACAD
1000
AcDbSavedByObjectVersion
1070
     0
1000
AcadProxyRoundTripData
1071
      505
1071
   851991
1070
     0
  0
ACAD_PROXY_OBJECT
  5
826
102
{ACAD_REACTORS
330
821
102
}
330
821
100
AcDbProxyObject
 90
      499
 91
      512
 93
      396
310
4190985CDA58C0107406404333333333333E3BF0000000000000FB0107A41107004050150841D405064090741402480A0356
 94
        0
1001
ACAD
1000
AcDbSavedByObjectVersion
1070
     0
1000
AcadProxyRoundTripData
1071
      505
1071
   851991
1070
     0
  0
ACAD_PROXY_OBJECT
  5
82D
102
{ACAD_REACTORS
330
821
102
}
330
821
100
AcDbProxyObject
 90
      499
 91
      512
 93
      436
310
42509C9A59DA1D195B8010C409028333333333333E3BF0000000000000FB010790141107004050150841D405064090741402480A029956
 94
        0
1001
ACAD
1000
AcDbSavedByObjectVersion
1070
     0
1000
AcadProxyRoundTripData
1071
      505
1071
   851991
1070
     0
  0
ACAD_PROXY_OBJECT
  5
831
102
{ACAD_REACTORS
330
821
102
}
330
821
100
AcDbProxyObject
 90
      499
 91
      512
 93
      460
310
4310DBDB1BDC90DA185B99D9401104090240C333333333333E3BF0000000000000FB0108901411070040501508421405064090741402480A0354
 94
        0
1001
ACAD
1000
AcDbSavedByObjectVersion
1070
     0
1000
AcadProxyRoundTripData
1071
      505
1071
   851991
1070
     0
  0
ACAD_PROXY_OBJECT
  5
82A
102
{ACAD_REACTORS
330
821
102
}
330
821
100
AcDbProxyObject
 90
      499
 91
      512
 93
      508
310
42D0DBDB98D95C1D1D585B0010940D028333333333333E3BF0000000000000FB0107902409070040501000000000000111010841D405064090740C02480A0340
 94
        0
1001
ACAD
1000
AcDbSavedByObjectVersion
1070
     0
1000
AcadProxyRoundTripData
1071
      505
1071
   851991
1070
     0
  0
ACAD_PROXY_OBJECT
  5
82C
102
{ACAD_REACTORS
330
821
102
}
330
821
100
AcDbProxyObject
 90
      499
 91
      512
 93
      420
310
41111A5B4010B409028333333333333E3BF0000000000000FB010790141107004050150841D405064090741402480A02677FFFFFDB
 94
        0
1001
ACAD
1000
AcDbSavedByObjectVersion
1070
     0
1000
AcadProxyRoundTripData
1071
      505
1071
   851991
1070
     0
  0
ACAD_PROXY_OBJECT
  5
830
102
{ACAD_REACTORS
330
821
102
}
330
821
100
AcDbProxyObject
 90
      499
 91
      512
 93
      452
310
43119858D95C185D1D195C9B8010F409028333333333333E3BF0000000000000FB010790141107004050150841D405064090741402480A0350
 94
        0
1001
ACAD
1000
AcDbSavedByObjectVersion
1070
     0
1000
AcadProxyRoundTripData
1071
      505
1071
   851991
1070
     0
  0
ACAD_PROXY_OBJECT
  5
822
102
{ACAD_REACTORS
330
821
102
}
330
821
100
AcDbProxyObject
 90
      499
 91
      512
 93
      396
310
41519B185D00240901404333333333333E3BF0000000000000F9010740A41107004050150841D405064090741402480A1B55
 94
        0
1001
ACAD
1000
AcDbSavedByObjectVersion
1070
     0
1000
AcadProxyRoundTripData
1071
      505
1071
   851991
1070
     0
  0
ACAD_PROXY_OBJECT
  5
823
102
{ACAD_REACTORS
330
821
102
}
330
821
100
AcDbProxyObject
 90
      499
 91
      512
 93
      484
310
43919B185D15DA5D1A115919D95CC010140901404333333333333E3BF0000000000000F9010740901411070040501600405405064090741402480A1B50
 94
        0
1001
ACAD
1000
AcDbSavedByObjectVersion
1070
     0
1000
AcadProxyRoundTripData
1071
      505
1071
   851991
1070
     0
  0
ACAD_PROXY_OBJECT
  5
824
102
{ACAD_REACTORS
330
821
102
}
330
821
100
AcDbProxyObject
 90
      499
 91
      512
 93
      420
310
4211DBDD5C985D590010240902404333333333333E3BF0000000000000F9010740A411070040501641D405064090741402480A1B50
 94
        0
1001
ACAD
1000
AcDbSavedByObjectVersion
1070
     0
1000
AcadProxyRoundTripData
1071
      505
1071
   851991
1070
     0
  0
ACAD_PROXY_OBJECT
  5
825
102
{ACAD_REACTORS
330
821
102
}
330
821
100
AcDbProxyObject
 90
      499
 91
      512
 93
      508
310
4451DBDD5C985D5915DA5D1A115919D95CC010340902404333333333333E3BF0000000000000F9010740901411070040501600405405064090741402480A1B50
 94
        0
1001
ACAD
1000
AcDbSavedByObjectVersion
1070
     0
1000
AcadProxyRoundTripData
1071
      505
1071
   851991
1070
     0
  0
ACAD_PROXY_OBJECT
  5
82F
102
{ACAD_REACTORS
330
821
102
}
330
821
100
AcDbProxyObject
 90
      499
 91
      512
 93
      452
310
43131A5B995C185D1D195C9B8010E409028333333333333E3BF0000000000000FB010790141107004050750841D405064090741402483A0350
 94
        0
1001
ACAD
1000
AcDbSavedByObjectVersion
1070
     0
1000
AcadProxyRoundTripData
1071
      505
1071
   851991
1070
     0
  0
ACAD_PROXY_OBJECT
  5
82B
102
{ACAD_REACTORS
330
821
102
}
330
821
100
AcDbProxyObject
 90
      499
 91
      512
 93
      428
310
429499585B1A5CDD1A58C0108409028333333333333E3BF0000000000000FB01079019070040501508421405064090741402480A1B45
 94
        0
1001
ACAD
1000
AcDbSavedByObjectVersion
1070
     0
1000
AcadProxyRoundTripData
1071
      505
1071
   851991
1070
     0
  0
ACAD_PROXY_OBJECT
  5
82E
102
{ACAD_REACTORS
330
821
102
}
330
821
100
AcDbProxyObject
 90
      499
 91
      512
 93
      420
310
42151A1A58DAD95B8010D409028333333333333E3BF0000000000000FB010790141107004050150C41D405064090741402480A0352
 94
        0
1001
ACAD
1000
AcDbSavedByObjectVersion
1070
     0
1000
AcadProxyRoundTripData
1071
      505
1071
   851991
1070
     0
  0
XRECORD
  5
24BE
102
{ACAD_REACTORS
330
24B4
102
}
330
24B4
100
AcDbXrecord
 90
        0
  0
XRECORD
  5
24C2
102
{ACAD_REACTORS
330
24B4
102
}
330
24B4
100
AcDbXrecord
1000
DSTYLE
1002
{
1070
   179
 70
     2
1070
   277
 70
     6
1002
}
  0
XRECORD
  5
24BF
102
{ACAD_REACTORS
330
24B4
102
}
330
24B4
100
AcDbXrecord
  1
{F8E7DCD7-EF2B-4E83-868E-1BB3A7734B1D}
  0
XRECORD
  5
24B7
102
{ACAD_REACTORS
330
24B4
102
}
330
24B4
100
AcDbXrecord
  1

  0
XRECORD
  5
24BD
102
{ACAD_REACTORS
330
24B4
102
}
330
24B4
100
AcDbXrecord
 90
        0
  0
XRECORD
  5
24B9
102
{ACAD_REACTORS
330
24B4
102
}
330
24B4
100
AcDbXrecord
340
61
  0
XRECORD
  5
24BC
102
{ACAD_REACTORS
330
24B4
102
}
330
24B4
100
AcDbXrecord
 90
    10781
  0
XRECORD
  5
24BA
102
{ACAD_REACTORS
330
24B4
102
}
330
24B4
100
AcDbXrecord
340
77
  0
XRECORD
  5
24BB
102
{ACAD_REACTORS
330
24B4
102
}
330
24B4
100
AcDbXrecord
340
6
  0
XRECORD
  5
24C1
102
{ACAD_REACTORS
330
24B4
102
}
330
24B4
100
AcDbXrecord
 40
0.0
  0
XRECORD
  5
24C5
102
{ACAD_REACTORS
330
24B4
102
}
330
24B4
100
AcDbXrecord
340
0
  0
XRECORD
  5
24CB
102
{ACAD_REACTORS
330
24B4
102
}
330
24B4
100
AcDbXrecord
 10
0.0
 20
0.0
 30
0.0
  0
XRECORD
  5
24C7
102
{ACAD_REACTORS
330
24B4
102
}
330
24B4
100
AcDbXrecord
 10
0.0
 20
0.0
 30
0.0
  0
XRECORD
  5
24CA
102
{ACAD_REACTORS
330
24B4
102
}
330
24B4
100
AcDbXrecord
 10
0.0
 20
0.0
 30
0.0
  0
XRECORD
  5
24C8
102
{ACAD_REACTORS
330
24B4
102
}
330
24B4
100
AcDbXrecord
 10
0.0
 20
0.0
 30
0.0
  0
XRECORD
  5
24C9
102
{ACAD_REACTORS
330
24B4
102
}
330
24B4
100
AcDbXrecord
 10
0.0
 20
0.0
 30
0.0
  0
XRECORD
  5
24C6
102
{ACAD_REACTORS
330
24B4
102
}
330
24B4
100
AcDbXrecord
 10
0.0
 20
0.0
 30
0.0
  0
XRECORD
  5
24C3
102
{ACAD_REACTORS
330
24B4
102
}
330
24B4
100
AcDbXrecord
340
0
  0
XRECORD
  5
24C4
102
{ACAD_REACTORS
330
24B4
102
}
330
24B4
100
AcDbXrecord
 70
     0
  0
XRECORD
  5
24B8
102
{ACAD_REACTORS
330
24B4
102
}
330
24B4
100
AcDbXrecord
  1
Sekkei.ctb
  0
XRECORD
  5
24B5
102
{ACAD_REACTORS
330
24B4
102
}
330
24B4
100
AcDbXrecord
 90
        1
  0
XRECORD
  5
24B6
102
{ACAD_REACTORS
330
24B4
102
}
330
24B4
100
AcDbXrecord
 90
       70
  0
XRECORD
  5
24CE
102
{ACAD_REACTORS
330
24B4
102
}
330
24B4
100
AcDbXrecord
340
0
  0
XRECORD
  5
24D4
102
{ACAD_REACTORS
330
24B4
102
}
330
24B4
100
AcDbXrecord
 10
0.0
 20
0.0
 30
0.0
  0
XRECORD
  5
24D0
102
{ACAD_REACTORS
330
24B4
102
}
330
24B4
100
AcDbXrecord
 10
0.0
 20
0.0
 30
0.0
  0
XRECORD
  5
24D3
102
{ACAD_REACTORS
330
24B4
102
}
330
24B4
100
AcDbXrecord
 10
0.0
 20
0.0
 30
0.0
  0
XRECORD
  5
24D1
102
{ACAD_REACTORS
330
24B4
102
}
330
24B4
100
AcDbXrecord
 10
0.0
 20
0.0
 30
0.0
  0
XRECORD
  5
24D2
102
{ACAD_REACTORS
330
24B4
102
}
330
24B4
100
AcDbXrecord
 10
0.0
 20
0.0
 30
0.0
  0
XRECORD
  5
24CF
102
{ACAD_REACTORS
330
24B4
102
}
330
24B4
100
AcDbXrecord
 10
0.0
 20
0.0
 30
0.0
  0
XRECORD
  5
24CC
102
{ACAD_REACTORS
330
24B4
102
}
330
24B4
100
AcDbXrecord
340
0
  0
XRECORD
  5
24CD
102
{ACAD_REACTORS
330
24B4
102
}
330
24B4
100
AcDbXrecord
 70
     0
  0
XRECORD
  5
24C0
102
{ACAD_REACTORS
330
24B4
102
}
330
24B4
100
AcDbXrecord
  1
{928C89F8-B2B1-4D01-B111-218B93055D19}
  0
DICTIONARYVAR
  5
892
102
{ACAD_REACTORS
330
102
102
}
330
102
100
DictionaryVariables
280
     0
  1
1:1
  0
DICTIONARYVAR
  5
890
102
{ACAD_REACTORS
330
102
102
}
330
102
100
DictionaryVariables
280
     0
  1
STANDARD
  0
DICTIONARYVAR
  5
88F
102
{ACAD_REACTORS
330
102
102
}
330
102
100
DictionaryVariables
280
     0
  1
STANDARD
  0
DICTIONARYVAR
  5
103
102
{ACAD_REACTORS
330
102
102
}
330
102
100
DictionaryVariables
280
     0
  1
1
  0
DICTIONARYVAR
  5
1BBB
102
{ACAD_REACTORS
330
102
102
}
330
102
100
DictionaryVariables
280
     0
  1
0
  0
DICTIONARYVAR
  5
893
102
{ACAD_REACTORS
330
102
102
}
330
102
100
DictionaryVariables
280
     0
  1
0
  0
DICTIONARYVAR
  5
891
102
{ACAD_REACTORS
330
102
102
}
330
102
100
DictionaryVariables
280
     0
  1
0
  0
DICTIONARYVAR
  5
549
102
{ACAD_REACTORS
330
102
102
}
330
102
100
DictionaryVariables
280
     0
  1
96
  0
DICTIONARY
  5
812
330
811
100
AcDbDictionary
280
     1
  3
ACAD_XREC_ROUNDTRIP
360
248B
  3
BUMPTILE
360
814
  3
DIFFUSETILE
360
813
  3
OPACITYTILE
360
817
  3
REFLECTIONTILE
360
816
  3
REFRACTIONTILE
360
818
  3
SPECULARTILE
360
815
  0
DICTIONARY
  5
80A
330
809
100
AcDbDictionary
280
     1
  3
ACAD_XREC_ROUNDTRIP
360
248A
  3
BUMPTILE
360
80C
  3
DIFFUSETILE
360
80B
  3
OPACITYTILE
360
80F
  3
REFLECTIONTILE
360
80E
  3
REFRACTIONTILE
360
810
  3
SPECULARTILE
360
80D
  0
DICTIONARY
  5
81A
330
819
100
AcDbDictionary
280
     1
  3
ACAD_XREC_ROUNDTRIP
360
248C
  3
BUMPTILE
360
81C
  3
DIFFUSETILE
360
81B
  3
OPACITYTILE
360
81F
  3
REFLECTIONTILE
360
81E
  3
REFRACTIONTILE
360
820
  3
SPECULARTILE
360
81D
  0
DICTIONARY
  5
88C
330
834
100
AcDbDictionary
280
     1
  3
ACAD_ROUNDTRIP_2008_TABLES
360
2482
  3
ACAD_XREC_ROUNDTRIP
360
248D
  0
XRECORD
  5
248B
102
{ACAD_REACTORS
330
812
102
}
330
812
100
AcDbXrecord
102
MATERIAL
148
0.0
149
0.0
149
0.0
 93
        0
 94
      127
282
     0
 72
     0
 77
     0
171
     0
175
     0
179
     0
273
     0
  0
XRECORD
  5
814
102
{ACAD_REACTORS
330
812
102
}
330
812
100
AcDbXrecord
270
     1
271
     1
  0
XRECORD
  5
813
102
{ACAD_REACTORS
330
812
102
}
330
812
100
AcDbXrecord
270
     1
271
     1
  0
XRECORD
  5
817
102
{ACAD_REACTORS
330
812
102
}
330
812
100
AcDbXrecord
270
     1
271
     1
  0
XRECORD
  5
816
102
{ACAD_REACTORS
330
812
102
}
330
812
100
AcDbXrecord
270
     1
271
     1
  0
XRECORD
  5
818
102
{ACAD_REACTORS
330
812
102
}
330
812
100
AcDbXrecord
270
     1
271
     1
  0
XRECORD
  5
815
102
{ACAD_REACTORS
330
812
102
}
330
812
100
AcDbXrecord
270
     1
271
     1
  0
XRECORD
  5
248A
102
{ACAD_REACTORS
330
80A
102
}
330
80A
100
AcDbXrecord
102
MATERIAL
148
0.0
149
0.0
149
0.0
 93
        0
 94
      127
282
     0
 72
     0
 77
     0
171
     0
175
     0
179
     0
273
     0
  0
XRECORD
  5
80C
102
{ACAD_REACTORS
330
80A
102
}
330
80A
100
AcDbXrecord
270
     1
271
     1
  0
XRECORD
  5
80B
102
{ACAD_REACTORS
330
80A
102
}
330
80A
100
AcDbXrecord
270
     1
271
     1
  0
XRECORD
  5
80F
102
{ACAD_REACTORS
330
80A
102
}
330
80A
100
AcDbXrecord
270
     1
271
     1
  0
XRECORD
  5
80E
102
{ACAD_REACTORS
330
80A
102
}
330
80A
100
AcDbXrecord
270
     1
271
     1
  0
XRECORD
  5
810
102
{ACAD_REACTORS
330
80A
102
}
330
80A
100
AcDbXrecord
270
     1
271
     1
  0
XRECORD
  5
80D
102
{ACAD_REACTORS
330
80A
102
}
330
80A
100
AcDbXrecord
270
     1
271
     1
  0
XRECORD
  5
248C
102
{ACAD_REACTORS
330
81A
102
}
330
81A
100
AcDbXrecord
102
MATERIAL
148
0.0
149
0.0
149
0.0
 93
        0
 94
      127
282
     0
 72
     0
 77
     0
171
     0
175
     0
179
     0
273
     0
  0
XRECORD
  5
81C
102
{ACAD_REACTORS
330
81A
102
}
330
81A
100
AcDbXrecord
270
     1
271
     1
  0
XRECORD
  5
81B
102
{ACAD_REACTORS
330
81A
102
}
330
81A
100
AcDbXrecord
270
     1
271
     1
  0
XRECORD
  5
81F
102
{ACAD_REACTORS
330
81A
102
}
330
81A
100
AcDbXrecord
270
     1
271
     1
  0
XRECORD
  5
81E
102
{ACAD_REACTORS
330
81A
102
}
330
81A
100
AcDbXrecord
270
     1
271
     1
  0
XRECORD
  5
820
102
{ACAD_REACTORS
330
81A
102
}
330
81A
100
AcDbXrecord
270
     1
271
     1
  0
XRECORD
  5
81D
102
{ACAD_REACTORS
330
81A
102
}
330
81A
100
AcDbXrecord
270
     1
271
     1
  0
ACAD_PROXY_OBJECT
  5
2482
102
{ACAD_REACTORS
330
88C
102
}
330
88C
100
AcDbProxyObject
 90
      499
 91
      512
 93
     1044
310
40D054060020000020000003200101A000080002A5058000000C100000000000000340FE901405075F5449544C450041501A8000000C800406800020000A9416000000304000AD7A3703D0AC73FA409014217D2115051115480105406A0000003200101A000080002A5028000000C10002B5E8DC0F42B1CFE903409065F444
310
15441003
340
16
340
16
340
16
 94
        0
1001
ACAD
1000
AcadProxyRoundTripData
1071
      510
1071
   851991
1070
     0
  0
XRECORD
  5
248D
102
{ACAD_REACTORS
330
88C
102
}
330
88C
100
AcDbXrecord
102
ACAD_ROUNDTRIP_PRE2007_TABLESTYLE
 90
      512
 91
        0
  1

 92
      512
 93
        0
  2

 94
      512
 95
        0
  3

  0
ENDSEC
  0
EOF
