  0
SECTION
  2
HEADER
  9
$ACADVER
  1
AC1014
  9
$ACADMAINTVER
 70
     9
  9
$DWGCODEPAGE
  3
ANSI_932
  9
$INSBASE
 10
0.0
 20
0.0
 30
0.0
  9
$EXTMIN
 10
83.31653801361472
 20
85.07982175058344
 30
0.0
  9
$EXTMAX
 10
1443.159090239304
 20
913.3627966238609
 30
0.0
  9
$LIMMIN
 10
0.0
 20
0.0
  9
$LIMMAX
 10
297.0
 20
210.0
  9
$ORTHOMODE
 70
     1
  9
$REGENMODE
 70
     1
  9
$FILLMODE
 70
     1
  9
$QTEXTMODE
 70
     0
  9
$MIRRTEXT
 70
     0
  9
$DRAGMODE
 70
     2
  9
$LTSCALE
 40
4.0
  9
$OSMODE
 70
    37
  9
$ATTMODE
 70
     1
  9
$TEXTSIZE
 40
2.0
  9
$TRACEWID
 40
1.0
  9
$TEXTSTYLE
  7
STANDARD
  9
$CLAYER
  8
0
  9
$CELTYPE
  6
BYLAYER
  9
$CECOLOR
 62
   256
  9
$CELTSCALE
 40
1.0
  9
$DELOBJ
 70
     1
  9
$DISPSILH
 70
     0
  9
$DIMSCALE
 40
4.0
  9
$DIMASZ
 40
1.8
  9
$DIMEXO
 40
0.625
  9
$DIMDLI
 40
3.75
  9
$DIMRND
 40
0.0
  9
$DIMDLE
 40
0.0
  9
$DIMEXE
 40
0.8
  9
$DIMTP
 40
0.0
  9
$DIMTM
 40
0.0
  9
$DIMTXT
 40
1.8
  9
$DIMCEN
 40
2.5
  9
$DIMTSZ
 40
0.0
  9
$DIMTOL
 70
     0
  9
$DIMLIM
 70
     0
  9
$DIMTIH
 70
     0
  9
$DIMTOH
 70
     0
  9
$DIMSE1
 70
     0
  9
$DIMSE2
 70
     0
  9
$DIMTAD
 70
     1
  9
$DIMZIN
 70
     8
  9
$DIMBLK
  1

  9
$DIMASO
 70
     1
  9
$DIMSHO
 70
     1
  9
$DIMPOST
  1

  9
$DIMAPOST
  1

  9
$DIMALT
 70
     0
  9
$DIMALTD
 70
     4
  9
$DIMALTF
 40
0.0394
  9
$DIMLFAC
 40
1.0
  9
$DIMTOFL
 70
     1
  9
$DIMTVP
 40
0.0
  9
$DIMTIX
 70
     0
  9
$DIMSOXD
 70
     0
  9
$DIMSAH
 70
     0
  9
$DIMBLK1
  1

  9
$DIMBLK2
  1

  9
$DIMSTYLE
  2
STANDARD
  9
$DIMCLRD
 70
     0
  9
$DIMCLRE
 70
     0
  9
$DIMCLRT
 70
     0
  9
$DIMTFAC
 40
1.0
  9
$DIMGAP
 40
0.75
  9
$DIMJUST
 70
     0
  9
$DIMSD1
 70
     0
  9
$DIMSD2
 70
     0
  9
$DIMTOLJ
 70
     1
  9
$DIMTZIN
 70
     0
  9
$DIMALTZ
 70
     0
  9
$DIMALTTZ
 70
     0
  9
$DIMFIT
 70
     3
  9
$DIMUPT
 70
     0
  9
$DIMUNIT
 70
     8
  9
$DIMDEC
 70
     2
  9
$DIMTDEC
 70
     2
  9
$DIMALTU
 70
     8
  9
$DIMALTTD
 70
     4
  9
$DIMTXSTY
  7
STANDARD
  9
$DIMAUNIT
 70
     0
  9
$LUNITS
 70
     2
  9
$LUPREC
 70
     3
  9
$SKETCHINC
 40
1.0
  9
$FILLETRAD
 40
0.0
  9
$AUNITS
 70
     0
  9
$AUPREC
 70
     2
  9
$MENU
  1
.
  9
$ELEVATION
 40
0.0
  9
$PELEVATION
 40
0.0
  9
$THICKNESS
 40
0.0
  9
$LIMCHECK
 70
     0
  9
$BLIPMODE
 70
     0
  9
$CHAMFERA
 40
0.0
  9
$CHAMFERB
 40
0.0
  9
$CHAMFERC
 40
20.0
  9
$CHAMFERD
 40
0.0
  9
$SKPOLY
 70
     0
  9
$TDCREATE
 40
2454413.454466678
  9
$TDUPDATE
 40
2454424.603909143
  9
$TDINDWG
 40
0.0078085069
  9
$TDUSRTIMER
 40
0.0078085069
  9
$USRTIMER
 70
     1
  9
$ANGBASE
 50
0.0
  9
$ANGDIR
 70
     0
  9
$PDMODE
 70
     0
  9
$PDSIZE
 40
-10.0
  9
$PLINEWID
 40
0.0
  9
$COORDS
 70
     0
  9
$SPLFRAME
 70
     0
  9
$SPLINETYPE
 70
     6
  9
$SPLINESEGS
 70
     8
  9
$ATTDIA
 70
     0
  9
$ATTREQ
 70
     1
  9
$HANDLING
 70
-16383
  9
$HANDSEED
  5
1B1B
  9
$SURFTAB1
 70
     6
  9
$SURFTAB2
 70
     6
  9
$SURFTYPE
 70
     6
  9
$SURFU
 70
     6
  9
$SURFV
 70
     6
  9
$UCSNAME
  2

  9
$UCSORG
 10
0.0
 20
0.0
 30
0.0
  9
$UCSXDIR
 10
1.0
 20
0.0
 30
0.0
  9
$UCSYDIR
 10
0.0
 20
1.0
 30
0.0
  9
$PUCSNAME
  2

  9
$PUCSORG
 10
0.0
 20
0.0
 30
0.0
  9
$PUCSXDIR
 10
1.0
 20
0.0
 30
0.0
  9
$PUCSYDIR
 10
0.0
 20
1.0
 30
0.0
  9
$USERI1
 70
     0
  9
$USERI2
 70
     0
  9
$USERI3
 70
     0
  9
$USERI4
 70
     0
  9
$USERI5
 70
     0
  9
$USERR1
 40
0.0
  9
$USERR2
 40
0.0
  9
$USERR3
 40
0.0
  9
$USERR4
 40
0.0
  9
$USERR5
 40
0.0
  9
$WORLDVIEW
 70
     1
  9
$SHADEDGE
 70
     3
  9
$SHADEDIF
 70
    70
  9
$TILEMODE
 70
     1
  9
$MAXACTVP
 70
    48
  9
$PINSBASE
 10
0.0
 20
0.0
 30
0.0
  9
$PLIMCHECK
 70
     0
  9
$PEXTMIN
 10
0.0
 20
0.0
 30
0.0
  9
$PEXTMAX
 10
0.0
 20
0.0
 30
0.0
  9
$PLIMMIN
 10
0.0
 20
0.0
  9
$PLIMMAX
 10
12.0
 20
9.0
  9
$UNITMODE
 70
     0
  9
$VISRETAIN
 70
     1
  9
$PLINEGEN
 70
     0
  9
$PSLTSCALE
 70
     1
  9
$TREEDEPTH
 70
  3020
  9
$PICKSTYLE
 70
     1
  9
$CMLSTYLE
  2
STANDARD
  9
$CMLJUST
 70
     0
  9
$CMLSCALE
 40
1.0
  9
$PROXYGRAPHICS
 70
     1
  9
$MEASUREMENT
 70
     0
  0
ENDSEC
  0
SECTION
  2
CLASSES
  0
CLASS
  1
DICTIONARYVAR
  2
AcDbDictionaryVar
  3
AutoCAD 2000
 90
        0
280
     0
281
     0
  0
CLASS
  1
ACDBDICTIONARYWDFLT
  2
AcDbDictionaryWithDefault
  3
AutoCAD 2000
 90
        0
280
     0
281
     0
  0
CLASS
  1
ACDBPLACEHOLDER
  2
AcDbPlaceHolder
  3
AutoCAD 2000
 90
        0
280
     0
281
     0
  0
CLASS
  1
LAYOUT
  2
AcDbLayout
  3
AutoCAD 2000
 90
        0
280
     0
281
     0
  0
CLASS
  1
MATERIAL
  2
AcDbMaterial
  3
ObjectDBX Classes
 90
     1153
280
     0
281
     0
  0
CLASS
  1
VISUALSTYLE
  2
AcDbVisualStyle
  3
ObjectDBX Classes
 90
     4095
280
     0
281
     0
  0
CLASS
  1
TABLESTYLE
  2
AcDbTableStyle
  3
ObjectDBX Classes
 90
     4095
280
     0
281
     0
  0
CLASS
  1
SCALE
  2
AcDbScale
  3
ObjectDBX Classes
 90
     1153
280
     0
281
     0
  0
CLASS
  1
MLEADERSTYLE
  2
AcDbMLeaderStyle
  3
ACDB_MLEADERSTYLE_CLASS
 90
     4095
280
     0
281
     0
  0
CLASS
  1
SORTENTSTABLE
  2
AcDbSortentsTable
  3
AutoCAD 2000
 90
        0
280
     0
281
     0
  0
CLASS
  1
CELLSTYLEMAP
  2
AcDbCellStyleMap
  3
ObjectDBX Classes
 90
     1152
280
     0
281
     0
  0
CLASS
  1
ACAD_PROXY_OBJECT_WRAPPER
  2
AcDbProxyObjectWrapper
  3
AutoCAD 2000
 90
        0
280
     0
281
     0
  0
CLASS
  1
LONG_TRANSACTION
  2
AcDbLongTransaction
  3
AutoCAD 2000
 90
        0
280
     0
281
     0
  0
CLASS
  1
LWPOLYLINE
  2
AcDbPolyline
  3
AutoCAD 2000
 90
        0
280
     0
281
     1
  0
CLASS
  1
HATCH
  2
AcDbHatch
  3
AutoCAD 2000
 90
        0
280
     0
281
     1
  0
CLASS
  1
XRECORD
  2
AcDbXrecord
  3
AutoCAD 2000
 90
        0
280
     0
281
     0
  0
ENDSEC
  0
SECTION
  2
TABLES
  0
TABLE
  2
VPORT
  5
6E
102
{ACAD_XDICTIONARY
360
1A4A
102
}
330
0
100
AcDbSymbolTable
 70
     2
  0
VPORT
  5
1AF5
330
6E
100
AcDbSymbolTableRecord
100
AcDbViewportTableRecord
  2
*ACTIVE
 70
     0
 10
0.0
 20
0.0
 11
1.0
 21
1.0
 12
851.8553756416272
 22
480.8966121970456
 13
0.0
 23
0.0
 14
10.0
 24
10.0
 15
10.0
 25
10.0
 16
0.0
 26
0.0
 36
1.0
 17
0.0
 27
0.0
 37
0.0
 40
880.5134404652012
 41
1.753504672897196
 42
50.0
 43
0.0
 44
0.0
 50
0.0
 51
0.0
 71
     0
 72
   100
 73
     1
 74
     3
 75
     0
 76
     0
 77
     0
 78
     0
  0
ENDTAB
  0
TABLE
  2
LTYPE
  5
69
330
0
100
AcDbSymbolTable
 70
     6
  0
LTYPE
  5
6A
330
69
100
AcDbSymbolTableRecord
100
AcDbLinetypeTableRecord
  2
BYBLOCK
 70
     0
  3

 72
    65
 73
     0
 40
0.0
  0
LTYPE
  5
6B
330
69
100
AcDbSymbolTableRecord
100
AcDbLinetypeTableRecord
  2
BYLAYER
 70
     0
  3

 72
    65
 73
     0
 40
0.0
  0
LTYPE
  5
8
330
69
100
AcDbSymbolTableRecord
100
AcDbLinetypeTableRecord
  2
CONTINUOUS
 70
     0
  3
Solid line
 72
    65
 73
     0
 40
0.0
  0
LTYPE
  5
27C
330
69
100
AcDbSymbolTableRecord
100
AcDbLinetypeTableRecord
  2
SEKKEI_A2_
 70
     0
  3
center(A2)  ____ _ ____ _ ____ _ ____ _ ____ _ 
 72
    65
 73
     4
 40
14.28749999999999
 49
9.525
 74
     0
 49
-1.587499999999999
 74
     0
 49
1.587499999999999
 74
     0
 49
-1.587499999999999
 74
     0
  0
LTYPE
  5
7EF
330
69
100
AcDbSymbolTableRecord
100
AcDbLinetypeTableRecord
  2
PHANTOM3
 70
     0
  3
Phantom  ___ _ _ ___ _ _ ___ _ _ ___ _ _
 72
    65
 73
     6
 40
9.0
 49
4.0
 74
     0
 49
-1.0
 74
     0
 49
1.0
 74
     0
 49
-1.0
 74
     0
 49
1.0
 74
     0
 49
-1.0
 74
     0
  0
LTYPE
  5
7F0
330
69
100
AcDbSymbolTableRecord
100
AcDbLinetypeTableRecord
  2
HIDDEN3
 70
     0
  3
Hidden (.3x) _ _ _ _ _ _ _ _ _ _ _ _ _ _ _ _ _
 72
    65
 73
     2
 40
2.857499999999999
 49
1.905
 74
     0
 49
-0.9525
 74
     0
  0
LTYPE
  5
B18
330
69
100
AcDbSymbolTableRecord
100
AcDbLinetypeTableRecord
  2
CENS
 70
     0
  3
(一点鎖線１)---- - ---- - ---- - ---- - ---- - 
 72
    65
 73
     4
 40
7.0
 49
4.0
 74
     0
 49
-1.0
 74
     0
 49
1.0
 74
     0
 49
-1.0
 74
     0
  0
ENDTAB
  0
TABLE
  2
LAYER
  5
66
102
{ACAD_XDICTIONARY
360
B19
102
}
330
0
100
AcDbSymbolTable
 70
    10
  0
LAYER
  5
5E
102
{ACAD_XDICTIONARY
360
1A2D
102
}
330
66
100
AcDbSymbolTableRecord
100
AcDbLayerTableRecord
  2
0
 70
     0
 62
     7
  6
CONTINUOUS
  0
LAYER
  5
3E
102
{ACAD_XDICTIONARY
360
1A2F
102
}
330
66
100
AcDbSymbolTableRecord
100
AcDbLayerTableRecord
  2
CENTER
 70
     0
 62
     3
  6
SEKKEI_A2_
  0
LAYER
  5
2B5
102
{ACAD_XDICTIONARY
360
1A35
102
}
330
66
100
AcDbSymbolTableRecord
100
AcDbLayerTableRecord
  2
HIDS
 70
     0
 62
     1
  6
HIDDEN3
  0
LAYER
  5
2BA
102
{ACAD_XDICTIONARY
360
1A37
102
}
330
66
100
AcDbSymbolTableRecord
100
AcDbLayerTableRecord
  2
HOJO
 70
     0
 62
     4
  6
CONTINUOUS
  0
LAYER
  5
3FA
102
{ACAD_XDICTIONARY
360
1A3B
102
}
330
66
100
AcDbSymbolTableRecord
100
AcDbLayerTableRecord
  2
TITLE
 70
     0
 62
     4
  6
CONTINUOUS
  0
LAYER
  5
478
102
{ACAD_XDICTIONARY
360
1A3D
102
}
330
66
100
AcDbSymbolTableRecord
100
AcDbLayerTableRecord
  2
PHAS
 70
     0
 62
     2
  6
PHANTOM3
  0
ENDTAB
  0
TABLE
  2
STYLE
  5
67
330
0
100
AcDbSymbolTable
 70
     2
  0
STYLE
  5
16
330
67
100
AcDbSymbolTableRecord
100
AcDbTextStyleTableRecord
  2
STANDARD
 70
     0
 40
0.0
 41
1.0
 50
0.0
 71
     0
 42
2.0
  3
simplex.shx
  4
extfont.shx
  0
ENDTAB
  0
TABLE
  2
VIEW
  5
6C
330
0
100
AcDbSymbolTable
 70
     0
  0
ENDTAB
  0
TABLE
  2
UCS
  5
6D
330
0
100
AcDbSymbolTable
 70
     0
  0
ENDTAB
  0
TABLE
  2
APPID
  5
70
330
0
100
AcDbSymbolTable
 70
     2
  0
APPID
  5
71
330
70
100
AcDbSymbolTableRecord
100
AcDbRegAppTableRecord
  2
ACAD
 70
     0
  0
APPID
  5
18E2
330
70
100
AcDbSymbolTableRecord
100
AcDbRegAppTableRecord
  2
ACAD_MLEADERVER
 70
     0
  0
ENDTAB
  0
TABLE
  2
DIMSTYLE
  5
72
330
0
100
AcDbSymbolTable
 70
     1
  0
DIMSTYLE
105
73
330
72
100
AcDbSymbolTableRecord
100
AcDbDimStyleTableRecord
  2
STANDARD
 70
     0
  3

  4

  5

  6

  7

 40
4.0
 41
1.8
 42
0.625
 43
3.75
 44
0.8
 45
0.0
 46
0.0
 47
0.0
 48
0.0
140
1.8
141
2.5
142
0.0
143
0.0394
144
1.0
145
0.0
146
1.0
147
0.75
 71
     0
 72
     0
 73
     0
 74
     0
 75
     0
 76
     0
 77
     1
 78
     8
170
     0
171
     4
172
     1
173
     0
174
     0
175
     0
176
     0
177
     0
178
     0
270
     8
271
     2
272
     2
273
     8
274
     4
340
16
275
     0
280
     0
281
     0
282
     0
283
     1
284
     0
285
     0
286
     0
287
     3
288
     0
  0
ENDTAB
  0
TABLE
  2
BLOCK_RECORD
  5
1
330
0
100
AcDbSymbolTable
 70
    55
  0
BLOCK_RECORD
  5
2
102
{ACAD_XDICTIONARY
360
1B17
102
}
330
1
100
AcDbSymbolTableRecord
100
AcDbBlockTableRecord
  2
*MODEL_SPACE
  0
BLOCK_RECORD
  5
1AF0
102
{ACAD_XDICTIONARY
360
1B19
102
}
330
1
100
AcDbSymbolTableRecord
100
AcDbBlockTableRecord
  2
*PAPER_SPACE
  0
ENDTAB
  0
ENDSEC
  0
SECTION
  2
BLOCKS
  0
BLOCK
  5
5D
330
2
100
AcDbEntity
  8
0
100
AcDbBlockBegin
  2
*MODEL_SPACE
 70
     0
 10
0.0
 20
0.0
 30
0.0
  3
*MODEL_SPACE
  1

  0
ENDBLK
  5
5F
330
2
100
AcDbEntity
  8
0
100
AcDbBlockEnd
  0
BLOCK
  5
1AF2
330
1AF0
100
AcDbEntity
 67
     1
  8
0
100
AcDbBlockBegin
  2
*PAPER_SPACE
 70
     0
 10
0.0
 20
0.0
 30
0.0
  3
*PAPER_SPACE
  1

  0
ENDBLK
  5
1AF3
330
1AF0
100
AcDbEntity
 67
     1
  8
0
100
AcDbBlockEnd
  0
ENDSEC
  0
SECTION
  2
ENTITIES
  0
LINE
  5
FB0
330
2
100
AcDbEntity
  8
CENTER
100
AcDbLine
 10
925.2238548919631
 20
422.6437696957979
 30
0.0
 11
781.939583644501
 21
565.9280409432597
 31
0.0
  0
LINE
  5
FB1
330
2
100
AcDbEntity
  8
CENTER
100
AcDbLine
 10
781.939583644501
 20
422.6437696957977
 30
0.0
 11
925.2238548919622
 21
565.9280409432608
 31
0.0
  0
CIRCLE
  5
FB2
330
2
100
AcDbEntity
  8
CENTER
100
AcDbCircle
 10
853.5817192682321
 20
494.2859053195288
 30
0.0
 40
80.0
  0
CIRCLE
  5
FB3
330
2
100
AcDbEntity
  8
0
100
AcDbCircle
 10
853.5817192682321
 20
494.2859053195288
 30
0.0
 40
60.0
  0
LINE
  5
FB4
330
2
100
AcDbEntity
  8
CENTER
100
AcDbLine
 10
853.5817192682321
 20
399.2859053195288
 30
0.0
 11
853.5817192682321
 21
589.2859053195288
 31
0.0
  0
LINE
  5
FB5
330
2
100
AcDbEntity
  8
0
100
AcDbLine
 10
921.081719268232
 20
436.7859053195288
 30
0.0
 11
921.081719268232
 21
551.7859053195288
 31
0.0
  0
ARC
  5
FB6
330
2
100
AcDbEntity
  8
0
100
AcDbCircle
 10
853.5817192682321
 20
221.7859053195287
 30
0.0
 40
340.0
100
AcDbArc
 50
85.33227731211809
 51
94.66772268788192
  0
ARC
  5
FB7
330
2
100
AcDbEntity
  8
0
100
AcDbCircle
 10
796.0817192682321
 20
551.7859053195288
 30
0.0
 40
10.0
100
AcDbArc
 50
90.0
 51
180.0
  0
CIRCLE
  5
FB8
330
2
100
AcDbEntity
  8
0
100
AcDbCircle
 10
797.0131767733078
 20
550.8544478144531
 30
0.0
 40
4.0
  0
CIRCLE
  5
FB9
330
2
100
AcDbEntity
  8
HOJO
100
AcDbCircle
 10
797.0131767733078
 20
550.8544478144531
 30
0.0
 40
5.0
  0
LINE
  5
FBA
330
2
100
AcDbEntity
  8
0
100
AcDbLine
 10
786.081719268232
 20
547.7859053195288
 30
0.0
 11
786.081719268232
 21
551.7859053195288
 31
0.0
  0
LINE
  5
FBB
330
2
100
AcDbEntity
  8
0
100
AcDbLine
 10
796.0817192682321
 20
561.7859053195288
 30
0.0
 11
800.0817192682321
 21
561.7859053195288
 31
0.0
  0
ARC
  5
FBC
330
2
100
AcDbEntity
  8
0
100
AcDbCircle
 10
800.0817192682321
 20
553.7859053195289
 30
0.0
 40
8.0
100
AcDbArc
 50
80.57047887832705
 51
90.0
  0
ARC
  5
FBD
330
2
100
AcDbEntity
  8
0
100
AcDbCircle
 10
911.081719268232
 20
551.7859053195288
 30
0.0
 40
10.0
100
AcDbArc
 50
0.0
 51
90.0
  0
CIRCLE
  5
FBE
330
2
100
AcDbEntity
  8
0
100
AcDbCircle
 10
910.1502617631545
 20
550.8544478144531
 30
0.0
 40
4.0
  0
CIRCLE
  5
FBF
330
2
100
AcDbEntity
  8
HOJO
100
AcDbCircle
 10
910.1502617631545
 20
550.8544478144531
 30
0.0
 40
5.0
  0
ARC
  5
FC0
330
2
100
AcDbEntity
  8
0
100
AcDbCircle
 10
907.0817192682321
 20
553.7859053195289
 30
0.0
 40
8.0
100
AcDbArc
 50
90.0
 51
99.42952112167297
  0
LINE
  5
FC1
330
2
100
AcDbEntity
  8
0
100
AcDbLine
 10
907.0817192682321
 20
561.7859053195288
 30
0.0
 11
911.081719268232
 21
561.7859053195288
 31
0.0
  0
LINE
  5
FC2
330
2
100
AcDbEntity
  8
CENTER
100
AcDbLine
 10
758.581719268232
 20
494.2859053195288
 30
0.0
 11
1087.55174126823
 21
494.2859053195288
 31
0.0
  0
CIRCLE
  5
FC3
330
2
100
AcDbEntity
  8
0
100
AcDbCircle
 10
853.5817192682321
 20
494.2859053195288
 30
0.0
 40
43.5
  0
ARC
  5
FC4
330
2
100
AcDbEntity
  8
0
100
AcDbCircle
 10
1126.08171926823
 20
494.2859053195288
 30
0.0
 40
340.0
100
AcDbArc
 50
175.3322773121172
 51
184.6677226878827
  0
LINE
  5
FC5
330
2
100
AcDbEntity
  8
0
100
AcDbLine
 10
1002.051741268229
 20
543.7859053195288
 30
0.0
 11
1002.051741268229
 21
444.7859053195288
 31
0.0
  0
LINE
  5
FC6
330
2
100
AcDbEntity
  8
0
100
AcDbLine
 10
1017.551741268231
 20
442.7859053195287
 30
0.0
 11
1017.551741268229
 21
545.7859053195289
 31
0.0
  0
LINE
  5
FC7
330
2
100
AcDbEntity
  8
0
100
AcDbLine
 10
972.581719268232
 20
451.2859053195287
 30
0.0
 11
972.581719268232
 21
537.2859053195289
 31
0.0
  0
ARC
  5
FC8
330
2
100
AcDbEntity
  8
0
100
AcDbCircle
 10
853.5817192682321
 20
766.7859053195289
 30
0.0
 40
340.0
100
AcDbArc
 50
265.332277312118
 51
274.6677226878819
  0
CIRCLE
  5
FC9
330
2
100
AcDbEntity
  8
0
100
AcDbCircle
 10
797.0131767733078
 20
437.7173628246045
 30
0.0
 40
4.0
  0
CIRCLE
  5
FCA
330
2
100
AcDbEntity
  8
HOJO
100
AcDbCircle
 10
797.0131767733078
 20
437.7173628246045
 30
0.0
 40
5.0
  0
LINE
  5
FCB
330
2
100
AcDbEntity
  8
0
100
AcDbLine
 10
796.0817192682321
 20
426.7859053195287
 30
0.0
 11
800.0817192682321
 21
426.7859053195287
 31
0.0
  0
ARC
  5
FCC
330
2
100
AcDbEntity
  8
0
100
AcDbCircle
 10
796.0817192682321
 20
436.7859053195288
 30
0.0
 40
10.0
100
AcDbArc
 50
180.0
 51
270.0
  0
LINE
  5
FCD
330
2
100
AcDbEntity
  8
0
100
AcDbLine
 10
786.081719268232
 20
436.7859053195288
 30
0.0
 11
786.081719268232
 21
440.7859053195288
 31
0.0
  0
ARC
  5
FCE
330
2
100
AcDbEntity
  8
0
100
AcDbCircle
 10
794.0817192682303
 20
440.7859053195288
 30
0.0
 40
8.0
100
AcDbArc
 50
170.5704788783795
 51
180.0
  0
ARC
  5
FCF
330
2
100
AcDbEntity
  8
0
100
AcDbCircle
 10
800.0817192682321
 20
434.7859053195287
 30
0.0
 40
8.0
100
AcDbArc
 50
270.0
 51
279.4295211216729
  0
LINE
  5
FD0
330
2
100
AcDbEntity
  8
0
100
AcDbLine
 10
929.0191103828824
 20
443.2859053195287
 30
0.0
 11
964.581719268232
 21
443.2859053195287
 31
0.0
  0
CIRCLE
  5
FD1
330
2
100
AcDbEntity
  8
0
100
AcDbCircle
 10
910.1502617631545
 20
437.7173628246064
 30
0.0
 40
4.0
  0
CIRCLE
  5
FD2
330
2
100
AcDbEntity
  8
HOJO
100
AcDbCircle
 10
910.1502617631545
 20
437.7173628246064
 30
0.0
 40
5.0
  0
ARC
  5
FD3
330
2
100
AcDbEntity
  8
0
100
AcDbCircle
 10
911.081719268232
 20
436.7859053195288
 30
0.0
 40
10.0
100
AcDbArc
 50
270.0
 51
0.0
  0
ARC
  5
FD4
330
2
100
AcDbEntity
  8
0
100
AcDbCircle
 10
907.0817192682321
 20
434.7859053195287
 30
0.0
 40
8.0
100
AcDbArc
 50
260.570478878327
 51
270.0
  0
LINE
  5
FD5
330
2
100
AcDbEntity
  8
0
100
AcDbLine
 10
907.0817192682321
 20
426.7859053195287
 30
0.0
 11
911.081719268232
 21
426.7859053195287
 31
0.0
  0
ARC
  5
FD6
330
2
100
AcDbEntity
  8
0
100
AcDbCircle
 10
964.581719268232
 20
451.2859053195287
 30
0.0
 40
8.0
100
AcDbArc
 50
270.0
 51
0.0
  0
LINE
  5
FD7
330
2
100
AcDbEntity
  8
0
100
AcDbLine
 10
1017.551741268229
 20
443.2859053195287
 30
0.0
 11
1004.051741268229
 21
443.2859053195287
 31
0.0
  0
ARC
  5
FD8
330
2
100
AcDbEntity
  8
0
100
AcDbCircle
 10
1004.051741268229
 20
445.2859053195288
 30
0.0
 40
2.0
100
AcDbArc
 50
180.0
 51
270.0
  0
ARC
  5
FD9
330
2
100
AcDbEntity
  8
0
100
AcDbCircle
 10
997.0517412682298
 20
449.2859053195288
 30
0.0
 40
5.0
100
AcDbArc
 50
0.0
 51
90.0
  0
ARC
  5
FDA
330
2
100
AcDbEntity
  8
0
100
AcDbCircle
 10
794.0817192682303
 20
547.7859053195288
 30
0.0
 40
8.0
100
AcDbArc
 50
180.0
 51
189.4295211216204
  0
LINE
  5
FDB
330
2
100
AcDbEntity
  8
0
100
AcDbLine
 10
929.0191103828824
 20
545.2859053195289
 30
0.0
 11
964.581719268232
 21
545.2859053195289
 31
0.0
  0
LINE
  5
FDC
330
2
100
AcDbEntity
  8
0
100
AcDbLine
 10
993.0517412682297
 20
534.2859053195288
 30
0.0
 11
997.0517412682298
 21
534.2859053195288
 31
0.0
  0
ARC
  5
FDD
330
2
100
AcDbEntity
  8
0
100
AcDbCircle
 10
964.581719268232
 20
537.2859053195289
 30
0.0
 40
8.0
100
AcDbArc
 50
0.0
 51
90.0
  0
ARC
  5
FDE
330
2
100
AcDbEntity
  8
0
100
AcDbCircle
 10
997.0517412682298
 20
539.2859053195288
 30
0.0
 40
5.0
100
AcDbArc
 50
270.0
 51
0.0
  0
LINE
  5
FDF
330
2
100
AcDbEntity
  8
0
100
AcDbLine
 10
1017.551741268229
 20
545.2859053195289
 30
0.0
 11
1004.051741268229
 21
545.2859053195289
 31
0.0
  0
ARC
  5
FE0
330
2
100
AcDbEntity
  8
0
100
AcDbCircle
 10
1004.051741268229
 20
543.2859053195288
 30
0.0
 40
2.0
100
AcDbArc
 50
90.0
 51
180.0
  0
LINE
  5
FE1
330
2
100
AcDbEntity
  8
CENTER
100
AcDbLine
 10
797.0131767733078
 20
541.8544478144531
 30
0.0
 11
797.0131767733078
 21
559.8544478144531
 31
0.0
  0
LINE
  5
FE2
330
2
100
AcDbEntity
  8
CENTER
100
AcDbLine
 10
788.0131767733078
 20
550.8544478144531
 30
0.0
 11
806.0131767733079
 21
550.8544478144531
 31
0.0
  0
LINE
  5
FE3
330
2
100
AcDbEntity
  8
CENTER
100
AcDbLine
 10
910.1502617631545
 20
541.8544478144531
 30
0.0
 11
910.1502617631545
 21
559.8544478144531
 31
0.0
  0
LINE
  5
FE4
330
2
100
AcDbEntity
  8
CENTER
100
AcDbLine
 10
919.1502617631545
 20
550.8544478144531
 30
0.0
 11
901.1502617631546
 21
550.8544478144531
 31
0.0
  0
LINE
  5
FE5
330
2
100
AcDbEntity
  8
CENTER
100
AcDbLine
 10
910.1502617631545
 20
446.7173628246045
 30
0.0
 11
910.1502617631545
 21
428.7173628246045
 31
0.0
  0
LINE
  5
FE6
330
2
100
AcDbEntity
  8
CENTER
100
AcDbLine
 10
919.1502617631545
 20
437.7173628246064
 30
0.0
 11
901.1502617631546
 21
437.7173628246064
 31
0.0
  0
LINE
  5
FE7
330
2
100
AcDbEntity
  8
CENTER
100
AcDbLine
 10
797.0131767733078
 20
446.7173628246045
 30
0.0
 11
797.0131767733078
 21
428.7173628246045
 31
0.0
  0
LINE
  5
FE8
330
2
100
AcDbEntity
  8
CENTER
100
AcDbLine
 10
788.0131767733078
 20
437.7173628246064
 30
0.0
 11
806.0131767733079
 21
437.7173628246064
 31
0.0
  0
LINE
  5
FE9
330
2
100
AcDbEntity
  8
CENTER
100
AcDbLine
 10
1359.159086910493
 20
576.4717380788884
 30
0.0
 11
1359.159086910493
 21
412.1000725598227
 31
0.0
  0
LINE
  5
FEA
330
2
100
AcDbEntity
  8
0
100
AcDbLine
 10
1287.159090239304
 20
535.8545277698276
 30
0.0
 11
1287.159090239304
 21
452.7172828690553
 31
0.0
  0
LINE
  5
FEB
330
2
100
AcDbEntity
  8
0
100
AcDbLine
 10
1301.159090239304
 20
554.285905319356
 30
0.0
 11
1301.159090239304
 21
434.285905319356
 31
0.0
  0
LINE
  5
FEC
330
2
100
AcDbEntity
  8
CENTER
100
AcDbLine
 10
1443.159090239304
 20
494.2859053194415
 30
0.0
 11
1259.159090239304
 21
494.2859053194415
 31
0.0
  0
LINE
  5
FED
330
2
100
AcDbEntity
  8
0
100
AcDbLine
 10
1395.159086910493
 20
561.785905319356
 30
0.0
 11
1306.159090239304
 21
561.009214115028
 31
0.0
  0
LINE
  5
FEE
330
2
100
AcDbEntity
  8
0
100
AcDbLine
 10
1306.159090239304
 20
554.285905319356
 30
0.0
 11
1301.159090239304
 21
554.285905319356
 31
0.0
  0
LINE
  5
FEF
330
2
100
AcDbEntity
  8
0
100
AcDbLine
 10
1306.159090239304
 20
427.5625965236821
 30
0.0
 11
1395.159086910493
 21
426.785905319356
 31
0.0
  0
LINE
  5
FF0
330
2
100
AcDbEntity
  8
0
100
AcDbLine
 10
1306.159090239304
 20
434.285905319356
 30
0.0
 11
1301.159090239304
 21
434.285905319356
 31
0.0
  0
LINE
  5
FF1
330
2
100
AcDbEntity
  8
0
100
AcDbLine
 10
1308.159090239387
 20
446.0321286431489
 30
0.0
 11
1308.159090239304
 21
542.5396819955558
 31
0.0
  0
CIRCLE
  5
FF2
330
2
100
AcDbEntity
  8
0
100
AcDbCircle
 10
853.5817192682301
 20
494.2859053195306
 30
0.0
 40
36.0
  0
ARC
  5
FF3
330
2
100
AcDbEntity
  8
0
100
AcDbCircle
 10
817.7758196443488
 20
328.2452144456664
 30
0.0
 40
100.0
100
AcDbArc
 50
85.33227731211809
 51
99.42952112167297
  0
ARC
  5
FF4
330
2
100
AcDbEntity
  8
0
100
AcDbCircle
 10
889.3876188921135
 20
328.2452144456664
 30
0.0
 40
100.0
100
AcDbArc
 50
80.57047887832705
 51
94.66772268788192
  0
ARC
  5
FF5
330
2
100
AcDbEntity
  8
0
100
AcDbCircle
 10
687.5410283943697
 20
458.4800056956473
 30
0.0
 40
100.0
100
AcDbArc
 50
350.5704788783795
 51
4.667722687882756
  0
ARC
  5
FF6
330
2
100
AcDbEntity
  8
0
100
AcDbCircle
 10
687.5410283943697
 20
530.0918049434121
 30
0.0
 40
100.0
100
AcDbArc
 50
355.3322773121172
 51
9.429521121620474
  0
ARC
  5
FF7
330
2
100
AcDbEntity
  8
0
100
AcDbCircle
 10
817.7758196443488
 20
660.3265961933912
 30
0.0
 40
100.0
100
AcDbArc
 50
260.570478878327
 51
274.6677226878819
  0
ARC
  5
FF8
330
2
100
AcDbEntity
  8
0
100
AcDbCircle
 10
889.3876188921135
 20
660.3265961933912
 30
0.0
 40
100.0
100
AcDbArc
 50
265.332277312118
 51
279.4295211216729
  0
LINE
  5
FF9
330
2
100
AcDbEntity
  8
0
100
AcDbLine
 10
1395.159086910493
 20
561.785905319356
 30
0.0
 11
1395.159086910493
 21
545.4329607579556
 31
0.0
  0
LINE
  5
FFA
330
2
100
AcDbEntity
  8
0
100
AcDbLine
 10
1395.159086910493
 20
443.1388498809273
 30
0.0
 11
1395.159086910493
 21
426.785905319356
 31
0.0
  0
LINE
  5
FFB
330
2
100
AcDbEntity
  8
CENTER
100
AcDbLine
 10
771.0817192682302
 20
829.3627932950503
 30
0.0
 11
1087.55174126823
 21
829.3627932950503
 31
0.0
  0
LINE
  5
FFC
330
2
100
AcDbEntity
  8
0
100
AcDbLine
 10
1017.551741268229
 20
880.3627932950503
 30
0.0
 11
1017.551741268229
 21
778.3627932950503
 31
0.0
  0
LINE
  5
FFD
330
2
100
AcDbEntity
  8
0
100
AcDbLine
 10
1002.000740360121
 20
878.4151471916656
 30
0.0
 11
1000.716513542888
 21
829.3725036532077
 31
0.0
  0
LINE
  5
FFE
330
2
100
AcDbEntity
  8
CENTER
100
AcDbLine
 10
853.5817192682301
 20
913.3627966238609
 30
0.0
 11
853.5817192682321
 21
729.3627966238609
 31
0.0
  0
LINE
  5
1000
330
2
100
AcDbEntity
  8
0
100
AcDbLine
 10
793.5817192682302
 20
771.3627932950503
 30
0.0
 11
913.5817192682303
 21
771.3627932950503
 31
0.0
  0
LINE
  5
1001
330
2
100
AcDbEntity
  8
0
100
AcDbLine
 10
786.8627739355026
 20
776.3627932950504
 30
0.0
 11
920.3006646009608
 21
776.3627932950503
 31
0.0
  0
LINE
  5
1002
330
2
100
AcDbEntity
  8
0
100
AcDbLine
 10
812.0130968178459
 20
757.3627932950503
 30
0.0
 11
895.1503417186163
 21
757.3627932950503
 31
0.0
  0
LINE
  5
1003
330
2
100
AcDbEntity
  8
0
100
AcDbLine
 10
793.5817192682302
 20
776.3627932950503
 30
0.0
 11
793.5817192682302
 21
771.3627932950503
 31
0.0
  0
LINE
  5
1004
330
2
100
AcDbEntity
  8
0
100
AcDbLine
 10
921.8050871817752
 20
778.3695708605918
 30
0.0
 11
970.4681938301787
 21
778.3627932950503
 31
0.0
  0
LINE
  5
1005
330
2
100
AcDbEntity
  8
0
100
AcDbLine
 10
913.5817192682303
 20
776.3627932950503
 30
0.0
 11
913.5817192682303
 21
771.3627932950503
 31
0.0
  0
LINE
  5
1007
330
2
100
AcDbEntity
  8
0
100
AcDbLine
 10
1017.551741268229
 20
778.3627932950503
 30
0.0
 11
1017.551741268229
 21
829.3627932950503
 31
0.0
  0
LINE
  5
1008
330
2
100
AcDbEntity
  8
0
100
AcDbLine
 10
992.9741898809957
 20
869.3627932950503
 30
0.0
 11
996.8929117763606
 21
869.3627932950503
 31
0.0
  0
LINE
  5
1009
330
2
100
AcDbEntity
  8
0
100
AcDbLine
 10
989.004282405453
 20
829.3627932950503
 30
0.0
 11
989.9752179060692
 21
866.4413241399753
 31
0.0
  0
LINE
  5
100A
330
2
100
AcDbEntity
  8
0
100
AcDbLine
 10
1017.551741268229
 20
880.3627932950503
 30
0.0
 11
1004.000055010072
 21
880.3627932950503
 31
0.0
  0
LINE
  5
100B
330
2
100
AcDbEntity
  8
0
100
AcDbLine
 10
1306.159090239304
 20
427.5625965236821
 30
0.0
 11
1306.159090239304
 21
561.009214115028
 31
0.0
  0
ARC
  5
100C
330
2
100
AcDbEntity
  8
0
100
AcDbCircle
 10
929.0191103828824
 20
553.2859053195288
 30
0.0
 40
8.0
100
AcDbArc
 50
184.780191847234
 51
270.0
  0
ARC
  5
100D
330
2
100
AcDbEntity
  8
0
100
AcDbCircle
 10
929.0191103828824
 20
435.2859053195287
 30
0.0
 40
8.0
100
AcDbArc
 50
90.0
 51
175.2198081527659
  0
LINE
  5
100E
330
2
100
AcDbEntity
  8
0
100
AcDbLine
 10
846.4399485184662
 20
438.7859053171713
 30
0.0
 11
849.3199497597984
 21
438.7859053171713
 31
0.0
  0
LINE
  5
100F
330
2
100
AcDbEntity
  8
0
100
AcDbLine
 10
850.4399485184716
 20
446.7859053171841
 30
0.0
 11
846.4399485184662
 21
438.7859053171713
 31
0.0
  0
ARC
  5
1010
330
2
100
AcDbEntity
  8
0
100
AcDbCircle
 10
857.0798757584821
 20
444.0659053171793
 30
0.0
 40
2.720000000003957
100
AcDbArc
 50
307.518967866822
 51
90.0
  0
LINE
  5
1011
330
2
100
AcDbEntity
  8
0
100
AcDbLine
 10
858.7364211381414
 20
441.9085325155637
 30
0.0
 11
860.723490017996
 21
438.7859053171713
 31
0.0
  0
LINE
  5
1012
330
2
100
AcDbEntity
  8
0
100
AcDbLine
 10
857.8434887766638
 20
438.7859053171713
 30
0.0
 11
860.723490017996
 21
438.7859053171713
 31
0.0
  0
LINE
  5
1013
330
2
100
AcDbEntity
  8
0
100
AcDbLine
 10
851.9599485184739
 20
438.7859053171713
 30
0.0
 11
854.3598757584772
 21
438.7859053171713
 31
0.0
  0
LINE
  5
1014
330
2
100
AcDbEntity
  8
0
100
AcDbLine
 10
849.9199497597988
 20
439.9859053171739
 30
0.0
 11
849.3199497597984
 21
438.7859053171713
 31
0.0
  0
LINE
  5
1015
330
2
100
AcDbEntity
  8
0
100
AcDbLine
 10
849.9199497597988
 20
439.9859053171739
 30
0.0
 11
851.9599485184739
 21
439.9859053171739
 31
0.0
  0
LINE
  5
1016
330
2
100
AcDbEntity
  8
0
100
AcDbLine
 10
851.9599485184739
 20
439.9859053171739
 30
0.0
 11
851.9599485184739
 21
438.7859053171713
 31
0.0
  0
LINE
  5
1017
330
2
100
AcDbEntity
  8
0
100
AcDbLine
 10
851.1999497598011
 20
442.5459053171771
 30
0.0
 11
851.9599485184739
 21
442.5459053171771
 31
0.0
  0
LINE
  5
1018
330
2
100
AcDbEntity
  8
0
100
AcDbLine
 10
851.9599485184739
 20
444.0659028345225
 30
0.0
 11
851.9599485184739
 21
442.5459053171771
 31
0.0
  0
LINE
  5
1019
330
2
100
AcDbEntity
  8
0
100
AcDbLine
 10
851.9599485184739
 20
444.0659028345225
 30
0.0
 11
851.1999497598011
 21
442.5459053171771
 31
0.0
  0
LINE
  5
101A
330
2
100
AcDbEntity
  8
0
100
AcDbLine
 10
854.6999485184773
 20
443.7259053171792
 30
0.0
 11
857.8434887766638
 21
438.7859053171713
 31
0.0
  0
LINE
  5
101B
330
2
100
AcDbEntity
  8
0
100
AcDbLine
 10
854.3598757584772
 20
444.0659053171793
 30
0.0
 11
854.3598757584772
 21
438.7859053171713
 31
0.0
  0
LINE
  5
101C
330
2
100
AcDbEntity
  8
0
100
AcDbLine
 10
854.3598757584772
 20
444.0659053171793
 30
0.0
 11
856.9099485184802
 21
444.0659053171793
 31
0.0
  0
LINE
  5
101D
330
2
100
AcDbEntity
  8
0
100
AcDbLine
 10
854.6999485184773
 20
443.7259053171792
 30
0.0
 11
856.9099485184819
 21
443.7259053171792
 31
0.0
  0
ARC
  5
101E
330
2
100
AcDbEntity
  8
0
100
AcDbCircle
 10
856.9099485184819
 20
443.8959053171792
 30
0.0
 40
0.1700000000002474
100
AcDbArc
 50
270.0
 51
90.0
  0
LINE
  5
101F
330
2
100
AcDbEntity
  8
0
100
AcDbLine
 10
850.4399485184716
 20
446.7859053171841
 30
0.0
 11
857.0798757584821
 21
446.7859053171841
 31
0.0
  0
LINE
  5
1020
330
2
100
AcDbEntity
  8
0
100
AcDbLine
 10
990.0517412682297
 20
531.2859053195288
 30
0.0
 11
990.0517412682297
 21
457.2859053195288
 31
0.0
  0
LINE
  5
1021
330
2
100
AcDbEntity
  8
0
100
AcDbLine
 10
977.5817192682284
 20
522.2859053195288
 30
0.0
 11
985.0517412682297
 21
522.2859053195288
 31
0.0
  0
LINE
  5
1022
330
2
100
AcDbEntity
  8
0
100
AcDbLine
 10
975.5817192682284
 20
527.2859053195288
 30
0.0
 11
987.0517412682298
 21
527.2859053195288
 31
0.0
  0
ARC
  5
1023
330
2
100
AcDbEntity
  8
0
100
AcDbCircle
 10
975.5817192682284
 20
530.2859053195288
 30
0.0
 40
3.0
100
AcDbArc
 50
180.0
 51
270.0
  0
ARC
  5
1024
330
2
100
AcDbEntity
  8
0
100
AcDbCircle
 10
977.5817192682284
 20
527.2859053195288
 30
0.0
 40
5.0
100
AcDbArc
 50
180.0
 51
270.0
  0
ARC
  5
1025
330
2
100
AcDbEntity
  8
0
100
AcDbCircle
 10
985.0517412682297
 20
527.2859053195288
 30
0.0
 40
5.0
100
AcDbArc
 50
270.0
 51
0.0
  0
ARC
  5
1026
330
2
100
AcDbEntity
  8
0
100
AcDbCircle
 10
987.0517412682298
 20
530.2859053195288
 30
0.0
 40
3.0
100
AcDbArc
 50
270.0
 51
0.0
  0
LINE
  5
1027
330
2
100
AcDbEntity
  8
0
100
AcDbLine
 10
977.5817192682284
 20
466.2859053195288
 30
0.0
 11
985.0517412682297
 21
466.2859053195288
 31
0.0
  0
LINE
  5
1028
330
2
100
AcDbEntity
  8
0
100
AcDbLine
 10
975.5817192682284
 20
461.2859053195288
 30
0.0
 11
987.0517412682298
 21
461.2859053195288
 31
0.0
  0
ARC
  5
1029
330
2
100
AcDbEntity
  8
0
100
AcDbCircle
 10
977.5817192682284
 20
461.2859053195288
 30
0.0
 40
5.0
100
AcDbArc
 50
90.0
 51
180.0
  0
ARC
  5
102A
330
2
100
AcDbEntity
  8
0
100
AcDbCircle
 10
975.5817192682284
 20
458.2859053195288
 30
0.0
 40
3.0
100
AcDbArc
 50
90.0
 51
180.0
  0
ARC
  5
102B
330
2
100
AcDbEntity
  8
0
100
AcDbCircle
 10
987.0517412682298
 20
458.2859053195288
 30
0.0
 40
3.0
100
AcDbArc
 50
0.0
 51
90.0
  0
ARC
  5
102C
330
2
100
AcDbEntity
  8
0
100
AcDbCircle
 10
985.0517412682297
 20
461.2859053195288
 30
0.0
 40
5.0
100
AcDbArc
 50
0.0
 51
90.0
  0
LINE
  5
102D
330
2
100
AcDbEntity
  8
0
100
AcDbLine
 10
993.0517412682297
 20
454.2859053195288
 30
0.0
 11
997.0517412682298
 21
454.2859053195288
 31
0.0
  0
LINE
  5
102E
330
2
100
AcDbEntity
  8
0
100
AcDbLine
 10
975.581719268232
 20
496.7859053195287
 30
0.0
 11
987.0517412682298
 21
496.7859053195287
 31
0.0
  0
LINE
  5
102F
330
2
100
AcDbEntity
  8
0
100
AcDbLine
 10
975.581719268232
 20
491.7859053195288
 30
0.0
 11
987.0517412682298
 21
491.7859053195288
 31
0.0
  0
ARC
  5
1030
330
2
100
AcDbEntity
  8
0
100
AcDbCircle
 10
975.581719268232
 20
499.7859053195288
 30
0.0
 40
3.0
100
AcDbArc
 50
180.0
 51
270.0
  0
ARC
  5
1031
330
2
100
AcDbEntity
  8
0
100
AcDbCircle
 10
987.0517412682298
 20
499.7859053195288
 30
0.0
 40
3.0
100
AcDbArc
 50
270.0
 51
0.0
  0
ARC
  5
1032
330
2
100
AcDbEntity
  8
0
100
AcDbCircle
 10
987.0517412682298
 20
488.7859053195287
 30
0.0
 40
3.0
100
AcDbArc
 50
0.0
 51
90.0
  0
ARC
  5
1033
330
2
100
AcDbEntity
  8
0
100
AcDbCircle
 10
975.581719268232
 20
488.7859053195287
 30
0.0
 40
3.0
100
AcDbArc
 50
90.0
 51
180.0
  0
LINE
  5
1034
330
2
100
AcDbEntity
  8
0
100
AcDbLine
 10
1359.159086910493
 20
545.7859004806823
 30
0.0
 11
1402.237515472924
 21
545.3635646853408
 31
0.0
  0
ARC
  5
1035
330
2
100
AcDbEntity
  8
0
100
AcDbCircle
 10
1402.1590881924
 20
537.3639491219737
 30
0.0
 40
8.0
100
AcDbArc
 50
0.0324355144522694
 51
89.438296980908
  0
LINE
  5
1036
330
2
100
AcDbEntity
  8
0
100
AcDbLine
 10
1359.159086910493
 20
545.7859004806823
 30
0.0
 11
1316.080658348063
 21
545.3635646853408
 31
0.0
  0
ARC
  5
1037
330
2
100
AcDbEntity
  8
0
100
AcDbCircle
 10
1316.159085628588
 20
537.3639491219737
 30
0.0
 40
8.0
100
AcDbArc
 50
90.56170301909203
 51
180.0
  0
LINE
  5
1038
330
2
100
AcDbEntity
  8
0
100
AcDbLine
 10
1359.159086910493
 20
442.7859101582007
 30
0.0
 11
1316.080658348063
 21
443.2082459535421
 31
0.0
  0
LINE
  5
1039
330
2
100
AcDbEntity
  8
0
100
AcDbLine
 10
1359.159086910493
 20
442.7859101582007
 30
0.0
 11
1402.237515472924
 21
443.2082459535421
 31
0.0
  0
ARC
  5
103A
330
2
100
AcDbEntity
  8
0
100
AcDbCircle
 10
1316.159085628588
 20
451.2078615169111
 30
0.0
 40
8.0
100
AcDbArc
 50
180.0
 51
269.4382969809079
  0
ARC
  5
103B
330
2
100
AcDbEntity
  8
0
100
AcDbCircle
 10
1402.1590881924
 20
451.2078615169111
 30
0.0
 40
8.0
100
AcDbArc
 50
270.5617030190919
 51
359.9675644788776
  0
LINE
  5
103C
330
2
100
AcDbEntity
  8
0
100
AcDbLine
 10
1312.66721559508
 20
544.5616462307088
 30
0.0
 11
1310.141637168306
 21
544.5396058416836
 31
0.0
  0
LINE
  5
103D
330
2
100
AcDbEntity
  8
0
100
AcDbLine
 10
1289.089291245899
 20
537.8533094238655
 30
0.0
 11
1299.228889232709
 21
538.207391987903
 31
0.0
  0
LINE
  5
103E
330
2
100
AcDbEntity
  8
0
100
AcDbLine
 10
1289.089291245899
 20
450.7185012150174
 30
0.0
 11
1299.228889232709
 21
450.3644186509817
 31
0.0
  0
ARC
  5
103F
330
2
100
AcDbEntity
  8
0
100
AcDbCircle
 10
1299.159090239304
 20
448.3656369969438
 30
0.0
 40
2.0
100
AcDbArc
 50
0.0
 51
87.99999999999636
  0
ARC
  5
1040
330
2
100
AcDbEntity
  8
0
100
AcDbCircle
 10
1299.159090239304
 20
540.2061736419409
 30
0.0
 40
2.0
100
AcDbArc
 50
272.0000000000036
 51
0.0
  0
ARC
  5
1041
330
2
100
AcDbEntity
  8
0
100
AcDbCircle
 10
1289.159090239304
 20
535.8545277698276
 30
0.0
 40
2.0
100
AcDbArc
 50
92.00000000000365
 51
180.0
  0
ARC
  5
1042
330
2
100
AcDbEntity
  8
0
100
AcDbCircle
 10
1289.159090239304
 20
452.7172828690553
 30
0.0
 40
2.0
100
AcDbArc
 50
180.0
 51
267.9999999999963
  0
LINE
  5
1043
330
2
100
AcDbEntity
  8
0
100
AcDbLine
 10
977.6080902635335
 20
857.3627932950502
 30
0.0
 11
984.8667038547905
 21
857.3627932950502
 31
0.0
  0
LINE
  5
1044
330
2
100
AcDbEntity
  8
0
100
AcDbLine
 10
975.5817192682284
 20
862.3627932950503
 30
0.0
 11
986.9459472044823
 21
862.3627932950503
 31
0.0
  0
LINE
  5
1045
330
2
100
AcDbEntity
  8
0
100
AcDbLine
 10
975.8480029710122
 20
826.8627932950503
 30
0.0
 11
986.1472765966123
 21
826.8627932950503
 31
0.0
  0
LINE
  5
1046
330
2
100
AcDbEntity
  8
0
100
AcDbLine
 10
975.8480029710012
 20
831.8627932950503
 30
0.0
 11
986.1472765966123
 21
831.8627932950503
 31
0.0
  0
LINE
  5
1047
330
2
100
AcDbEntity
  8
0
100
AcDbLine
 10
992.9741898809957
 20
789.3627932950503
 30
0.0
 11
996.8929117763606
 21
789.3627932950503
 31
0.0
  0
LINE
  5
1048
330
2
100
AcDbEntity
  8
0
100
AcDbLine
 10
989.004282405453
 20
829.3627932950503
 30
0.0
 11
989.9752179060692
 21
792.2842624501272
 31
0.0
  0
ARC
  5
1049
330
2
100
AcDbEntity
  8
0
100
AcDbCircle
 10
984.8667038547905
 20
862.3627932950503
 30
0.0
 40
5.0
100
AcDbArc
 50
270.0
 51
358.5000000000103
  0
ARC
  5
104A
330
2
100
AcDbEntity
  8
0
100
AcDbCircle
 10
986.9459472044823
 20
865.3627932950502
 30
0.0
 40
3.0
100
AcDbArc
 50
270.0
 51
358.5000000000103
  0
ARC
  5
104B
330
2
100
AcDbEntity
  8
0
100
AcDbCircle
 10
986.9459472044823
 20
793.3627932950503
 30
0.0
 40
3.0
100
AcDbArc
 50
1.499999999989693
 51
90.0
  0
LINE
  5
104C
330
2
100
AcDbEntity
  8
0
100
AcDbLine
 10
975.5817192682284
 20
796.3627932950503
 30
0.0
 11
986.9459472044823
 21
796.3627932950503
 31
0.0
  0
LINE
  5
104D
330
2
100
AcDbEntity
  8
0
100
AcDbLine
 10
977.6080902635353
 20
801.3627932950504
 30
0.0
 11
984.8667038547905
 21
801.3627932950504
 31
0.0
  0
ARC
  5
104E
330
2
100
AcDbEntity
  8
0
100
AcDbCircle
 10
984.8667038547905
 20
796.3627932950503
 30
0.0
 40
5.0
100
AcDbArc
 50
1.499999999989693
 51
90.0
  0
ARC
  5
104F
330
2
100
AcDbEntity
  8
0
100
AcDbCircle
 10
986.1472765966123
 20
834.8627932950503
 30
0.0
 40
3.0
100
AcDbArc
 50
270.0
 51
358.5000000000103
  0
ARC
  5
1050
330
2
100
AcDbEntity
  8
0
100
AcDbCircle
 10
986.1472765966123
 20
823.8627932950503
 30
0.0
 40
3.0
100
AcDbArc
 50
1.499999999989693
 51
90.0
  0
LINE
  5
1051
330
2
100
AcDbEntity
  8
0
100
AcDbLine
 10
810.0143151638063
 20
759.2929943016452
 30
0.0
 11
809.6602325997706
 21
769.4325922884554
 31
0.0
  0
ARC
  5
1052
330
2
100
AcDbEntity
  8
0
100
AcDbCircle
 10
807.6614509457327
 20
769.3627932950503
 30
0.0
 40
2.0
100
AcDbArc
 50
2.000000000003654
 51
90.0
  0
ARC
  5
1053
330
2
100
AcDbEntity
  8
0
100
AcDbCircle
 10
812.0130968178459
 20
759.3627932950503
 30
0.0
 40
2.0
100
AcDbArc
 50
182.0000000000036
 51
270.0
  0
ARC
  5
1054
330
2
100
AcDbEntity
  8
0
100
AcDbCircle
 10
899.5019875907296
 20
769.3627932950503
 30
0.0
 40
2.0
100
AcDbArc
 50
90.0
 51
177.9999999999963
  0
LINE
  5
1055
330
2
100
AcDbEntity
  8
0
100
AcDbLine
 10
897.149123372656
 20
759.2929943016452
 30
0.0
 11
897.5032059366917
 21
769.4325922884554
 31
0.0
  0
ARC
  5
1056
330
2
100
AcDbEntity
  8
0
100
AcDbCircle
 10
895.1503417186163
 20
759.3627932950503
 30
0.0
 40
2.0
100
AcDbArc
 50
270.0
 51
357.9999999999963
  0
ARC
  5
1057
330
2
100
AcDbEntity
  8
0
100
AcDbCircle
 10
996.8929117763606
 20
874.3627932950502
 30
0.0
 40
5.0
100
AcDbArc
 50
270.0
 51
358.5000000000103
  0
ARC
  5
1058
330
2
100
AcDbEntity
  8
0
100
AcDbCircle
 10
1004.000055010072
 20
878.3627932950503
 30
0.0
 40
2.0
100
AcDbArc
 50
90.0
 51
178.5000000000102
  0
ARC
  5
1059
330
2
100
AcDbEntity
  8
0
100
AcDbCircle
 10
996.8929117763606
 20
784.3627932950503
 30
0.0
 40
5.0
100
AcDbArc
 50
1.499999999989693
 51
90.0
  0
ARC
  5
105A
330
2
100
AcDbEntity
  8
0
100
AcDbCircle
 10
1004.000055010072
 20
780.3627932950503
 30
0.0
 40
2.0
100
AcDbArc
 50
181.4999999999897
 51
270.0
  0
LINE
  5
105B
330
2
100
AcDbEntity
  8
0
100
AcDbLine
 10
1017.551741268229
 20
778.3627932950503
 30
0.0
 11
1004.000055010072
 21
778.3627932950503
 31
0.0
  0
LINE
  5
105C
330
2
100
AcDbEntity
  8
0
100
AcDbLine
 10
1002.000740360121
 20
780.3104393984349
 30
0.0
 11
1000.716513542888
 21
829.3530829368929
 31
0.0
  0
ARC
  5
105D
330
2
100
AcDbEntity
  8
0
100
AcDbCircle
 10
992.9741898809957
 20
866.3627932950502
 30
0.0
 40
3.0
100
AcDbArc
 50
90.0
 51
178.5000000000102
  0
ARC
  5
105E
330
2
100
AcDbEntity
  8
0
100
AcDbCircle
 10
992.9741898809957
 20
792.3627932950503
 30
0.0
 40
3.0
100
AcDbArc
 50
181.4999999999897
 51
270.0
  0
ARC
  5
105F
330
2
100
AcDbEntity
  8
0
100
AcDbCircle
 10
993.0517412682297
 20
457.2859053195288
 30
0.0
 40
3.0
100
AcDbArc
 50
180.0
 51
270.0
  0
ARC
  5
1060
330
2
100
AcDbEntity
  8
0
100
AcDbCircle
 10
993.0517412682297
 20
531.2859053195288
 30
0.0
 40
3.0
100
AcDbArc
 50
90.0
 51
180.0
  0
ARC
  5
1061
330
2
100
AcDbEntity
  8
0
100
AcDbCircle
 10
921.8050871817752
 20
776.8695708605918
 30
0.0
 40
1.5
100
AcDbArc
 50
90.0
 51
180.0
  0
LINE
  5
1062
330
2
100
AcDbEntity
  8
0
100
AcDbLine
 10
911.081719268232
 20
864.8627932950486
 30
0.0
 11
911.0817192682302
 21
777.8627932950557
 31
0.0
  0
LINE
  5
1063
330
2
100
AcDbEntity
  8
0
100
AcDbLine
 10
907.0817192682302
 20
864.8627932950486
 30
0.0
 11
907.0817192682302
 21
777.8627932950557
 31
0.0
  0
LINE
  5
1064
330
2
100
AcDbEntity
  8
0
100
AcDbLine
 10
796.0817192682339
 20
864.8627932950448
 30
0.0
 11
796.0817192682375
 21
777.8627932950521
 31
0.0
  0
LINE
  5
1065
330
2
100
AcDbEntity
  8
0
100
AcDbLine
 10
800.0817192682339
 20
864.8627932950448
 30
0.0
 11
800.0817192682374
 21
777.8627932950521
 31
0.0
  0
LINE
  5
1066
330
2
100
AcDbEntity
  8
0
100
AcDbLine
 10
825.9135241043063
 20
864.8627932950466
 30
0.0
 11
825.9135241043081
 21
777.8627932950521
 31
0.0
  0
LINE
  5
1067
330
2
100
AcDbEntity
  8
0
100
AcDbLine
 10
881.2499144321542
 20
864.8627932950486
 30
0.0
 11
881.2499144321542
 21
777.8627932950557
 31
0.0
  0
LINE
  5
1068
330
2
100
AcDbEntity
  8
0
100
AcDbLine
 10
964.594812229016
 20
865.3627932950575
 30
0.0
 11
965.5120049514085
 21
830.3366163467444
 31
0.0
  0
LINE
  5
1069
330
2
100
AcDbEntity
  8
0
100
AcDbLine
 10
972.5817192682356
 20
829.3627932950503
 30
0.0
 11
966.5116622763839
 21
829.3627932950503
 31
0.0
  0
ARC
  5
106A
330
2
100
AcDbEntity
  8
0
100
AcDbCircle
 10
966.5116622763839
 20
830.3627932950503
 30
0.0
 40
1.0
100
AcDbArc
 50
181.4999999998854
 51
270.0
  0
ARC
  5
106B
330
2
100
AcDbEntity
  8
0
100
AcDbCircle
 10
1310.159090239304
 20
542.5396819955558
 30
0.0
 40
2.0
100
AcDbArc
 50
90.49999999996549
 51
180.0
  0
ARC
  5
106C
330
2
100
AcDbEntity
  8
0
100
AcDbCircle
 10
1310.159090239388
 20
446.0321286431526
 30
0.0
 40
2.0
100
AcDbArc
 50
180.0000000001042
 51
269.5000000000866
  0
LINE
  5
106D
330
2
100
AcDbEntity
  8
0
100
AcDbLine
 10
1312.667210369096
 20
444.0101644536106
 30
0.0
 11
1310.141637168394
 21
444.0322047970248
 31
0.0
  0
LINE
  5
106E
330
2
100
AcDbEntity
  8
0
100
AcDbLine
 10
1000.716513542888
 20
829.3530829368929
 30
0.0
 11
1017.551741268229
 21
829.3627932950503
 31
0.0
  0
LINE
  5
106F
330
2
100
AcDbEntity
  8
0
100
AcDbLine
 10
1017.551741268229
 20
545.7859053195289
 30
0.0
 11
1004.051741268229
 21
545.7859053195289
 31
0.0
  0
ARC
  5
1070
330
2
100
AcDbEntity
  8
0
100
AcDbCircle
 10
1004.051741268229
 20
543.7859053195288
 30
0.0
 40
2.0
100
AcDbArc
 50
90.0
 51
180.0
  0
LINE
  5
1071
330
2
100
AcDbEntity
  8
0
100
AcDbLine
 10
1017.551741268229
 20
442.7859053195287
 30
0.0
 11
1004.051741268229
 21
442.7859053195287
 31
0.0
  0
ARC
  5
1072
330
2
100
AcDbEntity
  8
0
100
AcDbCircle
 10
1004.051741268229
 20
444.7859053195288
 30
0.0
 40
2.0
100
AcDbArc
 50
180.0
 51
270.0
  0
LINE
  5
1073
330
2
100
AcDbEntity
  8
CENTER
100
AcDbLine
 10
317.2865600136133
 20
576.7859053195307
 30
0.0
 11
317.2865600136133
 21
411.7859053195288
 31
0.0
  0
LINE
  5
1074
330
2
100
AcDbEntity
  8
0
100
AcDbLine
 10
153.3165380136138
 20
545.7859053195289
 30
0.0
 11
153.3165380136156
 21
442.7859053195287
 31
0.0
  0
LINE
  5
1075
330
2
100
AcDbEntity
  8
0
100
AcDbLine
 10
168.8165380136156
 20
444.7859053195288
 30
0.0
 11
168.8165380136156
 21
543.7859053195288
 31
0.0
  0
ARC
  5
1076
330
2
100
AcDbEntity
  8
0
100
AcDbCircle
 10
173.8165380136156
 20
539.2859053195288
 30
0.0
 40
5.0
100
AcDbArc
 50
180.0
 51
270.0
  0
LINE
  5
1077
330
2
100
AcDbEntity
  8
0
100
AcDbLine
 10
177.8165380136147
 20
534.2859053195288
 30
0.0
 11
173.8165380136156
 21
534.2859053195288
 31
0.0
  0
ARC
  5
1078
330
2
100
AcDbEntity
  8
0
100
AcDbCircle
 10
166.8165380136156
 20
543.2859053195288
 30
0.0
 40
2.0
100
AcDbArc
 50
0.0
 51
90.0
  0
LINE
  5
1079
330
2
100
AcDbEntity
  8
0
100
AcDbLine
 10
153.3165380136147
 20
545.2859053195289
 30
0.0
 11
166.8165380136156
 21
545.2859053195289
 31
0.0
  0
ARC
  5
107A
330
2
100
AcDbEntity
  8
0
100
AcDbCircle
 10
173.8165380136156
 20
449.2859053195288
 30
0.0
 40
5.0
100
AcDbArc
 50
90.0
 51
180.0
  0
LINE
  5
107B
330
2
100
AcDbEntity
  8
0
100
AcDbLine
 10
177.8165380136147
 20
454.2859053195288
 30
0.0
 11
173.8165380136156
 21
454.2859053195288
 31
0.0
  0
LINE
  5
107C
330
2
100
AcDbEntity
  8
0
100
AcDbLine
 10
153.3165380136147
 20
443.2859053195287
 30
0.0
 11
166.8165380136147
 21
443.2859053195287
 31
0.0
  0
ARC
  5
107D
330
2
100
AcDbEntity
  8
0
100
AcDbCircle
 10
166.8165380136147
 20
445.2859053195288
 30
0.0
 40
2.0
100
AcDbArc
 50
270.0
 51
0.0
  0
LINE
  5
107E
330
2
100
AcDbEntity
  8
0
100
AcDbLine
 10
193.286560013616
 20
466.2859053195288
 30
0.0
 11
185.8165380136147
 21
466.2859053195288
 31
0.0
  0
LINE
  5
107F
330
2
100
AcDbEntity
  8
0
100
AcDbLine
 10
195.286560013616
 20
461.2859053195288
 30
0.0
 11
183.8165380136147
 21
461.2859053195288
 31
0.0
  0
ARC
  5
1080
330
2
100
AcDbEntity
  8
0
100
AcDbCircle
 10
193.286560013616
 20
461.2859053195288
 30
0.0
 40
5.0
100
AcDbArc
 50
0.0
 51
90.0
  0
ARC
  5
1081
330
2
100
AcDbEntity
  8
0
100
AcDbCircle
 10
195.286560013616
 20
458.2859053195288
 30
0.0
 40
3.0
100
AcDbArc
 50
0.0
 51
90.0
  0
ARC
  5
1082
330
2
100
AcDbEntity
  8
0
100
AcDbCircle
 10
183.8165380136147
 20
458.2859053195288
 30
0.0
 40
3.0
100
AcDbArc
 50
90.0
 51
180.0
  0
ARC
  5
1083
330
2
100
AcDbEntity
  8
0
100
AcDbCircle
 10
185.8165380136147
 20
461.2859053195288
 30
0.0
 40
5.0
100
AcDbArc
 50
90.0
 51
180.0
  0
ARC
  5
1084
330
2
100
AcDbEntity
  8
0
100
AcDbCircle
 10
183.8165380136147
 20
488.7859053195287
 30
0.0
 40
3.0
100
AcDbArc
 50
90.0
 51
180.0
  0
ARC
  5
1085
330
2
100
AcDbEntity
  8
0
100
AcDbCircle
 10
195.2865600136133
 20
488.7859053195287
 30
0.0
 40
3.0
100
AcDbArc
 50
0.0
 51
90.0
  0
LINE
  5
1086
330
2
100
AcDbEntity
  8
0
100
AcDbLine
 10
195.2865600136133
 20
496.7859053195287
 30
0.0
 11
183.8165380136147
 21
496.7859053195287
 31
0.0
  0
ARC
  5
1087
330
2
100
AcDbEntity
  8
0
100
AcDbCircle
 10
195.2865600136133
 20
499.7859053195288
 30
0.0
 40
3.0
100
AcDbArc
 50
270.0
 51
0.0
  0
ARC
  5
1088
330
2
100
AcDbEntity
  8
0
100
AcDbCircle
 10
183.8165380136147
 20
499.7859053195288
 30
0.0
 40
3.0
100
AcDbArc
 50
180.0
 51
270.0
  0
LINE
  5
1089
330
2
100
AcDbEntity
  8
0
100
AcDbLine
 10
195.2865600136133
 20
491.7859053195288
 30
0.0
 11
183.8165380136147
 21
491.7859053195288
 31
0.0
  0
LINE
  5
108A
330
2
100
AcDbEntity
  8
0
100
AcDbLine
 10
195.286560013616
 20
527.2859053195288
 30
0.0
 11
183.8165380136147
 21
527.2859053195288
 31
0.0
  0
LINE
  5
108B
330
2
100
AcDbEntity
  8
0
100
AcDbLine
 10
193.286560013616
 20
522.2859053195288
 30
0.0
 11
185.8165380136147
 21
522.2859053195288
 31
0.0
  0
ARC
  5
108C
330
2
100
AcDbEntity
  8
0
100
AcDbCircle
 10
195.286560013616
 20
530.2859053195288
 30
0.0
 40
3.0
100
AcDbArc
 50
270.0
 51
0.0
  0
ARC
  5
108D
330
2
100
AcDbEntity
  8
0
100
AcDbCircle
 10
193.286560013616
 20
527.2859053195288
 30
0.0
 40
5.0
100
AcDbArc
 50
270.0
 51
0.0
  0
ARC
  5
108E
330
2
100
AcDbEntity
  8
0
100
AcDbCircle
 10
185.8165380136147
 20
527.2859053195288
 30
0.0
 40
5.0
100
AcDbArc
 50
180.0
 51
270.0
  0
ARC
  5
108F
330
2
100
AcDbEntity
  8
0
100
AcDbCircle
 10
183.8165380136147
 20
530.2859053195288
 30
0.0
 40
3.0
100
AcDbArc
 50
180.0
 51
270.0
  0
LINE
  5
1090
330
2
100
AcDbEntity
  8
0
100
AcDbLine
 10
180.8165380136147
 20
457.2859053195288
 30
0.0
 11
180.8165380136147
 21
531.2859053195288
 31
0.0
  0
ARC
  5
1091
330
2
100
AcDbEntity
  8
0
100
AcDbCircle
 10
177.8165380136147
 20
457.2859053195288
 30
0.0
 40
3.0
100
AcDbArc
 50
270.0
 51
0.0
  0
ARC
  5
1092
330
2
100
AcDbEntity
  8
0
100
AcDbCircle
 10
177.8165380136147
 20
531.2859053195288
 30
0.0
 40
3.0
100
AcDbArc
 50
0.0
 51
90.0
  0
LINE
  5
1093
330
2
100
AcDbEntity
  8
0
100
AcDbLine
 10
153.3165380136147
 20
442.7859053195287
 30
0.0
 11
166.8165380136147
 21
442.7859053195287
 31
0.0
  0
ARC
  5
1094
330
2
100
AcDbEntity
  8
0
100
AcDbCircle
 10
166.8165380136147
 20
444.7859053195288
 30
0.0
 40
2.0
100
AcDbArc
 50
270.0
 51
0.0
  0
LINE
  5
1095
330
2
100
AcDbEntity
  8
0
100
AcDbLine
 10
153.3165380136147
 20
545.7859053195289
 30
0.0
 11
166.8165380136156
 21
545.7859053195289
 31
0.0
  0
ARC
  5
1096
330
2
100
AcDbEntity
  8
0
100
AcDbCircle
 10
166.8165380136156
 20
543.7859053195288
 30
0.0
 40
2.0
100
AcDbArc
 50
0.0
 51
90.0
  0
LINE
  5
1097
330
2
100
AcDbEntity
  8
CENTER
100
AcDbLine
 10
399.7865600136133
 20
494.2859053195288
 30
0.0
 11
83.31653801361472
 21
494.2859053195285
 31
0.0
  0
LINE
  5
1098
330
2
100
AcDbEntity
  8
CENTER
100
AcDbLine
 10
564.0750785394325
 20
412.1000725598216
 30
0.0
 11
564.0750785394325
 21
576.4717380788875
 31
0.0
  0
LINE
  5
1099
330
2
100
AcDbEntity
  8
0
100
AcDbLine
 10
636.0750752106219
 20
452.7172828688826
 30
0.0
 11
636.0750752106219
 21
535.854527769653
 31
0.0
  0
LINE
  5
109A
330
2
100
AcDbEntity
  8
0
100
AcDbLine
 10
622.0750752106218
 20
434.2859053193541
 30
0.0
 11
622.0750752106218
 21
554.2859053193542
 31
0.0
  0
LINE
  5
109B
330
2
100
AcDbEntity
  8
CENTER
100
AcDbLine
 10
456.0750785394284
 20
494.2859053192659
 30
0.0
 11
664.0750752106218
 21
494.2859053192669
 31
0.0
  0
LINE
  5
109C
330
2
100
AcDbEntity
  8
0
100
AcDbLine
 10
528.075078539432
 20
426.7859053193541
 30
0.0
 11
617.0750752106219
 21
427.5625965236821
 31
0.0
  0
LINE
  5
109D
330
2
100
AcDbEntity
  8
0
100
AcDbLine
 10
617.0750752106219
 20
434.2859053193541
 30
0.0
 11
622.0750752106218
 21
434.2859053193541
 31
0.0
  0
LINE
  5
109E
330
2
100
AcDbEntity
  8
0
100
AcDbLine
 10
617.0750752106236
 20
561.009214115028
 30
0.0
 11
528.075078539432
 21
561.7859053193542
 31
0.0
  0
LINE
  5
109F
330
2
100
AcDbEntity
  8
0
100
AcDbLine
 10
617.0750752106219
 20
554.2859053193542
 30
0.0
 11
622.0750752106218
 21
554.2859053193542
 31
0.0
  0
LINE
  5
10A0
330
2
100
AcDbEntity
  8
0
100
AcDbLine
 10
617.0750752106236
 20
561.009214115028
 30
0.0
 11
617.0750752106219
 21
427.5625965236821
 31
0.0
  0
LINE
  5
10A1
330
2
100
AcDbEntity
  8
0
100
AcDbLine
 10
634.144874204027
 20
450.7185012148428
 30
0.0
 11
624.0052762172167
 21
450.3644186508071
 31
0.0
  0
LINE
  5
10A2
330
2
100
AcDbEntity
  8
0
100
AcDbLine
 10
634.144874204027
 20
537.8533094236927
 30
0.0
 11
624.0052762172167
 21
538.2073919877284
 31
0.0
  0
ARC
  5
10A3
330
2
100
AcDbEntity
  8
0
100
AcDbCircle
 10
624.0750752106219
 20
540.2061736417663
 30
0.0
 40
2.0
100
AcDbArc
 50
180.0
 51
267.9999999999963
  0
ARC
  5
10A4
330
2
100
AcDbEntity
  8
0
100
AcDbCircle
 10
624.0750752106219
 20
448.3656369967692
 30
0.0
 40
2.0
100
AcDbArc
 50
92.00000000000365
 51
180.0
  0
ARC
  5
10A5
330
2
100
AcDbEntity
  8
0
100
AcDbCircle
 10
634.0750752106218
 20
452.7172828688826
 30
0.0
 40
2.0
100
AcDbArc
 50
272.0000000000036
 51
0.0
  0
ARC
  5
10A6
330
2
100
AcDbEntity
  8
0
100
AcDbCircle
 10
634.0750752106218
 20
535.854527769653
 30
0.0
 40
2.0
100
AcDbArc
 50
0.0
 51
87.99999999999636
  0
LINE
  5
10A7
330
2
100
AcDbEntity
  8
0
100
AcDbLine
 10
617.0750752106219
 20
551.7859053195288
 30
0.0
 11
528.075078539432
 21
551.7859053195288
 31
0.0
  0
LINE
  5
10A8
330
2
100
AcDbEntity
  8
0
100
AcDbLine
 10
617.0750752106219
 20
547.7859053195288
 30
0.0
 11
528.075078539432
 21
547.7859053195288
 31
0.0
  0
LINE
  5
10A9
330
2
100
AcDbEntity
  8
0
100
AcDbLine
 10
617.0750752106219
 20
521.9541004834363
 30
0.0
 11
528.075078539432
 21
521.9541004834363
 31
0.0
  0
LINE
  5
10AA
330
2
100
AcDbEntity
  8
0
100
AcDbLine
 10
617.0750752106219
 20
436.7859053190067
 30
0.0
 11
528.075078539432
 21
436.7859053190067
 31
0.0
  0
LINE
  5
10AB
330
2
100
AcDbEntity
  8
0
100
AcDbLine
 10
617.0750752106219
 20
440.7859053190067
 30
0.0
 11
528.075078539432
 21
440.7859053190067
 31
0.0
  0
LINE
  5
10AC
330
2
100
AcDbEntity
  8
0
100
AcDbLine
 10
617.0750752106219
 20
466.6177101550992
 30
0.0
 11
528.075078539432
 21
466.6177101550992
 31
0.0
  0
LINE
  5
10AD
330
2
100
AcDbEntity
  8
0
100
AcDbLine
 10
972.4681176763082
 20
780.3453402240529
 30
0.0
 11
972.8958865087047
 21
829.3627932950503
 31
0.0
  0
ARC
  5
10AE
330
2
100
AcDbEntity
  8
0
100
AcDbCircle
 10
975.8480029710122
 20
823.8627932950503
 30
0.0
 40
3.0
100
AcDbArc
 50
90.0
 51
179.5000000000344
  0
ARC
  5
10AF
330
2
100
AcDbEntity
  8
0
100
AcDbCircle
 10
975.5818335033895
 20
793.3627932950503
 30
0.0
 40
3.0
100
AcDbArc
 50
90.0
 51
179.5000000000344
  0
ARC
  5
10B0
330
2
100
AcDbEntity
  8
0
100
AcDbCircle
 10
977.6080902635353
 20
796.3627932950503
 30
0.0
 40
5.0
100
AcDbArc
 50
90.0
 51
179.5000000000344
  0
ARC
  5
10B1
330
2
100
AcDbEntity
  8
0
100
AcDbCircle
 10
970.4681938301787
 20
780.3627932950503
 30
0.0
 40
2.0
100
AcDbArc
 50
270.0
 51
359.5000000000345
  0
LINE
  5
10B2
330
2
100
AcDbEntity
  8
0
100
AcDbLine
 10
972.581719268232
 20
865.3627932950575
 30
0.0
 11
972.8958865086937
 21
829.3627932950503
 31
0.0
  0
ARC
  5
10B3
330
2
100
AcDbEntity
  8
0
100
AcDbCircle
 10
975.5818335033895
 20
865.3627932950502
 30
0.0
 40
3.0
100
AcDbArc
 50
180.4999999999655
 51
270.0
  0
ARC
  5
10B4
330
2
100
AcDbEntity
  8
0
100
AcDbCircle
 10
977.6080902635335
 20
862.3627932950503
 30
0.0
 40
5.0
100
AcDbArc
 50
180.4999999999655
 51
270.0
  0
ARC
  5
10B5
330
2
100
AcDbEntity
  8
0
100
AcDbCircle
 10
975.8480029710012
 20
834.8627932950503
 30
0.0
 40
3.0
100
AcDbArc
 50
180.4999999999655
 51
270.0
  0
LINE
  5
10B6
330
2
100
AcDbEntity
  8
0
100
AcDbLine
 10
921.0817192683393
 20
865.8627932950485
 30
0.0
 11
920.3006646009608
 21
776.3627932950503
 31
0.0
  0
LINE
  5
10B7
330
2
100
AcDbEntity
  8
0
100
AcDbLine
 10
241.8491688989611
 20
545.2859053195289
 30
0.0
 11
206.2865600136133
 21
545.2859053195289
 31
0.0
  0
CIRCLE
  5
10B8
330
2
100
AcDbEntity
  8
0
100
AcDbCircle
 10
220.7865600136133
 20
539.7859053195288
 30
0.0
 40
2.0
  0
CIRCLE
  5
10B9
330
2
100
AcDbEntity
  8
HOJO
100
AcDbCircle
 10
220.7865600136133
 20
539.7859053195288
 30
0.0
 40
2.5
  0
CIRCLE
  5
10BA
330
2
100
AcDbEntity
  8
0
100
AcDbCircle
 10
220.7865600136133
 20
539.7859053195288
 30
0.0
 40
3.5
  0
CIRCLE
  5
10BB
330
2
100
AcDbEntity
  8
0
100
AcDbCircle
 10
220.7865600136133
 20
539.7859053195288
 30
0.0
 40
4.0
  0
LINE
  5
10BC
330
2
100
AcDbEntity
  8
CENTER
100
AcDbLine
 10
228.7865600136133
 20
539.7859053195307
 30
0.0
 11
212.7865600136133
 21
539.7859053195288
 31
0.0
  0
LINE
  5
10BD
330
2
100
AcDbEntity
  8
0
100
AcDbLine
 10
241.8491688989611
 20
443.2859053195287
 30
0.0
 11
206.2865600136133
 21
443.2859053195287
 31
0.0
  0
CIRCLE
  5
10BE
330
2
100
AcDbEntity
  8
0
100
AcDbCircle
 10
220.7865600136142
 20
448.7859053195288
 30
0.0
 40
4.0
  0
CIRCLE
  5
10BF
330
2
100
AcDbEntity
  8
HOJO
100
AcDbCircle
 10
220.7865600136142
 20
448.7859053195288
 30
0.0
 40
2.5
  0
CIRCLE
  5
10C0
330
2
100
AcDbEntity
  8
0
100
AcDbCircle
 10
220.7865600136142
 20
448.7859053195288
 30
0.0
 40
3.5
  0
CIRCLE
  5
10C1
330
2
100
AcDbEntity
  8
0
100
AcDbCircle
 10
220.7865600136142
 20
448.7859053195288
 30
0.0
 40
2.0
  0
LINE
  5
10C2
330
2
100
AcDbEntity
  8
0
100
AcDbLine
 10
198.2865600136133
 20
451.2859053195287
 30
0.0
 11
198.2865600136133
 21
537.2859053195289
 31
0.0
  0
LINE
  5
10C3
330
2
100
AcDbEntity
  8
CENTER
100
AcDbLine
 10
206.2865600136133
 20
548.0359053195289
 30
0.0
 11
206.2865600136151
 21
526.5359053195289
 31
0.0
  0
LINE
  5
10C4
330
2
100
AcDbEntity
  8
0
100
AcDbLine
 10
206.2865600136151
 20
528.7859053195289
 30
0.0
 11
200.2865600136142
 21
528.7859053195325
 31
0.0
  0
LINE
  5
10C5
330
2
100
AcDbEntity
  8
CENTER
100
AcDbLine
 10
217.0365600136133
 20
537.2859053195306
 30
0.0
 11
195.5365600136133
 21
537.2859053195289
 31
0.0
  0
ARC
  5
10C6
330
2
100
AcDbEntity
  8
0
100
AcDbCircle
 10
206.2865600136133
 20
537.2859053195289
 30
0.0
 40
8.0
100
AcDbArc
 50
90.0
 51
180.0
  0
LINE
  5
10C7
330
2
100
AcDbEntity
  8
0
100
AcDbLine
 10
214.7865600136205
 20
537.2859053195234
 30
0.0
 11
214.7865600136233
 21
543.2859053195307
 31
0.0
  0
LINE
  5
10C8
330
2
100
AcDbEntity
  8
CENTER
100
AcDbLine
 10
220.7865600136133
 20
547.7859053195288
 30
0.0
 11
220.7865600136142
 21
531.7859053195288
 31
0.0
  0
ARC
  5
10C9
330
2
100
AcDbEntity
  8
0
100
AcDbCircle
 10
206.2865600136206
 20
537.2859053195289
 30
0.0
 40
8.5
100
AcDbArc
 50
269.9999999999739
 51
359.9999999998958
  0
ARC
  5
10CA
330
2
100
AcDbEntity
  8
0
100
AcDbCircle
 10
206.2865600136206
 20
451.2859053195287
 30
0.0
 40
8.5
100
AcDbArc
 50
0.0
 51
90.00000000002605
  0
LINE
  5
10CB
330
2
100
AcDbEntity
  8
0
100
AcDbLine
 10
206.2865600136151
 20
459.7859053195287
 30
0.0
 11
200.2865600136142
 21
459.7859053195251
 31
0.0
  0
ARC
  5
10CC
330
2
100
AcDbEntity
  8
0
100
AcDbCircle
 10
206.2865600136133
 20
451.2859053195287
 30
0.0
 40
8.0
100
AcDbArc
 50
180.0
 51
270.0
  0
LINE
  5
10CD
330
2
100
AcDbEntity
  8
0
100
AcDbLine
 10
214.7865600136205
 20
451.2859053195342
 30
0.0
 11
214.7865600136233
 21
445.2859053195288
 31
0.0
  0
ARC
  5
10FB
330
2
100
AcDbEntity
  8
0
100
AcDbCircle
 10
216.7865600136233
 20
445.2859053195288
 30
0.0
 40
2.0
100
AcDbArc
 50
180.0
 51
270.0
  0
ARC
  5
10FC
330
2
100
AcDbEntity
  8
0
100
AcDbCircle
 10
200.2865600136133
 20
461.7859053195251
 30
0.0
 40
2.0
100
AcDbArc
 50
180.0
 51
270.000000000026
  0
ARC
  5
10FD
330
2
100
AcDbEntity
  8
0
100
AcDbCircle
 10
200.2865600136133
 20
526.7859053195325
 30
0.0
 40
2.0
100
AcDbArc
 50
89.99999999997395
 51
180.0
  0
ARC
  5
10FE
330
2
100
AcDbEntity
  8
0
100
AcDbCircle
 10
216.7865600136233
 20
543.2859053195288
 30
0.0
 40
2.0
100
AcDbArc
 50
90.0
 51
179.9999999998957
  0
ARC
  5
1115
330
2
100
AcDbEntity
  8
0
100
AcDbCircle
 10
241.8491688989611
 20
435.2859053195287
 30
0.0
 40
8.0
100
AcDbArc
 50
4.780191847234029
 51
90.0
  0
ARC
  5
1116
330
2
100
AcDbEntity
  8
0
100
AcDbCircle
 10
241.8491688989611
 20
553.2859053195288
 30
0.0
 40
8.0
100
AcDbArc
 50
270.0
 51
355.2198081527659
  0
LINE
  5
111C
330
2
100
AcDbEntity
  8
CENTER
100
AcDbLine
 10
228.7865600136133
 20
448.7859053195288
 30
0.0
 11
212.7865600136133
 21
448.7859053195288
 31
0.0
  0
LINE
  5
111D
330
2
100
AcDbEntity
  8
CENTER
100
AcDbLine
 10
206.2865600136133
 20
440.5359053195287
 30
0.0
 11
206.2865600136151
 21
462.0359053195287
 31
0.0
  0
LINE
  5
111E
330
2
100
AcDbEntity
  8
CENTER
100
AcDbLine
 10
217.0365600136133
 20
451.2859053195287
 30
0.0
 11
195.5365600136133
 21
451.2859053195306
 31
0.0
  0
LINE
  5
111F
330
2
100
AcDbEntity
  8
CENTER
100
AcDbLine
 10
220.7865600136133
 20
440.7859053195288
 30
0.0
 11
220.7865600136142
 21
456.7859053195288
 31
0.0
  0
CIRCLE
  5
112E
330
2
100
AcDbEntity
  8
0
100
AcDbCircle
 10
206.2865600136206
 20
537.2859053195289
 30
0.0
 40
5.63397459621558
  0
CIRCLE
  5
112F
330
2
100
AcDbEntity
  8
0
100
AcDbCircle
 10
206.2865600136206
 20
537.2859053195289
 30
0.0
 40
6.5
  0
LINE
  5
1130
330
2
100
AcDbEntity
  8
0
100
AcDbLine
 10
209.2865600136206
 20
535.5538545119607
 30
0.0
 11
209.2865600136206
 21
539.0179561270988
 31
0.0
  0
LINE
  5
1131
330
2
100
AcDbEntity
  8
0
100
AcDbLine
 10
203.2865600136206
 20
539.0179561270988
 30
0.0
 11
203.2865600136206
 21
535.5538545119607
 31
0.0
  0
LINE
  5
1132
330
2
100
AcDbEntity
  8
0
100
AcDbLine
 10
206.2865600136206
 20
533.8218037043925
 30
0.0
 11
209.2865600136206
 21
535.5538545119607
 31
0.0
  0
LINE
  5
1133
330
2
100
AcDbEntity
  8
0
100
AcDbLine
 10
203.2865600136206
 20
535.5538545119607
 30
0.0
 11
206.2865600136206
 21
533.8218037043925
 31
0.0
  0
LINE
  5
1134
330
2
100
AcDbEntity
  8
0
100
AcDbLine
 10
203.2865600136206
 20
539.0179561270988
 30
0.0
 11
206.2865600136206
 21
540.750006934667
 31
0.0
  0
LINE
  5
1135
330
2
100
AcDbEntity
  8
0
100
AcDbLine
 10
206.2865600136206
 20
540.750006934667
 30
0.0
 11
209.2865600136206
 21
539.0179561270988
 31
0.0
  0
CIRCLE
  5
1136
330
2
100
AcDbEntity
  8
0
100
AcDbCircle
 10
206.2865600136142
 20
451.2859053195287
 30
0.0
 40
5.63397459621558
  0
CIRCLE
  5
1137
330
2
100
AcDbEntity
  8
0
100
AcDbCircle
 10
206.2865600136142
 20
451.2859053195287
 30
0.0
 40
6.5
  0
LINE
  5
1138
330
2
100
AcDbEntity
  8
0
100
AcDbLine
 10
209.2865600136142
 20
449.5538545119607
 30
0.0
 11
209.2865600136142
 21
453.0179561270988
 31
0.0
  0
LINE
  5
1139
330
2
100
AcDbEntity
  8
0
100
AcDbLine
 10
203.2865600136142
 20
453.0179561270988
 30
0.0
 11
203.2865600136142
 21
449.5538545119607
 31
0.0
  0
LINE
  5
113A
330
2
100
AcDbEntity
  8
0
100
AcDbLine
 10
206.2865600136142
 20
447.8218037043906
 30
0.0
 11
209.2865600136142
 21
449.5538545119607
 31
0.0
  0
LINE
  5
113B
330
2
100
AcDbEntity
  8
0
100
AcDbLine
 10
203.2865600136142
 20
449.5538545119607
 30
0.0
 11
206.2865600136142
 21
447.8218037043906
 31
0.0
  0
LINE
  5
113C
330
2
100
AcDbEntity
  8
0
100
AcDbLine
 10
203.2865600136142
 20
453.0179561270988
 30
0.0
 11
206.2865600136142
 21
454.7500069346669
 31
0.0
  0
LINE
  5
113D
330
2
100
AcDbEntity
  8
0
100
AcDbLine
 10
206.2865600136142
 20
454.7500069346669
 30
0.0
 11
209.2865600136142
 21
453.0179561270988
 31
0.0
  0
ARC
  5
1146
330
2
100
AcDbEntity
  8
0
100
AcDbCircle
 10
509.575078539432
 20
559.6243821083671
 30
0.0
 40
2.0
100
AcDbArc
 50
90.49999999999155
 51
180.0
  0
LINE
  5
1147
330
2
100
AcDbEntity
  8
0
100
AcDbLine
 10
506.9892921018054
 20
548.7001188816402
 30
0.0
 11
506.1608649770587
 21
547.8716917568954
 31
0.0
  0
LINE
  5
1148
330
2
100
AcDbEntity
  8
0
100
AcDbLine
 10
497.075078539432
 20
536.2085550500787
 30
0.0
 11
497.0750785394329
 21
452.363255588455
 31
0.0
  0
LINE
  5
1149
330
2
100
AcDbEntity
  8
0
100
AcDbLine
 10
505.575078539432
 20
539.2859053192669
 30
0.0
 11
505.075078539432
 21
538.7859053192669
 31
0.0
  0
LINE
  5
114A
330
2
100
AcDbEntity
  8
0
100
AcDbLine
 10
501.575078539432
 20
536.5859053192679
 30
0.0
 11
501.7750785394318
 21
536.7859053192669
 31
0.0
  0
LINE
  5
114B
330
2
100
AcDbEntity
  8
0
100
AcDbLine
 10
499.7750785394319
 20
536.085905319268
 30
0.0
 11
501.3750785394322
 21
536.085905319268
 31
0.0
  0
LINE
  5
114C
330
2
100
AcDbEntity
  8
0
100
AcDbLine
 10
498.075078539432
 20
536.7859053192669
 30
0.0
 11
497.075078539432
 21
536.2085550500787
 31
0.0
  0
LINE
  5
114D
330
2
100
AcDbEntity
  8
0
100
AcDbLine
 10
498.075078539432
 20
536.7859053192669
 30
0.0
 11
499.3750785394322
 21
536.7859053192669
 31
0.0
  0
LINE
  5
114E
330
2
100
AcDbEntity
  8
0
100
AcDbLine
 10
501.7750785394318
 20
536.7859053192669
 30
0.0
 11
505.075078539432
 21
536.7859053192669
 31
0.0
  0
LINE
  5
114F
330
2
100
AcDbEntity
  8
0
100
AcDbLine
 10
505.5750785394275
 20
442.1143324440135
 30
0.0
 11
505.5750785394402
 21
546.4574781945221
 31
0.0
  0
LINE
  5
1150
330
2
100
AcDbEntity
  8
0
100
AcDbLine
 10
505.5750785394284
 20
449.2859053192669
 30
0.0
 11
505.0750785394284
 21
449.7859053192668
 31
0.0
  0
LINE
  5
1151
330
2
100
AcDbEntity
  8
0
100
AcDbLine
 10
501.5750785394284
 20
451.9859053192676
 30
0.0
 11
501.5750785394284
 21
536.5859053192643
 31
0.0
  0
LINE
  5
1152
330
2
100
AcDbEntity
  8
0
100
AcDbLine
 10
501.5750785394284
 20
451.9859053192676
 30
0.0
 11
501.7750785394282
 21
451.7859053192668
 31
0.0
  0
LINE
  5
1153
330
2
100
AcDbEntity
  8
0
100
AcDbLine
 10
499.5750785394284
 20
451.9859053192676
 30
0.0
 11
499.5750785393638
 21
536.5859053192679
 31
0.0
  0
LINE
  5
1154
330
2
100
AcDbEntity
  8
0
100
AcDbLine
 10
498.0750785394284
 20
451.7859053192668
 30
0.0
 11
499.3750785394277
 21
451.7859053192668
 31
0.0
  0
LINE
  5
1155
330
2
100
AcDbEntity
  8
0
100
AcDbLine
 10
499.7750785394282
 20
452.4859053192676
 30
0.0
 11
501.3750785394277
 21
452.4859053192676
 31
0.0
  0
LINE
  5
1156
330
2
100
AcDbEntity
  8
0
100
AcDbLine
 10
498.0750785394284
 20
451.7859053192668
 30
0.0
 11
497.0750785394284
 21
452.3632555884568
 31
0.0
  0
LINE
  5
1157
330
2
100
AcDbEntity
  8
0
100
AcDbLine
 10
505.0750785394284
 20
449.7859053192668
 30
0.0
 11
505.0750785394284
 21
538.7859053192633
 31
0.0
  0
LINE
  5
1158
330
2
100
AcDbEntity
  8
0
100
AcDbLine
 10
501.7750785394282
 20
451.7859053192668
 30
0.0
 11
505.0750785394284
 21
451.7859053192668
 31
0.0
  0
LINE
  5
1159
330
2
100
AcDbEntity
  8
0
100
AcDbLine
 10
507.5750785394275
 20
428.9474285301684
 30
0.0
 11
507.5750785394275
 21
559.6243821083671
 31
0.0
  0
LINE
  5
115A
330
2
100
AcDbEntity
  8
0
100
AcDbLine
 10
506.9892921018008
 20
439.8716917568935
 30
0.0
 11
506.1608649770541
 21
440.7001188816401
 31
0.0
  0
LINE
  5
115B
330
2
100
AcDbEntity
  8
0
100
AcDbLine
 10
509.5576254684356
 20
561.6243059544949
 30
0.0
 11
528.075078539432
 21
561.7859053192687
 31
0.0
  0
ARC
  5
115C
330
2
100
AcDbEntity
  8
0
100
AcDbCircle
 10
507.5750785394275
 20
442.1143324440135
 30
0.0
 40
2.0
100
AcDbArc
 50
180.0
 51
225.0000000000095
  0
ARC
  5
115D
330
2
100
AcDbEntity
  8
0
100
AcDbCircle
 10
505.5750785394275
 20
438.457478194522
 30
0.0
 40
2.0
100
AcDbArc
 50
0.0
 51
45.00000000000949
  0
ARC
  5
115E
330
2
100
AcDbEntity
  8
0
100
AcDbCircle
 10
507.575078539432
 20
546.4574781945221
 30
0.0
 40
2.0
100
AcDbArc
 50
134.9999999999905
 51
180.0
  0
ARC
  5
115F
330
2
100
AcDbEntity
  8
0
100
AcDbCircle
 10
505.575078539432
 20
550.1143324440135
 30
0.0
 40
2.0
100
AcDbArc
 50
314.9999999999905
 51
0.0
  0
ARC
  5
1160
330
2
100
AcDbEntity
  8
0
100
AcDbCircle
 10
499.3750785394322
 20
536.5859053192679
 30
0.0
 40
0.2
100
AcDbArc
 50
0.0
 51
90.0
  0
ARC
  5
1161
330
2
100
AcDbEntity
  8
0
100
AcDbCircle
 10
499.7750785394319
 20
536.2859053192687
 30
0.0
 40
0.2
100
AcDbArc
 50
180.0
 51
270.0
  0
ARC
  5
1162
330
2
100
AcDbEntity
  8
0
100
AcDbCircle
 10
501.3750785394322
 20
536.2859053192687
 30
0.0
 40
0.2
100
AcDbArc
 50
270.0
 51
0.0
  0
ARC
  5
1163
330
2
100
AcDbEntity
  8
0
100
AcDbCircle
 10
499.3750785394277
 20
451.9859053192676
 30
0.0
 40
0.2
100
AcDbArc
 50
270.0
 51
0.0
  0
ARC
  5
1164
330
2
100
AcDbEntity
  8
0
100
AcDbCircle
 10
499.7750785394282
 20
452.2859053192668
 30
0.0
 40
0.2
100
AcDbArc
 50
90.0
 51
180.0
  0
ARC
  5
1165
330
2
100
AcDbEntity
  8
0
100
AcDbCircle
 10
501.3750785394277
 20
452.2859053192668
 30
0.0
 40
0.2
100
AcDbArc
 50
0.0
 51
90.0
  0
LINE
  5
1166
330
2
100
AcDbEntity
  8
0
100
AcDbLine
 10
498.075078539432
 20
536.7859053192669
 30
0.0
 11
498.0750785394284
 21
451.7859053192668
 31
0.0
  0
LINE
  5
1167
330
2
100
AcDbEntity
  8
0
100
AcDbLine
 10
517.5794418071718
 20
543.2815799630307
 30
0.0
 11
509.5576254684301
 21
543.2115746324007
 31
0.0
  0
LINE
  5
1168
330
2
100
AcDbEntity
  8
0
100
AcDbLine
 10
518.075078539423
 20
543.7815609245653
 30
0.0
 11
518.075078539423
 21
560.7073254307643
 31
0.0
  0
ARC
  5
1169
330
2
100
AcDbEntity
  8
0
100
AcDbCircle
 10
517.5750785394229
 20
543.7815609245653
 30
0.0
 40
0.5
100
AcDbArc
 50
270.5000000000175
 51
0.0
  0
ARC
  5
116A
330
2
100
AcDbEntity
  8
0
100
AcDbCircle
 10
519.075078539423
 20
560.7073254307643
 30
0.0
 40
1.0
100
AcDbArc
 50
90.50000000001761
 51
180.0
  0
ARC
  5
116B
330
2
100
AcDbEntity
  8
0
100
AcDbCircle
 10
509.5750785394275
 20
541.2116507862728
 30
0.0
 40
2.0
100
AcDbArc
 50
90.49999999999155
 51
180.0
  0
LINE
  5
116C
330
2
100
AcDbEntity
  8
0
100
AcDbLine
 10
519.0663520039252
 20
551.7859053192687
 30
0.0
 11
528.075078539432
 21
551.7859053192687
 31
0.0
  0
LINE
  5
116D
330
2
100
AcDbEntity
  8
0
100
AcDbLine
 10
519.0663520039252
 20
547.7859053192687
 30
0.0
 11
528.075078539432
 21
547.7859053192687
 31
0.0
  0
LINE
  5
116E
330
2
100
AcDbEntity
  8
0
100
AcDbLine
 10
509.5576254684301
 20
521.9541004834363
 30
0.0
 11
528.075078539432
 21
521.9541004834363
 31
0.0
  0
LINE
  5
116F
330
2
100
AcDbEntity
  8
0
100
AcDbLine
 10
519.0663520039252
 20
436.7859053192669
 30
0.0
 11
528.075078539432
 21
436.7859053192669
 31
0.0
  0
LINE
  5
1170
330
2
100
AcDbEntity
  8
0
100
AcDbLine
 10
519.0663520039252
 20
440.7859053192669
 30
0.0
 11
528.075078539432
 21
440.7859053192669
 31
0.0
  0
LINE
  5
1171
330
2
100
AcDbEntity
  8
0
100
AcDbLine
 10
509.5576254684301
 20
466.6177101550992
 30
0.0
 11
528.075078539432
 21
466.6177101550992
 31
0.0
  0
ARC
  5
1172
330
2
100
AcDbEntity
  8
0
100
AcDbCircle
 10
509.575078539432
 20
428.9474285301684
 30
0.0
 40
2.0
100
AcDbArc
 50
180.0
 51
269.5000000000084
  0
LINE
  5
1173
330
2
100
AcDbEntity
  8
0
100
AcDbLine
 10
509.5576254684356
 20
426.9475046840407
 30
0.0
 11
528.075078539432
 21
426.7859053192668
 31
0.0
  0
ARC
  5
1174
330
2
100
AcDbEntity
  8
0
100
AcDbCircle
 10
519.075078539423
 20
427.8644852077713
 30
0.0
 40
1.0
100
AcDbArc
 50
180.0
 51
269.4999999999824
  0
LINE
  5
1175
330
2
100
AcDbEntity
  8
0
100
AcDbLine
 10
517.5794418071718
 20
445.2902306755048
 30
0.0
 11
509.5576254684301
 21
445.3602360061349
 31
0.0
  0
LINE
  5
1176
330
2
100
AcDbEntity
  8
0
100
AcDbLine
 10
518.075078539423
 20
444.7902497139702
 30
0.0
 11
518.075078539423
 21
427.8644852077713
 31
0.0
  0
ARC
  5
1177
330
2
100
AcDbEntity
  8
0
100
AcDbCircle
 10
517.5750785394229
 20
444.7902497139702
 30
0.0
 40
0.5
100
AcDbArc
 50
0.0
 51
89.49999999998238
  0
ARC
  5
1178
330
2
100
AcDbEntity
  8
0
100
AcDbCircle
 10
509.5750785394275
 20
447.3601598522627
 30
0.0
 40
2.0
100
AcDbArc
 50
180.0
 51
269.5000000000084
  0
LINE
  5
1179
330
2
100
AcDbEntity
  8
0
100
AcDbLine
 10
528.075078539432
 20
561.7859053192687
 30
0.0
 11
528.075078539432
 21
426.7859053192668
 31
0.0
  0
LINE
  5
117A
330
2
100
AcDbEntity
  8
0
100
AcDbLine
 10
508.0750785394229
 20
557.4198799154847
 30
0.0
 11
508.0750785394229
 21
546.1519307230546
 31
0.0
  0
LINE
  5
117B
330
2
100
AcDbEntity
  8
0
100
AcDbLine
 10
516.0750785394229
 20
558.2859053192687
 30
0.0
 11
516.0750785394238
 21
545.2859053192687
 31
0.0
  0
LINE
  5
117C
330
2
100
AcDbEntity
  8
0
100
AcDbLine
 10
508.5750785394229
 20
545.2859053192687
 30
0.0
 11
508.0750785394229
 21
546.1519307230546
 31
0.0
  0
LINE
  5
117D
330
2
100
AcDbEntity
  8
0
100
AcDbLine
 10
518.075078539423
 20
545.2859053192687
 30
0.0
 11
516.0750785394229
 21
545.2859053192687
 31
0.0
  0
LINE
  5
117E
330
2
100
AcDbEntity
  8
0
100
AcDbLine
 10
516.0750785394229
 20
545.2859053192687
 30
0.0
 11
508.5750785394229
 21
545.2859053192687
 31
0.0
  0
LINE
  5
117F
330
2
100
AcDbEntity
  8
CENTER
  6
CENS
100
AcDbLine
 10
537.6525729926306
 20
551.7859053192687
 30
0.0
 11
502.075078539423
 21
551.7859053192687
 31
0.0
  0
LINE
  5
1180
330
2
100
AcDbEntity
  8
0
100
AcDbLine
 10
508.5750785394229
 20
558.2859053192687
 30
0.0
 11
508.0750785394229
 21
557.4198799154847
 31
0.0
  0
LINE
  5
1181
330
2
100
AcDbEntity
  8
0
100
AcDbLine
 10
518.075078539423
 20
558.2859053192687
 30
0.0
 11
516.0750785394229
 21
558.2859053192687
 31
0.0
  0
LINE
  5
1182
330
2
100
AcDbEntity
  8
0
100
AcDbLine
 10
516.0750785394229
 20
558.2859053192687
 30
0.0
 11
508.5750785394229
 21
558.2859053192687
 31
0.0
  0
LINE
  5
1183
330
2
100
AcDbEntity
  8
0
100
AcDbLine
 10
508.5750785394229
 20
558.2859053192687
 30
0.0
 11
508.5750785394229
 21
545.2859053192687
 31
0.0
  0
LINE
  5
1184
330
2
100
AcDbEntity
  8
0
100
AcDbLine
 10
508.0750785394229
 20
431.151930723051
 30
0.0
 11
508.0750785394229
 21
442.4198799154809
 31
0.0
  0
LINE
  5
1185
330
2
100
AcDbEntity
  8
0
100
AcDbLine
 10
516.0750785394229
 20
430.2859053192668
 30
0.0
 11
516.0750785394238
 21
443.2859053192668
 31
0.0
  0
LINE
  5
1186
330
2
100
AcDbEntity
  8
0
100
AcDbLine
 10
508.5750785394229
 20
443.2859053192668
 30
0.0
 11
508.0750785394229
 21
442.4198799154809
 31
0.0
  0
LINE
  5
1187
330
2
100
AcDbEntity
  8
0
100
AcDbLine
 10
518.075078539423
 20
443.2859053192668
 30
0.0
 11
516.0750785394229
 21
443.2859053192668
 31
0.0
  0
LINE
  5
1188
330
2
100
AcDbEntity
  8
0
100
AcDbLine
 10
516.0750785394229
 20
443.2859053192668
 30
0.0
 11
508.5750785394229
 21
443.2859053192668
 31
0.0
  0
LINE
  5
1189
330
2
100
AcDbEntity
  8
CENTER
  6
CENS
100
AcDbLine
 10
537.6525729926306
 20
436.7859053192669
 30
0.0
 11
502.075078539423
 21
436.7859053192669
 31
0.0
  0
LINE
  5
118A
330
2
100
AcDbEntity
  8
0
100
AcDbLine
 10
508.5750785394229
 20
430.2859053192668
 30
0.0
 11
508.0750785394229
 21
431.151930723051
 31
0.0
  0
LINE
  5
118B
330
2
100
AcDbEntity
  8
0
100
AcDbLine
 10
518.075078539423
 20
430.2859053192668
 30
0.0
 11
516.0750785394229
 21
430.2859053192668
 31
0.0
  0
LINE
  5
118C
330
2
100
AcDbEntity
  8
0
100
AcDbLine
 10
516.0750785394229
 20
430.2859053192668
 30
0.0
 11
508.5750785394229
 21
430.2859053192668
 31
0.0
  0
LINE
  5
118D
330
2
100
AcDbEntity
  8
0
100
AcDbLine
 10
508.5750785394229
 20
430.2859053192668
 30
0.0
 11
508.5750785394229
 21
443.2859053192668
 31
0.0
  0
ARC
  5
118E
330
2
100
AcDbEntity
  8
0
100
AcDbCircle
 10
1413.659086910493
 20
559.6243821085417
 30
0.0
 40
2.0
100
AcDbArc
 50
0.0
 51
89.49999999998238
  0
LINE
  5
118F
330
2
100
AcDbEntity
  8
0
100
AcDbLine
 10
1416.24487334812
 20
548.7001188818148
 30
0.0
 11
1417.073300472866
 21
547.87169175707
 31
0.0
  0
LINE
  5
1190
330
2
100
AcDbEntity
  8
0
100
AcDbLine
 10
1426.159086910493
 20
536.2085550502516
 30
0.0
 11
1426.159086910493
 21
452.3632555886297
 31
0.0
  0
LINE
  5
1191
330
2
100
AcDbEntity
  8
0
100
AcDbLine
 10
1417.659086910493
 20
539.2859053194415
 30
0.0
 11
1418.159086910493
 21
538.7859053194415
 31
0.0
  0
LINE
  5
1192
330
2
100
AcDbEntity
  8
0
100
AcDbLine
 10
1421.659086910493
 20
536.5859053194426
 30
0.0
 11
1421.459086910494
 21
536.7859053194415
 31
0.0
  0
LINE
  5
1193
330
2
100
AcDbEntity
  8
0
100
AcDbLine
 10
1423.459086910494
 20
536.0859053194426
 30
0.0
 11
1421.859086910494
 21
536.0859053194426
 31
0.0
  0
LINE
  5
1194
330
2
100
AcDbEntity
  8
0
100
AcDbLine
 10
1425.159086910493
 20
536.7859053194415
 30
0.0
 11
1426.159086910493
 21
536.2085550502533
 31
0.0
  0
LINE
  5
1195
330
2
100
AcDbEntity
  8
0
100
AcDbLine
 10
1425.159086910493
 20
536.7859053194415
 30
0.0
 11
1423.859086910494
 21
536.7859053194415
 31
0.0
  0
LINE
  5
1196
330
2
100
AcDbEntity
  8
0
100
AcDbLine
 10
1421.459086910494
 20
536.7859053194415
 30
0.0
 11
1418.159086910493
 21
536.7859053194415
 31
0.0
  0
LINE
  5
1197
330
2
100
AcDbEntity
  8
0
100
AcDbLine
 10
1417.659086910498
 20
442.1143324441882
 30
0.0
 11
1417.659086910486
 21
546.4574781946967
 31
0.0
  0
LINE
  5
1198
330
2
100
AcDbEntity
  8
0
100
AcDbLine
 10
1417.659086910497
 20
449.2859053194415
 30
0.0
 11
1418.159086910497
 21
449.7859053194415
 31
0.0
  0
LINE
  5
1199
330
2
100
AcDbEntity
  8
0
100
AcDbLine
 10
1421.659086910497
 20
451.9859053194422
 30
0.0
 11
1421.659086910497
 21
536.585905319439
 31
0.0
  0
LINE
  5
119A
330
2
100
AcDbEntity
  8
0
100
AcDbLine
 10
1421.659086910497
 20
451.9859053194422
 30
0.0
 11
1421.459086910498
 21
451.7859053194414
 31
0.0
  0
LINE
  5
119B
330
2
100
AcDbEntity
  8
0
100
AcDbLine
 10
1423.659086910497
 20
451.9859053194422
 30
0.0
 11
1423.659086910562
 21
536.5859053194426
 31
0.0
  0
LINE
  5
119C
330
2
100
AcDbEntity
  8
0
100
AcDbLine
 10
1425.159086910497
 20
451.7859053194414
 30
0.0
 11
1423.859086910497
 21
451.7859053194414
 31
0.0
  0
LINE
  5
119D
330
2
100
AcDbEntity
  8
0
100
AcDbLine
 10
1423.459086910498
 20
452.4859053194422
 30
0.0
 11
1421.859086910497
 21
452.4859053194422
 31
0.0
  0
LINE
  5
119E
330
2
100
AcDbEntity
  8
0
100
AcDbLine
 10
1425.159086910497
 20
451.7859053194414
 30
0.0
 11
1426.159086910497
 21
452.3632555886314
 31
0.0
  0
LINE
  5
119F
330
2
100
AcDbEntity
  8
0
100
AcDbLine
 10
1418.159086910497
 20
449.7859053194415
 30
0.0
 11
1418.159086910497
 21
538.7859053194379
 31
0.0
  0
LINE
  5
11A0
330
2
100
AcDbEntity
  8
0
100
AcDbLine
 10
1421.459086910498
 20
451.7859053194414
 30
0.0
 11
1418.159086910497
 21
451.7859053194414
 31
0.0
  0
LINE
  5
11A1
330
2
100
AcDbEntity
  8
0
100
AcDbLine
 10
1415.659086910499
 20
428.947428530343
 30
0.0
 11
1415.659086910499
 21
559.6243821085417
 31
0.0
  0
LINE
  5
11A2
330
2
100
AcDbEntity
  8
0
100
AcDbLine
 10
1416.244873348125
 20
439.8716917570681
 30
0.0
 11
1417.073300472872
 21
440.7001188818148
 31
0.0
  0
LINE
  5
11A3
330
2
100
AcDbEntity
  8
0
100
AcDbLine
 10
1413.676539981491
 20
561.6243059546696
 30
0.0
 11
1395.159086910493
 21
561.7859053194415
 31
0.0
  0
ARC
  5
11A4
330
2
100
AcDbEntity
  8
0
100
AcDbCircle
 10
1415.659086910499
 20
442.1143324441882
 30
0.0
 40
2.0
100
AcDbArc
 50
314.9999999999905
 51
0.0
  0
ARC
  5
11A5
330
2
100
AcDbEntity
  8
0
100
AcDbCircle
 10
1417.659086910498
 20
438.4574781946948
 30
0.0
 40
2.0
100
AcDbArc
 50
134.9999999999905
 51
180.0
  0
ARC
  5
11A6
330
2
100
AcDbEntity
  8
0
100
AcDbCircle
 10
1415.659086910493
 20
546.4574781946967
 30
0.0
 40
2.0
100
AcDbArc
 50
0.0
 51
45.00000000000949
  0
ARC
  5
11A7
330
2
100
AcDbEntity
  8
0
100
AcDbCircle
 10
1417.659086910493
 20
550.1143324441882
 30
0.0
 40
2.0
100
AcDbArc
 50
180.0
 51
225.0000000000095
  0
ARC
  5
11A8
330
2
100
AcDbEntity
  8
0
100
AcDbCircle
 10
1423.859086910494
 20
536.5859053194426
 30
0.0
 40
0.2
100
AcDbArc
 50
90.0
 51
180.0
  0
ARC
  5
11A9
330
2
100
AcDbEntity
  8
0
100
AcDbCircle
 10
1423.459086910494
 20
536.2859053194415
 30
0.0
 40
0.2
100
AcDbArc
 50
270.0
 51
0.0
  0
ARC
  5
11AA
330
2
100
AcDbEntity
  8
0
100
AcDbCircle
 10
1421.859086910494
 20
536.2859053194415
 30
0.0
 40
0.2
100
AcDbArc
 50
180.0
 51
270.0
  0
ARC
  5
11AB
330
2
100
AcDbEntity
  8
0
100
AcDbCircle
 10
1423.859086910497
 20
451.9859053194422
 30
0.0
 40
0.2
100
AcDbArc
 50
180.0
 51
270.0
  0
ARC
  5
11AC
330
2
100
AcDbEntity
  8
0
100
AcDbCircle
 10
1423.459086910498
 20
452.2859053194415
 30
0.0
 40
0.2
100
AcDbArc
 50
0.0
 51
90.0
  0
ARC
  5
11AD
330
2
100
AcDbEntity
  8
0
100
AcDbCircle
 10
1421.859086910497
 20
452.2859053194415
 30
0.0
 40
0.2
100
AcDbArc
 50
90.0
 51
180.0
  0
LINE
  5
11AE
330
2
100
AcDbEntity
  8
0
100
AcDbLine
 10
1425.159086910493
 20
536.7859053194415
 30
0.0
 11
1425.159086910497
 21
451.7859053194414
 31
0.0
  0
ARC
  5
11AF
330
2
100
AcDbEntity
  8
0
100
AcDbCircle
 10
1413.659086910493
 20
428.947428530343
 30
0.0
 40
2.0
100
AcDbArc
 50
270.5000000000175
 51
0.0
  0
LINE
  5
11B0
330
2
100
AcDbEntity
  8
0
100
AcDbLine
 10
1413.676539981491
 20
426.9475046842134
 30
0.0
 11
1395.159086910493
 21
426.7859053194414
 31
0.0
  0
LINE
  5
11B1
330
2
100
AcDbEntity
  8
0
100
AcDbLine
 10
1410.159086910493
 20
537.3594202700342
 30
0.0
 11
1410.159086910493
 21
451.2123903697765
 31
0.0
  0
ARC
  5
11B2
330
2
100
AcDbEntity
  8
0
100
AcDbCircle
 10
1408.159086910493
 20
543.1723798813918
 30
0.0
 40
2.0
100
AcDbArc
 50
17.86424478083925
 51
89.50000000000846
  0
LINE
  5
11B3
330
2
100
AcDbEntity
  8
0
100
AcDbLine
 10
1408.17653998149
 20
545.1723037275196
 30
0.0
 11
1403.714724352329
 21
545.2112414026223
 31
0.0
  0
ARC
  5
11B4
330
2
100
AcDbEntity
  8
0
100
AcDbCircle
 10
1408.159086910493
 20
445.3994307574929
 30
0.0
 40
2.0
100
AcDbArc
 50
270.4999999999915
 51
342.1357552191607
  0
LINE
  5
11B5
330
2
100
AcDbEntity
  8
0
100
AcDbLine
 10
1408.17653998149
 20
443.3995069113652
 30
0.0
 11
1403.71472435233
 21
443.3605692362625
 31
0.0
  0
LINE
  5
11B6
330
2
100
AcDbEntity
  8
CENTER
100
AcDbLine
 10
1422.803917503059
 20
537.2859053194416
 30
0.0
 11
1384.412186099475
 21
537.2859053194416
 31
0.0
  0
LINE
  5
11B7
330
2
100
AcDbEntity
  8
CENTER
100
AcDbLine
 10
1422.803917503059
 20
451.2859053194433
 30
0.0
 11
1384.412186099475
 21
451.2859053194433
 31
0.0
  0
LINE
  5
11B8
330
2
100
AcDbEntity
  8
0
100
AcDbLine
 10
1415.159086910493
 20
542.9198799156556
 30
0.0
 11
1415.159086910493
 21
531.6519307232256
 31
0.0
  0
LINE
  5
11B9
330
2
100
AcDbEntity
  8
0
100
AcDbLine
 10
1407.159086910493
 20
543.7859053194415
 30
0.0
 11
1407.159086910493
 21
543.6089481467178
 31
0.0
  0
LINE
  5
11BA
330
2
100
AcDbEntity
  8
0
100
AcDbLine
 10
1414.659086910493
 20
530.7859053194415
 30
0.0
 11
1415.159086910493
 21
531.6519307232256
 31
0.0
  0
LINE
  5
11BB
330
2
100
AcDbEntity
  8
0
100
AcDbLine
 10
1410.159086910493
 20
530.7859053194415
 30
0.0
 11
1414.659086910493
 21
530.7859053194415
 31
0.0
  0
LINE
  5
11BC
330
2
100
AcDbEntity
  8
0
100
AcDbLine
 10
1414.659086910493
 20
543.7859053194415
 30
0.0
 11
1415.159086910493
 21
542.9198799156575
 31
0.0
  0
LINE
  5
11BD
330
2
100
AcDbEntity
  8
0
100
AcDbLine
 10
1406.929672915241
 20
543.7859053194415
 30
0.0
 11
1407.159086910493
 21
543.7859053194415
 31
0.0
  0
LINE
  5
11BE
330
2
100
AcDbEntity
  8
0
100
AcDbLine
 10
1407.159086910493
 20
543.7859053194415
 30
0.0
 11
1414.659086910493
 21
543.7859053194415
 31
0.0
  0
LINE
  5
11BF
330
2
100
AcDbEntity
  8
0
100
AcDbLine
 10
1414.659086910493
 20
543.7859053194415
 30
0.0
 11
1414.659086910493
 21
530.7859053194415
 31
0.0
  0
LINE
  5
11C0
330
2
100
AcDbEntity
  8
0
100
AcDbLine
 10
1415.159086910493
 20
456.9198799156573
 30
0.0
 11
1415.159086910493
 21
445.6519307232274
 31
0.0
  0
LINE
  5
11C1
330
2
100
AcDbEntity
  8
0
100
AcDbLine
 10
1407.159086910493
 20
444.9628624921651
 30
0.0
 11
1407.159086910493
 21
444.7859053194433
 31
0.0
  0
LINE
  5
11C2
330
2
100
AcDbEntity
  8
0
100
AcDbLine
 10
1414.659086910493
 20
444.7859053194433
 30
0.0
 11
1415.159086910493
 21
445.6519307232274
 31
0.0
  0
LINE
  5
11C3
330
2
100
AcDbEntity
  8
0
100
AcDbLine
 10
1406.929672915241
 20
444.7859053194433
 30
0.0
 11
1407.159086910493
 21
444.7859053194433
 31
0.0
  0
LINE
  5
11C4
330
2
100
AcDbEntity
  8
0
100
AcDbLine
 10
1407.159086910493
 20
444.7859053194433
 30
0.0
 11
1414.659086910493
 21
444.7859053194433
 31
0.0
  0
LINE
  5
11C5
330
2
100
AcDbEntity
  8
0
100
AcDbLine
 10
1414.659086910493
 20
457.7859053194432
 30
0.0
 11
1415.159086910493
 21
456.9198799156592
 31
0.0
  0
LINE
  5
11C6
330
2
100
AcDbEntity
  8
0
100
AcDbLine
 10
1410.159086910493
 20
457.7859053194432
 30
0.0
 11
1414.659086910493
 21
457.7859053194432
 31
0.0
  0
LINE
  5
11C7
330
2
100
AcDbEntity
  8
0
100
AcDbLine
 10
1414.659086910493
 20
457.7859053194432
 30
0.0
 11
1414.659086910493
 21
444.7859053194433
 31
0.0
  0
LINE
  5
11C8
330
2
100
AcDbEntity
  8
0
100
AcDbLine
 10
958.0817192682301
 20
880.3627932950703
 30
0.0
 11
923.0817192682302
 21
880.3627932950703
 31
0.0
  0
ARC
  5
11C9
330
2
100
AcDbEntity
  8
0
100
AcDbCircle
 10
970.4681938301787
 20
878.3627932950704
 30
0.0
 40
2.0
100
AcDbArc
 50
0.4999999999654926
 51
72.13575521911801
  0
LINE
  5
11CA
330
2
100
AcDbEntity
  8
0
100
AcDbLine
 10
786.0817192682302
 20
865.3627932950648
 30
0.0
 11
972.5817192682303
 21
865.3627932950648
 31
0.0
  0
ARC
  5
11CB
330
2
100
AcDbEntity
  8
0
100
AcDbCircle
 10
788.2432424791318
 20
883.8627932950648
 30
0.0
 40
2.0
100
AcDbArc
 50
90.0
 51
179.5000000000344
  0
LINE
  5
11CC
330
2
100
AcDbEntity
  8
0
100
AcDbLine
 10
799.1675057058569
 20
886.4485797326915
 30
0.0
 11
799.9959328306036
 21
887.2770068574382
 31
0.0
  0
LINE
  5
11CD
330
2
100
AcDbEntity
  8
0
100
AcDbLine
 10
811.6590695374203
 20
896.3627932950648
 30
0.0
 11
895.5043689990439
 21
896.3627932950648
 31
0.0
  0
LINE
  5
11CE
330
2
100
AcDbEntity
  8
0
100
AcDbLine
 10
808.5817192682302
 20
887.8627932950648
 30
0.0
 11
809.0817192682303
 21
888.3627932950648
 31
0.0
  0
LINE
  5
11CF
330
2
100
AcDbEntity
  8
0
100
AcDbLine
 10
811.281719268231
 20
891.8627932950649
 30
0.0
 11
811.0817192682302
 21
891.6627932950659
 31
0.0
  0
LINE
  5
11D0
330
2
100
AcDbEntity
  8
0
100
AcDbLine
 10
811.7817192682309
 20
893.662793295066
 30
0.0
 11
811.7817192682309
 21
892.0627932950656
 31
0.0
  0
LINE
  5
11D1
330
2
100
AcDbEntity
  8
0
100
AcDbLine
 10
811.0817192682302
 20
895.3627932950649
 30
0.0
 11
811.6590695374203
 21
896.3627932950648
 31
0.0
  0
LINE
  5
11D2
330
2
100
AcDbEntity
  8
0
100
AcDbLine
 10
811.0817192682302
 20
895.3627932950649
 30
0.0
 11
811.0817192682302
 21
894.0627932950656
 31
0.0
  0
LINE
  5
11D3
330
2
100
AcDbEntity
  8
0
100
AcDbLine
 10
811.0817192682302
 20
891.6627932950659
 30
0.0
 11
811.0817192682302
 21
888.3627932950648
 31
0.0
  0
LINE
  5
11D4
330
2
100
AcDbEntity
  8
0
100
AcDbLine
 10
905.7532921434836
 20
887.8627932950703
 30
0.0
 11
801.4101463929769
 21
887.8627932950577
 31
0.0
  0
LINE
  5
11D5
330
2
100
AcDbEntity
  8
0
100
AcDbLine
 10
898.5817192682302
 20
887.8627932950703
 30
0.0
 11
898.0817192682302
 21
888.3627932950686
 31
0.0
  0
LINE
  5
11D6
330
2
100
AcDbEntity
  8
0
100
AcDbLine
 10
895.8817192682314
 20
891.8627932950684
 30
0.0
 11
811.2817192682346
 21
891.8627932950684
 31
0.0
  0
LINE
  5
11D7
330
2
100
AcDbEntity
  8
0
100
AcDbLine
 10
895.8817192682314
 20
891.8627932950684
 30
0.0
 11
896.0817192682302
 21
891.6627932950696
 31
0.0
  0
LINE
  5
11D8
330
2
100
AcDbEntity
  8
0
100
AcDbLine
 10
895.8817192682314
 20
893.8627932950685
 30
0.0
 11
811.281719268231
 21
893.8627932951339
 31
0.0
  0
LINE
  5
11D9
330
2
100
AcDbEntity
  8
0
100
AcDbLine
 10
896.0817192682302
 20
895.3627932950684
 30
0.0
 11
896.0817192682302
 21
894.0627932950691
 31
0.0
  0
LINE
  5
11DA
330
2
100
AcDbEntity
  8
0
100
AcDbLine
 10
895.3817192682313
 20
893.6627932950695
 30
0.0
 11
895.3817192682313
 21
892.0627932950692
 31
0.0
  0
LINE
  5
11DB
330
2
100
AcDbEntity
  8
0
100
AcDbLine
 10
896.0817192682302
 20
895.3627932950684
 30
0.0
 11
895.5043689990402
 21
896.3627932950684
 31
0.0
  0
LINE
  5
11DC
330
2
100
AcDbEntity
  8
0
100
AcDbLine
 10
898.0817192682302
 20
888.3627932950686
 30
0.0
 11
809.0817192682338
 21
888.3627932950686
 31
0.0
  0
LINE
  5
11DD
330
2
100
AcDbEntity
  8
0
100
AcDbLine
 10
896.0817192682302
 20
891.6627932950696
 30
0.0
 11
896.0817192682302
 21
888.3627932950686
 31
0.0
  0
LINE
  5
11DE
330
2
100
AcDbEntity
  8
0
100
AcDbLine
 10
919.0817192682303
 20
885.8627932950703
 30
0.0
 11
788.2432424791318
 21
885.8627932950703
 31
0.0
  0
LINE
  5
11DF
330
2
100
AcDbEntity
  8
0
100
AcDbLine
 10
907.9959328306035
 20
886.448579732697
 30
0.0
 11
907.1675057058568
 21
887.2770068574437
 31
0.0
  0
LINE
  5
11E0
330
2
100
AcDbEntity
  8
0
100
AcDbLine
 10
921.0817192682302
 20
882.3627932950703
 30
0.0
 11
921.0817192682302
 21
883.8627932950704
 31
0.0
  0
ARC
  5
11E1
330
2
100
AcDbEntity
  8
0
100
AcDbCircle
 10
923.0817192682302
 20
882.3627932950703
 30
0.0
 40
2.0
100
AcDbArc
 50
180.0
 51
270.0
  0
LINE
  5
11E2
330
2
100
AcDbEntity
  8
0
100
AcDbLine
 10
972.5817192682303
 20
865.3627932950648
 30
0.0
 11
972.4681176763064
 21
878.3802463660659
 31
0.0
  0
ARC
  5
11E3
330
2
100
AcDbEntity
  8
0
100
AcDbCircle
 10
971.5031393797275
 20
874.362793295074
 30
0.0
 40
1.0
100
AcDbArc
 50
0.4999999999654926
 51
90.0
  0
LINE
  5
11E4
330
2
100
AcDbEntity
  8
0
100
AcDbLine
 10
786.2433186330022
 20
883.8802463660622
 30
0.0
 11
786.0817192682302
 21
865.3627932950648
 31
0.0
  0
ARC
  5
11E5
330
2
100
AcDbEntity
  8
0
100
AcDbCircle
 10
919.0817192682303
 20
883.8627932950704
 30
0.0
 40
2.0
100
AcDbArc
 50
0.0
 51
90.0
  0
ARC
  5
11E6
330
2
100
AcDbEntity
  8
0
100
AcDbCircle
 10
905.7532921434853
 20
885.8627932950703
 30
0.0
 40
2.0
100
AcDbArc
 50
45.00000000000949
 51
90.0
  0
ARC
  5
11E7
330
2
100
AcDbEntity
  8
0
100
AcDbCircle
 10
909.4101463929769
 20
887.8627932950703
 30
0.0
 40
2.0
100
AcDbArc
 50
225.0000000000094
 51
270.0
  0
ARC
  5
11E8
330
2
100
AcDbEntity
  8
0
100
AcDbCircle
 10
801.4101463929769
 20
885.8627932950648
 30
0.0
 40
2.0
100
AcDbArc
 50
90.0
 51
134.9999999999905
  0
ARC
  5
11E9
330
2
100
AcDbEntity
  8
0
100
AcDbCircle
 10
797.7532921434836
 20
887.8627932950648
 30
0.0
 40
2.0
100
AcDbArc
 50
270.0
 51
314.9999999999905
  0
ARC
  5
11EA
330
2
100
AcDbEntity
  8
0
100
AcDbCircle
 10
811.281719268231
 20
894.0627932950656
 30
0.0
 40
0.2
100
AcDbArc
 50
180.0
 51
270.0
  0
ARC
  5
11EB
330
2
100
AcDbEntity
  8
0
100
AcDbCircle
 10
811.5817192682301
 20
893.662793295066
 30
0.0
 40
0.2
100
AcDbArc
 50
0.0
 51
90.0
  0
ARC
  5
11EC
330
2
100
AcDbEntity
  8
0
100
AcDbCircle
 10
811.5817192682301
 20
892.0627932950656
 30
0.0
 40
0.2
100
AcDbArc
 50
270.0
 51
0.0
  0
ARC
  5
11ED
330
2
100
AcDbEntity
  8
0
100
AcDbCircle
 10
895.8817192682314
 20
894.0627932950691
 30
0.0
 40
0.2
100
AcDbArc
 50
270.0
 51
0.0
  0
ARC
  5
11EE
330
2
100
AcDbEntity
  8
0
100
AcDbCircle
 10
895.5817192682301
 20
893.6627932950695
 30
0.0
 40
0.2
100
AcDbArc
 50
90.0
 51
180.0
  0
ARC
  5
11EF
330
2
100
AcDbEntity
  8
0
100
AcDbCircle
 10
895.5817192682301
 20
892.0627932950692
 30
0.0
 40
0.2
100
AcDbArc
 50
180.0
 51
270.0
  0
LINE
  5
11F0
330
2
100
AcDbEntity
  8
0
100
AcDbLine
 10
811.0817192682302
 20
895.3627932950649
 30
0.0
 11
896.0817192682302
 21
895.3627932950684
 31
0.0
  0
LINE
  5
11F1
330
2
100
AcDbEntity
  8
0
100
AcDbLine
 10
956.1327201763347
 20
878.4151471916857
 30
0.0
 11
956.1998986490458
 21
875.8497048209202
 31
0.0
  0
LINE
  5
11F2
330
2
100
AcDbEntity
  8
0
100
AcDbLine
 10
956.6997273115344
 20
875.362793295074
 30
0.0
 11
971.5031393797275
 21
875.362793295074
 31
0.0
  0
ARC
  5
11F3
330
2
100
AcDbEntity
  8
0
100
AcDbCircle
 10
956.6997273115344
 20
875.8627932950739
 30
0.0
 40
0.5
100
AcDbArc
 50
181.4999999999897
 51
270.0
  0
ARC
  5
11F4
330
2
100
AcDbEntity
  8
0
100
AcDbCircle
 10
954.1334055263837
 20
878.3627932950704
 30
0.0
 40
2.0
100
AcDbArc
 50
1.499999999989693
 51
90.0
  0
LINE
  5
11F5
330
2
100
AcDbEntity
  8
0
100
AcDbLine
 10
804.5860446244665
 20
875.8584300273259
 30
0.0
 11
804.6560499550965
 21
883.8802463660677
 31
0.0
  0
LINE
  5
11F6
330
2
100
AcDbEntity
  8
0
100
AcDbLine
 10
804.0860636629318
 20
875.362793295074
 30
0.0
 11
787.1602991567328
 21
875.362793295074
 31
0.0
  0
ARC
  5
11F7
330
2
100
AcDbEntity
  8
0
100
AcDbCircle
 10
804.0860636629318
 20
875.8627932950739
 30
0.0
 40
0.5
100
AcDbArc
 50
270.0
 51
359.5000000000345
  0
ARC
  5
11F8
330
2
100
AcDbEntity
  8
0
100
AcDbCircle
 10
787.1602991567328
 20
874.362793295074
 30
0.0
 40
1.0
100
AcDbArc
 50
90.0
 51
179.5000000000344
  0
ARC
  5
11F9
330
2
100
AcDbEntity
  8
0
100
AcDbCircle
 10
806.655973801226
 20
883.8627932950704
 30
0.0
 40
2.0
100
AcDbArc
 50
90.0
 51
179.5000000000344
  0
LINE
  5
11FA
330
2
100
AcDbEntity
  8
0
100
AcDbLine
 10
921.0817192682302
 20
865.3627932950648
 30
0.0
 11
921.0817192682302
 21
883.8627932950704
 31
0.0
  0
LINE
  5
11FB
330
2
100
AcDbEntity
  8
0
100
AcDbLine
 10
796.0817192682302
 20
874.3715198305718
 30
0.0
 11
796.0817192682302
 21
865.3627932950648
 31
0.0
  0
LINE
  5
11FC
330
2
100
AcDbEntity
  8
0
100
AcDbLine
 10
800.0817192682301
 20
874.3715198305718
 30
0.0
 11
800.0817192682301
 21
865.3627932950648
 31
0.0
  0
LINE
  5
11FD
330
2
100
AcDbEntity
  8
0
100
AcDbLine
 10
825.9135241043063
 20
883.8802463660677
 30
0.0
 11
825.9135241043063
 21
865.3627932950648
 31
0.0
  0
LINE
  5
11FE
330
2
100
AcDbEntity
  8
0
100
AcDbLine
 10
911.0817192682302
 20
883.8627932950704
 30
0.0
 11
911.0817192682302
 21
865.3627932950648
 31
0.0
  0
LINE
  5
11FF
330
2
100
AcDbEntity
  8
0
100
AcDbLine
 10
907.0817192682302
 20
883.8627932950704
 30
0.0
 11
907.0817192682302
 21
865.3627932950648
 31
0.0
  0
LINE
  5
1200
330
2
100
AcDbEntity
  8
0
100
AcDbLine
 10
881.2499144321542
 20
883.8802463660677
 30
0.0
 11
881.2499144321542
 21
865.3627932950648
 31
0.0
  0
LINE
  5
1201
330
2
100
AcDbEntity
  8
0
100
AcDbLine
 10
958.9477446720161
 20
885.362793295074
 30
0.0
 11
970.2156938644462
 21
885.362793295074
 31
0.0
  0
LINE
  5
1202
330
2
100
AcDbEntity
  8
0
100
AcDbLine
 10
958.0817192682301
 20
875.362793295074
 30
0.0
 11
971.0817192682302
 21
875.362793295074
 31
0.0
  0
LINE
  5
1203
330
2
100
AcDbEntity
  8
0
100
AcDbLine
 10
958.0817192682301
 20
877.362793295074
 30
0.0
 11
971.0817192682302
 21
877.362793295074
 31
0.0
  0
LINE
  5
1204
330
2
100
AcDbEntity
  8
0
100
AcDbLine
 10
971.0817192682302
 20
884.8627932950739
 30
0.0
 11
970.2156938644462
 21
885.362793295074
 31
0.0
  0
LINE
  5
1205
330
2
100
AcDbEntity
  8
0
100
AcDbLine
 10
971.0817192682302
 20
875.362793295074
 30
0.0
 11
971.0817192682302
 21
877.362793295074
 31
0.0
  0
LINE
  5
1206
330
2
100
AcDbEntity
  8
0
100
AcDbLine
 10
971.0817192682302
 20
877.362793295074
 30
0.0
 11
971.0817192682302
 21
884.8627932950739
 31
0.0
  0
LINE
  5
1207
330
2
100
AcDbEntity
  8
CENTER
  6
CENS
100
AcDbLine
 10
964.5817192682303
 20
857.1658010209766
 30
0.0
 11
964.5817192682303
 21
891.362793295074
 31
0.0
  0
LINE
  5
1208
330
2
100
AcDbEntity
  8
0
100
AcDbLine
 10
958.0817192682301
 20
884.8627932950739
 30
0.0
 11
958.9477446720144
 21
885.362793295074
 31
0.0
  0
LINE
  5
1209
330
2
100
AcDbEntity
  8
0
100
AcDbLine
 10
958.0817192682301
 20
875.362793295074
 30
0.0
 11
958.0817192682301
 21
877.362793295074
 31
0.0
  0
LINE
  5
120A
330
2
100
AcDbEntity
  8
0
100
AcDbLine
 10
958.0817192682301
 20
877.362793295074
 30
0.0
 11
958.0817192682301
 21
884.8627932950739
 31
0.0
  0
LINE
  5
120B
330
2
100
AcDbEntity
  8
0
100
AcDbLine
 10
958.0817192682301
 20
884.8627932950739
 30
0.0
 11
971.0817192682302
 21
884.8627932950739
 31
0.0
  0
LINE
  5
120C
330
2
100
AcDbEntity
  8
0
100
AcDbLine
 10
790.4477446720143
 20
885.362793295074
 30
0.0
 11
801.7156938644443
 21
885.362793295074
 31
0.0
  0
LINE
  5
120D
330
2
100
AcDbEntity
  8
0
100
AcDbLine
 10
789.5817192682284
 20
875.362793295074
 30
0.0
 11
802.5817192682284
 21
875.362793295074
 31
0.0
  0
LINE
  5
120E
330
2
100
AcDbEntity
  8
0
100
AcDbLine
 10
789.5817192682284
 20
877.362793295074
 30
0.0
 11
802.5817192682284
 21
877.362793295074
 31
0.0
  0
LINE
  5
120F
330
2
100
AcDbEntity
  8
0
100
AcDbLine
 10
802.5817192682284
 20
884.8627932950739
 30
0.0
 11
801.7156938644443
 21
885.362793295074
 31
0.0
  0
LINE
  5
1210
330
2
100
AcDbEntity
  8
0
100
AcDbLine
 10
802.5817192682284
 20
875.362793295074
 30
0.0
 11
802.5817192682284
 21
877.362793295074
 31
0.0
  0
LINE
  5
1211
330
2
100
AcDbEntity
  8
0
100
AcDbLine
 10
802.5817192682284
 20
877.362793295074
 30
0.0
 11
802.5817192682284
 21
884.8627932950739
 31
0.0
  0
LINE
  5
1212
330
2
100
AcDbEntity
  8
0
100
AcDbLine
 10
789.5817192682284
 20
884.8627932950739
 30
0.0
 11
790.4477446720143
 21
885.362793295074
 31
0.0
  0
LINE
  5
1213
330
2
100
AcDbEntity
  8
0
100
AcDbLine
 10
789.5817192682284
 20
875.362793295074
 30
0.0
 11
789.5817192682284
 21
877.362793295074
 31
0.0
  0
LINE
  5
1214
330
2
100
AcDbEntity
  8
0
100
AcDbLine
 10
789.5817192682284
 20
877.362793295074
 30
0.0
 11
789.5817192682284
 21
884.8627932950739
 31
0.0
  0
LINE
  5
1215
330
2
100
AcDbEntity
  8
0
100
AcDbLine
 10
789.5817192682284
 20
884.8627932950739
 30
0.0
 11
802.5817192682284
 21
884.8627932950739
 31
0.0
  0
LINE
  5
1216
330
2
100
AcDbEntity
  8
CENTER
  6
CENS
100
AcDbLine
 10
796.0817192682302
 20
857.1658010209766
 30
0.0
 11
796.0817192682302
 21
891.362793295074
 31
0.0
  0
ARC
  5
121D
330
2
100
AcDbEntity
  8
0
100
AcDbCircle
 10
853.5817192682321
 20
494.2859053195288
 30
0.0
 40
16.0
100
AcDbArc
 50
108.2099568642705
 51
71.79004313572945
  0
LINE
  5
121E
330
2
100
AcDbEntity
  8
0
100
AcDbLine
 10
848.581719268232
 20
513.5859083195291
 30
0.0
 11
848.581719268232
 21
509.4845894730997
 31
0.0
  0
LINE
  5
121F
330
2
100
AcDbEntity
  8
0
100
AcDbLine
 10
858.581719268232
 20
513.5859083195291
 30
0.0
 11
858.581719268232
 21
509.4845894730997
 31
0.0
  0
LINE
  5
1220
330
2
100
AcDbEntity
  8
0
100
AcDbLine
 10
848.581719268232
 20
513.5859083195291
 30
0.0
 11
858.581719268232
 21
513.5859083195291
 31
0.0
  0
CIRCLE
  5
1221
330
2
100
AcDbEntity
  8
0
100
AcDbCircle
 10
853.5817192682321
 20
494.2859053195288
 30
0.0
 40
24.49999999582681
  0
ARC
  5
1222
330
2
100
AcDbEntity
  8
0
100
AcDbCircle
 10
853.5817192682321
 20
494.2859053195288
 30
0.0
 40
17.15469399582682
100
AcDbArc
 50
106.9457086469723
 51
73.05429135302766
  0
LINE
  5
1223
330
2
100
AcDbEntity
  8
CENTER
100
AcDbLine
 10
605.4370050746042
 20
85.07982175058344
 30
0.0
 11
605.4370050746042
 21
249.4514872696499
 31
0.0
  0
LINE
  5
1224
330
2
100
AcDbEntity
  8
0
100
AcDbLine
 10
677.4370017457936
 20
125.6970320596441
 30
0.0
 11
677.4370017457936
 21
142.7656545100302
 31
0.0
  0
LINE
  5
1225
330
2
100
AcDbEntity
  8
0
100
AcDbLine
 10
677.4370017457936
 20
191.7656545100302
 30
0.0
 11
677.4370017457936
 21
208.8342769604163
 31
0.0
  0
LINE
  5
1226
330
2
100
AcDbEntity
  8
0
100
AcDbLine
 10
663.4370017457936
 20
107.2656545101157
 30
0.0
 11
663.4370017457936
 21
144.1480759365726
 31
0.0
  0
LINE
  5
1227
330
2
100
AcDbEntity
  8
0
100
AcDbLine
 10
663.4370017457936
 20
190.3832330834879
 30
0.0
 11
663.4370017457936
 21
227.2656545101176
 31
0.0
  0
LINE
  5
1228
330
2
100
AcDbEntity
  8
CENTER
100
AcDbLine
 10
521.437001745794
 20
167.2656545100302
 30
0.0
 11
705.4370017457936
 21
167.2656545100302
 31
0.0
  0
LINE
  5
1229
330
2
100
AcDbEntity
  8
0
100
AcDbLine
 10
569.4370050746037
 20
99.76565451011579
 30
0.0
 11
658.4370017457936
 21
100.5423457144438
 31
0.0
  0
LINE
  5
122A
330
2
100
AcDbEntity
  8
0
100
AcDbLine
 10
658.4370017457936
 20
107.2656545101157
 30
0.0
 11
663.4370017457936
 21
107.2656545101157
 31
0.0
  0
LINE
  5
122B
330
2
100
AcDbEntity
  8
0
100
AcDbLine
 10
658.4370017457954
 20
233.9889633057895
 30
0.0
 11
569.4370050746037
 21
234.7656545101175
 31
0.0
  0
LINE
  5
122C
330
2
100
AcDbEntity
  8
0
100
AcDbLine
 10
658.4370017457936
 20
227.2656545101176
 30
0.0
 11
663.4370017457936
 21
227.2656545101176
 31
0.0
  0
LINE
  5
122D
330
2
100
AcDbEntity
  8
0
100
AcDbLine
 10
658.4370017457954
 20
233.9889633057895
 30
0.0
 11
658.4370017457954
 21
188.2175588480053
 31
0.0
  0
LINE
  5
122E
330
2
100
AcDbEntity
  8
0
100
AcDbLine
 10
658.4370017457954
 20
146.3137501720552
 30
0.0
 11
658.4370017457936
 21
100.5423457144438
 31
0.0
  0
LINE
  5
122F
330
2
100
AcDbEntity
  8
0
100
AcDbLine
 10
675.5068007391987
 20
123.6982504056063
 30
0.0
 11
665.3672027523884
 21
123.3441678415687
 31
0.0
  0
LINE
  5
1230
330
2
100
AcDbEntity
  8
0
100
AcDbLine
 10
675.5068007391987
 20
210.8330586144542
 30
0.0
 11
665.3672027523884
 21
211.1871411784899
 31
0.0
  0
ARC
  5
1231
330
2
100
AcDbEntity
  8
0
100
AcDbCircle
 10
665.4370017457936
 20
213.1859228325296
 30
0.0
 40
2.0
100
AcDbArc
 50
180.0
 51
267.9999999999963
  0
ARC
  5
1232
330
2
100
AcDbEntity
  8
0
100
AcDbCircle
 10
665.4370017457936
 20
121.3453861875309
 30
0.0
 40
2.0
100
AcDbArc
 50
92.00000000000365
 51
180.0
  0
ARC
  5
1233
330
2
100
AcDbEntity
  8
0
100
AcDbCircle
 10
675.4370017457936
 20
125.6970320596441
 30
0.0
 40
2.0
100
AcDbArc
 50
272.0000000000036
 51
0.0
  0
ARC
  5
1234
330
2
100
AcDbEntity
  8
0
100
AcDbCircle
 10
675.4370017457936
 20
208.8342769604163
 30
0.0
 40
2.0
100
AcDbArc
 50
0.0
 51
87.99999999999636
  0
LINE
  5
1235
330
2
100
AcDbEntity
  8
0
100
AcDbLine
 10
658.4370017457936
 20
224.7656545102922
 30
0.0
 11
569.4370050746037
 21
224.7656545102922
 31
0.0
  0
LINE
  5
1236
330
2
100
AcDbEntity
  8
0
100
AcDbLine
 10
658.4370017457936
 20
220.7656545102922
 30
0.0
 11
569.4370050746037
 21
220.7656545102922
 31
0.0
  0
LINE
  5
1237
330
2
100
AcDbEntity
  8
0
100
AcDbLine
 10
658.4370017457936
 20
194.9338496741979
 30
0.0
 11
569.4370050746037
 21
194.9338496741979
 31
0.0
  0
LINE
  5
1238
330
2
100
AcDbEntity
  8
0
100
AcDbLine
 10
658.4370017457936
 20
109.7656545097683
 30
0.0
 11
569.4370050746037
 21
109.7656545097683
 31
0.0
  0
LINE
  5
1239
330
2
100
AcDbEntity
  8
0
100
AcDbLine
 10
658.4370017457936
 20
113.7656545097683
 30
0.0
 11
569.4370050746037
 21
113.7656545097683
 31
0.0
  0
LINE
  5
123A
330
2
100
AcDbEntity
  8
0
100
AcDbLine
 10
658.4370017457936
 20
139.5974593458608
 30
0.0
 11
569.4370050746037
 21
139.5974593458608
 31
0.0
  0
ARC
  5
123B
330
2
100
AcDbEntity
  8
0
100
AcDbCircle
 10
550.9370050746038
 20
232.6041312991287
 30
0.0
 40
2.0
100
AcDbArc
 50
90.49999999999155
 51
180.0
  0
LINE
  5
123C
330
2
100
AcDbEntity
  8
0
100
AcDbLine
 10
548.3512186369771
 20
221.6798680724036
 30
0.0
 11
547.5227915122304
 21
220.8514409476569
 31
0.0
  0
LINE
  5
123D
330
2
100
AcDbEntity
  8
0
100
AcDbLine
 10
538.4370050746038
 20
209.1883042408403
 30
0.0
 11
538.4370050746038
 21
191.7656545100302
 31
0.0
  0
LINE
  5
123E
330
2
100
AcDbEntity
  8
0
100
AcDbLine
 10
538.4370050746038
 20
142.7656545100302
 30
0.0
 11
538.4370050746047
 21
125.3430047792184
 31
0.0
  0
LINE
  5
123F
330
2
100
AcDbEntity
  8
0
100
AcDbLine
 10
549.4370050746038
 20
203.6609108237529
 30
0.0
 11
549.4370050746038
 21
191.7656545100302
 31
0.0
  0
LINE
  5
1240
330
2
100
AcDbEntity
  8
0
100
AcDbLine
 10
549.4370050746038
 20
142.7656545100302
 30
0.0
 11
549.4370050746038
 21
130.8703981963075
 31
0.0
  0
LINE
  5
1241
330
2
100
AcDbEntity
  8
0
100
AcDbLine
 10
539.4370050746037
 20
203.2656545100302
 30
0.0
 11
539.4370050746037
 21
191.7656545100302
 31
0.0
  0
LINE
  5
1242
330
2
100
AcDbEntity
  8
0
100
AcDbLine
 10
539.4370050746037
 20
142.7656545100302
 30
0.0
 11
539.4370050746037
 21
131.2656545100302
 31
0.0
  0
LINE
  5
1243
330
2
100
AcDbEntity
  8
0
100
AcDbLine
 10
546.9370050746038
 20
212.2656545100302
 30
0.0
 11
546.4370050746038
 21
211.7656545100302
 31
0.0
  0
LINE
  5
1244
330
2
100
AcDbEntity
  8
0
100
AcDbLine
 10
549.4370050746038
 20
203.2656545100302
 30
0.0
 11
539.4370050746037
 21
203.2656545100302
 31
0.0
  0
LINE
  5
1245
330
2
100
AcDbEntity
  8
0
100
AcDbLine
 10
542.9370050746038
 20
209.5656545100295
 30
0.0
 11
543.1370050746036
 21
209.7656545100302
 31
0.0
  0
LINE
  5
1246
330
2
100
AcDbEntity
  8
0
100
AcDbLine
 10
541.1370050746036
 20
209.0656545100295
 30
0.0
 11
542.737005074604
 21
209.0656545100295
 31
0.0
  0
LINE
  5
1247
330
2
100
AcDbEntity
  8
0
100
AcDbLine
 10
539.4370050746037
 20
209.7656545100302
 30
0.0
 11
538.4370050746038
 21
209.1883042408403
 31
0.0
  0
LINE
  5
1248
330
2
100
AcDbEntity
  8
0
100
AcDbLine
 10
539.4370050746037
 20
209.7656545100302
 30
0.0
 11
540.7370050746039
 21
209.7656545100302
 31
0.0
  0
LINE
  5
1249
330
2
100
AcDbEntity
  8
0
100
AcDbLine
 10
543.1370050746036
 20
209.7656545100302
 30
0.0
 11
546.4370050746038
 21
209.7656545100302
 31
0.0
  0
LINE
  5
124A
330
2
100
AcDbEntity
  8
0
100
AcDbLine
 10
539.4370050746056
 20
203.2656545100302
 30
0.0
 11
538.4370050746055
 21
203.8430047792203
 31
0.0
  0
LINE
  5
124B
330
2
100
AcDbEntity
  8
0
100
AcDbLine
 10
546.9370050745992
 20
115.0940816347769
 30
0.0
 11
546.937005074601
 21
128.928002224858
 31
0.0
  0
LINE
  5
124C
330
2
100
AcDbEntity
  8
0
100
AcDbLine
 10
546.9370050746102
 20
205.6033067952006
 30
0.0
 11
546.9370050746119
 21
219.4372273852836
 31
0.0
  0
LINE
  5
124D
330
2
100
AcDbEntity
  8
0
100
AcDbLine
 10
546.9370050746001
 20
122.2656545100302
 30
0.0
 11
546.4370050746001
 21
122.7656545100302
 31
0.0
  0
LINE
  5
124E
330
2
100
AcDbEntity
  8
0
100
AcDbLine
 10
549.4370050746038
 20
131.2656545100302
 30
0.0
 11
539.4370050746037
 21
131.2656545100302
 31
0.0
  0
LINE
  5
124F
330
2
100
AcDbEntity
  8
0
100
AcDbLine
 10
551.2702360531047
 20
130.8223933536859
 30
0.0
 11
549.4370050746038
 21
130.8703981963075
 31
0.0
  0
LINE
  5
1250
330
2
100
AcDbEntity
  8
0
100
AcDbLine
 10
539.4370050746037
 20
131.2656545100302
 30
0.0
 11
538.4370050746038
 21
130.6883042408403
 31
0.0
  0
LINE
  5
1251
330
2
100
AcDbEntity
  8
0
100
AcDbLine
 10
542.9370050746001
 20
124.9656545100291
 30
0.0
 11
542.9370050746001
 21
128.7002944524369
 31
0.0
  0
LINE
  5
1252
330
2
100
AcDbEntity
  8
0
100
AcDbLine
 10
542.9370050746001
 20
205.8310145676236
 30
0.0
 11
542.9370050746001
 21
209.5656545100259
 31
0.0
  0
LINE
  5
1253
330
2
100
AcDbEntity
  8
0
100
AcDbLine
 10
542.9370050746001
 20
124.9656545100291
 30
0.0
 11
543.1370050745999
 21
124.7656545100302
 31
0.0
  0
LINE
  5
1254
330
2
100
AcDbEntity
  8
0
100
AcDbLine
 10
540.9370050746002
 20
124.9656545100291
 30
0.0
 11
540.9370050745974
 21
128.4853896715916
 31
0.0
  0
LINE
  5
1255
330
2
100
AcDbEntity
  8
0
100
AcDbLine
 10
540.9370050745383
 20
206.0459193484761
 30
0.0
 11
540.9370050745356
 21
209.5656545100295
 31
0.0
  0
LINE
  5
1256
330
2
100
AcDbEntity
  8
0
100
AcDbLine
 10
539.4370050746001
 20
124.7656545100302
 30
0.0
 11
540.7370050745994
 21
124.7656545100302
 31
0.0
  0
LINE
  5
1257
330
2
100
AcDbEntity
  8
0
100
AcDbLine
 10
541.1370050746
 20
125.4656545100292
 30
0.0
 11
542.7370050745994
 21
125.4656545100292
 31
0.0
  0
LINE
  5
1258
330
2
100
AcDbEntity
  8
0
100
AcDbLine
 10
539.4370050746001
 20
124.7656545100302
 30
0.0
 11
538.4370050746001
 21
125.3430047792202
 31
0.0
  0
LINE
  5
1259
330
2
100
AcDbEntity
  8
0
100
AcDbLine
 10
546.4370050746001
 20
122.7656545100302
 30
0.0
 11
546.4370050746001
 21
128.8877616744461
 31
0.0
  0
LINE
  5
125A
330
2
100
AcDbEntity
  8
0
100
AcDbLine
 10
546.4370050746001
 20
205.6435473456144
 30
0.0
 11
546.4370050746001
 21
211.7656545100266
 31
0.0
  0
LINE
  5
125B
330
2
100
AcDbEntity
  8
0
100
AcDbLine
 10
543.1370050745999
 20
124.7656545100302
 30
0.0
 11
546.4370050746001
 21
124.7656545100302
 31
0.0
  0
LINE
  5
125C
330
2
100
AcDbEntity
  8
0
100
AcDbLine
 10
548.9370050745992
 20
101.92717772093
 30
0.0
 11
548.9370050746002
 21
129.2694871160651
 31
0.0
  0
LINE
  5
125D
330
2
100
AcDbEntity
  8
0
100
AcDbLine
 10
548.9370050746002
 20
205.2618219039954
 30
0.0
 11
548.9370050745992
 21
232.6041312991287
 31
0.0
  0
LINE
  5
125E
330
2
100
AcDbEntity
  8
0
100
AcDbLine
 10
548.3512186369726
 20
112.8514409476569
 30
0.0
 11
547.5227915122259
 21
113.6798680724036
 31
0.0
  0
LINE
  5
125F
330
2
100
AcDbEntity
  8
0
100
AcDbLine
 10
550.9195520036073
 20
234.6040551452583
 30
0.0
 11
569.4370050746037
 21
234.7656545100302
 31
0.0
  0
LINE
  5
1260
330
2
100
AcDbEntity
  8
0
100
AcDbLine
 10
551.2702360531047
 20
203.7089156663745
 30
0.0
 11
549.4370050746038
 21
203.6609108237529
 31
0.0
  0
ARC
  5
1261
330
2
100
AcDbEntity
  8
0
100
AcDbCircle
 10
548.9370050745992
 20
115.0940816347769
 30
0.0
 40
2.0
100
AcDbArc
 50
180.0
 51
225.0000000000094
  0
ARC
  5
1262
330
2
100
AcDbEntity
  8
0
100
AcDbCircle
 10
546.9370050745992
 20
111.4372273852836
 30
0.0
 40
2.0
100
AcDbArc
 50
0.0
 51
45.00000000000949
  0
ARC
  5
1263
330
2
100
AcDbEntity
  8
0
100
AcDbCircle
 10
548.9370050746038
 20
219.4372273852836
 30
0.0
 40
2.0
100
AcDbArc
 50
134.9999999999905
 51
180.0
  0
ARC
  5
1264
330
2
100
AcDbEntity
  8
0
100
AcDbCircle
 10
546.9370050746038
 20
223.0940816347769
 30
0.0
 40
2.0
100
AcDbArc
 50
314.9999999999905
 51
0.0
  0
ARC
  5
1265
330
2
100
AcDbEntity
  8
0
100
AcDbCircle
 10
540.7370050746039
 20
209.5656545100295
 30
0.0
 40
0.2
100
AcDbArc
 50
0.0
 51
90.0
  0
ARC
  5
1266
330
2
100
AcDbEntity
  8
0
100
AcDbCircle
 10
541.1370050746036
 20
209.2656545100302
 30
0.0
 40
0.2
100
AcDbArc
 50
180.0
 51
270.0
  0
ARC
  5
1267
330
2
100
AcDbEntity
  8
0
100
AcDbCircle
 10
542.737005074604
 20
209.2656545100302
 30
0.0
 40
0.2
100
AcDbArc
 50
270.0
 51
0.0
  0
ARC
  5
1268
330
2
100
AcDbEntity
  8
0
100
AcDbCircle
 10
540.7370050745994
 20
124.9656545100291
 30
0.0
 40
0.2
100
AcDbArc
 50
270.0
 51
0.0
  0
ARC
  5
1269
330
2
100
AcDbEntity
  8
0
100
AcDbCircle
 10
541.1370050746
 20
125.2656545100302
 30
0.0
 40
0.2
100
AcDbArc
 50
90.0
 51
180.0
  0
ARC
  5
126A
330
2
100
AcDbEntity
  8
0
100
AcDbCircle
 10
542.7370050745994
 20
125.2656545100302
 30
0.0
 40
0.2
100
AcDbArc
 50
0.0
 51
90.0
  0
LINE
  5
126B
330
2
100
AcDbEntity
  8
0
100
AcDbLine
 10
539.4370050746037
 20
209.7656545100302
 30
0.0
 11
539.4370050746037
 21
206.2672213189848
 31
0.0
  0
LINE
  5
126C
330
2
100
AcDbEntity
  8
0
100
AcDbLine
 10
539.4370050746001
 20
128.2640877010757
 30
0.0
 11
539.4370050746001
 21
124.7656545100302
 31
0.0
  0
LINE
  5
126D
330
2
100
AcDbEntity
  8
0
100
AcDbLine
 10
558.9413683423436
 20
216.261329153794
 30
0.0
 11
550.9195520036018
 21
216.191323823164
 31
0.0
  0
LINE
  5
126E
330
2
100
AcDbEntity
  8
0
100
AcDbLine
 10
559.4370050745947
 20
216.7613101153287
 30
0.0
 11
559.4370050745947
 21
233.6870746215276
 31
0.0
  0
ARC
  5
126F
330
2
100
AcDbEntity
  8
0
100
AcDbCircle
 10
558.9370050745947
 20
216.7613101153287
 30
0.0
 40
0.5
100
AcDbArc
 50
270.5000000000175
 51
0.0
  0
ARC
  5
1270
330
2
100
AcDbEntity
  8
0
100
AcDbCircle
 10
560.4370050745947
 20
233.6870746215276
 30
0.0
 40
1.0
100
AcDbArc
 50
90.50000000001761
 51
180.0
  0
ARC
  5
1271
330
2
100
AcDbEntity
  8
0
100
AcDbCircle
 10
550.9370050745992
 20
214.1913999770344
 30
0.0
 40
2.0
100
AcDbArc
 50
90.49999999999155
 51
180.0
  0
LINE
  5
1272
330
2
100
AcDbEntity
  8
0
100
AcDbLine
 10
560.4282785390969
 20
224.7656545100302
 30
0.0
 11
569.4370050746037
 21
224.7656545100302
 31
0.0
  0
LINE
  5
1273
330
2
100
AcDbEntity
  8
0
100
AcDbLine
 10
560.4282785390969
 20
220.7656545100302
 30
0.0
 11
569.4370050746037
 21
220.7656545100302
 31
0.0
  0
LINE
  5
1274
330
2
100
AcDbEntity
  8
0
100
AcDbLine
 10
552.3171995368776
 20
194.9338496741979
 30
0.0
 11
569.4370050746037
 21
194.9338496741979
 31
0.0
  0
LINE
  5
1275
330
2
100
AcDbEntity
  8
0
100
AcDbLine
 10
560.4282785390969
 20
109.7656545100302
 30
0.0
 11
569.4370050746037
 21
109.7656545100302
 31
0.0
  0
LINE
  5
1276
330
2
100
AcDbEntity
  8
0
100
AcDbLine
 10
560.4282785390969
 20
113.7656545100302
 30
0.0
 11
569.4370050746037
 21
113.7656545100302
 31
0.0
  0
LINE
  5
1277
330
2
100
AcDbEntity
  8
0
100
AcDbLine
 10
552.3171995368777
 20
139.5974593458608
 30
0.0
 11
569.4370050746037
 21
139.5974593458608
 31
0.0
  0
ARC
  5
1278
330
2
100
AcDbEntity
  8
0
100
AcDbCircle
 10
550.9370050746038
 20
101.92717772093
 30
0.0
 40
2.0
100
AcDbArc
 50
180.0
 51
269.5000000000084
  0
LINE
  5
1279
330
2
100
AcDbEntity
  8
0
100
AcDbLine
 10
550.9195520036073
 20
99.92725387480227
 30
0.0
 11
569.4370050746037
 21
99.76565451003029
 31
0.0
  0
ARC
  5
127A
330
2
100
AcDbEntity
  8
0
100
AcDbCircle
 10
560.4370050745947
 20
100.8442343985329
 30
0.0
 40
1.0
100
AcDbArc
 50
180.0
 51
269.4999999999824
  0
LINE
  5
127B
330
2
100
AcDbEntity
  8
0
100
AcDbLine
 10
558.9413683423436
 20
118.2699798662665
 30
0.0
 11
550.9195520036018
 21
118.3399851968965
 31
0.0
  0
LINE
  5
127C
330
2
100
AcDbEntity
  8
0
100
AcDbLine
 10
559.4370050745947
 20
117.7699989047318
 30
0.0
 11
559.4370050745947
 21
100.8442343985329
 31
0.0
  0
ARC
  5
127D
330
2
100
AcDbEntity
  8
0
100
AcDbCircle
 10
558.9370050745947
 20
117.7699989047318
 30
0.0
 40
0.5
100
AcDbArc
 50
0.0
 51
89.49999999998238
  0
ARC
  5
127E
330
2
100
AcDbEntity
  8
0
100
AcDbCircle
 10
550.9370050745992
 20
120.3399090430243
 30
0.0
 40
2.0
100
AcDbArc
 50
180.0
 51
269.5000000000084
  0
LINE
  5
127F
330
2
100
AcDbEntity
  8
0
100
AcDbLine
 10
569.4370050746037
 20
234.7656545100302
 30
0.0
 11
569.4370050746037
 21
189.2828528927288
 31
0.0
  0
LINE
  5
1280
330
2
100
AcDbEntity
  8
0
100
AcDbLine
 10
569.4370050746037
 20
145.2484561273317
 30
0.0
 11
569.4370050746037
 21
99.76565451003029
 31
0.0
  0
LINE
  5
1281
330
2
100
AcDbEntity
  8
0
100
AcDbLine
 10
549.4370050745946
 20
230.3996291062462
 30
0.0
 11
549.4370050745946
 21
219.1316799138161
 31
0.0
  0
LINE
  5
1282
330
2
100
AcDbEntity
  8
0
100
AcDbLine
 10
559.4370050745947
 20
231.265654510032
 30
0.0
 11
559.4370050745947
 21
218.2656545100321
 31
0.0
  0
LINE
  5
1283
330
2
100
AcDbEntity
  8
0
100
AcDbLine
 10
557.4370050745947
 20
231.265654510032
 30
0.0
 11
557.4370050745955
 21
218.2656545100321
 31
0.0
  0
LINE
  5
1284
330
2
100
AcDbEntity
  8
0
100
AcDbLine
 10
549.9370050745946
 20
218.2656545100321
 30
0.0
 11
549.4370050745946
 21
219.1316799138161
 31
0.0
  0
LINE
  5
1285
330
2
100
AcDbEntity
  8
0
100
AcDbLine
 10
559.4370050745947
 20
218.2656545100321
 30
0.0
 11
557.4370050745947
 21
218.2656545100321
 31
0.0
  0
LINE
  5
1286
330
2
100
AcDbEntity
  8
0
100
AcDbLine
 10
557.4370050745947
 20
218.2656545100321
 30
0.0
 11
549.9370050745946
 21
218.2656545100321
 31
0.0
  0
LINE
  5
1287
330
2
100
AcDbEntity
  8
CENTER
  6
CENS
100
AcDbLine
 10
579.0144995278024
 20
224.765654510032
 30
0.0
 11
543.4370050745947
 21
224.765654510032
 31
0.0
  0
LINE
  5
1288
330
2
100
AcDbEntity
  8
0
100
AcDbLine
 10
549.9370050745946
 20
231.265654510032
 30
0.0
 11
549.4370050745946
 21
230.3996291062462
 31
0.0
  0
LINE
  5
1289
330
2
100
AcDbEntity
  8
0
100
AcDbLine
 10
559.4370050745947
 20
231.265654510032
 30
0.0
 11
557.4370050745947
 21
231.265654510032
 31
0.0
  0
LINE
  5
128A
330
2
100
AcDbEntity
  8
0
100
AcDbLine
 10
557.4370050745947
 20
231.265654510032
 30
0.0
 11
549.9370050745946
 21
231.265654510032
 31
0.0
  0
LINE
  5
128B
330
2
100
AcDbEntity
  8
0
100
AcDbLine
 10
549.9370050745946
 20
231.265654510032
 30
0.0
 11
549.9370050745946
 21
218.2656545100321
 31
0.0
  0
LINE
  5
128C
330
2
100
AcDbEntity
  8
0
100
AcDbLine
 10
549.4370050745946
 20
104.1316799138143
 30
0.0
 11
549.4370050745946
 21
115.3996291062443
 31
0.0
  0
LINE
  5
128D
330
2
100
AcDbEntity
  8
0
100
AcDbLine
 10
557.4370050745947
 20
103.2656545100284
 30
0.0
 11
557.4370050745955
 21
116.2656545100284
 31
0.0
  0
LINE
  5
128E
330
2
100
AcDbEntity
  8
0
100
AcDbLine
 10
549.9370050745946
 20
116.2656545100284
 30
0.0
 11
549.4370050745946
 21
115.3996291062443
 31
0.0
  0
LINE
  5
128F
330
2
100
AcDbEntity
  8
0
100
AcDbLine
 10
559.4370050745947
 20
116.2656545100284
 30
0.0
 11
557.4370050745947
 21
116.2656545100284
 31
0.0
  0
LINE
  5
1290
330
2
100
AcDbEntity
  8
0
100
AcDbLine
 10
557.4370050745947
 20
116.2656545100284
 30
0.0
 11
549.9370050745946
 21
116.2656545100284
 31
0.0
  0
LINE
  5
1291
330
2
100
AcDbEntity
  8
CENTER
  6
CENS
100
AcDbLine
 10
579.0144995278024
 20
109.7656545100284
 30
0.0
 11
543.4370050745947
 21
109.7656545100284
 31
0.0
  0
LINE
  5
1292
330
2
100
AcDbEntity
  8
0
100
AcDbLine
 10
549.9370050745946
 20
103.2656545100284
 30
0.0
 11
549.4370050745946
 21
104.1316799138125
 31
0.0
  0
LINE
  5
1293
330
2
100
AcDbEntity
  8
0
100
AcDbLine
 10
559.4370050745947
 20
103.2656545100284
 30
0.0
 11
557.4370050745947
 21
103.2656545100284
 31
0.0
  0
LINE
  5
1294
330
2
100
AcDbEntity
  8
0
100
AcDbLine
 10
557.4370050745947
 20
103.2656545100284
 30
0.0
 11
549.9370050745946
 21
103.2656545100284
 31
0.0
  0
LINE
  5
1295
330
2
100
AcDbEntity
  8
0
100
AcDbLine
 10
549.9370050745946
 20
103.2656545100284
 30
0.0
 11
549.9370050745946
 21
116.2656545100284
 31
0.0
  0
LINE
  5
1296
330
2
100
AcDbEntity
  8
0
100
AcDbLine
 10
666.4370017457936
 20
131.0536996472923
 30
0.0
 11
664.8503544998971
 21
131.0121518269528
 31
0.0
  0
LINE
  5
1297
330
2
100
AcDbEntity
  8
0
100
AcDbLine
 10
676.4370017457935
 20
131.2656545100302
 30
0.0
 11
676.4370017457935
 21
142.7656545100302
 31
0.0
  0
LINE
  5
1298
330
2
100
AcDbEntity
  8
0
100
AcDbLine
 10
676.4370017457935
 20
191.7656545100302
 30
0.0
 11
676.4370017457935
 21
203.2656545100302
 31
0.0
  0
LINE
  5
1299
330
2
100
AcDbEntity
  8
0
100
AcDbLine
 10
666.4370017457936
 20
131.0536996472923
 30
0.0
 11
666.4370017457936
 21
142.7656545100302
 31
0.0
  0
LINE
  5
129A
330
2
100
AcDbEntity
  8
0
100
AcDbLine
 10
666.4370017457936
 20
191.7656545100302
 30
0.0
 11
666.4370017457936
 21
203.4776093727681
 31
0.0
  0
LINE
  5
129B
330
2
100
AcDbEntity
  8
0
100
AcDbLine
 10
676.4370017457935
 20
131.2656545100302
 30
0.0
 11
666.4370017457936
 21
131.2656545100302
 31
0.0
  0
LINE
  5
129C
330
2
100
AcDbEntity
  8
0
100
AcDbLine
 10
676.4370017457935
 20
131.2656545100302
 30
0.0
 11
677.4370017457936
 21
130.6883042408403
 31
0.0
  0
LINE
  5
129D
330
2
100
AcDbEntity
  8
0
100
AcDbLine
 10
676.4370017457935
 20
203.2656545100302
 30
0.0
 11
666.4370017457936
 21
203.2656545100302
 31
0.0
  0
LINE
  5
129E
330
2
100
AcDbEntity
  8
0
100
AcDbLine
 10
676.4370017457935
 20
203.2656545100302
 30
0.0
 11
677.4370017457936
 21
203.8430047792203
 31
0.0
  0
LINE
  5
129F
330
2
100
AcDbEntity
  8
0
100
AcDbLine
 10
666.4370017457936
 20
203.4776093727681
 30
0.0
 11
664.8503544998971
 21
203.5191571931076
 31
0.0
  0
LINE
  5
12A0
330
2
100
AcDbEntity
  8
0
100
AcDbLine
 10
647.4370017457935
 20
183.7656545100302
 30
0.0
 11
571.437001745794
 21
183.7656545100302
 31
0.0
  0
LINE
  5
12A1
330
2
100
AcDbEntity
  8
0
100
AcDbLine
 10
690.4370017457936
 20
186.5656575100305
 30
0.0
 11
536.437001745794
 21
186.5656575100305
 31
0.0
  0
LINE
  5
12A2
330
2
100
AcDbEntity
  8
0
100
AcDbLine
 10
690.4370017457936
 20
191.7656545100302
 30
0.0
 11
690.4370017457936
 21
142.7656545100302
 31
0.0
  0
LINE
  5
12A3
330
2
100
AcDbEntity
  8
0
100
AcDbLine
 10
690.4370017457936
 20
142.7656545100302
 30
0.0
 11
663.9791745034422
 21
142.7656545100302
 31
0.0
  0
LINE
  5
12A4
330
2
100
AcDbEntity
  8
0
100
AcDbLine
 10
686.4368387241106
 20
150.7657220255327
 30
0.0
 11
677.4368387235703
 21
150.765586992636
 31
0.0
  0
LINE
  5
12A5
330
2
100
AcDbEntity
  8
0
100
AcDbLine
 10
686.4369507679025
 20
183.7656545100302
 30
0.0
 11
677.4369507678947
 21
183.76565451003
 31
0.0
  0
LINE
  5
12A6
330
2
100
AcDbEntity
  8
0
100
AcDbLine
 10
688.4370688288422
 20
151.2656468435265
 30
0.0
 11
688.4369346627423
 21
183.2656545100302
 31
0.0
  0
LINE
  5
12A7
330
2
100
AcDbEntity
  8
CENTER
  6
CENS
100
AcDbLine
 10
681.9368947457937
 20
174.5080169271108
 30
0.0
 11
681.9368947457937
 21
200.9234448776564
 31
0.0
  0
LINE
  5
12A8
330
2
100
AcDbEntity
  8
0
100
AcDbLine
 10
686.4369507679025
 20
183.7656545100302
 30
0.0
 11
686.4368387241106
 21
150.7657220255327
 31
0.0
  0
LINE
  5
12A9
330
2
100
AcDbEntity
  8
0
100
AcDbLine
 10
688.4370688288422
 20
151.2656468435265
 30
0.0
 11
686.4369618290043
 21
151.2655625101592
 31
0.0
  0
LINE
  5
12AA
330
2
100
AcDbEntity
  8
0
100
AcDbLine
 10
688.4370688288422
 20
151.2656468435265
 30
0.0
 11
690.4370732551346
 21
150.1109605101677
 31
0.0
  0
LINE
  5
12AB
330
2
100
AcDbEntity
  8
0
100
AcDbLine
 10
688.4370017457936
 20
183.2656545100302
 30
0.0
 11
686.4368947457937
 21
183.2656545100302
 31
0.0
  0
LINE
  5
12AC
330
2
100
AcDbEntity
  8
0
100
AcDbLine
 10
688.4370017457936
 20
183.2656545100302
 30
0.0
 11
690.4370017457936
 21
184.420348510031
 31
0.0
  0
LINE
  5
12AD
330
2
100
AcDbEntity
  8
0
100
AcDbLine
 10
664.787001745794
 20
150.4155625100296
 30
0.0
 11
664.787001745794
 21
184.1156545100306
 31
0.0
  0
LINE
  5
12AE
330
2
100
AcDbEntity
  8
0
100
AcDbLine
 10
663.4370017457936
 20
150.4155625100296
 30
0.0
 11
663.4370017457936
 21
184.1156545100306
 31
0.0
  0
LINE
  5
12AF
330
2
100
AcDbEntity
  8
0
100
AcDbLine
 10
677.4368387235703
 20
150.765586992636
 30
0.0
 11
677.4369507678947
 21
183.76565451003
 31
0.0
  0
LINE
  5
12B0
330
2
100
AcDbEntity
  8
0
100
AcDbLine
 10
663.4370017457936
 20
151.2656545100302
 30
0.0
 11
647.4370017457935
 21
151.2656545100302
 31
0.0
  0
LINE
  5
12B1
330
2
100
AcDbEntity
  8
0
100
AcDbLine
 10
677.4368947457937
 20
151.26556251003
 30
0.0
 11
664.787001745794
 21
151.26556251003
 31
0.0
  0
LINE
  5
12B2
330
2
100
AcDbEntity
  8
0
100
AcDbLine
 10
663.4370017457936
 20
150.4155625100296
 30
0.0
 11
664.787001745794
 21
150.4155625100296
 31
0.0
  0
LINE
  5
12B3
330
2
100
AcDbEntity
  8
0
100
AcDbLine
 10
663.4370017457936
 20
183.2656545100302
 30
0.0
 11
647.4370017457935
 21
183.2656545100302
 31
0.0
  0
LINE
  5
12B4
330
2
100
AcDbEntity
  8
0
100
AcDbLine
 10
677.4368947457937
 20
183.2656545100302
 30
0.0
 11
664.787001745794
 21
183.2656545100302
 31
0.0
  0
LINE
  5
12B5
330
2
100
AcDbEntity
  8
0
100
AcDbLine
 10
663.4370017457936
 20
184.1156545100306
 30
0.0
 11
664.787001745794
 21
184.1156545100306
 31
0.0
  0
LINE
  5
12B6
330
2
100
AcDbEntity
  8
0
100
AcDbLine
 10
647.4370017457935
 20
183.7656545100302
 30
0.0
 11
647.4370017457935
 21
150.7656545100303
 31
0.0
  0
LINE
  5
12B7
330
2
100
AcDbEntity
  8
0
100
AcDbLine
 10
690.4370017457936
 20
191.7656545100302
 30
0.0
 11
663.9791745034422
 21
191.7656545100302
 31
0.0
  0
LINE
  5
12B8
330
2
100
AcDbEntity
  8
0
  6
CONTINUOUS
 62
     4
100
AcDbLine
 10
685.9368947457937
 20
186.5656575100305
 30
0.0
 11
685.9368947457937
 21
191.7656545100302
 31
0.0
  0
LINE
  5
12B9
330
2
100
AcDbEntity
  8
0
  6
CONTINUOUS
 62
     7
100
AcDbLine
 10
685.1868947457937
 20
186.5656575100305
 30
0.0
 11
685.1868947457937
 21
191.7656545100302
 31
0.0
  0
LINE
  5
12BA
330
2
100
AcDbEntity
  8
0
  6
CONTINUOUS
 62
     7
100
AcDbLine
 10
678.6868947457938
 20
186.5656575100305
 30
0.0
 11
678.6868947457938
 21
191.7656545100302
 31
0.0
  0
LINE
  5
12BB
330
2
100
AcDbEntity
  8
0
  6
CONTINUOUS
 62
     4
100
AcDbLine
 10
677.9368947457937
 20
186.5656575100305
 30
0.0
 11
677.9368947457937
 21
191.7656545100302
 31
0.0
  0
LINE
  5
12BC
330
2
100
AcDbEntity
  8
0
100
AcDbLine
 10
553.0870017457946
 20
151.2656545100302
 30
0.0
 11
538.437001745794
 21
151.2656545100302
 31
0.0
  0
LINE
  5
12BD
330
2
100
AcDbEntity
  8
0
100
AcDbLine
 10
552.0990095091219
 20
191.7656545100302
 30
0.0
 11
536.437001745794
 21
191.7656545100302
 31
0.0
  0
LINE
  5
12BE
330
2
100
AcDbEntity
  8
0
100
AcDbLine
 10
553.0870017457946
 20
183.2656545100302
 30
0.0
 11
538.437001745794
 21
183.2656545100302
 31
0.0
  0
LINE
  5
12BF
330
2
100
AcDbEntity
  8
0
100
AcDbLine
 10
552.0990095091219
 20
142.7656545100302
 30
0.0
 11
536.437001745794
 21
142.7656545100302
 31
0.0
  0
LINE
  5
12C0
330
2
100
AcDbEntity
  8
0
100
AcDbLine
 10
553.0870017457946
 20
150.4156545100299
 30
0.0
 11
553.0870017457946
 21
184.1156545100306
 31
0.0
  0
LINE
  5
12C1
330
2
100
AcDbEntity
  8
0
100
AcDbLine
 10
554.437001745794
 20
150.4156545100299
 30
0.0
 11
554.437001745794
 21
184.1156545100306
 31
0.0
  0
LINE
  5
12C2
330
2
100
AcDbEntity
  8
0
100
AcDbLine
 10
554.437001745794
 20
150.4156545100299
 30
0.0
 11
553.0870017457946
 21
150.4156545100299
 31
0.0
  0
LINE
  5
12C3
330
2
100
AcDbEntity
  8
0
100
AcDbLine
 10
571.437001745794
 20
151.2656545100302
 30
0.0
 11
554.437001745794
 21
151.2656545100302
 31
0.0
  0
LINE
  5
12C4
330
2
100
AcDbEntity
  8
0
100
AcDbLine
 10
571.437001745794
 20
183.2656545100302
 30
0.0
 11
554.437001745794
 21
183.2656545100302
 31
0.0
  0
LINE
  5
12C5
330
2
100
AcDbEntity
  8
0
100
AcDbLine
 10
571.437001745794
 20
183.7656545100302
 30
0.0
 11
571.437001745794
 21
150.7656545100303
 31
0.0
  0
LINE
  5
12C6
330
2
100
AcDbEntity
  8
0
100
AcDbLine
 10
554.437001745794
 20
184.1156545100306
 30
0.0
 11
553.0870017457946
 21
184.1156545100306
 31
0.0
  0
LINE
  5
12C7
330
2
100
AcDbEntity
  8
0
100
AcDbLine
 10
536.437001745794
 20
191.7656545100302
 30
0.0
 11
536.437001745794
 21
142.7656545100302
 31
0.0
  0
LINE
  5
12C8
330
2
100
AcDbEntity
  8
0
100
AcDbLine
 10
538.437001745794
 20
151.2656545100302
 30
0.0
 11
538.437001745794
 21
183.2656545100302
 31
0.0
  0
LINE
  5
12C9
330
2
100
AcDbEntity
  8
0
100
AcDbLine
 10
538.437001745794
 20
151.2656545100302
 30
0.0
 11
536.437001745794
 21
150.1109605100295
 31
0.0
  0
LINE
  5
12CA
330
2
100
AcDbEntity
  8
0
100
AcDbLine
 10
538.437001745794
 20
183.2656545100302
 30
0.0
 11
536.437001745794
 21
184.420348510031
 31
0.0
  0
LINE
  5
12CB
330
2
100
AcDbEntity
  8
0
100
AcDbLine
 10
647.4370017457935
 20
150.7656545100303
 30
0.0
 11
571.437001745794
 21
150.7656545100303
 31
0.0
  0
SPLINE
  5
12CC
330
2
100
AcDbEntity
  8
HOJO
100
AcDbSpline
210
0.0
220
0.0
230
1.0
 70
     8
 71
     3
 72
    25
 73
    21
 74
     0
 42
0.0000000001
 43
0.0000000001
 40
1.152877297004389
 40
1.152877297004389
 40
1.152877297004389
 40
1.152877297004389
 40
6.290824812401083
 40
13.22928773580738
 40
23.01248433513514
 40
27.44936952537695
 40
39.39209791902025
 40
50.54497002145325
 40
68.81910560968197
 40
80.92562652941472
 40
95.32109287512382
 40
103.9668883716656
 40
119.0932917203498
 40
131.2170228200582
 40
138.4912660645576
 40
145.0351343874091
 40
153.1132143022935
 40
157.4594543935925
 40
163.7674011214698
 40
166.1490771881331
 40
166.1490771881331
 40
166.1490771881331
 40
166.1490771881331
 10
538.437005074611
 20
206.4337479002655
 30
0.0
 10
540.0765579658118
 20
206.1525283160876
 30
0.0
 10
543.9980369069362
 20
205.5533868719698
 30
0.0
 10
552.6707358930471
 20
205.9046787028705
 30
0.0
 10
552.7075262573516
 20
196.8978220403109
 30
0.0
 10
551.2229458053916
 20
187.2062515088704
 30
0.0
 10
565.1085456655591
 20
190.0721420545118
 30
0.0
 10
577.1700702913586
 20
188.2390908781321
 30
0.0
 10
591.7290426334425
 20
190.7559255134614
 30
0.0
 10
606.2839408816858
 20
186.7411862009552
 30
0.0
 10
618.0944007987532
 20
189.0093455560176
 30
0.0
 10
630.7565729870479
 20
186.7977442316382
 30
0.0
 10
642.8233175242117
 20
191.863181803646
 30
0.0
 10
653.2866791914552
 20
188.1613365405877
 30
0.0
 10
663.8467362734159
 20
187.9872108469111
 30
0.0
 10
664.7211350235052
 20
196.4166431807784
 30
0.0
 10
663.1270732726356
 20
203.7948917881907
 30
0.0
 10
669.8365322179001
 20
206.179562690158
 30
0.0
 10
674.2022507840688
 20
205.9349371796828
 30
0.0
 10
676.7519182188611
 20
207.2310592910102
 30
0.0
 10
677.4370017457936
 20
207.6419058760433
 30
0.0
  0
SPLINE
  5
12CD
330
2
100
AcDbEntity
  8
HOJO
100
AcDbSpline
210
0.0
220
0.0
230
1.0
 70
     8
 71
     3
 72
    25
 73
    21
 74
     0
 42
0.0000000001
 43
0.0000000001
 40
1.152877297004389
 40
1.152877297004389
 40
1.152877297004389
 40
1.152877297004389
 40
6.290824812401083
 40
13.22928773580738
 40
23.01248433513514
 40
27.44936952537695
 40
39.39209791902025
 40
50.54497002145325
 40
68.81910560968197
 40
80.92562652941472
 40
95.32109287512382
 40
103.9668883716656
 40
119.0932917203498
 40
131.2170228200582
 40
138.4912660645576
 40
145.0351343874091
 40
153.1132143022935
 40
157.4594543935925
 40
163.7674011214698
 40
166.1490771881331
 40
166.1490771881331
 40
166.1490771881331
 40
166.1490771881331
 10
538.437005074611
 20
128.0975611197949
 30
0.0
 10
540.0765579658118
 20
128.3787807039729
 30
0.0
 10
543.9980369069362
 20
128.9779221480907
 30
0.0
 10
552.6707358930471
 20
128.62663031719
 30
0.0
 10
552.7075262573516
 20
137.6334869797478
 30
0.0
 10
551.2229458053916
 20
147.32505751119
 30
0.0
 10
565.1085456655591
 20
144.4591669655487
 30
0.0
 10
577.1700702913586
 20
146.2922181419284
 30
0.0
 10
591.7290426334425
 20
143.7753835065991
 30
0.0
 10
606.2839408816858
 20
147.7901228191053
 30
0.0
 10
618.0944007987532
 20
145.5219634640429
 30
0.0
 10
630.7565729870479
 20
147.7335647884223
 30
0.0
 10
642.8233175242117
 20
142.6681272164145
 30
0.0
 10
653.2866791914552
 20
146.3699724794727
 30
0.0
 10
663.8467362734159
 20
146.5440981731493
 30
0.0
 10
664.7211350235052
 20
138.1146658392821
 30
0.0
 10
663.1270732726356
 20
130.7364172318697
 30
0.0
 10
669.8365322179001
 20
128.3517463299026
 30
0.0
 10
674.2022507840688
 20
128.5963718403776
 30
0.0
 10
676.7519182188611
 20
127.3002497290503
 30
0.0
 10
677.4370017457936
 20
126.8894031440171
 30
0.0
  0
LINE
  5
12CE
330
2
100
AcDbEntity
  8
0
100
AcDbLine
 10
676.4370017457935
 20
203.2656545100302
 30
0.0
 11
666.4370017457936
 21
191.7656545100302
 31
0.0
  0
LINE
  5
12CF
330
2
100
AcDbEntity
  8
0
100
AcDbLine
 10
666.4370017457936
 20
203.2656545100302
 30
0.0
 11
676.4370017457935
 21
191.7656545100302
 31
0.0
  0
LINE
  5
12D0
330
2
100
AcDbEntity
  8
0
100
AcDbLine
 10
676.4370017457935
 20
142.7656545100302
 30
0.0
 11
666.4370017457936
 21
131.2656545100302
 31
0.0
  0
LINE
  5
12D1
330
2
100
AcDbEntity
  8
0
100
AcDbLine
 10
676.4370017457935
 20
131.2656545100302
 30
0.0
 11
666.4370017457936
 21
142.7656545100302
 31
0.0
  0
LINE
  5
12D2
330
2
100
AcDbEntity
  8
0
100
AcDbLine
 10
539.4370050746056
 20
203.2656545100302
 30
0.0
 11
549.4370050746038
 21
191.7656545100302
 31
0.0
  0
LINE
  5
12D3
330
2
100
AcDbEntity
  8
0
100
AcDbLine
 10
549.4370050746038
 20
203.2656545100302
 30
0.0
 11
539.4370050746037
 21
191.7656545100302
 31
0.0
  0
LINE
  5
12D4
330
2
100
AcDbEntity
  8
0
100
AcDbLine
 10
549.4370050746038
 20
142.7656545100302
 30
0.0
 11
539.4370050746037
 21
131.2656545100302
 31
0.0
  0
LINE
  5
12D5
330
2
100
AcDbEntity
  8
0
100
AcDbLine
 10
539.4370050746037
 20
142.7656545100302
 30
0.0
 11
549.4370050746038
 21
131.2656545100302
 31
0.0
  0
LINE
  5
12D6
330
2
100
AcDbEntity
  8
0
100
AcDbLine
 10
649.0750752106219
 20
518.7859053192669
 30
0.0
 11
649.0750752106219
 21
469.7859053192669
 31
0.0
  0
LINE
  5
12D7
330
2
100
AcDbEntity
  8
0
100
AcDbLine
 10
649.0750752106219
 20
469.7859053192669
 30
0.0
 11
636.0750752106219
 21
469.7859053192669
 31
0.0
  0
LINE
  5
12D8
330
2
100
AcDbEntity
  8
0
100
AcDbLine
 10
649.0750752106219
 20
518.7859053192669
 30
0.0
 11
636.0750752106219
 21
518.7859053192669
 31
0.0
  0
LINE
  5
12D9
330
2
100
AcDbEntity
  8
0
100
AcDbLine
 10
497.075078539432
 20
518.7859053192669
 30
0.0
 11
495.0750752106223
 21
518.7859053192669
 31
0.0
  0
LINE
  5
12DA
330
2
100
AcDbEntity
  8
0
100
AcDbLine
 10
497.075078539432
 20
469.7859053192669
 30
0.0
 11
495.0750752106223
 21
469.7859053192669
 31
0.0
  0
LINE
  5
12DB
330
2
100
AcDbEntity
  8
0
100
AcDbLine
 10
495.0750752106223
 20
518.7859053192669
 30
0.0
 11
495.0750752106223
 21
469.7859053192669
 31
0.0
  0
CIRCLE
  5
12DC
330
2
100
AcDbEntity
  8
0
 48
0.5
100
AcDbCircle
 10
640.574968210622
 20
494.2859053192669
 30
0.0
 40
3.2
  0
CIRCLE
  5
12DD
330
2
100
AcDbEntity
  8
HOJO
 48
0.5
100
AcDbCircle
 10
640.574968210622
 20
494.2859053192669
 30
0.0
 40
4.0
  0
LINE
  5
12DE
330
2
100
AcDbEntity
  8
CENTER
100
AcDbLine
 10
640.5749682106202
 20
505.1450502837551
 30
0.0
 11
640.5749682106202
 21
483.4267603547805
 31
0.0
  0
LINE
  5
12DF
330
2
100
AcDbEntity
  8
0
100
AcDbLine
 10
878.081719268232
 20
744.3627966238609
 30
0.0
 11
829.081719268232
 21
744.3627966238609
 31
0.0
  0
LINE
  5
12E0
330
2
100
AcDbEntity
  8
0
100
AcDbLine
 10
829.081719268232
 20
744.3627966238609
 30
0.0
 11
829.081719268232
 21
757.362796623861
 31
0.0
  0
LINE
  5
12E1
330
2
100
AcDbEntity
  8
0
100
AcDbLine
 10
878.081719268232
 20
744.3627966238609
 30
0.0
 11
878.081719268232
 21
757.362796623861
 31
0.0
  0
LINE
  5
12E2
330
2
100
AcDbEntity
  8
0
100
AcDbLine
 10
878.081719268232
 20
896.3627932950503
 30
0.0
 11
878.081719268232
 21
898.3627966238609
 31
0.0
  0
LINE
  5
12E3
330
2
100
AcDbEntity
  8
0
100
AcDbLine
 10
829.081719268232
 20
896.3627932950503
 30
0.0
 11
829.081719268232
 21
898.3627966238609
 31
0.0
  0
LINE
  5
12E4
330
2
100
AcDbEntity
  8
0
100
AcDbLine
 10
878.081719268232
 20
898.3627966238609
 30
0.0
 11
829.081719268232
 21
898.3627966238609
 31
0.0
  0
CIRCLE
  5
12E5
330
2
100
AcDbEntity
  8
0
 48
0.5
100
AcDbCircle
 10
853.5817192682321
 20
752.8629036238608
 30
0.0
 40
3.2
  0
CIRCLE
  5
12E6
330
2
100
AcDbEntity
  8
HOJO
 48
0.5
100
AcDbCircle
 10
853.5817192682321
 20
752.8629036238608
 30
0.0
 40
4.0
  0
LINE
  5
12E7
330
2
100
AcDbEntity
  8
CENTER
100
AcDbLine
 10
864.4408642327185
 20
752.8629036238626
 30
0.0
 11
842.7225743037437
 21
752.8629036238626
 31
0.0
  0
LINE
  5
12E8
330
2
100
AcDbEntity
  8
0
100
AcDbLine
 10
1274.159090239304
 20
469.7859053193542
 30
0.0
 11
1274.159090239304
 21
518.7859053193542
 31
0.0
  0
LINE
  5
12E9
330
2
100
AcDbEntity
  8
0
100
AcDbLine
 10
1274.159090239304
 20
518.7859053193542
 30
0.0
 11
1287.159090239304
 21
518.7859053193542
 31
0.0
  0
LINE
  5
12EA
330
2
100
AcDbEntity
  8
0
100
AcDbLine
 10
1274.159090239304
 20
469.7859053193542
 30
0.0
 11
1287.159090239304
 21
469.7859053193542
 31
0.0
  0
LINE
  5
12EB
330
2
100
AcDbEntity
  8
0
100
AcDbLine
 10
1426.159086910493
 20
469.7859053193542
 30
0.0
 11
1428.159090239304
 21
469.7859053193542
 31
0.0
  0
LINE
  5
12EC
330
2
100
AcDbEntity
  8
0
100
AcDbLine
 10
1426.159086910493
 20
518.7859053193542
 30
0.0
 11
1428.159090239304
 21
518.7859053193542
 31
0.0
  0
LINE
  5
12ED
330
2
100
AcDbEntity
  8
0
100
AcDbLine
 10
1428.159090239304
 20
469.7859053193542
 30
0.0
 11
1428.159090239304
 21
518.7859053193542
 31
0.0
  0
LINE
  5
12EF
330
2
100
AcDbEntity
  8
PHAS
100
AcDbLine
 10
504.5750785394293
 20
538.785905323346
 30
0.0
 11
504.5750785394284
 21
449.7859053151877
 31
0.0
  0
LINE
  5
12F0
330
2
100
AcDbEntity
  8
PHAS
100
AcDbLine
 10
500.5750785394293
 20
538.785905323346
 30
0.0
 11
500.5750785394284
 21
449.7859053151877
 31
0.0
  0
LINE
  5
12F1
330
2
100
AcDbEntity
  8
PHAS
100
AcDbLine
 10
471.0750785394284
 20
466.6603529138655
 30
0.0
 11
471.0750785394284
 21
521.9114577165109
 31
0.0
  0
LINE
  5
12F2
330
2
100
AcDbEntity
  8
PHAS
100
AcDbLine
 10
494.7750785394291
 20
535.6667538895444
 30
0.0
 11
494.7750785394291
 21
494.2859053151877
 31
0.0
  0
LINE
  5
12F3
330
2
100
AcDbEntity
  8
PHAS
100
AcDbLine
 10
504.5750785394284
 20
449.7859053151877
 30
0.0
 11
497.7227213201167
 21
449.9055136553624
 31
0.0
  0
ARC
  5
12F4
330
2
100
AcDbEntity
  8
PHAS
100
AcDbCircle
 10
493.7750785394292
 20
457.4468056840114
 30
0.0
 40
1.0
100
AcDbArc
 50
0.0
 51
79.99999999999483
  0
LINE
  5
12F5
330
2
100
AcDbEntity
  8
PHAS
100
AcDbLine
 10
493.9487267170952
 20
458.4316134370228
 30
0.0
 11
475.2068376510942
 21
461.736314148804
 31
0.0
  0
LINE
  5
12F6
330
2
100
AcDbEntity
  8
PHAS
100
AcDbLine
 10
494.7750785394291
 20
452.9050567408312
 30
0.0
 11
494.7750785394291
 21
494.2859053151877
 31
0.0
  0
ARC
  5
12F7
330
2
100
AcDbEntity
  8
PHAS
100
AcDbCircle
 10
476.0750785394284
 20
466.6603529138655
 30
0.0
 40
5.0
100
AcDbArc
 50
180.0
 51
259.9999999999948
  0
ARC
  5
12F8
330
2
100
AcDbEntity
  8
PHAS
100
AcDbCircle
 10
497.7750785394291
 20
452.9050567408312
 30
0.0
 40
3.0
100
AcDbArc
 50
180.0
 51
268.9999999999721
  0
ARC
  5
12F9
330
2
100
AcDbEntity
  8
PHAS
100
AcDbCircle
 10
493.7750785394292
 20
531.1250049463651
 30
0.0
 40
1.0
100
AcDbArc
 50
280.0000000000051
 51
0.0
  0
LINE
  5
12FA
330
2
100
AcDbEntity
  8
PHAS
100
AcDbLine
 10
493.9487267170952
 20
530.1401971933528
 30
0.0
 11
475.2068376510942
 21
526.8354964815726
 31
0.0
  0
ARC
  5
12FB
330
2
100
AcDbEntity
  8
PHAS
100
AcDbCircle
 10
476.0750785394284
 20
521.9114577165109
 30
0.0
 40
5.0
100
AcDbArc
 50
100.0000000000051
 51
180.0
  0
LINE
  5
12FC
330
2
100
AcDbEntity
  8
PHAS
100
AcDbLine
 10
504.5750785394293
 20
538.785905323346
 30
0.0
 11
497.7227213201167
 21
538.6662969831713
 31
0.0
  0
ARC
  5
12FD
330
2
100
AcDbEntity
  8
PHAS
100
AcDbCircle
 10
497.7750785394291
 20
535.6667538977026
 30
0.0
 40
3.0
100
AcDbArc
 50
91.00000000002784
 51
180.0
  0
LINE
  5
12FF
330
2
100
AcDbEntity
  8
CENTER
100
AcDbLine
 10
1393.089086910493
 20
536.7159053194418
 30
0.0
 11
1410.089086910493
 21
536.7159053194418
 31
0.0
  0
LINE
  5
1300
330
2
100
AcDbEntity
  8
0
100
AcDbLine
 10
1316.159086910495
 20
545.2859053194415
 30
0.0
 11
1402.159086910493
 21
545.2859053194415
 31
0.0
  0
LINE
  5
1301
330
2
100
AcDbEntity
  8
CENTER
100
AcDbLine
 10
1393.089086910493
 20
451.8559053194421
 30
0.0
 11
1410.089086910493
 21
451.8559053194421
 31
0.0
  0
ARC
  5
1302
330
2
100
AcDbEntity
  8
0
100
AcDbCircle
 10
1386.159086910493
 20
467.2859053194414
 30
0.0
 40
15.0
100
AcDbArc
 50
270.0
 51
0.0
  0
ARC
  5
1303
330
2
100
AcDbEntity
  8
0
100
AcDbCircle
 10
1386.159086910491
 20
467.2859053194414
 30
0.0
 40
13.0
100
AcDbArc
 50
270.0
 51
0.0
  0
LINE
  5
1304
330
2
100
AcDbEntity
  8
0
100
AcDbLine
 10
1316.159086910493
 20
443.2859053194414
 30
0.0
 11
1402.159086910493
 21
443.2859053194414
 31
0.0
  0
ARC
  5
1305
330
2
100
AcDbEntity
  8
0
100
AcDbCircle
 10
1386.159086910491
 20
521.2859053194415
 30
0.0
 40
13.0
100
AcDbArc
 50
0.0
 51
90.0
  0
ARC
  5
1306
330
2
100
AcDbEntity
  8
0
100
AcDbCircle
 10
1386.159086910493
 20
521.2859053194415
 30
0.0
 40
15.0
100
AcDbArc
 50
0.0
 51
90.0
  0
LINE
  5
1307
330
2
100
AcDbEntity
  8
0
100
AcDbLine
 10
1399.159086910491
 20
521.2859053194415
 30
0.0
 11
1399.159086910491
 21
467.2859053194414
 31
0.0
  0
LINE
  5
1308
330
2
100
AcDbEntity
  8
0
100
AcDbLine
 10
1319.159086910493
 20
521.2859053194415
 30
0.0
 11
1319.159086910493
 21
467.2859053194414
 31
0.0
  0
LINE
  5
1309
330
2
100
AcDbEntity
  8
0
100
AcDbLine
 10
1317.159086910493
 20
521.2859053194415
 30
0.0
 11
1317.159086910493
 21
467.2859053194414
 31
0.0
  0
LINE
  5
130A
330
2
100
AcDbEntity
  8
CENTER
100
AcDbLine
 10
1390.978892063888
 20
454.9661001660469
 30
0.0
 11
1390.978892063888
 21
469.9661001660469
 31
0.0
  0
LINE
  5
130B
330
2
100
AcDbEntity
  8
CENTER
100
AcDbLine
 10
1327.339281757099
 20
454.9661001660469
 30
0.0
 11
1327.339281757099
 21
469.9661001660469
 31
0.0
  0
ARC
  5
130C
330
2
100
AcDbEntity
  8
0
100
AcDbCircle
 10
1332.159086910493
 20
467.2859053194414
 30
0.0
 40
15.0
100
AcDbArc
 50
180.0
 51
270.0
  0
ARC
  5
130D
330
2
100
AcDbEntity
  8
0
100
AcDbCircle
 10
1332.159086910493
 20
467.2859053194414
 30
0.0
 40
13.0
100
AcDbArc
 50
180.0
 51
270.0
  0
LINE
  5
130E
330
2
100
AcDbEntity
  8
0
100
AcDbLine
 10
1332.159086910493
 20
452.2859053194415
 30
0.0
 11
1386.159086910493
 21
452.2859053194415
 31
0.0
  0
LINE
  5
130F
330
2
100
AcDbEntity
  8
0
100
AcDbLine
 10
1332.159086910493
 20
454.2859053194415
 30
0.0
 11
1386.159086910491
 21
454.2859053194415
 31
0.0
  0
ARC
  5
1310
330
2
100
AcDbEntity
  8
0
100
AcDbCircle
 10
1316.159086910493
 20
451.2859053194414
 30
0.0
 40
8.0
100
AcDbArc
 50
180.0
 51
270.0
  0
LINE
  5
1311
330
2
100
AcDbEntity
  8
CENTER
100
AcDbLine
 10
1316.729086910493
 20
443.3559053194421
 30
0.0
 11
1316.729086910493
 21
460.3559053194421
 31
0.0
  0
LINE
  5
1312
330
2
100
AcDbEntity
  8
CENTER
100
AcDbLine
 10
1325.229086910493
 20
451.8559053194421
 30
0.0
 11
1308.229086910493
 21
451.8559053194421
 31
0.0
  0
LINE
  5
1313
330
2
100
AcDbEntity
  8
CENTER
100
AcDbLine
 10
1334.839281757099
 20
462.4661001660469
 30
0.0
 11
1319.839281757098
 21
462.4661001660469
 31
0.0
  0
LINE
  5
1314
330
2
100
AcDbEntity
  8
CENTER
100
AcDbLine
 10
1383.478892063888
 20
462.4661001660469
 30
0.0
 11
1398.478892063888
 21
462.4661001660469
 31
0.0
  0
LINE
  5
1315
330
2
100
AcDbEntity
  8
0
100
AcDbLine
 10
1332.159086910493
 20
536.2859053194415
 30
0.0
 11
1386.159086910493
 21
536.2859053194415
 31
0.0
  0
LINE
  5
1316
330
2
100
AcDbEntity
  8
0
100
AcDbLine
 10
1332.159086910493
 20
534.2859053194415
 30
0.0
 11
1386.159086910491
 21
534.2859053194415
 31
0.0
  0
ARC
  5
1317
330
2
100
AcDbEntity
  8
0
100
AcDbCircle
 10
1316.159086910495
 20
537.2859053194416
 30
0.0
 40
8.0
100
AcDbArc
 50
90.0
 51
180.0
  0
LINE
  5
1318
330
2
100
AcDbEntity
  8
CENTER
100
AcDbLine
 10
1316.729086910493
 20
545.2159053194418
 30
0.0
 11
1316.729086910493
 21
528.2159053194418
 31
0.0
  0
ARC
  5
1319
330
2
100
AcDbEntity
  8
0
100
AcDbCircle
 10
1332.159086910493
 20
521.2859053194415
 30
0.0
 40
15.0
100
AcDbArc
 50
90.0
 51
180.0
  0
LINE
  5
131A
330
2
100
AcDbEntity
  8
CENTER
100
AcDbLine
 10
1334.839281757099
 20
526.105710472837
 30
0.0
 11
1319.839281757098
 21
526.105710472837
 31
0.0
  0
ARC
  5
131B
330
2
100
AcDbEntity
  8
0
100
AcDbCircle
 10
1332.159086910493
 20
521.2859053194415
 30
0.0
 40
13.0
100
AcDbArc
 50
90.0
 51
180.0
  0
LINE
  5
131C
330
2
100
AcDbEntity
  8
CENTER
100
AcDbLine
 10
1327.339281757099
 20
533.605710472837
 30
0.0
 11
1327.339281757099
 21
518.6057104728369
 31
0.0
  0
LINE
  5
131D
330
2
100
AcDbEntity
  8
CENTER
100
AcDbLine
 10
1325.229086910493
 20
536.7159053194418
 30
0.0
 11
1308.229086910493
 21
536.7159053194418
 31
0.0
  0
LINE
  5
131E
330
2
100
AcDbEntity
  8
CENTER
100
AcDbLine
 10
1390.978892063888
 20
533.605710472837
 30
0.0
 11
1390.978892063888
 21
518.6057104728369
 31
0.0
  0
LINE
  5
131F
330
2
100
AcDbEntity
  8
CENTER
100
AcDbLine
 10
1383.478892063888
 20
526.105710472837
 30
0.0
 11
1398.478892063888
 21
526.105710472837
 31
0.0
  0
LINE
  5
1320
330
2
100
AcDbEntity
  8
0
100
AcDbLine
 10
1401.159086910493
 20
521.2859053194415
 30
0.0
 11
1401.159086910493
 21
467.2859053194414
 31
0.0
  0
ARC
  5
1321
330
2
100
AcDbEntity
  8
0
100
AcDbCircle
 10
1402.159086910493
 20
451.2859053194414
 30
0.0
 40
8.0
100
AcDbArc
 50
270.0
 51
0.0
  0
LINE
  5
1322
330
2
100
AcDbEntity
  8
CENTER
100
AcDbLine
 10
1401.589086910493
 20
443.3559053194421
 30
0.0
 11
1401.589086910493
 21
460.3559053194421
 31
0.0
  0
ARC
  5
1323
330
2
100
AcDbEntity
  8
0
100
AcDbCircle
 10
1402.159086910493
 20
537.2859053194416
 30
0.0
 40
8.0
100
AcDbArc
 50
0.0
 51
90.0
  0
LINE
  5
1324
330
2
100
AcDbEntity
  8
CENTER
100
AcDbLine
 10
1401.589086910493
 20
545.2159053194418
 30
0.0
 11
1401.589086910493
 21
528.2159053194418
 31
0.0
  0
LINE
  5
1325
330
2
100
AcDbEntity
  8
0
100
AcDbLine
 10
1066.551741268233
 20
787.362793295053
 30
0.0
 11
1066.551741268233
 21
810.2396876694374
 31
0.0
  0
LINE
  5
1326
330
2
100
AcDbEntity
  8
0
100
AcDbLine
 10
1066.551741268233
 20
818.4858989206622
 30
0.0
 11
1066.551741268233
 21
871.3627932950467
 31
0.0
  0
LINE
  5
1327
330
2
100
AcDbEntity
  8
0
100
AcDbLine
 10
1068.551741268233
 20
789.2929730353371
 30
0.0
 11
1068.551741268231
 21
869.4326135547626
 31
0.0
  0
LINE
  5
1328
330
2
100
AcDbEntity
  8
0
100
AcDbLine
 10
1032.551741268229
 20
779.4850075225067
 30
0.0
 11
1032.551741268231
 21
879.240579067593
 31
0.0
  0
LINE
  5
1329
330
2
100
AcDbEntity
  8
0
100
AcDbLine
 10
1068.551741268231
 20
869.4326135547626
 30
0.0
 11
1066.551741268229
 21
871.3627932950494
 31
0.0
  0
LINE
  5
132A
330
2
100
AcDbEntity
  8
0
100
AcDbLine
 10
1072.551741268229
 20
869.3627932950494
 30
0.0
 11
1068.551741268231
 21
869.4326135547626
 31
0.0
  0
LINE
  5
132B
330
2
100
AcDbEntity
  8
0
100
AcDbLine
 10
1017.551741268229
 20
880.3627932950494
 30
0.0
 11
1031.560467803729
 21
880.2405409906578
 31
0.0
  0
LINE
  5
132C
330
2
100
AcDbEntity
  8
0
100
AcDbLine
 10
1066.551741268229
 20
871.3627932950494
 30
0.0
 11
1039.551741268229
 21
871.5198746999458
 31
0.0
  0
LINE
  5
132D
330
2
100
AcDbEntity
  8
0
100
AcDbLine
 10
1068.551741268233
 20
789.2929730353371
 30
0.0
 11
1066.551741268233
 21
787.362793295053
 31
0.0
  0
LINE
  5
132E
330
2
100
AcDbEntity
  8
0
100
AcDbLine
 10
1072.551741268229
 20
789.3627932950503
 30
0.0
 11
1068.551741268233
 21
789.2929730353371
 31
0.0
  0
LINE
  5
132F
330
2
100
AcDbEntity
  8
0
100
AcDbLine
 10
1017.551741268229
 20
778.3627932950503
 30
0.0
 11
1031.560467803729
 21
778.4850455994428
 31
0.0
  0
LINE
  5
1330
330
2
100
AcDbEntity
  8
0
100
AcDbLine
 10
1066.551741268231
 20
787.3627932950503
 30
0.0
 11
1039.551741268229
 21
787.2057118901548
 31
0.0
  0
CIRCLE
  5
1331
330
2
100
AcDbEntity
  8
0
100
AcDbCircle
 10
1359.159086910493
 20
494.2859053194415
 30
0.0
 40
34.99999999953029
  0
ARC
  5
1332
330
2
100
AcDbEntity
  8
0
100
AcDbCircle
 10
1031.551741268229
 20
779.4850075225067
 30
0.0
 40
1.0
100
AcDbArc
 50
270.4999999999654
 51
0.0
  0
ARC
  5
1333
330
2
100
AcDbEntity
  8
0
100
AcDbCircle
 10
1031.551741268231
 20
879.240579067593
 30
0.0
 40
1.0
100
AcDbArc
 50
0.0
 51
89.5000000000345
  0
LINE
  5
1334
330
2
100
AcDbEntity
  8
0
100
AcDbLine
 10
1072.551741268229
 20
789.3627932950503
 30
0.0
 11
1072.551741268229
 21
869.3627932950494
 31
0.0
  0
CIRCLE
  5
1335
330
2
100
AcDbEntity
  8
HOJO
100
AcDbCircle
 10
1327.339281757099
 20
526.105710472837
 30
0.0
 40
3.0
  0
CIRCLE
  5
1336
330
2
100
AcDbEntity
  8
0
100
AcDbCircle
 10
1327.339281757099
 20
526.105710472837
 30
0.0
 40
2.5
  0
CIRCLE
  5
1337
330
2
100
AcDbEntity
  8
HOJO
100
AcDbCircle
 10
1327.339281757099
 20
462.4661001660469
 30
0.0
 40
3.0
  0
CIRCLE
  5
1338
330
2
100
AcDbEntity
  8
0
100
AcDbCircle
 10
1327.339281757099
 20
462.4661001660469
 30
0.0
 40
2.5
  0
CIRCLE
  5
1339
330
2
100
AcDbEntity
  8
HOJO
100
AcDbCircle
 10
1390.978892063888
 20
462.4661001660469
 30
0.0
 40
3.0
  0
CIRCLE
  5
133A
330
2
100
AcDbEntity
  8
0
100
AcDbCircle
 10
1390.978892063888
 20
462.4661001660469
 30
0.0
 40
2.5
  0
CIRCLE
  5
133B
330
2
100
AcDbEntity
  8
HOJO
100
AcDbCircle
 10
1390.978892063888
 20
526.105710472837
 30
0.0
 40
3.0
  0
CIRCLE
  5
133C
330
2
100
AcDbEntity
  8
0
100
AcDbCircle
 10
1390.978892063888
 20
526.105710472837
 30
0.0
 40
2.5
  0
CIRCLE
  5
133D
330
2
100
AcDbEntity
  8
CENTER
100
AcDbCircle
 10
1359.159086910493
 20
494.2859053194415
 30
0.0
 40
45.0
  0
LINE
  5
133E
330
2
100
AcDbEntity
  8
HIDS
100
AcDbLine
 10
1350.409086910493
 20
536.2859053194415
 30
0.0
 11
1350.409086910493
 21
521.9343682061926
 31
0.0
  0
LINE
  5
133F
330
2
100
AcDbEntity
  8
HIDS
100
AcDbLine
 10
1337.909086910493
 20
536.2859053194415
 30
0.0
 11
1337.909086910493
 21
514.0200761913083
 31
0.0
  0
LINE
  5
1340
330
2
100
AcDbEntity
  8
0
100
AcDbLine
 10
1066.551741268234
 20
536.2859053195261
 30
0.0
 11
1066.551741268234
 21
532.7852056350621
 31
0.0
  0
LINE
  5
1341
330
2
100
AcDbEntity
  8
0
100
AcDbLine
 10
1068.551741268234
 20
534.355725579242
 30
0.0
 11
1068.551741268234
 21
534.1664138060933
 31
0.0
  0
LINE
  5
1342
330
2
100
AcDbEntity
  8
0
100
AcDbLine
 10
1032.55174126823
 20
544.1636910920724
 30
0.0
 11
1032.551741268232
 21
505.3286063250133
 31
0.0
  0
LINE
  5
1343
330
2
100
AcDbEntity
  8
0
100
AcDbLine
 10
1032.551741268232
 20
494.2859053195288
 30
0.0
 11
1032.551741268232
 21
444.4081195469861
 31
0.0
  0
LINE
  5
1344
330
2
100
AcDbEntity
  8
0
100
AcDbLine
 10
1068.551741268232
 20
454.2160850598165
 30
0.0
 11
1066.55174126823
 21
452.2859053195297
 31
0.0
  0
LINE
  5
1345
330
2
100
AcDbEntity
  8
0
100
AcDbLine
 10
1072.55174126823
 20
454.2859053195297
 30
0.0
 11
1068.551741268232
 21
454.2160850598165
 31
0.0
  0
LINE
  5
1346
330
2
100
AcDbEntity
  8
0
100
AcDbLine
 10
1017.55174126823
 20
443.2859053195297
 30
0.0
 11
1031.56046780373
 21
443.4081576239213
 31
0.0
  0
LINE
  5
1347
330
2
100
AcDbEntity
  8
0
100
AcDbLine
 10
1066.55174126823
 20
452.2859053195297
 30
0.0
 11
1039.55174126823
 21
452.1288239146333
 31
0.0
  0
LINE
  5
1348
330
2
100
AcDbEntity
  8
0
100
AcDbLine
 10
1068.551741268234
 20
534.355725579242
 30
0.0
 11
1066.551741268234
 21
536.2859053195261
 31
0.0
  0
LINE
  5
1349
330
2
100
AcDbEntity
  8
0
100
AcDbLine
 10
1072.55174126823
 20
534.2859053195288
 30
0.0
 11
1068.551741268234
 21
534.355725579242
 31
0.0
  0
LINE
  5
134A
330
2
100
AcDbEntity
  8
0
100
AcDbLine
 10
1017.55174126823
 20
545.2859053195289
 30
0.0
 11
1031.56046780373
 21
545.1636530151363
 31
0.0
  0
LINE
  5
134B
330
2
100
AcDbEntity
  8
0
100
AcDbLine
 10
1067.551588940913
 20
536.2800883759327
 30
0.0
 11
1039.55174126823
 21
536.4429867244243
 31
0.0
  0
LINE
  5
134C
330
2
100
AcDbEntity
  8
0
100
AcDbLine
 10
1065.55174126823
 20
523.2859053195288
 30
0.0
 11
1061.642087919444
 21
523.2859053195288
 31
0.0
  0
ARC
  5
134D
330
2
100
AcDbEntity
  8
0
100
AcDbCircle
 10
1031.55174126823
 20
544.1636910920724
 30
0.0
 40
1.0
100
AcDbArc
 50
0.0
 51
89.5000000000345
  0
ARC
  5
134E
330
2
100
AcDbEntity
  8
0
100
AcDbCircle
 10
1031.551741268232
 20
444.4081195469861
 30
0.0
 40
1.0
100
AcDbArc
 50
270.4999999999654
 51
0.0
  0
LINE
  5
134F
330
2
100
AcDbEntity
  8
0
100
AcDbLine
 10
1072.55174126823
 20
534.2859053195288
 30
0.0
 11
1072.55174126823
 21
454.2859053195297
 31
0.0
  0
CIRCLE
  5
1350
330
2
100
AcDbEntity
  8
0
100
AcDbCircle
 10
1316.729086910493
 20
536.7159053194418
 30
0.0
 40
5.0
  0
CIRCLE
  5
1351
330
2
100
AcDbEntity
  8
0
100
AcDbCircle
 10
1316.729086910493
 20
536.7159053194418
 30
0.0
 40
4.307179676972423
  0
CIRCLE
  5
1352
330
2
100
AcDbEntity
  8
0
100
AcDbCircle
 10
1316.729086910493
 20
536.7159053194418
 30
0.0
 40
2.886751345948113
  0
LWPOLYLINE
  5
1353
330
2
100
AcDbEntity
  8
0
100
AcDbPolyline
 90
        6
 70
     1
 43
0.0
 10
1319.229086910493
 20
538.1592809924159
 10
1316.729086910493
 20
539.6026566653899
 10
1314.229086910493
 20
538.1592809924159
 10
1314.229086910493
 20
535.2725296464678
 10
1316.729086910493
 20
533.8291539734937
 10
1319.229086910493
 20
535.2725296464678
  0
CIRCLE
  5
1354
330
2
100
AcDbEntity
  8
0
100
AcDbCircle
 10
1401.589086910493
 20
536.7159053194418
 30
0.0
 40
5.0
  0
CIRCLE
  5
1355
330
2
100
AcDbEntity
  8
0
100
AcDbCircle
 10
1401.589086910493
 20
536.7159053194418
 30
0.0
 40
4.307179676972423
  0
CIRCLE
  5
1356
330
2
100
AcDbEntity
  8
0
100
AcDbCircle
 10
1401.589086910493
 20
536.7159053194418
 30
0.0
 40
2.886751345948113
  0
LWPOLYLINE
  5
1357
330
2
100
AcDbEntity
  8
0
100
AcDbPolyline
 90
        6
 70
     1
 43
0.0
 10
1404.089086910493
 20
538.1592809924159
 10
1401.589086910493
 20
539.6026566653899
 10
1399.089086910493
 20
538.1592809924159
 10
1399.089086910493
 20
535.2725296464678
 10
1401.589086910493
 20
533.8291539734937
 10
1404.089086910493
 20
535.2725296464678
  0
CIRCLE
  5
1358
330
2
100
AcDbEntity
  8
0
100
AcDbCircle
 10
1401.589086910493
 20
451.8559053194421
 30
0.0
 40
5.0
  0
CIRCLE
  5
1359
330
2
100
AcDbEntity
  8
0
100
AcDbCircle
 10
1401.589086910493
 20
451.8559053194421
 30
0.0
 40
4.307179676972423
  0
CIRCLE
  5
135A
330
2
100
AcDbEntity
  8
0
100
AcDbCircle
 10
1401.589086910493
 20
451.8559053194421
 30
0.0
 40
2.886751345948113
  0
LWPOLYLINE
  5
135B
330
2
100
AcDbEntity
  8
0
100
AcDbPolyline
 90
        6
 70
     1
 43
0.0
 10
1404.089086910493
 20
453.2992809924161
 10
1401.589086910493
 20
454.7426566653903
 10
1399.089086910493
 20
453.2992809924161
 10
1399.089086910493
 20
450.412529646468
 10
1401.589086910493
 20
448.9691539734939
 10
1404.089086910493
 20
450.412529646468
  0
CIRCLE
  5
135C
330
2
100
AcDbEntity
  8
0
100
AcDbCircle
 10
1316.729086910493
 20
451.8559053194421
 30
0.0
 40
5.0
  0
CIRCLE
  5
135D
330
2
100
AcDbEntity
  8
0
100
AcDbCircle
 10
1316.729086910493
 20
451.8559053194421
 30
0.0
 40
4.307179676972423
  0
CIRCLE
  5
135E
330
2
100
AcDbEntity
  8
0
100
AcDbCircle
 10
1316.729086910493
 20
451.8559053194421
 30
0.0
 40
2.886751345948113
  0
LWPOLYLINE
  5
135F
330
2
100
AcDbEntity
  8
0
100
AcDbPolyline
 90
        6
 70
     1
 43
0.0
 10
1319.229086910493
 20
453.2992809924161
 10
1316.729086910493
 20
454.7426566653903
 10
1314.229086910493
 20
453.2992809924161
 10
1314.229086910493
 20
450.412529646468
 10
1316.729086910493
 20
448.9691539734939
 10
1319.229086910493
 20
450.412529646468
  0
LINE
  5
1360
330
2
100
AcDbEntity
  8
0
100
AcDbLine
 10
1039.15174126823
 20
531.7159053195291
 30
0.0
 11
1039.55174126823
 21
532.4087256425573
 31
0.0
  0
LINE
  5
1361
330
2
100
AcDbEntity
  8
0
100
AcDbLine
 10
1039.15174126823
 20
531.7159053195291
 30
0.0
 11
1039.15174126823
 21
541.7159053195291
 31
0.0
  0
LINE
  5
1362
330
2
100
AcDbEntity
  8
0
100
AcDbLine
 10
1033.55174126823
 20
531.7159053195291
 30
0.0
 11
1033.55174126823
 21
541.7159053195291
 31
0.0
  0
LINE
  5
1363
330
2
100
AcDbEntity
  8
0
100
AcDbLine
 10
1033.55174126823
 20
541.7159053195291
 30
0.0
 11
1032.55174126823
 21
541.7159053195291
 31
0.0
  0
LINE
  5
1364
330
2
100
AcDbEntity
  8
0
100
AcDbLine
 10
1032.55174126823
 20
541.7159053195291
 30
0.0
 11
1032.55174126823
 21
531.7159053195291
 31
0.0
  0
LINE
  5
1365
330
2
100
AcDbEntity
  8
0
100
AcDbLine
 10
1032.55174126823
 20
531.7159053195291
 30
0.0
 11
1033.55174126823
 21
531.7159053195291
 31
0.0
  0
LINE
  5
1366
330
2
100
AcDbEntity
  8
0
100
AcDbLine
 10
1033.55174126823
 20
531.7159053195291
 30
0.0
 11
1033.55174126823
 21
541.7159053195291
 31
0.0
  0
LINE
  5
1367
330
2
100
AcDbEntity
  8
0
100
AcDbLine
 10
1039.15174126823
 20
531.7159053195291
 30
0.0
 11
1033.55174126823
 21
531.7159053195291
 31
0.0
  0
LINE
  5
1368
330
2
100
AcDbEntity
  8
0
100
AcDbLine
 10
1039.55174126823
 20
541.0230849965018
 30
0.0
 11
1039.55174126823
 21
532.4087256425573
 31
0.0
  0
LINE
  5
1369
330
2
100
AcDbEntity
  8
0
100
AcDbLine
 10
1033.55174126823
 20
541.7159053195291
 30
0.0
 11
1039.15174126823
 21
541.7159053195291
 31
0.0
  0
LINE
  5
136A
330
2
100
AcDbEntity
  8
0
100
AcDbLine
 10
1039.15174126823
 20
541.7159053195291
 30
0.0
 11
1039.55174126823
 21
541.0230849965018
 31
0.0
  0
LINE
  5
136B
330
2
100
AcDbEntity
  8
CENTER
  6
CENS
100
AcDbLine
 10
1012.55174126823
 20
536.7159053195291
 30
0.0
 11
1044.55174126823
 21
536.7159053195291
 31
0.0
  0
LINE
  5
136C
330
2
100
AcDbEntity
  8
0
100
AcDbLine
 10
1039.15174126823
 20
456.8559053195293
 30
0.0
 11
1039.55174126823
 21
456.1630849965012
 31
0.0
  0
LINE
  5
136D
330
2
100
AcDbEntity
  8
0
100
AcDbLine
 10
1039.15174126823
 20
456.8559053195293
 30
0.0
 11
1039.15174126823
 21
446.8559053195294
 31
0.0
  0
LINE
  5
136E
330
2
100
AcDbEntity
  8
0
100
AcDbLine
 10
1033.55174126823
 20
456.8559053195293
 30
0.0
 11
1033.55174126823
 21
446.8559053195294
 31
0.0
  0
LINE
  5
136F
330
2
100
AcDbEntity
  8
0
100
AcDbLine
 10
1033.55174126823
 20
446.8559053195294
 30
0.0
 11
1032.55174126823
 21
446.8559053195294
 31
0.0
  0
LINE
  5
1370
330
2
100
AcDbEntity
  8
0
100
AcDbLine
 10
1032.55174126823
 20
446.8559053195294
 30
0.0
 11
1032.55174126823
 21
456.8559053195293
 31
0.0
  0
LINE
  5
1371
330
2
100
AcDbEntity
  8
0
100
AcDbLine
 10
1032.55174126823
 20
456.8559053195293
 30
0.0
 11
1033.55174126823
 21
456.8559053195293
 31
0.0
  0
LINE
  5
1372
330
2
100
AcDbEntity
  8
0
100
AcDbLine
 10
1033.55174126823
 20
456.8559053195293
 30
0.0
 11
1033.55174126823
 21
446.8559053195294
 31
0.0
  0
LINE
  5
1373
330
2
100
AcDbEntity
  8
0
100
AcDbLine
 10
1039.15174126823
 20
456.8559053195293
 30
0.0
 11
1033.55174126823
 21
456.8559053195293
 31
0.0
  0
LINE
  5
1374
330
2
100
AcDbEntity
  8
0
100
AcDbLine
 10
1039.55174126823
 20
447.5487256425567
 30
0.0
 11
1039.55174126823
 21
456.1630849965012
 31
0.0
  0
LINE
  5
1375
330
2
100
AcDbEntity
  8
0
100
AcDbLine
 10
1033.55174126823
 20
446.8559053195294
 30
0.0
 11
1039.15174126823
 21
446.8559053195294
 31
0.0
  0
LINE
  5
1376
330
2
100
AcDbEntity
  8
0
100
AcDbLine
 10
1039.15174126823
 20
446.8559053195294
 30
0.0
 11
1039.55174126823
 21
447.5487256425567
 31
0.0
  0
LINE
  5
1377
330
2
100
AcDbEntity
  8
CENTER
  6
CENS
100
AcDbLine
 10
1012.55174126823
 20
451.8559053195294
 30
0.0
 11
1044.55174126823
 21
451.8559053195294
 31
0.0
  0
LINE
  5
1378
330
2
100
AcDbEntity
  8
0
100
AcDbLine
 10
1039.15174126823
 20
791.93279329505
 30
0.0
 11
1039.551741268229
 21
791.2399729720227
 31
0.0
  0
LINE
  5
1379
330
2
100
AcDbEntity
  8
0
100
AcDbLine
 10
1039.15174126823
 20
791.93279329505
 30
0.0
 11
1039.15174126823
 21
781.93279329505
 31
0.0
  0
LINE
  5
137A
330
2
100
AcDbEntity
  8
0
100
AcDbLine
 10
1033.551741268229
 20
791.93279329505
 30
0.0
 11
1033.551741268229
 21
781.93279329505
 31
0.0
  0
LINE
  5
137B
330
2
100
AcDbEntity
  8
0
100
AcDbLine
 10
1033.551741268229
 20
781.93279329505
 30
0.0
 11
1032.551741268229
 21
781.93279329505
 31
0.0
  0
LINE
  5
137C
330
2
100
AcDbEntity
  8
0
100
AcDbLine
 10
1032.551741268229
 20
781.93279329505
 30
0.0
 11
1032.551741268229
 21
791.93279329505
 31
0.0
  0
LINE
  5
137D
330
2
100
AcDbEntity
  8
0
100
AcDbLine
 10
1032.551741268229
 20
791.93279329505
 30
0.0
 11
1033.551741268229
 21
791.93279329505
 31
0.0
  0
LINE
  5
137E
330
2
100
AcDbEntity
  8
0
100
AcDbLine
 10
1033.551741268229
 20
791.93279329505
 30
0.0
 11
1033.551741268229
 21
781.93279329505
 31
0.0
  0
LINE
  5
137F
330
2
100
AcDbEntity
  8
0
100
AcDbLine
 10
1039.15174126823
 20
791.93279329505
 30
0.0
 11
1033.551741268229
 21
791.93279329505
 31
0.0
  0
LINE
  5
1380
330
2
100
AcDbEntity
  8
0
100
AcDbLine
 10
1039.551741268229
 20
782.6256136180773
 30
0.0
 11
1039.551741268229
 21
791.2399729720227
 31
0.0
  0
LINE
  5
1381
330
2
100
AcDbEntity
  8
0
100
AcDbLine
 10
1033.551741268229
 20
781.93279329505
 30
0.0
 11
1039.15174126823
 21
781.93279329505
 31
0.0
  0
LINE
  5
1382
330
2
100
AcDbEntity
  8
0
100
AcDbLine
 10
1039.15174126823
 20
781.93279329505
 30
0.0
 11
1039.551741268229
 21
782.6256136180773
 31
0.0
  0
LINE
  5
1383
330
2
100
AcDbEntity
  8
CENTER
  6
CENS
100
AcDbLine
 10
1012.551741268229
 20
786.93279329505
 30
0.0
 11
1044.551741268229
 21
786.93279329505
 31
0.0
  0
LINE
  5
1384
330
2
100
AcDbEntity
  8
0
100
AcDbLine
 10
1039.15174126823
 20
866.7927932950497
 30
0.0
 11
1039.551741268229
 21
867.4856136180778
 31
0.0
  0
LINE
  5
1385
330
2
100
AcDbEntity
  8
0
100
AcDbLine
 10
1039.15174126823
 20
866.7927932950497
 30
0.0
 11
1039.15174126823
 21
876.7927932950497
 31
0.0
  0
LINE
  5
1386
330
2
100
AcDbEntity
  8
0
100
AcDbLine
 10
1033.551741268229
 20
866.7927932950497
 30
0.0
 11
1033.551741268229
 21
876.7927932950497
 31
0.0
  0
LINE
  5
1387
330
2
100
AcDbEntity
  8
0
100
AcDbLine
 10
1033.551741268229
 20
876.7927932950497
 30
0.0
 11
1032.551741268229
 21
876.7927932950497
 31
0.0
  0
LINE
  5
1388
330
2
100
AcDbEntity
  8
0
100
AcDbLine
 10
1032.551741268229
 20
876.7927932950497
 30
0.0
 11
1032.551741268229
 21
866.7927932950497
 31
0.0
  0
LINE
  5
1389
330
2
100
AcDbEntity
  8
0
100
AcDbLine
 10
1032.551741268229
 20
866.7927932950497
 30
0.0
 11
1033.551741268229
 21
866.7927932950497
 31
0.0
  0
LINE
  5
138A
330
2
100
AcDbEntity
  8
0
100
AcDbLine
 10
1033.551741268229
 20
866.7927932950497
 30
0.0
 11
1033.551741268229
 21
876.7927932950497
 31
0.0
  0
LINE
  5
138B
330
2
100
AcDbEntity
  8
0
100
AcDbLine
 10
1039.15174126823
 20
866.7927932950497
 30
0.0
 11
1033.551741268229
 21
866.7927932950497
 31
0.0
  0
LINE
  5
138C
330
2
100
AcDbEntity
  8
0
100
AcDbLine
 10
1039.551741268229
 20
876.0999729720223
 30
0.0
 11
1039.551741268229
 21
867.4856136180778
 31
0.0
  0
LINE
  5
138D
330
2
100
AcDbEntity
  8
0
100
AcDbLine
 10
1033.551741268229
 20
876.7927932950497
 30
0.0
 11
1039.15174126823
 21
876.7927932950497
 31
0.0
  0
LINE
  5
138E
330
2
100
AcDbEntity
  8
0
100
AcDbLine
 10
1039.15174126823
 20
876.7927932950506
 30
0.0
 11
1039.551741268229
 21
876.0999729720223
 31
0.0
  0
LINE
  5
138F
330
2
100
AcDbEntity
  8
CENTER
  6
CENS
100
AcDbLine
 10
1012.551741268229
 20
871.7927932950496
 30
0.0
 11
1044.551741268229
 21
871.7927932950496
 31
0.0
  0
LINE
  5
1390
330
2
100
AcDbEntity
  8
0
100
AcDbLine
 10
1063.57469655512
 20
540.303583839086
 30
0.0
 11
1053.574862418846
 21
540.3611793859663
 31
0.0
  0
ARC
  5
1391
330
2
100
AcDbEntity
  8
0
100
AcDbCircle
 10
1053.551824200094
 20
536.3612457314566
 30
0.0
 40
4.000000000000014
100
AcDbArc
 50
89.67000000001375
 51
179.6699999999877
  0
ARC
  5
1392
330
2
100
AcDbEntity
  8
0
100
AcDbCircle
 10
1063.551658336367
 20
536.3036501845772
 30
0.0
 40
4.000000000000014
100
AcDbArc
 50
359.6699999999876
 51
89.67000000001375
  0
LINE
  5
1393
330
2
100
AcDbEntity
  8
CENTER
  6
CENS
100
AcDbLine
 10
1058.55174126823
 20
545.2283051930471
 30
0.0
 11
1058.55174126823
 21
516.8683791906824
 31
0.0
  0
CIRCLE
  5
1394
330
2
100
AcDbEntity
  8
0
100
AcDbCircle
 10
1058.551741268229
 20
814.3627932950503
 30
0.0
 40
9.0
  0
LINE
  5
1395
330
2
100
AcDbEntity
  8
CENTER
  6
CENS
100
AcDbLine
 10
1058.551741268226
 20
802.4838633960563
 30
0.0
 11
1058.551741268226
 21
826.2417231940444
 31
0.0
  0
LINE
  5
1396
330
2
100
AcDbEntity
  8
CENTER
  6
CENS
100
AcDbLine
 10
1070.43067116722
 20
814.3627932950503
 30
0.0
 11
1046.672811369232
 21
814.3627932950503
 31
0.0
  0
LINE
  5
1397
330
2
100
AcDbEntity
  8
0
100
AcDbLine
 10
1072.55174126823
 20
529.2859053195297
 30
0.0
 11
1065.55174126823
 21
529.2859053195289
 31
0.0
  0
LINE
  5
1398
330
2
100
AcDbEntity
  8
0
100
AcDbLine
 10
1065.55174126823
 20
529.2859053195289
 30
0.0
 11
1065.55174126823
 21
494.2859053195288
 31
0.0
  0
LINE
  5
1399
330
2
100
AcDbEntity
  8
0
100
AcDbLine
 10
1065.55174126823
 20
514.0359053195289
 30
0.0
 11
1055.813936697713
 21
514.0359053195289
 31
0.0
  0
LINE
  5
139A
330
2
100
AcDbEntity
  8
0
100
AcDbLine
 10
1063.55174126823
 20
502.2859053195288
 30
0.0
 11
1052.55174126823
 21
502.2859053195297
 31
0.0
  0
LINE
  5
139B
330
2
100
AcDbEntity
  8
0
100
AcDbLine
 10
1034.05174126823
 20
502.5359053195288
 30
0.0
 11
1034.05174126823
 21
494.2859053195297
 31
0.0
  0
LINE
  5
139C
330
2
100
AcDbEntity
  8
0
100
AcDbLine
 10
1034.05174126823
 20
502.5359053195288
 30
0.0
 11
1028.05174126823
 21
502.5359053195288
 31
0.0
  0
LINE
  5
139D
330
2
100
AcDbEntity
  8
0
100
AcDbLine
 10
1028.05174126823
 20
502.5359053195288
 30
0.0
 11
1028.05174126823
 21
494.2859053195288
 31
0.0
  0
LINE
  5
139E
330
2
100
AcDbEntity
  8
0
100
AcDbLine
 10
1050.55174126823
 20
508.5613155402242
 30
0.0
 11
1050.55174126823
 21
494.2859053195288
 31
0.0
  0
LINE
  5
139F
330
2
100
AcDbEntity
  8
0
100
AcDbLine
 10
1052.55174126823
 20
509.615048880606
 30
0.0
 11
1052.55174126823
 21
494.2859053195288
 31
0.0
  0
LINE
  5
13A0
330
2
100
AcDbEntity
  8
0
100
AcDbLine
 10
1050.55174126823
 20
502.2859053195297
 30
0.0
 11
1034.05174126823
 21
502.2859053195288
 31
0.0
  0
LINE
  5
13A1
330
2
100
AcDbEntity
  8
0
100
AcDbLine
 10
1065.55174126823
 20
503.4406058579087
 30
0.0
 11
1063.55174126823
 21
502.2859053195288
 31
0.0
  0
LINE
  5
13A2
330
2
100
AcDbEntity
  8
0
100
AcDbLine
 10
1063.55174126823
 20
502.2859053195288
 30
0.0
 11
1063.55174126823
 21
494.2859053195288
 31
0.0
  0
LINE
  5
13A3
330
2
100
AcDbEntity
  8
0
100
AcDbLine
 10
1028.05174126823
 20
501.7859053195287
 30
0.0
 11
1023.721614249308
 21
494.2859053195288
 31
0.0
  0
SPLINE
  5
13A4
330
2
100
AcDbEntity
  8
HOJO
100
AcDbSpline
210
0.0
220
0.0
230
1.0
 70
     8
 71
     3
 72
    20
 73
    16
 74
     0
 42
0.0000000001
 43
0.0000000001
 40
1.221331719906463
 40
1.221331719906463
 40
1.221331719906463
 40
1.221331719906463
 40
5.647385924430076
 40
9.759277458584113
 40
14.59638394258456
 40
18.6386056126129
 40
22.25598020257161
 40
26.57819511411361
 40
31.00332353479096
 40
40.39337194914635
 40
45.49899296170218
 40
52.02718752358933
 40
57.17041693382338
 40
65.63449353306062
 40
69.3611614947018
 40
69.3611614947018
 40
69.3611614947018
 40
69.3611614947018
 10
1068.85222382526
 20
534.3504806366991
 30
0.0
 10
1067.485063621668
 20
533.5152074234602
 30
0.0
 10
1065.029391890736
 20
531.9865847778974
 30
0.0
 10
1063.720093462259
 20
527.462242590328
 30
0.0
 10
1062.570184136711
 20
524.0706730958099
 30
0.0
 10
1059.082427724722
 20
520.3969078845657
 30
0.0
 10
1057.410592548359
 20
516.8715477545865
 30
0.0
 10
1055.433345987904
 20
513.3208310570917
 30
0.0
 10
1052.045564675341
 20
507.7317864686373
 30
0.0
 10
1044.521205631026
 20
507.9073629162293
 30
0.0
 10
1037.792866274377
 20
506.7609923827312
 30
0.0
 10
1032.449599728969
 20
505.0423802782506
 30
0.0
 10
1025.450819214583
 20
504.706208993527
 30
0.0
 10
1021.736086415359
 20
499.2202146615717
 30
0.0
 10
1020.414244976563
 20
495.4503081683959
 30
0.0
 10
1020.001572203454
 20
494.2859053195288
 30
0.0
  0
LINE
  5
13A5
330
2
100
AcDbEntity
  8
CENTER
  6
CENS
100
AcDbLine
 10
1344.159086910493
 20
545.2283051929598
 30
0.0
 11
1344.159086910493
 21
478.4382401619122
 31
0.0
  0
LINE
  5
13A6
330
2
100
AcDbEntity
  8
0
100
AcDbLine
 10
1339.423332554503
 20
493.5359053194415
 30
0.0
 11
1351.194320749455
 21
493.5359053194415
 31
0.0
  0
LINE
  5
13A7
330
2
100
AcDbEntity
  8
0
100
AcDbLine
 10
1339.423332554503
 20
495.0359053194414
 30
0.0
 11
1351.194320749455
 21
495.0359053194414
 31
0.0
  0
CIRCLE
  5
13A8
330
2
100
AcDbEntity
  8
0
100
AcDbCircle
 10
1359.159086910493
 20
494.2859053194415
 30
0.0
 40
8.0
  0
LINE
  5
13A9
330
2
100
AcDbEntity
  8
0
100
AcDbLine
 10
1376.359086910492
 20
493.5359053194415
 30
0.0
 11
1376.359086910492
 21
495.0359053194414
 31
0.0
  0
LINE
  5
13AA
330
2
100
AcDbEntity
  8
0
100
AcDbLine
 10
1367.123853071531
 20
493.5359053194415
 30
0.0
 11
1376.359086910492
 21
493.5359053194415
 31
0.0
  0
LINE
  5
13AB
330
2
100
AcDbEntity
  8
0
100
AcDbLine
 10
1367.123853071531
 20
495.0359053194414
 30
0.0
 11
1376.359086910492
 21
495.0359053194414
 31
0.0
  0
LINE
  5
13AC
330
2
100
AcDbEntity
  8
HIDS
100
AcDbLine
 10
1346.659086910493
 20
493.5359053194415
 30
0.0
 11
1346.659086910493
 21
478.9949766360686
 31
0.0
  0
LINE
  5
13AD
330
2
100
AcDbEntity
  8
HIDS
100
AcDbLine
 10
1346.242420243827
 20
493.5359053194415
 30
0.0
 11
1346.242420243827
 21
479.3452820987649
 31
0.0
  0
LINE
  5
13AE
330
2
100
AcDbEntity
  8
HIDS
100
AcDbLine
 10
1342.075753577159
 20
493.5359053194415
 30
0.0
 11
1342.075753577159
 21
484.3751928212295
 31
0.0
  0
LINE
  5
13AF
330
2
100
AcDbEntity
  8
HIDS
100
AcDbLine
 10
1341.659086910493
 20
493.5359053194415
 30
0.0
 11
1341.659086910493
 21
485.1309886076423
 31
0.0
  0
LINE
  5
13B0
330
2
100
AcDbEntity
  8
HIDS
100
AcDbLine
 10
1347.159086910493
 20
499.2859053194415
 30
0.0
 11
1347.159086910493
 21
495.0359053194414
 31
0.0
  0
LINE
  5
13B1
330
2
100
AcDbEntity
  8
HIDS
100
AcDbLine
 10
1341.159086910493
 20
499.2859053194415
 30
0.0
 11
1341.159086910493
 21
495.0359053194414
 31
0.0
  0
LINE
  5
13B2
330
2
100
AcDbEntity
  8
HIDS
100
AcDbLine
 10
1348.409086910493
 20
499.2859053194415
 30
0.0
 11
1348.409086910493
 21
503.9859053194422
 31
0.0
  0
LINE
  5
13B3
330
2
100
AcDbEntity
  8
0
100
AcDbLine
 10
1339.909086910493
 20
503.9859053194422
 30
0.0
 11
1339.909086910493
 21
499.2859053194415
 31
0.0
  0
LINE
  5
13B4
330
2
100
AcDbEntity
  8
HIDS
100
AcDbLine
 10
1346.659086910493
 20
485.2859053194414
 30
0.0
 11
1345.659086910493
 21
484.2859053194414
 31
0.0
  0
LINE
  5
13B5
330
2
100
AcDbEntity
  8
HIDS
100
AcDbLine
 10
1341.659086910493
 20
485.2859053194414
 30
0.0
 11
1342.659086910493
 21
484.2859053194414
 31
0.0
  0
LINE
  5
13B6
330
2
100
AcDbEntity
  8
HIDS
100
AcDbLine
 10
1345.659086910493
 20
484.2859053194414
 30
0.0
 11
1342.659086910493
 21
484.2859053194414
 31
0.0
  0
LINE
  5
13B7
330
2
100
AcDbEntity
  8
HIDS
100
AcDbLine
 10
1346.659086910493
 20
499.2859053194415
 30
0.0
 11
1346.659086910493
 21
495.0359053194414
 31
0.0
  0
LINE
  5
13B8
330
2
100
AcDbEntity
  8
HIDS
100
AcDbLine
 10
1346.242420243827
 20
497.2025719861084
 30
0.0
 11
1346.242420243827
 21
495.0359053194414
 31
0.0
  0
LINE
  5
13B9
330
2
100
AcDbEntity
  8
HIDS
100
AcDbLine
 10
1342.075753577159
 20
497.2025719861084
 30
0.0
 11
1342.075753577159
 21
495.0359053194414
 31
0.0
  0
LINE
  5
13BA
330
2
100
AcDbEntity
  8
HIDS
100
AcDbLine
 10
1341.659086910493
 20
499.2859053194415
 30
0.0
 11
1341.659086910493
 21
495.0359053194414
 31
0.0
  0
LINE
  5
13BB
330
2
100
AcDbEntity
  8
HIDS
100
AcDbLine
 10
1346.659086910493
 20
485.2859053194414
 30
0.0
 11
1341.659086910493
 21
485.2859053194414
 31
0.0
  0
LINE
  5
13BC
330
2
100
AcDbEntity
  8
HIDS
100
AcDbLine
 10
1346.659086910493
 20
497.2025719861084
 30
0.0
 11
1341.659086910493
 21
497.2025719861084
 31
0.0
  0
LINE
  5
13BD
330
2
100
AcDbEntity
  8
0
100
AcDbLine
 10
1339.909086910493
 20
499.2859053194415
 30
0.0
 11
1340.052478106209
 21
499.2859053194415
 31
0.0
  0
LINE
  5
13BE
330
2
100
AcDbEntity
  8
HIDS
100
AcDbLine
 10
1341.659086910493
 20
499.2859053194415
 30
0.0
 11
1342.075753577159
 21
497.2025719861084
 31
0.0
  0
LINE
  5
13BF
330
2
100
AcDbEntity
  8
HIDS
100
AcDbLine
 10
1346.659086910493
 20
499.2859053194415
 30
0.0
 11
1346.242420243827
 21
497.2025719861084
 31
0.0
  0
LINE
  5
13C0
330
2
100
AcDbEntity
  8
0
100
AcDbLine
 10
1339.909086910493
 20
503.9859053194422
 30
0.0
 11
1341.955235597488
 21
503.9859053194422
 31
0.0
  0
LINE
  5
13C1
330
2
100
AcDbEntity
  8
HIDS
100
AcDbLine
 10
1347.889471668223
 20
504.2859053194415
 30
0.0
 11
1342.127865580242
 21
504.2859053194415
 31
0.0
  0
LINE
  5
13C2
330
2
100
AcDbEntity
  8
0
100
AcDbLine
 10
1339.909086910493
 20
503.9859053194422
 30
0.0
 11
1340.428702152763
 21
504.2859053194415
 31
0.0
  0
LINE
  5
13C3
330
2
100
AcDbEntity
  8
HIDS
100
AcDbLine
 10
1347.889471668223
 20
504.2859053194415
 30
0.0
 11
1348.409086910493
 21
503.9859053194422
 31
0.0
  0
LINE
  5
13C4
330
2
100
AcDbEntity
  8
HIDS
100
AcDbLine
 10
1340.052478106209
 20
499.2859053194415
 30
0.0
 11
1349.159086910493
 21
499.2859053194415
 31
0.0
  0
LINE
  5
13C5
330
2
100
AcDbEntity
  8
0
100
AcDbLine
 10
1342.127865580242
 20
504.2859053194415
 30
0.0
 11
1340.428702152763
 21
504.2859053194415
 31
0.0
  0
LINE
  5
13C6
330
2
100
AcDbEntity
  8
HIDS
100
AcDbLine
 10
1341.955235597488
 20
503.9859053194422
 30
0.0
 11
1348.409086910493
 21
503.9859053194422
 31
0.0
  0
LINE
  5
13C7
330
2
100
AcDbEntity
  8
0
100
AcDbLine
 10
1346.659086910493
 20
495.0359053194414
 30
0.0
 11
1346.659086910493
 21
493.5359053194424
 31
0.0
  0
LINE
  5
13C8
330
2
100
AcDbEntity
  8
HOJO
100
AcDbLine
 10
1346.242420243827
 20
495.0359053194414
 30
0.0
 11
1346.242420243827
 21
493.5359053194424
 31
0.0
  0
LINE
  5
13C9
330
2
100
AcDbEntity
  8
HOJO
100
AcDbLine
 10
1342.075753577159
 20
495.0359053194414
 30
0.0
 11
1342.075753577159
 21
493.5359053194424
 31
0.0
  0
LINE
  5
13CA
330
2
100
AcDbEntity
  8
0
100
AcDbLine
 10
1341.659086910493
 20
495.0359053194414
 30
0.0
 11
1341.659086910493
 21
493.5359053194415
 31
0.0
  0
LINE
  5
13CB
330
2
100
AcDbEntity
  8
HIDS
100
AcDbLine
 10
1341.659086910493
 20
493.5359053194415
 30
0.0
 11
1341.659086910493
 21
485.2859053194414
 31
0.0
  0
LINE
  5
13CC
330
2
100
AcDbEntity
  8
HIDS
100
AcDbLine
 10
1342.075753577159
 20
493.5359053194415
 30
0.0
 11
1342.075753577159
 21
484.8692386527754
 31
0.0
  0
CIRCLE
  5
13CD
330
2
100
AcDbEntity
  8
0
100
AcDbCircle
 10
1359.159086910493
 20
494.2859053194415
 30
0.0
 40
19.75
  0
ARC
  5
13CE
330
2
100
AcDbEntity
  8
0
100
AcDbCircle
 10
1359.159086910493
 20
494.2859053194415
 30
0.0
 40
9.154700538379415
100
AcDbArc
 50
4.699230675929916
 51
175.30076932407
  0
ARC
  5
13CF
330
2
100
AcDbEntity
  8
0
100
AcDbCircle
 10
1359.159086910493
 20
494.2859053194415
 30
0.0
 40
9.154700538379415
100
AcDbArc
 50
184.6992306759299
 51
355.30076932407
  0
LINE
  5
13D0
330
2
100
AcDbEntity
  8
0
100
AcDbLine
 10
1339.284087933946
 20
540.361179385879
 30
0.0
 11
1349.034087933945
 21
540.361179385879
 31
0.0
  0
ARC
  5
13D1
330
2
100
AcDbEntity
  8
0
100
AcDbCircle
 10
1339.284087933946
 20
536.111179385879
 30
0.0
 40
4.25
100
AcDbArc
 50
90.0
 51
177.6437927484533
  0
ARC
  5
13D2
330
2
100
AcDbEntity
  8
0
100
AcDbCircle
 10
1348.784087933946
 20
536.111179385879
 30
0.0
 40
4.25
100
AcDbArc
 50
2.356207251546686
 51
90.0
  0
LINE
  5
13D3
330
2
100
AcDbEntity
  8
0
100
AcDbLine
 10
104.316538013611
 20
536.2859053195261
 30
0.0
 11
104.316538013611
 21
452.2859053195324
 31
0.0
  0
LINE
  5
13D4
330
2
100
AcDbEntity
  8
0
100
AcDbLine
 10
102.316538013611
 20
534.355725579242
 30
0.0
 11
102.3165380136128
 21
454.2160850598165
 31
0.0
  0
LINE
  5
13D5
330
2
100
AcDbEntity
  8
0
100
AcDbLine
 10
138.3165380136119
 20
544.1636910920724
 30
0.0
 11
138.3165380136128
 21
444.4081195469861
 31
0.0
  0
LINE
  5
13D6
330
2
100
AcDbEntity
  8
0
100
AcDbLine
 10
102.3165380136128
 20
454.2160850598165
 30
0.0
 11
104.3165380136147
 21
452.2859053195297
 31
0.0
  0
LINE
  5
13D7
330
2
100
AcDbEntity
  8
0
100
AcDbLine
 10
98.31653801361472
 20
454.2859053195297
 30
0.0
 11
102.3165380136128
 21
454.2160850598165
 31
0.0
  0
LINE
  5
13D8
330
2
100
AcDbEntity
  8
0
100
AcDbLine
 10
153.3165380136147
 20
443.2859053195297
 30
0.0
 11
139.3078114781151
 21
443.4081576239213
 31
0.0
  0
LINE
  5
13D9
330
2
100
AcDbEntity
  8
0
100
AcDbLine
 10
104.3165380136147
 20
452.2859053195297
 30
0.0
 11
131.3165380136147
 21
452.1288239146333
 31
0.0
  0
LINE
  5
13DA
330
2
100
AcDbEntity
  8
0
100
AcDbLine
 10
102.316538013611
 20
534.355725579242
 30
0.0
 11
104.316538013611
 21
536.2859053195261
 31
0.0
  0
LINE
  5
13DB
330
2
100
AcDbEntity
  8
0
100
AcDbLine
 10
98.31653801361472
 20
534.2859053195288
 30
0.0
 11
102.316538013611
 21
534.355725579242
 31
0.0
  0
LINE
  5
13DC
330
2
100
AcDbEntity
  8
0
100
AcDbLine
 10
153.3165380136147
 20
545.2859053195289
 30
0.0
 11
139.3078114781151
 21
545.1636530151363
 31
0.0
  0
LINE
  5
13DD
330
2
100
AcDbEntity
  8
0
100
AcDbLine
 10
103.3166903409314
 20
536.2800883759327
 30
0.0
 11
131.3165380136147
 21
536.4429867244243
 31
0.0
  0
ARC
  5
13DE
330
2
100
AcDbEntity
  8
0
100
AcDbCircle
 10
139.3165380136147
 20
544.1636910920724
 30
0.0
 40
1.0
100
AcDbArc
 50
90.49999999996549
 51
180.0
  0
ARC
  5
13DF
330
2
100
AcDbEntity
  8
0
100
AcDbCircle
 10
139.3165380136129
 20
444.4081195469861
 30
0.0
 40
1.0
100
AcDbArc
 50
180.0
 51
269.5000000000345
  0
LINE
  5
13E0
330
2
100
AcDbEntity
  8
0
100
AcDbLine
 10
98.31653801361472
 20
534.2859053195288
 30
0.0
 11
98.31653801361472
 21
454.2859053195297
 31
0.0
  0
LINE
  5
13E1
330
2
100
AcDbEntity
  8
0
100
AcDbLine
 10
131.7165380136143
 20
531.7159053195291
 30
0.0
 11
131.3165380136147
 21
532.4087256425573
 31
0.0
  0
LINE
  5
13E2
330
2
100
AcDbEntity
  8
0
100
AcDbLine
 10
131.7165380136143
 20
531.7159053195291
 30
0.0
 11
131.7165380136143
 21
541.7159053195291
 31
0.0
  0
LINE
  5
13E3
330
2
100
AcDbEntity
  8
0
100
AcDbLine
 10
137.3165380136147
 20
531.7159053195291
 30
0.0
 11
137.3165380136147
 21
541.7159053195291
 31
0.0
  0
LINE
  5
13E4
330
2
100
AcDbEntity
  8
0
100
AcDbLine
 10
137.3165380136147
 20
541.7159053195291
 30
0.0
 11
138.3165380136147
 21
541.7159053195291
 31
0.0
  0
LINE
  5
13E5
330
2
100
AcDbEntity
  8
0
100
AcDbLine
 10
138.3165380136147
 20
541.7159053195291
 30
0.0
 11
138.3165380136147
 21
531.7159053195291
 31
0.0
  0
LINE
  5
13E6
330
2
100
AcDbEntity
  8
0
100
AcDbLine
 10
138.3165380136147
 20
531.7159053195291
 30
0.0
 11
137.3165380136147
 21
531.7159053195291
 31
0.0
  0
LINE
  5
13E7
330
2
100
AcDbEntity
  8
0
100
AcDbLine
 10
137.3165380136147
 20
531.7159053195291
 30
0.0
 11
137.3165380136147
 21
541.7159053195291
 31
0.0
  0
LINE
  5
13E8
330
2
100
AcDbEntity
  8
0
100
AcDbLine
 10
131.7165380136143
 20
531.7159053195291
 30
0.0
 11
137.3165380136147
 21
531.7159053195291
 31
0.0
  0
LINE
  5
13E9
330
2
100
AcDbEntity
  8
0
100
AcDbLine
 10
131.3165380136147
 20
541.0230849965018
 30
0.0
 11
131.3165380136147
 21
532.4087256425573
 31
0.0
  0
LINE
  5
13EA
330
2
100
AcDbEntity
  8
0
100
AcDbLine
 10
137.3165380136147
 20
541.7159053195291
 30
0.0
 11
131.7165380136143
 21
541.7159053195291
 31
0.0
  0
LINE
  5
13EB
330
2
100
AcDbEntity
  8
0
100
AcDbLine
 10
131.7165380136143
 20
541.7159053195291
 30
0.0
 11
131.3165380136147
 21
541.0230849965018
 31
0.0
  0
LINE
  5
13EC
330
2
100
AcDbEntity
  8
CENTER
  6
CENS
100
AcDbLine
 10
158.3165380136128
 20
536.7159053195291
 30
0.0
 11
126.3165380136147
 21
536.7159053195291
 31
0.0
  0
LINE
  5
13ED
330
2
100
AcDbEntity
  8
0
100
AcDbLine
 10
131.7165380136143
 20
456.8559053195293
 30
0.0
 11
131.3165380136147
 21
456.1630849965012
 31
0.0
  0
LINE
  5
13EE
330
2
100
AcDbEntity
  8
0
100
AcDbLine
 10
131.7165380136143
 20
456.8559053195293
 30
0.0
 11
131.7165380136143
 21
446.8559053195294
 31
0.0
  0
LINE
  5
13EF
330
2
100
AcDbEntity
  8
0
100
AcDbLine
 10
137.3165380136147
 20
456.8559053195293
 30
0.0
 11
137.3165380136147
 21
446.8559053195294
 31
0.0
  0
LINE
  5
13F0
330
2
100
AcDbEntity
  8
0
100
AcDbLine
 10
137.3165380136147
 20
446.8559053195294
 30
0.0
 11
138.3165380136147
 21
446.8559053195294
 31
0.0
  0
LINE
  5
13F1
330
2
100
AcDbEntity
  8
0
100
AcDbLine
 10
138.3165380136147
 20
446.8559053195294
 30
0.0
 11
138.3165380136147
 21
456.8559053195293
 31
0.0
  0
LINE
  5
13F2
330
2
100
AcDbEntity
  8
0
100
AcDbLine
 10
138.3165380136147
 20
456.8559053195293
 30
0.0
 11
137.3165380136147
 21
456.8559053195293
 31
0.0
  0
LINE
  5
13F3
330
2
100
AcDbEntity
  8
0
100
AcDbLine
 10
137.3165380136147
 20
456.8559053195293
 30
0.0
 11
137.3165380136147
 21
446.8559053195294
 31
0.0
  0
LINE
  5
13F4
330
2
100
AcDbEntity
  8
0
100
AcDbLine
 10
131.7165380136143
 20
456.8559053195293
 30
0.0
 11
137.3165380136147
 21
456.8559053195293
 31
0.0
  0
LINE
  5
13F5
330
2
100
AcDbEntity
  8
0
100
AcDbLine
 10
131.3165380136147
 20
447.5487256425567
 30
0.0
 11
131.3165380136147
 21
456.1630849965012
 31
0.0
  0
LINE
  5
13F6
330
2
100
AcDbEntity
  8
0
100
AcDbLine
 10
137.3165380136147
 20
446.8559053195294
 30
0.0
 11
131.7165380136143
 21
446.8559053195294
 31
0.0
  0
LINE
  5
13F7
330
2
100
AcDbEntity
  8
0
100
AcDbLine
 10
131.7165380136143
 20
446.8559053195294
 30
0.0
 11
131.3165380136147
 21
447.5487256425567
 31
0.0
  0
LINE
  5
13F8
330
2
100
AcDbEntity
  8
CENTER
  6
CENS
100
AcDbLine
 10
158.3165380136128
 20
451.8559053195294
 30
0.0
 11
126.3165380136147
 21
451.8559053195294
 31
0.0
  0
LINE
  5
13F9
330
2
100
AcDbEntity
  8
0
100
AcDbLine
 10
107.2935827267251
 20
540.303583839086
 30
0.0
 11
117.2934168629985
 21
540.3611793859663
 31
0.0
  0
ARC
  5
13FA
330
2
100
AcDbEntity
  8
0
100
AcDbCircle
 10
117.3164550817514
 20
536.3612457314566
 30
0.0
 40
4.000000000000014
100
AcDbArc
 50
0.3300000000122996
 51
90.32999999998624
  0
ARC
  5
13FB
330
2
100
AcDbEntity
  8
0
100
AcDbCircle
 10
107.316620945478
 20
536.3036501845772
 30
0.0
 40
4.000000000000014
100
AcDbArc
 50
90.32999999998624
 51
180.3299999999862
  0
LINE
  5
13FC
330
2
100
AcDbEntity
  8
CENTER
  6
CENS
100
AcDbLine
 10
112.3165380136147
 20
545.2283051930471
 30
0.0
 11
112.3165380136147
 21
516.8683791906824
 31
0.0
  0
LINE
  5
13FD
330
2
100
AcDbEntity
  8
0
100
AcDbLine
 10
1066.55174126823
 20
452.2859053195297
 30
0.0
 11
1066.55174126823
 21
494.2859053195288
 31
0.0
  0
LINE
  5
13FE
330
2
100
AcDbEntity
  8
0
100
AcDbLine
 10
1068.551741268232
 20
454.2160850598165
 30
0.0
 11
1068.551741268232
 21
494.2859053195288
 31
0.0
  0
LINE
  5
13FF
330
2
100
AcDbEntity
  8
HIDS
100
AcDbLine
 10
1349.159086910493
 20
499.2859053194415
 30
0.0
 11
1349.159086910493
 21
511.3171266496937
 31
0.0
  0
CIRCLE
  5
1400
330
2
100
AcDbEntity
  8
0
100
AcDbCircle
 10
1359.159086910493
 20
494.2859053194415
 30
0.0
 40
29.0
  0
TEXT
  5
1402
330
2
100
AcDbEntity
  8
TITLE
100
AcDbText
 10
466.6557349464365
 20
828.1961847837068
 30
0.0
 40
10.0
  1
AFCZ32S-40~60M750S1
100
AcDbText
  0
TEXT
  5
1403
330
2
100
AcDbEntity
  8
TITLE
100
AcDbText
 10
466.6557349464365
 20
813.196184783707
 30
0.0
 40
10.0
  1
AFCZ32S-40~60L750S1
100
AcDbText
  0
LINE
  5
19C9
330
2
100
AcDbEntity
  8
0
100
AcDbLine
 10
249.7865600136133
 20
436.7859053195287
 30
0.0
 11
249.7865600136133
 21
551.7859053195287
 31
0.0
  0
ARC
  5
19CA
330
2
100
AcDbEntity
  8
0
100
AcDbCircle
 10
259.7865600136133
 20
551.7859053195287
 30
0.0
 40
10.0
100
AcDbArc
 50
90.0
 51
175.219808152766
  0
ARC
  5
19CB
330
2
100
AcDbEntity
  8
0
100
AcDbCircle
 10
263.7865600136133
 20
553.7859053195287
 30
0.0
 40
8.0
100
AcDbArc
 50
80.57047887833093
 51
90.0
  0
ARC
  5
19CC
330
2
100
AcDbEntity
  8
0
100
AcDbCircle
 10
281.4806603897345
 20
660.3265961933901
 30
0.0
 40
100.0
100
AcDbArc
 50
260.5704788783309
 51
274.6677226878297
  0
LINE
  5
19CD
330
2
100
AcDbEntity
  8
0
100
AcDbLine
 10
263.7865600136133
 20
561.7859053195287
 30
0.0
 11
259.7865600136133
 21
561.7859053195287
 31
0.0
  0
LINE
  5
19CE
330
2
100
AcDbEntity
  8
0
100
AcDbLine
 10
366.2865600136106
 20
551.7859053195287
 30
0.0
 11
366.2865600136115
 21
558.9427112965812
 31
0.0
  0
ARC
  5
19CF
330
2
100
AcDbEntity
  8
0
100
AcDbCircle
 10
374.7865600136133
 20
551.7859053195287
 30
0.0
 40
10.0
100
AcDbArc
 50
0.0
 51
90.0
  0
LINE
  5
19D0
330
2
100
AcDbEntity
  8
0
100
AcDbLine
 10
374.7865600136133
 20
561.7859053195287
 30
0.0
 11
370.7865600136133
 21
561.7859053195287
 31
0.0
  0
ARC
  5
19D1
330
2
100
AcDbEntity
  8
0
100
AcDbCircle
 10
370.7865600136133
 20
553.7859053195287
 30
0.0
 40
8.0
100
AcDbArc
 50
90.0
 51
99.42952112166906
  0
LINE
  5
19D2
330
2
100
AcDbEntity
  8
CENTER
100
AcDbLine
 10
385.5365600136096
 20
551.7859053195305
 30
0.0
 11
364.0365600136106
 21
551.7859053195287
 31
0.0
  0
ARC
  5
19D3
330
2
100
AcDbEntity
  8
0
100
AcDbCircle
 10
374.7865600136096
 20
551.7859053195305
 30
0.0
 40
8.5
100
AcDbArc
 50
180.0
 51
270.0
  0
LINE
  5
19D4
330
2
100
AcDbEntity
  8
0
100
AcDbLine
 10
384.7865600136133
 20
547.7859053195287
 30
0.0
 11
384.7865600136133
 21
551.7859053195287
 31
0.0
  0
ARC
  5
19D5
330
2
100
AcDbEntity
  8
0
100
AcDbCircle
 10
376.7865600136133
 20
547.7859053195287
 30
0.0
 40
8.0
100
AcDbArc
 50
350.5704788783309
 51
0.0
  0
ARC
  5
19D6
330
2
100
AcDbEntity
  8
0
100
AcDbCircle
 10
483.3272508874765
 20
530.0918049434147
 30
0.0
 40
100.0
100
AcDbArc
 50
170.5704788783309
 51
184.6677226878297
  0
ARC
  5
19D7
330
2
100
AcDbEntity
  8
0
100
AcDbCircle
 10
381.9433659906676
 20
541.2859053195306
 30
0.0
 40
2.0
100
AcDbArc
 50
353.6993214717072
 51
90.0
  0
CIRCLE
  5
19D8
330
2
100
AcDbEntity
  8
0
100
AcDbCircle
 10
377.786560013606
 20
537.285905319525
 30
0.0
 40
4.0
  0
CIRCLE
  5
19D9
330
2
100
AcDbEntity
  8
HOJO
100
AcDbCircle
 10
377.786560013606
 20
537.285905319525
 30
0.0
 40
2.5
  0
CIRCLE
  5
19DA
330
2
100
AcDbEntity
  8
0
100
AcDbCircle
 10
377.786560013606
 20
537.285905319525
 30
0.0
 40
3.5
  0
CIRCLE
  5
19DB
330
2
100
AcDbEntity
  8
0
100
AcDbCircle
 10
377.786560013606
 20
537.285905319525
 30
0.0
 40
2.0
  0
LINE
  5
19DC
330
2
100
AcDbEntity
  8
0
100
AcDbLine
 10
374.7865600136106
 20
543.2859053195305
 30
0.0
 11
381.9433659906676
 21
543.2859053195305
 31
0.0
  0
ARC
  5
19DD
330
2
100
AcDbEntity
  8
0
100
AcDbCircle
 10
259.7865600136133
 20
436.7859053195287
 30
0.0
 40
10.0
100
AcDbArc
 50
184.7801918472339
 51
270.0
  0
ARC
  5
19DE
330
2
100
AcDbEntity
  8
0
100
AcDbCircle
 10
263.7865600136133
 20
434.7859053195287
 30
0.0
 40
8.0
100
AcDbArc
 50
270.0
 51
279.4295211216691
  0
ARC
  5
19DF
330
2
100
AcDbEntity
  8
0
100
AcDbCircle
 10
281.4806603897272
 20
328.2452144456655
 30
0.0
 40
100.0
100
AcDbArc
 50
85.3322773121703
 51
99.42952112166906
  0
LINE
  5
19E0
330
2
100
AcDbEntity
  8
0
100
AcDbLine
 10
263.7865600136133
 20
426.7859053195287
 30
0.0
 11
259.7865600136133
 21
426.7859053195287
 31
0.0
  0
LINE
  5
19E1
330
2
100
AcDbEntity
  8
0
100
AcDbLine
 10
366.2865600136115
 20
436.7859053195306
 30
0.0
 11
366.2865600136115
 21
429.6290993424753
 31
0.0
  0
ARC
  5
19E2
330
2
100
AcDbEntity
  8
0
100
AcDbCircle
 10
374.7865600136133
 20
436.7859053195287
 30
0.0
 40
10.0
100
AcDbArc
 50
270.0
 51
0.0
  0
ARC
  5
19E3
330
2
100
AcDbEntity
  8
0
100
AcDbCircle
 10
374.7865600136115
 20
436.7859053195287
 30
0.0
 40
8.5
100
AcDbArc
 50
90.0
 51
180.0
  0
CIRCLE
  5
19E4
330
2
100
AcDbEntity
  8
HOJO
100
AcDbCircle
 10
377.7865600136105
 20
451.2859053195324
 30
0.0
 40
2.5
  0
CIRCLE
  5
19E5
330
2
100
AcDbEntity
  8
0
100
AcDbCircle
 10
377.7865600136105
 20
451.2859053195324
 30
0.0
 40
2.0
  0
CIRCLE
  5
19E6
330
2
100
AcDbEntity
  8
0
100
AcDbCircle
 10
377.7865600136105
 20
451.2859053195324
 30
0.0
 40
3.5
  0
CIRCLE
  5
19E7
330
2
100
AcDbEntity
  8
0
100
AcDbCircle
 10
377.7865600136105
 20
451.2859053195324
 30
0.0
 40
4.0
  0
LINE
  5
19E8
330
2
100
AcDbEntity
  8
0
100
AcDbLine
 10
374.7865600136115
 20
445.2859053195287
 30
0.0
 11
381.9433659906676
 21
445.2859053195306
 31
0.0
  0
LINE
  5
19E9
330
2
100
AcDbEntity
  8
0
100
AcDbLine
 10
384.7865600136133
 20
436.7859053195287
 30
0.0
 11
384.7865600136133
 21
440.7859053195287
 31
0.0
  0
ARC
  5
19EA
330
2
100
AcDbEntity
  8
0
100
AcDbCircle
 10
376.7865600136133
 20
440.7859053195287
 30
0.0
 40
8.0
100
AcDbArc
 50
0.0
 51
9.429521121669067
  0
LINE
  5
19EB
330
2
100
AcDbEntity
  8
0
100
AcDbLine
 10
374.7865600136133
 20
426.7859053195287
 30
0.0
 11
370.7865600136133
 21
426.7859053195287
 31
0.0
  0
ARC
  5
19EC
330
2
100
AcDbEntity
  8
0
100
AcDbCircle
 10
370.7865600136133
 20
434.7859053195287
 30
0.0
 40
8.0
100
AcDbArc
 50
260.5704788783309
 51
270.0
  0
ARC
  5
19ED
330
2
100
AcDbEntity
  8
0
100
AcDbCircle
 10
355.2865600136133
 20
456.2859053195287
 30
0.0
 40
15.0
100
AcDbArc
 50
270.0
 51
0.0
  0
ARC
  5
19EE
330
2
100
AcDbEntity
  8
0
100
AcDbCircle
 10
355.2865600136133
 20
456.2859053195287
 30
0.0
 40
17.0
100
AcDbArc
 50
270.0
 51
0.0
  0
ARC
  5
19EF
330
2
100
AcDbEntity
  8
0
100
AcDbCircle
 10
355.2865600136133
 20
532.2859053195287
 30
0.0
 40
17.0
100
AcDbArc
 50
0.0
 51
90.0
  0
ARC
  5
19F0
330
2
100
AcDbEntity
  8
0
100
AcDbCircle
 10
355.2865600136133
 20
532.2859053195287
 30
0.0
 40
15.0
100
AcDbArc
 50
0.0
 51
90.0
  0
ARC
  5
19F1
330
2
100
AcDbEntity
  8
0
100
AcDbCircle
 10
279.2865600136133
 20
456.2859053195287
 30
0.0
 40
15.0
100
AcDbArc
 50
180.0
 51
270.0
  0
ARC
  5
19F2
330
2
100
AcDbEntity
  8
0
100
AcDbCircle
 10
279.2865600136133
 20
456.2859053195287
 30
0.0
 40
17.0
100
AcDbArc
 50
180.0
 51
270.0
  0
CIRCLE
  5
19F3
330
2
100
AcDbEntity
  8
0
100
AcDbCircle
 10
317.2865600136133
 20
494.2859053195287
 30
0.0
 40
45.0
  0
CIRCLE
  5
19F4
330
2
100
AcDbEntity
  8
0
100
AcDbCircle
 10
317.2865600136133
 20
494.2859053195287
 30
0.0
 40
44.5
  0
CIRCLE
  5
19F5
330
2
100
AcDbEntity
  8
0
100
AcDbCircle
 10
317.2865600136133
 20
494.2859053195287
 30
0.0
 40
42.5
  0
ARC
  5
19F6
330
2
100
AcDbEntity
  8
0
100
AcDbCircle
 10
279.2865600136133
 20
532.2859053195287
 30
0.0
 40
15.0
100
AcDbArc
 50
90.0
 51
180.0
  0
ARC
  5
19F7
330
2
100
AcDbEntity
  8
0
100
AcDbCircle
 10
279.2865600136133
 20
532.2859053195287
 30
0.0
 40
17.0
100
AcDbArc
 50
90.0
 51
180.0
  0
LINE
  5
19F8
330
2
100
AcDbEntity
  8
0
100
AcDbLine
 10
262.2865600136133
 20
456.2859053195287
 30
0.0
 11
262.2865600136133
 21
532.2859053195287
 31
0.0
  0
LINE
  5
19F9
330
2
100
AcDbEntity
  8
0
100
AcDbLine
 10
264.2865600136133
 20
456.2859053195287
 30
0.0
 11
264.2865600136133
 21
532.2859053195287
 31
0.0
  0
CIRCLE
  5
19FA
330
2
100
AcDbEntity
  8
0
100
AcDbCircle
 10
317.2865600136133
 20
494.2859053195287
 30
0.0
 40
36.57739999999999
  0
CIRCLE
  5
19FB
330
2
100
AcDbEntity
  8
0
100
AcDbCircle
 10
317.2865600136133
 20
494.2859053195287
 30
0.0
 40
41.9226
  0
CIRCLE
  5
19FC
330
2
100
AcDbEntity
  8
0
100
AcDbCircle
 10
317.2865600136133
 20
494.2859053195287
 30
0.0
 40
36.0
  0
LINE
  5
19FD
330
2
100
AcDbEntity
  8
0
100
AcDbLine
 10
279.2865600136133
 20
549.2859053195287
 30
0.0
 11
355.2865600136133
 21
549.2859053195287
 31
0.0
  0
LINE
  5
19FE
330
2
100
AcDbEntity
  8
0
100
AcDbLine
 10
279.2865600136133
 20
547.2859053195287
 30
0.0
 11
355.2865600136133
 21
547.2859053195287
 31
0.0
  0
LINE
  5
19FF
330
2
100
AcDbEntity
  8
0
100
AcDbLine
 10
355.2865600136133
 20
439.2859053195287
 30
0.0
 11
279.2865600136133
 21
439.2859053195287
 31
0.0
  0
LINE
  5
1A00
330
2
100
AcDbEntity
  8
0
100
AcDbLine
 10
355.2865600136133
 20
441.2859053195287
 30
0.0
 11
279.2865600136133
 21
441.2859053195287
 31
0.0
  0
LINE
  5
1A01
330
2
100
AcDbEntity
  8
0
100
AcDbLine
 10
372.2865600136133
 20
532.2859053195287
 30
0.0
 11
372.2865600136133
 21
456.2859053195287
 31
0.0
  0
LINE
  5
1A02
330
2
100
AcDbEntity
  8
0
100
AcDbLine
 10
370.2865600136133
 20
532.2859053195287
 30
0.0
 11
370.2865600136133
 21
456.2859053195287
 31
0.0
  0
LINE
  5
1A03
330
2
100
AcDbEntity
  8
0
100
AcDbLine
 10
367.3073752937848
 20
544.3067205997002
 30
0.0
 11
365.8931617314115
 21
542.8925070373269
 31
0.0
  0
LINE
  5
1A04
330
2
100
AcDbEntity
  8
0
100
AcDbLine
 10
367.3073752937848
 20
444.2650900393572
 30
0.0
 11
365.8931617314115
 21
445.6793036017305
 31
0.0
  0
LINE
  5
1A05
330
2
100
AcDbEntity
  8
0
100
AcDbLine
 10
267.2657447334418
 20
544.3067205997002
 30
0.0
 11
268.6799582958151
 21
542.8925070373269
 31
0.0
  0
LINE
  5
1A06
330
2
100
AcDbEntity
  8
0
100
AcDbLine
 10
267.2657447334418
 20
444.2650900393572
 30
0.0
 11
268.6799582958151
 21
445.6793036017305
 31
0.0
  0
LINE
  5
1A07
330
2
100
AcDbEntity
  8
CENTER
100
AcDbLine
 10
374.7865600136151
 20
562.5359053195251
 30
0.0
 11
374.7865600136133
 21
541.0359053195269
 31
0.0
  0
LINE
  5
1A08
330
2
100
AcDbEntity
  8
CENTER
100
AcDbLine
 10
385.5365600136096
 20
436.7859053195269
 30
0.0
 11
364.0365600136106
 21
436.7859053195287
 31
0.0
  0
LINE
  5
1A09
330
2
100
AcDbEntity
  8
CENTER
100
AcDbLine
 10
374.7865600136151
 20
426.0359053195323
 30
0.0
 11
374.7865600136133
 21
447.5359053195323
 31
0.0
  0
LINE
  5
1A0A
330
2
100
AcDbEntity
  8
CENTER
100
AcDbLine
 10
377.7865600136051
 20
543.6759144881424
 30
0.0
 11
377.7865600136051
 21
530.8958961509095
 31
0.0
  0
LINE
  5
1A0B
330
2
100
AcDbEntity
  8
CENTER
100
AcDbLine
 10
371.3965508449887
 20
537.285905319525
 30
0.0
 11
384.1765691822215
 21
537.285905319525
 31
0.0
  0
LINE
  5
1A0C
330
2
100
AcDbEntity
  8
CENTER
100
AcDbLine
 10
377.7865600136051
 20
444.8958961509169
 30
0.0
 11
377.7865600136051
 21
457.6759144881497
 31
0.0
  0
LINE
  5
1A0D
330
2
100
AcDbEntity
  8
CENTER
100
AcDbLine
 10
371.3965508449887
 20
451.2859053195324
 30
0.0
 11
384.1765691822215
 21
451.2859053195324
 31
0.0
  0
CIRCLE
  5
1A0E
330
2
100
AcDbEntity
  8
0
100
AcDbCircle
 10
374.7865600136133
 20
551.7859053195305
 30
0.0
 40
5.63397459621558
  0
CIRCLE
  5
1A0F
330
2
100
AcDbEntity
  8
0
100
AcDbCircle
 10
374.7865600136133
 20
551.7859053195305
 30
0.0
 40
6.5
  0
LINE
  5
1A10
330
2
100
AcDbEntity
  8
0
100
AcDbLine
 10
377.7865600136133
 20
550.0538545119606
 30
0.0
 11
377.7865600136133
 21
553.5179561270987
 31
0.0
  0
LINE
  5
1A11
330
2
100
AcDbEntity
  8
0
100
AcDbLine
 10
371.7865600136133
 20
553.5179561270987
 30
0.0
 11
371.7865600136133
 21
550.0538545119606
 31
0.0
  0
LINE
  5
1A12
330
2
100
AcDbEntity
  8
0
100
AcDbLine
 10
374.7865600136133
 20
548.3218037043924
 30
0.0
 11
377.7865600136133
 21
550.0538545119606
 31
0.0
  0
LINE
  5
1A13
330
2
100
AcDbEntity
  8
0
100
AcDbLine
 10
371.7865600136133
 20
550.0538545119606
 30
0.0
 11
374.7865600136133
 21
548.3218037043924
 31
0.0
  0
LINE
  5
1A14
330
2
100
AcDbEntity
  8
0
100
AcDbLine
 10
371.7865600136133
 20
553.5179561270987
 30
0.0
 11
374.7865600136133
 21
555.2500069346686
 31
0.0
  0
LINE
  5
1A15
330
2
100
AcDbEntity
  8
0
100
AcDbLine
 10
374.7865600136133
 20
555.2500069346669
 30
0.0
 11
377.7865600136133
 21
553.5179561270987
 31
0.0
  0
CIRCLE
  5
1A16
330
2
100
AcDbEntity
  8
0
100
AcDbCircle
 10
374.7865600136133
 20
436.7859053195287
 30
0.0
 40
5.63397459621558
  0
CIRCLE
  5
1A17
330
2
100
AcDbEntity
  8
0
100
AcDbCircle
 10
374.7865600136133
 20
436.7859053195287
 30
0.0
 40
6.5
  0
LINE
  5
1A18
330
2
100
AcDbEntity
  8
0
100
AcDbLine
 10
377.7865600136133
 20
435.0538545119605
 30
0.0
 11
377.7865600136133
 21
438.5179561270969
 31
0.0
  0
LINE
  5
1A19
330
2
100
AcDbEntity
  8
0
100
AcDbLine
 10
371.7865600136133
 20
438.5179561270969
 30
0.0
 11
371.7865600136133
 21
435.0538545119587
 31
0.0
  0
LINE
  5
1A1A
330
2
100
AcDbEntity
  8
0
100
AcDbLine
 10
374.7865600136133
 20
433.3218037043906
 30
0.0
 11
377.7865600136133
 21
435.0538545119605
 31
0.0
  0
LINE
  5
1A1B
330
2
100
AcDbEntity
  8
0
100
AcDbLine
 10
371.7865600136133
 20
435.0538545119587
 30
0.0
 11
374.7865600136133
 21
433.3218037043906
 31
0.0
  0
LINE
  5
1A1C
330
2
100
AcDbEntity
  8
0
100
AcDbLine
 10
371.7865600136133
 20
438.5179561270969
 30
0.0
 11
374.7865600136133
 21
440.2500069346668
 31
0.0
  0
LINE
  5
1A1D
330
2
100
AcDbEntity
  8
0
100
AcDbLine
 10
374.7865600136133
 20
440.2500069346668
 30
0.0
 11
377.7865600136133
 21
438.5179561270969
 31
0.0
  0
ARC
  5
1A1E
330
2
100
AcDbEntity
  8
0
100
AcDbCircle
 10
317.2865600136133
 20
494.2859053195287
 30
0.0
 40
16.0
100
AcDbArc
 50
108.2099568642858
 51
71.79004313571411
  0
LINE
  5
1A1F
330
2
100
AcDbEntity
  8
0
100
AcDbLine
 10
312.2865600136133
 20
513.585908319529
 30
0.0
 11
312.2865600136133
 21
509.4845894730996
 31
0.0
  0
LINE
  5
1A20
330
2
100
AcDbEntity
  8
0
100
AcDbLine
 10
322.2865600136133
 20
513.585908319529
 30
0.0
 11
322.2865600136133
 21
509.4845894730996
 31
0.0
  0
LINE
  5
1A21
330
2
100
AcDbEntity
  8
0
100
AcDbLine
 10
312.2865600136133
 20
513.585908319529
 30
0.0
 11
322.2865600136133
 21
513.585908319529
 31
0.0
  0
CIRCLE
  5
1A22
330
2
100
AcDbEntity
  8
0
100
AcDbCircle
 10
317.2865600136133
 20
494.2859053195287
 30
0.0
 40
24.49999999582681
  0
ARC
  5
1A23
330
2
100
AcDbEntity
  8
0
100
AcDbCircle
 10
317.2865600136133
 20
494.2859053195287
 30
0.0
 40
17.15469399582682
100
AcDbArc
 50
106.9457086470001
 51
73.05429135299984
  0
ARC
  5
1A24
330
2
100
AcDbEntity
  8
0
100
AcDbCircle
 10
317.2865600136133
 20
221.7859053195278
 30
0.0
 40
340.0
100
AcDbArc
 50
85.3322773121703
 51
94.66772268782973
  0
ARC
  5
1A25
330
2
100
AcDbEntity
  8
0
100
AcDbCircle
 10
353.092459637492
 20
660.3265961933901
 30
0.0
 40
100.0
100
AcDbArc
 50
265.3322773121702
 51
279.4295211216691
  0
ARC
  5
1A26
330
2
100
AcDbEntity
  8
0
100
AcDbCircle
 10
364.2865600136106
 20
558.9427112965812
 30
0.0
 40
2.0
100
AcDbArc
 50
0.0
 51
96.30067852829274
  0
ARC
  5
1A27
330
2
100
AcDbEntity
  8
0
100
AcDbCircle
 10
317.2865600136133
 20
766.7859053195278
 30
0.0
 40
340.0
100
AcDbArc
 50
265.3322773121702
 51
274.6677226878297
  0
ARC
  5
1A28
330
2
100
AcDbEntity
  8
0
100
AcDbCircle
 10
353.0924596374993
 20
328.2452144456655
 30
0.0
 40
100.0
100
AcDbArc
 50
80.57047887833093
 51
94.66772268782973
  0
ARC
  5
1A29
330
2
100
AcDbEntity
  8
0
100
AcDbCircle
 10
364.2865600136106
 20
429.6290993424753
 30
0.0
 40
2.0
100
AcDbArc
 50
263.6993214717072
 51
0.0
  0
ARC
  5
1A2A
330
2
100
AcDbEntity
  8
0
100
AcDbCircle
 10
44.78656001361423
 20
494.2859053195287
 30
0.0
 40
340.0
100
AcDbArc
 50
355.3322773121702
 51
4.66772268782971
  0
ARC
  5
1A2B
330
2
100
AcDbEntity
  8
0
100
AcDbCircle
 10
483.3272508874765
 20
458.4800056956427
 30
0.0
 40
100.0
100
AcDbArc
 50
175.3322773121702
 51
189.429521121669
  0
ARC
  5
1A2C
330
2
100
AcDbEntity
  8
0
100
AcDbCircle
 10
381.9433659906667
 20
447.2859053195305
 30
0.0
 40
2.0
100
AcDbArc
 50
270.0
 51
6.300678528292741
  0
LINE
  5
1AB2
330
2
100
AcDbEntity
  8
0
100
AcDbLine
 10
786.086082702018
 20
865.3627932950636
 30
0.0
 11
786.8627739355026
 21
776.3627932950504
 31
0.0
  0
CIRCLE
  5
1ADC
330
2
100
AcDbEntity
  8
0
100
AcDbCircle
 10
853.5817192682321
 20
494.2859053195288
 30
0.0
 40
36.57739999999999
  0
ENDSEC
  0
SECTION
  2
OBJECTS
  0
DICTIONARY
  5
7
330
0
100
AcDbDictionary
  3
ACAD_COLOR
350
1936
  3
ACAD_GROUP
350
75
  3
ACAD_LAYOUT
350
61
  3
ACAD_MATERIAL
350
190C
  3
ACAD_MLEADERSTYLE
350
195B
  3
ACAD_MLINESTYLE
350
76
  3
ACAD_PLOTSETTINGS
350
77
  3
ACAD_PLOTSTYLENAME
350
6
  3
ACAD_SCALELIST
350
1939
  3
ACAD_TABLESTYLE
350
1937
  3
ACAD_VISUALSTYLE
350
1925
  3
ACADDIM
350
480
  3
ACDB_RECOMPOSE_DATA
350
1A41
  3
ACDBHEADERROUNDTRIPXREC
350
1AF6
  3
ACDBVARIABLEDICTIONARY
350
102
  3
DWGPROPS
350
1AB4
  0
DICTIONARY
  5
1A4A
330
6E
100
AcDbDictionary
280
     1
  3
ACAD_XREC_ROUNDTRIP
360
1ABC
  0
DICTIONARY
  5
B19
330
66
100
AcDbDictionary
280
     1
  3
ACAD_LAYERSTATES
360
B1A
  0
DICTIONARY
  5
1A2D
330
5E
100
AcDbDictionary
280
     1
  3
ACAD_XREC_ROUNDTRIP
360
1AB7
  3
ADSK_XREC_LAYER_RECONCILED
360
1A2E
  0
DICTIONARY
  5
1A2F
330
3E
100
AcDbDictionary
280
     1
  3
ACAD_XREC_ROUNDTRIP
360
1AB6
  3
ADSK_XREC_LAYER_RECONCILED
360
1A30
  0
DICTIONARY
  5
1A35
330
2B5
100
AcDbDictionary
280
     1
  3
ACAD_XREC_ROUNDTRIP
360
1AC2
  3
ADSK_XREC_LAYER_RECONCILED
360
1A36
  0
DICTIONARY
  5
1A37
330
2BA
100
AcDbDictionary
280
     1
  3
ACAD_XREC_ROUNDTRIP
360
1AC3
  3
ADSK_XREC_LAYER_RECONCILED
360
1A38
  0
DICTIONARY
  5
1A3B
330
3FA
100
AcDbDictionary
280
     1
  3
ACAD_XREC_ROUNDTRIP
360
1AC5
  3
ADSK_XREC_LAYER_RECONCILED
360
1A3C
  0
DICTIONARY
  5
1A3D
330
478
100
AcDbDictionary
280
     1
  3
ACAD_XREC_ROUNDTRIP
360
1AC6
  3
ADSK_XREC_LAYER_RECONCILED
360
1A3E
  0
DICTIONARY
  5
1B17
330
2
100
AcDbDictionary
280
     1
  3
ACAD_LAYOUTSELFREF
360
1B18
  0
DICTIONARY
  5
1B19
330
1AF0
100
AcDbDictionary
280
     1
  3
ACAD_LAYOUTSELFREF
360
1B1A
  0
DICTIONARY
  5
1936
102
{ACAD_REACTORS
330
7
102
}
330
7
100
AcDbDictionary
  0
DICTIONARY
  5
75
102
{ACAD_REACTORS
330
7
102
}
330
7
100
AcDbDictionary
  0
DICTIONARY
  5
61
102
{ACAD_REACTORS
330
7
102
}
330
7
100
AcDbDictionary
  0
DICTIONARY
  5
190C
102
{ACAD_REACTORS
330
7
102
}
330
7
100
AcDbDictionary
  3
BYBLOCK
350
1915
  3
BYLAYER
350
190D
  3
GLOBAL
350
191D
  0
DICTIONARY
  5
195B
102
{ACAD_REACTORS
330
7
102
}
330
7
100
AcDbDictionary
  3
STANDARD
350
195C
  0
DICTIONARY
  5
76
102
{ACAD_REACTORS
330
7
102
}
330
7
100
AcDbDictionary
  3
STANDARD
350
78
  0
DICTIONARY
  5
77
102
{ACAD_REACTORS
330
7
102
}
330
7
100
AcDbDictionary
  0
ACDBDICTIONARYWDFLT
  5
6
102
{ACAD_REACTORS
330
7
102
}
330
7
100
AcDbDictionary
281
     1
  3
Normal
350
5
100
AcDbDictionaryWithDefault
340
5
  0
DICTIONARY
  5
1939
102
{ACAD_REACTORS
330
7
102
}
330
7
100
AcDbDictionary
  3
A0
350
193A
  3
A1
350
193B
  3
A2
350
193C
  3
A3
350
193D
  3
A4
350
193E
  3
A5
350
193F
  3
A6
350
1940
  3
A7
350
1941
  3
A8
350
1942
  3
A9
350
1943
  3
B0
350
1944
  3
B1
350
1945
  3
B2
350
1946
  3
B3
350
1947
  3
B4
350
1948
  3
B5
350
1949
  3
B6
350
194A
  3
B7
350
194B
  3
B8
350
194C
  3
B9
350
194D
  3
C0
350
194E
  3
C1
350
194F
  3
C2
350
1950
  3
C3
350
1951
  3
C4
350
1952
  3
C5
350
1953
  3
C6
350
1954
  3
C7
350
1955
  3
C8
350
1956
  3
C9
350
1957
  3
D0
350
1958
  3
D1
350
1959
  3
D2
350
195A
  0
DICTIONARY
  5
1937
102
{ACAD_REACTORS
330
7
102
}
330
7
100
AcDbDictionary
  3
STANDARD
350
1938
  0
DICTIONARY
  5
1925
102
{ACAD_REACTORS
330
7
102
}
330
7
100
AcDbDictionary
  3
2DWIREFRAME
350
192B
  3
3D_HIDDEN
350
192D
  3
3DWIREFRAME
350
192C
  3
BASIC
350
192A
  3
BRIGHTEN
350
1931
  3
COLORCHANGE
350
1935
  3
CONCEPTUAL
350
192E
  3
DIM
350
1930
  3
FACEPATTERN
350
1934
  3
FLAT
350
1926
  3
FLATWITHEDGES
350
1927
  3
GOURAUD
350
1928
  3
GOURAUDWITHEDGES
350
1929
  3
LINEPATTERN
350
1933
  3
REALISTIC
350
192F
  3
THICKEN
350
1932
  0
XRECORD
  5
480
102
{ACAD_REACTORS
330
7
102
}
330
7
100
AcDbXrecord
 90
   990106
  3

 60
     0
 61
     0
 62
     1
 63
     3
 64
     1
 65
     0
 66
     0
 67
     3
 68
     1
 69
     0
 70
     0
 71
     0
 72
     0
 40
0.0
170
     2
340
0
  0
XRECORD
  5
1A41
102
{ACAD_REACTORS
330
7
102
}
330
7
100
AcDbXrecord
 90
        1
330
1938
  0
DICTIONARY
  5
1AF6
102
{ACAD_REACTORS
330
7
102
}
330
7
100
AcDbDictionary
  3
CEPSNTYPE
350
1B00
  3
DIMSTYLEDATA
350
1B04
  3
FINGERPRINTGUID
350
1B01
  3
HYPERLINKBASE
350
1AF9
  3
INSUNITS
350
1AFF
  3
LAYOUTDICT
350
1AFB
  3
LWETCUNION
350
1AFE
  3
PLOTSETDICT
350
1AFC
  3
PLOTSTYLNAMDICT
350
1AFD
  3
PSVPSCALE
350
1B03
  3
PUCSBASE
350
1B07
  3
PUCSORGBACK
350
1B0D
  3
PUCSORGBOTTOM
350
1B09
  3
PUCSORGFRONT
350
1B0C
  3
PUCSORGLEFT
350
1B0A
  3
PUCSORGRIGHT
350
1B0B
  3
PUCSORGTOP
350
1B08
  3
PUCSORTHOREF
350
1B05
  3
PUCSORTHOVIEW
350
1B06
  3
STYLESHEET
350
1AFA
  3
TSTACKALIGN
350
1AF7
  3
TSTACKSIZE
350
1AF8
  3
UCSBASE
350
1B10
  3
UCSORGBACK
350
1B16
  3
UCSORGBOTTOM
350
1B12
  3
UCSORGFRONT
350
1B15
  3
UCSORGLEFT
350
1B13
  3
UCSORGRIGHT
350
1B14
  3
UCSORGTOP
350
1B11
  3
UCSORTHOREF
350
1B0E
  3
UCSORTHOVIEW
350
1B0F
  3
VERSIONGUID
350
1B02
  0
DICTIONARY
  5
102
102
{ACAD_REACTORS
330
7
102
}
330
7
100
AcDbDictionary
  3
CANNOSCALE
350
1A62
  3
CMLEADERSTYLE
350
1A61
  3
CTABLESTYLE
350
1A60
  3
DIMASSOC
350
103
  3
INDEXCTL
350
1A63
  3
SORTENTS
350
549
  0
XRECORD
  5
1AB4
102
{ACAD_REACTORS
330
7
102
}
330
7
100
AcDbXrecord
  1
DWGPROPS COOKIE
  2

  3

  4

  6

  7

  8
ymorima
  9

300
=
301
=
302
=
303
=
304
=
305
=
306
=
307
=
308
=
309
=
 40
0.007240474537037
 41
2454413.454466678
 42
2454421.489816794
  1

 90
        0
  0
XRECORD
  5
1ABC
102
{ACAD_REACTORS
330
1A4A
102
}
330
1A4A
100
AcDbXrecord
102
VTR_0.000_0.000_1.000_1.000_VISUALSTYLE
340
192B
102
VTR_0.000_0.000_1.000_1.000_GRIDDISPLAY
 70
     3
102
VTR_0.000_0.000_1.000_1.000_GRIDMAJOR
 70
     5
102
VTR_0.000_0.000_1.000_1.000_DEFAULTLIGHTING
280
     1
102
VTR_0.000_0.000_1.000_1.000_DEFAULTLIGHTINGTYPE
 70
     1
102
VTR_0.000_0.000_1.000_1.000_BRIGHTNESS
141
0.0
102
VTR_0.000_0.000_1.000_1.000_CONTRAST
142
0.0
  0
DICTIONARY
  5
B1A
102
{ACAD_REACTORS
330
B19
102
}
330
B19
100
AcDbDictionary
  0
XRECORD
  5
1AB7
102
{ACAD_REACTORS
330
1A2D
102
}
330
1A2D
100
AcDbXrecord
102
MATERIAL
340
191D
  0
XRECORD
  5
1A2E
102
{ACAD_REACTORS
330
1A2D
102
}
330
1A2D
100
AcDbXrecord
290
     1
  0
XRECORD
  5
1AB6
102
{ACAD_REACTORS
330
1A2F
102
}
330
1A2F
100
AcDbXrecord
102
MATERIAL
340
191D
  0
XRECORD
  5
1A30
102
{ACAD_REACTORS
330
1A2F
102
}
330
1A2F
100
AcDbXrecord
290
     1
  0
XRECORD
  5
1AC2
102
{ACAD_REACTORS
330
1A35
102
}
330
1A35
100
AcDbXrecord
102
MATERIAL
340
191D
  0
XRECORD
  5
1A36
102
{ACAD_REACTORS
330
1A35
102
}
330
1A35
100
AcDbXrecord
290
     1
  0
XRECORD
  5
1AC3
102
{ACAD_REACTORS
330
1A37
102
}
330
1A37
100
AcDbXrecord
102
MATERIAL
340
191D
  0
XRECORD
  5
1A38
102
{ACAD_REACTORS
330
1A37
102
}
330
1A37
100
AcDbXrecord
290
     1
  0
XRECORD
  5
1AC5
102
{ACAD_REACTORS
330
1A3B
102
}
330
1A3B
100
AcDbXrecord
102
MATERIAL
340
191D
  0
XRECORD
  5
1A3C
102
{ACAD_REACTORS
330
1A3B
102
}
330
1A3B
100
AcDbXrecord
290
     1
  0
XRECORD
  5
1AC6
102
{ACAD_REACTORS
330
1A3D
102
}
330
1A3D
100
AcDbXrecord
102
MATERIAL
340
191D
  0
XRECORD
  5
1A3E
102
{ACAD_REACTORS
330
1A3D
102
}
330
1A3D
100
AcDbXrecord
290
     1
  0
XRECORD
  5
1B18
102
{ACAD_REACTORS
330
1B17
102
}
330
1B17
100
AcDbXrecord
340
2
  0
XRECORD
  5
1B1A
102
{ACAD_REACTORS
330
1B19
102
}
330
1B19
100
AcDbXrecord
340
1AF0
  0
ACAD_PROXY_OBJECT
  5
1915
102
{ACAD_XDICTIONARY
360
1916
102
}
102
{ACAD_REACTORS
330
190C
102
}
330
190C
100
AcDbProxyObject
 90
      499
 91
      511
 93
     1340
310
42109E509B1BD8DAC02004014080404555555555555953FAA155555555555654FEA9AA400014080404555555555555953FAA155555555555654FEA9AA400000000000000E03F4080404555555555555953FAA155555555555654FEA9AA4014080404555555555555953FAA155555555555654FEA9AA4010201011555555555
310
55654FEA8555555555555953FAA6A9005020101155555555555654FEA8555555555555953FAA6A9000
 94
        0
1001
ACAD
1000
AcadProxyRoundTripData
1071
      504
1071
   655383
1070
     0
  0
ACAD_PROXY_OBJECT
  5
190D
102
{ACAD_XDICTIONARY
360
190E
102
}
102
{ACAD_REACTORS
330
190C
102
}
330
190C
100
AcDbProxyObject
 90
      499
 91
      511
 93
     1340
310
42109E53185E595C802004014080404555555555555953FAA155555555555654FEA9AA400014080404555555555555953FAA155555555555654FEA9AA400000000000000E03F4080404555555555555953FAA155555555555654FEA9AA4014080404555555555555953FAA155555555555654FEA9AA4010201011555555555
310
55654FEA8555555555555953FAA6A9005020101155555555555654FEA8555555555555953FAA6A9000
 94
        0
1001
ACAD
1000
AcadProxyRoundTripData
1071
      504
1071
   655383
1070
     0
  0
ACAD_PROXY_OBJECT
  5
191D
102
{ACAD_XDICTIONARY
360
191E
102
}
102
{ACAD_REACTORS
330
190C
102
}
330
190C
100
AcDbProxyObject
 90
      499
 91
      511
 93
     1332
310
41D1DB1BD8985B002004014080404555555555555953FAA155555555555654FEA9AA400014080404555555555555953FAA155555555555654FEA9AA400000000000000E03F4080404555555555555953FAA155555555555654FEA9AA4014080404555555555555953FAA155555555555654FEA9AA401020101155555555555
310
654FEA8555555555555953FAA6A9005020101155555555555654FEA8555555555555953FAA6A9000
 94
        0
1001
ACAD
1000
AcadProxyRoundTripData
1071
      504
1071
   655383
1070
     0
  0
ACAD_PROXY_OBJECT
  5
195C
102
{ACAD_REACTORS
330
195B
102
}
330
195B
100
AcDbProxyObject
 90
      499
 91
      511
 93
      618
310
40901902A4063FBFFFFFE056BD1B81E855B9FC0AD7A3703D0AD73F4254DD185B99185C990000AD7A3703D0AC73F90141901A02B5E8DC0F42B1CFC02B5E8DC0F42B1CFE5764000000000000300FC6
340
6A
340
0
340
16
340
0
 94
        0
1001
ACAD_MLEADERVER
1070
     2
1001
ACAD
1000
AcadProxyRoundTripData
1071
      508
1071
   655383
1070
     0
  0
MLINESTYLE
  5
78
102
{ACAD_REACTORS
330
76
102
}
330
76
100
AcDbMlineStyle
  2
STANDARD
 70
     0
  3

 62
     0
 51
90.0
 52
90.0
 71
     2
 49
0.5
 62
   256
  6
BYLAYER
 49
-0.5
 62
   256
  6
BYLAYER
  0
ACDBPLACEHOLDER
  5
5
102
{ACAD_REACTORS
330
6
102
}
330
6
100
AcDbPlaceHolder
280
     0
  0
ACAD_PROXY_OBJECT
  5
193A
102
{ACAD_REACTORS
330
1939
102
}
330
1939
100
AcDbProxyObject
 90
      499
 91
      511
 93
       49
310
904313A3100598
 94
        0
1001
ACAD
1000
AcadProxyRoundTripData
1071
      507
1071
   655383
1070
     0
  0
ACAD_PROXY_OBJECT
  5
193B
102
{ACAD_REACTORS
330
1939
102
}
330
1939
100
AcDbProxyObject
 90
      499
 91
      511
 93
      113
310
904313A3200400000000000000406B
 94
        0
1001
ACAD
1000
AcadProxyRoundTripData
1071
      507
1071
   655383
1070
     0
  0
ACAD_PROXY_OBJECT
  5
193C
102
{ACAD_REACTORS
330
1939
102
}
330
1939
100
AcDbProxyObject
 90
      499
 91
      511
 93
      113
310
904313A3400400000000000010406B
 94
        0
1001
ACAD
1000
AcadProxyRoundTripData
1071
      507
1071
   655383
1070
     0
  0
ACAD_PROXY_OBJECT
  5
193D
102
{ACAD_REACTORS
330
1939
102
}
330
1939
100
AcDbProxyObject
 90
      499
 91
      511
 93
      113
310
904313A3500400000000000014406B
 94
        0
1001
ACAD
1000
AcadProxyRoundTripData
1071
      507
1071
   655383
1070
     0
  0
ACAD_PROXY_OBJECT
  5
193E
102
{ACAD_REACTORS
330
1939
102
}
330
1939
100
AcDbProxyObject
 90
      499
 91
      511
 93
      113
310
904313A3800400000000000020406B
 94
        0
1001
ACAD
1000
AcadProxyRoundTripData
1071
      507
1071
   655383
1070
     0
  0
ACAD_PROXY_OBJECT
  5
193F
102
{ACAD_REACTORS
330
1939
102
}
330
1939
100
AcDbProxyObject
 90
      499
 91
      511
 93
      121
310
905313A3130004000000000000244051
 94
        0
1001
ACAD
1000
AcadProxyRoundTripData
1071
      507
1071
   655383
1070
     0
  0
ACAD_PROXY_OBJECT
  5
1940
102
{ACAD_REACTORS
330
1939
102
}
330
1939
100
AcDbProxyObject
 90
      499
 91
      511
 93
      121
310
905313A3136004000000000000304051
 94
        0
1001
ACAD
1000
AcadProxyRoundTripData
1071
      507
1071
   655383
1070
     0
  0
ACAD_PROXY_OBJECT
  5
1941
102
{ACAD_REACTORS
330
1939
102
}
330
1939
100
AcDbProxyObject
 90
      499
 91
      511
 93
      121
310
905313A3230004000000000000344051
 94
        0
1001
ACAD
1000
AcadProxyRoundTripData
1071
      507
1071
   655383
1070
     0
  0
ACAD_PROXY_OBJECT
  5
1942
102
{ACAD_REACTORS
330
1939
102
}
330
1939
100
AcDbProxyObject
 90
      499
 91
      511
 93
      121
310
905313A33300040000000000003E4051
 94
        0
1001
ACAD
1000
AcadProxyRoundTripData
1071
      507
1071
   655383
1070
     0
  0
ACAD_PROXY_OBJECT
  5
1943
102
{ACAD_REACTORS
330
1939
102
}
330
1939
100
AcDbProxyObject
 90
      499
 91
      511
 93
      121
310
905313A3430004000000000000444051
 94
        0
1001
ACAD
1000
AcadProxyRoundTripData
1071
      507
1071
   655383
1070
     0
  0
ACAD_PROXY_OBJECT
  5
1944
102
{ACAD_REACTORS
330
1939
102
}
330
1939
100
AcDbProxyObject
 90
      499
 91
      511
 93
      121
310
905313A3530004000000000000494051
 94
        0
1001
ACAD
1000
AcadProxyRoundTripData
1071
      507
1071
   655383
1070
     0
  0
ACAD_PROXY_OBJECT
  5
1945
102
{ACAD_REACTORS
330
1939
102
}
330
1939
100
AcDbProxyObject
 90
      499
 91
      511
 93
      129
310
906313A313030004000000000000594038
 94
        0
1001
ACAD
1000
AcadProxyRoundTripData
1071
      507
1071
   655383
1070
     0
  0
ACAD_PROXY_OBJECT
  5
1946
102
{ACAD_REACTORS
330
1939
102
}
330
1939
100
AcDbProxyObject
 90
      499
 91
      511
 93
      113
310
904323A31000000000000000010159
 94
        0
1001
ACAD
1000
AcadProxyRoundTripData
1071
      507
1071
   655383
1070
     0
  0
ACAD_PROXY_OBJECT
  5
1947
102
{ACAD_REACTORS
330
1939
102
}
330
1939
100
AcDbProxyObject
 90
      499
 91
      511
 93
      113
310
904343A31000000000000000410159
 94
        0
1001
ACAD
1000
AcadProxyRoundTripData
1071
      507
1071
   655383
1070
     0
  0
ACAD_PROXY_OBJECT
  5
1948
102
{ACAD_REACTORS
330
1939
102
}
330
1939
100
AcDbProxyObject
 90
      499
 91
      511
 93
      113
310
904383A31000000000000000810159
 94
        0
1001
ACAD
1000
AcadProxyRoundTripData
1071
      507
1071
   655383
1070
     0
  0
ACAD_PROXY_OBJECT
  5
1949
102
{ACAD_REACTORS
330
1939
102
}
330
1939
100
AcDbProxyObject
 90
      499
 91
      511
 93
      121
310
90531303A31000000000000000910140
 94
        0
1001
ACAD
1000
AcadProxyRoundTripData
1071
      507
1071
   655383
1070
     0
  0
ACAD_PROXY_OBJECT
  5
194A
102
{ACAD_REACTORS
330
1939
102
}
330
1939
100
AcDbProxyObject
 90
      499
 91
      511
 93
      129
310
9063130303A31000000000000001650138
 94
        0
1001
ACAD
1000
AcadProxyRoundTripData
1071
      507
1071
   655383
1070
     0
  0
ACAD_PROXY_OBJECT
  5
194B
102
{ACAD_REACTORS
330
1939
102
}
330
1939
100
AcDbProxyObject
 90
      499
 91
      511
 93
      265
310
90F312F31323822203D2031272D302200000000000000200FC00000000000028402B
 94
        0
1001
ACAD
1000
AcadProxyRoundTripData
1071
      507
1071
   655383
1070
     0
  0
ACAD_PROXY_OBJECT
  5
194C
102
{ACAD_REACTORS
330
1939
102
}
330
1939
100
AcDbProxyObject
 90
      499
 91
      511
 93
      257
310
90E312F363422203D2031272D302200000000000000240FC000000000000284040
 94
        0
1001
ACAD
1000
AcadProxyRoundTripData
1071
      507
1071
   655383
1070
     0
  0
ACAD_PROXY_OBJECT
  5
194D
102
{ACAD_REACTORS
330
1939
102
}
330
1939
100
AcDbProxyObject
 90
      499
 91
      511
 93
      257
310
90E312F333222203D2031272D302200000000000000280FC000000000000284040
 94
        0
1001
ACAD
1000
AcadProxyRoundTripData
1071
      507
1071
   655383
1070
     0
  0
ACAD_PROXY_OBJECT
  5
194E
102
{ACAD_REACTORS
330
1939
102
}
330
1939
100
AcDbProxyObject
 90
      499
 91
      511
 93
      257
310
90E312F313622203D2031272D3022000000000000002C0FC000000000000284040
 94
        0
1001
ACAD
1000
AcadProxyRoundTripData
1071
      507
1071
   655383
1070
     0
  0
ACAD_PROXY_OBJECT
  5
194F
102
{ACAD_REACTORS
330
1939
102
}
330
1939
100
AcDbProxyObject
 90
      499
 91
      511
 93
      257
310
90E332F333222203D2031272D3022000000000000002E0FC000000000000284040
 94
        0
1001
ACAD
1000
AcadProxyRoundTripData
1071
      507
1071
   655383
1070
     0
  0
ACAD_PROXY_OBJECT
  5
1950
102
{ACAD_REACTORS
330
1939
102
}
330
1939
100
AcDbProxyObject
 90
      499
 91
      511
 93
      249
310
90D312F3822203D2031272D302200000000000000300FC000000000000284040
 94
        0
1001
ACAD
1000
AcadProxyRoundTripData
1071
      507
1071
   655383
1070
     0
  0
ACAD_PROXY_OBJECT
  5
1951
102
{ACAD_REACTORS
330
1939
102
}
330
1939
100
AcDbProxyObject
 90
      499
 91
      511
 93
      257
310
90E332F313622203D2031272D302200000000000000320FC000000000000284040
 94
        0
1001
ACAD
1000
AcadProxyRoundTripData
1071
      507
1071
   655383
1070
     0
  0
ACAD_PROXY_OBJECT
  5
1952
102
{ACAD_REACTORS
330
1939
102
}
330
1939
100
AcDbProxyObject
 90
      499
 91
      511
 93
      249
310
90D312F3422203D2031272D302200000000000000340FC000000000000284040
 94
        0
1001
ACAD
1000
AcadProxyRoundTripData
1071
      507
1071
   655383
1070
     0
  0
ACAD_PROXY_OBJECT
  5
1953
102
{ACAD_REACTORS
330
1939
102
}
330
1939
100
AcDbProxyObject
 90
      499
 91
      511
 93
      249
310
90D332F3822203D2031272D302200000000000000360FC000000000000284040
 94
        0
1001
ACAD
1000
AcadProxyRoundTripData
1071
      507
1071
   655383
1070
     0
  0
ACAD_PROXY_OBJECT
  5
1954
102
{ACAD_REACTORS
330
1939
102
}
330
1939
100
AcDbProxyObject
 90
      499
 91
      511
 93
      249
310
90D312F3222203D2031272D302200000000000000380FC000000000000284040
 94
        0
1001
ACAD
1000
AcadProxyRoundTripData
1071
      507
1071
   655383
1070
     0
  0
ACAD_PROXY_OBJECT
  5
1955
102
{ACAD_REACTORS
330
1939
102
}
330
1939
100
AcDbProxyObject
 90
      499
 91
      511
 93
      249
310
90D332F3422203D2031272D3022000000000000003A0FC000000000000284040
 94
        0
1001
ACAD
1000
AcadProxyRoundTripData
1071
      507
1071
   655383
1070
     0
  0
ACAD_PROXY_OBJECT
  5
1956
102
{ACAD_REACTORS
330
1939
102
}
330
1939
100
AcDbProxyObject
 90
      499
 91
      511
 93
      169
310
90B3122203D2031272D3022004000000000000284020
 94
        0
1001
ACAD
1000
AcadProxyRoundTripData
1071
      507
1071
   655383
1070
     0
  0
ACAD_PROXY_OBJECT
  5
1957
102
{ACAD_REACTORS
330
1939
102
}
330
1939
100
AcDbProxyObject
 90
      499
 91
      511
 93
      265
310
90F312D312F3222203D2031272D3022000000000000003E0FC00000000000028402B
 94
        0
1001
ACAD
1000
AcadProxyRoundTripData
1071
      507
1071
   655383
1070
     0
  0
ACAD_PROXY_OBJECT
  5
1958
102
{ACAD_REACTORS
330
1939
102
}
330
1939
100
AcDbProxyObject
 90
      499
 91
      511
 93
      233
310
90B3322203D2031272D30220000000000000002100000000000000284000
 94
        0
1001
ACAD
1000
AcadProxyRoundTripData
1071
      507
1071
   655383
1070
     0
  0
ACAD_PROXY_OBJECT
  5
1959
102
{ACAD_REACTORS
330
1939
102
}
330
1939
100
AcDbProxyObject
 90
      499
 91
      511
 93
      233
310
90B3622203D2031272D30220000000000000006100000000000000284000
 94
        0
1001
ACAD
1000
AcadProxyRoundTripData
1071
      507
1071
   655383
1070
     0
  0
ACAD_PROXY_OBJECT
  5
195A
102
{ACAD_REACTORS
330
1939
102
}
330
1939
100
AcDbProxyObject
 90
      499
 91
      511
 93
      257
310
90E31272D3022203D2031272D3022000000000000000A100000000000000284040
 94
        0
1001
ACAD
1000
AcadProxyRoundTripData
1071
      507
1071
   655383
1070
     0
  0
ACAD_PROXY_OBJECT
  5
1938
102
{ACAD_XDICTIONARY
360
1A3F
102
}
102
{ACAD_REACTORS
330
1937
102
}
330
1937
100
AcDbProxyObject
 90
      499
 91
      511
 93
     1849
310
4254DD185B99185C990028B81E85EB51B8AE3F2E07A17AD46E2B8FC02B5E8DC0F42B1CFD028000000C1008070000C3001FDFF8000000C1003FBFF000000182007F7FE00000030400FEFFC00000060801FDFF8000000C1003FBFF00000018200000000000000681FA0B0000001820100E000186003FBFF000000182007F7FE0
310
0000030400FEFFC00000060801FDFF8000000C1003FBFF000000182007F7FE000000304000AD7A3703D0AC73F4160000003040201C00030C007F7FE00000030400FEFFC00000060801FDFF8000000C1003FBFF000000182007F7FE00000030400FEFFC000000608000
340
16
340
16
340
16
 94
        0
1001
ACAD
1000
AcadProxyRoundTripData
1071
      506
1071
   655383
1070
     0
  0
ACAD_PROXY_OBJECT
  5
192B
102
{ACAD_REACTORS
330
1925
102
}
330
1925
100
AcDbProxyObject
 90
      499
 91
      511
 93
      444
310
430C9915DA5C99599C985B59401049028333333333333E3BF0000000000000FB0107901411070040501600405405064090741402480A0340
 94
        0
1001
ACAD
1000
AcDbSavedByObjectVersion
1070
     0
1000
AcadProxyRoundTripData
1071
      505
1071
   655383
1070
     0
  0
ACAD_PROXY_OBJECT
  5
192D
102
{ACAD_REACTORS
330
1925
102
}
330
1925
100
AcDbProxyObject
 90
      499
 91
      511
 93
      508
310
428CD108121A5919195B8010640502408333333333333E3BF0000000000000FB01079024090700405020000000000001110200405405064090740C02480A0340
 94
        0
1001
ACAD
1000
AcDbSavedByObjectVersion
1070
     0
1000
AcadProxyRoundTripData
1071
      505
1071
   655383
1070
     0
  0
ACAD_PROXY_OBJECT
  5
192C
102
{ACAD_REACTORS
330
1925
102
}
330
1925
100
AcDbProxyObject
 90
      499
 91
      511
 93
      444
310
430CD915DA5C99599C985B59401059028333333333333E3BF0000000000000FB0107901411070040501600405405064090741402480A0340
 94
        0
1001
ACAD
1000
AcDbSavedByObjectVersion
1070
     0
1000
AcadProxyRoundTripData
1071
      505
1071
   655383
1070
     0
  0
ACAD_PROXY_OBJECT
  5
192A
102
{ACAD_REACTORS
330
1925
102
}
330
1925
100
AcDbProxyObject
 90
      499
 91
      511
 93
      396
310
4190985CDA58C0107406404333333333333E3BF0000000000000FB0107A41107004050150841D405064090741402480A0356
 94
        0
1001
ACAD
1000
AcDbSavedByObjectVersion
1070
     0
1000
AcadProxyRoundTripData
1071
      505
1071
   655383
1070
     0
  0
ACAD_PROXY_OBJECT
  5
1931
102
{ACAD_REACTORS
330
1925
102
}
330
1925
100
AcDbProxyObject
 90
      499
 91
      511
 93
      436
310
42509C9A59DA1D195B8010C409028333333333333E3BF0000000000000FB010790141107004050150841D405064090741402480A029956
 94
        0
1001
ACAD
1000
AcDbSavedByObjectVersion
1070
     0
1000
AcadProxyRoundTripData
1071
      505
1071
   655383
1070
     0
  0
ACAD_PROXY_OBJECT
  5
1935
102
{ACAD_REACTORS
330
1925
102
}
330
1925
100
AcDbProxyObject
 90
      499
 91
      511
 93
      460
310
4310DBDB1BDC90DA185B99D9401104090240C333333333333E3BF0000000000000FB0108901411070040501508421405064090741402480A0354
 94
        0
1001
ACAD
1000
AcDbSavedByObjectVersion
1070
     0
1000
AcadProxyRoundTripData
1071
      505
1071
   655383
1070
     0
  0
ACAD_PROXY_OBJECT
  5
192E
102
{ACAD_REACTORS
330
1925
102
}
330
1925
100
AcDbProxyObject
 90
      499
 91
      511
 93
      508
310
42D0DBDB98D95C1D1D585B0010940D028333333333333E3BF0000000000000FB0107902409070040501000000000000111010841D405064090740C02480A0340
 94
        0
1001
ACAD
1000
AcDbSavedByObjectVersion
1070
     0
1000
AcadProxyRoundTripData
1071
      505
1071
   655383
1070
     0
  0
ACAD_PROXY_OBJECT
  5
1930
102
{ACAD_REACTORS
330
1925
102
}
330
1925
100
AcDbProxyObject
 90
      499
 91
      511
 93
      420
310
41111A5B4010B409028333333333333E3BF0000000000000FB010790141107004050150841D405064090741402480A02677FFFFFDB
 94
        0
1001
ACAD
1000
AcDbSavedByObjectVersion
1070
     0
1000
AcadProxyRoundTripData
1071
      505
1071
   655383
1070
     0
  0
ACAD_PROXY_OBJECT
  5
1934
102
{ACAD_REACTORS
330
1925
102
}
330
1925
100
AcDbProxyObject
 90
      499
 91
      511
 93
      452
310
43119858D95C185D1D195C9B8010F409028333333333333E3BF0000000000000FB010790141107004050150841D405064090741402480A0350
 94
        0
1001
ACAD
1000
AcDbSavedByObjectVersion
1070
     0
1000
AcadProxyRoundTripData
1071
      505
1071
   655383
1070
     0
  0
ACAD_PROXY_OBJECT
  5
1926
102
{ACAD_REACTORS
330
1925
102
}
330
1925
100
AcDbProxyObject
 90
      499
 91
      511
 93
      396
310
41519B185D00240901404333333333333E3BF0000000000000F9010740A41107004050150841D405064090741402480A1B55
 94
        0
1001
ACAD
1000
AcDbSavedByObjectVersion
1070
     0
1000
AcadProxyRoundTripData
1071
      505
1071
   655383
1070
     0
  0
ACAD_PROXY_OBJECT
  5
1927
102
{ACAD_REACTORS
330
1925
102
}
330
1925
100
AcDbProxyObject
 90
      499
 91
      511
 93
      484
310
43919B185D15DA5D1A115919D95CC010140901404333333333333E3BF0000000000000F9010740901411070040501600405405064090741402480A1B50
 94
        0
1001
ACAD
1000
AcDbSavedByObjectVersion
1070
     0
1000
AcadProxyRoundTripData
1071
      505
1071
   655383
1070
     0
  0
ACAD_PROXY_OBJECT
  5
1928
102
{ACAD_REACTORS
330
1925
102
}
330
1925
100
AcDbProxyObject
 90
      499
 91
      511
 93
      420
310
4211DBDD5C985D590010240902404333333333333E3BF0000000000000F9010740A411070040501641D405064090741402480A1B50
 94
        0
1001
ACAD
1000
AcDbSavedByObjectVersion
1070
     0
1000
AcadProxyRoundTripData
1071
      505
1071
   655383
1070
     0
  0
ACAD_PROXY_OBJECT
  5
1929
102
{ACAD_REACTORS
330
1925
102
}
330
1925
100
AcDbProxyObject
 90
      499
 91
      511
 93
      508
310
4451DBDD5C985D5915DA5D1A115919D95CC010340902404333333333333E3BF0000000000000F9010740901411070040501600405405064090741402480A1B50
 94
        0
1001
ACAD
1000
AcDbSavedByObjectVersion
1070
     0
1000
AcadProxyRoundTripData
1071
      505
1071
   655383
1070
     0
  0
ACAD_PROXY_OBJECT
  5
1933
102
{ACAD_REACTORS
330
1925
102
}
330
1925
100
AcDbProxyObject
 90
      499
 91
      511
 93
      452
310
43131A5B995C185D1D195C9B8010E409028333333333333E3BF0000000000000FB010790141107004050750841D405064090741402483A0350
 94
        0
1001
ACAD
1000
AcDbSavedByObjectVersion
1070
     0
1000
AcadProxyRoundTripData
1071
      505
1071
   655383
1070
     0
  0
ACAD_PROXY_OBJECT
  5
192F
102
{ACAD_REACTORS
330
1925
102
}
330
1925
100
AcDbProxyObject
 90
      499
 91
      511
 93
      428
310
429499585B1A5CDD1A58C0108409028333333333333E3BF0000000000000FB01079019070040501508421405064090741402480A1B45
 94
        0
1001
ACAD
1000
AcDbSavedByObjectVersion
1070
     0
1000
AcadProxyRoundTripData
1071
      505
1071
   655383
1070
     0
  0
ACAD_PROXY_OBJECT
  5
1932
102
{ACAD_REACTORS
330
1925
102
}
330
1925
100
AcDbProxyObject
 90
      499
 91
      511
 93
      420
310
42151A1A58DAD95B8010D409028333333333333E3BF0000000000000FB010790141107004050150C41D405064090741402480A0352
 94
        0
1001
ACAD
1000
AcDbSavedByObjectVersion
1070
     0
1000
AcadProxyRoundTripData
1071
      505
1071
   655383
1070
     0
  0
XRECORD
  5
1B00
102
{ACAD_REACTORS
330
1AF6
102
}
330
1AF6
100
AcDbXrecord
 90
        0
  0
XRECORD
  5
1B04
102
{ACAD_REACTORS
330
1AF6
102
}
330
1AF6
100
AcDbXrecord
1000
DSTYLE
1002
{
1070
   179
 70
     2
1070
   277
 70
     6
1002
}
  0
XRECORD
  5
1B01
102
{ACAD_REACTORS
330
1AF6
102
}
330
1AF6
100
AcDbXrecord
  1
{6385560B-F4B1-4644-A7C2-A3E32AC3D232}
  0
XRECORD
  5
1AF9
102
{ACAD_REACTORS
330
1AF6
102
}
330
1AF6
100
AcDbXrecord
  1

  0
XRECORD
  5
1AFF
102
{ACAD_REACTORS
330
1AF6
102
}
330
1AF6
100
AcDbXrecord
 90
        0
  0
XRECORD
  5
1AFB
102
{ACAD_REACTORS
330
1AF6
102
}
330
1AF6
100
AcDbXrecord
340
61
  0
XRECORD
  5
1AFE
102
{ACAD_REACTORS
330
1AF6
102
}
330
1AF6
100
AcDbXrecord
 90
    10781
  0
XRECORD
  5
1AFC
102
{ACAD_REACTORS
330
1AF6
102
}
330
1AF6
100
AcDbXrecord
340
77
  0
XRECORD
  5
1AFD
102
{ACAD_REACTORS
330
1AF6
102
}
330
1AF6
100
AcDbXrecord
340
6
  0
XRECORD
  5
1B03
102
{ACAD_REACTORS
330
1AF6
102
}
330
1AF6
100
AcDbXrecord
 40
0.0
  0
XRECORD
  5
1B07
102
{ACAD_REACTORS
330
1AF6
102
}
330
1AF6
100
AcDbXrecord
340
0
  0
XRECORD
  5
1B0D
102
{ACAD_REACTORS
330
1AF6
102
}
330
1AF6
100
AcDbXrecord
 10
0.0
 20
0.0
 30
0.0
  0
XRECORD
  5
1B09
102
{ACAD_REACTORS
330
1AF6
102
}
330
1AF6
100
AcDbXrecord
 10
0.0
 20
0.0
 30
0.0
  0
XRECORD
  5
1B0C
102
{ACAD_REACTORS
330
1AF6
102
}
330
1AF6
100
AcDbXrecord
 10
0.0
 20
0.0
 30
0.0
  0
XRECORD
  5
1B0A
102
{ACAD_REACTORS
330
1AF6
102
}
330
1AF6
100
AcDbXrecord
 10
0.0
 20
0.0
 30
0.0
  0
XRECORD
  5
1B0B
102
{ACAD_REACTORS
330
1AF6
102
}
330
1AF6
100
AcDbXrecord
 10
0.0
 20
0.0
 30
0.0
  0
XRECORD
  5
1B08
102
{ACAD_REACTORS
330
1AF6
102
}
330
1AF6
100
AcDbXrecord
 10
0.0
 20
0.0
 30
0.0
  0
XRECORD
  5
1B05
102
{ACAD_REACTORS
330
1AF6
102
}
330
1AF6
100
AcDbXrecord
340
0
  0
XRECORD
  5
1B06
102
{ACAD_REACTORS
330
1AF6
102
}
330
1AF6
100
AcDbXrecord
 70
     0
  0
XRECORD
  5
1AFA
102
{ACAD_REACTORS
330
1AF6
102
}
330
1AF6
100
AcDbXrecord
  1
Sekkei.ctb
  0
XRECORD
  5
1AF7
102
{ACAD_REACTORS
330
1AF6
102
}
330
1AF6
100
AcDbXrecord
 90
        1
  0
XRECORD
  5
1AF8
102
{ACAD_REACTORS
330
1AF6
102
}
330
1AF6
100
AcDbXrecord
 90
       70
  0
XRECORD
  5
1B10
102
{ACAD_REACTORS
330
1AF6
102
}
330
1AF6
100
AcDbXrecord
340
0
  0
XRECORD
  5
1B16
102
{ACAD_REACTORS
330
1AF6
102
}
330
1AF6
100
AcDbXrecord
 10
0.0
 20
0.0
 30
0.0
  0
XRECORD
  5
1B12
102
{ACAD_REACTORS
330
1AF6
102
}
330
1AF6
100
AcDbXrecord
 10
0.0
 20
0.0
 30
0.0
  0
XRECORD
  5
1B15
102
{ACAD_REACTORS
330
1AF6
102
}
330
1AF6
100
AcDbXrecord
 10
0.0
 20
0.0
 30
0.0
  0
XRECORD
  5
1B13
102
{ACAD_REACTORS
330
1AF6
102
}
330
1AF6
100
AcDbXrecord
 10
0.0
 20
0.0
 30
0.0
  0
XRECORD
  5
1B14
102
{ACAD_REACTORS
330
1AF6
102
}
330
1AF6
100
AcDbXrecord
 10
0.0
 20
0.0
 30
0.0
  0
XRECORD
  5
1B11
102
{ACAD_REACTORS
330
1AF6
102
}
330
1AF6
100
AcDbXrecord
 10
0.0
 20
0.0
 30
0.0
  0
XRECORD
  5
1B0E
102
{ACAD_REACTORS
330
1AF6
102
}
330
1AF6
100
AcDbXrecord
340
0
  0
XRECORD
  5
1B0F
102
{ACAD_REACTORS
330
1AF6
102
}
330
1AF6
100
AcDbXrecord
 70
     0
  0
XRECORD
  5
1B02
102
{ACAD_REACTORS
330
1AF6
102
}
330
1AF6
100
AcDbXrecord
  1
{811FF4EB-9679-41F1-8FA9-ACDFBFDE81A8}
  0
DICTIONARYVAR
  5
1A62
102
{ACAD_REACTORS
330
102
102
}
330
102
100
DictionaryVariables
280
     0
  1
1:1
  0
DICTIONARYVAR
  5
1A61
102
{ACAD_REACTORS
330
102
102
}
330
102
100
DictionaryVariables
280
     0
  1
STANDARD
  0
DICTIONARYVAR
  5
1A60
102
{ACAD_REACTORS
330
102
102
}
330
102
100
DictionaryVariables
280
     0
  1
STANDARD
  0
DICTIONARYVAR
  5
103
102
{ACAD_REACTORS
330
102
102
}
330
102
100
DictionaryVariables
280
     0
  1
1
  0
DICTIONARYVAR
  5
1A63
102
{ACAD_REACTORS
330
102
102
}
330
102
100
DictionaryVariables
280
     0
  1
0
  0
DICTIONARYVAR
  5
549
102
{ACAD_REACTORS
330
102
102
}
330
102
100
DictionaryVariables
280
     0
  1
96
  0
DICTIONARY
  5
1916
330
1915
100
AcDbDictionary
280
     1
  3
ACAD_XREC_ROUNDTRIP
360
1ACE
  3
BUMPTILE
360
1918
  3
DIFFUSETILE
360
1917
  3
OPACITYTILE
360
191B
  3
REFLECTIONTILE
360
191A
  3
REFRACTIONTILE
360
191C
  3
SPECULARTILE
360
1919
  0
DICTIONARY
  5
190E
330
190D
100
AcDbDictionary
280
     1
  3
ACAD_XREC_ROUNDTRIP
360
1ACD
  3
BUMPTILE
360
1910
  3
DIFFUSETILE
360
190F
  3
OPACITYTILE
360
1913
  3
REFLECTIONTILE
360
1912
  3
REFRACTIONTILE
360
1914
  3
SPECULARTILE
360
1911
  0
DICTIONARY
  5
191E
330
191D
100
AcDbDictionary
280
     1
  3
ACAD_XREC_ROUNDTRIP
360
1ACF
  3
BUMPTILE
360
1920
  3
DIFFUSETILE
360
191F
  3
OPACITYTILE
360
1923
  3
REFLECTIONTILE
360
1922
  3
REFRACTIONTILE
360
1924
  3
SPECULARTILE
360
1921
  0
DICTIONARY
  5
1A3F
330
1938
100
AcDbDictionary
280
     1
  3
ACAD_ROUNDTRIP_2008_TABLES
360
1AB3
  3
ACAD_XREC_ROUNDTRIP
360
1AD0
  0
XRECORD
  5
1ACE
102
{ACAD_REACTORS
330
1916
102
}
330
1916
100
AcDbXrecord
102
MATERIAL
148
0.0
149
0.0
149
0.0
 93
        0
 94
      127
282
     0
 72
     0
 77
     0
171
     0
175
     0
179
     0
273
     0
  0
XRECORD
  5
1918
102
{ACAD_REACTORS
330
1916
102
}
330
1916
100
AcDbXrecord
270
     1
271
     1
  0
XRECORD
  5
1917
102
{ACAD_REACTORS
330
1916
102
}
330
1916
100
AcDbXrecord
270
     1
271
     1
  0
XRECORD
  5
191B
102
{ACAD_REACTORS
330
1916
102
}
330
1916
100
AcDbXrecord
270
     1
271
     1
  0
XRECORD
  5
191A
102
{ACAD_REACTORS
330
1916
102
}
330
1916
100
AcDbXrecord
270
     1
271
     1
  0
XRECORD
  5
191C
102
{ACAD_REACTORS
330
1916
102
}
330
1916
100
AcDbXrecord
270
     1
271
     1
  0
XRECORD
  5
1919
102
{ACAD_REACTORS
330
1916
102
}
330
1916
100
AcDbXrecord
270
     1
271
     1
  0
XRECORD
  5
1ACD
102
{ACAD_REACTORS
330
190E
102
}
330
190E
100
AcDbXrecord
102
MATERIAL
148
0.0
149
0.0
149
0.0
 93
        0
 94
      127
282
     0
 72
     0
 77
     0
171
     0
175
     0
179
     0
273
     0
  0
XRECORD
  5
1910
102
{ACAD_REACTORS
330
190E
102
}
330
190E
100
AcDbXrecord
270
     1
271
     1
  0
XRECORD
  5
190F
102
{ACAD_REACTORS
330
190E
102
}
330
190E
100
AcDbXrecord
270
     1
271
     1
  0
XRECORD
  5
1913
102
{ACAD_REACTORS
330
190E
102
}
330
190E
100
AcDbXrecord
270
     1
271
     1
  0
XRECORD
  5
1912
102
{ACAD_REACTORS
330
190E
102
}
330
190E
100
AcDbXrecord
270
     1
271
     1
  0
XRECORD
  5
1914
102
{ACAD_REACTORS
330
190E
102
}
330
190E
100
AcDbXrecord
270
     1
271
     1
  0
XRECORD
  5
1911
102
{ACAD_REACTORS
330
190E
102
}
330
190E
100
AcDbXrecord
270
     1
271
     1
  0
XRECORD
  5
1ACF
102
{ACAD_REACTORS
330
191E
102
}
330
191E
100
AcDbXrecord
102
MATERIAL
148
0.0
149
0.0
149
0.0
 93
        0
 94
      127
282
     0
 72
     0
 77
     0
171
     0
175
     0
179
     0
273
     0
  0
XRECORD
  5
1920
102
{ACAD_REACTORS
330
191E
102
}
330
191E
100
AcDbXrecord
270
     1
271
     1
  0
XRECORD
  5
191F
102
{ACAD_REACTORS
330
191E
102
}
330
191E
100
AcDbXrecord
270
     1
271
     1
  0
XRECORD
  5
1923
102
{ACAD_REACTORS
330
191E
102
}
330
191E
100
AcDbXrecord
270
     1
271
     1
  0
XRECORD
  5
1922
102
{ACAD_REACTORS
330
191E
102
}
330
191E
100
AcDbXrecord
270
     1
271
     1
  0
XRECORD
  5
1924
102
{ACAD_REACTORS
330
191E
102
}
330
191E
100
AcDbXrecord
270
     1
271
     1
  0
XRECORD
  5
1921
102
{ACAD_REACTORS
330
191E
102
}
330
191E
100
AcDbXrecord
270
     1
271
     1
  0
ACAD_PROXY_OBJECT
  5
1AB3
102
{ACAD_REACTORS
330
1A3F
102
}
330
1A3F
100
AcDbProxyObject
 90
      499
 91
      511
 93
     5304
310
40D054060020000020000003200101A000080002A5058000000C100000000000000340FD012E07A17AD46E2B8FCB81E85EB51B8AE3F2E07A17AD46E2B8FCB81E85EB51B8AE3F02B5E8DC0F42B1CFC0AD7A3703D0AC73F419019018000000C1003FBFFFFFE02B5E8DC0F42A9CFD029018000000C1003FBFFFFFE02B5E8DC0F4
310
2A9CFD049018000000C1003FBFFFFFE02B5E8DC0F42A9CFD089018000000C1003FBFFFFFE02B5E8DC0F42A9CFD109018000000C1003FBFFFFFE02B5E8DC0F42A9CFD209018000000C1003FBFFFFFE02B5E8DC0F42A9CFD01405075F5449544C450041501A8000000C800406800020000A9416000000304000AD7A3703D0AC7
310
3F404B81E85EB51B8AE3F2E07A17AD46E2B8FCB81E85EB51B8AE3F2E07A17AD46E2B8FC0AD7A3703D0AC73F02B5E8DC0F42B1CFD0640640600000030400FEFFFFFF80AD7A3703D0AA73F40A40600000030400FEFFFFFF80AD7A3703D0AA73F41240600000030400FEFFFFFF80AD7A3703D0AA73F42240600000030400FEFFF
310
FFF80AD7A3703D0AA73F44240600000030400FEFFFFFF80AD7A3703D0AA73F48240600000030400FEFFFFFF80AD7A3703D0AA73F409014217D2115051115480105406A0000003200101A000080002A5028000000C10002B5E8DC0F42B1CFD012E07A17AD46E2B8FCB81E85EB51B8AE3F2E07A17AD46E2B8FCB81E85EB51B8A
310
E3F02B5E8DC0F42B1CFC0AD7A3703D0AC73F419019018000000C1003FBFFFFFE02B5E8DC0F42A9CFD029018000000C1003FBFFFFFE02B5E8DC0F42A9CFD049018000000C1003FBFFFFFE02B5E8DC0F42A9CFD089018000000C1003FBFFFFFE02B5E8DC0F42A9CFD109018000000C1003FBFFFFFE02B5E8DC0F42A9CFD20901
310
8000000C1003FBFFFFFE02B5E8DC0F42A9CFD03409065F4441544100AA
340
16
340
0
340
0
340
0
340
0
340
0
340
0
340
16
340
0
340
0
340
0
340
0
340
0
340
0
340
16
340
0
340
0
340
0
340
0
340
0
340
0
 94
        0
1001
ACAD
1000
AcadProxyRoundTripData
1071
      510
1071
   655383
1070
     0
  0
XRECORD
  5
1AD0
102
{ACAD_REACTORS
330
1A3F
102
}
330
1A3F
100
AcDbXrecord
102
ACAD_ROUNDTRIP_PRE2007_TABLESTYLE
 90
      512
 91
        0
  1

 92
      512
 93
        0
  2

 94
      512
 95
        0
  3

  0
ENDSEC
  0
EOF
