  0
SECTION
  2
HEADER
  9
$ACADVER
  1
AC1014
  9
$ACADMAINTVER
 70
     9
  9
$DWGCODEPAGE
  3
ANSI_932
  9
$INSBASE
 10
0.0
 20
0.0
 30
0.0
  9
$EXTMIN
 10
39.86246425864226
 20
101.3742291255317
 30
0.0
  9
$EXTMAX
 10
1399.705016484331
 20
929.6572039988109
 30
0.0
  9
$LIMMIN
 10
0.0
 20
0.0
  9
$LIMMAX
 10
297.0
 20
210.0
  9
$ORTHOMODE
 70
     1
  9
$REGENMODE
 70
     1
  9
$FILLMODE
 70
     1
  9
$QTEXTMODE
 70
     0
  9
$MIRRTEXT
 70
     0
  9
$DRAGMODE
 70
     2
  9
$LTSCALE
 40
4.0
  9
$OSMODE
 70
    37
  9
$ATTMODE
 70
     1
  9
$TEXTSIZE
 40
2.0
  9
$TRACEWID
 40
1.0
  9
$TEXTSTYLE
  7
STANDARD
  9
$CLAYER
  8
0
  9
$CELTYPE
  6
BYLAYER
  9
$CECOLOR
 62
   256
  9
$CELTSCALE
 40
1.0
  9
$DELOBJ
 70
     1
  9
$DISPSILH
 70
     0
  9
$DIMSCALE
 40
4.0
  9
$DIMASZ
 40
1.8
  9
$DIMEXO
 40
0.625
  9
$DIMDLI
 40
3.75
  9
$DIMRND
 40
0.0
  9
$DIMDLE
 40
0.0
  9
$DIMEXE
 40
0.8
  9
$DIMTP
 40
0.0
  9
$DIMTM
 40
0.0
  9
$DIMTXT
 40
1.8
  9
$DIMCEN
 40
2.5
  9
$DIMTSZ
 40
0.0
  9
$DIMTOL
 70
     0
  9
$DIMLIM
 70
     0
  9
$DIMTIH
 70
     0
  9
$DIMTOH
 70
     0
  9
$DIMSE1
 70
     0
  9
$DIMSE2
 70
     0
  9
$DIMTAD
 70
     1
  9
$DIMZIN
 70
     8
  9
$DIMBLK
  1

  9
$DIMASO
 70
     1
  9
$DIMSHO
 70
     1
  9
$DIMPOST
  1

  9
$DIMAPOST
  1

  9
$DIMALT
 70
     0
  9
$DIMALTD
 70
     4
  9
$DIMALTF
 40
0.0394
  9
$DIMLFAC
 40
1.0
  9
$DIMTOFL
 70
     1
  9
$DIMTVP
 40
0.0
  9
$DIMTIX
 70
     0
  9
$DIMSOXD
 70
     0
  9
$DIMSAH
 70
     0
  9
$DIMBLK1
  1

  9
$DIMBLK2
  1

  9
$DIMSTYLE
  2
STANDARD
  9
$DIMCLRD
 70
     0
  9
$DIMCLRE
 70
     0
  9
$DIMCLRT
 70
     0
  9
$DIMTFAC
 40
1.0
  9
$DIMGAP
 40
0.75
  9
$DIMJUST
 70
     0
  9
$DIMSD1
 70
     0
  9
$DIMSD2
 70
     0
  9
$DIMTOLJ
 70
     1
  9
$DIMTZIN
 70
     0
  9
$DIMALTZ
 70
     0
  9
$DIMALTTZ
 70
     0
  9
$DIMFIT
 70
     3
  9
$DIMUPT
 70
     0
  9
$DIMUNIT
 70
     8
  9
$DIMDEC
 70
     2
  9
$DIMTDEC
 70
     2
  9
$DIMALTU
 70
     8
  9
$DIMALTTD
 70
     4
  9
$DIMTXSTY
  7
STANDARD
  9
$DIMAUNIT
 70
     0
  9
$LUNITS
 70
     2
  9
$LUPREC
 70
     3
  9
$SKETCHINC
 40
1.0
  9
$FILLETRAD
 40
0.0
  9
$AUNITS
 70
     0
  9
$AUPREC
 70
     2
  9
$MENU
  1
.
  9
$ELEVATION
 40
0.0
  9
$PELEVATION
 40
0.0
  9
$THICKNESS
 40
0.0
  9
$LIMCHECK
 70
     0
  9
$BLIPMODE
 70
     0
  9
$CHAMFERA
 40
0.0
  9
$CHAMFERB
 40
0.0
  9
$CHAMFERC
 40
20.0
  9
$CHAMFERD
 40
0.0
  9
$SKPOLY
 70
     0
  9
$TDCREATE
 40
2454413.470368923
  9
$TDUPDATE
 40
2454424.603699896
  9
$TDINDWG
 40
0.0076309144
  9
$TDUSRTIMER
 40
0.0076309144
  9
$USRTIMER
 70
     1
  9
$ANGBASE
 50
0.0
  9
$ANGDIR
 70
     0
  9
$PDMODE
 70
     0
  9
$PDSIZE
 40
-10.0
  9
$PLINEWID
 40
0.0
  9
$COORDS
 70
     0
  9
$SPLFRAME
 70
     0
  9
$SPLINETYPE
 70
     6
  9
$SPLINESEGS
 70
     8
  9
$ATTDIA
 70
     0
  9
$ATTREQ
 70
     1
  9
$HANDLING
 70
-16383
  9
$HANDSEED
  5
1AA8
  9
$SURFTAB1
 70
     6
  9
$SURFTAB2
 70
     6
  9
$SURFTYPE
 70
     6
  9
$SURFU
 70
     6
  9
$SURFV
 70
     6
  9
$UCSNAME
  2

  9
$UCSORG
 10
0.0
 20
0.0
 30
0.0
  9
$UCSXDIR
 10
1.0
 20
0.0
 30
0.0
  9
$UCSYDIR
 10
0.0
 20
1.0
 30
0.0
  9
$PUCSNAME
  2

  9
$PUCSORG
 10
0.0
 20
0.0
 30
0.0
  9
$PUCSXDIR
 10
1.0
 20
0.0
 30
0.0
  9
$PUCSYDIR
 10
0.0
 20
1.0
 30
0.0
  9
$USERI1
 70
     0
  9
$USERI2
 70
     0
  9
$USERI3
 70
     0
  9
$USERI4
 70
     0
  9
$USERI5
 70
     0
  9
$USERR1
 40
0.0
  9
$USERR2
 40
0.0
  9
$USERR3
 40
0.0
  9
$USERR4
 40
0.0
  9
$USERR5
 40
0.0
  9
$WORLDVIEW
 70
     1
  9
$SHADEDGE
 70
     3
  9
$SHADEDIF
 70
    70
  9
$TILEMODE
 70
     1
  9
$MAXACTVP
 70
    48
  9
$PINSBASE
 10
0.0
 20
0.0
 30
0.0
  9
$PLIMCHECK
 70
     0
  9
$PEXTMIN
 10
0.0
 20
0.0
 30
0.0
  9
$PEXTMAX
 10
0.0
 20
0.0
 30
0.0
  9
$PLIMMIN
 10
0.0
 20
0.0
  9
$PLIMMAX
 10
12.0
 20
9.0
  9
$UNITMODE
 70
     0
  9
$VISRETAIN
 70
     1
  9
$PLINEGEN
 70
     0
  9
$PSLTSCALE
 70
     1
  9
$TREEDEPTH
 70
  3020
  9
$PICKSTYLE
 70
     1
  9
$CMLSTYLE
  2
STANDARD
  9
$CMLJUST
 70
     0
  9
$CMLSCALE
 40
1.0
  9
$PROXYGRAPHICS
 70
     1
  9
$MEASUREMENT
 70
     0
  0
ENDSEC
  0
SECTION
  2
CLASSES
  0
CLASS
  1
DICTIONARYVAR
  2
AcDbDictionaryVar
  3
AutoCAD 2000
 90
        0
280
     0
281
     0
  0
CLASS
  1
ACDBDICTIONARYWDFLT
  2
AcDbDictionaryWithDefault
  3
AutoCAD 2000
 90
        0
280
     0
281
     0
  0
CLASS
  1
ACDBPLACEHOLDER
  2
AcDbPlaceHolder
  3
AutoCAD 2000
 90
        0
280
     0
281
     0
  0
CLASS
  1
LAYOUT
  2
AcDbLayout
  3
AutoCAD 2000
 90
        0
280
     0
281
     0
  0
CLASS
  1
MATERIAL
  2
AcDbMaterial
  3
ObjectDBX Classes
 90
     1153
280
     0
281
     0
  0
CLASS
  1
VISUALSTYLE
  2
AcDbVisualStyle
  3
ObjectDBX Classes
 90
     4095
280
     0
281
     0
  0
CLASS
  1
TABLESTYLE
  2
AcDbTableStyle
  3
ObjectDBX Classes
 90
     4095
280
     0
281
     0
  0
CLASS
  1
SCALE
  2
AcDbScale
  3
ObjectDBX Classes
 90
     1153
280
     0
281
     0
  0
CLASS
  1
MLEADERSTYLE
  2
AcDbMLeaderStyle
  3
ACDB_MLEADERSTYLE_CLASS
 90
     4095
280
     0
281
     0
  0
CLASS
  1
SORTENTSTABLE
  2
AcDbSortentsTable
  3
AutoCAD 2000
 90
        0
280
     0
281
     0
  0
CLASS
  1
CELLSTYLEMAP
  2
AcDbCellStyleMap
  3
ObjectDBX Classes
 90
     1152
280
     0
281
     0
  0
CLASS
  1
ACAD_PROXY_OBJECT_WRAPPER
  2
AcDbProxyObjectWrapper
  3
AutoCAD 2000
 90
        0
280
     0
281
     0
  0
CLASS
  1
LONG_TRANSACTION
  2
AcDbLongTransaction
  3
AutoCAD 2000
 90
        0
280
     0
281
     0
  0
CLASS
  1
LWPOLYLINE
  2
AcDbPolyline
  3
AutoCAD 2000
 90
        0
280
     0
281
     1
  0
CLASS
  1
HATCH
  2
AcDbHatch
  3
AutoCAD 2000
 90
        0
280
     0
281
     1
  0
CLASS
  1
XRECORD
  2
AcDbXrecord
  3
AutoCAD 2000
 90
        0
280
     0
281
     0
  0
ENDSEC
  0
SECTION
  2
TABLES
  0
TABLE
  2
VPORT
  5
6E
102
{ACAD_XDICTIONARY
360
19DA
102
}
330
0
100
AcDbSymbolTable
 70
     2
  0
VPORT
  5
1A82
330
6E
100
AcDbSymbolTableRecord
100
AcDbViewportTableRecord
  2
*ACTIVE
 70
     0
 10
0.0
 20
0.0
 11
1.0
 21
1.0
 12
808.406138641553
 22
497.2068823031768
 13
0.0
 23
0.0
 14
10.0
 24
10.0
 15
10.0
 25
10.0
 16
0.0
 26
0.0
 36
1.0
 17
0.0
 27
0.0
 37
0.0
 40
880.5044604918107
 41
1.753504672897196
 42
50.0
 43
0.0
 44
0.0
 50
0.0
 51
0.0
 71
     0
 72
   100
 73
     1
 74
     3
 75
     0
 76
     0
 77
     0
 78
     0
  0
ENDTAB
  0
TABLE
  2
LTYPE
  5
69
330
0
100
AcDbSymbolTable
 70
     6
  0
LTYPE
  5
6A
330
69
100
AcDbSymbolTableRecord
100
AcDbLinetypeTableRecord
  2
BYBLOCK
 70
     0
  3

 72
    65
 73
     0
 40
0.0
  0
LTYPE
  5
6B
330
69
100
AcDbSymbolTableRecord
100
AcDbLinetypeTableRecord
  2
BYLAYER
 70
     0
  3

 72
    65
 73
     0
 40
0.0
  0
LTYPE
  5
8
330
69
100
AcDbSymbolTableRecord
100
AcDbLinetypeTableRecord
  2
CONTINUOUS
 70
     0
  3
Solid line
 72
    65
 73
     0
 40
0.0
  0
LTYPE
  5
27C
330
69
100
AcDbSymbolTableRecord
100
AcDbLinetypeTableRecord
  2
SEKKEI_A2_
 70
     0
  3
center(A2)  ____ _ ____ _ ____ _ ____ _ ____ _ 
 72
    65
 73
     4
 40
14.28749999999999
 49
9.525
 74
     0
 49
-1.587499999999999
 74
     0
 49
1.587499999999999
 74
     0
 49
-1.587499999999999
 74
     0
  0
LTYPE
  5
7EF
330
69
100
AcDbSymbolTableRecord
100
AcDbLinetypeTableRecord
  2
PHANTOM3
 70
     0
  3
Phantom  ___ _ _ ___ _ _ ___ _ _ ___ _ _
 72
    65
 73
     6
 40
9.0
 49
4.0
 74
     0
 49
-1.0
 74
     0
 49
1.0
 74
     0
 49
-1.0
 74
     0
 49
1.0
 74
     0
 49
-1.0
 74
     0
  0
LTYPE
  5
7F0
330
69
100
AcDbSymbolTableRecord
100
AcDbLinetypeTableRecord
  2
HIDDEN3
 70
     0
  3
Hidden (.3x) _ _ _ _ _ _ _ _ _ _ _ _ _ _ _ _ _
 72
    65
 73
     2
 40
2.857499999999999
 49
1.905
 74
     0
 49
-0.9525
 74
     0
  0
LTYPE
  5
B18
330
69
100
AcDbSymbolTableRecord
100
AcDbLinetypeTableRecord
  2
CENS
 70
     0
  3
(一点鎖線１)---- - ---- - ---- - ---- - ---- - 
 72
    65
 73
     4
 40
7.0
 49
4.0
 74
     0
 49
-1.0
 74
     0
 49
1.0
 74
     0
 49
-1.0
 74
     0
  0
ENDTAB
  0
TABLE
  2
LAYER
  5
66
102
{ACAD_XDICTIONARY
360
B19
102
}
330
0
100
AcDbSymbolTable
 70
    10
  0
LAYER
  5
5E
102
{ACAD_XDICTIONARY
360
1998
102
}
330
66
100
AcDbSymbolTableRecord
100
AcDbLayerTableRecord
  2
0
 70
     0
 62
     7
  6
CONTINUOUS
  0
LAYER
  5
3E
102
{ACAD_XDICTIONARY
360
199A
102
}
330
66
100
AcDbSymbolTableRecord
100
AcDbLayerTableRecord
  2
CENTER
 70
     0
 62
     3
  6
SEKKEI_A2_
  0
LAYER
  5
2B5
102
{ACAD_XDICTIONARY
360
19A0
102
}
330
66
100
AcDbSymbolTableRecord
100
AcDbLayerTableRecord
  2
HIDS
 70
     0
 62
     1
  6
HIDDEN3
  0
LAYER
  5
2BA
102
{ACAD_XDICTIONARY
360
19A2
102
}
330
66
100
AcDbSymbolTableRecord
100
AcDbLayerTableRecord
  2
HOJO
 70
     0
 62
     4
  6
CONTINUOUS
  0
LAYER
  5
3FA
102
{ACAD_XDICTIONARY
360
19A6
102
}
330
66
100
AcDbSymbolTableRecord
100
AcDbLayerTableRecord
  2
TITLE
 70
     0
 62
     4
  6
CONTINUOUS
  0
LAYER
  5
478
102
{ACAD_XDICTIONARY
360
19A8
102
}
330
66
100
AcDbSymbolTableRecord
100
AcDbLayerTableRecord
  2
PHAS
 70
     0
 62
     2
  6
PHANTOM3
  0
ENDTAB
  0
TABLE
  2
STYLE
  5
67
330
0
100
AcDbSymbolTable
 70
     2
  0
STYLE
  5
16
330
67
100
AcDbSymbolTableRecord
100
AcDbTextStyleTableRecord
  2
STANDARD
 70
     0
 40
0.0
 41
1.0
 50
0.0
 71
     0
 42
2.0
  3
simplex.shx
  4
extfont.shx
  0
ENDTAB
  0
TABLE
  2
VIEW
  5
6C
330
0
100
AcDbSymbolTable
 70
     0
  0
ENDTAB
  0
TABLE
  2
UCS
  5
6D
330
0
100
AcDbSymbolTable
 70
     0
  0
ENDTAB
  0
TABLE
  2
APPID
  5
70
330
0
100
AcDbSymbolTable
 70
     2
  0
APPID
  5
71
330
70
100
AcDbSymbolTableRecord
100
AcDbRegAppTableRecord
  2
ACAD
 70
     0
  0
APPID
  5
18C7
330
70
100
AcDbSymbolTableRecord
100
AcDbRegAppTableRecord
  2
ACAD_MLEADERVER
 70
     0
  0
ENDTAB
  0
TABLE
  2
DIMSTYLE
  5
72
330
0
100
AcDbSymbolTable
 70
     1
  0
DIMSTYLE
105
73
330
72
100
AcDbSymbolTableRecord
100
AcDbDimStyleTableRecord
  2
STANDARD
 70
     0
  3

  4

  5

  6

  7

 40
4.0
 41
1.8
 42
0.625
 43
3.75
 44
0.8
 45
0.0
 46
0.0
 47
0.0
 48
0.0
140
1.8
141
2.5
142
0.0
143
0.0394
144
1.0
145
0.0
146
1.0
147
0.75
 71
     0
 72
     0
 73
     0
 74
     0
 75
     0
 76
     0
 77
     1
 78
     8
170
     0
171
     4
172
     1
173
     0
174
     0
175
     0
176
     0
177
     0
178
     0
270
     8
271
     2
272
     2
273
     8
274
     4
340
16
275
     0
280
     0
281
     0
282
     0
283
     1
284
     0
285
     0
286
     0
287
     3
288
     0
  0
ENDTAB
  0
TABLE
  2
BLOCK_RECORD
  5
1
330
0
100
AcDbSymbolTable
 70
    55
  0
BLOCK_RECORD
  5
2
102
{ACAD_XDICTIONARY
360
1AA4
102
}
330
1
100
AcDbSymbolTableRecord
100
AcDbBlockTableRecord
  2
*MODEL_SPACE
  0
BLOCK_RECORD
  5
1A7D
102
{ACAD_XDICTIONARY
360
1AA6
102
}
330
1
100
AcDbSymbolTableRecord
100
AcDbBlockTableRecord
  2
*PAPER_SPACE
  0
ENDTAB
  0
ENDSEC
  0
SECTION
  2
BLOCKS
  0
BLOCK
  5
5D
330
2
100
AcDbEntity
  8
0
100
AcDbBlockBegin
  2
*MODEL_SPACE
 70
     0
 10
0.0
 20
0.0
 30
0.0
  3
*MODEL_SPACE
  1

  0
ENDBLK
  5
5F
330
2
100
AcDbEntity
  8
0
100
AcDbBlockEnd
  0
BLOCK
  5
1A7F
330
1A7D
100
AcDbEntity
 67
     1
  8
0
100
AcDbBlockBegin
  2
*PAPER_SPACE
 70
     0
 10
0.0
 20
0.0
 30
0.0
  3
*PAPER_SPACE
  1

  0
ENDBLK
  5
1A80
330
1A7D
100
AcDbEntity
 67
     1
  8
0
100
AcDbBlockEnd
  0
ENDSEC
  0
SECTION
  2
ENTITIES
  0
LINE
  5
FB0
330
2
100
AcDbEntity
  8
CENTER
100
AcDbLine
 10
1315.705013155521
 20
592.7661454538367
 30
0.0
 11
1315.705013155521
 21
428.3944799347712
 31
0.0
  0
LINE
  5
FB1
330
2
100
AcDbEntity
  8
0
100
AcDbLine
 10
1243.705016484331
 20
552.148935144776
 30
0.0
 11
1243.705016484331
 21
469.0116902440038
 31
0.0
  0
LINE
  5
FB2
330
2
100
AcDbEntity
  8
0
100
AcDbLine
 10
1257.705016484331
 20
570.5803126943044
 30
0.0
 11
1257.705016484331
 21
450.5803126943044
 31
0.0
  0
LINE
  5
FB3
330
2
100
AcDbEntity
  8
CENTER
100
AcDbLine
 10
1399.705016484331
 20
510.5803126943899
 30
0.0
 11
1215.705016484331
 21
510.5803126943899
 31
0.0
  0
LINE
  5
FB4
330
2
100
AcDbEntity
  8
0
100
AcDbLine
 10
1351.705013155521
 20
578.0803126943044
 30
0.0
 11
1262.705016484331
 21
577.3036214899764
 31
0.0
  0
LINE
  5
FB5
330
2
100
AcDbEntity
  8
0
100
AcDbLine
 10
1262.705016484331
 20
570.5803126943044
 30
0.0
 11
1257.705016484331
 21
570.5803126943044
 31
0.0
  0
LINE
  5
FB6
330
2
100
AcDbEntity
  8
0
100
AcDbLine
 10
1262.705016484331
 20
443.8570038986306
 30
0.0
 11
1351.705013155521
 21
443.0803126943045
 31
0.0
  0
LINE
  5
FB7
330
2
100
AcDbEntity
  8
0
100
AcDbLine
 10
1262.705016484331
 20
450.5803126943044
 30
0.0
 11
1257.705016484331
 21
450.5803126943044
 31
0.0
  0
LINE
  5
FB8
330
2
100
AcDbEntity
  8
0
100
AcDbLine
 10
1264.705016484415
 20
462.3265360180974
 30
0.0
 11
1264.705016484331
 21
558.8340893705042
 31
0.0
  0
LINE
  5
FB9
330
2
100
AcDbEntity
  8
0
100
AcDbLine
 10
1351.705013155521
 20
578.0803126943044
 30
0.0
 11
1351.705013155521
 21
561.7273681329041
 31
0.0
  0
LINE
  5
FBA
330
2
100
AcDbEntity
  8
0
100
AcDbLine
 10
1351.705013155521
 20
459.4332572558758
 30
0.0
 11
1351.705013155521
 21
443.0803126943045
 31
0.0
  0
LINE
  5
FBB
330
2
100
AcDbEntity
  8
0
100
AcDbLine
 10
1262.705016484331
 20
443.8570038986306
 30
0.0
 11
1262.705016484331
 21
577.3036214899764
 31
0.0
  0
LINE
  5
FBC
330
2
100
AcDbEntity
  8
0
100
AcDbLine
 10
1315.705013155521
 20
562.0803078556307
 30
0.0
 11
1358.783441717951
 21
561.6579720602892
 31
0.0
  0
ARC
  5
FBD
330
2
100
AcDbEntity
  8
0
100
AcDbCircle
 10
1358.705014437428
 20
553.658356496922
 30
0.0
 40
8.0
100
AcDbArc
 50
0.0324355144522694
 51
89.438296980908
  0
LINE
  5
FBE
330
2
100
AcDbEntity
  8
0
100
AcDbLine
 10
1315.705013155521
 20
562.0803078556307
 30
0.0
 11
1272.62658459309
 21
561.6579720602892
 31
0.0
  0
ARC
  5
FBF
330
2
100
AcDbEntity
  8
0
100
AcDbCircle
 10
1272.705011873615
 20
553.658356496922
 30
0.0
 40
8.0
100
AcDbArc
 50
90.56170301909203
 51
180.0
  0
LINE
  5
FC0
330
2
100
AcDbEntity
  8
0
100
AcDbLine
 10
1315.705013155521
 20
459.0803175331491
 30
0.0
 11
1272.62658459309
 21
459.5026533284906
 31
0.0
  0
LINE
  5
FC1
330
2
100
AcDbEntity
  8
0
100
AcDbLine
 10
1315.705013155521
 20
459.0803175331491
 30
0.0
 11
1358.783441717951
 21
459.5026533284906
 31
0.0
  0
ARC
  5
FC2
330
2
100
AcDbEntity
  8
0
100
AcDbCircle
 10
1272.705011873615
 20
467.5022688918596
 30
0.0
 40
8.0
100
AcDbArc
 50
180.0
 51
269.4382969809079
  0
ARC
  5
FC3
330
2
100
AcDbEntity
  8
0
100
AcDbCircle
 10
1358.705014437428
 20
467.5022688918596
 30
0.0
 40
8.0
100
AcDbArc
 50
270.5617030190919
 51
359.9675644788776
  0
LINE
  5
FC4
330
2
100
AcDbEntity
  8
0
100
AcDbLine
 10
1269.213141840108
 20
560.8560536056573
 30
0.0
 11
1266.687563413334
 21
560.8340132166319
 31
0.0
  0
LINE
  5
FC5
330
2
100
AcDbEntity
  8
0
100
AcDbLine
 10
1245.635217490926
 20
554.1477167988139
 30
0.0
 11
1255.774815477737
 21
554.5017993628514
 31
0.0
  0
LINE
  5
FC6
330
2
100
AcDbEntity
  8
0
100
AcDbLine
 10
1245.635217490926
 20
467.012908589966
 30
0.0
 11
1255.774815477737
 21
466.6588260259302
 31
0.0
  0
ARC
  5
FC7
330
2
100
AcDbEntity
  8
0
100
AcDbCircle
 10
1255.705016484331
 20
464.6600443718924
 30
0.0
 40
2.0
100
AcDbArc
 50
0.0
 51
87.99999999999636
  0
ARC
  5
FC8
330
2
100
AcDbEntity
  8
0
100
AcDbCircle
 10
1255.705016484331
 20
556.5005810168893
 30
0.0
 40
2.0
100
AcDbArc
 50
272.0000000000036
 51
0.0
  0
ARC
  5
FC9
330
2
100
AcDbEntity
  8
0
100
AcDbCircle
 10
1245.705016484331
 20
552.148935144776
 30
0.0
 40
2.0
100
AcDbArc
 50
92.00000000000365
 51
180.0
  0
ARC
  5
FCA
330
2
100
AcDbEntity
  8
0
100
AcDbCircle
 10
1245.705016484331
 20
469.0116902440038
 30
0.0
 40
2.0
100
AcDbArc
 50
180.0
 51
267.9999999999963
  0
ARC
  5
FCB
330
2
100
AcDbEntity
  8
0
100
AcDbCircle
 10
1266.705016484331
 20
558.8340893705042
 30
0.0
 40
2.0
100
AcDbArc
 50
90.49999999996549
 51
180.0
  0
ARC
  5
FCC
330
2
100
AcDbEntity
  8
0
100
AcDbCircle
 10
1266.705016484415
 20
462.3265360181011
 30
0.0
 40
2.0
100
AcDbArc
 50
180.0000000001042
 51
269.5000000000866
  0
LINE
  5
FCD
330
2
100
AcDbEntity
  8
0
100
AcDbLine
 10
1269.213136614124
 20
460.3045718285591
 30
0.0
 11
1266.687563413421
 21
460.3266121719733
 31
0.0
  0
ARC
  5
FCE
330
2
100
AcDbEntity
  8
0
100
AcDbCircle
 10
1370.205013155521
 20
575.9187894834902
 30
0.0
 40
2.0
100
AcDbArc
 50
0.0
 51
89.49999999998238
  0
LINE
  5
FCF
330
2
100
AcDbEntity
  8
0
100
AcDbLine
 10
1372.790799593147
 20
564.9945262567633
 30
0.0
 11
1373.619226717894
 21
564.1660991320184
 31
0.0
  0
LINE
  5
FD0
330
2
100
AcDbEntity
  8
0
100
AcDbLine
 10
1382.705013155521
 20
552.5029624251999
 30
0.0
 11
1382.705013155521
 21
468.6576629635781
 31
0.0
  0
LINE
  5
FD1
330
2
100
AcDbEntity
  8
0
100
AcDbLine
 10
1374.205013155521
 20
555.5803126943898
 30
0.0
 11
1374.705013155521
 21
555.0803126943899
 31
0.0
  0
LINE
  5
FD2
330
2
100
AcDbEntity
  8
0
100
AcDbLine
 10
1378.205013155521
 20
552.880312694391
 30
0.0
 11
1378.005013155522
 21
553.0803126943899
 31
0.0
  0
LINE
  5
FD3
330
2
100
AcDbEntity
  8
0
100
AcDbLine
 10
1380.005013155522
 20
552.380312694391
 30
0.0
 11
1378.405013155521
 21
552.380312694391
 31
0.0
  0
LINE
  5
FD4
330
2
100
AcDbEntity
  8
0
100
AcDbLine
 10
1381.705013155521
 20
553.0803126943899
 30
0.0
 11
1382.705013155521
 21
552.5029624252018
 31
0.0
  0
LINE
  5
FD5
330
2
100
AcDbEntity
  8
0
100
AcDbLine
 10
1381.705013155521
 20
553.0803126943899
 30
0.0
 11
1380.405013155521
 21
553.0803126943899
 31
0.0
  0
LINE
  5
FD6
330
2
100
AcDbEntity
  8
0
100
AcDbLine
 10
1378.005013155522
 20
553.0803126943899
 30
0.0
 11
1374.705013155521
 21
553.0803126943899
 31
0.0
  0
LINE
  5
FD7
330
2
100
AcDbEntity
  8
0
100
AcDbLine
 10
1374.205013155526
 20
458.4087398191366
 30
0.0
 11
1374.205013155513
 21
562.751885569645
 31
0.0
  0
LINE
  5
FD8
330
2
100
AcDbEntity
  8
0
100
AcDbLine
 10
1374.205013155524
 20
465.58031269439
 30
0.0
 11
1374.705013155524
 21
466.08031269439
 31
0.0
  0
LINE
  5
FD9
330
2
100
AcDbEntity
  8
0
100
AcDbLine
 10
1378.205013155525
 20
468.2803126943907
 30
0.0
 11
1378.205013155525
 21
552.8803126943873
 31
0.0
  0
LINE
  5
FDA
330
2
100
AcDbEntity
  8
0
100
AcDbLine
 10
1378.205013155525
 20
468.2803126943907
 30
0.0
 11
1378.005013155525
 21
468.0803126943899
 31
0.0
  0
LINE
  5
FDB
330
2
100
AcDbEntity
  8
0
100
AcDbLine
 10
1380.205013155524
 20
468.2803126943907
 30
0.0
 11
1380.20501315559
 21
552.880312694391
 31
0.0
  0
LINE
  5
FDC
330
2
100
AcDbEntity
  8
0
100
AcDbLine
 10
1381.705013155524
 20
468.0803126943899
 30
0.0
 11
1380.405013155525
 21
468.0803126943899
 31
0.0
  0
LINE
  5
FDD
330
2
100
AcDbEntity
  8
0
100
AcDbLine
 10
1380.005013155525
 20
468.7803126943907
 30
0.0
 11
1378.405013155525
 21
468.7803126943907
 31
0.0
  0
LINE
  5
FDE
330
2
100
AcDbEntity
  8
0
100
AcDbLine
 10
1381.705013155524
 20
468.0803126943899
 30
0.0
 11
1382.705013155524
 21
468.65766296358
 31
0.0
  0
LINE
  5
FDF
330
2
100
AcDbEntity
  8
0
100
AcDbLine
 10
1374.705013155524
 20
466.08031269439
 30
0.0
 11
1374.705013155524
 21
555.0803126943862
 31
0.0
  0
LINE
  5
FE0
330
2
100
AcDbEntity
  8
0
100
AcDbLine
 10
1378.005013155525
 20
468.0803126943899
 30
0.0
 11
1374.705013155524
 21
468.0803126943899
 31
0.0
  0
LINE
  5
FE1
330
2
100
AcDbEntity
  8
0
100
AcDbLine
 10
1372.205013155526
 20
445.2418359052916
 30
0.0
 11
1372.205013155526
 21
575.9187894834902
 31
0.0
  0
LINE
  5
FE2
330
2
100
AcDbEntity
  8
0
100
AcDbLine
 10
1372.790799593153
 20
456.1660991320166
 30
0.0
 11
1373.6192267179
 21
456.9945262567633
 31
0.0
  0
LINE
  5
FE3
330
2
100
AcDbEntity
  8
0
100
AcDbLine
 10
1370.222466226518
 20
577.9187133296179
 30
0.0
 11
1351.705013155521
 21
578.0803126943899
 31
0.0
  0
ARC
  5
FE4
330
2
100
AcDbEntity
  8
0
100
AcDbCircle
 10
1372.205013155526
 20
458.4087398191366
 30
0.0
 40
2.0
100
AcDbArc
 50
314.9999999999812
 51
0.0
  0
ARC
  5
FE5
330
2
100
AcDbEntity
  8
0
100
AcDbCircle
 10
1374.205013155526
 20
454.7518855696432
 30
0.0
 40
2.0
100
AcDbArc
 50
134.9999999999812
 51
180.0
  0
ARC
  5
FE6
330
2
100
AcDbEntity
  8
0
100
AcDbCircle
 10
1372.205013155521
 20
562.751885569645
 30
0.0
 40
2.0
100
AcDbArc
 50
0.0
 51
45.00000000001871
  0
ARC
  5
FE7
330
2
100
AcDbEntity
  8
0
100
AcDbCircle
 10
1374.205013155521
 20
566.4087398191366
 30
0.0
 40
2.0
100
AcDbArc
 50
180.0
 51
225.0000000000187
  0
ARC
  5
FE8
330
2
100
AcDbEntity
  8
0
100
AcDbCircle
 10
1380.405013155521
 20
552.880312694391
 30
0.0
 40
0.2
100
AcDbArc
 50
90.0
 51
180.0
  0
ARC
  5
FE9
330
2
100
AcDbEntity
  8
0
100
AcDbCircle
 10
1380.005013155522
 20
552.5803126943899
 30
0.0
 40
0.2
100
AcDbArc
 50
270.0
 51
0.0
  0
ARC
  5
FEA
330
2
100
AcDbEntity
  8
0
100
AcDbCircle
 10
1378.405013155521
 20
552.5803126943899
 30
0.0
 40
0.2
100
AcDbArc
 50
180.0
 51
270.0
  0
ARC
  5
FEB
330
2
100
AcDbEntity
  8
0
100
AcDbCircle
 10
1380.405013155525
 20
468.2803126943907
 30
0.0
 40
0.2
100
AcDbArc
 50
180.0
 51
270.0
  0
ARC
  5
FEC
330
2
100
AcDbEntity
  8
0
100
AcDbCircle
 10
1380.005013155525
 20
468.5803126943899
 30
0.0
 40
0.2
100
AcDbArc
 50
0.0
 51
90.0
  0
ARC
  5
FED
330
2
100
AcDbEntity
  8
0
100
AcDbCircle
 10
1378.405013155525
 20
468.5803126943899
 30
0.0
 40
0.2
100
AcDbArc
 50
90.0
 51
180.0
  0
LINE
  5
FEE
330
2
100
AcDbEntity
  8
0
100
AcDbLine
 10
1381.705013155521
 20
553.0803126943899
 30
0.0
 11
1381.705013155524
 21
468.0803126943899
 31
0.0
  0
ARC
  5
FEF
330
2
100
AcDbEntity
  8
0
100
AcDbCircle
 10
1370.205013155521
 20
445.2418359052916
 30
0.0
 40
2.0
100
AcDbArc
 50
270.5000000000175
 51
0.0
  0
LINE
  5
FF0
330
2
100
AcDbEntity
  8
0
100
AcDbLine
 10
1370.222466226518
 20
443.2419120591619
 30
0.0
 11
1351.705013155521
 21
443.0803126943899
 31
0.0
  0
LINE
  5
FF1
330
2
100
AcDbEntity
  8
0
100
AcDbLine
 10
1366.705013155521
 20
553.6538276449825
 30
0.0
 11
1366.705013155521
 21
467.506797744725
 31
0.0
  0
ARC
  5
FF2
330
2
100
AcDbEntity
  8
0
100
AcDbCircle
 10
1364.705013155521
 20
559.4667872563402
 30
0.0
 40
2.0
100
AcDbArc
 50
17.86424478083925
 51
89.50000000000846
  0
LINE
  5
FF3
330
2
100
AcDbEntity
  8
0
100
AcDbLine
 10
1364.722466226518
 20
561.4667111024679
 30
0.0
 11
1360.260650597356
 21
561.5056487775707
 31
0.0
  0
ARC
  5
FF4
330
2
100
AcDbEntity
  8
0
100
AcDbCircle
 10
1364.705013155521
 20
461.6938381324414
 30
0.0
 40
2.0
100
AcDbArc
 50
270.4999999999915
 51
342.1357552191607
  0
LINE
  5
FF5
330
2
100
AcDbEntity
  8
0
100
AcDbLine
 10
1364.722466226518
 20
459.6939142863137
 30
0.0
 11
1360.260650597358
 21
459.654976611211
 31
0.0
  0
LINE
  5
FF6
330
2
100
AcDbEntity
  8
CENTER
100
AcDbLine
 10
1379.349843748087
 20
553.5803126943899
 30
0.0
 11
1340.958112344502
 21
553.5803126943899
 31
0.0
  0
LINE
  5
FF7
330
2
100
AcDbEntity
  8
CENTER
100
AcDbLine
 10
1379.349843748087
 20
467.5803126943917
 30
0.0
 11
1340.958112344502
 21
467.5803126943917
 31
0.0
  0
LINE
  5
FF8
330
2
100
AcDbEntity
  8
0
100
AcDbLine
 10
1371.705013155521
 20
559.214287290604
 30
0.0
 11
1371.705013155521
 21
547.946338098174
 31
0.0
  0
LINE
  5
FF9
330
2
100
AcDbEntity
  8
0
100
AcDbLine
 10
1363.705013155521
 20
560.0803126943899
 30
0.0
 11
1363.705013155521
 21
559.9033555216663
 31
0.0
  0
LINE
  5
FFA
330
2
100
AcDbEntity
  8
0
100
AcDbLine
 10
1371.205013155521
 20
547.0803126943899
 30
0.0
 11
1371.705013155521
 21
547.946338098174
 31
0.0
  0
LINE
  5
FFB
330
2
100
AcDbEntity
  8
0
100
AcDbLine
 10
1366.705013155521
 20
547.0803126943899
 30
0.0
 11
1371.205013155521
 21
547.0803126943899
 31
0.0
  0
LINE
  5
FFC
330
2
100
AcDbEntity
  8
0
100
AcDbLine
 10
1371.205013155521
 20
560.0803126943899
 30
0.0
 11
1371.705013155521
 21
559.2142872906058
 31
0.0
  0
LINE
  5
FFD
330
2
100
AcDbEntity
  8
0
100
AcDbLine
 10
1363.475599160269
 20
560.0803126943899
 30
0.0
 11
1363.705013155521
 21
560.0803126943899
 31
0.0
  0
LINE
  5
FFE
330
2
100
AcDbEntity
  8
0
100
AcDbLine
 10
1363.705013155521
 20
560.0803126943899
 30
0.0
 11
1371.205013155521
 21
560.0803126943899
 31
0.0
  0
LINE
  5
FFF
330
2
100
AcDbEntity
  8
0
100
AcDbLine
 10
1371.205013155521
 20
560.0803126943899
 30
0.0
 11
1371.205013155521
 21
547.0803126943899
 31
0.0
  0
LINE
  5
1000
330
2
100
AcDbEntity
  8
0
100
AcDbLine
 10
1371.705013155521
 20
473.2142872906059
 30
0.0
 11
1371.705013155521
 21
461.9463380981758
 31
0.0
  0
LINE
  5
1001
330
2
100
AcDbEntity
  8
0
100
AcDbLine
 10
1363.705013155521
 20
461.2572698671136
 30
0.0
 11
1363.705013155521
 21
461.0803126943918
 31
0.0
  0
LINE
  5
1002
330
2
100
AcDbEntity
  8
0
100
AcDbLine
 10
1371.205013155521
 20
461.0803126943918
 30
0.0
 11
1371.705013155521
 21
461.9463380981758
 31
0.0
  0
LINE
  5
1003
330
2
100
AcDbEntity
  8
0
100
AcDbLine
 10
1363.475599160269
 20
461.0803126943918
 30
0.0
 11
1363.705013155521
 21
461.0803126943918
 31
0.0
  0
LINE
  5
1004
330
2
100
AcDbEntity
  8
0
100
AcDbLine
 10
1363.705013155521
 20
461.0803126943918
 30
0.0
 11
1371.205013155521
 21
461.0803126943918
 31
0.0
  0
LINE
  5
1005
330
2
100
AcDbEntity
  8
0
100
AcDbLine
 10
1371.205013155521
 20
474.0803126943918
 30
0.0
 11
1371.705013155521
 21
473.2142872906077
 31
0.0
  0
LINE
  5
1006
330
2
100
AcDbEntity
  8
0
100
AcDbLine
 10
1366.705013155521
 20
474.0803126943918
 30
0.0
 11
1371.205013155521
 21
474.0803126943918
 31
0.0
  0
LINE
  5
1007
330
2
100
AcDbEntity
  8
0
100
AcDbLine
 10
1371.205013155521
 20
474.0803126943918
 30
0.0
 11
1371.205013155521
 21
461.0803126943918
 31
0.0
  0
LINE
  5
1008
330
2
100
AcDbEntity
  8
0
100
AcDbLine
 10
1230.705016484331
 20
486.0803126943026
 30
0.0
 11
1230.705016484331
 21
535.0803126943026
 31
0.0
  0
LINE
  5
1009
330
2
100
AcDbEntity
  8
0
100
AcDbLine
 10
1230.705016484331
 20
535.0803126943026
 30
0.0
 11
1243.705016484331
 21
535.0803126943026
 31
0.0
  0
LINE
  5
100A
330
2
100
AcDbEntity
  8
0
100
AcDbLine
 10
1230.705016484331
 20
486.0803126943026
 30
0.0
 11
1243.705016484331
 21
486.0803126943026
 31
0.0
  0
LINE
  5
100B
330
2
100
AcDbEntity
  8
0
100
AcDbLine
 10
1382.705013155521
 20
486.0803126943026
 30
0.0
 11
1384.705016484331
 21
486.0803126943026
 31
0.0
  0
LINE
  5
100C
330
2
100
AcDbEntity
  8
0
100
AcDbLine
 10
1382.705013155521
 20
535.0803126943026
 30
0.0
 11
1384.705016484331
 21
535.0803126943026
 31
0.0
  0
LINE
  5
100D
330
2
100
AcDbEntity
  8
0
100
AcDbLine
 10
1384.705016484331
 20
486.0803126943026
 30
0.0
 11
1384.705016484331
 21
535.0803126943026
 31
0.0
  0
TEXT
  5
100F
330
2
100
AcDbEntity
  8
TITLE
100
AcDbText
 10
421.2188153156677
 20
847.8527421199554
 30
0.0
 40
10.0
  1
AFCZ32S-40~60M750S2
100
AcDbText
  0
TEXT
  5
1010
330
2
100
AcDbEntity
  8
TITLE
100
AcDbText
 10
421.2188153156677
 20
832.8527421199556
 30
0.0
 40
10.0
  1
AFCZ32S-40~60L750S2
100
AcDbText
  0
LINE
  5
1011
330
2
100
AcDbEntity
  8
CENTER
100
AcDbLine
 10
881.7697811369907
 20
438.9381770707465
 30
0.0
 11
738.4855098895285
 21
582.2224483182081
 31
0.0
  0
LINE
  5
1012
330
2
100
AcDbEntity
  8
CENTER
100
AcDbLine
 10
738.4855098895285
 20
438.9381770707459
 30
0.0
 11
881.7697811369898
 21
582.222448318209
 31
0.0
  0
CIRCLE
  5
1013
330
2
100
AcDbEntity
  8
CENTER
100
AcDbCircle
 10
810.1276455132596
 20
510.5803126944771
 30
0.0
 40
80.0
  0
CIRCLE
  5
1014
330
2
100
AcDbEntity
  8
0
100
AcDbCircle
 10
810.1276455132596
 20
510.5803126944771
 30
0.0
 40
60.0
  0
LINE
  5
1015
330
2
100
AcDbEntity
  8
CENTER
100
AcDbLine
 10
810.1276455132596
 20
415.580312694477
 30
0.0
 11
810.1276455132596
 21
605.580312694477
 31
0.0
  0
LINE
  5
1016
330
2
100
AcDbEntity
  8
0
100
AcDbLine
 10
877.6276455132595
 20
453.080312694477
 30
0.0
 11
877.6276455132595
 21
568.080312694477
 31
0.0
  0
ARC
  5
1017
330
2
100
AcDbEntity
  8
0
100
AcDbCircle
 10
810.1276455132596
 20
238.080312694477
 30
0.0
 40
340.0
100
AcDbArc
 50
85.33227731211768
 51
94.66772268788231
  0
ARC
  5
1018
330
2
100
AcDbEntity
  8
0
100
AcDbCircle
 10
752.6276455132595
 20
568.080312694477
 30
0.0
 40
10.0
100
AcDbArc
 50
90.0
 51
180.0
  0
CIRCLE
  5
1019
330
2
100
AcDbEntity
  8
0
100
AcDbCircle
 10
753.5591030183353
 20
567.1488551894013
 30
0.0
 40
4.0
  0
CIRCLE
  5
101A
330
2
100
AcDbEntity
  8
HOJO
100
AcDbCircle
 10
753.5591030183353
 20
567.1488551894013
 30
0.0
 40
5.0
  0
LINE
  5
101B
330
2
100
AcDbEntity
  8
0
100
AcDbLine
 10
742.6276455132596
 20
564.080312694477
 30
0.0
 11
742.6276455132596
 21
568.080312694477
 31
0.0
  0
LINE
  5
101C
330
2
100
AcDbEntity
  8
0
100
AcDbLine
 10
752.6276455132595
 20
578.0803126944769
 30
0.0
 11
756.6276455132595
 21
578.0803126944769
 31
0.0
  0
ARC
  5
101D
330
2
100
AcDbEntity
  8
0
100
AcDbCircle
 10
756.6276455132595
 20
570.0803126944769
 30
0.0
 40
8.0
100
AcDbArc
 50
80.57047887832826
 51
90.0
  0
ARC
  5
101E
330
2
100
AcDbEntity
  8
0
100
AcDbCircle
 10
867.6276455132596
 20
568.080312694477
 30
0.0
 40
10.0
100
AcDbArc
 50
0.0
 51
90.0
  0
CIRCLE
  5
101F
330
2
100
AcDbEntity
  8
0
100
AcDbCircle
 10
866.6961880081821
 20
567.1488551894013
 30
0.0
 40
4.0
  0
CIRCLE
  5
1020
330
2
100
AcDbEntity
  8
HOJO
100
AcDbCircle
 10
866.6961880081821
 20
567.1488551894013
 30
0.0
 40
5.0
  0
ARC
  5
1021
330
2
100
AcDbEntity
  8
0
100
AcDbCircle
 10
863.6276455132597
 20
570.0803126944769
 30
0.0
 40
8.0
100
AcDbArc
 50
90.0
 51
99.42952112167175
  0
LINE
  5
1022
330
2
100
AcDbEntity
  8
0
100
AcDbLine
 10
863.6276455132597
 20
578.0803126944769
 30
0.0
 11
867.6276455132596
 21
578.0803126944769
 31
0.0
  0
LINE
  5
1023
330
2
100
AcDbEntity
  8
CENTER
100
AcDbLine
 10
715.1276455132595
 20
510.5803126944771
 30
0.0
 11
1044.097667513258
 21
510.5803126944771
 31
0.0
  0
CIRCLE
  5
1024
330
2
100
AcDbEntity
  8
0
100
AcDbCircle
 10
810.1276455132596
 20
510.5803126944771
 30
0.0
 40
43.5
  0
ARC
  5
1025
330
2
100
AcDbEntity
  8
0
100
AcDbCircle
 10
1082.627645513257
 20
510.5803126944771
 30
0.0
 40
340.0
100
AcDbArc
 50
175.3322773121172
 51
184.6677226878827
  0
LINE
  5
1026
330
2
100
AcDbEntity
  8
0
100
AcDbLine
 10
958.5976675132572
 20
560.080312694477
 30
0.0
 11
958.5976675132572
 21
461.080312694477
 31
0.0
  0
LINE
  5
1027
330
2
100
AcDbEntity
  8
0
100
AcDbLine
 10
974.0976675132591
 20
459.080312694477
 30
0.0
 11
974.0976675132573
 21
562.080312694477
 31
0.0
  0
LINE
  5
1028
330
2
100
AcDbEntity
  8
0
100
AcDbLine
 10
929.1276455132596
 20
467.580312694477
 30
0.0
 11
929.1276455132596
 21
553.5803126944769
 31
0.0
  0
ARC
  5
1029
330
2
100
AcDbEntity
  8
0
100
AcDbCircle
 10
810.1276455132596
 20
783.080312694477
 30
0.0
 40
340.0
100
AcDbArc
 50
265.3322773121176
 51
274.6677226878823
  0
CIRCLE
  5
102A
330
2
100
AcDbEntity
  8
0
100
AcDbCircle
 10
753.5591030183353
 20
454.0117701995527
 30
0.0
 40
4.0
  0
CIRCLE
  5
102B
330
2
100
AcDbEntity
  8
HOJO
100
AcDbCircle
 10
753.5591030183353
 20
454.0117701995527
 30
0.0
 40
5.0
  0
LINE
  5
102C
330
2
100
AcDbEntity
  8
0
100
AcDbLine
 10
752.6276455132595
 20
443.0803126944771
 30
0.0
 11
756.6276455132595
 21
443.0803126944771
 31
0.0
  0
ARC
  5
102D
330
2
100
AcDbEntity
  8
0
100
AcDbCircle
 10
752.6276455132595
 20
453.080312694477
 30
0.0
 40
10.0
100
AcDbArc
 50
180.0
 51
270.0
  0
LINE
  5
102E
330
2
100
AcDbEntity
  8
0
100
AcDbLine
 10
742.6276455132596
 20
453.080312694477
 30
0.0
 11
742.6276455132596
 21
457.080312694477
 31
0.0
  0
ARC
  5
102F
330
2
100
AcDbEntity
  8
0
100
AcDbCircle
 10
750.6276455132578
 20
457.080312694477
 30
0.0
 40
8.0
100
AcDbArc
 50
170.5704788783819
 51
180.0
  0
ARC
  5
1030
330
2
100
AcDbEntity
  8
0
100
AcDbCircle
 10
756.6276455132595
 20
451.0803126944771
 30
0.0
 40
8.0
100
AcDbArc
 50
270.0
 51
279.4295211216716
  0
LINE
  5
1031
330
2
100
AcDbEntity
  8
0
100
AcDbLine
 10
885.56503662791
 20
459.5803126944771
 30
0.0
 11
921.1276455132596
 21
459.5803126944771
 31
0.0
  0
CIRCLE
  5
1032
330
2
100
AcDbEntity
  8
0
100
AcDbCircle
 10
866.6961880081821
 20
454.0117701995546
 30
0.0
 40
4.0
  0
CIRCLE
  5
1033
330
2
100
AcDbEntity
  8
HOJO
100
AcDbCircle
 10
866.6961880081821
 20
454.0117701995546
 30
0.0
 40
5.0
  0
ARC
  5
1034
330
2
100
AcDbEntity
  8
0
100
AcDbCircle
 10
867.6276455132596
 20
453.080312694477
 30
0.0
 40
10.0
100
AcDbArc
 50
270.0
 51
0.0
  0
ARC
  5
1035
330
2
100
AcDbEntity
  8
0
100
AcDbCircle
 10
863.6276455132597
 20
451.0803126944771
 30
0.0
 40
8.0
100
AcDbArc
 50
260.5704788783283
 51
270.0
  0
LINE
  5
1036
330
2
100
AcDbEntity
  8
0
100
AcDbLine
 10
863.6276455132597
 20
443.0803126944771
 30
0.0
 11
867.6276455132596
 21
443.0803126944771
 31
0.0
  0
ARC
  5
1037
330
2
100
AcDbEntity
  8
0
100
AcDbCircle
 10
921.1276455132596
 20
467.580312694477
 30
0.0
 40
8.0
100
AcDbArc
 50
270.0
 51
0.0
  0
LINE
  5
1038
330
2
100
AcDbEntity
  8
0
100
AcDbLine
 10
974.0976675132573
 20
459.5803126944771
 30
0.0
 11
960.5976675132573
 21
459.5803126944771
 31
0.0
  0
ARC
  5
1039
330
2
100
AcDbEntity
  8
0
100
AcDbCircle
 10
960.5976675132573
 20
461.580312694477
 30
0.0
 40
2.0
100
AcDbArc
 50
180.0
 51
270.0
  0
ARC
  5
103A
330
2
100
AcDbEntity
  8
0
100
AcDbCircle
 10
953.5976675132573
 20
465.580312694477
 30
0.0
 40
5.0
100
AcDbArc
 50
0.0
 51
90.0
  0
ARC
  5
103B
330
2
100
AcDbEntity
  8
0
100
AcDbCircle
 10
750.6276455132578
 20
564.080312694477
 30
0.0
 40
8.0
100
AcDbArc
 50
180.0
 51
189.429521121618
  0
LINE
  5
103C
330
2
100
AcDbEntity
  8
0
100
AcDbLine
 10
885.56503662791
 20
561.5803126944769
 30
0.0
 11
921.1276455132596
 21
561.5803126944769
 31
0.0
  0
LINE
  5
103D
330
2
100
AcDbEntity
  8
0
100
AcDbLine
 10
949.5976675132572
 20
550.580312694477
 30
0.0
 11
953.5976675132573
 21
550.580312694477
 31
0.0
  0
ARC
  5
103E
330
2
100
AcDbEntity
  8
0
100
AcDbCircle
 10
921.1276455132596
 20
553.5803126944769
 30
0.0
 40
8.0
100
AcDbArc
 50
0.0
 51
90.0
  0
ARC
  5
103F
330
2
100
AcDbEntity
  8
0
100
AcDbCircle
 10
953.5976675132573
 20
555.580312694477
 30
0.0
 40
5.0
100
AcDbArc
 50
270.0
 51
0.0
  0
LINE
  5
1040
330
2
100
AcDbEntity
  8
0
100
AcDbLine
 10
974.0976675132573
 20
561.5803126944769
 30
0.0
 11
960.5976675132573
 21
561.5803126944769
 31
0.0
  0
ARC
  5
1041
330
2
100
AcDbEntity
  8
0
100
AcDbCircle
 10
960.5976675132573
 20
559.580312694477
 30
0.0
 40
2.0
100
AcDbArc
 50
90.0
 51
180.0
  0
LINE
  5
1042
330
2
100
AcDbEntity
  8
CENTER
100
AcDbLine
 10
753.5591030183353
 20
558.1488551894012
 30
0.0
 11
753.5591030183353
 21
576.1488551894013
 31
0.0
  0
LINE
  5
1043
330
2
100
AcDbEntity
  8
CENTER
100
AcDbLine
 10
744.5591030183353
 20
567.1488551894013
 30
0.0
 11
762.5591030183353
 21
567.1488551894013
 31
0.0
  0
LINE
  5
1044
330
2
100
AcDbEntity
  8
CENTER
100
AcDbLine
 10
866.6961880081821
 20
558.1488551894012
 30
0.0
 11
866.6961880081821
 21
576.1488551894013
 31
0.0
  0
LINE
  5
1045
330
2
100
AcDbEntity
  8
CENTER
100
AcDbLine
 10
875.6961880081821
 20
567.1488551894013
 30
0.0
 11
857.6961880081821
 21
567.1488551894013
 31
0.0
  0
LINE
  5
1046
330
2
100
AcDbEntity
  8
CENTER
100
AcDbLine
 10
866.6961880081821
 20
463.0117701995528
 30
0.0
 11
866.6961880081821
 21
445.0117701995528
 31
0.0
  0
LINE
  5
1047
330
2
100
AcDbEntity
  8
CENTER
100
AcDbLine
 10
875.6961880081821
 20
454.0117701995546
 30
0.0
 11
857.6961880081821
 21
454.0117701995546
 31
0.0
  0
LINE
  5
1048
330
2
100
AcDbEntity
  8
CENTER
100
AcDbLine
 10
753.5591030183353
 20
463.0117701995528
 30
0.0
 11
753.5591030183353
 21
445.0117701995528
 31
0.0
  0
LINE
  5
1049
330
2
100
AcDbEntity
  8
CENTER
100
AcDbLine
 10
744.5591030183353
 20
454.0117701995546
 30
0.0
 11
762.5591030183353
 21
454.0117701995546
 31
0.0
  0
CIRCLE
  5
104A
330
2
100
AcDbEntity
  8
0
100
AcDbCircle
 10
810.1276455132577
 20
510.5803126944788
 30
0.0
 40
36.0
  0
ARC
  5
104B
330
2
100
AcDbEntity
  8
0
100
AcDbCircle
 10
774.3217458893763
 20
344.5396218206147
 30
0.0
 40
100.0
100
AcDbArc
 50
85.33227731211768
 51
99.42952112167175
  0
ARC
  5
104C
330
2
100
AcDbEntity
  8
0
100
AcDbCircle
 10
845.933545137141
 20
344.5396218206147
 30
0.0
 40
100.0
100
AcDbArc
 50
80.57047887832826
 51
94.66772268788231
  0
ARC
  5
104D
330
2
100
AcDbEntity
  8
0
100
AcDbCircle
 10
644.0869546393972
 20
474.7744130705956
 30
0.0
 40
100.0
100
AcDbArc
 50
350.5704788783818
 51
4.667722687882756
  0
ARC
  5
104E
330
2
100
AcDbEntity
  8
0
100
AcDbCircle
 10
644.0869546393972
 20
546.3862123183603
 30
0.0
 40
100.0
100
AcDbArc
 50
355.3322773121172
 51
9.429521121618066
  0
ARC
  5
104F
330
2
100
AcDbEntity
  8
0
100
AcDbCircle
 10
774.3217458893763
 20
676.6210035683393
 30
0.0
 40
100.0
100
AcDbArc
 50
260.5704788783283
 51
274.6677226878823
  0
ARC
  5
1050
330
2
100
AcDbEntity
  8
0
100
AcDbCircle
 10
845.933545137141
 20
676.6210035683393
 30
0.0
 40
100.0
100
AcDbArc
 50
265.3322773121176
 51
279.4295211216716
  0
LINE
  5
1051
330
2
100
AcDbEntity
  8
CENTER
100
AcDbLine
 10
727.6276455132578
 20
845.6572006700003
 30
0.0
 11
1044.097667513258
 21
845.6572006700003
 31
0.0
  0
LINE
  5
1052
330
2
100
AcDbEntity
  8
0
100
AcDbLine
 10
974.0976675132573
 20
896.6572006700003
 30
0.0
 11
974.0976675132573
 21
794.6572006700002
 31
0.0
  0
LINE
  5
1053
330
2
100
AcDbEntity
  8
0
100
AcDbLine
 10
958.5466666051491
 20
894.7095545666156
 30
0.0
 11
957.2624397879156
 21
845.6669110281577
 31
0.0
  0
LINE
  5
1054
330
2
100
AcDbEntity
  8
CENTER
100
AcDbLine
 10
810.1276455132577
 20
929.6572039988109
 30
0.0
 11
810.1276455132596
 21
745.6572039988109
 31
0.0
  0
LINE
  5
1056
330
2
100
AcDbEntity
  8
0
100
AcDbLine
 10
750.1276455132577
 20
787.6572006700002
 30
0.0
 11
870.1276455132578
 21
787.6572006700002
 31
0.0
  0
LINE
  5
1057
330
2
100
AcDbEntity
  8
0
100
AcDbLine
 10
743.4087001805303
 20
792.6572006700003
 30
0.0
 11
876.846590845988
 21
792.6572006700003
 31
0.0
  0
LINE
  5
1058
330
2
100
AcDbEntity
  8
0
100
AcDbLine
 10
768.5590230628735
 20
773.6572006700003
 30
0.0
 11
851.6962679636439
 21
773.6572006700003
 31
0.0
  0
LINE
  5
1059
330
2
100
AcDbEntity
  8
0
100
AcDbLine
 10
750.1276455132577
 20
792.6572006700003
 30
0.0
 11
750.1276455132577
 21
787.6572006700002
 31
0.0
  0
LINE
  5
105A
330
2
100
AcDbEntity
  8
0
100
AcDbLine
 10
878.3510134268023
 20
794.6639782355418
 30
0.0
 11
927.0141200752062
 21
794.6572006700002
 31
0.0
  0
LINE
  5
105B
330
2
100
AcDbEntity
  8
0
100
AcDbLine
 10
870.1276455132578
 20
792.6572006700003
 30
0.0
 11
870.1276455132578
 21
787.6572006700002
 31
0.0
  0
LINE
  5
105D
330
2
100
AcDbEntity
  8
0
100
AcDbLine
 10
974.0976675132573
 20
794.6572006700002
 30
0.0
 11
974.0976675132573
 21
845.6572006700003
 31
0.0
  0
LINE
  5
105E
330
2
100
AcDbEntity
  8
0
100
AcDbLine
 10
949.5201161260233
 20
885.6572006700003
 30
0.0
 11
953.4388380213881
 21
885.6572006700003
 31
0.0
  0
LINE
  5
105F
330
2
100
AcDbEntity
  8
0
100
AcDbLine
 10
945.5502086504806
 20
845.6572006700003
 30
0.0
 11
946.5211441510968
 21
882.7357315149251
 31
0.0
  0
LINE
  5
1060
330
2
100
AcDbEntity
  8
0
100
AcDbLine
 10
974.0976675132573
 20
896.6572006700003
 30
0.0
 11
960.5459812551002
 21
896.6572006700003
 31
0.0
  0
ARC
  5
1061
330
2
100
AcDbEntity
  8
0
100
AcDbCircle
 10
885.56503662791
 20
569.5803126944769
 30
0.0
 40
8.0
100
AcDbArc
 50
184.780191847234
 51
270.0
  0
ARC
  5
1062
330
2
100
AcDbEntity
  8
0
100
AcDbCircle
 10
885.56503662791
 20
451.5803126944771
 30
0.0
 40
8.0
100
AcDbArc
 50
90.0
 51
175.2198081527659
  0
LINE
  5
1063
330
2
100
AcDbEntity
  8
0
100
AcDbLine
 10
802.9858747634937
 20
455.0803126921196
 30
0.0
 11
805.865876004826
 21
455.0803126921196
 31
0.0
  0
LINE
  5
1064
330
2
100
AcDbEntity
  8
0
100
AcDbLine
 10
806.9858747634992
 20
463.0803126921324
 30
0.0
 11
802.9858747634937
 21
455.0803126921196
 31
0.0
  0
ARC
  5
1065
330
2
100
AcDbEntity
  8
0
100
AcDbCircle
 10
813.6258020035096
 20
460.3603126921275
 30
0.0
 40
2.720000000003957
100
AcDbArc
 50
307.5189678668363
 51
90.0
  0
LINE
  5
1066
330
2
100
AcDbEntity
  8
0
100
AcDbLine
 10
815.282347383169
 20
458.2029398905119
 30
0.0
 11
817.2694162630236
 21
455.0803126921196
 31
0.0
  0
LINE
  5
1067
330
2
100
AcDbEntity
  8
0
100
AcDbLine
 10
814.3894150216913
 20
455.0803126921196
 30
0.0
 11
817.2694162630236
 21
455.0803126921196
 31
0.0
  0
LINE
  5
1068
330
2
100
AcDbEntity
  8
0
100
AcDbLine
 10
808.5058747635015
 20
455.0803126921196
 30
0.0
 11
810.9058020035048
 21
455.0803126921196
 31
0.0
  0
LINE
  5
1069
330
2
100
AcDbEntity
  8
0
100
AcDbLine
 10
806.4658760048263
 20
456.2803126921222
 30
0.0
 11
805.865876004826
 21
455.0803126921196
 31
0.0
  0
LINE
  5
106A
330
2
100
AcDbEntity
  8
0
100
AcDbLine
 10
806.4658760048263
 20
456.2803126921222
 30
0.0
 11
808.5058747635015
 21
456.2803126921222
 31
0.0
  0
LINE
  5
106B
330
2
100
AcDbEntity
  8
0
100
AcDbLine
 10
808.5058747635015
 20
456.2803126921222
 30
0.0
 11
808.5058747635015
 21
455.0803126921196
 31
0.0
  0
LINE
  5
106C
330
2
100
AcDbEntity
  8
0
100
AcDbLine
 10
807.7458760048287
 20
458.8403126921253
 30
0.0
 11
808.5058747635015
 21
458.8403126921253
 31
0.0
  0
LINE
  5
106D
330
2
100
AcDbEntity
  8
0
100
AcDbLine
 10
808.5058747635015
 20
460.3603102094708
 30
0.0
 11
808.5058747635015
 21
458.8403126921253
 31
0.0
  0
LINE
  5
106E
330
2
100
AcDbEntity
  8
0
100
AcDbLine
 10
808.5058747635015
 20
460.3603102094708
 30
0.0
 11
807.7458760048287
 21
458.8403126921253
 31
0.0
  0
LINE
  5
106F
330
2
100
AcDbEntity
  8
0
100
AcDbLine
 10
811.2458747635049
 20
460.0203126921274
 30
0.0
 11
814.3894150216913
 21
455.0803126921196
 31
0.0
  0
LINE
  5
1070
330
2
100
AcDbEntity
  8
0
100
AcDbLine
 10
810.9058020035048
 20
460.3603126921275
 30
0.0
 11
810.9058020035048
 21
455.0803126921196
 31
0.0
  0
LINE
  5
1071
330
2
100
AcDbEntity
  8
0
100
AcDbLine
 10
810.9058020035048
 20
460.3603126921275
 30
0.0
 11
813.4558747635077
 21
460.3603126921275
 31
0.0
  0
LINE
  5
1072
330
2
100
AcDbEntity
  8
0
100
AcDbLine
 10
811.2458747635049
 20
460.0203126921274
 30
0.0
 11
813.4558747635095
 21
460.0203126921274
 31
0.0
  0
ARC
  5
1073
330
2
100
AcDbEntity
  8
0
100
AcDbCircle
 10
813.4558747635095
 20
460.1903126921275
 30
0.0
 40
0.1700000000002474
100
AcDbArc
 50
270.0
 51
90.0
  0
LINE
  5
1074
330
2
100
AcDbEntity
  8
0
100
AcDbLine
 10
806.9858747634992
 20
463.0803126921324
 30
0.0
 11
813.6258020035096
 21
463.0803126921324
 31
0.0
  0
LINE
  5
1075
330
2
100
AcDbEntity
  8
0
100
AcDbLine
 10
946.5976675132573
 20
547.580312694477
 30
0.0
 11
946.5976675132573
 21
473.580312694477
 31
0.0
  0
LINE
  5
1076
330
2
100
AcDbEntity
  8
0
100
AcDbLine
 10
934.1276455132559
 20
538.580312694477
 30
0.0
 11
941.5976675132572
 21
538.580312694477
 31
0.0
  0
LINE
  5
1077
330
2
100
AcDbEntity
  8
0
100
AcDbLine
 10
932.127645513256
 20
543.580312694477
 30
0.0
 11
943.5976675132573
 21
543.580312694477
 31
0.0
  0
ARC
  5
1078
330
2
100
AcDbEntity
  8
0
100
AcDbCircle
 10
932.127645513256
 20
546.580312694477
 30
0.0
 40
3.0
100
AcDbArc
 50
180.0
 51
270.0
  0
ARC
  5
1079
330
2
100
AcDbEntity
  8
0
100
AcDbCircle
 10
934.1276455132559
 20
543.580312694477
 30
0.0
 40
5.0
100
AcDbArc
 50
180.0
 51
270.0
  0
ARC
  5
107A
330
2
100
AcDbEntity
  8
0
100
AcDbCircle
 10
941.5976675132572
 20
543.580312694477
 30
0.0
 40
5.0
100
AcDbArc
 50
270.0
 51
0.0
  0
ARC
  5
107B
330
2
100
AcDbEntity
  8
0
100
AcDbCircle
 10
943.5976675132573
 20
546.580312694477
 30
0.0
 40
3.0
100
AcDbArc
 50
270.0
 51
0.0
  0
LINE
  5
107C
330
2
100
AcDbEntity
  8
0
100
AcDbLine
 10
934.1276455132559
 20
482.580312694477
 30
0.0
 11
941.5976675132572
 21
482.580312694477
 31
0.0
  0
LINE
  5
107D
330
2
100
AcDbEntity
  8
0
100
AcDbLine
 10
932.127645513256
 20
477.580312694477
 30
0.0
 11
943.5976675132573
 21
477.580312694477
 31
0.0
  0
ARC
  5
107E
330
2
100
AcDbEntity
  8
0
100
AcDbCircle
 10
934.1276455132559
 20
477.580312694477
 30
0.0
 40
5.0
100
AcDbArc
 50
90.0
 51
180.0
  0
ARC
  5
107F
330
2
100
AcDbEntity
  8
0
100
AcDbCircle
 10
932.127645513256
 20
474.580312694477
 30
0.0
 40
3.0
100
AcDbArc
 50
90.0
 51
180.0
  0
ARC
  5
1080
330
2
100
AcDbEntity
  8
0
100
AcDbCircle
 10
943.5976675132573
 20
474.580312694477
 30
0.0
 40
3.0
100
AcDbArc
 50
0.0
 51
90.0
  0
ARC
  5
1081
330
2
100
AcDbEntity
  8
0
100
AcDbCircle
 10
941.5976675132572
 20
477.580312694477
 30
0.0
 40
5.0
100
AcDbArc
 50
0.0
 51
90.0
  0
LINE
  5
1082
330
2
100
AcDbEntity
  8
0
100
AcDbLine
 10
949.5976675132572
 20
470.580312694477
 30
0.0
 11
953.5976675132573
 21
470.580312694477
 31
0.0
  0
LINE
  5
1083
330
2
100
AcDbEntity
  8
0
100
AcDbLine
 10
932.1276455132595
 20
513.080312694477
 30
0.0
 11
943.5976675132573
 21
513.080312694477
 31
0.0
  0
LINE
  5
1084
330
2
100
AcDbEntity
  8
0
100
AcDbLine
 10
932.1276455132595
 20
508.080312694477
 30
0.0
 11
943.5976675132573
 21
508.080312694477
 31
0.0
  0
ARC
  5
1085
330
2
100
AcDbEntity
  8
0
100
AcDbCircle
 10
932.1276455132595
 20
516.0803126944769
 30
0.0
 40
3.0
100
AcDbArc
 50
180.0
 51
270.0
  0
ARC
  5
1086
330
2
100
AcDbEntity
  8
0
100
AcDbCircle
 10
943.5976675132573
 20
516.0803126944769
 30
0.0
 40
3.0
100
AcDbArc
 50
270.0
 51
0.0
  0
ARC
  5
1087
330
2
100
AcDbEntity
  8
0
100
AcDbCircle
 10
943.5976675132573
 20
505.080312694477
 30
0.0
 40
3.0
100
AcDbArc
 50
0.0
 51
90.0
  0
ARC
  5
1088
330
2
100
AcDbEntity
  8
0
100
AcDbCircle
 10
932.1276455132595
 20
505.080312694477
 30
0.0
 40
3.0
100
AcDbArc
 50
90.0
 51
180.0
  0
LINE
  5
1089
330
2
100
AcDbEntity
  8
0
100
AcDbLine
 10
934.1540165085611
 20
873.6572006700003
 30
0.0
 11
941.412630099818
 21
873.6572006700003
 31
0.0
  0
LINE
  5
108A
330
2
100
AcDbEntity
  8
0
100
AcDbLine
 10
932.127645513256
 20
878.6572006700003
 30
0.0
 11
943.4918734495099
 21
878.6572006700003
 31
0.0
  0
LINE
  5
108B
330
2
100
AcDbEntity
  8
0
100
AcDbLine
 10
932.3939292160398
 20
843.1572006700003
 30
0.0
 11
942.6932028416398
 21
843.1572006700003
 31
0.0
  0
LINE
  5
108C
330
2
100
AcDbEntity
  8
0
100
AcDbLine
 10
932.3939292160288
 20
848.1572006700002
 30
0.0
 11
942.6932028416398
 21
848.1572006700002
 31
0.0
  0
LINE
  5
108D
330
2
100
AcDbEntity
  8
0
100
AcDbLine
 10
949.5201161260233
 20
805.6572006700003
 30
0.0
 11
953.4388380213881
 21
805.6572006700003
 31
0.0
  0
LINE
  5
108E
330
2
100
AcDbEntity
  8
0
100
AcDbLine
 10
945.5502086504806
 20
845.6572006700003
 30
0.0
 11
946.5211441510968
 21
808.5786698250771
 31
0.0
  0
ARC
  5
108F
330
2
100
AcDbEntity
  8
0
100
AcDbCircle
 10
941.412630099818
 20
878.6572006700003
 30
0.0
 40
5.0
100
AcDbArc
 50
270.0
 51
358.5000000000103
  0
ARC
  5
1090
330
2
100
AcDbEntity
  8
0
100
AcDbCircle
 10
943.4918734495099
 20
881.6572006700003
 30
0.0
 40
3.0
100
AcDbArc
 50
270.0
 51
358.5000000000103
  0
ARC
  5
1091
330
2
100
AcDbEntity
  8
0
100
AcDbCircle
 10
943.4918734495099
 20
809.6572006700002
 30
0.0
 40
3.0
100
AcDbArc
 50
1.499999999989693
 51
90.0
  0
LINE
  5
1092
330
2
100
AcDbEntity
  8
0
100
AcDbLine
 10
932.127645513256
 20
812.6572006700003
 30
0.0
 11
943.4918734495099
 21
812.6572006700003
 31
0.0
  0
LINE
  5
1093
330
2
100
AcDbEntity
  8
0
100
AcDbLine
 10
934.1540165085628
 20
817.6572006700002
 30
0.0
 11
941.412630099818
 21
817.6572006700002
 31
0.0
  0
ARC
  5
1094
330
2
100
AcDbEntity
  8
0
100
AcDbCircle
 10
941.412630099818
 20
812.6572006700003
 30
0.0
 40
5.0
100
AcDbArc
 50
1.499999999989693
 51
90.0
  0
ARC
  5
1095
330
2
100
AcDbEntity
  8
0
100
AcDbCircle
 10
942.6932028416398
 20
851.1572006700003
 30
0.0
 40
3.0
100
AcDbArc
 50
270.0
 51
358.5000000000103
  0
ARC
  5
1096
330
2
100
AcDbEntity
  8
0
100
AcDbCircle
 10
942.6932028416398
 20
840.1572006700003
 30
0.0
 40
3.0
100
AcDbArc
 50
1.499999999989693
 51
90.0
  0
LINE
  5
1097
330
2
100
AcDbEntity
  8
0
100
AcDbLine
 10
766.5602414088338
 20
775.5874016765951
 30
0.0
 11
766.2061588447981
 21
785.7269996634054
 31
0.0
  0
ARC
  5
1098
330
2
100
AcDbEntity
  8
0
100
AcDbCircle
 10
764.2073771907602
 20
785.6572006700003
 30
0.0
 40
2.0
100
AcDbArc
 50
2.000000000003654
 51
90.0
  0
ARC
  5
1099
330
2
100
AcDbEntity
  8
0
100
AcDbCircle
 10
768.5590230628735
 20
775.6572006700003
 30
0.0
 40
2.0
100
AcDbArc
 50
182.0000000000036
 51
270.0
  0
ARC
  5
109A
330
2
100
AcDbEntity
  8
0
100
AcDbCircle
 10
856.0479138357571
 20
785.6572006700003
 30
0.0
 40
2.0
100
AcDbArc
 50
90.0
 51
177.9999999999963
  0
LINE
  5
109B
330
2
100
AcDbEntity
  8
0
100
AcDbLine
 10
853.6950496176835
 20
775.5874016765951
 30
0.0
 11
854.0491321817192
 21
785.7269996634054
 31
0.0
  0
ARC
  5
109C
330
2
100
AcDbEntity
  8
0
100
AcDbCircle
 10
851.6962679636439
 20
775.6572006700003
 30
0.0
 40
2.0
100
AcDbArc
 50
270.0
 51
357.9999999999963
  0
ARC
  5
109D
330
2
100
AcDbEntity
  8
0
100
AcDbCircle
 10
953.4388380213881
 20
890.6572006700002
 30
0.0
 40
5.0
100
AcDbArc
 50
270.0
 51
358.5000000000103
  0
ARC
  5
109E
330
2
100
AcDbEntity
  8
0
100
AcDbCircle
 10
960.5459812551002
 20
894.6572006700003
 30
0.0
 40
2.0
100
AcDbArc
 50
90.0
 51
178.5000000000102
  0
ARC
  5
109F
330
2
100
AcDbEntity
  8
0
100
AcDbCircle
 10
953.4388380213881
 20
800.6572006700002
 30
0.0
 40
5.0
100
AcDbArc
 50
1.499999999989693
 51
90.0
  0
ARC
  5
10A0
330
2
100
AcDbEntity
  8
0
100
AcDbCircle
 10
960.5459812551002
 20
796.6572006700003
 30
0.0
 40
2.0
100
AcDbArc
 50
181.4999999999897
 51
270.0
  0
LINE
  5
10A1
330
2
100
AcDbEntity
  8
0
100
AcDbLine
 10
974.0976675132573
 20
794.6572006700002
 30
0.0
 11
960.5459812551002
 21
794.6572006700002
 31
0.0
  0
LINE
  5
10A2
330
2
100
AcDbEntity
  8
0
100
AcDbLine
 10
958.5466666051491
 20
796.6048467733849
 30
0.0
 11
957.2624397879156
 21
845.6474903118428
 31
0.0
  0
ARC
  5
10A3
330
2
100
AcDbEntity
  8
0
100
AcDbCircle
 10
949.5201161260233
 20
882.6572006700002
 30
0.0
 40
3.0
100
AcDbArc
 50
90.0
 51
178.5000000000102
  0
ARC
  5
10A4
330
2
100
AcDbEntity
  8
0
100
AcDbCircle
 10
949.5201161260233
 20
808.6572006700002
 30
0.0
 40
3.0
100
AcDbArc
 50
181.4999999999897
 51
270.0
  0
ARC
  5
10A5
330
2
100
AcDbEntity
  8
0
100
AcDbCircle
 10
949.5976675132572
 20
473.580312694477
 30
0.0
 40
3.0
100
AcDbArc
 50
180.0
 51
270.0
  0
ARC
  5
10A6
330
2
100
AcDbEntity
  8
0
100
AcDbCircle
 10
949.5976675132572
 20
547.580312694477
 30
0.0
 40
3.0
100
AcDbArc
 50
90.0
 51
180.0
  0
ARC
  5
10A7
330
2
100
AcDbEntity
  8
0
100
AcDbCircle
 10
878.3510134268023
 20
793.1639782355419
 30
0.0
 40
1.5
100
AcDbArc
 50
90.0
 51
180.0
  0
LINE
  5
10A8
330
2
100
AcDbEntity
  8
0
100
AcDbLine
 10
867.6276455132596
 20
881.1572006699984
 30
0.0
 11
867.6276455132578
 21
794.1572006700057
 31
0.0
  0
LINE
  5
10A9
330
2
100
AcDbEntity
  8
0
100
AcDbLine
 10
863.6276455132577
 20
881.1572006699984
 30
0.0
 11
863.6276455132577
 21
794.1572006700057
 31
0.0
  0
LINE
  5
10AA
330
2
100
AcDbEntity
  8
0
100
AcDbLine
 10
752.6276455132614
 20
881.1572006699949
 30
0.0
 11
752.627645513265
 21
794.1572006700021
 31
0.0
  0
LINE
  5
10AB
330
2
100
AcDbEntity
  8
0
100
AcDbLine
 10
756.6276455132614
 20
881.1572006699949
 30
0.0
 11
756.627645513265
 21
794.1572006700021
 31
0.0
  0
LINE
  5
10AC
330
2
100
AcDbEntity
  8
0
100
AcDbLine
 10
782.4594503493338
 20
881.1572006699966
 30
0.0
 11
782.4594503493357
 21
794.1572006700021
 31
0.0
  0
LINE
  5
10AD
330
2
100
AcDbEntity
  8
0
100
AcDbLine
 10
837.7958406771817
 20
881.1572006699984
 30
0.0
 11
837.7958406771817
 21
794.1572006700057
 31
0.0
  0
LINE
  5
10AE
330
2
100
AcDbEntity
  8
0
100
AcDbLine
 10
921.1407384740436
 20
881.6572006700075
 30
0.0
 11
922.057931196436
 21
846.6310237216944
 31
0.0
  0
LINE
  5
10AF
330
2
100
AcDbEntity
  8
0
100
AcDbLine
 10
929.1276455132631
 20
845.6572006700003
 30
0.0
 11
923.0575885214115
 21
845.6572006700003
 31
0.0
  0
ARC
  5
10B0
330
2
100
AcDbEntity
  8
0
100
AcDbCircle
 10
923.0575885214115
 20
846.6572006700003
 30
0.0
 40
1.0
100
AcDbArc
 50
181.4999999998854
 51
270.0
  0
LINE
  5
10B1
330
2
100
AcDbEntity
  8
0
100
AcDbLine
 10
957.2624397879156
 20
845.6474903118428
 30
0.0
 11
974.0976675132573
 21
845.6572006700003
 31
0.0
  0
LINE
  5
10B2
330
2
100
AcDbEntity
  8
0
100
AcDbLine
 10
974.0976675132573
 20
562.080312694477
 30
0.0
 11
960.5976675132573
 21
562.080312694477
 31
0.0
  0
ARC
  5
10B3
330
2
100
AcDbEntity
  8
0
100
AcDbCircle
 10
960.5976675132573
 20
560.080312694477
 30
0.0
 40
2.0
100
AcDbArc
 50
90.0
 51
180.0
  0
LINE
  5
10B4
330
2
100
AcDbEntity
  8
0
100
AcDbLine
 10
974.0976675132573
 20
459.080312694477
 30
0.0
 11
960.5976675132573
 21
459.080312694477
 31
0.0
  0
ARC
  5
10B5
330
2
100
AcDbEntity
  8
0
100
AcDbCircle
 10
960.5976675132573
 20
461.080312694477
 30
0.0
 40
2.0
100
AcDbArc
 50
180.0
 51
270.0
  0
LINE
  5
10B6
330
2
100
AcDbEntity
  8
CENTER
100
AcDbLine
 10
273.8324862586408
 20
593.0803126944788
 30
0.0
 11
273.8324862586408
 21
428.080312694477
 31
0.0
  0
LINE
  5
10B7
330
2
100
AcDbEntity
  8
0
100
AcDbLine
 10
109.8624642586413
 20
562.080312694477
 30
0.0
 11
109.8624642586431
 21
459.080312694477
 31
0.0
  0
LINE
  5
10B8
330
2
100
AcDbEntity
  8
0
100
AcDbLine
 10
125.3624642586431
 20
461.080312694477
 30
0.0
 11
125.3624642586431
 21
560.080312694477
 31
0.0
  0
ARC
  5
10B9
330
2
100
AcDbEntity
  8
0
100
AcDbCircle
 10
130.3624642586431
 20
555.580312694477
 30
0.0
 40
5.0
100
AcDbArc
 50
180.0
 51
270.0
  0
LINE
  5
10BA
330
2
100
AcDbEntity
  8
0
100
AcDbLine
 10
134.3624642586422
 20
550.580312694477
 30
0.0
 11
130.3624642586431
 21
550.580312694477
 31
0.0
  0
ARC
  5
10BB
330
2
100
AcDbEntity
  8
0
100
AcDbCircle
 10
123.3624642586431
 20
559.580312694477
 30
0.0
 40
2.0
100
AcDbArc
 50
0.0
 51
90.0
  0
LINE
  5
10BC
330
2
100
AcDbEntity
  8
0
100
AcDbLine
 10
109.8624642586422
 20
561.5803126944769
 30
0.0
 11
123.3624642586431
 21
561.5803126944769
 31
0.0
  0
ARC
  5
10BD
330
2
100
AcDbEntity
  8
0
100
AcDbCircle
 10
130.3624642586431
 20
465.580312694477
 30
0.0
 40
5.0
100
AcDbArc
 50
90.0
 51
180.0
  0
LINE
  5
10BE
330
2
100
AcDbEntity
  8
0
100
AcDbLine
 10
134.3624642586422
 20
470.580312694477
 30
0.0
 11
130.3624642586431
 21
470.580312694477
 31
0.0
  0
LINE
  5
10BF
330
2
100
AcDbEntity
  8
0
100
AcDbLine
 10
109.8624642586422
 20
459.5803126944771
 30
0.0
 11
123.3624642586422
 21
459.5803126944771
 31
0.0
  0
ARC
  5
10C0
330
2
100
AcDbEntity
  8
0
100
AcDbCircle
 10
123.3624642586422
 20
461.580312694477
 30
0.0
 40
2.0
100
AcDbArc
 50
270.0
 51
0.0
  0
LINE
  5
10C1
330
2
100
AcDbEntity
  8
0
100
AcDbLine
 10
149.8324862586436
 20
482.580312694477
 30
0.0
 11
142.3624642586422
 21
482.580312694477
 31
0.0
  0
LINE
  5
10C2
330
2
100
AcDbEntity
  8
0
100
AcDbLine
 10
151.8324862586436
 20
477.580312694477
 30
0.0
 11
140.3624642586422
 21
477.580312694477
 31
0.0
  0
ARC
  5
10C3
330
2
100
AcDbEntity
  8
0
100
AcDbCircle
 10
149.8324862586436
 20
477.580312694477
 30
0.0
 40
5.0
100
AcDbArc
 50
0.0
 51
90.0
  0
ARC
  5
10C4
330
2
100
AcDbEntity
  8
0
100
AcDbCircle
 10
151.8324862586436
 20
474.580312694477
 30
0.0
 40
3.0
100
AcDbArc
 50
0.0
 51
90.0
  0
ARC
  5
10C5
330
2
100
AcDbEntity
  8
0
100
AcDbCircle
 10
140.3624642586422
 20
474.580312694477
 30
0.0
 40
3.0
100
AcDbArc
 50
90.0
 51
180.0
  0
ARC
  5
10C6
330
2
100
AcDbEntity
  8
0
100
AcDbCircle
 10
142.3624642586422
 20
477.580312694477
 30
0.0
 40
5.0
100
AcDbArc
 50
90.0
 51
180.0
  0
ARC
  5
10C7
330
2
100
AcDbEntity
  8
0
100
AcDbCircle
 10
140.3624642586422
 20
505.080312694477
 30
0.0
 40
3.0
100
AcDbArc
 50
90.0
 51
180.0
  0
ARC
  5
10C8
330
2
100
AcDbEntity
  8
0
100
AcDbCircle
 10
151.8324862586408
 20
505.080312694477
 30
0.0
 40
3.0
100
AcDbArc
 50
0.0
 51
90.0
  0
LINE
  5
10C9
330
2
100
AcDbEntity
  8
0
100
AcDbLine
 10
151.8324862586408
 20
513.080312694477
 30
0.0
 11
140.3624642586422
 21
513.080312694477
 31
0.0
  0
ARC
  5
10CA
330
2
100
AcDbEntity
  8
0
100
AcDbCircle
 10
151.8324862586408
 20
516.0803126944769
 30
0.0
 40
3.0
100
AcDbArc
 50
270.0
 51
0.0
  0
ARC
  5
10CB
330
2
100
AcDbEntity
  8
0
100
AcDbCircle
 10
140.3624642586422
 20
516.0803126944769
 30
0.0
 40
3.0
100
AcDbArc
 50
180.0
 51
270.0
  0
LINE
  5
10CC
330
2
100
AcDbEntity
  8
0
100
AcDbLine
 10
151.8324862586408
 20
508.080312694477
 30
0.0
 11
140.3624642586422
 21
508.080312694477
 31
0.0
  0
LINE
  5
10CD
330
2
100
AcDbEntity
  8
0
100
AcDbLine
 10
151.8324862586436
 20
543.580312694477
 30
0.0
 11
140.3624642586422
 21
543.580312694477
 31
0.0
  0
LINE
  5
10CE
330
2
100
AcDbEntity
  8
0
100
AcDbLine
 10
149.8324862586436
 20
538.580312694477
 30
0.0
 11
142.3624642586422
 21
538.580312694477
 31
0.0
  0
ARC
  5
10CF
330
2
100
AcDbEntity
  8
0
100
AcDbCircle
 10
151.8324862586436
 20
546.580312694477
 30
0.0
 40
3.0
100
AcDbArc
 50
270.0
 51
0.0
  0
ARC
  5
10D0
330
2
100
AcDbEntity
  8
0
100
AcDbCircle
 10
149.8324862586436
 20
543.580312694477
 30
0.0
 40
5.0
100
AcDbArc
 50
270.0
 51
0.0
  0
ARC
  5
10D1
330
2
100
AcDbEntity
  8
0
100
AcDbCircle
 10
142.3624642586422
 20
543.580312694477
 30
0.0
 40
5.0
100
AcDbArc
 50
180.0
 51
270.0
  0
ARC
  5
10D2
330
2
100
AcDbEntity
  8
0
100
AcDbCircle
 10
140.3624642586422
 20
546.580312694477
 30
0.0
 40
3.0
100
AcDbArc
 50
180.0
 51
270.0
  0
LINE
  5
10D3
330
2
100
AcDbEntity
  8
0
100
AcDbLine
 10
137.3624642586422
 20
473.580312694477
 30
0.0
 11
137.3624642586422
 21
547.580312694477
 31
0.0
  0
ARC
  5
10D4
330
2
100
AcDbEntity
  8
0
100
AcDbCircle
 10
134.3624642586422
 20
473.580312694477
 30
0.0
 40
3.0
100
AcDbArc
 50
270.0
 51
0.0
  0
ARC
  5
10D5
330
2
100
AcDbEntity
  8
0
100
AcDbCircle
 10
134.3624642586422
 20
547.580312694477
 30
0.0
 40
3.0
100
AcDbArc
 50
0.0
 51
90.0
  0
LINE
  5
10D6
330
2
100
AcDbEntity
  8
0
100
AcDbLine
 10
109.8624642586422
 20
459.080312694477
 30
0.0
 11
123.3624642586422
 21
459.080312694477
 31
0.0
  0
ARC
  5
10D7
330
2
100
AcDbEntity
  8
0
100
AcDbCircle
 10
123.3624642586422
 20
461.080312694477
 30
0.0
 40
2.0
100
AcDbArc
 50
270.0
 51
0.0
  0
LINE
  5
10D8
330
2
100
AcDbEntity
  8
0
100
AcDbLine
 10
109.8624642586422
 20
562.080312694477
 30
0.0
 11
123.3624642586431
 21
562.080312694477
 31
0.0
  0
ARC
  5
10D9
330
2
100
AcDbEntity
  8
0
100
AcDbCircle
 10
123.3624642586431
 20
560.080312694477
 30
0.0
 40
2.0
100
AcDbArc
 50
0.0
 51
90.0
  0
LINE
  5
10DA
330
2
100
AcDbEntity
  8
CENTER
100
AcDbLine
 10
356.3324862586408
 20
510.5803126944771
 30
0.0
 11
39.86246425864226
 21
510.5803126944771
 31
0.0
  0
LINE
  5
10DB
330
2
100
AcDbEntity
  8
CENTER
100
AcDbLine
 10
520.62100478446
 20
428.39447993477
 30
0.0
 11
520.62100478446
 21
592.7661454538356
 31
0.0
  0
LINE
  5
10DC
330
2
100
AcDbEntity
  8
0
100
AcDbLine
 10
592.6210014556494
 20
469.0116902438308
 30
0.0
 11
592.6210014556494
 21
552.1489351446011
 31
0.0
  0
LINE
  5
10DD
330
2
100
AcDbEntity
  8
0
100
AcDbLine
 10
578.6210014556494
 20
450.5803126943024
 30
0.0
 11
578.6210014556494
 21
570.5803126943023
 31
0.0
  0
LINE
  5
10DE
330
2
100
AcDbEntity
  8
CENTER
100
AcDbLine
 10
412.6210047844559
 20
510.5803126942142
 30
0.0
 11
620.6210014556494
 21
510.5803126942151
 31
0.0
  0
LINE
  5
10DF
330
2
100
AcDbEntity
  8
0
100
AcDbLine
 10
484.6210047844595
 20
443.0803126943025
 30
0.0
 11
573.6210014556494
 21
443.8570038986305
 31
0.0
  0
LINE
  5
10E0
330
2
100
AcDbEntity
  8
0
100
AcDbLine
 10
573.6210014556494
 20
450.5803126943024
 30
0.0
 11
578.6210014556494
 21
450.5803126943024
 31
0.0
  0
LINE
  5
10E1
330
2
100
AcDbEntity
  8
0
100
AcDbLine
 10
573.6210014556512
 20
577.3036214899762
 30
0.0
 11
484.6210047844595
 21
578.0803126943023
 31
0.0
  0
LINE
  5
10E2
330
2
100
AcDbEntity
  8
0
100
AcDbLine
 10
573.6210014556494
 20
570.5803126943023
 30
0.0
 11
578.6210014556494
 21
570.5803126943023
 31
0.0
  0
LINE
  5
10E3
330
2
100
AcDbEntity
  8
0
100
AcDbLine
 10
573.6210014556512
 20
577.3036214899762
 30
0.0
 11
573.6210014556494
 21
443.8570038986305
 31
0.0
  0
LINE
  5
10E4
330
2
100
AcDbEntity
  8
0
100
AcDbLine
 10
590.6908004490545
 20
467.0129085897911
 30
0.0
 11
580.5512024622442
 21
466.6588260257554
 31
0.0
  0
LINE
  5
10E5
330
2
100
AcDbEntity
  8
0
100
AcDbLine
 10
590.6908004490545
 20
554.1477167986409
 30
0.0
 11
580.5512024622442
 21
554.5017993626766
 31
0.0
  0
ARC
  5
10E6
330
2
100
AcDbEntity
  8
0
100
AcDbCircle
 10
580.6210014556494
 20
556.5005810167145
 30
0.0
 40
2.0
100
AcDbArc
 50
180.0
 51
267.9999999999963
  0
ARC
  5
10E7
330
2
100
AcDbEntity
  8
0
100
AcDbCircle
 10
580.6210014556494
 20
464.6600443717175
 30
0.0
 40
2.0
100
AcDbArc
 50
92.00000000000365
 51
180.0
  0
ARC
  5
10E8
330
2
100
AcDbEntity
  8
0
100
AcDbCircle
 10
590.6210014556494
 20
469.0116902438308
 30
0.0
 40
2.0
100
AcDbArc
 50
272.0000000000036
 51
0.0
  0
ARC
  5
10E9
330
2
100
AcDbEntity
  8
0
100
AcDbCircle
 10
590.6210014556494
 20
552.1489351446011
 30
0.0
 40
2.0
100
AcDbArc
 50
0.0
 51
87.99999999999636
  0
LINE
  5
10EA
330
2
100
AcDbEntity
  8
0
100
AcDbLine
 10
573.6210014556494
 20
568.080312694477
 30
0.0
 11
484.6210047844595
 21
568.080312694477
 31
0.0
  0
LINE
  5
10EB
330
2
100
AcDbEntity
  8
0
100
AcDbLine
 10
573.6210014556494
 20
564.080312694477
 30
0.0
 11
484.6210047844595
 21
564.080312694477
 31
0.0
  0
LINE
  5
10EC
330
2
100
AcDbEntity
  8
0
100
AcDbLine
 10
573.6210014556494
 20
538.2485078583845
 30
0.0
 11
484.6210047844595
 21
538.2485078583845
 31
0.0
  0
LINE
  5
10ED
330
2
100
AcDbEntity
  8
0
100
AcDbLine
 10
573.6210014556494
 20
453.080312693955
 30
0.0
 11
484.6210047844595
 21
453.080312693955
 31
0.0
  0
LINE
  5
10EE
330
2
100
AcDbEntity
  8
0
100
AcDbLine
 10
573.6210014556494
 20
457.080312693955
 30
0.0
 11
484.6210047844595
 21
457.080312693955
 31
0.0
  0
LINE
  5
10EF
330
2
100
AcDbEntity
  8
0
100
AcDbLine
 10
573.6210014556494
 20
482.9121175300475
 30
0.0
 11
484.6210047844595
 21
482.9121175300475
 31
0.0
  0
LINE
  5
10F0
330
2
100
AcDbEntity
  8
0
100
AcDbLine
 10
929.0140439213358
 20
796.6397475990029
 30
0.0
 11
929.4418127537323
 21
845.6572006700003
 31
0.0
  0
ARC
  5
10F1
330
2
100
AcDbEntity
  8
0
100
AcDbCircle
 10
932.3939292160398
 20
840.1572006700003
 30
0.0
 40
3.0
100
AcDbArc
 50
90.0
 51
179.5000000000344
  0
ARC
  5
10F2
330
2
100
AcDbEntity
  8
0
100
AcDbCircle
 10
932.127759748417
 20
809.6572006700002
 30
0.0
 40
3.0
100
AcDbArc
 50
90.0
 51
179.5000000000344
  0
ARC
  5
10F3
330
2
100
AcDbEntity
  8
0
100
AcDbCircle
 10
934.1540165085628
 20
812.6572006700003
 30
0.0
 40
5.0
100
AcDbArc
 50
90.0
 51
179.5000000000344
  0
ARC
  5
10F4
330
2
100
AcDbEntity
  8
0
100
AcDbCircle
 10
927.0141200752062
 20
796.6572006700003
 30
0.0
 40
2.0
100
AcDbArc
 50
270.0
 51
359.5000000000345
  0
LINE
  5
10F5
330
2
100
AcDbEntity
  8
0
100
AcDbLine
 10
929.1276455132596
 20
881.6572006700075
 30
0.0
 11
929.4418127537213
 21
845.6572006700003
 31
0.0
  0
ARC
  5
10F6
330
2
100
AcDbEntity
  8
0
100
AcDbCircle
 10
932.127759748417
 20
881.6572006700003
 30
0.0
 40
3.0
100
AcDbArc
 50
180.4999999999655
 51
270.0
  0
ARC
  5
10F7
330
2
100
AcDbEntity
  8
0
100
AcDbCircle
 10
934.1540165085611
 20
878.6572006700003
 30
0.0
 40
5.0
100
AcDbArc
 50
180.4999999999655
 51
270.0
  0
ARC
  5
10F8
330
2
100
AcDbEntity
  8
0
100
AcDbCircle
 10
932.3939292160288
 20
851.1572006700003
 30
0.0
 40
3.0
100
AcDbArc
 50
180.4999999999655
 51
270.0
  0
LINE
  5
10F9
330
2
100
AcDbEntity
  8
0
100
AcDbLine
 10
877.6276455133668
 20
882.1572006699984
 30
0.0
 11
876.846590845988
 21
792.6572006700003
 31
0.0
  0
LINE
  5
10FA
330
2
100
AcDbEntity
  8
0
100
AcDbLine
 10
198.3950951439886
 20
561.5803126944769
 30
0.0
 11
162.8324862586408
 21
561.5803126944769
 31
0.0
  0
CIRCLE
  5
10FB
330
2
100
AcDbEntity
  8
0
100
AcDbCircle
 10
177.3324862586408
 20
556.080312694477
 30
0.0
 40
2.0
  0
CIRCLE
  5
10FC
330
2
100
AcDbEntity
  8
HOJO
100
AcDbCircle
 10
177.3324862586408
 20
556.080312694477
 30
0.0
 40
2.5
  0
CIRCLE
  5
10FD
330
2
100
AcDbEntity
  8
0
100
AcDbCircle
 10
177.3324862586408
 20
556.080312694477
 30
0.0
 40
3.5
  0
CIRCLE
  5
10FE
330
2
100
AcDbEntity
  8
0
100
AcDbCircle
 10
177.3324862586408
 20
556.080312694477
 30
0.0
 40
4.0
  0
LINE
  5
10FF
330
2
100
AcDbEntity
  8
CENTER
100
AcDbLine
 10
185.3324862586408
 20
556.0803126944788
 30
0.0
 11
169.3324862586408
 21
556.080312694477
 31
0.0
  0
LINE
  5
1100
330
2
100
AcDbEntity
  8
0
100
AcDbLine
 10
198.3950951439886
 20
459.5803126944771
 30
0.0
 11
162.8324862586408
 21
459.5803126944771
 31
0.0
  0
CIRCLE
  5
1101
330
2
100
AcDbEntity
  8
0
100
AcDbCircle
 10
177.3324862586417
 20
465.080312694477
 30
0.0
 40
4.0
  0
CIRCLE
  5
1102
330
2
100
AcDbEntity
  8
HOJO
100
AcDbCircle
 10
177.3324862586417
 20
465.080312694477
 30
0.0
 40
2.5
  0
CIRCLE
  5
1103
330
2
100
AcDbEntity
  8
0
100
AcDbCircle
 10
177.3324862586417
 20
465.080312694477
 30
0.0
 40
3.5
  0
CIRCLE
  5
1104
330
2
100
AcDbEntity
  8
0
100
AcDbCircle
 10
177.3324862586417
 20
465.080312694477
 30
0.0
 40
2.0
  0
LINE
  5
1105
330
2
100
AcDbEntity
  8
0
100
AcDbLine
 10
154.8324862586408
 20
467.580312694477
 30
0.0
 11
154.8324862586408
 21
553.5803126944769
 31
0.0
  0
LINE
  5
1106
330
2
100
AcDbEntity
  8
CENTER
100
AcDbLine
 10
162.8324862586408
 20
564.330312694477
 30
0.0
 11
162.8324862586426
 21
542.8303126944769
 31
0.0
  0
LINE
  5
1107
330
2
100
AcDbEntity
  8
0
100
AcDbLine
 10
162.8324862586426
 20
545.0803126944769
 30
0.0
 11
156.8324862586417
 21
545.0803126944806
 31
0.0
  0
LINE
  5
1108
330
2
100
AcDbEntity
  8
CENTER
100
AcDbLine
 10
173.5824862586408
 20
553.5803126944788
 30
0.0
 11
152.0824862586408
 21
553.5803126944769
 31
0.0
  0
ARC
  5
1109
330
2
100
AcDbEntity
  8
0
100
AcDbCircle
 10
162.8324862586408
 20
553.5803126944769
 30
0.0
 40
8.0
100
AcDbArc
 50
90.0
 51
180.0
  0
LINE
  5
110A
330
2
100
AcDbEntity
  8
0
100
AcDbLine
 10
171.3324862586481
 20
553.5803126944715
 30
0.0
 11
171.3324862586508
 21
559.5803126944788
 31
0.0
  0
LINE
  5
110B
330
2
100
AcDbEntity
  8
CENTER
100
AcDbLine
 10
177.3324862586408
 20
564.080312694477
 30
0.0
 11
177.3324862586417
 21
548.080312694477
 31
0.0
  0
ARC
  5
110C
330
2
100
AcDbEntity
  8
0
100
AcDbCircle
 10
162.8324862586481
 20
553.5803126944769
 30
0.0
 40
8.5
100
AcDbArc
 50
269.9999999999739
 51
359.9999999998958
  0
ARC
  5
110D
330
2
100
AcDbEntity
  8
0
100
AcDbCircle
 10
162.8324862586481
 20
467.580312694477
 30
0.0
 40
8.5
100
AcDbArc
 50
0.0
 51
90.00000000002605
  0
LINE
  5
110E
330
2
100
AcDbEntity
  8
0
100
AcDbLine
 10
162.8324862586426
 20
476.0803126944771
 30
0.0
 11
156.8324862586417
 21
476.0803126944734
 31
0.0
  0
ARC
  5
110F
330
2
100
AcDbEntity
  8
0
100
AcDbCircle
 10
162.8324862586408
 20
467.580312694477
 30
0.0
 40
8.0
100
AcDbArc
 50
180.0
 51
270.0
  0
LINE
  5
1110
330
2
100
AcDbEntity
  8
0
100
AcDbLine
 10
171.3324862586481
 20
467.5803126944825
 30
0.0
 11
171.3324862586508
 21
461.580312694477
 31
0.0
  0
ARC
  5
113E
330
2
100
AcDbEntity
  8
0
100
AcDbCircle
 10
173.3324862586508
 20
461.580312694477
 30
0.0
 40
2.0
100
AcDbArc
 50
180.0
 51
270.0
  0
ARC
  5
113F
330
2
100
AcDbEntity
  8
0
100
AcDbCircle
 10
156.8324862586408
 20
478.0803126944734
 30
0.0
 40
2.0
100
AcDbArc
 50
180.0
 51
270.000000000026
  0
ARC
  5
1140
330
2
100
AcDbEntity
  8
0
100
AcDbCircle
 10
156.8324862586408
 20
543.0803126944806
 30
0.0
 40
2.0
100
AcDbArc
 50
89.99999999997395
 51
180.0
  0
ARC
  5
1141
330
2
100
AcDbEntity
  8
0
100
AcDbCircle
 10
173.3324862586508
 20
559.580312694477
 30
0.0
 40
2.0
100
AcDbArc
 50
90.0
 51
179.9999999998957
  0
ARC
  5
1158
330
2
100
AcDbEntity
  8
0
100
AcDbCircle
 10
198.3950951439886
 20
451.5803126944771
 30
0.0
 40
8.0
100
AcDbArc
 50
4.780191847234029
 51
90.0
  0
ARC
  5
1159
330
2
100
AcDbEntity
  8
0
100
AcDbCircle
 10
198.3950951439886
 20
569.5803126944769
 30
0.0
 40
8.0
100
AcDbArc
 50
270.0
 51
355.2198081527659
  0
LINE
  5
115F
330
2
100
AcDbEntity
  8
CENTER
100
AcDbLine
 10
185.3324862586408
 20
465.080312694477
 30
0.0
 11
169.3324862586408
 21
465.080312694477
 31
0.0
  0
LINE
  5
1160
330
2
100
AcDbEntity
  8
CENTER
100
AcDbLine
 10
162.8324862586408
 20
456.830312694477
 30
0.0
 11
162.8324862586426
 21
478.3303126944771
 31
0.0
  0
LINE
  5
1161
330
2
100
AcDbEntity
  8
CENTER
100
AcDbLine
 10
173.5824862586408
 20
467.580312694477
 30
0.0
 11
152.0824862586408
 21
467.5803126944789
 31
0.0
  0
LINE
  5
1162
330
2
100
AcDbEntity
  8
CENTER
100
AcDbLine
 10
177.3324862586408
 20
457.080312694477
 30
0.0
 11
177.3324862586417
 21
473.0803126944771
 31
0.0
  0
CIRCLE
  5
1171
330
2
100
AcDbEntity
  8
0
100
AcDbCircle
 10
162.8324862586481
 20
553.5803126944769
 30
0.0
 40
5.63397459621558
  0
CIRCLE
  5
1172
330
2
100
AcDbEntity
  8
0
100
AcDbCircle
 10
162.8324862586481
 20
553.5803126944769
 30
0.0
 40
6.5
  0
LINE
  5
1173
330
2
100
AcDbEntity
  8
0
100
AcDbLine
 10
165.8324862586481
 20
551.8482618869088
 30
0.0
 11
165.8324862586481
 21
555.312363502047
 31
0.0
  0
LINE
  5
1174
330
2
100
AcDbEntity
  8
0
100
AcDbLine
 10
159.8324862586481
 20
555.312363502047
 30
0.0
 11
159.8324862586481
 21
551.8482618869088
 31
0.0
  0
LINE
  5
1175
330
2
100
AcDbEntity
  8
0
100
AcDbLine
 10
162.8324862586481
 20
550.1162110793407
 30
0.0
 11
165.8324862586481
 21
551.8482618869088
 31
0.0
  0
LINE
  5
1176
330
2
100
AcDbEntity
  8
0
100
AcDbLine
 10
159.8324862586481
 20
551.8482618869088
 30
0.0
 11
162.8324862586481
 21
550.1162110793407
 31
0.0
  0
LINE
  5
1177
330
2
100
AcDbEntity
  8
0
100
AcDbLine
 10
159.8324862586481
 20
555.312363502047
 30
0.0
 11
162.8324862586481
 21
557.0444143096151
 31
0.0
  0
LINE
  5
1178
330
2
100
AcDbEntity
  8
0
100
AcDbLine
 10
162.8324862586481
 20
557.0444143096151
 30
0.0
 11
165.8324862586481
 21
555.312363502047
 31
0.0
  0
CIRCLE
  5
1179
330
2
100
AcDbEntity
  8
0
100
AcDbCircle
 10
162.8324862586417
 20
467.580312694477
 30
0.0
 40
5.63397459621558
  0
CIRCLE
  5
117A
330
2
100
AcDbEntity
  8
0
100
AcDbCircle
 10
162.8324862586417
 20
467.580312694477
 30
0.0
 40
6.5
  0
LINE
  5
117B
330
2
100
AcDbEntity
  8
0
100
AcDbLine
 10
165.8324862586417
 20
465.8482618869089
 30
0.0
 11
165.8324862586417
 21
469.312363502047
 31
0.0
  0
LINE
  5
117C
330
2
100
AcDbEntity
  8
0
100
AcDbLine
 10
159.8324862586417
 20
469.312363502047
 30
0.0
 11
159.8324862586417
 21
465.8482618869089
 31
0.0
  0
LINE
  5
117D
330
2
100
AcDbEntity
  8
0
100
AcDbLine
 10
162.8324862586417
 20
464.1162110793389
 30
0.0
 11
165.8324862586417
 21
465.8482618869089
 31
0.0
  0
LINE
  5
117E
330
2
100
AcDbEntity
  8
0
100
AcDbLine
 10
159.8324862586417
 20
465.8482618869089
 30
0.0
 11
162.8324862586417
 21
464.1162110793389
 31
0.0
  0
LINE
  5
117F
330
2
100
AcDbEntity
  8
0
100
AcDbLine
 10
159.8324862586417
 20
469.312363502047
 30
0.0
 11
162.8324862586417
 21
471.0444143096152
 31
0.0
  0
LINE
  5
1180
330
2
100
AcDbEntity
  8
0
100
AcDbLine
 10
162.8324862586417
 20
471.0444143096152
 30
0.0
 11
165.8324862586417
 21
469.312363502047
 31
0.0
  0
ARC
  5
1189
330
2
100
AcDbEntity
  8
0
100
AcDbCircle
 10
466.1210047844596
 20
575.9187894833153
 30
0.0
 40
2.0
100
AcDbArc
 50
90.49999999999155
 51
180.0
  0
LINE
  5
118A
330
2
100
AcDbEntity
  8
0
100
AcDbLine
 10
463.5352183468329
 20
564.9945262565884
 30
0.0
 11
462.7067912220862
 21
564.1660991318436
 31
0.0
  0
LINE
  5
118B
330
2
100
AcDbEntity
  8
0
100
AcDbLine
 10
453.6210047844596
 20
552.5029624250269
 30
0.0
 11
453.6210047844605
 21
468.6576629634033
 31
0.0
  0
LINE
  5
118C
330
2
100
AcDbEntity
  8
0
100
AcDbLine
 10
462.1210047844596
 20
555.5803126942151
 30
0.0
 11
461.6210047844596
 21
555.0803126942151
 31
0.0
  0
LINE
  5
118D
330
2
100
AcDbEntity
  8
0
100
AcDbLine
 10
458.1210047844596
 20
552.8803126942161
 30
0.0
 11
458.3210047844594
 21
553.080312694215
 31
0.0
  0
LINE
  5
118E
330
2
100
AcDbEntity
  8
0
100
AcDbLine
 10
456.3210047844594
 20
552.3803126942161
 30
0.0
 11
457.9210047844598
 21
552.3803126942161
 31
0.0
  0
LINE
  5
118F
330
2
100
AcDbEntity
  8
0
100
AcDbLine
 10
454.6210047844596
 20
553.080312694215
 30
0.0
 11
453.6210047844596
 21
552.5029624250269
 31
0.0
  0
LINE
  5
1190
330
2
100
AcDbEntity
  8
0
100
AcDbLine
 10
454.6210047844596
 20
553.080312694215
 30
0.0
 11
455.9210047844597
 21
553.080312694215
 31
0.0
  0
LINE
  5
1191
330
2
100
AcDbEntity
  8
0
100
AcDbLine
 10
458.3210047844594
 20
553.080312694215
 30
0.0
 11
461.6210047844596
 21
553.080312694215
 31
0.0
  0
LINE
  5
1192
330
2
100
AcDbEntity
  8
0
100
AcDbLine
 10
462.1210047844551
 20
458.4087398189618
 30
0.0
 11
462.1210047844678
 21
562.7518855694702
 31
0.0
  0
LINE
  5
1193
330
2
100
AcDbEntity
  8
0
100
AcDbLine
 10
462.1210047844559
 20
465.5803126942151
 30
0.0
 11
461.621004784456
 21
466.0803126942151
 31
0.0
  0
LINE
  5
1194
330
2
100
AcDbEntity
  8
0
100
AcDbLine
 10
458.1210047844559
 20
468.2803126942158
 30
0.0
 11
458.1210047844559
 21
552.8803126942125
 31
0.0
  0
LINE
  5
1195
330
2
100
AcDbEntity
  8
0
100
AcDbLine
 10
458.1210047844559
 20
468.2803126942158
 30
0.0
 11
458.3210047844557
 21
468.0803126942151
 31
0.0
  0
LINE
  5
1196
330
2
100
AcDbEntity
  8
0
100
AcDbLine
 10
456.121004784456
 20
468.2803126942158
 30
0.0
 11
456.1210047843913
 21
552.8803126942161
 31
0.0
  0
LINE
  5
1197
330
2
100
AcDbEntity
  8
0
100
AcDbLine
 10
454.6210047844559
 20
468.0803126942151
 30
0.0
 11
455.9210047844552
 21
468.0803126942151
 31
0.0
  0
LINE
  5
1198
330
2
100
AcDbEntity
  8
0
100
AcDbLine
 10
456.3210047844558
 20
468.7803126942158
 30
0.0
 11
457.9210047844552
 21
468.7803126942158
 31
0.0
  0
LINE
  5
1199
330
2
100
AcDbEntity
  8
0
100
AcDbLine
 10
454.6210047844559
 20
468.0803126942151
 30
0.0
 11
453.6210047844559
 21
468.6576629634051
 31
0.0
  0
LINE
  5
119A
330
2
100
AcDbEntity
  8
0
100
AcDbLine
 10
461.621004784456
 20
466.0803126942151
 30
0.0
 11
461.621004784456
 21
555.0803126942114
 31
0.0
  0
LINE
  5
119B
330
2
100
AcDbEntity
  8
0
100
AcDbLine
 10
458.3210047844557
 20
468.0803126942151
 30
0.0
 11
461.621004784456
 21
468.0803126942151
 31
0.0
  0
LINE
  5
119C
330
2
100
AcDbEntity
  8
0
100
AcDbLine
 10
464.121004784455
 20
445.2418359051167
 30
0.0
 11
464.121004784455
 21
575.9187894833153
 31
0.0
  0
LINE
  5
119D
330
2
100
AcDbEntity
  8
0
100
AcDbLine
 10
463.5352183468284
 20
456.1660991318418
 30
0.0
 11
462.7067912220817
 21
456.9945262565885
 31
0.0
  0
LINE
  5
119E
330
2
100
AcDbEntity
  8
0
100
AcDbLine
 10
466.1035517134632
 20
577.918713329443
 30
0.0
 11
484.6210047844595
 21
578.0803126942169
 31
0.0
  0
ARC
  5
119F
330
2
100
AcDbEntity
  8
0
100
AcDbCircle
 10
464.121004784455
 20
458.4087398189618
 30
0.0
 40
2.0
100
AcDbArc
 50
180.0
 51
225.0000000000187
  0
ARC
  5
11A0
330
2
100
AcDbEntity
  8
0
100
AcDbCircle
 10
462.1210047844551
 20
454.7518855694702
 30
0.0
 40
2.0
100
AcDbArc
 50
0.0
 51
45.00000000001871
  0
ARC
  5
11A1
330
2
100
AcDbEntity
  8
0
100
AcDbCircle
 10
464.1210047844595
 20
562.7518855694702
 30
0.0
 40
2.0
100
AcDbArc
 50
134.9999999999812
 51
180.0
  0
ARC
  5
11A2
330
2
100
AcDbEntity
  8
0
100
AcDbCircle
 10
462.1210047844596
 20
566.4087398189617
 30
0.0
 40
2.0
100
AcDbArc
 50
314.9999999999812
 51
0.0
  0
ARC
  5
11A3
330
2
100
AcDbEntity
  8
0
100
AcDbCircle
 10
455.9210047844597
 20
552.8803126942161
 30
0.0
 40
0.2
100
AcDbArc
 50
0.0
 51
90.0
  0
ARC
  5
11A4
330
2
100
AcDbEntity
  8
0
100
AcDbCircle
 10
456.3210047844594
 20
552.5803126942169
 30
0.0
 40
0.2
100
AcDbArc
 50
180.0
 51
270.0
  0
ARC
  5
11A5
330
2
100
AcDbEntity
  8
0
100
AcDbCircle
 10
457.9210047844598
 20
552.5803126942169
 30
0.0
 40
0.2
100
AcDbArc
 50
270.0
 51
0.0
  0
ARC
  5
11A6
330
2
100
AcDbEntity
  8
0
100
AcDbCircle
 10
455.9210047844552
 20
468.2803126942158
 30
0.0
 40
0.2
100
AcDbArc
 50
270.0
 51
0.0
  0
ARC
  5
11A7
330
2
100
AcDbEntity
  8
0
100
AcDbCircle
 10
456.3210047844558
 20
468.5803126942151
 30
0.0
 40
0.2
100
AcDbArc
 50
90.0
 51
180.0
  0
ARC
  5
11A8
330
2
100
AcDbEntity
  8
0
100
AcDbCircle
 10
457.9210047844552
 20
468.5803126942151
 30
0.0
 40
0.2
100
AcDbArc
 50
0.0
 51
90.0
  0
LINE
  5
11A9
330
2
100
AcDbEntity
  8
0
100
AcDbLine
 10
454.6210047844596
 20
553.080312694215
 30
0.0
 11
454.6210047844559
 21
468.0803126942151
 31
0.0
  0
LINE
  5
11AA
330
2
100
AcDbEntity
  8
0
100
AcDbLine
 10
474.1253680521993
 20
559.5759873379789
 30
0.0
 11
466.1035517134576
 21
559.5059820073488
 31
0.0
  0
LINE
  5
11AB
330
2
100
AcDbEntity
  8
0
100
AcDbLine
 10
474.6210047844505
 20
560.0759682995135
 30
0.0
 11
474.6210047844505
 21
577.0017328057124
 31
0.0
  0
ARC
  5
11AC
330
2
100
AcDbEntity
  8
0
100
AcDbCircle
 10
474.1210047844504
 20
560.0759682995135
 30
0.0
 40
0.5
100
AcDbArc
 50
270.5000000000175
 51
0.0
  0
ARC
  5
11AD
330
2
100
AcDbEntity
  8
0
100
AcDbCircle
 10
475.6210047844505
 20
577.0017328057124
 30
0.0
 40
1.0
100
AcDbArc
 50
90.50000000001761
 51
180.0
  0
ARC
  5
11AE
330
2
100
AcDbEntity
  8
0
100
AcDbCircle
 10
466.1210047844551
 20
557.506058161221
 30
0.0
 40
2.0
100
AcDbArc
 50
90.49999999999155
 51
180.0
  0
LINE
  5
11AF
330
2
100
AcDbEntity
  8
0
100
AcDbLine
 10
475.6122782489527
 20
568.0803126942168
 30
0.0
 11
484.6210047844595
 21
568.0803126942168
 31
0.0
  0
LINE
  5
11B0
330
2
100
AcDbEntity
  8
0
100
AcDbLine
 10
475.6122782489527
 20
564.0803126942168
 30
0.0
 11
484.6210047844595
 21
564.0803126942168
 31
0.0
  0
LINE
  5
11B1
330
2
100
AcDbEntity
  8
0
100
AcDbLine
 10
466.1035517134576
 20
538.2485078583845
 30
0.0
 11
484.6210047844595
 21
538.2485078583845
 31
0.0
  0
LINE
  5
11B2
330
2
100
AcDbEntity
  8
0
100
AcDbLine
 10
475.6122782489527
 20
453.0803126942151
 30
0.0
 11
484.6210047844595
 21
453.0803126942151
 31
0.0
  0
LINE
  5
11B3
330
2
100
AcDbEntity
  8
0
100
AcDbLine
 10
475.6122782489527
 20
457.0803126942151
 30
0.0
 11
484.6210047844595
 21
457.0803126942151
 31
0.0
  0
LINE
  5
11B4
330
2
100
AcDbEntity
  8
0
100
AcDbLine
 10
466.1035517134576
 20
482.9121175300475
 30
0.0
 11
484.6210047844595
 21
482.9121175300475
 31
0.0
  0
ARC
  5
11B5
330
2
100
AcDbEntity
  8
0
100
AcDbCircle
 10
466.1210047844596
 20
445.2418359051167
 30
0.0
 40
2.0
100
AcDbArc
 50
180.0
 51
269.5000000000084
  0
LINE
  5
11B6
330
2
100
AcDbEntity
  8
0
100
AcDbLine
 10
466.1035517134632
 20
443.2419120589889
 30
0.0
 11
484.6210047844595
 21
443.0803126942151
 31
0.0
  0
ARC
  5
11B7
330
2
100
AcDbEntity
  8
0
100
AcDbCircle
 10
475.6210047844505
 20
444.1588925827196
 30
0.0
 40
1.0
100
AcDbArc
 50
180.0
 51
269.4999999999824
  0
LINE
  5
11B8
330
2
100
AcDbEntity
  8
0
100
AcDbLine
 10
474.1253680521993
 20
461.5846380504532
 30
0.0
 11
466.1035517134576
 21
461.6546433810832
 31
0.0
  0
LINE
  5
11B9
330
2
100
AcDbEntity
  8
0
100
AcDbLine
 10
474.6210047844505
 20
461.0846570889185
 30
0.0
 11
474.6210047844505
 21
444.1588925827196
 31
0.0
  0
ARC
  5
11BA
330
2
100
AcDbEntity
  8
0
100
AcDbCircle
 10
474.1210047844504
 20
461.0846570889185
 30
0.0
 40
0.5
100
AcDbArc
 50
0.0
 51
89.49999999998238
  0
ARC
  5
11BB
330
2
100
AcDbEntity
  8
0
100
AcDbCircle
 10
466.1210047844551
 20
463.6545672272109
 30
0.0
 40
2.0
100
AcDbArc
 50
180.0
 51
269.5000000000084
  0
LINE
  5
11BC
330
2
100
AcDbEntity
  8
0
100
AcDbLine
 10
484.6210047844595
 20
578.0803126942169
 30
0.0
 11
484.6210047844595
 21
443.0803126942151
 31
0.0
  0
LINE
  5
11BD
330
2
100
AcDbEntity
  8
0
100
AcDbLine
 10
464.6210047844505
 20
573.7142872904327
 30
0.0
 11
464.6210047844505
 21
562.4463380980028
 31
0.0
  0
LINE
  5
11BE
330
2
100
AcDbEntity
  8
0
100
AcDbLine
 10
472.6210047844505
 20
574.5803126942169
 30
0.0
 11
472.6210047844514
 21
561.5803126942169
 31
0.0
  0
LINE
  5
11BF
330
2
100
AcDbEntity
  8
0
100
AcDbLine
 10
465.1210047844505
 20
561.5803126942169
 30
0.0
 11
464.6210047844505
 21
562.4463380980028
 31
0.0
  0
LINE
  5
11C0
330
2
100
AcDbEntity
  8
0
100
AcDbLine
 10
474.6210047844505
 20
561.5803126942169
 30
0.0
 11
472.6210047844505
 21
561.5803126942169
 31
0.0
  0
LINE
  5
11C1
330
2
100
AcDbEntity
  8
0
100
AcDbLine
 10
472.6210047844505
 20
561.5803126942169
 30
0.0
 11
465.1210047844505
 21
561.5803126942169
 31
0.0
  0
LINE
  5
11C2
330
2
100
AcDbEntity
  8
CENTER
  6
CENS
100
AcDbLine
 10
494.1984992376582
 20
568.0803126942168
 30
0.0
 11
458.6210047844505
 21
568.0803126942168
 31
0.0
  0
LINE
  5
11C3
330
2
100
AcDbEntity
  8
0
100
AcDbLine
 10
465.1210047844505
 20
574.5803126942169
 30
0.0
 11
464.6210047844505
 21
573.7142872904327
 31
0.0
  0
LINE
  5
11C4
330
2
100
AcDbEntity
  8
0
100
AcDbLine
 10
474.6210047844505
 20
574.5803126942169
 30
0.0
 11
472.6210047844505
 21
574.5803126942169
 31
0.0
  0
LINE
  5
11C5
330
2
100
AcDbEntity
  8
0
100
AcDbLine
 10
472.6210047844505
 20
574.5803126942169
 30
0.0
 11
465.1210047844505
 21
574.5803126942169
 31
0.0
  0
LINE
  5
11C6
330
2
100
AcDbEntity
  8
0
100
AcDbLine
 10
465.1210047844505
 20
574.5803126942169
 30
0.0
 11
465.1210047844505
 21
561.5803126942169
 31
0.0
  0
LINE
  5
11C7
330
2
100
AcDbEntity
  8
0
100
AcDbLine
 10
464.6210047844505
 20
447.4463380979992
 30
0.0
 11
464.6210047844505
 21
458.7142872904292
 31
0.0
  0
LINE
  5
11C8
330
2
100
AcDbEntity
  8
0
100
AcDbLine
 10
472.6210047844505
 20
446.5803126942151
 30
0.0
 11
472.6210047844514
 21
459.5803126942151
 31
0.0
  0
LINE
  5
11C9
330
2
100
AcDbEntity
  8
0
100
AcDbLine
 10
465.1210047844505
 20
459.5803126942151
 30
0.0
 11
464.6210047844505
 21
458.7142872904292
 31
0.0
  0
LINE
  5
11CA
330
2
100
AcDbEntity
  8
0
100
AcDbLine
 10
474.6210047844505
 20
459.5803126942151
 30
0.0
 11
472.6210047844505
 21
459.5803126942151
 31
0.0
  0
LINE
  5
11CB
330
2
100
AcDbEntity
  8
0
100
AcDbLine
 10
472.6210047844505
 20
459.5803126942151
 30
0.0
 11
465.1210047844505
 21
459.5803126942151
 31
0.0
  0
LINE
  5
11CC
330
2
100
AcDbEntity
  8
CENTER
  6
CENS
100
AcDbLine
 10
494.1984992376582
 20
453.0803126942151
 30
0.0
 11
458.6210047844505
 21
453.0803126942151
 31
0.0
  0
LINE
  5
11CD
330
2
100
AcDbEntity
  8
0
100
AcDbLine
 10
465.1210047844505
 20
446.5803126942151
 30
0.0
 11
464.6210047844505
 21
447.4463380979992
 31
0.0
  0
LINE
  5
11CE
330
2
100
AcDbEntity
  8
0
100
AcDbLine
 10
474.6210047844505
 20
446.5803126942151
 30
0.0
 11
472.6210047844505
 21
446.5803126942151
 31
0.0
  0
LINE
  5
11CF
330
2
100
AcDbEntity
  8
0
100
AcDbLine
 10
472.6210047844505
 20
446.5803126942151
 30
0.0
 11
465.1210047844505
 21
446.5803126942151
 31
0.0
  0
LINE
  5
11D0
330
2
100
AcDbEntity
  8
0
100
AcDbLine
 10
465.1210047844505
 20
446.5803126942151
 30
0.0
 11
465.1210047844505
 21
459.5803126942151
 31
0.0
  0
LINE
  5
11D1
330
2
100
AcDbEntity
  8
0
100
AcDbLine
 10
914.6276455132577
 20
896.6572006700202
 30
0.0
 11
879.6276455132577
 21
896.6572006700202
 31
0.0
  0
ARC
  5
11D2
330
2
100
AcDbEntity
  8
0
100
AcDbCircle
 10
927.0141200752062
 20
894.6572006700202
 30
0.0
 40
2.0
100
AcDbArc
 50
0.4999999999654926
 51
72.13575521913203
  0
LINE
  5
11D3
330
2
100
AcDbEntity
  8
0
100
AcDbLine
 10
742.6276455132578
 20
881.6572006700148
 30
0.0
 11
929.1276455132578
 21
881.6572006700148
 31
0.0
  0
ARC
  5
11D4
330
2
100
AcDbEntity
  8
0
100
AcDbCircle
 10
744.7891687241593
 20
900.1572006700149
 30
0.0
 40
2.0
100
AcDbArc
 50
90.0
 51
179.5000000000344
  0
LINE
  5
11D5
330
2
100
AcDbEntity
  8
0
100
AcDbLine
 10
755.7134319508844
 20
902.7429871076416
 30
0.0
 11
756.5418590756311
 21
903.5714142323881
 31
0.0
  0
LINE
  5
11D6
330
2
100
AcDbEntity
  8
0
100
AcDbLine
 10
768.2049957824477
 20
912.6572006700149
 30
0.0
 11
852.0502952440715
 21
912.6572006700149
 31
0.0
  0
LINE
  5
11D7
330
2
100
AcDbEntity
  8
0
100
AcDbLine
 10
765.1276455132578
 20
904.1572006700148
 30
0.0
 11
765.6276455132577
 21
904.6572006700149
 31
0.0
  0
LINE
  5
11D8
330
2
100
AcDbEntity
  8
0
100
AcDbLine
 10
767.8276455132585
 20
908.1572006700149
 30
0.0
 11
767.6276455132578
 21
907.9572006700159
 31
0.0
  0
LINE
  5
11D9
330
2
100
AcDbEntity
  8
0
100
AcDbLine
 10
768.3276455132585
 20
909.9572006700158
 30
0.0
 11
768.3276455132585
 21
908.3572006700155
 31
0.0
  0
LINE
  5
11DA
330
2
100
AcDbEntity
  8
0
100
AcDbLine
 10
767.6276455132578
 20
911.6572006700149
 30
0.0
 11
768.2049957824477
 21
912.6572006700149
 31
0.0
  0
LINE
  5
11DB
330
2
100
AcDbEntity
  8
0
100
AcDbLine
 10
767.6276455132578
 20
911.6572006700149
 30
0.0
 11
767.6276455132578
 21
910.3572006700156
 31
0.0
  0
LINE
  5
11DC
330
2
100
AcDbEntity
  8
0
100
AcDbLine
 10
767.6276455132578
 20
907.9572006700159
 30
0.0
 11
767.6276455132578
 21
904.6572006700149
 31
0.0
  0
LINE
  5
11DD
330
2
100
AcDbEntity
  8
0
100
AcDbLine
 10
862.2992183885111
 20
904.1572006700203
 30
0.0
 11
757.9560726380044
 21
904.1572006700075
 31
0.0
  0
LINE
  5
11DE
330
2
100
AcDbEntity
  8
0
100
AcDbLine
 10
855.1276455132578
 20
904.1572006700203
 30
0.0
 11
854.6276455132577
 21
904.6572006700184
 31
0.0
  0
LINE
  5
11DF
330
2
100
AcDbEntity
  8
0
100
AcDbLine
 10
852.4276455132589
 20
908.1572006700184
 30
0.0
 11
767.8276455132621
 21
908.1572006700184
 31
0.0
  0
LINE
  5
11E0
330
2
100
AcDbEntity
  8
0
100
AcDbLine
 10
852.4276455132589
 20
908.1572006700184
 30
0.0
 11
852.6276455132578
 21
907.9572006700196
 31
0.0
  0
LINE
  5
11E1
330
2
100
AcDbEntity
  8
0
100
AcDbLine
 10
852.4276455132589
 20
910.1572006700184
 30
0.0
 11
767.8276455132585
 21
910.1572006700839
 31
0.0
  0
LINE
  5
11E2
330
2
100
AcDbEntity
  8
0
100
AcDbLine
 10
852.6276455132578
 20
911.6572006700184
 30
0.0
 11
852.6276455132578
 21
910.3572006700192
 31
0.0
  0
LINE
  5
11E3
330
2
100
AcDbEntity
  8
0
100
AcDbLine
 10
851.9276455132589
 20
909.9572006700196
 30
0.0
 11
851.9276455132589
 21
908.3572006700192
 31
0.0
  0
LINE
  5
11E4
330
2
100
AcDbEntity
  8
0
100
AcDbLine
 10
852.6276455132578
 20
911.6572006700184
 30
0.0
 11
852.0502952440677
 21
912.6572006700184
 31
0.0
  0
LINE
  5
11E5
330
2
100
AcDbEntity
  8
0
100
AcDbLine
 10
854.6276455132577
 20
904.6572006700184
 30
0.0
 11
765.6276455132614
 21
904.6572006700184
 31
0.0
  0
LINE
  5
11E6
330
2
100
AcDbEntity
  8
0
100
AcDbLine
 10
852.6276455132578
 20
907.9572006700196
 30
0.0
 11
852.6276455132578
 21
904.6572006700184
 31
0.0
  0
LINE
  5
11E7
330
2
100
AcDbEntity
  8
0
100
AcDbLine
 10
875.6276455132578
 20
902.1572006700203
 30
0.0
 11
744.7891687241593
 21
902.1572006700203
 31
0.0
  0
LINE
  5
11E8
330
2
100
AcDbEntity
  8
0
100
AcDbLine
 10
864.541859075631
 20
902.7429871076469
 30
0.0
 11
863.7134319508843
 21
903.5714142323936
 31
0.0
  0
LINE
  5
11E9
330
2
100
AcDbEntity
  8
0
100
AcDbLine
 10
877.6276455132578
 20
898.6572006700203
 30
0.0
 11
877.6276455132578
 21
900.1572006700202
 31
0.0
  0
ARC
  5
11EA
330
2
100
AcDbEntity
  8
0
100
AcDbCircle
 10
879.6276455132577
 20
898.6572006700203
 30
0.0
 40
2.0
100
AcDbArc
 50
180.0
 51
270.0
  0
LINE
  5
11EB
330
2
100
AcDbEntity
  8
0
100
AcDbLine
 10
929.1276455132578
 20
881.6572006700148
 30
0.0
 11
929.014043921334
 21
894.6746537410158
 31
0.0
  0
ARC
  5
11EC
330
2
100
AcDbEntity
  8
0
100
AcDbCircle
 10
928.049065624755
 20
890.6572006700239
 30
0.0
 40
1.0
100
AcDbArc
 50
0.4999999999654926
 51
90.0
  0
LINE
  5
11ED
330
2
100
AcDbEntity
  8
0
100
AcDbLine
 10
742.7892448780298
 20
900.1746537410122
 30
0.0
 11
742.6276455132578
 21
881.6572006700148
 31
0.0
  0
ARC
  5
11EE
330
2
100
AcDbEntity
  8
0
100
AcDbCircle
 10
875.6276455132578
 20
900.1572006700202
 30
0.0
 40
2.0
100
AcDbArc
 50
0.0
 51
90.0
  0
ARC
  5
11EF
330
2
100
AcDbEntity
  8
0
100
AcDbCircle
 10
862.2992183885129
 20
902.1572006700203
 30
0.0
 40
2.0
100
AcDbArc
 50
45.00000000001871
 51
90.0
  0
ARC
  5
11F0
330
2
100
AcDbEntity
  8
0
100
AcDbCircle
 10
865.9560726380044
 20
904.1572006700203
 30
0.0
 40
2.0
100
AcDbArc
 50
225.0000000000187
 51
270.0
  0
ARC
  5
11F1
330
2
100
AcDbEntity
  8
0
100
AcDbCircle
 10
757.9560726380044
 20
902.1572006700148
 30
0.0
 40
2.0
100
AcDbArc
 50
90.0
 51
134.9999999999812
  0
ARC
  5
11F2
330
2
100
AcDbEntity
  8
0
100
AcDbCircle
 10
754.2992183885111
 20
904.1572006700148
 30
0.0
 40
2.0
100
AcDbArc
 50
270.0
 51
314.9999999999812
  0
ARC
  5
11F3
330
2
100
AcDbEntity
  8
0
100
AcDbCircle
 10
767.8276455132585
 20
910.3572006700156
 30
0.0
 40
0.2
100
AcDbArc
 50
180.0
 51
270.0
  0
ARC
  5
11F4
330
2
100
AcDbEntity
  8
0
100
AcDbCircle
 10
768.1276455132578
 20
909.9572006700158
 30
0.0
 40
0.2
100
AcDbArc
 50
0.0
 51
90.0
  0
ARC
  5
11F5
330
2
100
AcDbEntity
  8
0
100
AcDbCircle
 10
768.1276455132578
 20
908.3572006700155
 30
0.0
 40
0.2
100
AcDbArc
 50
270.0
 51
0.0
  0
ARC
  5
11F6
330
2
100
AcDbEntity
  8
0
100
AcDbCircle
 10
852.4276455132589
 20
910.3572006700192
 30
0.0
 40
0.2
100
AcDbArc
 50
270.0
 51
0.0
  0
ARC
  5
11F7
330
2
100
AcDbEntity
  8
0
100
AcDbCircle
 10
852.1276455132577
 20
909.9572006700196
 30
0.0
 40
0.2
100
AcDbArc
 50
90.0
 51
180.0
  0
ARC
  5
11F8
330
2
100
AcDbEntity
  8
0
100
AcDbCircle
 10
852.1276455132577
 20
908.3572006700192
 30
0.0
 40
0.2
100
AcDbArc
 50
180.0
 51
270.0
  0
LINE
  5
11F9
330
2
100
AcDbEntity
  8
0
100
AcDbLine
 10
767.6276455132578
 20
911.6572006700149
 30
0.0
 11
852.6276455132578
 21
911.6572006700184
 31
0.0
  0
LINE
  5
11FA
330
2
100
AcDbEntity
  8
0
100
AcDbLine
 10
912.6786464213623
 20
894.7095545666357
 30
0.0
 11
912.7458248940733
 21
892.14411219587
 31
0.0
  0
LINE
  5
11FB
330
2
100
AcDbEntity
  8
0
100
AcDbLine
 10
913.2456535565619
 20
891.6572006700238
 30
0.0
 11
928.049065624755
 21
891.6572006700238
 31
0.0
  0
ARC
  5
11FC
330
2
100
AcDbEntity
  8
0
100
AcDbCircle
 10
913.2456535565619
 20
892.1572006700239
 30
0.0
 40
0.5
100
AcDbArc
 50
181.4999999999897
 51
270.0
  0
ARC
  5
11FD
330
2
100
AcDbEntity
  8
0
100
AcDbCircle
 10
910.6793317714112
 20
894.6572006700202
 30
0.0
 40
2.0
100
AcDbArc
 50
1.499999999989693
 51
90.0
  0
LINE
  5
11FE
330
2
100
AcDbEntity
  8
0
100
AcDbLine
 10
761.131970869494
 20
892.1528374022759
 30
0.0
 11
761.2019762001239
 21
900.1746537410177
 31
0.0
  0
LINE
  5
11FF
330
2
100
AcDbEntity
  8
0
100
AcDbLine
 10
760.6319899079593
 20
891.6572006700238
 30
0.0
 11
743.7062254017604
 21
891.6572006700238
 31
0.0
  0
ARC
  5
1200
330
2
100
AcDbEntity
  8
0
100
AcDbCircle
 10
760.6319899079593
 20
892.1572006700239
 30
0.0
 40
0.5
100
AcDbArc
 50
270.0
 51
359.5000000000345
  0
ARC
  5
1201
330
2
100
AcDbEntity
  8
0
100
AcDbCircle
 10
743.7062254017604
 20
890.6572006700239
 30
0.0
 40
1.0
100
AcDbArc
 50
90.0
 51
179.5000000000344
  0
ARC
  5
1202
330
2
100
AcDbEntity
  8
0
100
AcDbCircle
 10
763.2019000462536
 20
900.1572006700202
 30
0.0
 40
2.0
100
AcDbArc
 50
90.0
 51
179.5000000000344
  0
LINE
  5
1203
330
2
100
AcDbEntity
  8
0
100
AcDbLine
 10
877.6276455132578
 20
881.6572006700148
 30
0.0
 11
877.6276455132578
 21
900.1572006700202
 31
0.0
  0
LINE
  5
1204
330
2
100
AcDbEntity
  8
0
100
AcDbLine
 10
752.6276455132578
 20
890.6659272055216
 30
0.0
 11
752.6276455132578
 21
881.6572006700148
 31
0.0
  0
LINE
  5
1205
330
2
100
AcDbEntity
  8
0
100
AcDbLine
 10
756.6276455132578
 20
890.6659272055216
 30
0.0
 11
756.6276455132578
 21
881.6572006700148
 31
0.0
  0
LINE
  5
1206
330
2
100
AcDbEntity
  8
0
100
AcDbLine
 10
782.459450349334
 20
900.1746537410177
 30
0.0
 11
782.459450349334
 21
881.6572006700148
 31
0.0
  0
LINE
  5
1207
330
2
100
AcDbEntity
  8
0
100
AcDbLine
 10
867.6276455132578
 20
900.1572006700202
 30
0.0
 11
867.6276455132578
 21
881.6572006700148
 31
0.0
  0
LINE
  5
1208
330
2
100
AcDbEntity
  8
0
100
AcDbLine
 10
863.6276455132577
 20
900.1572006700202
 30
0.0
 11
863.6276455132577
 21
881.6572006700148
 31
0.0
  0
LINE
  5
1209
330
2
100
AcDbEntity
  8
0
100
AcDbLine
 10
837.7958406771817
 20
900.1746537410177
 30
0.0
 11
837.7958406771817
 21
881.6572006700148
 31
0.0
  0
LINE
  5
120A
330
2
100
AcDbEntity
  8
0
100
AcDbLine
 10
915.4936709170437
 20
901.657200670024
 30
0.0
 11
926.7616201094737
 21
901.657200670024
 31
0.0
  0
LINE
  5
120B
330
2
100
AcDbEntity
  8
0
100
AcDbLine
 10
914.6276455132577
 20
891.6572006700238
 30
0.0
 11
927.6276455132578
 21
891.6572006700238
 31
0.0
  0
LINE
  5
120C
330
2
100
AcDbEntity
  8
0
100
AcDbLine
 10
914.6276455132577
 20
893.657200670024
 30
0.0
 11
927.6276455132578
 21
893.657200670024
 31
0.0
  0
LINE
  5
120D
330
2
100
AcDbEntity
  8
0
100
AcDbLine
 10
927.6276455132578
 20
901.1572006700239
 30
0.0
 11
926.7616201094737
 21
901.657200670024
 31
0.0
  0
LINE
  5
120E
330
2
100
AcDbEntity
  8
0
100
AcDbLine
 10
927.6276455132578
 20
891.6572006700238
 30
0.0
 11
927.6276455132578
 21
893.657200670024
 31
0.0
  0
LINE
  5
120F
330
2
100
AcDbEntity
  8
0
100
AcDbLine
 10
927.6276455132578
 20
893.657200670024
 30
0.0
 11
927.6276455132578
 21
901.1572006700239
 31
0.0
  0
LINE
  5
1210
330
2
100
AcDbEntity
  8
CENTER
  6
CENS
100
AcDbLine
 10
921.1276455132578
 20
873.4602083959266
 30
0.0
 11
921.1276455132578
 21
907.6572006700239
 31
0.0
  0
LINE
  5
1211
330
2
100
AcDbEntity
  8
0
100
AcDbLine
 10
914.6276455132577
 20
901.1572006700239
 30
0.0
 11
915.4936709170419
 21
901.657200670024
 31
0.0
  0
LINE
  5
1212
330
2
100
AcDbEntity
  8
0
100
AcDbLine
 10
914.6276455132577
 20
891.6572006700238
 30
0.0
 11
914.6276455132577
 21
893.657200670024
 31
0.0
  0
LINE
  5
1213
330
2
100
AcDbEntity
  8
0
100
AcDbLine
 10
914.6276455132577
 20
893.657200670024
 30
0.0
 11
914.6276455132577
 21
901.1572006700239
 31
0.0
  0
LINE
  5
1214
330
2
100
AcDbEntity
  8
0
100
AcDbLine
 10
914.6276455132577
 20
901.1572006700239
 30
0.0
 11
927.6276455132578
 21
901.1572006700239
 31
0.0
  0
LINE
  5
1215
330
2
100
AcDbEntity
  8
0
100
AcDbLine
 10
746.9936709170418
 20
901.657200670024
 30
0.0
 11
758.2616201094719
 21
901.657200670024
 31
0.0
  0
LINE
  5
1216
330
2
100
AcDbEntity
  8
0
100
AcDbLine
 10
746.1276455132559
 20
891.6572006700238
 30
0.0
 11
759.1276455132559
 21
891.6572006700238
 31
0.0
  0
LINE
  5
1217
330
2
100
AcDbEntity
  8
0
100
AcDbLine
 10
746.1276455132559
 20
893.657200670024
 30
0.0
 11
759.1276455132559
 21
893.657200670024
 31
0.0
  0
LINE
  5
1218
330
2
100
AcDbEntity
  8
0
100
AcDbLine
 10
759.1276455132559
 20
901.1572006700239
 30
0.0
 11
758.2616201094719
 21
901.657200670024
 31
0.0
  0
LINE
  5
1219
330
2
100
AcDbEntity
  8
0
100
AcDbLine
 10
759.1276455132559
 20
891.6572006700238
 30
0.0
 11
759.1276455132559
 21
893.657200670024
 31
0.0
  0
LINE
  5
121A
330
2
100
AcDbEntity
  8
0
100
AcDbLine
 10
759.1276455132559
 20
893.657200670024
 30
0.0
 11
759.1276455132559
 21
901.1572006700239
 31
0.0
  0
LINE
  5
121B
330
2
100
AcDbEntity
  8
0
100
AcDbLine
 10
746.1276455132559
 20
901.1572006700239
 30
0.0
 11
746.9936709170418
 21
901.657200670024
 31
0.0
  0
LINE
  5
121C
330
2
100
AcDbEntity
  8
0
100
AcDbLine
 10
746.1276455132559
 20
891.6572006700238
 30
0.0
 11
746.1276455132559
 21
893.657200670024
 31
0.0
  0
LINE
  5
121D
330
2
100
AcDbEntity
  8
0
100
AcDbLine
 10
746.1276455132559
 20
893.657200670024
 30
0.0
 11
746.1276455132559
 21
901.1572006700239
 31
0.0
  0
LINE
  5
121E
330
2
100
AcDbEntity
  8
0
100
AcDbLine
 10
746.1276455132559
 20
901.1572006700239
 30
0.0
 11
759.1276455132559
 21
901.1572006700239
 31
0.0
  0
LINE
  5
121F
330
2
100
AcDbEntity
  8
CENTER
  6
CENS
100
AcDbLine
 10
752.6276455132578
 20
873.4602083959266
 30
0.0
 11
752.6276455132578
 21
907.6572006700239
 31
0.0
  0
ARC
  5
1226
330
2
100
AcDbEntity
  8
0
100
AcDbCircle
 10
810.1276455132596
 20
510.5803126944771
 30
0.0
 40
16.0
100
AcDbArc
 50
108.2099568642808
 51
71.79004313571915
  0
LINE
  5
1227
330
2
100
AcDbEntity
  8
0
100
AcDbLine
 10
805.1276455132596
 20
529.8803156944773
 30
0.0
 11
805.1276455132596
 21
525.7789968480478
 31
0.0
  0
LINE
  5
1228
330
2
100
AcDbEntity
  8
0
100
AcDbLine
 10
815.1276455132595
 20
529.8803156944773
 30
0.0
 11
815.1276455132595
 21
525.7789968480478
 31
0.0
  0
LINE
  5
1229
330
2
100
AcDbEntity
  8
0
100
AcDbLine
 10
805.1276455132596
 20
529.8803156944773
 30
0.0
 11
815.1276455132595
 21
529.8803156944773
 31
0.0
  0
CIRCLE
  5
122A
330
2
100
AcDbEntity
  8
0
100
AcDbCircle
 10
810.1276455132596
 20
510.5803126944771
 30
0.0
 40
24.49999999582681
  0
ARC
  5
122B
330
2
100
AcDbEntity
  8
0
100
AcDbCircle
 10
810.1276455132596
 20
510.5803126944771
 30
0.0
 40
17.15469399582682
100
AcDbArc
 50
106.9457086469742
 51
73.05429135302571
  0
LINE
  5
122C
330
2
100
AcDbEntity
  8
CENTER
100
AcDbLine
 10
561.9829313196317
 20
101.3742291255317
 30
0.0
 11
561.9829313196317
 21
265.7458946445982
 31
0.0
  0
LINE
  5
122D
330
2
100
AcDbEntity
  8
0
100
AcDbLine
 10
633.9829279908212
 20
141.9914394345924
 30
0.0
 11
633.9829279908212
 21
159.0600618849785
 31
0.0
  0
LINE
  5
122E
330
2
100
AcDbEntity
  8
0
100
AcDbLine
 10
633.9829279908212
 20
208.0600618849785
 30
0.0
 11
633.9829279908212
 21
225.1286843353646
 31
0.0
  0
LINE
  5
122F
330
2
100
AcDbEntity
  8
0
100
AcDbLine
 10
619.9829279908211
 20
123.560061885064
 30
0.0
 11
619.9829279908211
 21
160.4424833115209
 31
0.0
  0
LINE
  5
1230
330
2
100
AcDbEntity
  8
0
100
AcDbLine
 10
619.9829279908211
 20
206.6776404584361
 30
0.0
 11
619.9829279908211
 21
243.5600618850658
 31
0.0
  0
LINE
  5
1231
330
2
100
AcDbEntity
  8
CENTER
100
AcDbLine
 10
477.9829279908216
 20
183.5600618849785
 30
0.0
 11
661.9829279908211
 21
183.5600618849785
 31
0.0
  0
LINE
  5
1232
330
2
100
AcDbEntity
  8
0
100
AcDbLine
 10
525.9829313196313
 20
116.060061885064
 30
0.0
 11
614.9829279908211
 21
116.836753089392
 31
0.0
  0
LINE
  5
1233
330
2
100
AcDbEntity
  8
0
100
AcDbLine
 10
614.9829279908211
 20
123.560061885064
 30
0.0
 11
619.9829279908211
 21
123.560061885064
 31
0.0
  0
LINE
  5
1234
330
2
100
AcDbEntity
  8
0
100
AcDbLine
 10
614.982927990823
 20
250.2833706807378
 30
0.0
 11
525.9829313196313
 21
251.0600618850658
 31
0.0
  0
LINE
  5
1235
330
2
100
AcDbEntity
  8
0
100
AcDbLine
 10
614.9829279908211
 20
243.5600618850658
 30
0.0
 11
619.9829279908211
 21
243.5600618850658
 31
0.0
  0
LINE
  5
1236
330
2
100
AcDbEntity
  8
0
100
AcDbLine
 10
614.982927990823
 20
250.2833706807378
 30
0.0
 11
614.982927990823
 21
204.5119662229536
 31
0.0
  0
LINE
  5
1237
330
2
100
AcDbEntity
  8
0
100
AcDbLine
 10
614.982927990823
 20
162.6081575470034
 30
0.0
 11
614.9829279908211
 21
116.836753089392
 31
0.0
  0
LINE
  5
1238
330
2
100
AcDbEntity
  8
0
100
AcDbLine
 10
632.0527269842263
 20
139.9926577805545
 30
0.0
 11
621.913128997416
 21
139.638575216517
 31
0.0
  0
LINE
  5
1239
330
2
100
AcDbEntity
  8
0
100
AcDbLine
 10
632.0527269842263
 20
227.1274659894025
 30
0.0
 11
621.913128997416
 21
227.4815485534382
 31
0.0
  0
ARC
  5
123A
330
2
100
AcDbEntity
  8
0
100
AcDbCircle
 10
621.9829279908211
 20
229.4803302074779
 30
0.0
 40
2.0
100
AcDbArc
 50
180.0
 51
267.9999999999963
  0
ARC
  5
123B
330
2
100
AcDbEntity
  8
0
100
AcDbCircle
 10
621.9829279908211
 20
137.6397935624791
 30
0.0
 40
2.0
100
AcDbArc
 50
92.00000000000365
 51
180.0
  0
ARC
  5
123C
330
2
100
AcDbEntity
  8
0
100
AcDbCircle
 10
631.9829279908211
 20
141.9914394345924
 30
0.0
 40
2.0
100
AcDbArc
 50
272.0000000000036
 51
0.0
  0
ARC
  5
123D
330
2
100
AcDbEntity
  8
0
100
AcDbCircle
 10
631.9829279908211
 20
225.1286843353646
 30
0.0
 40
2.0
100
AcDbArc
 50
0.0
 51
87.99999999999636
  0
LINE
  5
123E
330
2
100
AcDbEntity
  8
0
100
AcDbLine
 10
614.9829279908211
 20
241.0600618852404
 30
0.0
 11
525.9829313196313
 21
241.0600618852404
 31
0.0
  0
LINE
  5
123F
330
2
100
AcDbEntity
  8
0
100
AcDbLine
 10
614.9829279908211
 20
237.0600618852404
 30
0.0
 11
525.9829313196313
 21
237.0600618852404
 31
0.0
  0
LINE
  5
1240
330
2
100
AcDbEntity
  8
0
100
AcDbLine
 10
614.9829279908211
 20
211.2282570491461
 30
0.0
 11
525.9829313196313
 21
211.2282570491461
 31
0.0
  0
LINE
  5
1241
330
2
100
AcDbEntity
  8
0
100
AcDbLine
 10
614.9829279908211
 20
126.0600618847166
 30
0.0
 11
525.9829313196313
 21
126.0600618847166
 31
0.0
  0
LINE
  5
1242
330
2
100
AcDbEntity
  8
0
100
AcDbLine
 10
614.9829279908211
 20
130.0600618847166
 30
0.0
 11
525.9829313196313
 21
130.0600618847166
 31
0.0
  0
LINE
  5
1243
330
2
100
AcDbEntity
  8
0
100
AcDbLine
 10
614.9829279908211
 20
155.891866720809
 30
0.0
 11
525.9829313196313
 21
155.891866720809
 31
0.0
  0
ARC
  5
1244
330
2
100
AcDbEntity
  8
0
100
AcDbCircle
 10
507.4829313196313
 20
248.8985386740769
 30
0.0
 40
2.0
100
AcDbArc
 50
90.49999999999155
 51
180.0
  0
LINE
  5
1245
330
2
100
AcDbEntity
  8
0
100
AcDbLine
 10
504.8971448820046
 20
237.9742754473519
 30
0.0
 11
504.0687177572579
 21
237.1458483226052
 31
0.0
  0
LINE
  5
1246
330
2
100
AcDbEntity
  8
0
100
AcDbLine
 10
494.9829313196313
 20
225.4827116157885
 30
0.0
 11
494.9829313196313
 21
208.0600618849785
 31
0.0
  0
LINE
  5
1247
330
2
100
AcDbEntity
  8
0
100
AcDbLine
 10
494.9829313196313
 20
159.0600618849785
 30
0.0
 11
494.9829313196322
 21
141.6374121541667
 31
0.0
  0
LINE
  5
1248
330
2
100
AcDbEntity
  8
0
100
AcDbLine
 10
505.9829313196313
 20
219.9553181987012
 30
0.0
 11
505.9829313196313
 21
208.0600618849785
 31
0.0
  0
LINE
  5
1249
330
2
100
AcDbEntity
  8
0
100
AcDbLine
 10
505.9829313196313
 20
159.0600618849785
 30
0.0
 11
505.9829313196313
 21
147.1648055712558
 31
0.0
  0
LINE
  5
124A
330
2
100
AcDbEntity
  8
0
100
AcDbLine
 10
495.9829313196313
 20
219.5600618849785
 30
0.0
 11
495.9829313196313
 21
208.0600618849785
 31
0.0
  0
LINE
  5
124B
330
2
100
AcDbEntity
  8
0
100
AcDbLine
 10
495.9829313196313
 20
159.0600618849785
 30
0.0
 11
495.9829313196313
 21
147.5600618849785
 31
0.0
  0
LINE
  5
124C
330
2
100
AcDbEntity
  8
0
100
AcDbLine
 10
503.4829313196313
 20
228.5600618849785
 30
0.0
 11
502.9829313196313
 21
228.0600618849785
 31
0.0
  0
LINE
  5
124D
330
2
100
AcDbEntity
  8
0
100
AcDbLine
 10
505.9829313196313
 20
219.5600618849785
 30
0.0
 11
495.9829313196313
 21
219.5600618849785
 31
0.0
  0
LINE
  5
124E
330
2
100
AcDbEntity
  8
0
100
AcDbLine
 10
499.4829313196313
 20
225.8600618849778
 30
0.0
 11
499.6829313196311
 21
226.0600618849785
 31
0.0
  0
LINE
  5
124F
330
2
100
AcDbEntity
  8
0
100
AcDbLine
 10
497.6829313196311
 20
225.3600618849778
 30
0.0
 11
499.2829313196315
 21
225.3600618849778
 31
0.0
  0
LINE
  5
1250
330
2
100
AcDbEntity
  8
0
100
AcDbLine
 10
495.9829313196313
 20
226.0600618849785
 30
0.0
 11
494.9829313196313
 21
225.4827116157885
 31
0.0
  0
LINE
  5
1251
330
2
100
AcDbEntity
  8
0
100
AcDbLine
 10
495.9829313196313
 20
226.0600618849785
 30
0.0
 11
497.2829313196315
 21
226.0600618849785
 31
0.0
  0
LINE
  5
1252
330
2
100
AcDbEntity
  8
0
100
AcDbLine
 10
499.6829313196311
 20
226.0600618849785
 30
0.0
 11
502.9829313196313
 21
226.0600618849785
 31
0.0
  0
LINE
  5
1253
330
2
100
AcDbEntity
  8
0
100
AcDbLine
 10
495.9829313196332
 20
219.5600618849785
 30
0.0
 11
494.9829313196331
 21
220.1374121541685
 31
0.0
  0
LINE
  5
1254
330
2
100
AcDbEntity
  8
0
100
AcDbLine
 10
503.4829313196268
 20
131.3884890097252
 30
0.0
 11
503.4829313196286
 21
145.2224095998063
 31
0.0
  0
LINE
  5
1255
330
2
100
AcDbEntity
  8
0
100
AcDbLine
 10
503.4829313196377
 20
221.8977141701489
 30
0.0
 11
503.4829313196395
 21
235.7316347602318
 31
0.0
  0
LINE
  5
1256
330
2
100
AcDbEntity
  8
0
100
AcDbLine
 10
503.4829313196277
 20
138.5600618849785
 30
0.0
 11
502.9829313196277
 21
139.0600618849785
 31
0.0
  0
LINE
  5
1257
330
2
100
AcDbEntity
  8
0
100
AcDbLine
 10
505.9829313196313
 20
147.5600618849785
 30
0.0
 11
495.9829313196313
 21
147.5600618849785
 31
0.0
  0
LINE
  5
1258
330
2
100
AcDbEntity
  8
0
100
AcDbLine
 10
507.8161622981323
 20
147.1168007286342
 30
0.0
 11
505.9829313196313
 21
147.1648055712558
 31
0.0
  0
LINE
  5
1259
330
2
100
AcDbEntity
  8
0
100
AcDbLine
 10
495.9829313196313
 20
147.5600618849785
 30
0.0
 11
494.9829313196313
 21
146.9827116157885
 31
0.0
  0
LINE
  5
125A
330
2
100
AcDbEntity
  8
0
100
AcDbLine
 10
499.4829313196277
 20
141.2600618849774
 30
0.0
 11
499.4829313196277
 21
144.9947018273852
 31
0.0
  0
LINE
  5
125B
330
2
100
AcDbEntity
  8
0
100
AcDbLine
 10
499.4829313196277
 20
222.1254219425718
 30
0.0
 11
499.4829313196277
 21
225.8600618849742
 31
0.0
  0
LINE
  5
125C
330
2
100
AcDbEntity
  8
0
100
AcDbLine
 10
499.4829313196277
 20
141.2600618849774
 30
0.0
 11
499.6829313196275
 21
141.0600618849785
 31
0.0
  0
LINE
  5
125D
330
2
100
AcDbEntity
  8
0
100
AcDbLine
 10
497.4829313196277
 20
141.2600618849774
 30
0.0
 11
497.4829313196249
 21
144.7797970465399
 31
0.0
  0
LINE
  5
125E
330
2
100
AcDbEntity
  8
0
100
AcDbLine
 10
497.4829313195658
 20
222.3403267234244
 30
0.0
 11
497.4829313195631
 21
225.8600618849778
 31
0.0
  0
LINE
  5
125F
330
2
100
AcDbEntity
  8
0
100
AcDbLine
 10
495.9829313196276
 20
141.0600618849785
 30
0.0
 11
497.2829313196269
 21
141.0600618849785
 31
0.0
  0
LINE
  5
1260
330
2
100
AcDbEntity
  8
0
100
AcDbLine
 10
497.6829313196275
 20
141.7600618849774
 30
0.0
 11
499.282931319627
 21
141.7600618849774
 31
0.0
  0
LINE
  5
1261
330
2
100
AcDbEntity
  8
0
100
AcDbLine
 10
495.9829313196276
 20
141.0600618849785
 30
0.0
 11
494.9829313196277
 21
141.6374121541685
 31
0.0
  0
LINE
  5
1262
330
2
100
AcDbEntity
  8
0
100
AcDbLine
 10
502.9829313196277
 20
139.0600618849785
 30
0.0
 11
502.9829313196277
 21
145.1821690493944
 31
0.0
  0
LINE
  5
1263
330
2
100
AcDbEntity
  8
0
100
AcDbLine
 10
502.9829313196277
 20
221.9379547205627
 30
0.0
 11
502.9829313196277
 21
228.0600618849749
 31
0.0
  0
LINE
  5
1264
330
2
100
AcDbEntity
  8
0
100
AcDbLine
 10
499.6829313196275
 20
141.0600618849785
 30
0.0
 11
502.9829313196277
 21
141.0600618849785
 31
0.0
  0
LINE
  5
1265
330
2
100
AcDbEntity
  8
0
100
AcDbLine
 10
505.4829313196267
 20
118.2215850958783
 30
0.0
 11
505.4829313196277
 21
145.5638944910134
 31
0.0
  0
LINE
  5
1266
330
2
100
AcDbEntity
  8
0
100
AcDbLine
 10
505.4829313196277
 20
221.5562292789436
 30
0.0
 11
505.4829313196267
 21
248.8985386740769
 31
0.0
  0
LINE
  5
1267
330
2
100
AcDbEntity
  8
0
100
AcDbLine
 10
504.8971448820001
 20
129.1458483226052
 30
0.0
 11
504.0687177572534
 21
129.9742754473518
 31
0.0
  0
LINE
  5
1268
330
2
100
AcDbEntity
  8
0
100
AcDbLine
 10
507.4654782486349
 20
250.8984625202065
 30
0.0
 11
525.9829313196313
 21
251.0600618849785
 31
0.0
  0
LINE
  5
1269
330
2
100
AcDbEntity
  8
0
100
AcDbLine
 10
507.8161622981323
 20
220.0033230413228
 30
0.0
 11
505.9829313196313
 21
219.9553181987012
 31
0.0
  0
ARC
  5
126A
330
2
100
AcDbEntity
  8
0
100
AcDbCircle
 10
505.4829313196267
 20
131.3884890097252
 30
0.0
 40
2.0
100
AcDbArc
 50
180.0
 51
225.0000000000187
  0
ARC
  5
126B
330
2
100
AcDbEntity
  8
0
100
AcDbCircle
 10
503.4829313196268
 20
127.7316347602318
 30
0.0
 40
2.0
100
AcDbArc
 50
0.0
 51
45.00000000001871
  0
ARC
  5
126C
330
2
100
AcDbEntity
  8
0
100
AcDbCircle
 10
505.4829313196314
 20
235.7316347602318
 30
0.0
 40
2.0
100
AcDbArc
 50
134.9999999999812
 51
180.0
  0
ARC
  5
126D
330
2
100
AcDbEntity
  8
0
100
AcDbCircle
 10
503.4829313196313
 20
239.3884890097252
 30
0.0
 40
2.0
100
AcDbArc
 50
314.9999999999812
 51
0.0
  0
ARC
  5
126E
330
2
100
AcDbEntity
  8
0
100
AcDbCircle
 10
497.2829313196315
 20
225.8600618849778
 30
0.0
 40
0.2
100
AcDbArc
 50
0.0
 51
90.0
  0
ARC
  5
126F
330
2
100
AcDbEntity
  8
0
100
AcDbCircle
 10
497.6829313196311
 20
225.5600618849785
 30
0.0
 40
0.2
100
AcDbArc
 50
180.0
 51
270.0
  0
ARC
  5
1270
330
2
100
AcDbEntity
  8
0
100
AcDbCircle
 10
499.2829313196315
 20
225.5600618849785
 30
0.0
 40
0.2
100
AcDbArc
 50
270.0
 51
0.0
  0
ARC
  5
1271
330
2
100
AcDbEntity
  8
0
100
AcDbCircle
 10
497.2829313196269
 20
141.2600618849774
 30
0.0
 40
0.2
100
AcDbArc
 50
270.0
 51
0.0
  0
ARC
  5
1272
330
2
100
AcDbEntity
  8
0
100
AcDbCircle
 10
497.6829313196275
 20
141.5600618849785
 30
0.0
 40
0.2
100
AcDbArc
 50
90.0
 51
180.0
  0
ARC
  5
1273
330
2
100
AcDbEntity
  8
0
100
AcDbCircle
 10
499.282931319627
 20
141.5600618849785
 30
0.0
 40
0.2
100
AcDbArc
 50
0.0
 51
90.0
  0
LINE
  5
1274
330
2
100
AcDbEntity
  8
0
100
AcDbLine
 10
495.9829313196313
 20
226.0600618849785
 30
0.0
 11
495.9829313196313
 21
222.5616286939331
 31
0.0
  0
LINE
  5
1275
330
2
100
AcDbEntity
  8
0
100
AcDbLine
 10
495.9829313196276
 20
144.558495076024
 30
0.0
 11
495.9829313196276
 21
141.0600618849785
 31
0.0
  0
LINE
  5
1276
330
2
100
AcDbEntity
  8
0
100
AcDbLine
 10
515.4872945873711
 20
232.5557365287423
 30
0.0
 11
507.4654782486294
 21
232.4857311981123
 31
0.0
  0
LINE
  5
1277
330
2
100
AcDbEntity
  8
0
100
AcDbLine
 10
515.9829313196222
 20
233.055717490277
 30
0.0
 11
515.9829313196222
 21
249.9814819964758
 31
0.0
  0
ARC
  5
1278
330
2
100
AcDbEntity
  8
0
100
AcDbCircle
 10
515.4829313196223
 20
233.055717490277
 30
0.0
 40
0.5
100
AcDbArc
 50
270.5000000000175
 51
0.0
  0
ARC
  5
1279
330
2
100
AcDbEntity
  8
0
100
AcDbCircle
 10
516.9829313196222
 20
249.9814819964758
 30
0.0
 40
1.0
100
AcDbArc
 50
90.50000000001761
 51
180.0
  0
ARC
  5
127A
330
2
100
AcDbEntity
  8
0
100
AcDbCircle
 10
507.4829313196268
 20
230.4858073519827
 30
0.0
 40
2.0
100
AcDbArc
 50
90.49999999999155
 51
180.0
  0
LINE
  5
127B
330
2
100
AcDbEntity
  8
0
100
AcDbLine
 10
516.9742047841245
 20
241.0600618849785
 30
0.0
 11
525.9829313196313
 21
241.0600618849785
 31
0.0
  0
LINE
  5
127C
330
2
100
AcDbEntity
  8
0
100
AcDbLine
 10
516.9742047841245
 20
237.0600618849785
 30
0.0
 11
525.9829313196313
 21
237.0600618849785
 31
0.0
  0
LINE
  5
127D
330
2
100
AcDbEntity
  8
0
100
AcDbLine
 10
508.8631257819052
 20
211.2282570491461
 30
0.0
 11
525.9829313196313
 21
211.2282570491461
 31
0.0
  0
LINE
  5
127E
330
2
100
AcDbEntity
  8
0
100
AcDbLine
 10
516.9742047841245
 20
126.0600618849785
 30
0.0
 11
525.9829313196313
 21
126.0600618849785
 31
0.0
  0
LINE
  5
127F
330
2
100
AcDbEntity
  8
0
100
AcDbLine
 10
516.9742047841245
 20
130.0600618849785
 30
0.0
 11
525.9829313196313
 21
130.0600618849785
 31
0.0
  0
LINE
  5
1280
330
2
100
AcDbEntity
  8
0
100
AcDbLine
 10
508.8631257819052
 20
155.891866720809
 30
0.0
 11
525.9829313196313
 21
155.891866720809
 31
0.0
  0
ARC
  5
1281
330
2
100
AcDbEntity
  8
0
100
AcDbCircle
 10
507.4829313196313
 20
118.2215850958783
 30
0.0
 40
2.0
100
AcDbArc
 50
180.0
 51
269.5000000000084
  0
LINE
  5
1282
330
2
100
AcDbEntity
  8
0
100
AcDbLine
 10
507.4654782486349
 20
116.2216612497505
 30
0.0
 11
525.9829313196313
 21
116.0600618849785
 31
0.0
  0
ARC
  5
1283
330
2
100
AcDbEntity
  8
0
100
AcDbCircle
 10
516.9829313196222
 20
117.1386417734811
 30
0.0
 40
1.0
100
AcDbArc
 50
180.0
 51
269.4999999999824
  0
LINE
  5
1284
330
2
100
AcDbEntity
  8
0
100
AcDbLine
 10
515.4872945873711
 20
134.5643872412147
 30
0.0
 11
507.4654782486294
 21
134.6343925718447
 31
0.0
  0
LINE
  5
1285
330
2
100
AcDbEntity
  8
0
100
AcDbLine
 10
515.9829313196222
 20
134.0644062796801
 30
0.0
 11
515.9829313196222
 21
117.1386417734811
 31
0.0
  0
ARC
  5
1286
330
2
100
AcDbEntity
  8
0
100
AcDbCircle
 10
515.4829313196223
 20
134.0644062796801
 30
0.0
 40
0.5
100
AcDbArc
 50
0.0
 51
89.49999999998238
  0
ARC
  5
1287
330
2
100
AcDbEntity
  8
0
100
AcDbCircle
 10
507.4829313196268
 20
136.6343164179725
 30
0.0
 40
2.0
100
AcDbArc
 50
180.0
 51
269.5000000000084
  0
LINE
  5
1288
330
2
100
AcDbEntity
  8
0
100
AcDbLine
 10
525.9829313196313
 20
251.0600618849785
 30
0.0
 11
525.9829313196313
 21
205.577260267677
 31
0.0
  0
LINE
  5
1289
330
2
100
AcDbEntity
  8
0
100
AcDbLine
 10
525.9829313196313
 20
161.54286350228
 30
0.0
 11
525.9829313196313
 21
116.0600618849785
 31
0.0
  0
LINE
  5
128A
330
2
100
AcDbEntity
  8
0
100
AcDbLine
 10
505.9829313196222
 20
246.6940364811944
 30
0.0
 11
505.9829313196222
 21
235.4260872887644
 31
0.0
  0
LINE
  5
128B
330
2
100
AcDbEntity
  8
0
100
AcDbLine
 10
515.9829313196222
 20
247.5600618849803
 30
0.0
 11
515.9829313196222
 21
234.5600618849803
 31
0.0
  0
LINE
  5
128C
330
2
100
AcDbEntity
  8
0
100
AcDbLine
 10
513.9829313196222
 20
247.5600618849803
 30
0.0
 11
513.9829313196231
 21
234.5600618849803
 31
0.0
  0
LINE
  5
128D
330
2
100
AcDbEntity
  8
0
100
AcDbLine
 10
506.4829313196222
 20
234.5600618849803
 30
0.0
 11
505.9829313196222
 21
235.4260872887644
 31
0.0
  0
LINE
  5
128E
330
2
100
AcDbEntity
  8
0
100
AcDbLine
 10
515.9829313196222
 20
234.5600618849803
 30
0.0
 11
513.9829313196222
 21
234.5600618849803
 31
0.0
  0
LINE
  5
128F
330
2
100
AcDbEntity
  8
0
100
AcDbLine
 10
513.9829313196222
 20
234.5600618849803
 30
0.0
 11
506.4829313196222
 21
234.5600618849803
 31
0.0
  0
LINE
  5
1290
330
2
100
AcDbEntity
  8
CENTER
  6
CENS
100
AcDbLine
 10
535.5604257728299
 20
241.0600618849803
 30
0.0
 11
499.9829313196222
 21
241.0600618849803
 31
0.0
  0
LINE
  5
1291
330
2
100
AcDbEntity
  8
0
100
AcDbLine
 10
506.4829313196222
 20
247.5600618849803
 30
0.0
 11
505.9829313196222
 21
246.6940364811944
 31
0.0
  0
LINE
  5
1292
330
2
100
AcDbEntity
  8
0
100
AcDbLine
 10
515.9829313196222
 20
247.5600618849803
 30
0.0
 11
513.9829313196222
 21
247.5600618849803
 31
0.0
  0
LINE
  5
1293
330
2
100
AcDbEntity
  8
0
100
AcDbLine
 10
513.9829313196222
 20
247.5600618849803
 30
0.0
 11
506.4829313196222
 21
247.5600618849803
 31
0.0
  0
LINE
  5
1294
330
2
100
AcDbEntity
  8
0
100
AcDbLine
 10
506.4829313196222
 20
247.5600618849803
 30
0.0
 11
506.4829313196222
 21
234.5600618849803
 31
0.0
  0
LINE
  5
1295
330
2
100
AcDbEntity
  8
0
100
AcDbLine
 10
505.9829313196222
 20
120.4260872887626
 30
0.0
 11
505.9829313196222
 21
131.6940364811926
 31
0.0
  0
LINE
  5
1296
330
2
100
AcDbEntity
  8
0
100
AcDbLine
 10
513.9829313196222
 20
119.5600618849767
 30
0.0
 11
513.9829313196231
 21
132.5600618849767
 31
0.0
  0
LINE
  5
1297
330
2
100
AcDbEntity
  8
0
100
AcDbLine
 10
506.4829313196222
 20
132.5600618849767
 30
0.0
 11
505.9829313196222
 21
131.6940364811926
 31
0.0
  0
LINE
  5
1298
330
2
100
AcDbEntity
  8
0
100
AcDbLine
 10
515.9829313196222
 20
132.5600618849767
 30
0.0
 11
513.9829313196222
 21
132.5600618849767
 31
0.0
  0
LINE
  5
1299
330
2
100
AcDbEntity
  8
0
100
AcDbLine
 10
513.9829313196222
 20
132.5600618849767
 30
0.0
 11
506.4829313196222
 21
132.5600618849767
 31
0.0
  0
LINE
  5
129A
330
2
100
AcDbEntity
  8
CENTER
  6
CENS
100
AcDbLine
 10
535.5604257728299
 20
126.0600618849767
 30
0.0
 11
499.9829313196222
 21
126.0600618849767
 31
0.0
  0
LINE
  5
129B
330
2
100
AcDbEntity
  8
0
100
AcDbLine
 10
506.4829313196222
 20
119.5600618849767
 30
0.0
 11
505.9829313196222
 21
120.4260872887608
 31
0.0
  0
LINE
  5
129C
330
2
100
AcDbEntity
  8
0
100
AcDbLine
 10
515.9829313196222
 20
119.5600618849767
 30
0.0
 11
513.9829313196222
 21
119.5600618849767
 31
0.0
  0
LINE
  5
129D
330
2
100
AcDbEntity
  8
0
100
AcDbLine
 10
513.9829313196222
 20
119.5600618849767
 30
0.0
 11
506.4829313196222
 21
119.5600618849767
 31
0.0
  0
LINE
  5
129E
330
2
100
AcDbEntity
  8
0
100
AcDbLine
 10
506.4829313196222
 20
119.5600618849767
 30
0.0
 11
506.4829313196222
 21
132.5600618849767
 31
0.0
  0
LINE
  5
129F
330
2
100
AcDbEntity
  8
0
100
AcDbLine
 10
622.9829279908211
 20
147.3481070222406
 30
0.0
 11
621.3962807449246
 21
147.3065592019011
 31
0.0
  0
LINE
  5
12A0
330
2
100
AcDbEntity
  8
0
100
AcDbLine
 10
632.9829279908211
 20
147.5600618849785
 30
0.0
 11
632.9829279908211
 21
159.0600618849785
 31
0.0
  0
LINE
  5
12A1
330
2
100
AcDbEntity
  8
0
100
AcDbLine
 10
632.9829279908211
 20
208.0600618849785
 30
0.0
 11
632.9829279908211
 21
219.5600618849785
 31
0.0
  0
LINE
  5
12A2
330
2
100
AcDbEntity
  8
0
100
AcDbLine
 10
622.9829279908211
 20
147.3481070222406
 30
0.0
 11
622.9829279908211
 21
159.0600618849785
 31
0.0
  0
LINE
  5
12A3
330
2
100
AcDbEntity
  8
0
100
AcDbLine
 10
622.9829279908211
 20
208.0600618849785
 30
0.0
 11
622.9829279908211
 21
219.7720167477164
 31
0.0
  0
LINE
  5
12A4
330
2
100
AcDbEntity
  8
0
100
AcDbLine
 10
632.9829279908211
 20
147.5600618849785
 30
0.0
 11
622.9829279908211
 21
147.5600618849785
 31
0.0
  0
LINE
  5
12A5
330
2
100
AcDbEntity
  8
0
100
AcDbLine
 10
632.9829279908211
 20
147.5600618849785
 30
0.0
 11
633.9829279908212
 21
146.9827116157885
 31
0.0
  0
LINE
  5
12A6
330
2
100
AcDbEntity
  8
0
100
AcDbLine
 10
632.9829279908211
 20
219.5600618849785
 30
0.0
 11
622.9829279908211
 21
219.5600618849785
 31
0.0
  0
LINE
  5
12A7
330
2
100
AcDbEntity
  8
0
100
AcDbLine
 10
632.9829279908211
 20
219.5600618849785
 30
0.0
 11
633.9829279908212
 21
220.1374121541685
 31
0.0
  0
LINE
  5
12A8
330
2
100
AcDbEntity
  8
0
100
AcDbLine
 10
622.9829279908211
 20
219.7720167477164
 30
0.0
 11
621.3962807449246
 21
219.8135645680559
 31
0.0
  0
LINE
  5
12A9
330
2
100
AcDbEntity
  8
0
100
AcDbLine
 10
603.9829279908211
 20
200.0600618849785
 30
0.0
 11
527.9829279908216
 21
200.0600618849785
 31
0.0
  0
LINE
  5
12AA
330
2
100
AcDbEntity
  8
0
100
AcDbLine
 10
646.9829279908211
 20
202.8600648849788
 30
0.0
 11
492.9829279908216
 21
202.8600648849788
 31
0.0
  0
LINE
  5
12AB
330
2
100
AcDbEntity
  8
0
100
AcDbLine
 10
646.9829279908211
 20
208.0600618849785
 30
0.0
 11
646.9829279908211
 21
159.0600618849785
 31
0.0
  0
LINE
  5
12AC
330
2
100
AcDbEntity
  8
0
100
AcDbLine
 10
646.9829279908211
 20
159.0600618849785
 30
0.0
 11
620.5251007484697
 21
159.0600618849785
 31
0.0
  0
LINE
  5
12AD
330
2
100
AcDbEntity
  8
0
100
AcDbLine
 10
642.9827649691381
 20
167.060129400481
 30
0.0
 11
633.9827649685979
 21
167.0599943675843
 31
0.0
  0
LINE
  5
12AE
330
2
100
AcDbEntity
  8
0
100
AcDbLine
 10
642.9828770129301
 20
200.0600618849785
 30
0.0
 11
633.9828770129223
 21
200.0600618849785
 31
0.0
  0
LINE
  5
12AF
330
2
100
AcDbEntity
  8
0
100
AcDbLine
 10
644.9829950738697
 20
167.5600542184748
 30
0.0
 11
644.9828609077698
 21
199.5600618849785
 31
0.0
  0
LINE
  5
12B0
330
2
100
AcDbEntity
  8
CENTER
  6
CENS
100
AcDbLine
 10
638.4828209908213
 20
190.8024243020591
 30
0.0
 11
638.4828209908213
 21
217.2178522526047
 31
0.0
  0
LINE
  5
12B1
330
2
100
AcDbEntity
  8
0
100
AcDbLine
 10
642.9828770129301
 20
200.0600618849785
 30
0.0
 11
642.9827649691381
 21
167.060129400481
 31
0.0
  0
LINE
  5
12B2
330
2
100
AcDbEntity
  8
0
100
AcDbLine
 10
644.9829950738697
 20
167.5600542184748
 30
0.0
 11
642.9828880740318
 21
167.5599698851074
 31
0.0
  0
LINE
  5
12B3
330
2
100
AcDbEntity
  8
0
100
AcDbLine
 10
644.9829950738697
 20
167.5600542184748
 30
0.0
 11
646.9829995001622
 21
166.405367885116
 31
0.0
  0
LINE
  5
12B4
330
2
100
AcDbEntity
  8
0
100
AcDbLine
 10
644.9829279908211
 20
199.5600618849785
 30
0.0
 11
642.9828209908213
 21
199.5600618849785
 31
0.0
  0
LINE
  5
12B5
330
2
100
AcDbEntity
  8
0
100
AcDbLine
 10
644.9829279908211
 20
199.5600618849785
 30
0.0
 11
646.9829279908211
 21
200.7147558849792
 31
0.0
  0
LINE
  5
12B6
330
2
100
AcDbEntity
  8
0
100
AcDbLine
 10
621.3329279908215
 20
166.7099698849779
 30
0.0
 11
621.3329279908215
 21
200.4100618849789
 31
0.0
  0
LINE
  5
12B7
330
2
100
AcDbEntity
  8
0
100
AcDbLine
 10
619.9829279908211
 20
166.7099698849779
 30
0.0
 11
619.9829279908211
 21
200.4100618849789
 31
0.0
  0
LINE
  5
12B8
330
2
100
AcDbEntity
  8
0
100
AcDbLine
 10
633.9827649685979
 20
167.0599943675843
 30
0.0
 11
633.9828770129223
 21
200.0600618849785
 31
0.0
  0
LINE
  5
12B9
330
2
100
AcDbEntity
  8
0
100
AcDbLine
 10
619.9829279908211
 20
167.5600618849785
 30
0.0
 11
603.9829279908211
 21
167.5600618849785
 31
0.0
  0
LINE
  5
12BA
330
2
100
AcDbEntity
  8
0
100
AcDbLine
 10
633.9828209908213
 20
167.5599698849783
 30
0.0
 11
621.3329279908215
 21
167.5599698849783
 31
0.0
  0
LINE
  5
12BB
330
2
100
AcDbEntity
  8
0
100
AcDbLine
 10
619.9829279908211
 20
166.7099698849779
 30
0.0
 11
621.3329279908215
 21
166.7099698849779
 31
0.0
  0
LINE
  5
12BC
330
2
100
AcDbEntity
  8
0
100
AcDbLine
 10
619.9829279908211
 20
199.5600618849785
 30
0.0
 11
603.9829279908211
 21
199.5600618849785
 31
0.0
  0
LINE
  5
12BD
330
2
100
AcDbEntity
  8
0
100
AcDbLine
 10
633.9828209908213
 20
199.5600618849785
 30
0.0
 11
621.3329279908215
 21
199.5600618849785
 31
0.0
  0
LINE
  5
12BE
330
2
100
AcDbEntity
  8
0
100
AcDbLine
 10
619.9829279908211
 20
200.4100618849789
 30
0.0
 11
621.3329279908215
 21
200.4100618849789
 31
0.0
  0
LINE
  5
12BF
330
2
100
AcDbEntity
  8
0
100
AcDbLine
 10
603.9829279908211
 20
200.0600618849785
 30
0.0
 11
603.9829279908211
 21
167.0600618849785
 31
0.0
  0
LINE
  5
12C0
330
2
100
AcDbEntity
  8
0
100
AcDbLine
 10
646.9829279908211
 20
208.0600618849785
 30
0.0
 11
620.5251007484697
 21
208.0600618849785
 31
0.0
  0
LINE
  5
12C1
330
2
100
AcDbEntity
  8
0
  6
CONTINUOUS
 62
     4
100
AcDbLine
 10
642.4828209908213
 20
202.8600648849788
 30
0.0
 11
642.4828209908213
 21
208.0600618849785
 31
0.0
  0
LINE
  5
12C2
330
2
100
AcDbEntity
  8
0
  6
CONTINUOUS
 62
     7
100
AcDbLine
 10
641.7328209908212
 20
202.8600648849788
 30
0.0
 11
641.7328209908212
 21
208.0600618849785
 31
0.0
  0
LINE
  5
12C3
330
2
100
AcDbEntity
  8
0
  6
CONTINUOUS
 62
     7
100
AcDbLine
 10
635.2328209908213
 20
202.8600648849788
 30
0.0
 11
635.2328209908213
 21
208.0600618849785
 31
0.0
  0
LINE
  5
12C4
330
2
100
AcDbEntity
  8
0
  6
CONTINUOUS
 62
     4
100
AcDbLine
 10
634.4828209908213
 20
202.8600648849788
 30
0.0
 11
634.4828209908213
 21
208.0600618849785
 31
0.0
  0
LINE
  5
12C5
330
2
100
AcDbEntity
  8
0
100
AcDbLine
 10
509.6329279908221
 20
167.5600618849785
 30
0.0
 11
494.9829279908215
 21
167.5600618849785
 31
0.0
  0
LINE
  5
12C6
330
2
100
AcDbEntity
  8
0
100
AcDbLine
 10
508.6449357541495
 20
208.0600618849785
 30
0.0
 11
492.9829279908216
 21
208.0600618849785
 31
0.0
  0
LINE
  5
12C7
330
2
100
AcDbEntity
  8
0
100
AcDbLine
 10
509.6329279908221
 20
199.5600618849785
 30
0.0
 11
494.9829279908215
 21
199.5600618849785
 31
0.0
  0
LINE
  5
12C8
330
2
100
AcDbEntity
  8
0
100
AcDbLine
 10
508.6449357541495
 20
159.0600618849785
 30
0.0
 11
492.9829279908216
 21
159.0600618849785
 31
0.0
  0
LINE
  5
12C9
330
2
100
AcDbEntity
  8
0
100
AcDbLine
 10
509.6329279908221
 20
166.7100618849781
 30
0.0
 11
509.6329279908221
 21
200.4100618849789
 31
0.0
  0
LINE
  5
12CA
330
2
100
AcDbEntity
  8
0
100
AcDbLine
 10
510.9829279908216
 20
166.7100618849781
 30
0.0
 11
510.9829279908216
 21
200.4100618849789
 31
0.0
  0
LINE
  5
12CB
330
2
100
AcDbEntity
  8
0
100
AcDbLine
 10
510.9829279908216
 20
166.7100618849781
 30
0.0
 11
509.6329279908221
 21
166.7100618849781
 31
0.0
  0
LINE
  5
12CC
330
2
100
AcDbEntity
  8
0
100
AcDbLine
 10
527.9829279908216
 20
167.5600618849785
 30
0.0
 11
510.9829279908216
 21
167.5600618849785
 31
0.0
  0
LINE
  5
12CD
330
2
100
AcDbEntity
  8
0
100
AcDbLine
 10
527.9829279908216
 20
199.5600618849785
 30
0.0
 11
510.9829279908216
 21
199.5600618849785
 31
0.0
  0
LINE
  5
12CE
330
2
100
AcDbEntity
  8
0
100
AcDbLine
 10
527.9829279908216
 20
200.0600618849785
 30
0.0
 11
527.9829279908216
 21
167.0600618849785
 31
0.0
  0
LINE
  5
12CF
330
2
100
AcDbEntity
  8
0
100
AcDbLine
 10
510.9829279908216
 20
200.4100618849789
 30
0.0
 11
509.6329279908221
 21
200.4100618849789
 31
0.0
  0
LINE
  5
12D0
330
2
100
AcDbEntity
  8
0
100
AcDbLine
 10
492.9829279908216
 20
208.0600618849785
 30
0.0
 11
492.9829279908216
 21
159.0600618849785
 31
0.0
  0
LINE
  5
12D1
330
2
100
AcDbEntity
  8
0
100
AcDbLine
 10
494.9829279908215
 20
167.5600618849785
 30
0.0
 11
494.9829279908215
 21
199.5600618849785
 31
0.0
  0
LINE
  5
12D2
330
2
100
AcDbEntity
  8
0
100
AcDbLine
 10
494.9829279908215
 20
167.5600618849785
 30
0.0
 11
492.9829279908216
 21
166.4053678849778
 31
0.0
  0
LINE
  5
12D3
330
2
100
AcDbEntity
  8
0
100
AcDbLine
 10
494.9829279908215
 20
199.5600618849785
 30
0.0
 11
492.9829279908216
 21
200.7147558849792
 31
0.0
  0
LINE
  5
12D4
330
2
100
AcDbEntity
  8
0
100
AcDbLine
 10
603.9829279908211
 20
167.0600618849785
 30
0.0
 11
527.9829279908216
 21
167.0600618849785
 31
0.0
  0
SPLINE
  5
12D5
330
2
100
AcDbEntity
  8
HOJO
100
AcDbSpline
210
0.0
220
0.0
230
1.0
 70
     8
 71
     3
 72
    25
 73
    21
 74
     0
 42
0.0000000001
 43
0.0000000001
 40
1.152877297004389
 40
1.152877297004389
 40
1.152877297004389
 40
1.152877297004389
 40
6.290824812401083
 40
13.22928773580738
 40
23.01248433513514
 40
27.44936952537695
 40
39.39209791902025
 40
50.54497002145325
 40
68.81910560968197
 40
80.92562652941472
 40
95.32109287512382
 40
103.9668883716656
 40
119.0932917203498
 40
131.2170228200582
 40
138.4912660645576
 40
145.0351343874091
 40
153.1132143022935
 40
157.4594543935925
 40
163.7674011214698
 40
166.1490771881331
 40
166.1490771881331
 40
166.1490771881331
 40
166.1490771881331
 10
494.9829313196386
 20
222.7281552752138
 30
0.0
 10
496.6224842108394
 20
222.4469356910359
 30
0.0
 10
500.5439631519638
 20
221.8477942469181
 30
0.0
 10
509.2166621380746
 20
222.1990860778187
 30
0.0
 10
509.2534525023792
 20
213.1922294152591
 30
0.0
 10
507.7688720504191
 20
203.5006588838187
 30
0.0
 10
521.6544719105867
 20
206.3665494294601
 30
0.0
 10
533.7159965363861
 20
204.5334982530803
 30
0.0
 10
548.27496887847
 20
207.0503328884097
 30
0.0
 10
562.8298671267133
 20
203.0355935759035
 30
0.0
 10
574.6403270437808
 20
205.3037529309658
 30
0.0
 10
587.3024992320755
 20
203.0921516065864
 30
0.0
 10
599.3692437692392
 20
208.1575891785942
 30
0.0
 10
609.8326054364828
 20
204.455743915536
 30
0.0
 10
620.3926625184434
 20
204.2816182218594
 30
0.0
 10
621.2670612685327
 20
212.7110505557266
 30
0.0
 10
619.6729995176632
 20
220.089299163139
 30
0.0
 10
626.3824584629277
 20
222.4739700651062
 30
0.0
 10
630.7481770290963
 20
222.2293445546311
 30
0.0
 10
633.2978444638887
 20
223.5254666659585
 30
0.0
 10
633.9829279908212
 20
223.9363132509916
 30
0.0
  0
SPLINE
  5
12D6
330
2
100
AcDbEntity
  8
HOJO
100
AcDbSpline
210
0.0
220
0.0
230
1.0
 70
     8
 71
     3
 72
    25
 73
    21
 74
     0
 42
0.0000000001
 43
0.0000000001
 40
1.152877297004389
 40
1.152877297004389
 40
1.152877297004389
 40
1.152877297004389
 40
6.290824812401083
 40
13.22928773580738
 40
23.01248433513514
 40
27.44936952537695
 40
39.39209791902025
 40
50.54497002145325
 40
68.81910560968197
 40
80.92562652941472
 40
95.32109287512382
 40
103.9668883716656
 40
119.0932917203498
 40
131.2170228200582
 40
138.4912660645576
 40
145.0351343874091
 40
153.1132143022935
 40
157.4594543935925
 40
163.7674011214698
 40
166.1490771881331
 40
166.1490771881331
 40
166.1490771881331
 40
166.1490771881331
 10
494.9829313196386
 20
144.3919684947432
 30
0.0
 10
496.6224842108394
 20
144.6731880789212
 30
0.0
 10
500.5439631519638
 20
145.2723295230389
 30
0.0
 10
509.2166621380746
 20
144.9210376921383
 30
0.0
 10
509.2534525023792
 20
153.927894354696
 30
0.0
 10
507.7688720504191
 20
163.6194648861383
 30
0.0
 10
521.6544719105867
 20
160.7535743404969
 30
0.0
 10
533.7159965363861
 20
162.5866255168767
 30
0.0
 10
548.27496887847
 20
160.0697908815473
 30
0.0
 10
562.8298671267133
 20
164.0845301940535
 30
0.0
 10
574.6403270437808
 20
161.8163708389911
 30
0.0
 10
587.3024992320755
 20
164.0279721633706
 30
0.0
 10
599.3692437692392
 20
158.9625345913628
 30
0.0
 10
609.8326054364828
 20
162.664379854421
 30
0.0
 10
620.3926625184434
 20
162.8385055480976
 30
0.0
 10
621.2670612685327
 20
154.4090732142304
 30
0.0
 10
619.6729995176632
 20
147.030824606818
 30
0.0
 10
626.3824584629277
 20
144.6461537048508
 30
0.0
 10
630.7481770290963
 20
144.8907792153259
 30
0.0
 10
633.2978444638887
 20
143.5946571039986
 30
0.0
 10
633.9829279908212
 20
143.1838105189654
 30
0.0
  0
LINE
  5
12D7
330
2
100
AcDbEntity
  8
0
100
AcDbLine
 10
632.9829279908211
 20
219.5600618849785
 30
0.0
 11
622.9829279908211
 21
208.0600618849785
 31
0.0
  0
LINE
  5
12D8
330
2
100
AcDbEntity
  8
0
100
AcDbLine
 10
622.9829279908211
 20
219.5600618849785
 30
0.0
 11
632.9829279908211
 21
208.0600618849785
 31
0.0
  0
LINE
  5
12D9
330
2
100
AcDbEntity
  8
0
100
AcDbLine
 10
632.9829279908211
 20
159.0600618849785
 30
0.0
 11
622.9829279908211
 21
147.5600618849785
 31
0.0
  0
LINE
  5
12DA
330
2
100
AcDbEntity
  8
0
100
AcDbLine
 10
632.9829279908211
 20
147.5600618849785
 30
0.0
 11
622.9829279908211
 21
159.0600618849785
 31
0.0
  0
LINE
  5
12DB
330
2
100
AcDbEntity
  8
0
100
AcDbLine
 10
495.9829313196332
 20
219.5600618849785
 30
0.0
 11
505.9829313196313
 21
208.0600618849785
 31
0.0
  0
LINE
  5
12DC
330
2
100
AcDbEntity
  8
0
100
AcDbLine
 10
505.9829313196313
 20
219.5600618849785
 30
0.0
 11
495.9829313196313
 21
208.0600618849785
 31
0.0
  0
LINE
  5
12DD
330
2
100
AcDbEntity
  8
0
100
AcDbLine
 10
505.9829313196313
 20
159.0600618849785
 30
0.0
 11
495.9829313196313
 21
147.5600618849785
 31
0.0
  0
LINE
  5
12DE
330
2
100
AcDbEntity
  8
0
100
AcDbLine
 10
495.9829313196313
 20
159.0600618849785
 30
0.0
 11
505.9829313196313
 21
147.5600618849785
 31
0.0
  0
LINE
  5
12DF
330
2
100
AcDbEntity
  8
0
100
AcDbLine
 10
605.6210014556494
 20
535.080312694215
 30
0.0
 11
605.6210014556494
 21
486.0803126942151
 31
0.0
  0
LINE
  5
12E0
330
2
100
AcDbEntity
  8
0
100
AcDbLine
 10
605.6210014556494
 20
486.0803126942151
 30
0.0
 11
592.6210014556494
 21
486.0803126942151
 31
0.0
  0
LINE
  5
12E1
330
2
100
AcDbEntity
  8
0
100
AcDbLine
 10
605.6210014556494
 20
535.080312694215
 30
0.0
 11
592.6210014556494
 21
535.080312694215
 31
0.0
  0
LINE
  5
12E2
330
2
100
AcDbEntity
  8
0
100
AcDbLine
 10
453.6210047844596
 20
535.080312694215
 30
0.0
 11
451.6210014556499
 21
535.080312694215
 31
0.0
  0
LINE
  5
12E3
330
2
100
AcDbEntity
  8
0
100
AcDbLine
 10
453.6210047844596
 20
486.0803126942151
 30
0.0
 11
451.6210014556499
 21
486.0803126942151
 31
0.0
  0
LINE
  5
12E4
330
2
100
AcDbEntity
  8
0
100
AcDbLine
 10
451.6210014556499
 20
535.080312694215
 30
0.0
 11
451.6210014556499
 21
486.0803126942151
 31
0.0
  0
CIRCLE
  5
12E5
330
2
100
AcDbEntity
  8
0
 48
0.5
100
AcDbCircle
 10
597.1208944556495
 20
510.5803126942151
 30
0.0
 40
3.2
  0
CIRCLE
  5
12E6
330
2
100
AcDbEntity
  8
HOJO
 48
0.5
100
AcDbCircle
 10
597.1208944556495
 20
510.5803126942151
 30
0.0
 40
4.0
  0
LINE
  5
12E7
330
2
100
AcDbEntity
  8
CENTER
100
AcDbLine
 10
597.1208944556478
 20
521.4394576587032
 30
0.0
 11
597.1208944556478
 21
499.7211677297287
 31
0.0
  0
LINE
  5
12E8
330
2
100
AcDbEntity
  8
0
100
AcDbLine
 10
834.6276455132596
 20
760.6572039988109
 30
0.0
 11
785.6276455132595
 21
760.6572039988109
 31
0.0
  0
LINE
  5
12E9
330
2
100
AcDbEntity
  8
0
100
AcDbLine
 10
785.6276455132595
 20
760.6572039988109
 30
0.0
 11
785.6276455132595
 21
773.6572039988109
 31
0.0
  0
LINE
  5
12EA
330
2
100
AcDbEntity
  8
0
100
AcDbLine
 10
834.6276455132596
 20
760.6572039988109
 30
0.0
 11
834.6276455132596
 21
773.6572039988109
 31
0.0
  0
LINE
  5
12EB
330
2
100
AcDbEntity
  8
0
100
AcDbLine
 10
834.6276455132596
 20
912.6572006700003
 30
0.0
 11
834.6276455132596
 21
914.6572039988109
 31
0.0
  0
LINE
  5
12EC
330
2
100
AcDbEntity
  8
0
100
AcDbLine
 10
785.6276455132595
 20
912.6572006700003
 30
0.0
 11
785.6276455132595
 21
914.6572039988109
 31
0.0
  0
LINE
  5
12ED
330
2
100
AcDbEntity
  8
0
100
AcDbLine
 10
834.6276455132596
 20
914.6572039988109
 30
0.0
 11
785.6276455132595
 21
914.6572039988109
 31
0.0
  0
CIRCLE
  5
12EE
330
2
100
AcDbEntity
  8
0
 48
0.5
100
AcDbCircle
 10
810.1276455132596
 20
769.1573109988107
 30
0.0
 40
3.2
  0
CIRCLE
  5
12EF
330
2
100
AcDbEntity
  8
HOJO
 48
0.5
100
AcDbCircle
 10
810.1276455132596
 20
769.1573109988107
 30
0.0
 40
4.0
  0
LINE
  5
12F0
330
2
100
AcDbEntity
  8
CENTER
100
AcDbLine
 10
820.986790477746
 20
769.1573109988126
 30
0.0
 11
799.2685005487714
 21
769.1573109988126
 31
0.0
  0
LINE
  5
12F2
330
2
100
AcDbEntity
  8
PHAS
100
AcDbLine
 10
461.1210047844569
 20
555.0803126982941
 30
0.0
 11
461.121004784456
 21
466.0803126901361
 31
0.0
  0
LINE
  5
12F3
330
2
100
AcDbEntity
  8
PHAS
100
AcDbLine
 10
457.1210047844568
 20
555.0803126982941
 30
0.0
 11
457.121004784456
 21
466.0803126901361
 31
0.0
  0
LINE
  5
12F4
330
2
100
AcDbEntity
  8
PHAS
100
AcDbLine
 10
427.621004784456
 20
482.9547602888138
 30
0.0
 11
427.621004784456
 21
538.2058650914591
 31
0.0
  0
LINE
  5
12F5
330
2
100
AcDbEntity
  8
PHAS
100
AcDbLine
 10
451.3210047844567
 20
551.9611612644926
 30
0.0
 11
451.3210047844567
 21
510.580312690136
 31
0.0
  0
LINE
  5
12F6
330
2
100
AcDbEntity
  8
PHAS
100
AcDbLine
 10
461.121004784456
 20
466.0803126901361
 30
0.0
 11
454.2686475651443
 21
466.1999210303107
 31
0.0
  0
ARC
  5
12F7
330
2
100
AcDbEntity
  8
PHAS
100
AcDbCircle
 10
450.3210047844567
 20
473.7412130589596
 30
0.0
 40
1.0
100
AcDbArc
 50
0.0
 51
79.99999999999403
  0
LINE
  5
12F8
330
2
100
AcDbEntity
  8
PHAS
100
AcDbLine
 10
450.4946529621228
 20
474.726020811971
 30
0.0
 11
431.7527638961218
 21
478.0307215237522
 31
0.0
  0
LINE
  5
12F9
330
2
100
AcDbEntity
  8
PHAS
100
AcDbLine
 10
451.3210047844567
 20
469.1994641157794
 30
0.0
 11
451.3210047844567
 21
510.580312690136
 31
0.0
  0
ARC
  5
12FA
330
2
100
AcDbEntity
  8
PHAS
100
AcDbCircle
 10
432.6210047844559
 20
482.9547602888138
 30
0.0
 40
5.0
100
AcDbArc
 50
180.0
 51
259.999999999994
  0
ARC
  5
12FB
330
2
100
AcDbEntity
  8
PHAS
100
AcDbCircle
 10
454.3210047844566
 20
469.1994641157794
 30
0.0
 40
3.0
100
AcDbArc
 50
180.0
 51
268.9999999999721
  0
ARC
  5
12FC
330
2
100
AcDbEntity
  8
PHAS
100
AcDbCircle
 10
450.3210047844567
 20
547.4194123213132
 30
0.0
 40
1.0
100
AcDbArc
 50
280.0000000000059
 51
0.0
  0
LINE
  5
12FD
330
2
100
AcDbEntity
  8
PHAS
100
AcDbLine
 10
450.4946529621228
 20
546.434604568301
 30
0.0
 11
431.7527638961218
 21
543.1299038565207
 31
0.0
  0
ARC
  5
12FE
330
2
100
AcDbEntity
  8
PHAS
100
AcDbCircle
 10
432.6210047844559
 20
538.2058650914591
 30
0.0
 40
5.0
100
AcDbArc
 50
100.0000000000059
 51
180.0
  0
LINE
  5
12FF
330
2
100
AcDbEntity
  8
PHAS
100
AcDbLine
 10
461.1210047844569
 20
555.0803126982941
 30
0.0
 11
454.2686475651443
 21
554.9607043581195
 31
0.0
  0
ARC
  5
1300
330
2
100
AcDbEntity
  8
PHAS
100
AcDbCircle
 10
454.3210047844566
 20
551.9611612726508
 30
0.0
 40
3.0
100
AcDbArc
 50
91.00000000002784
 51
180.0
  0
LINE
  5
133D
330
2
100
AcDbEntity
  8
CENTER
100
AcDbLine
 10
1349.635013155521
 20
553.0103126943902
 30
0.0
 11
1366.635013155521
 21
553.0103126943902
 31
0.0
  0
LINE
  5
133E
330
2
100
AcDbEntity
  8
0
100
AcDbLine
 10
1272.705013155523
 20
561.5803126943899
 30
0.0
 11
1358.705013155521
 21
561.5803126943899
 31
0.0
  0
LINE
  5
133F
330
2
100
AcDbEntity
  8
CENTER
100
AcDbLine
 10
1349.635013155521
 20
468.1503126943906
 30
0.0
 11
1366.635013155521
 21
468.1503126943906
 31
0.0
  0
ARC
  5
1340
330
2
100
AcDbEntity
  8
0
100
AcDbCircle
 10
1342.705013155521
 20
483.58031269439
 30
0.0
 40
15.0
100
AcDbArc
 50
270.0
 51
0.0
  0
ARC
  5
1341
330
2
100
AcDbEntity
  8
0
100
AcDbCircle
 10
1342.705013155519
 20
483.58031269439
 30
0.0
 40
13.0
100
AcDbArc
 50
270.0
 51
0.0
  0
LINE
  5
1342
330
2
100
AcDbEntity
  8
0
100
AcDbLine
 10
1272.705013155521
 20
459.5803126943899
 30
0.0
 11
1358.705013155521
 21
459.5803126943899
 31
0.0
  0
ARC
  5
1343
330
2
100
AcDbEntity
  8
0
100
AcDbCircle
 10
1342.705013155519
 20
537.5803126943899
 30
0.0
 40
13.0
100
AcDbArc
 50
0.0
 51
90.0
  0
ARC
  5
1344
330
2
100
AcDbEntity
  8
0
100
AcDbCircle
 10
1342.705013155521
 20
537.5803126943899
 30
0.0
 40
15.0
100
AcDbArc
 50
0.0
 51
90.0
  0
LINE
  5
1345
330
2
100
AcDbEntity
  8
0
100
AcDbLine
 10
1355.705013155519
 20
537.5803126943899
 30
0.0
 11
1355.705013155519
 21
483.58031269439
 31
0.0
  0
LINE
  5
1346
330
2
100
AcDbEntity
  8
0
100
AcDbLine
 10
1275.705013155521
 20
537.5803126943899
 30
0.0
 11
1275.705013155521
 21
483.58031269439
 31
0.0
  0
LINE
  5
1347
330
2
100
AcDbEntity
  8
0
100
AcDbLine
 10
1273.705013155521
 20
537.5803126943899
 30
0.0
 11
1273.705013155521
 21
483.58031269439
 31
0.0
  0
LINE
  5
1348
330
2
100
AcDbEntity
  8
CENTER
100
AcDbLine
 10
1347.524818308915
 20
471.2605075409954
 30
0.0
 11
1347.524818308915
 21
486.2605075409954
 31
0.0
  0
LINE
  5
1349
330
2
100
AcDbEntity
  8
CENTER
100
AcDbLine
 10
1283.885208002126
 20
471.2605075409954
 30
0.0
 11
1283.885208002126
 21
486.2605075409954
 31
0.0
  0
ARC
  5
134A
330
2
100
AcDbEntity
  8
0
100
AcDbCircle
 10
1288.705013155521
 20
483.58031269439
 30
0.0
 40
15.0
100
AcDbArc
 50
180.0
 51
270.0
  0
ARC
  5
134B
330
2
100
AcDbEntity
  8
0
100
AcDbCircle
 10
1288.705013155521
 20
483.58031269439
 30
0.0
 40
13.0
100
AcDbArc
 50
180.0
 51
270.0
  0
LINE
  5
134C
330
2
100
AcDbEntity
  8
0
100
AcDbLine
 10
1288.705013155521
 20
468.5803126943899
 30
0.0
 11
1342.705013155521
 21
468.5803126943899
 31
0.0
  0
LINE
  5
134D
330
2
100
AcDbEntity
  8
0
100
AcDbLine
 10
1288.705013155521
 20
470.58031269439
 30
0.0
 11
1342.705013155519
 21
470.58031269439
 31
0.0
  0
ARC
  5
134E
330
2
100
AcDbEntity
  8
0
100
AcDbCircle
 10
1272.705013155521
 20
467.5803126943899
 30
0.0
 40
8.0
100
AcDbArc
 50
180.0
 51
270.0
  0
LINE
  5
134F
330
2
100
AcDbEntity
  8
CENTER
100
AcDbLine
 10
1273.275013155521
 20
459.6503126943906
 30
0.0
 11
1273.275013155521
 21
476.6503126943906
 31
0.0
  0
LINE
  5
1350
330
2
100
AcDbEntity
  8
CENTER
100
AcDbLine
 10
1281.77501315552
 20
468.1503126943906
 30
0.0
 11
1264.77501315552
 21
468.1503126943906
 31
0.0
  0
LINE
  5
1351
330
2
100
AcDbEntity
  8
CENTER
100
AcDbLine
 10
1291.385208002126
 20
478.7605075409954
 30
0.0
 11
1276.385208002126
 21
478.7605075409954
 31
0.0
  0
LINE
  5
1352
330
2
100
AcDbEntity
  8
CENTER
100
AcDbLine
 10
1340.024818308915
 20
478.7605075409954
 30
0.0
 11
1355.024818308915
 21
478.7605075409954
 31
0.0
  0
LINE
  5
1353
330
2
100
AcDbEntity
  8
0
100
AcDbLine
 10
1288.705013155521
 20
552.5803126943899
 30
0.0
 11
1342.705013155521
 21
552.5803126943899
 31
0.0
  0
LINE
  5
1354
330
2
100
AcDbEntity
  8
0
100
AcDbLine
 10
1288.705013155521
 20
550.5803126943899
 30
0.0
 11
1342.705013155519
 21
550.5803126943899
 31
0.0
  0
ARC
  5
1355
330
2
100
AcDbEntity
  8
0
100
AcDbCircle
 10
1272.705013155523
 20
553.5803126943899
 30
0.0
 40
8.0
100
AcDbArc
 50
90.0
 51
180.0
  0
LINE
  5
1356
330
2
100
AcDbEntity
  8
CENTER
100
AcDbLine
 10
1273.275013155521
 20
561.5103126943902
 30
0.0
 11
1273.275013155521
 21
544.5103126943902
 31
0.0
  0
ARC
  5
1357
330
2
100
AcDbEntity
  8
0
100
AcDbCircle
 10
1288.705013155521
 20
537.5803126943899
 30
0.0
 40
15.0
100
AcDbArc
 50
90.0
 51
180.0
  0
LINE
  5
1358
330
2
100
AcDbEntity
  8
CENTER
100
AcDbLine
 10
1291.385208002126
 20
542.4001178477854
 30
0.0
 11
1276.385208002126
 21
542.4001178477854
 31
0.0
  0
ARC
  5
1359
330
2
100
AcDbEntity
  8
0
100
AcDbCircle
 10
1288.705013155521
 20
537.5803126943899
 30
0.0
 40
13.0
100
AcDbArc
 50
90.0
 51
180.0
  0
LINE
  5
135A
330
2
100
AcDbEntity
  8
CENTER
100
AcDbLine
 10
1283.885208002126
 20
549.9001178477853
 30
0.0
 11
1283.885208002126
 21
534.9001178477854
 31
0.0
  0
LINE
  5
135B
330
2
100
AcDbEntity
  8
CENTER
100
AcDbLine
 10
1281.77501315552
 20
553.0103126943902
 30
0.0
 11
1264.77501315552
 21
553.0103126943902
 31
0.0
  0
LINE
  5
135C
330
2
100
AcDbEntity
  8
CENTER
100
AcDbLine
 10
1347.524818308915
 20
549.9001178477853
 30
0.0
 11
1347.524818308915
 21
534.9001178477854
 31
0.0
  0
LINE
  5
135D
330
2
100
AcDbEntity
  8
CENTER
100
AcDbLine
 10
1340.024818308915
 20
542.4001178477854
 30
0.0
 11
1355.024818308915
 21
542.4001178477854
 31
0.0
  0
LINE
  5
135E
330
2
100
AcDbEntity
  8
0
100
AcDbLine
 10
1357.705013155521
 20
537.5803126943899
 30
0.0
 11
1357.705013155521
 21
483.58031269439
 31
0.0
  0
ARC
  5
135F
330
2
100
AcDbEntity
  8
0
100
AcDbCircle
 10
1358.705013155521
 20
467.5803126943899
 30
0.0
 40
8.0
100
AcDbArc
 50
270.0
 51
0.0
  0
LINE
  5
1360
330
2
100
AcDbEntity
  8
CENTER
100
AcDbLine
 10
1358.135013155521
 20
459.6503126943906
 30
0.0
 11
1358.135013155521
 21
476.6503126943906
 31
0.0
  0
ARC
  5
1361
330
2
100
AcDbEntity
  8
0
100
AcDbCircle
 10
1358.705013155521
 20
553.5803126943899
 30
0.0
 40
8.0
100
AcDbArc
 50
0.0
 51
90.0
  0
LINE
  5
1362
330
2
100
AcDbEntity
  8
CENTER
100
AcDbLine
 10
1358.135013155521
 20
561.5103126943902
 30
0.0
 11
1358.135013155521
 21
544.5103126943902
 31
0.0
  0
LINE
  5
1363
330
2
100
AcDbEntity
  8
0
100
AcDbLine
 10
1023.097667513261
 20
803.657200670003
 30
0.0
 11
1023.097667513261
 21
826.5340950443874
 31
0.0
  0
LINE
  5
1364
330
2
100
AcDbEntity
  8
0
100
AcDbLine
 10
1023.097667513261
 20
834.7803062956122
 30
0.0
 11
1023.097667513261
 21
887.6572006699966
 31
0.0
  0
LINE
  5
1365
330
2
100
AcDbEntity
  8
0
100
AcDbLine
 10
1025.097667513261
 20
805.5873804102871
 30
0.0
 11
1025.097667513259
 21
885.7270209297125
 31
0.0
  0
LINE
  5
1366
330
2
100
AcDbEntity
  8
0
100
AcDbLine
 10
989.0976675132574
 20
795.7794148974567
 30
0.0
 11
989.0976675132591
 21
895.5349864425429
 31
0.0
  0
LINE
  5
1367
330
2
100
AcDbEntity
  8
0
100
AcDbLine
 10
1025.097667513259
 20
885.7270209297125
 30
0.0
 11
1023.097667513257
 21
887.6572006699994
 31
0.0
  0
LINE
  5
1368
330
2
100
AcDbEntity
  8
0
100
AcDbLine
 10
1029.097667513257
 20
885.6572006699993
 30
0.0
 11
1025.097667513259
 21
885.7270209297125
 31
0.0
  0
LINE
  5
1369
330
2
100
AcDbEntity
  8
0
100
AcDbLine
 10
974.0976675132573
 20
896.6572006699994
 30
0.0
 11
988.1063940487569
 21
896.5349483656078
 31
0.0
  0
LINE
  5
136A
330
2
100
AcDbEntity
  8
0
100
AcDbLine
 10
1023.097667513257
 20
887.6572006699994
 30
0.0
 11
996.0976675132572
 21
887.8142820748958
 31
0.0
  0
LINE
  5
136B
330
2
100
AcDbEntity
  8
0
100
AcDbLine
 10
1025.097667513261
 20
805.5873804102871
 30
0.0
 11
1023.097667513261
 21
803.657200670003
 31
0.0
  0
LINE
  5
136C
330
2
100
AcDbEntity
  8
0
100
AcDbLine
 10
1029.097667513257
 20
805.6572006700003
 30
0.0
 11
1025.097667513261
 21
805.5873804102871
 31
0.0
  0
LINE
  5
136D
330
2
100
AcDbEntity
  8
0
100
AcDbLine
 10
974.0976675132573
 20
794.6572006700002
 30
0.0
 11
988.1063940487569
 21
794.7794529743928
 31
0.0
  0
LINE
  5
136E
330
2
100
AcDbEntity
  8
0
100
AcDbLine
 10
1023.097667513259
 20
803.6572006700003
 30
0.0
 11
996.0976675132572
 21
803.5001192651048
 31
0.0
  0
CIRCLE
  5
136F
330
2
100
AcDbEntity
  8
0
100
AcDbCircle
 10
1315.705013155521
 20
510.5803126943899
 30
0.0
 40
34.99999999953029
  0
ARC
  5
1370
330
2
100
AcDbEntity
  8
0
100
AcDbCircle
 10
988.0976675132572
 20
795.7794148974567
 30
0.0
 40
1.0
100
AcDbArc
 50
270.4999999999654
 51
0.0
  0
ARC
  5
1371
330
2
100
AcDbEntity
  8
0
100
AcDbCircle
 10
988.0976675132592
 20
895.5349864425429
 30
0.0
 40
1.0
100
AcDbArc
 50
0.0
 51
89.5000000000345
  0
LINE
  5
1372
330
2
100
AcDbEntity
  8
0
100
AcDbLine
 10
1029.097667513257
 20
805.6572006700003
 30
0.0
 11
1029.097667513257
 21
885.6572006699993
 31
0.0
  0
CIRCLE
  5
1373
330
2
100
AcDbEntity
  8
HOJO
100
AcDbCircle
 10
1283.885208002126
 20
542.4001178477854
 30
0.0
 40
3.0
  0
CIRCLE
  5
1374
330
2
100
AcDbEntity
  8
0
100
AcDbCircle
 10
1283.885208002126
 20
542.4001178477854
 30
0.0
 40
2.5
  0
CIRCLE
  5
1375
330
2
100
AcDbEntity
  8
HOJO
100
AcDbCircle
 10
1283.885208002126
 20
478.7605075409954
 30
0.0
 40
3.0
  0
CIRCLE
  5
1376
330
2
100
AcDbEntity
  8
0
100
AcDbCircle
 10
1283.885208002126
 20
478.7605075409954
 30
0.0
 40
2.5
  0
CIRCLE
  5
1377
330
2
100
AcDbEntity
  8
HOJO
100
AcDbCircle
 10
1347.524818308915
 20
478.7605075409954
 30
0.0
 40
3.0
  0
CIRCLE
  5
1378
330
2
100
AcDbEntity
  8
0
100
AcDbCircle
 10
1347.524818308915
 20
478.7605075409954
 30
0.0
 40
2.5
  0
CIRCLE
  5
1379
330
2
100
AcDbEntity
  8
HOJO
100
AcDbCircle
 10
1347.524818308915
 20
542.4001178477854
 30
0.0
 40
3.0
  0
CIRCLE
  5
137A
330
2
100
AcDbEntity
  8
0
100
AcDbCircle
 10
1347.524818308915
 20
542.4001178477854
 30
0.0
 40
2.5
  0
CIRCLE
  5
137B
330
2
100
AcDbEntity
  8
CENTER
100
AcDbCircle
 10
1315.705013155521
 20
510.5803126943899
 30
0.0
 40
45.0
  0
LINE
  5
137C
330
2
100
AcDbEntity
  8
HIDS
100
AcDbLine
 10
1306.955013155521
 20
552.5803126943899
 30
0.0
 11
1306.955013155521
 21
538.228775581141
 31
0.0
  0
LINE
  5
137D
330
2
100
AcDbEntity
  8
HIDS
100
AcDbLine
 10
1294.455013155521
 20
552.5803126943899
 30
0.0
 11
1294.455013155521
 21
530.3144835662567
 31
0.0
  0
LINE
  5
137E
330
2
100
AcDbEntity
  8
0
100
AcDbLine
 10
1023.097667513261
 20
552.5803126944743
 30
0.0
 11
1023.097667513261
 21
549.0796130100102
 31
0.0
  0
LINE
  5
137F
330
2
100
AcDbEntity
  8
0
100
AcDbLine
 10
1025.097667513261
 20
550.6501329541902
 30
0.0
 11
1025.097667513261
 21
550.4608211810413
 31
0.0
  0
LINE
  5
1380
330
2
100
AcDbEntity
  8
0
100
AcDbLine
 10
989.0976675132582
 20
560.4580984670206
 30
0.0
 11
989.09766751326
 21
521.6230136999615
 31
0.0
  0
LINE
  5
1381
330
2
100
AcDbEntity
  8
0
100
AcDbLine
 10
989.09766751326
 20
510.5803126944771
 30
0.0
 11
989.09766751326
 21
460.7025269219343
 31
0.0
  0
LINE
  5
1382
330
2
100
AcDbEntity
  8
0
100
AcDbLine
 10
1025.09766751326
 20
470.5104924347647
 30
0.0
 11
1023.097667513258
 21
468.5803126944779
 31
0.0
  0
LINE
  5
1383
330
2
100
AcDbEntity
  8
0
100
AcDbLine
 10
1029.097667513258
 20
470.5803126944779
 30
0.0
 11
1025.09766751326
 21
470.5104924347647
 31
0.0
  0
LINE
  5
1384
330
2
100
AcDbEntity
  8
0
100
AcDbLine
 10
974.0976675132582
 20
459.580312694478
 30
0.0
 11
988.1063940487578
 21
459.7025649988696
 31
0.0
  0
LINE
  5
1385
330
2
100
AcDbEntity
  8
0
100
AcDbLine
 10
1023.097667513258
 20
468.5803126944779
 30
0.0
 11
996.0976675132583
 21
468.4232312895815
 31
0.0
  0
LINE
  5
1386
330
2
100
AcDbEntity
  8
0
100
AcDbLine
 10
1025.097667513261
 20
550.6501329541902
 30
0.0
 11
1023.097667513261
 21
552.5803126944743
 31
0.0
  0
LINE
  5
1387
330
2
100
AcDbEntity
  8
0
100
AcDbLine
 10
1029.097667513258
 20
550.580312694477
 30
0.0
 11
1025.097667513261
 21
550.6501329541902
 31
0.0
  0
LINE
  5
1388
330
2
100
AcDbEntity
  8
0
100
AcDbLine
 10
974.0976675132582
 20
561.5803126944769
 30
0.0
 11
988.1063940487578
 21
561.4580603900845
 31
0.0
  0
LINE
  5
1389
330
2
100
AcDbEntity
  8
0
100
AcDbLine
 10
1024.097515185941
 20
552.5744957508809
 30
0.0
 11
996.0976675132583
 21
552.7373940993725
 31
0.0
  0
ARC
  5
138A
330
2
100
AcDbEntity
  8
0
100
AcDbCircle
 10
988.0976675132583
 20
560.4580984670206
 30
0.0
 40
1.0
100
AcDbArc
 50
0.0
 51
89.5000000000345
  0
ARC
  5
138B
330
2
100
AcDbEntity
  8
0
100
AcDbCircle
 10
988.09766751326
 20
460.7025269219343
 30
0.0
 40
1.0
100
AcDbArc
 50
270.4999999999654
 51
0.0
  0
LINE
  5
138C
330
2
100
AcDbEntity
  8
0
100
AcDbLine
 10
1029.097667513258
 20
550.580312694477
 30
0.0
 11
1029.097667513258
 21
470.5803126944779
 31
0.0
  0
CIRCLE
  5
138D
330
2
100
AcDbEntity
  8
0
100
AcDbCircle
 10
1273.275013155521
 20
553.0103126943902
 30
0.0
 40
5.0
  0
CIRCLE
  5
138E
330
2
100
AcDbEntity
  8
0
100
AcDbCircle
 10
1273.275013155521
 20
553.0103126943902
 30
0.0
 40
4.307179676972423
  0
CIRCLE
  5
138F
330
2
100
AcDbEntity
  8
0
100
AcDbCircle
 10
1273.275013155521
 20
553.0103126943902
 30
0.0
 40
2.886751345948113
  0
LWPOLYLINE
  5
1390
330
2
100
AcDbEntity
  8
0
100
AcDbPolyline
 90
        6
 70
     1
 43
0.0
 10
1275.77501315552
 20
554.4536883673642
 10
1273.275013155521
 20
555.8970640403384
 10
1270.77501315552
 20
554.4536883673642
 10
1270.77501315552
 20
551.5669370214161
 10
1273.275013155521
 20
550.123561348442
 10
1275.77501315552
 20
551.5669370214161
  0
CIRCLE
  5
1391
330
2
100
AcDbEntity
  8
0
100
AcDbCircle
 10
1358.135013155521
 20
553.0103126943902
 30
0.0
 40
5.0
  0
CIRCLE
  5
1392
330
2
100
AcDbEntity
  8
0
100
AcDbCircle
 10
1358.135013155521
 20
553.0103126943902
 30
0.0
 40
4.307179676972423
  0
CIRCLE
  5
1393
330
2
100
AcDbEntity
  8
0
100
AcDbCircle
 10
1358.135013155521
 20
553.0103126943902
 30
0.0
 40
2.886751345948113
  0
LWPOLYLINE
  5
1394
330
2
100
AcDbEntity
  8
0
100
AcDbPolyline
 90
        6
 70
     1
 43
0.0
 10
1360.635013155521
 20
554.4536883673642
 10
1358.135013155521
 20
555.8970640403384
 10
1355.635013155521
 20
554.4536883673642
 10
1355.635013155521
 20
551.5669370214161
 10
1358.135013155521
 20
550.123561348442
 10
1360.635013155521
 20
551.5669370214161
  0
CIRCLE
  5
1395
330
2
100
AcDbEntity
  8
0
100
AcDbCircle
 10
1358.135013155521
 20
468.1503126943906
 30
0.0
 40
5.0
  0
CIRCLE
  5
1396
330
2
100
AcDbEntity
  8
0
100
AcDbCircle
 10
1358.135013155521
 20
468.1503126943906
 30
0.0
 40
4.307179676972423
  0
CIRCLE
  5
1397
330
2
100
AcDbEntity
  8
0
100
AcDbCircle
 10
1358.135013155521
 20
468.1503126943906
 30
0.0
 40
2.886751345948113
  0
LWPOLYLINE
  5
1398
330
2
100
AcDbEntity
  8
0
100
AcDbPolyline
 90
        6
 70
     1
 43
0.0
 10
1360.635013155521
 20
469.5936883673646
 10
1358.135013155521
 20
471.0370640403387
 10
1355.635013155521
 20
469.5936883673646
 10
1355.635013155521
 20
466.7069370214165
 10
1358.135013155521
 20
465.2635613484425
 10
1360.635013155521
 20
466.7069370214165
  0
CIRCLE
  5
1399
330
2
100
AcDbEntity
  8
0
100
AcDbCircle
 10
1273.275013155521
 20
468.1503126943906
 30
0.0
 40
5.0
  0
CIRCLE
  5
139A
330
2
100
AcDbEntity
  8
0
100
AcDbCircle
 10
1273.275013155521
 20
468.1503126943906
 30
0.0
 40
4.307179676972423
  0
CIRCLE
  5
139B
330
2
100
AcDbEntity
  8
0
100
AcDbCircle
 10
1273.275013155521
 20
468.1503126943906
 30
0.0
 40
2.886751345948113
  0
LWPOLYLINE
  5
139C
330
2
100
AcDbEntity
  8
0
100
AcDbPolyline
 90
        6
 70
     1
 43
0.0
 10
1275.77501315552
 20
469.5936883673646
 10
1273.275013155521
 20
471.0370640403387
 10
1270.77501315552
 20
469.5936883673646
 10
1270.77501315552
 20
466.7069370214165
 10
1273.275013155521
 20
465.2635613484425
 10
1275.77501315552
 20
466.7069370214165
  0
LINE
  5
139D
330
2
100
AcDbEntity
  8
0
100
AcDbLine
 10
995.6976675132585
 20
548.0103126944773
 30
0.0
 11
996.0976675132583
 21
548.7031330175055
 31
0.0
  0
LINE
  5
139E
330
2
100
AcDbEntity
  8
0
100
AcDbLine
 10
995.6976675132585
 20
548.0103126944773
 30
0.0
 11
995.6976675132585
 21
558.0103126944773
 31
0.0
  0
LINE
  5
139F
330
2
100
AcDbEntity
  8
0
100
AcDbLine
 10
990.0976675132582
 20
548.0103126944773
 30
0.0
 11
990.0976675132582
 21
558.0103126944773
 31
0.0
  0
LINE
  5
13A0
330
2
100
AcDbEntity
  8
0
100
AcDbLine
 10
990.0976675132582
 20
558.0103126944773
 30
0.0
 11
989.0976675132582
 21
558.0103126944773
 31
0.0
  0
LINE
  5
13A1
330
2
100
AcDbEntity
  8
0
100
AcDbLine
 10
989.0976675132582
 20
558.0103126944773
 30
0.0
 11
989.0976675132582
 21
548.0103126944773
 31
0.0
  0
LINE
  5
13A2
330
2
100
AcDbEntity
  8
0
100
AcDbLine
 10
989.0976675132582
 20
548.0103126944773
 30
0.0
 11
990.0976675132582
 21
548.0103126944773
 31
0.0
  0
LINE
  5
13A3
330
2
100
AcDbEntity
  8
0
100
AcDbLine
 10
990.0976675132582
 20
548.0103126944773
 30
0.0
 11
990.0976675132582
 21
558.0103126944773
 31
0.0
  0
LINE
  5
13A4
330
2
100
AcDbEntity
  8
0
100
AcDbLine
 10
995.6976675132585
 20
548.0103126944773
 30
0.0
 11
990.0976675132582
 21
548.0103126944773
 31
0.0
  0
LINE
  5
13A5
330
2
100
AcDbEntity
  8
0
100
AcDbLine
 10
996.0976675132583
 20
557.31749237145
 30
0.0
 11
996.0976675132583
 21
548.7031330175055
 31
0.0
  0
LINE
  5
13A6
330
2
100
AcDbEntity
  8
0
100
AcDbLine
 10
990.0976675132582
 20
558.0103126944773
 30
0.0
 11
995.6976675132585
 21
558.0103126944773
 31
0.0
  0
LINE
  5
13A7
330
2
100
AcDbEntity
  8
0
100
AcDbLine
 10
995.6976675132585
 20
558.0103126944773
 30
0.0
 11
996.0976675132583
 21
557.31749237145
 31
0.0
  0
LINE
  5
13A8
330
2
100
AcDbEntity
  8
CENTER
  6
CENS
100
AcDbLine
 10
969.0976675132581
 20
553.0103126944773
 30
0.0
 11
1001.097667513258
 21
553.0103126944773
 31
0.0
  0
LINE
  5
13A9
330
2
100
AcDbEntity
  8
0
100
AcDbLine
 10
995.6976675132585
 20
473.1503126944777
 30
0.0
 11
996.0976675132583
 21
472.4574923714495
 31
0.0
  0
LINE
  5
13AA
330
2
100
AcDbEntity
  8
0
100
AcDbLine
 10
995.6976675132585
 20
473.1503126944777
 30
0.0
 11
995.6976675132585
 21
463.1503126944776
 31
0.0
  0
LINE
  5
13AB
330
2
100
AcDbEntity
  8
0
100
AcDbLine
 10
990.0976675132582
 20
473.1503126944777
 30
0.0
 11
990.0976675132582
 21
463.1503126944776
 31
0.0
  0
LINE
  5
13AC
330
2
100
AcDbEntity
  8
0
100
AcDbLine
 10
990.0976675132582
 20
463.1503126944776
 30
0.0
 11
989.0976675132582
 21
463.1503126944776
 31
0.0
  0
LINE
  5
13AD
330
2
100
AcDbEntity
  8
0
100
AcDbLine
 10
989.0976675132582
 20
463.1503126944776
 30
0.0
 11
989.0976675132582
 21
473.1503126944777
 31
0.0
  0
LINE
  5
13AE
330
2
100
AcDbEntity
  8
0
100
AcDbLine
 10
989.0976675132582
 20
473.1503126944777
 30
0.0
 11
990.0976675132582
 21
473.1503126944777
 31
0.0
  0
LINE
  5
13AF
330
2
100
AcDbEntity
  8
0
100
AcDbLine
 10
990.0976675132582
 20
473.1503126944777
 30
0.0
 11
990.0976675132582
 21
463.1503126944776
 31
0.0
  0
LINE
  5
13B0
330
2
100
AcDbEntity
  8
0
100
AcDbLine
 10
995.6976675132585
 20
473.1503126944777
 30
0.0
 11
990.0976675132582
 21
473.1503126944777
 31
0.0
  0
LINE
  5
13B1
330
2
100
AcDbEntity
  8
0
100
AcDbLine
 10
996.0976675132583
 20
463.8431330175049
 30
0.0
 11
996.0976675132583
 21
472.4574923714495
 31
0.0
  0
LINE
  5
13B2
330
2
100
AcDbEntity
  8
0
100
AcDbLine
 10
990.0976675132582
 20
463.1503126944776
 30
0.0
 11
995.6976675132585
 21
463.1503126944776
 31
0.0
  0
LINE
  5
13B3
330
2
100
AcDbEntity
  8
0
100
AcDbLine
 10
995.6976675132585
 20
463.1503126944776
 30
0.0
 11
996.0976675132583
 21
463.8431330175049
 31
0.0
  0
LINE
  5
13B4
330
2
100
AcDbEntity
  8
CENTER
  6
CENS
100
AcDbLine
 10
969.0976675132581
 20
468.1503126944776
 30
0.0
 11
1001.097667513258
 21
468.1503126944776
 31
0.0
  0
LINE
  5
13B5
330
2
100
AcDbEntity
  8
0
100
AcDbLine
 10
995.6976675132576
 20
808.22720067
 30
0.0
 11
996.0976675132572
 21
807.5343803469728
 31
0.0
  0
LINE
  5
13B6
330
2
100
AcDbEntity
  8
0
100
AcDbLine
 10
995.6976675132576
 20
808.22720067
 30
0.0
 11
995.6976675132576
 21
798.22720067
 31
0.0
  0
LINE
  5
13B7
330
2
100
AcDbEntity
  8
0
100
AcDbLine
 10
990.0976675132573
 20
808.22720067
 30
0.0
 11
990.0976675132573
 21
798.22720067
 31
0.0
  0
LINE
  5
13B8
330
2
100
AcDbEntity
  8
0
100
AcDbLine
 10
990.0976675132573
 20
798.22720067
 30
0.0
 11
989.0976675132574
 21
798.22720067
 31
0.0
  0
LINE
  5
13B9
330
2
100
AcDbEntity
  8
0
100
AcDbLine
 10
989.0976675132574
 20
798.22720067
 30
0.0
 11
989.0976675132574
 21
808.22720067
 31
0.0
  0
LINE
  5
13BA
330
2
100
AcDbEntity
  8
0
100
AcDbLine
 10
989.0976675132574
 20
808.22720067
 30
0.0
 11
990.0976675132573
 21
808.22720067
 31
0.0
  0
LINE
  5
13BB
330
2
100
AcDbEntity
  8
0
100
AcDbLine
 10
990.0976675132573
 20
808.22720067
 30
0.0
 11
990.0976675132573
 21
798.22720067
 31
0.0
  0
LINE
  5
13BC
330
2
100
AcDbEntity
  8
0
100
AcDbLine
 10
995.6976675132576
 20
808.22720067
 30
0.0
 11
990.0976675132573
 21
808.22720067
 31
0.0
  0
LINE
  5
13BD
330
2
100
AcDbEntity
  8
0
100
AcDbLine
 10
996.0976675132572
 20
798.9200209930272
 30
0.0
 11
996.0976675132572
 21
807.5343803469728
 31
0.0
  0
LINE
  5
13BE
330
2
100
AcDbEntity
  8
0
100
AcDbLine
 10
990.0976675132573
 20
798.22720067
 30
0.0
 11
995.6976675132576
 21
798.22720067
 31
0.0
  0
LINE
  5
13BF
330
2
100
AcDbEntity
  8
0
100
AcDbLine
 10
995.6976675132576
 20
798.22720067
 30
0.0
 11
996.0976675132572
 21
798.9200209930272
 31
0.0
  0
LINE
  5
13C0
330
2
100
AcDbEntity
  8
CENTER
  6
CENS
100
AcDbLine
 10
969.0976675132572
 20
803.2272006699999
 30
0.0
 11
1001.097667513257
 21
803.2272006699999
 31
0.0
  0
LINE
  5
13C1
330
2
100
AcDbEntity
  8
0
100
AcDbLine
 10
995.6976675132576
 20
883.0872006699996
 30
0.0
 11
996.0976675132572
 21
883.7800209930279
 31
0.0
  0
LINE
  5
13C2
330
2
100
AcDbEntity
  8
0
100
AcDbLine
 10
995.6976675132576
 20
883.0872006699996
 30
0.0
 11
995.6976675132576
 21
893.0872006699997
 31
0.0
  0
LINE
  5
13C3
330
2
100
AcDbEntity
  8
0
100
AcDbLine
 10
990.0976675132573
 20
883.0872006699996
 30
0.0
 11
990.0976675132573
 21
893.0872006699997
 31
0.0
  0
LINE
  5
13C4
330
2
100
AcDbEntity
  8
0
100
AcDbLine
 10
990.0976675132573
 20
893.0872006699997
 30
0.0
 11
989.0976675132574
 21
893.0872006699997
 31
0.0
  0
LINE
  5
13C5
330
2
100
AcDbEntity
  8
0
100
AcDbLine
 10
989.0976675132574
 20
893.0872006699997
 30
0.0
 11
989.0976675132574
 21
883.0872006699996
 31
0.0
  0
LINE
  5
13C6
330
2
100
AcDbEntity
  8
0
100
AcDbLine
 10
989.0976675132574
 20
883.0872006699996
 30
0.0
 11
990.0976675132573
 21
883.0872006699996
 31
0.0
  0
LINE
  5
13C7
330
2
100
AcDbEntity
  8
0
100
AcDbLine
 10
990.0976675132573
 20
883.0872006699996
 30
0.0
 11
990.0976675132573
 21
893.0872006699997
 31
0.0
  0
LINE
  5
13C8
330
2
100
AcDbEntity
  8
0
100
AcDbLine
 10
995.6976675132576
 20
883.0872006699996
 30
0.0
 11
990.0976675132573
 21
883.0872006699996
 31
0.0
  0
LINE
  5
13C9
330
2
100
AcDbEntity
  8
0
100
AcDbLine
 10
996.0976675132572
 20
892.3943803469724
 30
0.0
 11
996.0976675132572
 21
883.7800209930279
 31
0.0
  0
LINE
  5
13CA
330
2
100
AcDbEntity
  8
0
100
AcDbLine
 10
990.0976675132573
 20
893.0872006699997
 30
0.0
 11
995.6976675132576
 21
893.0872006699997
 31
0.0
  0
LINE
  5
13CB
330
2
100
AcDbEntity
  8
0
100
AcDbLine
 10
995.6976675132576
 20
893.0872006700006
 30
0.0
 11
996.0976675132572
 21
892.3943803469724
 31
0.0
  0
LINE
  5
13CC
330
2
100
AcDbEntity
  8
CENTER
  6
CENS
100
AcDbLine
 10
969.0976675132572
 20
888.0872006699997
 30
0.0
 11
1001.097667513257
 21
888.0872006699997
 31
0.0
  0
LINE
  5
13CD
330
2
100
AcDbEntity
  8
0
100
AcDbLine
 10
1020.120622800147
 20
556.5979912140342
 30
0.0
 11
1010.120788663874
 21
556.6555867609145
 31
0.0
  0
ARC
  5
13CE
330
2
100
AcDbEntity
  8
0
100
AcDbCircle
 10
1010.097750445121
 20
552.6556531064048
 30
0.0
 40
4.000000000000014
100
AcDbArc
 50
89.67000000001375
 51
179.6699999999877
  0
ARC
  5
13CF
330
2
100
AcDbEntity
  8
0
100
AcDbCircle
 10
1020.097584581395
 20
552.5980575595253
 30
0.0
 40
4.000000000000014
100
AcDbArc
 50
359.6699999999876
 51
89.67000000001375
  0
LINE
  5
13D0
330
2
100
AcDbEntity
  8
CENTER
  6
CENS
100
AcDbLine
 10
1015.097667513258
 20
561.5227125679953
 30
0.0
 11
1015.097667513258
 21
533.1627865656305
 31
0.0
  0
CIRCLE
  5
13D1
330
2
100
AcDbEntity
  8
0
100
AcDbCircle
 10
1015.097667513257
 20
830.6572006700003
 30
0.0
 40
9.0
  0
LINE
  5
13D2
330
2
100
AcDbEntity
  8
CENTER
  6
CENS
100
AcDbLine
 10
1015.097667513253
 20
818.7782707710061
 30
0.0
 11
1015.097667513253
 21
842.5361305689943
 31
0.0
  0
LINE
  5
13D3
330
2
100
AcDbEntity
  8
CENTER
  6
CENS
100
AcDbLine
 10
1026.976597412247
 20
830.6572006700003
 30
0.0
 11
1003.218737614259
 21
830.6572006700003
 31
0.0
  0
LINE
  5
13D4
330
2
100
AcDbEntity
  8
0
100
AcDbLine
 10
1029.097667513258
 20
545.5803126944779
 30
0.0
 11
1022.097667513258
 21
545.580312694477
 31
0.0
  0
LINE
  5
13D5
330
2
100
AcDbEntity
  8
0
100
AcDbLine
 10
1022.097667513258
 20
545.580312694477
 30
0.0
 11
1022.097667513258
 21
510.5803126944771
 31
0.0
  0
LINE
  5
13D6
330
2
100
AcDbEntity
  8
0
100
AcDbLine
 10
1022.097667513258
 20
530.3303126944769
 30
0.0
 11
1012.359862942741
 21
530.3303126944769
 31
0.0
  0
SPLINE
  5
13D7
330
2
100
AcDbEntity
  8
HOJO
100
AcDbSpline
210
0.0
220
0.0
230
1.0
 70
     8
 71
     3
 72
    20
 73
    16
 74
     0
 42
0.0000000001
 43
0.0000000001
 40
1.221331719906463
 40
1.221331719906463
 40
1.221331719906463
 40
1.221331719906463
 40
5.647385924430076
 40
9.759277458584113
 40
14.59638394258456
 40
18.6386056126129
 40
22.25598020257161
 40
26.57819511411361
 40
31.00332353479096
 40
40.39337194914635
 40
45.49899296170218
 40
52.02718752358933
 40
57.17041693382338
 40
65.63449353306062
 40
69.3611614947018
 40
69.3611614947018
 40
69.3611614947018
 40
69.3611614947018
 10
1025.398150070288
 20
550.6448880116472
 30
0.0
 10
1024.030989866696
 20
549.8096147984083
 30
0.0
 10
1021.575318135764
 20
548.2809921528455
 30
0.0
 10
1020.266019707286
 20
543.7566499652762
 30
0.0
 10
1019.116110381738
 20
540.3650804707581
 30
0.0
 10
1015.62835396975
 20
536.6913152595138
 30
0.0
 10
1013.956518793386
 20
533.1659551295347
 30
0.0
 10
1011.979272232932
 20
529.6152384320398
 30
0.0
 10
1008.591490920368
 20
524.0261938435856
 30
0.0
 10
1001.067131876053
 20
524.2017702911775
 30
0.0
 10
994.338792519405
 20
523.0553997576794
 30
0.0
 10
988.9955259739975
 20
521.3367876531988
 30
0.0
 10
981.9967454596111
 20
521.0006163684751
 30
0.0
 10
978.2820126603867
 20
515.51462203652
 30
0.0
 10
976.9601712215912
 20
511.7447155433443
 30
0.0
 10
976.5474984484821
 20
510.5803126944771
 30
0.0
  0
LINE
  5
13D8
330
2
100
AcDbEntity
  8
CENTER
  6
CENS
100
AcDbLine
 10
1300.705013155521
 20
561.5227125679082
 30
0.0
 11
1300.705013155521
 21
494.7326475368607
 31
0.0
  0
LINE
  5
13D9
330
2
100
AcDbEntity
  8
0
100
AcDbLine
 10
1295.969258799531
 20
509.83031269439
 30
0.0
 11
1306.234664693082
 21
509.83031269439
 31
0.0
  0
LINE
  5
13DA
330
2
100
AcDbEntity
  8
0
100
AcDbLine
 10
1295.969258799531
 20
511.3303126943899
 30
0.0
 11
1306.234664693082
 21
511.3303126943908
 31
0.0
  0
LINE
  5
13DB
330
2
100
AcDbEntity
  8
0
100
AcDbLine
 10
1332.90501315552
 20
509.83031269439
 30
0.0
 11
1332.90501315552
 21
511.3303126943899
 31
0.0
  0
LINE
  5
13DC
330
2
100
AcDbEntity
  8
0
100
AcDbLine
 10
1325.175361617958
 20
509.83031269439
 30
0.0
 11
1332.90501315552
 21
509.83031269439
 31
0.0
  0
LINE
  5
13DD
330
2
100
AcDbEntity
  8
0
100
AcDbLine
 10
1325.175361617958
 20
511.3303126943899
 30
0.0
 11
1332.90501315552
 21
511.3303126943899
 31
0.0
  0
LINE
  5
13DE
330
2
100
AcDbEntity
  8
HIDS
100
AcDbLine
 10
1303.205013155521
 20
509.83031269439
 30
0.0
 11
1303.205013155521
 21
495.2893840110171
 31
0.0
  0
LINE
  5
13DF
330
2
100
AcDbEntity
  8
HIDS
100
AcDbLine
 10
1298.621679822187
 20
509.83031269439
 30
0.0
 11
1298.621679822187
 21
500.6696001961779
 31
0.0
  0
LINE
  5
13E0
330
2
100
AcDbEntity
  8
HIDS
100
AcDbLine
 10
1298.205013155521
 20
509.83031269439
 30
0.0
 11
1298.205013155521
 21
501.4253959825908
 31
0.0
  0
LINE
  5
13E1
330
2
100
AcDbEntity
  8
HIDS
100
AcDbLine
 10
1303.705013155521
 20
515.5803126943899
 30
0.0
 11
1303.705013155521
 21
511.3303126943899
 31
0.0
  0
LINE
  5
13E2
330
2
100
AcDbEntity
  8
HIDS
100
AcDbLine
 10
1297.705013155521
 20
515.5803126943899
 30
0.0
 11
1297.705013155521
 21
511.3303126943899
 31
0.0
  0
LINE
  5
13E3
330
2
100
AcDbEntity
  8
HIDS
100
AcDbLine
 10
1304.955013155521
 20
515.5803126943899
 30
0.0
 11
1304.955013155521
 21
520.2803126943906
 31
0.0
  0
LINE
  5
13E4
330
2
100
AcDbEntity
  8
0
100
AcDbLine
 10
1296.455013155521
 20
520.2803126943906
 30
0.0
 11
1296.455013155521
 21
515.5803126943899
 31
0.0
  0
LINE
  5
13E5
330
2
100
AcDbEntity
  8
HIDS
100
AcDbLine
 10
1303.205013155521
 20
501.5803126943899
 30
0.0
 11
1302.205013155521
 21
500.58031269439
 31
0.0
  0
LINE
  5
13E6
330
2
100
AcDbEntity
  8
HIDS
100
AcDbLine
 10
1298.205013155521
 20
501.5803126943899
 30
0.0
 11
1299.205013155521
 21
500.58031269439
 31
0.0
  0
LINE
  5
13E7
330
2
100
AcDbEntity
  8
HIDS
100
AcDbLine
 10
1302.205013155521
 20
500.58031269439
 30
0.0
 11
1299.205013155521
 21
500.58031269439
 31
0.0
  0
LINE
  5
13E8
330
2
100
AcDbEntity
  8
HIDS
100
AcDbLine
 10
1303.205013155521
 20
515.5803126943899
 30
0.0
 11
1303.205013155521
 21
511.3303126943899
 31
0.0
  0
LINE
  5
13E9
330
2
100
AcDbEntity
  8
HIDS
100
AcDbLine
 10
1302.788346488854
 20
513.4969793610569
 30
0.0
 11
1302.788346488854
 21
511.3303126943899
 31
0.0
  0
LINE
  5
13EA
330
2
100
AcDbEntity
  8
HIDS
100
AcDbLine
 10
1298.621679822187
 20
513.4969793610569
 30
0.0
 11
1298.621679822187
 21
511.3303126943899
 31
0.0
  0
LINE
  5
13EB
330
2
100
AcDbEntity
  8
HIDS
100
AcDbLine
 10
1298.205013155521
 20
515.5803126943899
 30
0.0
 11
1298.205013155521
 21
511.3303126943899
 31
0.0
  0
LINE
  5
13EC
330
2
100
AcDbEntity
  8
HIDS
100
AcDbLine
 10
1303.205013155521
 20
501.5803126943899
 30
0.0
 11
1298.205013155521
 21
501.5803126943899
 31
0.0
  0
LINE
  5
13ED
330
2
100
AcDbEntity
  8
HIDS
100
AcDbLine
 10
1303.205013155521
 20
513.4969793610569
 30
0.0
 11
1298.205013155521
 21
513.4969793610569
 31
0.0
  0
LINE
  5
13EE
330
2
100
AcDbEntity
  8
0
100
AcDbLine
 10
1296.455013155521
 20
515.5803126943899
 30
0.0
 11
1296.598404351236
 21
515.5803126943899
 31
0.0
  0
LINE
  5
13EF
330
2
100
AcDbEntity
  8
HIDS
100
AcDbLine
 10
1298.205013155521
 20
515.5803126943899
 30
0.0
 11
1298.621679822187
 21
513.4969793610569
 31
0.0
  0
LINE
  5
13F0
330
2
100
AcDbEntity
  8
HIDS
100
AcDbLine
 10
1303.205013155521
 20
515.5803126943899
 30
0.0
 11
1302.788346488854
 21
513.4969793610569
 31
0.0
  0
LINE
  5
13F1
330
2
100
AcDbEntity
  8
0
100
AcDbLine
 10
1296.455013155521
 20
520.2803126943906
 30
0.0
 11
1298.501161842516
 21
520.2803126943906
 31
0.0
  0
LINE
  5
13F2
330
2
100
AcDbEntity
  8
HIDS
100
AcDbLine
 10
1304.43539791325
 20
520.5803126943899
 30
0.0
 11
1298.673791825269
 21
520.5803126943899
 31
0.0
  0
LINE
  5
13F3
330
2
100
AcDbEntity
  8
0
100
AcDbLine
 10
1296.455013155521
 20
520.2803126943906
 30
0.0
 11
1296.974628397791
 21
520.5803126943899
 31
0.0
  0
LINE
  5
13F4
330
2
100
AcDbEntity
  8
HIDS
100
AcDbLine
 10
1304.43539791325
 20
520.5803126943899
 30
0.0
 11
1304.955013155521
 21
520.2803126943906
 31
0.0
  0
LINE
  5
13F5
330
2
100
AcDbEntity
  8
HIDS
100
AcDbLine
 10
1296.598404351236
 20
515.5803126943899
 30
0.0
 11
1305.705013155521
 21
515.5803126943899
 31
0.0
  0
LINE
  5
13F6
330
2
100
AcDbEntity
  8
0
100
AcDbLine
 10
1298.673791825269
 20
520.5803126943899
 30
0.0
 11
1296.974628397791
 21
520.5803126943899
 31
0.0
  0
LINE
  5
13F7
330
2
100
AcDbEntity
  8
HIDS
100
AcDbLine
 10
1298.501161842516
 20
520.2803126943906
 30
0.0
 11
1304.955013155521
 21
520.2803126943906
 31
0.0
  0
LINE
  5
13F8
330
2
100
AcDbEntity
  8
0
100
AcDbLine
 10
1303.205013155521
 20
511.3303126943899
 30
0.0
 11
1303.205013155521
 21
509.8303126943909
 31
0.0
  0
LINE
  5
13F9
330
2
100
AcDbEntity
  8
HOJO
100
AcDbLine
 10
1302.788346488854
 20
511.3303126943899
 30
0.0
 11
1302.788346488854
 21
509.8303126943909
 31
0.0
  0
LINE
  5
13FA
330
2
100
AcDbEntity
  8
HOJO
100
AcDbLine
 10
1298.621679822187
 20
511.3303126943899
 30
0.0
 11
1298.621679822187
 21
509.8303126943909
 31
0.0
  0
LINE
  5
13FB
330
2
100
AcDbEntity
  8
0
100
AcDbLine
 10
1298.205013155521
 20
511.3303126943899
 30
0.0
 11
1298.205013155521
 21
509.83031269439
 31
0.0
  0
LINE
  5
13FC
330
2
100
AcDbEntity
  8
HIDS
100
AcDbLine
 10
1298.205013155521
 20
509.83031269439
 30
0.0
 11
1298.205013155521
 21
501.5803126943899
 31
0.0
  0
LINE
  5
13FD
330
2
100
AcDbEntity
  8
HIDS
100
AcDbLine
 10
1302.788346488854
 20
509.83031269439
 30
0.0
 11
1302.788346488854
 21
501.1636460277239
 31
0.0
  0
LINE
  5
13FE
330
2
100
AcDbEntity
  8
HIDS
100
AcDbLine
 10
1298.621679822187
 20
509.83031269439
 30
0.0
 11
1298.621679822187
 21
501.1636460277239
 31
0.0
  0
CIRCLE
  5
13FF
330
2
100
AcDbEntity
  8
0
100
AcDbCircle
 10
1315.705013155521
 20
510.5803126943899
 30
0.0
 40
19.75
  0
LINE
  5
1401
330
2
100
AcDbEntity
  8
0
100
AcDbLine
 10
1295.830014178973
 20
556.6555867608274
 30
0.0
 11
1305.580014178973
 21
556.6555867608274
 31
0.0
  0
ARC
  5
1402
330
2
100
AcDbEntity
  8
0
100
AcDbCircle
 10
1295.830014178973
 20
552.4055867608274
 30
0.0
 40
4.25
100
AcDbArc
 50
90.0
 51
177.6437927484533
  0
ARC
  5
1403
330
2
100
AcDbEntity
  8
0
100
AcDbCircle
 10
1305.330014178973
 20
552.4055867608274
 30
0.0
 40
4.25
100
AcDbArc
 50
2.356207251546686
 51
90.0
  0
LINE
  5
1404
330
2
100
AcDbEntity
  8
0
100
AcDbLine
 10
60.86246425863862
 20
552.5803126944743
 30
0.0
 11
60.86246425863862
 21
468.5803126944807
 31
0.0
  0
LINE
  5
1405
330
2
100
AcDbEntity
  8
0
100
AcDbLine
 10
58.86246425863863
 20
550.6501329541902
 30
0.0
 11
58.86246425864044
 21
470.5104924347647
 31
0.0
  0
LINE
  5
1406
330
2
100
AcDbEntity
  8
0
100
AcDbLine
 10
94.86246425863953
 20
560.4580984670206
 30
0.0
 11
94.86246425864043
 21
460.7025269219343
 31
0.0
  0
LINE
  5
1407
330
2
100
AcDbEntity
  8
0
100
AcDbLine
 10
58.86246425864044
 20
470.5104924347647
 30
0.0
 11
60.86246425864226
 21
468.5803126944779
 31
0.0
  0
LINE
  5
1408
330
2
100
AcDbEntity
  8
0
100
AcDbLine
 10
54.86246425864226
 20
470.5803126944779
 30
0.0
 11
58.86246425864044
 21
470.5104924347647
 31
0.0
  0
LINE
  5
1409
330
2
100
AcDbEntity
  8
0
100
AcDbLine
 10
109.8624642586422
 20
459.580312694478
 30
0.0
 11
95.85373772314268
 21
459.7025649988696
 31
0.0
  0
LINE
  5
140A
330
2
100
AcDbEntity
  8
0
100
AcDbLine
 10
60.86246425864226
 20
468.5803126944779
 30
0.0
 11
87.86246425864225
 21
468.4232312895815
 31
0.0
  0
LINE
  5
140B
330
2
100
AcDbEntity
  8
0
100
AcDbLine
 10
58.86246425863863
 20
550.6501329541902
 30
0.0
 11
60.86246425863862
 21
552.5803126944743
 31
0.0
  0
LINE
  5
140C
330
2
100
AcDbEntity
  8
0
100
AcDbLine
 10
54.86246425864226
 20
550.580312694477
 30
0.0
 11
58.86246425863863
 21
550.6501329541902
 31
0.0
  0
LINE
  5
140D
330
2
100
AcDbEntity
  8
0
100
AcDbLine
 10
109.8624642586422
 20
561.5803126944769
 30
0.0
 11
95.85373772314268
 21
561.4580603900845
 31
0.0
  0
LINE
  5
140E
330
2
100
AcDbEntity
  8
0
100
AcDbLine
 10
59.86261658595902
 20
552.5744957508809
 30
0.0
 11
87.86246425864225
 21
552.7373940993725
 31
0.0
  0
ARC
  5
140F
330
2
100
AcDbEntity
  8
0
100
AcDbCircle
 10
95.86246425864226
 20
560.4580984670206
 30
0.0
 40
1.0
100
AcDbArc
 50
90.49999999996549
 51
180.0
  0
ARC
  5
1410
330
2
100
AcDbEntity
  8
0
100
AcDbCircle
 10
95.86246425864045
 20
460.7025269219343
 30
0.0
 40
1.0
100
AcDbArc
 50
180.0
 51
269.5000000000345
  0
LINE
  5
1411
330
2
100
AcDbEntity
  8
0
100
AcDbLine
 10
54.86246425864226
 20
550.580312694477
 30
0.0
 11
54.86246425864226
 21
470.5803126944779
 31
0.0
  0
LINE
  5
1412
330
2
100
AcDbEntity
  8
0
100
AcDbLine
 10
88.26246425864189
 20
548.0103126944773
 30
0.0
 11
87.86246425864225
 21
548.7031330175055
 31
0.0
  0
LINE
  5
1413
330
2
100
AcDbEntity
  8
0
100
AcDbLine
 10
88.26246425864189
 20
548.0103126944773
 30
0.0
 11
88.26246425864189
 21
558.0103126944773
 31
0.0
  0
LINE
  5
1414
330
2
100
AcDbEntity
  8
0
100
AcDbLine
 10
93.86246425864227
 20
548.0103126944773
 30
0.0
 11
93.86246425864227
 21
558.0103126944773
 31
0.0
  0
LINE
  5
1415
330
2
100
AcDbEntity
  8
0
100
AcDbLine
 10
93.86246425864227
 20
558.0103126944773
 30
0.0
 11
94.86246425864226
 21
558.0103126944773
 31
0.0
  0
LINE
  5
1416
330
2
100
AcDbEntity
  8
0
100
AcDbLine
 10
94.86246425864226
 20
558.0103126944773
 30
0.0
 11
94.86246425864226
 21
548.0103126944773
 31
0.0
  0
LINE
  5
1417
330
2
100
AcDbEntity
  8
0
100
AcDbLine
 10
94.86246425864226
 20
548.0103126944773
 30
0.0
 11
93.86246425864227
 21
548.0103126944773
 31
0.0
  0
LINE
  5
1418
330
2
100
AcDbEntity
  8
0
100
AcDbLine
 10
93.86246425864227
 20
548.0103126944773
 30
0.0
 11
93.86246425864227
 21
558.0103126944773
 31
0.0
  0
LINE
  5
1419
330
2
100
AcDbEntity
  8
0
100
AcDbLine
 10
88.26246425864189
 20
548.0103126944773
 30
0.0
 11
93.86246425864227
 21
548.0103126944773
 31
0.0
  0
LINE
  5
141A
330
2
100
AcDbEntity
  8
0
100
AcDbLine
 10
87.86246425864225
 20
557.31749237145
 30
0.0
 11
87.86246425864225
 21
548.7031330175055
 31
0.0
  0
LINE
  5
141B
330
2
100
AcDbEntity
  8
0
100
AcDbLine
 10
93.86246425864227
 20
558.0103126944773
 30
0.0
 11
88.26246425864189
 21
558.0103126944773
 31
0.0
  0
LINE
  5
141C
330
2
100
AcDbEntity
  8
0
100
AcDbLine
 10
88.26246425864189
 20
558.0103126944773
 30
0.0
 11
87.86246425864225
 21
557.31749237145
 31
0.0
  0
LINE
  5
141D
330
2
100
AcDbEntity
  8
CENTER
  6
CENS
100
AcDbLine
 10
114.8624642586404
 20
553.0103126944773
 30
0.0
 11
82.86246425864225
 21
553.0103126944773
 31
0.0
  0
LINE
  5
141E
330
2
100
AcDbEntity
  8
0
100
AcDbLine
 10
88.26246425864189
 20
473.1503126944777
 30
0.0
 11
87.86246425864225
 21
472.4574923714495
 31
0.0
  0
LINE
  5
141F
330
2
100
AcDbEntity
  8
0
100
AcDbLine
 10
88.26246425864189
 20
473.1503126944777
 30
0.0
 11
88.26246425864189
 21
463.1503126944776
 31
0.0
  0
LINE
  5
1420
330
2
100
AcDbEntity
  8
0
100
AcDbLine
 10
93.86246425864227
 20
473.1503126944777
 30
0.0
 11
93.86246425864227
 21
463.1503126944776
 31
0.0
  0
LINE
  5
1421
330
2
100
AcDbEntity
  8
0
100
AcDbLine
 10
93.86246425864227
 20
463.1503126944776
 30
0.0
 11
94.86246425864226
 21
463.1503126944776
 31
0.0
  0
LINE
  5
1422
330
2
100
AcDbEntity
  8
0
100
AcDbLine
 10
94.86246425864226
 20
463.1503126944776
 30
0.0
 11
94.86246425864226
 21
473.1503126944777
 31
0.0
  0
LINE
  5
1423
330
2
100
AcDbEntity
  8
0
100
AcDbLine
 10
94.86246425864226
 20
473.1503126944777
 30
0.0
 11
93.86246425864227
 21
473.1503126944777
 31
0.0
  0
LINE
  5
1424
330
2
100
AcDbEntity
  8
0
100
AcDbLine
 10
93.86246425864227
 20
473.1503126944777
 30
0.0
 11
93.86246425864227
 21
463.1503126944776
 31
0.0
  0
LINE
  5
1425
330
2
100
AcDbEntity
  8
0
100
AcDbLine
 10
88.26246425864189
 20
473.1503126944777
 30
0.0
 11
93.86246425864227
 21
473.1503126944777
 31
0.0
  0
LINE
  5
1426
330
2
100
AcDbEntity
  8
0
100
AcDbLine
 10
87.86246425864225
 20
463.8431330175049
 30
0.0
 11
87.86246425864225
 21
472.4574923714495
 31
0.0
  0
LINE
  5
1427
330
2
100
AcDbEntity
  8
0
100
AcDbLine
 10
93.86246425864227
 20
463.1503126944776
 30
0.0
 11
88.26246425864189
 21
463.1503126944776
 31
0.0
  0
LINE
  5
1428
330
2
100
AcDbEntity
  8
0
100
AcDbLine
 10
88.26246425864189
 20
463.1503126944776
 30
0.0
 11
87.86246425864225
 21
463.8431330175049
 31
0.0
  0
LINE
  5
1429
330
2
100
AcDbEntity
  8
CENTER
  6
CENS
100
AcDbLine
 10
114.8624642586404
 20
468.1503126944776
 30
0.0
 11
82.86246425864225
 21
468.1503126944776
 31
0.0
  0
LINE
  5
142A
330
2
100
AcDbEntity
  8
0
100
AcDbLine
 10
63.83950897175271
 20
556.5979912140342
 30
0.0
 11
73.83934310802612
 21
556.6555867609145
 31
0.0
  0
ARC
  5
142B
330
2
100
AcDbEntity
  8
0
100
AcDbCircle
 10
73.86238132677897
 20
552.6556531064048
 30
0.0
 40
4.000000000000014
100
AcDbArc
 50
0.3300000000122996
 51
90.32999999998624
  0
ARC
  5
142C
330
2
100
AcDbEntity
  8
0
100
AcDbCircle
 10
63.86254719050555
 20
552.5980575595253
 30
0.0
 40
4.000000000000014
100
AcDbArc
 50
90.32999999998624
 51
180.3299999999862
  0
LINE
  5
142D
330
2
100
AcDbEntity
  8
CENTER
  6
CENS
100
AcDbLine
 10
68.86246425864226
 20
561.5227125679953
 30
0.0
 11
68.86246425864226
 21
533.1627865656305
 31
0.0
  0
LINE
  5
142E
330
2
100
AcDbEntity
  8
0
100
AcDbLine
 10
1022.097667513258
 20
545.580312694477
 30
0.0
 11
1022.097667513258
 21
510.5803126944771
 31
0.0
  0
LINE
  5
142F
330
2
100
AcDbEntity
  8
0
100
AcDbLine
 10
1020.097667513258
 20
520.0803126944769
 30
0.0
 11
1009.097667513258
 21
520.0803126944779
 31
0.0
  0
LINE
  5
1430
330
2
100
AcDbEntity
  8
0
100
AcDbLine
 10
990.5976675132581
 20
520.330312694477
 30
0.0
 11
990.5976675132581
 21
510.5803126944771
 31
0.0
  0
LINE
  5
1431
330
2
100
AcDbEntity
  8
0
100
AcDbLine
 10
990.5976675132581
 20
520.330312694477
 30
0.0
 11
984.5976675132583
 21
520.330312694477
 31
0.0
  0
LINE
  5
1432
330
2
100
AcDbEntity
  8
0
100
AcDbLine
 10
984.5976675132583
 20
520.330312694477
 30
0.0
 11
984.5976675132583
 21
510.5803126944771
 31
0.0
  0
LINE
  5
1433
330
2
100
AcDbEntity
  8
0
100
AcDbLine
 10
1007.097667513258
 20
524.8557229151725
 30
0.0
 11
1007.097667513258
 21
510.5803126944771
 31
0.0
  0
LINE
  5
1434
330
2
100
AcDbEntity
  8
0
100
AcDbLine
 10
1009.097667513258
 20
525.9094562555542
 30
0.0
 11
1009.097667513258
 21
510.5803126944771
 31
0.0
  0
LINE
  5
1435
330
2
100
AcDbEntity
  8
0
100
AcDbLine
 10
1007.097667513258
 20
520.0803126944779
 30
0.0
 11
990.5976675132581
 21
520.0803126944769
 31
0.0
  0
LINE
  5
1436
330
2
100
AcDbEntity
  8
0
100
AcDbLine
 10
1022.097667513258
 20
521.235013232857
 30
0.0
 11
1020.097667513258
 21
520.0803126944769
 31
0.0
  0
LINE
  5
1437
330
2
100
AcDbEntity
  8
0
100
AcDbLine
 10
1020.097667513258
 20
520.0803126944769
 30
0.0
 11
1020.097667513256
 21
510.5803126944771
 31
0.0
  0
LINE
  5
1438
330
2
100
AcDbEntity
  8
0
100
AcDbLine
 10
984.5976675132583
 20
519.5803126944769
 30
0.0
 11
979.4015150905501
 21
510.5803126944771
 31
0.0
  0
ARC
  5
1439
330
2
100
AcDbEntity
  8
0
100
AcDbCircle
 10
1315.705013155521
 20
510.5803126943899
 30
0.0
 40
10.6547005383793
100
AcDbArc
 50
184.0364720827248
 51
355.9635279172751
  0
ARC
  5
143A
330
2
100
AcDbEntity
  8
0
100
AcDbCircle
 10
1315.705013155521
 20
510.5803126943899
 30
0.0
 40
10.6547005383793
100
AcDbArc
 50
4.036472082724826
 51
175.9635279172751
  0
CIRCLE
  5
143B
330
2
100
AcDbEntity
  8
0
100
AcDbCircle
 10
1315.705013155521
 20
510.5803126943899
 30
0.0
 40
9.5
  0
LINE
  5
143C
330
2
100
AcDbEntity
  8
HIDS
100
AcDbLine
 10
1305.705013155521
 20
515.5803126943899
 30
0.0
 11
1305.705013155521
 21
527.6115340246422
 31
0.0
  0
LINE
  5
143D
330
2
100
AcDbEntity
  8
0
100
AcDbLine
 10
1023.097667513258
 20
468.5803126944779
 30
0.0
 11
1023.097667513258
 21
510.5803126944771
 31
0.0
  0
LINE
  5
143E
330
2
100
AcDbEntity
  8
0
100
AcDbLine
 10
1025.09766751326
 20
470.5104924347647
 30
0.0
 11
1025.09766751326
 21
510.5803126944771
 31
0.0
  0
LINE
  5
143F
330
2
100
AcDbEntity
  8
0
100
AcDbLine
 10
1022.097667513258
 20
539.580312694477
 30
0.0
 11
1018.188014164471
 21
539.580312694477
 31
0.0
  0
CIRCLE
  5
1440
330
2
100
AcDbEntity
  8
0
100
AcDbCircle
 10
1315.705013155521
 20
510.5803126943899
 30
0.0
 40
29.0
  0
LINE
  5
1934
330
2
100
AcDbEntity
  8
0
100
AcDbLine
 10
206.3324862586408
 20
453.080312694477
 30
0.0
 11
206.3324862586408
 21
568.080312694477
 31
0.0
  0
ARC
  5
1935
330
2
100
AcDbEntity
  8
0
100
AcDbCircle
 10
216.3324862586408
 20
568.080312694477
 30
0.0
 40
10.0
100
AcDbArc
 50
90.0
 51
175.219808152766
  0
ARC
  5
1936
330
2
100
AcDbEntity
  8
0
100
AcDbCircle
 10
220.3324862586408
 20
570.0803126944769
 30
0.0
 40
8.0
100
AcDbArc
 50
80.57047887833093
 51
90.0
  0
ARC
  5
1937
330
2
100
AcDbEntity
  8
0
100
AcDbCircle
 10
238.0265866347621
 20
676.6210035683384
 30
0.0
 40
100.0
100
AcDbArc
 50
260.5704788783309
 51
274.6677226878297
  0
LINE
  5
1938
330
2
100
AcDbEntity
  8
0
100
AcDbLine
 10
220.3324862586408
 20
578.0803126944769
 30
0.0
 11
216.3324862586408
 21
578.0803126944769
 31
0.0
  0
LINE
  5
1939
330
2
100
AcDbEntity
  8
0
100
AcDbLine
 10
322.8324862586381
 20
568.080312694477
 30
0.0
 11
322.832486258639
 21
575.2371186715294
 31
0.0
  0
ARC
  5
193A
330
2
100
AcDbEntity
  8
0
100
AcDbCircle
 10
331.3324862586408
 20
568.080312694477
 30
0.0
 40
10.0
100
AcDbArc
 50
0.0
 51
90.0
  0
LINE
  5
193B
330
2
100
AcDbEntity
  8
0
100
AcDbLine
 10
331.3324862586408
 20
578.0803126944769
 30
0.0
 11
327.3324862586408
 21
578.0803126944769
 31
0.0
  0
ARC
  5
193C
330
2
100
AcDbEntity
  8
0
100
AcDbCircle
 10
327.3324862586408
 20
570.0803126944769
 30
0.0
 40
8.0
100
AcDbArc
 50
90.0
 51
99.42952112166906
  0
LINE
  5
193D
330
2
100
AcDbEntity
  8
CENTER
100
AcDbLine
 10
342.0824862586372
 20
568.0803126944788
 30
0.0
 11
320.5824862586381
 21
568.080312694477
 31
0.0
  0
ARC
  5
193E
330
2
100
AcDbEntity
  8
0
100
AcDbCircle
 10
331.3324862586372
 20
568.0803126944788
 30
0.0
 40
8.5
100
AcDbArc
 50
180.0
 51
270.0
  0
LINE
  5
193F
330
2
100
AcDbEntity
  8
0
100
AcDbLine
 10
341.3324862586408
 20
564.080312694477
 30
0.0
 11
341.3324862586408
 21
568.080312694477
 31
0.0
  0
ARC
  5
1940
330
2
100
AcDbEntity
  8
0
100
AcDbCircle
 10
333.3324862586408
 20
564.080312694477
 30
0.0
 40
8.0
100
AcDbArc
 50
350.5704788783309
 51
0.0
  0
ARC
  5
1941
330
2
100
AcDbEntity
  8
0
100
AcDbCircle
 10
439.873177132504
 20
546.386212318363
 30
0.0
 40
100.0
100
AcDbArc
 50
170.5704788783309
 51
184.6677226878297
  0
ARC
  5
1942
330
2
100
AcDbEntity
  8
0
100
AcDbCircle
 10
338.4892922356951
 20
557.5803126944788
 30
0.0
 40
2.0
100
AcDbArc
 50
353.6993214717072
 51
90.0
  0
CIRCLE
  5
1943
330
2
100
AcDbEntity
  8
0
100
AcDbCircle
 10
334.3324862586336
 20
553.5803126944734
 30
0.0
 40
4.0
  0
CIRCLE
  5
1944
330
2
100
AcDbEntity
  8
HOJO
100
AcDbCircle
 10
334.3324862586336
 20
553.5803126944734
 30
0.0
 40
2.5
  0
CIRCLE
  5
1945
330
2
100
AcDbEntity
  8
0
100
AcDbCircle
 10
334.3324862586336
 20
553.5803126944734
 30
0.0
 40
3.5
  0
CIRCLE
  5
1946
330
2
100
AcDbEntity
  8
0
100
AcDbCircle
 10
334.3324862586336
 20
553.5803126944734
 30
0.0
 40
2.0
  0
LINE
  5
1947
330
2
100
AcDbEntity
  8
0
100
AcDbLine
 10
331.3324862586381
 20
559.5803126944788
 30
0.0
 11
338.4892922356951
 21
559.5803126944788
 31
0.0
  0
ARC
  5
1948
330
2
100
AcDbEntity
  8
0
100
AcDbCircle
 10
216.3324862586408
 20
453.080312694477
 30
0.0
 40
10.0
100
AcDbArc
 50
184.7801918472339
 51
270.0
  0
ARC
  5
1949
330
2
100
AcDbEntity
  8
0
100
AcDbCircle
 10
220.3324862586408
 20
451.0803126944771
 30
0.0
 40
8.0
100
AcDbArc
 50
270.0
 51
279.4295211216691
  0
ARC
  5
194A
330
2
100
AcDbEntity
  8
0
100
AcDbCircle
 10
238.0265866347548
 20
344.5396218206138
 30
0.0
 40
100.0
100
AcDbArc
 50
85.3322773121703
 51
99.42952112166906
  0
LINE
  5
194B
330
2
100
AcDbEntity
  8
0
100
AcDbLine
 10
220.3324862586408
 20
443.0803126944771
 30
0.0
 11
216.3324862586408
 21
443.0803126944771
 31
0.0
  0
LINE
  5
194C
330
2
100
AcDbEntity
  8
0
100
AcDbLine
 10
322.832486258639
 20
453.0803126944788
 30
0.0
 11
322.832486258639
 21
445.9235067174236
 31
0.0
  0
ARC
  5
194D
330
2
100
AcDbEntity
  8
0
100
AcDbCircle
 10
331.3324862586408
 20
453.080312694477
 30
0.0
 40
10.0
100
AcDbArc
 50
270.0
 51
0.0
  0
ARC
  5
194E
330
2
100
AcDbEntity
  8
0
100
AcDbCircle
 10
331.332486258639
 20
453.080312694477
 30
0.0
 40
8.5
100
AcDbArc
 50
90.0
 51
180.0
  0
CIRCLE
  5
194F
330
2
100
AcDbEntity
  8
HOJO
100
AcDbCircle
 10
334.3324862586381
 20
467.5803126944806
 30
0.0
 40
2.5
  0
CIRCLE
  5
1950
330
2
100
AcDbEntity
  8
0
100
AcDbCircle
 10
334.3324862586381
 20
467.5803126944806
 30
0.0
 40
2.0
  0
CIRCLE
  5
1951
330
2
100
AcDbEntity
  8
0
100
AcDbCircle
 10
334.3324862586381
 20
467.5803126944806
 30
0.0
 40
3.5
  0
CIRCLE
  5
1952
330
2
100
AcDbEntity
  8
0
100
AcDbCircle
 10
334.3324862586381
 20
467.5803126944806
 30
0.0
 40
4.0
  0
LINE
  5
1953
330
2
100
AcDbEntity
  8
0
100
AcDbLine
 10
331.332486258639
 20
461.580312694477
 30
0.0
 11
338.4892922356951
 21
461.5803126944789
 31
0.0
  0
LINE
  5
1954
330
2
100
AcDbEntity
  8
0
100
AcDbLine
 10
341.3324862586408
 20
453.080312694477
 30
0.0
 11
341.3324862586408
 21
457.080312694477
 31
0.0
  0
ARC
  5
1955
330
2
100
AcDbEntity
  8
0
100
AcDbCircle
 10
333.3324862586408
 20
457.080312694477
 30
0.0
 40
8.0
100
AcDbArc
 50
0.0
 51
9.429521121669067
  0
LINE
  5
1956
330
2
100
AcDbEntity
  8
0
100
AcDbLine
 10
331.3324862586408
 20
443.0803126944771
 30
0.0
 11
327.3324862586408
 21
443.0803126944771
 31
0.0
  0
ARC
  5
1957
330
2
100
AcDbEntity
  8
0
100
AcDbCircle
 10
327.3324862586408
 20
451.0803126944771
 30
0.0
 40
8.0
100
AcDbArc
 50
260.5704788783309
 51
270.0
  0
ARC
  5
1958
330
2
100
AcDbEntity
  8
0
100
AcDbCircle
 10
311.8324862586408
 20
472.5803126944771
 30
0.0
 40
15.0
100
AcDbArc
 50
270.0
 51
0.0
  0
ARC
  5
1959
330
2
100
AcDbEntity
  8
0
100
AcDbCircle
 10
311.8324862586408
 20
472.5803126944771
 30
0.0
 40
17.0
100
AcDbArc
 50
270.0
 51
0.0
  0
ARC
  5
195A
330
2
100
AcDbEntity
  8
0
100
AcDbCircle
 10
311.8324862586408
 20
548.580312694477
 30
0.0
 40
17.0
100
AcDbArc
 50
0.0
 51
90.0
  0
ARC
  5
195B
330
2
100
AcDbEntity
  8
0
100
AcDbCircle
 10
311.8324862586408
 20
548.580312694477
 30
0.0
 40
15.0
100
AcDbArc
 50
0.0
 51
90.0
  0
ARC
  5
195C
330
2
100
AcDbEntity
  8
0
100
AcDbCircle
 10
235.8324862586408
 20
472.5803126944771
 30
0.0
 40
15.0
100
AcDbArc
 50
180.0
 51
270.0
  0
ARC
  5
195D
330
2
100
AcDbEntity
  8
0
100
AcDbCircle
 10
235.8324862586408
 20
472.5803126944771
 30
0.0
 40
17.0
100
AcDbArc
 50
180.0
 51
270.0
  0
CIRCLE
  5
195E
330
2
100
AcDbEntity
  8
0
100
AcDbCircle
 10
273.8324862586408
 20
510.5803126944771
 30
0.0
 40
45.0
  0
CIRCLE
  5
195F
330
2
100
AcDbEntity
  8
0
100
AcDbCircle
 10
273.8324862586408
 20
510.5803126944771
 30
0.0
 40
44.5
  0
CIRCLE
  5
1960
330
2
100
AcDbEntity
  8
0
100
AcDbCircle
 10
273.8324862586408
 20
510.5803126944771
 30
0.0
 40
42.5
  0
ARC
  5
1961
330
2
100
AcDbEntity
  8
0
100
AcDbCircle
 10
235.8324862586408
 20
548.580312694477
 30
0.0
 40
15.0
100
AcDbArc
 50
90.0
 51
180.0
  0
ARC
  5
1962
330
2
100
AcDbEntity
  8
0
100
AcDbCircle
 10
235.8324862586408
 20
548.580312694477
 30
0.0
 40
17.0
100
AcDbArc
 50
90.0
 51
180.0
  0
LINE
  5
1963
330
2
100
AcDbEntity
  8
0
100
AcDbLine
 10
218.8324862586408
 20
472.5803126944771
 30
0.0
 11
218.8324862586408
 21
548.580312694477
 31
0.0
  0
LINE
  5
1964
330
2
100
AcDbEntity
  8
0
100
AcDbLine
 10
220.8324862586408
 20
472.5803126944771
 30
0.0
 11
220.8324862586408
 21
548.580312694477
 31
0.0
  0
CIRCLE
  5
1965
330
2
100
AcDbEntity
  8
0
100
AcDbCircle
 10
273.8324862586408
 20
510.5803126944771
 30
0.0
 40
36.57739999999999
  0
CIRCLE
  5
1966
330
2
100
AcDbEntity
  8
0
100
AcDbCircle
 10
273.8324862586408
 20
510.5803126944771
 30
0.0
 40
41.9226
  0
CIRCLE
  5
1967
330
2
100
AcDbEntity
  8
0
100
AcDbCircle
 10
273.8324862586408
 20
510.5803126944771
 30
0.0
 40
36.0
  0
LINE
  5
1968
330
2
100
AcDbEntity
  8
0
100
AcDbLine
 10
235.8324862586408
 20
565.5803126944769
 30
0.0
 11
311.8324862586408
 21
565.5803126944769
 31
0.0
  0
LINE
  5
1969
330
2
100
AcDbEntity
  8
0
100
AcDbLine
 10
235.8324862586408
 20
563.580312694477
 30
0.0
 11
311.8324862586408
 21
563.580312694477
 31
0.0
  0
LINE
  5
196A
330
2
100
AcDbEntity
  8
0
100
AcDbLine
 10
311.8324862586408
 20
455.5803126944771
 30
0.0
 11
235.8324862586408
 21
455.5803126944771
 31
0.0
  0
LINE
  5
196B
330
2
100
AcDbEntity
  8
0
100
AcDbLine
 10
311.8324862586408
 20
457.580312694477
 30
0.0
 11
235.8324862586408
 21
457.580312694477
 31
0.0
  0
LINE
  5
196C
330
2
100
AcDbEntity
  8
0
100
AcDbLine
 10
328.8324862586408
 20
548.580312694477
 30
0.0
 11
328.8324862586408
 21
472.5803126944771
 31
0.0
  0
LINE
  5
196D
330
2
100
AcDbEntity
  8
0
100
AcDbLine
 10
326.8324862586408
 20
548.580312694477
 30
0.0
 11
326.8324862586408
 21
472.5803126944771
 31
0.0
  0
LINE
  5
196E
330
2
100
AcDbEntity
  8
0
100
AcDbLine
 10
323.8533015388123
 20
560.6011279746485
 30
0.0
 11
322.439087976439
 21
559.1869144122751
 31
0.0
  0
LINE
  5
196F
330
2
100
AcDbEntity
  8
0
100
AcDbLine
 10
323.8533015388123
 20
460.5594974143055
 30
0.0
 11
322.439087976439
 21
461.9737109766789
 31
0.0
  0
LINE
  5
1970
330
2
100
AcDbEntity
  8
0
100
AcDbLine
 10
223.8116709784693
 20
560.6011279746485
 30
0.0
 11
225.2258845408426
 21
559.1869144122751
 31
0.0
  0
LINE
  5
1971
330
2
100
AcDbEntity
  8
0
100
AcDbLine
 10
223.8116709784693
 20
460.5594974143055
 30
0.0
 11
225.2258845408426
 21
461.9737109766789
 31
0.0
  0
LINE
  5
1972
330
2
100
AcDbEntity
  8
CENTER
100
AcDbLine
 10
331.3324862586426
 20
578.8303126944733
 30
0.0
 11
331.3324862586408
 21
557.3303126944751
 31
0.0
  0
LINE
  5
1973
330
2
100
AcDbEntity
  8
CENTER
100
AcDbLine
 10
342.0824862586372
 20
453.0803126944753
 30
0.0
 11
320.5824862586381
 21
453.080312694477
 31
0.0
  0
LINE
  5
1974
330
2
100
AcDbEntity
  8
CENTER
100
AcDbLine
 10
331.3324862586426
 20
442.3303126944807
 30
0.0
 11
331.3324862586408
 21
463.8303126944807
 31
0.0
  0
LINE
  5
1975
330
2
100
AcDbEntity
  8
CENTER
100
AcDbLine
 10
334.3324862586326
 20
559.9703218630907
 30
0.0
 11
334.3324862586326
 21
547.1903035258578
 31
0.0
  0
LINE
  5
1976
330
2
100
AcDbEntity
  8
CENTER
100
AcDbLine
 10
327.9424770900162
 20
553.5803126944734
 30
0.0
 11
340.7224954272491
 21
553.5803126944734
 31
0.0
  0
LINE
  5
1977
330
2
100
AcDbEntity
  8
CENTER
100
AcDbLine
 10
334.3324862586326
 20
461.1903035258651
 30
0.0
 11
334.3324862586326
 21
473.970321863098
 31
0.0
  0
LINE
  5
1978
330
2
100
AcDbEntity
  8
CENTER
100
AcDbLine
 10
327.9424770900162
 20
467.5803126944806
 30
0.0
 11
340.7224954272491
 21
467.5803126944806
 31
0.0
  0
CIRCLE
  5
1979
330
2
100
AcDbEntity
  8
0
100
AcDbCircle
 10
331.3324862586408
 20
568.0803126944788
 30
0.0
 40
5.63397459621558
  0
CIRCLE
  5
197A
330
2
100
AcDbEntity
  8
0
100
AcDbCircle
 10
331.3324862586408
 20
568.0803126944788
 30
0.0
 40
6.5
  0
LINE
  5
197B
330
2
100
AcDbEntity
  8
0
100
AcDbLine
 10
334.3324862586408
 20
566.3482618869088
 30
0.0
 11
334.3324862586408
 21
569.8123635020469
 31
0.0
  0
LINE
  5
197C
330
2
100
AcDbEntity
  8
0
100
AcDbLine
 10
328.3324862586408
 20
569.8123635020469
 30
0.0
 11
328.3324862586408
 21
566.3482618869088
 31
0.0
  0
LINE
  5
197D
330
2
100
AcDbEntity
  8
0
100
AcDbLine
 10
331.3324862586408
 20
564.6162110793406
 30
0.0
 11
334.3324862586408
 21
566.3482618869088
 31
0.0
  0
LINE
  5
197E
330
2
100
AcDbEntity
  8
0
100
AcDbLine
 10
328.3324862586408
 20
566.3482618869088
 30
0.0
 11
331.3324862586408
 21
564.6162110793406
 31
0.0
  0
LINE
  5
197F
330
2
100
AcDbEntity
  8
0
100
AcDbLine
 10
328.3324862586408
 20
569.8123635020469
 30
0.0
 11
331.3324862586408
 21
571.544414309617
 31
0.0
  0
LINE
  5
1980
330
2
100
AcDbEntity
  8
0
100
AcDbLine
 10
331.3324862586408
 20
571.5444143096151
 30
0.0
 11
334.3324862586408
 21
569.8123635020469
 31
0.0
  0
CIRCLE
  5
1981
330
2
100
AcDbEntity
  8
0
100
AcDbCircle
 10
331.3324862586408
 20
453.080312694477
 30
0.0
 40
5.63397459621558
  0
CIRCLE
  5
1982
330
2
100
AcDbEntity
  8
0
100
AcDbCircle
 10
331.3324862586408
 20
453.080312694477
 30
0.0
 40
6.5
  0
LINE
  5
1983
330
2
100
AcDbEntity
  8
0
100
AcDbLine
 10
334.3324862586408
 20
451.3482618869089
 30
0.0
 11
334.3324862586408
 21
454.8123635020452
 31
0.0
  0
LINE
  5
1984
330
2
100
AcDbEntity
  8
0
100
AcDbLine
 10
328.3324862586408
 20
454.8123635020452
 30
0.0
 11
328.3324862586408
 21
451.3482618869071
 31
0.0
  0
LINE
  5
1985
330
2
100
AcDbEntity
  8
0
100
AcDbLine
 10
331.3324862586408
 20
449.6162110793389
 30
0.0
 11
334.3324862586408
 21
451.3482618869089
 31
0.0
  0
LINE
  5
1986
330
2
100
AcDbEntity
  8
0
100
AcDbLine
 10
328.3324862586408
 20
451.3482618869071
 30
0.0
 11
331.3324862586408
 21
449.6162110793389
 31
0.0
  0
LINE
  5
1987
330
2
100
AcDbEntity
  8
0
100
AcDbLine
 10
328.3324862586408
 20
454.8123635020452
 30
0.0
 11
331.3324862586408
 21
456.5444143096152
 31
0.0
  0
LINE
  5
1988
330
2
100
AcDbEntity
  8
0
100
AcDbLine
 10
331.3324862586408
 20
456.5444143096152
 30
0.0
 11
334.3324862586408
 21
454.8123635020452
 31
0.0
  0
ARC
  5
1989
330
2
100
AcDbEntity
  8
0
100
AcDbCircle
 10
273.8324862586408
 20
510.5803126944771
 30
0.0
 40
16.0
100
AcDbArc
 50
108.2099568642858
 51
71.79004313571411
  0
LINE
  5
198A
330
2
100
AcDbEntity
  8
0
100
AcDbLine
 10
268.8324862586408
 20
529.8803156944773
 30
0.0
 11
268.8324862586408
 21
525.7789968480478
 31
0.0
  0
LINE
  5
198B
330
2
100
AcDbEntity
  8
0
100
AcDbLine
 10
278.8324862586408
 20
529.8803156944773
 30
0.0
 11
278.8324862586408
 21
525.7789968480478
 31
0.0
  0
LINE
  5
198C
330
2
100
AcDbEntity
  8
0
100
AcDbLine
 10
268.8324862586408
 20
529.8803156944773
 30
0.0
 11
278.8324862586408
 21
529.8803156944773
 31
0.0
  0
CIRCLE
  5
198D
330
2
100
AcDbEntity
  8
0
100
AcDbCircle
 10
273.8324862586408
 20
510.5803126944771
 30
0.0
 40
24.49999999582681
  0
ARC
  5
198E
330
2
100
AcDbEntity
  8
0
100
AcDbCircle
 10
273.8324862586408
 20
510.5803126944771
 30
0.0
 40
17.15469399582682
100
AcDbArc
 50
106.9457086470001
 51
73.05429135299984
  0
ARC
  5
198F
330
2
100
AcDbEntity
  8
0
100
AcDbCircle
 10
273.8324862586408
 20
238.0803126944761
 30
0.0
 40
340.0
100
AcDbArc
 50
85.3322773121703
 51
94.66772268782973
  0
ARC
  5
1990
330
2
100
AcDbEntity
  8
0
100
AcDbCircle
 10
309.6383858825196
 20
676.6210035683384
 30
0.0
 40
100.0
100
AcDbArc
 50
265.3322773121702
 51
279.4295211216691
  0
ARC
  5
1991
330
2
100
AcDbEntity
  8
0
100
AcDbCircle
 10
320.8324862586381
 20
575.2371186715294
 30
0.0
 40
2.0
100
AcDbArc
 50
0.0
 51
96.30067852829274
  0
ARC
  5
1992
330
2
100
AcDbEntity
  8
0
100
AcDbCircle
 10
273.8324862586408
 20
783.080312694476
 30
0.0
 40
340.0
100
AcDbArc
 50
265.3322773121702
 51
274.6677226878297
  0
ARC
  5
1993
330
2
100
AcDbEntity
  8
0
100
AcDbCircle
 10
309.6383858825269
 20
344.5396218206138
 30
0.0
 40
100.0
100
AcDbArc
 50
80.57047887833093
 51
94.66772268782973
  0
ARC
  5
1994
330
2
100
AcDbEntity
  8
0
100
AcDbCircle
 10
320.8324862586381
 20
445.9235067174236
 30
0.0
 40
2.0
100
AcDbArc
 50
263.6993214717072
 51
0.0
  0
ARC
  5
1995
330
2
100
AcDbEntity
  8
0
100
AcDbCircle
 10
1.332486258641779
 20
510.5803126944771
 30
0.0
 40
340.0
100
AcDbArc
 50
355.3322773121702
 51
4.66772268782971
  0
ARC
  5
1996
330
2
100
AcDbEntity
  8
0
100
AcDbCircle
 10
439.873177132504
 20
474.774413070591
 30
0.0
 40
100.0
100
AcDbArc
 50
175.3322773121702
 51
189.429521121669
  0
ARC
  5
1997
330
2
100
AcDbEntity
  8
0
100
AcDbCircle
 10
338.4892922356943
 20
463.5803126944789
 30
0.0
 40
2.0
100
AcDbArc
 50
270.0
 51
6.300678528292741
  0
LINE
  5
1A42
330
2
100
AcDbEntity
  8
0
100
AcDbLine
 10
742.6320089470456
 20
881.6572006700134
 30
0.0
 11
743.4087001805303
 21
792.6572006700003
 31
0.0
  0
CIRCLE
  5
1A69
330
2
100
AcDbEntity
  8
0
100
AcDbCircle
 10
810.1276455132577
 20
510.5803126944788
 30
0.0
 40
36.57739999999999
  0
ENDSEC
  0
SECTION
  2
OBJECTS
  0
DICTIONARY
  5
7
330
0
100
AcDbDictionary
  3
ACAD_COLOR
350
18A0
  3
ACAD_GROUP
350
75
  3
ACAD_LAYOUT
350
61
  3
ACAD_MATERIAL
350
1876
  3
ACAD_MLEADERSTYLE
350
18C5
  3
ACAD_MLINESTYLE
350
76
  3
ACAD_PLOTSETTINGS
350
77
  3
ACAD_PLOTSTYLENAME
350
6
  3
ACAD_SCALELIST
350
18A3
  3
ACAD_TABLESTYLE
350
18A1
  3
ACAD_VISUALSTYLE
350
188F
  3
ACADDIM
350
480
  3
ACDB_RECOMPOSE_DATA
350
19D1
  3
ACDBHEADERROUNDTRIPXREC
350
1A83
  3
ACDBVARIABLEDICTIONARY
350
102
  3
DWGPROPS
350
1A44
  0
DICTIONARY
  5
19DA
330
6E
100
AcDbDictionary
280
     1
  3
ACAD_XREC_ROUNDTRIP
360
1A4C
  0
DICTIONARY
  5
B19
330
66
100
AcDbDictionary
280
     1
  3
ACAD_LAYERSTATES
360
B1A
  0
DICTIONARY
  5
1998
330
5E
100
AcDbDictionary
280
     1
  3
ACAD_XREC_ROUNDTRIP
360
1A47
  3
ADSK_XREC_LAYER_RECONCILED
360
1999
  0
DICTIONARY
  5
199A
330
3E
100
AcDbDictionary
280
     1
  3
ACAD_XREC_ROUNDTRIP
360
1A46
  3
ADSK_XREC_LAYER_RECONCILED
360
199B
  0
DICTIONARY
  5
19A0
330
2B5
100
AcDbDictionary
280
     1
  3
ACAD_XREC_ROUNDTRIP
360
1A52
  3
ADSK_XREC_LAYER_RECONCILED
360
19A1
  0
DICTIONARY
  5
19A2
330
2BA
100
AcDbDictionary
280
     1
  3
ACAD_XREC_ROUNDTRIP
360
1A53
  3
ADSK_XREC_LAYER_RECONCILED
360
19A3
  0
DICTIONARY
  5
19A6
330
3FA
100
AcDbDictionary
280
     1
  3
ACAD_XREC_ROUNDTRIP
360
1A55
  3
ADSK_XREC_LAYER_RECONCILED
360
19A7
  0
DICTIONARY
  5
19A8
330
478
100
AcDbDictionary
280
     1
  3
ACAD_XREC_ROUNDTRIP
360
1A56
  3
ADSK_XREC_LAYER_RECONCILED
360
19A9
  0
DICTIONARY
  5
1AA4
330
2
100
AcDbDictionary
280
     1
  3
ACAD_LAYOUTSELFREF
360
1AA5
  0
DICTIONARY
  5
1AA6
330
1A7D
100
AcDbDictionary
280
     1
  3
ACAD_LAYOUTSELFREF
360
1AA7
  0
DICTIONARY
  5
18A0
102
{ACAD_REACTORS
330
7
102
}
330
7
100
AcDbDictionary
  0
DICTIONARY
  5
75
102
{ACAD_REACTORS
330
7
102
}
330
7
100
AcDbDictionary
  0
DICTIONARY
  5
61
102
{ACAD_REACTORS
330
7
102
}
330
7
100
AcDbDictionary
  0
DICTIONARY
  5
1876
102
{ACAD_REACTORS
330
7
102
}
330
7
100
AcDbDictionary
  3
BYBLOCK
350
187F
  3
BYLAYER
350
1877
  3
GLOBAL
350
1887
  0
DICTIONARY
  5
18C5
102
{ACAD_REACTORS
330
7
102
}
330
7
100
AcDbDictionary
  3
STANDARD
350
18C6
  0
DICTIONARY
  5
76
102
{ACAD_REACTORS
330
7
102
}
330
7
100
AcDbDictionary
  3
STANDARD
350
78
  0
DICTIONARY
  5
77
102
{ACAD_REACTORS
330
7
102
}
330
7
100
AcDbDictionary
  0
ACDBDICTIONARYWDFLT
  5
6
102
{ACAD_REACTORS
330
7
102
}
330
7
100
AcDbDictionary
281
     1
  3
Normal
350
5
100
AcDbDictionaryWithDefault
340
5
  0
DICTIONARY
  5
18A3
102
{ACAD_REACTORS
330
7
102
}
330
7
100
AcDbDictionary
  3
A0
350
18A4
  3
A1
350
18A5
  3
A2
350
18A6
  3
A3
350
18A7
  3
A4
350
18A8
  3
A5
350
18A9
  3
A6
350
18AA
  3
A7
350
18AB
  3
A8
350
18AC
  3
A9
350
18AD
  3
B0
350
18AE
  3
B1
350
18AF
  3
B2
350
18B0
  3
B3
350
18B1
  3
B4
350
18B2
  3
B5
350
18B3
  3
B6
350
18B4
  3
B7
350
18B5
  3
B8
350
18B6
  3
B9
350
18B7
  3
C0
350
18B8
  3
C1
350
18B9
  3
C2
350
18BA
  3
C3
350
18BB
  3
C4
350
18BC
  3
C5
350
18BD
  3
C6
350
18BE
  3
C7
350
18BF
  3
C8
350
18C0
  3
C9
350
18C1
  3
D0
350
18C2
  3
D1
350
18C3
  3
D2
350
18C4
  0
DICTIONARY
  5
18A1
102
{ACAD_REACTORS
330
7
102
}
330
7
100
AcDbDictionary
  3
STANDARD
350
18A2
  0
DICTIONARY
  5
188F
102
{ACAD_REACTORS
330
7
102
}
330
7
100
AcDbDictionary
  3
2DWIREFRAME
350
1895
  3
3D_HIDDEN
350
1897
  3
3DWIREFRAME
350
1896
  3
BASIC
350
1894
  3
BRIGHTEN
350
189B
  3
COLORCHANGE
350
189F
  3
CONCEPTUAL
350
1898
  3
DIM
350
189A
  3
FACEPATTERN
350
189E
  3
FLAT
350
1890
  3
FLATWITHEDGES
350
1891
  3
GOURAUD
350
1892
  3
GOURAUDWITHEDGES
350
1893
  3
LINEPATTERN
350
189D
  3
REALISTIC
350
1899
  3
THICKEN
350
189C
  0
XRECORD
  5
480
102
{ACAD_REACTORS
330
7
102
}
330
7
100
AcDbXrecord
 90
   990106
  3

 60
     0
 61
     0
 62
     1
 63
     3
 64
     1
 65
     0
 66
     0
 67
     3
 68
     1
 69
     0
 70
     0
 71
     0
 72
     0
 40
0.0
170
     2
340
0
  0
XRECORD
  5
19D1
102
{ACAD_REACTORS
330
7
102
}
330
7
100
AcDbXrecord
 90
        1
330
18A2
  0
DICTIONARY
  5
1A83
102
{ACAD_REACTORS
330
7
102
}
330
7
100
AcDbDictionary
  3
CEPSNTYPE
350
1A8D
  3
DIMSTYLEDATA
350
1A91
  3
FINGERPRINTGUID
350
1A8E
  3
HYPERLINKBASE
350
1A86
  3
INSUNITS
350
1A8C
  3
LAYOUTDICT
350
1A88
  3
LWETCUNION
350
1A8B
  3
PLOTSETDICT
350
1A89
  3
PLOTSTYLNAMDICT
350
1A8A
  3
PSVPSCALE
350
1A90
  3
PUCSBASE
350
1A94
  3
PUCSORGBACK
350
1A9A
  3
PUCSORGBOTTOM
350
1A96
  3
PUCSORGFRONT
350
1A99
  3
PUCSORGLEFT
350
1A97
  3
PUCSORGRIGHT
350
1A98
  3
PUCSORGTOP
350
1A95
  3
PUCSORTHOREF
350
1A92
  3
PUCSORTHOVIEW
350
1A93
  3
STYLESHEET
350
1A87
  3
TSTACKALIGN
350
1A84
  3
TSTACKSIZE
350
1A85
  3
UCSBASE
350
1A9D
  3
UCSORGBACK
350
1AA3
  3
UCSORGBOTTOM
350
1A9F
  3
UCSORGFRONT
350
1AA2
  3
UCSORGLEFT
350
1AA0
  3
UCSORGRIGHT
350
1AA1
  3
UCSORGTOP
350
1A9E
  3
UCSORTHOREF
350
1A9B
  3
UCSORTHOVIEW
350
1A9C
  3
VERSIONGUID
350
1A8F
  0
DICTIONARY
  5
102
102
{ACAD_REACTORS
330
7
102
}
330
7
100
AcDbDictionary
  3
CANNOSCALE
350
19F2
  3
CMLEADERSTYLE
350
19F1
  3
CTABLESTYLE
350
19F0
  3
DIMASSOC
350
103
  3
INDEXCTL
350
19F3
  3
SORTENTS
350
549
  0
XRECORD
  5
1A44
102
{ACAD_REACTORS
330
7
102
}
330
7
100
AcDbXrecord
  1
DWGPROPS COOKIE
  2

  3

  4

  6

  7

  8
ymorima
  9

300
=
301
=
302
=
303
=
304
=
305
=
306
=
307
=
308
=
309
=
 40
0.0069502199074074
 41
2454413.470368923
 42
2454421.489973229
  1

 90
        0
  0
XRECORD
  5
1A4C
102
{ACAD_REACTORS
330
19DA
102
}
330
19DA
100
AcDbXrecord
102
VTR_0.000_0.000_1.000_1.000_VISUALSTYLE
340
1895
102
VTR_0.000_0.000_1.000_1.000_GRIDDISPLAY
 70
     3
102
VTR_0.000_0.000_1.000_1.000_GRIDMAJOR
 70
     5
102
VTR_0.000_0.000_1.000_1.000_DEFAULTLIGHTING
280
     1
102
VTR_0.000_0.000_1.000_1.000_DEFAULTLIGHTINGTYPE
 70
     1
102
VTR_0.000_0.000_1.000_1.000_BRIGHTNESS
141
0.0
102
VTR_0.000_0.000_1.000_1.000_CONTRAST
142
0.0
  0
DICTIONARY
  5
B1A
102
{ACAD_REACTORS
330
B19
102
}
330
B19
100
AcDbDictionary
  0
XRECORD
  5
1A47
102
{ACAD_REACTORS
330
1998
102
}
330
1998
100
AcDbXrecord
102
MATERIAL
340
1887
  0
XRECORD
  5
1999
102
{ACAD_REACTORS
330
1998
102
}
330
1998
100
AcDbXrecord
290
     1
  0
XRECORD
  5
1A46
102
{ACAD_REACTORS
330
199A
102
}
330
199A
100
AcDbXrecord
102
MATERIAL
340
1887
  0
XRECORD
  5
199B
102
{ACAD_REACTORS
330
199A
102
}
330
199A
100
AcDbXrecord
290
     1
  0
XRECORD
  5
1A52
102
{ACAD_REACTORS
330
19A0
102
}
330
19A0
100
AcDbXrecord
102
MATERIAL
340
1887
  0
XRECORD
  5
19A1
102
{ACAD_REACTORS
330
19A0
102
}
330
19A0
100
AcDbXrecord
290
     1
  0
XRECORD
  5
1A53
102
{ACAD_REACTORS
330
19A2
102
}
330
19A2
100
AcDbXrecord
102
MATERIAL
340
1887
  0
XRECORD
  5
19A3
102
{ACAD_REACTORS
330
19A2
102
}
330
19A2
100
AcDbXrecord
290
     1
  0
XRECORD
  5
1A55
102
{ACAD_REACTORS
330
19A6
102
}
330
19A6
100
AcDbXrecord
102
MATERIAL
340
1887
  0
XRECORD
  5
19A7
102
{ACAD_REACTORS
330
19A6
102
}
330
19A6
100
AcDbXrecord
290
     1
  0
XRECORD
  5
1A56
102
{ACAD_REACTORS
330
19A8
102
}
330
19A8
100
AcDbXrecord
102
MATERIAL
340
1887
  0
XRECORD
  5
19A9
102
{ACAD_REACTORS
330
19A8
102
}
330
19A8
100
AcDbXrecord
290
     1
  0
XRECORD
  5
1AA5
102
{ACAD_REACTORS
330
1AA4
102
}
330
1AA4
100
AcDbXrecord
340
2
  0
XRECORD
  5
1AA7
102
{ACAD_REACTORS
330
1AA6
102
}
330
1AA6
100
AcDbXrecord
340
1A7D
  0
ACAD_PROXY_OBJECT
  5
187F
102
{ACAD_XDICTIONARY
360
1880
102
}
102
{ACAD_REACTORS
330
1876
102
}
330
1876
100
AcDbProxyObject
 90
      499
 91
      511
 93
     1340
310
42109E509B1BD8DAC02004014080404555555555555953FAA155555555555654FEA9AA400014080404555555555555953FAA155555555555654FEA9AA400000000000000E03F4080404555555555555953FAA155555555555654FEA9AA4014080404555555555555953FAA155555555555654FEA9AA4010201011555555555
310
55654FEA8555555555555953FAA6A9005020101155555555555654FEA8555555555555953FAA6A9000
 94
        0
1001
ACAD
1000
AcadProxyRoundTripData
1071
      504
1071
   655383
1070
     0
  0
ACAD_PROXY_OBJECT
  5
1877
102
{ACAD_XDICTIONARY
360
1878
102
}
102
{ACAD_REACTORS
330
1876
102
}
330
1876
100
AcDbProxyObject
 90
      499
 91
      511
 93
     1340
310
42109E53185E595C802004014080404555555555555953FAA155555555555654FEA9AA400014080404555555555555953FAA155555555555654FEA9AA400000000000000E03F4080404555555555555953FAA155555555555654FEA9AA4014080404555555555555953FAA155555555555654FEA9AA4010201011555555555
310
55654FEA8555555555555953FAA6A9005020101155555555555654FEA8555555555555953FAA6A9000
 94
        0
1001
ACAD
1000
AcadProxyRoundTripData
1071
      504
1071
   655383
1070
     0
  0
ACAD_PROXY_OBJECT
  5
1887
102
{ACAD_XDICTIONARY
360
1888
102
}
102
{ACAD_REACTORS
330
1876
102
}
330
1876
100
AcDbProxyObject
 90
      499
 91
      511
 93
     1332
310
41D1DB1BD8985B002004014080404555555555555953FAA155555555555654FEA9AA400014080404555555555555953FAA155555555555654FEA9AA400000000000000E03F4080404555555555555953FAA155555555555654FEA9AA4014080404555555555555953FAA155555555555654FEA9AA401020101155555555555
310
654FEA8555555555555953FAA6A9005020101155555555555654FEA8555555555555953FAA6A9000
 94
        0
1001
ACAD
1000
AcadProxyRoundTripData
1071
      504
1071
   655383
1070
     0
  0
ACAD_PROXY_OBJECT
  5
18C6
102
{ACAD_REACTORS
330
18C5
102
}
330
18C5
100
AcDbProxyObject
 90
      499
 91
      511
 93
      618
310
40901902A4063FBFFFFFE056BD1B81E855B9FC0AD7A3703D0AD73F4254DD185B99185C990000AD7A3703D0AC73F90141901A02B5E8DC0F42B1CFC02B5E8DC0F42B1CFE5764000000000000300FC6
340
6A
340
0
340
16
340
0
 94
        0
1001
ACAD_MLEADERVER
1070
     2
1001
ACAD
1000
AcadProxyRoundTripData
1071
      508
1071
   655383
1070
     0
  0
MLINESTYLE
  5
78
102
{ACAD_REACTORS
330
76
102
}
330
76
100
AcDbMlineStyle
  2
STANDARD
 70
     0
  3

 62
     0
 51
90.0
 52
90.0
 71
     2
 49
0.5
 62
   256
  6
BYLAYER
 49
-0.5
 62
   256
  6
BYLAYER
  0
ACDBPLACEHOLDER
  5
5
102
{ACAD_REACTORS
330
6
102
}
330
6
100
AcDbPlaceHolder
280
     0
  0
ACAD_PROXY_OBJECT
  5
18A4
102
{ACAD_REACTORS
330
18A3
102
}
330
18A3
100
AcDbProxyObject
 90
      499
 91
      511
 93
       49
310
904313A3100598
 94
        0
1001
ACAD
1000
AcadProxyRoundTripData
1071
      507
1071
   655383
1070
     0
  0
ACAD_PROXY_OBJECT
  5
18A5
102
{ACAD_REACTORS
330
18A3
102
}
330
18A3
100
AcDbProxyObject
 90
      499
 91
      511
 93
      113
310
904313A3200400000000000000406B
 94
        0
1001
ACAD
1000
AcadProxyRoundTripData
1071
      507
1071
   655383
1070
     0
  0
ACAD_PROXY_OBJECT
  5
18A6
102
{ACAD_REACTORS
330
18A3
102
}
330
18A3
100
AcDbProxyObject
 90
      499
 91
      511
 93
      113
310
904313A3400400000000000010406B
 94
        0
1001
ACAD
1000
AcadProxyRoundTripData
1071
      507
1071
   655383
1070
     0
  0
ACAD_PROXY_OBJECT
  5
18A7
102
{ACAD_REACTORS
330
18A3
102
}
330
18A3
100
AcDbProxyObject
 90
      499
 91
      511
 93
      113
310
904313A3500400000000000014406B
 94
        0
1001
ACAD
1000
AcadProxyRoundTripData
1071
      507
1071
   655383
1070
     0
  0
ACAD_PROXY_OBJECT
  5
18A8
102
{ACAD_REACTORS
330
18A3
102
}
330
18A3
100
AcDbProxyObject
 90
      499
 91
      511
 93
      113
310
904313A3800400000000000020406B
 94
        0
1001
ACAD
1000
AcadProxyRoundTripData
1071
      507
1071
   655383
1070
     0
  0
ACAD_PROXY_OBJECT
  5
18A9
102
{ACAD_REACTORS
330
18A3
102
}
330
18A3
100
AcDbProxyObject
 90
      499
 91
      511
 93
      121
310
905313A3130004000000000000244051
 94
        0
1001
ACAD
1000
AcadProxyRoundTripData
1071
      507
1071
   655383
1070
     0
  0
ACAD_PROXY_OBJECT
  5
18AA
102
{ACAD_REACTORS
330
18A3
102
}
330
18A3
100
AcDbProxyObject
 90
      499
 91
      511
 93
      121
310
905313A3136004000000000000304051
 94
        0
1001
ACAD
1000
AcadProxyRoundTripData
1071
      507
1071
   655383
1070
     0
  0
ACAD_PROXY_OBJECT
  5
18AB
102
{ACAD_REACTORS
330
18A3
102
}
330
18A3
100
AcDbProxyObject
 90
      499
 91
      511
 93
      121
310
905313A3230004000000000000344051
 94
        0
1001
ACAD
1000
AcadProxyRoundTripData
1071
      507
1071
   655383
1070
     0
  0
ACAD_PROXY_OBJECT
  5
18AC
102
{ACAD_REACTORS
330
18A3
102
}
330
18A3
100
AcDbProxyObject
 90
      499
 91
      511
 93
      121
310
905313A33300040000000000003E4051
 94
        0
1001
ACAD
1000
AcadProxyRoundTripData
1071
      507
1071
   655383
1070
     0
  0
ACAD_PROXY_OBJECT
  5
18AD
102
{ACAD_REACTORS
330
18A3
102
}
330
18A3
100
AcDbProxyObject
 90
      499
 91
      511
 93
      121
310
905313A3430004000000000000444051
 94
        0
1001
ACAD
1000
AcadProxyRoundTripData
1071
      507
1071
   655383
1070
     0
  0
ACAD_PROXY_OBJECT
  5
18AE
102
{ACAD_REACTORS
330
18A3
102
}
330
18A3
100
AcDbProxyObject
 90
      499
 91
      511
 93
      121
310
905313A3530004000000000000494051
 94
        0
1001
ACAD
1000
AcadProxyRoundTripData
1071
      507
1071
   655383
1070
     0
  0
ACAD_PROXY_OBJECT
  5
18AF
102
{ACAD_REACTORS
330
18A3
102
}
330
18A3
100
AcDbProxyObject
 90
      499
 91
      511
 93
      129
310
906313A313030004000000000000594038
 94
        0
1001
ACAD
1000
AcadProxyRoundTripData
1071
      507
1071
   655383
1070
     0
  0
ACAD_PROXY_OBJECT
  5
18B0
102
{ACAD_REACTORS
330
18A3
102
}
330
18A3
100
AcDbProxyObject
 90
      499
 91
      511
 93
      113
310
904323A31000000000000000010159
 94
        0
1001
ACAD
1000
AcadProxyRoundTripData
1071
      507
1071
   655383
1070
     0
  0
ACAD_PROXY_OBJECT
  5
18B1
102
{ACAD_REACTORS
330
18A3
102
}
330
18A3
100
AcDbProxyObject
 90
      499
 91
      511
 93
      113
310
904343A31000000000000000410159
 94
        0
1001
ACAD
1000
AcadProxyRoundTripData
1071
      507
1071
   655383
1070
     0
  0
ACAD_PROXY_OBJECT
  5
18B2
102
{ACAD_REACTORS
330
18A3
102
}
330
18A3
100
AcDbProxyObject
 90
      499
 91
      511
 93
      113
310
904383A31000000000000000810159
 94
        0
1001
ACAD
1000
AcadProxyRoundTripData
1071
      507
1071
   655383
1070
     0
  0
ACAD_PROXY_OBJECT
  5
18B3
102
{ACAD_REACTORS
330
18A3
102
}
330
18A3
100
AcDbProxyObject
 90
      499
 91
      511
 93
      121
310
90531303A31000000000000000910140
 94
        0
1001
ACAD
1000
AcadProxyRoundTripData
1071
      507
1071
   655383
1070
     0
  0
ACAD_PROXY_OBJECT
  5
18B4
102
{ACAD_REACTORS
330
18A3
102
}
330
18A3
100
AcDbProxyObject
 90
      499
 91
      511
 93
      129
310
9063130303A31000000000000001650138
 94
        0
1001
ACAD
1000
AcadProxyRoundTripData
1071
      507
1071
   655383
1070
     0
  0
ACAD_PROXY_OBJECT
  5
18B5
102
{ACAD_REACTORS
330
18A3
102
}
330
18A3
100
AcDbProxyObject
 90
      499
 91
      511
 93
      265
310
90F312F31323822203D2031272D302200000000000000200FC00000000000028402B
 94
        0
1001
ACAD
1000
AcadProxyRoundTripData
1071
      507
1071
   655383
1070
     0
  0
ACAD_PROXY_OBJECT
  5
18B6
102
{ACAD_REACTORS
330
18A3
102
}
330
18A3
100
AcDbProxyObject
 90
      499
 91
      511
 93
      257
310
90E312F363422203D2031272D302200000000000000240FC000000000000284040
 94
        0
1001
ACAD
1000
AcadProxyRoundTripData
1071
      507
1071
   655383
1070
     0
  0
ACAD_PROXY_OBJECT
  5
18B7
102
{ACAD_REACTORS
330
18A3
102
}
330
18A3
100
AcDbProxyObject
 90
      499
 91
      511
 93
      257
310
90E312F333222203D2031272D302200000000000000280FC000000000000284040
 94
        0
1001
ACAD
1000
AcadProxyRoundTripData
1071
      507
1071
   655383
1070
     0
  0
ACAD_PROXY_OBJECT
  5
18B8
102
{ACAD_REACTORS
330
18A3
102
}
330
18A3
100
AcDbProxyObject
 90
      499
 91
      511
 93
      257
310
90E312F313622203D2031272D3022000000000000002C0FC000000000000284040
 94
        0
1001
ACAD
1000
AcadProxyRoundTripData
1071
      507
1071
   655383
1070
     0
  0
ACAD_PROXY_OBJECT
  5
18B9
102
{ACAD_REACTORS
330
18A3
102
}
330
18A3
100
AcDbProxyObject
 90
      499
 91
      511
 93
      257
310
90E332F333222203D2031272D3022000000000000002E0FC000000000000284040
 94
        0
1001
ACAD
1000
AcadProxyRoundTripData
1071
      507
1071
   655383
1070
     0
  0
ACAD_PROXY_OBJECT
  5
18BA
102
{ACAD_REACTORS
330
18A3
102
}
330
18A3
100
AcDbProxyObject
 90
      499
 91
      511
 93
      249
310
90D312F3822203D2031272D302200000000000000300FC000000000000284040
 94
        0
1001
ACAD
1000
AcadProxyRoundTripData
1071
      507
1071
   655383
1070
     0
  0
ACAD_PROXY_OBJECT
  5
18BB
102
{ACAD_REACTORS
330
18A3
102
}
330
18A3
100
AcDbProxyObject
 90
      499
 91
      511
 93
      257
310
90E332F313622203D2031272D302200000000000000320FC000000000000284040
 94
        0
1001
ACAD
1000
AcadProxyRoundTripData
1071
      507
1071
   655383
1070
     0
  0
ACAD_PROXY_OBJECT
  5
18BC
102
{ACAD_REACTORS
330
18A3
102
}
330
18A3
100
AcDbProxyObject
 90
      499
 91
      511
 93
      249
310
90D312F3422203D2031272D302200000000000000340FC000000000000284040
 94
        0
1001
ACAD
1000
AcadProxyRoundTripData
1071
      507
1071
   655383
1070
     0
  0
ACAD_PROXY_OBJECT
  5
18BD
102
{ACAD_REACTORS
330
18A3
102
}
330
18A3
100
AcDbProxyObject
 90
      499
 91
      511
 93
      249
310
90D332F3822203D2031272D302200000000000000360FC000000000000284040
 94
        0
1001
ACAD
1000
AcadProxyRoundTripData
1071
      507
1071
   655383
1070
     0
  0
ACAD_PROXY_OBJECT
  5
18BE
102
{ACAD_REACTORS
330
18A3
102
}
330
18A3
100
AcDbProxyObject
 90
      499
 91
      511
 93
      249
310
90D312F3222203D2031272D302200000000000000380FC000000000000284040
 94
        0
1001
ACAD
1000
AcadProxyRoundTripData
1071
      507
1071
   655383
1070
     0
  0
ACAD_PROXY_OBJECT
  5
18BF
102
{ACAD_REACTORS
330
18A3
102
}
330
18A3
100
AcDbProxyObject
 90
      499
 91
      511
 93
      249
310
90D332F3422203D2031272D3022000000000000003A0FC000000000000284040
 94
        0
1001
ACAD
1000
AcadProxyRoundTripData
1071
      507
1071
   655383
1070
     0
  0
ACAD_PROXY_OBJECT
  5
18C0
102
{ACAD_REACTORS
330
18A3
102
}
330
18A3
100
AcDbProxyObject
 90
      499
 91
      511
 93
      169
310
90B3122203D2031272D3022004000000000000284020
 94
        0
1001
ACAD
1000
AcadProxyRoundTripData
1071
      507
1071
   655383
1070
     0
  0
ACAD_PROXY_OBJECT
  5
18C1
102
{ACAD_REACTORS
330
18A3
102
}
330
18A3
100
AcDbProxyObject
 90
      499
 91
      511
 93
      265
310
90F312D312F3222203D2031272D3022000000000000003E0FC00000000000028402B
 94
        0
1001
ACAD
1000
AcadProxyRoundTripData
1071
      507
1071
   655383
1070
     0
  0
ACAD_PROXY_OBJECT
  5
18C2
102
{ACAD_REACTORS
330
18A3
102
}
330
18A3
100
AcDbProxyObject
 90
      499
 91
      511
 93
      233
310
90B3322203D2031272D30220000000000000002100000000000000284000
 94
        0
1001
ACAD
1000
AcadProxyRoundTripData
1071
      507
1071
   655383
1070
     0
  0
ACAD_PROXY_OBJECT
  5
18C3
102
{ACAD_REACTORS
330
18A3
102
}
330
18A3
100
AcDbProxyObject
 90
      499
 91
      511
 93
      233
310
90B3622203D2031272D30220000000000000006100000000000000284000
 94
        0
1001
ACAD
1000
AcadProxyRoundTripData
1071
      507
1071
   655383
1070
     0
  0
ACAD_PROXY_OBJECT
  5
18C4
102
{ACAD_REACTORS
330
18A3
102
}
330
18A3
100
AcDbProxyObject
 90
      499
 91
      511
 93
      257
310
90E31272D3022203D2031272D3022000000000000000A100000000000000284040
 94
        0
1001
ACAD
1000
AcadProxyRoundTripData
1071
      507
1071
   655383
1070
     0
  0
ACAD_PROXY_OBJECT
  5
18A2
102
{ACAD_XDICTIONARY
360
19CF
102
}
102
{ACAD_REACTORS
330
18A1
102
}
330
18A1
100
AcDbProxyObject
 90
      499
 91
      511
 93
     1849
310
4254DD185B99185C990028B81E85EB51B8AE3F2E07A17AD46E2B8FC02B5E8DC0F42B1CFD028000000C1008070000C3001FDFF8000000C1003FBFF000000182007F7FE00000030400FEFFC00000060801FDFF8000000C1003FBFF00000018200000000000000681FA0B0000001820100E000186003FBFF000000182007F7FE0
310
0000030400FEFFC00000060801FDFF8000000C1003FBFF000000182007F7FE000000304000AD7A3703D0AC73F4160000003040201C00030C007F7FE00000030400FEFFC00000060801FDFF8000000C1003FBFF000000182007F7FE00000030400FEFFC000000608000
340
16
340
16
340
16
 94
        0
1001
ACAD
1000
AcadProxyRoundTripData
1071
      506
1071
   655383
1070
     0
  0
ACAD_PROXY_OBJECT
  5
1895
102
{ACAD_REACTORS
330
188F
102
}
330
188F
100
AcDbProxyObject
 90
      499
 91
      511
 93
      444
310
430C9915DA5C99599C985B59401049028333333333333E3BF0000000000000FB0107901411070040501600405405064090741402480A0340
 94
        0
1001
ACAD
1000
AcDbSavedByObjectVersion
1070
     0
1000
AcadProxyRoundTripData
1071
      505
1071
   655383
1070
     0
  0
ACAD_PROXY_OBJECT
  5
1897
102
{ACAD_REACTORS
330
188F
102
}
330
188F
100
AcDbProxyObject
 90
      499
 91
      511
 93
      508
310
428CD108121A5919195B8010640502408333333333333E3BF0000000000000FB01079024090700405020000000000001110200405405064090740C02480A0340
 94
        0
1001
ACAD
1000
AcDbSavedByObjectVersion
1070
     0
1000
AcadProxyRoundTripData
1071
      505
1071
   655383
1070
     0
  0
ACAD_PROXY_OBJECT
  5
1896
102
{ACAD_REACTORS
330
188F
102
}
330
188F
100
AcDbProxyObject
 90
      499
 91
      511
 93
      444
310
430CD915DA5C99599C985B59401059028333333333333E3BF0000000000000FB0107901411070040501600405405064090741402480A0340
 94
        0
1001
ACAD
1000
AcDbSavedByObjectVersion
1070
     0
1000
AcadProxyRoundTripData
1071
      505
1071
   655383
1070
     0
  0
ACAD_PROXY_OBJECT
  5
1894
102
{ACAD_REACTORS
330
188F
102
}
330
188F
100
AcDbProxyObject
 90
      499
 91
      511
 93
      396
310
4190985CDA58C0107406404333333333333E3BF0000000000000FB0107A41107004050150841D405064090741402480A0356
 94
        0
1001
ACAD
1000
AcDbSavedByObjectVersion
1070
     0
1000
AcadProxyRoundTripData
1071
      505
1071
   655383
1070
     0
  0
ACAD_PROXY_OBJECT
  5
189B
102
{ACAD_REACTORS
330
188F
102
}
330
188F
100
AcDbProxyObject
 90
      499
 91
      511
 93
      436
310
42509C9A59DA1D195B8010C409028333333333333E3BF0000000000000FB010790141107004050150841D405064090741402480A029956
 94
        0
1001
ACAD
1000
AcDbSavedByObjectVersion
1070
     0
1000
AcadProxyRoundTripData
1071
      505
1071
   655383
1070
     0
  0
ACAD_PROXY_OBJECT
  5
189F
102
{ACAD_REACTORS
330
188F
102
}
330
188F
100
AcDbProxyObject
 90
      499
 91
      511
 93
      460
310
4310DBDB1BDC90DA185B99D9401104090240C333333333333E3BF0000000000000FB0108901411070040501508421405064090741402480A0354
 94
        0
1001
ACAD
1000
AcDbSavedByObjectVersion
1070
     0
1000
AcadProxyRoundTripData
1071
      505
1071
   655383
1070
     0
  0
ACAD_PROXY_OBJECT
  5
1898
102
{ACAD_REACTORS
330
188F
102
}
330
188F
100
AcDbProxyObject
 90
      499
 91
      511
 93
      508
310
42D0DBDB98D95C1D1D585B0010940D028333333333333E3BF0000000000000FB0107902409070040501000000000000111010841D405064090740C02480A0340
 94
        0
1001
ACAD
1000
AcDbSavedByObjectVersion
1070
     0
1000
AcadProxyRoundTripData
1071
      505
1071
   655383
1070
     0
  0
ACAD_PROXY_OBJECT
  5
189A
102
{ACAD_REACTORS
330
188F
102
}
330
188F
100
AcDbProxyObject
 90
      499
 91
      511
 93
      420
310
41111A5B4010B409028333333333333E3BF0000000000000FB010790141107004050150841D405064090741402480A02677FFFFFDB
 94
        0
1001
ACAD
1000
AcDbSavedByObjectVersion
1070
     0
1000
AcadProxyRoundTripData
1071
      505
1071
   655383
1070
     0
  0
ACAD_PROXY_OBJECT
  5
189E
102
{ACAD_REACTORS
330
188F
102
}
330
188F
100
AcDbProxyObject
 90
      499
 91
      511
 93
      452
310
43119858D95C185D1D195C9B8010F409028333333333333E3BF0000000000000FB010790141107004050150841D405064090741402480A0350
 94
        0
1001
ACAD
1000
AcDbSavedByObjectVersion
1070
     0
1000
AcadProxyRoundTripData
1071
      505
1071
   655383
1070
     0
  0
ACAD_PROXY_OBJECT
  5
1890
102
{ACAD_REACTORS
330
188F
102
}
330
188F
100
AcDbProxyObject
 90
      499
 91
      511
 93
      396
310
41519B185D00240901404333333333333E3BF0000000000000F9010740A41107004050150841D405064090741402480A1B55
 94
        0
1001
ACAD
1000
AcDbSavedByObjectVersion
1070
     0
1000
AcadProxyRoundTripData
1071
      505
1071
   655383
1070
     0
  0
ACAD_PROXY_OBJECT
  5
1891
102
{ACAD_REACTORS
330
188F
102
}
330
188F
100
AcDbProxyObject
 90
      499
 91
      511
 93
      484
310
43919B185D15DA5D1A115919D95CC010140901404333333333333E3BF0000000000000F9010740901411070040501600405405064090741402480A1B50
 94
        0
1001
ACAD
1000
AcDbSavedByObjectVersion
1070
     0
1000
AcadProxyRoundTripData
1071
      505
1071
   655383
1070
     0
  0
ACAD_PROXY_OBJECT
  5
1892
102
{ACAD_REACTORS
330
188F
102
}
330
188F
100
AcDbProxyObject
 90
      499
 91
      511
 93
      420
310
4211DBDD5C985D590010240902404333333333333E3BF0000000000000F9010740A411070040501641D405064090741402480A1B50
 94
        0
1001
ACAD
1000
AcDbSavedByObjectVersion
1070
     0
1000
AcadProxyRoundTripData
1071
      505
1071
   655383
1070
     0
  0
ACAD_PROXY_OBJECT
  5
1893
102
{ACAD_REACTORS
330
188F
102
}
330
188F
100
AcDbProxyObject
 90
      499
 91
      511
 93
      508
310
4451DBDD5C985D5915DA5D1A115919D95CC010340902404333333333333E3BF0000000000000F9010740901411070040501600405405064090741402480A1B50
 94
        0
1001
ACAD
1000
AcDbSavedByObjectVersion
1070
     0
1000
AcadProxyRoundTripData
1071
      505
1071
   655383
1070
     0
  0
ACAD_PROXY_OBJECT
  5
189D
102
{ACAD_REACTORS
330
188F
102
}
330
188F
100
AcDbProxyObject
 90
      499
 91
      511
 93
      452
310
43131A5B995C185D1D195C9B8010E409028333333333333E3BF0000000000000FB010790141107004050750841D405064090741402483A0350
 94
        0
1001
ACAD
1000
AcDbSavedByObjectVersion
1070
     0
1000
AcadProxyRoundTripData
1071
      505
1071
   655383
1070
     0
  0
ACAD_PROXY_OBJECT
  5
1899
102
{ACAD_REACTORS
330
188F
102
}
330
188F
100
AcDbProxyObject
 90
      499
 91
      511
 93
      428
310
429499585B1A5CDD1A58C0108409028333333333333E3BF0000000000000FB01079019070040501508421405064090741402480A1B45
 94
        0
1001
ACAD
1000
AcDbSavedByObjectVersion
1070
     0
1000
AcadProxyRoundTripData
1071
      505
1071
   655383
1070
     0
  0
ACAD_PROXY_OBJECT
  5
189C
102
{ACAD_REACTORS
330
188F
102
}
330
188F
100
AcDbProxyObject
 90
      499
 91
      511
 93
      420
310
42151A1A58DAD95B8010D409028333333333333E3BF0000000000000FB010790141107004050150C41D405064090741402480A0352
 94
        0
1001
ACAD
1000
AcDbSavedByObjectVersion
1070
     0
1000
AcadProxyRoundTripData
1071
      505
1071
   655383
1070
     0
  0
XRECORD
  5
1A8D
102
{ACAD_REACTORS
330
1A83
102
}
330
1A83
100
AcDbXrecord
 90
        0
  0
XRECORD
  5
1A91
102
{ACAD_REACTORS
330
1A83
102
}
330
1A83
100
AcDbXrecord
1000
DSTYLE
1002
{
1070
   179
 70
     2
1070
   277
 70
     6
1002
}
  0
XRECORD
  5
1A8E
102
{ACAD_REACTORS
330
1A83
102
}
330
1A83
100
AcDbXrecord
  1
{6385560B-F4B1-4644-A7C2-A3E32AC3D232}
  0
XRECORD
  5
1A86
102
{ACAD_REACTORS
330
1A83
102
}
330
1A83
100
AcDbXrecord
  1

  0
XRECORD
  5
1A8C
102
{ACAD_REACTORS
330
1A83
102
}
330
1A83
100
AcDbXrecord
 90
        0
  0
XRECORD
  5
1A88
102
{ACAD_REACTORS
330
1A83
102
}
330
1A83
100
AcDbXrecord
340
61
  0
XRECORD
  5
1A8B
102
{ACAD_REACTORS
330
1A83
102
}
330
1A83
100
AcDbXrecord
 90
    10781
  0
XRECORD
  5
1A89
102
{ACAD_REACTORS
330
1A83
102
}
330
1A83
100
AcDbXrecord
340
77
  0
XRECORD
  5
1A8A
102
{ACAD_REACTORS
330
1A83
102
}
330
1A83
100
AcDbXrecord
340
6
  0
XRECORD
  5
1A90
102
{ACAD_REACTORS
330
1A83
102
}
330
1A83
100
AcDbXrecord
 40
0.0
  0
XRECORD
  5
1A94
102
{ACAD_REACTORS
330
1A83
102
}
330
1A83
100
AcDbXrecord
340
0
  0
XRECORD
  5
1A9A
102
{ACAD_REACTORS
330
1A83
102
}
330
1A83
100
AcDbXrecord
 10
0.0
 20
0.0
 30
0.0
  0
XRECORD
  5
1A96
102
{ACAD_REACTORS
330
1A83
102
}
330
1A83
100
AcDbXrecord
 10
0.0
 20
0.0
 30
0.0
  0
XRECORD
  5
1A99
102
{ACAD_REACTORS
330
1A83
102
}
330
1A83
100
AcDbXrecord
 10
0.0
 20
0.0
 30
0.0
  0
XRECORD
  5
1A97
102
{ACAD_REACTORS
330
1A83
102
}
330
1A83
100
AcDbXrecord
 10
0.0
 20
0.0
 30
0.0
  0
XRECORD
  5
1A98
102
{ACAD_REACTORS
330
1A83
102
}
330
1A83
100
AcDbXrecord
 10
0.0
 20
0.0
 30
0.0
  0
XRECORD
  5
1A95
102
{ACAD_REACTORS
330
1A83
102
}
330
1A83
100
AcDbXrecord
 10
0.0
 20
0.0
 30
0.0
  0
XRECORD
  5
1A92
102
{ACAD_REACTORS
330
1A83
102
}
330
1A83
100
AcDbXrecord
340
0
  0
XRECORD
  5
1A93
102
{ACAD_REACTORS
330
1A83
102
}
330
1A83
100
AcDbXrecord
 70
     0
  0
XRECORD
  5
1A87
102
{ACAD_REACTORS
330
1A83
102
}
330
1A83
100
AcDbXrecord
  1
Sekkei.ctb
  0
XRECORD
  5
1A84
102
{ACAD_REACTORS
330
1A83
102
}
330
1A83
100
AcDbXrecord
 90
        1
  0
XRECORD
  5
1A85
102
{ACAD_REACTORS
330
1A83
102
}
330
1A83
100
AcDbXrecord
 90
       70
  0
XRECORD
  5
1A9D
102
{ACAD_REACTORS
330
1A83
102
}
330
1A83
100
AcDbXrecord
340
0
  0
XRECORD
  5
1AA3
102
{ACAD_REACTORS
330
1A83
102
}
330
1A83
100
AcDbXrecord
 10
0.0
 20
0.0
 30
0.0
  0
XRECORD
  5
1A9F
102
{ACAD_REACTORS
330
1A83
102
}
330
1A83
100
AcDbXrecord
 10
0.0
 20
0.0
 30
0.0
  0
XRECORD
  5
1AA2
102
{ACAD_REACTORS
330
1A83
102
}
330
1A83
100
AcDbXrecord
 10
0.0
 20
0.0
 30
0.0
  0
XRECORD
  5
1AA0
102
{ACAD_REACTORS
330
1A83
102
}
330
1A83
100
AcDbXrecord
 10
0.0
 20
0.0
 30
0.0
  0
XRECORD
  5
1AA1
102
{ACAD_REACTORS
330
1A83
102
}
330
1A83
100
AcDbXrecord
 10
0.0
 20
0.0
 30
0.0
  0
XRECORD
  5
1A9E
102
{ACAD_REACTORS
330
1A83
102
}
330
1A83
100
AcDbXrecord
 10
0.0
 20
0.0
 30
0.0
  0
XRECORD
  5
1A9B
102
{ACAD_REACTORS
330
1A83
102
}
330
1A83
100
AcDbXrecord
340
0
  0
XRECORD
  5
1A9C
102
{ACAD_REACTORS
330
1A83
102
}
330
1A83
100
AcDbXrecord
 70
     0
  0
XRECORD
  5
1A8F
102
{ACAD_REACTORS
330
1A83
102
}
330
1A83
100
AcDbXrecord
  1
{E1780111-C7E0-403E-81B9-5C7E84ACE4D8}
  0
DICTIONARYVAR
  5
19F2
102
{ACAD_REACTORS
330
102
102
}
330
102
100
DictionaryVariables
280
     0
  1
1:1
  0
DICTIONARYVAR
  5
19F1
102
{ACAD_REACTORS
330
102
102
}
330
102
100
DictionaryVariables
280
     0
  1
STANDARD
  0
DICTIONARYVAR
  5
19F0
102
{ACAD_REACTORS
330
102
102
}
330
102
100
DictionaryVariables
280
     0
  1
STANDARD
  0
DICTIONARYVAR
  5
103
102
{ACAD_REACTORS
330
102
102
}
330
102
100
DictionaryVariables
280
     0
  1
1
  0
DICTIONARYVAR
  5
19F3
102
{ACAD_REACTORS
330
102
102
}
330
102
100
DictionaryVariables
280
     0
  1
0
  0
DICTIONARYVAR
  5
549
102
{ACAD_REACTORS
330
102
102
}
330
102
100
DictionaryVariables
280
     0
  1
96
  0
DICTIONARY
  5
1880
330
187F
100
AcDbDictionary
280
     1
  3
ACAD_XREC_ROUNDTRIP
360
1A5E
  3
BUMPTILE
360
1882
  3
DIFFUSETILE
360
1881
  3
OPACITYTILE
360
1885
  3
REFLECTIONTILE
360
1884
  3
REFRACTIONTILE
360
1886
  3
SPECULARTILE
360
1883
  0
DICTIONARY
  5
1878
330
1877
100
AcDbDictionary
280
     1
  3
ACAD_XREC_ROUNDTRIP
360
1A5D
  3
BUMPTILE
360
187A
  3
DIFFUSETILE
360
1879
  3
OPACITYTILE
360
187D
  3
REFLECTIONTILE
360
187C
  3
REFRACTIONTILE
360
187E
  3
SPECULARTILE
360
187B
  0
DICTIONARY
  5
1888
330
1887
100
AcDbDictionary
280
     1
  3
ACAD_XREC_ROUNDTRIP
360
1A5F
  3
BUMPTILE
360
188A
  3
DIFFUSETILE
360
1889
  3
OPACITYTILE
360
188D
  3
REFLECTIONTILE
360
188C
  3
REFRACTIONTILE
360
188E
  3
SPECULARTILE
360
188B
  0
DICTIONARY
  5
19CF
330
18A2
100
AcDbDictionary
280
     1
  3
ACAD_ROUNDTRIP_2008_TABLES
360
1A43
  3
ACAD_XREC_ROUNDTRIP
360
1A60
  0
XRECORD
  5
1A5E
102
{ACAD_REACTORS
330
1880
102
}
330
1880
100
AcDbXrecord
102
MATERIAL
148
0.0
149
0.0
149
0.0
 93
        0
 94
      127
282
     0
 72
     0
 77
     0
171
     0
175
     0
179
     0
273
     0
  0
XRECORD
  5
1882
102
{ACAD_REACTORS
330
1880
102
}
330
1880
100
AcDbXrecord
270
     1
271
     1
  0
XRECORD
  5
1881
102
{ACAD_REACTORS
330
1880
102
}
330
1880
100
AcDbXrecord
270
     1
271
     1
  0
XRECORD
  5
1885
102
{ACAD_REACTORS
330
1880
102
}
330
1880
100
AcDbXrecord
270
     1
271
     1
  0
XRECORD
  5
1884
102
{ACAD_REACTORS
330
1880
102
}
330
1880
100
AcDbXrecord
270
     1
271
     1
  0
XRECORD
  5
1886
102
{ACAD_REACTORS
330
1880
102
}
330
1880
100
AcDbXrecord
270
     1
271
     1
  0
XRECORD
  5
1883
102
{ACAD_REACTORS
330
1880
102
}
330
1880
100
AcDbXrecord
270
     1
271
     1
  0
XRECORD
  5
1A5D
102
{ACAD_REACTORS
330
1878
102
}
330
1878
100
AcDbXrecord
102
MATERIAL
148
0.0
149
0.0
149
0.0
 93
        0
 94
      127
282
     0
 72
     0
 77
     0
171
     0
175
     0
179
     0
273
     0
  0
XRECORD
  5
187A
102
{ACAD_REACTORS
330
1878
102
}
330
1878
100
AcDbXrecord
270
     1
271
     1
  0
XRECORD
  5
1879
102
{ACAD_REACTORS
330
1878
102
}
330
1878
100
AcDbXrecord
270
     1
271
     1
  0
XRECORD
  5
187D
102
{ACAD_REACTORS
330
1878
102
}
330
1878
100
AcDbXrecord
270
     1
271
     1
  0
XRECORD
  5
187C
102
{ACAD_REACTORS
330
1878
102
}
330
1878
100
AcDbXrecord
270
     1
271
     1
  0
XRECORD
  5
187E
102
{ACAD_REACTORS
330
1878
102
}
330
1878
100
AcDbXrecord
270
     1
271
     1
  0
XRECORD
  5
187B
102
{ACAD_REACTORS
330
1878
102
}
330
1878
100
AcDbXrecord
270
     1
271
     1
  0
XRECORD
  5
1A5F
102
{ACAD_REACTORS
330
1888
102
}
330
1888
100
AcDbXrecord
102
MATERIAL
148
0.0
149
0.0
149
0.0
 93
        0
 94
      127
282
     0
 72
     0
 77
     0
171
     0
175
     0
179
     0
273
     0
  0
XRECORD
  5
188A
102
{ACAD_REACTORS
330
1888
102
}
330
1888
100
AcDbXrecord
270
     1
271
     1
  0
XRECORD
  5
1889
102
{ACAD_REACTORS
330
1888
102
}
330
1888
100
AcDbXrecord
270
     1
271
     1
  0
XRECORD
  5
188D
102
{ACAD_REACTORS
330
1888
102
}
330
1888
100
AcDbXrecord
270
     1
271
     1
  0
XRECORD
  5
188C
102
{ACAD_REACTORS
330
1888
102
}
330
1888
100
AcDbXrecord
270
     1
271
     1
  0
XRECORD
  5
188E
102
{ACAD_REACTORS
330
1888
102
}
330
1888
100
AcDbXrecord
270
     1
271
     1
  0
XRECORD
  5
188B
102
{ACAD_REACTORS
330
1888
102
}
330
1888
100
AcDbXrecord
270
     1
271
     1
  0
ACAD_PROXY_OBJECT
  5
1A43
102
{ACAD_REACTORS
330
19CF
102
}
330
19CF
100
AcDbProxyObject
 90
      499
 91
      511
 93
     5304
310
40D054060020000020000003200101A000080002A5058000000C100000000000000340FD012E07A17AD46E2B8FCB81E85EB51B8AE3F2E07A17AD46E2B8FCB81E85EB51B8AE3F02B5E8DC0F42B1CFC0AD7A3703D0AC73F419019018000000C1003FBFFFFFE02B5E8DC0F42A9CFD029018000000C1003FBFFFFFE02B5E8DC0F4
310
2A9CFD049018000000C1003FBFFFFFE02B5E8DC0F42A9CFD089018000000C1003FBFFFFFE02B5E8DC0F42A9CFD109018000000C1003FBFFFFFE02B5E8DC0F42A9CFD209018000000C1003FBFFFFFE02B5E8DC0F42A9CFD01405075F5449544C450041501A8000000C800406800020000A9416000000304000AD7A3703D0AC7
310
3F404B81E85EB51B8AE3F2E07A17AD46E2B8FCB81E85EB51B8AE3F2E07A17AD46E2B8FC0AD7A3703D0AC73F02B5E8DC0F42B1CFD0640640600000030400FEFFFFFF80AD7A3703D0AA73F40A40600000030400FEFFFFFF80AD7A3703D0AA73F41240600000030400FEFFFFFF80AD7A3703D0AA73F42240600000030400FEFFF
310
FFF80AD7A3703D0AA73F44240600000030400FEFFFFFF80AD7A3703D0AA73F48240600000030400FEFFFFFF80AD7A3703D0AA73F409014217D2115051115480105406A0000003200101A000080002A5028000000C10002B5E8DC0F42B1CFD012E07A17AD46E2B8FCB81E85EB51B8AE3F2E07A17AD46E2B8FCB81E85EB51B8A
310
E3F02B5E8DC0F42B1CFC0AD7A3703D0AC73F419019018000000C1003FBFFFFFE02B5E8DC0F42A9CFD029018000000C1003FBFFFFFE02B5E8DC0F42A9CFD049018000000C1003FBFFFFFE02B5E8DC0F42A9CFD089018000000C1003FBFFFFFE02B5E8DC0F42A9CFD109018000000C1003FBFFFFFE02B5E8DC0F42A9CFD20901
310
8000000C1003FBFFFFFE02B5E8DC0F42A9CFD03409065F444154410000
340
16
340
0
340
0
340
0
340
0
340
0
340
0
340
16
340
0
340
0
340
0
340
0
340
0
340
0
340
16
340
0
340
0
340
0
340
0
340
0
340
0
 94
        0
1001
ACAD
1000
AcadProxyRoundTripData
1071
      510
1071
   655383
1070
     0
  0
XRECORD
  5
1A60
102
{ACAD_REACTORS
330
19CF
102
}
330
19CF
100
AcDbXrecord
102
ACAD_ROUNDTRIP_PRE2007_TABLESTYLE
 90
      512
 91
        0
  1

 92
      512
 93
        0
  2

 94
      512
 95
        0
  3

  0
ENDSEC
  0
EOF
