  0
SECTION
  2
HEADER
  9
$ACADVER
  1
AC1014
  9
$ACADMAINTVER
 70
     9
  9
$DWGCODEPAGE
  3
ANSI_932
  9
$INSBASE
 10
0.0
 20
0.0
 30
0.0
  9
$EXTMIN
 10
39.19537502152241
 20
101.8187505427512
 30
0.0
  9
$EXTMAX
 10
1399.037927247211
 20
930.1017254160303
 30
0.0
  9
$LIMMIN
 10
0.0
 20
0.0
  9
$LIMMAX
 10
297.0
 20
210.0
  9
$ORTHOMODE
 70
     0
  9
$REGENMODE
 70
     1
  9
$FILLMODE
 70
     1
  9
$QTEXTMODE
 70
     0
  9
$MIRRTEXT
 70
     0
  9
$DRAGMODE
 70
     2
  9
$LTSCALE
 40
4.0
  9
$OSMODE
 70
    37
  9
$ATTMODE
 70
     1
  9
$TEXTSIZE
 40
2.0
  9
$TRACEWID
 40
1.0
  9
$TEXTSTYLE
  7
STANDARD
  9
$CLAYER
  8
0
  9
$CELTYPE
  6
BYLAYER
  9
$CECOLOR
 62
   256
  9
$CELTSCALE
 40
1.0
  9
$DELOBJ
 70
     1
  9
$DISPSILH
 70
     0
  9
$DIMSCALE
 40
4.0
  9
$DIMASZ
 40
1.8
  9
$DIMEXO
 40
0.625
  9
$DIMDLI
 40
3.75
  9
$DIMRND
 40
0.0
  9
$DIMDLE
 40
0.0
  9
$DIMEXE
 40
0.8
  9
$DIMTP
 40
0.0
  9
$DIMTM
 40
0.0
  9
$DIMTXT
 40
1.8
  9
$DIMCEN
 40
2.5
  9
$DIMTSZ
 40
0.0
  9
$DIMTOL
 70
     0
  9
$DIMLIM
 70
     0
  9
$DIMTIH
 70
     0
  9
$DIMTOH
 70
     0
  9
$DIMSE1
 70
     0
  9
$DIMSE2
 70
     0
  9
$DIMTAD
 70
     1
  9
$DIMZIN
 70
     8
  9
$DIMBLK
  1

  9
$DIMASO
 70
     1
  9
$DIMSHO
 70
     1
  9
$DIMPOST
  1

  9
$DIMAPOST
  1

  9
$DIMALT
 70
     0
  9
$DIMALTD
 70
     4
  9
$DIMALTF
 40
0.0394
  9
$DIMLFAC
 40
1.0
  9
$DIMTOFL
 70
     1
  9
$DIMTVP
 40
0.0
  9
$DIMTIX
 70
     0
  9
$DIMSOXD
 70
     0
  9
$DIMSAH
 70
     0
  9
$DIMBLK1
  1

  9
$DIMBLK2
  1

  9
$DIMSTYLE
  2
STANDARD
  9
$DIMCLRD
 70
     0
  9
$DIMCLRE
 70
     0
  9
$DIMCLRT
 70
     0
  9
$DIMTFAC
 40
1.0
  9
$DIMGAP
 40
0.75
  9
$DIMJUST
 70
     0
  9
$DIMSD1
 70
     0
  9
$DIMSD2
 70
     0
  9
$DIMTOLJ
 70
     1
  9
$DIMTZIN
 70
     0
  9
$DIMALTZ
 70
     0
  9
$DIMALTTZ
 70
     0
  9
$DIMFIT
 70
     3
  9
$DIMUPT
 70
     0
  9
$DIMUNIT
 70
     8
  9
$DIMDEC
 70
     2
  9
$DIMTDEC
 70
     2
  9
$DIMALTU
 70
     8
  9
$DIMALTTD
 70
     4
  9
$DIMTXSTY
  7
STANDARD
  9
$DIMAUNIT
 70
     0
  9
$LUNITS
 70
     2
  9
$LUPREC
 70
     3
  9
$SKETCHINC
 40
1.0
  9
$FILLETRAD
 40
0.0
  9
$AUNITS
 70
     0
  9
$AUPREC
 70
     2
  9
$MENU
  1
.
  9
$ELEVATION
 40
0.0
  9
$PELEVATION
 40
0.0
  9
$THICKNESS
 40
0.0
  9
$LIMCHECK
 70
     0
  9
$BLIPMODE
 70
     0
  9
$CHAMFERA
 40
0.0
  9
$CHAMFERB
 40
0.0
  9
$CHAMFERC
 40
20.0
  9
$CHAMFERD
 40
0.0
  9
$SKPOLY
 70
     0
  9
$TDCREATE
 40
2454413.473154467
  9
$TDUPDATE
 40
2454424.604135740
  9
$TDINDWG
 40
0.0081696759
  9
$TDUSRTIMER
 40
0.0081696759
  9
$USRTIMER
 70
     1
  9
$ANGBASE
 50
0.0
  9
$ANGDIR
 70
     0
  9
$PDMODE
 70
     0
  9
$PDSIZE
 40
-10.0
  9
$PLINEWID
 40
0.0
  9
$COORDS
 70
     0
  9
$SPLFRAME
 70
     0
  9
$SPLINETYPE
 70
     6
  9
$SPLINESEGS
 70
     8
  9
$ATTDIA
 70
     0
  9
$ATTREQ
 70
     1
  9
$HANDLING
 70
-16383
  9
$HANDSEED
  5
1A83
  9
$SURFTAB1
 70
     6
  9
$SURFTAB2
 70
     6
  9
$SURFTYPE
 70
     6
  9
$SURFU
 70
     6
  9
$SURFV
 70
     6
  9
$UCSNAME
  2

  9
$UCSORG
 10
0.0
 20
0.0
 30
0.0
  9
$UCSXDIR
 10
1.0
 20
0.0
 30
0.0
  9
$UCSYDIR
 10
0.0
 20
1.0
 30
0.0
  9
$PUCSNAME
  2

  9
$PUCSORG
 10
0.0
 20
0.0
 30
0.0
  9
$PUCSXDIR
 10
1.0
 20
0.0
 30
0.0
  9
$PUCSYDIR
 10
0.0
 20
1.0
 30
0.0
  9
$USERI1
 70
     0
  9
$USERI2
 70
     0
  9
$USERI3
 70
     0
  9
$USERI4
 70
     0
  9
$USERI5
 70
     0
  9
$USERR1
 40
0.0
  9
$USERR2
 40
0.0
  9
$USERR3
 40
0.0
  9
$USERR4
 40
0.0
  9
$USERR5
 40
0.0
  9
$WORLDVIEW
 70
     1
  9
$SHADEDGE
 70
     3
  9
$SHADEDIF
 70
    70
  9
$TILEMODE
 70
     1
  9
$MAXACTVP
 70
    48
  9
$PINSBASE
 10
0.0
 20
0.0
 30
0.0
  9
$PLIMCHECK
 70
     0
  9
$PEXTMIN
 10
0.0
 20
0.0
 30
0.0
  9
$PEXTMAX
 10
0.0
 20
0.0
 30
0.0
  9
$PLIMMIN
 10
0.0
 20
0.0
  9
$PLIMMAX
 10
12.0
 20
9.0
  9
$UNITMODE
 70
     0
  9
$VISRETAIN
 70
     1
  9
$PLINEGEN
 70
     0
  9
$PSLTSCALE
 70
     1
  9
$TREEDEPTH
 70
  3020
  9
$PICKSTYLE
 70
     1
  9
$CMLSTYLE
  2
STANDARD
  9
$CMLJUST
 70
     0
  9
$CMLSCALE
 40
1.0
  9
$PROXYGRAPHICS
 70
     1
  9
$MEASUREMENT
 70
     0
  0
ENDSEC
  0
SECTION
  2
CLASSES
  0
CLASS
  1
DICTIONARYVAR
  2
AcDbDictionaryVar
  3
AutoCAD 2000
 90
        0
280
     0
281
     0
  0
CLASS
  1
ACDBDICTIONARYWDFLT
  2
AcDbDictionaryWithDefault
  3
AutoCAD 2000
 90
        0
280
     0
281
     0
  0
CLASS
  1
ACDBPLACEHOLDER
  2
AcDbPlaceHolder
  3
AutoCAD 2000
 90
        0
280
     0
281
     0
  0
CLASS
  1
LAYOUT
  2
AcDbLayout
  3
AutoCAD 2000
 90
        0
280
     0
281
     0
  0
CLASS
  1
MATERIAL
  2
AcDbMaterial
  3
ObjectDBX Classes
 90
     1153
280
     0
281
     0
  0
CLASS
  1
VISUALSTYLE
  2
AcDbVisualStyle
  3
ObjectDBX Classes
 90
     4095
280
     0
281
     0
  0
CLASS
  1
TABLESTYLE
  2
AcDbTableStyle
  3
ObjectDBX Classes
 90
     4095
280
     0
281
     0
  0
CLASS
  1
SCALE
  2
AcDbScale
  3
ObjectDBX Classes
 90
     1153
280
     0
281
     0
  0
CLASS
  1
MLEADERSTYLE
  2
AcDbMLeaderStyle
  3
ACDB_MLEADERSTYLE_CLASS
 90
     4095
280
     0
281
     0
  0
CLASS
  1
SORTENTSTABLE
  2
AcDbSortentsTable
  3
AutoCAD 2000
 90
        0
280
     0
281
     0
  0
CLASS
  1
CELLSTYLEMAP
  2
AcDbCellStyleMap
  3
ObjectDBX Classes
 90
     1152
280
     0
281
     0
  0
CLASS
  1
ACAD_PROXY_OBJECT_WRAPPER
  2
AcDbProxyObjectWrapper
  3
AutoCAD 2000
 90
        0
280
     0
281
     0
  0
CLASS
  1
LONG_TRANSACTION
  2
AcDbLongTransaction
  3
AutoCAD 2000
 90
        0
280
     0
281
     0
  0
CLASS
  1
LWPOLYLINE
  2
AcDbPolyline
  3
AutoCAD 2000
 90
        0
280
     0
281
     1
  0
CLASS
  1
HATCH
  2
AcDbHatch
  3
AutoCAD 2000
 90
        0
280
     0
281
     1
  0
CLASS
  1
XRECORD
  2
AcDbXrecord
  3
AutoCAD 2000
 90
        0
280
     0
281
     0
  0
ENDSEC
  0
SECTION
  2
TABLES
  0
TABLE
  2
VPORT
  5
6E
102
{ACAD_XDICTIONARY
360
19B5
102
}
330
0
100
AcDbSymbolTable
 70
     2
  0
VPORT
  5
1A5D
330
6E
100
AcDbSymbolTableRecord
100
AcDbViewportTableRecord
  2
*ACTIVE
 70
     0
 10
0.0
 20
0.0
 11
1.0
 21
1.0
 12
807.7398770067196
 22
497.6575082818972
 13
0.0
 23
0.0
 14
10.0
 24
10.0
 15
10.0
 25
10.0
 16
0.0
 26
0.0
 36
1.0
 17
0.0
 27
0.0
 37
0.0
 40
880.503225002
 41
1.753504672897196
 42
50.0
 43
0.0
 44
0.0
 50
0.0
 51
0.0
 71
     0
 72
   100
 73
     1
 74
     3
 75
     0
 76
     0
 77
     0
 78
     0
  0
ENDTAB
  0
TABLE
  2
LTYPE
  5
69
330
0
100
AcDbSymbolTable
 70
     6
  0
LTYPE
  5
6A
330
69
100
AcDbSymbolTableRecord
100
AcDbLinetypeTableRecord
  2
BYBLOCK
 70
     0
  3

 72
    65
 73
     0
 40
0.0
  0
LTYPE
  5
6B
330
69
100
AcDbSymbolTableRecord
100
AcDbLinetypeTableRecord
  2
BYLAYER
 70
     0
  3

 72
    65
 73
     0
 40
0.0
  0
LTYPE
  5
8
330
69
100
AcDbSymbolTableRecord
100
AcDbLinetypeTableRecord
  2
CONTINUOUS
 70
     0
  3
Solid line
 72
    65
 73
     0
 40
0.0
  0
LTYPE
  5
27C
330
69
100
AcDbSymbolTableRecord
100
AcDbLinetypeTableRecord
  2
SEKKEI_A2_
 70
     0
  3
center(A2)  ____ _ ____ _ ____ _ ____ _ ____ _ 
 72
    65
 73
     4
 40
14.28749999999999
 49
9.525
 74
     0
 49
-1.587499999999999
 74
     0
 49
1.587499999999999
 74
     0
 49
-1.587499999999999
 74
     0
  0
LTYPE
  5
7EF
330
69
100
AcDbSymbolTableRecord
100
AcDbLinetypeTableRecord
  2
PHANTOM3
 70
     0
  3
Phantom  ___ _ _ ___ _ _ ___ _ _ ___ _ _
 72
    65
 73
     6
 40
9.0
 49
4.0
 74
     0
 49
-1.0
 74
     0
 49
1.0
 74
     0
 49
-1.0
 74
     0
 49
1.0
 74
     0
 49
-1.0
 74
     0
  0
LTYPE
  5
7F0
330
69
100
AcDbSymbolTableRecord
100
AcDbLinetypeTableRecord
  2
HIDDEN3
 70
     0
  3
Hidden (.3x) _ _ _ _ _ _ _ _ _ _ _ _ _ _ _ _ _
 72
    65
 73
     2
 40
2.857499999999999
 49
1.905
 74
     0
 49
-0.9525
 74
     0
  0
LTYPE
  5
B18
330
69
100
AcDbSymbolTableRecord
100
AcDbLinetypeTableRecord
  2
CENS
 70
     0
  3
(一点鎖線１)---- - ---- - ---- - ---- - ---- - 
 72
    65
 73
     4
 40
7.0
 49
4.0
 74
     0
 49
-1.0
 74
     0
 49
1.0
 74
     0
 49
-1.0
 74
     0
  0
ENDTAB
  0
TABLE
  2
LAYER
  5
66
102
{ACAD_XDICTIONARY
360
B19
102
}
330
0
100
AcDbSymbolTable
 70
    10
  0
LAYER
  5
5E
102
{ACAD_XDICTIONARY
360
1998
102
}
330
66
100
AcDbSymbolTableRecord
100
AcDbLayerTableRecord
  2
0
 70
     0
 62
     7
  6
CONTINUOUS
  0
LAYER
  5
3E
102
{ACAD_XDICTIONARY
360
199A
102
}
330
66
100
AcDbSymbolTableRecord
100
AcDbLayerTableRecord
  2
CENTER
 70
     0
 62
     3
  6
SEKKEI_A2_
  0
LAYER
  5
2B5
102
{ACAD_XDICTIONARY
360
19A0
102
}
330
66
100
AcDbSymbolTableRecord
100
AcDbLayerTableRecord
  2
HIDS
 70
     0
 62
     1
  6
HIDDEN3
  0
LAYER
  5
2BA
102
{ACAD_XDICTIONARY
360
19A2
102
}
330
66
100
AcDbSymbolTableRecord
100
AcDbLayerTableRecord
  2
HOJO
 70
     0
 62
     4
  6
CONTINUOUS
  0
LAYER
  5
3FA
102
{ACAD_XDICTIONARY
360
19A6
102
}
330
66
100
AcDbSymbolTableRecord
100
AcDbLayerTableRecord
  2
TITLE
 70
     0
 62
     4
  6
CONTINUOUS
  0
LAYER
  5
478
102
{ACAD_XDICTIONARY
360
19A8
102
}
330
66
100
AcDbSymbolTableRecord
100
AcDbLayerTableRecord
  2
PHAS
 70
     0
 62
     2
  6
PHANTOM3
  0
ENDTAB
  0
TABLE
  2
STYLE
  5
67
330
0
100
AcDbSymbolTable
 70
     2
  0
STYLE
  5
16
330
67
100
AcDbSymbolTableRecord
100
AcDbTextStyleTableRecord
  2
STANDARD
 70
     0
 40
0.0
 41
1.0
 50
0.0
 71
     0
 42
2.0
  3
simplex.shx
  4
extfont.shx
  0
ENDTAB
  0
TABLE
  2
VIEW
  5
6C
330
0
100
AcDbSymbolTable
 70
     0
  0
ENDTAB
  0
TABLE
  2
UCS
  5
6D
330
0
100
AcDbSymbolTable
 70
     0
  0
ENDTAB
  0
TABLE
  2
APPID
  5
70
330
0
100
AcDbSymbolTable
 70
     2
  0
APPID
  5
71
330
70
100
AcDbSymbolTableRecord
100
AcDbRegAppTableRecord
  2
ACAD
 70
     0
  0
APPID
  5
18C7
330
70
100
AcDbSymbolTableRecord
100
AcDbRegAppTableRecord
  2
ACAD_MLEADERVER
 70
     0
  0
ENDTAB
  0
TABLE
  2
DIMSTYLE
  5
72
330
0
100
AcDbSymbolTable
 70
     1
  0
DIMSTYLE
105
73
330
72
100
AcDbSymbolTableRecord
100
AcDbDimStyleTableRecord
  2
STANDARD
 70
     0
  3

  4

  5

  6

  7

 40
4.0
 41
1.8
 42
0.625
 43
3.75
 44
0.8
 45
0.0
 46
0.0
 47
0.0
 48
0.0
140
1.8
141
2.5
142
0.0
143
0.0394
144
1.0
145
0.0
146
1.0
147
0.75
 71
     0
 72
     0
 73
     0
 74
     0
 75
     0
 76
     0
 77
     1
 78
     8
170
     0
171
     4
172
     1
173
     0
174
     0
175
     0
176
     0
177
     0
178
     0
270
     8
271
     2
272
     2
273
     8
274
     4
340
16
275
     0
280
     0
281
     0
282
     0
283
     1
284
     0
285
     0
286
     0
287
     3
288
     0
  0
ENDTAB
  0
TABLE
  2
BLOCK_RECORD
  5
1
330
0
100
AcDbSymbolTable
 70
    55
  0
BLOCK_RECORD
  5
2
102
{ACAD_XDICTIONARY
360
1A7F
102
}
330
1
100
AcDbSymbolTableRecord
100
AcDbBlockTableRecord
  2
*MODEL_SPACE
  0
BLOCK_RECORD
  5
1A58
102
{ACAD_XDICTIONARY
360
1A81
102
}
330
1
100
AcDbSymbolTableRecord
100
AcDbBlockTableRecord
  2
*PAPER_SPACE
  0
ENDTAB
  0
ENDSEC
  0
SECTION
  2
BLOCKS
  0
BLOCK
  5
5D
330
2
100
AcDbEntity
  8
0
100
AcDbBlockBegin
  2
*MODEL_SPACE
 70
     0
 10
0.0
 20
0.0
 30
0.0
  3
*MODEL_SPACE
  1

  0
ENDBLK
  5
5F
330
2
100
AcDbEntity
  8
0
100
AcDbBlockEnd
  0
BLOCK
  5
1A5A
330
1A58
100
AcDbEntity
 67
     1
  8
0
100
AcDbBlockBegin
  2
*PAPER_SPACE
 70
     0
 10
0.0
 20
0.0
 30
0.0
  3
*PAPER_SPACE
  1

  0
ENDBLK
  5
1A5B
330
1A58
100
AcDbEntity
 67
     1
  8
0
100
AcDbBlockEnd
  0
ENDSEC
  0
SECTION
  2
ENTITIES
  0
TEXT
  5
FB1
330
2
100
AcDbEntity
  8
TITLE
100
AcDbText
 10
413.0827836356801
 20
837.3743588602762
 30
0.0
 40
10.0
  1
AFCZ32S-40~60M750S3
100
AcDbText
  0
TEXT
  5
FB2
330
2
100
AcDbEntity
  8
TITLE
100
AcDbText
 10
413.0827836356801
 20
822.3743588602761
 30
0.0
 40
10.0
  1
AFCZ32S-40~60L750S3
100
AcDbText
  0
LINE
  5
FB3
330
2
100
AcDbEntity
  8
CENTER
100
AcDbLine
 10
1315.037923918401
 20
593.2106668710562
 30
0.0
 11
1315.037923918401
 21
428.8390013519907
 31
0.0
  0
LINE
  5
FB4
330
2
100
AcDbEntity
  8
0
100
AcDbLine
 10
1243.037927247212
 20
552.5934565619954
 30
0.0
 11
1243.037927247212
 21
469.4562116612233
 31
0.0
  0
LINE
  5
FB5
330
2
100
AcDbEntity
  8
0
100
AcDbLine
 10
1257.037927247211
 20
571.0248341115239
 30
0.0
 11
1257.037927247211
 21
451.0248341115239
 31
0.0
  0
LINE
  5
FB6
330
2
100
AcDbEntity
  8
CENTER
100
AcDbLine
 10
1399.037927247211
 20
511.0248341116094
 30
0.0
 11
1215.037927247212
 21
511.0248341116094
 31
0.0
  0
LINE
  5
FB7
330
2
100
AcDbEntity
  8
0
100
AcDbLine
 10
1351.037923918401
 20
578.5248341115239
 30
0.0
 11
1262.037927247211
 21
577.7481429071959
 31
0.0
  0
LINE
  5
FB8
330
2
100
AcDbEntity
  8
0
100
AcDbLine
 10
1262.037927247211
 20
571.0248341115239
 30
0.0
 11
1257.037927247211
 21
571.0248341115239
 31
0.0
  0
LINE
  5
FB9
330
2
100
AcDbEntity
  8
0
100
AcDbLine
 10
1262.037927247211
 20
444.3015253158501
 30
0.0
 11
1351.037923918401
 21
443.5248341115239
 31
0.0
  0
LINE
  5
FBA
330
2
100
AcDbEntity
  8
0
100
AcDbLine
 10
1262.037927247211
 20
451.0248341115239
 30
0.0
 11
1257.037927247211
 21
451.0248341115239
 31
0.0
  0
LINE
  5
FBB
330
2
100
AcDbEntity
  8
0
100
AcDbLine
 10
1264.037927247295
 20
462.7710574353169
 30
0.0
 11
1264.037927247211
 21
559.2786107877237
 31
0.0
  0
LINE
  5
FBC
330
2
100
AcDbEntity
  8
0
100
AcDbLine
 10
1351.037923918401
 20
578.5248341115239
 30
0.0
 11
1351.037923918401
 21
562.1718895501235
 31
0.0
  0
LINE
  5
FBD
330
2
100
AcDbEntity
  8
0
100
AcDbLine
 10
1351.037923918401
 20
459.8777786730953
 30
0.0
 11
1351.037923918401
 21
443.5248341115239
 31
0.0
  0
LINE
  5
FBE
330
2
100
AcDbEntity
  8
0
100
AcDbLine
 10
1262.037927247211
 20
444.3015253158501
 30
0.0
 11
1262.037927247211
 21
577.7481429071959
 31
0.0
  0
LINE
  5
FBF
330
2
100
AcDbEntity
  8
0
100
AcDbLine
 10
1315.037923918401
 20
562.5248292728501
 30
0.0
 11
1358.116352480831
 21
562.1024934775086
 31
0.0
  0
ARC
  5
FC0
330
2
100
AcDbEntity
  8
0
100
AcDbCircle
 10
1358.037925200308
 20
554.1028779141416
 30
0.0
 40
8.0
100
AcDbArc
 50
0.0324355144522694
 51
89.438296980908
  0
LINE
  5
FC1
330
2
100
AcDbEntity
  8
0
100
AcDbLine
 10
1315.037923918401
 20
562.5248292728501
 30
0.0
 11
1271.95949535597
 21
562.1024934775086
 31
0.0
  0
ARC
  5
FC2
330
2
100
AcDbEntity
  8
0
100
AcDbCircle
 10
1272.037922636495
 20
554.1028779141416
 30
0.0
 40
8.0
100
AcDbArc
 50
90.56170301909203
 51
180.0
  0
LINE
  5
FC3
330
2
100
AcDbEntity
  8
0
100
AcDbLine
 10
1315.037923918401
 20
459.5248389503686
 30
0.0
 11
1271.95949535597
 21
459.94717474571
 31
0.0
  0
LINE
  5
FC4
330
2
100
AcDbEntity
  8
0
100
AcDbLine
 10
1315.037923918401
 20
459.5248389503686
 30
0.0
 11
1358.116352480831
 21
459.94717474571
 31
0.0
  0
ARC
  5
FC5
330
2
100
AcDbEntity
  8
0
100
AcDbCircle
 10
1272.037922636495
 20
467.946790309079
 30
0.0
 40
8.0
100
AcDbArc
 50
180.0
 51
269.4382969809079
  0
ARC
  5
FC6
330
2
100
AcDbEntity
  8
0
100
AcDbCircle
 10
1358.037925200308
 20
467.946790309079
 30
0.0
 40
8.0
100
AcDbArc
 50
270.5617030190919
 51
359.9675644788776
  0
LINE
  5
FC7
330
2
100
AcDbEntity
  8
0
100
AcDbLine
 10
1268.546052602988
 20
561.3005750228767
 30
0.0
 11
1266.020474176214
 21
561.2785346338514
 31
0.0
  0
LINE
  5
FC8
330
2
100
AcDbEntity
  8
0
100
AcDbLine
 10
1244.968128253806
 20
554.5922382160333
 30
0.0
 11
1255.107726240617
 21
554.9463207800709
 31
0.0
  0
LINE
  5
FC9
330
2
100
AcDbEntity
  8
0
100
AcDbLine
 10
1244.968128253806
 20
467.4574300071854
 30
0.0
 11
1255.107726240617
 21
467.1033474431497
 31
0.0
  0
ARC
  5
FCA
330
2
100
AcDbEntity
  8
0
100
AcDbCircle
 10
1255.037927247212
 20
465.1045657891118
 30
0.0
 40
2.0
100
AcDbArc
 50
0.0
 51
87.99999999999636
  0
ARC
  5
FCB
330
2
100
AcDbEntity
  8
0
100
AcDbCircle
 10
1255.037927247212
 20
556.9451024341088
 30
0.0
 40
2.0
100
AcDbArc
 50
272.0000000000036
 51
0.0
  0
ARC
  5
FCC
330
2
100
AcDbEntity
  8
0
100
AcDbCircle
 10
1245.037927247212
 20
552.5934565619954
 30
0.0
 40
2.0
100
AcDbArc
 50
92.00000000000365
 51
180.0
  0
ARC
  5
FCD
330
2
100
AcDbEntity
  8
0
100
AcDbCircle
 10
1245.037927247212
 20
469.4562116612233
 30
0.0
 40
2.0
100
AcDbArc
 50
180.0
 51
267.9999999999963
  0
ARC
  5
FCE
330
2
100
AcDbEntity
  8
0
100
AcDbCircle
 10
1266.037927247211
 20
559.2786107877237
 30
0.0
 40
2.0
100
AcDbArc
 50
90.49999999996549
 51
180.0
  0
ARC
  5
FCF
330
2
100
AcDbEntity
  8
0
100
AcDbCircle
 10
1266.037927247295
 20
462.7710574353205
 30
0.0
 40
2.0
100
AcDbArc
 50
180.0000000001042
 51
269.5000000000866
  0
LINE
  5
FD0
330
2
100
AcDbEntity
  8
0
100
AcDbLine
 10
1268.546047377004
 20
460.7490932457785
 30
0.0
 11
1266.020474176301
 21
460.7711335891927
 31
0.0
  0
ARC
  5
FD1
330
2
100
AcDbEntity
  8
0
100
AcDbCircle
 10
1369.537923918401
 20
576.3633109007096
 30
0.0
 40
2.0
100
AcDbArc
 50
0.0
 51
89.49999999998238
  0
LINE
  5
FD2
330
2
100
AcDbEntity
  8
0
100
AcDbLine
 10
1372.123710356027
 20
565.4390476739827
 30
0.0
 11
1372.952137480774
 21
564.6106205492379
 31
0.0
  0
LINE
  5
FD3
330
2
100
AcDbEntity
  8
0
100
AcDbLine
 10
1382.037923918401
 20
552.9474838424193
 30
0.0
 11
1382.037923918401
 21
469.1021843807976
 31
0.0
  0
LINE
  5
FD4
330
2
100
AcDbEntity
  8
0
100
AcDbLine
 10
1373.537923918401
 20
556.0248341116094
 30
0.0
 11
1374.037923918401
 21
555.5248341116094
 31
0.0
  0
LINE
  5
FD5
330
2
100
AcDbEntity
  8
0
100
AcDbLine
 10
1377.537923918401
 20
553.3248341116104
 30
0.0
 11
1377.337923918402
 21
553.5248341116093
 31
0.0
  0
LINE
  5
FD6
330
2
100
AcDbEntity
  8
0
100
AcDbLine
 10
1379.337923918402
 20
552.8248341116104
 30
0.0
 11
1377.737923918401
 21
552.8248341116104
 31
0.0
  0
LINE
  5
FD7
330
2
100
AcDbEntity
  8
0
100
AcDbLine
 10
1381.037923918401
 20
553.5248341116093
 30
0.0
 11
1382.037923918401
 21
552.9474838424212
 31
0.0
  0
LINE
  5
FD8
330
2
100
AcDbEntity
  8
0
100
AcDbLine
 10
1381.037923918401
 20
553.5248341116093
 30
0.0
 11
1379.737923918401
 21
553.5248341116093
 31
0.0
  0
LINE
  5
FD9
330
2
100
AcDbEntity
  8
0
100
AcDbLine
 10
1377.337923918402
 20
553.5248341116093
 30
0.0
 11
1374.037923918401
 21
553.5248341116093
 31
0.0
  0
LINE
  5
FDA
330
2
100
AcDbEntity
  8
0
100
AcDbLine
 10
1373.537923918406
 20
458.8532612363561
 30
0.0
 11
1373.537923918394
 21
563.1964069868645
 31
0.0
  0
LINE
  5
FDB
330
2
100
AcDbEntity
  8
0
100
AcDbLine
 10
1373.537923918404
 20
466.0248341116094
 30
0.0
 11
1374.037923918405
 21
466.5248341116094
 31
0.0
  0
LINE
  5
FDC
330
2
100
AcDbEntity
  8
0
100
AcDbLine
 10
1377.537923918405
 20
468.7248341116101
 30
0.0
 11
1377.537923918405
 21
553.3248341116068
 31
0.0
  0
LINE
  5
FDD
330
2
100
AcDbEntity
  8
0
100
AcDbLine
 10
1377.537923918405
 20
468.7248341116101
 30
0.0
 11
1377.337923918406
 21
468.5248341116094
 31
0.0
  0
LINE
  5
FDE
330
2
100
AcDbEntity
  8
0
100
AcDbLine
 10
1379.537923918404
 20
468.7248341116101
 30
0.0
 11
1379.53792391847
 21
553.3248341116104
 31
0.0
  0
LINE
  5
FDF
330
2
100
AcDbEntity
  8
0
100
AcDbLine
 10
1381.037923918404
 20
468.5248341116094
 30
0.0
 11
1379.737923918405
 21
468.5248341116094
 31
0.0
  0
LINE
  5
FE0
330
2
100
AcDbEntity
  8
0
100
AcDbLine
 10
1379.337923918406
 20
469.2248341116101
 30
0.0
 11
1377.737923918405
 21
469.2248341116101
 31
0.0
  0
LINE
  5
FE1
330
2
100
AcDbEntity
  8
0
100
AcDbLine
 10
1381.037923918404
 20
468.5248341116094
 30
0.0
 11
1382.037923918405
 21
469.1021843807994
 31
0.0
  0
LINE
  5
FE2
330
2
100
AcDbEntity
  8
0
100
AcDbLine
 10
1374.037923918405
 20
466.5248341116094
 30
0.0
 11
1374.037923918405
 21
555.5248341116057
 31
0.0
  0
LINE
  5
FE3
330
2
100
AcDbEntity
  8
0
100
AcDbLine
 10
1377.337923918406
 20
468.5248341116094
 30
0.0
 11
1374.037923918405
 21
468.5248341116094
 31
0.0
  0
LINE
  5
FE4
330
2
100
AcDbEntity
  8
0
100
AcDbLine
 10
1371.537923918406
 20
445.686357322511
 30
0.0
 11
1371.537923918406
 21
576.3633109007096
 31
0.0
  0
LINE
  5
FE5
330
2
100
AcDbEntity
  8
0
100
AcDbLine
 10
1372.123710356033
 20
456.6106205492361
 30
0.0
 11
1372.95213748078
 21
457.4390476739828
 31
0.0
  0
LINE
  5
FE6
330
2
100
AcDbEntity
  8
0
100
AcDbLine
 10
1369.555376989398
 20
578.3632347468373
 30
0.0
 11
1351.037923918401
 21
578.5248341116093
 31
0.0
  0
ARC
  5
FE7
330
2
100
AcDbEntity
  8
0
100
AcDbCircle
 10
1371.537923918406
 20
458.8532612363561
 30
0.0
 40
2.0
100
AcDbArc
 50
314.9999999999913
 51
0.0
  0
ARC
  5
FE8
330
2
100
AcDbEntity
  8
0
100
AcDbCircle
 10
1373.537923918406
 20
455.1964069868628
 30
0.0
 40
2.0
100
AcDbArc
 50
134.9999999999913
 51
180.0
  0
ARC
  5
FE9
330
2
100
AcDbEntity
  8
0
100
AcDbCircle
 10
1371.537923918401
 20
563.1964069868645
 30
0.0
 40
2.0
100
AcDbArc
 50
0.0
 51
45.00000000000865
  0
ARC
  5
FEA
330
2
100
AcDbEntity
  8
0
100
AcDbCircle
 10
1373.537923918401
 20
566.853261236356
 30
0.0
 40
2.0
100
AcDbArc
 50
180.0
 51
225.0000000000086
  0
ARC
  5
FEB
330
2
100
AcDbEntity
  8
0
100
AcDbCircle
 10
1379.737923918401
 20
553.3248341116104
 30
0.0
 40
0.2
100
AcDbArc
 50
90.0
 51
180.0
  0
ARC
  5
FEC
330
2
100
AcDbEntity
  8
0
100
AcDbCircle
 10
1379.337923918402
 20
553.0248341116093
 30
0.0
 40
0.2
100
AcDbArc
 50
270.0
 51
0.0
  0
ARC
  5
FED
330
2
100
AcDbEntity
  8
0
100
AcDbCircle
 10
1377.737923918401
 20
553.0248341116093
 30
0.0
 40
0.2
100
AcDbArc
 50
180.0
 51
270.0
  0
ARC
  5
FEE
330
2
100
AcDbEntity
  8
0
100
AcDbCircle
 10
1379.737923918405
 20
468.7248341116101
 30
0.0
 40
0.2
100
AcDbArc
 50
180.0
 51
270.0
  0
ARC
  5
FEF
330
2
100
AcDbEntity
  8
0
100
AcDbCircle
 10
1379.337923918406
 20
469.0248341116094
 30
0.0
 40
0.2
100
AcDbArc
 50
0.0
 51
90.0
  0
ARC
  5
FF0
330
2
100
AcDbEntity
  8
0
100
AcDbCircle
 10
1377.737923918405
 20
469.0248341116094
 30
0.0
 40
0.2
100
AcDbArc
 50
90.0
 51
180.0
  0
LINE
  5
FF1
330
2
100
AcDbEntity
  8
0
100
AcDbLine
 10
1381.037923918401
 20
553.5248341116093
 30
0.0
 11
1381.037923918404
 21
468.5248341116094
 31
0.0
  0
ARC
  5
FF2
330
2
100
AcDbEntity
  8
0
100
AcDbCircle
 10
1369.537923918401
 20
445.686357322511
 30
0.0
 40
2.0
100
AcDbArc
 50
270.5000000000175
 51
0.0
  0
LINE
  5
FF3
330
2
100
AcDbEntity
  8
0
100
AcDbLine
 10
1369.555376989398
 20
443.6864334763813
 30
0.0
 11
1351.037923918401
 21
443.5248341116094
 31
0.0
  0
LINE
  5
FF4
330
2
100
AcDbEntity
  8
0
100
AcDbLine
 10
1366.037923918401
 20
554.098349062202
 30
0.0
 11
1366.037923918401
 21
467.9513191619444
 31
0.0
  0
ARC
  5
FF5
330
2
100
AcDbEntity
  8
0
100
AcDbCircle
 10
1364.037923918401
 20
559.9113086735597
 30
0.0
 40
2.0
100
AcDbArc
 50
17.86424478083681
 51
89.50000000000846
  0
LINE
  5
FF6
330
2
100
AcDbEntity
  8
0
100
AcDbLine
 10
1364.055376989398
 20
561.9112325196875
 30
0.0
 11
1359.593561360237
 21
561.9501701947902
 31
0.0
  0
ARC
  5
FF7
330
2
100
AcDbEntity
  8
0
100
AcDbCircle
 10
1364.037923918401
 20
462.1383595496609
 30
0.0
 40
2.0
100
AcDbArc
 50
270.4999999999915
 51
342.1357552191631
  0
LINE
  5
FF8
330
2
100
AcDbEntity
  8
0
100
AcDbLine
 10
1364.055376989398
 20
460.1384357035331
 30
0.0
 11
1359.593561360238
 21
460.0994980284304
 31
0.0
  0
LINE
  5
FF9
330
2
100
AcDbEntity
  8
CENTER
100
AcDbLine
 10
1378.682754510967
 20
554.0248341116093
 30
0.0
 11
1340.291023107383
 21
554.0248341116093
 31
0.0
  0
LINE
  5
FFA
330
2
100
AcDbEntity
  8
CENTER
100
AcDbLine
 10
1378.682754510967
 20
468.0248341116112
 30
0.0
 11
1340.291023107383
 21
468.0248341116112
 31
0.0
  0
LINE
  5
FFB
330
2
100
AcDbEntity
  8
0
100
AcDbLine
 10
1371.037923918401
 20
559.6588087078234
 30
0.0
 11
1371.037923918401
 21
548.3908595153934
 31
0.0
  0
LINE
  5
FFC
330
2
100
AcDbEntity
  8
0
100
AcDbLine
 10
1363.037923918401
 20
560.5248341116094
 30
0.0
 11
1363.037923918401
 21
560.3478769388857
 31
0.0
  0
LINE
  5
FFD
330
2
100
AcDbEntity
  8
0
100
AcDbLine
 10
1370.537923918401
 20
547.5248341116094
 30
0.0
 11
1371.037923918401
 21
548.3908595153934
 31
0.0
  0
LINE
  5
FFE
330
2
100
AcDbEntity
  8
0
100
AcDbLine
 10
1366.037923918401
 20
547.5248341116094
 30
0.0
 11
1370.537923918401
 21
547.5248341116094
 31
0.0
  0
LINE
  5
FFF
330
2
100
AcDbEntity
  8
0
100
AcDbLine
 10
1370.537923918401
 20
560.5248341116094
 30
0.0
 11
1371.037923918401
 21
559.6588087078252
 31
0.0
  0
LINE
  5
1000
330
2
100
AcDbEntity
  8
0
100
AcDbLine
 10
1362.808509923149
 20
560.5248341116094
 30
0.0
 11
1363.037923918401
 21
560.5248341116094
 31
0.0
  0
LINE
  5
1001
330
2
100
AcDbEntity
  8
0
100
AcDbLine
 10
1363.037923918401
 20
560.5248341116094
 30
0.0
 11
1370.537923918401
 21
560.5248341116094
 31
0.0
  0
LINE
  5
1002
330
2
100
AcDbEntity
  8
0
100
AcDbLine
 10
1370.537923918401
 20
560.5248341116094
 30
0.0
 11
1370.537923918401
 21
547.5248341116094
 31
0.0
  0
LINE
  5
1003
330
2
100
AcDbEntity
  8
0
100
AcDbLine
 10
1371.037923918401
 20
473.6588087078253
 30
0.0
 11
1371.037923918401
 21
462.3908595153953
 31
0.0
  0
LINE
  5
1004
330
2
100
AcDbEntity
  8
0
100
AcDbLine
 10
1363.037923918401
 20
461.701791284333
 30
0.0
 11
1363.037923918401
 21
461.5248341116112
 31
0.0
  0
LINE
  5
1005
330
2
100
AcDbEntity
  8
0
100
AcDbLine
 10
1370.537923918401
 20
461.5248341116112
 30
0.0
 11
1371.037923918401
 21
462.3908595153953
 31
0.0
  0
LINE
  5
1006
330
2
100
AcDbEntity
  8
0
100
AcDbLine
 10
1362.808509923149
 20
461.5248341116112
 30
0.0
 11
1363.037923918401
 21
461.5248341116112
 31
0.0
  0
LINE
  5
1007
330
2
100
AcDbEntity
  8
0
100
AcDbLine
 10
1363.037923918401
 20
461.5248341116112
 30
0.0
 11
1370.537923918401
 21
461.5248341116112
 31
0.0
  0
LINE
  5
1008
330
2
100
AcDbEntity
  8
0
100
AcDbLine
 10
1370.537923918401
 20
474.5248341116112
 30
0.0
 11
1371.037923918401
 21
473.6588087078271
 31
0.0
  0
LINE
  5
1009
330
2
100
AcDbEntity
  8
0
100
AcDbLine
 10
1366.037923918401
 20
474.5248341116112
 30
0.0
 11
1370.537923918401
 21
474.5248341116112
 31
0.0
  0
LINE
  5
100A
330
2
100
AcDbEntity
  8
0
100
AcDbLine
 10
1370.537923918401
 20
474.5248341116112
 30
0.0
 11
1370.537923918401
 21
461.5248341116112
 31
0.0
  0
LINE
  5
100B
330
2
100
AcDbEntity
  8
0
100
AcDbLine
 10
1230.037927247211
 20
486.5248341115221
 30
0.0
 11
1230.037927247211
 21
535.524834111522
 31
0.0
  0
LINE
  5
100C
330
2
100
AcDbEntity
  8
0
100
AcDbLine
 10
1230.037927247211
 20
535.524834111522
 30
0.0
 11
1243.037927247212
 21
535.524834111522
 31
0.0
  0
LINE
  5
100D
330
2
100
AcDbEntity
  8
0
100
AcDbLine
 10
1230.037927247211
 20
486.5248341115221
 30
0.0
 11
1243.037927247212
 21
486.5248341115221
 31
0.0
  0
LINE
  5
100E
330
2
100
AcDbEntity
  8
0
100
AcDbLine
 10
1382.037923918401
 20
486.5248341115221
 30
0.0
 11
1384.037927247212
 21
486.5248341115221
 31
0.0
  0
LINE
  5
100F
330
2
100
AcDbEntity
  8
0
100
AcDbLine
 10
1382.037923918401
 20
535.524834111522
 30
0.0
 11
1384.037927247212
 21
535.524834111522
 31
0.0
  0
LINE
  5
1010
330
2
100
AcDbEntity
  8
0
100
AcDbLine
 10
1384.037927247212
 20
486.5248341115221
 30
0.0
 11
1384.037927247212
 21
535.524834111522
 31
0.0
  0
LINE
  5
1011
330
2
100
AcDbEntity
  8
CENTER
100
AcDbLine
 10
881.1026918998708
 20
439.3826984879659
 30
0.0
 11
737.8184206524086
 21
582.6669697354275
 31
0.0
  0
LINE
  5
1012
330
2
100
AcDbEntity
  8
CENTER
100
AcDbLine
 10
737.8184206524086
 20
439.3826984879654
 30
0.0
 11
881.1026918998699
 21
582.6669697354284
 31
0.0
  0
CIRCLE
  5
1013
330
2
100
AcDbEntity
  8
CENTER
100
AcDbCircle
 10
809.4605562761397
 20
511.0248341116965
 30
0.0
 40
80.0
  0
CIRCLE
  5
1014
330
2
100
AcDbEntity
  8
0
100
AcDbCircle
 10
809.4605562761397
 20
511.0248341116965
 30
0.0
 40
60.0
  0
LINE
  5
1015
330
2
100
AcDbEntity
  8
CENTER
100
AcDbLine
 10
809.4605562761397
 20
416.0248341116965
 30
0.0
 11
809.4605562761397
 21
606.0248341116964
 31
0.0
  0
LINE
  5
1016
330
2
100
AcDbEntity
  8
0
100
AcDbLine
 10
876.9605562761396
 20
453.5248341116965
 30
0.0
 11
876.9605562761396
 21
568.5248341116964
 31
0.0
  0
ARC
  5
1017
330
2
100
AcDbEntity
  8
0
100
AcDbCircle
 10
809.4605562761397
 20
238.5248341116965
 30
0.0
 40
340.0
100
AcDbArc
 50
85.33227731211809
 51
94.66772268788192
  0
ARC
  5
1018
330
2
100
AcDbEntity
  8
0
100
AcDbCircle
 10
751.9605562761397
 20
568.5248341116964
 30
0.0
 40
10.0
100
AcDbArc
 50
90.0
 51
180.0
  0
CIRCLE
  5
1019
330
2
100
AcDbEntity
  8
0
100
AcDbCircle
 10
752.8920137812154
 20
567.5933766066207
 30
0.0
 40
4.0
  0
CIRCLE
  5
101A
330
2
100
AcDbEntity
  8
HOJO
100
AcDbCircle
 10
752.8920137812154
 20
567.5933766066207
 30
0.0
 40
5.0
  0
LINE
  5
101B
330
2
100
AcDbEntity
  8
0
100
AcDbLine
 10
741.9605562761397
 20
564.5248341116964
 30
0.0
 11
741.9605562761397
 21
568.5248341116964
 31
0.0
  0
LINE
  5
101C
330
2
100
AcDbEntity
  8
0
100
AcDbLine
 10
751.9605562761397
 20
578.5248341116965
 30
0.0
 11
755.9605562761397
 21
578.5248341116965
 31
0.0
  0
ARC
  5
101D
330
2
100
AcDbEntity
  8
0
100
AcDbCircle
 10
755.9605562761397
 20
570.5248341116964
 30
0.0
 40
8.0
100
AcDbArc
 50
80.57047887832746
 51
90.0
  0
ARC
  5
101E
330
2
100
AcDbEntity
  8
0
100
AcDbCircle
 10
866.9605562761397
 20
568.5248341116964
 30
0.0
 40
10.0
100
AcDbArc
 50
0.0
 51
90.0
  0
CIRCLE
  5
101F
330
2
100
AcDbEntity
  8
0
100
AcDbCircle
 10
866.0290987710622
 20
567.5933766066207
 30
0.0
 40
4.0
  0
CIRCLE
  5
1020
330
2
100
AcDbEntity
  8
HOJO
100
AcDbCircle
 10
866.0290987710622
 20
567.5933766066207
 30
0.0
 40
5.0
  0
ARC
  5
1021
330
2
100
AcDbEntity
  8
0
100
AcDbCircle
 10
862.9605562761398
 20
570.5248341116964
 30
0.0
 40
8.0
100
AcDbArc
 50
90.0
 51
99.42952112167255
  0
LINE
  5
1022
330
2
100
AcDbEntity
  8
0
100
AcDbLine
 10
862.9605562761398
 20
578.5248341116965
 30
0.0
 11
866.9605562761397
 21
578.5248341116965
 31
0.0
  0
LINE
  5
1023
330
2
100
AcDbEntity
  8
CENTER
100
AcDbLine
 10
714.4605562761397
 20
511.0248341116965
 30
0.0
 11
1043.430578276138
 21
511.0248341116965
 31
0.0
  0
CIRCLE
  5
1024
330
2
100
AcDbEntity
  8
0
100
AcDbCircle
 10
809.4605562761397
 20
511.0248341116965
 30
0.0
 40
43.5
  0
ARC
  5
1025
330
2
100
AcDbEntity
  8
0
100
AcDbCircle
 10
1081.960556276138
 20
511.0248341116965
 30
0.0
 40
340.0
100
AcDbArc
 50
175.3322773121172
 51
184.6677226878827
  0
LINE
  5
1026
330
2
100
AcDbEntity
  8
0
100
AcDbLine
 10
957.9305782761375
 20
560.5248341116964
 30
0.0
 11
957.9305782761375
 21
461.5248341116965
 31
0.0
  0
LINE
  5
1027
330
2
100
AcDbEntity
  8
0
100
AcDbLine
 10
973.4305782761392
 20
459.5248341116965
 30
0.0
 11
973.4305782761374
 21
562.5248341116964
 31
0.0
  0
LINE
  5
1028
330
2
100
AcDbEntity
  8
0
100
AcDbLine
 10
928.4605562761397
 20
468.0248341116965
 30
0.0
 11
928.4605562761397
 21
554.0248341116964
 31
0.0
  0
ARC
  5
1029
330
2
100
AcDbEntity
  8
0
100
AcDbCircle
 10
809.4605562761397
 20
783.5248341116964
 30
0.0
 40
340.0
100
AcDbArc
 50
265.332277312118
 51
274.6677226878819
  0
CIRCLE
  5
102A
330
2
100
AcDbEntity
  8
0
100
AcDbCircle
 10
752.8920137812154
 20
454.4562916167723
 30
0.0
 40
4.0
  0
CIRCLE
  5
102B
330
2
100
AcDbEntity
  8
HOJO
100
AcDbCircle
 10
752.8920137812154
 20
454.4562916167723
 30
0.0
 40
5.0
  0
LINE
  5
102C
330
2
100
AcDbEntity
  8
0
100
AcDbLine
 10
751.9605562761397
 20
443.5248341116965
 30
0.0
 11
755.9605562761397
 21
443.5248341116965
 31
0.0
  0
ARC
  5
102D
330
2
100
AcDbEntity
  8
0
100
AcDbCircle
 10
751.9605562761397
 20
453.5248341116965
 30
0.0
 40
10.0
100
AcDbArc
 50
180.0
 51
270.0
  0
LINE
  5
102E
330
2
100
AcDbEntity
  8
0
100
AcDbLine
 10
741.9605562761397
 20
453.5248341116965
 30
0.0
 11
741.9605562761397
 21
457.5248341116965
 31
0.0
  0
ARC
  5
102F
330
2
100
AcDbEntity
  8
0
100
AcDbCircle
 10
749.9605562761379
 20
457.5248341116965
 30
0.0
 40
8.0
100
AcDbArc
 50
170.5704788783786
 51
180.0
  0
ARC
  5
1030
330
2
100
AcDbEntity
  8
0
100
AcDbCircle
 10
755.9605562761397
 20
451.5248341116965
 30
0.0
 40
8.0
100
AcDbArc
 50
270.0
 51
279.4295211216725
  0
LINE
  5
1031
330
2
100
AcDbEntity
  8
0
100
AcDbLine
 10
884.8979473907901
 20
460.0248341116965
 30
0.0
 11
920.4605562761397
 21
460.0248341116965
 31
0.0
  0
CIRCLE
  5
1032
330
2
100
AcDbEntity
  8
0
100
AcDbCircle
 10
866.0290987710622
 20
454.456291616774
 30
0.0
 40
4.0
  0
CIRCLE
  5
1033
330
2
100
AcDbEntity
  8
HOJO
100
AcDbCircle
 10
866.0290987710622
 20
454.456291616774
 30
0.0
 40
5.0
  0
ARC
  5
1034
330
2
100
AcDbEntity
  8
0
100
AcDbCircle
 10
866.9605562761397
 20
453.5248341116965
 30
0.0
 40
10.0
100
AcDbArc
 50
270.0
 51
0.0
  0
ARC
  5
1035
330
2
100
AcDbEntity
  8
0
100
AcDbCircle
 10
862.9605562761398
 20
451.5248341116965
 30
0.0
 40
8.0
100
AcDbArc
 50
260.5704788783274
 51
270.0
  0
LINE
  5
1036
330
2
100
AcDbEntity
  8
0
100
AcDbLine
 10
862.9605562761398
 20
443.5248341116965
 30
0.0
 11
866.9605562761397
 21
443.5248341116965
 31
0.0
  0
ARC
  5
1037
330
2
100
AcDbEntity
  8
0
100
AcDbCircle
 10
920.4605562761397
 20
468.0248341116965
 30
0.0
 40
8.0
100
AcDbArc
 50
270.0
 51
0.0
  0
LINE
  5
1038
330
2
100
AcDbEntity
  8
0
100
AcDbLine
 10
973.4305782761374
 20
460.0248341116965
 30
0.0
 11
959.9305782761375
 21
460.0248341116965
 31
0.0
  0
ARC
  5
1039
330
2
100
AcDbEntity
  8
0
100
AcDbCircle
 10
959.9305782761375
 20
462.0248341116965
 30
0.0
 40
2.0
100
AcDbArc
 50
180.0
 51
270.0
  0
ARC
  5
103A
330
2
100
AcDbEntity
  8
0
100
AcDbCircle
 10
952.9305782761374
 20
466.0248341116965
 30
0.0
 40
5.0
100
AcDbArc
 50
0.0
 51
90.0
  0
ARC
  5
103B
330
2
100
AcDbEntity
  8
0
100
AcDbCircle
 10
749.9605562761379
 20
564.5248341116964
 30
0.0
 40
8.0
100
AcDbArc
 50
180.0
 51
189.4295211216213
  0
LINE
  5
103C
330
2
100
AcDbEntity
  8
0
100
AcDbLine
 10
884.8979473907901
 20
562.0248341116965
 30
0.0
 11
920.4605562761397
 21
562.0248341116965
 31
0.0
  0
LINE
  5
103D
330
2
100
AcDbEntity
  8
0
100
AcDbLine
 10
948.9305782761375
 20
551.0248341116964
 30
0.0
 11
952.9305782761374
 21
551.0248341116964
 31
0.0
  0
ARC
  5
103E
330
2
100
AcDbEntity
  8
0
100
AcDbCircle
 10
920.4605562761397
 20
554.0248341116964
 30
0.0
 40
8.0
100
AcDbArc
 50
0.0
 51
90.0
  0
ARC
  5
103F
330
2
100
AcDbEntity
  8
0
100
AcDbCircle
 10
952.9305782761374
 20
556.0248341116964
 30
0.0
 40
5.0
100
AcDbArc
 50
270.0
 51
0.0
  0
LINE
  5
1040
330
2
100
AcDbEntity
  8
0
100
AcDbLine
 10
973.4305782761374
 20
562.0248341116965
 30
0.0
 11
959.9305782761375
 21
562.0248341116965
 31
0.0
  0
ARC
  5
1041
330
2
100
AcDbEntity
  8
0
100
AcDbCircle
 10
959.9305782761375
 20
560.0248341116964
 30
0.0
 40
2.0
100
AcDbArc
 50
90.0
 51
180.0
  0
LINE
  5
1042
330
2
100
AcDbEntity
  8
CENTER
100
AcDbLine
 10
752.8920137812154
 20
558.5933766066207
 30
0.0
 11
752.8920137812154
 21
576.5933766066207
 31
0.0
  0
LINE
  5
1043
330
2
100
AcDbEntity
  8
CENTER
100
AcDbLine
 10
743.8920137812154
 20
567.5933766066207
 30
0.0
 11
761.8920137812154
 21
567.5933766066207
 31
0.0
  0
LINE
  5
1044
330
2
100
AcDbEntity
  8
CENTER
100
AcDbLine
 10
866.0290987710622
 20
558.5933766066207
 30
0.0
 11
866.0290987710622
 21
576.5933766066207
 31
0.0
  0
LINE
  5
1045
330
2
100
AcDbEntity
  8
CENTER
100
AcDbLine
 10
875.0290987710622
 20
567.5933766066207
 30
0.0
 11
857.0290987710622
 21
567.5933766066207
 31
0.0
  0
LINE
  5
1046
330
2
100
AcDbEntity
  8
CENTER
100
AcDbLine
 10
866.0290987710622
 20
463.4562916167722
 30
0.0
 11
866.0290987710622
 21
445.4562916167723
 31
0.0
  0
LINE
  5
1047
330
2
100
AcDbEntity
  8
CENTER
100
AcDbLine
 10
875.0290987710622
 20
454.456291616774
 30
0.0
 11
857.0290987710622
 21
454.456291616774
 31
0.0
  0
LINE
  5
1048
330
2
100
AcDbEntity
  8
CENTER
100
AcDbLine
 10
752.8920137812154
 20
463.4562916167722
 30
0.0
 11
752.8920137812154
 21
445.4562916167723
 31
0.0
  0
LINE
  5
1049
330
2
100
AcDbEntity
  8
CENTER
100
AcDbLine
 10
743.8920137812154
 20
454.456291616774
 30
0.0
 11
761.8920137812154
 21
454.456291616774
 31
0.0
  0
CIRCLE
  5
104A
330
2
100
AcDbEntity
  8
0
100
AcDbCircle
 10
809.460556276138
 20
511.0248341116983
 30
0.0
 40
36.0
  0
ARC
  5
104B
330
2
100
AcDbEntity
  8
0
100
AcDbCircle
 10
773.6546566522564
 20
344.9841432378342
 30
0.0
 40
100.0
100
AcDbArc
 50
85.33227731211809
 51
99.42952112167255
  0
ARC
  5
104C
330
2
100
AcDbEntity
  8
0
100
AcDbCircle
 10
845.2664559000211
 20
344.9841432378342
 30
0.0
 40
100.0
100
AcDbArc
 50
80.57047887832746
 51
94.66772268788192
  0
ARC
  5
104D
330
2
100
AcDbEntity
  8
0
100
AcDbCircle
 10
643.4198654022774
 20
475.218934487815
 30
0.0
 40
100.0
100
AcDbArc
 50
350.5704788783786
 51
4.667722687882756
  0
ARC
  5
104E
330
2
100
AcDbEntity
  8
0
100
AcDbCircle
 10
643.4198654022774
 20
546.8307337355797
 30
0.0
 40
100.0
100
AcDbArc
 50
355.3322773121172
 51
9.429521121621345
  0
ARC
  5
104F
330
2
100
AcDbEntity
  8
0
100
AcDbCircle
 10
773.6546566522564
 20
677.0655249855588
 30
0.0
 40
100.0
100
AcDbArc
 50
260.5704788783274
 51
274.6677226878819
  0
ARC
  5
1050
330
2
100
AcDbEntity
  8
0
100
AcDbCircle
 10
845.2664559000211
 20
677.0655249855588
 30
0.0
 40
100.0
100
AcDbArc
 50
265.332277312118
 51
279.4295211216725
  0
LINE
  5
1051
330
2
100
AcDbEntity
  8
CENTER
100
AcDbLine
 10
726.9605562761379
 20
846.1017220872196
 30
0.0
 11
1043.430578276138
 21
846.1017220872196
 31
0.0
  0
LINE
  5
1052
330
2
100
AcDbEntity
  8
0
100
AcDbLine
 10
973.4305782761374
 20
897.1017220872196
 30
0.0
 11
973.4305782761374
 21
795.1017220872197
 31
0.0
  0
LINE
  5
1053
330
2
100
AcDbEntity
  8
0
100
AcDbLine
 10
957.8795773680294
 20
895.1540759838351
 30
0.0
 11
956.5953505507959
 21
846.1114324453772
 31
0.0
  0
LINE
  5
1054
330
2
100
AcDbEntity
  8
CENTER
100
AcDbLine
 10
809.460556276138
 20
930.1017254160303
 30
0.0
 11
809.4605562761397
 21
746.1017254160303
 31
0.0
  0
LINE
  5
1056
330
2
100
AcDbEntity
  8
0
100
AcDbLine
 10
749.4605562761379
 20
788.1017220872197
 30
0.0
 11
869.4605562761379
 21
788.1017220872197
 31
0.0
  0
LINE
  5
1057
330
2
100
AcDbEntity
  8
0
100
AcDbLine
 10
742.7416109434105
 20
793.1017220872197
 30
0.0
 11
876.1795016088681
 21
793.1017220872197
 31
0.0
  0
LINE
  5
1058
330
2
100
AcDbEntity
  8
0
100
AcDbLine
 10
767.8919338257536
 20
774.1017220872197
 30
0.0
 11
851.029178726524
 21
774.1017220872197
 31
0.0
  0
LINE
  5
1059
330
2
100
AcDbEntity
  8
0
100
AcDbLine
 10
749.4605562761379
 20
793.1017220872197
 30
0.0
 11
749.4605562761379
 21
788.1017220872197
 31
0.0
  0
LINE
  5
105A
330
2
100
AcDbEntity
  8
0
100
AcDbLine
 10
877.6839241896826
 20
795.1084996527612
 30
0.0
 11
926.3470308380863
 21
795.1017220872197
 31
0.0
  0
LINE
  5
105B
330
2
100
AcDbEntity
  8
0
100
AcDbLine
 10
869.4605562761379
 20
793.1017220872197
 30
0.0
 11
869.4605562761379
 21
788.1017220872197
 31
0.0
  0
LINE
  5
105D
330
2
100
AcDbEntity
  8
0
100
AcDbLine
 10
973.4305782761374
 20
795.1017220872197
 30
0.0
 11
973.4305782761374
 21
846.1017220872196
 31
0.0
  0
LINE
  5
105E
330
2
100
AcDbEntity
  8
0
100
AcDbLine
 10
948.8530268889034
 20
886.1017220872197
 30
0.0
 11
952.7717487842682
 21
886.1017220872197
 31
0.0
  0
LINE
  5
105F
330
2
100
AcDbEntity
  8
0
100
AcDbLine
 10
944.8831194133607
 20
846.1017220872196
 30
0.0
 11
945.8540549139769
 21
883.1802529321446
 31
0.0
  0
LINE
  5
1060
330
2
100
AcDbEntity
  8
0
100
AcDbLine
 10
973.4305782761374
 20
897.1017220872196
 30
0.0
 11
959.8788920179803
 21
897.1017220872196
 31
0.0
  0
ARC
  5
1061
330
2
100
AcDbEntity
  8
0
100
AcDbCircle
 10
884.8979473907901
 20
570.0248341116965
 30
0.0
 40
8.0
100
AcDbArc
 50
184.780191847234
 51
270.0
  0
ARC
  5
1062
330
2
100
AcDbEntity
  8
0
100
AcDbCircle
 10
884.8979473907901
 20
452.0248341116965
 30
0.0
 40
8.0
100
AcDbArc
 50
90.0
 51
175.2198081527651
  0
LINE
  5
1063
330
2
100
AcDbEntity
  8
0
100
AcDbLine
 10
802.3187855263739
 20
455.5248341093391
 30
0.0
 11
805.1987867677061
 21
455.5248341093391
 31
0.0
  0
LINE
  5
1064
330
2
100
AcDbEntity
  8
0
100
AcDbLine
 10
806.3187855263795
 20
463.5248341093518
 30
0.0
 11
802.3187855263739
 21
455.5248341093391
 31
0.0
  0
ARC
  5
1065
330
2
100
AcDbEntity
  8
0
100
AcDbCircle
 10
812.9587127663898
 20
460.804834109347
 30
0.0
 40
2.720000000003957
100
AcDbArc
 50
307.5189678668223
 51
90.0
  0
LINE
  5
1066
330
2
100
AcDbEntity
  8
0
100
AcDbLine
 10
814.6152581460491
 20
458.6474613077315
 30
0.0
 11
816.6023270259037
 21
455.5248341093391
 31
0.0
  0
LINE
  5
1067
330
2
100
AcDbEntity
  8
0
100
AcDbLine
 10
813.7223257845715
 20
455.5248341093391
 30
0.0
 11
816.6023270259037
 21
455.5248341093391
 31
0.0
  0
LINE
  5
1068
330
2
100
AcDbEntity
  8
0
100
AcDbLine
 10
807.8387855263816
 20
455.5248341093391
 30
0.0
 11
810.2387127663849
 21
455.5248341093391
 31
0.0
  0
LINE
  5
1069
330
2
100
AcDbEntity
  8
0
100
AcDbLine
 10
805.7987867677065
 20
456.7248341093416
 30
0.0
 11
805.1987867677061
 21
455.5248341093391
 31
0.0
  0
LINE
  5
106A
330
2
100
AcDbEntity
  8
0
100
AcDbLine
 10
805.7987867677065
 20
456.7248341093416
 30
0.0
 11
807.8387855263816
 21
456.7248341093416
 31
0.0
  0
LINE
  5
106B
330
2
100
AcDbEntity
  8
0
100
AcDbLine
 10
807.8387855263816
 20
456.7248341093416
 30
0.0
 11
807.8387855263816
 21
455.5248341093391
 31
0.0
  0
LINE
  5
106C
330
2
100
AcDbEntity
  8
0
100
AcDbLine
 10
807.078786767709
 20
459.2848341093447
 30
0.0
 11
807.8387855263816
 21
459.2848341093447
 31
0.0
  0
LINE
  5
106D
330
2
100
AcDbEntity
  8
0
100
AcDbLine
 10
807.8387855263816
 20
460.8048316266902
 30
0.0
 11
807.8387855263816
 21
459.2848341093447
 31
0.0
  0
LINE
  5
106E
330
2
100
AcDbEntity
  8
0
100
AcDbLine
 10
807.8387855263816
 20
460.8048316266902
 30
0.0
 11
807.078786767709
 21
459.2848341093447
 31
0.0
  0
LINE
  5
106F
330
2
100
AcDbEntity
  8
0
100
AcDbLine
 10
810.5787855263852
 20
460.4648341093469
 30
0.0
 11
813.7223257845715
 21
455.5248341093391
 31
0.0
  0
LINE
  5
1070
330
2
100
AcDbEntity
  8
0
100
AcDbLine
 10
810.2387127663849
 20
460.804834109347
 30
0.0
 11
810.2387127663849
 21
455.5248341093391
 31
0.0
  0
LINE
  5
1071
330
2
100
AcDbEntity
  8
0
100
AcDbLine
 10
810.2387127663849
 20
460.804834109347
 30
0.0
 11
812.7887855263878
 21
460.804834109347
 31
0.0
  0
LINE
  5
1072
330
2
100
AcDbEntity
  8
0
100
AcDbLine
 10
810.5787855263852
 20
460.4648341093469
 30
0.0
 11
812.7887855263896
 21
460.4648341093469
 31
0.0
  0
ARC
  5
1073
330
2
100
AcDbEntity
  8
0
100
AcDbCircle
 10
812.7887855263896
 20
460.6348341093469
 30
0.0
 40
0.1700000000002474
100
AcDbArc
 50
270.0
 51
90.0
  0
LINE
  5
1074
330
2
100
AcDbEntity
  8
0
100
AcDbLine
 10
806.3187855263795
 20
463.5248341093518
 30
0.0
 11
812.9587127663898
 21
463.5248341093518
 31
0.0
  0
LINE
  5
1075
330
2
100
AcDbEntity
  8
0
100
AcDbLine
 10
945.9305782761374
 20
548.0248341116964
 30
0.0
 11
945.9305782761374
 21
474.0248341116965
 31
0.0
  0
LINE
  5
1076
330
2
100
AcDbEntity
  8
0
100
AcDbLine
 10
933.460556276136
 20
539.0248341116964
 30
0.0
 11
940.9305782761375
 21
539.0248341116964
 31
0.0
  0
LINE
  5
1077
330
2
100
AcDbEntity
  8
0
100
AcDbLine
 10
931.4605562761361
 20
544.0248341116964
 30
0.0
 11
942.9305782761375
 21
544.0248341116964
 31
0.0
  0
ARC
  5
1078
330
2
100
AcDbEntity
  8
0
100
AcDbCircle
 10
931.4605562761361
 20
547.0248341116964
 30
0.0
 40
3.0
100
AcDbArc
 50
180.0
 51
270.0
  0
ARC
  5
1079
330
2
100
AcDbEntity
  8
0
100
AcDbCircle
 10
933.460556276136
 20
544.0248341116964
 30
0.0
 40
5.0
100
AcDbArc
 50
180.0
 51
270.0
  0
ARC
  5
107A
330
2
100
AcDbEntity
  8
0
100
AcDbCircle
 10
940.9305782761375
 20
544.0248341116964
 30
0.0
 40
5.0
100
AcDbArc
 50
270.0
 51
0.0
  0
ARC
  5
107B
330
2
100
AcDbEntity
  8
0
100
AcDbCircle
 10
942.9305782761375
 20
547.0248341116964
 30
0.0
 40
3.0
100
AcDbArc
 50
270.0
 51
0.0
  0
LINE
  5
107C
330
2
100
AcDbEntity
  8
0
100
AcDbLine
 10
933.460556276136
 20
483.0248341116964
 30
0.0
 11
940.9305782761375
 21
483.0248341116964
 31
0.0
  0
LINE
  5
107D
330
2
100
AcDbEntity
  8
0
100
AcDbLine
 10
931.4605562761361
 20
478.0248341116965
 30
0.0
 11
942.9305782761375
 21
478.0248341116965
 31
0.0
  0
ARC
  5
107E
330
2
100
AcDbEntity
  8
0
100
AcDbCircle
 10
933.460556276136
 20
478.0248341116965
 30
0.0
 40
5.0
100
AcDbArc
 50
90.0
 51
180.0
  0
ARC
  5
107F
330
2
100
AcDbEntity
  8
0
100
AcDbCircle
 10
931.4605562761361
 20
475.0248341116964
 30
0.0
 40
3.0
100
AcDbArc
 50
90.0
 51
180.0
  0
ARC
  5
1080
330
2
100
AcDbEntity
  8
0
100
AcDbCircle
 10
942.9305782761375
 20
475.0248341116964
 30
0.0
 40
3.0
100
AcDbArc
 50
0.0
 51
90.0
  0
ARC
  5
1081
330
2
100
AcDbEntity
  8
0
100
AcDbCircle
 10
940.9305782761375
 20
478.0248341116965
 30
0.0
 40
5.0
100
AcDbArc
 50
0.0
 51
90.0
  0
LINE
  5
1082
330
2
100
AcDbEntity
  8
0
100
AcDbLine
 10
948.9305782761375
 20
471.0248341116964
 30
0.0
 11
952.9305782761374
 21
471.0248341116964
 31
0.0
  0
LINE
  5
1083
330
2
100
AcDbEntity
  8
0
100
AcDbLine
 10
931.4605562761398
 20
513.5248341116964
 30
0.0
 11
942.9305782761375
 21
513.5248341116964
 31
0.0
  0
LINE
  5
1084
330
2
100
AcDbEntity
  8
0
100
AcDbLine
 10
931.4605562761398
 20
508.5248341116964
 30
0.0
 11
942.9305782761375
 21
508.5248341116964
 31
0.0
  0
ARC
  5
1085
330
2
100
AcDbEntity
  8
0
100
AcDbCircle
 10
931.4605562761398
 20
516.5248341116964
 30
0.0
 40
3.0
100
AcDbArc
 50
180.0
 51
270.0
  0
ARC
  5
1086
330
2
100
AcDbEntity
  8
0
100
AcDbCircle
 10
942.9305782761375
 20
516.5248341116964
 30
0.0
 40
3.0
100
AcDbArc
 50
270.0
 51
0.0
  0
ARC
  5
1087
330
2
100
AcDbEntity
  8
0
100
AcDbCircle
 10
942.9305782761375
 20
505.5248341116965
 30
0.0
 40
3.0
100
AcDbArc
 50
0.0
 51
90.0
  0
ARC
  5
1088
330
2
100
AcDbEntity
  8
0
100
AcDbCircle
 10
931.4605562761398
 20
505.5248341116965
 30
0.0
 40
3.0
100
AcDbArc
 50
90.0
 51
180.0
  0
LINE
  5
1089
330
2
100
AcDbEntity
  8
0
100
AcDbLine
 10
933.4869272714412
 20
874.1017220872198
 30
0.0
 11
940.7455408626983
 21
874.1017220872198
 31
0.0
  0
LINE
  5
108A
330
2
100
AcDbEntity
  8
0
100
AcDbLine
 10
931.4605562761361
 20
879.1017220872197
 30
0.0
 11
942.82478421239
 21
879.1017220872197
 31
0.0
  0
LINE
  5
108B
330
2
100
AcDbEntity
  8
0
100
AcDbLine
 10
931.7268399789199
 20
843.6017220872198
 30
0.0
 11
942.0261136045199
 21
843.6017220872198
 31
0.0
  0
LINE
  5
108C
330
2
100
AcDbEntity
  8
0
100
AcDbLine
 10
931.7268399789089
 20
848.6017220872197
 30
0.0
 11
942.0261136045199
 21
848.6017220872197
 31
0.0
  0
LINE
  5
108D
330
2
100
AcDbEntity
  8
0
100
AcDbLine
 10
948.8530268889034
 20
806.1017220872198
 30
0.0
 11
952.7717487842682
 21
806.1017220872198
 31
0.0
  0
LINE
  5
108E
330
2
100
AcDbEntity
  8
0
100
AcDbLine
 10
944.8831194133607
 20
846.1017220872196
 30
0.0
 11
945.8540549139769
 21
809.0231912422966
 31
0.0
  0
ARC
  5
108F
330
2
100
AcDbEntity
  8
0
100
AcDbCircle
 10
940.7455408626983
 20
879.1017220872197
 30
0.0
 40
5.0
100
AcDbArc
 50
270.0
 51
358.5000000000103
  0
ARC
  5
1090
330
2
100
AcDbEntity
  8
0
100
AcDbCircle
 10
942.82478421239
 20
882.1017220872198
 30
0.0
 40
3.0
100
AcDbArc
 50
270.0
 51
358.5000000000103
  0
ARC
  5
1091
330
2
100
AcDbEntity
  8
0
100
AcDbCircle
 10
942.82478421239
 20
810.1017220872197
 30
0.0
 40
3.0
100
AcDbArc
 50
1.499999999989693
 51
90.0
  0
LINE
  5
1092
330
2
100
AcDbEntity
  8
0
100
AcDbLine
 10
931.4605562761361
 20
813.1017220872196
 30
0.0
 11
942.82478421239
 21
813.1017220872196
 31
0.0
  0
LINE
  5
1093
330
2
100
AcDbEntity
  8
0
100
AcDbLine
 10
933.486927271443
 20
818.1017220872197
 30
0.0
 11
940.7455408626983
 21
818.1017220872197
 31
0.0
  0
ARC
  5
1094
330
2
100
AcDbEntity
  8
0
100
AcDbCircle
 10
940.7455408626983
 20
813.1017220872196
 30
0.0
 40
5.0
100
AcDbArc
 50
1.499999999989693
 51
90.0
  0
ARC
  5
1095
330
2
100
AcDbEntity
  8
0
100
AcDbCircle
 10
942.0261136045199
 20
851.6017220872196
 30
0.0
 40
3.0
100
AcDbArc
 50
270.0
 51
358.5000000000103
  0
ARC
  5
1096
330
2
100
AcDbEntity
  8
0
100
AcDbCircle
 10
942.0261136045199
 20
840.6017220872197
 30
0.0
 40
3.0
100
AcDbArc
 50
1.499999999989693
 51
90.0
  0
LINE
  5
1097
330
2
100
AcDbEntity
  8
0
100
AcDbLine
 10
765.8931521717139
 20
776.0319230938145
 30
0.0
 11
765.5390696076782
 21
786.1715210806249
 31
0.0
  0
ARC
  5
1098
330
2
100
AcDbEntity
  8
0
100
AcDbCircle
 10
763.5402879536403
 20
786.1017220872197
 30
0.0
 40
2.0
100
AcDbArc
 50
2.000000000003654
 51
90.0
  0
ARC
  5
1099
330
2
100
AcDbEntity
  8
0
100
AcDbCircle
 10
767.8919338257536
 20
776.1017220872197
 30
0.0
 40
2.0
100
AcDbArc
 50
182.0000000000036
 51
270.0
  0
ARC
  5
109A
330
2
100
AcDbEntity
  8
0
100
AcDbCircle
 10
855.3808245986372
 20
786.1017220872197
 30
0.0
 40
2.0
100
AcDbArc
 50
90.0
 51
177.9999999999963
  0
LINE
  5
109B
330
2
100
AcDbEntity
  8
0
100
AcDbLine
 10
853.0279603805636
 20
776.0319230938145
 30
0.0
 11
853.3820429445993
 21
786.1715210806249
 31
0.0
  0
ARC
  5
109C
330
2
100
AcDbEntity
  8
0
100
AcDbCircle
 10
851.029178726524
 20
776.1017220872197
 30
0.0
 40
2.0
100
AcDbArc
 50
270.0
 51
357.9999999999963
  0
ARC
  5
109D
330
2
100
AcDbEntity
  8
0
100
AcDbCircle
 10
952.7717487842682
 20
891.1017220872198
 30
0.0
 40
5.0
100
AcDbArc
 50
270.0
 51
358.5000000000103
  0
ARC
  5
109E
330
2
100
AcDbEntity
  8
0
100
AcDbCircle
 10
959.8788920179803
 20
895.1017220872197
 30
0.0
 40
2.0
100
AcDbArc
 50
90.0
 51
178.5000000000102
  0
ARC
  5
109F
330
2
100
AcDbEntity
  8
0
100
AcDbCircle
 10
952.7717487842682
 20
801.1017220872197
 30
0.0
 40
5.0
100
AcDbArc
 50
1.499999999989693
 51
90.0
  0
ARC
  5
10A0
330
2
100
AcDbEntity
  8
0
100
AcDbCircle
 10
959.8788920179803
 20
797.1017220872197
 30
0.0
 40
2.0
100
AcDbArc
 50
181.4999999999897
 51
270.0
  0
LINE
  5
10A1
330
2
100
AcDbEntity
  8
0
100
AcDbLine
 10
973.4305782761374
 20
795.1017220872197
 30
0.0
 11
959.8788920179803
 21
795.1017220872197
 31
0.0
  0
LINE
  5
10A2
330
2
100
AcDbEntity
  8
0
100
AcDbLine
 10
957.8795773680294
 20
797.0493681906043
 30
0.0
 11
956.5953505507959
 21
846.0920117290623
 31
0.0
  0
ARC
  5
10A3
330
2
100
AcDbEntity
  8
0
100
AcDbCircle
 10
948.8530268889034
 20
883.1017220872197
 30
0.0
 40
3.0
100
AcDbArc
 50
90.0
 51
178.5000000000102
  0
ARC
  5
10A4
330
2
100
AcDbEntity
  8
0
100
AcDbCircle
 10
948.8530268889034
 20
809.1017220872197
 30
0.0
 40
3.0
100
AcDbArc
 50
181.4999999999897
 51
270.0
  0
ARC
  5
10A5
330
2
100
AcDbEntity
  8
0
100
AcDbCircle
 10
948.9305782761375
 20
474.0248341116965
 30
0.0
 40
3.0
100
AcDbArc
 50
180.0
 51
270.0
  0
ARC
  5
10A6
330
2
100
AcDbEntity
  8
0
100
AcDbCircle
 10
948.9305782761375
 20
548.0248341116964
 30
0.0
 40
3.0
100
AcDbArc
 50
90.0
 51
180.0
  0
ARC
  5
10A7
330
2
100
AcDbEntity
  8
0
100
AcDbCircle
 10
877.6839241896826
 20
793.6084996527612
 30
0.0
 40
1.5
100
AcDbArc
 50
90.0
 51
180.0
  0
LINE
  5
10A8
330
2
100
AcDbEntity
  8
0
100
AcDbLine
 10
866.9605562761397
 20
881.6017220872179
 30
0.0
 11
866.9605562761379
 21
794.6017220872252
 31
0.0
  0
LINE
  5
10A9
330
2
100
AcDbEntity
  8
0
100
AcDbLine
 10
862.960556276138
 20
881.6017220872179
 30
0.0
 11
862.960556276138
 21
794.6017220872252
 31
0.0
  0
LINE
  5
10AA
330
2
100
AcDbEntity
  8
0
100
AcDbLine
 10
751.9605562761415
 20
881.6017220872142
 30
0.0
 11
751.9605562761451
 21
794.6017220872215
 31
0.0
  0
LINE
  5
10AB
330
2
100
AcDbEntity
  8
0
100
AcDbLine
 10
755.9605562761415
 20
881.6017220872142
 30
0.0
 11
755.9605562761452
 21
794.6017220872215
 31
0.0
  0
LINE
  5
10AC
330
2
100
AcDbEntity
  8
0
100
AcDbLine
 10
781.792361112214
 20
881.6017220872161
 30
0.0
 11
781.7923611122158
 21
794.6017220872215
 31
0.0
  0
LINE
  5
10AD
330
2
100
AcDbEntity
  8
0
100
AcDbLine
 10
837.1287514400618
 20
881.6017220872179
 30
0.0
 11
837.1287514400618
 21
794.6017220872252
 31
0.0
  0
LINE
  5
10AE
330
2
100
AcDbEntity
  8
0
100
AcDbLine
 10
920.4736492369237
 20
882.1017220872271
 30
0.0
 11
921.3908419593161
 21
847.0755451389138
 31
0.0
  0
LINE
  5
10AF
330
2
100
AcDbEntity
  8
0
100
AcDbLine
 10
928.4605562761434
 20
846.1017220872196
 30
0.0
 11
922.3904992842916
 21
846.1017220872196
 31
0.0
  0
ARC
  5
10B0
330
2
100
AcDbEntity
  8
0
100
AcDbCircle
 10
922.3904992842916
 20
847.1017220872196
 30
0.0
 40
1.0
100
AcDbArc
 50
181.4999999998854
 51
270.0
  0
LINE
  5
10B1
330
2
100
AcDbEntity
  8
0
100
AcDbLine
 10
956.5953505507959
 20
846.0920117290623
 30
0.0
 11
973.4305782761374
 21
846.1017220872196
 31
0.0
  0
LINE
  5
10B2
330
2
100
AcDbEntity
  8
0
100
AcDbLine
 10
973.4305782761374
 20
562.5248341116964
 30
0.0
 11
959.9305782761375
 21
562.5248341116964
 31
0.0
  0
ARC
  5
10B3
330
2
100
AcDbEntity
  8
0
100
AcDbCircle
 10
959.9305782761375
 20
560.5248341116964
 30
0.0
 40
2.0
100
AcDbArc
 50
90.0
 51
180.0
  0
LINE
  5
10B4
330
2
100
AcDbEntity
  8
0
100
AcDbLine
 10
973.4305782761374
 20
459.5248341116965
 30
0.0
 11
959.9305782761375
 21
459.5248341116965
 31
0.0
  0
ARC
  5
10B5
330
2
100
AcDbEntity
  8
0
100
AcDbCircle
 10
959.9305782761375
 20
461.5248341116965
 30
0.0
 40
2.0
100
AcDbArc
 50
180.0
 51
270.0
  0
LINE
  5
10B6
330
2
100
AcDbEntity
  8
CENTER
100
AcDbLine
 10
273.165397021521
 20
593.5248341116983
 30
0.0
 11
273.165397021521
 21
428.5248341116965
 31
0.0
  0
LINE
  5
10B7
330
2
100
AcDbEntity
  8
0
100
AcDbLine
 10
109.1953750215215
 20
562.5248341116964
 30
0.0
 11
109.1953750215233
 21
459.5248341116965
 31
0.0
  0
LINE
  5
10B8
330
2
100
AcDbEntity
  8
0
100
AcDbLine
 10
124.6953750215233
 20
461.5248341116965
 30
0.0
 11
124.6953750215233
 21
560.5248341116964
 31
0.0
  0
ARC
  5
10B9
330
2
100
AcDbEntity
  8
0
100
AcDbCircle
 10
129.6953750215233
 20
556.0248341116964
 30
0.0
 40
5.0
100
AcDbArc
 50
180.0
 51
270.0
  0
LINE
  5
10BA
330
2
100
AcDbEntity
  8
0
100
AcDbLine
 10
133.6953750215224
 20
551.0248341116964
 30
0.0
 11
129.6953750215233
 21
551.0248341116964
 31
0.0
  0
ARC
  5
10BB
330
2
100
AcDbEntity
  8
0
100
AcDbCircle
 10
122.6953750215233
 20
560.0248341116964
 30
0.0
 40
2.0
100
AcDbArc
 50
0.0
 51
90.0
  0
LINE
  5
10BC
330
2
100
AcDbEntity
  8
0
100
AcDbLine
 10
109.1953750215224
 20
562.0248341116965
 30
0.0
 11
122.6953750215233
 21
562.0248341116965
 31
0.0
  0
ARC
  5
10BD
330
2
100
AcDbEntity
  8
0
100
AcDbCircle
 10
129.6953750215233
 20
466.0248341116965
 30
0.0
 40
5.0
100
AcDbArc
 50
90.0
 51
180.0
  0
LINE
  5
10BE
330
2
100
AcDbEntity
  8
0
100
AcDbLine
 10
133.6953750215224
 20
471.0248341116964
 30
0.0
 11
129.6953750215233
 21
471.0248341116964
 31
0.0
  0
LINE
  5
10BF
330
2
100
AcDbEntity
  8
0
100
AcDbLine
 10
109.1953750215224
 20
460.0248341116965
 30
0.0
 11
122.6953750215224
 21
460.0248341116965
 31
0.0
  0
ARC
  5
10C0
330
2
100
AcDbEntity
  8
0
100
AcDbCircle
 10
122.6953750215224
 20
462.0248341116965
 30
0.0
 40
2.0
100
AcDbArc
 50
270.0
 51
0.0
  0
LINE
  5
10C1
330
2
100
AcDbEntity
  8
0
100
AcDbLine
 10
149.1653970215237
 20
483.0248341116964
 30
0.0
 11
141.6953750215224
 21
483.0248341116964
 31
0.0
  0
LINE
  5
10C2
330
2
100
AcDbEntity
  8
0
100
AcDbLine
 10
151.1653970215237
 20
478.0248341116965
 30
0.0
 11
139.6953750215224
 21
478.0248341116965
 31
0.0
  0
ARC
  5
10C3
330
2
100
AcDbEntity
  8
0
100
AcDbCircle
 10
149.1653970215237
 20
478.0248341116965
 30
0.0
 40
5.0
100
AcDbArc
 50
0.0
 51
90.0
  0
ARC
  5
10C4
330
2
100
AcDbEntity
  8
0
100
AcDbCircle
 10
151.1653970215237
 20
475.0248341116964
 30
0.0
 40
3.0
100
AcDbArc
 50
0.0
 51
90.0
  0
ARC
  5
10C5
330
2
100
AcDbEntity
  8
0
100
AcDbCircle
 10
139.6953750215224
 20
475.0248341116964
 30
0.0
 40
3.0
100
AcDbArc
 50
90.0
 51
180.0
  0
ARC
  5
10C6
330
2
100
AcDbEntity
  8
0
100
AcDbCircle
 10
141.6953750215224
 20
478.0248341116965
 30
0.0
 40
5.0
100
AcDbArc
 50
90.0
 51
180.0
  0
ARC
  5
10C7
330
2
100
AcDbEntity
  8
0
100
AcDbCircle
 10
139.6953750215224
 20
505.5248341116965
 30
0.0
 40
3.0
100
AcDbArc
 50
90.0
 51
180.0
  0
ARC
  5
10C8
330
2
100
AcDbEntity
  8
0
100
AcDbCircle
 10
151.165397021521
 20
505.5248341116965
 30
0.0
 40
3.0
100
AcDbArc
 50
0.0
 51
90.0
  0
LINE
  5
10C9
330
2
100
AcDbEntity
  8
0
100
AcDbLine
 10
151.165397021521
 20
513.5248341116964
 30
0.0
 11
139.6953750215224
 21
513.5248341116964
 31
0.0
  0
ARC
  5
10CA
330
2
100
AcDbEntity
  8
0
100
AcDbCircle
 10
151.165397021521
 20
516.5248341116964
 30
0.0
 40
3.0
100
AcDbArc
 50
270.0
 51
0.0
  0
ARC
  5
10CB
330
2
100
AcDbEntity
  8
0
100
AcDbCircle
 10
139.6953750215224
 20
516.5248341116964
 30
0.0
 40
3.0
100
AcDbArc
 50
180.0
 51
270.0
  0
LINE
  5
10CC
330
2
100
AcDbEntity
  8
0
100
AcDbLine
 10
151.165397021521
 20
508.5248341116964
 30
0.0
 11
139.6953750215224
 21
508.5248341116964
 31
0.0
  0
LINE
  5
10CD
330
2
100
AcDbEntity
  8
0
100
AcDbLine
 10
151.1653970215237
 20
544.0248341116964
 30
0.0
 11
139.6953750215224
 21
544.0248341116964
 31
0.0
  0
LINE
  5
10CE
330
2
100
AcDbEntity
  8
0
100
AcDbLine
 10
149.1653970215237
 20
539.0248341116964
 30
0.0
 11
141.6953750215224
 21
539.0248341116964
 31
0.0
  0
ARC
  5
10CF
330
2
100
AcDbEntity
  8
0
100
AcDbCircle
 10
151.1653970215237
 20
547.0248341116964
 30
0.0
 40
3.0
100
AcDbArc
 50
270.0
 51
0.0
  0
ARC
  5
10D0
330
2
100
AcDbEntity
  8
0
100
AcDbCircle
 10
149.1653970215237
 20
544.0248341116964
 30
0.0
 40
5.0
100
AcDbArc
 50
270.0
 51
0.0
  0
ARC
  5
10D1
330
2
100
AcDbEntity
  8
0
100
AcDbCircle
 10
141.6953750215224
 20
544.0248341116964
 30
0.0
 40
5.0
100
AcDbArc
 50
180.0
 51
270.0
  0
ARC
  5
10D2
330
2
100
AcDbEntity
  8
0
100
AcDbCircle
 10
139.6953750215224
 20
547.0248341116964
 30
0.0
 40
3.0
100
AcDbArc
 50
180.0
 51
270.0
  0
LINE
  5
10D3
330
2
100
AcDbEntity
  8
0
100
AcDbLine
 10
136.6953750215224
 20
474.0248341116965
 30
0.0
 11
136.6953750215224
 21
548.0248341116964
 31
0.0
  0
ARC
  5
10D4
330
2
100
AcDbEntity
  8
0
100
AcDbCircle
 10
133.6953750215224
 20
474.0248341116965
 30
0.0
 40
3.0
100
AcDbArc
 50
270.0
 51
0.0
  0
ARC
  5
10D5
330
2
100
AcDbEntity
  8
0
100
AcDbCircle
 10
133.6953750215224
 20
548.0248341116964
 30
0.0
 40
3.0
100
AcDbArc
 50
0.0
 51
90.0
  0
LINE
  5
10D6
330
2
100
AcDbEntity
  8
0
100
AcDbLine
 10
109.1953750215224
 20
459.5248341116965
 30
0.0
 11
122.6953750215224
 21
459.5248341116965
 31
0.0
  0
ARC
  5
10D7
330
2
100
AcDbEntity
  8
0
100
AcDbCircle
 10
122.6953750215224
 20
461.5248341116965
 30
0.0
 40
2.0
100
AcDbArc
 50
270.0
 51
0.0
  0
LINE
  5
10D8
330
2
100
AcDbEntity
  8
0
100
AcDbLine
 10
109.1953750215224
 20
562.5248341116964
 30
0.0
 11
122.6953750215233
 21
562.5248341116964
 31
0.0
  0
ARC
  5
10D9
330
2
100
AcDbEntity
  8
0
100
AcDbCircle
 10
122.6953750215233
 20
560.5248341116964
 30
0.0
 40
2.0
100
AcDbArc
 50
0.0
 51
90.0
  0
LINE
  5
10DA
330
2
100
AcDbEntity
  8
CENTER
100
AcDbLine
 10
355.665397021521
 20
511.0248341116965
 30
0.0
 11
39.19537502152241
 21
511.0248341116965
 31
0.0
  0
LINE
  5
10DB
330
2
100
AcDbEntity
  8
CENTER
100
AcDbLine
 10
519.9539155473401
 20
428.8390013519896
 30
0.0
 11
519.9539155473401
 21
593.2106668710551
 31
0.0
  0
LINE
  5
10DC
330
2
100
AcDbEntity
  8
0
100
AcDbLine
 10
591.9539122185295
 20
469.4562116610502
 30
0.0
 11
591.9539122185295
 21
552.5934565618206
 31
0.0
  0
LINE
  5
10DD
330
2
100
AcDbEntity
  8
0
100
AcDbLine
 10
577.9539122185296
 20
451.0248341115219
 30
0.0
 11
577.9539122185296
 21
571.0248341115218
 31
0.0
  0
LINE
  5
10DE
330
2
100
AcDbEntity
  8
CENTER
100
AcDbLine
 10
411.953915547336
 20
511.0248341114337
 30
0.0
 11
619.9539122185296
 21
511.0248341114346
 31
0.0
  0
LINE
  5
10DF
330
2
100
AcDbEntity
  8
0
100
AcDbLine
 10
483.9539155473397
 20
443.5248341115219
 30
0.0
 11
572.9539122185295
 21
444.3015253158499
 31
0.0
  0
LINE
  5
10E0
330
2
100
AcDbEntity
  8
0
100
AcDbLine
 10
572.9539122185295
 20
451.0248341115219
 30
0.0
 11
577.9539122185296
 21
451.0248341115219
 31
0.0
  0
LINE
  5
10E1
330
2
100
AcDbEntity
  8
0
100
AcDbLine
 10
572.9539122185314
 20
577.7481429071956
 30
0.0
 11
483.9539155473397
 21
578.5248341115218
 31
0.0
  0
LINE
  5
10E2
330
2
100
AcDbEntity
  8
0
100
AcDbLine
 10
572.9539122185295
 20
571.0248341115218
 30
0.0
 11
577.9539122185296
 21
571.0248341115218
 31
0.0
  0
LINE
  5
10E3
330
2
100
AcDbEntity
  8
0
100
AcDbLine
 10
572.9539122185314
 20
577.7481429071956
 30
0.0
 11
572.9539122185295
 21
444.3015253158499
 31
0.0
  0
LINE
  5
10E4
330
2
100
AcDbEntity
  8
0
100
AcDbLine
 10
590.0237112119347
 20
467.4574300070106
 30
0.0
 11
579.8841132251244
 21
467.1033474429749
 31
0.0
  0
LINE
  5
10E5
330
2
100
AcDbEntity
  8
0
100
AcDbLine
 10
590.0237112119347
 20
554.5922382158603
 30
0.0
 11
579.8841132251244
 21
554.946320779896
 31
0.0
  0
ARC
  5
10E6
330
2
100
AcDbEntity
  8
0
100
AcDbCircle
 10
579.9539122185295
 20
556.9451024339339
 30
0.0
 40
2.0
100
AcDbArc
 50
180.0
 51
267.9999999999963
  0
ARC
  5
10E7
330
2
100
AcDbEntity
  8
0
100
AcDbCircle
 10
579.9539122185295
 20
465.104565788937
 30
0.0
 40
2.0
100
AcDbArc
 50
92.00000000000365
 51
180.0
  0
ARC
  5
10E8
330
2
100
AcDbEntity
  8
0
100
AcDbCircle
 10
589.9539122185295
 20
469.4562116610502
 30
0.0
 40
2.0
100
AcDbArc
 50
272.0000000000036
 51
0.0
  0
ARC
  5
10E9
330
2
100
AcDbEntity
  8
0
100
AcDbCircle
 10
589.9539122185295
 20
552.5934565618206
 30
0.0
 40
2.0
100
AcDbArc
 50
0.0
 51
87.99999999999636
  0
LINE
  5
10EA
330
2
100
AcDbEntity
  8
0
100
AcDbLine
 10
572.9539122185295
 20
568.5248341116964
 30
0.0
 11
483.9539155473397
 21
568.5248341116964
 31
0.0
  0
LINE
  5
10EB
330
2
100
AcDbEntity
  8
0
100
AcDbLine
 10
572.9539122185295
 20
564.5248341116964
 30
0.0
 11
483.9539155473397
 21
564.5248341116964
 31
0.0
  0
LINE
  5
10EC
330
2
100
AcDbEntity
  8
0
100
AcDbLine
 10
572.9539122185295
 20
538.693029275604
 30
0.0
 11
483.9539155473397
 21
538.693029275604
 31
0.0
  0
LINE
  5
10ED
330
2
100
AcDbEntity
  8
0
100
AcDbLine
 10
572.9539122185295
 20
453.5248341111745
 30
0.0
 11
483.9539155473397
 21
453.5248341111745
 31
0.0
  0
LINE
  5
10EE
330
2
100
AcDbEntity
  8
0
100
AcDbLine
 10
572.9539122185295
 20
457.5248341111744
 30
0.0
 11
483.9539155473397
 21
457.5248341111744
 31
0.0
  0
LINE
  5
10EF
330
2
100
AcDbEntity
  8
0
100
AcDbLine
 10
572.9539122185295
 20
483.3566389472669
 30
0.0
 11
483.9539155473397
 21
483.3566389472669
 31
0.0
  0
LINE
  5
10F0
330
2
100
AcDbEntity
  8
0
100
AcDbLine
 10
928.3469546842161
 20
797.0842690162223
 30
0.0
 11
928.7747235166124
 21
846.1017220872196
 31
0.0
  0
ARC
  5
10F1
330
2
100
AcDbEntity
  8
0
100
AcDbCircle
 10
931.7268399789199
 20
840.6017220872197
 30
0.0
 40
3.0
100
AcDbArc
 50
90.0
 51
179.5000000000344
  0
ARC
  5
10F2
330
2
100
AcDbEntity
  8
0
100
AcDbCircle
 10
931.4606705112973
 20
810.1017220872197
 30
0.0
 40
3.0
100
AcDbArc
 50
90.0
 51
179.5000000000344
  0
ARC
  5
10F3
330
2
100
AcDbEntity
  8
0
100
AcDbCircle
 10
933.486927271443
 20
813.1017220872196
 30
0.0
 40
5.0
100
AcDbArc
 50
90.0
 51
179.5000000000344
  0
ARC
  5
10F4
330
2
100
AcDbEntity
  8
0
100
AcDbCircle
 10
926.3470308380863
 20
797.1017220872197
 30
0.0
 40
2.0
100
AcDbArc
 50
270.0
 51
359.5000000000345
  0
LINE
  5
10F5
330
2
100
AcDbEntity
  8
0
100
AcDbLine
 10
928.4605562761397
 20
882.1017220872271
 30
0.0
 11
928.7747235166015
 21
846.1017220872196
 31
0.0
  0
ARC
  5
10F6
330
2
100
AcDbEntity
  8
0
100
AcDbCircle
 10
931.4606705112973
 20
882.1017220872198
 30
0.0
 40
3.0
100
AcDbArc
 50
180.4999999999655
 51
270.0
  0
ARC
  5
10F7
330
2
100
AcDbEntity
  8
0
100
AcDbCircle
 10
933.4869272714412
 20
879.1017220872197
 30
0.0
 40
5.0
100
AcDbArc
 50
180.4999999999655
 51
270.0
  0
ARC
  5
10F8
330
2
100
AcDbEntity
  8
0
100
AcDbCircle
 10
931.7268399789089
 20
851.6017220872196
 30
0.0
 40
3.0
100
AcDbArc
 50
180.4999999999655
 51
270.0
  0
LINE
  5
10F9
330
2
100
AcDbEntity
  8
0
100
AcDbLine
 10
876.9605562762471
 20
882.6017220872179
 30
0.0
 11
876.1795016088681
 21
793.1017220872197
 31
0.0
  0
LINE
  5
10FA
330
2
100
AcDbEntity
  8
0
100
AcDbLine
 10
197.7280059068688
 20
562.0248341116965
 30
0.0
 11
162.165397021521
 21
562.0248341116965
 31
0.0
  0
CIRCLE
  5
10FB
330
2
100
AcDbEntity
  8
0
100
AcDbCircle
 10
176.665397021521
 20
556.5248341116964
 30
0.0
 40
2.0
  0
CIRCLE
  5
10FC
330
2
100
AcDbEntity
  8
HOJO
100
AcDbCircle
 10
176.665397021521
 20
556.5248341116964
 30
0.0
 40
2.5
  0
CIRCLE
  5
10FD
330
2
100
AcDbEntity
  8
0
100
AcDbCircle
 10
176.665397021521
 20
556.5248341116964
 30
0.0
 40
3.5
  0
CIRCLE
  5
10FE
330
2
100
AcDbEntity
  8
0
100
AcDbCircle
 10
176.665397021521
 20
556.5248341116964
 30
0.0
 40
4.0
  0
LINE
  5
10FF
330
2
100
AcDbEntity
  8
CENTER
100
AcDbLine
 10
184.665397021521
 20
556.5248341116983
 30
0.0
 11
168.665397021521
 21
556.5248341116964
 31
0.0
  0
LINE
  5
1100
330
2
100
AcDbEntity
  8
0
100
AcDbLine
 10
197.7280059068688
 20
460.0248341116965
 30
0.0
 11
162.165397021521
 21
460.0248341116965
 31
0.0
  0
CIRCLE
  5
1101
330
2
100
AcDbEntity
  8
0
100
AcDbCircle
 10
176.6653970215219
 20
465.5248341116965
 30
0.0
 40
4.0
  0
CIRCLE
  5
1102
330
2
100
AcDbEntity
  8
HOJO
100
AcDbCircle
 10
176.6653970215219
 20
465.5248341116965
 30
0.0
 40
2.5
  0
CIRCLE
  5
1103
330
2
100
AcDbEntity
  8
0
100
AcDbCircle
 10
176.6653970215219
 20
465.5248341116965
 30
0.0
 40
3.5
  0
CIRCLE
  5
1104
330
2
100
AcDbEntity
  8
0
100
AcDbCircle
 10
176.6653970215219
 20
465.5248341116965
 30
0.0
 40
2.0
  0
LINE
  5
1105
330
2
100
AcDbEntity
  8
0
100
AcDbLine
 10
154.165397021521
 20
468.0248341116965
 30
0.0
 11
154.165397021521
 21
554.0248341116964
 31
0.0
  0
LINE
  5
1106
330
2
100
AcDbEntity
  8
CENTER
100
AcDbLine
 10
162.165397021521
 20
564.7748341116964
 30
0.0
 11
162.1653970215228
 21
543.2748341116965
 31
0.0
  0
LINE
  5
1107
330
2
100
AcDbEntity
  8
0
100
AcDbLine
 10
162.1653970215228
 20
545.5248341116964
 30
0.0
 11
156.1653970215219
 21
545.5248341117001
 31
0.0
  0
LINE
  5
1108
330
2
100
AcDbEntity
  8
CENTER
100
AcDbLine
 10
172.915397021521
 20
554.0248341116982
 30
0.0
 11
151.415397021521
 21
554.0248341116964
 31
0.0
  0
ARC
  5
1109
330
2
100
AcDbEntity
  8
0
100
AcDbCircle
 10
162.165397021521
 20
554.0248341116964
 30
0.0
 40
8.0
100
AcDbArc
 50
90.0
 51
180.0
  0
LINE
  5
110A
330
2
100
AcDbEntity
  8
0
100
AcDbLine
 10
170.6653970215282
 20
554.0248341116909
 30
0.0
 11
170.665397021531
 21
560.0248341116983
 31
0.0
  0
LINE
  5
110B
330
2
100
AcDbEntity
  8
CENTER
100
AcDbLine
 10
176.665397021521
 20
564.5248341116964
 30
0.0
 11
176.6653970215219
 21
548.5248341116964
 31
0.0
  0
ARC
  5
110C
330
2
100
AcDbEntity
  8
0
100
AcDbCircle
 10
162.1653970215283
 20
554.0248341116964
 30
0.0
 40
8.5
100
AcDbArc
 50
269.9999999999739
 51
359.9999999998958
  0
ARC
  5
110D
330
2
100
AcDbEntity
  8
0
100
AcDbCircle
 10
162.1653970215283
 20
468.0248341116965
 30
0.0
 40
8.5
100
AcDbArc
 50
0.0
 51
90.00000000002605
  0
LINE
  5
110E
330
2
100
AcDbEntity
  8
0
100
AcDbLine
 10
162.1653970215228
 20
476.5248341116965
 30
0.0
 11
156.1653970215219
 21
476.5248341116929
 31
0.0
  0
ARC
  5
110F
330
2
100
AcDbEntity
  8
0
100
AcDbCircle
 10
162.165397021521
 20
468.0248341116965
 30
0.0
 40
8.0
100
AcDbArc
 50
180.0
 51
270.0
  0
LINE
  5
1110
330
2
100
AcDbEntity
  8
0
100
AcDbLine
 10
170.6653970215282
 20
468.0248341117019
 30
0.0
 11
170.665397021531
 21
462.0248341116965
 31
0.0
  0
ARC
  5
113E
330
2
100
AcDbEntity
  8
0
100
AcDbCircle
 10
172.665397021531
 20
462.0248341116965
 30
0.0
 40
2.0
100
AcDbArc
 50
180.0
 51
270.0
  0
ARC
  5
113F
330
2
100
AcDbEntity
  8
0
100
AcDbCircle
 10
156.165397021521
 20
478.5248341116928
 30
0.0
 40
2.0
100
AcDbArc
 50
180.0
 51
270.000000000026
  0
ARC
  5
1140
330
2
100
AcDbEntity
  8
0
100
AcDbCircle
 10
156.165397021521
 20
543.5248341117
 30
0.0
 40
2.0
100
AcDbArc
 50
89.99999999997395
 51
180.0
  0
ARC
  5
1141
330
2
100
AcDbEntity
  8
0
100
AcDbCircle
 10
172.665397021531
 20
560.0248341116964
 30
0.0
 40
2.0
100
AcDbArc
 50
90.0
 51
179.9999999998957
  0
ARC
  5
1158
330
2
100
AcDbEntity
  8
0
100
AcDbCircle
 10
197.7280059068688
 20
452.0248341116965
 30
0.0
 40
8.0
100
AcDbArc
 50
4.780191847234841
 51
90.0
  0
ARC
  5
1159
330
2
100
AcDbEntity
  8
0
100
AcDbCircle
 10
197.7280059068688
 20
570.0248341116965
 30
0.0
 40
8.0
100
AcDbArc
 50
270.0
 51
355.2198081527651
  0
LINE
  5
115F
330
2
100
AcDbEntity
  8
CENTER
100
AcDbLine
 10
184.665397021521
 20
465.5248341116965
 30
0.0
 11
168.665397021521
 21
465.5248341116965
 31
0.0
  0
LINE
  5
1160
330
2
100
AcDbEntity
  8
CENTER
100
AcDbLine
 10
162.165397021521
 20
457.2748341116965
 30
0.0
 11
162.1653970215228
 21
478.7748341116965
 31
0.0
  0
LINE
  5
1161
330
2
100
AcDbEntity
  8
CENTER
100
AcDbLine
 10
172.915397021521
 20
468.0248341116965
 30
0.0
 11
151.415397021521
 21
468.0248341116983
 31
0.0
  0
LINE
  5
1162
330
2
100
AcDbEntity
  8
CENTER
100
AcDbLine
 10
176.665397021521
 20
457.5248341116965
 30
0.0
 11
176.6653970215219
 21
473.5248341116965
 31
0.0
  0
CIRCLE
  5
1171
330
2
100
AcDbEntity
  8
0
100
AcDbCircle
 10
162.1653970215283
 20
554.0248341116964
 30
0.0
 40
5.63397459621558
  0
CIRCLE
  5
1172
330
2
100
AcDbEntity
  8
0
100
AcDbCircle
 10
162.1653970215283
 20
554.0248341116964
 30
0.0
 40
6.5
  0
LINE
  5
1173
330
2
100
AcDbEntity
  8
0
100
AcDbLine
 10
165.1653970215282
 20
552.2927833041283
 30
0.0
 11
165.1653970215282
 21
555.7568849192664
 31
0.0
  0
LINE
  5
1174
330
2
100
AcDbEntity
  8
0
100
AcDbLine
 10
159.1653970215283
 20
555.7568849192664
 30
0.0
 11
159.1653970215283
 21
552.2927833041283
 31
0.0
  0
LINE
  5
1175
330
2
100
AcDbEntity
  8
0
100
AcDbLine
 10
162.1653970215283
 20
550.5607324965601
 30
0.0
 11
165.1653970215282
 21
552.2927833041283
 31
0.0
  0
LINE
  5
1176
330
2
100
AcDbEntity
  8
0
100
AcDbLine
 10
159.1653970215283
 20
552.2927833041283
 30
0.0
 11
162.1653970215283
 21
550.5607324965601
 31
0.0
  0
LINE
  5
1177
330
2
100
AcDbEntity
  8
0
100
AcDbLine
 10
159.1653970215283
 20
555.7568849192664
 30
0.0
 11
162.1653970215283
 21
557.4889357268346
 31
0.0
  0
LINE
  5
1178
330
2
100
AcDbEntity
  8
0
100
AcDbLine
 10
162.1653970215283
 20
557.4889357268346
 30
0.0
 11
165.1653970215282
 21
555.7568849192664
 31
0.0
  0
CIRCLE
  5
1179
330
2
100
AcDbEntity
  8
0
100
AcDbCircle
 10
162.1653970215219
 20
468.0248341116965
 30
0.0
 40
5.63397459621558
  0
CIRCLE
  5
117A
330
2
100
AcDbEntity
  8
0
100
AcDbCircle
 10
162.1653970215219
 20
468.0248341116965
 30
0.0
 40
6.5
  0
LINE
  5
117B
330
2
100
AcDbEntity
  8
0
100
AcDbLine
 10
165.1653970215219
 20
466.2927833041283
 30
0.0
 11
165.1653970215219
 21
469.7568849192665
 31
0.0
  0
LINE
  5
117C
330
2
100
AcDbEntity
  8
0
100
AcDbLine
 10
159.1653970215219
 20
469.7568849192665
 30
0.0
 11
159.1653970215219
 21
466.2927833041283
 31
0.0
  0
LINE
  5
117D
330
2
100
AcDbEntity
  8
0
100
AcDbLine
 10
162.1653970215219
 20
464.5607324965584
 30
0.0
 11
165.1653970215219
 21
466.2927833041283
 31
0.0
  0
LINE
  5
117E
330
2
100
AcDbEntity
  8
0
100
AcDbLine
 10
159.1653970215219
 20
466.2927833041283
 30
0.0
 11
162.1653970215219
 21
464.5607324965584
 31
0.0
  0
LINE
  5
117F
330
2
100
AcDbEntity
  8
0
100
AcDbLine
 10
159.1653970215219
 20
469.7568849192665
 30
0.0
 11
162.1653970215219
 21
471.4889357268346
 31
0.0
  0
LINE
  5
1180
330
2
100
AcDbEntity
  8
0
100
AcDbLine
 10
162.1653970215219
 20
471.4889357268346
 30
0.0
 11
165.1653970215219
 21
469.7568849192665
 31
0.0
  0
ARC
  5
1189
330
2
100
AcDbEntity
  8
0
100
AcDbCircle
 10
465.4539155473397
 20
576.3633109005347
 30
0.0
 40
2.0
100
AcDbArc
 50
90.49999999999155
 51
180.0
  0
LINE
  5
118A
330
2
100
AcDbEntity
  8
0
100
AcDbLine
 10
462.868129109713
 20
565.4390476738078
 30
0.0
 11
462.0397019849664
 21
564.610620549063
 31
0.0
  0
LINE
  5
118B
330
2
100
AcDbEntity
  8
0
100
AcDbLine
 10
452.9539155473397
 20
552.9474838422463
 30
0.0
 11
452.9539155473407
 21
469.1021843806227
 31
0.0
  0
LINE
  5
118C
330
2
100
AcDbEntity
  8
0
100
AcDbLine
 10
461.4539155473397
 20
556.0248341114345
 30
0.0
 11
460.9539155473397
 21
555.5248341114345
 31
0.0
  0
LINE
  5
118D
330
2
100
AcDbEntity
  8
0
100
AcDbLine
 10
457.4539155473397
 20
553.3248341114356
 30
0.0
 11
457.6539155473396
 21
553.5248341114345
 31
0.0
  0
LINE
  5
118E
330
2
100
AcDbEntity
  8
0
100
AcDbLine
 10
455.6539155473395
 20
552.8248341114355
 30
0.0
 11
457.2539155473399
 21
552.8248341114355
 31
0.0
  0
LINE
  5
118F
330
2
100
AcDbEntity
  8
0
100
AcDbLine
 10
453.9539155473398
 20
553.5248341114345
 30
0.0
 11
452.9539155473397
 21
552.9474838422463
 31
0.0
  0
LINE
  5
1190
330
2
100
AcDbEntity
  8
0
100
AcDbLine
 10
453.9539155473398
 20
553.5248341114345
 30
0.0
 11
455.2539155473399
 21
553.5248341114345
 31
0.0
  0
LINE
  5
1191
330
2
100
AcDbEntity
  8
0
100
AcDbLine
 10
457.6539155473396
 20
553.5248341114345
 30
0.0
 11
460.9539155473397
 21
553.5248341114345
 31
0.0
  0
LINE
  5
1192
330
2
100
AcDbEntity
  8
0
100
AcDbLine
 10
461.4539155473352
 20
458.8532612361812
 30
0.0
 11
461.4539155473479
 21
563.1964069866897
 31
0.0
  0
LINE
  5
1193
330
2
100
AcDbEntity
  8
0
100
AcDbLine
 10
461.4539155473361
 20
466.0248341114345
 30
0.0
 11
460.9539155473361
 21
466.5248341114345
 31
0.0
  0
LINE
  5
1194
330
2
100
AcDbEntity
  8
0
100
AcDbLine
 10
457.453915547336
 20
468.7248341114353
 30
0.0
 11
457.453915547336
 21
553.324834111432
 31
0.0
  0
LINE
  5
1195
330
2
100
AcDbEntity
  8
0
100
AcDbLine
 10
457.453915547336
 20
468.7248341114353
 30
0.0
 11
457.6539155473359
 21
468.5248341114346
 31
0.0
  0
LINE
  5
1196
330
2
100
AcDbEntity
  8
0
100
AcDbLine
 10
455.4539155473361
 20
468.7248341114353
 30
0.0
 11
455.4539155472715
 21
553.3248341114356
 31
0.0
  0
LINE
  5
1197
330
2
100
AcDbEntity
  8
0
100
AcDbLine
 10
453.9539155473361
 20
468.5248341114346
 30
0.0
 11
455.2539155473353
 21
468.5248341114346
 31
0.0
  0
LINE
  5
1198
330
2
100
AcDbEntity
  8
0
100
AcDbLine
 10
455.6539155473359
 20
469.2248341114352
 30
0.0
 11
457.2539155473354
 21
469.2248341114352
 31
0.0
  0
LINE
  5
1199
330
2
100
AcDbEntity
  8
0
100
AcDbLine
 10
453.9539155473361
 20
468.5248341114346
 30
0.0
 11
452.9539155473361
 21
469.1021843806246
 31
0.0
  0
LINE
  5
119A
330
2
100
AcDbEntity
  8
0
100
AcDbLine
 10
460.9539155473361
 20
466.5248341114345
 30
0.0
 11
460.9539155473361
 21
555.5248341114308
 31
0.0
  0
LINE
  5
119B
330
2
100
AcDbEntity
  8
0
100
AcDbLine
 10
457.6539155473359
 20
468.5248341114346
 30
0.0
 11
460.9539155473361
 21
468.5248341114346
 31
0.0
  0
LINE
  5
119C
330
2
100
AcDbEntity
  8
0
100
AcDbLine
 10
463.4539155473352
 20
445.6863573223361
 30
0.0
 11
463.4539155473352
 21
576.3633109005347
 31
0.0
  0
LINE
  5
119D
330
2
100
AcDbEntity
  8
0
100
AcDbLine
 10
462.8681291097085
 20
456.6106205490612
 30
0.0
 11
462.0397019849618
 21
457.4390476738079
 31
0.0
  0
LINE
  5
119E
330
2
100
AcDbEntity
  8
0
100
AcDbLine
 10
465.4364624763433
 20
578.3632347466626
 30
0.0
 11
483.9539155473397
 21
578.5248341114363
 31
0.0
  0
ARC
  5
119F
330
2
100
AcDbEntity
  8
0
100
AcDbCircle
 10
463.4539155473352
 20
458.8532612361812
 30
0.0
 40
2.0
100
AcDbArc
 50
180.0
 51
225.0000000000086
  0
ARC
  5
11A0
330
2
100
AcDbEntity
  8
0
100
AcDbCircle
 10
461.4539155473352
 20
455.1964069866897
 30
0.0
 40
2.0
100
AcDbArc
 50
0.0
 51
45.00000000000865
  0
ARC
  5
11A1
330
2
100
AcDbEntity
  8
0
100
AcDbCircle
 10
463.4539155473397
 20
563.1964069866897
 30
0.0
 40
2.0
100
AcDbArc
 50
134.9999999999913
 51
180.0
  0
ARC
  5
11A2
330
2
100
AcDbEntity
  8
0
100
AcDbCircle
 10
461.4539155473397
 20
566.8532612361811
 30
0.0
 40
2.0
100
AcDbArc
 50
314.9999999999913
 51
0.0
  0
ARC
  5
11A3
330
2
100
AcDbEntity
  8
0
100
AcDbCircle
 10
455.2539155473399
 20
553.3248341114356
 30
0.0
 40
0.2
100
AcDbArc
 50
0.0
 51
90.0
  0
ARC
  5
11A4
330
2
100
AcDbEntity
  8
0
100
AcDbCircle
 10
455.6539155473395
 20
553.0248341114363
 30
0.0
 40
0.2
100
AcDbArc
 50
180.0
 51
270.0
  0
ARC
  5
11A5
330
2
100
AcDbEntity
  8
0
100
AcDbCircle
 10
457.2539155473399
 20
553.0248341114363
 30
0.0
 40
0.2
100
AcDbArc
 50
270.0
 51
0.0
  0
ARC
  5
11A6
330
2
100
AcDbEntity
  8
0
100
AcDbCircle
 10
455.2539155473353
 20
468.7248341114353
 30
0.0
 40
0.2
100
AcDbArc
 50
270.0
 51
0.0
  0
ARC
  5
11A7
330
2
100
AcDbEntity
  8
0
100
AcDbCircle
 10
455.6539155473359
 20
469.0248341114346
 30
0.0
 40
0.2
100
AcDbArc
 50
90.0
 51
180.0
  0
ARC
  5
11A8
330
2
100
AcDbEntity
  8
0
100
AcDbCircle
 10
457.2539155473354
 20
469.0248341114346
 30
0.0
 40
0.2
100
AcDbArc
 50
0.0
 51
90.0
  0
LINE
  5
11A9
330
2
100
AcDbEntity
  8
0
100
AcDbLine
 10
453.9539155473398
 20
553.5248341114345
 30
0.0
 11
453.9539155473361
 21
468.5248341114346
 31
0.0
  0
LINE
  5
11AA
330
2
100
AcDbEntity
  8
0
100
AcDbLine
 10
473.4582788150795
 20
560.0205087551983
 30
0.0
 11
465.4364624763378
 21
559.9505034245683
 31
0.0
  0
LINE
  5
11AB
330
2
100
AcDbEntity
  8
0
100
AcDbLine
 10
473.9539155473306
 20
560.520489716733
 30
0.0
 11
473.9539155473306
 21
577.4462542229318
 31
0.0
  0
ARC
  5
11AC
330
2
100
AcDbEntity
  8
0
100
AcDbCircle
 10
473.4539155473306
 20
560.520489716733
 30
0.0
 40
0.5
100
AcDbArc
 50
270.5000000000175
 51
0.0
  0
ARC
  5
11AD
330
2
100
AcDbEntity
  8
0
100
AcDbCircle
 10
474.9539155473306
 20
577.4462542229318
 30
0.0
 40
1.0
100
AcDbArc
 50
90.50000000001761
 51
180.0
  0
ARC
  5
11AE
330
2
100
AcDbEntity
  8
0
100
AcDbCircle
 10
465.4539155473352
 20
557.9505795784405
 30
0.0
 40
2.0
100
AcDbArc
 50
90.49999999999155
 51
180.0
  0
LINE
  5
11AF
330
2
100
AcDbEntity
  8
0
100
AcDbLine
 10
474.9451890118328
 20
568.5248341114363
 30
0.0
 11
483.9539155473397
 21
568.5248341114363
 31
0.0
  0
LINE
  5
11B0
330
2
100
AcDbEntity
  8
0
100
AcDbLine
 10
474.9451890118328
 20
564.5248341114363
 30
0.0
 11
483.9539155473397
 21
564.5248341114363
 31
0.0
  0
LINE
  5
11B1
330
2
100
AcDbEntity
  8
0
100
AcDbLine
 10
465.4364624763378
 20
538.693029275604
 30
0.0
 11
483.9539155473397
 21
538.693029275604
 31
0.0
  0
LINE
  5
11B2
330
2
100
AcDbEntity
  8
0
100
AcDbLine
 10
474.9451890118328
 20
453.5248341114345
 30
0.0
 11
483.9539155473397
 21
453.5248341114345
 31
0.0
  0
LINE
  5
11B3
330
2
100
AcDbEntity
  8
0
100
AcDbLine
 10
474.9451890118328
 20
457.5248341114345
 30
0.0
 11
483.9539155473397
 21
457.5248341114345
 31
0.0
  0
LINE
  5
11B4
330
2
100
AcDbEntity
  8
0
100
AcDbLine
 10
465.4364624763378
 20
483.3566389472669
 30
0.0
 11
483.9539155473397
 21
483.3566389472669
 31
0.0
  0
ARC
  5
11B5
330
2
100
AcDbEntity
  8
0
100
AcDbCircle
 10
465.4539155473397
 20
445.6863573223361
 30
0.0
 40
2.0
100
AcDbArc
 50
180.0
 51
269.5000000000084
  0
LINE
  5
11B6
330
2
100
AcDbEntity
  8
0
100
AcDbLine
 10
465.4364624763433
 20
443.6864334762083
 30
0.0
 11
483.9539155473397
 21
443.5248341114346
 31
0.0
  0
ARC
  5
11B7
330
2
100
AcDbEntity
  8
0
100
AcDbCircle
 10
474.9539155473306
 20
444.603413999939
 30
0.0
 40
1.0
100
AcDbArc
 50
180.0
 51
269.4999999999824
  0
LINE
  5
11B8
330
2
100
AcDbEntity
  8
0
100
AcDbLine
 10
473.4582788150795
 20
462.0291594676726
 30
0.0
 11
465.4364624763378
 21
462.0991647983026
 31
0.0
  0
LINE
  5
11B9
330
2
100
AcDbEntity
  8
0
100
AcDbLine
 10
473.9539155473306
 20
461.5291785061379
 30
0.0
 11
473.9539155473306
 21
444.603413999939
 31
0.0
  0
ARC
  5
11BA
330
2
100
AcDbEntity
  8
0
100
AcDbCircle
 10
473.4539155473306
 20
461.5291785061379
 30
0.0
 40
0.5
100
AcDbArc
 50
0.0
 51
89.49999999998238
  0
ARC
  5
11BB
330
2
100
AcDbEntity
  8
0
100
AcDbCircle
 10
465.4539155473352
 20
464.0990886444304
 30
0.0
 40
2.0
100
AcDbArc
 50
180.0
 51
269.5000000000084
  0
LINE
  5
11BC
330
2
100
AcDbEntity
  8
0
100
AcDbLine
 10
483.9539155473397
 20
578.5248341114363
 30
0.0
 11
483.9539155473397
 21
443.5248341114346
 31
0.0
  0
LINE
  5
11BD
330
2
100
AcDbEntity
  8
0
100
AcDbLine
 10
463.9539155473307
 20
574.1588087076523
 30
0.0
 11
463.9539155473307
 21
562.8908595152222
 31
0.0
  0
LINE
  5
11BE
330
2
100
AcDbEntity
  8
0
100
AcDbLine
 10
471.9539155473306
 20
575.0248341114363
 30
0.0
 11
471.9539155473316
 21
562.0248341114363
 31
0.0
  0
LINE
  5
11BF
330
2
100
AcDbEntity
  8
0
100
AcDbLine
 10
464.4539155473307
 20
562.0248341114363
 30
0.0
 11
463.9539155473307
 21
562.8908595152222
 31
0.0
  0
LINE
  5
11C0
330
2
100
AcDbEntity
  8
0
100
AcDbLine
 10
473.9539155473306
 20
562.0248341114363
 30
0.0
 11
471.9539155473306
 21
562.0248341114363
 31
0.0
  0
LINE
  5
11C1
330
2
100
AcDbEntity
  8
0
100
AcDbLine
 10
471.9539155473306
 20
562.0248341114363
 30
0.0
 11
464.4539155473307
 21
562.0248341114363
 31
0.0
  0
LINE
  5
11C2
330
2
100
AcDbEntity
  8
CENTER
  6
CENS
100
AcDbLine
 10
493.5314100005383
 20
568.5248341114363
 30
0.0
 11
457.9539155473306
 21
568.5248341114363
 31
0.0
  0
LINE
  5
11C3
330
2
100
AcDbEntity
  8
0
100
AcDbLine
 10
464.4539155473307
 20
575.0248341114363
 30
0.0
 11
463.9539155473307
 21
574.1588087076523
 31
0.0
  0
LINE
  5
11C4
330
2
100
AcDbEntity
  8
0
100
AcDbLine
 10
473.9539155473306
 20
575.0248341114363
 30
0.0
 11
471.9539155473306
 21
575.0248341114363
 31
0.0
  0
LINE
  5
11C5
330
2
100
AcDbEntity
  8
0
100
AcDbLine
 10
471.9539155473306
 20
575.0248341114363
 30
0.0
 11
464.4539155473307
 21
575.0248341114363
 31
0.0
  0
LINE
  5
11C6
330
2
100
AcDbEntity
  8
0
100
AcDbLine
 10
464.4539155473307
 20
575.0248341114363
 30
0.0
 11
464.4539155473307
 21
562.0248341114363
 31
0.0
  0
LINE
  5
11C7
330
2
100
AcDbEntity
  8
0
100
AcDbLine
 10
463.9539155473307
 20
447.8908595152186
 30
0.0
 11
463.9539155473307
 21
459.1588087076487
 31
0.0
  0
LINE
  5
11C8
330
2
100
AcDbEntity
  8
0
100
AcDbLine
 10
471.9539155473306
 20
447.0248341114346
 30
0.0
 11
471.9539155473316
 21
460.0248341114346
 31
0.0
  0
LINE
  5
11C9
330
2
100
AcDbEntity
  8
0
100
AcDbLine
 10
464.4539155473307
 20
460.0248341114346
 30
0.0
 11
463.9539155473307
 21
459.1588087076487
 31
0.0
  0
LINE
  5
11CA
330
2
100
AcDbEntity
  8
0
100
AcDbLine
 10
473.9539155473306
 20
460.0248341114346
 30
0.0
 11
471.9539155473306
 21
460.0248341114346
 31
0.0
  0
LINE
  5
11CB
330
2
100
AcDbEntity
  8
0
100
AcDbLine
 10
471.9539155473306
 20
460.0248341114346
 30
0.0
 11
464.4539155473307
 21
460.0248341114346
 31
0.0
  0
LINE
  5
11CC
330
2
100
AcDbEntity
  8
CENTER
  6
CENS
100
AcDbLine
 10
493.5314100005383
 20
453.5248341114345
 30
0.0
 11
457.9539155473306
 21
453.5248341114345
 31
0.0
  0
LINE
  5
11CD
330
2
100
AcDbEntity
  8
0
100
AcDbLine
 10
464.4539155473307
 20
447.0248341114346
 30
0.0
 11
463.9539155473307
 21
447.8908595152186
 31
0.0
  0
LINE
  5
11CE
330
2
100
AcDbEntity
  8
0
100
AcDbLine
 10
473.9539155473306
 20
447.0248341114346
 30
0.0
 11
471.9539155473306
 21
447.0248341114346
 31
0.0
  0
LINE
  5
11CF
330
2
100
AcDbEntity
  8
0
100
AcDbLine
 10
471.9539155473306
 20
447.0248341114346
 30
0.0
 11
464.4539155473307
 21
447.0248341114346
 31
0.0
  0
LINE
  5
11D0
330
2
100
AcDbEntity
  8
0
100
AcDbLine
 10
464.4539155473307
 20
447.0248341114346
 30
0.0
 11
464.4539155473307
 21
460.0248341114346
 31
0.0
  0
LINE
  5
11D1
330
2
100
AcDbEntity
  8
0
100
AcDbLine
 10
913.960556276138
 20
897.1017220872397
 30
0.0
 11
878.9605562761378
 21
897.1017220872397
 31
0.0
  0
ARC
  5
11D2
330
2
100
AcDbEntity
  8
0
100
AcDbCircle
 10
926.3470308380863
 20
895.1017220872397
 30
0.0
 40
2.0
100
AcDbArc
 50
0.4999999999654926
 51
72.13575521911838
  0
LINE
  5
11D3
330
2
100
AcDbEntity
  8
0
100
AcDbLine
 10
741.9605562761379
 20
882.1017220872343
 30
0.0
 11
928.4605562761379
 21
882.1017220872343
 31
0.0
  0
ARC
  5
11D4
330
2
100
AcDbEntity
  8
0
100
AcDbCircle
 10
744.1220794870395
 20
900.6017220872342
 30
0.0
 40
2.0
100
AcDbArc
 50
90.0
 51
179.5000000000344
  0
LINE
  5
11D5
330
2
100
AcDbEntity
  8
0
100
AcDbLine
 10
755.0463427137645
 20
903.1875085248609
 30
0.0
 11
755.8747698385112
 21
904.0159356496076
 31
0.0
  0
LINE
  5
11D6
330
2
100
AcDbEntity
  8
0
100
AcDbLine
 10
767.5379065453279
 20
913.1017220872342
 30
0.0
 11
851.3832060069516
 21
913.1017220872342
 31
0.0
  0
LINE
  5
11D7
330
2
100
AcDbEntity
  8
0
100
AcDbLine
 10
764.4605562761379
 20
904.6017220872343
 30
0.0
 11
764.9605562761379
 21
905.1017220872342
 31
0.0
  0
LINE
  5
11D8
330
2
100
AcDbEntity
  8
0
100
AcDbLine
 10
767.1605562761386
 20
908.6017220872342
 30
0.0
 11
766.9605562761379
 21
908.4017220872354
 31
0.0
  0
LINE
  5
11D9
330
2
100
AcDbEntity
  8
0
100
AcDbLine
 10
767.6605562761387
 20
910.4017220872353
 30
0.0
 11
767.6605562761387
 21
908.801722087235
 31
0.0
  0
LINE
  5
11DA
330
2
100
AcDbEntity
  8
0
100
AcDbLine
 10
766.9605562761379
 20
912.1017220872342
 30
0.0
 11
767.5379065453279
 21
913.1017220872342
 31
0.0
  0
LINE
  5
11DB
330
2
100
AcDbEntity
  8
0
100
AcDbLine
 10
766.9605562761379
 20
912.1017220872342
 30
0.0
 11
766.9605562761379
 21
910.8017220872349
 31
0.0
  0
LINE
  5
11DC
330
2
100
AcDbEntity
  8
0
100
AcDbLine
 10
766.9605562761379
 20
908.4017220872354
 30
0.0
 11
766.9605562761379
 21
905.1017220872342
 31
0.0
  0
LINE
  5
11DD
330
2
100
AcDbEntity
  8
0
100
AcDbLine
 10
861.6321291513912
 20
904.6017220872398
 30
0.0
 11
757.2889834008845
 21
904.601722087227
 31
0.0
  0
LINE
  5
11DE
330
2
100
AcDbEntity
  8
0
100
AcDbLine
 10
854.4605562761379
 20
904.6017220872398
 30
0.0
 11
853.9605562761378
 21
905.1017220872379
 31
0.0
  0
LINE
  5
11DF
330
2
100
AcDbEntity
  8
0
100
AcDbLine
 10
851.760556276139
 20
908.6017220872379
 30
0.0
 11
767.1605562761422
 21
908.6017220872379
 31
0.0
  0
LINE
  5
11E0
330
2
100
AcDbEntity
  8
0
100
AcDbLine
 10
851.760556276139
 20
908.6017220872379
 30
0.0
 11
851.9605562761379
 21
908.4017220872389
 31
0.0
  0
LINE
  5
11E1
330
2
100
AcDbEntity
  8
0
100
AcDbLine
 10
851.760556276139
 20
910.6017220872379
 30
0.0
 11
767.1605562761386
 21
910.6017220873035
 31
0.0
  0
LINE
  5
11E2
330
2
100
AcDbEntity
  8
0
100
AcDbLine
 10
851.9605562761379
 20
912.101722087238
 30
0.0
 11
851.9605562761379
 21
910.8017220872387
 31
0.0
  0
LINE
  5
11E3
330
2
100
AcDbEntity
  8
0
100
AcDbLine
 10
851.260556276139
 20
910.4017220872391
 30
0.0
 11
851.260556276139
 21
908.8017220872385
 31
0.0
  0
LINE
  5
11E4
330
2
100
AcDbEntity
  8
0
100
AcDbLine
 10
851.9605562761379
 20
912.101722087238
 30
0.0
 11
851.3832060069479
 21
913.1017220872379
 31
0.0
  0
LINE
  5
11E5
330
2
100
AcDbEntity
  8
0
100
AcDbLine
 10
853.9605562761378
 20
905.1017220872379
 30
0.0
 11
764.9605562761415
 21
905.1017220872379
 31
0.0
  0
LINE
  5
11E6
330
2
100
AcDbEntity
  8
0
100
AcDbLine
 10
851.9605562761379
 20
908.4017220872389
 30
0.0
 11
851.9605562761379
 21
905.1017220872379
 31
0.0
  0
LINE
  5
11E7
330
2
100
AcDbEntity
  8
0
100
AcDbLine
 10
874.9605562761379
 20
902.6017220872397
 30
0.0
 11
744.1220794870395
 21
902.6017220872397
 31
0.0
  0
LINE
  5
11E8
330
2
100
AcDbEntity
  8
0
100
AcDbLine
 10
863.8747698385113
 20
903.1875085248664
 30
0.0
 11
863.0463427137646
 21
904.0159356496131
 31
0.0
  0
LINE
  5
11E9
330
2
100
AcDbEntity
  8
0
100
AcDbLine
 10
876.9605562761379
 20
899.1017220872397
 30
0.0
 11
876.9605562761379
 21
900.6017220872397
 31
0.0
  0
ARC
  5
11EA
330
2
100
AcDbEntity
  8
0
100
AcDbCircle
 10
878.9605562761378
 20
899.1017220872397
 30
0.0
 40
2.0
100
AcDbArc
 50
180.0
 51
270.0
  0
LINE
  5
11EB
330
2
100
AcDbEntity
  8
0
100
AcDbLine
 10
928.4605562761379
 20
882.1017220872343
 30
0.0
 11
928.3469546842141
 21
895.1191751582353
 31
0.0
  0
ARC
  5
11EC
330
2
100
AcDbEntity
  8
0
100
AcDbCircle
 10
927.3819763876353
 20
891.1017220872434
 30
0.0
 40
1.0
100
AcDbArc
 50
0.4999999999654926
 51
90.0
  0
LINE
  5
11ED
330
2
100
AcDbEntity
  8
0
100
AcDbLine
 10
742.1221556409099
 20
900.6191751582317
 30
0.0
 11
741.9605562761379
 21
882.1017220872343
 31
0.0
  0
ARC
  5
11EE
330
2
100
AcDbEntity
  8
0
100
AcDbCircle
 10
874.9605562761379
 20
900.6017220872397
 30
0.0
 40
2.0
100
AcDbArc
 50
0.0
 51
90.0
  0
ARC
  5
11EF
330
2
100
AcDbEntity
  8
0
100
AcDbCircle
 10
861.632129151393
 20
902.6017220872397
 30
0.0
 40
2.0
100
AcDbArc
 50
45.00000000000865
 51
90.0
  0
ARC
  5
11F0
330
2
100
AcDbEntity
  8
0
100
AcDbCircle
 10
865.2889834008846
 20
904.6017220872398
 30
0.0
 40
2.0
100
AcDbArc
 50
225.0000000000086
 51
270.0
  0
ARC
  5
11F1
330
2
100
AcDbEntity
  8
0
100
AcDbCircle
 10
757.2889834008845
 20
902.6017220872343
 30
0.0
 40
2.0
100
AcDbArc
 50
90.0
 51
134.9999999999913
  0
ARC
  5
11F2
330
2
100
AcDbEntity
  8
0
100
AcDbCircle
 10
753.6321291513912
 20
904.6017220872343
 30
0.0
 40
2.0
100
AcDbArc
 50
270.0
 51
314.9999999999913
  0
ARC
  5
11F3
330
2
100
AcDbEntity
  8
0
100
AcDbCircle
 10
767.1605562761386
 20
910.8017220872349
 30
0.0
 40
0.2
100
AcDbArc
 50
180.0
 51
270.0
  0
ARC
  5
11F4
330
2
100
AcDbEntity
  8
0
100
AcDbCircle
 10
767.4605562761379
 20
910.4017220872353
 30
0.0
 40
0.2
100
AcDbArc
 50
0.0
 51
90.0
  0
ARC
  5
11F5
330
2
100
AcDbEntity
  8
0
100
AcDbCircle
 10
767.4605562761379
 20
908.801722087235
 30
0.0
 40
0.2
100
AcDbArc
 50
270.0
 51
0.0
  0
ARC
  5
11F6
330
2
100
AcDbEntity
  8
0
100
AcDbCircle
 10
851.760556276139
 20
910.8017220872387
 30
0.0
 40
0.2
100
AcDbArc
 50
270.0
 51
0.0
  0
ARC
  5
11F7
330
2
100
AcDbEntity
  8
0
100
AcDbCircle
 10
851.460556276138
 20
910.4017220872391
 30
0.0
 40
0.2
100
AcDbArc
 50
90.0
 51
180.0
  0
ARC
  5
11F8
330
2
100
AcDbEntity
  8
0
100
AcDbCircle
 10
851.460556276138
 20
908.8017220872385
 30
0.0
 40
0.2
100
AcDbArc
 50
180.0
 51
270.0
  0
LINE
  5
11F9
330
2
100
AcDbEntity
  8
0
100
AcDbLine
 10
766.9605562761379
 20
912.1017220872342
 30
0.0
 11
851.9605562761379
 21
912.101722087238
 31
0.0
  0
LINE
  5
11FA
330
2
100
AcDbEntity
  8
0
100
AcDbLine
 10
912.0115571842424
 20
895.154075983855
 30
0.0
 11
912.0787356569534
 21
892.5886336130895
 31
0.0
  0
LINE
  5
11FB
330
2
100
AcDbEntity
  8
0
100
AcDbLine
 10
912.578564319442
 20
892.1017220872434
 30
0.0
 11
927.3819763876353
 21
892.1017220872434
 31
0.0
  0
ARC
  5
11FC
330
2
100
AcDbEntity
  8
0
100
AcDbCircle
 10
912.578564319442
 20
892.6017220872434
 30
0.0
 40
0.5
100
AcDbArc
 50
181.4999999999897
 51
270.0
  0
ARC
  5
11FD
330
2
100
AcDbEntity
  8
0
100
AcDbCircle
 10
910.0122425342915
 20
895.1017220872397
 30
0.0
 40
2.0
100
AcDbArc
 50
1.499999999989693
 51
90.0
  0
LINE
  5
11FE
330
2
100
AcDbEntity
  8
0
100
AcDbLine
 10
760.4648816323742
 20
892.5973588194954
 30
0.0
 11
760.5348869630041
 21
900.619175158237
 31
0.0
  0
LINE
  5
11FF
330
2
100
AcDbEntity
  8
0
100
AcDbLine
 10
759.9649006708395
 20
892.1017220872434
 30
0.0
 11
743.0391361646406
 21
892.1017220872434
 31
0.0
  0
ARC
  5
1200
330
2
100
AcDbEntity
  8
0
100
AcDbCircle
 10
759.9649006708395
 20
892.6017220872434
 30
0.0
 40
0.5
100
AcDbArc
 50
270.0
 51
359.5000000000345
  0
ARC
  5
1201
330
2
100
AcDbEntity
  8
0
100
AcDbCircle
 10
743.0391361646406
 20
891.1017220872434
 30
0.0
 40
1.0
100
AcDbArc
 50
90.0
 51
179.5000000000344
  0
ARC
  5
1202
330
2
100
AcDbEntity
  8
0
100
AcDbCircle
 10
762.5348108091337
 20
900.6017220872397
 30
0.0
 40
2.0
100
AcDbArc
 50
90.0
 51
179.5000000000344
  0
LINE
  5
1203
330
2
100
AcDbEntity
  8
0
100
AcDbLine
 10
876.9605562761379
 20
882.1017220872343
 30
0.0
 11
876.9605562761379
 21
900.6017220872397
 31
0.0
  0
LINE
  5
1204
330
2
100
AcDbEntity
  8
0
100
AcDbLine
 10
751.9605562761379
 20
891.1104486227412
 30
0.0
 11
751.9605562761379
 21
882.1017220872343
 31
0.0
  0
LINE
  5
1205
330
2
100
AcDbEntity
  8
0
100
AcDbLine
 10
755.9605562761379
 20
891.1104486227412
 30
0.0
 11
755.9605562761379
 21
882.1017220872343
 31
0.0
  0
LINE
  5
1206
330
2
100
AcDbEntity
  8
0
100
AcDbLine
 10
781.792361112214
 20
900.619175158237
 30
0.0
 11
781.792361112214
 21
882.1017220872343
 31
0.0
  0
LINE
  5
1207
330
2
100
AcDbEntity
  8
0
100
AcDbLine
 10
866.9605562761379
 20
900.6017220872397
 30
0.0
 11
866.9605562761379
 21
882.1017220872343
 31
0.0
  0
LINE
  5
1208
330
2
100
AcDbEntity
  8
0
100
AcDbLine
 10
862.960556276138
 20
900.6017220872397
 30
0.0
 11
862.960556276138
 21
882.1017220872343
 31
0.0
  0
LINE
  5
1209
330
2
100
AcDbEntity
  8
0
100
AcDbLine
 10
837.1287514400618
 20
900.619175158237
 30
0.0
 11
837.1287514400618
 21
882.1017220872343
 31
0.0
  0
LINE
  5
120A
330
2
100
AcDbEntity
  8
0
100
AcDbLine
 10
914.8265816799238
 20
902.1017220872433
 30
0.0
 11
926.0945308723538
 21
902.1017220872433
 31
0.0
  0
LINE
  5
120B
330
2
100
AcDbEntity
  8
0
100
AcDbLine
 10
913.960556276138
 20
892.1017220872434
 30
0.0
 11
926.9605562761379
 21
892.1017220872434
 31
0.0
  0
LINE
  5
120C
330
2
100
AcDbEntity
  8
0
100
AcDbLine
 10
913.960556276138
 20
894.1017220872433
 30
0.0
 11
926.9605562761379
 21
894.1017220872433
 31
0.0
  0
LINE
  5
120D
330
2
100
AcDbEntity
  8
0
100
AcDbLine
 10
926.9605562761379
 20
901.6017220872434
 30
0.0
 11
926.0945308723538
 21
902.1017220872433
 31
0.0
  0
LINE
  5
120E
330
2
100
AcDbEntity
  8
0
100
AcDbLine
 10
926.9605562761379
 20
892.1017220872434
 30
0.0
 11
926.9605562761379
 21
894.1017220872433
 31
0.0
  0
LINE
  5
120F
330
2
100
AcDbEntity
  8
0
100
AcDbLine
 10
926.9605562761379
 20
894.1017220872433
 30
0.0
 11
926.9605562761379
 21
901.6017220872434
 31
0.0
  0
LINE
  5
1210
330
2
100
AcDbEntity
  8
CENTER
  6
CENS
100
AcDbLine
 10
920.4605562761379
 20
873.9047298131461
 30
0.0
 11
920.4605562761379
 21
908.1017220872434
 31
0.0
  0
LINE
  5
1211
330
2
100
AcDbEntity
  8
0
100
AcDbLine
 10
913.960556276138
 20
901.6017220872434
 30
0.0
 11
914.826581679922
 21
902.1017220872433
 31
0.0
  0
LINE
  5
1212
330
2
100
AcDbEntity
  8
0
100
AcDbLine
 10
913.960556276138
 20
892.1017220872434
 30
0.0
 11
913.960556276138
 21
894.1017220872433
 31
0.0
  0
LINE
  5
1213
330
2
100
AcDbEntity
  8
0
100
AcDbLine
 10
913.960556276138
 20
894.1017220872433
 30
0.0
 11
913.960556276138
 21
901.6017220872434
 31
0.0
  0
LINE
  5
1214
330
2
100
AcDbEntity
  8
0
100
AcDbLine
 10
913.960556276138
 20
901.6017220872434
 30
0.0
 11
926.9605562761379
 21
901.6017220872434
 31
0.0
  0
LINE
  5
1215
330
2
100
AcDbEntity
  8
0
100
AcDbLine
 10
746.326581679922
 20
902.1017220872433
 30
0.0
 11
757.594530872352
 21
902.1017220872433
 31
0.0
  0
LINE
  5
1216
330
2
100
AcDbEntity
  8
0
100
AcDbLine
 10
745.460556276136
 20
892.1017220872434
 30
0.0
 11
758.460556276136
 21
892.1017220872434
 31
0.0
  0
LINE
  5
1217
330
2
100
AcDbEntity
  8
0
100
AcDbLine
 10
745.460556276136
 20
894.1017220872433
 30
0.0
 11
758.460556276136
 21
894.1017220872433
 31
0.0
  0
LINE
  5
1218
330
2
100
AcDbEntity
  8
0
100
AcDbLine
 10
758.460556276136
 20
901.6017220872434
 30
0.0
 11
757.594530872352
 21
902.1017220872433
 31
0.0
  0
LINE
  5
1219
330
2
100
AcDbEntity
  8
0
100
AcDbLine
 10
758.460556276136
 20
892.1017220872434
 30
0.0
 11
758.460556276136
 21
894.1017220872433
 31
0.0
  0
LINE
  5
121A
330
2
100
AcDbEntity
  8
0
100
AcDbLine
 10
758.460556276136
 20
894.1017220872433
 30
0.0
 11
758.460556276136
 21
901.6017220872434
 31
0.0
  0
LINE
  5
121B
330
2
100
AcDbEntity
  8
0
100
AcDbLine
 10
745.460556276136
 20
901.6017220872434
 30
0.0
 11
746.326581679922
 21
902.1017220872433
 31
0.0
  0
LINE
  5
121C
330
2
100
AcDbEntity
  8
0
100
AcDbLine
 10
745.460556276136
 20
892.1017220872434
 30
0.0
 11
745.460556276136
 21
894.1017220872433
 31
0.0
  0
LINE
  5
121D
330
2
100
AcDbEntity
  8
0
100
AcDbLine
 10
745.460556276136
 20
894.1017220872433
 30
0.0
 11
745.460556276136
 21
901.6017220872434
 31
0.0
  0
LINE
  5
121E
330
2
100
AcDbEntity
  8
0
100
AcDbLine
 10
745.460556276136
 20
901.6017220872434
 30
0.0
 11
758.460556276136
 21
901.6017220872434
 31
0.0
  0
LINE
  5
121F
330
2
100
AcDbEntity
  8
CENTER
  6
CENS
100
AcDbLine
 10
751.9605562761379
 20
873.9047298131461
 30
0.0
 11
751.9605562761379
 21
908.1017220872434
 31
0.0
  0
ARC
  5
1226
330
2
100
AcDbEntity
  8
0
100
AcDbCircle
 10
809.4605562761397
 20
511.0248341116965
 30
0.0
 40
16.0
100
AcDbArc
 50
108.2099568642697
 51
71.79004313573023
  0
LINE
  5
1227
330
2
100
AcDbEntity
  8
0
100
AcDbLine
 10
804.4605562761397
 20
530.3248371116967
 30
0.0
 11
804.4605562761397
 21
526.2235182652672
 31
0.0
  0
LINE
  5
1228
330
2
100
AcDbEntity
  8
0
100
AcDbLine
 10
814.4605562761396
 20
530.3248371116967
 30
0.0
 11
814.4605562761396
 21
526.2235182652672
 31
0.0
  0
LINE
  5
1229
330
2
100
AcDbEntity
  8
0
100
AcDbLine
 10
804.4605562761397
 20
530.3248371116967
 30
0.0
 11
814.4605562761396
 21
530.3248371116967
 31
0.0
  0
CIRCLE
  5
122A
330
2
100
AcDbEntity
  8
0
100
AcDbCircle
 10
809.4605562761397
 20
511.0248341116965
 30
0.0
 40
24.49999999582681
  0
ARC
  5
122B
330
2
100
AcDbEntity
  8
0
100
AcDbCircle
 10
809.4605562761397
 20
511.0248341116965
 30
0.0
 40
17.15469399582682
100
AcDbArc
 50
106.9457086469731
 51
73.0542913530269
  0
LINE
  5
122C
330
2
100
AcDbEntity
  8
CENTER
100
AcDbLine
 10
561.3158420825119
 20
101.8187505427512
 30
0.0
 11
561.3158420825119
 21
266.1904160618176
 31
0.0
  0
LINE
  5
122D
330
2
100
AcDbEntity
  8
0
100
AcDbLine
 10
633.3158387537013
 20
142.435960851812
 30
0.0
 11
633.3158387537013
 21
159.5045833021981
 31
0.0
  0
LINE
  5
122E
330
2
100
AcDbEntity
  8
0
100
AcDbLine
 10
633.3158387537013
 20
208.5045833021979
 30
0.0
 11
633.3158387537013
 21
225.5732057525841
 31
0.0
  0
LINE
  5
122F
330
2
100
AcDbEntity
  8
0
100
AcDbLine
 10
619.3158387537013
 20
124.0045833022836
 30
0.0
 11
619.3158387537013
 21
160.8870047287404
 31
0.0
  0
LINE
  5
1230
330
2
100
AcDbEntity
  8
0
100
AcDbLine
 10
619.3158387537013
 20
207.1221618756556
 30
0.0
 11
619.3158387537013
 21
244.0045833022853
 31
0.0
  0
LINE
  5
1231
330
2
100
AcDbEntity
  8
CENTER
100
AcDbLine
 10
477.3158387537018
 20
184.004583302198
 30
0.0
 11
661.3158387537013
 21
184.004583302198
 31
0.0
  0
LINE
  5
1232
330
2
100
AcDbEntity
  8
0
100
AcDbLine
 10
525.3158420825115
 20
116.5045833022836
 30
0.0
 11
614.3158387537013
 21
117.2812745066116
 31
0.0
  0
LINE
  5
1233
330
2
100
AcDbEntity
  8
0
100
AcDbLine
 10
614.3158387537013
 20
124.0045833022836
 30
0.0
 11
619.3158387537013
 21
124.0045833022836
 31
0.0
  0
LINE
  5
1234
330
2
100
AcDbEntity
  8
0
100
AcDbLine
 10
614.3158387537031
 20
250.7278920979572
 30
0.0
 11
525.3158420825115
 21
251.5045833022853
 31
0.0
  0
LINE
  5
1235
330
2
100
AcDbEntity
  8
0
100
AcDbLine
 10
614.3158387537013
 20
244.0045833022853
 30
0.0
 11
619.3158387537013
 21
244.0045833022853
 31
0.0
  0
LINE
  5
1236
330
2
100
AcDbEntity
  8
0
100
AcDbLine
 10
614.3158387537031
 20
250.7278920979572
 30
0.0
 11
614.3158387537031
 21
204.956487640173
 31
0.0
  0
LINE
  5
1237
330
2
100
AcDbEntity
  8
0
100
AcDbLine
 10
614.3158387537031
 20
163.052678964223
 30
0.0
 11
614.3158387537013
 21
117.2812745066116
 31
0.0
  0
LINE
  5
1238
330
2
100
AcDbEntity
  8
0
100
AcDbLine
 10
631.3856377471064
 20
140.4371791977741
 30
0.0
 11
621.2460397602962
 21
140.0830966337366
 31
0.0
  0
LINE
  5
1239
330
2
100
AcDbEntity
  8
0
100
AcDbLine
 10
631.3856377471064
 20
227.5719874066219
 30
0.0
 11
621.2460397602962
 21
227.9260699706576
 31
0.0
  0
ARC
  5
123A
330
2
100
AcDbEntity
  8
0
100
AcDbCircle
 10
621.3158387537013
 20
229.9248516246974
 30
0.0
 40
2.0
100
AcDbArc
 50
180.0
 51
267.9999999999963
  0
ARC
  5
123B
330
2
100
AcDbEntity
  8
0
100
AcDbCircle
 10
621.3158387537013
 20
138.0843149796987
 30
0.0
 40
2.0
100
AcDbArc
 50
92.00000000000365
 51
180.0
  0
ARC
  5
123C
330
2
100
AcDbEntity
  8
0
100
AcDbCircle
 10
631.3158387537013
 20
142.435960851812
 30
0.0
 40
2.0
100
AcDbArc
 50
272.0000000000036
 51
0.0
  0
ARC
  5
123D
330
2
100
AcDbEntity
  8
0
100
AcDbCircle
 10
631.3158387537013
 20
225.5732057525841
 30
0.0
 40
2.0
100
AcDbArc
 50
0.0
 51
87.99999999999636
  0
LINE
  5
123E
330
2
100
AcDbEntity
  8
0
100
AcDbLine
 10
614.3158387537013
 20
241.5045833024599
 30
0.0
 11
525.3158420825115
 21
241.5045833024599
 31
0.0
  0
LINE
  5
123F
330
2
100
AcDbEntity
  8
0
100
AcDbLine
 10
614.3158387537013
 20
237.5045833024599
 30
0.0
 11
525.3158420825115
 21
237.5045833024599
 31
0.0
  0
LINE
  5
1240
330
2
100
AcDbEntity
  8
0
100
AcDbLine
 10
614.3158387537013
 20
211.6727784663656
 30
0.0
 11
525.3158420825115
 21
211.6727784663656
 31
0.0
  0
LINE
  5
1241
330
2
100
AcDbEntity
  8
0
100
AcDbLine
 10
614.3158387537013
 20
126.5045833019361
 30
0.0
 11
525.3158420825115
 21
126.5045833019361
 31
0.0
  0
LINE
  5
1242
330
2
100
AcDbEntity
  8
0
100
AcDbLine
 10
614.3158387537013
 20
130.5045833019361
 30
0.0
 11
525.3158420825115
 21
130.5045833019361
 31
0.0
  0
LINE
  5
1243
330
2
100
AcDbEntity
  8
0
100
AcDbLine
 10
614.3158387537013
 20
156.3363881380286
 30
0.0
 11
525.3158420825115
 21
156.3363881380286
 31
0.0
  0
ARC
  5
1244
330
2
100
AcDbEntity
  8
0
100
AcDbCircle
 10
506.8158420825114
 20
249.3430600912964
 30
0.0
 40
2.0
100
AcDbArc
 50
90.49999999999155
 51
180.0
  0
LINE
  5
1245
330
2
100
AcDbEntity
  8
0
100
AcDbLine
 10
504.2300556448848
 20
238.4187968645713
 30
0.0
 11
503.4016285201381
 21
237.5903697398246
 31
0.0
  0
LINE
  5
1246
330
2
100
AcDbEntity
  8
0
100
AcDbLine
 10
494.3158420825114
 20
225.927233033008
 30
0.0
 11
494.3158420825114
 21
208.5045833021979
 31
0.0
  0
LINE
  5
1247
330
2
100
AcDbEntity
  8
0
100
AcDbLine
 10
494.3158420825114
 20
159.5045833021981
 30
0.0
 11
494.3158420825124
 21
142.0819335713862
 31
0.0
  0
LINE
  5
1248
330
2
100
AcDbEntity
  8
0
100
AcDbLine
 10
505.3158420825115
 20
220.3998396159207
 30
0.0
 11
505.3158420825115
 21
208.5045833021979
 31
0.0
  0
LINE
  5
1249
330
2
100
AcDbEntity
  8
0
100
AcDbLine
 10
505.3158420825115
 20
159.5045833021981
 30
0.0
 11
505.3158420825115
 21
147.6093269884754
 31
0.0
  0
LINE
  5
124A
330
2
100
AcDbEntity
  8
0
100
AcDbLine
 10
495.3158420825115
 20
220.004583302198
 30
0.0
 11
495.3158420825115
 21
208.5045833021979
 31
0.0
  0
LINE
  5
124B
330
2
100
AcDbEntity
  8
0
100
AcDbLine
 10
495.3158420825115
 20
159.5045833021981
 30
0.0
 11
495.3158420825115
 21
148.0045833021981
 31
0.0
  0
LINE
  5
124C
330
2
100
AcDbEntity
  8
0
100
AcDbLine
 10
502.8158420825114
 20
229.0045833021979
 30
0.0
 11
502.3158420825114
 21
228.504583302198
 31
0.0
  0
LINE
  5
124D
330
2
100
AcDbEntity
  8
0
100
AcDbLine
 10
505.3158420825115
 20
220.004583302198
 30
0.0
 11
495.3158420825115
 21
220.004583302198
 31
0.0
  0
LINE
  5
124E
330
2
100
AcDbEntity
  8
0
100
AcDbLine
 10
498.8158420825114
 20
226.3045833021972
 30
0.0
 11
499.0158420825113
 21
226.504583302198
 31
0.0
  0
LINE
  5
124F
330
2
100
AcDbEntity
  8
0
100
AcDbLine
 10
497.0158420825113
 20
225.8045833021972
 30
0.0
 11
498.6158420825116
 21
225.8045833021972
 31
0.0
  0
LINE
  5
1250
330
2
100
AcDbEntity
  8
0
100
AcDbLine
 10
495.3158420825115
 20
226.504583302198
 30
0.0
 11
494.3158420825114
 21
225.927233033008
 31
0.0
  0
LINE
  5
1251
330
2
100
AcDbEntity
  8
0
100
AcDbLine
 10
495.3158420825115
 20
226.504583302198
 30
0.0
 11
496.6158420825117
 21
226.504583302198
 31
0.0
  0
LINE
  5
1252
330
2
100
AcDbEntity
  8
0
100
AcDbLine
 10
499.0158420825113
 20
226.504583302198
 30
0.0
 11
502.3158420825114
 21
226.504583302198
 31
0.0
  0
LINE
  5
1253
330
2
100
AcDbEntity
  8
0
100
AcDbLine
 10
495.3158420825133
 20
220.004583302198
 30
0.0
 11
494.3158420825133
 21
220.5819335713879
 31
0.0
  0
LINE
  5
1254
330
2
100
AcDbEntity
  8
0
100
AcDbLine
 10
502.8158420825069
 20
131.8330104269447
 30
0.0
 11
502.8158420825088
 21
145.6669310170258
 31
0.0
  0
LINE
  5
1255
330
2
100
AcDbEntity
  8
0
100
AcDbLine
 10
502.8158420825178
 20
222.3422355873684
 30
0.0
 11
502.8158420825197
 21
236.1761561774513
 31
0.0
  0
LINE
  5
1256
330
2
100
AcDbEntity
  8
0
100
AcDbLine
 10
502.8158420825078
 20
139.0045833021981
 30
0.0
 11
502.3158420825078
 21
139.5045833021981
 31
0.0
  0
LINE
  5
1257
330
2
100
AcDbEntity
  8
0
100
AcDbLine
 10
505.3158420825115
 20
148.0045833021981
 30
0.0
 11
495.3158420825115
 21
148.0045833021981
 31
0.0
  0
LINE
  5
1258
330
2
100
AcDbEntity
  8
0
100
AcDbLine
 10
507.1490730610125
 20
147.5613221458537
 30
0.0
 11
505.3158420825115
 21
147.6093269884754
 31
0.0
  0
LINE
  5
1259
330
2
100
AcDbEntity
  8
0
100
AcDbLine
 10
495.3158420825115
 20
148.0045833021981
 30
0.0
 11
494.3158420825114
 21
147.4272330330081
 31
0.0
  0
LINE
  5
125A
330
2
100
AcDbEntity
  8
0
100
AcDbLine
 10
498.8158420825079
 20
141.704583302197
 30
0.0
 11
498.8158420825079
 21
145.4392232446047
 31
0.0
  0
LINE
  5
125B
330
2
100
AcDbEntity
  8
0
100
AcDbLine
 10
498.8158420825079
 20
222.5699433597913
 30
0.0
 11
498.8158420825079
 21
226.3045833021936
 31
0.0
  0
LINE
  5
125C
330
2
100
AcDbEntity
  8
0
100
AcDbLine
 10
498.8158420825079
 20
141.704583302197
 30
0.0
 11
499.0158420825077
 21
141.5045833021981
 31
0.0
  0
LINE
  5
125D
330
2
100
AcDbEntity
  8
0
100
AcDbLine
 10
496.8158420825078
 20
141.704583302197
 30
0.0
 11
496.8158420825051
 21
145.2243184637595
 31
0.0
  0
LINE
  5
125E
330
2
100
AcDbEntity
  8
0
100
AcDbLine
 10
496.815842082446
 20
222.7848481406438
 30
0.0
 11
496.8158420824432
 21
226.3045833021972
 31
0.0
  0
LINE
  5
125F
330
2
100
AcDbEntity
  8
0
100
AcDbLine
 10
495.3158420825078
 20
141.5045833021981
 30
0.0
 11
496.6158420825071
 21
141.5045833021981
 31
0.0
  0
LINE
  5
1260
330
2
100
AcDbEntity
  8
0
100
AcDbLine
 10
497.0158420825076
 20
142.204583302197
 30
0.0
 11
498.6158420825071
 21
142.204583302197
 31
0.0
  0
LINE
  5
1261
330
2
100
AcDbEntity
  8
0
100
AcDbLine
 10
495.3158420825078
 20
141.5045833021981
 30
0.0
 11
494.3158420825078
 21
142.0819335713881
 31
0.0
  0
LINE
  5
1262
330
2
100
AcDbEntity
  8
0
100
AcDbLine
 10
502.3158420825078
 20
139.5045833021981
 30
0.0
 11
502.3158420825078
 21
145.6266904666139
 31
0.0
  0
LINE
  5
1263
330
2
100
AcDbEntity
  8
0
100
AcDbLine
 10
502.3158420825078
 20
222.3824761377821
 30
0.0
 11
502.3158420825078
 21
228.5045833021943
 31
0.0
  0
LINE
  5
1264
330
2
100
AcDbEntity
  8
0
100
AcDbLine
 10
499.0158420825077
 20
141.5045833021981
 30
0.0
 11
502.3158420825078
 21
141.5045833021981
 31
0.0
  0
LINE
  5
1265
330
2
100
AcDbEntity
  8
0
100
AcDbLine
 10
504.8158420825069
 20
118.6661065130978
 30
0.0
 11
504.8158420825078
 21
146.0084159082329
 31
0.0
  0
LINE
  5
1266
330
2
100
AcDbEntity
  8
0
100
AcDbLine
 10
504.8158420825078
 20
222.0007506961631
 30
0.0
 11
504.8158420825069
 21
249.3430600912964
 31
0.0
  0
LINE
  5
1267
330
2
100
AcDbEntity
  8
0
100
AcDbLine
 10
504.2300556448802
 20
129.5903697398247
 30
0.0
 11
503.4016285201336
 21
130.4187968645714
 31
0.0
  0
LINE
  5
1268
330
2
100
AcDbEntity
  8
0
100
AcDbLine
 10
506.798389011515
 20
251.342983937426
 30
0.0
 11
525.3158420825115
 21
251.504583302198
 31
0.0
  0
LINE
  5
1269
330
2
100
AcDbEntity
  8
0
100
AcDbLine
 10
507.1490730610125
 20
220.4478444585423
 30
0.0
 11
505.3158420825115
 21
220.3998396159207
 31
0.0
  0
ARC
  5
126A
330
2
100
AcDbEntity
  8
0
100
AcDbCircle
 10
504.8158420825069
 20
131.8330104269447
 30
0.0
 40
2.0
100
AcDbArc
 50
180.0
 51
225.0000000000086
  0
ARC
  5
126B
330
2
100
AcDbEntity
  8
0
100
AcDbCircle
 10
502.8158420825069
 20
128.1761561774514
 30
0.0
 40
2.0
100
AcDbArc
 50
0.0
 51
45.00000000000865
  0
ARC
  5
126C
330
2
100
AcDbEntity
  8
0
100
AcDbCircle
 10
504.8158420825115
 20
236.1761561774513
 30
0.0
 40
2.0
100
AcDbArc
 50
134.9999999999913
 51
180.0
  0
ARC
  5
126D
330
2
100
AcDbEntity
  8
0
100
AcDbCircle
 10
502.8158420825114
 20
239.8330104269446
 30
0.0
 40
2.0
100
AcDbArc
 50
314.9999999999913
 51
0.0
  0
ARC
  5
126E
330
2
100
AcDbEntity
  8
0
100
AcDbCircle
 10
496.6158420825117
 20
226.3045833021972
 30
0.0
 40
0.2
100
AcDbArc
 50
0.0
 51
90.0
  0
ARC
  5
126F
330
2
100
AcDbEntity
  8
0
100
AcDbCircle
 10
497.0158420825113
 20
226.004583302198
 30
0.0
 40
0.2
100
AcDbArc
 50
180.0
 51
270.0
  0
ARC
  5
1270
330
2
100
AcDbEntity
  8
0
100
AcDbCircle
 10
498.6158420825116
 20
226.004583302198
 30
0.0
 40
0.2
100
AcDbArc
 50
270.0
 51
0.0
  0
ARC
  5
1271
330
2
100
AcDbEntity
  8
0
100
AcDbCircle
 10
496.6158420825071
 20
141.704583302197
 30
0.0
 40
0.2
100
AcDbArc
 50
270.0
 51
0.0
  0
ARC
  5
1272
330
2
100
AcDbEntity
  8
0
100
AcDbCircle
 10
497.0158420825076
 20
142.0045833021981
 30
0.0
 40
0.2
100
AcDbArc
 50
90.0
 51
180.0
  0
ARC
  5
1273
330
2
100
AcDbEntity
  8
0
100
AcDbCircle
 10
498.6158420825071
 20
142.0045833021981
 30
0.0
 40
0.2
100
AcDbArc
 50
0.0
 51
90.0
  0
LINE
  5
1274
330
2
100
AcDbEntity
  8
0
100
AcDbLine
 10
495.3158420825115
 20
226.504583302198
 30
0.0
 11
495.3158420825115
 21
223.0061501111525
 31
0.0
  0
LINE
  5
1275
330
2
100
AcDbEntity
  8
0
100
AcDbLine
 10
495.3158420825078
 20
145.0030164932435
 30
0.0
 11
495.3158420825078
 21
141.5045833021981
 31
0.0
  0
LINE
  5
1276
330
2
100
AcDbEntity
  8
0
100
AcDbLine
 10
514.8202053502513
 20
233.0002579459617
 30
0.0
 11
506.7983890115096
 21
232.9302526153317
 31
0.0
  0
LINE
  5
1277
330
2
100
AcDbEntity
  8
0
100
AcDbLine
 10
515.3158420825024
 20
233.5002389074964
 30
0.0
 11
515.3158420825024
 21
250.4260034136953
 31
0.0
  0
ARC
  5
1278
330
2
100
AcDbEntity
  8
0
100
AcDbCircle
 10
514.8158420825024
 20
233.5002389074964
 30
0.0
 40
0.5
100
AcDbArc
 50
270.5000000000175
 51
0.0
  0
ARC
  5
1279
330
2
100
AcDbEntity
  8
0
100
AcDbCircle
 10
516.3158420825023
 20
250.4260034136953
 30
0.0
 40
1.0
100
AcDbArc
 50
90.50000000001761
 51
180.0
  0
ARC
  5
127A
330
2
100
AcDbEntity
  8
0
100
AcDbCircle
 10
506.8158420825069
 20
230.9303287692021
 30
0.0
 40
2.0
100
AcDbArc
 50
90.49999999999155
 51
180.0
  0
LINE
  5
127B
330
2
100
AcDbEntity
  8
0
100
AcDbLine
 10
516.3071155470046
 20
241.5045833021979
 30
0.0
 11
525.3158420825115
 21
241.5045833021979
 31
0.0
  0
LINE
  5
127C
330
2
100
AcDbEntity
  8
0
100
AcDbLine
 10
516.3071155470046
 20
237.5045833021979
 30
0.0
 11
525.3158420825115
 21
237.5045833021979
 31
0.0
  0
LINE
  5
127D
330
2
100
AcDbEntity
  8
0
100
AcDbLine
 10
508.1960365447854
 20
211.6727784663656
 30
0.0
 11
525.3158420825115
 21
211.6727784663656
 31
0.0
  0
LINE
  5
127E
330
2
100
AcDbEntity
  8
0
100
AcDbLine
 10
516.3071155470046
 20
126.5045833021981
 30
0.0
 11
525.3158420825115
 21
126.5045833021981
 31
0.0
  0
LINE
  5
127F
330
2
100
AcDbEntity
  8
0
100
AcDbLine
 10
516.3071155470046
 20
130.5045833021981
 30
0.0
 11
525.3158420825115
 21
130.5045833021981
 31
0.0
  0
LINE
  5
1280
330
2
100
AcDbEntity
  8
0
100
AcDbLine
 10
508.1960365447854
 20
156.3363881380286
 30
0.0
 11
525.3158420825115
 21
156.3363881380286
 31
0.0
  0
ARC
  5
1281
330
2
100
AcDbEntity
  8
0
100
AcDbCircle
 10
506.8158420825114
 20
118.6661065130978
 30
0.0
 40
2.0
100
AcDbArc
 50
180.0
 51
269.5000000000084
  0
LINE
  5
1282
330
2
100
AcDbEntity
  8
0
100
AcDbLine
 10
506.798389011515
 20
116.66618266697
 30
0.0
 11
525.3158420825115
 21
116.5045833021981
 31
0.0
  0
ARC
  5
1283
330
2
100
AcDbEntity
  8
0
100
AcDbCircle
 10
516.3158420825023
 20
117.5831631907007
 30
0.0
 40
1.0
100
AcDbArc
 50
180.0
 51
269.4999999999824
  0
LINE
  5
1284
330
2
100
AcDbEntity
  8
0
100
AcDbLine
 10
514.8202053502513
 20
135.0089086584343
 30
0.0
 11
506.7983890115096
 21
135.0789139890643
 31
0.0
  0
LINE
  5
1285
330
2
100
AcDbEntity
  8
0
100
AcDbLine
 10
515.3158420825024
 20
134.5089276968996
 30
0.0
 11
515.3158420825024
 21
117.5831631907007
 31
0.0
  0
ARC
  5
1286
330
2
100
AcDbEntity
  8
0
100
AcDbCircle
 10
514.8158420825024
 20
134.5089276968996
 30
0.0
 40
0.5
100
AcDbArc
 50
0.0
 51
89.49999999998238
  0
ARC
  5
1287
330
2
100
AcDbEntity
  8
0
100
AcDbCircle
 10
506.8158420825069
 20
137.0788378351921
 30
0.0
 40
2.0
100
AcDbArc
 50
180.0
 51
269.5000000000084
  0
LINE
  5
1288
330
2
100
AcDbEntity
  8
0
100
AcDbLine
 10
525.3158420825115
 20
251.504583302198
 30
0.0
 11
525.3158420825115
 21
206.0217816848965
 31
0.0
  0
LINE
  5
1289
330
2
100
AcDbEntity
  8
0
100
AcDbLine
 10
525.3158420825115
 20
161.9873849194995
 30
0.0
 11
525.3158420825115
 21
116.5045833021981
 31
0.0
  0
LINE
  5
128A
330
2
100
AcDbEntity
  8
0
100
AcDbLine
 10
505.3158420825024
 20
247.1385578984139
 30
0.0
 11
505.3158420825024
 21
235.8706087059839
 31
0.0
  0
LINE
  5
128B
330
2
100
AcDbEntity
  8
0
100
AcDbLine
 10
515.3158420825024
 20
248.0045833021998
 30
0.0
 11
515.3158420825024
 21
235.0045833021998
 31
0.0
  0
LINE
  5
128C
330
2
100
AcDbEntity
  8
0
100
AcDbLine
 10
513.3158420825024
 20
248.0045833021998
 30
0.0
 11
513.3158420825033
 21
235.0045833021998
 31
0.0
  0
LINE
  5
128D
330
2
100
AcDbEntity
  8
0
100
AcDbLine
 10
505.8158420825024
 20
235.0045833021998
 30
0.0
 11
505.3158420825024
 21
235.8706087059839
 31
0.0
  0
LINE
  5
128E
330
2
100
AcDbEntity
  8
0
100
AcDbLine
 10
515.3158420825024
 20
235.0045833021998
 30
0.0
 11
513.3158420825024
 21
235.0045833021998
 31
0.0
  0
LINE
  5
128F
330
2
100
AcDbEntity
  8
0
100
AcDbLine
 10
513.3158420825024
 20
235.0045833021998
 30
0.0
 11
505.8158420825024
 21
235.0045833021998
 31
0.0
  0
LINE
  5
1290
330
2
100
AcDbEntity
  8
CENTER
  6
CENS
100
AcDbLine
 10
534.89333653571
 20
241.5045833021998
 30
0.0
 11
499.3158420825023
 21
241.5045833021998
 31
0.0
  0
LINE
  5
1291
330
2
100
AcDbEntity
  8
0
100
AcDbLine
 10
505.8158420825024
 20
248.0045833021998
 30
0.0
 11
505.3158420825024
 21
247.1385578984139
 31
0.0
  0
LINE
  5
1292
330
2
100
AcDbEntity
  8
0
100
AcDbLine
 10
515.3158420825024
 20
248.0045833021998
 30
0.0
 11
513.3158420825024
 21
248.0045833021998
 31
0.0
  0
LINE
  5
1293
330
2
100
AcDbEntity
  8
0
100
AcDbLine
 10
513.3158420825024
 20
248.0045833021998
 30
0.0
 11
505.8158420825024
 21
248.0045833021998
 31
0.0
  0
LINE
  5
1294
330
2
100
AcDbEntity
  8
0
100
AcDbLine
 10
505.8158420825024
 20
248.0045833021998
 30
0.0
 11
505.8158420825024
 21
235.0045833021998
 31
0.0
  0
LINE
  5
1295
330
2
100
AcDbEntity
  8
0
100
AcDbLine
 10
505.3158420825024
 20
120.8706087059821
 30
0.0
 11
505.3158420825024
 21
132.1385578984122
 31
0.0
  0
LINE
  5
1296
330
2
100
AcDbEntity
  8
0
100
AcDbLine
 10
513.3158420825024
 20
120.0045833021962
 30
0.0
 11
513.3158420825033
 21
133.0045833021962
 31
0.0
  0
LINE
  5
1297
330
2
100
AcDbEntity
  8
0
100
AcDbLine
 10
505.8158420825024
 20
133.0045833021962
 30
0.0
 11
505.3158420825024
 21
132.1385578984122
 31
0.0
  0
LINE
  5
1298
330
2
100
AcDbEntity
  8
0
100
AcDbLine
 10
515.3158420825024
 20
133.0045833021962
 30
0.0
 11
513.3158420825024
 21
133.0045833021962
 31
0.0
  0
LINE
  5
1299
330
2
100
AcDbEntity
  8
0
100
AcDbLine
 10
513.3158420825024
 20
133.0045833021962
 30
0.0
 11
505.8158420825024
 21
133.0045833021962
 31
0.0
  0
LINE
  5
129A
330
2
100
AcDbEntity
  8
CENTER
  6
CENS
100
AcDbLine
 10
534.89333653571
 20
126.5045833021962
 30
0.0
 11
499.3158420825023
 21
126.5045833021962
 31
0.0
  0
LINE
  5
129B
330
2
100
AcDbEntity
  8
0
100
AcDbLine
 10
505.8158420825024
 20
120.0045833021962
 30
0.0
 11
505.3158420825024
 21
120.8706087059803
 31
0.0
  0
LINE
  5
129C
330
2
100
AcDbEntity
  8
0
100
AcDbLine
 10
515.3158420825024
 20
120.0045833021962
 30
0.0
 11
513.3158420825024
 21
120.0045833021962
 31
0.0
  0
LINE
  5
129D
330
2
100
AcDbEntity
  8
0
100
AcDbLine
 10
513.3158420825024
 20
120.0045833021962
 30
0.0
 11
505.8158420825024
 21
120.0045833021962
 31
0.0
  0
LINE
  5
129E
330
2
100
AcDbEntity
  8
0
100
AcDbLine
 10
505.8158420825024
 20
120.0045833021962
 30
0.0
 11
505.8158420825024
 21
133.0045833021962
 31
0.0
  0
LINE
  5
129F
330
2
100
AcDbEntity
  8
0
100
AcDbLine
 10
622.3158387537012
 20
147.7926284394601
 30
0.0
 11
620.7291915078047
 21
147.7510806191207
 31
0.0
  0
LINE
  5
12A0
330
2
100
AcDbEntity
  8
0
100
AcDbLine
 10
632.3158387537013
 20
148.0045833021981
 30
0.0
 11
632.3158387537013
 21
159.5045833021981
 31
0.0
  0
LINE
  5
12A1
330
2
100
AcDbEntity
  8
0
100
AcDbLine
 10
632.3158387537013
 20
208.5045833021979
 30
0.0
 11
632.3158387537013
 21
220.004583302198
 31
0.0
  0
LINE
  5
12A2
330
2
100
AcDbEntity
  8
0
100
AcDbLine
 10
622.3158387537012
 20
147.7926284394601
 30
0.0
 11
622.3158387537012
 21
159.5045833021981
 31
0.0
  0
LINE
  5
12A3
330
2
100
AcDbEntity
  8
0
100
AcDbLine
 10
622.3158387537012
 20
208.5045833021979
 30
0.0
 11
622.3158387537012
 21
220.2165381649359
 31
0.0
  0
LINE
  5
12A4
330
2
100
AcDbEntity
  8
0
100
AcDbLine
 10
632.3158387537013
 20
148.0045833021981
 30
0.0
 11
622.3158387537012
 21
148.0045833021981
 31
0.0
  0
LINE
  5
12A5
330
2
100
AcDbEntity
  8
0
100
AcDbLine
 10
632.3158387537013
 20
148.0045833021981
 30
0.0
 11
633.3158387537013
 21
147.4272330330081
 31
0.0
  0
LINE
  5
12A6
330
2
100
AcDbEntity
  8
0
100
AcDbLine
 10
632.3158387537013
 20
220.004583302198
 30
0.0
 11
622.3158387537012
 21
220.004583302198
 31
0.0
  0
LINE
  5
12A7
330
2
100
AcDbEntity
  8
0
100
AcDbLine
 10
632.3158387537013
 20
220.004583302198
 30
0.0
 11
633.3158387537013
 21
220.5819335713879
 31
0.0
  0
LINE
  5
12A8
330
2
100
AcDbEntity
  8
0
100
AcDbLine
 10
622.3158387537012
 20
220.2165381649359
 30
0.0
 11
620.7291915078047
 21
220.2580859852754
 31
0.0
  0
LINE
  5
12A9
330
2
100
AcDbEntity
  8
0
100
AcDbLine
 10
603.3158387537013
 20
200.504583302198
 30
0.0
 11
527.3158387537018
 21
200.504583302198
 31
0.0
  0
LINE
  5
12AA
330
2
100
AcDbEntity
  8
0
100
AcDbLine
 10
646.3158387537013
 20
203.3045863021982
 30
0.0
 11
492.3158387537017
 21
203.3045863021982
 31
0.0
  0
LINE
  5
12AB
330
2
100
AcDbEntity
  8
0
100
AcDbLine
 10
646.3158387537013
 20
208.5045833021979
 30
0.0
 11
646.3158387537013
 21
159.5045833021981
 31
0.0
  0
LINE
  5
12AC
330
2
100
AcDbEntity
  8
0
100
AcDbLine
 10
646.3158387537013
 20
159.5045833021981
 30
0.0
 11
619.8580115113498
 21
159.5045833021981
 31
0.0
  0
LINE
  5
12AD
330
2
100
AcDbEntity
  8
0
100
AcDbLine
 10
642.3156757320183
 20
167.5046508177005
 30
0.0
 11
633.3156757314781
 21
167.5045157848039
 31
0.0
  0
LINE
  5
12AE
330
2
100
AcDbEntity
  8
0
100
AcDbLine
 10
642.3157877758102
 20
200.504583302198
 30
0.0
 11
633.3157877758025
 21
200.504583302198
 31
0.0
  0
LINE
  5
12AF
330
2
100
AcDbEntity
  8
0
100
AcDbLine
 10
644.3159058367499
 20
168.0045756356943
 30
0.0
 11
644.3157716706499
 21
200.0045833021979
 31
0.0
  0
LINE
  5
12B0
330
2
100
AcDbEntity
  8
CENTER
  6
CENS
100
AcDbLine
 10
637.8157317537015
 20
191.2469457192785
 30
0.0
 11
637.8157317537015
 21
217.6623736698241
 31
0.0
  0
LINE
  5
12B1
330
2
100
AcDbEntity
  8
0
100
AcDbLine
 10
642.3157877758102
 20
200.504583302198
 30
0.0
 11
642.3156757320183
 21
167.5046508177005
 31
0.0
  0
LINE
  5
12B2
330
2
100
AcDbEntity
  8
0
100
AcDbLine
 10
644.3159058367499
 20
168.0045756356943
 30
0.0
 11
642.3157988369119
 21
168.004491302327
 31
0.0
  0
LINE
  5
12B3
330
2
100
AcDbEntity
  8
0
100
AcDbLine
 10
644.3159058367499
 20
168.0045756356943
 30
0.0
 11
646.3159102630424
 21
166.8498893023356
 31
0.0
  0
LINE
  5
12B4
330
2
100
AcDbEntity
  8
0
100
AcDbLine
 10
644.3158387537013
 20
200.0045833021979
 30
0.0
 11
642.3157317537015
 21
200.0045833021979
 31
0.0
  0
LINE
  5
12B5
330
2
100
AcDbEntity
  8
0
100
AcDbLine
 10
644.3158387537013
 20
200.0045833021979
 30
0.0
 11
646.3158387537013
 21
201.1592773021987
 31
0.0
  0
LINE
  5
12B6
330
2
100
AcDbEntity
  8
0
100
AcDbLine
 10
620.6658387537016
 20
167.1544913021975
 30
0.0
 11
620.6658387537016
 21
200.8545833021983
 31
0.0
  0
LINE
  5
12B7
330
2
100
AcDbEntity
  8
0
100
AcDbLine
 10
619.3158387537013
 20
167.1544913021975
 30
0.0
 11
619.3158387537013
 21
200.8545833021983
 31
0.0
  0
LINE
  5
12B8
330
2
100
AcDbEntity
  8
0
100
AcDbLine
 10
633.3156757314781
 20
167.5045157848039
 30
0.0
 11
633.3157877758025
 21
200.504583302198
 31
0.0
  0
LINE
  5
12B9
330
2
100
AcDbEntity
  8
0
100
AcDbLine
 10
619.3158387537013
 20
168.0045833021981
 30
0.0
 11
603.3158387537013
 21
168.0045833021981
 31
0.0
  0
LINE
  5
12BA
330
2
100
AcDbEntity
  8
0
100
AcDbLine
 10
633.3157317537015
 20
168.0044913021979
 30
0.0
 11
620.6658387537016
 21
168.0044913021979
 31
0.0
  0
LINE
  5
12BB
330
2
100
AcDbEntity
  8
0
100
AcDbLine
 10
619.3158387537013
 20
167.1544913021975
 30
0.0
 11
620.6658387537016
 21
167.1544913021975
 31
0.0
  0
LINE
  5
12BC
330
2
100
AcDbEntity
  8
0
100
AcDbLine
 10
619.3158387537013
 20
200.0045833021979
 30
0.0
 11
603.3158387537013
 21
200.0045833021979
 31
0.0
  0
LINE
  5
12BD
330
2
100
AcDbEntity
  8
0
100
AcDbLine
 10
633.3157317537015
 20
200.0045833021979
 30
0.0
 11
620.6658387537016
 21
200.0045833021979
 31
0.0
  0
LINE
  5
12BE
330
2
100
AcDbEntity
  8
0
100
AcDbLine
 10
619.3158387537013
 20
200.8545833021983
 30
0.0
 11
620.6658387537016
 21
200.8545833021983
 31
0.0
  0
LINE
  5
12BF
330
2
100
AcDbEntity
  8
0
100
AcDbLine
 10
603.3158387537013
 20
200.504583302198
 30
0.0
 11
603.3158387537013
 21
167.5045833021981
 31
0.0
  0
LINE
  5
12C0
330
2
100
AcDbEntity
  8
0
100
AcDbLine
 10
646.3158387537013
 20
208.5045833021979
 30
0.0
 11
619.8580115113498
 21
208.5045833021979
 31
0.0
  0
LINE
  5
12C1
330
2
100
AcDbEntity
  8
0
  6
CONTINUOUS
 62
     4
100
AcDbLine
 10
641.8157317537015
 20
203.3045863021982
 30
0.0
 11
641.8157317537015
 21
208.5045833021979
 31
0.0
  0
LINE
  5
12C2
330
2
100
AcDbEntity
  8
0
  6
CONTINUOUS
 62
     7
100
AcDbLine
 10
641.0657317537014
 20
203.3045863021982
 30
0.0
 11
641.0657317537014
 21
208.5045833021979
 31
0.0
  0
LINE
  5
12C3
330
2
100
AcDbEntity
  8
0
  6
CONTINUOUS
 62
     7
100
AcDbLine
 10
634.5657317537014
 20
203.3045863021982
 30
0.0
 11
634.5657317537014
 21
208.5045833021979
 31
0.0
  0
LINE
  5
12C4
330
2
100
AcDbEntity
  8
0
  6
CONTINUOUS
 62
     4
100
AcDbLine
 10
633.8157317537015
 20
203.3045863021982
 30
0.0
 11
633.8157317537015
 21
208.5045833021979
 31
0.0
  0
LINE
  5
12C5
330
2
100
AcDbEntity
  8
0
100
AcDbLine
 10
508.9658387537022
 20
168.0045833021981
 30
0.0
 11
494.3158387537017
 21
168.0045833021981
 31
0.0
  0
LINE
  5
12C6
330
2
100
AcDbEntity
  8
0
100
AcDbLine
 10
507.9778465170297
 20
208.5045833021979
 30
0.0
 11
492.3158387537017
 21
208.5045833021979
 31
0.0
  0
LINE
  5
12C7
330
2
100
AcDbEntity
  8
0
100
AcDbLine
 10
508.9658387537022
 20
200.0045833021979
 30
0.0
 11
494.3158387537017
 21
200.0045833021979
 31
0.0
  0
LINE
  5
12C8
330
2
100
AcDbEntity
  8
0
100
AcDbLine
 10
507.9778465170297
 20
159.5045833021981
 30
0.0
 11
492.3158387537017
 21
159.5045833021981
 31
0.0
  0
LINE
  5
12C9
330
2
100
AcDbEntity
  8
0
100
AcDbLine
 10
508.9658387537022
 20
167.1545833021977
 30
0.0
 11
508.9658387537022
 21
200.8545833021983
 31
0.0
  0
LINE
  5
12CA
330
2
100
AcDbEntity
  8
0
100
AcDbLine
 10
510.3158387537018
 20
167.1545833021977
 30
0.0
 11
510.3158387537018
 21
200.8545833021983
 31
0.0
  0
LINE
  5
12CB
330
2
100
AcDbEntity
  8
0
100
AcDbLine
 10
510.3158387537018
 20
167.1545833021977
 30
0.0
 11
508.9658387537022
 21
167.1545833021977
 31
0.0
  0
LINE
  5
12CC
330
2
100
AcDbEntity
  8
0
100
AcDbLine
 10
527.3158387537018
 20
168.0045833021981
 30
0.0
 11
510.3158387537018
 21
168.0045833021981
 31
0.0
  0
LINE
  5
12CD
330
2
100
AcDbEntity
  8
0
100
AcDbLine
 10
527.3158387537018
 20
200.0045833021979
 30
0.0
 11
510.3158387537018
 21
200.0045833021979
 31
0.0
  0
LINE
  5
12CE
330
2
100
AcDbEntity
  8
0
100
AcDbLine
 10
527.3158387537018
 20
200.504583302198
 30
0.0
 11
527.3158387537018
 21
167.5045833021981
 31
0.0
  0
LINE
  5
12CF
330
2
100
AcDbEntity
  8
0
100
AcDbLine
 10
510.3158387537018
 20
200.8545833021983
 30
0.0
 11
508.9658387537022
 21
200.8545833021983
 31
0.0
  0
LINE
  5
12D0
330
2
100
AcDbEntity
  8
0
100
AcDbLine
 10
492.3158387537017
 20
208.5045833021979
 30
0.0
 11
492.3158387537017
 21
159.5045833021981
 31
0.0
  0
LINE
  5
12D1
330
2
100
AcDbEntity
  8
0
100
AcDbLine
 10
494.3158387537017
 20
168.0045833021981
 30
0.0
 11
494.3158387537017
 21
200.0045833021979
 31
0.0
  0
LINE
  5
12D2
330
2
100
AcDbEntity
  8
0
100
AcDbLine
 10
494.3158387537017
 20
168.0045833021981
 30
0.0
 11
492.3158387537017
 21
166.8498893021973
 31
0.0
  0
LINE
  5
12D3
330
2
100
AcDbEntity
  8
0
100
AcDbLine
 10
494.3158387537017
 20
200.0045833021979
 30
0.0
 11
492.3158387537017
 21
201.1592773021987
 31
0.0
  0
LINE
  5
12D4
330
2
100
AcDbEntity
  8
0
100
AcDbLine
 10
603.3158387537013
 20
167.5045833021981
 30
0.0
 11
527.3158387537018
 21
167.5045833021981
 31
0.0
  0
SPLINE
  5
12D5
330
2
100
AcDbEntity
  8
HOJO
100
AcDbSpline
210
0.0
220
0.0
230
1.0
 70
     8
 71
     3
 72
    25
 73
    21
 74
     0
 42
0.0000000001
 43
0.0000000001
 40
1.152877297004389
 40
1.152877297004389
 40
1.152877297004389
 40
1.152877297004389
 40
6.290824812401083
 40
13.22928773580738
 40
23.01248433513514
 40
27.44936952537695
 40
39.39209791902025
 40
50.54497002145325
 40
68.81910560968197
 40
80.92562652941472
 40
95.32109287512382
 40
103.9668883716656
 40
119.0932917203498
 40
131.2170228200582
 40
138.4912660645576
 40
145.0351343874091
 40
153.1132143022935
 40
157.4594543935925
 40
163.7674011214698
 40
166.1490771881331
 40
166.1490771881331
 40
166.1490771881331
 40
166.1490771881331
 10
494.3158420825187
 20
223.1726766924333
 30
0.0
 10
495.9553949737195
 20
222.8914571082553
 30
0.0
 10
499.8768739148439
 20
222.2923156641375
 30
0.0
 10
508.5495729009547
 20
222.6436074950382
 30
0.0
 10
508.5863632652594
 20
213.6367508324786
 30
0.0
 10
507.1017828132993
 20
203.9451803010381
 30
0.0
 10
520.9873826734669
 20
206.8110708466795
 30
0.0
 10
533.0489072992662
 20
204.9780196702998
 30
0.0
 10
547.6078796413502
 20
207.4948543056291
 30
0.0
 10
562.1627778895934
 20
203.4801149931229
 30
0.0
 10
573.9732378066609
 20
205.7482743481853
 30
0.0
 10
586.6354099949557
 20
203.5366730238059
 30
0.0
 10
598.7021545321193
 20
208.6021105958137
 30
0.0
 10
609.1655161993629
 20
204.9002653327554
 30
0.0
 10
619.7255732813236
 20
204.7261396390788
 30
0.0
 10
620.5999720314129
 20
213.1555719729461
 30
0.0
 10
619.0059102805434
 20
220.5338205803585
 30
0.0
 10
625.7153692258079
 20
222.9184914823256
 30
0.0
 10
630.0810877919765
 20
222.6738659718506
 30
0.0
 10
632.6307552267689
 20
223.9699880831779
 30
0.0
 10
633.3158387537013
 20
224.3808346682111
 30
0.0
  0
SPLINE
  5
12D6
330
2
100
AcDbEntity
  8
HOJO
100
AcDbSpline
210
0.0
220
0.0
230
1.0
 70
     8
 71
     3
 72
    25
 73
    21
 74
     0
 42
0.0000000001
 43
0.0000000001
 40
1.152877297004389
 40
1.152877297004389
 40
1.152877297004389
 40
1.152877297004389
 40
6.290824812401083
 40
13.22928773580738
 40
23.01248433513514
 40
27.44936952537695
 40
39.39209791902025
 40
50.54497002145325
 40
68.81910560968197
 40
80.92562652941472
 40
95.32109287512382
 40
103.9668883716656
 40
119.0932917203498
 40
131.2170228200582
 40
138.4912660645576
 40
145.0351343874091
 40
153.1132143022935
 40
157.4594543935925
 40
163.7674011214698
 40
166.1490771881331
 40
166.1490771881331
 40
166.1490771881331
 40
166.1490771881331
 10
494.3158420825187
 20
144.8364899119628
 30
0.0
 10
495.9553949737195
 20
145.1177094961407
 30
0.0
 10
499.8768739148439
 20
145.7168509402585
 30
0.0
 10
508.5495729009547
 20
145.3655591093578
 30
0.0
 10
508.5863632652594
 20
154.3724157719156
 30
0.0
 10
507.1017828132993
 20
164.0639863033579
 30
0.0
 10
520.9873826734669
 20
161.1980957577165
 30
0.0
 10
533.0489072992662
 20
163.0311469340962
 30
0.0
 10
547.6078796413502
 20
160.5143122987669
 30
0.0
 10
562.1627778895934
 20
164.5290516112731
 30
0.0
 10
573.9732378066609
 20
162.2608922562107
 30
0.0
 10
586.6354099949557
 20
164.4724935805901
 30
0.0
 10
598.7021545321193
 20
159.4070560085824
 30
0.0
 10
609.1655161993629
 20
163.1089012716406
 30
0.0
 10
619.7255732813236
 20
163.2830269653172
 30
0.0
 10
620.5999720314129
 20
154.8535946314499
 30
0.0
 10
619.0059102805434
 20
147.4753460240376
 30
0.0
 10
625.7153692258079
 20
145.0906751220704
 30
0.0
 10
630.0810877919765
 20
145.3353006325455
 30
0.0
 10
632.6307552267689
 20
144.0391785212181
 30
0.0
 10
633.3158387537013
 20
143.628331936185
 30
0.0
  0
LINE
  5
12D7
330
2
100
AcDbEntity
  8
0
100
AcDbLine
 10
632.3158387537013
 20
220.004583302198
 30
0.0
 11
622.3158387537012
 21
208.5045833021979
 31
0.0
  0
LINE
  5
12D8
330
2
100
AcDbEntity
  8
0
100
AcDbLine
 10
622.3158387537012
 20
220.004583302198
 30
0.0
 11
632.3158387537013
 21
208.5045833021979
 31
0.0
  0
LINE
  5
12D9
330
2
100
AcDbEntity
  8
0
100
AcDbLine
 10
632.3158387537013
 20
159.5045833021981
 30
0.0
 11
622.3158387537012
 21
148.0045833021981
 31
0.0
  0
LINE
  5
12DA
330
2
100
AcDbEntity
  8
0
100
AcDbLine
 10
632.3158387537013
 20
148.0045833021981
 30
0.0
 11
622.3158387537012
 21
159.5045833021981
 31
0.0
  0
LINE
  5
12DB
330
2
100
AcDbEntity
  8
0
100
AcDbLine
 10
495.3158420825133
 20
220.004583302198
 30
0.0
 11
505.3158420825115
 21
208.5045833021979
 31
0.0
  0
LINE
  5
12DC
330
2
100
AcDbEntity
  8
0
100
AcDbLine
 10
505.3158420825115
 20
220.004583302198
 30
0.0
 11
495.3158420825115
 21
208.5045833021979
 31
0.0
  0
LINE
  5
12DD
330
2
100
AcDbEntity
  8
0
100
AcDbLine
 10
505.3158420825115
 20
159.5045833021981
 30
0.0
 11
495.3158420825115
 21
148.0045833021981
 31
0.0
  0
LINE
  5
12DE
330
2
100
AcDbEntity
  8
0
100
AcDbLine
 10
495.3158420825115
 20
159.5045833021981
 30
0.0
 11
505.3158420825115
 21
148.0045833021981
 31
0.0
  0
LINE
  5
12DF
330
2
100
AcDbEntity
  8
0
100
AcDbLine
 10
604.9539122185295
 20
535.5248341114345
 30
0.0
 11
604.9539122185295
 21
486.5248341114345
 31
0.0
  0
LINE
  5
12E0
330
2
100
AcDbEntity
  8
0
100
AcDbLine
 10
604.9539122185295
 20
486.5248341114345
 30
0.0
 11
591.9539122185295
 21
486.5248341114345
 31
0.0
  0
LINE
  5
12E1
330
2
100
AcDbEntity
  8
0
100
AcDbLine
 10
604.9539122185295
 20
535.5248341114345
 30
0.0
 11
591.9539122185295
 21
535.5248341114345
 31
0.0
  0
LINE
  5
12E2
330
2
100
AcDbEntity
  8
0
100
AcDbLine
 10
452.9539155473397
 20
535.5248341114345
 30
0.0
 11
450.95391221853
 21
535.5248341114345
 31
0.0
  0
LINE
  5
12E3
330
2
100
AcDbEntity
  8
0
100
AcDbLine
 10
452.9539155473397
 20
486.5248341114345
 30
0.0
 11
450.95391221853
 21
486.5248341114345
 31
0.0
  0
LINE
  5
12E4
330
2
100
AcDbEntity
  8
0
100
AcDbLine
 10
450.95391221853
 20
535.5248341114345
 30
0.0
 11
450.95391221853
 21
486.5248341114345
 31
0.0
  0
CIRCLE
  5
12E5
330
2
100
AcDbEntity
  8
0
 48
0.5
100
AcDbCircle
 10
596.4538052185297
 20
511.0248341114346
 30
0.0
 40
3.2
  0
CIRCLE
  5
12E6
330
2
100
AcDbEntity
  8
HOJO
 48
0.5
100
AcDbCircle
 10
596.4538052185297
 20
511.0248341114346
 30
0.0
 40
4.0
  0
LINE
  5
12E7
330
2
100
AcDbEntity
  8
CENTER
100
AcDbLine
 10
596.4538052185279
 20
521.8839790759227
 30
0.0
 11
596.4538052185279
 21
500.1656891469481
 31
0.0
  0
LINE
  5
12E8
330
2
100
AcDbEntity
  8
0
100
AcDbLine
 10
833.9605562761397
 20
761.1017254160303
 30
0.0
 11
784.9605562761397
 21
761.1017254160303
 31
0.0
  0
LINE
  5
12E9
330
2
100
AcDbEntity
  8
0
100
AcDbLine
 10
784.9605562761397
 20
761.1017254160303
 30
0.0
 11
784.9605562761397
 21
774.1017254160303
 31
0.0
  0
LINE
  5
12EA
330
2
100
AcDbEntity
  8
0
100
AcDbLine
 10
833.9605562761397
 20
761.1017254160303
 30
0.0
 11
833.9605562761397
 21
774.1017254160303
 31
0.0
  0
LINE
  5
12EB
330
2
100
AcDbEntity
  8
0
100
AcDbLine
 10
833.9605562761397
 20
913.1017220872196
 30
0.0
 11
833.9605562761397
 21
915.1017254160304
 31
0.0
  0
LINE
  5
12EC
330
2
100
AcDbEntity
  8
0
100
AcDbLine
 10
784.9605562761397
 20
913.1017220872196
 30
0.0
 11
784.9605562761397
 21
915.1017254160304
 31
0.0
  0
LINE
  5
12ED
330
2
100
AcDbEntity
  8
0
100
AcDbLine
 10
833.9605562761397
 20
915.1017254160304
 30
0.0
 11
784.9605562761397
 21
915.1017254160304
 31
0.0
  0
CIRCLE
  5
12EE
330
2
100
AcDbEntity
  8
0
 48
0.5
100
AcDbCircle
 10
809.4605562761397
 20
769.6018324160302
 30
0.0
 40
3.2
  0
CIRCLE
  5
12EF
330
2
100
AcDbEntity
  8
HOJO
 48
0.5
100
AcDbCircle
 10
809.4605562761397
 20
769.6018324160302
 30
0.0
 40
4.0
  0
LINE
  5
12F0
330
2
100
AcDbEntity
  8
CENTER
100
AcDbLine
 10
820.3197012406262
 20
769.601832416032
 30
0.0
 11
798.6014113116515
 21
769.601832416032
 31
0.0
  0
LINE
  5
12F2
330
2
100
AcDbEntity
  8
PHAS
100
AcDbLine
 10
460.453915547337
 20
555.5248341155135
 30
0.0
 11
460.4539155473361
 21
466.5248341073555
 31
0.0
  0
LINE
  5
12F3
330
2
100
AcDbEntity
  8
PHAS
100
AcDbLine
 10
456.453915547337
 20
555.5248341155135
 30
0.0
 11
456.4539155473361
 21
466.5248341073555
 31
0.0
  0
LINE
  5
12F4
330
2
100
AcDbEntity
  8
PHAS
100
AcDbLine
 10
426.9539155473361
 20
483.3992817060332
 30
0.0
 11
426.9539155473361
 21
538.6503865086786
 31
0.0
  0
LINE
  5
12F5
330
2
100
AcDbEntity
  8
PHAS
100
AcDbLine
 10
450.6539155473368
 20
552.405682681712
 30
0.0
 11
450.6539155473368
 21
511.0248341073555
 31
0.0
  0
LINE
  5
12F6
330
2
100
AcDbEntity
  8
PHAS
100
AcDbLine
 10
460.4539155473361
 20
466.5248341073555
 30
0.0
 11
453.6015583280244
 21
466.6444424475301
 31
0.0
  0
ARC
  5
12F7
330
2
100
AcDbEntity
  8
PHAS
100
AcDbCircle
 10
449.6539155473368
 20
474.1857344761791
 30
0.0
 40
1.0
100
AcDbArc
 50
0.0
 51
79.99999999999483
  0
LINE
  5
12F8
330
2
100
AcDbEntity
  8
PHAS
100
AcDbLine
 10
449.827563725003
 20
475.1705422291904
 30
0.0
 11
431.0856746590019
 21
478.4752429409716
 31
0.0
  0
LINE
  5
12F9
330
2
100
AcDbEntity
  8
PHAS
100
AcDbLine
 10
450.6539155473368
 20
469.6439855329988
 30
0.0
 11
450.6539155473368
 21
511.0248341073555
 31
0.0
  0
ARC
  5
12FA
330
2
100
AcDbEntity
  8
PHAS
100
AcDbCircle
 10
431.9539155473361
 20
483.3992817060332
 30
0.0
 40
5.0
100
AcDbArc
 50
180.0
 51
259.9999999999948
  0
ARC
  5
12FB
330
2
100
AcDbEntity
  8
PHAS
100
AcDbCircle
 10
453.6539155473368
 20
469.6439855329988
 30
0.0
 40
3.0
100
AcDbArc
 50
180.0
 51
268.9999999999721
  0
ARC
  5
12FC
330
2
100
AcDbEntity
  8
PHAS
100
AcDbCircle
 10
449.6539155473368
 20
547.8639337385327
 30
0.0
 40
1.0
100
AcDbArc
 50
280.0000000000051
 51
0.0
  0
LINE
  5
12FD
330
2
100
AcDbEntity
  8
PHAS
100
AcDbLine
 10
449.827563725003
 20
546.8791259855204
 30
0.0
 11
431.0856746590019
 21
543.5744252737402
 31
0.0
  0
ARC
  5
12FE
330
2
100
AcDbEntity
  8
PHAS
100
AcDbCircle
 10
431.9539155473361
 20
538.6503865086786
 30
0.0
 40
5.0
100
AcDbArc
 50
100.0000000000051
 51
180.0
  0
LINE
  5
12FF
330
2
100
AcDbEntity
  8
PHAS
100
AcDbLine
 10
460.453915547337
 20
555.5248341155135
 30
0.0
 11
453.6015583280244
 21
555.4052257753389
 31
0.0
  0
ARC
  5
1300
330
2
100
AcDbEntity
  8
PHAS
100
AcDbCircle
 10
453.6539155473368
 20
552.4056826898702
 30
0.0
 40
3.0
100
AcDbArc
 50
91.00000000002784
 51
180.0
  0
LINE
  5
133D
330
2
100
AcDbEntity
  8
CENTER
100
AcDbLine
 10
1348.967923918401
 20
553.4548341116097
 30
0.0
 11
1365.967923918401
 21
553.4548341116097
 31
0.0
  0
LINE
  5
133E
330
2
100
AcDbEntity
  8
0
100
AcDbLine
 10
1272.037923918403
 20
562.0248341116093
 30
0.0
 11
1358.037923918401
 21
562.0248341116093
 31
0.0
  0
LINE
  5
133F
330
2
100
AcDbEntity
  8
CENTER
100
AcDbLine
 10
1348.967923918401
 20
468.59483411161
 30
0.0
 11
1365.967923918401
 21
468.59483411161
 31
0.0
  0
ARC
  5
1340
330
2
100
AcDbEntity
  8
0
100
AcDbCircle
 10
1342.037923918401
 20
484.0248341116094
 30
0.0
 40
15.0
100
AcDbArc
 50
270.0
 51
0.0
  0
ARC
  5
1341
330
2
100
AcDbEntity
  8
0
100
AcDbCircle
 10
1342.037923918399
 20
484.0248341116094
 30
0.0
 40
13.0
100
AcDbArc
 50
270.0
 51
0.0
  0
LINE
  5
1342
330
2
100
AcDbEntity
  8
0
100
AcDbLine
 10
1272.037923918401
 20
460.0248341116094
 30
0.0
 11
1358.037923918401
 21
460.0248341116094
 31
0.0
  0
ARC
  5
1343
330
2
100
AcDbEntity
  8
0
100
AcDbCircle
 10
1342.037923918399
 20
538.0248341116093
 30
0.0
 40
13.0
100
AcDbArc
 50
0.0
 51
90.0
  0
ARC
  5
1344
330
2
100
AcDbEntity
  8
0
100
AcDbCircle
 10
1342.037923918401
 20
538.0248341116093
 30
0.0
 40
15.0
100
AcDbArc
 50
0.0
 51
90.0
  0
LINE
  5
1345
330
2
100
AcDbEntity
  8
0
100
AcDbLine
 10
1355.037923918399
 20
538.0248341116093
 30
0.0
 11
1355.037923918399
 21
484.0248341116094
 31
0.0
  0
LINE
  5
1346
330
2
100
AcDbEntity
  8
0
100
AcDbLine
 10
1275.037923918401
 20
538.0248341116093
 30
0.0
 11
1275.037923918401
 21
484.0248341116094
 31
0.0
  0
LINE
  5
1347
330
2
100
AcDbEntity
  8
0
100
AcDbLine
 10
1273.037923918401
 20
538.0248341116093
 30
0.0
 11
1273.037923918401
 21
484.0248341116094
 31
0.0
  0
LINE
  5
1348
330
2
100
AcDbEntity
  8
CENTER
100
AcDbLine
 10
1346.857729071795
 20
471.7050289582148
 30
0.0
 11
1346.857729071795
 21
486.7050289582149
 31
0.0
  0
LINE
  5
1349
330
2
100
AcDbEntity
  8
CENTER
100
AcDbLine
 10
1283.218118765006
 20
471.7050289582148
 30
0.0
 11
1283.218118765006
 21
486.7050289582149
 31
0.0
  0
ARC
  5
134A
330
2
100
AcDbEntity
  8
0
100
AcDbCircle
 10
1288.037923918401
 20
484.0248341116094
 30
0.0
 40
15.0
100
AcDbArc
 50
180.0
 51
270.0
  0
ARC
  5
134B
330
2
100
AcDbEntity
  8
0
100
AcDbCircle
 10
1288.037923918401
 20
484.0248341116094
 30
0.0
 40
13.0
100
AcDbArc
 50
180.0
 51
270.0
  0
LINE
  5
134C
330
2
100
AcDbEntity
  8
0
100
AcDbLine
 10
1288.037923918401
 20
469.0248341116094
 30
0.0
 11
1342.037923918401
 21
469.0248341116094
 31
0.0
  0
LINE
  5
134D
330
2
100
AcDbEntity
  8
0
100
AcDbLine
 10
1288.037923918401
 20
471.0248341116094
 30
0.0
 11
1342.037923918399
 21
471.0248341116094
 31
0.0
  0
ARC
  5
134E
330
2
100
AcDbEntity
  8
0
100
AcDbCircle
 10
1272.037923918401
 20
468.0248341116094
 30
0.0
 40
8.0
100
AcDbArc
 50
180.0
 51
270.0
  0
LINE
  5
134F
330
2
100
AcDbEntity
  8
CENTER
100
AcDbLine
 10
1272.607923918401
 20
460.09483411161
 30
0.0
 11
1272.607923918401
 21
477.09483411161
 31
0.0
  0
LINE
  5
1350
330
2
100
AcDbEntity
  8
CENTER
100
AcDbLine
 10
1281.107923918401
 20
468.59483411161
 30
0.0
 11
1264.1079239184
 21
468.59483411161
 31
0.0
  0
LINE
  5
1351
330
2
100
AcDbEntity
  8
CENTER
100
AcDbLine
 10
1290.718118765006
 20
479.2050289582149
 30
0.0
 11
1275.718118765006
 21
479.2050289582149
 31
0.0
  0
LINE
  5
1352
330
2
100
AcDbEntity
  8
CENTER
100
AcDbLine
 10
1339.357729071795
 20
479.2050289582149
 30
0.0
 11
1354.357729071796
 21
479.2050289582149
 31
0.0
  0
LINE
  5
1353
330
2
100
AcDbEntity
  8
0
100
AcDbLine
 10
1288.037923918401
 20
553.0248341116093
 30
0.0
 11
1342.037923918401
 21
553.0248341116093
 31
0.0
  0
LINE
  5
1354
330
2
100
AcDbEntity
  8
0
100
AcDbLine
 10
1288.037923918401
 20
551.0248341116094
 30
0.0
 11
1342.037923918399
 21
551.0248341116094
 31
0.0
  0
ARC
  5
1355
330
2
100
AcDbEntity
  8
0
100
AcDbCircle
 10
1272.037923918403
 20
554.0248341116093
 30
0.0
 40
8.0
100
AcDbArc
 50
90.0
 51
180.0
  0
LINE
  5
1356
330
2
100
AcDbEntity
  8
CENTER
100
AcDbLine
 10
1272.607923918401
 20
561.9548341116097
 30
0.0
 11
1272.607923918401
 21
544.9548341116097
 31
0.0
  0
ARC
  5
1357
330
2
100
AcDbEntity
  8
0
100
AcDbCircle
 10
1288.037923918401
 20
538.0248341116093
 30
0.0
 40
15.0
100
AcDbArc
 50
90.0
 51
180.0
  0
LINE
  5
1358
330
2
100
AcDbEntity
  8
CENTER
100
AcDbLine
 10
1290.718118765006
 20
542.8446392650039
 30
0.0
 11
1275.718118765006
 21
542.8446392650039
 31
0.0
  0
ARC
  5
1359
330
2
100
AcDbEntity
  8
0
100
AcDbCircle
 10
1288.037923918401
 20
538.0248341116093
 30
0.0
 40
13.0
100
AcDbArc
 50
90.0
 51
180.0
  0
LINE
  5
135A
330
2
100
AcDbEntity
  8
CENTER
100
AcDbLine
 10
1283.218118765006
 20
550.3446392650039
 30
0.0
 11
1283.218118765006
 21
535.3446392650039
 31
0.0
  0
LINE
  5
135B
330
2
100
AcDbEntity
  8
CENTER
100
AcDbLine
 10
1281.107923918401
 20
553.4548341116097
 30
0.0
 11
1264.1079239184
 21
553.4548341116097
 31
0.0
  0
LINE
  5
135C
330
2
100
AcDbEntity
  8
CENTER
100
AcDbLine
 10
1346.857729071795
 20
550.3446392650039
 30
0.0
 11
1346.857729071795
 21
535.3446392650039
 31
0.0
  0
LINE
  5
135D
330
2
100
AcDbEntity
  8
CENTER
100
AcDbLine
 10
1339.357729071795
 20
542.8446392650039
 30
0.0
 11
1354.357729071796
 21
542.8446392650039
 31
0.0
  0
LINE
  5
135E
330
2
100
AcDbEntity
  8
0
100
AcDbLine
 10
1357.037923918401
 20
538.0248341116093
 30
0.0
 11
1357.037923918401
 21
484.0248341116094
 31
0.0
  0
ARC
  5
135F
330
2
100
AcDbEntity
  8
0
100
AcDbCircle
 10
1358.037923918401
 20
468.0248341116094
 30
0.0
 40
8.0
100
AcDbArc
 50
270.0
 51
0.0
  0
LINE
  5
1360
330
2
100
AcDbEntity
  8
CENTER
100
AcDbLine
 10
1357.467923918401
 20
460.09483411161
 30
0.0
 11
1357.467923918401
 21
477.09483411161
 31
0.0
  0
ARC
  5
1361
330
2
100
AcDbEntity
  8
0
100
AcDbCircle
 10
1358.037923918401
 20
554.0248341116093
 30
0.0
 40
8.0
100
AcDbArc
 50
0.0
 51
90.0
  0
LINE
  5
1362
330
2
100
AcDbEntity
  8
CENTER
100
AcDbLine
 10
1357.467923918401
 20
561.9548341116097
 30
0.0
 11
1357.467923918401
 21
544.9548341116097
 31
0.0
  0
CIRCLE
  5
1363
330
2
100
AcDbEntity
  8
0
100
AcDbCircle
 10
1315.037923918401
 20
511.0248341116094
 30
0.0
 40
34.99999999953029
  0
CIRCLE
  5
1364
330
2
100
AcDbEntity
  8
CENTER
100
AcDbCircle
 10
1315.037923918401
 20
511.0248341116094
 30
0.0
 40
45.0
  0
LINE
  5
1365
330
2
100
AcDbEntity
  8
HIDS
100
AcDbLine
 10
1306.287923918401
 20
553.0248341116093
 30
0.0
 11
1306.287923918403
 21
538.6732969983595
 31
0.0
  0
LINE
  5
1366
330
2
100
AcDbEntity
  8
HIDS
100
AcDbLine
 10
1293.787923918401
 20
553.0248341116093
 30
0.0
 11
1293.787923918401
 21
530.7590049834752
 31
0.0
  0
LINE
  5
1367
330
2
100
AcDbEntity
  8
0
100
AcDbLine
 10
1022.430578276142
 20
553.0248341116937
 30
0.0
 11
1022.430578276142
 21
549.5241344272296
 31
0.0
  0
LINE
  5
1368
330
2
100
AcDbEntity
  8
0
100
AcDbLine
 10
1024.430578276142
 20
551.0946543714087
 30
0.0
 11
1024.430578276142
 21
550.9053425982608
 31
0.0
  0
LINE
  5
1369
330
2
100
AcDbEntity
  8
0
100
AcDbLine
 10
988.4305782761384
 20
560.90261988424
 30
0.0
 11
988.4305782761401
 21
522.06753511718
 31
0.0
  0
LINE
  5
136A
330
2
100
AcDbEntity
  8
0
100
AcDbLine
 10
988.4305782761401
 20
511.0248341116965
 30
0.0
 11
988.4305782761401
 21
461.1470483391538
 31
0.0
  0
LINE
  5
136B
330
2
100
AcDbEntity
  8
0
100
AcDbLine
 10
1024.43057827614
 20
470.9550138519842
 30
0.0
 11
1022.430578276138
 21
469.0248341116974
 31
0.0
  0
LINE
  5
136C
330
2
100
AcDbEntity
  8
0
100
AcDbLine
 10
1028.430578276138
 20
471.0248341116974
 30
0.0
 11
1024.43057827614
 21
470.9550138519842
 31
0.0
  0
LINE
  5
136D
330
2
100
AcDbEntity
  8
0
100
AcDbLine
 10
973.4305782761383
 20
460.0248341116974
 30
0.0
 11
987.4393048116379
 21
460.147086416089
 31
0.0
  0
LINE
  5
136E
330
2
100
AcDbEntity
  8
0
100
AcDbLine
 10
1022.430578276138
 20
469.0248341116974
 30
0.0
 11
995.4305782761384
 21
468.8677527068009
 31
0.0
  0
LINE
  5
136F
330
2
100
AcDbEntity
  8
0
100
AcDbLine
 10
1024.430578276142
 20
551.0946543714087
 30
0.0
 11
1022.430578276142
 21
553.0248341116937
 31
0.0
  0
LINE
  5
1370
330
2
100
AcDbEntity
  8
0
100
AcDbLine
 10
1028.430578276138
 20
551.0248341116964
 30
0.0
 11
1024.430578276142
 21
551.0946543714087
 31
0.0
  0
LINE
  5
1371
330
2
100
AcDbEntity
  8
0
100
AcDbLine
 10
973.4305782761383
 20
562.0248341116965
 30
0.0
 11
987.4393048116379
 21
561.9025818073039
 31
0.0
  0
LINE
  5
1372
330
2
100
AcDbEntity
  8
0
100
AcDbLine
 10
1023.430425948821
 20
553.0190171681003
 30
0.0
 11
995.4305782761384
 21
553.1819155165919
 31
0.0
  0
ARC
  5
1373
330
2
100
AcDbEntity
  8
0
100
AcDbCircle
 10
987.4305782761384
 20
560.90261988424
 30
0.0
 40
1.0
100
AcDbArc
 50
0.0
 51
89.5000000000345
  0
ARC
  5
1374
330
2
100
AcDbEntity
  8
0
100
AcDbCircle
 10
987.4305782761402
 20
461.1470483391538
 30
0.0
 40
1.0
100
AcDbArc
 50
270.4999999999654
 51
0.0
  0
LINE
  5
1375
330
2
100
AcDbEntity
  8
0
100
AcDbLine
 10
1028.430578276138
 20
551.0248341116964
 30
0.0
 11
1028.430578276138
 21
471.0248341116974
 31
0.0
  0
CIRCLE
  5
1376
330
2
100
AcDbEntity
  8
0
100
AcDbCircle
 10
1272.607923918401
 20
553.4548341116097
 30
0.0
 40
5.0
  0
CIRCLE
  5
1377
330
2
100
AcDbEntity
  8
0
100
AcDbCircle
 10
1272.607923918401
 20
553.4548341116097
 30
0.0
 40
4.307179676972423
  0
CIRCLE
  5
1378
330
2
100
AcDbEntity
  8
0
100
AcDbCircle
 10
1272.607923918401
 20
553.4548341116097
 30
0.0
 40
2.886751345948113
  0
LWPOLYLINE
  5
1379
330
2
100
AcDbEntity
  8
0
100
AcDbPolyline
 90
        6
 70
     1
 43
0.0
 10
1275.107923918401
 20
554.8982097845837
 10
1272.607923918401
 20
556.3415854575578
 10
1270.1079239184
 20
554.8982097845837
 10
1270.1079239184
 20
552.0114584386355
 10
1272.607923918401
 20
550.5680827656615
 10
1275.107923918401
 20
552.0114584386355
  0
CIRCLE
  5
137A
330
2
100
AcDbEntity
  8
0
100
AcDbCircle
 10
1357.467923918401
 20
553.4548341116097
 30
0.0
 40
5.0
  0
CIRCLE
  5
137B
330
2
100
AcDbEntity
  8
0
100
AcDbCircle
 10
1357.467923918401
 20
553.4548341116097
 30
0.0
 40
4.307179676972423
  0
CIRCLE
  5
137C
330
2
100
AcDbEntity
  8
0
100
AcDbCircle
 10
1357.467923918401
 20
553.4548341116097
 30
0.0
 40
2.886751345948113
  0
LWPOLYLINE
  5
137D
330
2
100
AcDbEntity
  8
0
100
AcDbPolyline
 90
        6
 70
     1
 43
0.0
 10
1359.967923918401
 20
554.8982097845837
 10
1357.467923918401
 20
556.3415854575578
 10
1354.967923918401
 20
554.8982097845837
 10
1354.967923918401
 20
552.0114584386355
 10
1357.467923918401
 20
550.5680827656615
 10
1359.967923918401
 20
552.0114584386355
  0
CIRCLE
  5
137E
330
2
100
AcDbEntity
  8
0
100
AcDbCircle
 10
1357.467923918401
 20
468.59483411161
 30
0.0
 40
5.0
  0
CIRCLE
  5
137F
330
2
100
AcDbEntity
  8
0
100
AcDbCircle
 10
1357.467923918401
 20
468.59483411161
 30
0.0
 40
4.307179676972423
  0
CIRCLE
  5
1380
330
2
100
AcDbEntity
  8
0
100
AcDbCircle
 10
1357.467923918401
 20
468.59483411161
 30
0.0
 40
2.886751345948113
  0
LWPOLYLINE
  5
1381
330
2
100
AcDbEntity
  8
0
100
AcDbPolyline
 90
        6
 70
     1
 43
0.0
 10
1359.967923918401
 20
470.0382097845841
 10
1357.467923918401
 20
471.4815854575582
 10
1354.967923918401
 20
470.0382097845841
 10
1354.967923918401
 20
467.1514584386359
 10
1357.467923918401
 20
465.7080827656619
 10
1359.967923918401
 20
467.1514584386359
  0
CIRCLE
  5
1382
330
2
100
AcDbEntity
  8
0
100
AcDbCircle
 10
1272.607923918401
 20
468.59483411161
 30
0.0
 40
5.0
  0
CIRCLE
  5
1383
330
2
100
AcDbEntity
  8
0
100
AcDbCircle
 10
1272.607923918401
 20
468.59483411161
 30
0.0
 40
4.307179676972423
  0
CIRCLE
  5
1384
330
2
100
AcDbEntity
  8
0
100
AcDbCircle
 10
1272.607923918401
 20
468.59483411161
 30
0.0
 40
2.886751345948113
  0
LWPOLYLINE
  5
1385
330
2
100
AcDbEntity
  8
0
100
AcDbPolyline
 90
        6
 70
     1
 43
0.0
 10
1275.107923918401
 20
470.0382097845841
 10
1272.607923918401
 20
471.4815854575582
 10
1270.1079239184
 20
470.0382097845841
 10
1270.1079239184
 20
467.1514584386359
 10
1272.607923918401
 20
465.7080827656619
 10
1275.107923918401
 20
467.1514584386359
  0
LINE
  5
1386
330
2
100
AcDbEntity
  8
0
100
AcDbLine
 10
995.0305782761388
 20
548.4548341116967
 30
0.0
 11
995.4305782761384
 21
549.147654434724
 31
0.0
  0
LINE
  5
1387
330
2
100
AcDbEntity
  8
0
100
AcDbLine
 10
995.0305782761388
 20
548.4548341116967
 30
0.0
 11
995.0305782761388
 21
558.4548341116967
 31
0.0
  0
LINE
  5
1388
330
2
100
AcDbEntity
  8
0
100
AcDbLine
 10
989.4305782761383
 20
548.4548341116967
 30
0.0
 11
989.4305782761383
 21
558.4548341116967
 31
0.0
  0
LINE
  5
1389
330
2
100
AcDbEntity
  8
0
100
AcDbLine
 10
989.4305782761383
 20
558.4548341116967
 30
0.0
 11
988.4305782761384
 21
558.4548341116967
 31
0.0
  0
LINE
  5
138A
330
2
100
AcDbEntity
  8
0
100
AcDbLine
 10
988.4305782761384
 20
558.4548341116967
 30
0.0
 11
988.4305782761384
 21
548.4548341116967
 31
0.0
  0
LINE
  5
138B
330
2
100
AcDbEntity
  8
0
100
AcDbLine
 10
988.4305782761384
 20
548.4548341116967
 30
0.0
 11
989.4305782761383
 21
548.4548341116967
 31
0.0
  0
LINE
  5
138C
330
2
100
AcDbEntity
  8
0
100
AcDbLine
 10
989.4305782761383
 20
548.4548341116967
 30
0.0
 11
989.4305782761383
 21
558.4548341116967
 31
0.0
  0
LINE
  5
138D
330
2
100
AcDbEntity
  8
0
100
AcDbLine
 10
995.0305782761388
 20
548.4548341116967
 30
0.0
 11
989.4305782761383
 21
548.4548341116967
 31
0.0
  0
LINE
  5
138E
330
2
100
AcDbEntity
  8
0
100
AcDbLine
 10
995.4305782761384
 20
557.7620137886695
 30
0.0
 11
995.4305782761384
 21
549.147654434724
 31
0.0
  0
LINE
  5
138F
330
2
100
AcDbEntity
  8
0
100
AcDbLine
 10
989.4305782761383
 20
558.4548341116967
 30
0.0
 11
995.0305782761388
 21
558.4548341116967
 31
0.0
  0
LINE
  5
1390
330
2
100
AcDbEntity
  8
0
100
AcDbLine
 10
995.0305782761388
 20
558.4548341116967
 30
0.0
 11
995.4305782761384
 21
557.7620137886695
 31
0.0
  0
LINE
  5
1391
330
2
100
AcDbEntity
  8
CENTER
  6
CENS
100
AcDbLine
 10
968.4305782761402
 20
553.4548341116967
 30
0.0
 11
1000.430578276138
 21
553.4548341116967
 31
0.0
  0
LINE
  5
1392
330
2
100
AcDbEntity
  8
0
100
AcDbLine
 10
995.0305782761388
 20
473.5948341116971
 30
0.0
 11
995.4305782761384
 21
472.9020137886689
 31
0.0
  0
LINE
  5
1393
330
2
100
AcDbEntity
  8
0
100
AcDbLine
 10
995.0305782761388
 20
473.5948341116971
 30
0.0
 11
995.0305782761388
 21
463.5948341116971
 31
0.0
  0
LINE
  5
1394
330
2
100
AcDbEntity
  8
0
100
AcDbLine
 10
989.4305782761383
 20
473.5948341116971
 30
0.0
 11
989.4305782761383
 21
463.5948341116971
 31
0.0
  0
LINE
  5
1395
330
2
100
AcDbEntity
  8
0
100
AcDbLine
 10
989.4305782761383
 20
463.5948341116971
 30
0.0
 11
988.4305782761384
 21
463.5948341116971
 31
0.0
  0
LINE
  5
1396
330
2
100
AcDbEntity
  8
0
100
AcDbLine
 10
988.4305782761384
 20
463.5948341116971
 30
0.0
 11
988.4305782761384
 21
473.5948341116971
 31
0.0
  0
LINE
  5
1397
330
2
100
AcDbEntity
  8
0
100
AcDbLine
 10
988.4305782761384
 20
473.5948341116971
 30
0.0
 11
989.4305782761383
 21
473.5948341116971
 31
0.0
  0
LINE
  5
1398
330
2
100
AcDbEntity
  8
0
100
AcDbLine
 10
989.4305782761383
 20
473.5948341116971
 30
0.0
 11
989.4305782761383
 21
463.5948341116971
 31
0.0
  0
LINE
  5
1399
330
2
100
AcDbEntity
  8
0
100
AcDbLine
 10
995.0305782761388
 20
473.5948341116971
 30
0.0
 11
989.4305782761383
 21
473.5948341116971
 31
0.0
  0
LINE
  5
139A
330
2
100
AcDbEntity
  8
0
100
AcDbLine
 10
995.4305782761384
 20
464.2876544347243
 30
0.0
 11
995.4305782761384
 21
472.9020137886689
 31
0.0
  0
LINE
  5
139B
330
2
100
AcDbEntity
  8
0
100
AcDbLine
 10
989.4305782761383
 20
463.5948341116971
 30
0.0
 11
995.0305782761388
 21
463.5948341116971
 31
0.0
  0
LINE
  5
139C
330
2
100
AcDbEntity
  8
0
100
AcDbLine
 10
995.0305782761388
 20
463.5948341116962
 30
0.0
 11
995.4305782761384
 21
464.2876544347243
 31
0.0
  0
LINE
  5
139D
330
2
100
AcDbEntity
  8
CENTER
  6
CENS
100
AcDbLine
 10
968.4305782761402
 20
468.5948341116971
 30
0.0
 11
1000.430578276138
 21
468.5948341116971
 31
0.0
  0
LINE
  5
139E
330
2
100
AcDbEntity
  8
0
100
AcDbLine
 10
1019.453533563027
 20
557.0425126312536
 30
0.0
 11
1009.453699426754
 21
557.1001081781339
 31
0.0
  0
ARC
  5
139F
330
2
100
AcDbEntity
  8
0
100
AcDbCircle
 10
1009.430661208001
 20
553.1001745236242
 30
0.0
 40
4.000000000000014
100
AcDbArc
 50
89.67000000001375
 51
179.6699999999877
  0
ARC
  5
13A0
330
2
100
AcDbEntity
  8
0
100
AcDbCircle
 10
1019.430495344275
 20
553.0425789767439
 30
0.0
 40
4.000000000000014
100
AcDbArc
 50
359.6699999999876
 51
89.67000000001375
  0
LINE
  5
13A1
330
2
100
AcDbEntity
  8
CENTER
  6
CENS
100
AcDbLine
 10
1014.430578276138
 20
561.9672339852147
 30
0.0
 11
1014.430578276138
 21
533.60730798285
 31
0.0
  0
LINE
  5
13A2
330
2
100
AcDbEntity
  8
0
100
AcDbLine
 10
1028.430578276138
 20
546.0248341116964
 30
0.0
 11
1021.430578276138
 21
546.0248341116964
 31
0.0
  0
LINE
  5
13A3
330
2
100
AcDbEntity
  8
0
100
AcDbLine
 10
1021.430578276138
 20
546.0248341116964
 30
0.0
 11
1021.430578276138
 21
511.0248341116965
 31
0.0
  0
LINE
  5
13A4
330
2
100
AcDbEntity
  8
0
100
AcDbLine
 10
1021.430578276138
 20
530.7748341116965
 30
0.0
 11
1011.692773705621
 21
530.7748341116965
 31
0.0
  0
SPLINE
  5
13A5
330
2
100
AcDbEntity
  8
HOJO
100
AcDbSpline
210
0.0
220
0.0
230
1.0
 70
     8
 71
     3
 72
    20
 73
    16
 74
     0
 42
0.0000000001
 43
0.0000000001
 40
1.221331719906463
 40
1.221331719906463
 40
1.221331719906463
 40
1.221331719906463
 40
5.647385924430076
 40
9.759277458584113
 40
14.59638394258456
 40
18.6386056126129
 40
22.25598020257161
 40
26.57819511411361
 40
31.00332353479096
 40
40.39337194914635
 40
45.49899296170218
 40
52.02718752358933
 40
57.17041693382338
 40
65.63449353306062
 40
69.3611614947018
 40
69.3611614947018
 40
69.3611614947018
 40
69.3611614947018
 10
1024.731060833168
 20
551.0894094288667
 30
0.0
 10
1023.363900629576
 20
550.2541362156278
 30
0.0
 10
1020.908228898644
 20
548.725513570065
 30
0.0
 10
1019.598930470166
 20
544.2011713824956
 30
0.0
 10
1018.449021144619
 20
540.8096018879775
 30
0.0
 10
1014.96126473263
 20
537.1358366767333
 30
0.0
 10
1013.289429556267
 20
533.6104765467541
 30
0.0
 10
1011.312182995812
 20
530.0597598492593
 30
0.0
 10
1007.924401683248
 20
524.470715260805
 30
0.0
 10
1000.400042638933
 20
524.646291708396
 30
0.0
 10
993.6717032822851
 20
523.4999211748989
 30
0.0
 10
988.3284367368776
 20
521.7813090704182
 30
0.0
 10
981.3296562224913
 20
521.4451377856947
 30
0.0
 10
977.614923423267
 20
515.9591434537394
 30
0.0
 10
976.2930819844713
 20
512.1892369605636
 30
0.0
 10
975.8804092113622
 20
511.0248341116965
 30
0.0
  0
LINE
  5
13A6
330
2
100
AcDbEntity
  8
CENTER
  6
CENS
100
AcDbLine
 10
1300.037923918401
 20
561.9672339851276
 30
0.0
 11
1300.037923918401
 21
495.1771689540802
 31
0.0
  0
LINE
  5
13A7
330
2
100
AcDbEntity
  8
0
100
AcDbLine
 10
1295.302169562411
 20
510.2748341116094
 30
0.0
 11
1305.567575455964
 21
510.2748341116094
 31
0.0
  0
LINE
  5
13A8
330
2
100
AcDbEntity
  8
0
100
AcDbLine
 10
1295.302169562411
 20
511.7748341116094
 30
0.0
 11
1305.567575455964
 21
511.7748341116094
 31
0.0
  0
LINE
  5
13A9
330
2
100
AcDbEntity
  8
0
100
AcDbLine
 10
1332.2379239184
 20
510.2748341116094
 30
0.0
 11
1332.2379239184
 21
511.7748341116094
 31
0.0
  0
LINE
  5
13AA
330
2
100
AcDbEntity
  8
0
100
AcDbLine
 10
1324.50827238084
 20
510.2748341116094
 30
0.0
 11
1332.2379239184
 21
510.2748341116094
 31
0.0
  0
LINE
  5
13AB
330
2
100
AcDbEntity
  8
0
100
AcDbLine
 10
1324.50827238084
 20
511.7748341116094
 30
0.0
 11
1332.2379239184
 21
511.7748341116094
 31
0.0
  0
LINE
  5
13AC
330
2
100
AcDbEntity
  8
HIDS
100
AcDbLine
 10
1302.121257251735
 20
510.2748341116094
 30
0.0
 11
1302.121257251735
 21
496.0842108909329
 31
0.0
  0
LINE
  5
13AD
330
2
100
AcDbEntity
  8
HIDS
100
AcDbLine
 10
1297.954590585067
 20
510.2748341116094
 30
0.0
 11
1297.954590585067
 21
501.1141216133975
 31
0.0
  0
LINE
  5
13AE
330
2
100
AcDbEntity
  8
HIDS
100
AcDbLine
 10
1297.537923918401
 20
510.2748341116094
 30
0.0
 11
1297.537923918401
 21
501.8699173998093
 31
0.0
  0
LINE
  5
13AF
330
2
100
AcDbEntity
  8
HIDS
100
AcDbLine
 10
1303.037923918401
 20
516.0248341116093
 30
0.0
 11
1303.037923918401
 21
511.7748341116094
 31
0.0
  0
LINE
  5
13B0
330
2
100
AcDbEntity
  8
HIDS
100
AcDbLine
 10
1297.037923918401
 20
516.0248341116093
 30
0.0
 11
1297.037923918401
 21
511.7748341116094
 31
0.0
  0
LINE
  5
13B1
330
2
100
AcDbEntity
  8
HIDS
100
AcDbLine
 10
1304.287923918401
 20
516.0248341116093
 30
0.0
 11
1304.287923918401
 21
520.7248341116101
 31
0.0
  0
LINE
  5
13B2
330
2
100
AcDbEntity
  8
0
100
AcDbLine
 10
1295.787923918401
 20
520.7248341116101
 30
0.0
 11
1295.787923918401
 21
516.0248341116093
 31
0.0
  0
LINE
  5
13B3
330
2
100
AcDbEntity
  8
HIDS
100
AcDbLine
 10
1302.537923918401
 20
502.0248341116094
 30
0.0
 11
1301.537923918401
 21
501.0248341116094
 31
0.0
  0
LINE
  5
13B4
330
2
100
AcDbEntity
  8
HIDS
100
AcDbLine
 10
1297.537923918401
 20
502.0248341116094
 30
0.0
 11
1298.537923918401
 21
501.0248341116094
 31
0.0
  0
LINE
  5
13B5
330
2
100
AcDbEntity
  8
HIDS
100
AcDbLine
 10
1301.537923918401
 20
501.0248341116094
 30
0.0
 11
1298.537923918401
 21
501.0248341116094
 31
0.0
  0
LINE
  5
13B6
330
2
100
AcDbEntity
  8
HIDS
100
AcDbLine
 10
1302.537923918401
 20
516.0248341116093
 30
0.0
 11
1302.537923918401
 21
511.7748341116094
 31
0.0
  0
LINE
  5
13B7
330
2
100
AcDbEntity
  8
HIDS
100
AcDbLine
 10
1302.121257251735
 20
513.9415007782763
 30
0.0
 11
1302.121257251735
 21
511.7748341116094
 31
0.0
  0
LINE
  5
13B8
330
2
100
AcDbEntity
  8
HIDS
100
AcDbLine
 10
1297.954590585067
 20
513.9415007782763
 30
0.0
 11
1297.954590585067
 21
511.7748341116094
 31
0.0
  0
LINE
  5
13B9
330
2
100
AcDbEntity
  8
HIDS
100
AcDbLine
 10
1297.537923918401
 20
516.0248341116093
 30
0.0
 11
1297.537923918401
 21
511.7748341116094
 31
0.0
  0
LINE
  5
13BA
330
2
100
AcDbEntity
  8
HIDS
100
AcDbLine
 10
1302.537923918401
 20
502.0248341116094
 30
0.0
 11
1297.537923918401
 21
502.0248341116094
 31
0.0
  0
LINE
  5
13BB
330
2
100
AcDbEntity
  8
HIDS
100
AcDbLine
 10
1302.537923918401
 20
513.9415007782763
 30
0.0
 11
1297.537923918401
 21
513.9415007782763
 31
0.0
  0
LINE
  5
13BC
330
2
100
AcDbEntity
  8
0
100
AcDbLine
 10
1295.787923918401
 20
516.0248341116093
 30
0.0
 11
1295.931315114116
 21
516.0248341116093
 31
0.0
  0
LINE
  5
13BD
330
2
100
AcDbEntity
  8
HIDS
100
AcDbLine
 10
1297.537923918401
 20
516.0248341116093
 30
0.0
 11
1297.954590585067
 21
513.9415007782763
 31
0.0
  0
LINE
  5
13BE
330
2
100
AcDbEntity
  8
HIDS
100
AcDbLine
 10
1302.537923918401
 20
516.0248341116093
 30
0.0
 11
1302.121257251735
 21
513.9415007782763
 31
0.0
  0
LINE
  5
13BF
330
2
100
AcDbEntity
  8
0
100
AcDbLine
 10
1295.787923918401
 20
520.7248341116101
 30
0.0
 11
1297.834072605396
 21
520.7248341116101
 31
0.0
  0
LINE
  5
13C0
330
2
100
AcDbEntity
  8
HIDS
100
AcDbLine
 10
1303.76830867613
 20
521.0248341116093
 30
0.0
 11
1298.00670258815
 21
521.0248341116093
 31
0.0
  0
LINE
  5
13C1
330
2
100
AcDbEntity
  8
0
100
AcDbLine
 10
1295.787923918401
 20
520.7248341116101
 30
0.0
 11
1296.307539160671
 21
521.0248341116093
 31
0.0
  0
LINE
  5
13C2
330
2
100
AcDbEntity
  8
HIDS
100
AcDbLine
 10
1303.76830867613
 20
521.0248341116093
 30
0.0
 11
1304.287923918401
 21
520.7248341116101
 31
0.0
  0
LINE
  5
13C3
330
2
100
AcDbEntity
  8
HIDS
100
AcDbLine
 10
1295.931315114116
 20
516.0248341116093
 30
0.0
 11
1305.037923918401
 21
516.0248341116093
 31
0.0
  0
LINE
  5
13C4
330
2
100
AcDbEntity
  8
0
100
AcDbLine
 10
1298.00670258815
 20
521.0248341116093
 30
0.0
 11
1296.307539160671
 21
521.0248341116093
 31
0.0
  0
LINE
  5
13C5
330
2
100
AcDbEntity
  8
HIDS
100
AcDbLine
 10
1297.834072605396
 20
520.7248341116101
 30
0.0
 11
1304.287923918401
 21
520.7248341116101
 31
0.0
  0
LINE
  5
13C6
330
2
100
AcDbEntity
  8
0
100
AcDbLine
 10
1302.537923918401
 20
511.7748341116094
 30
0.0
 11
1302.537923918401
 21
510.2748341116094
 31
0.0
  0
LINE
  5
13C7
330
2
100
AcDbEntity
  8
HOJO
100
AcDbLine
 10
1302.121257251735
 20
511.7748341116094
 30
0.0
 11
1302.121257251735
 21
510.2748341116094
 31
0.0
  0
LINE
  5
13C8
330
2
100
AcDbEntity
  8
HOJO
100
AcDbLine
 10
1297.954590585067
 20
511.7748341116094
 30
0.0
 11
1297.954590585067
 21
510.2748341116094
 31
0.0
  0
LINE
  5
13C9
330
2
100
AcDbEntity
  8
0
100
AcDbLine
 10
1297.537923918401
 20
511.7748341116094
 30
0.0
 11
1297.537923918401
 21
510.2748341116094
 31
0.0
  0
LINE
  5
13CA
330
2
100
AcDbEntity
  8
HIDS
100
AcDbLine
 10
1297.537923918401
 20
510.2748341116094
 30
0.0
 11
1297.537923918401
 21
502.0248341116094
 31
0.0
  0
LINE
  5
13CB
330
2
100
AcDbEntity
  8
HIDS
100
AcDbLine
 10
1302.537923918401
 20
510.2748341116094
 30
0.0
 11
1302.537923918401
 21
502.0248341116094
 31
0.0
  0
LINE
  5
13CC
330
2
100
AcDbEntity
  8
HIDS
100
AcDbLine
 10
1297.954590585067
 20
510.2748341116094
 30
0.0
 11
1297.954590585067
 21
501.6081674449433
 31
0.0
  0
CIRCLE
  5
13CD
330
2
100
AcDbEntity
  8
0
100
AcDbCircle
 10
1315.037923918401
 20
511.0248341116094
 30
0.0
 40
19.75
  0
LINE
  5
13CF
330
2
100
AcDbEntity
  8
0
100
AcDbLine
 10
1295.162924941853
 20
557.1001081780468
 30
0.0
 11
1304.912924941853
 21
557.1001081780468
 31
0.0
  0
ARC
  5
13D0
330
2
100
AcDbEntity
  8
0
100
AcDbCircle
 10
1295.162924941853
 20
552.8501081780468
 30
0.0
 40
4.25
100
AcDbArc
 50
90.0
 51
177.6437927484533
  0
ARC
  5
13D1
330
2
100
AcDbEntity
  8
0
100
AcDbCircle
 10
1304.662924941853
 20
552.8501081780468
 30
0.0
 40
4.25
100
AcDbArc
 50
2.356207251546686
 51
90.0
  0
LINE
  5
13D2
330
2
100
AcDbEntity
  8
0
100
AcDbLine
 10
60.19537502151877
 20
553.0248341116937
 30
0.0
 11
60.19537502151877
 21
469.0248341117001
 31
0.0
  0
LINE
  5
13D3
330
2
100
AcDbEntity
  8
0
100
AcDbLine
 10
58.19537502151877
 20
551.0946543714087
 30
0.0
 11
58.19537502152059
 21
470.9550138519842
 31
0.0
  0
LINE
  5
13D4
330
2
100
AcDbEntity
  8
0
100
AcDbLine
 10
94.19537502151968
 20
560.90261988424
 30
0.0
 11
94.19537502152058
 21
461.1470483391538
 31
0.0
  0
LINE
  5
13D5
330
2
100
AcDbEntity
  8
0
100
AcDbLine
 10
58.19537502152059
 20
470.9550138519842
 30
0.0
 11
60.19537502152241
 21
469.0248341116974
 31
0.0
  0
LINE
  5
13D6
330
2
100
AcDbEntity
  8
0
100
AcDbLine
 10
54.19537502152241
 20
471.0248341116974
 30
0.0
 11
58.19537502152059
 21
470.9550138519842
 31
0.0
  0
LINE
  5
13D7
330
2
100
AcDbEntity
  8
0
100
AcDbLine
 10
109.1953750215224
 20
460.0248341116974
 30
0.0
 11
95.18664848602282
 21
460.147086416089
 31
0.0
  0
LINE
  5
13D8
330
2
100
AcDbEntity
  8
0
100
AcDbLine
 10
60.19537502152241
 20
469.0248341116974
 30
0.0
 11
87.1953750215224
 21
468.8677527068009
 31
0.0
  0
LINE
  5
13D9
330
2
100
AcDbEntity
  8
0
100
AcDbLine
 10
58.19537502151877
 20
551.0946543714087
 30
0.0
 11
60.19537502151877
 21
553.0248341116937
 31
0.0
  0
LINE
  5
13DA
330
2
100
AcDbEntity
  8
0
100
AcDbLine
 10
54.19537502152241
 20
551.0248341116964
 30
0.0
 11
58.19537502151877
 21
551.0946543714087
 31
0.0
  0
LINE
  5
13DB
330
2
100
AcDbEntity
  8
0
100
AcDbLine
 10
109.1953750215224
 20
562.0248341116965
 30
0.0
 11
95.18664848602282
 21
561.9025818073039
 31
0.0
  0
LINE
  5
13DC
330
2
100
AcDbEntity
  8
0
100
AcDbLine
 10
59.19552734883916
 20
553.0190171681003
 30
0.0
 11
87.1953750215224
 21
553.1819155165919
 31
0.0
  0
ARC
  5
13DD
330
2
100
AcDbEntity
  8
0
100
AcDbCircle
 10
95.19537502152241
 20
560.90261988424
 30
0.0
 40
1.0
100
AcDbArc
 50
90.49999999996549
 51
180.0
  0
ARC
  5
13DE
330
2
100
AcDbEntity
  8
0
100
AcDbCircle
 10
95.1953750215206
 20
461.1470483391538
 30
0.0
 40
1.0
100
AcDbArc
 50
180.0
 51
269.5000000000345
  0
LINE
  5
13DF
330
2
100
AcDbEntity
  8
0
100
AcDbLine
 10
54.19537502152241
 20
551.0248341116964
 30
0.0
 11
54.19537502152241
 21
471.0248341116974
 31
0.0
  0
LINE
  5
13E0
330
2
100
AcDbEntity
  8
0
100
AcDbLine
 10
87.59537502152204
 20
548.4548341116967
 30
0.0
 11
87.1953750215224
 21
549.147654434724
 31
0.0
  0
LINE
  5
13E1
330
2
100
AcDbEntity
  8
0
100
AcDbLine
 10
87.59537502152204
 20
548.4548341116967
 30
0.0
 11
87.59537502152204
 21
558.4548341116967
 31
0.0
  0
LINE
  5
13E2
330
2
100
AcDbEntity
  8
0
100
AcDbLine
 10
93.19537502152241
 20
548.4548341116967
 30
0.0
 11
93.19537502152241
 21
558.4548341116967
 31
0.0
  0
LINE
  5
13E3
330
2
100
AcDbEntity
  8
0
100
AcDbLine
 10
93.19537502152241
 20
558.4548341116967
 30
0.0
 11
94.19537502152241
 21
558.4548341116967
 31
0.0
  0
LINE
  5
13E4
330
2
100
AcDbEntity
  8
0
100
AcDbLine
 10
94.19537502152241
 20
558.4548341116967
 30
0.0
 11
94.19537502152241
 21
548.4548341116967
 31
0.0
  0
LINE
  5
13E5
330
2
100
AcDbEntity
  8
0
100
AcDbLine
 10
94.19537502152241
 20
548.4548341116967
 30
0.0
 11
93.19537502152241
 21
548.4548341116967
 31
0.0
  0
LINE
  5
13E6
330
2
100
AcDbEntity
  8
0
100
AcDbLine
 10
93.19537502152241
 20
548.4548341116967
 30
0.0
 11
93.19537502152241
 21
558.4548341116967
 31
0.0
  0
LINE
  5
13E7
330
2
100
AcDbEntity
  8
0
100
AcDbLine
 10
87.59537502152204
 20
548.4548341116967
 30
0.0
 11
93.19537502152241
 21
548.4548341116967
 31
0.0
  0
LINE
  5
13E8
330
2
100
AcDbEntity
  8
0
100
AcDbLine
 10
87.1953750215224
 20
557.7620137886695
 30
0.0
 11
87.1953750215224
 21
549.147654434724
 31
0.0
  0
LINE
  5
13E9
330
2
100
AcDbEntity
  8
0
100
AcDbLine
 10
93.19537502152241
 20
558.4548341116967
 30
0.0
 11
87.59537502152204
 21
558.4548341116967
 31
0.0
  0
LINE
  5
13EA
330
2
100
AcDbEntity
  8
0
100
AcDbLine
 10
87.59537502152204
 20
558.4548341116967
 30
0.0
 11
87.1953750215224
 21
557.7620137886695
 31
0.0
  0
LINE
  5
13EB
330
2
100
AcDbEntity
  8
CENTER
  6
CENS
100
AcDbLine
 10
114.1953750215233
 20
553.4548341116967
 30
0.0
 11
82.1953750215224
 21
553.4548341116967
 31
0.0
  0
LINE
  5
13EC
330
2
100
AcDbEntity
  8
0
100
AcDbLine
 10
87.59537502152204
 20
473.5948341116971
 30
0.0
 11
87.1953750215224
 21
472.9020137886689
 31
0.0
  0
LINE
  5
13ED
330
2
100
AcDbEntity
  8
0
100
AcDbLine
 10
87.59537502152204
 20
473.5948341116971
 30
0.0
 11
87.59537502152204
 21
463.5948341116971
 31
0.0
  0
LINE
  5
13EE
330
2
100
AcDbEntity
  8
0
100
AcDbLine
 10
93.19537502152241
 20
473.5948341116971
 30
0.0
 11
93.19537502152241
 21
463.5948341116971
 31
0.0
  0
LINE
  5
13EF
330
2
100
AcDbEntity
  8
0
100
AcDbLine
 10
93.19537502152241
 20
463.5948341116971
 30
0.0
 11
94.19537502152241
 21
463.5948341116971
 31
0.0
  0
LINE
  5
13F0
330
2
100
AcDbEntity
  8
0
100
AcDbLine
 10
94.19537502152241
 20
463.5948341116971
 30
0.0
 11
94.19537502152241
 21
473.5948341116971
 31
0.0
  0
LINE
  5
13F1
330
2
100
AcDbEntity
  8
0
100
AcDbLine
 10
94.19537502152241
 20
473.5948341116971
 30
0.0
 11
93.19537502152241
 21
473.5948341116971
 31
0.0
  0
LINE
  5
13F2
330
2
100
AcDbEntity
  8
0
100
AcDbLine
 10
93.19537502152241
 20
473.5948341116971
 30
0.0
 11
93.19537502152241
 21
463.5948341116971
 31
0.0
  0
LINE
  5
13F3
330
2
100
AcDbEntity
  8
0
100
AcDbLine
 10
87.59537502152204
 20
473.5948341116971
 30
0.0
 11
93.19537502152241
 21
473.5948341116971
 31
0.0
  0
LINE
  5
13F4
330
2
100
AcDbEntity
  8
0
100
AcDbLine
 10
87.1953750215224
 20
464.2876544347243
 30
0.0
 11
87.1953750215224
 21
472.9020137886689
 31
0.0
  0
LINE
  5
13F5
330
2
100
AcDbEntity
  8
0
100
AcDbLine
 10
93.19537502152241
 20
463.5948341116971
 30
0.0
 11
87.59537502152204
 21
463.5948341116971
 31
0.0
  0
LINE
  5
13F6
330
2
100
AcDbEntity
  8
0
100
AcDbLine
 10
87.59537502152204
 20
463.5948341116962
 30
0.0
 11
87.1953750215224
 21
464.2876544347243
 31
0.0
  0
LINE
  5
13F7
330
2
100
AcDbEntity
  8
CENTER
  6
CENS
100
AcDbLine
 10
114.1953750215233
 20
468.5948341116971
 30
0.0
 11
82.1953750215224
 21
468.5948341116971
 31
0.0
  0
LINE
  5
13F8
330
2
100
AcDbEntity
  8
0
100
AcDbLine
 10
63.17241973463286
 20
557.0425126312536
 30
0.0
 11
73.17225387090627
 21
557.1001081781339
 31
0.0
  0
ARC
  5
13F9
330
2
100
AcDbEntity
  8
0
100
AcDbCircle
 10
73.19529208965912
 20
553.1001745236242
 30
0.0
 40
4.000000000000014
100
AcDbArc
 50
0.3300000000122996
 51
90.32999999998624
  0
ARC
  5
13FA
330
2
100
AcDbEntity
  8
0
100
AcDbCircle
 10
63.19545795338569
 20
553.0425789767439
 30
0.0
 40
4.000000000000014
100
AcDbArc
 50
90.32999999998624
 51
180.3299999999862
  0
LINE
  5
13FB
330
2
100
AcDbEntity
  8
CENTER
  6
CENS
100
AcDbLine
 10
68.19537502152241
 20
561.9672339852147
 30
0.0
 11
68.19537502152241
 21
533.60730798285
 31
0.0
  0
LINE
  5
13FC
330
2
100
AcDbEntity
  8
0
100
AcDbLine
 10
1021.430578276138
 20
546.0248341116964
 30
0.0
 11
1021.430578276138
 21
511.0248341116965
 31
0.0
  0
LINE
  5
13FD
330
2
100
AcDbEntity
  8
0
100
AcDbLine
 10
1019.430578276138
 20
520.5248341116964
 30
0.0
 11
1008.430578276138
 21
520.5248341116964
 31
0.0
  0
LINE
  5
13FE
330
2
100
AcDbEntity
  8
0
100
AcDbLine
 10
989.9305782761384
 20
520.7748341116964
 30
0.0
 11
989.9305782761384
 21
511.0248341116965
 31
0.0
  0
LINE
  5
13FF
330
2
100
AcDbEntity
  8
0
100
AcDbLine
 10
989.9305782761384
 20
520.7748341116964
 30
0.0
 11
983.9305782761384
 21
520.7748341116964
 31
0.0
  0
LINE
  5
1400
330
2
100
AcDbEntity
  8
0
100
AcDbLine
 10
983.9305782761384
 20
520.7748341116964
 30
0.0
 11
983.9305782761384
 21
511.0248341116965
 31
0.0
  0
LINE
  5
1401
330
2
100
AcDbEntity
  8
0
100
AcDbLine
 10
1006.430578276138
 20
525.3002443323919
 30
0.0
 11
1006.430578276138
 21
511.0248341116965
 31
0.0
  0
LINE
  5
1402
330
2
100
AcDbEntity
  8
0
100
AcDbLine
 10
1008.430578276138
 20
526.3539776727736
 30
0.0
 11
1008.430578276138
 21
511.0248341116965
 31
0.0
  0
LINE
  5
1403
330
2
100
AcDbEntity
  8
0
100
AcDbLine
 10
1006.430578276138
 20
520.5248341116964
 30
0.0
 11
989.9305782761384
 21
520.5248341116964
 31
0.0
  0
LINE
  5
1404
330
2
100
AcDbEntity
  8
0
100
AcDbLine
 10
1021.430578276138
 20
521.6795346500764
 30
0.0
 11
1019.430578276138
 21
520.5248341116964
 31
0.0
  0
LINE
  5
1405
330
2
100
AcDbEntity
  8
0
100
AcDbLine
 10
1019.430578276138
 20
520.5248341116964
 30
0.0
 11
1019.430578276136
 21
511.0248341116965
 31
0.0
  0
LINE
  5
1406
330
2
100
AcDbEntity
  8
0
100
AcDbLine
 10
983.9305782761384
 20
520.0248341116965
 30
0.0
 11
978.7344258534302
 21
511.0248341116965
 31
0.0
  0
ARC
  5
1407
330
2
100
AcDbEntity
  8
0
100
AcDbCircle
 10
1315.037923918401
 20
511.0248341116094
 30
0.0
 40
10.6547005383793
100
AcDbArc
 50
184.0364720827239
 51
355.9635279172759
  0
ARC
  5
1408
330
2
100
AcDbEntity
  8
0
100
AcDbCircle
 10
1315.037923918401
 20
511.0248341116094
 30
0.0
 40
10.6547005383793
100
AcDbArc
 50
4.036472082724014
 51
175.963527917276
  0
CIRCLE
  5
1409
330
2
100
AcDbEntity
  8
0
100
AcDbCircle
 10
1315.037923918401
 20
511.0248341116094
 30
0.0
 40
9.5
  0
LINE
  5
140A
330
2
100
AcDbEntity
  8
HIDS
100
AcDbLine
 10
1305.037923918401
 20
516.0248341116093
 30
0.0
 11
1305.037923918403
 21
528.0560554418607
 31
0.0
  0
CIRCLE
  5
140B
330
2
100
AcDbEntity
  8
0
100
AcDbCircle
 10
1346.857729071795
 20
542.8446392650039
 30
0.0
 40
2.0
  0
CIRCLE
  5
140C
330
2
100
AcDbEntity
  8
HOJO
100
AcDbCircle
 10
1346.857729071795
 20
542.8446392650039
 30
0.0
 40
2.5
  0
CIRCLE
  5
140D
330
2
100
AcDbEntity
  8
0
100
AcDbCircle
 10
1283.218118765006
 20
542.8446392650039
 30
0.0
 40
2.0
  0
CIRCLE
  5
140E
330
2
100
AcDbEntity
  8
HOJO
100
AcDbCircle
 10
1283.218118765006
 20
542.8446392650039
 30
0.0
 40
2.5
  0
CIRCLE
  5
140F
330
2
100
AcDbEntity
  8
0
100
AcDbCircle
 10
1283.218118765006
 20
479.2050289582149
 30
0.0
 40
2.0
  0
CIRCLE
  5
1410
330
2
100
AcDbEntity
  8
HOJO
100
AcDbCircle
 10
1283.218118765006
 20
479.2050289582149
 30
0.0
 40
2.5
  0
CIRCLE
  5
1411
330
2
100
AcDbEntity
  8
0
100
AcDbCircle
 10
1346.857729071795
 20
479.2050289582149
 30
0.0
 40
2.0
  0
CIRCLE
  5
1412
330
2
100
AcDbEntity
  8
HOJO
100
AcDbCircle
 10
1346.857729071795
 20
479.2050289582149
 30
0.0
 40
2.5
  0
LINE
  5
1413
330
2
100
AcDbEntity
  8
0
100
AcDbLine
 10
1022.430578276138
 20
469.0248341116974
 30
0.0
 11
1022.430578276138
 21
511.0248341116965
 31
0.0
  0
LINE
  5
1414
330
2
100
AcDbEntity
  8
0
100
AcDbLine
 10
1024.43057827614
 20
470.9550138519842
 30
0.0
 11
1024.43057827614
 21
511.0248341116965
 31
0.0
  0
LINE
  5
1415
330
2
100
AcDbEntity
  8
0
100
AcDbLine
 10
1021.430578276138
 20
540.0248341116964
 30
0.0
 11
1017.520924927352
 21
540.0248341116964
 31
0.0
  0
CIRCLE
  5
1416
330
2
100
AcDbEntity
  8
0
100
AcDbCircle
 10
1315.037923918401
 20
511.0248341116094
 30
0.0
 40
29.0
  0
LINE
  5
1417
330
2
100
AcDbEntity
  8
0
100
AcDbLine
 10
1022.430578276141
 20
804.1017220872236
 30
0.0
 11
1022.430578276141
 21
826.978616461608
 31
0.0
  0
LINE
  5
1418
330
2
100
AcDbEntity
  8
0
100
AcDbLine
 10
1022.430578276141
 20
835.2248277128328
 30
0.0
 11
1022.430578276141
 21
888.1017220872172
 31
0.0
  0
LINE
  5
1419
330
2
100
AcDbEntity
  8
0
100
AcDbLine
 10
1024.430578276141
 20
806.0319018275077
 30
0.0
 11
1024.430578276139
 21
886.1715423469322
 31
0.0
  0
LINE
  5
141A
330
2
100
AcDbEntity
  8
0
100
AcDbLine
 10
988.4305782761375
 20
796.2239363146773
 30
0.0
 11
988.4305782761392
 21
895.9795078597634
 31
0.0
  0
LINE
  5
141B
330
2
100
AcDbEntity
  8
0
100
AcDbLine
 10
1024.430578276139
 20
886.1715423469322
 30
0.0
 11
1022.430578276137
 21
888.10172208722
 31
0.0
  0
LINE
  5
141C
330
2
100
AcDbEntity
  8
0
100
AcDbLine
 10
1028.430578276137
 20
886.1017220872199
 30
0.0
 11
1024.430578276139
 21
886.1715423469322
 31
0.0
  0
LINE
  5
141D
330
2
100
AcDbEntity
  8
0
100
AcDbLine
 10
973.4305782761374
 20
897.10172208722
 30
0.0
 11
987.439304811637
 21
896.9794697828275
 31
0.0
  0
LINE
  5
141E
330
2
100
AcDbEntity
  8
0
100
AcDbLine
 10
1022.430578276137
 20
888.10172208722
 30
0.0
 11
995.4305782761375
 21
888.2588034921154
 31
0.0
  0
LINE
  5
141F
330
2
100
AcDbEntity
  8
0
100
AcDbLine
 10
1024.430578276141
 20
806.0319018275077
 30
0.0
 11
1022.430578276141
 21
804.1017220872236
 31
0.0
  0
LINE
  5
1420
330
2
100
AcDbEntity
  8
0
100
AcDbLine
 10
1028.430578276137
 20
806.1017220872209
 30
0.0
 11
1024.430578276141
 21
806.0319018275077
 31
0.0
  0
LINE
  5
1421
330
2
100
AcDbEntity
  8
0
100
AcDbLine
 10
973.4305782761374
 20
795.1017220872208
 30
0.0
 11
987.439304811637
 21
795.2239743916124
 31
0.0
  0
LINE
  5
1422
330
2
100
AcDbEntity
  8
0
100
AcDbLine
 10
1022.430578276139
 20
804.1017220872209
 30
0.0
 11
995.4305782761375
 21
803.9446406823245
 31
0.0
  0
ARC
  5
1423
330
2
100
AcDbEntity
  8
0
100
AcDbCircle
 10
987.4305782761375
 20
796.2239363146773
 30
0.0
 40
1.0
100
AcDbArc
 50
270.4999999999654
 51
0.0
  0
ARC
  5
1424
330
2
100
AcDbEntity
  8
0
100
AcDbCircle
 10
987.4305782761393
 20
895.9795078597634
 30
0.0
 40
1.0
100
AcDbArc
 50
0.0
 51
89.5000000000345
  0
LINE
  5
1425
330
2
100
AcDbEntity
  8
0
100
AcDbLine
 10
1028.430578276137
 20
806.1017220872209
 30
0.0
 11
1028.430578276137
 21
886.1017220872199
 31
0.0
  0
LINE
  5
1426
330
2
100
AcDbEntity
  8
0
100
AcDbLine
 10
995.0305782761377
 20
808.6717220872206
 30
0.0
 11
995.4305782761375
 21
807.9789017641925
 31
0.0
  0
LINE
  5
1427
330
2
100
AcDbEntity
  8
0
100
AcDbLine
 10
995.0305782761377
 20
808.6717220872206
 30
0.0
 11
995.0305782761377
 21
798.6717220872206
 31
0.0
  0
LINE
  5
1428
330
2
100
AcDbEntity
  8
0
100
AcDbLine
 10
989.4305782761374
 20
808.6717220872206
 30
0.0
 11
989.4305782761374
 21
798.6717220872206
 31
0.0
  0
LINE
  5
1429
330
2
100
AcDbEntity
  8
0
100
AcDbLine
 10
989.4305782761374
 20
798.6717220872206
 30
0.0
 11
988.4305782761375
 21
798.6717220872206
 31
0.0
  0
LINE
  5
142A
330
2
100
AcDbEntity
  8
0
100
AcDbLine
 10
988.4305782761375
 20
798.6717220872206
 30
0.0
 11
988.4305782761375
 21
808.6717220872206
 31
0.0
  0
LINE
  5
142B
330
2
100
AcDbEntity
  8
0
100
AcDbLine
 10
988.4305782761375
 20
808.6717220872206
 30
0.0
 11
989.4305782761374
 21
808.6717220872206
 31
0.0
  0
LINE
  5
142C
330
2
100
AcDbEntity
  8
0
100
AcDbLine
 10
989.4305782761374
 20
808.6717220872206
 30
0.0
 11
989.4305782761374
 21
798.6717220872206
 31
0.0
  0
LINE
  5
142D
330
2
100
AcDbEntity
  8
0
100
AcDbLine
 10
995.0305782761377
 20
808.6717220872206
 30
0.0
 11
989.4305782761374
 21
808.6717220872206
 31
0.0
  0
LINE
  5
142E
330
2
100
AcDbEntity
  8
0
100
AcDbLine
 10
995.4305782761375
 20
799.3645424102478
 30
0.0
 11
995.4305782761375
 21
807.9789017641925
 31
0.0
  0
LINE
  5
142F
330
2
100
AcDbEntity
  8
0
100
AcDbLine
 10
989.4305782761374
 20
798.6717220872206
 30
0.0
 11
995.0305782761377
 21
798.6717220872206
 31
0.0
  0
LINE
  5
1430
330
2
100
AcDbEntity
  8
0
100
AcDbLine
 10
995.0305782761377
 20
798.6717220872196
 30
0.0
 11
995.4305782761375
 21
799.3645424102478
 31
0.0
  0
LINE
  5
1431
330
2
100
AcDbEntity
  8
CENTER
  6
CENS
100
AcDbLine
 10
968.4305782761393
 20
803.6717220872205
 30
0.0
 11
1000.430578276137
 21
803.6717220872205
 31
0.0
  0
LINE
  5
1432
330
2
100
AcDbEntity
  8
0
100
AcDbLine
 10
995.0305782761377
 20
883.5317220872202
 30
0.0
 11
995.4305782761375
 21
884.2245424102475
 31
0.0
  0
LINE
  5
1433
330
2
100
AcDbEntity
  8
0
100
AcDbLine
 10
995.0305782761377
 20
883.5317220872202
 30
0.0
 11
995.0305782761377
 21
893.5317220872203
 31
0.0
  0
LINE
  5
1434
330
2
100
AcDbEntity
  8
0
100
AcDbLine
 10
989.4305782761374
 20
883.5317220872202
 30
0.0
 11
989.4305782761374
 21
893.5317220872203
 31
0.0
  0
LINE
  5
1435
330
2
100
AcDbEntity
  8
0
100
AcDbLine
 10
989.4305782761374
 20
893.5317220872203
 30
0.0
 11
988.4305782761375
 21
893.5317220872203
 31
0.0
  0
LINE
  5
1436
330
2
100
AcDbEntity
  8
0
100
AcDbLine
 10
988.4305782761375
 20
893.5317220872203
 30
0.0
 11
988.4305782761375
 21
883.5317220872202
 31
0.0
  0
LINE
  5
1437
330
2
100
AcDbEntity
  8
0
100
AcDbLine
 10
988.4305782761375
 20
883.5317220872202
 30
0.0
 11
989.4305782761374
 21
883.5317220872202
 31
0.0
  0
LINE
  5
1438
330
2
100
AcDbEntity
  8
0
100
AcDbLine
 10
989.4305782761374
 20
883.5317220872202
 30
0.0
 11
989.4305782761374
 21
893.5317220872203
 31
0.0
  0
LINE
  5
1439
330
2
100
AcDbEntity
  8
0
100
AcDbLine
 10
995.0305782761377
 20
883.5317220872202
 30
0.0
 11
989.4305782761374
 21
883.5317220872202
 31
0.0
  0
LINE
  5
143A
330
2
100
AcDbEntity
  8
0
100
AcDbLine
 10
995.4305782761375
 20
892.8389017641929
 30
0.0
 11
995.4305782761375
 21
884.2245424102475
 31
0.0
  0
LINE
  5
143B
330
2
100
AcDbEntity
  8
0
100
AcDbLine
 10
989.4305782761374
 20
893.5317220872203
 30
0.0
 11
995.0305782761377
 21
893.5317220872203
 31
0.0
  0
LINE
  5
143C
330
2
100
AcDbEntity
  8
0
100
AcDbLine
 10
995.0305782761377
 20
893.5317220872203
 30
0.0
 11
995.4305782761375
 21
892.8389017641929
 31
0.0
  0
LINE
  5
143D
330
2
100
AcDbEntity
  8
CENTER
  6
CENS
100
AcDbLine
 10
968.4305782761393
 20
888.5317220872202
 30
0.0
 11
1000.430578276137
 21
888.5317220872202
 31
0.0
  0
CIRCLE
  5
143E
330
2
100
AcDbEntity
  8
0
100
AcDbCircle
 10
1014.430578276137
 20
831.10172208722
 30
0.0
 40
9.0
  0
LINE
  5
143F
330
2
100
AcDbEntity
  8
CENTER
  6
CENS
100
AcDbLine
 10
1014.430578276133
 20
819.2227921882258
 30
0.0
 11
1014.430578276133
 21
842.980651986214
 31
0.0
  0
LINE
  5
1440
330
2
100
AcDbEntity
  8
CENTER
  6
CENS
100
AcDbLine
 10
1026.309508175128
 20
831.10172208722
 30
0.0
 11
1002.551648377139
 21
831.10172208722
 31
0.0
  0
LINE
  5
1934
330
2
100
AcDbEntity
  8
0
100
AcDbLine
 10
205.665397021521
 20
453.5248341116965
 30
0.0
 11
205.665397021521
 21
568.5248341116964
 31
0.0
  0
ARC
  5
1935
330
2
100
AcDbEntity
  8
0
100
AcDbCircle
 10
215.665397021521
 20
568.5248341116964
 30
0.0
 40
10.0
100
AcDbArc
 50
90.0
 51
175.219808152766
  0
ARC
  5
1936
330
2
100
AcDbEntity
  8
0
100
AcDbCircle
 10
219.665397021521
 20
570.5248341116964
 30
0.0
 40
8.0
100
AcDbArc
 50
80.57047887833093
 51
90.0
  0
ARC
  5
1937
330
2
100
AcDbEntity
  8
0
100
AcDbCircle
 10
237.3594973976422
 20
677.0655249855579
 30
0.0
 40
100.0
100
AcDbArc
 50
260.5704788783309
 51
274.6677226878297
  0
LINE
  5
1938
330
2
100
AcDbEntity
  8
0
100
AcDbLine
 10
219.665397021521
 20
578.5248341116965
 30
0.0
 11
215.665397021521
 21
578.5248341116965
 31
0.0
  0
LINE
  5
1939
330
2
100
AcDbEntity
  8
0
100
AcDbLine
 10
322.1653970215182
 20
568.5248341116964
 30
0.0
 11
322.1653970215192
 21
575.681640088749
 31
0.0
  0
ARC
  5
193A
330
2
100
AcDbEntity
  8
0
100
AcDbCircle
 10
330.665397021521
 20
568.5248341116964
 30
0.0
 40
10.0
100
AcDbArc
 50
0.0
 51
90.0
  0
LINE
  5
193B
330
2
100
AcDbEntity
  8
0
100
AcDbLine
 10
330.665397021521
 20
578.5248341116965
 30
0.0
 11
326.665397021521
 21
578.5248341116965
 31
0.0
  0
ARC
  5
193C
330
2
100
AcDbEntity
  8
0
100
AcDbCircle
 10
326.665397021521
 20
570.5248341116964
 30
0.0
 40
8.0
100
AcDbArc
 50
90.0
 51
99.42952112166906
  0
LINE
  5
193D
330
2
100
AcDbEntity
  8
CENTER
100
AcDbLine
 10
341.4153970215173
 20
568.5248341116983
 30
0.0
 11
319.9153970215182
 21
568.5248341116964
 31
0.0
  0
ARC
  5
193E
330
2
100
AcDbEntity
  8
0
100
AcDbCircle
 10
330.6653970215173
 20
568.5248341116983
 30
0.0
 40
8.5
100
AcDbArc
 50
180.0
 51
270.0
  0
LINE
  5
193F
330
2
100
AcDbEntity
  8
0
100
AcDbLine
 10
340.665397021521
 20
564.5248341116964
 30
0.0
 11
340.665397021521
 21
568.5248341116964
 31
0.0
  0
ARC
  5
1940
330
2
100
AcDbEntity
  8
0
100
AcDbCircle
 10
332.665397021521
 20
564.5248341116964
 30
0.0
 40
8.0
100
AcDbArc
 50
350.5704788783309
 51
0.0
  0
ARC
  5
1941
330
2
100
AcDbEntity
  8
0
100
AcDbCircle
 10
439.2060878953842
 20
546.8307337355825
 30
0.0
 40
100.0
100
AcDbArc
 50
170.5704788783309
 51
184.6677226878297
  0
ARC
  5
1942
330
2
100
AcDbEntity
  8
0
100
AcDbCircle
 10
337.8222029985753
 20
558.0248341116982
 30
0.0
 40
2.0
100
AcDbArc
 50
353.6993214717072
 51
90.0
  0
CIRCLE
  5
1943
330
2
100
AcDbEntity
  8
0
100
AcDbCircle
 10
333.6653970215137
 20
554.0248341116928
 30
0.0
 40
4.0
  0
CIRCLE
  5
1944
330
2
100
AcDbEntity
  8
HOJO
100
AcDbCircle
 10
333.6653970215137
 20
554.0248341116928
 30
0.0
 40
2.5
  0
CIRCLE
  5
1945
330
2
100
AcDbEntity
  8
0
100
AcDbCircle
 10
333.6653970215137
 20
554.0248341116928
 30
0.0
 40
3.5
  0
CIRCLE
  5
1946
330
2
100
AcDbEntity
  8
0
100
AcDbCircle
 10
333.6653970215137
 20
554.0248341116928
 30
0.0
 40
2.0
  0
LINE
  5
1947
330
2
100
AcDbEntity
  8
0
100
AcDbLine
 10
330.6653970215183
 20
560.0248341116983
 30
0.0
 11
337.8222029985753
 21
560.0248341116983
 31
0.0
  0
ARC
  5
1948
330
2
100
AcDbEntity
  8
0
100
AcDbCircle
 10
215.665397021521
 20
453.5248341116965
 30
0.0
 40
10.0
100
AcDbArc
 50
184.7801918472339
 51
270.0
  0
ARC
  5
1949
330
2
100
AcDbEntity
  8
0
100
AcDbCircle
 10
219.665397021521
 20
451.5248341116965
 30
0.0
 40
8.0
100
AcDbArc
 50
270.0
 51
279.4295211216691
  0
ARC
  5
194A
330
2
100
AcDbEntity
  8
0
100
AcDbCircle
 10
237.3594973976349
 20
344.9841432378332
 30
0.0
 40
100.0
100
AcDbArc
 50
85.3322773121703
 51
99.42952112166906
  0
LINE
  5
194B
330
2
100
AcDbEntity
  8
0
100
AcDbLine
 10
219.665397021521
 20
443.5248341116965
 30
0.0
 11
215.665397021521
 21
443.5248341116965
 31
0.0
  0
LINE
  5
194C
330
2
100
AcDbEntity
  8
0
100
AcDbLine
 10
322.1653970215192
 20
453.5248341116983
 30
0.0
 11
322.1653970215192
 21
446.3680281346431
 31
0.0
  0
ARC
  5
194D
330
2
100
AcDbEntity
  8
0
100
AcDbCircle
 10
330.665397021521
 20
453.5248341116965
 30
0.0
 40
10.0
100
AcDbArc
 50
270.0
 51
0.0
  0
ARC
  5
194E
330
2
100
AcDbEntity
  8
0
100
AcDbCircle
 10
330.6653970215192
 20
453.5248341116965
 30
0.0
 40
8.5
100
AcDbArc
 50
90.0
 51
180.0
  0
CIRCLE
  5
194F
330
2
100
AcDbEntity
  8
HOJO
100
AcDbCircle
 10
333.6653970215182
 20
468.0248341117001
 30
0.0
 40
2.5
  0
CIRCLE
  5
1950
330
2
100
AcDbEntity
  8
0
100
AcDbCircle
 10
333.6653970215182
 20
468.0248341117001
 30
0.0
 40
2.0
  0
CIRCLE
  5
1951
330
2
100
AcDbEntity
  8
0
100
AcDbCircle
 10
333.6653970215182
 20
468.0248341117001
 30
0.0
 40
3.5
  0
CIRCLE
  5
1952
330
2
100
AcDbEntity
  8
0
100
AcDbCircle
 10
333.6653970215182
 20
468.0248341117001
 30
0.0
 40
4.0
  0
LINE
  5
1953
330
2
100
AcDbEntity
  8
0
100
AcDbLine
 10
330.6653970215192
 20
462.0248341116965
 30
0.0
 11
337.8222029985753
 21
462.0248341116983
 31
0.0
  0
LINE
  5
1954
330
2
100
AcDbEntity
  8
0
100
AcDbLine
 10
340.665397021521
 20
453.5248341116965
 30
0.0
 11
340.665397021521
 21
457.5248341116965
 31
0.0
  0
ARC
  5
1955
330
2
100
AcDbEntity
  8
0
100
AcDbCircle
 10
332.665397021521
 20
457.5248341116965
 30
0.0
 40
8.0
100
AcDbArc
 50
0.0
 51
9.429521121669067
  0
LINE
  5
1956
330
2
100
AcDbEntity
  8
0
100
AcDbLine
 10
330.665397021521
 20
443.5248341116965
 30
0.0
 11
326.665397021521
 21
443.5248341116965
 31
0.0
  0
ARC
  5
1957
330
2
100
AcDbEntity
  8
0
100
AcDbCircle
 10
326.665397021521
 20
451.5248341116965
 30
0.0
 40
8.0
100
AcDbArc
 50
260.5704788783309
 51
270.0
  0
ARC
  5
1958
330
2
100
AcDbEntity
  8
0
100
AcDbCircle
 10
311.165397021521
 20
473.0248341116965
 30
0.0
 40
15.0
100
AcDbArc
 50
270.0
 51
0.0
  0
ARC
  5
1959
330
2
100
AcDbEntity
  8
0
100
AcDbCircle
 10
311.165397021521
 20
473.0248341116965
 30
0.0
 40
17.0
100
AcDbArc
 50
270.0
 51
0.0
  0
ARC
  5
195A
330
2
100
AcDbEntity
  8
0
100
AcDbCircle
 10
311.165397021521
 20
549.0248341116965
 30
0.0
 40
17.0
100
AcDbArc
 50
0.0
 51
90.0
  0
ARC
  5
195B
330
2
100
AcDbEntity
  8
0
100
AcDbCircle
 10
311.165397021521
 20
549.0248341116965
 30
0.0
 40
15.0
100
AcDbArc
 50
0.0
 51
90.0
  0
ARC
  5
195C
330
2
100
AcDbEntity
  8
0
100
AcDbCircle
 10
235.165397021521
 20
473.0248341116965
 30
0.0
 40
15.0
100
AcDbArc
 50
180.0
 51
270.0
  0
ARC
  5
195D
330
2
100
AcDbEntity
  8
0
100
AcDbCircle
 10
235.165397021521
 20
473.0248341116965
 30
0.0
 40
17.0
100
AcDbArc
 50
180.0
 51
270.0
  0
CIRCLE
  5
195E
330
2
100
AcDbEntity
  8
0
100
AcDbCircle
 10
273.165397021521
 20
511.0248341116965
 30
0.0
 40
45.0
  0
CIRCLE
  5
195F
330
2
100
AcDbEntity
  8
0
100
AcDbCircle
 10
273.165397021521
 20
511.0248341116965
 30
0.0
 40
44.5
  0
CIRCLE
  5
1960
330
2
100
AcDbEntity
  8
0
100
AcDbCircle
 10
273.165397021521
 20
511.0248341116965
 30
0.0
 40
42.5
  0
ARC
  5
1961
330
2
100
AcDbEntity
  8
0
100
AcDbCircle
 10
235.165397021521
 20
549.0248341116965
 30
0.0
 40
15.0
100
AcDbArc
 50
90.0
 51
180.0
  0
ARC
  5
1962
330
2
100
AcDbEntity
  8
0
100
AcDbCircle
 10
235.165397021521
 20
549.0248341116965
 30
0.0
 40
17.0
100
AcDbArc
 50
90.0
 51
180.0
  0
LINE
  5
1963
330
2
100
AcDbEntity
  8
0
100
AcDbLine
 10
218.165397021521
 20
473.0248341116965
 30
0.0
 11
218.165397021521
 21
549.0248341116965
 31
0.0
  0
LINE
  5
1964
330
2
100
AcDbEntity
  8
0
100
AcDbLine
 10
220.165397021521
 20
473.0248341116965
 30
0.0
 11
220.165397021521
 21
549.0248341116965
 31
0.0
  0
CIRCLE
  5
1965
330
2
100
AcDbEntity
  8
0
100
AcDbCircle
 10
273.165397021521
 20
511.0248341116965
 30
0.0
 40
36.57739999999999
  0
CIRCLE
  5
1966
330
2
100
AcDbEntity
  8
0
100
AcDbCircle
 10
273.165397021521
 20
511.0248341116965
 30
0.0
 40
41.9226
  0
CIRCLE
  5
1967
330
2
100
AcDbEntity
  8
0
100
AcDbCircle
 10
273.165397021521
 20
511.0248341116965
 30
0.0
 40
36.0
  0
LINE
  5
1968
330
2
100
AcDbEntity
  8
0
100
AcDbLine
 10
235.165397021521
 20
566.0248341116965
 30
0.0
 11
311.165397021521
 21
566.0248341116965
 31
0.0
  0
LINE
  5
1969
330
2
100
AcDbEntity
  8
0
100
AcDbLine
 10
235.165397021521
 20
564.0248341116964
 30
0.0
 11
311.165397021521
 21
564.0248341116964
 31
0.0
  0
LINE
  5
196A
330
2
100
AcDbEntity
  8
0
100
AcDbLine
 10
311.165397021521
 20
456.0248341116965
 30
0.0
 11
235.165397021521
 21
456.0248341116965
 31
0.0
  0
LINE
  5
196B
330
2
100
AcDbEntity
  8
0
100
AcDbLine
 10
311.165397021521
 20
458.0248341116964
 30
0.0
 11
235.165397021521
 21
458.0248341116964
 31
0.0
  0
LINE
  5
196C
330
2
100
AcDbEntity
  8
0
100
AcDbLine
 10
328.165397021521
 20
549.0248341116965
 30
0.0
 11
328.165397021521
 21
473.0248341116965
 31
0.0
  0
LINE
  5
196D
330
2
100
AcDbEntity
  8
0
100
AcDbLine
 10
326.165397021521
 20
549.0248341116965
 30
0.0
 11
326.165397021521
 21
473.0248341116965
 31
0.0
  0
LINE
  5
196E
330
2
100
AcDbEntity
  8
0
100
AcDbLine
 10
323.1862123016925
 20
561.045649391868
 30
0.0
 11
321.7719987393191
 21
559.6314358294946
 31
0.0
  0
LINE
  5
196F
330
2
100
AcDbEntity
  8
0
100
AcDbLine
 10
323.1862123016925
 20
461.004018831525
 30
0.0
 11
321.7719987393191
 21
462.4182323938983
 31
0.0
  0
LINE
  5
1970
330
2
100
AcDbEntity
  8
0
100
AcDbLine
 10
223.1445817413495
 20
561.045649391868
 30
0.0
 11
224.5587953037228
 21
559.6314358294946
 31
0.0
  0
LINE
  5
1971
330
2
100
AcDbEntity
  8
0
100
AcDbLine
 10
223.1445817413495
 20
461.004018831525
 30
0.0
 11
224.5587953037228
 21
462.4182323938983
 31
0.0
  0
LINE
  5
1972
330
2
100
AcDbEntity
  8
CENTER
100
AcDbLine
 10
330.6653970215228
 20
579.2748341116928
 30
0.0
 11
330.665397021521
 21
557.7748341116946
 31
0.0
  0
LINE
  5
1973
330
2
100
AcDbEntity
  8
CENTER
100
AcDbLine
 10
341.4153970215173
 20
453.5248341116947
 30
0.0
 11
319.9153970215182
 21
453.5248341116965
 31
0.0
  0
LINE
  5
1974
330
2
100
AcDbEntity
  8
CENTER
100
AcDbLine
 10
330.6653970215228
 20
442.7748341117001
 30
0.0
 11
330.665397021521
 21
464.2748341117001
 31
0.0
  0
LINE
  5
1975
330
2
100
AcDbEntity
  8
CENTER
100
AcDbLine
 10
333.6653970215128
 20
560.4148432803101
 30
0.0
 11
333.6653970215128
 21
547.6348249430773
 31
0.0
  0
LINE
  5
1976
330
2
100
AcDbEntity
  8
CENTER
100
AcDbLine
 10
327.2753878528964
 20
554.0248341116928
 30
0.0
 11
340.0554061901292
 21
554.0248341116928
 31
0.0
  0
LINE
  5
1977
330
2
100
AcDbEntity
  8
CENTER
100
AcDbLine
 10
333.6653970215128
 20
461.6348249430846
 30
0.0
 11
333.6653970215128
 21
474.4148432803174
 31
0.0
  0
LINE
  5
1978
330
2
100
AcDbEntity
  8
CENTER
100
AcDbLine
 10
327.2753878528964
 20
468.0248341117001
 30
0.0
 11
340.0554061901292
 21
468.0248341117001
 31
0.0
  0
CIRCLE
  5
1979
330
2
100
AcDbEntity
  8
0
100
AcDbCircle
 10
330.665397021521
 20
568.5248341116983
 30
0.0
 40
5.63397459621558
  0
CIRCLE
  5
197A
330
2
100
AcDbEntity
  8
0
100
AcDbCircle
 10
330.665397021521
 20
568.5248341116983
 30
0.0
 40
6.5
  0
LINE
  5
197B
330
2
100
AcDbEntity
  8
0
100
AcDbLine
 10
333.665397021521
 20
566.7927833041282
 30
0.0
 11
333.665397021521
 21
570.2568849192664
 31
0.0
  0
LINE
  5
197C
330
2
100
AcDbEntity
  8
0
100
AcDbLine
 10
327.665397021521
 20
570.2568849192664
 30
0.0
 11
327.665397021521
 21
566.7927833041282
 31
0.0
  0
LINE
  5
197D
330
2
100
AcDbEntity
  8
0
100
AcDbLine
 10
330.665397021521
 20
565.0607324965601
 30
0.0
 11
333.665397021521
 21
566.7927833041282
 31
0.0
  0
LINE
  5
197E
330
2
100
AcDbEntity
  8
0
100
AcDbLine
 10
327.665397021521
 20
566.7927833041282
 30
0.0
 11
330.665397021521
 21
565.0607324965601
 31
0.0
  0
LINE
  5
197F
330
2
100
AcDbEntity
  8
0
100
AcDbLine
 10
327.665397021521
 20
570.2568849192664
 30
0.0
 11
330.665397021521
 21
571.9889357268364
 31
0.0
  0
LINE
  5
1980
330
2
100
AcDbEntity
  8
0
100
AcDbLine
 10
330.665397021521
 20
571.9889357268345
 30
0.0
 11
333.665397021521
 21
570.2568849192664
 31
0.0
  0
CIRCLE
  5
1981
330
2
100
AcDbEntity
  8
0
100
AcDbCircle
 10
330.665397021521
 20
453.5248341116965
 30
0.0
 40
5.63397459621558
  0
CIRCLE
  5
1982
330
2
100
AcDbEntity
  8
0
100
AcDbCircle
 10
330.665397021521
 20
453.5248341116965
 30
0.0
 40
6.5
  0
LINE
  5
1983
330
2
100
AcDbEntity
  8
0
100
AcDbLine
 10
333.665397021521
 20
451.7927833041283
 30
0.0
 11
333.665397021521
 21
455.2568849192646
 31
0.0
  0
LINE
  5
1984
330
2
100
AcDbEntity
  8
0
100
AcDbLine
 10
327.665397021521
 20
455.2568849192646
 30
0.0
 11
327.665397021521
 21
451.7927833041265
 31
0.0
  0
LINE
  5
1985
330
2
100
AcDbEntity
  8
0
100
AcDbLine
 10
330.665397021521
 20
450.0607324965583
 30
0.0
 11
333.665397021521
 21
451.7927833041283
 31
0.0
  0
LINE
  5
1986
330
2
100
AcDbEntity
  8
0
100
AcDbLine
 10
327.665397021521
 20
451.7927833041265
 30
0.0
 11
330.665397021521
 21
450.0607324965583
 31
0.0
  0
LINE
  5
1987
330
2
100
AcDbEntity
  8
0
100
AcDbLine
 10
327.665397021521
 20
455.2568849192646
 30
0.0
 11
330.665397021521
 21
456.9889357268346
 31
0.0
  0
LINE
  5
1988
330
2
100
AcDbEntity
  8
0
100
AcDbLine
 10
330.665397021521
 20
456.9889357268346
 30
0.0
 11
333.665397021521
 21
455.2568849192646
 31
0.0
  0
ARC
  5
1989
330
2
100
AcDbEntity
  8
0
100
AcDbCircle
 10
273.165397021521
 20
511.0248341116965
 30
0.0
 40
16.0
100
AcDbArc
 50
108.2099568642858
 51
71.79004313571411
  0
LINE
  5
198A
330
2
100
AcDbEntity
  8
0
100
AcDbLine
 10
268.165397021521
 20
530.3248371116967
 30
0.0
 11
268.165397021521
 21
526.2235182652672
 31
0.0
  0
LINE
  5
198B
330
2
100
AcDbEntity
  8
0
100
AcDbLine
 10
278.165397021521
 20
530.3248371116967
 30
0.0
 11
278.165397021521
 21
526.2235182652672
 31
0.0
  0
LINE
  5
198C
330
2
100
AcDbEntity
  8
0
100
AcDbLine
 10
268.165397021521
 20
530.3248371116967
 30
0.0
 11
278.165397021521
 21
530.3248371116967
 31
0.0
  0
CIRCLE
  5
198D
330
2
100
AcDbEntity
  8
0
100
AcDbCircle
 10
273.165397021521
 20
511.0248341116965
 30
0.0
 40
24.49999999582681
  0
ARC
  5
198E
330
2
100
AcDbEntity
  8
0
100
AcDbCircle
 10
273.165397021521
 20
511.0248341116965
 30
0.0
 40
17.15469399582682
100
AcDbArc
 50
106.9457086470001
 51
73.05429135299984
  0
ARC
  5
198F
330
2
100
AcDbEntity
  8
0
100
AcDbCircle
 10
273.165397021521
 20
238.5248341116956
 30
0.0
 40
340.0
100
AcDbArc
 50
85.3322773121703
 51
94.66772268782973
  0
ARC
  5
1990
330
2
100
AcDbEntity
  8
0
100
AcDbCircle
 10
308.9712966453997
 20
677.0655249855579
 30
0.0
 40
100.0
100
AcDbArc
 50
265.3322773121702
 51
279.4295211216691
  0
ARC
  5
1991
330
2
100
AcDbEntity
  8
0
100
AcDbCircle
 10
320.1653970215183
 20
575.681640088749
 30
0.0
 40
2.0
100
AcDbArc
 50
0.0
 51
96.30067852829238
  0
ARC
  5
1992
330
2
100
AcDbEntity
  8
0
100
AcDbCircle
 10
273.165397021521
 20
783.5248341116956
 30
0.0
 40
340.0
100
AcDbArc
 50
265.3322773121702
 51
274.6677226878297
  0
ARC
  5
1993
330
2
100
AcDbEntity
  8
0
100
AcDbCircle
 10
308.971296645407
 20
344.9841432378332
 30
0.0
 40
100.0
100
AcDbArc
 50
80.57047887833093
 51
94.66772268782973
  0
ARC
  5
1994
330
2
100
AcDbEntity
  8
0
100
AcDbCircle
 10
320.1653970215183
 20
446.3680281346431
 30
0.0
 40
2.0
100
AcDbArc
 50
263.6993214717072
 51
0.0
  0
ARC
  5
1995
330
2
100
AcDbEntity
  8
0
100
AcDbCircle
 10
0.6653970215219261
 20
511.0248341116965
 30
0.0
 40
340.0
100
AcDbArc
 50
355.3322773121702
 51
4.66772268782971
  0
ARC
  5
1996
330
2
100
AcDbEntity
  8
0
100
AcDbCircle
 10
439.2060878953842
 20
475.2189344878105
 30
0.0
 40
100.0
100
AcDbArc
 50
175.3322773121702
 51
189.429521121669
  0
ARC
  5
1997
330
2
100
AcDbEntity
  8
0
100
AcDbCircle
 10
337.8222029985744
 20
464.0248341116983
 30
0.0
 40
2.0
100
AcDbArc
 50
270.0
 51
6.300678528292741
  0
LINE
  5
1A1D
330
2
100
AcDbEntity
  8
0
100
AcDbLine
 10
741.9649197099257
 20
882.1017220872329
 30
0.0
 11
742.7416109434105
 21
793.1017220872197
 31
0.0
  0
CIRCLE
  5
1A44
330
2
100
AcDbEntity
  8
0
100
AcDbCircle
 10
809.4605562761397
 20
511.0248341116965
 30
0.0
 40
36.57739999999999
  0
ENDSEC
  0
SECTION
  2
OBJECTS
  0
DICTIONARY
  5
7
330
0
100
AcDbDictionary
  3
ACAD_COLOR
350
18A0
  3
ACAD_GROUP
350
75
  3
ACAD_LAYOUT
350
61
  3
ACAD_MATERIAL
350
1876
  3
ACAD_MLEADERSTYLE
350
18C5
  3
ACAD_MLINESTYLE
350
76
  3
ACAD_PLOTSETTINGS
350
77
  3
ACAD_PLOTSTYLENAME
350
6
  3
ACAD_SCALELIST
350
18A3
  3
ACAD_TABLESTYLE
350
18A1
  3
ACAD_VISUALSTYLE
350
188F
  3
ACADDIM
350
480
  3
ACDB_RECOMPOSE_DATA
350
19AC
  3
ACDBHEADERROUNDTRIPXREC
350
1A5E
  3
ACDBVARIABLEDICTIONARY
350
102
  3
DWGPROPS
350
1A1F
  0
DICTIONARY
  5
19B5
330
6E
100
AcDbDictionary
280
     1
  3
ACAD_XREC_ROUNDTRIP
360
1A27
  0
DICTIONARY
  5
B19
330
66
100
AcDbDictionary
280
     1
  3
ACAD_LAYERSTATES
360
B1A
  0
DICTIONARY
  5
1998
330
5E
100
AcDbDictionary
280
     1
  3
ACAD_XREC_ROUNDTRIP
360
1A22
  3
ADSK_XREC_LAYER_RECONCILED
360
1999
  0
DICTIONARY
  5
199A
330
3E
100
AcDbDictionary
280
     1
  3
ACAD_XREC_ROUNDTRIP
360
1A21
  3
ADSK_XREC_LAYER_RECONCILED
360
199B
  0
DICTIONARY
  5
19A0
330
2B5
100
AcDbDictionary
280
     1
  3
ACAD_XREC_ROUNDTRIP
360
1A2D
  3
ADSK_XREC_LAYER_RECONCILED
360
19A1
  0
DICTIONARY
  5
19A2
330
2BA
100
AcDbDictionary
280
     1
  3
ACAD_XREC_ROUNDTRIP
360
1A2E
  3
ADSK_XREC_LAYER_RECONCILED
360
19A3
  0
DICTIONARY
  5
19A6
330
3FA
100
AcDbDictionary
280
     1
  3
ACAD_XREC_ROUNDTRIP
360
1A30
  3
ADSK_XREC_LAYER_RECONCILED
360
19A7
  0
DICTIONARY
  5
19A8
330
478
100
AcDbDictionary
280
     1
  3
ACAD_XREC_ROUNDTRIP
360
1A31
  3
ADSK_XREC_LAYER_RECONCILED
360
19A9
  0
DICTIONARY
  5
1A7F
330
2
100
AcDbDictionary
280
     1
  3
ACAD_LAYOUTSELFREF
360
1A80
  0
DICTIONARY
  5
1A81
330
1A58
100
AcDbDictionary
280
     1
  3
ACAD_LAYOUTSELFREF
360
1A82
  0
DICTIONARY
  5
18A0
102
{ACAD_REACTORS
330
7
102
}
330
7
100
AcDbDictionary
  0
DICTIONARY
  5
75
102
{ACAD_REACTORS
330
7
102
}
330
7
100
AcDbDictionary
  0
DICTIONARY
  5
61
102
{ACAD_REACTORS
330
7
102
}
330
7
100
AcDbDictionary
  0
DICTIONARY
  5
1876
102
{ACAD_REACTORS
330
7
102
}
330
7
100
AcDbDictionary
  3
BYBLOCK
350
187F
  3
BYLAYER
350
1877
  3
GLOBAL
350
1887
  0
DICTIONARY
  5
18C5
102
{ACAD_REACTORS
330
7
102
}
330
7
100
AcDbDictionary
  3
STANDARD
350
18C6
  0
DICTIONARY
  5
76
102
{ACAD_REACTORS
330
7
102
}
330
7
100
AcDbDictionary
  3
STANDARD
350
78
  0
DICTIONARY
  5
77
102
{ACAD_REACTORS
330
7
102
}
330
7
100
AcDbDictionary
  0
ACDBDICTIONARYWDFLT
  5
6
102
{ACAD_REACTORS
330
7
102
}
330
7
100
AcDbDictionary
281
     1
  3
Normal
350
5
100
AcDbDictionaryWithDefault
340
5
  0
DICTIONARY
  5
18A3
102
{ACAD_REACTORS
330
7
102
}
330
7
100
AcDbDictionary
  3
A0
350
18A4
  3
A1
350
18A5
  3
A2
350
18A6
  3
A3
350
18A7
  3
A4
350
18A8
  3
A5
350
18A9
  3
A6
350
18AA
  3
A7
350
18AB
  3
A8
350
18AC
  3
A9
350
18AD
  3
B0
350
18AE
  3
B1
350
18AF
  3
B2
350
18B0
  3
B3
350
18B1
  3
B4
350
18B2
  3
B5
350
18B3
  3
B6
350
18B4
  3
B7
350
18B5
  3
B8
350
18B6
  3
B9
350
18B7
  3
C0
350
18B8
  3
C1
350
18B9
  3
C2
350
18BA
  3
C3
350
18BB
  3
C4
350
18BC
  3
C5
350
18BD
  3
C6
350
18BE
  3
C7
350
18BF
  3
C8
350
18C0
  3
C9
350
18C1
  3
D0
350
18C2
  3
D1
350
18C3
  3
D2
350
18C4
  0
DICTIONARY
  5
18A1
102
{ACAD_REACTORS
330
7
102
}
330
7
100
AcDbDictionary
  3
STANDARD
350
18A2
  0
DICTIONARY
  5
188F
102
{ACAD_REACTORS
330
7
102
}
330
7
100
AcDbDictionary
  3
2DWIREFRAME
350
1895
  3
3D_HIDDEN
350
1897
  3
3DWIREFRAME
350
1896
  3
BASIC
350
1894
  3
BRIGHTEN
350
189B
  3
COLORCHANGE
350
189F
  3
CONCEPTUAL
350
1898
  3
DIM
350
189A
  3
FACEPATTERN
350
189E
  3
FLAT
350
1890
  3
FLATWITHEDGES
350
1891
  3
GOURAUD
350
1892
  3
GOURAUDWITHEDGES
350
1893
  3
LINEPATTERN
350
189D
  3
REALISTIC
350
1899
  3
THICKEN
350
189C
  0
XRECORD
  5
480
102
{ACAD_REACTORS
330
7
102
}
330
7
100
AcDbXrecord
 90
   990106
  3

 60
     0
 61
     0
 62
     1
 63
     3
 64
     1
 65
     0
 66
     0
 67
     3
 68
     1
 69
     0
 70
     0
 71
     0
 72
     0
 40
0.0
170
     2
340
0
  0
XRECORD
  5
19AC
102
{ACAD_REACTORS
330
7
102
}
330
7
100
AcDbXrecord
 90
        1
330
18A2
  0
DICTIONARY
  5
1A5E
102
{ACAD_REACTORS
330
7
102
}
330
7
100
AcDbDictionary
  3
CEPSNTYPE
350
1A68
  3
DIMSTYLEDATA
350
1A6C
  3
FINGERPRINTGUID
350
1A69
  3
HYPERLINKBASE
350
1A61
  3
INSUNITS
350
1A67
  3
LAYOUTDICT
350
1A63
  3
LWETCUNION
350
1A66
  3
PLOTSETDICT
350
1A64
  3
PLOTSTYLNAMDICT
350
1A65
  3
PSVPSCALE
350
1A6B
  3
PUCSBASE
350
1A6F
  3
PUCSORGBACK
350
1A75
  3
PUCSORGBOTTOM
350
1A71
  3
PUCSORGFRONT
350
1A74
  3
PUCSORGLEFT
350
1A72
  3
PUCSORGRIGHT
350
1A73
  3
PUCSORGTOP
350
1A70
  3
PUCSORTHOREF
350
1A6D
  3
PUCSORTHOVIEW
350
1A6E
  3
STYLESHEET
350
1A62
  3
TSTACKALIGN
350
1A5F
  3
TSTACKSIZE
350
1A60
  3
UCSBASE
350
1A78
  3
UCSORGBACK
350
1A7E
  3
UCSORGBOTTOM
350
1A7A
  3
UCSORGFRONT
350
1A7D
  3
UCSORGLEFT
350
1A7B
  3
UCSORGRIGHT
350
1A7C
  3
UCSORGTOP
350
1A79
  3
UCSORTHOREF
350
1A76
  3
UCSORTHOVIEW
350
1A77
  3
VERSIONGUID
350
1A6A
  0
DICTIONARY
  5
102
102
{ACAD_REACTORS
330
7
102
}
330
7
100
AcDbDictionary
  3
CANNOSCALE
350
19CD
  3
CMLEADERSTYLE
350
19CC
  3
CTABLESTYLE
350
19CB
  3
DIMASSOC
350
103
  3
INDEXCTL
350
19CE
  3
SORTENTS
350
549
  0
XRECORD
  5
1A1F
102
{ACAD_REACTORS
330
7
102
}
330
7
100
AcDbXrecord
  1
DWGPROPS COOKIE
  2

  3

  4

  6

  7

  8
ymorima
  9

300
=
301
=
302
=
303
=
304
=
305
=
306
=
307
=
308
=
309
=
 40
0.0075215277777778
 41
2454413.473154467
 42
2454421.490129479
  1

 90
        0
  0
XRECORD
  5
1A27
102
{ACAD_REACTORS
330
19B5
102
}
330
19B5
100
AcDbXrecord
102
VTR_0.000_0.000_1.000_1.000_VISUALSTYLE
340
1895
102
VTR_0.000_0.000_1.000_1.000_GRIDDISPLAY
 70
     3
102
VTR_0.000_0.000_1.000_1.000_GRIDMAJOR
 70
     5
102
VTR_0.000_0.000_1.000_1.000_DEFAULTLIGHTING
280
     1
102
VTR_0.000_0.000_1.000_1.000_DEFAULTLIGHTINGTYPE
 70
     1
102
VTR_0.000_0.000_1.000_1.000_BRIGHTNESS
141
0.0
102
VTR_0.000_0.000_1.000_1.000_CONTRAST
142
0.0
  0
DICTIONARY
  5
B1A
102
{ACAD_REACTORS
330
B19
102
}
330
B19
100
AcDbDictionary
  0
XRECORD
  5
1A22
102
{ACAD_REACTORS
330
1998
102
}
330
1998
100
AcDbXrecord
102
MATERIAL
340
1887
  0
XRECORD
  5
1999
102
{ACAD_REACTORS
330
1998
102
}
330
1998
100
AcDbXrecord
290
     1
  0
XRECORD
  5
1A21
102
{ACAD_REACTORS
330
199A
102
}
330
199A
100
AcDbXrecord
102
MATERIAL
340
1887
  0
XRECORD
  5
199B
102
{ACAD_REACTORS
330
199A
102
}
330
199A
100
AcDbXrecord
290
     1
  0
XRECORD
  5
1A2D
102
{ACAD_REACTORS
330
19A0
102
}
330
19A0
100
AcDbXrecord
102
MATERIAL
340
1887
  0
XRECORD
  5
19A1
102
{ACAD_REACTORS
330
19A0
102
}
330
19A0
100
AcDbXrecord
290
     1
  0
XRECORD
  5
1A2E
102
{ACAD_REACTORS
330
19A2
102
}
330
19A2
100
AcDbXrecord
102
MATERIAL
340
1887
  0
XRECORD
  5
19A3
102
{ACAD_REACTORS
330
19A2
102
}
330
19A2
100
AcDbXrecord
290
     1
  0
XRECORD
  5
1A30
102
{ACAD_REACTORS
330
19A6
102
}
330
19A6
100
AcDbXrecord
102
MATERIAL
340
1887
  0
XRECORD
  5
19A7
102
{ACAD_REACTORS
330
19A6
102
}
330
19A6
100
AcDbXrecord
290
     1
  0
XRECORD
  5
1A31
102
{ACAD_REACTORS
330
19A8
102
}
330
19A8
100
AcDbXrecord
102
MATERIAL
340
1887
  0
XRECORD
  5
19A9
102
{ACAD_REACTORS
330
19A8
102
}
330
19A8
100
AcDbXrecord
290
     1
  0
XRECORD
  5
1A80
102
{ACAD_REACTORS
330
1A7F
102
}
330
1A7F
100
AcDbXrecord
340
2
  0
XRECORD
  5
1A82
102
{ACAD_REACTORS
330
1A81
102
}
330
1A81
100
AcDbXrecord
340
1A58
  0
ACAD_PROXY_OBJECT
  5
187F
102
{ACAD_XDICTIONARY
360
1880
102
}
102
{ACAD_REACTORS
330
1876
102
}
330
1876
100
AcDbProxyObject
 90
      499
 91
      511
 93
     1340
310
42109E509B1BD8DAC02004014080404555555555555953FAA155555555555654FEA9AA400014080404555555555555953FAA155555555555654FEA9AA400000000000000E03F4080404555555555555953FAA155555555555654FEA9AA4014080404555555555555953FAA155555555555654FEA9AA4010201011555555555
310
55654FEA8555555555555953FAA6A9005020101155555555555654FEA8555555555555953FAA6A9000
 94
        0
1001
ACAD
1000
AcadProxyRoundTripData
1071
      504
1071
   655383
1070
     0
  0
ACAD_PROXY_OBJECT
  5
1877
102
{ACAD_XDICTIONARY
360
1878
102
}
102
{ACAD_REACTORS
330
1876
102
}
330
1876
100
AcDbProxyObject
 90
      499
 91
      511
 93
     1340
310
42109E53185E595C802004014080404555555555555953FAA155555555555654FEA9AA400014080404555555555555953FAA155555555555654FEA9AA400000000000000E03F4080404555555555555953FAA155555555555654FEA9AA4014080404555555555555953FAA155555555555654FEA9AA4010201011555555555
310
55654FEA8555555555555953FAA6A9005020101155555555555654FEA8555555555555953FAA6A9000
 94
        0
1001
ACAD
1000
AcadProxyRoundTripData
1071
      504
1071
   655383
1070
     0
  0
ACAD_PROXY_OBJECT
  5
1887
102
{ACAD_XDICTIONARY
360
1888
102
}
102
{ACAD_REACTORS
330
1876
102
}
330
1876
100
AcDbProxyObject
 90
      499
 91
      511
 93
     1332
310
41D1DB1BD8985B002004014080404555555555555953FAA155555555555654FEA9AA400014080404555555555555953FAA155555555555654FEA9AA400000000000000E03F4080404555555555555953FAA155555555555654FEA9AA4014080404555555555555953FAA155555555555654FEA9AA401020101155555555555
310
654FEA8555555555555953FAA6A9005020101155555555555654FEA8555555555555953FAA6A9000
 94
        0
1001
ACAD
1000
AcadProxyRoundTripData
1071
      504
1071
   655383
1070
     0
  0
ACAD_PROXY_OBJECT
  5
18C6
102
{ACAD_REACTORS
330
18C5
102
}
330
18C5
100
AcDbProxyObject
 90
      499
 91
      511
 93
      618
310
40901902A4063FBFFFFFE056BD1B81E855B9FC0AD7A3703D0AD73F4254DD185B99185C990000AD7A3703D0AC73F90141901A02B5E8DC0F42B1CFC02B5E8DC0F42B1CFE5764000000000000300FC6
340
6A
340
0
340
16
340
0
 94
        0
1001
ACAD_MLEADERVER
1070
     2
1001
ACAD
1000
AcadProxyRoundTripData
1071
      508
1071
   655383
1070
     0
  0
MLINESTYLE
  5
78
102
{ACAD_REACTORS
330
76
102
}
330
76
100
AcDbMlineStyle
  2
STANDARD
 70
     0
  3

 62
     0
 51
90.0
 52
90.0
 71
     2
 49
0.5
 62
   256
  6
BYLAYER
 49
-0.5
 62
   256
  6
BYLAYER
  0
ACDBPLACEHOLDER
  5
5
102
{ACAD_REACTORS
330
6
102
}
330
6
100
AcDbPlaceHolder
280
     0
  0
ACAD_PROXY_OBJECT
  5
18A4
102
{ACAD_REACTORS
330
18A3
102
}
330
18A3
100
AcDbProxyObject
 90
      499
 91
      511
 93
       49
310
904313A3100598
 94
        0
1001
ACAD
1000
AcadProxyRoundTripData
1071
      507
1071
   655383
1070
     0
  0
ACAD_PROXY_OBJECT
  5
18A5
102
{ACAD_REACTORS
330
18A3
102
}
330
18A3
100
AcDbProxyObject
 90
      499
 91
      511
 93
      113
310
904313A3200400000000000000406B
 94
        0
1001
ACAD
1000
AcadProxyRoundTripData
1071
      507
1071
   655383
1070
     0
  0
ACAD_PROXY_OBJECT
  5
18A6
102
{ACAD_REACTORS
330
18A3
102
}
330
18A3
100
AcDbProxyObject
 90
      499
 91
      511
 93
      113
310
904313A3400400000000000010406B
 94
        0
1001
ACAD
1000
AcadProxyRoundTripData
1071
      507
1071
   655383
1070
     0
  0
ACAD_PROXY_OBJECT
  5
18A7
102
{ACAD_REACTORS
330
18A3
102
}
330
18A3
100
AcDbProxyObject
 90
      499
 91
      511
 93
      113
310
904313A3500400000000000014406B
 94
        0
1001
ACAD
1000
AcadProxyRoundTripData
1071
      507
1071
   655383
1070
     0
  0
ACAD_PROXY_OBJECT
  5
18A8
102
{ACAD_REACTORS
330
18A3
102
}
330
18A3
100
AcDbProxyObject
 90
      499
 91
      511
 93
      113
310
904313A3800400000000000020406B
 94
        0
1001
ACAD
1000
AcadProxyRoundTripData
1071
      507
1071
   655383
1070
     0
  0
ACAD_PROXY_OBJECT
  5
18A9
102
{ACAD_REACTORS
330
18A3
102
}
330
18A3
100
AcDbProxyObject
 90
      499
 91
      511
 93
      121
310
905313A3130004000000000000244051
 94
        0
1001
ACAD
1000
AcadProxyRoundTripData
1071
      507
1071
   655383
1070
     0
  0
ACAD_PROXY_OBJECT
  5
18AA
102
{ACAD_REACTORS
330
18A3
102
}
330
18A3
100
AcDbProxyObject
 90
      499
 91
      511
 93
      121
310
905313A3136004000000000000304051
 94
        0
1001
ACAD
1000
AcadProxyRoundTripData
1071
      507
1071
   655383
1070
     0
  0
ACAD_PROXY_OBJECT
  5
18AB
102
{ACAD_REACTORS
330
18A3
102
}
330
18A3
100
AcDbProxyObject
 90
      499
 91
      511
 93
      121
310
905313A3230004000000000000344051
 94
        0
1001
ACAD
1000
AcadProxyRoundTripData
1071
      507
1071
   655383
1070
     0
  0
ACAD_PROXY_OBJECT
  5
18AC
102
{ACAD_REACTORS
330
18A3
102
}
330
18A3
100
AcDbProxyObject
 90
      499
 91
      511
 93
      121
310
905313A33300040000000000003E4051
 94
        0
1001
ACAD
1000
AcadProxyRoundTripData
1071
      507
1071
   655383
1070
     0
  0
ACAD_PROXY_OBJECT
  5
18AD
102
{ACAD_REACTORS
330
18A3
102
}
330
18A3
100
AcDbProxyObject
 90
      499
 91
      511
 93
      121
310
905313A3430004000000000000444051
 94
        0
1001
ACAD
1000
AcadProxyRoundTripData
1071
      507
1071
   655383
1070
     0
  0
ACAD_PROXY_OBJECT
  5
18AE
102
{ACAD_REACTORS
330
18A3
102
}
330
18A3
100
AcDbProxyObject
 90
      499
 91
      511
 93
      121
310
905313A3530004000000000000494051
 94
        0
1001
ACAD
1000
AcadProxyRoundTripData
1071
      507
1071
   655383
1070
     0
  0
ACAD_PROXY_OBJECT
  5
18AF
102
{ACAD_REACTORS
330
18A3
102
}
330
18A3
100
AcDbProxyObject
 90
      499
 91
      511
 93
      129
310
906313A313030004000000000000594038
 94
        0
1001
ACAD
1000
AcadProxyRoundTripData
1071
      507
1071
   655383
1070
     0
  0
ACAD_PROXY_OBJECT
  5
18B0
102
{ACAD_REACTORS
330
18A3
102
}
330
18A3
100
AcDbProxyObject
 90
      499
 91
      511
 93
      113
310
904323A31000000000000000010159
 94
        0
1001
ACAD
1000
AcadProxyRoundTripData
1071
      507
1071
   655383
1070
     0
  0
ACAD_PROXY_OBJECT
  5
18B1
102
{ACAD_REACTORS
330
18A3
102
}
330
18A3
100
AcDbProxyObject
 90
      499
 91
      511
 93
      113
310
904343A31000000000000000410159
 94
        0
1001
ACAD
1000
AcadProxyRoundTripData
1071
      507
1071
   655383
1070
     0
  0
ACAD_PROXY_OBJECT
  5
18B2
102
{ACAD_REACTORS
330
18A3
102
}
330
18A3
100
AcDbProxyObject
 90
      499
 91
      511
 93
      113
310
904383A31000000000000000810159
 94
        0
1001
ACAD
1000
AcadProxyRoundTripData
1071
      507
1071
   655383
1070
     0
  0
ACAD_PROXY_OBJECT
  5
18B3
102
{ACAD_REACTORS
330
18A3
102
}
330
18A3
100
AcDbProxyObject
 90
      499
 91
      511
 93
      121
310
90531303A31000000000000000910140
 94
        0
1001
ACAD
1000
AcadProxyRoundTripData
1071
      507
1071
   655383
1070
     0
  0
ACAD_PROXY_OBJECT
  5
18B4
102
{ACAD_REACTORS
330
18A3
102
}
330
18A3
100
AcDbProxyObject
 90
      499
 91
      511
 93
      129
310
9063130303A31000000000000001650138
 94
        0
1001
ACAD
1000
AcadProxyRoundTripData
1071
      507
1071
   655383
1070
     0
  0
ACAD_PROXY_OBJECT
  5
18B5
102
{ACAD_REACTORS
330
18A3
102
}
330
18A3
100
AcDbProxyObject
 90
      499
 91
      511
 93
      265
310
90F312F31323822203D2031272D302200000000000000200FC00000000000028402B
 94
        0
1001
ACAD
1000
AcadProxyRoundTripData
1071
      507
1071
   655383
1070
     0
  0
ACAD_PROXY_OBJECT
  5
18B6
102
{ACAD_REACTORS
330
18A3
102
}
330
18A3
100
AcDbProxyObject
 90
      499
 91
      511
 93
      257
310
90E312F363422203D2031272D302200000000000000240FC000000000000284040
 94
        0
1001
ACAD
1000
AcadProxyRoundTripData
1071
      507
1071
   655383
1070
     0
  0
ACAD_PROXY_OBJECT
  5
18B7
102
{ACAD_REACTORS
330
18A3
102
}
330
18A3
100
AcDbProxyObject
 90
      499
 91
      511
 93
      257
310
90E312F333222203D2031272D302200000000000000280FC000000000000284040
 94
        0
1001
ACAD
1000
AcadProxyRoundTripData
1071
      507
1071
   655383
1070
     0
  0
ACAD_PROXY_OBJECT
  5
18B8
102
{ACAD_REACTORS
330
18A3
102
}
330
18A3
100
AcDbProxyObject
 90
      499
 91
      511
 93
      257
310
90E312F313622203D2031272D3022000000000000002C0FC000000000000284040
 94
        0
1001
ACAD
1000
AcadProxyRoundTripData
1071
      507
1071
   655383
1070
     0
  0
ACAD_PROXY_OBJECT
  5
18B9
102
{ACAD_REACTORS
330
18A3
102
}
330
18A3
100
AcDbProxyObject
 90
      499
 91
      511
 93
      257
310
90E332F333222203D2031272D3022000000000000002E0FC000000000000284040
 94
        0
1001
ACAD
1000
AcadProxyRoundTripData
1071
      507
1071
   655383
1070
     0
  0
ACAD_PROXY_OBJECT
  5
18BA
102
{ACAD_REACTORS
330
18A3
102
}
330
18A3
100
AcDbProxyObject
 90
      499
 91
      511
 93
      249
310
90D312F3822203D2031272D302200000000000000300FC000000000000284040
 94
        0
1001
ACAD
1000
AcadProxyRoundTripData
1071
      507
1071
   655383
1070
     0
  0
ACAD_PROXY_OBJECT
  5
18BB
102
{ACAD_REACTORS
330
18A3
102
}
330
18A3
100
AcDbProxyObject
 90
      499
 91
      511
 93
      257
310
90E332F313622203D2031272D302200000000000000320FC000000000000284040
 94
        0
1001
ACAD
1000
AcadProxyRoundTripData
1071
      507
1071
   655383
1070
     0
  0
ACAD_PROXY_OBJECT
  5
18BC
102
{ACAD_REACTORS
330
18A3
102
}
330
18A3
100
AcDbProxyObject
 90
      499
 91
      511
 93
      249
310
90D312F3422203D2031272D302200000000000000340FC000000000000284040
 94
        0
1001
ACAD
1000
AcadProxyRoundTripData
1071
      507
1071
   655383
1070
     0
  0
ACAD_PROXY_OBJECT
  5
18BD
102
{ACAD_REACTORS
330
18A3
102
}
330
18A3
100
AcDbProxyObject
 90
      499
 91
      511
 93
      249
310
90D332F3822203D2031272D302200000000000000360FC000000000000284040
 94
        0
1001
ACAD
1000
AcadProxyRoundTripData
1071
      507
1071
   655383
1070
     0
  0
ACAD_PROXY_OBJECT
  5
18BE
102
{ACAD_REACTORS
330
18A3
102
}
330
18A3
100
AcDbProxyObject
 90
      499
 91
      511
 93
      249
310
90D312F3222203D2031272D302200000000000000380FC000000000000284040
 94
        0
1001
ACAD
1000
AcadProxyRoundTripData
1071
      507
1071
   655383
1070
     0
  0
ACAD_PROXY_OBJECT
  5
18BF
102
{ACAD_REACTORS
330
18A3
102
}
330
18A3
100
AcDbProxyObject
 90
      499
 91
      511
 93
      249
310
90D332F3422203D2031272D3022000000000000003A0FC000000000000284040
 94
        0
1001
ACAD
1000
AcadProxyRoundTripData
1071
      507
1071
   655383
1070
     0
  0
ACAD_PROXY_OBJECT
  5
18C0
102
{ACAD_REACTORS
330
18A3
102
}
330
18A3
100
AcDbProxyObject
 90
      499
 91
      511
 93
      169
310
90B3122203D2031272D3022004000000000000284020
 94
        0
1001
ACAD
1000
AcadProxyRoundTripData
1071
      507
1071
   655383
1070
     0
  0
ACAD_PROXY_OBJECT
  5
18C1
102
{ACAD_REACTORS
330
18A3
102
}
330
18A3
100
AcDbProxyObject
 90
      499
 91
      511
 93
      265
310
90F312D312F3222203D2031272D3022000000000000003E0FC00000000000028402B
 94
        0
1001
ACAD
1000
AcadProxyRoundTripData
1071
      507
1071
   655383
1070
     0
  0
ACAD_PROXY_OBJECT
  5
18C2
102
{ACAD_REACTORS
330
18A3
102
}
330
18A3
100
AcDbProxyObject
 90
      499
 91
      511
 93
      233
310
90B3322203D2031272D30220000000000000002100000000000000284000
 94
        0
1001
ACAD
1000
AcadProxyRoundTripData
1071
      507
1071
   655383
1070
     0
  0
ACAD_PROXY_OBJECT
  5
18C3
102
{ACAD_REACTORS
330
18A3
102
}
330
18A3
100
AcDbProxyObject
 90
      499
 91
      511
 93
      233
310
90B3622203D2031272D30220000000000000006100000000000000284000
 94
        0
1001
ACAD
1000
AcadProxyRoundTripData
1071
      507
1071
   655383
1070
     0
  0
ACAD_PROXY_OBJECT
  5
18C4
102
{ACAD_REACTORS
330
18A3
102
}
330
18A3
100
AcDbProxyObject
 90
      499
 91
      511
 93
      257
310
90E31272D3022203D2031272D3022000000000000000A100000000000000284040
 94
        0
1001
ACAD
1000
AcadProxyRoundTripData
1071
      507
1071
   655383
1070
     0
  0
ACAD_PROXY_OBJECT
  5
18A2
102
{ACAD_XDICTIONARY
360
19AA
102
}
102
{ACAD_REACTORS
330
18A1
102
}
330
18A1
100
AcDbProxyObject
 90
      499
 91
      511
 93
     1849
310
4254DD185B99185C990028B81E85EB51B8AE3F2E07A17AD46E2B8FC02B5E8DC0F42B1CFD028000000C1008070000C3001FDFF8000000C1003FBFF000000182007F7FE00000030400FEFFC00000060801FDFF8000000C1003FBFF00000018200000000000000681FA0B0000001820100E000186003FBFF000000182007F7FE0
310
0000030400FEFFC00000060801FDFF8000000C1003FBFF000000182007F7FE000000304000AD7A3703D0AC73F4160000003040201C00030C007F7FE00000030400FEFFC00000060801FDFF8000000C1003FBFF000000182007F7FE00000030400FEFFC000000608000
340
16
340
16
340
16
 94
        0
1001
ACAD
1000
AcadProxyRoundTripData
1071
      506
1071
   655383
1070
     0
  0
ACAD_PROXY_OBJECT
  5
1895
102
{ACAD_REACTORS
330
188F
102
}
330
188F
100
AcDbProxyObject
 90
      499
 91
      511
 93
      444
310
430C9915DA5C99599C985B59401049028333333333333E3BF0000000000000FB0107901411070040501600405405064090741402480A0340
 94
        0
1001
ACAD
1000
AcDbSavedByObjectVersion
1070
     0
1000
AcadProxyRoundTripData
1071
      505
1071
   655383
1070
     0
  0
ACAD_PROXY_OBJECT
  5
1897
102
{ACAD_REACTORS
330
188F
102
}
330
188F
100
AcDbProxyObject
 90
      499
 91
      511
 93
      508
310
428CD108121A5919195B8010640502408333333333333E3BF0000000000000FB01079024090700405020000000000001110200405405064090740C02480A0340
 94
        0
1001
ACAD
1000
AcDbSavedByObjectVersion
1070
     0
1000
AcadProxyRoundTripData
1071
      505
1071
   655383
1070
     0
  0
ACAD_PROXY_OBJECT
  5
1896
102
{ACAD_REACTORS
330
188F
102
}
330
188F
100
AcDbProxyObject
 90
      499
 91
      511
 93
      444
310
430CD915DA5C99599C985B59401059028333333333333E3BF0000000000000FB0107901411070040501600405405064090741402480A0340
 94
        0
1001
ACAD
1000
AcDbSavedByObjectVersion
1070
     0
1000
AcadProxyRoundTripData
1071
      505
1071
   655383
1070
     0
  0
ACAD_PROXY_OBJECT
  5
1894
102
{ACAD_REACTORS
330
188F
102
}
330
188F
100
AcDbProxyObject
 90
      499
 91
      511
 93
      396
310
4190985CDA58C0107406404333333333333E3BF0000000000000FB0107A41107004050150841D405064090741402480A0356
 94
        0
1001
ACAD
1000
AcDbSavedByObjectVersion
1070
     0
1000
AcadProxyRoundTripData
1071
      505
1071
   655383
1070
     0
  0
ACAD_PROXY_OBJECT
  5
189B
102
{ACAD_REACTORS
330
188F
102
}
330
188F
100
AcDbProxyObject
 90
      499
 91
      511
 93
      436
310
42509C9A59DA1D195B8010C409028333333333333E3BF0000000000000FB010790141107004050150841D405064090741402480A029956
 94
        0
1001
ACAD
1000
AcDbSavedByObjectVersion
1070
     0
1000
AcadProxyRoundTripData
1071
      505
1071
   655383
1070
     0
  0
ACAD_PROXY_OBJECT
  5
189F
102
{ACAD_REACTORS
330
188F
102
}
330
188F
100
AcDbProxyObject
 90
      499
 91
      511
 93
      460
310
4310DBDB1BDC90DA185B99D9401104090240C333333333333E3BF0000000000000FB0108901411070040501508421405064090741402480A0354
 94
        0
1001
ACAD
1000
AcDbSavedByObjectVersion
1070
     0
1000
AcadProxyRoundTripData
1071
      505
1071
   655383
1070
     0
  0
ACAD_PROXY_OBJECT
  5
1898
102
{ACAD_REACTORS
330
188F
102
}
330
188F
100
AcDbProxyObject
 90
      499
 91
      511
 93
      508
310
42D0DBDB98D95C1D1D585B0010940D028333333333333E3BF0000000000000FB0107902409070040501000000000000111010841D405064090740C02480A0340
 94
        0
1001
ACAD
1000
AcDbSavedByObjectVersion
1070
     0
1000
AcadProxyRoundTripData
1071
      505
1071
   655383
1070
     0
  0
ACAD_PROXY_OBJECT
  5
189A
102
{ACAD_REACTORS
330
188F
102
}
330
188F
100
AcDbProxyObject
 90
      499
 91
      511
 93
      420
310
41111A5B4010B409028333333333333E3BF0000000000000FB010790141107004050150841D405064090741402480A02677FFFFFDB
 94
        0
1001
ACAD
1000
AcDbSavedByObjectVersion
1070
     0
1000
AcadProxyRoundTripData
1071
      505
1071
   655383
1070
     0
  0
ACAD_PROXY_OBJECT
  5
189E
102
{ACAD_REACTORS
330
188F
102
}
330
188F
100
AcDbProxyObject
 90
      499
 91
      511
 93
      452
310
43119858D95C185D1D195C9B8010F409028333333333333E3BF0000000000000FB010790141107004050150841D405064090741402480A0350
 94
        0
1001
ACAD
1000
AcDbSavedByObjectVersion
1070
     0
1000
AcadProxyRoundTripData
1071
      505
1071
   655383
1070
     0
  0
ACAD_PROXY_OBJECT
  5
1890
102
{ACAD_REACTORS
330
188F
102
}
330
188F
100
AcDbProxyObject
 90
      499
 91
      511
 93
      396
310
41519B185D00240901404333333333333E3BF0000000000000F9010740A41107004050150841D405064090741402480A1B55
 94
        0
1001
ACAD
1000
AcDbSavedByObjectVersion
1070
     0
1000
AcadProxyRoundTripData
1071
      505
1071
   655383
1070
     0
  0
ACAD_PROXY_OBJECT
  5
1891
102
{ACAD_REACTORS
330
188F
102
}
330
188F
100
AcDbProxyObject
 90
      499
 91
      511
 93
      484
310
43919B185D15DA5D1A115919D95CC010140901404333333333333E3BF0000000000000F9010740901411070040501600405405064090741402480A1B50
 94
        0
1001
ACAD
1000
AcDbSavedByObjectVersion
1070
     0
1000
AcadProxyRoundTripData
1071
      505
1071
   655383
1070
     0
  0
ACAD_PROXY_OBJECT
  5
1892
102
{ACAD_REACTORS
330
188F
102
}
330
188F
100
AcDbProxyObject
 90
      499
 91
      511
 93
      420
310
4211DBDD5C985D590010240902404333333333333E3BF0000000000000F9010740A411070040501641D405064090741402480A1B50
 94
        0
1001
ACAD
1000
AcDbSavedByObjectVersion
1070
     0
1000
AcadProxyRoundTripData
1071
      505
1071
   655383
1070
     0
  0
ACAD_PROXY_OBJECT
  5
1893
102
{ACAD_REACTORS
330
188F
102
}
330
188F
100
AcDbProxyObject
 90
      499
 91
      511
 93
      508
310
4451DBDD5C985D5915DA5D1A115919D95CC010340902404333333333333E3BF0000000000000F9010740901411070040501600405405064090741402480A1B50
 94
        0
1001
ACAD
1000
AcDbSavedByObjectVersion
1070
     0
1000
AcadProxyRoundTripData
1071
      505
1071
   655383
1070
     0
  0
ACAD_PROXY_OBJECT
  5
189D
102
{ACAD_REACTORS
330
188F
102
}
330
188F
100
AcDbProxyObject
 90
      499
 91
      511
 93
      452
310
43131A5B995C185D1D195C9B8010E409028333333333333E3BF0000000000000FB010790141107004050750841D405064090741402483A0350
 94
        0
1001
ACAD
1000
AcDbSavedByObjectVersion
1070
     0
1000
AcadProxyRoundTripData
1071
      505
1071
   655383
1070
     0
  0
ACAD_PROXY_OBJECT
  5
1899
102
{ACAD_REACTORS
330
188F
102
}
330
188F
100
AcDbProxyObject
 90
      499
 91
      511
 93
      428
310
429499585B1A5CDD1A58C0108409028333333333333E3BF0000000000000FB01079019070040501508421405064090741402480A1B45
 94
        0
1001
ACAD
1000
AcDbSavedByObjectVersion
1070
     0
1000
AcadProxyRoundTripData
1071
      505
1071
   655383
1070
     0
  0
ACAD_PROXY_OBJECT
  5
189C
102
{ACAD_REACTORS
330
188F
102
}
330
188F
100
AcDbProxyObject
 90
      499
 91
      511
 93
      420
310
42151A1A58DAD95B8010D409028333333333333E3BF0000000000000FB010790141107004050150C41D405064090741402480A0352
 94
        0
1001
ACAD
1000
AcDbSavedByObjectVersion
1070
     0
1000
AcadProxyRoundTripData
1071
      505
1071
   655383
1070
     0
  0
XRECORD
  5
1A68
102
{ACAD_REACTORS
330
1A5E
102
}
330
1A5E
100
AcDbXrecord
 90
        0
  0
XRECORD
  5
1A6C
102
{ACAD_REACTORS
330
1A5E
102
}
330
1A5E
100
AcDbXrecord
1000
DSTYLE
1002
{
1070
   179
 70
     2
1070
   277
 70
     6
1002
}
  0
XRECORD
  5
1A69
102
{ACAD_REACTORS
330
1A5E
102
}
330
1A5E
100
AcDbXrecord
  1
{6385560B-F4B1-4644-A7C2-A3E32AC3D232}
  0
XRECORD
  5
1A61
102
{ACAD_REACTORS
330
1A5E
102
}
330
1A5E
100
AcDbXrecord
  1

  0
XRECORD
  5
1A67
102
{ACAD_REACTORS
330
1A5E
102
}
330
1A5E
100
AcDbXrecord
 90
        0
  0
XRECORD
  5
1A63
102
{ACAD_REACTORS
330
1A5E
102
}
330
1A5E
100
AcDbXrecord
340
61
  0
XRECORD
  5
1A66
102
{ACAD_REACTORS
330
1A5E
102
}
330
1A5E
100
AcDbXrecord
 90
    10781
  0
XRECORD
  5
1A64
102
{ACAD_REACTORS
330
1A5E
102
}
330
1A5E
100
AcDbXrecord
340
77
  0
XRECORD
  5
1A65
102
{ACAD_REACTORS
330
1A5E
102
}
330
1A5E
100
AcDbXrecord
340
6
  0
XRECORD
  5
1A6B
102
{ACAD_REACTORS
330
1A5E
102
}
330
1A5E
100
AcDbXrecord
 40
0.0
  0
XRECORD
  5
1A6F
102
{ACAD_REACTORS
330
1A5E
102
}
330
1A5E
100
AcDbXrecord
340
0
  0
XRECORD
  5
1A75
102
{ACAD_REACTORS
330
1A5E
102
}
330
1A5E
100
AcDbXrecord
 10
0.0
 20
0.0
 30
0.0
  0
XRECORD
  5
1A71
102
{ACAD_REACTORS
330
1A5E
102
}
330
1A5E
100
AcDbXrecord
 10
0.0
 20
0.0
 30
0.0
  0
XRECORD
  5
1A74
102
{ACAD_REACTORS
330
1A5E
102
}
330
1A5E
100
AcDbXrecord
 10
0.0
 20
0.0
 30
0.0
  0
XRECORD
  5
1A72
102
{ACAD_REACTORS
330
1A5E
102
}
330
1A5E
100
AcDbXrecord
 10
0.0
 20
0.0
 30
0.0
  0
XRECORD
  5
1A73
102
{ACAD_REACTORS
330
1A5E
102
}
330
1A5E
100
AcDbXrecord
 10
0.0
 20
0.0
 30
0.0
  0
XRECORD
  5
1A70
102
{ACAD_REACTORS
330
1A5E
102
}
330
1A5E
100
AcDbXrecord
 10
0.0
 20
0.0
 30
0.0
  0
XRECORD
  5
1A6D
102
{ACAD_REACTORS
330
1A5E
102
}
330
1A5E
100
AcDbXrecord
340
0
  0
XRECORD
  5
1A6E
102
{ACAD_REACTORS
330
1A5E
102
}
330
1A5E
100
AcDbXrecord
 70
     0
  0
XRECORD
  5
1A62
102
{ACAD_REACTORS
330
1A5E
102
}
330
1A5E
100
AcDbXrecord
  1
Sekkei.ctb
  0
XRECORD
  5
1A5F
102
{ACAD_REACTORS
330
1A5E
102
}
330
1A5E
100
AcDbXrecord
 90
        1
  0
XRECORD
  5
1A60
102
{ACAD_REACTORS
330
1A5E
102
}
330
1A5E
100
AcDbXrecord
 90
       70
  0
XRECORD
  5
1A78
102
{ACAD_REACTORS
330
1A5E
102
}
330
1A5E
100
AcDbXrecord
340
0
  0
XRECORD
  5
1A7E
102
{ACAD_REACTORS
330
1A5E
102
}
330
1A5E
100
AcDbXrecord
 10
0.0
 20
0.0
 30
0.0
  0
XRECORD
  5
1A7A
102
{ACAD_REACTORS
330
1A5E
102
}
330
1A5E
100
AcDbXrecord
 10
0.0
 20
0.0
 30
0.0
  0
XRECORD
  5
1A7D
102
{ACAD_REACTORS
330
1A5E
102
}
330
1A5E
100
AcDbXrecord
 10
0.0
 20
0.0
 30
0.0
  0
XRECORD
  5
1A7B
102
{ACAD_REACTORS
330
1A5E
102
}
330
1A5E
100
AcDbXrecord
 10
0.0
 20
0.0
 30
0.0
  0
XRECORD
  5
1A7C
102
{ACAD_REACTORS
330
1A5E
102
}
330
1A5E
100
AcDbXrecord
 10
0.0
 20
0.0
 30
0.0
  0
XRECORD
  5
1A79
102
{ACAD_REACTORS
330
1A5E
102
}
330
1A5E
100
AcDbXrecord
 10
0.0
 20
0.0
 30
0.0
  0
XRECORD
  5
1A76
102
{ACAD_REACTORS
330
1A5E
102
}
330
1A5E
100
AcDbXrecord
340
0
  0
XRECORD
  5
1A77
102
{ACAD_REACTORS
330
1A5E
102
}
330
1A5E
100
AcDbXrecord
 70
     0
  0
XRECORD
  5
1A6A
102
{ACAD_REACTORS
330
1A5E
102
}
330
1A5E
100
AcDbXrecord
  1
{7C0C2648-4B5F-410B-AD1D-F3A0A083C722}
  0
DICTIONARYVAR
  5
19CD
102
{ACAD_REACTORS
330
102
102
}
330
102
100
DictionaryVariables
280
     0
  1
1:1
  0
DICTIONARYVAR
  5
19CC
102
{ACAD_REACTORS
330
102
102
}
330
102
100
DictionaryVariables
280
     0
  1
STANDARD
  0
DICTIONARYVAR
  5
19CB
102
{ACAD_REACTORS
330
102
102
}
330
102
100
DictionaryVariables
280
     0
  1
STANDARD
  0
DICTIONARYVAR
  5
103
102
{ACAD_REACTORS
330
102
102
}
330
102
100
DictionaryVariables
280
     0
  1
1
  0
DICTIONARYVAR
  5
19CE
102
{ACAD_REACTORS
330
102
102
}
330
102
100
DictionaryVariables
280
     0
  1
0
  0
DICTIONARYVAR
  5
549
102
{ACAD_REACTORS
330
102
102
}
330
102
100
DictionaryVariables
280
     0
  1
96
  0
DICTIONARY
  5
1880
330
187F
100
AcDbDictionary
280
     1
  3
ACAD_XREC_ROUNDTRIP
360
1A39
  3
BUMPTILE
360
1882
  3
DIFFUSETILE
360
1881
  3
OPACITYTILE
360
1885
  3
REFLECTIONTILE
360
1884
  3
REFRACTIONTILE
360
1886
  3
SPECULARTILE
360
1883
  0
DICTIONARY
  5
1878
330
1877
100
AcDbDictionary
280
     1
  3
ACAD_XREC_ROUNDTRIP
360
1A38
  3
BUMPTILE
360
187A
  3
DIFFUSETILE
360
1879
  3
OPACITYTILE
360
187D
  3
REFLECTIONTILE
360
187C
  3
REFRACTIONTILE
360
187E
  3
SPECULARTILE
360
187B
  0
DICTIONARY
  5
1888
330
1887
100
AcDbDictionary
280
     1
  3
ACAD_XREC_ROUNDTRIP
360
1A3A
  3
BUMPTILE
360
188A
  3
DIFFUSETILE
360
1889
  3
OPACITYTILE
360
188D
  3
REFLECTIONTILE
360
188C
  3
REFRACTIONTILE
360
188E
  3
SPECULARTILE
360
188B
  0
DICTIONARY
  5
19AA
330
18A2
100
AcDbDictionary
280
     1
  3
ACAD_ROUNDTRIP_2008_TABLES
360
1A1E
  3
ACAD_XREC_ROUNDTRIP
360
1A3B
  0
XRECORD
  5
1A39
102
{ACAD_REACTORS
330
1880
102
}
330
1880
100
AcDbXrecord
102
MATERIAL
148
0.0
149
0.0
149
0.0
 93
        0
 94
      127
282
     0
 72
     0
 77
     0
171
     0
175
     0
179
     0
273
     0
  0
XRECORD
  5
1882
102
{ACAD_REACTORS
330
1880
102
}
330
1880
100
AcDbXrecord
270
     1
271
     1
  0
XRECORD
  5
1881
102
{ACAD_REACTORS
330
1880
102
}
330
1880
100
AcDbXrecord
270
     1
271
     1
  0
XRECORD
  5
1885
102
{ACAD_REACTORS
330
1880
102
}
330
1880
100
AcDbXrecord
270
     1
271
     1
  0
XRECORD
  5
1884
102
{ACAD_REACTORS
330
1880
102
}
330
1880
100
AcDbXrecord
270
     1
271
     1
  0
XRECORD
  5
1886
102
{ACAD_REACTORS
330
1880
102
}
330
1880
100
AcDbXrecord
270
     1
271
     1
  0
XRECORD
  5
1883
102
{ACAD_REACTORS
330
1880
102
}
330
1880
100
AcDbXrecord
270
     1
271
     1
  0
XRECORD
  5
1A38
102
{ACAD_REACTORS
330
1878
102
}
330
1878
100
AcDbXrecord
102
MATERIAL
148
0.0
149
0.0
149
0.0
 93
        0
 94
      127
282
     0
 72
     0
 77
     0
171
     0
175
     0
179
     0
273
     0
  0
XRECORD
  5
187A
102
{ACAD_REACTORS
330
1878
102
}
330
1878
100
AcDbXrecord
270
     1
271
     1
  0
XRECORD
  5
1879
102
{ACAD_REACTORS
330
1878
102
}
330
1878
100
AcDbXrecord
270
     1
271
     1
  0
XRECORD
  5
187D
102
{ACAD_REACTORS
330
1878
102
}
330
1878
100
AcDbXrecord
270
     1
271
     1
  0
XRECORD
  5
187C
102
{ACAD_REACTORS
330
1878
102
}
330
1878
100
AcDbXrecord
270
     1
271
     1
  0
XRECORD
  5
187E
102
{ACAD_REACTORS
330
1878
102
}
330
1878
100
AcDbXrecord
270
     1
271
     1
  0
XRECORD
  5
187B
102
{ACAD_REACTORS
330
1878
102
}
330
1878
100
AcDbXrecord
270
     1
271
     1
  0
XRECORD
  5
1A3A
102
{ACAD_REACTORS
330
1888
102
}
330
1888
100
AcDbXrecord
102
MATERIAL
148
0.0
149
0.0
149
0.0
 93
        0
 94
      127
282
     0
 72
     0
 77
     0
171
     0
175
     0
179
     0
273
     0
  0
XRECORD
  5
188A
102
{ACAD_REACTORS
330
1888
102
}
330
1888
100
AcDbXrecord
270
     1
271
     1
  0
XRECORD
  5
1889
102
{ACAD_REACTORS
330
1888
102
}
330
1888
100
AcDbXrecord
270
     1
271
     1
  0
XRECORD
  5
188D
102
{ACAD_REACTORS
330
1888
102
}
330
1888
100
AcDbXrecord
270
     1
271
     1
  0
XRECORD
  5
188C
102
{ACAD_REACTORS
330
1888
102
}
330
1888
100
AcDbXrecord
270
     1
271
     1
  0
XRECORD
  5
188E
102
{ACAD_REACTORS
330
1888
102
}
330
1888
100
AcDbXrecord
270
     1
271
     1
  0
XRECORD
  5
188B
102
{ACAD_REACTORS
330
1888
102
}
330
1888
100
AcDbXrecord
270
     1
271
     1
  0
ACAD_PROXY_OBJECT
  5
1A1E
102
{ACAD_REACTORS
330
19AA
102
}
330
19AA
100
AcDbProxyObject
 90
      499
 91
      511
 93
     5304
310
40D054060020000020000003200101A000080002A5058000000C100000000000000340FD012E07A17AD46E2B8FCB81E85EB51B8AE3F2E07A17AD46E2B8FCB81E85EB51B8AE3F02B5E8DC0F42B1CFC0AD7A3703D0AC73F419019018000000C1003FBFFFFFE02B5E8DC0F42A9CFD029018000000C1003FBFFFFFE02B5E8DC0F4
310
2A9CFD049018000000C1003FBFFFFFE02B5E8DC0F42A9CFD089018000000C1003FBFFFFFE02B5E8DC0F42A9CFD109018000000C1003FBFFFFFE02B5E8DC0F42A9CFD209018000000C1003FBFFFFFE02B5E8DC0F42A9CFD01405075F5449544C450041501A8000000C800406800020000A9416000000304000AD7A3703D0AC7
310
3F404B81E85EB51B8AE3F2E07A17AD46E2B8FCB81E85EB51B8AE3F2E07A17AD46E2B8FC0AD7A3703D0AC73F02B5E8DC0F42B1CFD0640640600000030400FEFFFFFF80AD7A3703D0AA73F40A40600000030400FEFFFFFF80AD7A3703D0AA73F41240600000030400FEFFFFFF80AD7A3703D0AA73F42240600000030400FEFFF
310
FFF80AD7A3703D0AA73F44240600000030400FEFFFFFF80AD7A3703D0AA73F48240600000030400FEFFFFFF80AD7A3703D0AA73F409014217D2115051115480105406A0000003200101A000080002A5028000000C10002B5E8DC0F42B1CFD012E07A17AD46E2B8FCB81E85EB51B8AE3F2E07A17AD46E2B8FCB81E85EB51B8A
310
E3F02B5E8DC0F42B1CFC0AD7A3703D0AC73F419019018000000C1003FBFFFFFE02B5E8DC0F42A9CFD029018000000C1003FBFFFFFE02B5E8DC0F42A9CFD049018000000C1003FBFFFFFE02B5E8DC0F42A9CFD089018000000C1003FBFFFFFE02B5E8DC0F42A9CFD109018000000C1003FBFFFFFE02B5E8DC0F42A9CFD20901
310
8000000C1003FBFFFFFE02B5E8DC0F42A9CFD03409065F444154410000
340
16
340
0
340
0
340
0
340
0
340
0
340
0
340
16
340
0
340
0
340
0
340
0
340
0
340
0
340
16
340
0
340
0
340
0
340
0
340
0
340
0
 94
        0
1001
ACAD
1000
AcadProxyRoundTripData
1071
      510
1071
   655383
1070
     0
  0
XRECORD
  5
1A3B
102
{ACAD_REACTORS
330
19AA
102
}
330
19AA
100
AcDbXrecord
102
ACAD_ROUNDTRIP_PRE2007_TABLESTYLE
 90
      512
 91
        0
  1

 92
      512
 93
        0
  2

 94
      512
 95
        0
  3

  0
ENDSEC
  0
EOF
