  0
SECTION
  2
HEADER
  9
$ACADVER
  1
AC1014
  9
$ACADMAINTVER
 70
     9
  9
$DWGCODEPAGE
  3
ANSI_932
  9
$INSBASE
 10
0.0
 20
0.0
 30
0.0
  9
$EXTMIN
 10
39.64010132401062
 20
101.5964875343292
 30
0.0
  9
$EXTMAX
 10
1399.4826535497
 20
929.8794624076084
 30
0.0
  9
$LIMMIN
 10
0.0
 20
0.0
  9
$LIMMAX
 10
297.0
 20
210.0
  9
$ORTHOMODE
 70
     0
  9
$REGENMODE
 70
     1
  9
$FILLMODE
 70
     1
  9
$QTEXTMODE
 70
     0
  9
$MIRRTEXT
 70
     0
  9
$DRAGMODE
 70
     2
  9
$LTSCALE
 40
4.0
  9
$OSMODE
 70
    37
  9
$ATTMODE
 70
     1
  9
$TEXTSIZE
 40
2.0
  9
$TRACEWID
 40
1.0
  9
$TEXTSTYLE
  7
STANDARD
  9
$CLAYER
  8
0
  9
$CELTYPE
  6
BYLAYER
  9
$CECOLOR
 62
   256
  9
$CELTSCALE
 40
1.0
  9
$DELOBJ
 70
     1
  9
$DISPSILH
 70
     0
  9
$DIMSCALE
 40
4.0
  9
$DIMASZ
 40
1.8
  9
$DIMEXO
 40
0.625
  9
$DIMDLI
 40
3.75
  9
$DIMRND
 40
0.0
  9
$DIMDLE
 40
0.0
  9
$DIMEXE
 40
0.8
  9
$DIMTP
 40
0.0
  9
$DIMTM
 40
0.0
  9
$DIMTXT
 40
1.8
  9
$DIMCEN
 40
2.5
  9
$DIMTSZ
 40
0.0
  9
$DIMTOL
 70
     0
  9
$DIMLIM
 70
     0
  9
$DIMTIH
 70
     0
  9
$DIMTOH
 70
     0
  9
$DIMSE1
 70
     0
  9
$DIMSE2
 70
     0
  9
$DIMTAD
 70
     1
  9
$DIMZIN
 70
     8
  9
$DIMBLK
  1

  9
$DIMASO
 70
     1
  9
$DIMSHO
 70
     1
  9
$DIMPOST
  1

  9
$DIMAPOST
  1

  9
$DIMALT
 70
     0
  9
$DIMALTD
 70
     4
  9
$DIMALTF
 40
0.0394
  9
$DIMLFAC
 40
1.0
  9
$DIMTOFL
 70
     1
  9
$DIMTVP
 40
0.0
  9
$DIMTIX
 70
     0
  9
$DIMSOXD
 70
     0
  9
$DIMSAH
 70
     0
  9
$DIMBLK1
  1

  9
$DIMBLK2
  1

  9
$DIMSTYLE
  2
STANDARD
  9
$DIMCLRD
 70
     0
  9
$DIMCLRE
 70
     0
  9
$DIMCLRT
 70
     0
  9
$DIMTFAC
 40
1.0
  9
$DIMGAP
 40
0.75
  9
$DIMJUST
 70
     0
  9
$DIMSD1
 70
     0
  9
$DIMSD2
 70
     0
  9
$DIMTOLJ
 70
     1
  9
$DIMTZIN
 70
     0
  9
$DIMALTZ
 70
     0
  9
$DIMALTTZ
 70
     0
  9
$DIMFIT
 70
     3
  9
$DIMUPT
 70
     0
  9
$DIMUNIT
 70
     8
  9
$DIMDEC
 70
     2
  9
$DIMTDEC
 70
     2
  9
$DIMALTU
 70
     8
  9
$DIMALTTD
 70
     4
  9
$DIMTXSTY
  7
STANDARD
  9
$DIMAUNIT
 70
     0
  9
$LUNITS
 70
     2
  9
$LUPREC
 70
     3
  9
$SKETCHINC
 40
1.0
  9
$FILLETRAD
 40
0.0
  9
$AUNITS
 70
     0
  9
$AUPREC
 70
     2
  9
$MENU
  1
.
  9
$ELEVATION
 40
0.0
  9
$PELEVATION
 40
0.0
  9
$THICKNESS
 40
0.0
  9
$LIMCHECK
 70
     0
  9
$BLIPMODE
 70
     0
  9
$CHAMFERA
 40
0.0
  9
$CHAMFERB
 40
0.0
  9
$CHAMFERC
 40
20.0
  9
$CHAMFERD
 40
0.0
  9
$SKPOLY
 70
     0
  9
$TDCREATE
 40
2454413.474664884
  9
$TDUPDATE
 40
2454424.604335393
  9
$TDINDWG
 40
0.0079750926
  9
$TDUSRTIMER
 40
0.0079750926
  9
$USRTIMER
 70
     1
  9
$ANGBASE
 50
0.0
  9
$ANGDIR
 70
     0
  9
$PDMODE
 70
     0
  9
$PDSIZE
 40
-10.0
  9
$PLINEWID
 40
0.0
  9
$COORDS
 70
     0
  9
$SPLFRAME
 70
     0
  9
$SPLINETYPE
 70
     6
  9
$SPLINESEGS
 70
     8
  9
$ATTDIA
 70
     0
  9
$ATTREQ
 70
     1
  9
$HANDLING
 70
-16383
  9
$HANDSEED
  5
1AAC
  9
$SURFTAB1
 70
     6
  9
$SURFTAB2
 70
     6
  9
$SURFTYPE
 70
     6
  9
$SURFU
 70
     6
  9
$SURFV
 70
     6
  9
$UCSNAME
  2

  9
$UCSORG
 10
0.0
 20
0.0
 30
0.0
  9
$UCSXDIR
 10
1.0
 20
0.0
 30
0.0
  9
$UCSYDIR
 10
0.0
 20
1.0
 30
0.0
  9
$PUCSNAME
  2

  9
$PUCSORG
 10
0.0
 20
0.0
 30
0.0
  9
$PUCSXDIR
 10
1.0
 20
0.0
 30
0.0
  9
$PUCSYDIR
 10
0.0
 20
1.0
 30
0.0
  9
$USERI1
 70
     0
  9
$USERI2
 70
     0
  9
$USERI3
 70
     0
  9
$USERI4
 70
     0
  9
$USERI5
 70
     0
  9
$USERR1
 40
0.0
  9
$USERR2
 40
0.0
  9
$USERR3
 40
0.0
  9
$USERR4
 40
0.0
  9
$USERR5
 40
0.0
  9
$WORLDVIEW
 70
     1
  9
$SHADEDGE
 70
     3
  9
$SHADEDIF
 70
    70
  9
$TILEMODE
 70
     1
  9
$MAXACTVP
 70
    48
  9
$PINSBASE
 10
0.0
 20
0.0
 30
0.0
  9
$PLIMCHECK
 70
     0
  9
$PEXTMIN
 10
0.0
 20
0.0
 30
0.0
  9
$PEXTMAX
 10
0.0
 20
0.0
 30
0.0
  9
$PLIMMIN
 10
0.0
 20
0.0
  9
$PLIMMAX
 10
12.0
 20
9.0
  9
$UNITMODE
 70
     0
  9
$VISRETAIN
 70
     1
  9
$PLINEGEN
 70
     0
  9
$PSLTSCALE
 70
     1
  9
$TREEDEPTH
 70
  3020
  9
$PICKSTYLE
 70
     1
  9
$CMLSTYLE
  2
STANDARD
  9
$CMLJUST
 70
     0
  9
$CMLSCALE
 40
1.0
  9
$PROXYGRAPHICS
 70
     1
  9
$MEASUREMENT
 70
     0
  0
ENDSEC
  0
SECTION
  2
CLASSES
  0
CLASS
  1
DICTIONARYVAR
  2
AcDbDictionaryVar
  3
AutoCAD 2000
 90
        0
280
     0
281
     0
  0
CLASS
  1
ACDBDICTIONARYWDFLT
  2
AcDbDictionaryWithDefault
  3
AutoCAD 2000
 90
        0
280
     0
281
     0
  0
CLASS
  1
ACDBPLACEHOLDER
  2
AcDbPlaceHolder
  3
AutoCAD 2000
 90
        0
280
     0
281
     0
  0
CLASS
  1
LAYOUT
  2
AcDbLayout
  3
AutoCAD 2000
 90
        0
280
     0
281
     0
  0
CLASS
  1
MATERIAL
  2
AcDbMaterial
  3
ObjectDBX Classes
 90
     1153
280
     0
281
     0
  0
CLASS
  1
VISUALSTYLE
  2
AcDbVisualStyle
  3
ObjectDBX Classes
 90
     4095
280
     0
281
     0
  0
CLASS
  1
TABLESTYLE
  2
AcDbTableStyle
  3
ObjectDBX Classes
 90
     4095
280
     0
281
     0
  0
CLASS
  1
SCALE
  2
AcDbScale
  3
ObjectDBX Classes
 90
     1153
280
     0
281
     0
  0
CLASS
  1
MLEADERSTYLE
  2
AcDbMLeaderStyle
  3
ACDB_MLEADERSTYLE_CLASS
 90
     4095
280
     0
281
     0
  0
CLASS
  1
SORTENTSTABLE
  2
AcDbSortentsTable
  3
AutoCAD 2000
 90
        0
280
     0
281
     0
  0
CLASS
  1
CELLSTYLEMAP
  2
AcDbCellStyleMap
  3
ObjectDBX Classes
 90
     1152
280
     0
281
     0
  0
CLASS
  1
ACAD_PROXY_OBJECT_WRAPPER
  2
AcDbProxyObjectWrapper
  3
AutoCAD 2000
 90
        0
280
     0
281
     0
  0
CLASS
  1
LONG_TRANSACTION
  2
AcDbLongTransaction
  3
AutoCAD 2000
 90
        0
280
     0
281
     0
  0
CLASS
  1
LWPOLYLINE
  2
AcDbPolyline
  3
AutoCAD 2000
 90
        0
280
     0
281
     1
  0
CLASS
  1
HATCH
  2
AcDbHatch
  3
AutoCAD 2000
 90
        0
280
     0
281
     1
  0
CLASS
  1
XRECORD
  2
AcDbXrecord
  3
AutoCAD 2000
 90
        0
280
     0
281
     0
  0
ENDSEC
  0
SECTION
  2
TABLES
  0
TABLE
  2
VPORT
  5
6E
102
{ACAD_XDICTIONARY
360
19E2
102
}
330
0
100
AcDbSymbolTable
 70
     2
  0
VPORT
  5
1A86
330
6E
100
AcDbSymbolTableRecord
100
AcDbViewportTableRecord
  2
*ACTIVE
 70
     0
 10
0.0
 20
0.0
 11
1.0
 21
1.0
 12
808.1840216418113
 22
497.4321686265492
 13
0.0
 23
0.0
 14
10.0
 24
10.0
 15
10.0
 25
10.0
 16
0.0
 26
0.0
 36
1.0
 17
0.0
 27
0.0
 37
0.0
 40
880.5040922736441
 41
1.753504672897196
 42
50.0
 43
0.0
 44
0.0
 50
0.0
 51
0.0
 71
     0
 72
   100
 73
     1
 74
     3
 75
     0
 76
     0
 77
     0
 78
     0
  0
ENDTAB
  0
TABLE
  2
LTYPE
  5
69
330
0
100
AcDbSymbolTable
 70
     6
  0
LTYPE
  5
6A
330
69
100
AcDbSymbolTableRecord
100
AcDbLinetypeTableRecord
  2
BYBLOCK
 70
     0
  3

 72
    65
 73
     0
 40
0.0
  0
LTYPE
  5
6B
330
69
100
AcDbSymbolTableRecord
100
AcDbLinetypeTableRecord
  2
BYLAYER
 70
     0
  3

 72
    65
 73
     0
 40
0.0
  0
LTYPE
  5
8
330
69
100
AcDbSymbolTableRecord
100
AcDbLinetypeTableRecord
  2
CONTINUOUS
 70
     0
  3
Solid line
 72
    65
 73
     0
 40
0.0
  0
LTYPE
  5
27C
330
69
100
AcDbSymbolTableRecord
100
AcDbLinetypeTableRecord
  2
SEKKEI_A2_
 70
     0
  3
center(A2)  ____ _ ____ _ ____ _ ____ _ ____ _ 
 72
    65
 73
     4
 40
14.28749999999999
 49
9.525
 74
     0
 49
-1.587499999999999
 74
     0
 49
1.587499999999999
 74
     0
 49
-1.587499999999999
 74
     0
  0
LTYPE
  5
7EF
330
69
100
AcDbSymbolTableRecord
100
AcDbLinetypeTableRecord
  2
PHANTOM3
 70
     0
  3
Phantom  ___ _ _ ___ _ _ ___ _ _ ___ _ _
 72
    65
 73
     6
 40
9.0
 49
4.0
 74
     0
 49
-1.0
 74
     0
 49
1.0
 74
     0
 49
-1.0
 74
     0
 49
1.0
 74
     0
 49
-1.0
 74
     0
  0
LTYPE
  5
7F0
330
69
100
AcDbSymbolTableRecord
100
AcDbLinetypeTableRecord
  2
HIDDEN3
 70
     0
  3
Hidden (.3x) _ _ _ _ _ _ _ _ _ _ _ _ _ _ _ _ _
 72
    65
 73
     2
 40
2.857499999999999
 49
1.905
 74
     0
 49
-0.9525
 74
     0
  0
LTYPE
  5
B18
330
69
100
AcDbSymbolTableRecord
100
AcDbLinetypeTableRecord
  2
CENS
 70
     0
  3
(一点鎖線１)---- - ---- - ---- - ---- - ---- - 
 72
    65
 73
     4
 40
7.0
 49
4.0
 74
     0
 49
-1.0
 74
     0
 49
1.0
 74
     0
 49
-1.0
 74
     0
  0
ENDTAB
  0
TABLE
  2
LAYER
  5
66
102
{ACAD_XDICTIONARY
360
B19
102
}
330
0
100
AcDbSymbolTable
 70
    10
  0
LAYER
  5
5E
102
{ACAD_XDICTIONARY
360
19C5
102
}
330
66
100
AcDbSymbolTableRecord
100
AcDbLayerTableRecord
  2
0
 70
     0
 62
     7
  6
CONTINUOUS
  0
LAYER
  5
3E
102
{ACAD_XDICTIONARY
360
19C7
102
}
330
66
100
AcDbSymbolTableRecord
100
AcDbLayerTableRecord
  2
CENTER
 70
     0
 62
     3
  6
SEKKEI_A2_
  0
LAYER
  5
2B5
102
{ACAD_XDICTIONARY
360
19CD
102
}
330
66
100
AcDbSymbolTableRecord
100
AcDbLayerTableRecord
  2
HIDS
 70
     0
 62
     1
  6
HIDDEN3
  0
LAYER
  5
2BA
102
{ACAD_XDICTIONARY
360
19CF
102
}
330
66
100
AcDbSymbolTableRecord
100
AcDbLayerTableRecord
  2
HOJO
 70
     0
 62
     4
  6
CONTINUOUS
  0
LAYER
  5
3FA
102
{ACAD_XDICTIONARY
360
19D3
102
}
330
66
100
AcDbSymbolTableRecord
100
AcDbLayerTableRecord
  2
TITLE
 70
     0
 62
     4
  6
CONTINUOUS
  0
LAYER
  5
478
102
{ACAD_XDICTIONARY
360
19D5
102
}
330
66
100
AcDbSymbolTableRecord
100
AcDbLayerTableRecord
  2
PHAS
 70
     0
 62
     2
  6
PHANTOM3
  0
ENDTAB
  0
TABLE
  2
STYLE
  5
67
330
0
100
AcDbSymbolTable
 70
     2
  0
STYLE
  5
16
330
67
100
AcDbSymbolTableRecord
100
AcDbTextStyleTableRecord
  2
STANDARD
 70
     0
 40
0.0
 41
1.0
 50
0.0
 71
     0
 42
2.0
  3
simplex.shx
  4
extfont.shx
  0
ENDTAB
  0
TABLE
  2
VIEW
  5
6C
330
0
100
AcDbSymbolTable
 70
     0
  0
ENDTAB
  0
TABLE
  2
UCS
  5
6D
330
0
100
AcDbSymbolTable
 70
     0
  0
ENDTAB
  0
TABLE
  2
APPID
  5
70
330
0
100
AcDbSymbolTable
 70
     2
  0
APPID
  5
71
330
70
100
AcDbSymbolTableRecord
100
AcDbRegAppTableRecord
  2
ACAD
 70
     0
  0
APPID
  5
18F4
330
70
100
AcDbSymbolTableRecord
100
AcDbRegAppTableRecord
  2
ACAD_MLEADERVER
 70
     0
  0
ENDTAB
  0
TABLE
  2
DIMSTYLE
  5
72
330
0
100
AcDbSymbolTable
 70
     1
  0
DIMSTYLE
105
73
330
72
100
AcDbSymbolTableRecord
100
AcDbDimStyleTableRecord
  2
STANDARD
 70
     0
  3

  4

  5

  6

  7

 40
4.0
 41
1.8
 42
0.625
 43
3.75
 44
0.8
 45
0.0
 46
0.0
 47
0.0
 48
0.0
140
1.8
141
2.5
142
0.0
143
0.0394
144
1.0
145
0.0
146
1.0
147
0.75
 71
     0
 72
     0
 73
     0
 74
     0
 75
     0
 76
     0
 77
     1
 78
     8
170
     0
171
     4
172
     1
173
     0
174
     0
175
     0
176
     0
177
     0
178
     0
270
     8
271
     2
272
     2
273
     8
274
     4
340
16
275
     0
280
     0
281
     0
282
     0
283
     1
284
     0
285
     0
286
     0
287
     3
288
     0
  0
ENDTAB
  0
TABLE
  2
BLOCK_RECORD
  5
1
330
0
100
AcDbSymbolTable
 70
    55
  0
BLOCK_RECORD
  5
2
102
{ACAD_XDICTIONARY
360
1AA8
102
}
330
1
100
AcDbSymbolTableRecord
100
AcDbBlockTableRecord
  2
*MODEL_SPACE
  0
BLOCK_RECORD
  5
1A81
102
{ACAD_XDICTIONARY
360
1AAA
102
}
330
1
100
AcDbSymbolTableRecord
100
AcDbBlockTableRecord
  2
*PAPER_SPACE
  0
ENDTAB
  0
ENDSEC
  0
SECTION
  2
BLOCKS
  0
BLOCK
  5
5D
330
2
100
AcDbEntity
  8
0
100
AcDbBlockBegin
  2
*MODEL_SPACE
 70
     0
 10
0.0
 20
0.0
 30
0.0
  3
*MODEL_SPACE
  1

  0
ENDBLK
  5
5F
330
2
100
AcDbEntity
  8
0
100
AcDbBlockEnd
  0
BLOCK
  5
1A83
330
1A81
100
AcDbEntity
 67
     1
  8
0
100
AcDbBlockBegin
  2
*PAPER_SPACE
 70
     0
 10
0.0
 20
0.0
 30
0.0
  3
*PAPER_SPACE
  1

  0
ENDBLK
  5
1A84
330
1A81
100
AcDbEntity
 67
     1
  8
0
100
AcDbBlockEnd
  0
ENDSEC
  0
SECTION
  2
ENTITIES
  0
TEXT
  5
FB0
330
2
100
AcDbEntity
  8
TITLE
100
AcDbText
 10
420.9957200349911
 20
849.2107158971384
 30
0.0
 40
10.0
  1
AFCZ32S-40~60M750S4
100
AcDbText
  0
TEXT
  5
FB1
330
2
100
AcDbEntity
  8
TITLE
100
AcDbText
 10
420.9957200349911
 20
834.2107158971383
 30
0.0
 40
10.0
  1
AFCZ32S-40~60L750S4
100
AcDbText
  0
LINE
  5
FB2
330
2
100
AcDbEntity
  8
CENTER
100
AcDbLine
 10
1315.482650220889
 20
592.9884038626341
 30
0.0
 11
1315.482650220889
 21
428.6167383435686
 31
0.0
  0
LINE
  5
FB3
330
2
100
AcDbEntity
  8
0
100
AcDbLine
 10
1243.4826535497
 20
552.3711935535734
 30
0.0
 11
1243.4826535497
 21
469.2339486528013
 31
0.0
  0
LINE
  5
FB4
330
2
100
AcDbEntity
  8
0
100
AcDbLine
 10
1257.4826535497
 20
570.8025711031019
 30
0.0
 11
1257.4826535497
 21
450.8025711031018
 31
0.0
  0
LINE
  5
FB5
330
2
100
AcDbEntity
  8
CENTER
100
AcDbLine
 10
1399.4826535497
 20
510.8025711031873
 30
0.0
 11
1215.4826535497
 21
510.8025711031873
 31
0.0
  0
LINE
  5
FB6
330
2
100
AcDbEntity
  8
0
100
AcDbLine
 10
1351.482650220889
 20
578.3025711031018
 30
0.0
 11
1262.4826535497
 21
577.5258798987738
 31
0.0
  0
LINE
  5
FB7
330
2
100
AcDbEntity
  8
0
100
AcDbLine
 10
1262.4826535497
 20
570.8025711031019
 30
0.0
 11
1257.4826535497
 21
570.8025711031019
 31
0.0
  0
LINE
  5
FB8
330
2
100
AcDbEntity
  8
0
100
AcDbLine
 10
1262.4826535497
 20
444.0792623074281
 30
0.0
 11
1351.482650220889
 21
443.3025711031019
 31
0.0
  0
LINE
  5
FB9
330
2
100
AcDbEntity
  8
0
100
AcDbLine
 10
1262.4826535497
 20
450.8025711031018
 30
0.0
 11
1257.4826535497
 21
450.8025711031018
 31
0.0
  0
LINE
  5
FBA
330
2
100
AcDbEntity
  8
0
100
AcDbLine
 10
1264.482653549783
 20
462.5487944268948
 30
0.0
 11
1264.4826535497
 21
559.0563477793016
 31
0.0
  0
LINE
  5
FBB
330
2
100
AcDbEntity
  8
0
100
AcDbLine
 10
1351.482650220889
 20
578.3025711031018
 30
0.0
 11
1351.482650220889
 21
561.9496265417015
 31
0.0
  0
LINE
  5
FBC
330
2
100
AcDbEntity
  8
0
100
AcDbLine
 10
1351.482650220889
 20
459.6555156646732
 30
0.0
 11
1351.482650220889
 21
443.3025711031019
 31
0.0
  0
LINE
  5
FBD
330
2
100
AcDbEntity
  8
0
100
AcDbLine
 10
1262.4826535497
 20
444.0792623074281
 30
0.0
 11
1262.4826535497
 21
577.5258798987738
 31
0.0
  0
LINE
  5
FBE
330
2
100
AcDbEntity
  8
0
100
AcDbLine
 10
1315.482650220889
 20
562.3025662644281
 30
0.0
 11
1358.561078783319
 21
561.8802304690866
 31
0.0
  0
ARC
  5
FBF
330
2
100
AcDbEntity
  8
0
100
AcDbCircle
 10
1358.482651502796
 20
553.8806149057195
 30
0.0
 40
8.0
100
AcDbArc
 50
0.0324355144522694
 51
89.438296980908
  0
LINE
  5
FC0
330
2
100
AcDbEntity
  8
0
100
AcDbLine
 10
1315.482650220889
 20
562.3025662644281
 30
0.0
 11
1272.404221658459
 21
561.8802304690866
 31
0.0
  0
ARC
  5
FC1
330
2
100
AcDbEntity
  8
0
100
AcDbCircle
 10
1272.482648938983
 20
553.8806149057195
 30
0.0
 40
8.0
100
AcDbArc
 50
90.56170301909203
 51
180.0
  0
LINE
  5
FC2
330
2
100
AcDbEntity
  8
0
100
AcDbLine
 10
1315.482650220889
 20
459.3025759419465
 30
0.0
 11
1272.404221658459
 21
459.724911737288
 31
0.0
  0
LINE
  5
FC3
330
2
100
AcDbEntity
  8
0
100
AcDbLine
 10
1315.482650220889
 20
459.3025759419465
 30
0.0
 11
1358.561078783319
 21
459.724911737288
 31
0.0
  0
ARC
  5
FC4
330
2
100
AcDbEntity
  8
0
100
AcDbCircle
 10
1272.482648938983
 20
467.724527300657
 30
0.0
 40
8.0
100
AcDbArc
 50
180.0
 51
269.4382969809079
  0
ARC
  5
FC5
330
2
100
AcDbEntity
  8
0
100
AcDbCircle
 10
1358.482651502796
 20
467.724527300657
 30
0.0
 40
8.0
100
AcDbArc
 50
270.5617030190919
 51
359.9675644788776
  0
LINE
  5
FC6
330
2
100
AcDbEntity
  8
0
100
AcDbLine
 10
1268.990778905476
 20
561.0783120144547
 30
0.0
 11
1266.465200478702
 21
561.0562716254293
 31
0.0
  0
LINE
  5
FC7
330
2
100
AcDbEntity
  8
0
100
AcDbLine
 10
1245.412854556295
 20
554.3699752076113
 30
0.0
 11
1255.552452543105
 21
554.7240577716488
 31
0.0
  0
LINE
  5
FC8
330
2
100
AcDbEntity
  8
0
100
AcDbLine
 10
1245.412854556295
 20
467.2351669987634
 30
0.0
 11
1255.552452543105
 21
466.8810844347277
 31
0.0
  0
ARC
  5
FC9
330
2
100
AcDbEntity
  8
0
100
AcDbCircle
 10
1255.4826535497
 20
464.8823027806898
 30
0.0
 40
2.0
100
AcDbArc
 50
0.0
 51
87.99999999999636
  0
ARC
  5
FCA
330
2
100
AcDbEntity
  8
0
100
AcDbCircle
 10
1255.4826535497
 20
556.7228394256867
 30
0.0
 40
2.0
100
AcDbArc
 50
272.0000000000036
 51
0.0
  0
ARC
  5
FCB
330
2
100
AcDbEntity
  8
0
100
AcDbCircle
 10
1245.4826535497
 20
552.3711935535734
 30
0.0
 40
2.0
100
AcDbArc
 50
92.00000000000365
 51
180.0
  0
ARC
  5
FCC
330
2
100
AcDbEntity
  8
0
100
AcDbCircle
 10
1245.4826535497
 20
469.2339486528013
 30
0.0
 40
2.0
100
AcDbArc
 50
180.0
 51
267.9999999999963
  0
ARC
  5
FCD
330
2
100
AcDbEntity
  8
0
100
AcDbCircle
 10
1266.4826535497
 20
559.0563477793016
 30
0.0
 40
2.0
100
AcDbArc
 50
90.49999999996549
 51
180.0
  0
ARC
  5
FCE
330
2
100
AcDbEntity
  8
0
100
AcDbCircle
 10
1266.482653549783
 20
462.5487944268985
 30
0.0
 40
2.0
100
AcDbArc
 50
180.0000000001042
 51
269.5000000000866
  0
LINE
  5
FCF
330
2
100
AcDbEntity
  8
0
100
AcDbLine
 10
1268.990773679492
 20
460.5268302373565
 30
0.0
 11
1266.46520047879
 21
460.5488705807707
 31
0.0
  0
ARC
  5
FD0
330
2
100
AcDbEntity
  8
0
100
AcDbCircle
 10
1369.982650220889
 20
576.1410478922876
 30
0.0
 40
2.0
100
AcDbArc
 50
0.0
 51
89.49999999998238
  0
LINE
  5
FD1
330
2
100
AcDbEntity
  8
0
100
AcDbLine
 10
1372.568436658516
 20
565.2167846655607
 30
0.0
 11
1373.396863783262
 21
564.3883575408158
 31
0.0
  0
LINE
  5
FD2
330
2
100
AcDbEntity
  8
0
100
AcDbLine
 10
1382.482650220889
 20
552.7252208339973
 30
0.0
 11
1382.482650220889
 21
468.8799213723755
 31
0.0
  0
LINE
  5
FD3
330
2
100
AcDbEntity
  8
0
100
AcDbLine
 10
1373.982650220889
 20
555.8025711031873
 30
0.0
 11
1374.482650220889
 21
555.3025711031873
 31
0.0
  0
LINE
  5
FD4
330
2
100
AcDbEntity
  8
0
100
AcDbLine
 10
1377.982650220889
 20
553.1025711031884
 30
0.0
 11
1377.78265022089
 21
553.3025711031873
 31
0.0
  0
LINE
  5
FD5
330
2
100
AcDbEntity
  8
0
100
AcDbLine
 10
1379.78265022089
 20
552.6025711031884
 30
0.0
 11
1378.18265022089
 21
552.6025711031884
 31
0.0
  0
LINE
  5
FD6
330
2
100
AcDbEntity
  8
0
100
AcDbLine
 10
1381.482650220889
 20
553.3025711031873
 30
0.0
 11
1382.482650220889
 21
552.7252208339992
 31
0.0
  0
LINE
  5
FD7
330
2
100
AcDbEntity
  8
0
100
AcDbLine
 10
1381.482650220889
 20
553.3025711031873
 30
0.0
 11
1380.18265022089
 21
553.3025711031873
 31
0.0
  0
LINE
  5
FD8
330
2
100
AcDbEntity
  8
0
100
AcDbLine
 10
1377.78265022089
 20
553.3025711031873
 30
0.0
 11
1374.482650220889
 21
553.3025711031873
 31
0.0
  0
LINE
  5
FD9
330
2
100
AcDbEntity
  8
0
100
AcDbLine
 10
1373.982650220894
 20
458.630998227934
 30
0.0
 11
1373.982650220882
 21
562.9741439784424
 31
0.0
  0
LINE
  5
FDA
330
2
100
AcDbEntity
  8
0
100
AcDbLine
 10
1373.982650220892
 20
465.8025711031874
 30
0.0
 11
1374.482650220893
 21
466.3025711031874
 31
0.0
  0
LINE
  5
FDB
330
2
100
AcDbEntity
  8
0
100
AcDbLine
 10
1377.982650220893
 20
468.5025711031881
 30
0.0
 11
1377.982650220893
 21
553.1025711031848
 31
0.0
  0
LINE
  5
FDC
330
2
100
AcDbEntity
  8
0
100
AcDbLine
 10
1377.982650220893
 20
468.5025711031881
 30
0.0
 11
1377.782650220894
 21
468.3025711031874
 31
0.0
  0
LINE
  5
FDD
330
2
100
AcDbEntity
  8
0
100
AcDbLine
 10
1379.982650220893
 20
468.5025711031881
 30
0.0
 11
1379.982650220958
 21
553.1025711031884
 31
0.0
  0
LINE
  5
FDE
330
2
100
AcDbEntity
  8
0
100
AcDbLine
 10
1381.482650220893
 20
468.3025711031874
 30
0.0
 11
1380.182650220893
 21
468.3025711031874
 31
0.0
  0
LINE
  5
FDF
330
2
100
AcDbEntity
  8
0
100
AcDbLine
 10
1379.782650220894
 20
469.0025711031881
 30
0.0
 11
1378.182650220893
 21
469.0025711031881
 31
0.0
  0
LINE
  5
FE0
330
2
100
AcDbEntity
  8
0
100
AcDbLine
 10
1381.482650220893
 20
468.3025711031874
 30
0.0
 11
1382.482650220893
 21
468.8799213723774
 31
0.0
  0
LINE
  5
FE1
330
2
100
AcDbEntity
  8
0
100
AcDbLine
 10
1374.482650220893
 20
466.3025711031874
 30
0.0
 11
1374.482650220893
 21
555.3025711031836
 31
0.0
  0
LINE
  5
FE2
330
2
100
AcDbEntity
  8
0
100
AcDbLine
 10
1377.782650220894
 20
468.3025711031874
 30
0.0
 11
1374.482650220893
 21
468.3025711031874
 31
0.0
  0
LINE
  5
FE3
330
2
100
AcDbEntity
  8
0
100
AcDbLine
 10
1371.982650220894
 20
445.464094314089
 30
0.0
 11
1371.982650220894
 21
576.1410478922876
 31
0.0
  0
LINE
  5
FE4
330
2
100
AcDbEntity
  8
0
100
AcDbLine
 10
1372.568436658521
 20
456.388357540814
 30
0.0
 11
1373.396863783268
 21
457.2167846655607
 31
0.0
  0
LINE
  5
FE5
330
2
100
AcDbEntity
  8
0
100
AcDbLine
 10
1370.000103291886
 20
578.1409717384153
 30
0.0
 11
1351.482650220889
 21
578.3025711031873
 31
0.0
  0
ARC
  5
FE6
330
2
100
AcDbEntity
  8
0
100
AcDbCircle
 10
1371.982650220894
 20
458.630998227934
 30
0.0
 40
2.0
100
AcDbArc
 50
314.9999999999821
 51
0.0
  0
ARC
  5
FE7
330
2
100
AcDbEntity
  8
0
100
AcDbCircle
 10
1373.982650220894
 20
454.9741439784407
 30
0.0
 40
2.0
100
AcDbArc
 50
134.9999999999821
 51
180.0
  0
ARC
  5
FE8
330
2
100
AcDbEntity
  8
0
100
AcDbCircle
 10
1371.982650220889
 20
562.9741439784424
 30
0.0
 40
2.0
100
AcDbArc
 50
0.0
 51
45.00000000001784
  0
ARC
  5
FE9
330
2
100
AcDbEntity
  8
0
100
AcDbCircle
 10
1373.982650220889
 20
566.630998227934
 30
0.0
 40
2.0
100
AcDbArc
 50
180.0
 51
225.0000000000178
  0
ARC
  5
FEA
330
2
100
AcDbEntity
  8
0
100
AcDbCircle
 10
1380.18265022089
 20
553.1025711031884
 30
0.0
 40
0.2
100
AcDbArc
 50
90.0
 51
180.0
  0
ARC
  5
FEB
330
2
100
AcDbEntity
  8
0
100
AcDbCircle
 10
1379.78265022089
 20
552.8025711031873
 30
0.0
 40
0.2
100
AcDbArc
 50
270.0
 51
0.0
  0
ARC
  5
FEC
330
2
100
AcDbEntity
  8
0
100
AcDbCircle
 10
1378.18265022089
 20
552.8025711031873
 30
0.0
 40
0.2
100
AcDbArc
 50
180.0
 51
270.0
  0
ARC
  5
FED
330
2
100
AcDbEntity
  8
0
100
AcDbCircle
 10
1380.182650220893
 20
468.5025711031881
 30
0.0
 40
0.2
100
AcDbArc
 50
180.0
 51
270.0
  0
ARC
  5
FEE
330
2
100
AcDbEntity
  8
0
100
AcDbCircle
 10
1379.782650220894
 20
468.8025711031873
 30
0.0
 40
0.2
100
AcDbArc
 50
0.0
 51
90.0
  0
ARC
  5
FEF
330
2
100
AcDbEntity
  8
0
100
AcDbCircle
 10
1378.182650220893
 20
468.8025711031873
 30
0.0
 40
0.2
100
AcDbArc
 50
90.0
 51
180.0
  0
LINE
  5
FF0
330
2
100
AcDbEntity
  8
0
100
AcDbLine
 10
1381.482650220889
 20
553.3025711031873
 30
0.0
 11
1381.482650220893
 21
468.3025711031874
 31
0.0
  0
ARC
  5
FF1
330
2
100
AcDbEntity
  8
0
100
AcDbCircle
 10
1369.982650220889
 20
445.464094314089
 30
0.0
 40
2.0
100
AcDbArc
 50
270.5000000000175
 51
0.0
  0
LINE
  5
FF2
330
2
100
AcDbEntity
  8
0
100
AcDbLine
 10
1370.000103291886
 20
443.4641704679593
 30
0.0
 11
1351.482650220889
 21
443.3025711031874
 31
0.0
  0
LINE
  5
FF3
330
2
100
AcDbEntity
  8
0
100
AcDbLine
 10
1366.482650220889
 20
553.87608605378
 30
0.0
 11
1366.482650220889
 21
467.7290561535224
 31
0.0
  0
ARC
  5
FF4
330
2
100
AcDbEntity
  8
0
100
AcDbCircle
 10
1364.482650220889
 20
559.6890456651376
 30
0.0
 40
2.0
100
AcDbArc
 50
17.86424478083681
 51
89.50000000000846
  0
LINE
  5
FF5
330
2
100
AcDbEntity
  8
0
100
AcDbLine
 10
1364.500103291886
 20
561.6889695112654
 30
0.0
 11
1360.038287662725
 21
561.7279071863682
 31
0.0
  0
ARC
  5
FF6
330
2
100
AcDbEntity
  8
0
100
AcDbCircle
 10
1364.482650220889
 20
461.9160965412389
 30
0.0
 40
2.0
100
AcDbArc
 50
270.4999999999915
 51
342.1357552191631
  0
LINE
  5
FF7
330
2
100
AcDbEntity
  8
0
100
AcDbLine
 10
1364.500103291886
 20
459.9161726951111
 30
0.0
 11
1360.038287662726
 21
459.8772350200084
 31
0.0
  0
LINE
  5
FF8
330
2
100
AcDbEntity
  8
CENTER
100
AcDbLine
 10
1379.127480813455
 20
553.8025711031873
 30
0.0
 11
1340.735749409871
 21
553.8025711031873
 31
0.0
  0
LINE
  5
FF9
330
2
100
AcDbEntity
  8
CENTER
100
AcDbLine
 10
1379.127480813455
 20
467.8025711031891
 30
0.0
 11
1340.735749409871
 21
467.8025711031891
 31
0.0
  0
LINE
  5
FFA
330
2
100
AcDbEntity
  8
0
100
AcDbLine
 10
1371.482650220889
 20
559.4365456994014
 30
0.0
 11
1371.482650220889
 21
548.1685965069714
 31
0.0
  0
LINE
  5
FFB
330
2
100
AcDbEntity
  8
0
100
AcDbLine
 10
1363.482650220889
 20
560.3025711031873
 30
0.0
 11
1363.482650220889
 21
560.1256139304637
 31
0.0
  0
LINE
  5
FFC
330
2
100
AcDbEntity
  8
0
100
AcDbLine
 10
1370.982650220889
 20
547.3025711031873
 30
0.0
 11
1371.482650220889
 21
548.1685965069714
 31
0.0
  0
LINE
  5
FFD
330
2
100
AcDbEntity
  8
0
100
AcDbLine
 10
1366.482650220889
 20
547.3025711031873
 30
0.0
 11
1370.982650220889
 21
547.3025711031873
 31
0.0
  0
LINE
  5
FFE
330
2
100
AcDbEntity
  8
0
100
AcDbLine
 10
1370.982650220889
 20
560.3025711031873
 30
0.0
 11
1371.482650220889
 21
559.4365456994032
 31
0.0
  0
LINE
  5
FFF
330
2
100
AcDbEntity
  8
0
100
AcDbLine
 10
1363.253236225637
 20
560.3025711031873
 30
0.0
 11
1363.482650220889
 21
560.3025711031873
 31
0.0
  0
LINE
  5
1000
330
2
100
AcDbEntity
  8
0
100
AcDbLine
 10
1363.482650220889
 20
560.3025711031873
 30
0.0
 11
1370.982650220889
 21
560.3025711031873
 31
0.0
  0
LINE
  5
1001
330
2
100
AcDbEntity
  8
0
100
AcDbLine
 10
1370.982650220889
 20
560.3025711031873
 30
0.0
 11
1370.982650220889
 21
547.3025711031873
 31
0.0
  0
LINE
  5
1002
330
2
100
AcDbEntity
  8
0
100
AcDbLine
 10
1371.482650220889
 20
473.4365456994033
 30
0.0
 11
1371.482650220889
 21
462.1685965069732
 31
0.0
  0
LINE
  5
1003
330
2
100
AcDbEntity
  8
0
100
AcDbLine
 10
1363.482650220889
 20
461.479528275911
 30
0.0
 11
1363.482650220889
 21
461.3025711031892
 31
0.0
  0
LINE
  5
1004
330
2
100
AcDbEntity
  8
0
100
AcDbLine
 10
1370.982650220889
 20
461.3025711031892
 30
0.0
 11
1371.482650220889
 21
462.1685965069732
 31
0.0
  0
LINE
  5
1005
330
2
100
AcDbEntity
  8
0
100
AcDbLine
 10
1363.253236225637
 20
461.3025711031892
 30
0.0
 11
1363.482650220889
 21
461.3025711031892
 31
0.0
  0
LINE
  5
1006
330
2
100
AcDbEntity
  8
0
100
AcDbLine
 10
1363.482650220889
 20
461.3025711031892
 30
0.0
 11
1370.982650220889
 21
461.3025711031892
 31
0.0
  0
LINE
  5
1007
330
2
100
AcDbEntity
  8
0
100
AcDbLine
 10
1370.982650220889
 20
474.3025711031892
 30
0.0
 11
1371.482650220889
 21
473.4365456994051
 31
0.0
  0
LINE
  5
1008
330
2
100
AcDbEntity
  8
0
100
AcDbLine
 10
1366.482650220889
 20
474.3025711031892
 30
0.0
 11
1370.982650220889
 21
474.3025711031892
 31
0.0
  0
LINE
  5
1009
330
2
100
AcDbEntity
  8
0
100
AcDbLine
 10
1370.982650220889
 20
474.3025711031892
 30
0.0
 11
1370.982650220889
 21
461.3025711031892
 31
0.0
  0
LINE
  5
100A
330
2
100
AcDbEntity
  8
0
100
AcDbLine
 10
1230.482653549699
 20
486.3025711031
 30
0.0
 11
1230.482653549699
 21
535.3025711031
 31
0.0
  0
LINE
  5
100B
330
2
100
AcDbEntity
  8
0
100
AcDbLine
 10
1230.482653549699
 20
535.3025711031
 30
0.0
 11
1243.4826535497
 21
535.3025711031
 31
0.0
  0
LINE
  5
100C
330
2
100
AcDbEntity
  8
0
100
AcDbLine
 10
1230.482653549699
 20
486.3025711031
 30
0.0
 11
1243.4826535497
 21
486.3025711031
 31
0.0
  0
LINE
  5
100D
330
2
100
AcDbEntity
  8
0
100
AcDbLine
 10
1382.482650220889
 20
486.3025711031
 30
0.0
 11
1384.4826535497
 21
486.3025711031
 31
0.0
  0
LINE
  5
100E
330
2
100
AcDbEntity
  8
0
100
AcDbLine
 10
1382.482650220889
 20
535.3025711031
 30
0.0
 11
1384.4826535497
 21
535.3025711031
 31
0.0
  0
LINE
  5
100F
330
2
100
AcDbEntity
  8
0
100
AcDbLine
 10
1384.4826535497
 20
486.3025711031
 30
0.0
 11
1384.4826535497
 21
535.3025711031
 31
0.0
  0
LINE
  5
1010
330
2
100
AcDbEntity
  8
CENTER
100
AcDbLine
 10
881.547418202359
 20
439.1604354795439
 30
0.0
 11
738.2631469548969
 21
582.4447067270055
 31
0.0
  0
LINE
  5
1011
330
2
100
AcDbEntity
  8
CENTER
100
AcDbLine
 10
738.2631469548969
 20
439.1604354795433
 30
0.0
 11
881.5474182023582
 21
582.4447067270064
 31
0.0
  0
CIRCLE
  5
1012
330
2
100
AcDbEntity
  8
CENTER
100
AcDbCircle
 10
809.905282578628
 20
510.8025711032745
 30
0.0
 40
80.0
  0
CIRCLE
  5
1013
330
2
100
AcDbEntity
  8
0
100
AcDbCircle
 10
809.905282578628
 20
510.8025711032745
 30
0.0
 40
60.0
  0
LINE
  5
1014
330
2
100
AcDbEntity
  8
CENTER
100
AcDbLine
 10
809.905282578628
 20
415.8025711032744
 30
0.0
 11
809.905282578628
 21
605.8025711032744
 31
0.0
  0
LINE
  5
1015
330
2
100
AcDbEntity
  8
0
100
AcDbLine
 10
877.4052825786279
 20
453.3025711032744
 30
0.0
 11
877.4052825786279
 21
568.3025711032744
 31
0.0
  0
ARC
  5
1016
330
2
100
AcDbEntity
  8
0
100
AcDbCircle
 10
809.905282578628
 20
238.3025711032745
 30
0.0
 40
340.0
100
AcDbArc
 50
85.33227731211809
 51
94.66772268788192
  0
ARC
  5
1017
330
2
100
AcDbEntity
  8
0
100
AcDbCircle
 10
752.4052825786279
 20
568.3025711032744
 30
0.0
 40
10.0
100
AcDbArc
 50
90.0
 51
180.0
  0
CIRCLE
  5
1018
330
2
100
AcDbEntity
  8
0
100
AcDbCircle
 10
753.3367400837037
 20
567.3711135981987
 30
0.0
 40
4.0
  0
CIRCLE
  5
1019
330
2
100
AcDbEntity
  8
HOJO
100
AcDbCircle
 10
753.3367400837037
 20
567.3711135981987
 30
0.0
 40
5.0
  0
LINE
  5
101A
330
2
100
AcDbEntity
  8
0
100
AcDbLine
 10
742.4052825786279
 20
564.3025711032744
 30
0.0
 11
742.4052825786279
 21
568.3025711032744
 31
0.0
  0
LINE
  5
101B
330
2
100
AcDbEntity
  8
0
100
AcDbLine
 10
752.4052825786279
 20
578.3025711032744
 30
0.0
 11
756.4052825786279
 21
578.3025711032744
 31
0.0
  0
ARC
  5
101C
330
2
100
AcDbEntity
  8
0
100
AcDbCircle
 10
756.4052825786279
 20
570.3025711032744
 30
0.0
 40
8.0
100
AcDbArc
 50
80.57047887832746
 51
90.0
  0
ARC
  5
101D
330
2
100
AcDbEntity
  8
0
100
AcDbCircle
 10
867.4052825786279
 20
568.3025711032744
 30
0.0
 40
10.0
100
AcDbArc
 50
0.0
 51
90.0
  0
CIRCLE
  5
101E
330
2
100
AcDbEntity
  8
0
100
AcDbCircle
 10
866.4738250735505
 20
567.3711135981987
 30
0.0
 40
4.0
  0
CIRCLE
  5
101F
330
2
100
AcDbEntity
  8
HOJO
100
AcDbCircle
 10
866.4738250735505
 20
567.3711135981987
 30
0.0
 40
5.0
  0
ARC
  5
1020
330
2
100
AcDbEntity
  8
0
100
AcDbCircle
 10
863.405282578628
 20
570.3025711032744
 30
0.0
 40
8.0
100
AcDbArc
 50
90.0
 51
99.42952112167255
  0
LINE
  5
1021
330
2
100
AcDbEntity
  8
0
100
AcDbLine
 10
863.405282578628
 20
578.3025711032744
 30
0.0
 11
867.4052825786279
 21
578.3025711032744
 31
0.0
  0
LINE
  5
1022
330
2
100
AcDbEntity
  8
CENTER
100
AcDbLine
 10
714.9052825786279
 20
510.8025711032745
 30
0.0
 11
1043.875304578626
 21
510.8025711032745
 31
0.0
  0
CIRCLE
  5
1023
330
2
100
AcDbEntity
  8
0
100
AcDbCircle
 10
809.905282578628
 20
510.8025711032745
 30
0.0
 40
43.5
  0
ARC
  5
1024
330
2
100
AcDbEntity
  8
0
100
AcDbCircle
 10
1082.405282578626
 20
510.8025711032745
 30
0.0
 40
340.0
100
AcDbArc
 50
175.3322773121172
 51
184.6677226878827
  0
LINE
  5
1025
330
2
100
AcDbEntity
  8
0
100
AcDbLine
 10
958.3753045786256
 20
560.3025711032744
 30
0.0
 11
958.3753045786256
 21
461.3025711032745
 31
0.0
  0
LINE
  5
1026
330
2
100
AcDbEntity
  8
0
100
AcDbLine
 10
973.8753045786275
 20
459.3025711032744
 30
0.0
 11
973.8753045786257
 21
562.3025711032744
 31
0.0
  0
LINE
  5
1027
330
2
100
AcDbEntity
  8
0
100
AcDbLine
 10
928.905282578628
 20
467.8025711032744
 30
0.0
 11
928.905282578628
 21
553.8025711032743
 31
0.0
  0
ARC
  5
1028
330
2
100
AcDbEntity
  8
0
100
AcDbCircle
 10
809.905282578628
 20
783.3025711032744
 30
0.0
 40
340.0
100
AcDbArc
 50
265.332277312118
 51
274.6677226878819
  0
CIRCLE
  5
1029
330
2
100
AcDbEntity
  8
0
100
AcDbCircle
 10
753.3367400837037
 20
454.2340286083502
 30
0.0
 40
4.0
  0
CIRCLE
  5
102A
330
2
100
AcDbEntity
  8
HOJO
100
AcDbCircle
 10
753.3367400837037
 20
454.2340286083502
 30
0.0
 40
5.0
  0
LINE
  5
102B
330
2
100
AcDbEntity
  8
0
100
AcDbLine
 10
752.4052825786279
 20
443.3025711032745
 30
0.0
 11
756.4052825786279
 21
443.3025711032745
 31
0.0
  0
ARC
  5
102C
330
2
100
AcDbEntity
  8
0
100
AcDbCircle
 10
752.4052825786279
 20
453.3025711032744
 30
0.0
 40
10.0
100
AcDbArc
 50
180.0
 51
270.0
  0
LINE
  5
102D
330
2
100
AcDbEntity
  8
0
100
AcDbLine
 10
742.4052825786279
 20
453.3025711032744
 30
0.0
 11
742.4052825786279
 21
457.3025711032745
 31
0.0
  0
ARC
  5
102E
330
2
100
AcDbEntity
  8
0
100
AcDbCircle
 10
750.4052825786261
 20
457.3025711032745
 30
0.0
 40
8.0
100
AcDbArc
 50
170.5704788783811
 51
180.0
  0
ARC
  5
102F
330
2
100
AcDbEntity
  8
0
100
AcDbCircle
 10
756.4052825786279
 20
451.3025711032745
 30
0.0
 40
8.0
100
AcDbArc
 50
270.0
 51
279.4295211216724
  0
LINE
  5
1030
330
2
100
AcDbEntity
  8
0
100
AcDbLine
 10
885.3426736932783
 20
459.8025711032745
 30
0.0
 11
920.905282578628
 21
459.8025711032745
 31
0.0
  0
CIRCLE
  5
1031
330
2
100
AcDbEntity
  8
0
100
AcDbCircle
 10
866.4738250735505
 20
454.234028608352
 30
0.0
 40
4.0
  0
CIRCLE
  5
1032
330
2
100
AcDbEntity
  8
HOJO
100
AcDbCircle
 10
866.4738250735505
 20
454.234028608352
 30
0.0
 40
5.0
  0
ARC
  5
1033
330
2
100
AcDbEntity
  8
0
100
AcDbCircle
 10
867.4052825786279
 20
453.3025711032744
 30
0.0
 40
10.0
100
AcDbArc
 50
270.0
 51
0.0
  0
ARC
  5
1034
330
2
100
AcDbEntity
  8
0
100
AcDbCircle
 10
863.405282578628
 20
451.3025711032745
 30
0.0
 40
8.0
100
AcDbArc
 50
260.5704788783274
 51
270.0
  0
LINE
  5
1035
330
2
100
AcDbEntity
  8
0
100
AcDbLine
 10
863.405282578628
 20
443.3025711032745
 30
0.0
 11
867.4052825786279
 21
443.3025711032745
 31
0.0
  0
ARC
  5
1036
330
2
100
AcDbEntity
  8
0
100
AcDbCircle
 10
920.905282578628
 20
467.8025711032744
 30
0.0
 40
8.0
100
AcDbArc
 50
270.0
 51
0.0
  0
LINE
  5
1037
330
2
100
AcDbEntity
  8
0
100
AcDbLine
 10
973.8753045786257
 20
459.8025711032745
 30
0.0
 11
960.3753045786257
 21
459.8025711032745
 31
0.0
  0
ARC
  5
1038
330
2
100
AcDbEntity
  8
0
100
AcDbCircle
 10
960.3753045786257
 20
461.8025711032744
 30
0.0
 40
2.0
100
AcDbArc
 50
180.0
 51
270.0
  0
ARC
  5
1039
330
2
100
AcDbEntity
  8
0
100
AcDbCircle
 10
953.3753045786257
 20
465.8025711032744
 30
0.0
 40
5.0
100
AcDbArc
 50
0.0
 51
90.0
  0
ARC
  5
103A
330
2
100
AcDbEntity
  8
0
100
AcDbCircle
 10
750.4052825786261
 20
564.3025711032744
 30
0.0
 40
8.0
100
AcDbArc
 50
180.0
 51
189.4295211216188
  0
LINE
  5
103B
330
2
100
AcDbEntity
  8
0
100
AcDbLine
 10
885.3426736932783
 20
561.8025711032744
 30
0.0
 11
920.905282578628
 21
561.8025711032744
 31
0.0
  0
LINE
  5
103C
330
2
100
AcDbEntity
  8
0
100
AcDbLine
 10
949.3753045786256
 20
550.8025711032744
 30
0.0
 11
953.3753045786257
 21
550.8025711032744
 31
0.0
  0
ARC
  5
103D
330
2
100
AcDbEntity
  8
0
100
AcDbCircle
 10
920.905282578628
 20
553.8025711032743
 30
0.0
 40
8.0
100
AcDbArc
 50
0.0
 51
90.0
  0
ARC
  5
103E
330
2
100
AcDbEntity
  8
0
100
AcDbCircle
 10
953.3753045786257
 20
555.8025711032744
 30
0.0
 40
5.0
100
AcDbArc
 50
270.0
 51
0.0
  0
LINE
  5
103F
330
2
100
AcDbEntity
  8
0
100
AcDbLine
 10
973.8753045786257
 20
561.8025711032744
 30
0.0
 11
960.3753045786257
 21
561.8025711032744
 31
0.0
  0
ARC
  5
1040
330
2
100
AcDbEntity
  8
0
100
AcDbCircle
 10
960.3753045786257
 20
559.8025711032744
 30
0.0
 40
2.0
100
AcDbArc
 50
90.0
 51
180.0
  0
LINE
  5
1041
330
2
100
AcDbEntity
  8
CENTER
100
AcDbLine
 10
753.3367400837037
 20
558.3711135981986
 30
0.0
 11
753.3367400837037
 21
576.3711135981987
 31
0.0
  0
LINE
  5
1042
330
2
100
AcDbEntity
  8
CENTER
100
AcDbLine
 10
744.3367400837037
 20
567.3711135981987
 30
0.0
 11
762.3367400837037
 21
567.3711135981987
 31
0.0
  0
LINE
  5
1043
330
2
100
AcDbEntity
  8
CENTER
100
AcDbLine
 10
866.4738250735505
 20
558.3711135981986
 30
0.0
 11
866.4738250735505
 21
576.3711135981987
 31
0.0
  0
LINE
  5
1044
330
2
100
AcDbEntity
  8
CENTER
100
AcDbLine
 10
875.4738250735504
 20
567.3711135981987
 30
0.0
 11
857.4738250735505
 21
567.3711135981987
 31
0.0
  0
LINE
  5
1045
330
2
100
AcDbEntity
  8
CENTER
100
AcDbLine
 10
866.4738250735505
 20
463.2340286083502
 30
0.0
 11
866.4738250735505
 21
445.2340286083502
 31
0.0
  0
LINE
  5
1046
330
2
100
AcDbEntity
  8
CENTER
100
AcDbLine
 10
875.4738250735504
 20
454.234028608352
 30
0.0
 11
857.4738250735505
 21
454.234028608352
 31
0.0
  0
LINE
  5
1047
330
2
100
AcDbEntity
  8
CENTER
100
AcDbLine
 10
753.3367400837037
 20
463.2340286083502
 30
0.0
 11
753.3367400837037
 21
445.2340286083502
 31
0.0
  0
LINE
  5
1048
330
2
100
AcDbEntity
  8
CENTER
100
AcDbLine
 10
744.3367400837037
 20
454.234028608352
 30
0.0
 11
762.3367400837037
 21
454.234028608352
 31
0.0
  0
CIRCLE
  5
1049
330
2
100
AcDbEntity
  8
0
100
AcDbCircle
 10
809.9052825786261
 20
510.8025711032762
 30
0.0
 40
36.0
  0
ARC
  5
104A
330
2
100
AcDbEntity
  8
0
100
AcDbCircle
 10
774.0993829547447
 20
344.7618802294121
 30
0.0
 40
100.0
100
AcDbArc
 50
85.33227731211809
 51
99.42952112167255
  0
ARC
  5
104B
330
2
100
AcDbEntity
  8
0
100
AcDbCircle
 10
845.7111822025094
 20
344.7618802294121
 30
0.0
 40
100.0
100
AcDbArc
 50
80.57047887832746
 51
94.66772268788192
  0
ARC
  5
104C
330
2
100
AcDbEntity
  8
0
100
AcDbCircle
 10
643.8645917047656
 20
474.996671479393
 30
0.0
 40
100.0
100
AcDbArc
 50
350.5704788783811
 51
4.667722687882756
  0
ARC
  5
104D
330
2
100
AcDbEntity
  8
0
100
AcDbCircle
 10
643.8645917047656
 20
546.6084707271577
 30
0.0
 40
100.0
100
AcDbArc
 50
355.3322773121172
 51
9.429521121618869
  0
ARC
  5
104E
330
2
100
AcDbEntity
  8
0
100
AcDbCircle
 10
774.0993829547447
 20
676.8432619771367
 30
0.0
 40
100.0
100
AcDbArc
 50
260.5704788783274
 51
274.6677226878819
  0
ARC
  5
104F
330
2
100
AcDbEntity
  8
0
100
AcDbCircle
 10
845.7111822025094
 20
676.8432619771367
 30
0.0
 40
100.0
100
AcDbArc
 50
265.332277312118
 51
279.4295211216724
  0
LINE
  5
1050
330
2
100
AcDbEntity
  8
CENTER
100
AcDbLine
 10
727.4052825786261
 20
845.8794590787977
 30
0.0
 11
1043.875304578626
 21
845.8794590787977
 31
0.0
  0
LINE
  5
1051
330
2
100
AcDbEntity
  8
0
100
AcDbLine
 10
973.8753045786257
 20
896.8794590787977
 30
0.0
 11
973.8753045786257
 21
794.8794590787977
 31
0.0
  0
LINE
  5
1052
330
2
100
AcDbEntity
  8
0
100
AcDbLine
 10
958.3243036705175
 20
894.931812975413
 30
0.0
 11
957.040076853284
 21
845.8891694369551
 31
0.0
  0
LINE
  5
1053
330
2
100
AcDbEntity
  8
CENTER
100
AcDbLine
 10
809.9052825786261
 20
929.8794624076084
 30
0.0
 11
809.905282578628
 21
745.8794624076083
 31
0.0
  0
LINE
  5
1055
330
2
100
AcDbEntity
  8
0
100
AcDbLine
 10
749.9052825786261
 20
787.8794590787976
 30
0.0
 11
869.9052825786262
 21
787.8794590787976
 31
0.0
  0
LINE
  5
1056
330
2
100
AcDbEntity
  8
0
100
AcDbLine
 10
743.1863372458986
 20
792.8794590787978
 30
0.0
 11
876.6242279113564
 21
792.8794590787975
 31
0.0
  0
LINE
  5
1057
330
2
100
AcDbEntity
  8
0
100
AcDbLine
 10
768.3366601282418
 20
773.8794590787977
 30
0.0
 11
851.4739050290122
 21
773.8794590787977
 31
0.0
  0
LINE
  5
1058
330
2
100
AcDbEntity
  8
0
100
AcDbLine
 10
749.9052825786261
 20
792.8794590787977
 30
0.0
 11
749.9052825786261
 21
787.8794590787976
 31
0.0
  0
LINE
  5
1059
330
2
100
AcDbEntity
  8
0
100
AcDbLine
 10
878.1286504921707
 20
794.8862366443392
 30
0.0
 11
926.7917571405746
 21
794.8794590787977
 31
0.0
  0
LINE
  5
105A
330
2
100
AcDbEntity
  8
0
100
AcDbLine
 10
869.9052825786262
 20
792.8794590787977
 30
0.0
 11
869.9052825786262
 21
787.8794590787976
 31
0.0
  0
LINE
  5
105C
330
2
100
AcDbEntity
  8
0
100
AcDbLine
 10
973.8753045786257
 20
794.8794590787977
 30
0.0
 11
973.8753045786257
 21
845.8794590787977
 31
0.0
  0
LINE
  5
105D
330
2
100
AcDbEntity
  8
0
100
AcDbLine
 10
949.2977531913917
 20
885.8794590787978
 30
0.0
 11
953.2164750867563
 21
885.8794590787978
 31
0.0
  0
LINE
  5
105E
330
2
100
AcDbEntity
  8
0
100
AcDbLine
 10
945.3278457158489
 20
845.8794590787977
 30
0.0
 11
946.2987812164652
 21
882.9579899237225
 31
0.0
  0
LINE
  5
105F
330
2
100
AcDbEntity
  8
0
100
AcDbLine
 10
973.8753045786257
 20
896.8794590787977
 30
0.0
 11
960.3236183204685
 21
896.8794590787977
 31
0.0
  0
ARC
  5
1060
330
2
100
AcDbEntity
  8
0
100
AcDbCircle
 10
885.3426736932783
 20
569.8025711032744
 30
0.0
 40
8.0
100
AcDbArc
 50
184.780191847234
 51
270.0
  0
ARC
  5
1061
330
2
100
AcDbEntity
  8
0
100
AcDbCircle
 10
885.3426736932783
 20
451.8025711032745
 30
0.0
 40
8.0
100
AcDbArc
 50
90.0
 51
175.2198081527651
  0
LINE
  5
1062
330
2
100
AcDbEntity
  8
0
100
AcDbLine
 10
802.7635118288621
 20
455.302571100917
 30
0.0
 11
805.6435130701943
 21
455.302571100917
 31
0.0
  0
LINE
  5
1063
330
2
100
AcDbEntity
  8
0
100
AcDbLine
 10
806.7635118288675
 20
463.3025711009298
 30
0.0
 11
802.7635118288621
 21
455.302571100917
 31
0.0
  0
ARC
  5
1064
330
2
100
AcDbEntity
  8
0
100
AcDbCircle
 10
813.403439068878
 20
460.5825711009249
 30
0.0
 40
2.720000000003957
100
AcDbArc
 50
307.5189678668328
 51
90.0
  0
LINE
  5
1065
330
2
100
AcDbEntity
  8
0
100
AcDbLine
 10
815.0599844485373
 20
458.4251982993094
 30
0.0
 11
817.047053328392
 21
455.302571100917
 31
0.0
  0
LINE
  5
1066
330
2
100
AcDbEntity
  8
0
100
AcDbLine
 10
814.1670520870597
 20
455.302571100917
 30
0.0
 11
817.047053328392
 21
455.302571100917
 31
0.0
  0
LINE
  5
1067
330
2
100
AcDbEntity
  8
0
100
AcDbLine
 10
808.2835118288699
 20
455.302571100917
 30
0.0
 11
810.6834390688732
 21
455.302571100917
 31
0.0
  0
LINE
  5
1068
330
2
100
AcDbEntity
  8
0
100
AcDbLine
 10
806.2435130701947
 20
456.5025711009196
 30
0.0
 11
805.6435130701943
 21
455.302571100917
 31
0.0
  0
LINE
  5
1069
330
2
100
AcDbEntity
  8
0
100
AcDbLine
 10
806.2435130701947
 20
456.5025711009196
 30
0.0
 11
808.2835118288699
 21
456.5025711009196
 31
0.0
  0
LINE
  5
106A
330
2
100
AcDbEntity
  8
0
100
AcDbLine
 10
808.2835118288699
 20
456.5025711009196
 30
0.0
 11
808.2835118288699
 21
455.302571100917
 31
0.0
  0
LINE
  5
106B
330
2
100
AcDbEntity
  8
0
100
AcDbLine
 10
807.5235130701971
 20
459.0625711009227
 30
0.0
 11
808.2835118288699
 21
459.0625711009227
 31
0.0
  0
LINE
  5
106C
330
2
100
AcDbEntity
  8
0
100
AcDbLine
 10
808.2835118288699
 20
460.5825686182682
 30
0.0
 11
808.2835118288699
 21
459.0625711009227
 31
0.0
  0
LINE
  5
106D
330
2
100
AcDbEntity
  8
0
100
AcDbLine
 10
808.2835118288699
 20
460.5825686182682
 30
0.0
 11
807.5235130701971
 21
459.0625711009227
 31
0.0
  0
LINE
  5
106E
330
2
100
AcDbEntity
  8
0
100
AcDbLine
 10
811.0235118288732
 20
460.2425711009249
 30
0.0
 11
814.1670520870597
 21
455.302571100917
 31
0.0
  0
LINE
  5
106F
330
2
100
AcDbEntity
  8
0
100
AcDbLine
 10
810.6834390688732
 20
460.5825711009249
 30
0.0
 11
810.6834390688732
 21
455.302571100917
 31
0.0
  0
LINE
  5
1070
330
2
100
AcDbEntity
  8
0
100
AcDbLine
 10
810.6834390688732
 20
460.5825711009249
 30
0.0
 11
813.2335118288761
 21
460.5825711009249
 31
0.0
  0
LINE
  5
1071
330
2
100
AcDbEntity
  8
0
100
AcDbLine
 10
811.0235118288732
 20
460.2425711009249
 30
0.0
 11
813.2335118288779
 21
460.2425711009249
 31
0.0
  0
ARC
  5
1072
330
2
100
AcDbEntity
  8
0
100
AcDbCircle
 10
813.2335118288779
 20
460.4125711009249
 30
0.0
 40
0.1700000000002474
100
AcDbArc
 50
270.0
 51
90.0
  0
LINE
  5
1073
330
2
100
AcDbEntity
  8
0
100
AcDbLine
 10
806.7635118288675
 20
463.3025711009298
 30
0.0
 11
813.403439068878
 21
463.3025711009298
 31
0.0
  0
LINE
  5
1074
330
2
100
AcDbEntity
  8
0
100
AcDbLine
 10
946.3753045786257
 20
547.8025711032744
 30
0.0
 11
946.3753045786257
 21
473.8025711032745
 31
0.0
  0
LINE
  5
1075
330
2
100
AcDbEntity
  8
0
100
AcDbLine
 10
933.9052825786243
 20
538.8025711032744
 30
0.0
 11
941.3753045786256
 21
538.8025711032744
 31
0.0
  0
LINE
  5
1076
330
2
100
AcDbEntity
  8
0
100
AcDbLine
 10
931.9052825786243
 20
543.8025711032744
 30
0.0
 11
943.3753045786257
 21
543.8025711032744
 31
0.0
  0
ARC
  5
1077
330
2
100
AcDbEntity
  8
0
100
AcDbCircle
 10
931.9052825786243
 20
546.8025711032744
 30
0.0
 40
3.0
100
AcDbArc
 50
180.0
 51
270.0
  0
ARC
  5
1078
330
2
100
AcDbEntity
  8
0
100
AcDbCircle
 10
933.9052825786243
 20
543.8025711032744
 30
0.0
 40
5.0
100
AcDbArc
 50
180.0
 51
270.0
  0
ARC
  5
1079
330
2
100
AcDbEntity
  8
0
100
AcDbCircle
 10
941.3753045786256
 20
543.8025711032744
 30
0.0
 40
5.0
100
AcDbArc
 50
270.0
 51
0.0
  0
ARC
  5
107A
330
2
100
AcDbEntity
  8
0
100
AcDbCircle
 10
943.3753045786257
 20
546.8025711032744
 30
0.0
 40
3.0
100
AcDbArc
 50
270.0
 51
0.0
  0
LINE
  5
107B
330
2
100
AcDbEntity
  8
0
100
AcDbLine
 10
933.9052825786243
 20
482.8025711032744
 30
0.0
 11
941.3753045786256
 21
482.8025711032744
 31
0.0
  0
LINE
  5
107C
330
2
100
AcDbEntity
  8
0
100
AcDbLine
 10
931.9052825786243
 20
477.8025711032745
 30
0.0
 11
943.3753045786257
 21
477.8025711032745
 31
0.0
  0
ARC
  5
107D
330
2
100
AcDbEntity
  8
0
100
AcDbCircle
 10
933.9052825786243
 20
477.8025711032745
 30
0.0
 40
5.0
100
AcDbArc
 50
90.0
 51
180.0
  0
ARC
  5
107E
330
2
100
AcDbEntity
  8
0
100
AcDbCircle
 10
931.9052825786243
 20
474.8025711032744
 30
0.0
 40
3.0
100
AcDbArc
 50
90.0
 51
180.0
  0
ARC
  5
107F
330
2
100
AcDbEntity
  8
0
100
AcDbCircle
 10
943.3753045786257
 20
474.8025711032744
 30
0.0
 40
3.0
100
AcDbArc
 50
0.0
 51
90.0
  0
ARC
  5
1080
330
2
100
AcDbEntity
  8
0
100
AcDbCircle
 10
941.3753045786256
 20
477.8025711032745
 30
0.0
 40
5.0
100
AcDbArc
 50
0.0
 51
90.0
  0
LINE
  5
1081
330
2
100
AcDbEntity
  8
0
100
AcDbLine
 10
949.3753045786256
 20
470.8025711032744
 30
0.0
 11
953.3753045786257
 21
470.8025711032744
 31
0.0
  0
LINE
  5
1082
330
2
100
AcDbEntity
  8
0
100
AcDbLine
 10
931.9052825786279
 20
513.3025711032744
 30
0.0
 11
943.3753045786257
 21
513.3025711032744
 31
0.0
  0
LINE
  5
1083
330
2
100
AcDbEntity
  8
0
100
AcDbLine
 10
931.9052825786279
 20
508.3025711032744
 30
0.0
 11
943.3753045786257
 21
508.3025711032744
 31
0.0
  0
ARC
  5
1084
330
2
100
AcDbEntity
  8
0
100
AcDbCircle
 10
931.9052825786279
 20
516.3025711032743
 30
0.0
 40
3.0
100
AcDbArc
 50
180.0
 51
270.0
  0
ARC
  5
1085
330
2
100
AcDbEntity
  8
0
100
AcDbCircle
 10
943.3753045786257
 20
516.3025711032743
 30
0.0
 40
3.0
100
AcDbArc
 50
270.0
 51
0.0
  0
ARC
  5
1086
330
2
100
AcDbEntity
  8
0
100
AcDbCircle
 10
943.3753045786257
 20
505.3025711032744
 30
0.0
 40
3.0
100
AcDbArc
 50
0.0
 51
90.0
  0
ARC
  5
1087
330
2
100
AcDbEntity
  8
0
100
AcDbCircle
 10
931.9052825786279
 20
505.3025711032744
 30
0.0
 40
3.0
100
AcDbArc
 50
90.0
 51
180.0
  0
LINE
  5
1088
330
2
100
AcDbEntity
  8
0
100
AcDbLine
 10
933.9316535739294
 20
873.8794590787977
 30
0.0
 11
941.1902671651864
 21
873.8794590787977
 31
0.0
  0
LINE
  5
1089
330
2
100
AcDbEntity
  8
0
100
AcDbLine
 10
931.9052825786243
 20
878.8794590787977
 30
0.0
 11
943.2695105148782
 21
878.8794590787977
 31
0.0
  0
LINE
  5
108A
330
2
100
AcDbEntity
  8
0
100
AcDbLine
 10
932.1715662814082
 20
843.3794590787977
 30
0.0
 11
942.4708399070082
 21
843.3794590787977
 31
0.0
  0
LINE
  5
108B
330
2
100
AcDbEntity
  8
0
100
AcDbLine
 10
932.1715662813971
 20
848.3794590787976
 30
0.0
 11
942.4708399070082
 21
848.3794590787976
 31
0.0
  0
LINE
  5
108C
330
2
100
AcDbEntity
  8
0
100
AcDbLine
 10
949.2977531913917
 20
805.8794590787977
 30
0.0
 11
953.2164750867563
 21
805.8794590787977
 31
0.0
  0
LINE
  5
108D
330
2
100
AcDbEntity
  8
0
100
AcDbLine
 10
945.3278457158489
 20
845.8794590787977
 30
0.0
 11
946.2987812164652
 21
808.8009282338745
 31
0.0
  0
ARC
  5
108E
330
2
100
AcDbEntity
  8
0
100
AcDbCircle
 10
941.1902671651864
 20
878.8794590787977
 30
0.0
 40
5.0
100
AcDbArc
 50
270.0
 51
358.5000000000103
  0
ARC
  5
108F
330
2
100
AcDbEntity
  8
0
100
AcDbCircle
 10
943.2695105148782
 20
881.8794590787977
 30
0.0
 40
3.0
100
AcDbArc
 50
270.0
 51
358.5000000000103
  0
ARC
  5
1090
330
2
100
AcDbEntity
  8
0
100
AcDbCircle
 10
943.2695105148782
 20
809.8794590787976
 30
0.0
 40
3.0
100
AcDbArc
 50
1.499999999989693
 51
90.0
  0
LINE
  5
1091
330
2
100
AcDbEntity
  8
0
100
AcDbLine
 10
931.9052825786243
 20
812.8794590787977
 30
0.0
 11
943.2695105148782
 21
812.8794590787977
 31
0.0
  0
LINE
  5
1092
330
2
100
AcDbEntity
  8
0
100
AcDbLine
 10
933.9316535739312
 20
817.8794590787976
 30
0.0
 11
941.1902671651864
 21
817.8794590787976
 31
0.0
  0
ARC
  5
1093
330
2
100
AcDbEntity
  8
0
100
AcDbCircle
 10
941.1902671651864
 20
812.8794590787977
 30
0.0
 40
5.0
100
AcDbArc
 50
1.499999999989693
 51
90.0
  0
ARC
  5
1094
330
2
100
AcDbEntity
  8
0
100
AcDbCircle
 10
942.4708399070082
 20
851.3794590787977
 30
0.0
 40
3.0
100
AcDbArc
 50
270.0
 51
358.5000000000103
  0
ARC
  5
1095
330
2
100
AcDbEntity
  8
0
100
AcDbCircle
 10
942.4708399070082
 20
840.3794590787978
 30
0.0
 40
3.0
100
AcDbArc
 50
1.499999999989693
 51
90.0
  0
LINE
  5
1096
330
2
100
AcDbEntity
  8
0
100
AcDbLine
 10
766.3378784742022
 20
775.8096600853925
 30
0.0
 11
765.9837959101665
 21
785.9492580722028
 31
0.0
  0
ARC
  5
1097
330
2
100
AcDbEntity
  8
0
100
AcDbCircle
 10
763.9850142561286
 20
785.8794590787977
 30
0.0
 40
2.0
100
AcDbArc
 50
2.000000000003654
 51
90.0
  0
ARC
  5
1098
330
2
100
AcDbEntity
  8
0
100
AcDbCircle
 10
768.3366601282418
 20
775.8794590787977
 30
0.0
 40
2.0
100
AcDbArc
 50
182.0000000000036
 51
270.0
  0
ARC
  5
1099
330
2
100
AcDbEntity
  8
0
100
AcDbCircle
 10
855.8255509011255
 20
785.8794590787977
 30
0.0
 40
2.0
100
AcDbArc
 50
90.0
 51
177.9999999999963
  0
LINE
  5
109A
330
2
100
AcDbEntity
  8
0
100
AcDbLine
 10
853.4726866830519
 20
775.8096600853925
 30
0.0
 11
853.8267692470876
 21
785.9492580722028
 31
0.0
  0
ARC
  5
109B
330
2
100
AcDbEntity
  8
0
100
AcDbCircle
 10
851.4739050290122
 20
775.8794590787977
 30
0.0
 40
2.0
100
AcDbArc
 50
270.0
 51
357.9999999999963
  0
ARC
  5
109C
330
2
100
AcDbEntity
  8
0
100
AcDbCircle
 10
953.2164750867563
 20
890.8794590787977
 30
0.0
 40
5.0
100
AcDbArc
 50
270.0
 51
358.5000000000103
  0
ARC
  5
109D
330
2
100
AcDbEntity
  8
0
100
AcDbCircle
 10
960.3236183204685
 20
894.8794590787978
 30
0.0
 40
2.0
100
AcDbArc
 50
90.0
 51
178.5000000000102
  0
ARC
  5
109E
330
2
100
AcDbEntity
  8
0
100
AcDbCircle
 10
953.2164750867563
 20
800.8794590787976
 30
0.0
 40
5.0
100
AcDbArc
 50
1.499999999989693
 51
90.0
  0
ARC
  5
109F
330
2
100
AcDbEntity
  8
0
100
AcDbCircle
 10
960.3236183204685
 20
796.8794590787977
 30
0.0
 40
2.0
100
AcDbArc
 50
181.4999999999897
 51
270.0
  0
LINE
  5
10A0
330
2
100
AcDbEntity
  8
0
100
AcDbLine
 10
973.8753045786257
 20
794.8794590787977
 30
0.0
 11
960.3236183204685
 21
794.8794590787977
 31
0.0
  0
LINE
  5
10A1
330
2
100
AcDbEntity
  8
0
100
AcDbLine
 10
958.3243036705175
 20
796.8271051821823
 30
0.0
 11
957.040076853284
 21
845.8697487206402
 31
0.0
  0
ARC
  5
10A2
330
2
100
AcDbEntity
  8
0
100
AcDbCircle
 10
949.2977531913917
 20
882.8794590787977
 30
0.0
 40
3.0
100
AcDbArc
 50
90.0
 51
178.5000000000102
  0
ARC
  5
10A3
330
2
100
AcDbEntity
  8
0
100
AcDbCircle
 10
949.2977531913917
 20
808.8794590787976
 30
0.0
 40
3.0
100
AcDbArc
 50
181.4999999999897
 51
270.0
  0
ARC
  5
10A4
330
2
100
AcDbEntity
  8
0
100
AcDbCircle
 10
949.3753045786256
 20
473.8025711032745
 30
0.0
 40
3.0
100
AcDbArc
 50
180.0
 51
270.0
  0
ARC
  5
10A5
330
2
100
AcDbEntity
  8
0
100
AcDbCircle
 10
949.3753045786256
 20
547.8025711032744
 30
0.0
 40
3.0
100
AcDbArc
 50
90.0
 51
180.0
  0
ARC
  5
10A6
330
2
100
AcDbEntity
  8
0
100
AcDbCircle
 10
878.1286504921707
 20
793.3862366443392
 30
0.0
 40
1.5
100
AcDbArc
 50
90.0
 51
180.0
  0
LINE
  5
10A7
330
2
100
AcDbEntity
  8
0
100
AcDbLine
 10
867.4052825786279
 20
881.3794590787958
 30
0.0
 11
867.4052825786262
 21
794.3794590788031
 31
0.0
  0
LINE
  5
10A8
330
2
100
AcDbEntity
  8
0
100
AcDbLine
 10
863.4052825786261
 20
881.3794590787958
 30
0.0
 11
863.4052825786261
 21
794.3794590788031
 31
0.0
  0
LINE
  5
10A9
330
2
100
AcDbEntity
  8
0
100
AcDbLine
 10
752.4052825786298
 20
881.3794590787923
 30
0.0
 11
752.4052825786334
 21
794.3794590787995
 31
0.0
  0
LINE
  5
10AA
330
2
100
AcDbEntity
  8
0
100
AcDbLine
 10
756.4052825786298
 20
881.3794590787923
 30
0.0
 11
756.4052825786334
 21
794.3794590787995
 31
0.0
  0
LINE
  5
10AB
330
2
100
AcDbEntity
  8
0
100
AcDbLine
 10
782.2370874147022
 20
881.379459078794
 30
0.0
 11
782.2370874147041
 21
794.3794590787995
 31
0.0
  0
LINE
  5
10AC
330
2
100
AcDbEntity
  8
0
100
AcDbLine
 10
837.5734777425501
 20
881.3794590787958
 30
0.0
 11
837.5734777425501
 21
794.3794590788031
 31
0.0
  0
LINE
  5
10AD
330
2
100
AcDbEntity
  8
0
100
AcDbLine
 10
920.918375539412
 20
881.879459078805
 30
0.0
 11
921.8355682618044
 21
846.8532821304918
 31
0.0
  0
LINE
  5
10AE
330
2
100
AcDbEntity
  8
0
100
AcDbLine
 10
928.9052825786315
 20
845.8794590787977
 30
0.0
 11
922.8352255867799
 21
845.8794590787977
 31
0.0
  0
ARC
  5
10AF
330
2
100
AcDbEntity
  8
0
100
AcDbCircle
 10
922.8352255867799
 20
846.8794590787977
 30
0.0
 40
1.0
100
AcDbArc
 50
181.4999999998854
 51
270.0
  0
LINE
  5
10B0
330
2
100
AcDbEntity
  8
0
100
AcDbLine
 10
957.040076853284
 20
845.8697487206402
 30
0.0
 11
973.8753045786257
 21
845.8794590787977
 31
0.0
  0
LINE
  5
10B1
330
2
100
AcDbEntity
  8
0
100
AcDbLine
 10
973.8753045786257
 20
562.3025711032744
 30
0.0
 11
960.3753045786257
 21
562.3025711032744
 31
0.0
  0
ARC
  5
10B2
330
2
100
AcDbEntity
  8
0
100
AcDbCircle
 10
960.3753045786257
 20
560.3025711032744
 30
0.0
 40
2.0
100
AcDbArc
 50
90.0
 51
180.0
  0
LINE
  5
10B3
330
2
100
AcDbEntity
  8
0
100
AcDbLine
 10
973.8753045786257
 20
459.3025711032744
 30
0.0
 11
960.3753045786257
 21
459.3025711032744
 31
0.0
  0
ARC
  5
10B4
330
2
100
AcDbEntity
  8
0
100
AcDbCircle
 10
960.3753045786257
 20
461.3025711032745
 30
0.0
 40
2.0
100
AcDbArc
 50
180.0
 51
270.0
  0
LINE
  5
10B5
330
2
100
AcDbEntity
  8
CENTER
100
AcDbLine
 10
273.6101233240092
 20
593.3025711032762
 30
0.0
 11
273.6101233240092
 21
428.3025711032744
 31
0.0
  0
LINE
  5
10B6
330
2
100
AcDbEntity
  8
0
100
AcDbLine
 10
109.6401013240097
 20
562.3025711032744
 30
0.0
 11
109.6401013240115
 21
459.3025711032744
 31
0.0
  0
LINE
  5
10B7
330
2
100
AcDbEntity
  8
0
100
AcDbLine
 10
125.1401013240115
 20
461.3025711032745
 30
0.0
 11
125.1401013240115
 21
560.3025711032744
 31
0.0
  0
ARC
  5
10B8
330
2
100
AcDbEntity
  8
0
100
AcDbCircle
 10
130.1401013240115
 20
555.8025711032744
 30
0.0
 40
5.0
100
AcDbArc
 50
180.0
 51
270.0
  0
LINE
  5
10B9
330
2
100
AcDbEntity
  8
0
100
AcDbLine
 10
134.1401013240106
 20
550.8025711032744
 30
0.0
 11
130.1401013240115
 21
550.8025711032744
 31
0.0
  0
ARC
  5
10BA
330
2
100
AcDbEntity
  8
0
100
AcDbCircle
 10
123.1401013240115
 20
559.8025711032744
 30
0.0
 40
2.0
100
AcDbArc
 50
0.0
 51
90.0
  0
LINE
  5
10BB
330
2
100
AcDbEntity
  8
0
100
AcDbLine
 10
109.6401013240106
 20
561.8025711032744
 30
0.0
 11
123.1401013240115
 21
561.8025711032744
 31
0.0
  0
ARC
  5
10BC
330
2
100
AcDbEntity
  8
0
100
AcDbCircle
 10
130.1401013240115
 20
465.8025711032744
 30
0.0
 40
5.0
100
AcDbArc
 50
90.0
 51
180.0
  0
LINE
  5
10BD
330
2
100
AcDbEntity
  8
0
100
AcDbLine
 10
134.1401013240106
 20
470.8025711032744
 30
0.0
 11
130.1401013240115
 21
470.8025711032744
 31
0.0
  0
LINE
  5
10BE
330
2
100
AcDbEntity
  8
0
100
AcDbLine
 10
109.6401013240106
 20
459.8025711032745
 30
0.0
 11
123.1401013240106
 21
459.8025711032745
 31
0.0
  0
ARC
  5
10BF
330
2
100
AcDbEntity
  8
0
100
AcDbCircle
 10
123.1401013240106
 20
461.8025711032744
 30
0.0
 40
2.0
100
AcDbArc
 50
270.0
 51
0.0
  0
LINE
  5
10C0
330
2
100
AcDbEntity
  8
0
100
AcDbLine
 10
149.6101233240119
 20
482.8025711032744
 30
0.0
 11
142.1401013240106
 21
482.8025711032744
 31
0.0
  0
LINE
  5
10C1
330
2
100
AcDbEntity
  8
0
100
AcDbLine
 10
151.6101233240119
 20
477.8025711032745
 30
0.0
 11
140.1401013240106
 21
477.8025711032745
 31
0.0
  0
ARC
  5
10C2
330
2
100
AcDbEntity
  8
0
100
AcDbCircle
 10
149.6101233240119
 20
477.8025711032745
 30
0.0
 40
5.0
100
AcDbArc
 50
0.0
 51
90.0
  0
ARC
  5
10C3
330
2
100
AcDbEntity
  8
0
100
AcDbCircle
 10
151.6101233240119
 20
474.8025711032744
 30
0.0
 40
3.0
100
AcDbArc
 50
0.0
 51
90.0
  0
ARC
  5
10C4
330
2
100
AcDbEntity
  8
0
100
AcDbCircle
 10
140.1401013240106
 20
474.8025711032744
 30
0.0
 40
3.0
100
AcDbArc
 50
90.0
 51
180.0
  0
ARC
  5
10C5
330
2
100
AcDbEntity
  8
0
100
AcDbCircle
 10
142.1401013240106
 20
477.8025711032745
 30
0.0
 40
5.0
100
AcDbArc
 50
90.0
 51
180.0
  0
ARC
  5
10C6
330
2
100
AcDbEntity
  8
0
100
AcDbCircle
 10
140.1401013240106
 20
505.3025711032744
 30
0.0
 40
3.0
100
AcDbArc
 50
90.0
 51
180.0
  0
ARC
  5
10C7
330
2
100
AcDbEntity
  8
0
100
AcDbCircle
 10
151.6101233240092
 20
505.3025711032744
 30
0.0
 40
3.0
100
AcDbArc
 50
0.0
 51
90.0
  0
LINE
  5
10C8
330
2
100
AcDbEntity
  8
0
100
AcDbLine
 10
151.6101233240092
 20
513.3025711032744
 30
0.0
 11
140.1401013240106
 21
513.3025711032744
 31
0.0
  0
ARC
  5
10C9
330
2
100
AcDbEntity
  8
0
100
AcDbCircle
 10
151.6101233240092
 20
516.3025711032743
 30
0.0
 40
3.0
100
AcDbArc
 50
270.0
 51
0.0
  0
ARC
  5
10CA
330
2
100
AcDbEntity
  8
0
100
AcDbCircle
 10
140.1401013240106
 20
516.3025711032743
 30
0.0
 40
3.0
100
AcDbArc
 50
180.0
 51
270.0
  0
LINE
  5
10CB
330
2
100
AcDbEntity
  8
0
100
AcDbLine
 10
151.6101233240092
 20
508.3025711032744
 30
0.0
 11
140.1401013240106
 21
508.3025711032744
 31
0.0
  0
LINE
  5
10CC
330
2
100
AcDbEntity
  8
0
100
AcDbLine
 10
151.6101233240119
 20
543.8025711032744
 30
0.0
 11
140.1401013240106
 21
543.8025711032744
 31
0.0
  0
LINE
  5
10CD
330
2
100
AcDbEntity
  8
0
100
AcDbLine
 10
149.6101233240119
 20
538.8025711032744
 30
0.0
 11
142.1401013240106
 21
538.8025711032744
 31
0.0
  0
ARC
  5
10CE
330
2
100
AcDbEntity
  8
0
100
AcDbCircle
 10
151.6101233240119
 20
546.8025711032744
 30
0.0
 40
3.0
100
AcDbArc
 50
270.0
 51
0.0
  0
ARC
  5
10CF
330
2
100
AcDbEntity
  8
0
100
AcDbCircle
 10
149.6101233240119
 20
543.8025711032744
 30
0.0
 40
5.0
100
AcDbArc
 50
270.0
 51
0.0
  0
ARC
  5
10D0
330
2
100
AcDbEntity
  8
0
100
AcDbCircle
 10
142.1401013240106
 20
543.8025711032744
 30
0.0
 40
5.0
100
AcDbArc
 50
180.0
 51
270.0
  0
ARC
  5
10D1
330
2
100
AcDbEntity
  8
0
100
AcDbCircle
 10
140.1401013240106
 20
546.8025711032744
 30
0.0
 40
3.0
100
AcDbArc
 50
180.0
 51
270.0
  0
LINE
  5
10D2
330
2
100
AcDbEntity
  8
0
100
AcDbLine
 10
137.1401013240106
 20
473.8025711032745
 30
0.0
 11
137.1401013240106
 21
547.8025711032744
 31
0.0
  0
ARC
  5
10D3
330
2
100
AcDbEntity
  8
0
100
AcDbCircle
 10
134.1401013240106
 20
473.8025711032745
 30
0.0
 40
3.0
100
AcDbArc
 50
270.0
 51
0.0
  0
ARC
  5
10D4
330
2
100
AcDbEntity
  8
0
100
AcDbCircle
 10
134.1401013240106
 20
547.8025711032744
 30
0.0
 40
3.0
100
AcDbArc
 50
0.0
 51
90.0
  0
LINE
  5
10D5
330
2
100
AcDbEntity
  8
0
100
AcDbLine
 10
109.6401013240106
 20
459.3025711032744
 30
0.0
 11
123.1401013240106
 21
459.3025711032744
 31
0.0
  0
ARC
  5
10D6
330
2
100
AcDbEntity
  8
0
100
AcDbCircle
 10
123.1401013240106
 20
461.3025711032745
 30
0.0
 40
2.0
100
AcDbArc
 50
270.0
 51
0.0
  0
LINE
  5
10D7
330
2
100
AcDbEntity
  8
0
100
AcDbLine
 10
109.6401013240106
 20
562.3025711032744
 30
0.0
 11
123.1401013240115
 21
562.3025711032744
 31
0.0
  0
ARC
  5
10D8
330
2
100
AcDbEntity
  8
0
100
AcDbCircle
 10
123.1401013240115
 20
560.3025711032744
 30
0.0
 40
2.0
100
AcDbArc
 50
0.0
 51
90.0
  0
LINE
  5
10D9
330
2
100
AcDbEntity
  8
CENTER
100
AcDbLine
 10
356.1101233240092
 20
510.8025711032745
 30
0.0
 11
39.64010132401062
 21
510.8025711032745
 31
0.0
  0
LINE
  5
10DA
330
2
100
AcDbEntity
  8
CENTER
100
AcDbLine
 10
520.3986418498284
 20
428.6167383435675
 30
0.0
 11
520.3986418498284
 21
592.988403862633
 31
0.0
  0
LINE
  5
10DB
330
2
100
AcDbEntity
  8
0
100
AcDbLine
 10
592.3986385210177
 20
469.2339486526282
 30
0.0
 11
592.3986385210177
 21
552.3711935533985
 31
0.0
  0
LINE
  5
10DC
330
2
100
AcDbEntity
  8
0
100
AcDbLine
 10
578.3986385210178
 20
450.8025711030998
 30
0.0
 11
578.3986385210178
 21
570.8025711030997
 31
0.0
  0
LINE
  5
10DD
330
2
100
AcDbEntity
  8
CENTER
100
AcDbLine
 10
412.3986418498243
 20
510.8025711030116
 30
0.0
 11
620.3986385210177
 21
510.8025711030125
 31
0.0
  0
LINE
  5
10DE
330
2
100
AcDbEntity
  8
0
100
AcDbLine
 10
484.3986418498279
 20
443.3025711030999
 30
0.0
 11
573.3986385210178
 21
444.0792623074279
 31
0.0
  0
LINE
  5
10DF
330
2
100
AcDbEntity
  8
0
100
AcDbLine
 10
573.3986385210178
 20
450.8025711030998
 30
0.0
 11
578.3986385210178
 21
450.8025711030998
 31
0.0
  0
LINE
  5
10E0
330
2
100
AcDbEntity
  8
0
100
AcDbLine
 10
573.3986385210195
 20
577.5258798987736
 30
0.0
 11
484.3986418498279
 21
578.3025711030997
 31
0.0
  0
LINE
  5
10E1
330
2
100
AcDbEntity
  8
0
100
AcDbLine
 10
573.3986385210178
 20
570.8025711030997
 30
0.0
 11
578.3986385210178
 21
570.8025711030997
 31
0.0
  0
LINE
  5
10E2
330
2
100
AcDbEntity
  8
0
100
AcDbLine
 10
573.3986385210195
 20
577.5258798987736
 30
0.0
 11
573.3986385210178
 21
444.0792623074279
 31
0.0
  0
LINE
  5
10E3
330
2
100
AcDbEntity
  8
0
100
AcDbLine
 10
590.4684375144229
 20
467.2351669985885
 30
0.0
 11
580.3288395276126
 21
466.8810844345528
 31
0.0
  0
LINE
  5
10E4
330
2
100
AcDbEntity
  8
0
100
AcDbLine
 10
590.4684375144229
 20
554.3699752074383
 30
0.0
 11
580.3288395276126
 21
554.724057771474
 31
0.0
  0
ARC
  5
10E5
330
2
100
AcDbEntity
  8
0
100
AcDbCircle
 10
580.3986385210178
 20
556.7228394255119
 30
0.0
 40
2.0
100
AcDbArc
 50
180.0
 51
267.9999999999963
  0
ARC
  5
10E6
330
2
100
AcDbEntity
  8
0
100
AcDbCircle
 10
580.3986385210178
 20
464.8823027805149
 30
0.0
 40
2.0
100
AcDbArc
 50
92.00000000000365
 51
180.0
  0
ARC
  5
10E7
330
2
100
AcDbEntity
  8
0
100
AcDbCircle
 10
590.3986385210178
 20
469.2339486526282
 30
0.0
 40
2.0
100
AcDbArc
 50
272.0000000000036
 51
0.0
  0
ARC
  5
10E8
330
2
100
AcDbEntity
  8
0
100
AcDbCircle
 10
590.3986385210178
 20
552.3711935533985
 30
0.0
 40
2.0
100
AcDbArc
 50
0.0
 51
87.99999999999636
  0
LINE
  5
10E9
330
2
100
AcDbEntity
  8
0
100
AcDbLine
 10
573.3986385210178
 20
568.3025711032744
 30
0.0
 11
484.3986418498279
 21
568.3025711032744
 31
0.0
  0
LINE
  5
10EA
330
2
100
AcDbEntity
  8
0
100
AcDbLine
 10
573.3986385210178
 20
564.3025711032744
 30
0.0
 11
484.3986418498279
 21
564.3025711032744
 31
0.0
  0
LINE
  5
10EB
330
2
100
AcDbEntity
  8
0
100
AcDbLine
 10
573.3986385210178
 20
538.4707662671819
 30
0.0
 11
484.3986418498279
 21
538.4707662671819
 31
0.0
  0
LINE
  5
10EC
330
2
100
AcDbEntity
  8
0
100
AcDbLine
 10
573.3986385210178
 20
453.3025711027524
 30
0.0
 11
484.3986418498279
 21
453.3025711027524
 31
0.0
  0
LINE
  5
10ED
330
2
100
AcDbEntity
  8
0
100
AcDbLine
 10
573.3986385210178
 20
457.3025711027524
 30
0.0
 11
484.3986418498279
 21
457.3025711027524
 31
0.0
  0
LINE
  5
10EE
330
2
100
AcDbEntity
  8
0
100
AcDbLine
 10
573.3986385210178
 20
483.1343759388449
 30
0.0
 11
484.3986418498279
 21
483.1343759388449
 31
0.0
  0
LINE
  5
10EF
330
2
100
AcDbEntity
  8
0
100
AcDbLine
 10
928.7916809867041
 20
796.8620060078003
 30
0.0
 11
929.2194498191006
 21
845.8794590787977
 31
0.0
  0
ARC
  5
10F0
330
2
100
AcDbEntity
  8
0
100
AcDbCircle
 10
932.1715662814082
 20
840.3794590787978
 30
0.0
 40
3.0
100
AcDbArc
 50
90.0
 51
179.5000000000344
  0
ARC
  5
10F1
330
2
100
AcDbEntity
  8
0
100
AcDbCircle
 10
931.9053968137854
 20
809.8794590787976
 30
0.0
 40
3.0
100
AcDbArc
 50
90.0
 51
179.5000000000344
  0
ARC
  5
10F2
330
2
100
AcDbEntity
  8
0
100
AcDbCircle
 10
933.9316535739312
 20
812.8794590787977
 30
0.0
 40
5.0
100
AcDbArc
 50
90.0
 51
179.5000000000344
  0
ARC
  5
10F3
330
2
100
AcDbEntity
  8
0
100
AcDbCircle
 10
926.7917571405746
 20
796.8794590787977
 30
0.0
 40
2.0
100
AcDbArc
 50
270.0
 51
359.5000000000345
  0
LINE
  5
10F4
330
2
100
AcDbEntity
  8
0
100
AcDbLine
 10
928.905282578628
 20
881.879459078805
 30
0.0
 11
929.2194498190896
 21
845.8794590787977
 31
0.0
  0
ARC
  5
10F5
330
2
100
AcDbEntity
  8
0
100
AcDbCircle
 10
931.9053968137854
 20
881.8794590787977
 30
0.0
 40
3.0
100
AcDbArc
 50
180.4999999999655
 51
270.0
  0
ARC
  5
10F6
330
2
100
AcDbEntity
  8
0
100
AcDbCircle
 10
933.9316535739294
 20
878.8794590787977
 30
0.0
 40
5.0
100
AcDbArc
 50
180.4999999999655
 51
270.0
  0
ARC
  5
10F7
330
2
100
AcDbEntity
  8
0
100
AcDbCircle
 10
932.1715662813971
 20
851.3794590787977
 30
0.0
 40
3.0
100
AcDbArc
 50
180.4999999999655
 51
270.0
  0
LINE
  5
10F8
330
2
100
AcDbEntity
  8
0
100
AcDbLine
 10
877.4009191448394
 20
881.8794590788121
 30
0.0
 11
876.6242279113564
 21
792.8794590787975
 31
0.0
  0
LINE
  5
10F9
330
2
100
AcDbEntity
  8
0
100
AcDbLine
 10
198.172732209357
 20
561.8025711032744
 30
0.0
 11
162.6101233240092
 21
561.8025711032744
 31
0.0
  0
CIRCLE
  5
10FA
330
2
100
AcDbEntity
  8
0
100
AcDbCircle
 10
177.1101233240092
 20
556.3025711032744
 30
0.0
 40
2.0
  0
CIRCLE
  5
10FB
330
2
100
AcDbEntity
  8
HOJO
100
AcDbCircle
 10
177.1101233240092
 20
556.3025711032744
 30
0.0
 40
2.5
  0
CIRCLE
  5
10FC
330
2
100
AcDbEntity
  8
0
100
AcDbCircle
 10
177.1101233240092
 20
556.3025711032744
 30
0.0
 40
3.5
  0
CIRCLE
  5
10FD
330
2
100
AcDbEntity
  8
0
100
AcDbCircle
 10
177.1101233240092
 20
556.3025711032744
 30
0.0
 40
4.0
  0
LINE
  5
10FE
330
2
100
AcDbEntity
  8
CENTER
100
AcDbLine
 10
185.1101233240092
 20
556.3025711032762
 30
0.0
 11
169.1101233240092
 21
556.3025711032744
 31
0.0
  0
LINE
  5
10FF
330
2
100
AcDbEntity
  8
0
100
AcDbLine
 10
198.172732209357
 20
459.8025711032745
 30
0.0
 11
162.6101233240092
 21
459.8025711032745
 31
0.0
  0
CIRCLE
  5
1100
330
2
100
AcDbEntity
  8
0
100
AcDbCircle
 10
177.1101233240101
 20
465.3025711032745
 30
0.0
 40
4.0
  0
CIRCLE
  5
1101
330
2
100
AcDbEntity
  8
HOJO
100
AcDbCircle
 10
177.1101233240101
 20
465.3025711032745
 30
0.0
 40
2.5
  0
CIRCLE
  5
1102
330
2
100
AcDbEntity
  8
0
100
AcDbCircle
 10
177.1101233240101
 20
465.3025711032745
 30
0.0
 40
3.5
  0
CIRCLE
  5
1103
330
2
100
AcDbEntity
  8
0
100
AcDbCircle
 10
177.1101233240101
 20
465.3025711032745
 30
0.0
 40
2.0
  0
LINE
  5
1104
330
2
100
AcDbEntity
  8
0
100
AcDbLine
 10
154.6101233240092
 20
467.8025711032744
 30
0.0
 11
154.6101233240092
 21
553.8025711032743
 31
0.0
  0
LINE
  5
1105
330
2
100
AcDbEntity
  8
CENTER
100
AcDbLine
 10
162.6101233240092
 20
564.5525711032744
 30
0.0
 11
162.610123324011
 21
543.0525711032744
 31
0.0
  0
LINE
  5
1106
330
2
100
AcDbEntity
  8
0
100
AcDbLine
 10
162.610123324011
 20
545.3025711032744
 30
0.0
 11
156.6101233240101
 21
545.302571103278
 31
0.0
  0
LINE
  5
1107
330
2
100
AcDbEntity
  8
CENTER
100
AcDbLine
 10
173.3601233240092
 20
553.8025711032762
 30
0.0
 11
151.8601233240092
 21
553.8025711032743
 31
0.0
  0
ARC
  5
1108
330
2
100
AcDbEntity
  8
0
100
AcDbCircle
 10
162.6101233240092
 20
553.8025711032743
 30
0.0
 40
8.0
100
AcDbArc
 50
90.0
 51
180.0
  0
LINE
  5
1109
330
2
100
AcDbEntity
  8
0
100
AcDbLine
 10
171.1101233240165
 20
553.8025711032689
 30
0.0
 11
171.1101233240192
 21
559.8025711032762
 31
0.0
  0
LINE
  5
110A
330
2
100
AcDbEntity
  8
CENTER
100
AcDbLine
 10
177.1101233240092
 20
564.3025711032744
 30
0.0
 11
177.1101233240101
 21
548.3025711032744
 31
0.0
  0
ARC
  5
110B
330
2
100
AcDbEntity
  8
0
100
AcDbCircle
 10
162.6101233240165
 20
553.8025711032743
 30
0.0
 40
8.5
100
AcDbArc
 50
269.9999999999739
 51
359.9999999998958
  0
ARC
  5
110C
330
2
100
AcDbEntity
  8
0
100
AcDbCircle
 10
162.6101233240165
 20
467.8025711032744
 30
0.0
 40
8.5
100
AcDbArc
 50
0.0
 51
90.00000000002605
  0
LINE
  5
110D
330
2
100
AcDbEntity
  8
0
100
AcDbLine
 10
162.610123324011
 20
476.3025711032745
 30
0.0
 11
156.6101233240101
 21
476.3025711032708
 31
0.0
  0
ARC
  5
110E
330
2
100
AcDbEntity
  8
0
100
AcDbCircle
 10
162.6101233240092
 20
467.8025711032744
 30
0.0
 40
8.0
100
AcDbArc
 50
180.0
 51
270.0
  0
LINE
  5
110F
330
2
100
AcDbEntity
  8
0
100
AcDbLine
 10
171.1101233240165
 20
467.8025711032799
 30
0.0
 11
171.1101233240192
 21
461.8025711032744
 31
0.0
  0
ARC
  5
113D
330
2
100
AcDbEntity
  8
0
100
AcDbCircle
 10
173.1101233240192
 20
461.8025711032744
 30
0.0
 40
2.0
100
AcDbArc
 50
180.0
 51
270.0
  0
ARC
  5
113E
330
2
100
AcDbEntity
  8
0
100
AcDbCircle
 10
156.6101233240092
 20
478.3025711032708
 30
0.0
 40
2.0
100
AcDbArc
 50
180.0
 51
270.000000000026
  0
ARC
  5
113F
330
2
100
AcDbEntity
  8
0
100
AcDbCircle
 10
156.6101233240092
 20
543.302571103278
 30
0.0
 40
2.0
100
AcDbArc
 50
89.99999999997395
 51
180.0
  0
ARC
  5
1140
330
2
100
AcDbEntity
  8
0
100
AcDbCircle
 10
173.1101233240192
 20
559.8025711032744
 30
0.0
 40
2.0
100
AcDbArc
 50
90.0
 51
179.9999999998957
  0
ARC
  5
1157
330
2
100
AcDbEntity
  8
0
100
AcDbCircle
 10
198.172732209357
 20
451.8025711032745
 30
0.0
 40
8.0
100
AcDbArc
 50
4.780191847234841
 51
90.0
  0
ARC
  5
1158
330
2
100
AcDbEntity
  8
0
100
AcDbCircle
 10
198.172732209357
 20
569.8025711032744
 30
0.0
 40
8.0
100
AcDbArc
 50
270.0
 51
355.2198081527651
  0
LINE
  5
115E
330
2
100
AcDbEntity
  8
CENTER
100
AcDbLine
 10
185.1101233240092
 20
465.3025711032745
 30
0.0
 11
169.1101233240092
 21
465.3025711032745
 31
0.0
  0
LINE
  5
115F
330
2
100
AcDbEntity
  8
CENTER
100
AcDbLine
 10
162.6101233240092
 20
457.0525711032744
 30
0.0
 11
162.610123324011
 21
478.5525711032745
 31
0.0
  0
LINE
  5
1160
330
2
100
AcDbEntity
  8
CENTER
100
AcDbLine
 10
173.3601233240092
 20
467.8025711032744
 30
0.0
 11
151.8601233240092
 21
467.8025711032763
 31
0.0
  0
LINE
  5
1161
330
2
100
AcDbEntity
  8
CENTER
100
AcDbLine
 10
177.1101233240092
 20
457.3025711032745
 30
0.0
 11
177.1101233240101
 21
473.3025711032745
 31
0.0
  0
CIRCLE
  5
1170
330
2
100
AcDbEntity
  8
0
100
AcDbCircle
 10
162.6101233240165
 20
553.8025711032743
 30
0.0
 40
5.63397459621558
  0
CIRCLE
  5
1171
330
2
100
AcDbEntity
  8
0
100
AcDbCircle
 10
162.6101233240165
 20
553.8025711032743
 30
0.0
 40
6.5
  0
LINE
  5
1172
330
2
100
AcDbEntity
  8
0
100
AcDbLine
 10
165.6101233240165
 20
552.0705202957063
 30
0.0
 11
165.6101233240165
 21
555.5346219108444
 31
0.0
  0
LINE
  5
1173
330
2
100
AcDbEntity
  8
0
100
AcDbLine
 10
159.6101233240165
 20
555.5346219108444
 30
0.0
 11
159.6101233240165
 21
552.0705202957063
 31
0.0
  0
LINE
  5
1174
330
2
100
AcDbEntity
  8
0
100
AcDbLine
 10
162.6101233240165
 20
550.3384694881381
 30
0.0
 11
165.6101233240165
 21
552.0705202957063
 31
0.0
  0
LINE
  5
1175
330
2
100
AcDbEntity
  8
0
100
AcDbLine
 10
159.6101233240165
 20
552.0705202957063
 30
0.0
 11
162.6101233240165
 21
550.3384694881381
 31
0.0
  0
LINE
  5
1176
330
2
100
AcDbEntity
  8
0
100
AcDbLine
 10
159.6101233240165
 20
555.5346219108444
 30
0.0
 11
162.6101233240165
 21
557.2666727184126
 31
0.0
  0
LINE
  5
1177
330
2
100
AcDbEntity
  8
0
100
AcDbLine
 10
162.6101233240165
 20
557.2666727184126
 30
0.0
 11
165.6101233240165
 21
555.5346219108444
 31
0.0
  0
CIRCLE
  5
1178
330
2
100
AcDbEntity
  8
0
100
AcDbCircle
 10
162.6101233240101
 20
467.8025711032744
 30
0.0
 40
5.63397459621558
  0
CIRCLE
  5
1179
330
2
100
AcDbEntity
  8
0
100
AcDbCircle
 10
162.6101233240101
 20
467.8025711032744
 30
0.0
 40
6.5
  0
LINE
  5
117A
330
2
100
AcDbEntity
  8
0
100
AcDbLine
 10
165.6101233240101
 20
466.0705202957063
 30
0.0
 11
165.6101233240101
 21
469.5346219108444
 31
0.0
  0
LINE
  5
117B
330
2
100
AcDbEntity
  8
0
100
AcDbLine
 10
159.6101233240101
 20
469.5346219108444
 30
0.0
 11
159.6101233240101
 21
466.0705202957063
 31
0.0
  0
LINE
  5
117C
330
2
100
AcDbEntity
  8
0
100
AcDbLine
 10
162.6101233240101
 20
464.3384694881363
 30
0.0
 11
165.6101233240101
 21
466.0705202957063
 31
0.0
  0
LINE
  5
117D
330
2
100
AcDbEntity
  8
0
100
AcDbLine
 10
159.6101233240101
 20
466.0705202957063
 30
0.0
 11
162.6101233240101
 21
464.3384694881363
 31
0.0
  0
LINE
  5
117E
330
2
100
AcDbEntity
  8
0
100
AcDbLine
 10
159.6101233240101
 20
469.5346219108444
 30
0.0
 11
162.6101233240101
 21
471.2666727184126
 31
0.0
  0
LINE
  5
117F
330
2
100
AcDbEntity
  8
0
100
AcDbLine
 10
162.6101233240101
 20
471.2666727184126
 30
0.0
 11
165.6101233240101
 21
469.5346219108444
 31
0.0
  0
ARC
  5
1188
330
2
100
AcDbEntity
  8
0
100
AcDbCircle
 10
465.898641849828
 20
576.1410478921127
 30
0.0
 40
2.0
100
AcDbArc
 50
90.49999999999155
 51
180.0
  0
LINE
  5
1189
330
2
100
AcDbEntity
  8
0
100
AcDbLine
 10
463.3128554122013
 20
565.2167846653858
 30
0.0
 11
462.4844282874546
 21
564.388357540641
 31
0.0
  0
LINE
  5
118A
330
2
100
AcDbEntity
  8
0
100
AcDbLine
 10
453.398641849828
 20
552.7252208338243
 30
0.0
 11
453.3986418498288
 21
468.8799213722007
 31
0.0
  0
LINE
  5
118B
330
2
100
AcDbEntity
  8
0
100
AcDbLine
 10
461.898641849828
 20
555.8025711030125
 30
0.0
 11
461.398641849828
 21
555.3025711030125
 31
0.0
  0
LINE
  5
118C
330
2
100
AcDbEntity
  8
0
100
AcDbLine
 10
457.898641849828
 20
553.1025711030135
 30
0.0
 11
458.0986418498278
 21
553.3025711030124
 31
0.0
  0
LINE
  5
118D
330
2
100
AcDbEntity
  8
0
100
AcDbLine
 10
456.0986418498278
 20
552.6025711030135
 30
0.0
 11
457.6986418498282
 21
552.6025711030135
 31
0.0
  0
LINE
  5
118E
330
2
100
AcDbEntity
  8
0
100
AcDbLine
 10
454.3986418498279
 20
553.3025711030124
 30
0.0
 11
453.398641849828
 21
552.7252208338243
 31
0.0
  0
LINE
  5
118F
330
2
100
AcDbEntity
  8
0
100
AcDbLine
 10
454.3986418498279
 20
553.3025711030124
 30
0.0
 11
455.6986418498281
 21
553.3025711030124
 31
0.0
  0
LINE
  5
1190
330
2
100
AcDbEntity
  8
0
100
AcDbLine
 10
458.0986418498278
 20
553.3025711030124
 30
0.0
 11
461.398641849828
 21
553.3025711030124
 31
0.0
  0
LINE
  5
1191
330
2
100
AcDbEntity
  8
0
100
AcDbLine
 10
461.8986418498234
 20
458.6309982277592
 30
0.0
 11
461.8986418498361
 21
562.9741439782676
 31
0.0
  0
LINE
  5
1192
330
2
100
AcDbEntity
  8
0
100
AcDbLine
 10
461.8986418498243
 20
465.8025711030125
 30
0.0
 11
461.3986418498243
 21
466.3025711030125
 31
0.0
  0
LINE
  5
1193
330
2
100
AcDbEntity
  8
0
100
AcDbLine
 10
457.8986418498243
 20
468.5025711030132
 30
0.0
 11
457.8986418498243
 21
553.1025711030099
 31
0.0
  0
LINE
  5
1194
330
2
100
AcDbEntity
  8
0
100
AcDbLine
 10
457.8986418498243
 20
468.5025711030132
 30
0.0
 11
458.0986418498241
 21
468.3025711030125
 31
0.0
  0
LINE
  5
1195
330
2
100
AcDbEntity
  8
0
100
AcDbLine
 10
455.8986418498243
 20
468.5025711030132
 30
0.0
 11
455.8986418497597
 21
553.1025711030135
 31
0.0
  0
LINE
  5
1196
330
2
100
AcDbEntity
  8
0
100
AcDbLine
 10
454.3986418498243
 20
468.3025711030125
 30
0.0
 11
455.6986418498236
 21
468.3025711030125
 31
0.0
  0
LINE
  5
1197
330
2
100
AcDbEntity
  8
0
100
AcDbLine
 10
456.0986418498242
 20
469.0025711030132
 30
0.0
 11
457.6986418498235
 21
469.0025711030132
 31
0.0
  0
LINE
  5
1198
330
2
100
AcDbEntity
  8
0
100
AcDbLine
 10
454.3986418498243
 20
468.3025711030125
 30
0.0
 11
453.3986418498243
 21
468.8799213722025
 31
0.0
  0
LINE
  5
1199
330
2
100
AcDbEntity
  8
0
100
AcDbLine
 10
461.3986418498243
 20
466.3025711030125
 30
0.0
 11
461.3986418498243
 21
555.3025711030088
 31
0.0
  0
LINE
  5
119A
330
2
100
AcDbEntity
  8
0
100
AcDbLine
 10
458.0986418498241
 20
468.3025711030125
 30
0.0
 11
461.3986418498243
 21
468.3025711030125
 31
0.0
  0
LINE
  5
119B
330
2
100
AcDbEntity
  8
0
100
AcDbLine
 10
463.8986418498234
 20
445.4640943139141
 30
0.0
 11
463.8986418498234
 21
576.1410478921127
 31
0.0
  0
LINE
  5
119C
330
2
100
AcDbEntity
  8
0
100
AcDbLine
 10
463.3128554121968
 20
456.3883575406392
 30
0.0
 11
462.4844282874501
 21
457.2167846653859
 31
0.0
  0
LINE
  5
119D
330
2
100
AcDbEntity
  8
0
100
AcDbLine
 10
465.8811887788315
 20
578.1409717382405
 30
0.0
 11
484.3986418498279
 21
578.3025711030143
 31
0.0
  0
ARC
  5
119E
330
2
100
AcDbEntity
  8
0
100
AcDbCircle
 10
463.8986418498234
 20
458.6309982277592
 30
0.0
 40
2.0
100
AcDbArc
 50
180.0
 51
225.0000000000178
  0
ARC
  5
119F
330
2
100
AcDbEntity
  8
0
100
AcDbCircle
 10
461.8986418498234
 20
454.9741439782676
 30
0.0
 40
2.0
100
AcDbArc
 50
0.0
 51
45.00000000001784
  0
ARC
  5
11A0
330
2
100
AcDbEntity
  8
0
100
AcDbCircle
 10
463.8986418498279
 20
562.9741439782676
 30
0.0
 40
2.0
100
AcDbArc
 50
134.9999999999821
 51
180.0
  0
ARC
  5
11A1
330
2
100
AcDbEntity
  8
0
100
AcDbCircle
 10
461.898641849828
 20
566.6309982277591
 30
0.0
 40
2.0
100
AcDbArc
 50
314.9999999999821
 51
0.0
  0
ARC
  5
11A2
330
2
100
AcDbEntity
  8
0
100
AcDbCircle
 10
455.6986418498281
 20
553.1025711030135
 30
0.0
 40
0.2
100
AcDbArc
 50
0.0
 51
90.0
  0
ARC
  5
11A3
330
2
100
AcDbEntity
  8
0
100
AcDbCircle
 10
456.0986418498278
 20
552.8025711030143
 30
0.0
 40
0.2
100
AcDbArc
 50
180.0
 51
270.0
  0
ARC
  5
11A4
330
2
100
AcDbEntity
  8
0
100
AcDbCircle
 10
457.6986418498282
 20
552.8025711030143
 30
0.0
 40
0.2
100
AcDbArc
 50
270.0
 51
0.0
  0
ARC
  5
11A5
330
2
100
AcDbEntity
  8
0
100
AcDbCircle
 10
455.6986418498236
 20
468.5025711030132
 30
0.0
 40
0.2
100
AcDbArc
 50
270.0
 51
0.0
  0
ARC
  5
11A6
330
2
100
AcDbEntity
  8
0
100
AcDbCircle
 10
456.0986418498242
 20
468.8025711030125
 30
0.0
 40
0.2
100
AcDbArc
 50
90.0
 51
180.0
  0
ARC
  5
11A7
330
2
100
AcDbEntity
  8
0
100
AcDbCircle
 10
457.6986418498235
 20
468.8025711030125
 30
0.0
 40
0.2
100
AcDbArc
 50
0.0
 51
90.0
  0
LINE
  5
11A8
330
2
100
AcDbEntity
  8
0
100
AcDbLine
 10
454.3986418498279
 20
553.3025711030124
 30
0.0
 11
454.3986418498243
 21
468.3025711030125
 31
0.0
  0
LINE
  5
11A9
330
2
100
AcDbEntity
  8
0
100
AcDbLine
 10
473.9030051175677
 20
559.7982457467763
 30
0.0
 11
465.881188778826
 21
559.7282404161462
 31
0.0
  0
LINE
  5
11AA
330
2
100
AcDbEntity
  8
0
100
AcDbLine
 10
474.3986418498188
 20
560.2982267083109
 30
0.0
 11
474.3986418498188
 21
577.2239912145098
 31
0.0
  0
ARC
  5
11AB
330
2
100
AcDbEntity
  8
0
100
AcDbCircle
 10
473.8986418498188
 20
560.2982267083109
 30
0.0
 40
0.5
100
AcDbArc
 50
270.5000000000175
 51
0.0
  0
ARC
  5
11AC
330
2
100
AcDbEntity
  8
0
100
AcDbCircle
 10
475.3986418498189
 20
577.2239912145098
 30
0.0
 40
1.0
100
AcDbArc
 50
90.50000000001761
 51
180.0
  0
ARC
  5
11AD
330
2
100
AcDbEntity
  8
0
100
AcDbCircle
 10
465.8986418498234
 20
557.7283165700184
 30
0.0
 40
2.0
100
AcDbArc
 50
90.49999999999155
 51
180.0
  0
LINE
  5
11AE
330
2
100
AcDbEntity
  8
0
100
AcDbLine
 10
475.3899153143211
 20
568.3025711030142
 30
0.0
 11
484.3986418498279
 21
568.3025711030142
 31
0.0
  0
LINE
  5
11AF
330
2
100
AcDbEntity
  8
0
100
AcDbLine
 10
475.3899153143211
 20
564.3025711030142
 30
0.0
 11
484.3986418498279
 21
564.3025711030142
 31
0.0
  0
LINE
  5
11B0
330
2
100
AcDbEntity
  8
0
100
AcDbLine
 10
465.881188778826
 20
538.4707662671819
 30
0.0
 11
484.3986418498279
 21
538.4707662671819
 31
0.0
  0
LINE
  5
11B1
330
2
100
AcDbEntity
  8
0
100
AcDbLine
 10
475.3899153143211
 20
453.3025711030125
 30
0.0
 11
484.3986418498279
 21
453.3025711030125
 31
0.0
  0
LINE
  5
11B2
330
2
100
AcDbEntity
  8
0
100
AcDbLine
 10
475.3899153143211
 20
457.3025711030125
 30
0.0
 11
484.3986418498279
 21
457.3025711030125
 31
0.0
  0
LINE
  5
11B3
330
2
100
AcDbEntity
  8
0
100
AcDbLine
 10
465.881188778826
 20
483.1343759388449
 30
0.0
 11
484.3986418498279
 21
483.1343759388449
 31
0.0
  0
ARC
  5
11B4
330
2
100
AcDbEntity
  8
0
100
AcDbCircle
 10
465.898641849828
 20
445.4640943139141
 30
0.0
 40
2.0
100
AcDbArc
 50
180.0
 51
269.5000000000084
  0
LINE
  5
11B5
330
2
100
AcDbEntity
  8
0
100
AcDbLine
 10
465.8811887788315
 20
443.4641704677863
 30
0.0
 11
484.3986418498279
 21
443.3025711030125
 31
0.0
  0
ARC
  5
11B6
330
2
100
AcDbEntity
  8
0
100
AcDbCircle
 10
475.3986418498189
 20
444.381150991517
 30
0.0
 40
1.0
100
AcDbArc
 50
180.0
 51
269.4999999999824
  0
LINE
  5
11B7
330
2
100
AcDbEntity
  8
0
100
AcDbLine
 10
473.9030051175677
 20
461.8068964592506
 30
0.0
 11
465.881188778826
 21
461.8769017898806
 31
0.0
  0
LINE
  5
11B8
330
2
100
AcDbEntity
  8
0
100
AcDbLine
 10
474.3986418498188
 20
461.3069154977159
 30
0.0
 11
474.3986418498188
 21
444.381150991517
 31
0.0
  0
ARC
  5
11B9
330
2
100
AcDbEntity
  8
0
100
AcDbCircle
 10
473.8986418498188
 20
461.3069154977159
 30
0.0
 40
0.5
100
AcDbArc
 50
0.0
 51
89.49999999998238
  0
ARC
  5
11BA
330
2
100
AcDbEntity
  8
0
100
AcDbCircle
 10
465.8986418498234
 20
463.8768256360084
 30
0.0
 40
2.0
100
AcDbArc
 50
180.0
 51
269.5000000000084
  0
LINE
  5
11BB
330
2
100
AcDbEntity
  8
0
100
AcDbLine
 10
484.3986418498279
 20
578.3025711030143
 30
0.0
 11
484.3986418498279
 21
443.3025711030125
 31
0.0
  0
LINE
  5
11BC
330
2
100
AcDbEntity
  8
0
100
AcDbLine
 10
464.3986418498188
 20
573.9365456992302
 30
0.0
 11
464.3986418498188
 21
562.6685965068002
 31
0.0
  0
LINE
  5
11BD
330
2
100
AcDbEntity
  8
0
100
AcDbLine
 10
472.3986418498189
 20
574.8025711030143
 30
0.0
 11
472.3986418498197
 21
561.8025711030143
 31
0.0
  0
LINE
  5
11BE
330
2
100
AcDbEntity
  8
0
100
AcDbLine
 10
464.8986418498188
 20
561.8025711030143
 30
0.0
 11
464.3986418498188
 21
562.6685965068002
 31
0.0
  0
LINE
  5
11BF
330
2
100
AcDbEntity
  8
0
100
AcDbLine
 10
474.3986418498188
 20
561.8025711030143
 30
0.0
 11
472.3986418498189
 21
561.8025711030143
 31
0.0
  0
LINE
  5
11C0
330
2
100
AcDbEntity
  8
0
100
AcDbLine
 10
472.3986418498189
 20
561.8025711030143
 30
0.0
 11
464.8986418498188
 21
561.8025711030143
 31
0.0
  0
LINE
  5
11C1
330
2
100
AcDbEntity
  8
CENTER
  6
CENS
100
AcDbLine
 10
493.9761363030266
 20
568.3025711030142
 30
0.0
 11
458.3986418498189
 21
568.3025711030142
 31
0.0
  0
LINE
  5
11C2
330
2
100
AcDbEntity
  8
0
100
AcDbLine
 10
464.8986418498188
 20
574.8025711030143
 30
0.0
 11
464.3986418498188
 21
573.9365456992302
 31
0.0
  0
LINE
  5
11C3
330
2
100
AcDbEntity
  8
0
100
AcDbLine
 10
474.3986418498188
 20
574.8025711030143
 30
0.0
 11
472.3986418498189
 21
574.8025711030143
 31
0.0
  0
LINE
  5
11C4
330
2
100
AcDbEntity
  8
0
100
AcDbLine
 10
472.3986418498189
 20
574.8025711030143
 30
0.0
 11
464.8986418498188
 21
574.8025711030143
 31
0.0
  0
LINE
  5
11C5
330
2
100
AcDbEntity
  8
0
100
AcDbLine
 10
464.8986418498188
 20
574.8025711030143
 30
0.0
 11
464.8986418498188
 21
561.8025711030143
 31
0.0
  0
LINE
  5
11C6
330
2
100
AcDbEntity
  8
0
100
AcDbLine
 10
464.3986418498188
 20
447.6685965067966
 30
0.0
 11
464.3986418498188
 21
458.9365456992267
 31
0.0
  0
LINE
  5
11C7
330
2
100
AcDbEntity
  8
0
100
AcDbLine
 10
472.3986418498189
 20
446.8025711030125
 30
0.0
 11
472.3986418498197
 21
459.8025711030125
 31
0.0
  0
LINE
  5
11C8
330
2
100
AcDbEntity
  8
0
100
AcDbLine
 10
464.8986418498188
 20
459.8025711030125
 30
0.0
 11
464.3986418498188
 21
458.9365456992267
 31
0.0
  0
LINE
  5
11C9
330
2
100
AcDbEntity
  8
0
100
AcDbLine
 10
474.3986418498188
 20
459.8025711030125
 30
0.0
 11
472.3986418498189
 21
459.8025711030125
 31
0.0
  0
LINE
  5
11CA
330
2
100
AcDbEntity
  8
0
100
AcDbLine
 10
472.3986418498189
 20
459.8025711030125
 30
0.0
 11
464.8986418498188
 21
459.8025711030125
 31
0.0
  0
LINE
  5
11CB
330
2
100
AcDbEntity
  8
CENTER
  6
CENS
100
AcDbLine
 10
493.9761363030266
 20
453.3025711030125
 30
0.0
 11
458.3986418498189
 21
453.3025711030125
 31
0.0
  0
LINE
  5
11CC
330
2
100
AcDbEntity
  8
0
100
AcDbLine
 10
464.8986418498188
 20
446.8025711030125
 30
0.0
 11
464.3986418498188
 21
447.6685965067966
 31
0.0
  0
LINE
  5
11CD
330
2
100
AcDbEntity
  8
0
100
AcDbLine
 10
474.3986418498188
 20
446.8025711030125
 30
0.0
 11
472.3986418498189
 21
446.8025711030125
 31
0.0
  0
LINE
  5
11CE
330
2
100
AcDbEntity
  8
0
100
AcDbLine
 10
472.3986418498189
 20
446.8025711030125
 30
0.0
 11
464.8986418498188
 21
446.8025711030125
 31
0.0
  0
LINE
  5
11CF
330
2
100
AcDbEntity
  8
0
100
AcDbLine
 10
464.8986418498188
 20
446.8025711030125
 30
0.0
 11
464.8986418498188
 21
459.8025711030125
 31
0.0
  0
LINE
  5
11D0
330
2
100
AcDbEntity
  8
0
100
AcDbLine
 10
914.405282578626
 20
896.8794590788176
 30
0.0
 11
879.4052825786261
 21
896.8794590788176
 31
0.0
  0
ARC
  5
11D1
330
2
100
AcDbEntity
  8
0
100
AcDbCircle
 10
926.7917571405746
 20
894.8794590788176
 30
0.0
 40
2.0
100
AcDbArc
 50
0.4999999999654926
 51
72.13575521913063
  0
LINE
  5
11D2
330
2
100
AcDbEntity
  8
0
100
AcDbLine
 10
742.4052825786262
 20
881.8794590788122
 30
0.0
 11
928.9052825786262
 21
881.8794590788122
 31
0.0
  0
ARC
  5
11D3
330
2
100
AcDbEntity
  8
0
100
AcDbCircle
 10
744.5668057895277
 20
900.3794590788123
 30
0.0
 40
2.0
100
AcDbArc
 50
90.0
 51
179.5000000000344
  0
LINE
  5
11D4
330
2
100
AcDbEntity
  8
0
100
AcDbLine
 10
755.4910690162528
 20
902.965245516439
 30
0.0
 11
756.3194961409995
 21
903.7936726411855
 31
0.0
  0
LINE
  5
11D5
330
2
100
AcDbEntity
  8
0
100
AcDbLine
 10
767.9826328478161
 20
912.8794590788123
 30
0.0
 11
851.8279323094398
 21
912.8794590788123
 31
0.0
  0
LINE
  5
11D6
330
2
100
AcDbEntity
  8
0
100
AcDbLine
 10
764.9052825786261
 20
904.3794590788122
 30
0.0
 11
765.4052825786261
 21
904.8794590788123
 31
0.0
  0
LINE
  5
11D7
330
2
100
AcDbEntity
  8
0
100
AcDbLine
 10
767.6052825786269
 20
908.3794590788123
 30
0.0
 11
767.4052825786262
 21
908.1794590788133
 31
0.0
  0
LINE
  5
11D8
330
2
100
AcDbEntity
  8
0
100
AcDbLine
 10
768.1052825786268
 20
910.1794590788133
 30
0.0
 11
768.1052825786268
 21
908.5794590788129
 31
0.0
  0
LINE
  5
11D9
330
2
100
AcDbEntity
  8
0
100
AcDbLine
 10
767.4052825786262
 20
911.8794590788123
 30
0.0
 11
767.9826328478161
 21
912.8794590788123
 31
0.0
  0
LINE
  5
11DA
330
2
100
AcDbEntity
  8
0
100
AcDbLine
 10
767.4052825786262
 20
911.8794590788123
 30
0.0
 11
767.4052825786262
 21
910.579459078813
 31
0.0
  0
LINE
  5
11DB
330
2
100
AcDbEntity
  8
0
100
AcDbLine
 10
767.4052825786262
 20
908.1794590788133
 30
0.0
 11
767.4052825786262
 21
904.8794590788123
 31
0.0
  0
LINE
  5
11DC
330
2
100
AcDbEntity
  8
0
100
AcDbLine
 10
862.0768554538795
 20
904.3794590788177
 30
0.0
 11
757.7337097033728
 21
904.3794590788049
 31
0.0
  0
LINE
  5
11DD
330
2
100
AcDbEntity
  8
0
100
AcDbLine
 10
854.9052825786262
 20
904.3794590788177
 30
0.0
 11
854.4052825786261
 21
904.8794590788158
 31
0.0
  0
LINE
  5
11DE
330
2
100
AcDbEntity
  8
0
100
AcDbLine
 10
852.2052825786271
 20
908.3794590788158
 30
0.0
 11
767.6052825786305
 21
908.3794590788158
 31
0.0
  0
LINE
  5
11DF
330
2
100
AcDbEntity
  8
0
100
AcDbLine
 10
852.2052825786271
 20
908.3794590788158
 30
0.0
 11
852.4052825786261
 21
908.179459078817
 31
0.0
  0
LINE
  5
11E0
330
2
100
AcDbEntity
  8
0
100
AcDbLine
 10
852.2052825786271
 20
910.3794590788158
 30
0.0
 11
767.6052825786269
 21
910.3794590788814
 31
0.0
  0
LINE
  5
11E1
330
2
100
AcDbEntity
  8
0
100
AcDbLine
 10
852.4052825786261
 20
911.8794590788159
 30
0.0
 11
852.4052825786261
 21
910.5794590788166
 31
0.0
  0
LINE
  5
11E2
330
2
100
AcDbEntity
  8
0
100
AcDbLine
 10
851.7052825786272
 20
910.179459078817
 30
0.0
 11
851.7052825786272
 21
908.5794590788166
 31
0.0
  0
LINE
  5
11E3
330
2
100
AcDbEntity
  8
0
100
AcDbLine
 10
852.4052825786261
 20
911.8794590788159
 30
0.0
 11
851.8279323094361
 21
912.8794590788158
 31
0.0
  0
LINE
  5
11E4
330
2
100
AcDbEntity
  8
0
100
AcDbLine
 10
854.4052825786261
 20
904.8794590788158
 30
0.0
 11
765.4052825786298
 21
904.8794590788158
 31
0.0
  0
LINE
  5
11E5
330
2
100
AcDbEntity
  8
0
100
AcDbLine
 10
852.4052825786261
 20
908.179459078817
 30
0.0
 11
852.4052825786261
 21
904.8794590788158
 31
0.0
  0
LINE
  5
11E6
330
2
100
AcDbEntity
  8
0
100
AcDbLine
 10
875.4052825786262
 20
902.3794590788178
 30
0.0
 11
744.5668057895277
 21
902.3794590788178
 31
0.0
  0
LINE
  5
11E7
330
2
100
AcDbEntity
  8
0
100
AcDbLine
 10
864.3194961409994
 20
902.9652455164443
 30
0.0
 11
863.4910690162527
 21
903.793672641191
 31
0.0
  0
LINE
  5
11E8
330
2
100
AcDbEntity
  8
0
100
AcDbLine
 10
877.4052825786261
 20
898.8794590788177
 30
0.0
 11
877.4052825786261
 21
900.3794590788176
 31
0.0
  0
ARC
  5
11E9
330
2
100
AcDbEntity
  8
0
100
AcDbCircle
 10
879.4052825786261
 20
898.8794590788177
 30
0.0
 40
2.0
100
AcDbArc
 50
180.0
 51
270.0
  0
LINE
  5
11EA
330
2
100
AcDbEntity
  8
0
100
AcDbLine
 10
928.9052825786262
 20
881.8794590788122
 30
0.0
 11
928.7916809867024
 21
894.8969121498132
 31
0.0
  0
ARC
  5
11EB
330
2
100
AcDbEntity
  8
0
100
AcDbCircle
 10
927.8267026901234
 20
890.8794590788213
 30
0.0
 40
1.0
100
AcDbArc
 50
0.4999999999654926
 51
90.0
  0
LINE
  5
11EC
330
2
100
AcDbEntity
  8
0
100
AcDbLine
 10
742.5668819433981
 20
900.3969121498096
 30
0.0
 11
742.4052825786262
 21
881.8794590788122
 31
0.0
  0
ARC
  5
11ED
330
2
100
AcDbEntity
  8
0
100
AcDbCircle
 10
875.4052825786262
 20
900.3794590788176
 30
0.0
 40
2.0
100
AcDbArc
 50
0.0
 51
90.0
  0
ARC
  5
11EE
330
2
100
AcDbEntity
  8
0
100
AcDbCircle
 10
862.0768554538813
 20
902.3794590788178
 30
0.0
 40
2.0
100
AcDbArc
 50
45.00000000001784
 51
90.0
  0
ARC
  5
11EF
330
2
100
AcDbEntity
  8
0
100
AcDbCircle
 10
865.7337097033728
 20
904.3794590788177
 30
0.0
 40
2.0
100
AcDbArc
 50
225.0000000000178
 51
270.0
  0
ARC
  5
11F0
330
2
100
AcDbEntity
  8
0
100
AcDbCircle
 10
757.7337097033728
 20
902.3794590788122
 30
0.0
 40
2.0
100
AcDbArc
 50
90.0
 51
134.9999999999821
  0
ARC
  5
11F1
330
2
100
AcDbEntity
  8
0
100
AcDbCircle
 10
754.0768554538795
 20
904.3794590788122
 30
0.0
 40
2.0
100
AcDbArc
 50
270.0
 51
314.9999999999821
  0
ARC
  5
11F2
330
2
100
AcDbEntity
  8
0
100
AcDbCircle
 10
767.6052825786269
 20
910.579459078813
 30
0.0
 40
0.2
100
AcDbArc
 50
180.0
 51
270.0
  0
ARC
  5
11F3
330
2
100
AcDbEntity
  8
0
100
AcDbCircle
 10
767.9052825786262
 20
910.1794590788133
 30
0.0
 40
0.2
100
AcDbArc
 50
0.0
 51
90.0
  0
ARC
  5
11F4
330
2
100
AcDbEntity
  8
0
100
AcDbCircle
 10
767.9052825786262
 20
908.5794590788129
 30
0.0
 40
0.2
100
AcDbArc
 50
270.0
 51
0.0
  0
ARC
  5
11F5
330
2
100
AcDbEntity
  8
0
100
AcDbCircle
 10
852.2052825786271
 20
910.5794590788166
 30
0.0
 40
0.2
100
AcDbArc
 50
270.0
 51
0.0
  0
ARC
  5
11F6
330
2
100
AcDbEntity
  8
0
100
AcDbCircle
 10
851.905282578626
 20
910.179459078817
 30
0.0
 40
0.2
100
AcDbArc
 50
90.0
 51
180.0
  0
ARC
  5
11F7
330
2
100
AcDbEntity
  8
0
100
AcDbCircle
 10
851.905282578626
 20
908.5794590788166
 30
0.0
 40
0.2
100
AcDbArc
 50
180.0
 51
270.0
  0
LINE
  5
11F8
330
2
100
AcDbEntity
  8
0
100
AcDbLine
 10
767.4052825786262
 20
911.8794590788123
 30
0.0
 11
852.4052825786261
 21
911.8794590788159
 31
0.0
  0
LINE
  5
11F9
330
2
100
AcDbEntity
  8
0
100
AcDbLine
 10
912.4562834867306
 20
894.9318129754331
 30
0.0
 11
912.5234619594417
 21
892.3663706046674
 31
0.0
  0
LINE
  5
11FA
330
2
100
AcDbEntity
  8
0
100
AcDbLine
 10
913.0232906219303
 20
891.8794590788213
 30
0.0
 11
927.8267026901234
 21
891.8794590788213
 31
0.0
  0
ARC
  5
11FB
330
2
100
AcDbEntity
  8
0
100
AcDbCircle
 10
913.0232906219303
 20
892.3794590788213
 30
0.0
 40
0.5
100
AcDbArc
 50
181.4999999999897
 51
270.0
  0
ARC
  5
11FC
330
2
100
AcDbEntity
  8
0
100
AcDbCircle
 10
910.4569688367796
 20
894.8794590788176
 30
0.0
 40
2.0
100
AcDbArc
 50
1.499999999989693
 51
90.0
  0
LINE
  5
11FD
330
2
100
AcDbEntity
  8
0
100
AcDbLine
 10
760.9096079348623
 20
892.3750958110733
 30
0.0
 11
760.9796132654923
 21
900.3969121498151
 31
0.0
  0
LINE
  5
11FE
330
2
100
AcDbEntity
  8
0
100
AcDbLine
 10
760.4096269733276
 20
891.8794590788213
 30
0.0
 11
743.4838624671288
 21
891.8794590788213
 31
0.0
  0
ARC
  5
11FF
330
2
100
AcDbEntity
  8
0
100
AcDbCircle
 10
760.4096269733276
 20
892.3794590788213
 30
0.0
 40
0.5
100
AcDbArc
 50
270.0
 51
359.5000000000345
  0
ARC
  5
1200
330
2
100
AcDbEntity
  8
0
100
AcDbCircle
 10
743.4838624671288
 20
890.8794590788213
 30
0.0
 40
1.0
100
AcDbArc
 50
90.0
 51
179.5000000000344
  0
ARC
  5
1201
330
2
100
AcDbEntity
  8
0
100
AcDbCircle
 10
762.979537111622
 20
900.3794590788176
 30
0.0
 40
2.0
100
AcDbArc
 50
90.0
 51
179.5000000000344
  0
LINE
  5
1202
330
2
100
AcDbEntity
  8
0
100
AcDbLine
 10
877.4052825786261
 20
881.8794590788122
 30
0.0
 11
877.4052825786261
 21
900.3794590788176
 31
0.0
  0
LINE
  5
1203
330
2
100
AcDbEntity
  8
0
100
AcDbLine
 10
752.4052825786261
 20
890.8881856143191
 30
0.0
 11
752.4052825786261
 21
881.8794590788122
 31
0.0
  0
LINE
  5
1204
330
2
100
AcDbEntity
  8
0
100
AcDbLine
 10
756.4052825786261
 20
890.8881856143191
 30
0.0
 11
756.4052825786261
 21
881.8794590788122
 31
0.0
  0
LINE
  5
1205
330
2
100
AcDbEntity
  8
0
100
AcDbLine
 10
782.2370874147022
 20
900.3969121498151
 30
0.0
 11
782.2370874147022
 21
881.8794590788122
 31
0.0
  0
LINE
  5
1206
330
2
100
AcDbEntity
  8
0
100
AcDbLine
 10
867.4052825786262
 20
900.3794590788176
 30
0.0
 11
867.4052825786262
 21
881.8794590788122
 31
0.0
  0
LINE
  5
1207
330
2
100
AcDbEntity
  8
0
100
AcDbLine
 10
863.4052825786261
 20
900.3794590788176
 30
0.0
 11
863.4052825786261
 21
881.8794590788122
 31
0.0
  0
LINE
  5
1208
330
2
100
AcDbEntity
  8
0
100
AcDbLine
 10
837.5734777425501
 20
900.3969121498151
 30
0.0
 11
837.5734777425501
 21
881.8794590788122
 31
0.0
  0
LINE
  5
1209
330
2
100
AcDbEntity
  8
0
100
AcDbLine
 10
915.271307982412
 20
901.8794590788214
 30
0.0
 11
926.5392571748421
 21
901.8794590788214
 31
0.0
  0
LINE
  5
120A
330
2
100
AcDbEntity
  8
0
100
AcDbLine
 10
914.405282578626
 20
891.8794590788213
 30
0.0
 11
927.4052825786261
 21
891.8794590788213
 31
0.0
  0
LINE
  5
120B
330
2
100
AcDbEntity
  8
0
100
AcDbLine
 10
914.405282578626
 20
893.8794590788214
 30
0.0
 11
927.4052825786261
 21
893.8794590788214
 31
0.0
  0
LINE
  5
120C
330
2
100
AcDbEntity
  8
0
100
AcDbLine
 10
927.4052825786261
 20
901.3794590788213
 30
0.0
 11
926.5392571748421
 21
901.8794590788214
 31
0.0
  0
LINE
  5
120D
330
2
100
AcDbEntity
  8
0
100
AcDbLine
 10
927.4052825786261
 20
891.8794590788213
 30
0.0
 11
927.4052825786261
 21
893.8794590788214
 31
0.0
  0
LINE
  5
120E
330
2
100
AcDbEntity
  8
0
100
AcDbLine
 10
927.4052825786261
 20
893.8794590788214
 30
0.0
 11
927.4052825786261
 21
901.3794590788213
 31
0.0
  0
LINE
  5
120F
330
2
100
AcDbEntity
  8
CENTER
  6
CENS
100
AcDbLine
 10
920.9052825786262
 20
873.6824668047241
 30
0.0
 11
920.9052825786262
 21
907.8794590788213
 31
0.0
  0
LINE
  5
1210
330
2
100
AcDbEntity
  8
0
100
AcDbLine
 10
914.405282578626
 20
901.3794590788213
 30
0.0
 11
915.2713079824103
 21
901.8794590788214
 31
0.0
  0
LINE
  5
1211
330
2
100
AcDbEntity
  8
0
100
AcDbLine
 10
914.405282578626
 20
891.8794590788213
 30
0.0
 11
914.405282578626
 21
893.8794590788214
 31
0.0
  0
LINE
  5
1212
330
2
100
AcDbEntity
  8
0
100
AcDbLine
 10
914.405282578626
 20
893.8794590788214
 30
0.0
 11
914.405282578626
 21
901.3794590788213
 31
0.0
  0
LINE
  5
1213
330
2
100
AcDbEntity
  8
0
100
AcDbLine
 10
914.405282578626
 20
901.3794590788213
 30
0.0
 11
927.4052825786261
 21
901.3794590788213
 31
0.0
  0
LINE
  5
1214
330
2
100
AcDbEntity
  8
0
100
AcDbLine
 10
746.7713079824102
 20
901.8794590788214
 30
0.0
 11
758.0392571748403
 21
901.8794590788214
 31
0.0
  0
LINE
  5
1215
330
2
100
AcDbEntity
  8
0
100
AcDbLine
 10
745.9052825786243
 20
891.8794590788213
 30
0.0
 11
758.9052825786243
 21
891.8794590788213
 31
0.0
  0
LINE
  5
1216
330
2
100
AcDbEntity
  8
0
100
AcDbLine
 10
745.9052825786243
 20
893.8794590788214
 30
0.0
 11
758.9052825786243
 21
893.8794590788214
 31
0.0
  0
LINE
  5
1217
330
2
100
AcDbEntity
  8
0
100
AcDbLine
 10
758.9052825786243
 20
901.3794590788213
 30
0.0
 11
758.0392571748403
 21
901.8794590788214
 31
0.0
  0
LINE
  5
1218
330
2
100
AcDbEntity
  8
0
100
AcDbLine
 10
758.9052825786243
 20
891.8794590788213
 30
0.0
 11
758.9052825786243
 21
893.8794590788214
 31
0.0
  0
LINE
  5
1219
330
2
100
AcDbEntity
  8
0
100
AcDbLine
 10
758.9052825786243
 20
893.8794590788214
 30
0.0
 11
758.9052825786243
 21
901.3794590788213
 31
0.0
  0
LINE
  5
121A
330
2
100
AcDbEntity
  8
0
100
AcDbLine
 10
745.9052825786243
 20
901.3794590788213
 30
0.0
 11
746.7713079824102
 21
901.8794590788214
 31
0.0
  0
LINE
  5
121B
330
2
100
AcDbEntity
  8
0
100
AcDbLine
 10
745.9052825786243
 20
891.8794590788213
 30
0.0
 11
745.9052825786243
 21
893.8794590788214
 31
0.0
  0
LINE
  5
121C
330
2
100
AcDbEntity
  8
0
100
AcDbLine
 10
745.9052825786243
 20
893.8794590788214
 30
0.0
 11
745.9052825786243
 21
901.3794590788213
 31
0.0
  0
LINE
  5
121D
330
2
100
AcDbEntity
  8
0
100
AcDbLine
 10
745.9052825786243
 20
901.3794590788213
 30
0.0
 11
758.9052825786243
 21
901.3794590788213
 31
0.0
  0
LINE
  5
121E
330
2
100
AcDbEntity
  8
CENTER
  6
CENS
100
AcDbLine
 10
752.4052825786261
 20
873.6824668047241
 30
0.0
 11
752.4052825786261
 21
907.8794590788213
 31
0.0
  0
ARC
  5
1225
330
2
100
AcDbEntity
  8
0
100
AcDbCircle
 10
809.905282578628
 20
510.8025711032745
 30
0.0
 40
16.0
100
AcDbArc
 50
108.2099568642822
 51
71.79004313571773
  0
LINE
  5
1226
330
2
100
AcDbEntity
  8
0
100
AcDbLine
 10
804.9052825786279
 20
530.1025741032747
 30
0.0
 11
804.9052825786279
 21
526.0012552568452
 31
0.0
  0
LINE
  5
1227
330
2
100
AcDbEntity
  8
0
100
AcDbLine
 10
814.9052825786279
 20
530.1025741032747
 30
0.0
 11
814.9052825786279
 21
526.0012552568452
 31
0.0
  0
LINE
  5
1228
330
2
100
AcDbEntity
  8
0
100
AcDbLine
 10
804.9052825786279
 20
530.1025741032747
 30
0.0
 11
814.9052825786279
 21
530.1025741032747
 31
0.0
  0
CIRCLE
  5
1229
330
2
100
AcDbEntity
  8
0
100
AcDbCircle
 10
809.905282578628
 20
510.8025711032745
 30
0.0
 40
24.49999999582681
  0
ARC
  5
122A
330
2
100
AcDbEntity
  8
0
100
AcDbCircle
 10
809.905282578628
 20
510.8025711032745
 30
0.0
 40
17.15469399582682
100
AcDbArc
 50
106.9457086469731
 51
73.0542913530269
  0
LINE
  5
122B
330
2
100
AcDbEntity
  8
CENTER
100
AcDbLine
 10
561.7605683850001
 20
101.5964875343292
 30
0.0
 11
561.7605683850001
 21
265.9681530533956
 31
0.0
  0
LINE
  5
122C
330
2
100
AcDbEntity
  8
0
100
AcDbLine
 10
633.7605650561895
 20
142.2136978433899
 30
0.0
 11
633.7605650561895
 21
159.282320293776
 31
0.0
  0
LINE
  5
122D
330
2
100
AcDbEntity
  8
0
100
AcDbLine
 10
633.7605650561895
 20
208.2823202937759
 30
0.0
 11
633.7605650561895
 21
225.350942744162
 31
0.0
  0
LINE
  5
122E
330
2
100
AcDbEntity
  8
0
100
AcDbLine
 10
619.7605650561895
 20
123.7823202938615
 30
0.0
 11
619.7605650561895
 21
160.6647417203184
 31
0.0
  0
LINE
  5
122F
330
2
100
AcDbEntity
  8
0
100
AcDbLine
 10
619.7605650561895
 20
206.8998988672336
 30
0.0
 11
619.7605650561895
 21
243.7823202938632
 31
0.0
  0
LINE
  5
1230
330
2
100
AcDbEntity
  8
CENTER
100
AcDbLine
 10
477.7605650561899
 20
183.7823202937759
 30
0.0
 11
661.7605650561895
 21
183.7823202937759
 31
0.0
  0
LINE
  5
1231
330
2
100
AcDbEntity
  8
0
100
AcDbLine
 10
525.7605683849996
 20
116.2823202938615
 30
0.0
 11
614.7605650561895
 21
117.0590114981896
 31
0.0
  0
LINE
  5
1232
330
2
100
AcDbEntity
  8
0
100
AcDbLine
 10
614.7605650561895
 20
123.7823202938615
 30
0.0
 11
619.7605650561895
 21
123.7823202938615
 31
0.0
  0
LINE
  5
1233
330
2
100
AcDbEntity
  8
0
100
AcDbLine
 10
614.7605650561914
 20
250.5056290895352
 30
0.0
 11
525.7605683849996
 21
251.2823202938633
 31
0.0
  0
LINE
  5
1234
330
2
100
AcDbEntity
  8
0
100
AcDbLine
 10
614.7605650561895
 20
243.7823202938632
 30
0.0
 11
619.7605650561895
 21
243.7823202938632
 31
0.0
  0
LINE
  5
1235
330
2
100
AcDbEntity
  8
0
100
AcDbLine
 10
614.7605650561914
 20
250.5056290895352
 30
0.0
 11
614.7605650561914
 21
204.734224631751
 31
0.0
  0
LINE
  5
1236
330
2
100
AcDbEntity
  8
0
100
AcDbLine
 10
614.7605650561914
 20
162.830415955801
 30
0.0
 11
614.7605650561895
 21
117.0590114981896
 31
0.0
  0
LINE
  5
1237
330
2
100
AcDbEntity
  8
0
100
AcDbLine
 10
631.8303640495947
 20
140.214916189352
 30
0.0
 11
621.6907660627843
 21
139.8608336253145
 31
0.0
  0
LINE
  5
1238
330
2
100
AcDbEntity
  8
0
100
AcDbLine
 10
631.8303640495947
 20
227.3497243981999
 30
0.0
 11
621.6907660627843
 21
227.7038069622356
 31
0.0
  0
ARC
  5
1239
330
2
100
AcDbEntity
  8
0
100
AcDbCircle
 10
621.7605650561895
 20
229.7025886162753
 30
0.0
 40
2.0
100
AcDbArc
 50
180.0
 51
267.9999999999963
  0
ARC
  5
123A
330
2
100
AcDbEntity
  8
0
100
AcDbCircle
 10
621.7605650561895
 20
137.8620519712766
 30
0.0
 40
2.0
100
AcDbArc
 50
92.00000000000365
 51
180.0
  0
ARC
  5
123B
330
2
100
AcDbEntity
  8
0
100
AcDbCircle
 10
631.7605650561895
 20
142.2136978433899
 30
0.0
 40
2.0
100
AcDbArc
 50
272.0000000000036
 51
0.0
  0
ARC
  5
123C
330
2
100
AcDbEntity
  8
0
100
AcDbCircle
 10
631.7605650561895
 20
225.350942744162
 30
0.0
 40
2.0
100
AcDbArc
 50
0.0
 51
87.99999999999636
  0
LINE
  5
123D
330
2
100
AcDbEntity
  8
0
100
AcDbLine
 10
614.7605650561895
 20
241.2823202940379
 30
0.0
 11
525.7605683849996
 21
241.2823202940379
 31
0.0
  0
LINE
  5
123E
330
2
100
AcDbEntity
  8
0
100
AcDbLine
 10
614.7605650561895
 20
237.2823202940379
 30
0.0
 11
525.7605683849996
 21
237.2823202940379
 31
0.0
  0
LINE
  5
123F
330
2
100
AcDbEntity
  8
0
100
AcDbLine
 10
614.7605650561895
 20
211.4505154579435
 30
0.0
 11
525.7605683849996
 21
211.4505154579435
 31
0.0
  0
LINE
  5
1240
330
2
100
AcDbEntity
  8
0
100
AcDbLine
 10
614.7605650561895
 20
126.2823202935141
 30
0.0
 11
525.7605683849996
 21
126.2823202935141
 31
0.0
  0
LINE
  5
1241
330
2
100
AcDbEntity
  8
0
100
AcDbLine
 10
614.7605650561895
 20
130.2823202935141
 30
0.0
 11
525.7605683849996
 21
130.2823202935141
 31
0.0
  0
LINE
  5
1242
330
2
100
AcDbEntity
  8
0
100
AcDbLine
 10
614.7605650561895
 20
156.1141251296066
 30
0.0
 11
525.7605683849996
 21
156.1141251296066
 31
0.0
  0
ARC
  5
1243
330
2
100
AcDbEntity
  8
0
100
AcDbCircle
 10
507.2605683849997
 20
249.1207970828743
 30
0.0
 40
2.0
100
AcDbArc
 50
90.49999999999155
 51
180.0
  0
LINE
  5
1244
330
2
100
AcDbEntity
  8
0
100
AcDbLine
 10
504.674781947373
 20
238.1965338561493
 30
0.0
 11
503.8463548226263
 21
237.3681067314026
 31
0.0
  0
LINE
  5
1245
330
2
100
AcDbEntity
  8
0
100
AcDbLine
 10
494.7605683849997
 20
225.7049700245859
 30
0.0
 11
494.7605683849997
 21
208.2823202937759
 31
0.0
  0
LINE
  5
1246
330
2
100
AcDbEntity
  8
0
100
AcDbLine
 10
494.7605683849997
 20
159.282320293776
 30
0.0
 11
494.7605683850006
 21
141.8596705629642
 31
0.0
  0
LINE
  5
1247
330
2
100
AcDbEntity
  8
0
100
AcDbLine
 10
505.7605683849997
 20
220.1775766074987
 30
0.0
 11
505.7605683849997
 21
208.2823202937759
 31
0.0
  0
LINE
  5
1248
330
2
100
AcDbEntity
  8
0
100
AcDbLine
 10
505.7605683849997
 20
159.282320293776
 30
0.0
 11
505.7605683849997
 21
147.3870639800533
 31
0.0
  0
LINE
  5
1249
330
2
100
AcDbEntity
  8
0
100
AcDbLine
 10
495.7605683849997
 20
219.7823202937759
 30
0.0
 11
495.7605683849997
 21
208.2823202937759
 31
0.0
  0
LINE
  5
124A
330
2
100
AcDbEntity
  8
0
100
AcDbLine
 10
495.7605683849997
 20
159.282320293776
 30
0.0
 11
495.7605683849997
 21
147.782320293776
 31
0.0
  0
LINE
  5
124B
330
2
100
AcDbEntity
  8
0
100
AcDbLine
 10
503.2605683849997
 20
228.7823202937759
 30
0.0
 11
502.7605683849997
 21
228.2823202937759
 31
0.0
  0
LINE
  5
124C
330
2
100
AcDbEntity
  8
0
100
AcDbLine
 10
505.7605683849997
 20
219.7823202937759
 30
0.0
 11
495.7605683849997
 21
219.7823202937759
 31
0.0
  0
LINE
  5
124D
330
2
100
AcDbEntity
  8
0
100
AcDbLine
 10
499.2605683849997
 20
226.0823202937752
 30
0.0
 11
499.4605683849995
 21
226.2823202937759
 31
0.0
  0
LINE
  5
124E
330
2
100
AcDbEntity
  8
0
100
AcDbLine
 10
497.4605683849995
 20
225.5823202937752
 30
0.0
 11
499.0605683849999
 21
225.5823202937752
 31
0.0
  0
LINE
  5
124F
330
2
100
AcDbEntity
  8
0
100
AcDbLine
 10
495.7605683849997
 20
226.2823202937759
 30
0.0
 11
494.7605683849997
 21
225.7049700245859
 31
0.0
  0
LINE
  5
1250
330
2
100
AcDbEntity
  8
0
100
AcDbLine
 10
495.7605683849997
 20
226.2823202937759
 30
0.0
 11
497.0605683849998
 21
226.2823202937759
 31
0.0
  0
LINE
  5
1251
330
2
100
AcDbEntity
  8
0
100
AcDbLine
 10
499.4605683849995
 20
226.2823202937759
 30
0.0
 11
502.7605683849997
 21
226.2823202937759
 31
0.0
  0
LINE
  5
1252
330
2
100
AcDbEntity
  8
0
100
AcDbLine
 10
495.7605683850015
 20
219.7823202937759
 30
0.0
 11
494.7605683850015
 21
220.3596705629659
 31
0.0
  0
LINE
  5
1253
330
2
100
AcDbEntity
  8
0
100
AcDbLine
 10
503.2605683849951
 20
131.6107474185227
 30
0.0
 11
503.2605683849969
 21
145.4446680086038
 31
0.0
  0
LINE
  5
1254
330
2
100
AcDbEntity
  8
0
100
AcDbLine
 10
503.2605683850061
 20
222.1199725789464
 30
0.0
 11
503.2605683850079
 21
235.9538931690293
 31
0.0
  0
LINE
  5
1255
330
2
100
AcDbEntity
  8
0
100
AcDbLine
 10
503.260568384996
 20
138.782320293776
 30
0.0
 11
502.760568384996
 21
139.282320293776
 31
0.0
  0
LINE
  5
1256
330
2
100
AcDbEntity
  8
0
100
AcDbLine
 10
505.7605683849997
 20
147.782320293776
 30
0.0
 11
495.7605683849997
 21
147.782320293776
 31
0.0
  0
LINE
  5
1257
330
2
100
AcDbEntity
  8
0
100
AcDbLine
 10
507.5937993635006
 20
147.3390591374317
 30
0.0
 11
505.7605683849997
 21
147.3870639800533
 31
0.0
  0
LINE
  5
1258
330
2
100
AcDbEntity
  8
0
100
AcDbLine
 10
495.7605683849997
 20
147.782320293776
 30
0.0
 11
494.7605683849997
 21
147.2049700245861
 31
0.0
  0
LINE
  5
1259
330
2
100
AcDbEntity
  8
0
100
AcDbLine
 10
499.260568384996
 20
141.4823202937749
 30
0.0
 11
499.260568384996
 21
145.2169602361827
 31
0.0
  0
LINE
  5
125A
330
2
100
AcDbEntity
  8
0
100
AcDbLine
 10
499.260568384996
 20
222.3476803513693
 30
0.0
 11
499.260568384996
 21
226.0823202937716
 31
0.0
  0
LINE
  5
125B
330
2
100
AcDbEntity
  8
0
100
AcDbLine
 10
499.260568384996
 20
141.4823202937749
 30
0.0
 11
499.4605683849958
 21
141.282320293776
 31
0.0
  0
LINE
  5
125C
330
2
100
AcDbEntity
  8
0
100
AcDbLine
 10
497.2605683849961
 20
141.4823202937749
 30
0.0
 11
497.2605683849933
 21
145.0020554553374
 31
0.0
  0
LINE
  5
125D
330
2
100
AcDbEntity
  8
0
100
AcDbLine
 10
497.2605683849342
 20
222.5625851322218
 30
0.0
 11
497.2605683849315
 21
226.0823202937752
 31
0.0
  0
LINE
  5
125E
330
2
100
AcDbEntity
  8
0
100
AcDbLine
 10
495.760568384996
 20
141.282320293776
 30
0.0
 11
497.0605683849953
 21
141.282320293776
 31
0.0
  0
LINE
  5
125F
330
2
100
AcDbEntity
  8
0
100
AcDbLine
 10
497.4605683849959
 20
141.982320293775
 30
0.0
 11
499.0605683849953
 21
141.982320293775
 31
0.0
  0
LINE
  5
1260
330
2
100
AcDbEntity
  8
0
100
AcDbLine
 10
495.760568384996
 20
141.282320293776
 30
0.0
 11
494.760568384996
 21
141.859670562966
 31
0.0
  0
LINE
  5
1261
330
2
100
AcDbEntity
  8
0
100
AcDbLine
 10
502.760568384996
 20
139.282320293776
 30
0.0
 11
502.760568384996
 21
145.4044274581919
 31
0.0
  0
LINE
  5
1262
330
2
100
AcDbEntity
  8
0
100
AcDbLine
 10
502.760568384996
 20
222.1602131293601
 30
0.0
 11
502.760568384996
 21
228.2823202937723
 31
0.0
  0
LINE
  5
1263
330
2
100
AcDbEntity
  8
0
100
AcDbLine
 10
499.4605683849958
 20
141.282320293776
 30
0.0
 11
502.760568384996
 21
141.282320293776
 31
0.0
  0
LINE
  5
1264
330
2
100
AcDbEntity
  8
0
100
AcDbLine
 10
505.2605683849951
 20
118.4438435046758
 30
0.0
 11
505.260568384996
 21
145.7861528998109
 31
0.0
  0
LINE
  5
1265
330
2
100
AcDbEntity
  8
0
100
AcDbLine
 10
505.260568384996
 20
221.7784876877411
 30
0.0
 11
505.2605683849951
 21
249.1207970828743
 31
0.0
  0
LINE
  5
1266
330
2
100
AcDbEntity
  8
0
100
AcDbLine
 10
504.6747819473685
 20
129.3681067314027
 30
0.0
 11
503.8463548226218
 21
130.1965338561494
 31
0.0
  0
LINE
  5
1267
330
2
100
AcDbEntity
  8
0
100
AcDbLine
 10
507.2431153140033
 20
251.120720929004
 30
0.0
 11
525.7605683849996
 21
251.2823202937759
 31
0.0
  0
LINE
  5
1268
330
2
100
AcDbEntity
  8
0
100
AcDbLine
 10
507.5937993635006
 20
220.2255814501203
 30
0.0
 11
505.7605683849997
 21
220.1775766074987
 31
0.0
  0
ARC
  5
1269
330
2
100
AcDbEntity
  8
0
100
AcDbCircle
 10
505.2605683849951
 20
131.6107474185227
 30
0.0
 40
2.0
100
AcDbArc
 50
180.0
 51
225.0000000000178
  0
ARC
  5
126A
330
2
100
AcDbEntity
  8
0
100
AcDbCircle
 10
503.2605683849951
 20
127.9538931690294
 30
0.0
 40
2.0
100
AcDbArc
 50
0.0
 51
45.00000000001784
  0
ARC
  5
126B
330
2
100
AcDbEntity
  8
0
100
AcDbCircle
 10
505.2605683849996
 20
235.9538931690293
 30
0.0
 40
2.0
100
AcDbArc
 50
134.9999999999821
 51
180.0
  0
ARC
  5
126C
330
2
100
AcDbEntity
  8
0
100
AcDbCircle
 10
503.2605683849997
 20
239.6107474185226
 30
0.0
 40
2.0
100
AcDbArc
 50
314.9999999999821
 51
0.0
  0
ARC
  5
126D
330
2
100
AcDbEntity
  8
0
100
AcDbCircle
 10
497.0605683849998
 20
226.0823202937752
 30
0.0
 40
0.2
100
AcDbArc
 50
0.0
 51
90.0
  0
ARC
  5
126E
330
2
100
AcDbEntity
  8
0
100
AcDbCircle
 10
497.4605683849995
 20
225.7823202937759
 30
0.0
 40
0.2
100
AcDbArc
 50
180.0
 51
270.0
  0
ARC
  5
126F
330
2
100
AcDbEntity
  8
0
100
AcDbCircle
 10
499.0605683849999
 20
225.7823202937759
 30
0.0
 40
0.2
100
AcDbArc
 50
270.0
 51
0.0
  0
ARC
  5
1270
330
2
100
AcDbEntity
  8
0
100
AcDbCircle
 10
497.0605683849953
 20
141.4823202937749
 30
0.0
 40
0.2
100
AcDbArc
 50
270.0
 51
0.0
  0
ARC
  5
1271
330
2
100
AcDbEntity
  8
0
100
AcDbCircle
 10
497.4605683849959
 20
141.782320293776
 30
0.0
 40
0.2
100
AcDbArc
 50
90.0
 51
180.0
  0
ARC
  5
1272
330
2
100
AcDbEntity
  8
0
100
AcDbCircle
 10
499.0605683849953
 20
141.782320293776
 30
0.0
 40
0.2
100
AcDbArc
 50
0.0
 51
90.0
  0
LINE
  5
1273
330
2
100
AcDbEntity
  8
0
100
AcDbLine
 10
495.7605683849997
 20
226.2823202937759
 30
0.0
 11
495.7605683849997
 21
222.7838871027305
 31
0.0
  0
LINE
  5
1274
330
2
100
AcDbEntity
  8
0
100
AcDbLine
 10
495.760568384996
 20
144.7807534848215
 30
0.0
 11
495.760568384996
 21
141.282320293776
 31
0.0
  0
LINE
  5
1275
330
2
100
AcDbEntity
  8
0
100
AcDbLine
 10
515.2649316527394
 20
232.7779949375397
 30
0.0
 11
507.2431153139977
 21
232.7079896069097
 31
0.0
  0
LINE
  5
1276
330
2
100
AcDbEntity
  8
0
100
AcDbLine
 10
515.7605683849906
 20
233.2779758990744
 30
0.0
 11
515.7605683849906
 21
250.2037404052733
 31
0.0
  0
ARC
  5
1277
330
2
100
AcDbEntity
  8
0
100
AcDbCircle
 10
515.2605683849905
 20
233.2779758990744
 30
0.0
 40
0.5
100
AcDbArc
 50
270.5000000000175
 51
0.0
  0
ARC
  5
1278
330
2
100
AcDbEntity
  8
0
100
AcDbCircle
 10
516.7605683849906
 20
250.2037404052733
 30
0.0
 40
1.0
100
AcDbArc
 50
90.50000000001761
 51
180.0
  0
ARC
  5
1279
330
2
100
AcDbEntity
  8
0
100
AcDbCircle
 10
507.2605683849952
 20
230.7080657607801
 30
0.0
 40
2.0
100
AcDbArc
 50
90.49999999999155
 51
180.0
  0
LINE
  5
127A
330
2
100
AcDbEntity
  8
0
100
AcDbLine
 10
516.7518418494928
 20
241.2823202937759
 30
0.0
 11
525.7605683849996
 21
241.2823202937759
 31
0.0
  0
LINE
  5
127B
330
2
100
AcDbEntity
  8
0
100
AcDbLine
 10
516.7518418494928
 20
237.2823202937759
 30
0.0
 11
525.7605683849996
 21
237.2823202937759
 31
0.0
  0
LINE
  5
127C
330
2
100
AcDbEntity
  8
0
100
AcDbLine
 10
508.6407628472736
 20
211.4505154579435
 30
0.0
 11
525.7605683849996
 21
211.4505154579435
 31
0.0
  0
LINE
  5
127D
330
2
100
AcDbEntity
  8
0
100
AcDbLine
 10
516.7518418494928
 20
126.282320293776
 30
0.0
 11
525.7605683849996
 21
126.282320293776
 31
0.0
  0
LINE
  5
127E
330
2
100
AcDbEntity
  8
0
100
AcDbLine
 10
516.7518418494928
 20
130.282320293776
 30
0.0
 11
525.7605683849996
 21
130.282320293776
 31
0.0
  0
LINE
  5
127F
330
2
100
AcDbEntity
  8
0
100
AcDbLine
 10
508.6407628472736
 20
156.1141251296066
 30
0.0
 11
525.7605683849996
 21
156.1141251296066
 31
0.0
  0
ARC
  5
1280
330
2
100
AcDbEntity
  8
0
100
AcDbCircle
 10
507.2605683849997
 20
118.4438435046758
 30
0.0
 40
2.0
100
AcDbArc
 50
180.0
 51
269.5000000000084
  0
LINE
  5
1281
330
2
100
AcDbEntity
  8
0
100
AcDbLine
 10
507.2431153140033
 20
116.443919658548
 30
0.0
 11
525.7605683849996
 21
116.282320293776
 31
0.0
  0
ARC
  5
1282
330
2
100
AcDbEntity
  8
0
100
AcDbCircle
 10
516.7605683849906
 20
117.3609001822787
 30
0.0
 40
1.0
100
AcDbArc
 50
180.0
 51
269.4999999999824
  0
LINE
  5
1283
330
2
100
AcDbEntity
  8
0
100
AcDbLine
 10
515.2649316527394
 20
134.7866456500123
 30
0.0
 11
507.2431153139977
 21
134.8566509806423
 31
0.0
  0
LINE
  5
1284
330
2
100
AcDbEntity
  8
0
100
AcDbLine
 10
515.7605683849906
 20
134.2866646884776
 30
0.0
 11
515.7605683849906
 21
117.3609001822787
 31
0.0
  0
ARC
  5
1285
330
2
100
AcDbEntity
  8
0
100
AcDbCircle
 10
515.2605683849905
 20
134.2866646884776
 30
0.0
 40
0.5
100
AcDbArc
 50
0.0
 51
89.49999999998238
  0
ARC
  5
1286
330
2
100
AcDbEntity
  8
0
100
AcDbCircle
 10
507.2605683849952
 20
136.85657482677
 30
0.0
 40
2.0
100
AcDbArc
 50
180.0
 51
269.5000000000084
  0
LINE
  5
1287
330
2
100
AcDbEntity
  8
0
100
AcDbLine
 10
525.7605683849996
 20
251.2823202937759
 30
0.0
 11
525.7605683849996
 21
205.7995186764745
 31
0.0
  0
LINE
  5
1288
330
2
100
AcDbEntity
  8
0
100
AcDbLine
 10
525.7605683849996
 20
161.7651219110775
 30
0.0
 11
525.7605683849996
 21
116.282320293776
 31
0.0
  0
LINE
  5
1289
330
2
100
AcDbEntity
  8
0
100
AcDbLine
 10
505.7605683849906
 20
246.9162948899918
 30
0.0
 11
505.7605683849906
 21
235.6483456975618
 31
0.0
  0
LINE
  5
128A
330
2
100
AcDbEntity
  8
0
100
AcDbLine
 10
515.7605683849906
 20
247.7823202937778
 30
0.0
 11
515.7605683849906
 21
234.7823202937778
 31
0.0
  0
LINE
  5
128B
330
2
100
AcDbEntity
  8
0
100
AcDbLine
 10
513.7605683849906
 20
247.7823202937778
 30
0.0
 11
513.7605683849915
 21
234.7823202937778
 31
0.0
  0
LINE
  5
128C
330
2
100
AcDbEntity
  8
0
100
AcDbLine
 10
506.2605683849906
 20
234.7823202937778
 30
0.0
 11
505.7605683849906
 21
235.6483456975618
 31
0.0
  0
LINE
  5
128D
330
2
100
AcDbEntity
  8
0
100
AcDbLine
 10
515.7605683849906
 20
234.7823202937778
 30
0.0
 11
513.7605683849906
 21
234.7823202937778
 31
0.0
  0
LINE
  5
128E
330
2
100
AcDbEntity
  8
0
100
AcDbLine
 10
513.7605683849906
 20
234.7823202937778
 30
0.0
 11
506.2605683849906
 21
234.7823202937778
 31
0.0
  0
LINE
  5
128F
330
2
100
AcDbEntity
  8
CENTER
  6
CENS
100
AcDbLine
 10
535.3380628381983
 20
241.2823202937778
 30
0.0
 11
499.7605683849906
 21
241.2823202937778
 31
0.0
  0
LINE
  5
1290
330
2
100
AcDbEntity
  8
0
100
AcDbLine
 10
506.2605683849906
 20
247.7823202937778
 30
0.0
 11
505.7605683849906
 21
246.9162948899918
 31
0.0
  0
LINE
  5
1291
330
2
100
AcDbEntity
  8
0
100
AcDbLine
 10
515.7605683849906
 20
247.7823202937778
 30
0.0
 11
513.7605683849906
 21
247.7823202937778
 31
0.0
  0
LINE
  5
1292
330
2
100
AcDbEntity
  8
0
100
AcDbLine
 10
513.7605683849906
 20
247.7823202937778
 30
0.0
 11
506.2605683849906
 21
247.7823202937778
 31
0.0
  0
LINE
  5
1293
330
2
100
AcDbEntity
  8
0
100
AcDbLine
 10
506.2605683849906
 20
247.7823202937778
 30
0.0
 11
506.2605683849906
 21
234.7823202937778
 31
0.0
  0
LINE
  5
1294
330
2
100
AcDbEntity
  8
0
100
AcDbLine
 10
505.7605683849906
 20
120.6483456975601
 30
0.0
 11
505.7605683849906
 21
131.9162948899901
 31
0.0
  0
LINE
  5
1295
330
2
100
AcDbEntity
  8
0
100
AcDbLine
 10
513.7605683849906
 20
119.7823202937742
 30
0.0
 11
513.7605683849915
 21
132.7823202937742
 31
0.0
  0
LINE
  5
1296
330
2
100
AcDbEntity
  8
0
100
AcDbLine
 10
506.2605683849906
 20
132.7823202937742
 30
0.0
 11
505.7605683849906
 21
131.9162948899901
 31
0.0
  0
LINE
  5
1297
330
2
100
AcDbEntity
  8
0
100
AcDbLine
 10
515.7605683849906
 20
132.7823202937742
 30
0.0
 11
513.7605683849906
 21
132.7823202937742
 31
0.0
  0
LINE
  5
1298
330
2
100
AcDbEntity
  8
0
100
AcDbLine
 10
513.7605683849906
 20
132.7823202937742
 30
0.0
 11
506.2605683849906
 21
132.7823202937742
 31
0.0
  0
LINE
  5
1299
330
2
100
AcDbEntity
  8
CENTER
  6
CENS
100
AcDbLine
 10
535.3380628381983
 20
126.2823202937742
 30
0.0
 11
499.7605683849906
 21
126.2823202937742
 31
0.0
  0
LINE
  5
129A
330
2
100
AcDbEntity
  8
0
100
AcDbLine
 10
506.2605683849906
 20
119.7823202937742
 30
0.0
 11
505.7605683849906
 21
120.6483456975583
 31
0.0
  0
LINE
  5
129B
330
2
100
AcDbEntity
  8
0
100
AcDbLine
 10
515.7605683849906
 20
119.7823202937742
 30
0.0
 11
513.7605683849906
 21
119.7823202937742
 31
0.0
  0
LINE
  5
129C
330
2
100
AcDbEntity
  8
0
100
AcDbLine
 10
513.7605683849906
 20
119.7823202937742
 30
0.0
 11
506.2605683849906
 21
119.7823202937742
 31
0.0
  0
LINE
  5
129D
330
2
100
AcDbEntity
  8
0
100
AcDbLine
 10
506.2605683849906
 20
119.7823202937742
 30
0.0
 11
506.2605683849906
 21
132.7823202937742
 31
0.0
  0
LINE
  5
129E
330
2
100
AcDbEntity
  8
0
100
AcDbLine
 10
622.7605650561895
 20
147.5703654310381
 30
0.0
 11
621.173917810293
 21
147.5288176106986
 31
0.0
  0
LINE
  5
129F
330
2
100
AcDbEntity
  8
0
100
AcDbLine
 10
632.7605650561895
 20
147.782320293776
 30
0.0
 11
632.7605650561895
 21
159.282320293776
 31
0.0
  0
LINE
  5
12A0
330
2
100
AcDbEntity
  8
0
100
AcDbLine
 10
632.7605650561895
 20
208.2823202937759
 30
0.0
 11
632.7605650561895
 21
219.7823202937759
 31
0.0
  0
LINE
  5
12A1
330
2
100
AcDbEntity
  8
0
100
AcDbLine
 10
622.7605650561895
 20
147.5703654310381
 30
0.0
 11
622.7605650561895
 21
159.282320293776
 31
0.0
  0
LINE
  5
12A2
330
2
100
AcDbEntity
  8
0
100
AcDbLine
 10
622.7605650561895
 20
208.2823202937759
 30
0.0
 11
622.7605650561895
 21
219.9942751565138
 31
0.0
  0
LINE
  5
12A3
330
2
100
AcDbEntity
  8
0
100
AcDbLine
 10
632.7605650561895
 20
147.782320293776
 30
0.0
 11
622.7605650561895
 21
147.782320293776
 31
0.0
  0
LINE
  5
12A4
330
2
100
AcDbEntity
  8
0
100
AcDbLine
 10
632.7605650561895
 20
147.782320293776
 30
0.0
 11
633.7605650561895
 21
147.2049700245861
 31
0.0
  0
LINE
  5
12A5
330
2
100
AcDbEntity
  8
0
100
AcDbLine
 10
632.7605650561895
 20
219.7823202937759
 30
0.0
 11
622.7605650561895
 21
219.7823202937759
 31
0.0
  0
LINE
  5
12A6
330
2
100
AcDbEntity
  8
0
100
AcDbLine
 10
632.7605650561895
 20
219.7823202937759
 30
0.0
 11
633.7605650561895
 21
220.3596705629659
 31
0.0
  0
LINE
  5
12A7
330
2
100
AcDbEntity
  8
0
100
AcDbLine
 10
622.7605650561895
 20
219.9942751565138
 30
0.0
 11
621.173917810293
 21
220.0358229768533
 31
0.0
  0
LINE
  5
12A8
330
2
100
AcDbEntity
  8
0
100
AcDbLine
 10
603.7605650561895
 20
200.2823202937759
 30
0.0
 11
527.7605650561899
 21
200.2823202937759
 31
0.0
  0
LINE
  5
12A9
330
2
100
AcDbEntity
  8
0
100
AcDbLine
 10
646.7605650561895
 20
203.0823232937762
 30
0.0
 11
492.76056505619
 21
203.0823232937762
 31
0.0
  0
LINE
  5
12AA
330
2
100
AcDbEntity
  8
0
100
AcDbLine
 10
646.7605650561895
 20
208.2823202937759
 30
0.0
 11
646.7605650561895
 21
159.282320293776
 31
0.0
  0
LINE
  5
12AB
330
2
100
AcDbEntity
  8
0
100
AcDbLine
 10
646.7605650561895
 20
159.282320293776
 30
0.0
 11
620.3027378138381
 21
159.282320293776
 31
0.0
  0
LINE
  5
12AC
330
2
100
AcDbEntity
  8
0
100
AcDbLine
 10
642.7604020345065
 20
167.2823878092785
 30
0.0
 11
633.7604020339663
 21
167.2822527763818
 31
0.0
  0
LINE
  5
12AD
330
2
100
AcDbEntity
  8
0
100
AcDbLine
 10
642.7605140782985
 20
200.2823202937759
 30
0.0
 11
633.7605140782907
 21
200.2823202937759
 31
0.0
  0
LINE
  5
12AE
330
2
100
AcDbEntity
  8
0
100
AcDbLine
 10
644.7606321392381
 20
167.7823126272723
 30
0.0
 11
644.7604979731381
 21
199.7823202937759
 31
0.0
  0
LINE
  5
12AF
330
2
100
AcDbEntity
  8
CENTER
  6
CENS
100
AcDbLine
 10
638.2604580561896
 20
191.0246827108565
 30
0.0
 11
638.2604580561896
 21
217.4401106614021
 31
0.0
  0
LINE
  5
12B0
330
2
100
AcDbEntity
  8
0
100
AcDbLine
 10
642.7605140782985
 20
200.2823202937759
 30
0.0
 11
642.7604020345065
 21
167.2823878092785
 31
0.0
  0
LINE
  5
12B1
330
2
100
AcDbEntity
  8
0
100
AcDbLine
 10
644.7606321392381
 20
167.7823126272723
 30
0.0
 11
642.7605251394002
 21
167.782228293905
 31
0.0
  0
LINE
  5
12B2
330
2
100
AcDbEntity
  8
0
100
AcDbLine
 10
644.7606321392381
 20
167.7823126272723
 30
0.0
 11
646.7606365655305
 21
166.6276262939135
 31
0.0
  0
LINE
  5
12B3
330
2
100
AcDbEntity
  8
0
100
AcDbLine
 10
644.7605650561895
 20
199.7823202937759
 30
0.0
 11
642.7604580561896
 21
199.7823202937759
 31
0.0
  0
LINE
  5
12B4
330
2
100
AcDbEntity
  8
0
100
AcDbLine
 10
644.7605650561895
 20
199.7823202937759
 30
0.0
 11
646.7605650561895
 21
200.9370142937767
 31
0.0
  0
LINE
  5
12B5
330
2
100
AcDbEntity
  8
0
100
AcDbLine
 10
621.1105650561899
 20
166.9322282937755
 30
0.0
 11
621.1105650561899
 21
200.6323202937763
 31
0.0
  0
LINE
  5
12B6
330
2
100
AcDbEntity
  8
0
100
AcDbLine
 10
619.7605650561895
 20
166.9322282937755
 30
0.0
 11
619.7605650561895
 21
200.6323202937763
 31
0.0
  0
LINE
  5
12B7
330
2
100
AcDbEntity
  8
0
100
AcDbLine
 10
633.7604020339663
 20
167.2822527763818
 30
0.0
 11
633.7605140782907
 21
200.2823202937759
 31
0.0
  0
LINE
  5
12B8
330
2
100
AcDbEntity
  8
0
100
AcDbLine
 10
619.7605650561895
 20
167.782320293776
 30
0.0
 11
603.7605650561895
 21
167.782320293776
 31
0.0
  0
LINE
  5
12B9
330
2
100
AcDbEntity
  8
0
100
AcDbLine
 10
633.7604580561897
 20
167.7822282937758
 30
0.0
 11
621.1105650561899
 21
167.7822282937758
 31
0.0
  0
LINE
  5
12BA
330
2
100
AcDbEntity
  8
0
100
AcDbLine
 10
619.7605650561895
 20
166.9322282937755
 30
0.0
 11
621.1105650561899
 21
166.9322282937755
 31
0.0
  0
LINE
  5
12BB
330
2
100
AcDbEntity
  8
0
100
AcDbLine
 10
619.7605650561895
 20
199.7823202937759
 30
0.0
 11
603.7605650561895
 21
199.7823202937759
 31
0.0
  0
LINE
  5
12BC
330
2
100
AcDbEntity
  8
0
100
AcDbLine
 10
633.7604580561897
 20
199.7823202937759
 30
0.0
 11
621.1105650561899
 21
199.7823202937759
 31
0.0
  0
LINE
  5
12BD
330
2
100
AcDbEntity
  8
0
100
AcDbLine
 10
619.7605650561895
 20
200.6323202937763
 30
0.0
 11
621.1105650561899
 21
200.6323202937763
 31
0.0
  0
LINE
  5
12BE
330
2
100
AcDbEntity
  8
0
100
AcDbLine
 10
603.7605650561895
 20
200.2823202937759
 30
0.0
 11
603.7605650561895
 21
167.282320293776
 31
0.0
  0
LINE
  5
12BF
330
2
100
AcDbEntity
  8
0
100
AcDbLine
 10
646.7605650561895
 20
208.2823202937759
 30
0.0
 11
620.3027378138381
 21
208.2823202937759
 31
0.0
  0
LINE
  5
12C0
330
2
100
AcDbEntity
  8
0
  6
CONTINUOUS
 62
     4
100
AcDbLine
 10
642.2604580561896
 20
203.0823232937762
 30
0.0
 11
642.2604580561896
 21
208.2823202937759
 31
0.0
  0
LINE
  5
12C1
330
2
100
AcDbEntity
  8
0
  6
CONTINUOUS
 62
     7
100
AcDbLine
 10
641.5104580561896
 20
203.0823232937762
 30
0.0
 11
641.5104580561896
 21
208.2823202937759
 31
0.0
  0
LINE
  5
12C2
330
2
100
AcDbEntity
  8
0
  6
CONTINUOUS
 62
     7
100
AcDbLine
 10
635.0104580561897
 20
203.0823232937762
 30
0.0
 11
635.0104580561897
 21
208.2823202937759
 31
0.0
  0
LINE
  5
12C3
330
2
100
AcDbEntity
  8
0
  6
CONTINUOUS
 62
     4
100
AcDbLine
 10
634.2604580561896
 20
203.0823232937762
 30
0.0
 11
634.2604580561896
 21
208.2823202937759
 31
0.0
  0
LINE
  5
12C4
330
2
100
AcDbEntity
  8
0
100
AcDbLine
 10
509.4105650561905
 20
167.782320293776
 30
0.0
 11
494.7605650561899
 21
167.782320293776
 31
0.0
  0
LINE
  5
12C5
330
2
100
AcDbEntity
  8
0
100
AcDbLine
 10
508.4225728195178
 20
208.2823202937759
 30
0.0
 11
492.76056505619
 21
208.2823202937759
 31
0.0
  0
LINE
  5
12C6
330
2
100
AcDbEntity
  8
0
100
AcDbLine
 10
509.4105650561905
 20
199.7823202937759
 30
0.0
 11
494.7605650561899
 21
199.7823202937759
 31
0.0
  0
LINE
  5
12C7
330
2
100
AcDbEntity
  8
0
100
AcDbLine
 10
508.4225728195178
 20
159.282320293776
 30
0.0
 11
492.76056505619
 21
159.282320293776
 31
0.0
  0
LINE
  5
12C8
330
2
100
AcDbEntity
  8
0
100
AcDbLine
 10
509.4105650561905
 20
166.9323202937757
 30
0.0
 11
509.4105650561905
 21
200.6323202937763
 31
0.0
  0
LINE
  5
12C9
330
2
100
AcDbEntity
  8
0
100
AcDbLine
 10
510.7605650561899
 20
166.9323202937757
 30
0.0
 11
510.7605650561899
 21
200.6323202937763
 31
0.0
  0
LINE
  5
12CA
330
2
100
AcDbEntity
  8
0
100
AcDbLine
 10
510.7605650561899
 20
166.9323202937757
 30
0.0
 11
509.4105650561905
 21
166.9323202937757
 31
0.0
  0
LINE
  5
12CB
330
2
100
AcDbEntity
  8
0
100
AcDbLine
 10
527.7605650561899
 20
167.782320293776
 30
0.0
 11
510.7605650561899
 21
167.782320293776
 31
0.0
  0
LINE
  5
12CC
330
2
100
AcDbEntity
  8
0
100
AcDbLine
 10
527.7605650561899
 20
199.7823202937759
 30
0.0
 11
510.7605650561899
 21
199.7823202937759
 31
0.0
  0
LINE
  5
12CD
330
2
100
AcDbEntity
  8
0
100
AcDbLine
 10
527.7605650561899
 20
200.2823202937759
 30
0.0
 11
527.7605650561899
 21
167.282320293776
 31
0.0
  0
LINE
  5
12CE
330
2
100
AcDbEntity
  8
0
100
AcDbLine
 10
510.7605650561899
 20
200.6323202937763
 30
0.0
 11
509.4105650561905
 21
200.6323202937763
 31
0.0
  0
LINE
  5
12CF
330
2
100
AcDbEntity
  8
0
100
AcDbLine
 10
492.76056505619
 20
208.2823202937759
 30
0.0
 11
492.76056505619
 21
159.282320293776
 31
0.0
  0
LINE
  5
12D0
330
2
100
AcDbEntity
  8
0
100
AcDbLine
 10
494.7605650561899
 20
167.782320293776
 30
0.0
 11
494.7605650561899
 21
199.7823202937759
 31
0.0
  0
LINE
  5
12D1
330
2
100
AcDbEntity
  8
0
100
AcDbLine
 10
494.7605650561899
 20
167.782320293776
 30
0.0
 11
492.76056505619
 21
166.6276262937753
 31
0.0
  0
LINE
  5
12D2
330
2
100
AcDbEntity
  8
0
100
AcDbLine
 10
494.7605650561899
 20
199.7823202937759
 30
0.0
 11
492.76056505619
 21
200.9370142937767
 31
0.0
  0
LINE
  5
12D3
330
2
100
AcDbEntity
  8
0
100
AcDbLine
 10
603.7605650561895
 20
167.282320293776
 30
0.0
 11
527.7605650561899
 21
167.282320293776
 31
0.0
  0
SPLINE
  5
12D4
330
2
100
AcDbEntity
  8
HOJO
100
AcDbSpline
210
0.0
220
0.0
230
1.0
 70
     8
 71
     3
 72
    25
 73
    21
 74
     0
 42
0.0000000001
 43
0.0000000001
 40
1.152877297004389
 40
1.152877297004389
 40
1.152877297004389
 40
1.152877297004389
 40
6.290824812401083
 40
13.22928773580738
 40
23.01248433513514
 40
27.44936952537695
 40
39.39209791902025
 40
50.54497002145325
 40
68.81910560968197
 40
80.92562652941472
 40
95.32109287512382
 40
103.9668883716656
 40
119.0932917203498
 40
131.2170228200582
 40
138.4912660645576
 40
145.0351343874091
 40
153.1132143022935
 40
157.4594543935925
 40
163.7674011214698
 40
166.1490771881331
 40
166.1490771881331
 40
166.1490771881331
 40
166.1490771881331
 10
494.760568385007
 20
222.9504136840112
 30
0.0
 10
496.4001212762077
 20
222.6691940998333
 30
0.0
 10
500.3216002173322
 20
222.0700526557155
 30
0.0
 10
508.994299203443
 20
222.4213444866161
 30
0.0
 10
509.0310895677475
 20
213.4144878240566
 30
0.0
 10
507.5465091157875
 20
203.7229172926161
 30
0.0
 10
521.432108975955
 20
206.5888078382575
 30
0.0
 10
533.4936336017545
 20
204.7557566618777
 30
0.0
 10
548.0526059438384
 20
207.2725912972071
 30
0.0
 10
562.6075041920817
 20
203.2578519847009
 30
0.0
 10
574.417964109149
 20
205.5260113397633
 30
0.0
 10
587.0801362974439
 20
203.3144100153839
 30
0.0
 10
599.1468808346076
 20
208.3798475873916
 30
0.0
 10
609.6102425018512
 20
204.6780023243334
 30
0.0
 10
620.1702995838118
 20
204.5038766306568
 30
0.0
 10
621.0446983339011
 20
212.933308964524
 30
0.0
 10
619.4506365830315
 20
220.3115575719365
 30
0.0
 10
626.160095528296
 20
222.6962284739036
 30
0.0
 10
630.5258140944647
 20
222.4516029634285
 30
0.0
 10
633.0754815292571
 20
223.7477250747559
 30
0.0
 10
633.7605650561895
 20
224.158571659789
 30
0.0
  0
SPLINE
  5
12D5
330
2
100
AcDbEntity
  8
HOJO
100
AcDbSpline
210
0.0
220
0.0
230
1.0
 70
     8
 71
     3
 72
    25
 73
    21
 74
     0
 42
0.0000000001
 43
0.0000000001
 40
1.152877297004389
 40
1.152877297004389
 40
1.152877297004389
 40
1.152877297004389
 40
6.290824812401083
 40
13.22928773580738
 40
23.01248433513514
 40
27.44936952537695
 40
39.39209791902025
 40
50.54497002145325
 40
68.81910560968197
 40
80.92562652941472
 40
95.32109287512382
 40
103.9668883716656
 40
119.0932917203498
 40
131.2170228200582
 40
138.4912660645576
 40
145.0351343874091
 40
153.1132143022935
 40
157.4594543935925
 40
163.7674011214698
 40
166.1490771881331
 40
166.1490771881331
 40
166.1490771881331
 40
166.1490771881331
 10
494.760568385007
 20
144.6142269035407
 30
0.0
 10
496.4001212762077
 20
144.8954464877187
 30
0.0
 10
500.3216002173322
 20
145.4945879318365
 30
0.0
 10
508.994299203443
 20
145.1432961009358
 30
0.0
 10
509.0310895677475
 20
154.1501527634936
 30
0.0
 10
507.5465091157875
 20
163.8417232949358
 30
0.0
 10
521.432108975955
 20
160.9758327492945
 30
0.0
 10
533.4936336017545
 20
162.8088839256742
 30
0.0
 10
548.0526059438384
 20
160.2920492903448
 30
0.0
 10
562.6075041920817
 20
164.3067886028511
 30
0.0
 10
574.417964109149
 20
162.0386292477887
 30
0.0
 10
587.0801362974439
 20
164.2502305721681
 30
0.0
 10
599.1468808346076
 20
159.1847930001603
 30
0.0
 10
609.6102425018512
 20
162.8866382632185
 30
0.0
 10
620.1702995838118
 20
163.0607639568951
 30
0.0
 10
621.0446983339011
 20
154.6313316230279
 30
0.0
 10
619.4506365830315
 20
147.2530830156155
 30
0.0
 10
626.160095528296
 20
144.8684121136483
 30
0.0
 10
630.5258140944647
 20
145.1130376241234
 30
0.0
 10
633.0754815292571
 20
143.8169155127961
 30
0.0
 10
633.7605650561895
 20
143.406068927763
 30
0.0
  0
LINE
  5
12D6
330
2
100
AcDbEntity
  8
0
100
AcDbLine
 10
632.7605650561895
 20
219.7823202937759
 30
0.0
 11
622.7605650561895
 21
208.2823202937759
 31
0.0
  0
LINE
  5
12D7
330
2
100
AcDbEntity
  8
0
100
AcDbLine
 10
622.7605650561895
 20
219.7823202937759
 30
0.0
 11
632.7605650561895
 21
208.2823202937759
 31
0.0
  0
LINE
  5
12D8
330
2
100
AcDbEntity
  8
0
100
AcDbLine
 10
632.7605650561895
 20
159.282320293776
 30
0.0
 11
622.7605650561895
 21
147.782320293776
 31
0.0
  0
LINE
  5
12D9
330
2
100
AcDbEntity
  8
0
100
AcDbLine
 10
632.7605650561895
 20
147.782320293776
 30
0.0
 11
622.7605650561895
 21
159.282320293776
 31
0.0
  0
LINE
  5
12DA
330
2
100
AcDbEntity
  8
0
100
AcDbLine
 10
495.7605683850015
 20
219.7823202937759
 30
0.0
 11
505.7605683849997
 21
208.2823202937759
 31
0.0
  0
LINE
  5
12DB
330
2
100
AcDbEntity
  8
0
100
AcDbLine
 10
505.7605683849997
 20
219.7823202937759
 30
0.0
 11
495.7605683849997
 21
208.2823202937759
 31
0.0
  0
LINE
  5
12DC
330
2
100
AcDbEntity
  8
0
100
AcDbLine
 10
505.7605683849997
 20
159.282320293776
 30
0.0
 11
495.7605683849997
 21
147.782320293776
 31
0.0
  0
LINE
  5
12DD
330
2
100
AcDbEntity
  8
0
100
AcDbLine
 10
495.7605683849997
 20
159.282320293776
 30
0.0
 11
505.7605683849997
 21
147.782320293776
 31
0.0
  0
LINE
  5
12DE
330
2
100
AcDbEntity
  8
0
100
AcDbLine
 10
605.3986385210178
 20
535.3025711030125
 30
0.0
 11
605.3986385210178
 21
486.3025711030125
 31
0.0
  0
LINE
  5
12DF
330
2
100
AcDbEntity
  8
0
100
AcDbLine
 10
605.3986385210178
 20
486.3025711030125
 30
0.0
 11
592.3986385210177
 21
486.3025711030125
 31
0.0
  0
LINE
  5
12E0
330
2
100
AcDbEntity
  8
0
100
AcDbLine
 10
605.3986385210178
 20
535.3025711030125
 30
0.0
 11
592.3986385210177
 21
535.3025711030125
 31
0.0
  0
LINE
  5
12E1
330
2
100
AcDbEntity
  8
0
100
AcDbLine
 10
453.398641849828
 20
535.3025711030125
 30
0.0
 11
451.3986385210182
 21
535.3025711030125
 31
0.0
  0
LINE
  5
12E2
330
2
100
AcDbEntity
  8
0
100
AcDbLine
 10
453.398641849828
 20
486.3025711030125
 30
0.0
 11
451.3986385210182
 21
486.3025711030125
 31
0.0
  0
LINE
  5
12E3
330
2
100
AcDbEntity
  8
0
100
AcDbLine
 10
451.3986385210182
 20
535.3025711030125
 30
0.0
 11
451.3986385210182
 21
486.3025711030125
 31
0.0
  0
CIRCLE
  5
12E4
330
2
100
AcDbEntity
  8
0
 48
0.5
100
AcDbCircle
 10
596.8985315210179
 20
510.8025711030125
 30
0.0
 40
3.2
  0
CIRCLE
  5
12E5
330
2
100
AcDbEntity
  8
HOJO
 48
0.5
100
AcDbCircle
 10
596.8985315210179
 20
510.8025711030125
 30
0.0
 40
4.0
  0
LINE
  5
12E6
330
2
100
AcDbEntity
  8
CENTER
100
AcDbLine
 10
596.8985315210161
 20
521.6617160675006
 30
0.0
 11
596.8985315210161
 21
499.9434261385261
 31
0.0
  0
LINE
  5
12E7
330
2
100
AcDbEntity
  8
0
100
AcDbLine
 10
834.4052825786279
 20
760.8794624076083
 30
0.0
 11
785.4052825786279
 21
760.8794624076083
 31
0.0
  0
LINE
  5
12E8
330
2
100
AcDbEntity
  8
0
100
AcDbLine
 10
785.4052825786279
 20
760.8794624076083
 30
0.0
 11
785.4052825786279
 21
773.8794624076083
 31
0.0
  0
LINE
  5
12E9
330
2
100
AcDbEntity
  8
0
100
AcDbLine
 10
834.4052825786279
 20
760.8794624076083
 30
0.0
 11
834.4052825786279
 21
773.8794624076083
 31
0.0
  0
LINE
  5
12EA
330
2
100
AcDbEntity
  8
0
100
AcDbLine
 10
834.4052825786279
 20
912.8794590787977
 30
0.0
 11
834.4052825786279
 21
914.8794624076083
 31
0.0
  0
LINE
  5
12EB
330
2
100
AcDbEntity
  8
0
100
AcDbLine
 10
785.4052825786279
 20
912.8794590787977
 30
0.0
 11
785.4052825786279
 21
914.8794624076083
 31
0.0
  0
LINE
  5
12EC
330
2
100
AcDbEntity
  8
0
100
AcDbLine
 10
834.4052825786279
 20
914.8794624076083
 30
0.0
 11
785.4052825786279
 21
914.8794624076083
 31
0.0
  0
CIRCLE
  5
12ED
330
2
100
AcDbEntity
  8
0
 48
0.5
100
AcDbCircle
 10
809.905282578628
 20
769.3795694076081
 30
0.0
 40
3.2
  0
CIRCLE
  5
12EE
330
2
100
AcDbEntity
  8
HOJO
 48
0.5
100
AcDbCircle
 10
809.905282578628
 20
769.3795694076081
 30
0.0
 40
4.0
  0
LINE
  5
12EF
330
2
100
AcDbEntity
  8
CENTER
100
AcDbLine
 10
820.7644275431144
 20
769.37956940761
 30
0.0
 11
799.0461376141397
 21
769.37956940761
 31
0.0
  0
LINE
  5
12F1
330
2
100
AcDbEntity
  8
PHAS
100
AcDbLine
 10
460.8986418498252
 20
555.3025711070915
 30
0.0
 11
460.8986418498243
 21
466.3025710989335
 31
0.0
  0
LINE
  5
12F2
330
2
100
AcDbEntity
  8
PHAS
100
AcDbLine
 10
456.8986418498252
 20
555.3025711070915
 30
0.0
 11
456.8986418498243
 21
466.3025710989335
 31
0.0
  0
LINE
  5
12F3
330
2
100
AcDbEntity
  8
PHAS
100
AcDbLine
 10
427.3986418498243
 20
483.1770186976112
 30
0.0
 11
427.3986418498243
 21
538.4281235002565
 31
0.0
  0
LINE
  5
12F4
330
2
100
AcDbEntity
  8
PHAS
100
AcDbLine
 10
451.0986418498251
 20
552.18341967329
 30
0.0
 11
451.0986418498251
 21
510.8025710989334
 31
0.0
  0
LINE
  5
12F5
330
2
100
AcDbEntity
  8
PHAS
100
AcDbLine
 10
460.8986418498243
 20
466.3025710989335
 30
0.0
 11
454.0462846305127
 21
466.4221794391081
 31
0.0
  0
ARC
  5
12F6
330
2
100
AcDbEntity
  8
PHAS
100
AcDbCircle
 10
450.098641849825
 20
473.9634714677571
 30
0.0
 40
1.0
100
AcDbArc
 50
0.0
 51
79.99999999999483
  0
LINE
  5
12F7
330
2
100
AcDbEntity
  8
PHAS
100
AcDbLine
 10
450.2722900274911
 20
474.9482792207684
 30
0.0
 11
431.5304009614902
 21
478.2529799325496
 31
0.0
  0
LINE
  5
12F8
330
2
100
AcDbEntity
  8
PHAS
100
AcDbLine
 10
451.0986418498251
 20
469.4217225245768
 30
0.0
 11
451.0986418498251
 21
510.8025710989334
 31
0.0
  0
ARC
  5
12F9
330
2
100
AcDbEntity
  8
PHAS
100
AcDbCircle
 10
432.3986418498243
 20
483.1770186976112
 30
0.0
 40
5.0
100
AcDbArc
 50
180.0
 51
259.9999999999948
  0
ARC
  5
12FA
330
2
100
AcDbEntity
  8
PHAS
100
AcDbCircle
 10
454.098641849825
 20
469.4217225245768
 30
0.0
 40
3.0
100
AcDbArc
 50
180.0
 51
268.9999999999721
  0
ARC
  5
12FB
330
2
100
AcDbEntity
  8
PHAS
100
AcDbCircle
 10
450.098641849825
 20
547.6416707301106
 30
0.0
 40
1.0
100
AcDbArc
 50
280.0000000000051
 51
0.0
  0
LINE
  5
12FC
330
2
100
AcDbEntity
  8
PHAS
100
AcDbLine
 10
450.2722900274911
 20
546.6568629770984
 30
0.0
 11
431.5304009614902
 21
543.3521622653181
 31
0.0
  0
ARC
  5
12FD
330
2
100
AcDbEntity
  8
PHAS
100
AcDbCircle
 10
432.3986418498243
 20
538.4281235002565
 30
0.0
 40
5.0
100
AcDbArc
 50
100.0000000000051
 51
180.0
  0
LINE
  5
12FE
330
2
100
AcDbEntity
  8
PHAS
100
AcDbLine
 10
460.8986418498252
 20
555.3025711070915
 30
0.0
 11
454.0462846305127
 21
555.1829627669169
 31
0.0
  0
ARC
  5
12FF
330
2
100
AcDbEntity
  8
PHAS
100
AcDbCircle
 10
454.098641849825
 20
552.1834196814482
 30
0.0
 40
3.0
100
AcDbArc
 50
91.00000000002784
 51
180.0
  0
LINE
  5
133C
330
2
100
AcDbEntity
  8
CENTER
100
AcDbLine
 10
1349.412650220889
 20
553.2325711031867
 30
0.0
 11
1366.412650220889
 21
553.2325711031867
 31
0.0
  0
LINE
  5
133D
330
2
100
AcDbEntity
  8
0
100
AcDbLine
 10
1272.482650220891
 20
561.8025711031864
 30
0.0
 11
1358.482650220889
 21
561.8025711031864
 31
0.0
  0
LINE
  5
133E
330
2
100
AcDbEntity
  8
CENTER
100
AcDbLine
 10
1349.412650220889
 20
468.3725711031871
 30
0.0
 11
1366.412650220889
 21
468.3725711031871
 31
0.0
  0
ARC
  5
133F
330
2
100
AcDbEntity
  8
0
100
AcDbCircle
 10
1342.482650220889
 20
483.8025711031865
 30
0.0
 40
15.0
100
AcDbArc
 50
270.0
 51
0.0
  0
ARC
  5
1340
330
2
100
AcDbEntity
  8
0
100
AcDbCircle
 10
1342.482650220887
 20
483.8025711031865
 30
0.0
 40
13.0
100
AcDbArc
 50
270.0
 51
0.0
  0
LINE
  5
1341
330
2
100
AcDbEntity
  8
0
100
AcDbLine
 10
1272.482650220889
 20
459.8025711031865
 30
0.0
 11
1358.482650220889
 21
459.8025711031865
 31
0.0
  0
ARC
  5
1342
330
2
100
AcDbEntity
  8
0
100
AcDbCircle
 10
1342.482650220887
 20
537.8025711031864
 30
0.0
 40
13.0
100
AcDbArc
 50
0.0
 51
90.0
  0
ARC
  5
1343
330
2
100
AcDbEntity
  8
0
100
AcDbCircle
 10
1342.482650220889
 20
537.8025711031864
 30
0.0
 40
15.0
100
AcDbArc
 50
0.0
 51
90.0
  0
LINE
  5
1344
330
2
100
AcDbEntity
  8
0
100
AcDbLine
 10
1355.482650220887
 20
537.8025711031864
 30
0.0
 11
1355.482650220887
 21
483.8025711031865
 31
0.0
  0
LINE
  5
1345
330
2
100
AcDbEntity
  8
0
100
AcDbLine
 10
1275.482650220889
 20
537.8025711031864
 30
0.0
 11
1275.482650220889
 21
483.8025711031865
 31
0.0
  0
LINE
  5
1346
330
2
100
AcDbEntity
  8
0
100
AcDbLine
 10
1273.482650220889
 20
537.8025711031864
 30
0.0
 11
1273.482650220889
 21
483.8025711031865
 31
0.0
  0
LINE
  5
1347
330
2
100
AcDbEntity
  8
CENTER
100
AcDbLine
 10
1347.302455374284
 20
471.4827659497919
 30
0.0
 11
1347.302455374284
 21
486.4827659497919
 31
0.0
  0
LINE
  5
1348
330
2
100
AcDbEntity
  8
CENTER
100
AcDbLine
 10
1283.662845067494
 20
471.4827659497919
 30
0.0
 11
1283.662845067494
 21
486.4827659497919
 31
0.0
  0
ARC
  5
1349
330
2
100
AcDbEntity
  8
0
100
AcDbCircle
 10
1288.482650220889
 20
483.8025711031865
 30
0.0
 40
15.0
100
AcDbArc
 50
180.0
 51
270.0
  0
ARC
  5
134A
330
2
100
AcDbEntity
  8
0
100
AcDbCircle
 10
1288.482650220889
 20
483.8025711031865
 30
0.0
 40
13.0
100
AcDbArc
 50
180.0
 51
270.0
  0
LINE
  5
134B
330
2
100
AcDbEntity
  8
0
100
AcDbLine
 10
1288.482650220889
 20
468.8025711031865
 30
0.0
 11
1342.482650220889
 21
468.8025711031865
 31
0.0
  0
LINE
  5
134C
330
2
100
AcDbEntity
  8
0
100
AcDbLine
 10
1288.482650220889
 20
470.8025711031864
 30
0.0
 11
1342.482650220887
 21
470.8025711031864
 31
0.0
  0
ARC
  5
134D
330
2
100
AcDbEntity
  8
0
100
AcDbCircle
 10
1272.482650220889
 20
467.8025711031865
 30
0.0
 40
8.0
100
AcDbArc
 50
180.0
 51
270.0
  0
LINE
  5
134E
330
2
100
AcDbEntity
  8
CENTER
100
AcDbLine
 10
1273.052650220889
 20
459.8725711031871
 30
0.0
 11
1273.052650220889
 21
476.8725711031871
 31
0.0
  0
LINE
  5
134F
330
2
100
AcDbEntity
  8
CENTER
100
AcDbLine
 10
1281.552650220889
 20
468.3725711031871
 30
0.0
 11
1264.552650220889
 21
468.3725711031871
 31
0.0
  0
LINE
  5
1350
330
2
100
AcDbEntity
  8
CENTER
100
AcDbLine
 10
1291.162845067495
 20
478.9827659497919
 30
0.0
 11
1276.162845067494
 21
478.9827659497919
 31
0.0
  0
LINE
  5
1351
330
2
100
AcDbEntity
  8
CENTER
100
AcDbLine
 10
1339.802455374283
 20
478.9827659497919
 30
0.0
 11
1354.802455374284
 21
478.9827659497919
 31
0.0
  0
LINE
  5
1352
330
2
100
AcDbEntity
  8
0
100
AcDbLine
 10
1288.482650220889
 20
552.8025711031864
 30
0.0
 11
1342.482650220889
 21
552.8025711031864
 31
0.0
  0
LINE
  5
1353
330
2
100
AcDbEntity
  8
0
100
AcDbLine
 10
1288.482650220889
 20
550.8025711031864
 30
0.0
 11
1342.482650220887
 21
550.8025711031864
 31
0.0
  0
ARC
  5
1354
330
2
100
AcDbEntity
  8
0
100
AcDbCircle
 10
1272.482650220891
 20
553.8025711031864
 30
0.0
 40
8.0
100
AcDbArc
 50
90.0
 51
180.0
  0
LINE
  5
1355
330
2
100
AcDbEntity
  8
CENTER
100
AcDbLine
 10
1273.052650220889
 20
561.7325711031867
 30
0.0
 11
1273.052650220889
 21
544.7325711031867
 31
0.0
  0
ARC
  5
1356
330
2
100
AcDbEntity
  8
0
100
AcDbCircle
 10
1288.482650220889
 20
537.8025711031864
 30
0.0
 40
15.0
100
AcDbArc
 50
90.0
 51
180.0
  0
LINE
  5
1357
330
2
100
AcDbEntity
  8
CENTER
100
AcDbLine
 10
1291.162845067495
 20
542.6223762565818
 30
0.0
 11
1276.162845067494
 21
542.6223762565818
 31
0.0
  0
ARC
  5
1358
330
2
100
AcDbEntity
  8
0
100
AcDbCircle
 10
1288.482650220889
 20
537.8025711031864
 30
0.0
 40
13.0
100
AcDbArc
 50
90.0
 51
180.0
  0
LINE
  5
1359
330
2
100
AcDbEntity
  8
CENTER
100
AcDbLine
 10
1283.662845067494
 20
550.1223762565818
 30
0.0
 11
1283.662845067494
 21
535.1223762565819
 31
0.0
  0
LINE
  5
135A
330
2
100
AcDbEntity
  8
CENTER
100
AcDbLine
 10
1281.552650220889
 20
553.2325711031867
 30
0.0
 11
1264.552650220889
 21
553.2325711031867
 31
0.0
  0
LINE
  5
135B
330
2
100
AcDbEntity
  8
CENTER
100
AcDbLine
 10
1347.302455374284
 20
550.1223762565818
 30
0.0
 11
1347.302455374284
 21
535.1223762565819
 31
0.0
  0
LINE
  5
135C
330
2
100
AcDbEntity
  8
CENTER
100
AcDbLine
 10
1339.802455374283
 20
542.6223762565818
 30
0.0
 11
1354.802455374284
 21
542.6223762565818
 31
0.0
  0
LINE
  5
135D
330
2
100
AcDbEntity
  8
0
100
AcDbLine
 10
1357.482650220889
 20
537.8025711031864
 30
0.0
 11
1357.482650220889
 21
483.8025711031865
 31
0.0
  0
ARC
  5
135E
330
2
100
AcDbEntity
  8
0
100
AcDbCircle
 10
1358.482650220889
 20
467.8025711031865
 30
0.0
 40
8.0
100
AcDbArc
 50
270.0
 51
0.0
  0
LINE
  5
135F
330
2
100
AcDbEntity
  8
CENTER
100
AcDbLine
 10
1357.912650220889
 20
459.8725711031871
 30
0.0
 11
1357.912650220889
 21
476.8725711031871
 31
0.0
  0
ARC
  5
1360
330
2
100
AcDbEntity
  8
0
100
AcDbCircle
 10
1358.482650220889
 20
553.8025711031864
 30
0.0
 40
8.0
100
AcDbArc
 50
0.0
 51
90.0
  0
LINE
  5
1361
330
2
100
AcDbEntity
  8
CENTER
100
AcDbLine
 10
1357.912650220889
 20
561.7325711031867
 30
0.0
 11
1357.912650220889
 21
544.7325711031867
 31
0.0
  0
LINE
  5
1362
330
2
100
AcDbEntity
  8
0
100
AcDbLine
 10
1022.875304578629
 20
803.8794590788004
 30
0.0
 11
1022.875304578629
 21
826.7563534531849
 31
0.0
  0
LINE
  5
1363
330
2
100
AcDbEntity
  8
0
100
AcDbLine
 10
1022.875304578629
 20
835.0025647044096
 30
0.0
 11
1022.875304578629
 21
887.879459078794
 31
0.0
  0
LINE
  5
1364
330
2
100
AcDbEntity
  8
0
100
AcDbLine
 10
1024.875304578629
 20
805.8096388190845
 30
0.0
 11
1024.875304578627
 21
885.9492793385099
 31
0.0
  0
LINE
  5
1365
330
2
100
AcDbEntity
  8
0
100
AcDbLine
 10
988.8753045786257
 20
796.0016733062541
 30
0.0
 11
988.8753045786275
 21
895.7572448513403
 31
0.0
  0
LINE
  5
1366
330
2
100
AcDbEntity
  8
0
100
AcDbLine
 10
1024.875304578627
 20
885.9492793385099
 30
0.0
 11
1022.875304578625
 21
887.8794590787968
 31
0.0
  0
LINE
  5
1367
330
2
100
AcDbEntity
  8
0
100
AcDbLine
 10
1028.875304578625
 20
885.8794590787967
 30
0.0
 11
1024.875304578627
 21
885.9492793385099
 31
0.0
  0
LINE
  5
1368
330
2
100
AcDbEntity
  8
0
100
AcDbLine
 10
973.8753045786257
 20
896.8794590787968
 30
0.0
 11
987.8840311141253
 21
896.7572067744052
 31
0.0
  0
LINE
  5
1369
330
2
100
AcDbEntity
  8
0
100
AcDbLine
 10
1022.875304578625
 20
887.8794590787968
 30
0.0
 11
995.8753045786256
 21
888.0365404836933
 31
0.0
  0
LINE
  5
136A
330
2
100
AcDbEntity
  8
0
100
AcDbLine
 10
1024.875304578629
 20
805.8096388190845
 30
0.0
 11
1022.875304578629
 21
803.8794590788004
 31
0.0
  0
LINE
  5
136B
330
2
100
AcDbEntity
  8
0
100
AcDbLine
 10
1028.875304578625
 20
805.8794590787977
 30
0.0
 11
1024.875304578629
 21
805.8096388190845
 31
0.0
  0
LINE
  5
136C
330
2
100
AcDbEntity
  8
0
100
AcDbLine
 10
973.8753045786257
 20
794.8794590787977
 30
0.0
 11
987.8840311141253
 21
795.0017113831902
 31
0.0
  0
LINE
  5
136D
330
2
100
AcDbEntity
  8
0
100
AcDbLine
 10
1022.875304578627
 20
803.8794590787977
 30
0.0
 11
995.8753045786256
 21
803.7223776739022
 31
0.0
  0
CIRCLE
  5
136E
330
2
100
AcDbEntity
  8
0
100
AcDbCircle
 10
1315.482650220889
 20
510.8025711031864
 30
0.0
 40
34.99999999953029
  0
ARC
  5
136F
330
2
100
AcDbEntity
  8
0
100
AcDbCircle
 10
987.8753045786256
 20
796.0016733062541
 30
0.0
 40
1.0
100
AcDbArc
 50
270.4999999999654
 51
0.0
  0
ARC
  5
1370
330
2
100
AcDbEntity
  8
0
100
AcDbCircle
 10
987.8753045786275
 20
895.7572448513403
 30
0.0
 40
1.0
100
AcDbArc
 50
0.0
 51
89.5000000000345
  0
LINE
  5
1371
330
2
100
AcDbEntity
  8
0
100
AcDbLine
 10
1028.875304578625
 20
805.8794590787977
 30
0.0
 11
1028.875304578625
 21
885.8794590787967
 31
0.0
  0
CIRCLE
  5
1372
330
2
100
AcDbEntity
  8
CENTER
100
AcDbCircle
 10
1315.482650220889
 20
510.8025711031864
 30
0.0
 40
45.0
  0
LINE
  5
1373
330
2
100
AcDbEntity
  8
HIDS
100
AcDbLine
 10
1306.732650220889
 20
552.8025711031864
 30
0.0
 11
1306.732650220889
 21
538.4510339899374
 31
0.0
  0
LINE
  5
1374
330
2
100
AcDbEntity
  8
HIDS
100
AcDbLine
 10
1294.232650220889
 20
552.8025711031864
 30
0.0
 11
1294.232650220889
 21
530.5367419750532
 31
0.0
  0
LINE
  5
1375
330
2
100
AcDbEntity
  8
0
100
AcDbLine
 10
1022.87530457863
 20
552.8025711032717
 30
0.0
 11
1022.87530457863
 21
549.3018714188076
 31
0.0
  0
LINE
  5
1376
330
2
100
AcDbEntity
  8
0
100
AcDbLine
 10
1024.87530457863
 20
550.8723913629876
 30
0.0
 11
1024.87530457863
 21
550.6830795898387
 31
0.0
  0
LINE
  5
1377
330
2
100
AcDbEntity
  8
0
100
AcDbLine
 10
988.8753045786266
 20
560.680356875818
 30
0.0
 11
988.8753045786284
 21
521.8452721087589
 31
0.0
  0
LINE
  5
1378
330
2
100
AcDbEntity
  8
0
100
AcDbLine
 10
988.8753045786284
 20
510.8025711032745
 30
0.0
 11
988.8753045786284
 21
460.9247853307318
 31
0.0
  0
LINE
  5
1379
330
2
100
AcDbEntity
  8
0
100
AcDbLine
 10
1024.875304578628
 20
470.7327508435621
 30
0.0
 11
1022.875304578626
 21
468.8025711032754
 31
0.0
  0
LINE
  5
137A
330
2
100
AcDbEntity
  8
0
100
AcDbLine
 10
1028.875304578626
 20
470.8025711032753
 30
0.0
 11
1024.875304578628
 21
470.7327508435621
 31
0.0
  0
LINE
  5
137B
330
2
100
AcDbEntity
  8
0
100
AcDbLine
 10
973.8753045786266
 20
459.8025711032754
 30
0.0
 11
987.8840311141262
 21
459.924823407667
 31
0.0
  0
LINE
  5
137C
330
2
100
AcDbEntity
  8
0
100
AcDbLine
 10
1022.875304578626
 20
468.8025711032754
 30
0.0
 11
995.8753045786265
 21
468.6454896983789
 31
0.0
  0
LINE
  5
137D
330
2
100
AcDbEntity
  8
0
100
AcDbLine
 10
1024.87530457863
 20
550.8723913629876
 30
0.0
 11
1022.87530457863
 21
552.8025711032717
 31
0.0
  0
LINE
  5
137E
330
2
100
AcDbEntity
  8
0
100
AcDbLine
 10
1028.875304578626
 20
550.8025711032744
 30
0.0
 11
1024.87530457863
 21
550.8723913629876
 31
0.0
  0
LINE
  5
137F
330
2
100
AcDbEntity
  8
0
100
AcDbLine
 10
973.8753045786266
 20
561.8025711032744
 30
0.0
 11
987.8840311141262
 21
561.6803187988819
 31
0.0
  0
LINE
  5
1380
330
2
100
AcDbEntity
  8
0
100
AcDbLine
 10
1023.875152251309
 20
552.7967541596783
 30
0.0
 11
995.8753045786265
 21
552.9596525081699
 31
0.0
  0
ARC
  5
1381
330
2
100
AcDbEntity
  8
0
100
AcDbCircle
 10
987.8753045786266
 20
560.680356875818
 30
0.0
 40
1.0
100
AcDbArc
 50
0.0
 51
89.5000000000345
  0
ARC
  5
1382
330
2
100
AcDbEntity
  8
0
100
AcDbCircle
 10
987.8753045786284
 20
460.9247853307318
 30
0.0
 40
1.0
100
AcDbArc
 50
270.4999999999654
 51
0.0
  0
LINE
  5
1383
330
2
100
AcDbEntity
  8
0
100
AcDbLine
 10
1028.875304578626
 20
550.8025711032744
 30
0.0
 11
1028.875304578626
 21
470.8025711032753
 31
0.0
  0
CIRCLE
  5
1384
330
2
100
AcDbEntity
  8
0
100
AcDbCircle
 10
1273.052650220889
 20
553.2325711031867
 30
0.0
 40
5.0
  0
CIRCLE
  5
1385
330
2
100
AcDbEntity
  8
0
100
AcDbCircle
 10
1273.052650220889
 20
553.2325711031867
 30
0.0
 40
4.307179676972423
  0
CIRCLE
  5
1386
330
2
100
AcDbEntity
  8
0
100
AcDbCircle
 10
1273.052650220889
 20
553.2325711031867
 30
0.0
 40
2.886751345948113
  0
LWPOLYLINE
  5
1387
330
2
100
AcDbEntity
  8
0
100
AcDbPolyline
 90
        6
 70
     1
 43
0.0
 10
1275.552650220889
 20
554.6759467761607
 10
1273.052650220889
 20
556.1193224491348
 10
1270.552650220889
 20
554.6759467761607
 10
1270.552650220889
 20
551.7891954302126
 10
1273.052650220889
 20
550.3458197572386
 10
1275.552650220889
 20
551.7891954302126
  0
CIRCLE
  5
1388
330
2
100
AcDbEntity
  8
0
100
AcDbCircle
 10
1357.912650220889
 20
553.2325711031867
 30
0.0
 40
5.0
  0
CIRCLE
  5
1389
330
2
100
AcDbEntity
  8
0
100
AcDbCircle
 10
1357.912650220889
 20
553.2325711031867
 30
0.0
 40
4.307179676972423
  0
CIRCLE
  5
138A
330
2
100
AcDbEntity
  8
0
100
AcDbCircle
 10
1357.912650220889
 20
553.2325711031867
 30
0.0
 40
2.886751345948113
  0
LWPOLYLINE
  5
138B
330
2
100
AcDbEntity
  8
0
100
AcDbPolyline
 90
        6
 70
     1
 43
0.0
 10
1360.412650220889
 20
554.6759467761607
 10
1357.912650220889
 20
556.1193224491348
 10
1355.412650220889
 20
554.6759467761607
 10
1355.412650220889
 20
551.7891954302126
 10
1357.912650220889
 20
550.3458197572386
 10
1360.412650220889
 20
551.7891954302126
  0
CIRCLE
  5
138C
330
2
100
AcDbEntity
  8
0
100
AcDbCircle
 10
1357.912650220889
 20
468.3725711031871
 30
0.0
 40
5.0
  0
CIRCLE
  5
138D
330
2
100
AcDbEntity
  8
0
100
AcDbCircle
 10
1357.912650220889
 20
468.3725711031871
 30
0.0
 40
4.307179676972423
  0
CIRCLE
  5
138E
330
2
100
AcDbEntity
  8
0
100
AcDbCircle
 10
1357.912650220889
 20
468.3725711031871
 30
0.0
 40
2.886751345948113
  0
LWPOLYLINE
  5
138F
330
2
100
AcDbEntity
  8
0
100
AcDbPolyline
 90
        6
 70
     1
 43
0.0
 10
1360.412650220889
 20
469.8159467761612
 10
1357.912650220889
 20
471.2593224491352
 10
1355.412650220889
 20
469.8159467761612
 10
1355.412650220889
 20
466.929195430213
 10
1357.912650220889
 20
465.4858197572389
 10
1360.412650220889
 20
466.929195430213
  0
CIRCLE
  5
1390
330
2
100
AcDbEntity
  8
0
100
AcDbCircle
 10
1273.052650220889
 20
468.3725711031871
 30
0.0
 40
5.0
  0
CIRCLE
  5
1391
330
2
100
AcDbEntity
  8
0
100
AcDbCircle
 10
1273.052650220889
 20
468.3725711031871
 30
0.0
 40
4.307179676972423
  0
CIRCLE
  5
1392
330
2
100
AcDbEntity
  8
0
100
AcDbCircle
 10
1273.052650220889
 20
468.3725711031871
 30
0.0
 40
2.886751345948113
  0
LWPOLYLINE
  5
1393
330
2
100
AcDbEntity
  8
0
100
AcDbPolyline
 90
        6
 70
     1
 43
0.0
 10
1275.552650220889
 20
469.8159467761612
 10
1273.052650220889
 20
471.2593224491352
 10
1270.552650220889
 20
469.8159467761612
 10
1270.552650220889
 20
466.929195430213
 10
1273.052650220889
 20
465.4858197572389
 10
1275.552650220889
 20
466.929195430213
  0
LINE
  5
1394
330
2
100
AcDbEntity
  8
0
100
AcDbLine
 10
995.4753045786269
 20
548.2325711032747
 30
0.0
 11
995.8753045786265
 21
548.9253914263029
 31
0.0
  0
LINE
  5
1395
330
2
100
AcDbEntity
  8
0
100
AcDbLine
 10
995.4753045786269
 20
548.2325711032747
 30
0.0
 11
995.4753045786269
 21
558.2325711032747
 31
0.0
  0
LINE
  5
1396
330
2
100
AcDbEntity
  8
0
100
AcDbLine
 10
989.8753045786266
 20
548.2325711032747
 30
0.0
 11
989.8753045786266
 21
558.2325711032747
 31
0.0
  0
LINE
  5
1397
330
2
100
AcDbEntity
  8
0
100
AcDbLine
 10
989.8753045786266
 20
558.2325711032747
 30
0.0
 11
988.8753045786266
 21
558.2325711032747
 31
0.0
  0
LINE
  5
1398
330
2
100
AcDbEntity
  8
0
100
AcDbLine
 10
988.8753045786266
 20
558.2325711032747
 30
0.0
 11
988.8753045786266
 21
548.2325711032747
 31
0.0
  0
LINE
  5
1399
330
2
100
AcDbEntity
  8
0
100
AcDbLine
 10
988.8753045786266
 20
548.2325711032747
 30
0.0
 11
989.8753045786266
 21
548.2325711032747
 31
0.0
  0
LINE
  5
139A
330
2
100
AcDbEntity
  8
0
100
AcDbLine
 10
989.8753045786266
 20
548.2325711032747
 30
0.0
 11
989.8753045786266
 21
558.2325711032747
 31
0.0
  0
LINE
  5
139B
330
2
100
AcDbEntity
  8
0
100
AcDbLine
 10
995.4753045786269
 20
548.2325711032747
 30
0.0
 11
989.8753045786266
 21
548.2325711032747
 31
0.0
  0
LINE
  5
139C
330
2
100
AcDbEntity
  8
0
100
AcDbLine
 10
995.8753045786265
 20
557.5397507802474
 30
0.0
 11
995.8753045786265
 21
548.9253914263029
 31
0.0
  0
LINE
  5
139D
330
2
100
AcDbEntity
  8
0
100
AcDbLine
 10
989.8753045786266
 20
558.2325711032747
 30
0.0
 11
995.4753045786269
 21
558.2325711032747
 31
0.0
  0
LINE
  5
139E
330
2
100
AcDbEntity
  8
0
100
AcDbLine
 10
995.4753045786269
 20
558.2325711032747
 30
0.0
 11
995.8753045786265
 21
557.5397507802474
 31
0.0
  0
LINE
  5
139F
330
2
100
AcDbEntity
  8
CENTER
  6
CENS
100
AcDbLine
 10
968.8753045786283
 20
553.2325711032747
 30
0.0
 11
1000.875304578626
 21
553.2325711032747
 31
0.0
  0
LINE
  5
13A0
330
2
100
AcDbEntity
  8
0
100
AcDbLine
 10
995.4753045786269
 20
473.3725711032751
 30
0.0
 11
995.8753045786265
 21
472.6797507802469
 31
0.0
  0
LINE
  5
13A1
330
2
100
AcDbEntity
  8
0
100
AcDbLine
 10
995.4753045786269
 20
473.3725711032751
 30
0.0
 11
995.4753045786269
 21
463.372571103275
 31
0.0
  0
LINE
  5
13A2
330
2
100
AcDbEntity
  8
0
100
AcDbLine
 10
989.8753045786266
 20
473.3725711032751
 30
0.0
 11
989.8753045786266
 21
463.372571103275
 31
0.0
  0
LINE
  5
13A3
330
2
100
AcDbEntity
  8
0
100
AcDbLine
 10
989.8753045786266
 20
463.372571103275
 30
0.0
 11
988.8753045786266
 21
463.372571103275
 31
0.0
  0
LINE
  5
13A4
330
2
100
AcDbEntity
  8
0
100
AcDbLine
 10
988.8753045786266
 20
463.372571103275
 30
0.0
 11
988.8753045786266
 21
473.3725711032751
 31
0.0
  0
LINE
  5
13A5
330
2
100
AcDbEntity
  8
0
100
AcDbLine
 10
988.8753045786266
 20
473.3725711032751
 30
0.0
 11
989.8753045786266
 21
473.3725711032751
 31
0.0
  0
LINE
  5
13A6
330
2
100
AcDbEntity
  8
0
100
AcDbLine
 10
989.8753045786266
 20
473.3725711032751
 30
0.0
 11
989.8753045786266
 21
463.372571103275
 31
0.0
  0
LINE
  5
13A7
330
2
100
AcDbEntity
  8
0
100
AcDbLine
 10
995.4753045786269
 20
473.3725711032751
 30
0.0
 11
989.8753045786266
 21
473.3725711032751
 31
0.0
  0
LINE
  5
13A8
330
2
100
AcDbEntity
  8
0
100
AcDbLine
 10
995.8753045786265
 20
464.0653914263023
 30
0.0
 11
995.8753045786265
 21
472.6797507802469
 31
0.0
  0
LINE
  5
13A9
330
2
100
AcDbEntity
  8
0
100
AcDbLine
 10
989.8753045786266
 20
463.372571103275
 30
0.0
 11
995.4753045786269
 21
463.372571103275
 31
0.0
  0
LINE
  5
13AA
330
2
100
AcDbEntity
  8
0
100
AcDbLine
 10
995.4753045786269
 20
463.372571103275
 30
0.0
 11
995.8753045786265
 21
464.0653914263023
 31
0.0
  0
LINE
  5
13AB
330
2
100
AcDbEntity
  8
CENTER
  6
CENS
100
AcDbLine
 10
968.8753045786283
 20
468.372571103275
 30
0.0
 11
1000.875304578626
 21
468.372571103275
 31
0.0
  0
LINE
  5
13AC
330
2
100
AcDbEntity
  8
0
100
AcDbLine
 10
995.475304578626
 20
808.4494590787974
 30
0.0
 11
995.8753045786256
 21
807.7566387557702
 31
0.0
  0
LINE
  5
13AD
330
2
100
AcDbEntity
  8
0
100
AcDbLine
 10
995.475304578626
 20
808.4494590787974
 30
0.0
 11
995.475304578626
 21
798.4494590787974
 31
0.0
  0
LINE
  5
13AE
330
2
100
AcDbEntity
  8
0
100
AcDbLine
 10
989.8753045786257
 20
808.4494590787974
 30
0.0
 11
989.8753045786257
 21
798.4494590787974
 31
0.0
  0
LINE
  5
13AF
330
2
100
AcDbEntity
  8
0
100
AcDbLine
 10
989.8753045786257
 20
798.4494590787974
 30
0.0
 11
988.8753045786257
 21
798.4494590787974
 31
0.0
  0
LINE
  5
13B0
330
2
100
AcDbEntity
  8
0
100
AcDbLine
 10
988.8753045786257
 20
798.4494590787974
 30
0.0
 11
988.8753045786257
 21
808.4494590787974
 31
0.0
  0
LINE
  5
13B1
330
2
100
AcDbEntity
  8
0
100
AcDbLine
 10
988.8753045786257
 20
808.4494590787974
 30
0.0
 11
989.8753045786257
 21
808.4494590787974
 31
0.0
  0
LINE
  5
13B2
330
2
100
AcDbEntity
  8
0
100
AcDbLine
 10
989.8753045786257
 20
808.4494590787974
 30
0.0
 11
989.8753045786257
 21
798.4494590787974
 31
0.0
  0
LINE
  5
13B3
330
2
100
AcDbEntity
  8
0
100
AcDbLine
 10
995.475304578626
 20
808.4494590787974
 30
0.0
 11
989.8753045786257
 21
808.4494590787974
 31
0.0
  0
LINE
  5
13B4
330
2
100
AcDbEntity
  8
0
100
AcDbLine
 10
995.8753045786256
 20
799.1422794018246
 30
0.0
 11
995.8753045786256
 21
807.7566387557702
 31
0.0
  0
LINE
  5
13B5
330
2
100
AcDbEntity
  8
0
100
AcDbLine
 10
989.8753045786257
 20
798.4494590787974
 30
0.0
 11
995.475304578626
 21
798.4494590787974
 31
0.0
  0
LINE
  5
13B6
330
2
100
AcDbEntity
  8
0
100
AcDbLine
 10
995.475304578626
 20
798.4494590787974
 30
0.0
 11
995.8753045786256
 21
799.1422794018246
 31
0.0
  0
LINE
  5
13B7
330
2
100
AcDbEntity
  8
CENTER
  6
CENS
100
AcDbLine
 10
968.8753045786274
 20
803.4494590787973
 30
0.0
 11
1000.875304578625
 21
803.4494590787973
 31
0.0
  0
LINE
  5
13B8
330
2
100
AcDbEntity
  8
0
100
AcDbLine
 10
995.475304578626
 20
883.309459078797
 30
0.0
 11
995.8753045786256
 21
884.0022794018253
 31
0.0
  0
LINE
  5
13B9
330
2
100
AcDbEntity
  8
0
100
AcDbLine
 10
995.475304578626
 20
883.309459078797
 30
0.0
 11
995.475304578626
 21
893.3094590787971
 31
0.0
  0
LINE
  5
13BA
330
2
100
AcDbEntity
  8
0
100
AcDbLine
 10
989.8753045786257
 20
883.309459078797
 30
0.0
 11
989.8753045786257
 21
893.3094590787971
 31
0.0
  0
LINE
  5
13BB
330
2
100
AcDbEntity
  8
0
100
AcDbLine
 10
989.8753045786257
 20
893.3094590787971
 30
0.0
 11
988.8753045786257
 21
893.3094590787971
 31
0.0
  0
LINE
  5
13BC
330
2
100
AcDbEntity
  8
0
100
AcDbLine
 10
988.8753045786257
 20
893.3094590787971
 30
0.0
 11
988.8753045786257
 21
883.309459078797
 31
0.0
  0
LINE
  5
13BD
330
2
100
AcDbEntity
  8
0
100
AcDbLine
 10
988.8753045786257
 20
883.309459078797
 30
0.0
 11
989.8753045786257
 21
883.309459078797
 31
0.0
  0
LINE
  5
13BE
330
2
100
AcDbEntity
  8
0
100
AcDbLine
 10
989.8753045786257
 20
883.309459078797
 30
0.0
 11
989.8753045786257
 21
893.3094590787971
 31
0.0
  0
LINE
  5
13BF
330
2
100
AcDbEntity
  8
0
100
AcDbLine
 10
995.475304578626
 20
883.309459078797
 30
0.0
 11
989.8753045786257
 21
883.309459078797
 31
0.0
  0
LINE
  5
13C0
330
2
100
AcDbEntity
  8
0
100
AcDbLine
 10
995.8753045786256
 20
892.6166387557698
 30
0.0
 11
995.8753045786256
 21
884.0022794018253
 31
0.0
  0
LINE
  5
13C1
330
2
100
AcDbEntity
  8
0
100
AcDbLine
 10
989.8753045786257
 20
893.3094590787971
 30
0.0
 11
995.475304578626
 21
893.3094590787971
 31
0.0
  0
LINE
  5
13C2
330
2
100
AcDbEntity
  8
0
100
AcDbLine
 10
995.475304578626
 20
893.309459078798
 30
0.0
 11
995.8753045786256
 21
892.6166387557698
 31
0.0
  0
LINE
  5
13C3
330
2
100
AcDbEntity
  8
CENTER
  6
CENS
100
AcDbLine
 10
968.8753045786274
 20
888.3094590787971
 30
0.0
 11
1000.875304578625
 21
888.3094590787971
 31
0.0
  0
LINE
  5
13C4
330
2
100
AcDbEntity
  8
0
100
AcDbLine
 10
1019.898259865516
 20
556.8202496228316
 30
0.0
 11
1009.898425729242
 21
556.8778451697119
 31
0.0
  0
ARC
  5
13C5
330
2
100
AcDbEntity
  8
0
100
AcDbCircle
 10
1009.875387510489
 20
552.8779115152022
 30
0.0
 40
4.000000000000014
100
AcDbArc
 50
89.67000000001375
 51
179.6699999999877
  0
ARC
  5
13C6
330
2
100
AcDbEntity
  8
0
100
AcDbCircle
 10
1019.875221646763
 20
552.8203159683227
 30
0.0
 40
4.000000000000014
100
AcDbArc
 50
359.6699999999876
 51
89.67000000001375
  0
LINE
  5
13C7
330
2
100
AcDbEntity
  8
CENTER
  6
CENS
100
AcDbLine
 10
1014.875304578626
 20
561.7449709767927
 30
0.0
 11
1014.875304578626
 21
533.385044974428
 31
0.0
  0
CIRCLE
  5
13C8
330
2
100
AcDbEntity
  8
0
100
AcDbCircle
 10
1014.875304578625
 20
830.8794590787977
 30
0.0
 40
9.0
  0
LINE
  5
13C9
330
2
100
AcDbEntity
  8
CENTER
  6
CENS
100
AcDbLine
 10
1014.875304578622
 20
819.0005291798035
 30
0.0
 11
1014.875304578622
 21
842.7583889777917
 31
0.0
  0
LINE
  5
13CA
330
2
100
AcDbEntity
  8
CENTER
  6
CENS
100
AcDbLine
 10
1026.754234477616
 20
830.8794590787977
 30
0.0
 11
1002.996374679627
 21
830.8794590787977
 31
0.0
  0
LINE
  5
13CB
330
2
100
AcDbEntity
  8
0
100
AcDbLine
 10
1028.875304578626
 20
545.8025711032753
 30
0.0
 11
1021.875304578626
 21
545.8025711032744
 31
0.0
  0
LINE
  5
13CC
330
2
100
AcDbEntity
  8
0
100
AcDbLine
 10
1021.875304578626
 20
545.8025711032744
 30
0.0
 11
1021.875304578626
 21
510.8025711032745
 31
0.0
  0
LINE
  5
13CD
330
2
100
AcDbEntity
  8
0
100
AcDbLine
 10
1021.875304578626
 20
530.5525711032744
 30
0.0
 11
1012.137500008109
 21
530.5525711032744
 31
0.0
  0
LINE
  5
13CE
330
2
100
AcDbEntity
  8
0
100
AcDbLine
 10
1019.875304578626
 20
518.8025711032744
 30
0.0
 11
1008.875304578626
 21
518.8025711032753
 31
0.0
  0
LINE
  5
13CF
330
2
100
AcDbEntity
  8
0
100
AcDbLine
 10
990.3753045786265
 20
519.0525711032744
 30
0.0
 11
990.3753045786265
 21
510.8025711032754
 31
0.0
  0
LINE
  5
13D0
330
2
100
AcDbEntity
  8
0
100
AcDbLine
 10
990.3753045786265
 20
519.0525711032744
 30
0.0
 11
984.3753045786266
 21
519.0525711032744
 31
0.0
  0
LINE
  5
13D1
330
2
100
AcDbEntity
  8
0
100
AcDbLine
 10
984.3753045786266
 20
519.0525711032744
 30
0.0
 11
984.3753045786266
 21
510.8025711032745
 31
0.0
  0
LINE
  5
13D2
330
2
100
AcDbEntity
  8
0
100
AcDbLine
 10
1006.875304578626
 20
525.0779813239699
 30
0.0
 11
1006.875304578626
 21
510.8025711032745
 31
0.0
  0
LINE
  5
13D3
330
2
100
AcDbEntity
  8
0
100
AcDbLine
 10
1008.875304578626
 20
526.1317146643516
 30
0.0
 11
1008.875304578626
 21
510.8025711032745
 31
0.0
  0
LINE
  5
13D4
330
2
100
AcDbEntity
  8
0
100
AcDbLine
 10
1006.875304578626
 20
518.8025711032753
 30
0.0
 11
990.3753045786265
 21
518.8025711032744
 31
0.0
  0
LINE
  5
13D5
330
2
100
AcDbEntity
  8
0
100
AcDbLine
 10
1021.875304578626
 20
519.9572716416544
 30
0.0
 11
1019.875304578626
 21
518.8025711032744
 31
0.0
  0
LINE
  5
13D6
330
2
100
AcDbEntity
  8
0
100
AcDbLine
 10
1019.875304578626
 20
518.8025711032744
 30
0.0
 11
1019.875304578626
 21
510.8025711032745
 31
0.0
  0
LINE
  5
13D7
330
2
100
AcDbEntity
  8
0
100
AcDbLine
 10
984.3753045786266
 20
518.3025711032744
 30
0.0
 11
980.0451775597043
 21
510.8025711032745
 31
0.0
  0
SPLINE
  5
13D8
330
2
100
AcDbEntity
  8
HOJO
100
AcDbSpline
210
0.0
220
0.0
230
1.0
 70
     8
 71
     3
 72
    20
 73
    16
 74
     0
 42
0.0000000001
 43
0.0000000001
 40
1.221331719906463
 40
1.221331719906463
 40
1.221331719906463
 40
1.221331719906463
 40
5.647385924430076
 40
9.759277458584113
 40
14.59638394258456
 40
18.6386056126129
 40
22.25598020257161
 40
26.57819511411361
 40
31.00332353479096
 40
40.39337194914635
 40
45.49899296170218
 40
52.02718752358933
 40
57.17041693382338
 40
65.63449353306062
 40
69.3611614947018
 40
69.3611614947018
 40
69.3611614947018
 40
69.3611614947018
 10
1025.175787135656
 20
550.8671464204446
 30
0.0
 10
1023.808626932064
 20
550.0318732072058
 30
0.0
 10
1021.352955201132
 20
548.5032505616429
 30
0.0
 10
1020.043656772655
 20
543.9789083740736
 30
0.0
 10
1018.893747447107
 20
540.5873388795555
 30
0.0
 10
1015.405991035118
 20
536.9135736683112
 30
0.0
 10
1013.734155858755
 20
533.3882135383321
 30
0.0
 10
1011.7569092983
 20
529.8374968408372
 30
0.0
 10
1008.369127985737
 20
524.248452252383
 30
0.0
 10
1000.844768941422
 20
524.4240286999749
 30
0.0
 10
994.1164295847734
 20
523.2776581664768
 30
0.0
 10
988.7731630393659
 20
521.5590460619962
 30
0.0
 10
981.7743825249795
 20
521.2228747772726
 30
0.0
 10
978.0596497257551
 20
515.7368804453174
 30
0.0
 10
976.7378082869596
 20
511.9669739521417
 30
0.0
 10
976.3251355138505
 20
510.8025711032745
 30
0.0
  0
LINE
  5
13D9
330
2
100
AcDbEntity
  8
CENTER
  6
CENS
100
AcDbLine
 10
1300.482650220889
 20
561.7449709767047
 30
0.0
 11
1300.482650220889
 21
494.9549059456572
 31
0.0
  0
LINE
  5
13DA
330
2
100
AcDbEntity
  8
0
100
AcDbLine
 10
1295.746895864899
 20
510.0525711031864
 30
0.0
 11
1307.517884059851
 21
510.0525711031864
 31
0.0
  0
LINE
  5
13DB
330
2
100
AcDbEntity
  8
0
100
AcDbLine
 10
1295.746895864899
 20
511.5525711031865
 30
0.0
 11
1307.517884059851
 21
511.5525711031865
 31
0.0
  0
CIRCLE
  5
13DC
330
2
100
AcDbEntity
  8
0
100
AcDbCircle
 10
1315.482650220889
 20
510.8025711031864
 30
0.0
 40
8.0
  0
LINE
  5
13DD
330
2
100
AcDbEntity
  8
0
100
AcDbLine
 10
1332.682650220888
 20
510.0525711031864
 30
0.0
 11
1332.682650220888
 21
511.5525711031865
 31
0.0
  0
LINE
  5
13DE
330
2
100
AcDbEntity
  8
0
100
AcDbLine
 10
1323.447416381927
 20
510.0525711031864
 30
0.0
 11
1332.682650220888
 21
510.0525711031864
 31
0.0
  0
LINE
  5
13DF
330
2
100
AcDbEntity
  8
0
100
AcDbLine
 10
1323.447416381927
 20
511.5525711031865
 30
0.0
 11
1332.682650220888
 21
511.5525711031865
 31
0.0
  0
LINE
  5
13E0
330
2
100
AcDbEntity
  8
HIDS
100
AcDbLine
 10
1302.982650220889
 20
510.0525711031864
 30
0.0
 11
1302.982650220889
 21
495.5116424198136
 31
0.0
  0
LINE
  5
13E1
330
2
100
AcDbEntity
  8
HIDS
100
AcDbLine
 10
1302.565983554223
 20
510.0525711031864
 30
0.0
 11
1302.565983554223
 21
495.8619478825099
 31
0.0
  0
LINE
  5
13E2
330
2
100
AcDbEntity
  8
HIDS
100
AcDbLine
 10
1298.399316887555
 20
510.0525711031864
 30
0.0
 11
1298.399316887555
 21
500.8918586049745
 31
0.0
  0
LINE
  5
13E3
330
2
100
AcDbEntity
  8
HIDS
100
AcDbLine
 10
1297.982650220889
 20
510.0525711031864
 30
0.0
 11
1297.982650220889
 21
501.6476543913873
 31
0.0
  0
LINE
  5
13E4
330
2
100
AcDbEntity
  8
HIDS
100
AcDbLine
 10
1303.482650220889
 20
515.8025711031864
 30
0.0
 11
1303.482650220889
 21
511.5525711031865
 31
0.0
  0
LINE
  5
13E5
330
2
100
AcDbEntity
  8
HIDS
100
AcDbLine
 10
1297.482650220889
 20
515.8025711031864
 30
0.0
 11
1297.482650220889
 21
511.5525711031865
 31
0.0
  0
LINE
  5
13E6
330
2
100
AcDbEntity
  8
HIDS
100
AcDbLine
 10
1296.376041416604
 20
515.8025711031864
 30
0.0
 11
1305.482650220889
 21
515.8025711031864
 31
0.0
  0
LINE
  5
13E7
330
2
100
AcDbEntity
  8
HIDS
100
AcDbLine
 10
1304.732650220889
 20
515.8025711031864
 30
0.0
 11
1304.732650220889
 21
520.5025711031871
 31
0.0
  0
LINE
  5
13E8
330
2
100
AcDbEntity
  8
0
100
AcDbLine
 10
1296.232650220889
 20
520.5025711031871
 30
0.0
 11
1296.232650220889
 21
515.8025711031864
 31
0.0
  0
LINE
  5
13E9
330
2
100
AcDbEntity
  8
HIDS
100
AcDbLine
 10
1302.982650220889
 20
501.8025711031865
 30
0.0
 11
1301.982650220889
 21
500.8025711031865
 31
0.0
  0
LINE
  5
13EA
330
2
100
AcDbEntity
  8
HIDS
100
AcDbLine
 10
1297.982650220889
 20
501.8025711031865
 30
0.0
 11
1298.982650220889
 21
500.8025711031865
 31
0.0
  0
LINE
  5
13EB
330
2
100
AcDbEntity
  8
HIDS
100
AcDbLine
 10
1301.982650220889
 20
500.8025711031865
 30
0.0
 11
1298.982650220889
 21
500.8025711031865
 31
0.0
  0
LINE
  5
13EC
330
2
100
AcDbEntity
  8
HIDS
100
AcDbLine
 10
1302.982650220889
 20
515.8025711031864
 30
0.0
 11
1302.982650220889
 21
511.5525711031865
 31
0.0
  0
LINE
  5
13ED
330
2
100
AcDbEntity
  8
HIDS
100
AcDbLine
 10
1302.565983554223
 20
513.7192377698534
 30
0.0
 11
1302.565983554223
 21
511.5525711031865
 31
0.0
  0
LINE
  5
13EE
330
2
100
AcDbEntity
  8
HIDS
100
AcDbLine
 10
1298.399316887555
 20
513.7192377698534
 30
0.0
 11
1298.399316887555
 21
511.5525711031865
 31
0.0
  0
LINE
  5
13EF
330
2
100
AcDbEntity
  8
HIDS
100
AcDbLine
 10
1297.982650220889
 20
515.8025711031864
 30
0.0
 11
1297.982650220889
 21
511.5525711031865
 31
0.0
  0
LINE
  5
13F0
330
2
100
AcDbEntity
  8
HIDS
100
AcDbLine
 10
1302.982650220889
 20
501.8025711031865
 30
0.0
 11
1297.982650220889
 21
501.8025711031865
 31
0.0
  0
LINE
  5
13F1
330
2
100
AcDbEntity
  8
HIDS
100
AcDbLine
 10
1302.982650220889
 20
513.7192377698534
 30
0.0
 11
1297.982650220889
 21
513.7192377698534
 31
0.0
  0
LINE
  5
13F2
330
2
100
AcDbEntity
  8
0
100
AcDbLine
 10
1296.232650220889
 20
515.8025711031864
 30
0.0
 11
1296.376041416604
 21
515.8025711031864
 31
0.0
  0
LINE
  5
13F3
330
2
100
AcDbEntity
  8
HIDS
100
AcDbLine
 10
1297.982650220889
 20
515.8025711031864
 30
0.0
 11
1298.399316887555
 21
513.7192377698534
 31
0.0
  0
LINE
  5
13F4
330
2
100
AcDbEntity
  8
HIDS
100
AcDbLine
 10
1302.982650220889
 20
515.8025711031864
 30
0.0
 11
1302.565983554223
 21
513.7192377698534
 31
0.0
  0
LINE
  5
13F5
330
2
100
AcDbEntity
  8
0
100
AcDbLine
 10
1296.232650220889
 20
520.5025711031871
 30
0.0
 11
1298.278798907884
 21
520.5025711031871
 31
0.0
  0
LINE
  5
13F6
330
2
100
AcDbEntity
  8
HIDS
100
AcDbLine
 10
1304.213034978618
 20
520.8025711031864
 30
0.0
 11
1298.451428890638
 21
520.8025711031864
 31
0.0
  0
LINE
  5
13F7
330
2
100
AcDbEntity
  8
0
100
AcDbLine
 10
1296.232650220889
 20
520.5025711031871
 30
0.0
 11
1296.752265463159
 21
520.8025711031864
 31
0.0
  0
LINE
  5
13F8
330
2
100
AcDbEntity
  8
HIDS
100
AcDbLine
 10
1304.213034978618
 20
520.8025711031864
 30
0.0
 11
1304.732650220889
 21
520.5025711031871
 31
0.0
  0
LINE
  5
13F9
330
2
100
AcDbEntity
  8
0
100
AcDbLine
 10
1298.451428890638
 20
520.8025711031864
 30
0.0
 11
1296.752265463159
 21
520.8025711031864
 31
0.0
  0
LINE
  5
13FA
330
2
100
AcDbEntity
  8
HIDS
100
AcDbLine
 10
1298.278798907884
 20
520.5025711031871
 30
0.0
 11
1304.732650220889
 21
520.5025711031871
 31
0.0
  0
LINE
  5
13FB
330
2
100
AcDbEntity
  8
0
100
AcDbLine
 10
1302.982650220889
 20
511.5525711031865
 30
0.0
 11
1302.982650220889
 21
510.0525711031874
 31
0.0
  0
LINE
  5
13FC
330
2
100
AcDbEntity
  8
HOJO
100
AcDbLine
 10
1302.565983554223
 20
511.5525711031865
 30
0.0
 11
1302.565983554223
 21
510.0525711031874
 31
0.0
  0
LINE
  5
13FD
330
2
100
AcDbEntity
  8
HOJO
100
AcDbLine
 10
1298.399316887555
 20
511.5525711031865
 30
0.0
 11
1298.399316887555
 21
510.0525711031874
 31
0.0
  0
LINE
  5
13FE
330
2
100
AcDbEntity
  8
0
100
AcDbLine
 10
1297.982650220889
 20
511.5525711031865
 30
0.0
 11
1297.982650220889
 21
510.0525711031864
 31
0.0
  0
LINE
  5
13FF
330
2
100
AcDbEntity
  8
HIDS
100
AcDbLine
 10
1297.982650220889
 20
510.0525711031864
 30
0.0
 11
1297.982650220889
 21
501.8025711031865
 31
0.0
  0
LINE
  5
1400
330
2
100
AcDbEntity
  8
HIDS
100
AcDbLine
 10
1298.399316887555
 20
510.0525711031864
 30
0.0
 11
1298.399316887555
 21
501.3859044365204
 31
0.0
  0
CIRCLE
  5
1401
330
2
100
AcDbEntity
  8
0
100
AcDbCircle
 10
1315.482650220889
 20
510.8025711031864
 30
0.0
 40
19.75
  0
ARC
  5
1402
330
2
100
AcDbEntity
  8
0
100
AcDbCircle
 10
1315.482650220889
 20
510.8025711031864
 30
0.0
 40
9.154700538379415
100
AcDbArc
 50
4.699230675929105
 51
175.3007693240709
  0
ARC
  5
1403
330
2
100
AcDbEntity
  8
0
100
AcDbCircle
 10
1315.482650220889
 20
510.8025711031864
 30
0.0
 40
9.154700538379415
100
AcDbArc
 50
184.6992306759291
 51
355.3007693240708
  0
LINE
  5
1405
330
2
100
AcDbEntity
  8
0
100
AcDbLine
 10
1295.607651244341
 20
556.8778451696239
 30
0.0
 11
1305.357651244341
 21
556.8778451696239
 31
0.0
  0
ARC
  5
1406
330
2
100
AcDbEntity
  8
0
100
AcDbCircle
 10
1295.607651244341
 20
552.6278451696239
 30
0.0
 40
4.25
100
AcDbArc
 50
90.0
 51
177.6437927484533
  0
ARC
  5
1407
330
2
100
AcDbEntity
  8
0
100
AcDbCircle
 10
1305.107651244342
 20
552.6278451696239
 30
0.0
 40
4.25
100
AcDbArc
 50
2.356207251546686
 51
90.0
  0
LINE
  5
1408
330
2
100
AcDbEntity
  8
0
100
AcDbLine
 10
60.64010132400699
 20
552.8025711032717
 30
0.0
 11
60.64010132400699
 21
468.8025711032781
 31
0.0
  0
LINE
  5
1409
330
2
100
AcDbEntity
  8
0
100
AcDbLine
 10
58.64010132400699
 20
550.8723913629876
 30
0.0
 11
58.64010132400881
 21
470.7327508435621
 31
0.0
  0
LINE
  5
140A
330
2
100
AcDbEntity
  8
0
100
AcDbLine
 10
94.6401013240079
 20
560.680356875818
 30
0.0
 11
94.64010132400881
 21
460.9247853307318
 31
0.0
  0
LINE
  5
140B
330
2
100
AcDbEntity
  8
0
100
AcDbLine
 10
58.64010132400881
 20
470.7327508435621
 30
0.0
 11
60.64010132401063
 21
468.8025711032754
 31
0.0
  0
LINE
  5
140C
330
2
100
AcDbEntity
  8
0
100
AcDbLine
 10
54.64010132401063
 20
470.8025711032753
 30
0.0
 11
58.64010132400881
 21
470.7327508435621
 31
0.0
  0
LINE
  5
140D
330
2
100
AcDbEntity
  8
0
100
AcDbLine
 10
109.6401013240106
 20
459.8025711032754
 30
0.0
 11
95.63137478851103
 21
459.924823407667
 31
0.0
  0
LINE
  5
140E
330
2
100
AcDbEntity
  8
0
100
AcDbLine
 10
60.64010132401063
 20
468.8025711032754
 30
0.0
 11
87.64010132401063
 21
468.6454896983789
 31
0.0
  0
LINE
  5
140F
330
2
100
AcDbEntity
  8
0
100
AcDbLine
 10
58.64010132400699
 20
550.8723913629876
 30
0.0
 11
60.64010132400699
 21
552.8025711032717
 31
0.0
  0
LINE
  5
1410
330
2
100
AcDbEntity
  8
0
100
AcDbLine
 10
54.64010132401063
 20
550.8025711032744
 30
0.0
 11
58.64010132400699
 21
550.8723913629876
 31
0.0
  0
LINE
  5
1411
330
2
100
AcDbEntity
  8
0
100
AcDbLine
 10
109.6401013240106
 20
561.8025711032744
 30
0.0
 11
95.63137478851103
 21
561.6803187988819
 31
0.0
  0
LINE
  5
1412
330
2
100
AcDbEntity
  8
0
100
AcDbLine
 10
59.64025365132738
 20
552.7967541596783
 30
0.0
 11
87.64010132401063
 21
552.9596525081699
 31
0.0
  0
ARC
  5
1413
330
2
100
AcDbEntity
  8
0
100
AcDbCircle
 10
95.64010132401064
 20
560.680356875818
 30
0.0
 40
1.0
100
AcDbArc
 50
90.49999999996549
 51
180.0
  0
ARC
  5
1414
330
2
100
AcDbEntity
  8
0
100
AcDbCircle
 10
95.64010132400881
 20
460.9247853307318
 30
0.0
 40
1.0
100
AcDbArc
 50
180.0
 51
269.5000000000345
  0
LINE
  5
1415
330
2
100
AcDbEntity
  8
0
100
AcDbLine
 10
54.64010132401063
 20
550.8025711032744
 30
0.0
 11
54.64010132401063
 21
470.8025711032753
 31
0.0
  0
LINE
  5
1416
330
2
100
AcDbEntity
  8
0
100
AcDbLine
 10
88.04010132401026
 20
548.2325711032747
 30
0.0
 11
87.64010132401063
 21
548.9253914263029
 31
0.0
  0
LINE
  5
1417
330
2
100
AcDbEntity
  8
0
100
AcDbLine
 10
88.04010132401026
 20
548.2325711032747
 30
0.0
 11
88.04010132401026
 21
558.2325711032747
 31
0.0
  0
LINE
  5
1418
330
2
100
AcDbEntity
  8
0
100
AcDbLine
 10
93.64010132401062
 20
548.2325711032747
 30
0.0
 11
93.64010132401062
 21
558.2325711032747
 31
0.0
  0
LINE
  5
1419
330
2
100
AcDbEntity
  8
0
100
AcDbLine
 10
93.64010132401062
 20
558.2325711032747
 30
0.0
 11
94.64010132401062
 21
558.2325711032747
 31
0.0
  0
LINE
  5
141A
330
2
100
AcDbEntity
  8
0
100
AcDbLine
 10
94.64010132401062
 20
558.2325711032747
 30
0.0
 11
94.64010132401062
 21
548.2325711032747
 31
0.0
  0
LINE
  5
141B
330
2
100
AcDbEntity
  8
0
100
AcDbLine
 10
94.64010132401062
 20
548.2325711032747
 30
0.0
 11
93.64010132401062
 21
548.2325711032747
 31
0.0
  0
LINE
  5
141C
330
2
100
AcDbEntity
  8
0
100
AcDbLine
 10
93.64010132401062
 20
548.2325711032747
 30
0.0
 11
93.64010132401062
 21
558.2325711032747
 31
0.0
  0
LINE
  5
141D
330
2
100
AcDbEntity
  8
0
100
AcDbLine
 10
88.04010132401026
 20
548.2325711032747
 30
0.0
 11
93.64010132401062
 21
548.2325711032747
 31
0.0
  0
LINE
  5
141E
330
2
100
AcDbEntity
  8
0
100
AcDbLine
 10
87.64010132401063
 20
557.5397507802474
 30
0.0
 11
87.64010132401063
 21
548.9253914263029
 31
0.0
  0
LINE
  5
141F
330
2
100
AcDbEntity
  8
0
100
AcDbLine
 10
93.64010132401062
 20
558.2325711032747
 30
0.0
 11
88.04010132401026
 21
558.2325711032747
 31
0.0
  0
LINE
  5
1420
330
2
100
AcDbEntity
  8
0
100
AcDbLine
 10
88.04010132401026
 20
558.2325711032747
 30
0.0
 11
87.64010132401063
 21
557.5397507802474
 31
0.0
  0
LINE
  5
1421
330
2
100
AcDbEntity
  8
CENTER
  6
CENS
100
AcDbLine
 10
114.6401013240106
 20
553.2325711032747
 30
0.0
 11
82.64010132401063
 21
553.2325711032747
 31
0.0
  0
LINE
  5
1422
330
2
100
AcDbEntity
  8
0
100
AcDbLine
 10
88.04010132401026
 20
473.3725711032751
 30
0.0
 11
87.64010132401063
 21
472.6797507802469
 31
0.0
  0
LINE
  5
1423
330
2
100
AcDbEntity
  8
0
100
AcDbLine
 10
88.04010132401026
 20
473.3725711032751
 30
0.0
 11
88.04010132401026
 21
463.372571103275
 31
0.0
  0
LINE
  5
1424
330
2
100
AcDbEntity
  8
0
100
AcDbLine
 10
93.64010132401062
 20
473.3725711032751
 30
0.0
 11
93.64010132401062
 21
463.372571103275
 31
0.0
  0
LINE
  5
1425
330
2
100
AcDbEntity
  8
0
100
AcDbLine
 10
93.64010132401062
 20
463.372571103275
 30
0.0
 11
94.64010132401062
 21
463.372571103275
 31
0.0
  0
LINE
  5
1426
330
2
100
AcDbEntity
  8
0
100
AcDbLine
 10
94.64010132401062
 20
463.372571103275
 30
0.0
 11
94.64010132401062
 21
473.3725711032751
 31
0.0
  0
LINE
  5
1427
330
2
100
AcDbEntity
  8
0
100
AcDbLine
 10
94.64010132401062
 20
473.3725711032751
 30
0.0
 11
93.64010132401062
 21
473.3725711032751
 31
0.0
  0
LINE
  5
1428
330
2
100
AcDbEntity
  8
0
100
AcDbLine
 10
93.64010132401062
 20
473.3725711032751
 30
0.0
 11
93.64010132401062
 21
463.372571103275
 31
0.0
  0
LINE
  5
1429
330
2
100
AcDbEntity
  8
0
100
AcDbLine
 10
88.04010132401026
 20
473.3725711032751
 30
0.0
 11
93.64010132401062
 21
473.3725711032751
 31
0.0
  0
LINE
  5
142A
330
2
100
AcDbEntity
  8
0
100
AcDbLine
 10
87.64010132401063
 20
464.0653914263023
 30
0.0
 11
87.64010132401063
 21
472.6797507802469
 31
0.0
  0
LINE
  5
142B
330
2
100
AcDbEntity
  8
0
100
AcDbLine
 10
93.64010132401062
 20
463.372571103275
 30
0.0
 11
88.04010132401026
 21
463.372571103275
 31
0.0
  0
LINE
  5
142C
330
2
100
AcDbEntity
  8
0
100
AcDbLine
 10
88.04010132401026
 20
463.372571103275
 30
0.0
 11
87.64010132401063
 21
464.0653914263023
 31
0.0
  0
LINE
  5
142D
330
2
100
AcDbEntity
  8
CENTER
  6
CENS
100
AcDbLine
 10
114.6401013240106
 20
468.372571103275
 30
0.0
 11
82.64010132401063
 21
468.372571103275
 31
0.0
  0
LINE
  5
142E
330
2
100
AcDbEntity
  8
0
100
AcDbLine
 10
63.61714603712107
 20
556.8202496228316
 30
0.0
 11
73.61698017339449
 21
556.8778451697119
 31
0.0
  0
ARC
  5
142F
330
2
100
AcDbEntity
  8
0
100
AcDbCircle
 10
73.64001839214734
 20
552.8779115152022
 30
0.0
 40
4.000000000000014
100
AcDbArc
 50
0.3300000000122996
 51
90.32999999998624
  0
ARC
  5
1430
330
2
100
AcDbEntity
  8
0
100
AcDbCircle
 10
63.64018425587392
 20
552.8203159683227
 30
0.0
 40
4.000000000000014
100
AcDbArc
 50
90.32999999998624
 51
180.3299999999862
  0
LINE
  5
1431
330
2
100
AcDbEntity
  8
CENTER
  6
CENS
100
AcDbLine
 10
68.64010132401062
 20
561.7449709767927
 30
0.0
 11
68.64010132401062
 21
533.385044974428
 31
0.0
  0
LINE
  5
1432
330
2
100
AcDbEntity
  8
0
100
AcDbLine
 10
1022.875304578626
 20
468.8025711032754
 30
0.0
 11
1022.875304578626
 21
510.8025711032745
 31
0.0
  0
LINE
  5
1433
330
2
100
AcDbEntity
  8
0
100
AcDbLine
 10
1024.875304578628
 20
470.7327508435621
 30
0.0
 11
1024.875304578628
 21
510.8025711032745
 31
0.0
  0
LINE
  5
1434
330
2
100
AcDbEntity
  8
HIDS
100
AcDbLine
 10
1305.482650220889
 20
515.8025711031864
 30
0.0
 11
1305.482650220889
 21
527.8337924334378
 31
0.0
  0
CIRCLE
  5
1435
330
2
100
AcDbEntity
  8
0
100
AcDbCircle
 10
1347.302455374284
 20
478.9827659497919
 30
0.0
 40
2.0
  0
CIRCLE
  5
1436
330
2
100
AcDbEntity
  8
HOJO
100
AcDbCircle
 10
1347.302455374284
 20
478.9827659497919
 30
0.0
 40
2.5
  0
CIRCLE
  5
1437
330
2
100
AcDbEntity
  8
0
100
AcDbCircle
 10
1347.302455374284
 20
542.6223762565809
 30
0.0
 40
2.0
  0
CIRCLE
  5
1438
330
2
100
AcDbEntity
  8
HOJO
100
AcDbCircle
 10
1347.302455374284
 20
542.6223762565809
 30
0.0
 40
2.5
  0
CIRCLE
  5
1439
330
2
100
AcDbEntity
  8
0
100
AcDbCircle
 10
1283.662845067494
 20
478.9827659497919
 30
0.0
 40
2.0
  0
CIRCLE
  5
143A
330
2
100
AcDbEntity
  8
HOJO
100
AcDbCircle
 10
1283.662845067494
 20
478.9827659497919
 30
0.0
 40
2.5
  0
CIRCLE
  5
143B
330
2
100
AcDbEntity
  8
0
100
AcDbCircle
 10
1283.662845067494
 20
542.6223762565809
 30
0.0
 40
2.0
  0
CIRCLE
  5
143C
330
2
100
AcDbEntity
  8
HOJO
100
AcDbCircle
 10
1283.662845067494
 20
542.6223762565809
 30
0.0
 40
2.5
  0
LINE
  5
143D
330
2
100
AcDbEntity
  8
0
100
AcDbLine
 10
1021.875304578626
 20
539.8025711032744
 30
0.0
 11
1017.96565122984
 21
539.8025711032744
 31
0.0
  0
CIRCLE
  5
143E
330
2
100
AcDbEntity
  8
0
100
AcDbCircle
 10
1315.482650220889
 20
510.8025711031864
 30
0.0
 40
29.0
  0
LINE
  5
1961
330
2
100
AcDbEntity
  8
0
100
AcDbLine
 10
206.1101233240092
 20
453.3025711032744
 30
0.0
 11
206.1101233240092
 21
568.3025711032744
 31
0.0
  0
ARC
  5
1962
330
2
100
AcDbEntity
  8
0
100
AcDbCircle
 10
216.1101233240092
 20
568.3025711032744
 30
0.0
 40
10.0
100
AcDbArc
 50
90.0
 51
175.219808152766
  0
ARC
  5
1963
330
2
100
AcDbEntity
  8
0
100
AcDbCircle
 10
220.1101233240092
 20
570.3025711032744
 30
0.0
 40
8.0
100
AcDbArc
 50
80.57047887833093
 51
90.0
  0
ARC
  5
1964
330
2
100
AcDbEntity
  8
0
100
AcDbCircle
 10
237.8042237001305
 20
676.8432619771358
 30
0.0
 40
100.0
100
AcDbArc
 50
260.5704788783309
 51
274.6677226878297
  0
LINE
  5
1965
330
2
100
AcDbEntity
  8
0
100
AcDbLine
 10
220.1101233240092
 20
578.3025711032744
 30
0.0
 11
216.1101233240092
 21
578.3025711032744
 31
0.0
  0
LINE
  5
1966
330
2
100
AcDbEntity
  8
0
100
AcDbLine
 10
322.6101233240065
 20
568.3025711032744
 30
0.0
 11
322.6101233240074
 21
575.4593770803269
 31
0.0
  0
ARC
  5
1967
330
2
100
AcDbEntity
  8
0
100
AcDbCircle
 10
331.1101233240092
 20
568.3025711032744
 30
0.0
 40
10.0
100
AcDbArc
 50
0.0
 51
90.0
  0
LINE
  5
1968
330
2
100
AcDbEntity
  8
0
100
AcDbLine
 10
331.1101233240092
 20
578.3025711032744
 30
0.0
 11
327.1101233240092
 21
578.3025711032744
 31
0.0
  0
ARC
  5
1969
330
2
100
AcDbEntity
  8
0
100
AcDbCircle
 10
327.1101233240092
 20
570.3025711032744
 30
0.0
 40
8.0
100
AcDbArc
 50
90.0
 51
99.42952112166906
  0
LINE
  5
196A
330
2
100
AcDbEntity
  8
CENTER
100
AcDbLine
 10
341.8601233240055
 20
568.3025711032762
 30
0.0
 11
320.3601233240064
 21
568.3025711032744
 31
0.0
  0
ARC
  5
196B
330
2
100
AcDbEntity
  8
0
100
AcDbCircle
 10
331.1101233240056
 20
568.3025711032762
 30
0.0
 40
8.5
100
AcDbArc
 50
180.0
 51
270.0
  0
LINE
  5
196C
330
2
100
AcDbEntity
  8
0
100
AcDbLine
 10
341.1101233240092
 20
564.3025711032744
 30
0.0
 11
341.1101233240092
 21
568.3025711032744
 31
0.0
  0
ARC
  5
196D
330
2
100
AcDbEntity
  8
0
100
AcDbCircle
 10
333.1101233240092
 20
564.3025711032744
 30
0.0
 40
8.0
100
AcDbArc
 50
350.5704788783309
 51
0.0
  0
ARC
  5
196E
330
2
100
AcDbEntity
  8
0
100
AcDbCircle
 10
439.6508141978724
 20
546.6084707271604
 30
0.0
 40
100.0
100
AcDbArc
 50
170.5704788783309
 51
184.6677226878297
  0
ARC
  5
196F
330
2
100
AcDbEntity
  8
0
100
AcDbCircle
 10
338.2669293010635
 20
557.8025711032762
 30
0.0
 40
2.0
100
AcDbArc
 50
353.6993214717072
 51
90.0
  0
CIRCLE
  5
1970
330
2
100
AcDbEntity
  8
0
100
AcDbCircle
 10
334.1101233240019
 20
553.8025711032708
 30
0.0
 40
4.0
  0
CIRCLE
  5
1971
330
2
100
AcDbEntity
  8
HOJO
100
AcDbCircle
 10
334.1101233240019
 20
553.8025711032708
 30
0.0
 40
2.5
  0
CIRCLE
  5
1972
330
2
100
AcDbEntity
  8
0
100
AcDbCircle
 10
334.1101233240019
 20
553.8025711032708
 30
0.0
 40
3.5
  0
CIRCLE
  5
1973
330
2
100
AcDbEntity
  8
0
100
AcDbCircle
 10
334.1101233240019
 20
553.8025711032708
 30
0.0
 40
2.0
  0
LINE
  5
1974
330
2
100
AcDbEntity
  8
0
100
AcDbLine
 10
331.1101233240065
 20
559.8025711032762
 30
0.0
 11
338.2669293010635
 21
559.8025711032762
 31
0.0
  0
ARC
  5
1975
330
2
100
AcDbEntity
  8
0
100
AcDbCircle
 10
216.1101233240092
 20
453.3025711032744
 30
0.0
 40
10.0
100
AcDbArc
 50
184.7801918472339
 51
270.0
  0
ARC
  5
1976
330
2
100
AcDbEntity
  8
0
100
AcDbCircle
 10
220.1101233240092
 20
451.3025711032745
 30
0.0
 40
8.0
100
AcDbArc
 50
270.0
 51
279.4295211216691
  0
ARC
  5
1977
330
2
100
AcDbEntity
  8
0
100
AcDbCircle
 10
237.8042237001232
 20
344.7618802294112
 30
0.0
 40
100.0
100
AcDbArc
 50
85.3322773121703
 51
99.42952112166906
  0
LINE
  5
1978
330
2
100
AcDbEntity
  8
0
100
AcDbLine
 10
220.1101233240092
 20
443.3025711032745
 30
0.0
 11
216.1101233240092
 21
443.3025711032745
 31
0.0
  0
LINE
  5
1979
330
2
100
AcDbEntity
  8
0
100
AcDbLine
 10
322.6101233240074
 20
453.3025711032762
 30
0.0
 11
322.6101233240074
 21
446.145765126221
 31
0.0
  0
ARC
  5
197A
330
2
100
AcDbEntity
  8
0
100
AcDbCircle
 10
331.1101233240092
 20
453.3025711032744
 30
0.0
 40
10.0
100
AcDbArc
 50
270.0
 51
0.0
  0
ARC
  5
197B
330
2
100
AcDbEntity
  8
0
100
AcDbCircle
 10
331.1101233240074
 20
453.3025711032744
 30
0.0
 40
8.5
100
AcDbArc
 50
90.0
 51
180.0
  0
CIRCLE
  5
197C
330
2
100
AcDbEntity
  8
HOJO
100
AcDbCircle
 10
334.1101233240065
 20
467.802571103278
 30
0.0
 40
2.5
  0
CIRCLE
  5
197D
330
2
100
AcDbEntity
  8
0
100
AcDbCircle
 10
334.1101233240065
 20
467.802571103278
 30
0.0
 40
2.0
  0
CIRCLE
  5
197E
330
2
100
AcDbEntity
  8
0
100
AcDbCircle
 10
334.1101233240065
 20
467.802571103278
 30
0.0
 40
3.5
  0
CIRCLE
  5
197F
330
2
100
AcDbEntity
  8
0
100
AcDbCircle
 10
334.1101233240065
 20
467.802571103278
 30
0.0
 40
4.0
  0
LINE
  5
1980
330
2
100
AcDbEntity
  8
0
100
AcDbLine
 10
331.1101233240074
 20
461.8025711032744
 30
0.0
 11
338.2669293010635
 21
461.8025711032763
 31
0.0
  0
LINE
  5
1981
330
2
100
AcDbEntity
  8
0
100
AcDbLine
 10
341.1101233240092
 20
453.3025711032744
 30
0.0
 11
341.1101233240092
 21
457.3025711032745
 31
0.0
  0
ARC
  5
1982
330
2
100
AcDbEntity
  8
0
100
AcDbCircle
 10
333.1101233240092
 20
457.3025711032745
 30
0.0
 40
8.0
100
AcDbArc
 50
0.0
 51
9.429521121669067
  0
LINE
  5
1983
330
2
100
AcDbEntity
  8
0
100
AcDbLine
 10
331.1101233240092
 20
443.3025711032745
 30
0.0
 11
327.1101233240092
 21
443.3025711032745
 31
0.0
  0
ARC
  5
1984
330
2
100
AcDbEntity
  8
0
100
AcDbCircle
 10
327.1101233240092
 20
451.3025711032745
 30
0.0
 40
8.0
100
AcDbArc
 50
260.5704788783309
 51
270.0
  0
ARC
  5
1985
330
2
100
AcDbEntity
  8
0
100
AcDbCircle
 10
311.6101233240092
 20
472.8025711032745
 30
0.0
 40
15.0
100
AcDbArc
 50
270.0
 51
0.0
  0
ARC
  5
1986
330
2
100
AcDbEntity
  8
0
100
AcDbCircle
 10
311.6101233240092
 20
472.8025711032745
 30
0.0
 40
17.0
100
AcDbArc
 50
270.0
 51
0.0
  0
ARC
  5
1987
330
2
100
AcDbEntity
  8
0
100
AcDbCircle
 10
311.6101233240092
 20
548.8025711032744
 30
0.0
 40
17.0
100
AcDbArc
 50
0.0
 51
90.0
  0
ARC
  5
1988
330
2
100
AcDbEntity
  8
0
100
AcDbCircle
 10
311.6101233240092
 20
548.8025711032744
 30
0.0
 40
15.0
100
AcDbArc
 50
0.0
 51
90.0
  0
ARC
  5
1989
330
2
100
AcDbEntity
  8
0
100
AcDbCircle
 10
235.6101233240092
 20
472.8025711032745
 30
0.0
 40
15.0
100
AcDbArc
 50
180.0
 51
270.0
  0
ARC
  5
198A
330
2
100
AcDbEntity
  8
0
100
AcDbCircle
 10
235.6101233240092
 20
472.8025711032745
 30
0.0
 40
17.0
100
AcDbArc
 50
180.0
 51
270.0
  0
CIRCLE
  5
198B
330
2
100
AcDbEntity
  8
0
100
AcDbCircle
 10
273.6101233240092
 20
510.8025711032745
 30
0.0
 40
45.0
  0
CIRCLE
  5
198C
330
2
100
AcDbEntity
  8
0
100
AcDbCircle
 10
273.6101233240092
 20
510.8025711032745
 30
0.0
 40
44.5
  0
CIRCLE
  5
198D
330
2
100
AcDbEntity
  8
0
100
AcDbCircle
 10
273.6101233240092
 20
510.8025711032745
 30
0.0
 40
42.5
  0
ARC
  5
198E
330
2
100
AcDbEntity
  8
0
100
AcDbCircle
 10
235.6101233240092
 20
548.8025711032744
 30
0.0
 40
15.0
100
AcDbArc
 50
90.0
 51
180.0
  0
ARC
  5
198F
330
2
100
AcDbEntity
  8
0
100
AcDbCircle
 10
235.6101233240092
 20
548.8025711032744
 30
0.0
 40
17.0
100
AcDbArc
 50
90.0
 51
180.0
  0
LINE
  5
1990
330
2
100
AcDbEntity
  8
0
100
AcDbLine
 10
218.6101233240092
 20
472.8025711032745
 30
0.0
 11
218.6101233240092
 21
548.8025711032744
 31
0.0
  0
LINE
  5
1991
330
2
100
AcDbEntity
  8
0
100
AcDbLine
 10
220.6101233240092
 20
472.8025711032745
 30
0.0
 11
220.6101233240092
 21
548.8025711032744
 31
0.0
  0
CIRCLE
  5
1992
330
2
100
AcDbEntity
  8
0
100
AcDbCircle
 10
273.6101233240092
 20
510.8025711032745
 30
0.0
 40
36.57739999999999
  0
CIRCLE
  5
1993
330
2
100
AcDbEntity
  8
0
100
AcDbCircle
 10
273.6101233240092
 20
510.8025711032745
 30
0.0
 40
41.9226
  0
CIRCLE
  5
1994
330
2
100
AcDbEntity
  8
0
100
AcDbCircle
 10
273.6101233240092
 20
510.8025711032745
 30
0.0
 40
36.0
  0
LINE
  5
1995
330
2
100
AcDbEntity
  8
0
100
AcDbLine
 10
235.6101233240092
 20
565.8025711032744
 30
0.0
 11
311.6101233240092
 21
565.8025711032744
 31
0.0
  0
LINE
  5
1996
330
2
100
AcDbEntity
  8
0
100
AcDbLine
 10
235.6101233240092
 20
563.8025711032744
 30
0.0
 11
311.6101233240092
 21
563.8025711032744
 31
0.0
  0
LINE
  5
1997
330
2
100
AcDbEntity
  8
0
100
AcDbLine
 10
311.6101233240092
 20
455.8025711032745
 30
0.0
 11
235.6101233240092
 21
455.8025711032745
 31
0.0
  0
LINE
  5
1998
330
2
100
AcDbEntity
  8
0
100
AcDbLine
 10
311.6101233240092
 20
457.8025711032744
 30
0.0
 11
235.6101233240092
 21
457.8025711032744
 31
0.0
  0
LINE
  5
1999
330
2
100
AcDbEntity
  8
0
100
AcDbLine
 10
328.6101233240092
 20
548.8025711032744
 30
0.0
 11
328.6101233240092
 21
472.8025711032745
 31
0.0
  0
LINE
  5
199A
330
2
100
AcDbEntity
  8
0
100
AcDbLine
 10
326.6101233240092
 20
548.8025711032744
 30
0.0
 11
326.6101233240092
 21
472.8025711032745
 31
0.0
  0
LINE
  5
199B
330
2
100
AcDbEntity
  8
0
100
AcDbLine
 10
323.6309386041807
 20
560.8233863834459
 30
0.0
 11
322.2167250418074
 21
559.4091728210726
 31
0.0
  0
LINE
  5
199C
330
2
100
AcDbEntity
  8
0
100
AcDbLine
 10
323.6309386041807
 20
460.781755823103
 30
0.0
 11
322.2167250418074
 21
462.1959693854763
 31
0.0
  0
LINE
  5
199D
330
2
100
AcDbEntity
  8
0
100
AcDbLine
 10
223.5893080438377
 20
560.8233863834459
 30
0.0
 11
225.003521606211
 21
559.4091728210726
 31
0.0
  0
LINE
  5
199E
330
2
100
AcDbEntity
  8
0
100
AcDbLine
 10
223.5893080438377
 20
460.781755823103
 30
0.0
 11
225.003521606211
 21
462.1959693854763
 31
0.0
  0
LINE
  5
199F
330
2
100
AcDbEntity
  8
CENTER
100
AcDbLine
 10
331.110123324011
 20
579.0525711032707
 30
0.0
 11
331.1101233240092
 21
557.5525711032725
 31
0.0
  0
LINE
  5
19A0
330
2
100
AcDbEntity
  8
CENTER
100
AcDbLine
 10
341.8601233240055
 20
453.3025711032727
 30
0.0
 11
320.3601233240064
 21
453.3025711032744
 31
0.0
  0
LINE
  5
19A1
330
2
100
AcDbEntity
  8
CENTER
100
AcDbLine
 10
331.110123324011
 20
442.5525711032781
 30
0.0
 11
331.1101233240092
 21
464.0525711032781
 31
0.0
  0
LINE
  5
19A2
330
2
100
AcDbEntity
  8
CENTER
100
AcDbLine
 10
334.110123324001
 20
560.1925802718881
 30
0.0
 11
334.110123324001
 21
547.4125619346552
 31
0.0
  0
LINE
  5
19A3
330
2
100
AcDbEntity
  8
CENTER
100
AcDbLine
 10
327.7201141553846
 20
553.8025711032708
 30
0.0
 11
340.5001324926174
 21
553.8025711032708
 31
0.0
  0
LINE
  5
19A4
330
2
100
AcDbEntity
  8
CENTER
100
AcDbLine
 10
334.110123324001
 20
461.4125619346626
 30
0.0
 11
334.110123324001
 21
474.1925802718954
 31
0.0
  0
LINE
  5
19A5
330
2
100
AcDbEntity
  8
CENTER
100
AcDbLine
 10
327.7201141553846
 20
467.802571103278
 30
0.0
 11
340.5001324926174
 21
467.802571103278
 31
0.0
  0
CIRCLE
  5
19A6
330
2
100
AcDbEntity
  8
0
100
AcDbCircle
 10
331.1101233240092
 20
568.3025711032762
 30
0.0
 40
5.63397459621558
  0
CIRCLE
  5
19A7
330
2
100
AcDbEntity
  8
0
100
AcDbCircle
 10
331.1101233240092
 20
568.3025711032762
 30
0.0
 40
6.5
  0
LINE
  5
19A8
330
2
100
AcDbEntity
  8
0
100
AcDbLine
 10
334.1101233240092
 20
566.5705202957062
 30
0.0
 11
334.1101233240092
 21
570.0346219108443
 31
0.0
  0
LINE
  5
19A9
330
2
100
AcDbEntity
  8
0
100
AcDbLine
 10
328.1101233240092
 20
570.0346219108443
 30
0.0
 11
328.1101233240092
 21
566.5705202957062
 31
0.0
  0
LINE
  5
19AA
330
2
100
AcDbEntity
  8
0
100
AcDbLine
 10
331.1101233240092
 20
564.838469488138
 30
0.0
 11
334.1101233240092
 21
566.5705202957062
 31
0.0
  0
LINE
  5
19AB
330
2
100
AcDbEntity
  8
0
100
AcDbLine
 10
328.1101233240092
 20
566.5705202957062
 30
0.0
 11
331.1101233240092
 21
564.838469488138
 31
0.0
  0
LINE
  5
19AC
330
2
100
AcDbEntity
  8
0
100
AcDbLine
 10
328.1101233240092
 20
570.0346219108443
 30
0.0
 11
331.1101233240092
 21
571.7666727184144
 31
0.0
  0
LINE
  5
19AD
330
2
100
AcDbEntity
  8
0
100
AcDbLine
 10
331.1101233240092
 20
571.7666727184125
 30
0.0
 11
334.1101233240092
 21
570.0346219108443
 31
0.0
  0
CIRCLE
  5
19AE
330
2
100
AcDbEntity
  8
0
100
AcDbCircle
 10
331.1101233240092
 20
453.3025711032744
 30
0.0
 40
5.63397459621558
  0
CIRCLE
  5
19AF
330
2
100
AcDbEntity
  8
0
100
AcDbCircle
 10
331.1101233240092
 20
453.3025711032744
 30
0.0
 40
6.5
  0
LINE
  5
19B0
330
2
100
AcDbEntity
  8
0
100
AcDbLine
 10
334.1101233240092
 20
451.5705202957063
 30
0.0
 11
334.1101233240092
 21
455.0346219108426
 31
0.0
  0
LINE
  5
19B1
330
2
100
AcDbEntity
  8
0
100
AcDbLine
 10
328.1101233240092
 20
455.0346219108426
 30
0.0
 11
328.1101233240092
 21
451.5705202957045
 31
0.0
  0
LINE
  5
19B2
330
2
100
AcDbEntity
  8
0
100
AcDbLine
 10
331.1101233240092
 20
449.8384694881363
 30
0.0
 11
334.1101233240092
 21
451.5705202957063
 31
0.0
  0
LINE
  5
19B3
330
2
100
AcDbEntity
  8
0
100
AcDbLine
 10
328.1101233240092
 20
451.5705202957045
 30
0.0
 11
331.1101233240092
 21
449.8384694881363
 31
0.0
  0
LINE
  5
19B4
330
2
100
AcDbEntity
  8
0
100
AcDbLine
 10
328.1101233240092
 20
455.0346219108426
 30
0.0
 11
331.1101233240092
 21
456.7666727184126
 31
0.0
  0
LINE
  5
19B5
330
2
100
AcDbEntity
  8
0
100
AcDbLine
 10
331.1101233240092
 20
456.7666727184126
 30
0.0
 11
334.1101233240092
 21
455.0346219108426
 31
0.0
  0
ARC
  5
19B6
330
2
100
AcDbEntity
  8
0
100
AcDbCircle
 10
273.6101233240092
 20
510.8025711032745
 30
0.0
 40
16.0
100
AcDbArc
 50
108.2099568642858
 51
71.79004313571411
  0
LINE
  5
19B7
330
2
100
AcDbEntity
  8
0
100
AcDbLine
 10
268.6101233240092
 20
530.1025741032747
 30
0.0
 11
268.6101233240092
 21
526.0012552568452
 31
0.0
  0
LINE
  5
19B8
330
2
100
AcDbEntity
  8
0
100
AcDbLine
 10
278.6101233240092
 20
530.1025741032747
 30
0.0
 11
278.6101233240092
 21
526.0012552568452
 31
0.0
  0
LINE
  5
19B9
330
2
100
AcDbEntity
  8
0
100
AcDbLine
 10
268.6101233240092
 20
530.1025741032747
 30
0.0
 11
278.6101233240092
 21
530.1025741032747
 31
0.0
  0
CIRCLE
  5
19BA
330
2
100
AcDbEntity
  8
0
100
AcDbCircle
 10
273.6101233240092
 20
510.8025711032745
 30
0.0
 40
24.49999999582681
  0
ARC
  5
19BB
330
2
100
AcDbEntity
  8
0
100
AcDbCircle
 10
273.6101233240092
 20
510.8025711032745
 30
0.0
 40
17.15469399582682
100
AcDbArc
 50
106.9457086470001
 51
73.05429135299984
  0
ARC
  5
19BC
330
2
100
AcDbEntity
  8
0
100
AcDbCircle
 10
273.6101233240092
 20
238.3025711032735
 30
0.0
 40
340.0
100
AcDbArc
 50
85.3322773121703
 51
94.66772268782973
  0
ARC
  5
19BD
330
2
100
AcDbEntity
  8
0
100
AcDbCircle
 10
309.4160229478879
 20
676.8432619771358
 30
0.0
 40
100.0
100
AcDbArc
 50
265.3322773121702
 51
279.4295211216691
  0
ARC
  5
19BE
330
2
100
AcDbEntity
  8
0
100
AcDbCircle
 10
320.6101233240065
 20
575.4593770803269
 30
0.0
 40
2.0
100
AcDbArc
 50
0.0
 51
96.30067852829274
  0
ARC
  5
19BF
330
2
100
AcDbEntity
  8
0
100
AcDbCircle
 10
273.6101233240092
 20
783.3025711032735
 30
0.0
 40
340.0
100
AcDbArc
 50
265.3322773121702
 51
274.6677226878297
  0
ARC
  5
19C0
330
2
100
AcDbEntity
  8
0
100
AcDbCircle
 10
309.4160229478952
 20
344.7618802294112
 30
0.0
 40
100.0
100
AcDbArc
 50
80.57047887833093
 51
94.66772268782973
  0
ARC
  5
19C1
330
2
100
AcDbEntity
  8
0
100
AcDbCircle
 10
320.6101233240065
 20
446.145765126221
 30
0.0
 40
2.0
100
AcDbArc
 50
263.6993214717072
 51
0.0
  0
ARC
  5
19C2
330
2
100
AcDbEntity
  8
0
100
AcDbCircle
 10
1.110123324010146
 20
510.8025711032745
 30
0.0
 40
340.0
100
AcDbArc
 50
355.3322773121702
 51
4.66772268782971
  0
ARC
  5
19C3
330
2
100
AcDbEntity
  8
0
100
AcDbCircle
 10
439.6508141978724
 20
474.9966714793884
 30
0.0
 40
100.0
100
AcDbArc
 50
175.3322773121702
 51
189.429521121669
  0
ARC
  5
19C4
330
2
100
AcDbEntity
  8
0
100
AcDbCircle
 10
338.2669293010626
 20
463.8025711032763
 30
0.0
 40
2.0
100
AcDbArc
 50
270.0
 51
6.300678528292741
  0
LINE
  5
1A46
330
2
100
AcDbEntity
  8
0
100
AcDbLine
 10
742.409646012414
 20
881.8794590788108
 30
0.0
 11
743.1863372458986
 21
792.8794590787978
 31
0.0
  0
CIRCLE
  5
1A6D
330
2
100
AcDbEntity
  8
0
100
AcDbCircle
 10
809.905282578628
 20
510.8025711032745
 30
0.0
 40
36.57739999999999
  0
ENDSEC
  0
SECTION
  2
OBJECTS
  0
DICTIONARY
  5
7
330
0
100
AcDbDictionary
  3
ACAD_COLOR
350
18CD
  3
ACAD_GROUP
350
75
  3
ACAD_LAYOUT
350
61
  3
ACAD_MATERIAL
350
18A3
  3
ACAD_MLEADERSTYLE
350
18F2
  3
ACAD_MLINESTYLE
350
76
  3
ACAD_PLOTSETTINGS
350
77
  3
ACAD_PLOTSTYLENAME
350
6
  3
ACAD_SCALELIST
350
18D0
  3
ACAD_TABLESTYLE
350
18CE
  3
ACAD_VISUALSTYLE
350
18BC
  3
ACADDIM
350
480
  3
ACDB_RECOMPOSE_DATA
350
19D9
  3
ACDBHEADERROUNDTRIPXREC
350
1A87
  3
ACDBVARIABLEDICTIONARY
350
102
  3
DWGPROPS
350
1A48
  0
DICTIONARY
  5
19E2
330
6E
100
AcDbDictionary
280
     1
  3
ACAD_XREC_ROUNDTRIP
360
1A50
  0
DICTIONARY
  5
B19
330
66
100
AcDbDictionary
280
     1
  3
ACAD_LAYERSTATES
360
B1A
  0
DICTIONARY
  5
19C5
330
5E
100
AcDbDictionary
280
     1
  3
ACAD_XREC_ROUNDTRIP
360
1A4B
  3
ADSK_XREC_LAYER_RECONCILED
360
19C6
  0
DICTIONARY
  5
19C7
330
3E
100
AcDbDictionary
280
     1
  3
ACAD_XREC_ROUNDTRIP
360
1A4A
  3
ADSK_XREC_LAYER_RECONCILED
360
19C8
  0
DICTIONARY
  5
19CD
330
2B5
100
AcDbDictionary
280
     1
  3
ACAD_XREC_ROUNDTRIP
360
1A56
  3
ADSK_XREC_LAYER_RECONCILED
360
19CE
  0
DICTIONARY
  5
19CF
330
2BA
100
AcDbDictionary
280
     1
  3
ACAD_XREC_ROUNDTRIP
360
1A57
  3
ADSK_XREC_LAYER_RECONCILED
360
19D0
  0
DICTIONARY
  5
19D3
330
3FA
100
AcDbDictionary
280
     1
  3
ACAD_XREC_ROUNDTRIP
360
1A59
  3
ADSK_XREC_LAYER_RECONCILED
360
19D4
  0
DICTIONARY
  5
19D5
330
478
100
AcDbDictionary
280
     1
  3
ACAD_XREC_ROUNDTRIP
360
1A5A
  3
ADSK_XREC_LAYER_RECONCILED
360
19D6
  0
DICTIONARY
  5
1AA8
330
2
100
AcDbDictionary
280
     1
  3
ACAD_LAYOUTSELFREF
360
1AA9
  0
DICTIONARY
  5
1AAA
330
1A81
100
AcDbDictionary
280
     1
  3
ACAD_LAYOUTSELFREF
360
1AAB
  0
DICTIONARY
  5
18CD
102
{ACAD_REACTORS
330
7
102
}
330
7
100
AcDbDictionary
  0
DICTIONARY
  5
75
102
{ACAD_REACTORS
330
7
102
}
330
7
100
AcDbDictionary
  0
DICTIONARY
  5
61
102
{ACAD_REACTORS
330
7
102
}
330
7
100
AcDbDictionary
  0
DICTIONARY
  5
18A3
102
{ACAD_REACTORS
330
7
102
}
330
7
100
AcDbDictionary
  3
BYBLOCK
350
18AC
  3
BYLAYER
350
18A4
  3
GLOBAL
350
18B4
  0
DICTIONARY
  5
18F2
102
{ACAD_REACTORS
330
7
102
}
330
7
100
AcDbDictionary
  3
STANDARD
350
18F3
  0
DICTIONARY
  5
76
102
{ACAD_REACTORS
330
7
102
}
330
7
100
AcDbDictionary
  3
STANDARD
350
78
  0
DICTIONARY
  5
77
102
{ACAD_REACTORS
330
7
102
}
330
7
100
AcDbDictionary
  0
ACDBDICTIONARYWDFLT
  5
6
102
{ACAD_REACTORS
330
7
102
}
330
7
100
AcDbDictionary
281
     1
  3
Normal
350
5
100
AcDbDictionaryWithDefault
340
5
  0
DICTIONARY
  5
18D0
102
{ACAD_REACTORS
330
7
102
}
330
7
100
AcDbDictionary
  3
A0
350
18D1
  3
A1
350
18D2
  3
A2
350
18D3
  3
A3
350
18D4
  3
A4
350
18D5
  3
A5
350
18D6
  3
A6
350
18D7
  3
A7
350
18D8
  3
A8
350
18D9
  3
A9
350
18DA
  3
B0
350
18DB
  3
B1
350
18DC
  3
B2
350
18DD
  3
B3
350
18DE
  3
B4
350
18DF
  3
B5
350
18E0
  3
B6
350
18E1
  3
B7
350
18E2
  3
B8
350
18E3
  3
B9
350
18E4
  3
C0
350
18E5
  3
C1
350
18E6
  3
C2
350
18E7
  3
C3
350
18E8
  3
C4
350
18E9
  3
C5
350
18EA
  3
C6
350
18EB
  3
C7
350
18EC
  3
C8
350
18ED
  3
C9
350
18EE
  3
D0
350
18EF
  3
D1
350
18F0
  3
D2
350
18F1
  0
DICTIONARY
  5
18CE
102
{ACAD_REACTORS
330
7
102
}
330
7
100
AcDbDictionary
  3
STANDARD
350
18CF
  0
DICTIONARY
  5
18BC
102
{ACAD_REACTORS
330
7
102
}
330
7
100
AcDbDictionary
  3
2DWIREFRAME
350
18C2
  3
3D_HIDDEN
350
18C4
  3
3DWIREFRAME
350
18C3
  3
BASIC
350
18C1
  3
BRIGHTEN
350
18C8
  3
COLORCHANGE
350
18CC
  3
CONCEPTUAL
350
18C5
  3
DIM
350
18C7
  3
FACEPATTERN
350
18CB
  3
FLAT
350
18BD
  3
FLATWITHEDGES
350
18BE
  3
GOURAUD
350
18BF
  3
GOURAUDWITHEDGES
350
18C0
  3
LINEPATTERN
350
18CA
  3
REALISTIC
350
18C6
  3
THICKEN
350
18C9
  0
XRECORD
  5
480
102
{ACAD_REACTORS
330
7
102
}
330
7
100
AcDbXrecord
 90
   990106
  3

 60
     0
 61
     0
 62
     1
 63
     3
 64
     1
 65
     0
 66
     0
 67
     3
 68
     1
 69
     0
 70
     0
 71
     0
 72
     0
 40
0.0
170
     2
340
0
  0
XRECORD
  5
19D9
102
{ACAD_REACTORS
330
7
102
}
330
7
100
AcDbXrecord
 90
        1
330
18CF
  0
DICTIONARY
  5
1A87
102
{ACAD_REACTORS
330
7
102
}
330
7
100
AcDbDictionary
  3
CEPSNTYPE
350
1A91
  3
DIMSTYLEDATA
350
1A95
  3
FINGERPRINTGUID
350
1A92
  3
HYPERLINKBASE
350
1A8A
  3
INSUNITS
350
1A90
  3
LAYOUTDICT
350
1A8C
  3
LWETCUNION
350
1A8F
  3
PLOTSETDICT
350
1A8D
  3
PLOTSTYLNAMDICT
350
1A8E
  3
PSVPSCALE
350
1A94
  3
PUCSBASE
350
1A98
  3
PUCSORGBACK
350
1A9E
  3
PUCSORGBOTTOM
350
1A9A
  3
PUCSORGFRONT
350
1A9D
  3
PUCSORGLEFT
350
1A9B
  3
PUCSORGRIGHT
350
1A9C
  3
PUCSORGTOP
350
1A99
  3
PUCSORTHOREF
350
1A96
  3
PUCSORTHOVIEW
350
1A97
  3
STYLESHEET
350
1A8B
  3
TSTACKALIGN
350
1A88
  3
TSTACKSIZE
350
1A89
  3
UCSBASE
350
1AA1
  3
UCSORGBACK
350
1AA7
  3
UCSORGBOTTOM
350
1AA3
  3
UCSORGFRONT
350
1AA6
  3
UCSORGLEFT
350
1AA4
  3
UCSORGRIGHT
350
1AA5
  3
UCSORGTOP
350
1AA2
  3
UCSORTHOREF
350
1A9F
  3
UCSORTHOVIEW
350
1AA0
  3
VERSIONGUID
350
1A93
  0
DICTIONARY
  5
102
102
{ACAD_REACTORS
330
7
102
}
330
7
100
AcDbDictionary
  3
CANNOSCALE
350
19FA
  3
CMLEADERSTYLE
350
19F9
  3
CTABLESTYLE
350
19F8
  3
DIMASSOC
350
103
  3
INDEXCTL
350
19FB
  3
SORTENTS
350
549
  0
XRECORD
  5
1A48
102
{ACAD_REACTORS
330
7
102
}
330
7
100
AcDbXrecord
  1
DWGPROPS COOKIE
  2

  3

  4

  6

  7

  8
ymorima
  9

300
=
301
=
302
=
303
=
304
=
305
=
306
=
307
=
308
=
309
=
 40
0.0072262037037037
 41
2454413.474664884
 42
2454421.489633599
  1

 90
        0
  0
XRECORD
  5
1A50
102
{ACAD_REACTORS
330
19E2
102
}
330
19E2
100
AcDbXrecord
102
VTR_0.000_0.000_1.000_1.000_VISUALSTYLE
340
18C2
102
VTR_0.000_0.000_1.000_1.000_GRIDDISPLAY
 70
     3
102
VTR_0.000_0.000_1.000_1.000_GRIDMAJOR
 70
     5
102
VTR_0.000_0.000_1.000_1.000_DEFAULTLIGHTING
280
     1
102
VTR_0.000_0.000_1.000_1.000_DEFAULTLIGHTINGTYPE
 70
     1
102
VTR_0.000_0.000_1.000_1.000_BRIGHTNESS
141
0.0
102
VTR_0.000_0.000_1.000_1.000_CONTRAST
142
0.0
  0
DICTIONARY
  5
B1A
102
{ACAD_REACTORS
330
B19
102
}
330
B19
100
AcDbDictionary
  0
XRECORD
  5
1A4B
102
{ACAD_REACTORS
330
19C5
102
}
330
19C5
100
AcDbXrecord
102
MATERIAL
340
18B4
  0
XRECORD
  5
19C6
102
{ACAD_REACTORS
330
19C5
102
}
330
19C5
100
AcDbXrecord
290
     1
  0
XRECORD
  5
1A4A
102
{ACAD_REACTORS
330
19C7
102
}
330
19C7
100
AcDbXrecord
102
MATERIAL
340
18B4
  0
XRECORD
  5
19C8
102
{ACAD_REACTORS
330
19C7
102
}
330
19C7
100
AcDbXrecord
290
     1
  0
XRECORD
  5
1A56
102
{ACAD_REACTORS
330
19CD
102
}
330
19CD
100
AcDbXrecord
102
MATERIAL
340
18B4
  0
XRECORD
  5
19CE
102
{ACAD_REACTORS
330
19CD
102
}
330
19CD
100
AcDbXrecord
290
     1
  0
XRECORD
  5
1A57
102
{ACAD_REACTORS
330
19CF
102
}
330
19CF
100
AcDbXrecord
102
MATERIAL
340
18B4
  0
XRECORD
  5
19D0
102
{ACAD_REACTORS
330
19CF
102
}
330
19CF
100
AcDbXrecord
290
     1
  0
XRECORD
  5
1A59
102
{ACAD_REACTORS
330
19D3
102
}
330
19D3
100
AcDbXrecord
102
MATERIAL
340
18B4
  0
XRECORD
  5
19D4
102
{ACAD_REACTORS
330
19D3
102
}
330
19D3
100
AcDbXrecord
290
     1
  0
XRECORD
  5
1A5A
102
{ACAD_REACTORS
330
19D5
102
}
330
19D5
100
AcDbXrecord
102
MATERIAL
340
18B4
  0
XRECORD
  5
19D6
102
{ACAD_REACTORS
330
19D5
102
}
330
19D5
100
AcDbXrecord
290
     1
  0
XRECORD
  5
1AA9
102
{ACAD_REACTORS
330
1AA8
102
}
330
1AA8
100
AcDbXrecord
340
2
  0
XRECORD
  5
1AAB
102
{ACAD_REACTORS
330
1AAA
102
}
330
1AAA
100
AcDbXrecord
340
1A81
  0
ACAD_PROXY_OBJECT
  5
18AC
102
{ACAD_XDICTIONARY
360
18AD
102
}
102
{ACAD_REACTORS
330
18A3
102
}
330
18A3
100
AcDbProxyObject
 90
      499
 91
      511
 93
     1340
310
42109E509B1BD8DAC02004014080404555555555555953FAA155555555555654FEA9AA400014080404555555555555953FAA155555555555654FEA9AA400000000000000E03F4080404555555555555953FAA155555555555654FEA9AA4014080404555555555555953FAA155555555555654FEA9AA4010201011555555555
310
55654FEA8555555555555953FAA6A9005020101155555555555654FEA8555555555555953FAA6A9000
 94
        0
1001
ACAD
1000
AcadProxyRoundTripData
1071
      504
1071
   655383
1070
     0
  0
ACAD_PROXY_OBJECT
  5
18A4
102
{ACAD_XDICTIONARY
360
18A5
102
}
102
{ACAD_REACTORS
330
18A3
102
}
330
18A3
100
AcDbProxyObject
 90
      499
 91
      511
 93
     1340
310
42109E53185E595C802004014080404555555555555953FAA155555555555654FEA9AA400014080404555555555555953FAA155555555555654FEA9AA400000000000000E03F4080404555555555555953FAA155555555555654FEA9AA4014080404555555555555953FAA155555555555654FEA9AA4010201011555555555
310
55654FEA8555555555555953FAA6A9005020101155555555555654FEA8555555555555953FAA6A9000
 94
        0
1001
ACAD
1000
AcadProxyRoundTripData
1071
      504
1071
   655383
1070
     0
  0
ACAD_PROXY_OBJECT
  5
18B4
102
{ACAD_XDICTIONARY
360
18B5
102
}
102
{ACAD_REACTORS
330
18A3
102
}
330
18A3
100
AcDbProxyObject
 90
      499
 91
      511
 93
     1332
310
41D1DB1BD8985B002004014080404555555555555953FAA155555555555654FEA9AA400014080404555555555555953FAA155555555555654FEA9AA400000000000000E03F4080404555555555555953FAA155555555555654FEA9AA4014080404555555555555953FAA155555555555654FEA9AA401020101155555555555
310
654FEA8555555555555953FAA6A9005020101155555555555654FEA8555555555555953FAA6A9000
 94
        0
1001
ACAD
1000
AcadProxyRoundTripData
1071
      504
1071
   655383
1070
     0
  0
ACAD_PROXY_OBJECT
  5
18F3
102
{ACAD_REACTORS
330
18F2
102
}
330
18F2
100
AcDbProxyObject
 90
      499
 91
      511
 93
      618
310
40901902A4063FBFFFFFE056BD1B81E855B9FC0AD7A3703D0AD73F4254DD185B99185C990000AD7A3703D0AC73F90141901A02B5E8DC0F42B1CFC02B5E8DC0F42B1CFE5764000000000000300FC6
340
6A
340
0
340
16
340
0
 94
        0
1001
ACAD_MLEADERVER
1070
     2
1001
ACAD
1000
AcadProxyRoundTripData
1071
      508
1071
   655383
1070
     0
  0
MLINESTYLE
  5
78
102
{ACAD_REACTORS
330
76
102
}
330
76
100
AcDbMlineStyle
  2
STANDARD
 70
     0
  3

 62
     0
 51
90.0
 52
90.0
 71
     2
 49
0.5
 62
   256
  6
BYLAYER
 49
-0.5
 62
   256
  6
BYLAYER
  0
ACDBPLACEHOLDER
  5
5
102
{ACAD_REACTORS
330
6
102
}
330
6
100
AcDbPlaceHolder
280
     0
  0
ACAD_PROXY_OBJECT
  5
18D1
102
{ACAD_REACTORS
330
18D0
102
}
330
18D0
100
AcDbProxyObject
 90
      499
 91
      511
 93
       49
310
904313A3100598
 94
        0
1001
ACAD
1000
AcadProxyRoundTripData
1071
      507
1071
   655383
1070
     0
  0
ACAD_PROXY_OBJECT
  5
18D2
102
{ACAD_REACTORS
330
18D0
102
}
330
18D0
100
AcDbProxyObject
 90
      499
 91
      511
 93
      113
310
904313A3200400000000000000406B
 94
        0
1001
ACAD
1000
AcadProxyRoundTripData
1071
      507
1071
   655383
1070
     0
  0
ACAD_PROXY_OBJECT
  5
18D3
102
{ACAD_REACTORS
330
18D0
102
}
330
18D0
100
AcDbProxyObject
 90
      499
 91
      511
 93
      113
310
904313A3400400000000000010406B
 94
        0
1001
ACAD
1000
AcadProxyRoundTripData
1071
      507
1071
   655383
1070
     0
  0
ACAD_PROXY_OBJECT
  5
18D4
102
{ACAD_REACTORS
330
18D0
102
}
330
18D0
100
AcDbProxyObject
 90
      499
 91
      511
 93
      113
310
904313A3500400000000000014406B
 94
        0
1001
ACAD
1000
AcadProxyRoundTripData
1071
      507
1071
   655383
1070
     0
  0
ACAD_PROXY_OBJECT
  5
18D5
102
{ACAD_REACTORS
330
18D0
102
}
330
18D0
100
AcDbProxyObject
 90
      499
 91
      511
 93
      113
310
904313A3800400000000000020406B
 94
        0
1001
ACAD
1000
AcadProxyRoundTripData
1071
      507
1071
   655383
1070
     0
  0
ACAD_PROXY_OBJECT
  5
18D6
102
{ACAD_REACTORS
330
18D0
102
}
330
18D0
100
AcDbProxyObject
 90
      499
 91
      511
 93
      121
310
905313A3130004000000000000244051
 94
        0
1001
ACAD
1000
AcadProxyRoundTripData
1071
      507
1071
   655383
1070
     0
  0
ACAD_PROXY_OBJECT
  5
18D7
102
{ACAD_REACTORS
330
18D0
102
}
330
18D0
100
AcDbProxyObject
 90
      499
 91
      511
 93
      121
310
905313A3136004000000000000304051
 94
        0
1001
ACAD
1000
AcadProxyRoundTripData
1071
      507
1071
   655383
1070
     0
  0
ACAD_PROXY_OBJECT
  5
18D8
102
{ACAD_REACTORS
330
18D0
102
}
330
18D0
100
AcDbProxyObject
 90
      499
 91
      511
 93
      121
310
905313A3230004000000000000344051
 94
        0
1001
ACAD
1000
AcadProxyRoundTripData
1071
      507
1071
   655383
1070
     0
  0
ACAD_PROXY_OBJECT
  5
18D9
102
{ACAD_REACTORS
330
18D0
102
}
330
18D0
100
AcDbProxyObject
 90
      499
 91
      511
 93
      121
310
905313A33300040000000000003E4051
 94
        0
1001
ACAD
1000
AcadProxyRoundTripData
1071
      507
1071
   655383
1070
     0
  0
ACAD_PROXY_OBJECT
  5
18DA
102
{ACAD_REACTORS
330
18D0
102
}
330
18D0
100
AcDbProxyObject
 90
      499
 91
      511
 93
      121
310
905313A3430004000000000000444051
 94
        0
1001
ACAD
1000
AcadProxyRoundTripData
1071
      507
1071
   655383
1070
     0
  0
ACAD_PROXY_OBJECT
  5
18DB
102
{ACAD_REACTORS
330
18D0
102
}
330
18D0
100
AcDbProxyObject
 90
      499
 91
      511
 93
      121
310
905313A3530004000000000000494051
 94
        0
1001
ACAD
1000
AcadProxyRoundTripData
1071
      507
1071
   655383
1070
     0
  0
ACAD_PROXY_OBJECT
  5
18DC
102
{ACAD_REACTORS
330
18D0
102
}
330
18D0
100
AcDbProxyObject
 90
      499
 91
      511
 93
      129
310
906313A313030004000000000000594038
 94
        0
1001
ACAD
1000
AcadProxyRoundTripData
1071
      507
1071
   655383
1070
     0
  0
ACAD_PROXY_OBJECT
  5
18DD
102
{ACAD_REACTORS
330
18D0
102
}
330
18D0
100
AcDbProxyObject
 90
      499
 91
      511
 93
      113
310
904323A31000000000000000010159
 94
        0
1001
ACAD
1000
AcadProxyRoundTripData
1071
      507
1071
   655383
1070
     0
  0
ACAD_PROXY_OBJECT
  5
18DE
102
{ACAD_REACTORS
330
18D0
102
}
330
18D0
100
AcDbProxyObject
 90
      499
 91
      511
 93
      113
310
904343A31000000000000000410159
 94
        0
1001
ACAD
1000
AcadProxyRoundTripData
1071
      507
1071
   655383
1070
     0
  0
ACAD_PROXY_OBJECT
  5
18DF
102
{ACAD_REACTORS
330
18D0
102
}
330
18D0
100
AcDbProxyObject
 90
      499
 91
      511
 93
      113
310
904383A31000000000000000810159
 94
        0
1001
ACAD
1000
AcadProxyRoundTripData
1071
      507
1071
   655383
1070
     0
  0
ACAD_PROXY_OBJECT
  5
18E0
102
{ACAD_REACTORS
330
18D0
102
}
330
18D0
100
AcDbProxyObject
 90
      499
 91
      511
 93
      121
310
90531303A31000000000000000910140
 94
        0
1001
ACAD
1000
AcadProxyRoundTripData
1071
      507
1071
   655383
1070
     0
  0
ACAD_PROXY_OBJECT
  5
18E1
102
{ACAD_REACTORS
330
18D0
102
}
330
18D0
100
AcDbProxyObject
 90
      499
 91
      511
 93
      129
310
9063130303A31000000000000001650138
 94
        0
1001
ACAD
1000
AcadProxyRoundTripData
1071
      507
1071
   655383
1070
     0
  0
ACAD_PROXY_OBJECT
  5
18E2
102
{ACAD_REACTORS
330
18D0
102
}
330
18D0
100
AcDbProxyObject
 90
      499
 91
      511
 93
      265
310
90F312F31323822203D2031272D302200000000000000200FC00000000000028402B
 94
        0
1001
ACAD
1000
AcadProxyRoundTripData
1071
      507
1071
   655383
1070
     0
  0
ACAD_PROXY_OBJECT
  5
18E3
102
{ACAD_REACTORS
330
18D0
102
}
330
18D0
100
AcDbProxyObject
 90
      499
 91
      511
 93
      257
310
90E312F363422203D2031272D302200000000000000240FC000000000000284040
 94
        0
1001
ACAD
1000
AcadProxyRoundTripData
1071
      507
1071
   655383
1070
     0
  0
ACAD_PROXY_OBJECT
  5
18E4
102
{ACAD_REACTORS
330
18D0
102
}
330
18D0
100
AcDbProxyObject
 90
      499
 91
      511
 93
      257
310
90E312F333222203D2031272D302200000000000000280FC000000000000284040
 94
        0
1001
ACAD
1000
AcadProxyRoundTripData
1071
      507
1071
   655383
1070
     0
  0
ACAD_PROXY_OBJECT
  5
18E5
102
{ACAD_REACTORS
330
18D0
102
}
330
18D0
100
AcDbProxyObject
 90
      499
 91
      511
 93
      257
310
90E312F313622203D2031272D3022000000000000002C0FC000000000000284040
 94
        0
1001
ACAD
1000
AcadProxyRoundTripData
1071
      507
1071
   655383
1070
     0
  0
ACAD_PROXY_OBJECT
  5
18E6
102
{ACAD_REACTORS
330
18D0
102
}
330
18D0
100
AcDbProxyObject
 90
      499
 91
      511
 93
      257
310
90E332F333222203D2031272D3022000000000000002E0FC000000000000284040
 94
        0
1001
ACAD
1000
AcadProxyRoundTripData
1071
      507
1071
   655383
1070
     0
  0
ACAD_PROXY_OBJECT
  5
18E7
102
{ACAD_REACTORS
330
18D0
102
}
330
18D0
100
AcDbProxyObject
 90
      499
 91
      511
 93
      249
310
90D312F3822203D2031272D302200000000000000300FC000000000000284040
 94
        0
1001
ACAD
1000
AcadProxyRoundTripData
1071
      507
1071
   655383
1070
     0
  0
ACAD_PROXY_OBJECT
  5
18E8
102
{ACAD_REACTORS
330
18D0
102
}
330
18D0
100
AcDbProxyObject
 90
      499
 91
      511
 93
      257
310
90E332F313622203D2031272D302200000000000000320FC000000000000284040
 94
        0
1001
ACAD
1000
AcadProxyRoundTripData
1071
      507
1071
   655383
1070
     0
  0
ACAD_PROXY_OBJECT
  5
18E9
102
{ACAD_REACTORS
330
18D0
102
}
330
18D0
100
AcDbProxyObject
 90
      499
 91
      511
 93
      249
310
90D312F3422203D2031272D302200000000000000340FC000000000000284040
 94
        0
1001
ACAD
1000
AcadProxyRoundTripData
1071
      507
1071
   655383
1070
     0
  0
ACAD_PROXY_OBJECT
  5
18EA
102
{ACAD_REACTORS
330
18D0
102
}
330
18D0
100
AcDbProxyObject
 90
      499
 91
      511
 93
      249
310
90D332F3822203D2031272D302200000000000000360FC000000000000284040
 94
        0
1001
ACAD
1000
AcadProxyRoundTripData
1071
      507
1071
   655383
1070
     0
  0
ACAD_PROXY_OBJECT
  5
18EB
102
{ACAD_REACTORS
330
18D0
102
}
330
18D0
100
AcDbProxyObject
 90
      499
 91
      511
 93
      249
310
90D312F3222203D2031272D302200000000000000380FC000000000000284040
 94
        0
1001
ACAD
1000
AcadProxyRoundTripData
1071
      507
1071
   655383
1070
     0
  0
ACAD_PROXY_OBJECT
  5
18EC
102
{ACAD_REACTORS
330
18D0
102
}
330
18D0
100
AcDbProxyObject
 90
      499
 91
      511
 93
      249
310
90D332F3422203D2031272D3022000000000000003A0FC000000000000284040
 94
        0
1001
ACAD
1000
AcadProxyRoundTripData
1071
      507
1071
   655383
1070
     0
  0
ACAD_PROXY_OBJECT
  5
18ED
102
{ACAD_REACTORS
330
18D0
102
}
330
18D0
100
AcDbProxyObject
 90
      499
 91
      511
 93
      169
310
90B3122203D2031272D3022004000000000000284020
 94
        0
1001
ACAD
1000
AcadProxyRoundTripData
1071
      507
1071
   655383
1070
     0
  0
ACAD_PROXY_OBJECT
  5
18EE
102
{ACAD_REACTORS
330
18D0
102
}
330
18D0
100
AcDbProxyObject
 90
      499
 91
      511
 93
      265
310
90F312D312F3222203D2031272D3022000000000000003E0FC00000000000028402B
 94
        0
1001
ACAD
1000
AcadProxyRoundTripData
1071
      507
1071
   655383
1070
     0
  0
ACAD_PROXY_OBJECT
  5
18EF
102
{ACAD_REACTORS
330
18D0
102
}
330
18D0
100
AcDbProxyObject
 90
      499
 91
      511
 93
      233
310
90B3322203D2031272D30220000000000000002100000000000000284000
 94
        0
1001
ACAD
1000
AcadProxyRoundTripData
1071
      507
1071
   655383
1070
     0
  0
ACAD_PROXY_OBJECT
  5
18F0
102
{ACAD_REACTORS
330
18D0
102
}
330
18D0
100
AcDbProxyObject
 90
      499
 91
      511
 93
      233
310
90B3622203D2031272D30220000000000000006100000000000000284000
 94
        0
1001
ACAD
1000
AcadProxyRoundTripData
1071
      507
1071
   655383
1070
     0
  0
ACAD_PROXY_OBJECT
  5
18F1
102
{ACAD_REACTORS
330
18D0
102
}
330
18D0
100
AcDbProxyObject
 90
      499
 91
      511
 93
      257
310
90E31272D3022203D2031272D3022000000000000000A100000000000000284040
 94
        0
1001
ACAD
1000
AcadProxyRoundTripData
1071
      507
1071
   655383
1070
     0
  0
ACAD_PROXY_OBJECT
  5
18CF
102
{ACAD_XDICTIONARY
360
19D7
102
}
102
{ACAD_REACTORS
330
18CE
102
}
330
18CE
100
AcDbProxyObject
 90
      499
 91
      511
 93
     1849
310
4254DD185B99185C990028B81E85EB51B8AE3F2E07A17AD46E2B8FC02B5E8DC0F42B1CFD028000000C1008070000C3001FDFF8000000C1003FBFF000000182007F7FE00000030400FEFFC00000060801FDFF8000000C1003FBFF00000018200000000000000681FA0B0000001820100E000186003FBFF000000182007F7FE0
310
0000030400FEFFC00000060801FDFF8000000C1003FBFF000000182007F7FE000000304000AD7A3703D0AC73F4160000003040201C00030C007F7FE00000030400FEFFC00000060801FDFF8000000C1003FBFF000000182007F7FE00000030400FEFFC000000608000
340
16
340
16
340
16
 94
        0
1001
ACAD
1000
AcadProxyRoundTripData
1071
      506
1071
   655383
1070
     0
  0
ACAD_PROXY_OBJECT
  5
18C2
102
{ACAD_REACTORS
330
18BC
102
}
330
18BC
100
AcDbProxyObject
 90
      499
 91
      511
 93
      444
310
430C9915DA5C99599C985B59401049028333333333333E3BF0000000000000FB0107901411070040501600405405064090741402480A0340
 94
        0
1001
ACAD
1000
AcDbSavedByObjectVersion
1070
     0
1000
AcadProxyRoundTripData
1071
      505
1071
   655383
1070
     0
  0
ACAD_PROXY_OBJECT
  5
18C4
102
{ACAD_REACTORS
330
18BC
102
}
330
18BC
100
AcDbProxyObject
 90
      499
 91
      511
 93
      508
310
428CD108121A5919195B8010640502408333333333333E3BF0000000000000FB01079024090700405020000000000001110200405405064090740C02480A0340
 94
        0
1001
ACAD
1000
AcDbSavedByObjectVersion
1070
     0
1000
AcadProxyRoundTripData
1071
      505
1071
   655383
1070
     0
  0
ACAD_PROXY_OBJECT
  5
18C3
102
{ACAD_REACTORS
330
18BC
102
}
330
18BC
100
AcDbProxyObject
 90
      499
 91
      511
 93
      444
310
430CD915DA5C99599C985B59401059028333333333333E3BF0000000000000FB0107901411070040501600405405064090741402480A0340
 94
        0
1001
ACAD
1000
AcDbSavedByObjectVersion
1070
     0
1000
AcadProxyRoundTripData
1071
      505
1071
   655383
1070
     0
  0
ACAD_PROXY_OBJECT
  5
18C1
102
{ACAD_REACTORS
330
18BC
102
}
330
18BC
100
AcDbProxyObject
 90
      499
 91
      511
 93
      396
310
4190985CDA58C0107406404333333333333E3BF0000000000000FB0107A41107004050150841D405064090741402480A0356
 94
        0
1001
ACAD
1000
AcDbSavedByObjectVersion
1070
     0
1000
AcadProxyRoundTripData
1071
      505
1071
   655383
1070
     0
  0
ACAD_PROXY_OBJECT
  5
18C8
102
{ACAD_REACTORS
330
18BC
102
}
330
18BC
100
AcDbProxyObject
 90
      499
 91
      511
 93
      436
310
42509C9A59DA1D195B8010C409028333333333333E3BF0000000000000FB010790141107004050150841D405064090741402480A029956
 94
        0
1001
ACAD
1000
AcDbSavedByObjectVersion
1070
     0
1000
AcadProxyRoundTripData
1071
      505
1071
   655383
1070
     0
  0
ACAD_PROXY_OBJECT
  5
18CC
102
{ACAD_REACTORS
330
18BC
102
}
330
18BC
100
AcDbProxyObject
 90
      499
 91
      511
 93
      460
310
4310DBDB1BDC90DA185B99D9401104090240C333333333333E3BF0000000000000FB0108901411070040501508421405064090741402480A0354
 94
        0
1001
ACAD
1000
AcDbSavedByObjectVersion
1070
     0
1000
AcadProxyRoundTripData
1071
      505
1071
   655383
1070
     0
  0
ACAD_PROXY_OBJECT
  5
18C5
102
{ACAD_REACTORS
330
18BC
102
}
330
18BC
100
AcDbProxyObject
 90
      499
 91
      511
 93
      508
310
42D0DBDB98D95C1D1D585B0010940D028333333333333E3BF0000000000000FB0107902409070040501000000000000111010841D405064090740C02480A0340
 94
        0
1001
ACAD
1000
AcDbSavedByObjectVersion
1070
     0
1000
AcadProxyRoundTripData
1071
      505
1071
   655383
1070
     0
  0
ACAD_PROXY_OBJECT
  5
18C7
102
{ACAD_REACTORS
330
18BC
102
}
330
18BC
100
AcDbProxyObject
 90
      499
 91
      511
 93
      420
310
41111A5B4010B409028333333333333E3BF0000000000000FB010790141107004050150841D405064090741402480A02677FFFFFDB
 94
        0
1001
ACAD
1000
AcDbSavedByObjectVersion
1070
     0
1000
AcadProxyRoundTripData
1071
      505
1071
   655383
1070
     0
  0
ACAD_PROXY_OBJECT
  5
18CB
102
{ACAD_REACTORS
330
18BC
102
}
330
18BC
100
AcDbProxyObject
 90
      499
 91
      511
 93
      452
310
43119858D95C185D1D195C9B8010F409028333333333333E3BF0000000000000FB010790141107004050150841D405064090741402480A0350
 94
        0
1001
ACAD
1000
AcDbSavedByObjectVersion
1070
     0
1000
AcadProxyRoundTripData
1071
      505
1071
   655383
1070
     0
  0
ACAD_PROXY_OBJECT
  5
18BD
102
{ACAD_REACTORS
330
18BC
102
}
330
18BC
100
AcDbProxyObject
 90
      499
 91
      511
 93
      396
310
41519B185D00240901404333333333333E3BF0000000000000F9010740A41107004050150841D405064090741402480A1B55
 94
        0
1001
ACAD
1000
AcDbSavedByObjectVersion
1070
     0
1000
AcadProxyRoundTripData
1071
      505
1071
   655383
1070
     0
  0
ACAD_PROXY_OBJECT
  5
18BE
102
{ACAD_REACTORS
330
18BC
102
}
330
18BC
100
AcDbProxyObject
 90
      499
 91
      511
 93
      484
310
43919B185D15DA5D1A115919D95CC010140901404333333333333E3BF0000000000000F9010740901411070040501600405405064090741402480A1B50
 94
        0
1001
ACAD
1000
AcDbSavedByObjectVersion
1070
     0
1000
AcadProxyRoundTripData
1071
      505
1071
   655383
1070
     0
  0
ACAD_PROXY_OBJECT
  5
18BF
102
{ACAD_REACTORS
330
18BC
102
}
330
18BC
100
AcDbProxyObject
 90
      499
 91
      511
 93
      420
310
4211DBDD5C985D590010240902404333333333333E3BF0000000000000F9010740A411070040501641D405064090741402480A1B50
 94
        0
1001
ACAD
1000
AcDbSavedByObjectVersion
1070
     0
1000
AcadProxyRoundTripData
1071
      505
1071
   655383
1070
     0
  0
ACAD_PROXY_OBJECT
  5
18C0
102
{ACAD_REACTORS
330
18BC
102
}
330
18BC
100
AcDbProxyObject
 90
      499
 91
      511
 93
      508
310
4451DBDD5C985D5915DA5D1A115919D95CC010340902404333333333333E3BF0000000000000F9010740901411070040501600405405064090741402480A1B50
 94
        0
1001
ACAD
1000
AcDbSavedByObjectVersion
1070
     0
1000
AcadProxyRoundTripData
1071
      505
1071
   655383
1070
     0
  0
ACAD_PROXY_OBJECT
  5
18CA
102
{ACAD_REACTORS
330
18BC
102
}
330
18BC
100
AcDbProxyObject
 90
      499
 91
      511
 93
      452
310
43131A5B995C185D1D195C9B8010E409028333333333333E3BF0000000000000FB010790141107004050750841D405064090741402483A0350
 94
        0
1001
ACAD
1000
AcDbSavedByObjectVersion
1070
     0
1000
AcadProxyRoundTripData
1071
      505
1071
   655383
1070
     0
  0
ACAD_PROXY_OBJECT
  5
18C6
102
{ACAD_REACTORS
330
18BC
102
}
330
18BC
100
AcDbProxyObject
 90
      499
 91
      511
 93
      428
310
429499585B1A5CDD1A58C0108409028333333333333E3BF0000000000000FB01079019070040501508421405064090741402480A1B45
 94
        0
1001
ACAD
1000
AcDbSavedByObjectVersion
1070
     0
1000
AcadProxyRoundTripData
1071
      505
1071
   655383
1070
     0
  0
ACAD_PROXY_OBJECT
  5
18C9
102
{ACAD_REACTORS
330
18BC
102
}
330
18BC
100
AcDbProxyObject
 90
      499
 91
      511
 93
      420
310
42151A1A58DAD95B8010D409028333333333333E3BF0000000000000FB010790141107004050150C41D405064090741402480A0352
 94
        0
1001
ACAD
1000
AcDbSavedByObjectVersion
1070
     0
1000
AcadProxyRoundTripData
1071
      505
1071
   655383
1070
     0
  0
XRECORD
  5
1A91
102
{ACAD_REACTORS
330
1A87
102
}
330
1A87
100
AcDbXrecord
 90
        0
  0
XRECORD
  5
1A95
102
{ACAD_REACTORS
330
1A87
102
}
330
1A87
100
AcDbXrecord
1000
DSTYLE
1002
{
1070
   179
 70
     2
1070
   277
 70
     6
1002
}
  0
XRECORD
  5
1A92
102
{ACAD_REACTORS
330
1A87
102
}
330
1A87
100
AcDbXrecord
  1
{6385560B-F4B1-4644-A7C2-A3E32AC3D232}
  0
XRECORD
  5
1A8A
102
{ACAD_REACTORS
330
1A87
102
}
330
1A87
100
AcDbXrecord
  1

  0
XRECORD
  5
1A90
102
{ACAD_REACTORS
330
1A87
102
}
330
1A87
100
AcDbXrecord
 90
        0
  0
XRECORD
  5
1A8C
102
{ACAD_REACTORS
330
1A87
102
}
330
1A87
100
AcDbXrecord
340
61
  0
XRECORD
  5
1A8F
102
{ACAD_REACTORS
330
1A87
102
}
330
1A87
100
AcDbXrecord
 90
    10781
  0
XRECORD
  5
1A8D
102
{ACAD_REACTORS
330
1A87
102
}
330
1A87
100
AcDbXrecord
340
77
  0
XRECORD
  5
1A8E
102
{ACAD_REACTORS
330
1A87
102
}
330
1A87
100
AcDbXrecord
340
6
  0
XRECORD
  5
1A94
102
{ACAD_REACTORS
330
1A87
102
}
330
1A87
100
AcDbXrecord
 40
0.0
  0
XRECORD
  5
1A98
102
{ACAD_REACTORS
330
1A87
102
}
330
1A87
100
AcDbXrecord
340
0
  0
XRECORD
  5
1A9E
102
{ACAD_REACTORS
330
1A87
102
}
330
1A87
100
AcDbXrecord
 10
0.0
 20
0.0
 30
0.0
  0
XRECORD
  5
1A9A
102
{ACAD_REACTORS
330
1A87
102
}
330
1A87
100
AcDbXrecord
 10
0.0
 20
0.0
 30
0.0
  0
XRECORD
  5
1A9D
102
{ACAD_REACTORS
330
1A87
102
}
330
1A87
100
AcDbXrecord
 10
0.0
 20
0.0
 30
0.0
  0
XRECORD
  5
1A9B
102
{ACAD_REACTORS
330
1A87
102
}
330
1A87
100
AcDbXrecord
 10
0.0
 20
0.0
 30
0.0
  0
XRECORD
  5
1A9C
102
{ACAD_REACTORS
330
1A87
102
}
330
1A87
100
AcDbXrecord
 10
0.0
 20
0.0
 30
0.0
  0
XRECORD
  5
1A99
102
{ACAD_REACTORS
330
1A87
102
}
330
1A87
100
AcDbXrecord
 10
0.0
 20
0.0
 30
0.0
  0
XRECORD
  5
1A96
102
{ACAD_REACTORS
330
1A87
102
}
330
1A87
100
AcDbXrecord
340
0
  0
XRECORD
  5
1A97
102
{ACAD_REACTORS
330
1A87
102
}
330
1A87
100
AcDbXrecord
 70
     0
  0
XRECORD
  5
1A8B
102
{ACAD_REACTORS
330
1A87
102
}
330
1A87
100
AcDbXrecord
  1
Sekkei.ctb
  0
XRECORD
  5
1A88
102
{ACAD_REACTORS
330
1A87
102
}
330
1A87
100
AcDbXrecord
 90
        1
  0
XRECORD
  5
1A89
102
{ACAD_REACTORS
330
1A87
102
}
330
1A87
100
AcDbXrecord
 90
       70
  0
XRECORD
  5
1AA1
102
{ACAD_REACTORS
330
1A87
102
}
330
1A87
100
AcDbXrecord
340
0
  0
XRECORD
  5
1AA7
102
{ACAD_REACTORS
330
1A87
102
}
330
1A87
100
AcDbXrecord
 10
0.0
 20
0.0
 30
0.0
  0
XRECORD
  5
1AA3
102
{ACAD_REACTORS
330
1A87
102
}
330
1A87
100
AcDbXrecord
 10
0.0
 20
0.0
 30
0.0
  0
XRECORD
  5
1AA6
102
{ACAD_REACTORS
330
1A87
102
}
330
1A87
100
AcDbXrecord
 10
0.0
 20
0.0
 30
0.0
  0
XRECORD
  5
1AA4
102
{ACAD_REACTORS
330
1A87
102
}
330
1A87
100
AcDbXrecord
 10
0.0
 20
0.0
 30
0.0
  0
XRECORD
  5
1AA5
102
{ACAD_REACTORS
330
1A87
102
}
330
1A87
100
AcDbXrecord
 10
0.0
 20
0.0
 30
0.0
  0
XRECORD
  5
1AA2
102
{ACAD_REACTORS
330
1A87
102
}
330
1A87
100
AcDbXrecord
 10
0.0
 20
0.0
 30
0.0
  0
XRECORD
  5
1A9F
102
{ACAD_REACTORS
330
1A87
102
}
330
1A87
100
AcDbXrecord
340
0
  0
XRECORD
  5
1AA0
102
{ACAD_REACTORS
330
1A87
102
}
330
1A87
100
AcDbXrecord
 70
     0
  0
XRECORD
  5
1A93
102
{ACAD_REACTORS
330
1A87
102
}
330
1A87
100
AcDbXrecord
  1
{CD02AE8B-9B75-476F-A286-9D330C376C55}
  0
DICTIONARYVAR
  5
19FA
102
{ACAD_REACTORS
330
102
102
}
330
102
100
DictionaryVariables
280
     0
  1
1:1
  0
DICTIONARYVAR
  5
19F9
102
{ACAD_REACTORS
330
102
102
}
330
102
100
DictionaryVariables
280
     0
  1
STANDARD
  0
DICTIONARYVAR
  5
19F8
102
{ACAD_REACTORS
330
102
102
}
330
102
100
DictionaryVariables
280
     0
  1
STANDARD
  0
DICTIONARYVAR
  5
103
102
{ACAD_REACTORS
330
102
102
}
330
102
100
DictionaryVariables
280
     0
  1
1
  0
DICTIONARYVAR
  5
19FB
102
{ACAD_REACTORS
330
102
102
}
330
102
100
DictionaryVariables
280
     0
  1
0
  0
DICTIONARYVAR
  5
549
102
{ACAD_REACTORS
330
102
102
}
330
102
100
DictionaryVariables
280
     0
  1
96
  0
DICTIONARY
  5
18AD
330
18AC
100
AcDbDictionary
280
     1
  3
ACAD_XREC_ROUNDTRIP
360
1A62
  3
BUMPTILE
360
18AF
  3
DIFFUSETILE
360
18AE
  3
OPACITYTILE
360
18B2
  3
REFLECTIONTILE
360
18B1
  3
REFRACTIONTILE
360
18B3
  3
SPECULARTILE
360
18B0
  0
DICTIONARY
  5
18A5
330
18A4
100
AcDbDictionary
280
     1
  3
ACAD_XREC_ROUNDTRIP
360
1A61
  3
BUMPTILE
360
18A7
  3
DIFFUSETILE
360
18A6
  3
OPACITYTILE
360
18AA
  3
REFLECTIONTILE
360
18A9
  3
REFRACTIONTILE
360
18AB
  3
SPECULARTILE
360
18A8
  0
DICTIONARY
  5
18B5
330
18B4
100
AcDbDictionary
280
     1
  3
ACAD_XREC_ROUNDTRIP
360
1A63
  3
BUMPTILE
360
18B7
  3
DIFFUSETILE
360
18B6
  3
OPACITYTILE
360
18BA
  3
REFLECTIONTILE
360
18B9
  3
REFRACTIONTILE
360
18BB
  3
SPECULARTILE
360
18B8
  0
DICTIONARY
  5
19D7
330
18CF
100
AcDbDictionary
280
     1
  3
ACAD_ROUNDTRIP_2008_TABLES
360
1A47
  3
ACAD_XREC_ROUNDTRIP
360
1A64
  0
XRECORD
  5
1A62
102
{ACAD_REACTORS
330
18AD
102
}
330
18AD
100
AcDbXrecord
102
MATERIAL
148
0.0
149
0.0
149
0.0
 93
        0
 94
      127
282
     0
 72
     0
 77
     0
171
     0
175
     0
179
     0
273
     0
  0
XRECORD
  5
18AF
102
{ACAD_REACTORS
330
18AD
102
}
330
18AD
100
AcDbXrecord
270
     1
271
     1
  0
XRECORD
  5
18AE
102
{ACAD_REACTORS
330
18AD
102
}
330
18AD
100
AcDbXrecord
270
     1
271
     1
  0
XRECORD
  5
18B2
102
{ACAD_REACTORS
330
18AD
102
}
330
18AD
100
AcDbXrecord
270
     1
271
     1
  0
XRECORD
  5
18B1
102
{ACAD_REACTORS
330
18AD
102
}
330
18AD
100
AcDbXrecord
270
     1
271
     1
  0
XRECORD
  5
18B3
102
{ACAD_REACTORS
330
18AD
102
}
330
18AD
100
AcDbXrecord
270
     1
271
     1
  0
XRECORD
  5
18B0
102
{ACAD_REACTORS
330
18AD
102
}
330
18AD
100
AcDbXrecord
270
     1
271
     1
  0
XRECORD
  5
1A61
102
{ACAD_REACTORS
330
18A5
102
}
330
18A5
100
AcDbXrecord
102
MATERIAL
148
0.0
149
0.0
149
0.0
 93
        0
 94
      127
282
     0
 72
     0
 77
     0
171
     0
175
     0
179
     0
273
     0
  0
XRECORD
  5
18A7
102
{ACAD_REACTORS
330
18A5
102
}
330
18A5
100
AcDbXrecord
270
     1
271
     1
  0
XRECORD
  5
18A6
102
{ACAD_REACTORS
330
18A5
102
}
330
18A5
100
AcDbXrecord
270
     1
271
     1
  0
XRECORD
  5
18AA
102
{ACAD_REACTORS
330
18A5
102
}
330
18A5
100
AcDbXrecord
270
     1
271
     1
  0
XRECORD
  5
18A9
102
{ACAD_REACTORS
330
18A5
102
}
330
18A5
100
AcDbXrecord
270
     1
271
     1
  0
XRECORD
  5
18AB
102
{ACAD_REACTORS
330
18A5
102
}
330
18A5
100
AcDbXrecord
270
     1
271
     1
  0
XRECORD
  5
18A8
102
{ACAD_REACTORS
330
18A5
102
}
330
18A5
100
AcDbXrecord
270
     1
271
     1
  0
XRECORD
  5
1A63
102
{ACAD_REACTORS
330
18B5
102
}
330
18B5
100
AcDbXrecord
102
MATERIAL
148
0.0
149
0.0
149
0.0
 93
        0
 94
      127
282
     0
 72
     0
 77
     0
171
     0
175
     0
179
     0
273
     0
  0
XRECORD
  5
18B7
102
{ACAD_REACTORS
330
18B5
102
}
330
18B5
100
AcDbXrecord
270
     1
271
     1
  0
XRECORD
  5
18B6
102
{ACAD_REACTORS
330
18B5
102
}
330
18B5
100
AcDbXrecord
270
     1
271
     1
  0
XRECORD
  5
18BA
102
{ACAD_REACTORS
330
18B5
102
}
330
18B5
100
AcDbXrecord
270
     1
271
     1
  0
XRECORD
  5
18B9
102
{ACAD_REACTORS
330
18B5
102
}
330
18B5
100
AcDbXrecord
270
     1
271
     1
  0
XRECORD
  5
18BB
102
{ACAD_REACTORS
330
18B5
102
}
330
18B5
100
AcDbXrecord
270
     1
271
     1
  0
XRECORD
  5
18B8
102
{ACAD_REACTORS
330
18B5
102
}
330
18B5
100
AcDbXrecord
270
     1
271
     1
  0
ACAD_PROXY_OBJECT
  5
1A47
102
{ACAD_REACTORS
330
19D7
102
}
330
19D7
100
AcDbProxyObject
 90
      499
 91
      511
 93
     5304
310
40D054060020000020000003200101A000080002A5058000000C100000000000000340FD012E07A17AD46E2B8FCB81E85EB51B8AE3F2E07A17AD46E2B8FCB81E85EB51B8AE3F02B5E8DC0F42B1CFC0AD7A3703D0AC73F419019018000000C1003FBFFFFFE02B5E8DC0F42A9CFD029018000000C1003FBFFFFFE02B5E8DC0F4
310
2A9CFD049018000000C1003FBFFFFFE02B5E8DC0F42A9CFD089018000000C1003FBFFFFFE02B5E8DC0F42A9CFD109018000000C1003FBFFFFFE02B5E8DC0F42A9CFD209018000000C1003FBFFFFFE02B5E8DC0F42A9CFD01405075F5449544C450041501A8000000C800406800020000A9416000000304000AD7A3703D0AC7
310
3F404B81E85EB51B8AE3F2E07A17AD46E2B8FCB81E85EB51B8AE3F2E07A17AD46E2B8FC0AD7A3703D0AC73F02B5E8DC0F42B1CFD0640640600000030400FEFFFFFF80AD7A3703D0AA73F40A40600000030400FEFFFFFF80AD7A3703D0AA73F41240600000030400FEFFFFFF80AD7A3703D0AA73F42240600000030400FEFFF
310
FFF80AD7A3703D0AA73F44240600000030400FEFFFFFF80AD7A3703D0AA73F48240600000030400FEFFFFFF80AD7A3703D0AA73F409014217D2115051115480105406A0000003200101A000080002A5028000000C10002B5E8DC0F42B1CFD012E07A17AD46E2B8FCB81E85EB51B8AE3F2E07A17AD46E2B8FCB81E85EB51B8A
310
E3F02B5E8DC0F42B1CFC0AD7A3703D0AC73F419019018000000C1003FBFFFFFE02B5E8DC0F42A9CFD029018000000C1003FBFFFFFE02B5E8DC0F42A9CFD049018000000C1003FBFFFFFE02B5E8DC0F42A9CFD089018000000C1003FBFFFFFE02B5E8DC0F42A9CFD109018000000C1003FBFFFFFE02B5E8DC0F42A9CFD20901
310
8000000C1003FBFFFFFE02B5E8DC0F42A9CFD03409065F44415441009F
340
16
340
0
340
0
340
0
340
0
340
0
340
0
340
16
340
0
340
0
340
0
340
0
340
0
340
0
340
16
340
0
340
0
340
0
340
0
340
0
340
0
 94
        0
1001
ACAD
1000
AcadProxyRoundTripData
1071
      510
1071
   655383
1070
     0
  0
XRECORD
  5
1A64
102
{ACAD_REACTORS
330
19D7
102
}
330
19D7
100
AcDbXrecord
102
ACAD_ROUNDTRIP_PRE2007_TABLESTYLE
 90
      512
 91
        0
  1

 92
      512
 93
        0
  2

 94
      512
 95
        0
  3

  0
ENDSEC
  0
EOF
