  0
SECTION
  2
HEADER
  9
$ACADVER
  1
AC1014
  9
$ACADMAINTVER
 70
     9
  9
$DWGCODEPAGE
  3
ANSI_932
  9
$INSBASE
 10
0.0
 20
0.0
 30
0.0
  9
$EXTMIN
 10
87.90548985417293
 20
64.33258876335049
 30
0.0
  9
$EXTMAX
 10
521.7390803079474
 20
397.5824381906011
 30
0.0
  9
$LIMMIN
 10
0.0
 20
0.0
  9
$LIMMAX
 10
297.0
 20
210.0
  9
$ORTHOMODE
 70
     1
  9
$REGENMODE
 70
     1
  9
$FILLMODE
 70
     1
  9
$QTEXTMODE
 70
     0
  9
$MIRRTEXT
 70
     0
  9
$DRAGMODE
 70
     2
  9
$LTSCALE
 40
2.0
  9
$OSMODE
 70
    37
  9
$ATTMODE
 70
     1
  9
$TEXTSIZE
 40
2.0
  9
$TRACEWID
 40
1.0
  9
$TEXTSTYLE
  7
STANDARD
  9
$CLAYER
  8
0
  9
$CELTYPE
  6
BYLAYER
  9
$CECOLOR
 62
   256
  9
$CELTSCALE
 40
1.0
  9
$DELOBJ
 70
     1
  9
$DISPSILH
 70
     0
  9
$DIMSCALE
 40
2.0
  9
$DIMASZ
 40
1.8
  9
$DIMEXO
 40
0.625
  9
$DIMDLI
 40
3.75
  9
$DIMRND
 40
0.0
  9
$DIMDLE
 40
0.0
  9
$DIMEXE
 40
0.8
  9
$DIMTP
 40
0.0
  9
$DIMTM
 40
0.0
  9
$DIMTXT
 40
1.8
  9
$DIMCEN
 40
2.5
  9
$DIMTSZ
 40
0.0
  9
$DIMTOL
 70
     0
  9
$DIMLIM
 70
     0
  9
$DIMTIH
 70
     0
  9
$DIMTOH
 70
     0
  9
$DIMSE1
 70
     0
  9
$DIMSE2
 70
     0
  9
$DIMTAD
 70
     1
  9
$DIMZIN
 70
     8
  9
$DIMBLK
  1

  9
$DIMASO
 70
     1
  9
$DIMSHO
 70
     1
  9
$DIMPOST
  1

  9
$DIMAPOST
  1

  9
$DIMALT
 70
     0
  9
$DIMALTD
 70
     4
  9
$DIMALTF
 40
0.0394
  9
$DIMLFAC
 40
1.0
  9
$DIMTOFL
 70
     1
  9
$DIMTVP
 40
0.0
  9
$DIMTIX
 70
     0
  9
$DIMSOXD
 70
     0
  9
$DIMSAH
 70
     0
  9
$DIMBLK1
  1

  9
$DIMBLK2
  1

  9
$DIMSTYLE
  2
STANDARD
  9
$DIMCLRD
 70
     0
  9
$DIMCLRE
 70
     0
  9
$DIMCLRT
 70
     0
  9
$DIMTFAC
 40
1.0
  9
$DIMGAP
 40
0.75
  9
$DIMJUST
 70
     0
  9
$DIMSD1
 70
     0
  9
$DIMSD2
 70
     0
  9
$DIMTOLJ
 70
     1
  9
$DIMTZIN
 70
     0
  9
$DIMALTZ
 70
     0
  9
$DIMALTTZ
 70
     0
  9
$DIMFIT
 70
     3
  9
$DIMUPT
 70
     0
  9
$DIMUNIT
 70
     8
  9
$DIMDEC
 70
     2
  9
$DIMTDEC
 70
     2
  9
$DIMALTU
 70
     8
  9
$DIMALTTD
 70
     4
  9
$DIMTXSTY
  7
STANDARD
  9
$DIMAUNIT
 70
     0
  9
$LUNITS
 70
     2
  9
$LUPREC
 70
     3
  9
$SKETCHINC
 40
1.0
  9
$FILLETRAD
 40
10.0
  9
$AUNITS
 70
     0
  9
$AUPREC
 70
     2
  9
$MENU
  1
.
  9
$ELEVATION
 40
0.0
  9
$PELEVATION
 40
0.0
  9
$THICKNESS
 40
0.0
  9
$LIMCHECK
 70
     0
  9
$BLIPMODE
 70
     0
  9
$CHAMFERA
 40
0.0
  9
$CHAMFERB
 40
0.0
  9
$CHAMFERC
 40
20.0
  9
$CHAMFERD
 40
0.0
  9
$SKPOLY
 70
     0
  9
$TDCREATE
 40
2454243.702919919
  9
$TDUPDATE
 40
2454908.808196458
  9
$TDINDWG
 40
0.1439427894
  9
$TDUSRTIMER
 40
0.1439427894
  9
$USRTIMER
 70
     1
  9
$ANGBASE
 50
0.0
  9
$ANGDIR
 70
     0
  9
$PDMODE
 70
     0
  9
$PDSIZE
 40
-10.0
  9
$PLINEWID
 40
0.0
  9
$COORDS
 70
     1
  9
$SPLFRAME
 70
     0
  9
$SPLINETYPE
 70
     6
  9
$SPLINESEGS
 70
     8
  9
$ATTDIA
 70
     0
  9
$ATTREQ
 70
     1
  9
$HANDLING
 70
-16383
  9
$HANDSEED
  5
3662
  9
$SURFTAB1
 70
     6
  9
$SURFTAB2
 70
     6
  9
$SURFTYPE
 70
     6
  9
$SURFU
 70
     6
  9
$SURFV
 70
     6
  9
$UCSNAME
  2

  9
$UCSORG
 10
0.0
 20
0.0
 30
0.0
  9
$UCSXDIR
 10
1.0
 20
0.0
 30
0.0
  9
$UCSYDIR
 10
0.0
 20
1.0
 30
0.0
  9
$PUCSNAME
  2

  9
$PUCSORG
 10
0.0
 20
0.0
 30
0.0
  9
$PUCSXDIR
 10
1.0
 20
0.0
 30
0.0
  9
$PUCSYDIR
 10
0.0
 20
1.0
 30
0.0
  9
$USERI1
 70
     0
  9
$USERI2
 70
     0
  9
$USERI3
 70
     0
  9
$USERI4
 70
     0
  9
$USERI5
 70
     0
  9
$USERR1
 40
0.0
  9
$USERR2
 40
0.0
  9
$USERR3
 40
0.0
  9
$USERR4
 40
0.0
  9
$USERR5
 40
0.0
  9
$WORLDVIEW
 70
     1
  9
$SHADEDGE
 70
     3
  9
$SHADEDIF
 70
    70
  9
$TILEMODE
 70
     1
  9
$MAXACTVP
 70
    48
  9
$PINSBASE
 10
0.0
 20
0.0
 30
0.0
  9
$PLIMCHECK
 70
     0
  9
$PEXTMIN
 10
0.0
 20
0.0
 30
0.0
  9
$PEXTMAX
 10
0.0
 20
0.0
 30
0.0
  9
$PLIMMIN
 10
0.0
 20
0.0
  9
$PLIMMAX
 10
12.0
 20
9.0
  9
$UNITMODE
 70
     0
  9
$VISRETAIN
 70
     1
  9
$PLINEGEN
 70
     0
  9
$PSLTSCALE
 70
     1
  9
$TREEDEPTH
 70
  3020
  9
$PICKSTYLE
 70
     1
  9
$CMLSTYLE
  2
STANDARD
  9
$CMLJUST
 70
     0
  9
$CMLSCALE
 40
1.0
  9
$PROXYGRAPHICS
 70
     1
  9
$MEASUREMENT
 70
     0
  0
ENDSEC
  0
SECTION
  2
CLASSES
  0
CLASS
  1
DICTIONARYVAR
  2
AcDbDictionaryVar
  3
AutoCAD 2000
 90
        0
280
     0
281
     0
  0
CLASS
  1
ACDBDICTIONARYWDFLT
  2
AcDbDictionaryWithDefault
  3
AutoCAD 2000
 90
        0
280
     0
281
     0
  0
CLASS
  1
ACDBPLACEHOLDER
  2
AcDbPlaceHolder
  3
AutoCAD 2000
 90
        0
280
     0
281
     0
  0
CLASS
  1
LAYOUT
  2
AcDbLayout
  3
AutoCAD 2000
 90
        0
280
     0
281
     0
  0
CLASS
  1
MATERIAL
  2
AcDbMaterial
  3
ObjectDBX Classes
 90
     1153
280
     0
281
     0
  0
CLASS
  1
VISUALSTYLE
  2
AcDbVisualStyle
  3
ObjectDBX Classes
 90
     4095
280
     0
281
     0
  0
CLASS
  1
TABLESTYLE
  2
AcDbTableStyle
  3
ObjectDBX Classes
 90
     4095
280
     0
281
     0
  0
CLASS
  1
SCALE
  2
AcDbScale
  3
ObjectDBX Classes
 90
     1153
280
     0
281
     0
  0
CLASS
  1
MLEADERSTYLE
  2
AcDbMLeaderStyle
  3
ACDB_MLEADERSTYLE_CLASS
 90
     4095
280
     0
281
     0
  0
CLASS
  1
CELLSTYLEMAP
  2
AcDbCellStyleMap
  3
ObjectDBX Classes
 90
     1152
280
     0
281
     0
  0
CLASS
  1
SORTENTSTABLE
  2
AcDbSortentsTable
  3
AutoCAD 2000
 90
        0
280
     0
281
     0
  0
CLASS
  1
ACAD_PROXY_OBJECT_WRAPPER
  2
AcDbProxyObjectWrapper
  3
AutoCAD 2000
 90
        0
280
     0
281
     0
  0
CLASS
  1
LONG_TRANSACTION
  2
AcDbLongTransaction
  3
AutoCAD 2000
 90
        0
280
     0
281
     0
  0
CLASS
  1
LWPOLYLINE
  2
AcDbPolyline
  3
AutoCAD 2000
 90
        0
280
     0
281
     1
  0
CLASS
  1
HATCH
  2
AcDbHatch
  3
AutoCAD 2000
 90
        0
280
     0
281
     1
  0
CLASS
  1
XRECORD
  2
AcDbXrecord
  3
AutoCAD 2000
 90
        0
280
     0
281
     0
  0
ENDSEC
  0
SECTION
  2
TABLES
  0
TABLE
  2
VPORT
  5
6E
102
{ACAD_XDICTIONARY
360
3171
102
}
330
0
100
AcDbSymbolTable
 70
     2
  0
VPORT
  5
363D
330
6E
100
AcDbSymbolTableRecord
100
AcDbViewportTableRecord
  2
*ACTIVE
 70
     0
 10
0.0
 20
0.0
 11
1.0
 21
1.0
 12
308.6980926313386
 22
225.6847574434903
 13
0.0
 23
0.0
 14
10.0
 24
10.0
 15
10.0
 25
10.0
 16
0.0
 26
0.0
 36
1.0
 17
0.0
 27
0.0
 37
0.0
 40
368.8586776013223
 41
1.610115911485774
 42
50.0
 43
0.0
 44
0.0
 50
0.0
 51
0.0
 71
     0
 72
   100
 73
     1
 74
     3
 75
     0
 76
     0
 77
     0
 78
     0
  0
ENDTAB
  0
TABLE
  2
LTYPE
  5
69
330
0
100
AcDbSymbolTable
 70
     5
  0
LTYPE
  5
6A
330
69
100
AcDbSymbolTableRecord
100
AcDbLinetypeTableRecord
  2
BYBLOCK
 70
     0
  3

 72
    65
 73
     0
 40
0.0
  0
LTYPE
  5
6B
330
69
100
AcDbSymbolTableRecord
100
AcDbLinetypeTableRecord
  2
BYLAYER
 70
     0
  3

 72
    65
 73
     0
 40
0.0
  0
LTYPE
  5
8
330
69
100
AcDbSymbolTableRecord
100
AcDbLinetypeTableRecord
  2
CONTINUOUS
 70
     0
  3
Solid line
 72
    65
 73
     0
 40
0.0
  0
LTYPE
  5
27C
330
69
100
AcDbSymbolTableRecord
100
AcDbLinetypeTableRecord
  2
SEKKEI_A2_
 70
     0
  3
center(A2)  ____ _ ____ _ ____ _ ____ _ ____ _ 
 72
    65
 73
     4
 40
14.28749999999999
 49
9.525
 74
     0
 49
-1.587499999999999
 74
     0
 49
1.587499999999999
 74
     0
 49
-1.587499999999999
 74
     0
  0
LTYPE
  5
2B4
330
69
100
AcDbSymbolTableRecord
100
AcDbLinetypeTableRecord
  2
HIDDEN2
 70
     0
  3
Hidden (.5x) _ _ _ _ _ _ _ _ _ _ _ _ _ _ _ _ _
 72
    65
 73
     2
 40
4.762499999999999
 49
3.174999999999999
 74
     0
 49
-1.587499999999999
 74
     0
  0
LTYPE
  5
48F
330
69
100
AcDbSymbolTableRecord
100
AcDbLinetypeTableRecord
  2
SEKKEI_H
 70
     0
  3
Hidden-S _ _ _ _ _ _ _ _ _ _ _ _ _ _ _ _ _
 72
    65
 73
     2
 40
2.381249999999999
 49
1.587499999999999
 74
     0
 49
-0.79375
 74
     0
  0
LTYPE
  5
54A
330
69
100
AcDbSymbolTableRecord
100
AcDbLinetypeTableRecord
  2
CENTERX2
 70
     0
  3
Center (2x) ________  __  ________  __  _____
 72
    65
 73
     4
 40
4.0
 49
2.5
 74
     0
 49
-0.5
 74
     0
 49
0.5
 74
     0
 49
-0.5
 74
     0
  0
ENDTAB
  0
TABLE
  2
LAYER
  5
66
102
{ACAD_XDICTIONARY
360
8D5
102
}
330
0
100
AcDbSymbolTable
 70
     9
  0
LAYER
  5
5E
102
{ACAD_XDICTIONARY
360
315A
102
}
330
66
100
AcDbSymbolTableRecord
100
AcDbLayerTableRecord
  2
0
 70
     0
 62
     7
  6
CONTINUOUS
  0
LAYER
  5
3E
102
{ACAD_XDICTIONARY
360
315C
102
}
330
66
100
AcDbSymbolTableRecord
100
AcDbLayerTableRecord
  2
CENTER
 70
     0
 62
     3
  6
SEKKEI_A2_
  0
LAYER
  5
2B5
102
{ACAD_XDICTIONARY
360
3162
102
}
330
66
100
AcDbSymbolTableRecord
100
AcDbLayerTableRecord
  2
HIDS
 70
     0
 62
     1
  6
HIDDEN2
  0
LAYER
  5
2BA
102
{ACAD_XDICTIONARY
360
3164
102
}
330
66
100
AcDbSymbolTableRecord
100
AcDbLayerTableRecord
  2
HOJO
 70
     0
 62
     4
  6
CONTINUOUS
  0
LAYER
  5
3FA
102
{ACAD_XDICTIONARY
360
3168
102
}
330
66
100
AcDbSymbolTableRecord
100
AcDbLayerTableRecord
  2
TITLE
 70
     0
 62
     4
  6
CONTINUOUS
  0
ENDTAB
  0
TABLE
  2
STYLE
  5
67
330
0
100
AcDbSymbolTable
 70
     1
  0
STYLE
  5
16
330
67
100
AcDbSymbolTableRecord
100
AcDbTextStyleTableRecord
  2
STANDARD
 70
     0
 40
0.0
 41
1.0
 50
0.0
 71
     0
 42
2.0
  3
simplex.shx
  4
extfont.shx
  0
ENDTAB
  0
TABLE
  2
VIEW
  5
6C
330
0
100
AcDbSymbolTable
 70
     0
  0
ENDTAB
  0
TABLE
  2
UCS
  5
6D
330
0
100
AcDbSymbolTable
 70
     0
  0
ENDTAB
  0
TABLE
  2
APPID
  5
70
330
0
100
AcDbSymbolTable
 70
     2
  0
APPID
  5
71
330
70
100
AcDbSymbolTableRecord
100
AcDbRegAppTableRecord
  2
ACAD
 70
     0
  0
APPID
  5
3123
330
70
100
AcDbSymbolTableRecord
100
AcDbRegAppTableRecord
  2
ACAD_MLEADERVER
 70
     0
  0
ENDTAB
  0
TABLE
  2
DIMSTYLE
  5
72
330
0
100
AcDbSymbolTable
 70
     1
  0
DIMSTYLE
105
73
330
72
100
AcDbSymbolTableRecord
100
AcDbDimStyleTableRecord
  2
STANDARD
 70
     0
  3

  4

  5

  6

  7

 40
2.0
 41
1.8
 42
0.625
 43
3.75
 44
0.8
 45
0.0
 46
0.0
 47
0.0
 48
0.0
140
1.8
141
2.5
142
0.0
143
0.0394
144
1.0
145
0.0
146
1.0
147
0.75
 71
     0
 72
     0
 73
     0
 74
     0
 75
     0
 76
     0
 77
     1
 78
     8
170
     0
171
     4
172
     1
173
     0
174
     0
175
     0
176
     0
177
     0
178
     0
270
     8
271
     2
272
     2
273
     8
274
     4
340
16
275
     0
280
     0
281
     0
282
     0
283
     1
284
     0
285
     0
286
     0
287
     3
288
     0
  0
ENDTAB
  0
TABLE
  2
BLOCK_RECORD
  5
1
330
0
100
AcDbSymbolTable
 70
    27
  0
BLOCK_RECORD
  5
2
102
{ACAD_XDICTIONARY
360
3411
102
}
330
1
100
AcDbSymbolTableRecord
100
AcDbBlockTableRecord
  2
*MODEL_SPACE
  0
BLOCK_RECORD
  5
3638
102
{ACAD_XDICTIONARY
360
3660
102
}
330
1
100
AcDbSymbolTableRecord
100
AcDbBlockTableRecord
  2
*PAPER_SPACE
  0
ENDTAB
  0
ENDSEC
  0
SECTION
  2
BLOCKS
  0
BLOCK
  5
5D
330
2
100
AcDbEntity
  8
0
100
AcDbBlockBegin
  2
*MODEL_SPACE
 70
     0
 10
0.0
 20
0.0
 30
0.0
  3
*MODEL_SPACE
  1

  0
ENDBLK
  5
5F
330
2
100
AcDbEntity
  8
0
100
AcDbBlockEnd
  0
BLOCK
  5
363A
330
3638
100
AcDbEntity
 67
     1
  8
0
100
AcDbBlockBegin
  2
*PAPER_SPACE
 70
     0
 10
0.0
 20
0.0
 30
0.0
  3
*PAPER_SPACE
  1

  0
ENDBLK
  5
363B
330
3638
100
AcDbEntity
 67
     1
  8
0
100
AcDbBlockEnd
  0
ENDSEC
  0
SECTION
  2
ENTITIES
  0
LINE
  5
2CE3
330
2
100
AcDbEntity
  8
CENTER
100
AcDbLine
 10
241.6244018541599
 20
386.9821271906012
 30
0.0
 11
253.7729918541599
 21
386.9821271906012
 31
0.0
  0
ARC
  5
2CE4
330
2
100
AcDbEntity
  8
HIDS
100
AcDbCircle
 10
247.4054998541599
 20
386.9821271906012
 30
0.0
 40
3.25
100
AcDbArc
 50
180.0
 51
0.0
  0
ARC
  5
2CE5
330
2
100
AcDbEntity
  8
0
100
AcDbCircle
 10
247.4054998541599
 20
386.9821271906012
 30
0.0
 40
3.25
100
AcDbArc
 50
0.0
 51
180.0
  0
LINE
  5
2CE6
330
2
100
AcDbEntity
  8
0
100
AcDbLine
 10
202.4054998541599
 20
393.9821271906012
 30
0.0
 11
252.4054998541599
 21
393.9821271906012
 31
0.0
  0
ARC
  5
2CE7
330
2
100
AcDbEntity
  8
0
100
AcDbCircle
 10
247.4054998541599
 20
296.9821271906011
 30
0.0
 40
3.25
100
AcDbArc
 50
180.0
 51
0.0
  0
LINE
  5
2CE8
330
2
100
AcDbEntity
  8
CENTER
100
AcDbLine
 10
241.6244018541599
 20
296.9821271906011
 30
0.0
 11
253.7729918541599
 21
296.9821271906011
 31
0.0
  0
ARC
  5
2CE9
330
2
100
AcDbEntity
  8
HIDS
100
AcDbCircle
 10
247.4054998541599
 20
296.9821271906011
 30
0.0
 40
3.25
100
AcDbArc
 50
0.0
 51
180.0
  0
LINE
  5
2CEA
330
2
100
AcDbEntity
  8
0
100
AcDbLine
 10
202.4054998541599
 20
289.9821271906012
 30
0.0
 11
252.4054998541599
 21
289.9821271906012
 31
0.0
  0
LINE
  5
2CEB
330
2
100
AcDbEntity
  8
0
100
AcDbLine
 10
140.40549985416
 20
296.9821271906011
 30
0.0
 11
255.4054998541598
 21
296.9821271906011
 31
0.0
  0
LINE
  5
2CEC
330
2
100
AcDbEntity
  8
0
100
AcDbLine
 10
140.4054998541599
 20
312.9821271906012
 30
0.0
 11
255.4054998541598
 21
312.9821271906012
 31
0.0
  0
LINE
  5
2CED
330
2
100
AcDbEntity
  8
0
100
AcDbLine
 10
140.4054998541599
 20
370.9821271906012
 30
0.0
 11
255.4054998541598
 21
370.9821271906012
 31
0.0
  0
LINE
  5
2CEE
330
2
100
AcDbEntity
  8
0
100
AcDbLine
 10
140.4054998541599
 20
386.9821271906012
 30
0.0
 11
255.4054998541598
 21
386.9821271906012
 31
0.0
  0
LINE
  5
2CEF
330
2
100
AcDbEntity
  8
0
100
AcDbLine
 10
140.4054998541598
 20
168.1846887633505
 30
0.0
 11
255.4054998541598
 21
168.1846887633505
 31
0.0
  0
LINE
  5
2CF0
330
2
100
AcDbEntity
  8
0
100
AcDbLine
 10
255.4054998541598
 20
157.5939907633505
 30
0.0
 11
140.4055098541598
 21
157.5939907633505
 31
0.0
  0
LINE
  5
2CF1
330
2
100
AcDbEntity
  8
CENTER
100
AcDbLine
 10
87.90548985417293
 20
341.9821271906011
 30
0.0
 11
294.8831137550815
 21
341.9821271906012
 31
0.0
  0
LINE
  5
2CF2
330
2
100
AcDbEntity
  8
0
100
AcDbLine
 10
255.4054998541598
 20
88.77538676335053
 30
0.0
 11
238.4054998541598
 21
88.77538676335053
 31
0.0
  0
LINE
  5
2CF4
330
2
100
AcDbEntity
  8
0
100
AcDbLine
 10
199.4054998541598
 20
71.18468876335055
 30
0.0
 11
255.4054998541598
 21
71.18468876335055
 31
0.0
  0
LINE
  5
2CF5
330
2
100
AcDbEntity
  8
0
100
AcDbLine
 10
201.4055228541598
 20
79.18468876335055
 30
0.0
 11
253.4054998541598
 21
79.18468876335055
 31
0.0
  0
LINE
  5
2CF7
330
2
100
AcDbEntity
  8
CENTER
100
AcDbLine
 10
233.8252008541599
 20
136.1846887633505
 30
0.0
 11
292.9254905576304
 21
136.1846887633505
 31
0.0
  0
LINE
  5
2CF8
330
2
100
AcDbEntity
  8
CENTER
100
AcDbLine
 10
87.90548985417293
 20
123.1846887633505
 30
0.0
 11
264.6822028541598
 21
123.1846887633505
 31
0.0
  0
LINE
  5
2D05
330
2
100
AcDbEntity
  8
0
100
AcDbLine
 10
140.4054998541598
 20
78.18468876335055
 30
0.0
 11
199.4054998541598
 21
78.18468876335055
 31
0.0
  0
LINE
  5
2D06
330
2
100
AcDbEntity
  8
0
100
AcDbLine
 10
197.4055308541599
 20
88.77538676335053
 30
0.0
 11
140.4054998541598
 21
88.77538676335053
 31
0.0
  0
LINE
  5
2D0A
330
2
100
AcDbEntity
  8
0
100
AcDbLine
 10
140.4054998541598
 20
168.1846887633505
 30
0.0
 11
140.4054998541598
 21
78.18468876335055
 31
0.0
  0
LINE
  5
2D34
330
2
100
AcDbEntity
  8
0
100
AcDbLine
 10
216.7804998541598
 20
88.77538676335053
 30
0.0
 11
199.0929998541598
 21
88.77538676335053
 31
0.0
  0
LINE
  5
2D35
330
2
100
AcDbEntity
  8
0
100
AcDbLine
 10
199.4054998541598
 20
86.77538676335052
 30
0.0
 11
199.4054998541598
 21
71.18468876335055
 31
0.0
  0
ARC
  5
2D36
330
2
100
AcDbEntity
  8
0
100
AcDbCircle
 10
201.4055228541598
 20
77.18468876335055
 30
0.0
 40
2.0
100
AcDbArc
 50
90.0
 51
180.0
  0
ARC
  5
2D37
330
2
100
AcDbEntity
  8
0
100
AcDbCircle
 10
197.4055308541599
 20
86.77538676335052
 30
0.0
 40
2.0
100
AcDbArc
 50
0.0
 51
90.0
  0
LINE
  5
2D38
330
2
100
AcDbEntity
  8
0
100
AcDbLine
 10
236.7804998541598
 20
95.61728876335052
 30
0.0
 11
217.9054998541598
 21
95.61728876335052
 31
0.0
  0
ARC
  5
2D39
330
2
100
AcDbEntity
  8
0
100
AcDbCircle
 10
215.4054998541598
 20
96.18468876335056
 30
0.0
 40
2.0
100
AcDbArc
 50
0.0
 51
90.0
  0
ARC
  5
2D3A
330
2
100
AcDbEntity
  8
0
100
AcDbCircle
 10
239.4054998541598
 20
96.18468876335056
 30
0.0
 40
2.0
100
AcDbArc
 50
90.0
 51
180.0
  0
ARC
  5
2D3B
330
2
100
AcDbEntity
  8
0
100
AcDbCircle
 10
215.4054998541598
 20
81.18468876335056
 30
0.0
 40
2.0
100
AcDbArc
 50
270.0
 51
0.0
  0
LINE
  5
2D3C
330
2
100
AcDbEntity
  8
CENTER
100
AcDbLine
 10
247.4054998541598
 20
83.43472911126879
 30
0.0
 11
247.4054998541598
 21
66.30972911126878
 31
0.0
  0
ARC
  5
2D3D
330
2
100
AcDbEntity
  8
0
100
AcDbCircle
 10
239.4054998541598
 20
81.18468876335056
 30
0.0
 40
2.0
100
AcDbArc
 50
180.0
 51
270.0
  0
LINE
  5
2D3E
330
2
100
AcDbEntity
  8
HIDS
  6
SEKKEI_H
100
AcDbLine
 10
244.1554998541598
 20
79.18468876335055
 30
0.0
 11
244.1554998541598
 21
71.18468876335055
 31
0.0
  0
LINE
  5
2D3F
330
2
100
AcDbEntity
  8
CENTER
100
AcDbLine
 10
207.4054998541598
 20
83.43472911126879
 30
0.0
 11
207.4054998541598
 21
66.30972911126878
 31
0.0
  0
LINE
  5
2D40
330
2
100
AcDbEntity
  8
HIDS
  6
SEKKEI_H
100
AcDbLine
 10
210.6554998541598
 20
79.18468876335055
 30
0.0
 11
210.6554998541598
 21
71.18468876335055
 31
0.0
  0
LINE
  5
2D41
330
2
100
AcDbEntity
  8
HIDS
  6
SEKKEI_H
100
AcDbLine
 10
204.1554998541598
 20
79.18468876335055
 30
0.0
 11
204.1554998541598
 21
71.18468876335055
 31
0.0
  0
LINE
  5
2D42
330
2
100
AcDbEntity
  8
0
100
AcDbLine
 10
217.4054998541598
 20
81.18468876335056
 30
0.0
 11
217.4054998541598
 21
96.18468876335056
 31
0.0
  0
LINE
  5
2D43
330
2
100
AcDbEntity
  8
0
100
AcDbLine
 10
237.4054998541598
 20
81.18468876335056
 30
0.0
 11
237.4054998541598
 21
96.18468876335056
 31
0.0
  0
LINE
  5
2D46
330
2
100
AcDbEntity
  8
CENTER
100
AcDbLine
 10
247.4054998541599
 20
286.381816190601
 30
0.0
 11
247.4054998541599
 21
304.418376190601
 31
0.0
  0
LINE
  5
2D47
330
2
100
AcDbEntity
  8
CENTER
100
AcDbLine
 10
207.4054998541599
 20
286.829005190601
 30
0.0
 11
207.4054998541599
 21
303.076823190601
 31
0.0
  0
ARC
  5
2D48
330
2
100
AcDbEntity
  8
HIDS
100
AcDbCircle
 10
207.4054998541599
 20
296.9821271906011
 30
0.0
 40
3.25
100
AcDbArc
 50
0.0
 51
180.0
  0
LINE
  5
2D49
330
2
100
AcDbEntity
  8
0
100
AcDbLine
 10
140.40549985416
 20
296.9821271906011
 30
0.0
 11
140.4054998541598
 21
386.9821271906012
 31
0.0
  0
ARC
  5
2DCB
330
2
100
AcDbEntity
  8
0
100
AcDbCircle
 10
202.4054998541599
 20
292.9821271906011
 30
0.0
 40
3.0
100
AcDbArc
 50
180.0
 51
270.0
  0
LINE
  5
2DCC
330
2
100
AcDbEntity
  8
CENTER
100
AcDbLine
 10
200.4086198541599
 20
296.9821271906011
 30
0.0
 11
215.9111228541598
 21
296.9821271906011
 31
0.0
  0
LINE
  5
2DCD
330
2
100
AcDbEntity
  8
0
100
AcDbLine
 10
199.4054998541599
 20
292.9821271906011
 30
0.0
 11
199.4054998541599
 21
296.9821271906011
 31
0.0
  0
ARC
  5
2DCE
330
2
100
AcDbEntity
  8
0
100
AcDbCircle
 10
207.4054998541599
 20
296.9821271906011
 30
0.0
 40
3.25
100
AcDbArc
 50
180.0
 51
0.0
  0
ARC
  5
2E0E
330
2
100
AcDbEntity
  8
0
100
AcDbCircle
 10
202.4054998541599
 20
390.9821271906011
 30
0.0
 40
3.0
100
AcDbArc
 50
90.0
 51
180.0
  0
LINE
  5
2E0F
330
2
100
AcDbEntity
  8
CENTER
100
AcDbLine
 10
200.4086198541599
 20
386.9821271906012
 30
0.0
 11
215.9111228541598
 21
386.9821271906012
 31
0.0
  0
LINE
  5
2E10
330
2
100
AcDbEntity
  8
0
100
AcDbLine
 10
199.4054998541599
 20
390.9821271906011
 30
0.0
 11
199.4054998541599
 21
386.9821271906012
 31
0.0
  0
ARC
  5
2E11
330
2
100
AcDbEntity
  8
HIDS
100
AcDbCircle
 10
207.4054998541599
 20
386.9821271906012
 30
0.0
 40
3.25
100
AcDbArc
 50
180.0
 51
0.0
  0
ARC
  5
2E12
330
2
100
AcDbEntity
  8
0
100
AcDbCircle
 10
207.4054998541599
 20
386.9821271906012
 30
0.0
 40
3.25
100
AcDbArc
 50
0.0
 51
180.0
  0
LINE
  5
2E13
330
2
100
AcDbEntity
  8
CENTER
100
AcDbLine
 10
247.4054998541599
 20
397.5824381906011
 30
0.0
 11
247.4054998541599
 21
379.5458781906011
 31
0.0
  0
LINE
  5
2E14
330
2
100
AcDbEntity
  8
CENTER
100
AcDbLine
 10
207.4054998541599
 20
397.1352641906012
 30
0.0
 11
207.4054998541599
 21
380.8874461906011
 31
0.0
  0
LINE
  5
2E2A
330
2
100
AcDbEntity
  8
0
100
AcDbLine
 10
409.8523135502984
 20
167.7127997633506
 30
0.0
 11
436.8872255502985
 21
168.1846887633505
 31
0.0
  0
ARC
  5
2E2B
330
2
100
AcDbEntity
  8
0
100
AcDbCircle
 10
436.8872255502985
 20
136.1846887633505
 30
0.0
 40
7.5
100
AcDbArc
 50
199.4712070000023
 51
160.5287929999976
  0
LINE
  5
2E2C
330
2
100
AcDbEntity
  8
CENTER
100
AcDbLine
 10
411.8246335502986
 20
136.1846887633505
 30
0.0
 11
461.9498175502985
 21
136.1846887633505
 31
0.0
  0
LINE
  5
2E2D
330
2
100
AcDbEntity
  8
0
100
AcDbLine
 10
404.8872255502986
 20
72.18468876335055
 30
0.0
 11
436.8872255502985
 21
72.18468876335055
 31
0.0
  0
ARC
  5
2E2E
330
2
100
AcDbEntity
  8
0
100
AcDbCircle
 10
436.8872255502985
 20
123.1846887633505
 30
0.0
 40
42.5
100
AcDbArc
 50
199.7498930000023
 51
270.0
  0
LINE
  5
2E2F
330
2
100
AcDbEntity
  8
CENTER
100
AcDbLine
 10
383.3872255502985
 20
123.1846887633505
 30
0.0
 11
490.3872255502985
 21
123.1846887633505
 31
0.0
  0
ARC
  5
2E32
330
2
100
AcDbEntity
  8
0
100
AcDbCircle
 10
436.8872255502985
 20
123.1846887633505
 30
0.0
 40
42.5
100
AcDbArc
 50
90.0
 51
160.2501069999976
  0
CIRCLE
  5
2E33
330
2
100
AcDbEntity
  8
0
100
AcDbCircle
 10
436.8872255502985
 20
136.1846887633505
 30
0.0
 40
20.0
  0
LINE
  5
2E37
330
2
100
AcDbEntity
  8
0
100
AcDbLine
 10
255.4054998541598
 20
168.1846887633505
 30
0.0
 11
255.4054998541598
 21
71.18468876335055
 31
0.0
  0
LINE
  5
2E38
330
2
100
AcDbEntity
  8
0
100
AcDbLine
 10
259.4054998541598
 20
117.1846887633505
 30
0.0
 11
259.4054998541598
 21
155.1846887633505
 31
0.0
  0
LINE
  5
2E39
330
2
100
AcDbEntity
  8
0
100
AcDbLine
 10
258.4054998541598
 20
116.1846887633505
 30
0.0
 11
255.4054998541598
 21
116.1846887633505
 31
0.0
  0
LINE
  5
2E3A
330
2
100
AcDbEntity
  8
HIDS
  6
SEKKEI_H
100
AcDbLine
 10
250.6554998541598
 20
79.18468876335055
 30
0.0
 11
250.6554998541598
 21
71.18468876335055
 31
0.0
  0
ARC
  5
2E3B
330
2
100
AcDbEntity
  8
0
100
AcDbCircle
 10
253.4054998541598
 20
77.18468876335055
 30
0.0
 40
2.0
100
AcDbArc
 50
0.0
 51
90.0
  0
ARC
  5
2E3C
330
2
100
AcDbEntity
  8
0
100
AcDbCircle
 10
258.4054998541598
 20
117.1846887633505
 30
0.0
 40
1.0
100
AcDbArc
 50
270.0
 51
0.0
  0
LINE
  5
2E3D
330
2
100
AcDbEntity
  8
0
100
AcDbLine
 10
258.4054998541598
 20
156.1846887633505
 30
0.0
 11
255.4054998541598
 21
156.1846887633505
 31
0.0
  0
ARC
  5
2E3E
330
2
100
AcDbEntity
  8
0
100
AcDbCircle
 10
258.4054998541598
 20
155.1846887633505
 30
0.0
 40
1.0
100
AcDbArc
 50
0.0
 51
90.0
  0
LINE
  5
2E3F
330
2
100
AcDbEntity
  8
0
100
AcDbLine
 10
261.4054998541598
 20
143.6846887633505
 30
0.0
 11
288.4054998541598
 21
143.6846887633505
 31
0.0
  0
LINE
  5
2E40
330
2
100
AcDbEntity
  8
0
100
AcDbLine
 10
261.4054998541598
 20
128.6846887633505
 30
0.0
 11
288.4054998541598
 21
128.6846887633505
 31
0.0
  0
LINE
  5
2E41
330
2
100
AcDbEntity
  8
0
100
AcDbLine
 10
266.9054998541598
 20
138.6846887633505
 30
0.0
 11
288.4054998541598
 21
138.6846887633505
 31
0.0
  0
LINE
  5
2E42
330
2
100
AcDbEntity
  8
0
100
AcDbLine
 10
266.9054998541598
 20
133.6846887633505
 30
0.0
 11
288.4054998541598
 21
133.6846887633505
 31
0.0
  0
LINE
  5
2E43
330
2
100
AcDbEntity
  8
0
100
AcDbLine
 10
261.4054998541598
 20
144.6846887633505
 30
0.0
 11
261.4054998541598
 21
127.6846887633505
 31
0.0
  0
LINE
  5
2E44
330
2
100
AcDbEntity
  8
0
100
AcDbLine
 10
259.4054998541598
 20
127.6846887633505
 30
0.0
 11
261.4054998541598
 21
127.6846887633505
 31
0.0
  0
ARC
  5
2E45
330
2
100
AcDbEntity
  8
0
100
AcDbCircle
 10
266.9054998541598
 20
136.1846887633505
 30
0.0
 40
2.5
100
AcDbArc
 50
90.0
 51
180.0
  0
ARC
  5
2E46
330
2
100
AcDbEntity
  8
0
100
AcDbCircle
 10
266.9054998541598
 20
136.1846887633505
 30
0.0
 40
2.5
100
AcDbArc
 50
180.0
 51
270.0
  0
LINE
  5
2E47
330
2
100
AcDbEntity
  8
0
100
AcDbLine
 10
259.4054998541598
 20
144.6846887633505
 30
0.0
 11
261.4054998541598
 21
144.6846887633505
 31
0.0
  0
LINE
  5
2E48
330
2
100
AcDbEntity
  8
0
100
AcDbLine
 10
288.4054998541598
 20
143.6846887633505
 30
0.0
 11
288.4054998541598
 21
128.6846887633505
 31
0.0
  0
LINE
  5
2E49
330
2
100
AcDbEntity
  8
0
100
AcDbLine
 10
396.8872255502986
 20
137.5460887633505
 30
0.0
 11
396.8872255502986
 21
108.8235887633505
 31
0.0
  0
ARC
  5
2E4A
330
2
100
AcDbEntity
  8
0
100
AcDbCircle
 10
436.8872255502985
 20
123.1846887633505
 30
0.0
 40
45.0
100
AcDbArc
 50
130.1241000000033
 51
218.9423980000031
  0
LINE
  5
2E4B
330
2
100
AcDbEntity
  8
0
100
AcDbLine
 10
403.8872255502985
 20
71.18468876335055
 30
0.0
 11
384.8872255502985
 21
71.18468876335055
 31
0.0
  0
LINE
  5
2E4C
330
2
100
AcDbEntity
  8
0
100
AcDbLine
 10
386.8872255502985
 20
79.18468876335055
 30
0.0
 11
398.8872255502986
 21
79.18468876335055
 31
0.0
  0
LINE
  5
2E4D
330
2
100
AcDbEntity
  8
0
100
AcDbLine
 10
385.4730255502986
 20
78.59888876335048
 30
0.0
 11
401.8368255502986
 21
94.96288876335052
 31
0.0
  0
LINE
  5
2E4E
330
2
100
AcDbEntity
  8
0
100
AcDbLine
 10
384.8872255502985
 20
77.18468876335055
 30
0.0
 11
384.8872255502985
 21
71.18468876335055
 31
0.0
  0
ARC
  5
2E4F
330
2
100
AcDbEntity
  8
0
100
AcDbCircle
 10
386.8872255502985
 20
77.18468876335055
 30
0.0
 40
2.0
100
AcDbArc
 50
90.0
 51
180.0
  0
LINE
  5
2E50
330
2
100
AcDbEntity
  8
0
100
AcDbLine
 10
426.3060175502984
 20
110.1846887633505
 30
0.0
 11
432.1372255502986
 21
110.1846887633505
 31
0.0
  0
ARC
  5
2E51
330
2
100
AcDbEntity
  8
0
100
AcDbCircle
 10
427.0664235502985
 20
104.6846887633505
 30
0.0
 40
2.0
100
AcDbArc
 50
90.0
 51
135.5462039999972
  0
LINE
  5
2E52
330
2
100
AcDbEntity
  8
0
100
AcDbLine
 10
428.8872255502986
 20
105.1846887633505
 30
0.0
 11
432.1372255502986
 21
105.1846887633505
 31
0.0
  0
LINE
  5
2E53
330
2
100
AcDbEntity
  8
0
100
AcDbLine
 10
427.0664235502985
 20
106.6846887633505
 30
0.0
 11
432.1372255502986
 21
106.6846887633505
 31
0.0
  0
LINE
  5
2E54
330
2
100
AcDbEntity
  8
0
100
AcDbLine
 10
432.1372255502986
 20
106.6846887633505
 30
0.0
 11
432.1372255502986
 21
110.1846887633505
 31
0.0
  0
LINE
  5
2E55
330
2
100
AcDbEntity
  8
0
100
AcDbLine
 10
425.8568295502985
 20
101.1846887633505
 30
0.0
 11
428.8872255502986
 21
101.1846887633505
 31
0.0
  0
LINE
  5
2E56
330
2
100
AcDbEntity
  8
0
100
AcDbLine
 10
432.1372255502986
 20
105.1846887633505
 30
0.0
 11
432.1372255502986
 21
100.1846887633505
 31
0.0
  0
LINE
  5
2E57
330
2
100
AcDbEntity
  8
0
100
AcDbLine
 10
428.8872255502986
 20
105.1846887633505
 30
0.0
 11
428.8872255502986
 21
101.1846887633505
 31
0.0
  0
ARC
  5
2E58
330
2
100
AcDbEntity
  8
0
100
AcDbCircle
 10
427.6372255502986
 20
103.9476907633506
 30
0.0
 40
6.5
100
AcDbArc
 50
112.3525010000007
 51
215.3744960000062
  0
ARC
  5
2E59
330
2
100
AcDbEntity
  8
0
100
AcDbCircle
 10
426.3060175502984
 20
107.1846887633505
 30
0.0
 40
3.0
100
AcDbArc
 50
90.0
 51
112.3526989999962
  0
ARC
  5
2E5A
330
2
100
AcDbEntity
  8
0
100
AcDbCircle
 10
425.8568295502985
 20
101.6846887633505
 30
0.0
 40
0.5
100
AcDbArc
 50
220.5301969999924
 51
270.0
  0
LINE
  5
2E5B
330
2
100
AcDbEntity
  8
0
100
AcDbLine
 10
422.3370235502984
 20
100.1846887633505
 30
0.0
 11
432.1372255502986
 21
100.1846887633505
 31
0.0
  0
ARC
  5
2E5C
330
2
100
AcDbEntity
  8
0
100
AcDbCircle
 10
428.1372255502986
 20
103.6341827633505
 30
0.0
 40
3.5
100
AcDbArc
 50
135.5460969999876
 51
220.529007000002
  0
ARC
  5
2E5D
330
2
100
AcDbEntity
  8
0
100
AcDbCircle
 10
398.8872255502986
 20
82.18468876335055
 30
0.0
 40
3.0
100
AcDbArc
 50
270.0
 51
0.0
  0
LINE
  5
2E5E
330
2
100
AcDbEntity
  8
CENTER
100
AcDbLine
 10
391.8872255502985
 20
83.43472911126879
 30
0.0
 11
391.8872255502985
 21
66.30972911126878
 31
0.0
  0
LINE
  5
2E5F
330
2
100
AcDbEntity
  8
HIDS
  6
SEKKEI_H
100
AcDbLine
 10
388.6372255502985
 20
79.18468876335055
 30
0.0
 11
388.6372255502985
 21
71.18468876335055
 31
0.0
  0
LINE
  5
2E60
330
2
100
AcDbEntity
  8
HIDS
  6
SEKKEI_H
100
AcDbLine
 10
395.1372255502985
 20
79.18468876335055
 30
0.0
 11
395.1372255502985
 21
71.18468876335055
 31
0.0
  0
LINE
  5
2E61
330
2
100
AcDbEntity
  8
0
100
AcDbLine
 10
403.8872255502985
 20
71.18468876335055
 30
0.0
 11
404.8872255502986
 21
72.18468876335055
 31
0.0
  0
LINE
  5
2E62
330
2
100
AcDbEntity
  8
0
100
AcDbLine
 10
401.8872255502985
 20
82.18468876335055
 30
0.0
 11
401.8872255502985
 21
94.90038876335052
 31
0.0
  0
LINE
  5
2E6D
330
2
100
AcDbEntity
  8
0
100
AcDbLine
 10
407.8872255502985
 20
165.7130887633505
 30
0.0
 11
407.8872255502985
 21
157.5939907633505
 31
0.0
  0
ARC
  5
2E6E
330
2
100
AcDbEntity
  8
0
100
AcDbCircle
 10
409.8872255502985
 20
165.7130887633505
 30
0.0
 40
2.0
100
AcDbArc
 50
90.99980900000012
 51
180.0
  0
LINE
  5
2E6F
330
2
100
AcDbEntity
  8
0
100
AcDbLine
 10
427.3872255502985
 20
133.6846887633505
 30
0.0
 11
427.3872255502985
 21
138.6846887633505
 31
0.0
  0
LINE
  5
2E70
330
2
100
AcDbEntity
  8
0
100
AcDbLine
 10
432.3872255502985
 20
138.6846887633505
 30
0.0
 11
432.3872255502985
 21
133.6846887633505
 31
0.0
  0
LINE
  5
2E71
330
2
100
AcDbEntity
  8
0
100
AcDbLine
 10
427.3872255502985
 20
133.6846887633505
 30
0.0
 11
432.3872255502985
 21
133.6846887633505
 31
0.0
  0
LINE
  5
2E72
330
2
100
AcDbEntity
  8
0
100
AcDbLine
 10
427.3872255502985
 20
138.6846887633505
 30
0.0
 11
432.3872255502985
 21
138.6846887633505
 31
0.0
  0
LINE
  5
2E76
330
2
100
AcDbEntity
  8
0
100
AcDbLine
 10
476.8872255502985
 20
137.5460887633505
 30
0.0
 11
476.8872255502985
 21
108.8235887633505
 31
0.0
  0
LINE
  5
2E78
330
2
100
AcDbEntity
  8
CENTER
100
AcDbLine
 10
436.8872255502985
 20
64.33258876335049
 30
0.0
 11
436.8872255502984
 21
178.1862119976699
 31
0.0
  0
ARC
  5
2E79
330
2
100
AcDbEntity
  8
0
100
AcDbCircle
 10
436.8872255502985
 20
123.1846887633505
 30
0.0
 40
45.0
100
AcDbArc
 50
321.0575900000002
 51
49.87591199999784
  0
LINE
  5
2E7A
330
2
100
AcDbEntity
  8
0
100
AcDbLine
 10
486.8872255502985
 20
79.18468876335055
 30
0.0
 11
474.8872255502986
 21
79.18468876335055
 31
0.0
  0
ARC
  5
2E7B
330
2
100
AcDbEntity
  8
0
100
AcDbCircle
 10
436.8872255502985
 20
123.1846887633505
 30
0.0
 40
42.5
100
AcDbArc
 50
270.0
 51
340.2500920000033
  0
LINE
  5
2E7C
330
2
100
AcDbEntity
  8
0
100
AcDbLine
 10
488.3014405502986
 20
78.59888876335048
 30
0.0
 11
471.9546385502986
 21
94.94577776335052
 31
0.0
  0
LINE
  5
2E7D
330
2
100
AcDbEntity
  8
0
100
AcDbLine
 10
469.8872255502985
 20
71.18468876335055
 30
0.0
 11
488.8872255502985
 21
71.18468876335055
 31
0.0
  0
LINE
  5
2E7E
330
2
100
AcDbEntity
  8
0
100
AcDbLine
 10
446.1372555502986
 20
105.1846887633505
 30
0.0
 11
448.3872555502986
 21
105.1846887633505
 31
0.0
  0
LINE
  5
2E7F
330
2
100
AcDbEntity
  8
0
100
AcDbLine
 10
444.8872555502986
 20
106.6846887633505
 30
0.0
 11
448.3872555502986
 21
106.6846887633505
 31
0.0
  0
LINE
  5
2E80
330
2
100
AcDbEntity
  8
0
100
AcDbLine
 10
449.7196535502983
 20
110.1846887633505
 30
0.0
 11
441.6372255502985
 21
110.1846887633505
 31
0.0
  0
LINE
  5
2E81
330
2
100
AcDbEntity
  8
0
100
AcDbLine
 10
446.1372555502986
 20
105.1846887633505
 30
0.0
 11
449.1372555502985
 21
100.1846887633505
 31
0.0
  0
LINE
  5
2E82
330
2
100
AcDbEntity
  8
0
100
AcDbLine
 10
433.3872255502986
 20
110.1846887633505
 30
0.0
 11
440.3872255502985
 21
110.1846887633505
 31
0.0
  0
LINE
  5
2E83
330
2
100
AcDbEntity
  8
0
100
AcDbLine
 10
435.1372255502986
 20
100.1846887633505
 30
0.0
 11
438.6372255502985
 21
100.1846887633505
 31
0.0
  0
LINE
  5
2E84
330
2
100
AcDbEntity
  8
0
100
AcDbLine
 10
433.3872255502986
 20
110.1846887633505
 30
0.0
 11
433.3872255502986
 21
106.6846887633505
 31
0.0
  0
LINE
  5
2E85
330
2
100
AcDbEntity
  8
0
100
AcDbLine
 10
433.3872255502986
 20
106.6846887633505
 30
0.0
 11
435.1372255502986
 21
106.6846887633505
 31
0.0
  0
LINE
  5
2E86
330
2
100
AcDbEntity
  8
0
100
AcDbLine
 10
435.1372255502986
 20
106.6846887633505
 30
0.0
 11
435.1372255502986
 21
100.1846887633505
 31
0.0
  0
LINE
  5
2E87
330
2
100
AcDbEntity
  8
0
100
AcDbLine
 10
441.6372255502985
 20
100.1846887633505
 30
0.0
 11
444.8872555502986
 21
100.1846887633505
 31
0.0
  0
LINE
  5
2E88
330
2
100
AcDbEntity
  8
0
100
AcDbLine
 10
441.6372255502985
 20
110.1846887633505
 30
0.0
 11
441.6372255502985
 21
100.1846887633505
 31
0.0
  0
LINE
  5
2E89
330
2
100
AcDbEntity
  8
0
100
AcDbLine
 10
444.8872555502986
 20
106.6846887633505
 30
0.0
 11
444.8872555502986
 21
100.1846887633505
 31
0.0
  0
LINE
  5
2E8A
330
2
100
AcDbEntity
  8
0
100
AcDbLine
 10
438.6372255502985
 20
106.6846887633505
 30
0.0
 11
440.3872255502985
 21
106.6846887633505
 31
0.0
  0
LINE
  5
2E8B
330
2
100
AcDbEntity
  8
0
100
AcDbLine
 10
440.3872255502985
 20
110.1846887633505
 30
0.0
 11
440.3872255502985
 21
106.6846887633505
 31
0.0
  0
LINE
  5
2E8C
330
2
100
AcDbEntity
  8
0
100
AcDbLine
 10
438.6372255502985
 20
106.6846887633505
 30
0.0
 11
438.6372255502985
 21
100.1846887633505
 31
0.0
  0
ARC
  5
2E8D
330
2
100
AcDbEntity
  8
0
100
AcDbCircle
 10
449.7196535502983
 20
108.1846887633505
 30
0.0
 40
2.0
100
AcDbArc
 50
59.13309899998935
 51
90.0
  0
ARC
  5
2E8E
330
2
100
AcDbEntity
  8
0
100
AcDbCircle
 10
448.3872555502986
 20
105.9346887633505
 30
0.0
 40
0.75
100
AcDbArc
 50
270.0
 51
90.0
  0
LINE
  5
2E8F
330
2
100
AcDbEntity
  8
0
100
AcDbLine
 10
452.9370595502986
 20
100.1846887633505
 30
0.0
 11
451.4370595502986
 21
102.6846887633505
 31
0.0
  0
LINE
  5
2E90
330
2
100
AcDbEntity
  8
0
100
AcDbLine
 10
449.1372555502985
 20
100.1846887633505
 30
0.0
 11
452.9370595502986
 21
100.1846887633505
 31
0.0
  0
ARC
  5
2E91
330
2
100
AcDbEntity
  8
0
100
AcDbCircle
 10
448.4370595502986
 20
106.0387227633505
 30
0.0
 40
4.5
100
AcDbArc
 50
311.8104210000039
 51
59.13299199999959
  0
LINE
  5
2E92
330
2
100
AcDbEntity
  8
HIDS
  6
SEKKEI_H
100
AcDbLine
 10
478.6372255502985
 20
79.18468876335055
 30
0.0
 11
478.6372255502985
 21
71.18468876335055
 31
0.0
  0
LINE
  5
2E93
330
2
100
AcDbEntity
  8
0
100
AcDbLine
 10
468.8872255502985
 20
72.18468876335055
 30
0.0
 11
436.8872255502985
 21
72.18468876335055
 31
0.0
  0
LINE
  5
2E94
330
2
100
AcDbEntity
  8
0
100
AcDbLine
 10
469.8872255502985
 20
71.18468876335055
 30
0.0
 11
468.8872255502985
 21
72.18468876335055
 31
0.0
  0
LINE
  5
2E95
330
2
100
AcDbEntity
  8
0
100
AcDbLine
 10
471.8872255502986
 20
94.90038876335052
 30
0.0
 11
471.8872255502986
 21
82.18468876335055
 31
0.0
  0
ARC
  5
2E96
330
2
100
AcDbEntity
  8
0
100
AcDbCircle
 10
474.8872255502986
 20
82.18468876335055
 30
0.0
 40
3.0
100
AcDbArc
 50
180.0
 51
270.0
  0
LINE
  5
2E97
330
2
100
AcDbEntity
  8
CENTER
100
AcDbLine
 10
481.8872255502985
 20
83.43472911126879
 30
0.0
 11
481.8872255502985
 21
66.30972911126878
 31
0.0
  0
LINE
  5
2E98
330
2
100
AcDbEntity
  8
0
100
AcDbLine
 10
488.8872255502985
 20
77.18468876335055
 30
0.0
 11
488.8872255502985
 21
71.18468876335055
 31
0.0
  0
LINE
  5
2E99
330
2
100
AcDbEntity
  8
HIDS
  6
SEKKEI_H
100
AcDbLine
 10
485.1372255502986
 20
79.18468876335055
 30
0.0
 11
485.1372255502986
 21
71.18468876335055
 31
0.0
  0
ARC
  5
2E9A
330
2
100
AcDbEntity
  8
0
100
AcDbCircle
 10
486.8872255502985
 20
77.18468876335055
 30
0.0
 40
2.0
100
AcDbArc
 50
0.0
 51
90.0
  0
ARC
  5
2E9B
330
2
100
AcDbEntity
  8
0
100
AcDbCircle
 10
436.8872255502985
 20
123.1846887633505
 30
0.0
 40
42.5
100
AcDbArc
 50
19.74990100000077
 51
90.0
  0
LINE
  5
2EAE
330
2
100
AcDbEntity
  8
0
100
AcDbLine
 10
463.9221375502986
 20
167.7127997633506
 30
0.0
 11
436.8872255502985
 21
168.1846887633505
 31
0.0
  0
LINE
  5
2EAF
330
2
100
AcDbEntity
  8
0
100
AcDbLine
 10
465.8872255502985
 20
165.7130887633505
 30
0.0
 11
465.8872255502985
 21
157.5939907633505
 31
0.0
  0
ARC
  5
2EB0
330
2
100
AcDbEntity
  8
0
100
AcDbCircle
 10
463.8872255502985
 20
165.7130887633505
 30
0.0
 40
2.0
100
AcDbArc
 50
0.0
 51
89.00019099999987
  0
TEXT
  5
2EB1
330
2
100
AcDbEntity
  8
TITLE
100
AcDbText
 10
343.3676517365185
 20
335.232545350352
 30
0.0
 40
9.0
  1
AG3L15N5～60N-BLE010T2
100
AcDbText
  0
LINE
  5
2EB5
330
2
100
AcDbEntity
  8
0
100
AcDbLine
 10
255.4054998541598
 20
390.9821271906011
 30
0.0
 11
255.4054998541598
 21
292.9821271906011
 31
0.0
  0
ARC
  5
2EB6
330
2
100
AcDbEntity
  8
0
100
AcDbCircle
 10
252.4054998541599
 20
292.9821271906011
 30
0.0
 40
3.0
100
AcDbArc
 50
270.0
 51
0.0
  0
LINE
  5
2EC2
330
2
100
AcDbEntity
  8
0
100
AcDbLine
 10
259.4054998541598
 20
322.9821271906012
 30
0.0
 11
259.4054998541598
 21
360.9821271906012
 31
0.0
  0
LINE
  5
2EC3
330
2
100
AcDbEntity
  8
0
100
AcDbLine
 10
261.4054998541598
 20
349.4821271906012
 30
0.0
 11
288.4054998541598
 21
349.4821271906012
 31
0.0
  0
LINE
  5
2EC4
330
2
100
AcDbEntity
  8
0
100
AcDbLine
 10
259.4054998541598
 20
350.4821271906012
 30
0.0
 11
261.4054998541598
 21
350.4821271906012
 31
0.0
  0
LINE
  5
2EC5
330
2
100
AcDbEntity
  8
0
100
AcDbLine
 10
264.4054998541598
 20
332.4821271906011
 30
0.0
 11
288.4054998541598
 21
332.4821271906011
 31
0.0
  0
LINE
  5
2EC6
330
2
100
AcDbEntity
  8
0
100
AcDbLine
 10
264.4054998541598
 20
334.9111281906012
 30
0.0
 11
288.4054998541598
 21
334.9111281906012
 31
0.0
  0
LINE
  5
2EC7
330
2
100
AcDbEntity
  8
0
100
AcDbLine
 10
261.4054998541598
 20
334.4821271906011
 30
0.0
 11
264.4054998541598
 21
334.4821271906011
 31
0.0
  0
LINE
  5
2EC8
330
2
100
AcDbEntity
  8
0
100
AcDbLine
 10
259.4054998541598
 20
333.4821271906012
 30
0.0
 11
261.4054998541598
 21
333.4821271906012
 31
0.0
  0
LINE
  5
2EC9
330
2
100
AcDbEntity
  8
0
100
AcDbLine
 10
264.4054998541598
 20
334.9111281906012
 30
0.0
 11
264.4054998541598
 21
332.4821271906011
 31
0.0
  0
LINE
  5
2ECA
330
2
100
AcDbEntity
  8
0
100
AcDbLine
 10
261.4054998541598
 20
350.4821271906012
 30
0.0
 11
261.4054998541598
 21
333.4821271906012
 31
0.0
  0
LINE
  5
2ECB
330
2
100
AcDbEntity
  8
0
100
AcDbLine
 10
288.4054998541598
 20
349.4821271906012
 30
0.0
 11
288.4054998541598
 21
332.4821271906011
 31
0.0
  0
LINE
  5
2ECC
330
2
100
AcDbEntity
  8
0
100
AcDbLine
 10
258.4054998541598
 20
321.9821271906011
 30
0.0
 11
255.4054998541598
 21
321.9821271906011
 31
0.0
  0
ARC
  5
2ECD
330
2
100
AcDbEntity
  8
0
100
AcDbCircle
 10
258.4054998541598
 20
322.9821271906012
 30
0.0
 40
1.0
100
AcDbArc
 50
270.0
 51
0.0
  0
LINE
  5
2ECE
330
2
100
AcDbEntity
  8
0
100
AcDbLine
 10
258.4054998541598
 20
361.9821271906012
 30
0.0
 11
255.4054998541598
 21
361.9821271906012
 31
0.0
  0
ARC
  5
2ECF
330
2
100
AcDbEntity
  8
0
100
AcDbCircle
 10
252.4054998541599
 20
390.9821271906011
 30
0.0
 40
3.0
100
AcDbArc
 50
0.0
 51
90.0
  0
ARC
  5
2ED0
330
2
100
AcDbEntity
  8
0
100
AcDbCircle
 10
258.4054998541598
 20
360.9821271906012
 30
0.0
 40
1.0
100
AcDbArc
 50
0.0
 51
90.0
  0
TEXT
  5
319B
330
2
100
AcDbEntity
  8
TITLE
100
AcDbText
 10
343.3676517365185
 20
319.9877963399217
 30
0.0
 40
9.0
  1
AG3L15N5～60L-BLE010T2
100
AcDbText
  0
LINE
  5
3218
330
2
100
AcDbEntity
  8
0
100
AcDbLine
 10
99.88803678317603
 20
301.2528124027566
 30
0.0
 11
130.9054898541593
 21
300.9821271906002
 31
0.0
  0
LINE
  5
3219
330
2
100
AcDbEntity
  8
0
100
AcDbLine
 10
130.9054898541593
 20
379.9821271906002
 30
0.0
 11
130.9054898541593
 21
382.9821271906002
 31
0.0
  0
LINE
  5
321A
330
2
100
AcDbEntity
  8
0
100
AcDbLine
 10
130.9054898541611
 20
300.9821271906002
 30
0.0
 11
130.9054898541606
 21
327.9821271906011
 31
0.0
  0
LINE
  5
321B
330
2
100
AcDbEntity
  8
0
100
AcDbLine
 10
130.9054898541606
 20
333.9821271906011
 30
0.0
 11
130.9054898541602
 21
349.9821271906002
 31
0.0
  0
LINE
  5
321C
330
2
100
AcDbEntity
  8
0
100
AcDbLine
 10
130.9054898541602
 20
355.9821271906002
 30
0.0
 11
130.9054898541593
 21
379.9821271906002
 31
0.0
  0
LINE
  5
321D
330
2
100
AcDbEntity
  8
0
100
AcDbLine
 10
99.88803678317603
 20
382.7114419784438
 30
0.0
 11
130.9054898541593
 21
382.9821271906002
 31
0.0
  0
LINE
  5
321E
330
2
100
AcDbEntity
  8
0
100
AcDbLine
 10
97.90548985417295
 20
380.7115181323151
 30
0.0
 11
97.90548985417295
 21
303.2527362488853
 31
0.0
  0
ARC
  5
321F
330
2
100
AcDbEntity
  8
0
100
AcDbCircle
 10
99.90548985417294
 20
380.7115181323151
 30
0.0
 40
2.0
100
AcDbArc
 50
90.50000000001761
 51
180.0
  0
ARC
  5
3220
330
2
100
AcDbEntity
  8
0
100
AcDbCircle
 10
99.90548985417294
 20
303.2527362488853
 30
0.0
 40
2.0
100
AcDbArc
 50
180.0
 51
269.4999999999824
  0
ARC
  5
3221
330
2
100
AcDbEntity
  8
0
100
AcDbCircle
 10
111.9054898541593
 20
352.9821271906002
 30
0.0
 40
10.25000000000042
100
AcDbArc
 50
17.01864740353919
 51
342.9813525964608
  0
LINE
  5
3222
330
2
100
AcDbEntity
  8
CENTER
100
AcDbLine
 10
97.50625363730101
 20
352.9821271906002
 30
0.0
 11
138.6211877759581
 21
352.9821271906002
 31
0.0
  0
ARC
  5
3223
330
2
100
AcDbEntity
  8
0
100
AcDbCircle
 10
111.9054898541593
 20
330.982127190602
 30
0.0
 40
10.25000000000042
100
AcDbArc
 50
17.01864740353919
 51
342.9813525964608
  0
LINE
  5
3224
330
2
100
AcDbEntity
  8
CENTER
100
AcDbLine
 10
111.9054898541593
 20
367.3813634074576
 30
0.0
 11
111.9054898541593
 21
316.5828909737428
 31
0.0
  0
LINE
  5
3225
330
2
100
AcDbEntity
  8
CENTER
100
AcDbLine
 10
97.50625363730101
 20
330.9821271906011
 30
0.0
 11
138.6211877759581
 21
330.9821271906011
 31
0.0
  0
LINE
  5
3226
330
2
100
AcDbEntity
  8
0
100
AcDbLine
 10
102.8880367831628
 20
363.8510718630913
 30
0.0
 11
117.9054898541602
 21
363.982127190602
 31
0.0
  0
ARC
  5
3227
330
2
100
AcDbEntity
  8
0
100
AcDbCircle
 10
102.9054898541602
 20
361.8511480169672
 30
0.0
 40
2.0
100
AcDbArc
 50
90.50000000001761
 51
180.0
  0
LINE
  5
3228
330
2
100
AcDbEntity
  8
0
100
AcDbLine
 10
100.9054898541602
 20
361.8511480169672
 30
0.0
 11
100.9054898541602
 21
322.1305600998074
 31
0.0
  0
LINE
  5
3229
330
2
100
AcDbEntity
  8
0
100
AcDbLine
 10
122.9054898541606
 20
361.9558704304635
 30
0.0
 11
122.9054898541602
 21
355.9821271906002
 31
0.0
  0
LINE
  5
322A
330
2
100
AcDbEntity
  8
0
100
AcDbLine
 10
122.9054898541602
 20
349.9821271906002
 30
0.0
 11
122.9054898541602
 21
333.9821271906011
 31
0.0
  0
LINE
  5
322B
330
2
100
AcDbEntity
  8
0
100
AcDbLine
 10
122.9054898541602
 20
327.982127190602
 30
0.0
 11
122.9054898541602
 21
321.9821271905948
 31
0.0
  0
ARC
  5
322C
330
2
100
AcDbEntity
  8
0
100
AcDbCircle
 10
120.9054898541606
 20
361.9558704304635
 30
0.0
 40
2.0
100
AcDbArc
 50
0.0
 51
89.50000000008662
  0
LINE
  5
322D
330
2
100
AcDbEntity
  8
0
100
AcDbLine
 10
120.9229429251548
 20
363.9557942765877
 30
0.0
 11
117.9054898541602
 21
363.982127190602
 31
0.0
  0
LINE
  5
322E
330
2
100
AcDbEntity
  8
0
100
AcDbLine
 10
102.8880367831628
 20
320.1131825180909
 30
0.0
 11
117.9054898541602
 21
319.9821271905802
 31
0.0
  0
ARC
  5
322F
330
2
100
AcDbEntity
  8
0
100
AcDbCircle
 10
102.9054898541602
 20
322.1131063642223
 30
0.0
 40
2.0
100
AcDbArc
 50
180.0
 51
269.4999999999824
  0
ARC
  5
3230
330
2
100
AcDbEntity
  8
0
100
AcDbCircle
 10
120.9054898541606
 20
322.0083839507259
 30
0.0
 40
2.0
100
AcDbArc
 50
270.4999999999133
 51
0.0
  0
LINE
  5
3231
330
2
100
AcDbEntity
  8
0
100
AcDbLine
 10
120.9229429251548
 20
320.0084601045945
 30
0.0
 11
117.9054898541602
 21
319.9821271905802
 31
0.0
  0
ARC
  5
3232
330
2
100
AcDbEntity
  8
0
100
AcDbCircle
 10
111.9054898541593
 20
352.9821271906002
 30
0.0
 40
9.0
100
AcDbArc
 50
19.47122063447236
 51
340.5287793655276
  0
LINE
  5
3233
330
2
100
AcDbEntity
  8
0
100
AcDbLine
 10
111.9054898541593
 20
355.9821271906002
 30
0.0
 11
135.2514253135553
 21
355.9821271906002
 31
0.0
  0
LINE
  5
3234
330
2
100
AcDbEntity
  8
0
100
AcDbLine
 10
111.9054898541593
 20
349.9821271906002
 30
0.0
 11
136.4242058516277
 21
349.9821271906002
 31
0.0
  0
LINE
  5
3235
330
2
100
AcDbEntity
  8
0
100
AcDbLine
 10
107.245544540999
 20
359.9108651477144
 30
0.0
 11
103.5750541105529
 21
353.553389233486
 31
0.0
  0
LINE
  5
3236
330
2
100
AcDbEntity
  8
0
100
AcDbLine
 10
118.8336930844346
 20
355.9821271906002
 30
0.0
 11
116.5654351673195
 21
359.9108651477144
 31
0.0
  0
ARC
  5
3237
330
2
100
AcDbEntity
  8
0
100
AcDbCircle
 10
111.9054898541593
 20
352.9821271906002
 30
0.0
 40
8.349999999999999
100
AcDbArc
 50
176.0770669291864
 51
183.9229330707613
  0
ARC
  5
3238
330
2
100
AcDbEntity
  8
0
100
AcDbCircle
 10
111.9054898541593
 20
352.9821271906002
 30
0.0
 40
3.0
100
AcDbArc
 50
90.0
 51
270.0
  0
ARC
  5
3239
330
2
100
AcDbEntity
  8
0
100
AcDbCircle
 10
111.9054898541593
 20
352.9821271906002
 30
0.0
 40
8.349999999999999
100
AcDbArc
 50
116.0770669291885
 51
123.9229330707909
  0
ARC
  5
323A
330
2
100
AcDbEntity
  8
0
100
AcDbCircle
 10
111.9054898541593
 20
352.9821271906002
 30
0.0
 40
8.349999999999999
100
AcDbArc
 50
56.07706692920904
 51
63.92293307081149
  0
LINE
  5
323B
330
2
100
AcDbEntity
  8
0
100
AcDbLine
 10
115.5759802846053
 20
360.4821271906002
 30
0.0
 11
108.2349994237123
 21
360.4821271906002
 31
0.0
  0
ARC
  5
323C
330
2
100
AcDbEntity
  8
0
100
AcDbCircle
 10
111.9054898541593
 20
352.9821271906002
 30
0.0
 40
8.349999999999999
100
AcDbArc
 50
236.077066929209
 51
243.9229330708114
  0
LINE
  5
323D
330
2
100
AcDbEntity
  8
0
100
AcDbLine
 10
108.2349994237123
 20
345.4821271906002
 30
0.0
 11
115.5759802846053
 21
345.4821271906002
 31
0.0
  0
ARC
  5
323E
330
2
100
AcDbEntity
  8
0
100
AcDbCircle
 10
111.9054898541593
 20
352.9821271906002
 30
0.0
 40
8.349999999999999
100
AcDbArc
 50
296.0770669291885
 51
303.9229330707909
  0
ARC
  5
323F
330
2
100
AcDbEntity
  8
0
100
AcDbCircle
 10
111.9054898541593
 20
352.9821271906002
 30
0.0
 40
7.5
100
AcDbArc
 50
23.57817847818299
 51
336.421821521768
  0
LINE
  5
3240
330
2
100
AcDbEntity
  8
0
100
AcDbLine
 10
103.5750541105529
 20
352.4108651477144
 30
0.0
 11
107.245544540999
 21
346.053389233486
 31
0.0
  0
LINE
  5
3241
330
2
100
AcDbEntity
  8
0
100
AcDbLine
 10
116.5654351673186
 20
346.053389233486
 30
0.0
 11
118.8336930844346
 21
349.9821271906002
 31
0.0
  0
ARC
  5
3242
330
2
100
AcDbEntity
  8
0
100
AcDbCircle
 10
111.9054898541593
 20
330.982127190602
 30
0.0
 40
9.0
100
AcDbArc
 50
19.47122063447236
 51
340.5287793655276
  0
LINE
  5
3243
330
2
100
AcDbEntity
  8
0
100
AcDbLine
 10
107.2455445409994
 20
337.9108651477162
 30
0.0
 11
103.5750541105529
 21
331.5533892334878
 31
0.0
  0
LINE
  5
3244
330
2
100
AcDbEntity
  8
0
100
AcDbLine
 10
118.8336930844346
 20
333.982127190602
 30
0.0
 11
116.5654351673195
 21
337.9108651477162
 31
0.0
  0
ARC
  5
3245
330
2
100
AcDbEntity
  8
0
100
AcDbCircle
 10
111.9054898541593
 20
330.982127190602
 30
0.0
 40
8.349999999999999
100
AcDbArc
 50
176.0770669291864
 51
183.9229330707613
  0
ARC
  5
3246
330
2
100
AcDbEntity
  8
0
100
AcDbCircle
 10
111.9054898541593
 20
330.982127190602
 30
0.0
 40
3.0
100
AcDbArc
 50
90.0
 51
270.0
  0
ARC
  5
3247
330
2
100
AcDbEntity
  8
0
100
AcDbCircle
 10
111.9054898541593
 20
330.982127190602
 30
0.0
 40
8.349999999999999
100
AcDbArc
 50
116.0770669291885
 51
123.9229330707909
  0
ARC
  5
3248
330
2
100
AcDbEntity
  8
0
100
AcDbCircle
 10
111.9054898541593
 20
330.982127190602
 30
0.0
 40
8.349999999999999
100
AcDbArc
 50
56.07706692920904
 51
63.92293307081149
  0
LINE
  5
3249
330
2
100
AcDbEntity
  8
0
100
AcDbLine
 10
115.5759802846058
 20
338.482127190602
 30
0.0
 11
108.2349994237127
 21
338.482127190602
 31
0.0
  0
ARC
  5
324A
330
2
100
AcDbEntity
  8
0
100
AcDbCircle
 10
111.9054898541593
 20
330.982127190602
 30
0.0
 40
8.349999999999999
100
AcDbArc
 50
236.077066929209
 51
243.9229330708114
  0
LINE
  5
324B
330
2
100
AcDbEntity
  8
0
100
AcDbLine
 10
108.2349994237127
 20
323.482127190602
 30
0.0
 11
115.5759802846058
 21
323.482127190602
 31
0.0
  0
ARC
  5
324C
330
2
100
AcDbEntity
  8
0
100
AcDbCircle
 10
111.9054898541593
 20
330.982127190602
 30
0.0
 40
8.349999999999999
100
AcDbArc
 50
296.0770669291885
 51
303.9229330707909
  0
ARC
  5
324D
330
2
100
AcDbEntity
  8
0
100
AcDbCircle
 10
111.9054898541593
 20
330.982127190602
 30
0.0
 40
7.5
100
AcDbArc
 50
23.57817847818299
 51
336.421821521768
  0
LINE
  5
324E
330
2
100
AcDbEntity
  8
0
100
AcDbLine
 10
103.5750541105529
 20
330.4108651477162
 30
0.0
 11
107.245544540999
 21
324.0533892334878
 31
0.0
  0
LINE
  5
324F
330
2
100
AcDbEntity
  8
0
100
AcDbLine
 10
116.5654351673191
 20
324.0533892334878
 30
0.0
 11
118.8336930844346
 21
327.982127190602
 31
0.0
  0
SPLINE
  5
3250
330
2
100
AcDbEntity
  8
HOJO
100
AcDbSpline
210
0.0
220
0.0
230
1.0
 70
     8
 71
     3
 72
    11
 73
     7
 74
     5
 42
0.0000000001
 43
0.0000000001
 44
0.0000000001
 40
0.0
 40
0.0
 40
0.0
 40
0.0
 40
2.265619093443912
 40
4.733604272228994
 40
6.146936172708081
 40
7.173597515630556
 40
7.173597515630556
 40
7.173597515630556
 40
7.173597515630556
 10
135.2514253135558
 20
355.9821271906002
 30
0.0
 10
134.6610836038166
 20
355.2524953979221
 30
0.0
 10
133.4276706054081
 20
353.7280607826908
 30
0.0
 10
136.483487173347
 20
352.4955449826082
 30
0.0
 10
135.1769742198903
 20
350.5330274799283
 30
0.0
 10
136.0548340350566
 20
350.1452781526514
 30
0.0
 10
136.4242058516277
 20
349.9821271906002
 30
0.0
 11
135.2514253135558
 21
355.9821271906002
 31
0.0
 11
134.302028730978
 21
353.9250233999354
 31
0.0
 11
135.8098911109822
 21
351.9712317309822
 31
0.0
 11
135.5865032163609
 21
350.5756655700824
 31
0.0
 11
136.4242058516277
 21
349.9821271906002
 31
0.0
  0
LINE
  5
3251
330
2
100
AcDbEntity
  8
0
100
AcDbLine
 10
111.9054898541593
 20
327.9821271906011
 30
0.0
 11
135.2514253135553
 21
327.9821271906011
 31
0.0
  0
LINE
  5
3252
330
2
100
AcDbEntity
  8
0
100
AcDbLine
 10
111.9054898541593
 20
333.9821271906011
 30
0.0
 11
136.4242058516277
 21
333.9821271906011
 31
0.0
  0
SPLINE
  5
3253
330
2
100
AcDbEntity
  8
HOJO
100
AcDbSpline
210
0.0
220
0.0
230
1.0
 70
     8
 71
     3
 72
    11
 73
     7
 74
     5
 42
0.0000000001
 43
0.0000000001
 44
0.0000000001
 40
0.0
 40
0.0
 40
0.0
 40
0.0
 40
2.265619093443912
 40
4.733604272228994
 40
6.146936172709877
 40
7.173597515631301
 40
7.173597515631301
 40
7.173597515631301
 40
7.173597515631301
 10
135.2514253135558
 20
327.9821271906002
 30
0.0
 10
134.6610836038167
 20
328.7117589832782
 30
0.0
 10
133.4276706054082
 20
330.2361935985096
 30
0.0
 10
136.4834871733476
 20
331.4687093985923
 30
0.0
 10
135.1769742198896
 20
333.4312269012738
 30
0.0
 10
136.0548340350568
 20
333.8189762285497
 30
0.0
 10
136.4242058516277
 20
333.9821271906002
 30
0.0
 11
135.2514253135558
 21
327.9821271906002
 31
0.0
 11
134.302028730978
 21
330.039230981265
 31
0.0
 11
135.8098911109822
 21
331.9930226502183
 31
0.0
 11
135.5865032163609
 21
333.3885888111198
 31
0.0
 11
136.4242058516277
 21
333.9821271906002
 31
0.0
  0
LINE
  5
3254
330
2
100
AcDbEntity
  8
0
100
AcDbLine
 10
131.4054998541599
 20
349.9821721906009
 30
0.0
 11
131.4054998541599
 21
333.9820821906013
 31
0.0
  0
LINE
  5
3255
330
2
100
AcDbEntity
  8
0
100
AcDbLine
 10
130.905499854159
 20
333.9820821906013
 30
0.0
 11
130.9054998541595
 21
349.9821721906009
 31
0.0
  0
LINE
  5
3256
330
2
100
AcDbEntity
  8
0
100
AcDbLine
 10
131.4054998541599
 20
312.9821271906011
 30
0.0
 11
140.4054998541599
 21
312.9821271906011
 31
0.0
  0
LINE
  5
3257
330
2
100
AcDbEntity
  8
0
100
AcDbLine
 10
131.4054998541599
 20
296.9821271906011
 30
0.0
 11
140.4054998541599
 21
296.9821271906011
 31
0.0
  0
LINE
  5
3258
330
2
100
AcDbEntity
  8
0
100
AcDbLine
 10
131.4054998541599
 20
327.9820821906013
 30
0.0
 11
131.4054998541599
 21
296.9821271906011
 31
0.0
  0
LINE
  5
3259
330
2
100
AcDbEntity
  8
0
100
AcDbLine
 10
130.9054998541586
 20
297.482127190602
 30
0.0
 11
130.905499854159
 21
327.9820821906013
 31
0.0
  0
LINE
  5
325A
330
2
100
AcDbEntity
  8
0
100
AcDbLine
 10
130.9054998541586
 20
297.482127190602
 30
0.0
 11
131.4054998541599
 21
296.9821271906011
 31
0.0
  0
LINE
  5
325B
330
2
100
AcDbEntity
  8
0
100
AcDbLine
 10
131.4054998541599
 20
312.9821271906011
 30
0.0
 11
130.9054998541599
 21
313.4821271906011
 31
0.0
  0
LINE
  5
325C
330
2
100
AcDbEntity
  8
0
100
AcDbLine
 10
131.4054998541599
 20
386.9821271906011
 30
0.0
 11
140.4054998541599
 21
386.9821271906011
 31
0.0
  0
LINE
  5
325D
330
2
100
AcDbEntity
  8
0
100
AcDbLine
 10
131.4054998541599
 20
370.9821271906011
 30
0.0
 11
140.4054998541599
 21
370.9821271906011
 31
0.0
  0
LINE
  5
325E
330
2
100
AcDbEntity
  8
0
100
AcDbLine
 10
130.9054998541595
 20
355.9821721906009
 30
0.0
 11
130.9054998541599
 21
386.4821271906011
 31
0.0
  0
LINE
  5
325F
330
2
100
AcDbEntity
  8
0
100
AcDbLine
 10
131.4054998541599
 20
386.9821271906011
 30
0.0
 11
131.4054998541599
 21
355.9821721906009
 31
0.0
  0
LINE
  5
3260
330
2
100
AcDbEntity
  8
0
100
AcDbLine
 10
131.4054998541599
 20
386.9821271906011
 30
0.0
 11
130.9054998541599
 21
386.4821271906011
 31
0.0
  0
LINE
  5
3261
330
2
100
AcDbEntity
  8
0
100
AcDbLine
 10
131.4054998541599
 20
370.9821271906011
 30
0.0
 11
130.9054998541599
 21
370.4821271906011
 31
0.0
  0
LINE
  5
3262
330
2
100
AcDbEntity
  8
CENTER
  6
CENTERX2
100
AcDbLine
 10
125.326832388482
 20
317.9821271906011
 30
0.0
 11
145.4054998541599
 21
317.9821271906011
 31
0.0
  0
ARC
  5
3263
330
2
100
AcDbEntity
  8
0
100
AcDbCircle
 10
129.1103099986983
 20
316.3581836365301
 30
0.0
 40
1.59999999999961
100
AcDbArc
 50
192.6768384788915
 51
255.0000000000055
  0
LINE
  5
3264
330
2
100
AcDbEntity
  8
0
100
AcDbLine
 10
129.9299226845131
 20
314.1821271906009
 30
0.0
 11
129.9299226845131
 21
321.7821271906013
 31
0.0
  0
LINE
  5
3265
330
2
100
AcDbEntity
  8
0
100
AcDbLine
 10
130.9299246845133
 20
314.1821271906009
 30
0.0
 11
129.9299226845131
 21
314.1821271906009
 31
0.0
  0
LINE
  5
3266
330
2
100
AcDbEntity
  8
0
100
AcDbLine
 10
129.9299226845131
 20
314.4821271906038
 30
0.0
 11
128.6961995265345
 21
314.8127023144679
 31
0.0
  0
ARC
  5
3267
330
2
100
AcDbEntity
  8
0
100
AcDbCircle
 10
129.1103099986938
 20
319.6060707446712
 30
0.0
 40
1.59999999999961
100
AcDbArc
 50
104.9999999999944
 51
167.3231615211614
  0
ARC
  5
3268
330
2
100
AcDbEntity
  8
0
100
AcDbCircle
 10
136.329922684525
 20
317.9821271906011
 30
0.0
 40
9.000000000010642
100
AcDbArc
 50
167.3231615211614
 51
192.6768384788915
  0
LINE
  5
3269
330
2
100
AcDbEntity
  8
0
100
AcDbLine
 10
128.6961995265299
 20
321.1515520667334
 30
0.0
 11
129.9299226845131
 21
321.4821271905984
 31
0.0
  0
LINE
  5
326A
330
2
100
AcDbEntity
  8
0
100
AcDbLine
 10
130.8810750238061
 20
321.7821271906013
 30
0.0
 11
129.9299226845131
 21
321.7821271906013
 31
0.0
  0
LINE
  5
326B
330
2
100
AcDbEntity
  8
0
100
AcDbLine
 10
129.9299226845131
 20
369.7821271906013
 30
0.0
 11
129.9299226845131
 21
362.1821271906009
 31
0.0
  0
LINE
  5
326C
330
2
100
AcDbEntity
  8
CENTER
  6
CENTERX2
100
AcDbLine
 10
125.326832388482
 20
365.9821271906011
 30
0.0
 11
145.4054998541599
 21
365.9821271906011
 31
0.0
  0
ARC
  5
326D
330
2
100
AcDbEntity
  8
0
100
AcDbCircle
 10
129.1103099986983
 20
367.6060707446722
 30
0.0
 40
1.59999999999961
100
AcDbArc
 50
104.9999999999944
 51
167.3231615211084
  0
ARC
  5
326E
330
2
100
AcDbEntity
  8
0
100
AcDbCircle
 10
129.1103099986938
 20
364.358183636531
 30
0.0
 40
1.59999999999961
100
AcDbArc
 50
192.6768384788385
 51
255.0000000000055
  0
ARC
  5
326F
330
2
100
AcDbEntity
  8
0
100
AcDbCircle
 10
136.329922684525
 20
365.9821271906011
 30
0.0
 40
9.000000000010642
100
AcDbArc
 50
167.3231615211084
 51
192.6768384788385
  0
LINE
  5
3270
330
2
100
AcDbEntity
  8
0
100
AcDbLine
 10
130.8810750238061
 20
362.1821271906009
 30
0.0
 11
129.9299226845131
 21
362.1821271906009
 31
0.0
  0
LINE
  5
3271
330
2
100
AcDbEntity
  8
0
100
AcDbLine
 10
129.9299226845131
 20
369.4821271905984
 30
0.0
 11
128.6961995265345
 21
369.1515520667343
 31
0.0
  0
LINE
  5
3272
330
2
100
AcDbEntity
  8
0
100
AcDbLine
 10
128.6961995265299
 20
362.8127023144688
 30
0.0
 11
129.9299226845131
 21
362.4821271906038
 31
0.0
  0
LINE
  5
3273
330
2
100
AcDbEntity
  8
0
100
AcDbLine
 10
130.9299246845133
 20
369.7821271906013
 30
0.0
 11
129.9299226845131
 21
369.7821271906013
 31
0.0
  0
LINE
  5
3274
330
2
100
AcDbEntity
  8
0
100
AcDbLine
 10
140.4054998541599
 20
386.9821271906011
 30
0.0
 11
140.4054998541599
 21
296.9821271906011
 31
0.0
  0
LINE
  5
3347
330
2
100
AcDbEntity
  8
0
100
AcDbLine
 10
130.9054998541598
 20
167.5403860944284
 30
0.0
 11
130.9054998541598
 21
78.84774651501039
 31
0.0
  0
LINE
  5
3348
330
2
100
AcDbEntity
  8
0
100
AcDbLine
 10
131.4054421826642
 20
168.0479800964099
 30
0.0
 11
131.4054374844597
 21
78.32685635539701
 31
0.0
  0
LINE
  5
3349
330
2
100
AcDbEntity
  8
0
100
AcDbLine
 10
140.4054998541598
 20
168.1846887633505
 30
0.0
 11
140.4054998541598
 21
78.18468876335145
 31
0.0
  0
LINE
  5
334A
330
2
100
AcDbEntity
  8
0
100
AcDbLine
 10
131.40543748514
 20
78.32685635538701
 30
0.0
 11
140.4054998541598
 21
78.18468876335145
 31
0.0
  0
LINE
  5
334B
330
2
100
AcDbEntity
  8
0
100
AcDbLine
 10
140.4054998541598
 20
88.77538769517968
 30
0.0
 11
131.4054380398181
 21
88.93248435850773
 31
0.0
  0
LINE
  5
334C
330
2
100
AcDbEntity
  8
0
100
AcDbLine
 10
130.9054998541598
 20
78.83475351501193
 30
0.0
 11
131.40543748514
 21
78.32685635538701
 31
0.0
  0
LINE
  5
334D
330
2
100
AcDbEntity
  8
0
100
AcDbLine
 10
131.405442181978
 20
168.0479800957132
 30
0.0
 11
140.4054998541598
 21
168.1846887633505
 31
0.0
  0
LINE
  5
334E
330
2
100
AcDbEntity
  8
0
100
AcDbLine
 10
140.4054998541598
 20
157.5939898315214
 30
0.0
 11
131.4054416270198
 21
157.4368932308084
 31
0.0
  0
LINE
  5
334F
330
2
100
AcDbEntity
  8
0
100
AcDbLine
 10
130.9054998541598
 20
167.5403860944284
 30
0.0
 11
131.405442181978
 21
168.0479800957132
 31
0.0
  0
ARC
  5
3350
330
2
100
AcDbEntity
  8
0
100
AcDbCircle
 10
136.3054978541715
 20
163.1846887633496
 30
0.0
 40
9.000000000010642
100
AcDbArc
 50
167.32316152111
 51
192.6768384788899
  0
ARC
  5
3351
330
2
100
AcDbEntity
  8
0
100
AcDbCircle
 10
129.0858851683408
 20
164.8086323174197
 30
0.0
 40
1.59999999999961
100
AcDbArc
 50
104.9999999999944
 51
167.32316152111
  0
LINE
  5
3352
330
2
100
AcDbEntity
  8
0
100
AcDbLine
 10
129.9054978541596
 20
159.3846887633494
 30
0.0
 11
129.9054978541596
 21
166.9846887633498
 31
0.0
  0
LINE
  5
3353
330
2
100
AcDbEntity
  8
0
100
AcDbLine
 10
128.6717746961769
 20
166.3541136394819
 30
0.0
 11
129.9054978541596
 21
166.6846887633469
 31
0.0
  0
LINE
  5
3354
330
2
100
AcDbEntity
  8
0
100
AcDbLine
 10
130.9054998541598
 20
166.9846887633498
 30
0.0
 11
129.9054978541596
 21
166.9846887633498
 31
0.0
  0
ARC
  5
3355
330
2
100
AcDbEntity
  8
0
100
AcDbCircle
 10
129.0858851683453
 20
161.5607452092785
 30
0.0
 40
1.59999999999961
100
AcDbArc
 50
192.6768384788899
 51
255.0000000000055
  0
LINE
  5
3356
330
2
100
AcDbEntity
  8
0
100
AcDbLine
 10
129.9054978541596
 20
159.6846887633523
 30
0.0
 11
128.6717746961814
 21
160.0152638872164
 31
0.0
  0
LINE
  5
3357
330
2
100
AcDbEntity
  8
0
100
AcDbLine
 10
130.9054998541598
 20
159.3846887633494
 30
0.0
 11
129.9054978541596
 21
159.3846887633494
 31
0.0
  0
LINE
  5
3358
330
2
100
AcDbEntity
  8
CENTER
  6
CENTERX2
100
AcDbLine
 10
125.3024075581286
 20
163.1846887633496
 30
0.0
 11
145.4055098541596
 21
163.1846887633496
 31
0.0
  0
LINE
  5
3359
330
2
100
AcDbEntity
  8
CENTER
  6
CENTERX2
100
AcDbLine
 10
125.3024075581286
 20
83.18468876335055
 30
0.0
 11
145.4055098541596
 21
83.18468876335055
 31
0.0
  0
ARC
  5
335A
330
2
100
AcDbEntity
  8
0
100
AcDbCircle
 10
129.0858851683453
 20
84.80863231742251
 30
0.0
 40
1.59999999999961
100
AcDbArc
 50
104.9999999999944
 51
167.32316152111
  0
LINE
  5
335B
330
2
100
AcDbEntity
  8
0
100
AcDbLine
 10
129.9054978541596
 20
86.68468876334873
 30
0.0
 11
128.6717746961814
 21
86.35411363948469
 31
0.0
  0
LINE
  5
335C
330
2
100
AcDbEntity
  8
0
100
AcDbLine
 10
130.9054998541598
 20
86.98468876335073
 30
0.0
 11
129.9054978541596
 21
86.98468876335073
 31
0.0
  0
LINE
  5
335D
330
2
100
AcDbEntity
  8
0
100
AcDbLine
 10
129.9054978541596
 20
86.98468876335073
 30
0.0
 11
129.9054978541596
 21
79.38468876335128
 31
0.0
  0
LINE
  5
335E
330
2
100
AcDbEntity
  8
0
100
AcDbLine
 10
128.6717746961769
 20
80.01526388721822
 30
0.0
 11
129.9054978541596
 21
79.68468876335328
 31
0.0
  0
LINE
  5
335F
330
2
100
AcDbEntity
  8
0
100
AcDbLine
 10
130.9054998541598
 20
79.38468876335128
 30
0.0
 11
129.9054978541596
 21
79.38468876335128
 31
0.0
  0
ARC
  5
3360
330
2
100
AcDbEntity
  8
0
100
AcDbCircle
 10
136.3054978541715
 20
83.18468876335055
 30
0.0
 40
9.000000000010642
100
AcDbArc
 50
167.32316152111
 51
192.6768384788899
  0
ARC
  5
3361
330
2
100
AcDbEntity
  8
0
100
AcDbCircle
 10
129.0858851683408
 20
81.56074520928042
 30
0.0
 40
1.59999999999961
100
AcDbArc
 50
192.6768384788899
 51
255.0000000000055
  0
LINE
  5
3362
330
2
100
AcDbEntity
  8
0
100
AcDbLine
 10
99.88804678317571
 20
82.45537397550696
 30
0.0
 11
127.3578187272707
 21
82.21564890750824
 31
0.0
  0
LINE
  5
3363
330
2
100
AcDbEntity
  8
0
 48
0.0
100
AcDbLine
 10
97.90549985417261
 20
84.45529782163475
 30
0.0
 11
97.90549985418715
 21
161.9140797050663
 31
0.0
  0
LINE
  5
3364
330
2
100
AcDbEntity
  8
CENTER
100
AcDbLine
 10
111.9054998541589
 20
203.5553685019963
 30
0.0
 11
111.9054998541589
 21
156.2092622808809
 31
0.0
  0
LINE
  5
3365
330
2
100
AcDbEntity
  8
0
100
AcDbLine
 10
100.905514854159
 20
166.1846887633505
 30
0.0
 11
100.905514854159
 21
157.2043201015535
 31
0.0
  0
LINE
  5
3366
330
2
100
AcDbEntity
  8
0
100
AcDbLine
 10
122.9054998541589
 20
157.2043201015535
 30
0.0
 11
122.9054998541589
 21
166.1846887633505
 31
0.0
  0
LINE
  5
3367
330
2
100
AcDbEntity
  8
0
100
AcDbLine
 10
130.9054998541607
 20
82.18468876334965
 30
0.0
 11
130.9054998541589
 21
164.1846887633505
 31
0.0
  0
LINE
  5
3368
330
2
100
AcDbEntity
  8
0
100
AcDbLine
 10
99.88804678317571
 20
163.9140035511941
 30
0.0
 11
99.91424138965726
 21
163.9142321480617
 31
0.0
  0
LINE
  5
3369
330
2
100
AcDbEntity
  8
0
100
AcDbLine
 10
121.9054998541589
 20
167.1846887633505
 30
0.0
 11
101.905514854159
 21
167.1846887633505
 31
0.0
  0
ARC
  5
336A
330
2
100
AcDbEntity
  8
0
100
AcDbCircle
 10
101.905514854159
 20
166.1846887633505
 30
0.0
 40
1.0
100
AcDbArc
 50
90.0
 51
179.9999999999479
  0
ARC
  5
336B
330
2
100
AcDbEntity
  8
0
100
AcDbCircle
 10
121.9054998541589
 20
166.1846887633505
 30
0.0
 40
1.0
100
AcDbArc
 50
0.0
 51
90.0
  0
ARC
  5
336C
330
2
100
AcDbEntity
  8
0
100
AcDbCircle
 10
99.9054998541726
 20
84.45529782163475
 30
0.0
 40
2.0
100
AcDbArc
 50
179.9999999999479
 51
269.4999999999824
  0
ARC
  5
336D
330
2
100
AcDbEntity
  8
0
100
AcDbCircle
 10
123.9054998541589
 20
165.1236387672001
 30
0.0
 40
1.0
100
AcDbArc
 50
180.0
 51
270.5000000000175
  0
ARC
  5
336E
330
2
100
AcDbEntity
  8
0
100
AcDbCircle
 10
99.9054998541726
 20
161.9140797050654
 30
0.0
 40
2.0
100
AcDbArc
 50
90.50000000001761
 51
180.0
  0
ARC
  5
336F
330
2
100
AcDbEntity
  8
0
100
AcDbCircle
 10
99.90551485415904
 20
164.9141940711256
 30
0.0
 40
1.0
100
AcDbArc
 50
270.5000000000175
 51
0.0
  0
LINE
  5
3370
330
2
100
AcDbEntity
  8
0
100
AcDbLine
 10
123.9142263896571
 20
164.1236768441363
 30
0.0
 11
127.3578187272707
 21
164.1537286191919
 31
0.0
  0
LINE
  5
3371
330
2
100
AcDbEntity
  8
0
100
AcDbLine
 10
101.905514854159
 20
157.7823765473626
 30
0.0
 11
121.9054998541589
 21
157.7823765473626
 31
0.0
  0
ARC
  5
3372
330
2
100
AcDbEntity
  8
0
100
AcDbCircle
 10
106.4054998541589
 20
189.6846887633505
 30
0.0
 40
2.0
100
AcDbArc
 50
90.0
 51
180.0
  0
ARC
  5
3373
330
2
100
AcDbEntity
  8
0
100
AcDbCircle
 10
117.4054998541589
 20
189.6846887633505
 30
0.0
 40
2.0
100
AcDbArc
 50
0.0
 51
90.0
  0
LINE
  5
3374
330
2
100
AcDbEntity
  8
0
100
AcDbLine
 10
119.4054998541585
 20
173.0846887633501
 30
0.0
 11
104.4054998541589
 21
173.0846887633501
 31
0.0
  0
LINE
  5
3375
330
2
100
AcDbEntity
  8
0
100
AcDbLine
 10
102.9054998541589
 20
168.0846887633501
 30
0.0
 11
120.9054998541589
 21
168.0846887633501
 31
0.0
  0
LINE
  5
3376
330
2
100
AcDbEntity
  8
0
100
AcDbLine
 10
108.2350094237128
 20
172.6052364632346
 30
0.0
 11
107.2455545409991
 21
172.6052364632346
 31
0.0
  0
LINE
  5
3377
330
2
100
AcDbEntity
  8
0
100
AcDbLine
 10
102.9054998541589
 20
167.1846887633496
 30
0.0
 11
102.9054998541589
 21
168.0846887633501
 31
0.0
  0
ARC
  5
3378
330
2
100
AcDbEntity
  8
0
100
AcDbCircle
 10
105.4103093257756
 20
169.3326767432458
 30
0.0
 40
3.752035730226079
100
AcDbArc
 50
60.71637525430265
 51
119.2836247456973
  0
LINE
  5
3379
330
2
100
AcDbEntity
  8
0
100
AcDbLine
 10
103.5750641105525
 20
172.6052364632346
 30
0.0
 11
103.5750641105525
 21
168.0846887633501
 31
0.0
  0
LINE
  5
337A
330
2
100
AcDbEntity
  8
0
100
AcDbLine
 10
103.5750641105525
 20
172.6052364632346
 30
0.0
 11
104.4054998541589
 21
173.0846887633501
 31
0.0
  0
LINE
  5
337B
330
2
100
AcDbEntity
  8
0
100
AcDbLine
 10
107.2455545409986
 20
172.6052364632346
 30
0.0
 11
107.2455545409986
 21
168.0846887633501
 31
0.0
  0
ARC
  5
337C
330
2
100
AcDbEntity
  8
0
100
AcDbCircle
 10
118.4006903825422
 20
169.3326767432458
 30
0.0
 40
3.752035730226079
100
AcDbArc
 50
60.71637525430265
 51
119.2836247456973
  0
LINE
  5
337D
330
2
100
AcDbEntity
  8
0
100
AcDbLine
 10
115.5759902846059
 20
172.6052364632346
 30
0.0
 11
115.5759902846059
 21
168.0846887633501
 31
0.0
  0
LINE
  5
337E
330
2
100
AcDbEntity
  8
0
100
AcDbLine
 10
116.5654451673187
 20
172.6052364632346
 30
0.0
 11
116.5654451673187
 21
168.0846887633501
 31
0.0
  0
LINE
  5
337F
330
2
100
AcDbEntity
  8
0
100
AcDbLine
 10
115.5759902846055
 20
172.6052364632346
 30
0.0
 11
116.5654451673187
 21
172.6052364632346
 31
0.0
  0
LINE
  5
3380
330
2
100
AcDbEntity
  8
0
100
AcDbLine
 10
108.2350094237124
 20
172.6052364632346
 30
0.0
 11
108.2350094237124
 21
168.0846887633501
 31
0.0
  0
ARC
  5
3381
330
2
100
AcDbEntity
  8
0
100
AcDbCircle
 10
111.9054998541589
 20
158.795076945063
 30
0.0
 40
14.28961181828743
100
AcDbArc
 50
75.11592111935481
 51
104.8840788806452
  0
LINE
  5
3382
330
2
100
AcDbEntity
  8
0
100
AcDbLine
 10
120.9054998541589
 20
167.1846887633505
 30
0.0
 11
120.9054998541589
 21
168.0846887633501
 31
0.0
  0
LINE
  5
3383
330
2
100
AcDbEntity
  8
0
100
AcDbLine
 10
120.2359355977657
 20
172.6052364632346
 30
0.0
 11
120.2359355977657
 21
168.0846887633501
 31
0.0
  0
LINE
  5
3384
330
2
100
AcDbEntity
  8
0
100
AcDbLine
 10
120.2359355977657
 20
172.6052364632346
 30
0.0
 11
119.4054998541585
 21
173.0846887633501
 31
0.0
  0
LINE
  5
3385
330
2
100
AcDbEntity
  8
0
100
AcDbLine
 10
120.2359355977657
 20
178.1846887633505
 30
0.0
 11
103.5750641105525
 21
178.1846887633505
 31
0.0
  0
LINE
  5
3386
330
2
100
AcDbEntity
  8
0
100
AcDbLine
 10
107.2455545409991
 20
186.7052364632341
 30
0.0
 11
107.2455545409991
 21
178.1846887633505
 31
0.0
  0
LINE
  5
3387
330
2
100
AcDbEntity
  8
0
100
AcDbLine
 10
103.5750641105525
 20
186.7052364632341
 30
0.0
 11
103.5750641105525
 21
178.1846887633505
 31
0.0
  0
LINE
  5
3388
330
2
100
AcDbEntity
  8
0
100
AcDbLine
 10
108.2350094237124
 20
186.7052364632341
 30
0.0
 11
108.2350094237124
 21
178.1846887633505
 31
0.0
  0
LINE
  5
3389
330
2
100
AcDbEntity
  8
0
100
AcDbLine
 10
115.5759902846059
 20
186.7052364632341
 30
0.0
 11
115.5759902846059
 21
178.1846887633505
 31
0.0
  0
LINE
  5
338A
330
2
100
AcDbEntity
  8
0
100
AcDbLine
 10
116.5654451673192
 20
186.7052364632341
 30
0.0
 11
116.5654451673192
 21
178.1846887633505
 31
0.0
  0
LINE
  5
338B
330
2
100
AcDbEntity
  8
0
100
AcDbLine
 10
120.2359355977657
 20
186.7052364632341
 30
0.0
 11
120.2359355977657
 21
178.1846887633505
 31
0.0
  0
LINE
  5
338C
330
2
100
AcDbEntity
  8
HOJO
100
AcDbLine
 10
106.6554998541589
 20
173.0846887633501
 30
0.0
 11
106.6554998541589
 21
178.1846887633505
 31
0.0
  0
LINE
  5
338D
330
2
100
AcDbEntity
  8
0
100
AcDbLine
 10
105.9054998541589
 20
173.0846887633501
 30
0.0
 11
105.9054998541589
 21
178.1846887633505
 31
0.0
  0
LINE
  5
338E
330
2
100
AcDbEntity
  8
HOJO
100
AcDbLine
 10
117.1554998541589
 20
173.0846887633501
 30
0.0
 11
117.1554998541589
 21
178.1846887633505
 31
0.0
  0
LINE
  5
338F
330
2
100
AcDbEntity
  8
0
100
AcDbLine
 10
117.9054998541589
 20
173.0846887633501
 30
0.0
 11
117.9054998541589
 21
178.1846887633505
 31
0.0
  0
LINE
  5
3390
330
2
100
AcDbEntity
  8
0
100
AcDbLine
 10
119.4054998541589
 20
187.1846887633505
 30
0.0
 11
104.4054998541594
 21
187.1846887633505
 31
0.0
  0
LINE
  5
3391
330
2
100
AcDbEntity
  8
0
100
AcDbLine
 10
108.2350094237128
 20
186.7052364632341
 30
0.0
 11
107.2455545409991
 21
186.7052364632341
 31
0.0
  0
ARC
  5
3392
330
2
100
AcDbEntity
  8
0
100
AcDbCircle
 10
105.4103093257761
 20
183.4326767432453
 30
0.0
 40
3.752035730226079
100
AcDbArc
 50
60.71637525430265
 51
119.2836247456973
  0
LINE
  5
3393
330
2
100
AcDbEntity
  8
0
100
AcDbLine
 10
103.5750641105525
 20
186.7052364632341
 30
0.0
 11
104.4054998541594
 21
187.1846887633505
 31
0.0
  0
LINE
  5
3394
330
2
100
AcDbEntity
  8
0
100
AcDbLine
 10
104.4054998541589
 20
189.6846887633505
 30
0.0
 11
104.4054998541589
 21
187.1846887633505
 31
0.0
  0
ARC
  5
3395
330
2
100
AcDbEntity
  8
0
100
AcDbCircle
 10
118.4006903825422
 20
183.4326767432453
 30
0.0
 40
3.752035730226079
100
AcDbArc
 50
60.71637525430265
 51
119.2836247456973
  0
LINE
  5
3396
330
2
100
AcDbEntity
  8
0
100
AcDbLine
 10
115.5759902846055
 20
186.7052364632341
 30
0.0
 11
116.5654451673192
 21
186.7052364632341
 31
0.0
  0
ARC
  5
3397
330
2
100
AcDbEntity
  8
0
100
AcDbCircle
 10
111.9054998541589
 20
172.8950769450625
 30
0.0
 40
14.28961181828743
100
AcDbArc
 50
75.11592111935481
 51
104.8840788806452
  0
LINE
  5
3398
330
2
100
AcDbEntity
  8
0
100
AcDbLine
 10
120.2359355977657
 20
186.7052364632341
 30
0.0
 11
119.4054998541589
 21
187.1846887633505
 31
0.0
  0
LINE
  5
3399
330
2
100
AcDbEntity
  8
0
100
AcDbLine
 10
119.4054998541589
 20
189.6846887633505
 30
0.0
 11
119.4054998541589
 21
187.1846887633505
 31
0.0
  0
LINE
  5
339A
330
2
100
AcDbEntity
  8
0
100
AcDbLine
 10
117.4054998541589
 20
191.6846887633505
 30
0.0
 11
106.4054998541589
 21
191.6846887633505
 31
0.0
  0
LINE
  5
339B
330
2
100
AcDbEntity
  8
0
100
AcDbLine
 10
168.9956789902105
 20
232.1101351494657
 30
0.0
 11
166.0139341517731
 21
231.8754667413654
 31
0.0
  0
LINE
  5
339C
330
2
100
AcDbEntity
  8
0
100
AcDbLine
 10
166.0139341517731
 20
230.9751269491866
 30
0.0
 11
168.9956789902105
 21
230.5925634204818
 31
0.0
  0
LINE
  5
339D
330
2
100
AcDbEntity
  8
0
100
AcDbLine
 10
168.9956789902105
 20
229.0909537433804
 30
0.0
 11
166.0139341517735
 21
229.4743072970036
 31
0.0
  0
LINE
  5
339E
330
2
100
AcDbEntity
  8
0
100
AcDbLine
 10
166.0139341517731
 20
233.3801050390898
 30
0.0
 11
168.9956789902105
 21
233.6147734471901
 31
0.0
  0
LINE
  5
339F
330
2
100
AcDbEntity
  8
0
100
AcDbLine
 10
119.9054789360932
 20
228.4104507665329
 30
0.0
 11
153.5162048346276
 21
228.4104507665329
 31
0.0
  0
LINE
  5
33A0
330
2
100
AcDbEntity
  8
0
100
AcDbLine
 10
119.9054782599102
 20
234.4103897665331
 30
0.0
 11
153.516182158444
 21
234.4103897665331
 31
0.0
  0
LINE
  5
33A1
330
2
100
AcDbEntity
  8
0
100
AcDbLine
 10
119.9054789360932
 20
202.1037614506972
 30
0.0
 11
163.516193496536
 21
202.1037614506972
 31
0.0
  0
LINE
  5
33A2
330
2
100
AcDbEntity
  8
0
100
AcDbLine
 10
119.9055009360934
 20
208.1037614506972
 30
0.0
 11
163.516193496536
 21
208.1037614506972
 31
0.0
  0
LINE
  5
33A3
330
2
100
AcDbEntity
  8
0
100
AcDbLine
 10
114.9054629360932
 20
191.6846887633505
 30
0.0
 11
114.9054629360932
 21
223.4104287665327
 31
0.0
  0
LINE
  5
33A4
330
2
100
AcDbEntity
  8
0
100
AcDbLine
 10
108.9055162599577
 20
223.4104831187064
 30
0.0
 11
108.9055367722246
 21
191.6846887633505
 31
0.0
  0
ARC
  5
33A5
330
2
100
AcDbEntity
  8
0
100
AcDbCircle
 10
119.9055009360934
 20
197.1037614506972
 30
0.0
 40
5.0
100
AcDbArc
 50
90.0
 51
180.0
  0
ARC
  5
33A6
330
2
100
AcDbEntity
  8
0
100
AcDbCircle
 10
119.9055389360935
 20
197.1038224506978
 30
0.0
 40
11.0
100
AcDbArc
 50
90.0
 51
117.0361362174502
  0
ARC
  5
33A7
330
2
100
AcDbEntity
  8
0
100
AcDbCircle
 10
119.9055162599099
 20
223.4104507665329
 30
0.0
 40
11.0
100
AcDbArc
 50
90.0
 51
179.9998314869998
  0
ARC
  5
33A8
330
2
100
AcDbEntity
  8
0
100
AcDbCircle
 10
119.9055009360934
 20
223.4104507665329
 30
0.0
 40
5.0
100
AcDbArc
 50
90.0
 51
180.0
  0
LINE
  5
33A9
330
2
100
AcDbEntity
  8
0
100
AcDbLine
 10
163.5771593120391
 20
227.4104202665335
 30
0.0
 11
153.516193496536
 21
227.4104202665335
 31
0.0
  0
LINE
  5
33AA
330
2
100
AcDbEntity
  8
0
100
AcDbLine
 10
153.516193496536
 20
235.4104202665335
 30
0.0
 11
163.5771593120391
 21
235.4104202665335
 31
0.0
  0
LINE
  5
33AB
330
2
100
AcDbEntity
  8
0
100
AcDbLine
 10
153.516193496536
 20
235.4104202665335
 30
0.0
 11
153.516193496536
 21
227.4104202665335
 31
0.0
  0
LINE
  5
33AC
330
2
100
AcDbEntity
  8
0
100
AcDbLine
 10
166.0139341517735
 20
234.4439920695599
 30
0.0
 11
166.0139341517735
 21
228.376848463507
 31
0.0
  0
LINE
  5
33AD
330
2
100
AcDbEntity
  8
0
100
AcDbLine
 10
164.5174054718079
 20
228.376848463507
 30
0.0
 11
166.0139341517735
 21
228.376848463507
 31
0.0
  0
LINE
  5
33AE
330
2
100
AcDbEntity
  8
0
100
AcDbLine
 10
163.5771593120391
 20
227.4104202665335
 30
0.0
 11
164.5174054718079
 21
228.376848463507
 31
0.0
  0
LINE
  5
33AF
330
2
100
AcDbEntity
  8
0
100
AcDbLine
 10
164.5174054718079
 20
234.4439920695599
 30
0.0
 11
166.0139341517735
 21
234.4439920695599
 31
0.0
  0
LINE
  5
33B0
330
2
100
AcDbEntity
  8
0
100
AcDbLine
 10
163.5771593120391
 20
235.4104202665335
 30
0.0
 11
164.5174054718079
 21
234.4439920695599
 31
0.0
  0
LINE
  5
33B1
330
2
100
AcDbEntity
  8
0
100
AcDbLine
 10
173.5771593120391
 20
201.0869755491844
 30
0.0
 11
163.516193496536
 21
201.0869755491844
 31
0.0
  0
LINE
  5
33B2
330
2
100
AcDbEntity
  8
0
100
AcDbLine
 10
163.516193496536
 20
209.0869755491844
 30
0.0
 11
173.5771593120391
 21
209.0869755491844
 31
0.0
  0
LINE
  5
33B3
330
2
100
AcDbEntity
  8
0
100
AcDbLine
 10
163.516193496536
 20
209.0869755491844
 30
0.0
 11
163.516193496536
 21
201.0869755491844
 31
0.0
  0
LINE
  5
33B4
330
2
100
AcDbEntity
  8
0
100
AcDbLine
 10
176.0139341517735
 20
208.1205473522109
 30
0.0
 11
176.0139341517735
 21
202.0534037461579
 31
0.0
  0
LINE
  5
33B5
330
2
100
AcDbEntity
  8
0
100
AcDbLine
 10
174.5174054718079
 20
202.0534037461579
 30
0.0
 11
176.0139341517735
 21
202.0534037461579
 31
0.0
  0
LINE
  5
33B6
330
2
100
AcDbEntity
  8
0
100
AcDbLine
 10
173.5771593120391
 20
201.0869755491844
 30
0.0
 11
174.5174054718079
 21
202.0534037461579
 31
0.0
  0
LINE
  5
33B7
330
2
100
AcDbEntity
  8
0
100
AcDbLine
 10
174.5174054718079
 20
208.1205473522109
 30
0.0
 11
176.0139341517735
 21
208.1205473522109
 31
0.0
  0
LINE
  5
33B8
330
2
100
AcDbEntity
  8
0
100
AcDbLine
 10
173.5771593120391
 20
209.0869755491844
 30
0.0
 11
174.5174054718079
 21
208.1205473522109
 31
0.0
  0
LINE
  5
33B9
330
2
100
AcDbEntity
  8
0
100
AcDbLine
 10
179.6956789902103
 20
226.5855341699075
 30
0.0
 11
169.9956789902105
 21
226.5855341699075
 31
0.0
  0
LINE
  5
33BA
330
2
100
AcDbEntity
  8
0
100
AcDbLine
 10
185.9956789902105
 20
229.8855341699068
 30
0.0
 11
172.8503962267952
 21
229.8855341699068
 31
0.0
  0
LINE
  5
33BB
330
2
100
AcDbEntity
  8
0
100
AcDbLine
 10
179.6956789902103
 20
236.1855341699069
 30
0.0
 11
169.9956789902105
 21
236.1855341699069
 31
0.0
  0
LINE
  5
33BC
330
2
100
AcDbEntity
  8
0
100
AcDbLine
 10
185.9956789902105
 20
232.8855341699068
 30
0.0
 11
172.8503962267952
 21
232.8855341699068
 31
0.0
  0
LINE
  5
33BD
330
2
100
AcDbEntity
  8
0
100
AcDbLine
 10
178.1805083149404
 20
228.685534169907
 30
0.0
 11
171.3306749312275
 21
228.685534169907
 31
0.0
  0
LINE
  5
33BE
330
2
100
AcDbEntity
  8
0
100
AcDbLine
 10
178.1805083149404
 20
234.0855341699075
 30
0.0
 11
171.3306749312275
 21
234.0855341699075
 31
0.0
  0
LINE
  5
33BF
330
2
100
AcDbEntity
  8
0
100
AcDbLine
 10
172.8503962267952
 20
234.0855341699075
 30
0.0
 11
172.8503962267952
 21
228.685534169907
 31
0.0
  0
LINE
  5
33C0
330
2
100
AcDbEntity
  8
0
100
AcDbLine
 10
171.3306749312275
 20
234.0855341699075
 30
0.0
 11
171.3306749312275
 21
228.685534169907
 31
0.0
  0
LINE
  5
33C1
330
2
100
AcDbEntity
  8
0
100
AcDbLine
 10
169.9956789902105
 20
236.4855341699071
 30
0.0
 11
169.9956789902105
 21
225.8855341699068
 31
0.0
  0
LINE
  5
33C2
330
2
100
AcDbEntity
  8
0
100
AcDbLine
 10
168.9956789902105
 20
236.9855341699071
 30
0.0
 11
168.9956789902105
 21
225.3855341699068
 31
0.0
  0
LINE
  5
33C3
330
2
100
AcDbEntity
  8
0
100
AcDbLine
 10
173.3116960846725
 20
229.8855341699068
 30
0.0
 11
173.3116960846725
 21
228.685534169907
 31
0.0
  0
ARC
  5
33C4
330
2
100
AcDbEntity
  8
0
100
AcDbCircle
 10
169.4956789902105
 20
225.8855341699068
 30
0.0
 40
0.5
100
AcDbArc
 50
270.0
 51
0.0
  0
LINE
  5
33C5
330
2
100
AcDbEntity
  8
0
100
AcDbLine
 10
168.9956789902105
 20
225.3855341699068
 30
0.0
 11
169.4956789902105
 21
225.3855341699068
 31
0.0
  0
LINE
  5
33C6
330
2
100
AcDbEntity
  8
0
100
AcDbLine
 10
173.3116960846725
 20
234.0855341699075
 30
0.0
 11
173.3116960846725
 21
232.8855341699068
 31
0.0
  0
ARC
  5
33C7
330
2
100
AcDbEntity
  8
0
100
AcDbCircle
 10
169.4956789902105
 20
236.4855341699071
 30
0.0
 40
0.5
100
AcDbArc
 50
0.0
 51
90.0
  0
LINE
  5
33C8
330
2
100
AcDbEntity
  8
0
100
AcDbLine
 10
168.9956789902105
 20
236.9855341699071
 30
0.0
 11
169.4956789902105
 21
236.9855341699071
 31
0.0
  0
LINE
  5
33C9
330
2
100
AcDbEntity
  8
0
100
AcDbLine
 10
178.1805083149404
 20
229.8855341699068
 30
0.0
 11
178.1805083149404
 21
228.685534169907
 31
0.0
  0
LINE
  5
33CA
330
2
100
AcDbEntity
  8
0
100
AcDbLine
 10
178.1805083149404
 20
234.0855341699075
 30
0.0
 11
178.1805083149404
 21
232.8855341699068
 31
0.0
  0
LINE
  5
33CB
330
2
100
AcDbEntity
  8
0
100
AcDbLine
 10
188.5956789902104
 20
235.0855341699075
 30
0.0
 11
188.5956789902104
 21
231.8855341699068
 31
0.0
  0
LINE
  5
33CC
330
2
100
AcDbEntity
  8
0
100
AcDbLine
 10
188.5956789902104
 20
230.8855341699068
 30
0.0
 11
188.5956789902104
 21
227.6855341699069
 31
0.0
  0
LINE
  5
33CD
330
2
100
AcDbEntity
  8
0
100
AcDbLine
 10
188.5956789902104
 20
230.8855341699068
 30
0.0
 11
185.9956789902105
 21
230.8855341699068
 31
0.0
  0
LINE
  5
33CE
330
2
100
AcDbEntity
  8
0
100
AcDbLine
 10
188.5956789902104
 20
231.8855341699068
 30
0.0
 11
185.9956789902105
 21
231.8855341699068
 31
0.0
  0
LINE
  5
33CF
330
2
100
AcDbEntity
  8
0
100
AcDbLine
 10
188.5956789902104
 20
235.0855341699075
 30
0.0
 11
179.6956789902103
 21
235.0855341699075
 31
0.0
  0
LINE
  5
33D0
330
2
100
AcDbEntity
  8
0
100
AcDbLine
 10
188.5956789902104
 20
227.6855341699069
 30
0.0
 11
179.6956789902103
 21
227.6855341699069
 31
0.0
  0
LINE
  5
33D1
330
2
100
AcDbEntity
  8
0
100
AcDbLine
 10
185.9956789902105
 20
232.8855341699068
 30
0.0
 11
185.9956789902105
 21
229.8855341699068
 31
0.0
  0
LINE
  5
33D2
330
2
100
AcDbEntity
  8
0
100
AcDbLine
 10
185.4266350525415
 20
232.8855341699068
 30
0.0
 11
185.4266350525415
 21
229.8855341699068
 31
0.0
  0
LINE
  5
33D3
330
2
100
AcDbEntity
  8
0
100
AcDbLine
 10
179.6956789902103
 20
229.8855341699068
 30
0.0
 11
179.6956789902103
 21
226.5855341699075
 31
0.0
  0
LINE
  5
33D4
330
2
100
AcDbEntity
  8
0
100
AcDbLine
 10
179.6956789902103
 20
236.1855341699069
 30
0.0
 11
179.6956789902103
 21
232.8855341699068
 31
0.0
  0
LINE
  5
33D5
330
2
100
AcDbEntity
  8
0
100
AcDbLine
 10
108.9055367722246
 20
191.6846887633505
 30
0.0
 11
114.9054629360932
 21
191.6846887633505
 31
0.0
  0
LINE
  5
33D6
330
2
100
AcDbEntity
  8
0
100
AcDbLine
 10
202.8956789902097
 20
203.3346683041059
 30
0.0
 11
202.8956789902097
 21
206.7346683041064
 31
0.0
  0
LINE
  5
33D7
330
2
100
AcDbEntity
  8
0
100
AcDbLine
 10
202.8956789902097
 20
193.9346683041062
 30
0.0
 11
202.8956789902097
 21
203.3346683041059
 31
0.0
  0
LINE
  5
33D8
330
2
100
AcDbEntity
  8
0
100
AcDbLine
 10
202.8956789902097
 20
206.7346683041064
 30
0.0
 11
202.8956789902097
 21
216.1346683041069
 31
0.0
  0
LINE
  5
33D9
330
2
100
AcDbEntity
  8
0
100
AcDbLine
 10
200.8956789902106
 20
206.7346683041064
 30
0.0
 11
202.8956789902097
 21
206.7346683041064
 31
0.0
  0
LINE
  5
33DA
330
2
100
AcDbEntity
  8
0
100
AcDbLine
 10
200.8956789902106
 20
203.3346683041059
 30
0.0
 11
200.8956789902106
 21
206.7346683041064
 31
0.0
  0
LINE
  5
33DB
330
2
100
AcDbEntity
  8
0
100
AcDbLine
 10
200.8956789902106
 20
203.3346683041059
 30
0.0
 11
202.8956789902097
 21
203.3346683041059
 31
0.0
  0
LINE
  5
33DC
330
2
100
AcDbEntity
  8
0
100
AcDbLine
 10
199.8956789902106
 20
203.3346683041059
 30
0.0
 11
200.8956789902106
 21
203.3346683041059
 31
0.0
  0
LINE
  5
33DD
330
2
100
AcDbEntity
  8
0
100
AcDbLine
 10
202.8956789902097
 20
216.1346683041069
 30
0.0
 11
190.8956789902097
 21
216.1346683041069
 31
0.0
  0
LINE
  5
33DE
330
2
100
AcDbEntity
  8
0
100
AcDbLine
 10
202.8956789902097
 20
193.9346683041062
 30
0.0
 11
190.8956789902097
 21
193.9346683041062
 31
0.0
  0
LINE
  5
33DF
330
2
100
AcDbEntity
  8
0
100
AcDbLine
 10
190.8956789902106
 20
217.1346683041069
 30
0.0
 11
190.8956789902106
 21
215.1346683041069
 31
0.0
  0
LINE
  5
33E0
330
2
100
AcDbEntity
  8
0
100
AcDbLine
 10
190.8956789902106
 20
194.9346683041062
 30
0.0
 11
190.8956789902106
 21
192.9346683041062
 31
0.0
  0
LINE
  5
33E1
330
2
100
AcDbEntity
  8
0
100
AcDbLine
 10
178.9956789902105
 20
192.9346683041062
 30
0.0
 11
178.9956789902105
 21
217.134668304106
 31
0.0
  0
LINE
  5
33E2
330
2
100
AcDbEntity
  8
0
100
AcDbLine
 10
190.8956789902106
 20
217.1346683041069
 30
0.0
 11
178.9956789902105
 21
217.1346683041069
 31
0.0
  0
LINE
  5
33E3
330
2
100
AcDbEntity
  8
0
100
AcDbLine
 10
178.9956789902105
 20
202.7346683041064
 30
0.0
 11
179.9956789902105
 21
202.7346683041064
 31
0.0
  0
LINE
  5
33E4
330
2
100
AcDbEntity
  8
0
100
AcDbLine
 10
190.8956789902106
 20
192.9346683041062
 30
0.0
 11
178.9956789902105
 21
192.9346683041062
 31
0.0
  0
LINE
  5
33E5
330
2
100
AcDbEntity
  8
0
100
AcDbLine
 10
190.8956789902106
 20
194.9346683041062
 30
0.0
 11
179.9956789902105
 21
194.9346683041062
 31
0.0
  0
LINE
  5
33E6
330
2
100
AcDbEntity
  8
0
100
AcDbLine
 10
179.9956789902105
 20
194.9346683041062
 30
0.0
 11
179.9956789902105
 21
202.7346683041064
 31
0.0
  0
LINE
  5
33E7
330
2
100
AcDbEntity
  8
0
100
AcDbLine
 10
178.9956789902105
 20
207.3346683041058
 30
0.0
 11
179.9956789902105
 21
207.3346683041058
 31
0.0
  0
LINE
  5
33E8
330
2
100
AcDbEntity
  8
0
100
AcDbLine
 10
179.9956789902105
 20
207.3346683041058
 30
0.0
 11
179.9956789902105
 21
215.1346683041069
 31
0.0
  0
LINE
  5
33E9
330
2
100
AcDbEntity
  8
0
100
AcDbLine
 10
190.8956789902106
 20
215.1346683041069
 30
0.0
 11
179.9956789902105
 21
215.1346683041069
 31
0.0
  0
LINE
  5
33EA
330
2
100
AcDbEntity
  8
0
100
AcDbLine
 10
191.9956789902087
 20
218.8414984735959
 30
0.0
 11
191.9956789902087
 21
219.3414984735959
 31
0.0
  0
LINE
  5
33EB
330
2
100
AcDbEntity
  8
0
100
AcDbLine
 10
191.9956789902087
 20
218.8414984735959
 30
0.0
 11
182.2736853038588
 21
218.1268337353262
 31
0.0
  0
LINE
  5
33EC
330
2
100
AcDbEntity
  8
0
100
AcDbLine
 10
195.2485972442757
 20
220.3346683041059
 30
0.0
 11
192.6935888407786
 21
220.3346683041059
 31
0.0
  0
LINE
  5
33ED
330
2
100
AcDbEntity
  8
0
100
AcDbLine
 10
192.8416789902087
 20
220.1074984735964
 30
0.0
 11
192.6935888407786
 21
220.3346683041059
 31
0.0
  0
LINE
  5
33EE
330
2
100
AcDbEntity
  8
0
100
AcDbLine
 10
192.5916789902087
 20
220.1074984735964
 30
0.0
 11
192.8416789902087
 21
220.1074984735964
 31
0.0
  0
LINE
  5
33EF
330
2
100
AcDbEntity
  8
0
100
AcDbLine
 10
192.5916789902087
 20
219.6574984735966
 30
0.0
 11
192.5916789902087
 21
220.1074984735964
 31
0.0
  0
LINE
  5
33F0
330
2
100
AcDbEntity
  8
0
100
AcDbLine
 10
192.2756789902089
 20
219.6574984735966
 30
0.0
 11
192.5916789902087
 21
219.6574984735966
 31
0.0
  0
LINE
  5
33F1
330
2
100
AcDbEntity
  8
0
100
AcDbLine
 10
192.2756789902089
 20
219.3414984735959
 30
0.0
 11
192.2756789902089
 21
219.6574984735966
 31
0.0
  0
LINE
  5
33F2
330
2
100
AcDbEntity
  8
0
100
AcDbLine
 10
191.9956789902087
 20
219.3414984735959
 30
0.0
 11
192.2756789902089
 21
219.3414984735959
 31
0.0
  0
ARC
  5
33F3
330
2
100
AcDbEntity
  8
0
100
AcDbCircle
 10
182.2956789902084
 20
217.827641025246
 30
0.0
 40
0.2999999999999954
100
AcDbArc
 50
94.20425652736893
 51
180.0
  0
LINE
  5
33F4
330
2
100
AcDbEntity
  8
0
100
AcDbLine
 10
181.9956789902087
 20
217.827641025246
 30
0.0
 11
181.9956789902087
 21
217.1346683041069
 31
0.0
  0
LINE
  5
33F5
330
2
100
AcDbEntity
  8
0
100
AcDbLine
 10
185.1450245959101
 20
217.1346683041069
 30
0.0
 11
198.7485972442757
 21
218.1346683041069
 31
0.0
  0
LINE
  5
33F6
330
2
100
AcDbEntity
  8
0
100
AcDbLine
 10
198.7485972442757
 20
218.1346683041069
 30
0.0
 11
195.2485972442757
 21
220.3346683041059
 31
0.0
  0
LINE
  5
33F7
330
2
100
AcDbEntity
  8
0
100
AcDbLine
 10
192.6935888407786
 20
189.7346683041064
 30
0.0
 11
195.2485972442757
 21
189.7346683041064
 31
0.0
  0
LINE
  5
33F8
330
2
100
AcDbEntity
  8
0
100
AcDbLine
 10
195.2485972442757
 20
189.7346683041064
 30
0.0
 11
198.7485972442757
 21
191.9346683041062
 31
0.0
  0
LINE
  5
33F9
330
2
100
AcDbEntity
  8
0
100
AcDbLine
 10
198.7485972442757
 20
191.9346683041062
 30
0.0
 11
185.1450245958715
 21
192.9346683041062
 31
0.0
  0
LINE
  5
33FA
330
2
100
AcDbEntity
  8
0
100
AcDbLine
 10
181.9956789902087
 20
192.9346683041062
 30
0.0
 11
181.9956789902087
 21
192.2416955829662
 31
0.0
  0
ARC
  5
33FB
330
2
100
AcDbEntity
  8
0
100
AcDbCircle
 10
182.2956789902084
 20
192.2416955829662
 30
0.0
 40
0.299999999999998
100
AcDbArc
 50
180.0
 51
265.7957434727617
  0
LINE
  5
33FC
330
2
100
AcDbEntity
  8
0
100
AcDbLine
 10
182.2736853038588
 20
191.942502872886
 30
0.0
 11
191.9956789902087
 21
191.2278381346163
 31
0.0
  0
LINE
  5
33FD
330
2
100
AcDbEntity
  8
0
100
AcDbLine
 10
191.9956789902087
 20
190.7278381346163
 30
0.0
 11
191.9956789902087
 21
191.2278381346163
 31
0.0
  0
LINE
  5
33FE
330
2
100
AcDbEntity
  8
0
100
AcDbLine
 10
192.2756789902089
 20
190.7278381346163
 30
0.0
 11
191.9956789902087
 21
190.7278381346163
 31
0.0
  0
LINE
  5
33FF
330
2
100
AcDbEntity
  8
0
100
AcDbLine
 10
192.2756789902089
 20
190.4118381346165
 30
0.0
 11
192.2756789902089
 21
190.7278381346163
 31
0.0
  0
LINE
  5
3400
330
2
100
AcDbEntity
  8
0
100
AcDbLine
 10
192.5916789902087
 20
190.4118381346165
 30
0.0
 11
192.2756789902089
 21
190.4118381346165
 31
0.0
  0
LINE
  5
3401
330
2
100
AcDbEntity
  8
0
100
AcDbLine
 10
192.5916789902087
 20
189.9618381346158
 30
0.0
 11
192.5916789902087
 21
190.4118381346165
 31
0.0
  0
LINE
  5
3402
330
2
100
AcDbEntity
  8
0
100
AcDbLine
 10
192.8416789902087
 20
189.9618381346158
 30
0.0
 11
192.5916789902087
 21
189.9618381346158
 31
0.0
  0
LINE
  5
3403
330
2
100
AcDbEntity
  8
0
100
AcDbLine
 10
192.6935888407786
 20
189.7346683041064
 30
0.0
 11
192.8416789902087
 21
189.9618381346158
 31
0.0
  0
LINE
  5
3404
330
2
100
AcDbEntity
  8
0
100
AcDbLine
 10
199.8956789902106
 20
206.7346683041064
 30
0.0
 11
200.8956789902106
 21
206.7346683041064
 31
0.0
  0
LINE
  5
3405
330
2
100
AcDbEntity
  8
0
100
AcDbLine
 10
199.8956789902106
 20
203.3346683041059
 30
0.0
 11
199.8956789902106
 21
206.7346683041064
 31
0.0
  0
LINE
  5
3406
330
2
100
AcDbEntity
  8
0
100
AcDbLine
 10
176.0139341517735
 20
204.3369755491844
 30
0.0
 11
178.99567899021
 21
204.3369755491844
 31
0.0
  0
LINE
  5
3407
330
2
100
AcDbEntity
  8
0
100
AcDbLine
 10
176.0139341517735
 20
205.8369755491844
 30
0.0
 11
178.99567899021
 21
205.8369755491844
 31
0.0
  0
LINE
  5
3408
330
2
100
AcDbEntity
  8
0
100
AcDbLine
 10
176.0139341517731
 20
203.5357160725184
 30
0.0
 11
178.9956789902105
 21
202.1967038032312
 31
0.0
  0
LINE
  5
3409
330
2
100
AcDbEntity
  8
0
100
AcDbLine
 10
178.9956789902105
 20
203.8417002077135
 30
0.0
 11
177.8927879063055
 21
204.3369755491844
 31
0.0
  0
LINE
  5
340A
330
2
100
AcDbEntity
  8
0
100
AcDbLine
 10
178.0539511585291
 20
202.6196055568266
 30
0.0
 11
178.995678990211
 21
201.616768155281
 31
0.0
  0
LINE
  5
340B
330
2
100
AcDbEntity
  8
0
100
AcDbLine
 10
178.995678990211
 20
199.4381015646472
 30
0.0
 11
176.0139341517731
 21
202.6148797712444
 31
0.0
  0
LINE
  5
340C
330
2
100
AcDbEntity
  8
0
100
AcDbLine
 10
176.0139341517731
 20
206.6382350258504
 30
0.0
 11
178.9956789902105
 21
207.9772472951376
 31
0.0
  0
LINE
  5
340D
330
2
100
AcDbEntity
  8
0
100
AcDbLine
 10
178.9956789902105
 20
206.3322508906553
 30
0.0
 11
177.8927879063055
 21
205.8369755491844
 31
0.0
  0
LINE
  5
340E
330
2
100
AcDbEntity
  8
0
100
AcDbLine
 10
178.0539511585291
 20
207.5543455415422
 30
0.0
 11
178.995678990211
 21
208.5571829430878
 31
0.0
  0
LINE
  5
340F
330
2
100
AcDbEntity
  8
0
100
AcDbLine
 10
178.995678990211
 20
210.7358495337216
 30
0.0
 11
176.0139341517731
 21
207.5590713271244
 31
0.0
  0
ARC
  5
3480
330
2
100
AcDbEntity
  8
0
100
AcDbCircle
 10
431.3872255502976
 20
189.6846887633505
 30
0.0
 40
2.0
100
AcDbArc
 50
0.0
 51
90.0
  0
ARC
  5
3481
330
2
100
AcDbEntity
  8
0
100
AcDbCircle
 10
420.3872255502981
 20
189.6846887633496
 30
0.0
 40
2.0
100
AcDbArc
 50
90.0
 51
180.0
  0
ARC
  5
3482
330
2
100
AcDbEntity
  8
0
100
AcDbCircle
 10
442.387225550298
 20
189.6846887633496
 30
0.0
 40
2.0
100
AcDbArc
 50
90.0
 51
180.0
  0
ARC
  5
3483
330
2
100
AcDbEntity
  8
0
100
AcDbCircle
 10
453.3872255502976
 20
189.6846887633505
 30
0.0
 40
2.0
100
AcDbArc
 50
0.0
 51
90.0
  0
LINE
  5
3484
330
2
100
AcDbEntity
  8
CENTER
100
AcDbLine
 10
447.887225550298
 20
218.773215616407
 30
0.0
 11
447.887225550298
 21
162.6227985365535
 31
0.0
  0
LINE
  5
3485
330
2
100
AcDbEntity
  8
CENTER
100
AcDbLine
 10
425.887225550298
 20
218.7732156164079
 30
0.0
 11
425.887225550298
 21
162.6227985365535
 31
0.0
  0
LINE
  5
3486
330
2
100
AcDbEntity
  8
0
100
AcDbLine
 10
440.3872255502981
 20
178.1846887633496
 30
0.0
 11
455.387225550298
 21
178.1846887633496
 31
0.0
  0
LINE
  5
3487
330
2
100
AcDbEntity
  8
0
100
AcDbLine
 10
448.6518904094711
 20
186.6846887633496
 30
0.0
 11
447.1225606911249
 21
186.6846887633496
 31
0.0
  0
LINE
  5
3488
330
2
100
AcDbEntity
  8
0
100
AcDbLine
 10
440.3872255502975
 20
187.1846887633496
 30
0.0
 11
455.3872255502976
 21
187.1846887633496
 31
0.0
  0
LINE
  5
3489
330
2
100
AcDbEntity
  8
0
100
AcDbLine
 10
442.6163321386131
 20
168.0846887633501
 30
0.0
 11
456.887225550298
 21
168.0846887633501
 31
0.0
  0
LINE
  5
348A
330
2
100
AcDbEntity
  8
0
100
AcDbLine
 10
440.3872255502981
 20
173.0846887633501
 30
0.0
 11
455.387225550298
 21
173.0846887633501
 31
0.0
  0
LINE
  5
348B
330
2
100
AcDbEntity
  8
0
100
AcDbLine
 10
442.6163321386122
 20
168.0846887633501
 30
0.0
 11
455.387225550298
 21
168.0846887633501
 31
0.0
  0
LINE
  5
348C
330
2
100
AcDbEntity
  8
0
100
AcDbLine
 10
422.1372255502975
 20
187.1846887633496
 30
0.0
 11
425.1225606911245
 21
186.6846887633505
 31
0.0
  0
LINE
  5
348D
330
2
100
AcDbEntity
  8
0
100
AcDbLine
 10
418.3872255502976
 20
187.1846887633496
 30
0.0
 11
433.3872255502976
 21
187.1846887633496
 31
0.0
  0
LINE
  5
348E
330
2
100
AcDbEntity
  8
0
100
AcDbLine
 10
429.6372255502985
 20
187.1846887633496
 30
0.0
 11
432.8159635074118
 21
186.6846887633496
 31
0.0
  0
LINE
  5
348F
330
2
100
AcDbEntity
  8
0
100
AcDbLine
 10
432.8159635074118
 20
186.6846887633496
 30
0.0
 11
432.8159635074122
 21
178.1846887633496
 31
0.0
  0
LINE
  5
3490
330
2
100
AcDbEntity
  8
0
100
AcDbLine
 10
433.3872255502976
 20
189.6846887633496
 30
0.0
 11
433.387225550298
 21
178.1846887633496
 31
0.0
  0
LINE
  5
3491
330
2
100
AcDbEntity
  8
0
100
AcDbLine
 10
426.6518904094711
 20
186.6846887633496
 30
0.0
 11
425.1225606911249
 21
186.6846887633496
 31
0.0
  0
LINE
  5
3492
330
2
100
AcDbEntity
  8
0
100
AcDbLine
 10
426.6518904094711
 20
186.6846887633496
 30
0.0
 11
429.6372255502985
 21
187.1846887633496
 31
0.0
  0
LINE
  5
3493
330
2
100
AcDbEntity
  8
0
100
AcDbLine
 10
425.1225606911249
 20
186.6846887633496
 30
0.0
 11
425.1225606911254
 21
178.1846887633496
 31
0.0
  0
LINE
  5
3494
330
2
100
AcDbEntity
  8
0
100
AcDbLine
 10
426.6518904094711
 20
186.6846887633505
 30
0.0
 11
426.6518904094711
 21
178.1846887633496
 31
0.0
  0
LINE
  5
3495
330
2
100
AcDbEntity
  8
0
100
AcDbLine
 10
432.8159635074118
 20
186.6846887633496
 30
0.0
 11
433.3872255502976
 21
186.6846887633496
 31
0.0
  0
LINE
  5
3496
330
2
100
AcDbEntity
  8
0
100
AcDbLine
 10
422.1372255502975
 20
187.1846887633496
 30
0.0
 11
418.9584875931843
 21
186.6846887633496
 31
0.0
  0
LINE
  5
3497
330
2
100
AcDbEntity
  8
0
100
AcDbLine
 10
418.9584875931843
 20
186.6846887633496
 30
0.0
 11
418.3872255502976
 21
186.6846887633505
 31
0.0
  0
LINE
  5
3498
330
2
100
AcDbEntity
  8
0
100
AcDbLine
 10
418.387225550298
 20
178.1846887633496
 30
0.0
 11
433.387225550298
 21
178.1846887633496
 31
0.0
  0
LINE
  5
3499
330
2
100
AcDbEntity
  8
0
100
AcDbLine
 10
418.3872255502976
 20
189.6846887633496
 30
0.0
 11
418.387225550298
 21
178.1846887633496
 31
0.0
  0
LINE
  5
349A
330
2
100
AcDbEntity
  8
0
100
AcDbLine
 10
418.9584875931839
 20
186.6846887633505
 30
0.0
 11
418.9584875931839
 21
178.1846887633496
 31
0.0
  0
LINE
  5
349B
330
2
100
AcDbEntity
  8
0
100
AcDbLine
 10
440.9584875931838
 20
186.6846887633505
 30
0.0
 11
440.9584875931838
 21
178.1846887633496
 31
0.0
  0
LINE
  5
349C
330
2
100
AcDbEntity
  8
0
100
AcDbLine
 10
440.3872255502975
 20
189.6846887633496
 30
0.0
 11
440.3872255502981
 21
178.1846887633496
 31
0.0
  0
LINE
  5
349D
330
2
100
AcDbEntity
  8
0
100
AcDbLine
 10
440.9584875931843
 20
186.6846887633496
 30
0.0
 11
440.3872255502975
 21
186.6846887633505
 31
0.0
  0
LINE
  5
349E
330
2
100
AcDbEntity
  8
0
100
AcDbLine
 10
444.1372255502976
 20
187.1846887633496
 30
0.0
 11
440.9584875931843
 21
186.6846887633496
 31
0.0
  0
LINE
  5
349F
330
2
100
AcDbEntity
  8
0
100
AcDbLine
 10
447.1225606911249
 20
186.6846887633496
 30
0.0
 11
447.1225606911254
 21
178.1846887633496
 31
0.0
  0
LINE
  5
34A0
330
2
100
AcDbEntity
  8
0
100
AcDbLine
 10
444.1372255502976
 20
187.1846887633496
 30
0.0
 11
447.1225606911245
 21
186.6846887633505
 31
0.0
  0
LINE
  5
34A1
330
2
100
AcDbEntity
  8
0
100
AcDbLine
 10
418.9584875931839
 20
173.0846887633501
 30
0.0
 11
418.9584875931839
 21
168.0846887633501
 31
0.0
  0
LINE
  5
34A2
330
2
100
AcDbEntity
  8
0
100
AcDbLine
 10
418.387225550298
 20
173.0846887633501
 30
0.0
 11
418.387225550298
 21
168.0846887633501
 31
0.0
  0
LINE
  5
34A3
330
2
100
AcDbEntity
  8
0
100
AcDbLine
 10
425.1225606911249
 20
173.0846887633501
 30
0.0
 11
425.1225606911249
 21
168.0846887633501
 31
0.0
  0
LINE
  5
34A4
330
2
100
AcDbEntity
  8
0
100
AcDbLine
 10
418.387225550298
 20
168.0846887633501
 30
0.0
 11
431.1597244036977
 21
168.0846887633501
 31
0.0
  0
LINE
  5
34A5
330
2
100
AcDbEntity
  8
0
100
AcDbLine
 10
426.6518904094707
 20
173.0846887633501
 30
0.0
 11
426.6518904094707
 21
168.0846887633501
 31
0.0
  0
LINE
  5
34A6
330
2
100
AcDbEntity
  8
0
100
AcDbLine
 10
432.8159635074122
 20
173.0846887633501
 30
0.0
 11
432.8159635074122
 21
168.1136060705898
 31
0.0
  0
LINE
  5
34A7
330
2
100
AcDbEntity
  8
0
100
AcDbLine
 10
433.3872255502976
 20
173.0846887633501
 30
0.0
 11
433.3872255502985
 21
168.1235800894205
 31
0.0
  0
LINE
  5
34A8
330
2
100
AcDbEntity
  8
0
100
AcDbLine
 10
418.387225550298
 20
173.0846887633501
 30
0.0
 11
433.387225550298
 21
173.0846887633501
 31
0.0
  0
LINE
  5
34A9
330
2
100
AcDbEntity
  8
0
100
AcDbLine
 10
416.8872255502976
 20
168.0846887633501
 30
0.0
 11
431.1597244036986
 21
168.0846887633501
 31
0.0
  0
LINE
  5
34AA
330
2
100
AcDbEntity
  8
0
100
AcDbLine
 10
447.1225606911249
 20
173.0846887633501
 30
0.0
 11
447.1225606911249
 21
168.0846887633501
 31
0.0
  0
LINE
  5
34AB
330
2
100
AcDbEntity
  8
0
100
AcDbLine
 10
440.3872255502981
 20
173.0846887633501
 30
0.0
 11
440.3872255502981
 21
168.1235972136287
 31
0.0
  0
LINE
  5
34AC
330
2
100
AcDbEntity
  8
0
100
AcDbLine
 10
440.9584875931838
 20
173.0846887633501
 30
0.0
 11
440.9584875931838
 21
168.1136259897725
 31
0.0
  0
LINE
  5
34AD
330
2
100
AcDbEntity
  8
0
100
AcDbLine
 10
416.8872255502976
 20
168.0846887633501
 30
0.0
 11
416.8872255502976
 21
167.8354963408933
 31
0.0
  0
LINE
  5
34AE
330
2
100
AcDbEntity
  8
HOJO
100
AcDbLine
 10
431.1372255502976
 20
178.1846887633505
 30
0.0
 11
431.137225550298
 21
173.0846887633501
 31
0.0
  0
LINE
  5
34AF
330
2
100
AcDbEntity
  8
0
100
AcDbLine
 10
431.8872255502975
 20
178.1846887633496
 30
0.0
 11
431.887225550298
 21
173.0846887633501
 31
0.0
  0
LINE
  5
34B0
330
2
100
AcDbEntity
  8
0
100
AcDbLine
 10
419.8872255502981
 20
178.1846887633496
 30
0.0
 11
419.8872255502981
 21
173.0846887633501
 31
0.0
  0
LINE
  5
34B1
330
2
100
AcDbEntity
  8
HOJO
100
AcDbLine
 10
420.637225550298
 20
178.1846887633505
 30
0.0
 11
420.6372255502976
 21
173.0846887633501
 31
0.0
  0
LINE
  5
34B2
330
2
100
AcDbEntity
  8
HOJO
100
AcDbLine
 10
442.6372255502981
 20
178.1846887633505
 30
0.0
 11
442.6372255502975
 21
173.0846887633501
 31
0.0
  0
LINE
  5
34B3
330
2
100
AcDbEntity
  8
0
100
AcDbLine
 10
441.887225550298
 20
178.1846887633496
 30
0.0
 11
441.887225550298
 21
173.0846887633501
 31
0.0
  0
LINE
  5
34B4
330
2
100
AcDbEntity
  8
0
100
AcDbLine
 10
456.887225550298
 20
168.0846887633501
 30
0.0
 11
456.8872255502985
 21
167.8355941935119
 31
0.0
  0
LINE
  5
34B5
330
2
100
AcDbEntity
  8
0
100
AcDbLine
 10
454.8159635074118
 20
186.6846887633496
 30
0.0
 11
455.3872255502976
 21
186.6846887633496
 31
0.0
  0
LINE
  5
34B6
330
2
100
AcDbEntity
  8
0
100
AcDbLine
 10
448.6518904094711
 20
186.6846887633505
 30
0.0
 11
448.6518904094711
 21
178.1846887633496
 31
0.0
  0
LINE
  5
34B7
330
2
100
AcDbEntity
  8
0
100
AcDbLine
 10
448.6518904094711
 20
186.6846887633496
 30
0.0
 11
451.6372255502985
 21
187.1846887633496
 31
0.0
  0
LINE
  5
34B8
330
2
100
AcDbEntity
  8
0
100
AcDbLine
 10
455.3872255502976
 20
189.6846887633496
 30
0.0
 11
455.387225550298
 21
178.1846887633496
 31
0.0
  0
LINE
  5
34B9
330
2
100
AcDbEntity
  8
0
100
AcDbLine
 10
454.8159635074118
 20
186.6846887633496
 30
0.0
 11
454.8159635074123
 21
178.1846887633496
 31
0.0
  0
LINE
  5
34BA
330
2
100
AcDbEntity
  8
0
100
AcDbLine
 10
451.6372255502985
 20
187.1846887633496
 30
0.0
 11
454.8159635074118
 21
186.6846887633496
 31
0.0
  0
LINE
  5
34BB
330
2
100
AcDbEntity
  8
0
100
AcDbLine
 10
455.3872255502976
 20
173.0846887633501
 30
0.0
 11
455.387225550298
 21
168.0846887633501
 31
0.0
  0
LINE
  5
34BC
330
2
100
AcDbEntity
  8
0
100
AcDbLine
 10
454.8159635074123
 20
173.0846887633501
 30
0.0
 11
454.8159635074123
 21
168.0846887633501
 31
0.0
  0
LINE
  5
34BD
330
2
100
AcDbEntity
  8
0
100
AcDbLine
 10
448.6518904094706
 20
173.0846887633501
 30
0.0
 11
448.6518904094706
 21
168.0846887633501
 31
0.0
  0
LINE
  5
34BE
330
2
100
AcDbEntity
  8
0
100
AcDbLine
 10
453.8872255502976
 20
178.1846887633496
 30
0.0
 11
453.8872255502981
 21
173.0846887633501
 31
0.0
  0
LINE
  5
34BF
330
2
100
AcDbEntity
  8
HOJO
100
AcDbLine
 10
453.1372255502976
 20
178.1846887633505
 30
0.0
 11
453.137225550298
 21
173.0846887633501
 31
0.0
  0
LINE
  5
34C0
330
2
100
AcDbEntity
  8
0
100
AcDbLine
 10
442.387225550298
 20
191.6846887633496
 30
0.0
 11
453.3872255502981
 21
191.6846887633496
 31
0.0
  0
SPLINE
  5
34C1
330
2
100
AcDbEntity
  8
HOJO
100
AcDbSpline
210
0.0
220
0.0
230
1.0
 70
     8
 71
     3
 72
    10
 73
     6
 74
     4
 42
0.0000000001
 43
0.0000000001
 44
0.0000000001
 40
0.0
 40
0.0
 40
0.0
 40
0.0
 40
3.077502202276136
 40
5.757721662027301
 40
7.055540263984264
 40
7.055540263984264
 40
7.055540263984264
 40
7.055540263984264
 10
444.8872468741625
 20
215.7144595498098
 30
0.0
 10
445.8940158308413
 20
214.8795816956674
 30
0.0
 10
447.7775873279594
 20
213.3176025352994
 30
0.0
 10
449.2343737921689
 20
216.8787722201747
 30
0.0
 10
450.4806130905683
 20
216.0008301855936
 30
0.0
 10
450.8871935502981
 20
215.7144051976361
 30
0.0
 11
444.8872468741625
 21
215.7144595498098
 31
0.0
 11
447.7090701646472
 21
214.4863174072657
 31
0.0
 11
449.7126745853381
 21
216.266526855004
 31
0.0
 11
450.8871935502981
 21
215.7144051976361
 31
0.0
  0
LINE
  5
34C2
330
2
100
AcDbEntity
  8
0
100
AcDbLine
 10
420.3872255502981
 20
191.6846887633496
 30
0.0
 11
431.387225550298
 21
191.6846887633496
 31
0.0
  0
SPLINE
  5
34C3
330
2
100
AcDbEntity
  8
HOJO
100
AcDbSpline
210
0.0
220
0.0
230
1.0
 70
     8
 71
     3
 72
    10
 73
     6
 74
     4
 42
0.0000000001
 43
0.0000000001
 44
0.0000000001
 40
0.0
 40
0.0
 40
0.0
 40
0.0
 40
3.077502202276136
 40
5.757721662027301
 40
7.055540263984264
 40
7.055540263984264
 40
7.055540263984264
 40
7.055540263984264
 10
422.8872468741625
 20
215.7144595498098
 30
0.0
 10
423.8940158308413
 20
214.8795816956674
 30
0.0
 10
425.7775873279594
 20
213.3176025352994
 30
0.0
 10
427.2343737921689
 20
216.8787722201747
 30
0.0
 10
428.4806130905683
 20
216.0008301855936
 30
0.0
 10
428.8871935502981
 20
215.7144051976361
 30
0.0
 11
422.8872468741625
 21
215.7144595498098
 31
0.0
 11
425.7090701646472
 21
214.4863174072657
 31
0.0
 11
427.712674585338
 21
216.266526855004
 31
0.0
 11
428.8871935502981
 21
215.7144051976361
 31
0.0
  0
LINE
  5
34C4
330
2
100
AcDbEntity
  8
0
100
AcDbLine
 10
428.8871935502981
 20
191.6846887633496
 30
0.0
 11
428.8871935502981
 21
215.7144051976361
 31
0.0
  0
LINE
  5
34C5
330
2
100
AcDbEntity
  8
0
100
AcDbLine
 10
422.8872468741625
 20
215.7144595498098
 30
0.0
 11
422.8872673864294
 21
191.6846887633496
 31
0.0
  0
LINE
  5
34C6
330
2
100
AcDbEntity
  8
0
100
AcDbLine
 10
444.8872468741625
 20
215.7144595498098
 30
0.0
 11
444.8872673864295
 21
191.6846887633496
 31
0.0
  0
LINE
  5
34C7
330
2
100
AcDbEntity
  8
0
100
AcDbLine
 10
450.8871935502981
 20
191.6846887633496
 30
0.0
 11
450.8871935502981
 21
215.7144051976361
 31
0.0
  0
ENDSEC
  0
SECTION
  2
OBJECTS
  0
DICTIONARY
  5
7
330
0
100
AcDbDictionary
  3
ACAD_COLOR
350
30FC
  3
ACAD_GROUP
350
75
  3
ACAD_LAYOUT
350
61
  3
ACAD_MATERIAL
350
30D2
  3
ACAD_MLEADERSTYLE
350
3121
  3
ACAD_MLINESTYLE
350
76
  3
ACAD_PLOTSETTINGS
350
77
  3
ACAD_PLOTSTYLENAME
350
6
  3
ACAD_SCALELIST
350
30FF
  3
ACAD_TABLESTYLE
350
30FD
  3
ACAD_VISUALSTYLE
350
30EB
  3
ACADDIM
350
480
  3
ACDB_RECOMPOSE_DATA
350
316C
  3
ACDBHEADERROUNDTRIPXREC
350
363E
  3
ACDBVARIABLEDICTIONARY
350
102
  3
DWGPROPS
350
360A
  0
DICTIONARY
  5
3171
330
6E
100
AcDbDictionary
280
     1
  3
ACAD_XREC_ROUNDTRIP
360
360E
  0
DICTIONARY
  5
8D5
330
66
100
AcDbDictionary
280
     1
  3
ACAD_LAYERSTATES
360
8D6
  0
DICTIONARY
  5
315A
330
5E
100
AcDbDictionary
280
     1
  3
ADSK_XREC_LAYER_RECONCILED
360
315B
  0
DICTIONARY
  5
315C
330
3E
100
AcDbDictionary
280
     1
  3
ADSK_XREC_LAYER_RECONCILED
360
315D
  0
DICTIONARY
  5
3162
330
2B5
100
AcDbDictionary
280
     1
  3
ADSK_XREC_LAYER_RECONCILED
360
3163
  0
DICTIONARY
  5
3164
330
2BA
100
AcDbDictionary
280
     1
  3
ADSK_XREC_LAYER_RECONCILED
360
3165
  0
DICTIONARY
  5
3168
330
3FA
100
AcDbDictionary
280
     1
  3
ADSK_XREC_LAYER_RECONCILED
360
3169
  0
DICTIONARY
  5
3411
330
2
100
AcDbDictionary
280
     1
  3
ACAD_LAYOUTSELFREF
360
365F
  3
ACAD_SORTENTS
360
3412
  0
DICTIONARY
  5
3660
330
3638
100
AcDbDictionary
280
     1
  3
ACAD_LAYOUTSELFREF
360
3661
  0
DICTIONARY
  5
30FC
102
{ACAD_REACTORS
330
7
102
}
330
7
100
AcDbDictionary
  0
DICTIONARY
  5
75
102
{ACAD_REACTORS
330
7
102
}
330
7
100
AcDbDictionary
  0
DICTIONARY
  5
61
102
{ACAD_REACTORS
330
7
102
}
330
7
100
AcDbDictionary
  0
DICTIONARY
  5
30D2
102
{ACAD_REACTORS
330
7
102
}
330
7
100
AcDbDictionary
  3
BYBLOCK
350
30DB
  3
BYLAYER
350
30D3
  3
GLOBAL
350
30E3
  0
DICTIONARY
  5
3121
102
{ACAD_REACTORS
330
7
102
}
330
7
100
AcDbDictionary
  3
STANDARD
350
3122
  0
DICTIONARY
  5
76
102
{ACAD_REACTORS
330
7
102
}
330
7
100
AcDbDictionary
  3
STANDARD
350
78
  0
DICTIONARY
  5
77
102
{ACAD_REACTORS
330
7
102
}
330
7
100
AcDbDictionary
  0
ACDBDICTIONARYWDFLT
  5
6
102
{ACAD_REACTORS
330
7
102
}
330
7
100
AcDbDictionary
281
     1
  3
Normal
350
5
100
AcDbDictionaryWithDefault
340
5
  0
DICTIONARY
  5
30FF
102
{ACAD_REACTORS
330
7
102
}
330
7
100
AcDbDictionary
  3
A0
350
3100
  3
A1
350
3101
  3
A2
350
3102
  3
A3
350
3103
  3
A4
350
3104
  3
A5
350
3105
  3
A6
350
3106
  3
A7
350
3107
  3
A8
350
3108
  3
A9
350
3109
  3
B0
350
310A
  3
B1
350
310B
  3
B2
350
310C
  3
B3
350
310D
  3
B4
350
310E
  3
B5
350
310F
  3
B6
350
3110
  3
B7
350
3111
  3
B8
350
3112
  3
B9
350
3113
  3
C0
350
3114
  3
C1
350
3115
  3
C2
350
3116
  3
C3
350
3117
  3
C4
350
3118
  3
C5
350
3119
  3
C6
350
311A
  3
C7
350
311B
  3
C8
350
311C
  3
C9
350
311D
  3
D0
350
311E
  3
D1
350
311F
  3
D2
350
3120
  0
DICTIONARY
  5
30FD
102
{ACAD_REACTORS
330
7
102
}
330
7
100
AcDbDictionary
  3
STANDARD
350
30FE
  0
DICTIONARY
  5
30EB
102
{ACAD_REACTORS
330
7
102
}
330
7
100
AcDbDictionary
  3
2DWIREFRAME
350
30F1
  3
3D_HIDDEN
350
30F3
  3
3DWIREFRAME
350
30F2
  3
BASIC
350
30F0
  3
BRIGHTEN
350
30F7
  3
COLORCHANGE
350
30FB
  3
CONCEPTUAL
350
30F4
  3
DIM
350
30F6
  3
FACEPATTERN
350
30FA
  3
FLAT
350
30EC
  3
FLATWITHEDGES
350
30ED
  3
GOURAUD
350
30EE
  3
GOURAUDWITHEDGES
350
30EF
  3
LINEPATTERN
350
30F9
  3
REALISTIC
350
30F5
  3
THICKEN
350
30F8
  0
XRECORD
  5
480
102
{ACAD_REACTORS
330
7
102
}
330
7
100
AcDbXrecord
 90
   990106
  3

 60
     0
 61
     0
 62
     1
 63
     3
 64
     1
 65
     0
 66
     0
 67
     3
 68
     1
 69
     0
 70
     0
 71
     0
 72
     0
 40
0.0
170
     2
340
0
  0
XRECORD
  5
316C
102
{ACAD_REACTORS
330
7
102
}
330
7
100
AcDbXrecord
 90
        1
330
30FE
  0
DICTIONARY
  5
363E
102
{ACAD_REACTORS
330
7
102
}
330
7
100
AcDbDictionary
  3
CEPSNTYPE
350
3648
  3
DIMSTYLEDATA
350
364C
  3
FINGERPRINTGUID
350
3649
  3
HYPERLINKBASE
350
3641
  3
INSUNITS
350
3647
  3
LAYOUTDICT
350
3643
  3
LWETCUNION
350
3646
  3
PLOTSETDICT
350
3644
  3
PLOTSTYLNAMDICT
350
3645
  3
PSVPSCALE
350
364B
  3
PUCSBASE
350
364F
  3
PUCSORGBACK
350
3655
  3
PUCSORGBOTTOM
350
3651
  3
PUCSORGFRONT
350
3654
  3
PUCSORGLEFT
350
3652
  3
PUCSORGRIGHT
350
3653
  3
PUCSORGTOP
350
3650
  3
PUCSORTHOREF
350
364D
  3
PUCSORTHOVIEW
350
364E
  3
STYLESHEET
350
3642
  3
TSTACKALIGN
350
363F
  3
TSTACKSIZE
350
3640
  3
UCSBASE
350
3658
  3
UCSORGBACK
350
365E
  3
UCSORGBOTTOM
350
365A
  3
UCSORGFRONT
350
365D
  3
UCSORGLEFT
350
365B
  3
UCSORGRIGHT
350
365C
  3
UCSORGTOP
350
3659
  3
UCSORTHOREF
350
3656
  3
UCSORTHOVIEW
350
3657
  3
VERSIONGUID
350
364A
  0
DICTIONARY
  5
102
102
{ACAD_REACTORS
330
7
102
}
330
7
100
AcDbDictionary
  3
CANNOSCALE
350
317D
  3
CMLEADERSTYLE
350
317C
  3
CTABLESTYLE
350
317B
  3
DIMASSOC
350
103
  3
INDEXCTL
350
317E
  3
SORTENTS
350
549
  0
XRECORD
  5
360A
102
{ACAD_REACTORS
330
7
102
}
330
7
100
AcDbXrecord
  1
DWGPROPS COOKIE
  2

  3

  4

  6

  7

  8
ymorima
  9

300
=
301
=
302
=
303
=
304
=
305
=
306
=
307
=
308
=
309
=
 40
0.143666087962963
 41
2454243.702919919
 42
2454907.646205324
  1

 90
        0
  0
XRECORD
  5
360E
102
{ACAD_REACTORS
330
3171
102
}
330
3171
100
AcDbXrecord
102
VTR_0.000_0.000_1.000_1.000_VISUALSTYLE
340
30F1
102
VTR_0.000_0.000_1.000_1.000_GRIDDISPLAY
 70
     3
102
VTR_0.000_0.000_1.000_1.000_GRIDMAJOR
 70
     5
102
VTR_0.000_0.000_1.000_1.000_DEFAULTLIGHTING
280
     1
102
VTR_0.000_0.000_1.000_1.000_DEFAULTLIGHTINGTYPE
 70
     1
102
VTR_0.000_0.000_1.000_1.000_BRIGHTNESS
141
0.0
102
VTR_0.000_0.000_1.000_1.000_CONTRAST
142
0.0
  0
DICTIONARY
  5
8D6
102
{ACAD_REACTORS
330
8D5
102
}
330
8D5
100
AcDbDictionary
  0
XRECORD
  5
315B
102
{ACAD_REACTORS
330
315A
102
}
330
315A
100
AcDbXrecord
290
     1
  0
XRECORD
  5
315D
102
{ACAD_REACTORS
330
315C
102
}
330
315C
100
AcDbXrecord
290
     1
  0
XRECORD
  5
3163
102
{ACAD_REACTORS
330
3162
102
}
330
3162
100
AcDbXrecord
290
     1
  0
XRECORD
  5
3165
102
{ACAD_REACTORS
330
3164
102
}
330
3164
100
AcDbXrecord
290
     1
  0
XRECORD
  5
3169
102
{ACAD_REACTORS
330
3168
102
}
330
3168
100
AcDbXrecord
290
     1
  0
XRECORD
  5
365F
102
{ACAD_REACTORS
330
3411
102
}
330
3411
100
AcDbXrecord
340
2
  0
SORTENTSTABLE
  5
3412
102
{ACAD_REACTORS
330
3411
102
}
330
3411
100
AcDbSortentsTable
330
2
331
33D0
  5
33D2
331
321E
  5
3220
331
3354
  5
3356
331
2E4C
  5
2E4D
331
2E5B
  5
2E5C
331
322D
  5
322F
331
33DF
  5
33E1
331
3396
  5
3398
331
34C2
  5
34C2
331
2CF9
  5
2CFA
331
33EE
  5
33F0
331
33A5
  5
33A7
331
3364
  5
3366
331
3488
  5
3488
331
3253
  5
3255
331
323D
  5
323F
331
3373
  5
3375
331
3497
  5
3497
331
2ECB
  5
2ECC
331
3262
  5
3264
331
2E72
  5
2E73
331
324C
  5
324E
331
33FE
  5
3400
331
33B5
  5
33B7
331
2E31
  5
2E32
331
33C4
  5
33C6
331
2E40
  5
2E41
331
3383
  5
3385
331
2D3F
  5
2D40
331
34A7
  5
34A7
331
3272
  5
3274
331
2E82
  5
2E83
331
2CED
  5
2CED
331
34B6
  5
34B6
331
3349
  5
334B
331
2E91
  5
2E92
331
33D4
  5
33D6
331
2E50
  5
2E51
331
3222
  5
3224
331
33E3
  5
33E5
331
3231
  5
3233
331
2E5F
  5
2E60
331
339A
  5
339C
331
2E0E
  5
2E0F
331
34C6
  5
34C6
331
3359
  5
335B
331
33A9
  5
33AB
331
2E25
  5
2E2A
331
3368
  5
336A
331
348C
  5
348C
331
3257
  5
3259
331
3241
  5
3243
331
3377
  5
3379
331
33F3
  5
33F5
331
349B
  5
349B
331
3266
  5
3268
331
2ECF
  5
2ED0
331
3402
  5
3404
331
2E76
  5
2E77
331
33B9
  5
33BB
331
2E35
  5
2E36
331
2D34
  5
2D35
331
3378
  5
337A
331
2ED0
  5
319B
331
33C8
  5
33CA
331
2E44
  5
2E45
331
3387
  5
3389
331
2D43
  5
2D46
331
34AB
  5
34AB
331
340A
  5
340C
331
2E86
  5
2E87
331
334D
  5
334F
331
34BA
  5
34BA
331
2CF1
  5
2CF1
331
2E95
  5
2E96
331
33D8
  5
33DA
331
3226
  5
3228
331
2E54
  5
2E55
331
2DCB
  5
2DCC
331
3235
  5
3237
331
33E7
  5
33E9
331
339E
  5
33A0
331
2E12
  5
2E13
331
335D
  5
335F
331
33AD
  5
33AF
331
3481
  5
3481
331
336C
  5
336E
331
3490
  5
3490
331
325B
  5
325D
331
2EC4
  5
2EC5
331
3245
  5
3247
331
33F7
  5
33F9
331
2E2A
  5
2E2B
331
349F
  5
349F
331
326A
  5
326C
331
2E7A
  5
2E7B
331
3406
  5
3408
331
33BD
  5
33BF
331
2E39
  5
2E3A
331
337C
  5
337E
331
2D38
  5
2D39
331
33CC
  5
33CE
331
34A0
  5
34A0
331
338B
  5
338D
331
2D47
  5
2D48
331
34AF
  5
34AF
331
2CE6
  5
2CE6
331
2E8A
  5
2E8B
331
340E
  5
3410
331
2E49
  5
2E4A
331
321B
  5
321C
331
2CF5
  5
2CF5
331
34BE
  5
34BE
331
3351
  5
3353
331
2E99
  5
2E9A
331
33DC
  5
33DE
331
2E58
  5
2E59
331
322A
  5
322C
331
3393
  5
3395
331
33EB
  5
33ED
331
33A2
  5
33A4
331
2D05
  5
2D06
331
3361
  5
3363
331
3250
  5
3252
331
2EB1
  5
2EB5
331
3485
  5
3485
331
2E60
  5
2E61
331
323A
  5
323C
331
3370
  5
3372
331
3494
  5
3494
331
2EC8
  5
2EC9
331
325F
  5
3261
331
33FB
  5
33FD
331
3249
  5
324B
331
2E6F
  5
2E70
331
33B2
  5
33B4
331
326E
  5
3270
331
2E2E
  5
2E2F
331
2E7E
  5
2E7F
331
33C1
  5
33C3
331
2E3D
  5
2E3E
331
2D3C
  5
2D3D
331
3380
  5
3382
331
34A4
  5
34A4
331
338F
  5
3391
331
34B3
  5
34B3
331
2CEA
  5
2CEA
331
2E8E
  5
2E8F
331
33D1
  5
33D3
331
321F
  5
3221
331
3355
  5
3357
331
2E4D
  5
2E4E
331
33E0
  5
33E2
331
322E
  5
3230
331
2E5C
  5
2E5D
331
3397
  5
3399
331
34C3
  5
34C3
331
33EF
  5
33F1
331
33A6
  5
33A8
331
3365
  5
3367
331
3489
  5
3489
331
3254
  5
3256
331
2EB5
  5
2EB6
331
323E
  5
3240
331
3374
  5
3376
331
33F0
  5
33F2
331
3498
  5
3498
331
3263
  5
3265
331
2ECC
  5
2ECD
331
33FF
  5
3401
331
324D
  5
324F
331
2E73
  5
2E74
331
33B6
  5
33B8
331
2E32
  5
2E33
331
33C5
  5
33C7
331
2E41
  5
2E42
331
319B
  5
3218
331
3384
  5
3386
331
2D40
  5
2D41
331
34A8
  5
34A8
331
3273
  5
3347
331
2E83
  5
2E84
331
334A
  5
334C
331
34B7
  5
34B7
331
2CEE
  5
2CEE
331
2E92
  5
2E93
331
33D5
  5
33D7
331
2E51
  5
2E52
331
3223
  5
3225
331
33E4
  5
33E6
331
3232
  5
3234
331
339B
  5
339D
331
2E0F
  5
2E10
331
34C7
  5
34C7
331
335A
  5
335C
331
33AA
  5
33AC
331
3369
  5
336B
331
3258
  5
325A
331
348D
  5
348D
331
33F4
  5
33F6
331
3242
  5
3244
331
349C
  5
349C
331
3267
  5
3269
331
3403
  5
3405
331
2E77
  5
2E78
331
33BA
  5
33BC
331
2E36
  5
2E37
331
3379
  5
337B
331
2D35
  5
2D36
331
33C9
  5
33CB
331
2E45
  5
2E46
331
3388
  5
338A
331
2CE3
  5
2CE3
331
34AC
  5
34AC
331
340B
  5
340D
331
2E87
  5
2E88
331
3218
  5
3219
331
334E
  5
3350
331
34BB
  5
34BB
331
2CF2
  5
2CF2
331
2E96
  5
2E97
331
33D9
  5
33DB
331
3227
  5
3229
331
2E55
  5
2E56
331
2DCC
  5
2DCD
331
3390
  5
3392
331
3236
  5
3238
331
33E8
  5
33EA
331
2E13
  5
2E14
331
339F
  5
33A1
331
335E
  5
3360
331
3482
  5
3482
331
33AE
  5
33B0
331
2EAE
  5
2EAF
331
336D
  5
336F
331
3491
  5
3491
331
325C
  5
325E
331
2EC5
  5
2EC6
331
3246
  5
3248
331
33F8
  5
33FA
331
2E2B
  5
2E2C
331
326B
  5
326D
331
3407
  5
3409
331
2E7B
  5
2E7C
331
33BE
  5
33C0
331
2E3A
  5
2E3B
331
337D
  5
337F
331
2D39
  5
2D3A
331
33CD
  5
33CF
331
34A1
  5
34A1
331
338C
  5
338E
331
2D48
  5
2D49
331
34B0
  5
34B0
331
2CE7
  5
2CE7
331
340F
  5
3425
331
2E8B
  5
2E8C
331
2E4A
  5
2E4B
331
321C
  5
321D
331
3352
  5
3354
331
34BF
  5
34BF
331
2CF6
  5
2CF6
331
2E9A
  5
2E9B
331
33DD
  5
33DF
331
2E59
  5
2E5A
331
322B
  5
322D
331
3394
  5
3396
331
33EC
  5
33EE
331
34C0
  5
34C0
331
33A3
  5
33A5
331
3362
  5
3364
331
2D06
  5
2D0A
331
3486
  5
3486
331
3251
  5
3253
331
2E61
  5
2E62
331
323B
  5
323D
331
3371
  5
3373
331
3260
  5
3262
331
2EC9
  5
2ECA
331
3495
  5
3495
331
33FC
  5
33FE
331
2E70
  5
2E71
331
324A
  5
324C
331
33B3
  5
33B5
331
326F
  5
3271
331
2E2F
  5
2E30
331
2E7F
  5
2E80
331
33C2
  5
33C4
331
2E3E
  5
2E3F
331
3381
  5
3383
331
2D3D
  5
2D3E
331
3270
  5
3272
331
34A5
  5
34A5
331
2E80
  5
2E81
331
3347
  5
3349
331
2CEB
  5
2CEB
331
34B4
  5
34B4
331
2E8F
  5
2E90
331
33D2
  5
33D4
331
3220
  5
3222
331
3356
  5
3358
331
2E4E
  5
2E4F
331
33E1
  5
33E3
331
322F
  5
3231
331
2E5D
  5
2E5E
331
3398
  5
339A
331
34C4
  5
34C4
331
2E23
  5
2E24
331
33A7
  5
33A9
331
3366
  5
3368
331
2D0A
  5
2D33
331
348A
  5
348A
331
3255
  5
3257
331
2EB6
  5
2EC2
331
323F
  5
3241
331
3375
  5
3377
331
33F1
  5
33F3
331
3499
  5
3499
331
3264
  5
3266
331
2ECD
  5
2ECE
331
3400
  5
3402
331
324E
  5
3250
331
2E74
  5
2E75
331
2E33
  5
2E34
331
33B7
  5
33B9
331
33C6
  5
33C8
331
2E42
  5
2E43
331
3385
  5
3387
331
2D41
  5
2D42
331
34A9
  5
34A9
331
3274
  5
3348
331
3408
  5
340A
331
2E84
  5
2E85
331
334B
  5
334D
331
34B8
  5
34B8
331
2CEF
  5
2CEF
331
2E93
  5
2E94
331
2E52
  5
2E53
331
3224
  5
3226
331
33D6
  5
33D8
331
33E5
  5
33E7
331
3233
  5
3235
331
339C
  5
339E
331
2E10
  5
2E11
331
335B
  5
335D
331
33AB
  5
33AD
331
336A
  5
336C
331
348E
  5
348E
331
2EC2
  5
2EC3
331
3259
  5
325B
331
33F5
  5
33F7
331
3243
  5
3245
331
3268
  5
326A
331
349D
  5
349D
331
3404
  5
3406
331
2E78
  5
2E79
331
33BB
  5
33BD
331
2E37
  5
2E38
331
337A
  5
337C
331
2D36
  5
2D37
331
33CA
  5
33CC
331
2E46
  5
2E47
331
3389
  5
338B
331
2CE4
  5
2CE4
331
34AD
  5
34AD
331
340C
  5
340E
331
2E88
  5
2E89
331
3219
  5
321A
331
334F
  5
3351
331
2CF3
  5
2CF3
331
34BC
  5
34BC
331
2E97
  5
2E98
331
33DA
  5
33DC
331
3228
  5
322A
331
2E56
  5
2E57
331
3391
  5
3393
331
2DCD
  5
2DCE
331
3237
  5
3239
331
33E9
  5
33EB
331
2E14
  5
2E23
331
33A0
  5
33A2
331
335F
  5
3361
331
3483
  5
3483
331
2EAF
  5
2EB0
331
33AF
  5
33B1
331
3238
  5
323A
331
336E
  5
3370
331
3492
  5
3492
331
325D
  5
325F
331
2EC6
  5
2EC7
331
33F9
  5
33FB
331
3247
  5
3249
331
2E6D
  5
2E6E
331
33B0
  5
33B2
331
326C
  5
326E
331
2E2C
  5
2E2D
331
2E7C
  5
2E7D
331
2E3B
  5
2E3C
331
33BF
  5
33C1
331
337E
  5
3380
331
2D3A
  5
2D3B
331
33CE
  5
33D0
331
34A2
  5
34A2
331
338D
  5
338F
331
2D49
  5
2DCB
331
34B1
  5
34B1
331
2CE8
  5
2CE8
331
2E8C
  5
2E8D
331
2E4B
  5
2E4C
331
321D
  5
321E
331
3353
  5
3355
331
2CF7
  5
2CF7
331
2E9B
  5
2EAE
331
2E5A
  5
2E5B
331
322C
  5
322E
331
33DE
  5
33E0
331
3395
  5
3397
331
33ED
  5
33EF
331
34C1
  5
34C1
331
2CF8
  5
2CF8
331
33A4
  5
33A6
331
3363
  5
3365
331
3487
  5
3487
331
3252
  5
3254
331
2E62
  5
2E6D
331
323C
  5
323E
331
3372
  5
3374
331
3496
  5
3496
331
2ECA
  5
2ECB
331
3261
  5
3263
331
33FD
  5
33FF
331
2E71
  5
2E72
331
324B
  5
324D
331
33B4
  5
33B6
331
2E30
  5
2E31
331
33C3
  5
33C5
331
2E3F
  5
2E40
331
3382
  5
3384
331
2D3E
  5
2D3F
331
34A6
  5
34A6
331
3271
  5
3273
331
2E81
  5
2E82
331
3348
  5
334A
331
2CEC
  5
2CEC
331
34B5
  5
34B5
331
2E90
  5
2E91
331
33D3
  5
33D5
331
3221
  5
3223
331
3357
  5
3359
331
2E4F
  5
2E50
331
33E2
  5
33E4
331
3230
  5
3232
331
2E5E
  5
2E5F
331
3399
  5
339B
331
34C5
  5
34C5
331
3358
  5
335A
331
2E24
  5
2E25
331
33A8
  5
33AA
331
3367
  5
3369
331
348B
  5
348B
331
3256
  5
3258
331
3240
  5
3242
331
3376
  5
3378
331
33F2
  5
33F4
331
349A
  5
349A
331
3265
  5
3267
331
2ECE
  5
2ECF
331
3401
  5
3403
331
324F
  5
3251
331
2E75
  5
2E76
331
33B8
  5
33BA
331
2E34
  5
2E35
331
2D33
  5
2D34
331
2E43
  5
2E44
331
33C7
  5
33C9
331
3386
  5
3388
331
2D42
  5
2D43
331
34AA
  5
34AA
331
3409
  5
340B
331
2E85
  5
2E86
331
334C
  5
334E
331
34B9
  5
34B9
331
2CF0
  5
2CF0
331
2E94
  5
2E95
331
2E53
  5
2E54
331
3225
  5
3227
331
33D7
  5
33D9
331
3234
  5
3236
331
33E6
  5
33E8
331
339D
  5
339F
331
2E11
  5
2E12
331
335C
  5
335E
331
33AC
  5
33AE
331
3480
  5
3480
331
336B
  5
336D
331
348F
  5
348F
331
2EC3
  5
2EC4
331
325A
  5
325C
331
3244
  5
3246
331
33F6
  5
33F8
331
349E
  5
349E
331
3269
  5
326B
331
3405
  5
3407
331
2E79
  5
2E7A
331
33BC
  5
33BE
331
2E38
  5
2E39
331
337B
  5
337D
331
2D37
  5
2D38
331
33CB
  5
33CD
331
2E47
  5
2E48
331
338A
  5
338C
331
2D46
  5
2D47
331
2CE5
  5
2CE5
331
34AE
  5
34AE
331
2E89
  5
2E8A
331
340D
  5
340F
331
2E48
  5
2E49
331
3350
  5
3352
331
2CF4
  5
2CF4
331
34BD
  5
34BD
331
321A
  5
321B
331
2E98
  5
2E99
331
33DB
  5
33DD
331
3229
  5
322B
331
2E57
  5
2E58
331
3392
  5
3394
331
2DCE
  5
2E0E
331
33EA
  5
33EC
331
33A1
  5
33A3
331
2D04
  5
2D05
331
3360
  5
3362
331
3484
  5
3484
331
2EB0
  5
2EB1
331
3239
  5
323B
331
336F
  5
3371
331
3493
  5
3493
331
325E
  5
3260
331
2EC7
  5
2EC8
331
33FA
  5
33FC
331
3248
  5
324A
331
2E6E
  5
2E6F
331
33B1
  5
33B3
331
326D
  5
326F
331
2E2D
  5
2E2E
331
2E7D
  5
2E7E
331
33C0
  5
33C2
331
2E3C
  5
2E3D
331
337F
  5
3381
331
2D3B
  5
2D3C
331
34A3
  5
34A3
331
33CF
  5
33D1
331
338E
  5
3390
331
34B2
  5
34B2
331
2CE9
  5
2CE9
331
2E8D
  5
2E8E
  0
XRECORD
  5
3661
102
{ACAD_REACTORS
330
3660
102
}
330
3660
100
AcDbXrecord
340
3638
  0
ACAD_PROXY_OBJECT
  5
30DB
102
{ACAD_XDICTIONARY
360
30DC
102
}
102
{ACAD_REACTORS
330
30D2
102
}
330
30D2
100
AcDbProxyObject
 90
      499
 91
      511
 93
     1340
310
42109E509B1BD8DAC02004014080404555555555555953FAA155555555555654FEA9AA400014080404555555555555953FAA155555555555654FEA9AA400000000000000E03F4080404555555555555953FAA155555555555654FEA9AA4014080404555555555555953FAA155555555555654FEA9AA4010201011555555555
310
55654FEA8555555555555953FAA6A9005020101155555555555654FEA8555555555555953FAA6A9001
 94
        0
1001
ACAD
1000
AcadProxyRoundTripData
1071
      504
1071
   655383
1070
     0
  0
ACAD_PROXY_OBJECT
  5
30D3
102
{ACAD_XDICTIONARY
360
30D4
102
}
102
{ACAD_REACTORS
330
30D2
102
}
330
30D2
100
AcDbProxyObject
 90
      499
 91
      511
 93
     1340
310
42109E53185E595C802004014080404555555555555953FAA155555555555654FEA9AA400014080404555555555555953FAA155555555555654FEA9AA400000000000000E03F4080404555555555555953FAA155555555555654FEA9AA4014080404555555555555953FAA155555555555654FEA9AA4010201011555555555
310
55654FEA8555555555555953FAA6A9005020101155555555555654FEA8555555555555953FAA6A9001
 94
        0
1001
ACAD
1000
AcadProxyRoundTripData
1071
      504
1071
   655383
1070
     0
  0
ACAD_PROXY_OBJECT
  5
30E3
102
{ACAD_XDICTIONARY
360
30E4
102
}
102
{ACAD_REACTORS
330
30D2
102
}
330
30D2
100
AcDbProxyObject
 90
      499
 91
      511
 93
     1332
310
41D1DB1BD8985B002004014080404555555555555953FAA155555555555654FEA9AA400014080404555555555555953FAA155555555555654FEA9AA400000000000000E03F4080404555555555555953FAA155555555555654FEA9AA4014080404555555555555953FAA155555555555654FEA9AA401020101155555555555
310
654FEA8555555555555953FAA6A9005020101155555555555654FEA8555555555555953FAA6A9000
 94
        0
1001
ACAD
1000
AcadProxyRoundTripData
1071
      504
1071
   655383
1070
     0
  0
ACAD_PROXY_OBJECT
  5
3122
102
{ACAD_REACTORS
330
3121
102
}
330
3121
100
AcDbProxyObject
 90
      499
 91
      511
 93
      618
310
40901902A4063FBFFFFFE056BD1B81E855B9FC0AD7A3703D0AD73F4254DD185B99185C990000AD7A3703D0AC73F90141901A02B5E8DC0F42B1CFC02B5E8DC0F42B1CFE5764000000000000300FC6
340
6A
340
0
340
16
340
0
 94
        0
1001
ACAD_MLEADERVER
1070
     2
1001
ACAD
1000
AcadProxyRoundTripData
1071
      508
1071
   655383
1070
     0
  0
MLINESTYLE
  5
78
102
{ACAD_REACTORS
330
76
102
}
330
76
100
AcDbMlineStyle
  2
STANDARD
 70
     0
  3

 62
     0
 51
90.0
 52
90.0
 71
     2
 49
0.5
 62
   256
  6
BYLAYER
 49
-0.5
 62
   256
  6
BYLAYER
  0
ACDBPLACEHOLDER
  5
5
102
{ACAD_REACTORS
330
6
102
}
330
6
100
AcDbPlaceHolder
280
     0
  0
ACAD_PROXY_OBJECT
  5
3100
102
{ACAD_REACTORS
330
30FF
102
}
330
30FF
100
AcDbProxyObject
 90
      499
 91
      511
 93
       49
310
904313A3100598
 94
        0
1001
ACAD
1000
AcadProxyRoundTripData
1071
      507
1071
   655383
1070
     0
  0
ACAD_PROXY_OBJECT
  5
3101
102
{ACAD_REACTORS
330
30FF
102
}
330
30FF
100
AcDbProxyObject
 90
      499
 91
      511
 93
      113
310
904313A3200400000000000000406B
 94
        0
1001
ACAD
1000
AcadProxyRoundTripData
1071
      507
1071
   655383
1070
     0
  0
ACAD_PROXY_OBJECT
  5
3102
102
{ACAD_REACTORS
330
30FF
102
}
330
30FF
100
AcDbProxyObject
 90
      499
 91
      511
 93
      113
310
904313A3400400000000000010406B
 94
        0
1001
ACAD
1000
AcadProxyRoundTripData
1071
      507
1071
   655383
1070
     0
  0
ACAD_PROXY_OBJECT
  5
3103
102
{ACAD_REACTORS
330
30FF
102
}
330
30FF
100
AcDbProxyObject
 90
      499
 91
      511
 93
      113
310
904313A3500400000000000014406B
 94
        0
1001
ACAD
1000
AcadProxyRoundTripData
1071
      507
1071
   655383
1070
     0
  0
ACAD_PROXY_OBJECT
  5
3104
102
{ACAD_REACTORS
330
30FF
102
}
330
30FF
100
AcDbProxyObject
 90
      499
 91
      511
 93
      113
310
904313A3800400000000000020406B
 94
        0
1001
ACAD
1000
AcadProxyRoundTripData
1071
      507
1071
   655383
1070
     0
  0
ACAD_PROXY_OBJECT
  5
3105
102
{ACAD_REACTORS
330
30FF
102
}
330
30FF
100
AcDbProxyObject
 90
      499
 91
      511
 93
      121
310
905313A3130004000000000000244051
 94
        0
1001
ACAD
1000
AcadProxyRoundTripData
1071
      507
1071
   655383
1070
     0
  0
ACAD_PROXY_OBJECT
  5
3106
102
{ACAD_REACTORS
330
30FF
102
}
330
30FF
100
AcDbProxyObject
 90
      499
 91
      511
 93
      121
310
905313A3136004000000000000304051
 94
        0
1001
ACAD
1000
AcadProxyRoundTripData
1071
      507
1071
   655383
1070
     0
  0
ACAD_PROXY_OBJECT
  5
3107
102
{ACAD_REACTORS
330
30FF
102
}
330
30FF
100
AcDbProxyObject
 90
      499
 91
      511
 93
      121
310
905313A3230004000000000000344051
 94
        0
1001
ACAD
1000
AcadProxyRoundTripData
1071
      507
1071
   655383
1070
     0
  0
ACAD_PROXY_OBJECT
  5
3108
102
{ACAD_REACTORS
330
30FF
102
}
330
30FF
100
AcDbProxyObject
 90
      499
 91
      511
 93
      121
310
905313A33300040000000000003E4051
 94
        0
1001
ACAD
1000
AcadProxyRoundTripData
1071
      507
1071
   655383
1070
     0
  0
ACAD_PROXY_OBJECT
  5
3109
102
{ACAD_REACTORS
330
30FF
102
}
330
30FF
100
AcDbProxyObject
 90
      499
 91
      511
 93
      121
310
905313A3430004000000000000444051
 94
        0
1001
ACAD
1000
AcadProxyRoundTripData
1071
      507
1071
   655383
1070
     0
  0
ACAD_PROXY_OBJECT
  5
310A
102
{ACAD_REACTORS
330
30FF
102
}
330
30FF
100
AcDbProxyObject
 90
      499
 91
      511
 93
      121
310
905313A3530004000000000000494051
 94
        0
1001
ACAD
1000
AcadProxyRoundTripData
1071
      507
1071
   655383
1070
     0
  0
ACAD_PROXY_OBJECT
  5
310B
102
{ACAD_REACTORS
330
30FF
102
}
330
30FF
100
AcDbProxyObject
 90
      499
 91
      511
 93
      129
310
906313A313030004000000000000594038
 94
        0
1001
ACAD
1000
AcadProxyRoundTripData
1071
      507
1071
   655383
1070
     0
  0
ACAD_PROXY_OBJECT
  5
310C
102
{ACAD_REACTORS
330
30FF
102
}
330
30FF
100
AcDbProxyObject
 90
      499
 91
      511
 93
      113
310
904323A31000000000000000010159
 94
        0
1001
ACAD
1000
AcadProxyRoundTripData
1071
      507
1071
   655383
1070
     0
  0
ACAD_PROXY_OBJECT
  5
310D
102
{ACAD_REACTORS
330
30FF
102
}
330
30FF
100
AcDbProxyObject
 90
      499
 91
      511
 93
      113
310
904343A31000000000000000410159
 94
        0
1001
ACAD
1000
AcadProxyRoundTripData
1071
      507
1071
   655383
1070
     0
  0
ACAD_PROXY_OBJECT
  5
310E
102
{ACAD_REACTORS
330
30FF
102
}
330
30FF
100
AcDbProxyObject
 90
      499
 91
      511
 93
      113
310
904383A31000000000000000810159
 94
        0
1001
ACAD
1000
AcadProxyRoundTripData
1071
      507
1071
   655383
1070
     0
  0
ACAD_PROXY_OBJECT
  5
310F
102
{ACAD_REACTORS
330
30FF
102
}
330
30FF
100
AcDbProxyObject
 90
      499
 91
      511
 93
      121
310
90531303A31000000000000000910140
 94
        0
1001
ACAD
1000
AcadProxyRoundTripData
1071
      507
1071
   655383
1070
     0
  0
ACAD_PROXY_OBJECT
  5
3110
102
{ACAD_REACTORS
330
30FF
102
}
330
30FF
100
AcDbProxyObject
 90
      499
 91
      511
 93
      129
310
9063130303A31000000000000001650138
 94
        0
1001
ACAD
1000
AcadProxyRoundTripData
1071
      507
1071
   655383
1070
     0
  0
ACAD_PROXY_OBJECT
  5
3111
102
{ACAD_REACTORS
330
30FF
102
}
330
30FF
100
AcDbProxyObject
 90
      499
 91
      511
 93
      265
310
90F312F31323822203D2031272D302200000000000000200FC00000000000028402B
 94
        0
1001
ACAD
1000
AcadProxyRoundTripData
1071
      507
1071
   655383
1070
     0
  0
ACAD_PROXY_OBJECT
  5
3112
102
{ACAD_REACTORS
330
30FF
102
}
330
30FF
100
AcDbProxyObject
 90
      499
 91
      511
 93
      257
310
90E312F363422203D2031272D302200000000000000240FC000000000000284040
 94
        0
1001
ACAD
1000
AcadProxyRoundTripData
1071
      507
1071
   655383
1070
     0
  0
ACAD_PROXY_OBJECT
  5
3113
102
{ACAD_REACTORS
330
30FF
102
}
330
30FF
100
AcDbProxyObject
 90
      499
 91
      511
 93
      257
310
90E312F333222203D2031272D302200000000000000280FC000000000000284040
 94
        0
1001
ACAD
1000
AcadProxyRoundTripData
1071
      507
1071
   655383
1070
     0
  0
ACAD_PROXY_OBJECT
  5
3114
102
{ACAD_REACTORS
330
30FF
102
}
330
30FF
100
AcDbProxyObject
 90
      499
 91
      511
 93
      257
310
90E312F313622203D2031272D3022000000000000002C0FC000000000000284040
 94
        0
1001
ACAD
1000
AcadProxyRoundTripData
1071
      507
1071
   655383
1070
     0
  0
ACAD_PROXY_OBJECT
  5
3115
102
{ACAD_REACTORS
330
30FF
102
}
330
30FF
100
AcDbProxyObject
 90
      499
 91
      511
 93
      257
310
90E332F333222203D2031272D3022000000000000002E0FC000000000000284040
 94
        0
1001
ACAD
1000
AcadProxyRoundTripData
1071
      507
1071
   655383
1070
     0
  0
ACAD_PROXY_OBJECT
  5
3116
102
{ACAD_REACTORS
330
30FF
102
}
330
30FF
100
AcDbProxyObject
 90
      499
 91
      511
 93
      249
310
90D312F3822203D2031272D302200000000000000300FC000000000000284040
 94
        0
1001
ACAD
1000
AcadProxyRoundTripData
1071
      507
1071
   655383
1070
     0
  0
ACAD_PROXY_OBJECT
  5
3117
102
{ACAD_REACTORS
330
30FF
102
}
330
30FF
100
AcDbProxyObject
 90
      499
 91
      511
 93
      257
310
90E332F313622203D2031272D302200000000000000320FC000000000000284040
 94
        0
1001
ACAD
1000
AcadProxyRoundTripData
1071
      507
1071
   655383
1070
     0
  0
ACAD_PROXY_OBJECT
  5
3118
102
{ACAD_REACTORS
330
30FF
102
}
330
30FF
100
AcDbProxyObject
 90
      499
 91
      511
 93
      249
310
90D312F3422203D2031272D302200000000000000340FC000000000000284040
 94
        0
1001
ACAD
1000
AcadProxyRoundTripData
1071
      507
1071
   655383
1070
     0
  0
ACAD_PROXY_OBJECT
  5
3119
102
{ACAD_REACTORS
330
30FF
102
}
330
30FF
100
AcDbProxyObject
 90
      499
 91
      511
 93
      249
310
90D332F3822203D2031272D302200000000000000360FC000000000000284040
 94
        0
1001
ACAD
1000
AcadProxyRoundTripData
1071
      507
1071
   655383
1070
     0
  0
ACAD_PROXY_OBJECT
  5
311A
102
{ACAD_REACTORS
330
30FF
102
}
330
30FF
100
AcDbProxyObject
 90
      499
 91
      511
 93
      249
310
90D312F3222203D2031272D302200000000000000380FC000000000000284040
 94
        0
1001
ACAD
1000
AcadProxyRoundTripData
1071
      507
1071
   655383
1070
     0
  0
ACAD_PROXY_OBJECT
  5
311B
102
{ACAD_REACTORS
330
30FF
102
}
330
30FF
100
AcDbProxyObject
 90
      499
 91
      511
 93
      249
310
90D332F3422203D2031272D3022000000000000003A0FC000000000000284040
 94
        0
1001
ACAD
1000
AcadProxyRoundTripData
1071
      507
1071
   655383
1070
     0
  0
ACAD_PROXY_OBJECT
  5
311C
102
{ACAD_REACTORS
330
30FF
102
}
330
30FF
100
AcDbProxyObject
 90
      499
 91
      511
 93
      169
310
90B3122203D2031272D3022004000000000000284020
 94
        0
1001
ACAD
1000
AcadProxyRoundTripData
1071
      507
1071
   655383
1070
     0
  0
ACAD_PROXY_OBJECT
  5
311D
102
{ACAD_REACTORS
330
30FF
102
}
330
30FF
100
AcDbProxyObject
 90
      499
 91
      511
 93
      265
310
90F312D312F3222203D2031272D3022000000000000003E0FC00000000000028402B
 94
        0
1001
ACAD
1000
AcadProxyRoundTripData
1071
      507
1071
   655383
1070
     0
  0
ACAD_PROXY_OBJECT
  5
311E
102
{ACAD_REACTORS
330
30FF
102
}
330
30FF
100
AcDbProxyObject
 90
      499
 91
      511
 93
      233
310
90B3322203D2031272D30220000000000000002100000000000000284000
 94
        0
1001
ACAD
1000
AcadProxyRoundTripData
1071
      507
1071
   655383
1070
     0
  0
ACAD_PROXY_OBJECT
  5
311F
102
{ACAD_REACTORS
330
30FF
102
}
330
30FF
100
AcDbProxyObject
 90
      499
 91
      511
 93
      233
310
90B3622203D2031272D30220000000000000006100000000000000284000
 94
        0
1001
ACAD
1000
AcadProxyRoundTripData
1071
      507
1071
   655383
1070
     0
  0
ACAD_PROXY_OBJECT
  5
3120
102
{ACAD_REACTORS
330
30FF
102
}
330
30FF
100
AcDbProxyObject
 90
      499
 91
      511
 93
      257
310
90E31272D3022203D2031272D3022000000000000000A100000000000000284040
 94
        0
1001
ACAD
1000
AcadProxyRoundTripData
1071
      507
1071
   655383
1070
     0
  0
ACAD_PROXY_OBJECT
  5
30FE
102
{ACAD_XDICTIONARY
360
316A
102
}
102
{ACAD_REACTORS
330
30FD
102
}
330
30FD
100
AcDbProxyObject
 90
      499
 91
      511
 93
     1849
310
4254DD185B99185C990028B81E85EB51B8AE3F2E07A17AD46E2B8FC02B5E8DC0F42B1CFD028000000C1008070000C3001FDFF8000000C1003FBFF000000182007F7FE00000030400FEFFC00000060801FDFF8000000C1003FBFF00000018200000000000000681FA0B0000001820100E000186003FBFF000000182007F7FE0
310
0000030400FEFFC00000060801FDFF8000000C1003FBFF000000182007F7FE000000304000AD7A3703D0AC73F4160000003040201C00030C007F7FE00000030400FEFFC00000060801FDFF8000000C1003FBFF000000182007F7FE00000030400FEFFC00000060803A
340
16
340
16
340
16
 94
        0
1001
ACAD
1000
AcadProxyRoundTripData
1071
      506
1071
   655383
1070
     0
  0
ACAD_PROXY_OBJECT
  5
30F1
102
{ACAD_REACTORS
330
30EB
102
}
330
30EB
100
AcDbProxyObject
 90
      499
 91
      511
 93
      444
310
430C9915DA5C99599C985B59401049028333333333333E3BF0000000000000FB0107901411070040501600405405064090741402480A0340
 94
        0
1001
ACAD
1000
AcDbSavedByObjectVersion
1070
     0
1000
AcadProxyRoundTripData
1071
      505
1071
   655383
1070
     0
  0
ACAD_PROXY_OBJECT
  5
30F3
102
{ACAD_REACTORS
330
30EB
102
}
330
30EB
100
AcDbProxyObject
 90
      499
 91
      511
 93
      508
310
428CD108121A5919195B8010640502408333333333333E3BF0000000000000FB01079024090700405020000000000001110200405405064090740C02480A0340
 94
        0
1001
ACAD
1000
AcDbSavedByObjectVersion
1070
     0
1000
AcadProxyRoundTripData
1071
      505
1071
   655383
1070
     0
  0
ACAD_PROXY_OBJECT
  5
30F2
102
{ACAD_REACTORS
330
30EB
102
}
330
30EB
100
AcDbProxyObject
 90
      499
 91
      511
 93
      444
310
430CD915DA5C99599C985B59401059028333333333333E3BF0000000000000FB0107901411070040501600405405064090741402480A0340
 94
        0
1001
ACAD
1000
AcDbSavedByObjectVersion
1070
     0
1000
AcadProxyRoundTripData
1071
      505
1071
   655383
1070
     0
  0
ACAD_PROXY_OBJECT
  5
30F0
102
{ACAD_REACTORS
330
30EB
102
}
330
30EB
100
AcDbProxyObject
 90
      499
 91
      511
 93
      396
310
4190985CDA58C0107406404333333333333E3BF0000000000000FB0107A41107004050150841D405064090741402480A0356
 94
        0
1001
ACAD
1000
AcDbSavedByObjectVersion
1070
     0
1000
AcadProxyRoundTripData
1071
      505
1071
   655383
1070
     0
  0
ACAD_PROXY_OBJECT
  5
30F7
102
{ACAD_REACTORS
330
30EB
102
}
330
30EB
100
AcDbProxyObject
 90
      499
 91
      511
 93
      436
310
42509C9A59DA1D195B8010C409028333333333333E3BF0000000000000FB010790141107004050150841D405064090741402480A029956
 94
        0
1001
ACAD
1000
AcDbSavedByObjectVersion
1070
     0
1000
AcadProxyRoundTripData
1071
      505
1071
   655383
1070
     0
  0
ACAD_PROXY_OBJECT
  5
30FB
102
{ACAD_REACTORS
330
30EB
102
}
330
30EB
100
AcDbProxyObject
 90
      499
 91
      511
 93
      460
310
4310DBDB1BDC90DA185B99D9401104090240C333333333333E3BF0000000000000FB0108901411070040501508421405064090741402480A0354
 94
        0
1001
ACAD
1000
AcDbSavedByObjectVersion
1070
     0
1000
AcadProxyRoundTripData
1071
      505
1071
   655383
1070
     0
  0
ACAD_PROXY_OBJECT
  5
30F4
102
{ACAD_REACTORS
330
30EB
102
}
330
30EB
100
AcDbProxyObject
 90
      499
 91
      511
 93
      508
310
42D0DBDB98D95C1D1D585B0010940D028333333333333E3BF0000000000000FB0107902409070040501000000000000111010841D405064090740C02480A0340
 94
        0
1001
ACAD
1000
AcDbSavedByObjectVersion
1070
     0
1000
AcadProxyRoundTripData
1071
      505
1071
   655383
1070
     0
  0
ACAD_PROXY_OBJECT
  5
30F6
102
{ACAD_REACTORS
330
30EB
102
}
330
30EB
100
AcDbProxyObject
 90
      499
 91
      511
 93
      420
310
41111A5B4010B409028333333333333E3BF0000000000000FB010790141107004050150841D405064090741402480A02677FFFFFDB
 94
        0
1001
ACAD
1000
AcDbSavedByObjectVersion
1070
     0
1000
AcadProxyRoundTripData
1071
      505
1071
   655383
1070
     0
  0
ACAD_PROXY_OBJECT
  5
30FA
102
{ACAD_REACTORS
330
30EB
102
}
330
30EB
100
AcDbProxyObject
 90
      499
 91
      511
 93
      452
310
43119858D95C185D1D195C9B8010F409028333333333333E3BF0000000000000FB010790141107004050150841D405064090741402480A0350
 94
        0
1001
ACAD
1000
AcDbSavedByObjectVersion
1070
     0
1000
AcadProxyRoundTripData
1071
      505
1071
   655383
1070
     0
  0
ACAD_PROXY_OBJECT
  5
30EC
102
{ACAD_REACTORS
330
30EB
102
}
330
30EB
100
AcDbProxyObject
 90
      499
 91
      511
 93
      396
310
41519B185D00240901404333333333333E3BF0000000000000F9010740A41107004050150841D405064090741402480A1B55
 94
        0
1001
ACAD
1000
AcDbSavedByObjectVersion
1070
     0
1000
AcadProxyRoundTripData
1071
      505
1071
   655383
1070
     0
  0
ACAD_PROXY_OBJECT
  5
30ED
102
{ACAD_REACTORS
330
30EB
102
}
330
30EB
100
AcDbProxyObject
 90
      499
 91
      511
 93
      484
310
43919B185D15DA5D1A115919D95CC010140901404333333333333E3BF0000000000000F9010740901411070040501600405405064090741402480A1B50
 94
        0
1001
ACAD
1000
AcDbSavedByObjectVersion
1070
     0
1000
AcadProxyRoundTripData
1071
      505
1071
   655383
1070
     0
  0
ACAD_PROXY_OBJECT
  5
30EE
102
{ACAD_REACTORS
330
30EB
102
}
330
30EB
100
AcDbProxyObject
 90
      499
 91
      511
 93
      420
310
4211DBDD5C985D590010240902404333333333333E3BF0000000000000F9010740A411070040501641D405064090741402480A1B50
 94
        0
1001
ACAD
1000
AcDbSavedByObjectVersion
1070
     0
1000
AcadProxyRoundTripData
1071
      505
1071
   655383
1070
     0
  0
ACAD_PROXY_OBJECT
  5
30EF
102
{ACAD_REACTORS
330
30EB
102
}
330
30EB
100
AcDbProxyObject
 90
      499
 91
      511
 93
      508
310
4451DBDD5C985D5915DA5D1A115919D95CC010340902404333333333333E3BF0000000000000F9010740901411070040501600405405064090741402480A1B50
 94
        0
1001
ACAD
1000
AcDbSavedByObjectVersion
1070
     0
1000
AcadProxyRoundTripData
1071
      505
1071
   655383
1070
     0
  0
ACAD_PROXY_OBJECT
  5
30F9
102
{ACAD_REACTORS
330
30EB
102
}
330
30EB
100
AcDbProxyObject
 90
      499
 91
      511
 93
      452
310
43131A5B995C185D1D195C9B8010E409028333333333333E3BF0000000000000FB010790141107004050750841D405064090741402483A0350
 94
        0
1001
ACAD
1000
AcDbSavedByObjectVersion
1070
     0
1000
AcadProxyRoundTripData
1071
      505
1071
   655383
1070
     0
  0
ACAD_PROXY_OBJECT
  5
30F5
102
{ACAD_REACTORS
330
30EB
102
}
330
30EB
100
AcDbProxyObject
 90
      499
 91
      511
 93
      428
310
429499585B1A5CDD1A58C0108409028333333333333E3BF0000000000000FB01079019070040501508421405064090741402480A1B45
 94
        0
1001
ACAD
1000
AcDbSavedByObjectVersion
1070
     0
1000
AcadProxyRoundTripData
1071
      505
1071
   655383
1070
     0
  0
ACAD_PROXY_OBJECT
  5
30F8
102
{ACAD_REACTORS
330
30EB
102
}
330
30EB
100
AcDbProxyObject
 90
      499
 91
      511
 93
      420
310
42151A1A58DAD95B8010D409028333333333333E3BF0000000000000FB010790141107004050150C41D405064090741402480A0352
 94
        0
1001
ACAD
1000
AcDbSavedByObjectVersion
1070
     0
1000
AcadProxyRoundTripData
1071
      505
1071
   655383
1070
     0
  0
XRECORD
  5
3648
102
{ACAD_REACTORS
330
363E
102
}
330
363E
100
AcDbXrecord
 90
        0
  0
XRECORD
  5
364C
102
{ACAD_REACTORS
330
363E
102
}
330
363E
100
AcDbXrecord
1000
DSTYLE
1002
{
1070
   179
 70
     2
1070
   277
 70
     6
1002
}
  0
XRECORD
  5
3649
102
{ACAD_REACTORS
330
363E
102
}
330
363E
100
AcDbXrecord
  1
{6385560B-F4B1-4644-A7C2-A3E32AC3D232}
  0
XRECORD
  5
3641
102
{ACAD_REACTORS
330
363E
102
}
330
363E
100
AcDbXrecord
  1

  0
XRECORD
  5
3647
102
{ACAD_REACTORS
330
363E
102
}
330
363E
100
AcDbXrecord
 90
        0
  0
XRECORD
  5
3643
102
{ACAD_REACTORS
330
363E
102
}
330
363E
100
AcDbXrecord
340
61
  0
XRECORD
  5
3646
102
{ACAD_REACTORS
330
363E
102
}
330
363E
100
AcDbXrecord
 90
    10781
  0
XRECORD
  5
3644
102
{ACAD_REACTORS
330
363E
102
}
330
363E
100
AcDbXrecord
340
77
  0
XRECORD
  5
3645
102
{ACAD_REACTORS
330
363E
102
}
330
363E
100
AcDbXrecord
340
6
  0
XRECORD
  5
364B
102
{ACAD_REACTORS
330
363E
102
}
330
363E
100
AcDbXrecord
 40
0.0
  0
XRECORD
  5
364F
102
{ACAD_REACTORS
330
363E
102
}
330
363E
100
AcDbXrecord
340
0
  0
XRECORD
  5
3655
102
{ACAD_REACTORS
330
363E
102
}
330
363E
100
AcDbXrecord
 10
0.0
 20
0.0
 30
0.0
  0
XRECORD
  5
3651
102
{ACAD_REACTORS
330
363E
102
}
330
363E
100
AcDbXrecord
 10
0.0
 20
0.0
 30
0.0
  0
XRECORD
  5
3654
102
{ACAD_REACTORS
330
363E
102
}
330
363E
100
AcDbXrecord
 10
0.0
 20
0.0
 30
0.0
  0
XRECORD
  5
3652
102
{ACAD_REACTORS
330
363E
102
}
330
363E
100
AcDbXrecord
 10
0.0
 20
0.0
 30
0.0
  0
XRECORD
  5
3653
102
{ACAD_REACTORS
330
363E
102
}
330
363E
100
AcDbXrecord
 10
0.0
 20
0.0
 30
0.0
  0
XRECORD
  5
3650
102
{ACAD_REACTORS
330
363E
102
}
330
363E
100
AcDbXrecord
 10
0.0
 20
0.0
 30
0.0
  0
XRECORD
  5
364D
102
{ACAD_REACTORS
330
363E
102
}
330
363E
100
AcDbXrecord
340
0
  0
XRECORD
  5
364E
102
{ACAD_REACTORS
330
363E
102
}
330
363E
100
AcDbXrecord
 70
     0
  0
XRECORD
  5
3642
102
{ACAD_REACTORS
330
363E
102
}
330
363E
100
AcDbXrecord
  1
Sekkei.ctb
  0
XRECORD
  5
363F
102
{ACAD_REACTORS
330
363E
102
}
330
363E
100
AcDbXrecord
 90
        1
  0
XRECORD
  5
3640
102
{ACAD_REACTORS
330
363E
102
}
330
363E
100
AcDbXrecord
 90
       70
  0
XRECORD
  5
3658
102
{ACAD_REACTORS
330
363E
102
}
330
363E
100
AcDbXrecord
340
0
  0
XRECORD
  5
365E
102
{ACAD_REACTORS
330
363E
102
}
330
363E
100
AcDbXrecord
 10
0.0
 20
0.0
 30
0.0
  0
XRECORD
  5
365A
102
{ACAD_REACTORS
330
363E
102
}
330
363E
100
AcDbXrecord
 10
0.0
 20
0.0
 30
0.0
  0
XRECORD
  5
365D
102
{ACAD_REACTORS
330
363E
102
}
330
363E
100
AcDbXrecord
 10
0.0
 20
0.0
 30
0.0
  0
XRECORD
  5
365B
102
{ACAD_REACTORS
330
363E
102
}
330
363E
100
AcDbXrecord
 10
0.0
 20
0.0
 30
0.0
  0
XRECORD
  5
365C
102
{ACAD_REACTORS
330
363E
102
}
330
363E
100
AcDbXrecord
 10
0.0
 20
0.0
 30
0.0
  0
XRECORD
  5
3659
102
{ACAD_REACTORS
330
363E
102
}
330
363E
100
AcDbXrecord
 10
0.0
 20
0.0
 30
0.0
  0
XRECORD
  5
3656
102
{ACAD_REACTORS
330
363E
102
}
330
363E
100
AcDbXrecord
340
0
  0
XRECORD
  5
3657
102
{ACAD_REACTORS
330
363E
102
}
330
363E
100
AcDbXrecord
 70
     0
  0
XRECORD
  5
364A
102
{ACAD_REACTORS
330
363E
102
}
330
363E
100
AcDbXrecord
  1
{35D793B7-0C4F-453B-AEDD-385E2CE5CB5B}
  0
DICTIONARYVAR
  5
317D
102
{ACAD_REACTORS
330
102
102
}
330
102
100
DictionaryVariables
280
     0
  1
1:1
  0
DICTIONARYVAR
  5
317C
102
{ACAD_REACTORS
330
102
102
}
330
102
100
DictionaryVariables
280
     0
  1
STANDARD
  0
DICTIONARYVAR
  5
317B
102
{ACAD_REACTORS
330
102
102
}
330
102
100
DictionaryVariables
280
     0
  1
STANDARD
  0
DICTIONARYVAR
  5
103
102
{ACAD_REACTORS
330
102
102
}
330
102
100
DictionaryVariables
280
     0
  1
1
  0
DICTIONARYVAR
  5
317E
102
{ACAD_REACTORS
330
102
102
}
330
102
100
DictionaryVariables
280
     0
  1
0
  0
DICTIONARYVAR
  5
549
102
{ACAD_REACTORS
330
102
102
}
330
102
100
DictionaryVariables
280
     0
  1
96
  0
DICTIONARY
  5
30DC
330
30DB
100
AcDbDictionary
280
     1
  3
ACAD_XREC_ROUNDTRIP
360
3614
  3
BUMPTILE
360
30DE
  3
DIFFUSETILE
360
30DD
  3
OPACITYTILE
360
30E1
  3
REFLECTIONTILE
360
30E0
  3
REFRACTIONTILE
360
30E2
  3
SPECULARTILE
360
30DF
  0
DICTIONARY
  5
30D4
330
30D3
100
AcDbDictionary
280
     1
  3
ACAD_XREC_ROUNDTRIP
360
3613
  3
BUMPTILE
360
30D6
  3
DIFFUSETILE
360
30D5
  3
OPACITYTILE
360
30D9
  3
REFLECTIONTILE
360
30D8
  3
REFRACTIONTILE
360
30DA
  3
SPECULARTILE
360
30D7
  0
DICTIONARY
  5
30E4
330
30E3
100
AcDbDictionary
280
     1
  3
ACAD_XREC_ROUNDTRIP
360
3615
  3
BUMPTILE
360
30E6
  3
DIFFUSETILE
360
30E5
  3
OPACITYTILE
360
30E9
  3
REFLECTIONTILE
360
30E8
  3
REFRACTIONTILE
360
30EA
  3
SPECULARTILE
360
30E7
  0
DICTIONARY
  5
316A
330
30FE
100
AcDbDictionary
280
     1
  3
ACAD_ROUNDTRIP_2008_TABLES
360
3609
  3
ACAD_XREC_ROUNDTRIP
360
3616
  0
XRECORD
  5
3614
102
{ACAD_REACTORS
330
30DC
102
}
330
30DC
100
AcDbXrecord
102
MATERIAL
148
0.0
149
0.0
149
0.0
 93
        0
 94
      127
282
     0
 72
     0
 77
     0
171
     0
175
     0
179
     0
273
     0
  0
XRECORD
  5
30DE
102
{ACAD_REACTORS
330
30DC
102
}
330
30DC
100
AcDbXrecord
270
     1
271
     1
  0
XRECORD
  5
30DD
102
{ACAD_REACTORS
330
30DC
102
}
330
30DC
100
AcDbXrecord
270
     1
271
     1
  0
XRECORD
  5
30E1
102
{ACAD_REACTORS
330
30DC
102
}
330
30DC
100
AcDbXrecord
270
     1
271
     1
  0
XRECORD
  5
30E0
102
{ACAD_REACTORS
330
30DC
102
}
330
30DC
100
AcDbXrecord
270
     1
271
     1
  0
XRECORD
  5
30E2
102
{ACAD_REACTORS
330
30DC
102
}
330
30DC
100
AcDbXrecord
270
     1
271
     1
  0
XRECORD
  5
30DF
102
{ACAD_REACTORS
330
30DC
102
}
330
30DC
100
AcDbXrecord
270
     1
271
     1
  0
XRECORD
  5
3613
102
{ACAD_REACTORS
330
30D4
102
}
330
30D4
100
AcDbXrecord
102
MATERIAL
148
0.0
149
0.0
149
0.0
 93
        0
 94
      127
282
     0
 72
     0
 77
     0
171
     0
175
     0
179
     0
273
     0
  0
XRECORD
  5
30D6
102
{ACAD_REACTORS
330
30D4
102
}
330
30D4
100
AcDbXrecord
270
     1
271
     1
  0
XRECORD
  5
30D5
102
{ACAD_REACTORS
330
30D4
102
}
330
30D4
100
AcDbXrecord
270
     1
271
     1
  0
XRECORD
  5
30D9
102
{ACAD_REACTORS
330
30D4
102
}
330
30D4
100
AcDbXrecord
270
     1
271
     1
  0
XRECORD
  5
30D8
102
{ACAD_REACTORS
330
30D4
102
}
330
30D4
100
AcDbXrecord
270
     1
271
     1
  0
XRECORD
  5
30DA
102
{ACAD_REACTORS
330
30D4
102
}
330
30D4
100
AcDbXrecord
270
     1
271
     1
  0
XRECORD
  5
30D7
102
{ACAD_REACTORS
330
30D4
102
}
330
30D4
100
AcDbXrecord
270
     1
271
     1
  0
XRECORD
  5
3615
102
{ACAD_REACTORS
330
30E4
102
}
330
30E4
100
AcDbXrecord
102
MATERIAL
148
0.0
149
0.0
149
0.0
 93
        0
 94
      127
282
     0
 72
     0
 77
     0
171
     0
175
     0
179
     0
273
     0
  0
XRECORD
  5
30E6
102
{ACAD_REACTORS
330
30E4
102
}
330
30E4
100
AcDbXrecord
270
     1
271
     1
  0
XRECORD
  5
30E5
102
{ACAD_REACTORS
330
30E4
102
}
330
30E4
100
AcDbXrecord
270
     1
271
     1
  0
XRECORD
  5
30E9
102
{ACAD_REACTORS
330
30E4
102
}
330
30E4
100
AcDbXrecord
270
     1
271
     1
  0
XRECORD
  5
30E8
102
{ACAD_REACTORS
330
30E4
102
}
330
30E4
100
AcDbXrecord
270
     1
271
     1
  0
XRECORD
  5
30EA
102
{ACAD_REACTORS
330
30E4
102
}
330
30E4
100
AcDbXrecord
270
     1
271
     1
  0
XRECORD
  5
30E7
102
{ACAD_REACTORS
330
30E4
102
}
330
30E4
100
AcDbXrecord
270
     1
271
     1
  0
ACAD_PROXY_OBJECT
  5
3609
102
{ACAD_REACTORS
330
316A
102
}
330
316A
100
AcDbProxyObject
 90
      499
 91
      511
 93
     1044
310
40D054060020000020000003200101A000080002A5058000000C100000000000000340FE901405075F5449544C450041501A8000000C800406800020000A9416000000304000AD7A3703D0AC73FA409014217D2115051115480105406A0000003200101A000080002A5028000000C10002B5E8DC0F42B1CFE903409065F444
310
15441003
340
16
340
16
340
16
 94
        0
1001
ACAD
1000
AcadProxyRoundTripData
1071
      509
1071
   655383
1070
     0
  0
XRECORD
  5
3616
102
{ACAD_REACTORS
330
316A
102
}
330
316A
100
AcDbXrecord
102
ACAD_ROUNDTRIP_PRE2007_TABLESTYLE
 90
      512
 91
        0
  1

 92
      512
 93
        0
  2

 94
      512
 95
        0
  3

  0
ENDSEC
  0
EOF
