  0
SECTION
  2
HEADER
  9
$ACADVER
  1
AC1014
  9
$ACADMAINTVER
 70
     9
  9
$DWGCODEPAGE
  3
ANSI_932
  9
$INSBASE
 10
0.0
 20
0.0
 30
0.0
  9
$EXTMIN
 10
96.90549985415925
 20
64.33258876335049
 30
0.0
  9
$EXTMAX
 10
523.9676517365187
 20
397.5824381906011
 30
0.0
  9
$LIMMIN
 10
0.0
 20
0.0
  9
$LIMMAX
 10
297.0
 20
210.0
  9
$ORTHOMODE
 70
     1
  9
$REGENMODE
 70
     1
  9
$FILLMODE
 70
     1
  9
$QTEXTMODE
 70
     0
  9
$MIRRTEXT
 70
     0
  9
$DRAGMODE
 70
     2
  9
$LTSCALE
 40
2.0
  9
$OSMODE
 70
    37
  9
$ATTMODE
 70
     1
  9
$TEXTSIZE
 40
2.0
  9
$TRACEWID
 40
1.0
  9
$TEXTSTYLE
  7
STANDARD
  9
$CLAYER
  8
0
  9
$CELTYPE
  6
BYLAYER
  9
$CECOLOR
 62
   256
  9
$CELTSCALE
 40
1.0
  9
$DELOBJ
 70
     1
  9
$DISPSILH
 70
     0
  9
$DIMSCALE
 40
2.0
  9
$DIMASZ
 40
1.8
  9
$DIMEXO
 40
0.625
  9
$DIMDLI
 40
3.75
  9
$DIMRND
 40
0.0
  9
$DIMDLE
 40
0.0
  9
$DIMEXE
 40
0.8
  9
$DIMTP
 40
0.0
  9
$DIMTM
 40
0.0
  9
$DIMTXT
 40
1.8
  9
$DIMCEN
 40
2.5
  9
$DIMTSZ
 40
0.0
  9
$DIMTOL
 70
     0
  9
$DIMLIM
 70
     0
  9
$DIMTIH
 70
     0
  9
$DIMTOH
 70
     0
  9
$DIMSE1
 70
     0
  9
$DIMSE2
 70
     0
  9
$DIMTAD
 70
     1
  9
$DIMZIN
 70
     8
  9
$DIMBLK
  1

  9
$DIMASO
 70
     1
  9
$DIMSHO
 70
     1
  9
$DIMPOST
  1

  9
$DIMAPOST
  1

  9
$DIMALT
 70
     0
  9
$DIMALTD
 70
     4
  9
$DIMALTF
 40
0.0394
  9
$DIMLFAC
 40
1.0
  9
$DIMTOFL
 70
     1
  9
$DIMTVP
 40
0.0
  9
$DIMTIX
 70
     0
  9
$DIMSOXD
 70
     0
  9
$DIMSAH
 70
     0
  9
$DIMBLK1
  1

  9
$DIMBLK2
  1

  9
$DIMSTYLE
  2
STANDARD
  9
$DIMCLRD
 70
     0
  9
$DIMCLRE
 70
     0
  9
$DIMCLRT
 70
     0
  9
$DIMTFAC
 40
1.0
  9
$DIMGAP
 40
0.75
  9
$DIMJUST
 70
     0
  9
$DIMSD1
 70
     0
  9
$DIMSD2
 70
     0
  9
$DIMTOLJ
 70
     1
  9
$DIMTZIN
 70
     0
  9
$DIMALTZ
 70
     0
  9
$DIMALTTZ
 70
     0
  9
$DIMFIT
 70
     3
  9
$DIMUPT
 70
     0
  9
$DIMUNIT
 70
     8
  9
$DIMDEC
 70
     2
  9
$DIMTDEC
 70
     2
  9
$DIMALTU
 70
     8
  9
$DIMALTTD
 70
     4
  9
$DIMTXSTY
  7
STANDARD
  9
$DIMAUNIT
 70
     0
  9
$LUNITS
 70
     2
  9
$LUPREC
 70
     3
  9
$SKETCHINC
 40
1.0
  9
$FILLETRAD
 40
10.0
  9
$AUNITS
 70
     0
  9
$AUPREC
 70
     2
  9
$MENU
  1
.
  9
$ELEVATION
 40
0.0
  9
$PELEVATION
 40
0.0
  9
$THICKNESS
 40
0.0
  9
$LIMCHECK
 70
     0
  9
$BLIPMODE
 70
     0
  9
$CHAMFERA
 40
0.0
  9
$CHAMFERB
 40
0.0
  9
$CHAMFERC
 40
20.0
  9
$CHAMFERD
 40
0.0
  9
$SKPOLY
 70
     0
  9
$TDCREATE
 40
2454243.702919919
  9
$TDUPDATE
 40
2454306.700727534
  9
$TDINDWG
 40
0.1331908333
  9
$TDUSRTIMER
 40
0.1331908333
  9
$USRTIMER
 70
     1
  9
$ANGBASE
 50
0.0
  9
$ANGDIR
 70
     0
  9
$PDMODE
 70
     0
  9
$PDSIZE
 40
-10.0
  9
$PLINEWID
 40
0.0
  9
$COORDS
 70
     1
  9
$SPLFRAME
 70
     0
  9
$SPLINETYPE
 70
     6
  9
$SPLINESEGS
 70
     8
  9
$ATTDIA
 70
     0
  9
$ATTREQ
 70
     1
  9
$HANDLING
 70
-16383
  9
$HANDSEED
  5
314F
  9
$SURFTAB1
 70
     6
  9
$SURFTAB2
 70
     6
  9
$SURFTYPE
 70
     6
  9
$SURFU
 70
     6
  9
$SURFV
 70
     6
  9
$UCSNAME
  2

  9
$UCSORG
 10
0.0
 20
0.0
 30
0.0
  9
$UCSXDIR
 10
1.0
 20
0.0
 30
0.0
  9
$UCSYDIR
 10
0.0
 20
1.0
 30
0.0
  9
$PUCSNAME
  2

  9
$PUCSORG
 10
0.0
 20
0.0
 30
0.0
  9
$PUCSXDIR
 10
1.0
 20
0.0
 30
0.0
  9
$PUCSYDIR
 10
0.0
 20
1.0
 30
0.0
  9
$USERI1
 70
     0
  9
$USERI2
 70
     0
  9
$USERI3
 70
     0
  9
$USERI4
 70
     0
  9
$USERI5
 70
     0
  9
$USERR1
 40
0.0
  9
$USERR2
 40
0.0
  9
$USERR3
 40
0.0
  9
$USERR4
 40
0.0
  9
$USERR5
 40
0.0
  9
$WORLDVIEW
 70
     1
  9
$SHADEDGE
 70
     3
  9
$SHADEDIF
 70
    70
  9
$TILEMODE
 70
     1
  9
$MAXACTVP
 70
    48
  9
$PINSBASE
 10
0.0
 20
0.0
 30
0.0
  9
$PLIMCHECK
 70
     0
  9
$PEXTMIN
 10
0.0
 20
0.0
 30
0.0
  9
$PEXTMAX
 10
0.0
 20
0.0
 30
0.0
  9
$PLIMMIN
 10
0.0
 20
0.0
  9
$PLIMMAX
 10
12.0
 20
9.0
  9
$UNITMODE
 70
     0
  9
$VISRETAIN
 70
     1
  9
$PLINEGEN
 70
     0
  9
$PSLTSCALE
 70
     1
  9
$TREEDEPTH
 70
  3020
  9
$PICKSTYLE
 70
     1
  9
$CMLSTYLE
  2
STANDARD
  9
$CMLJUST
 70
     0
  9
$CMLSCALE
 40
1.0
  9
$PROXYGRAPHICS
 70
     1
  9
$MEASUREMENT
 70
     0
  0
ENDSEC
  0
SECTION
  2
CLASSES
  0
CLASS
  1
DICTIONARYVAR
  2
AcDbDictionaryVar
  3
AutoCAD 2000
 90
        0
280
     0
281
     0
  0
CLASS
  1
ACDBDICTIONARYWDFLT
  2
AcDbDictionaryWithDefault
  3
AutoCAD 2000
 90
        0
280
     0
281
     0
  0
CLASS
  1
ACDBPLACEHOLDER
  2
AcDbPlaceHolder
  3
AutoCAD 2000
 90
        0
280
     0
281
     0
  0
CLASS
  1
LAYOUT
  2
AcDbLayout
  3
AutoCAD 2000
 90
        0
280
     0
281
     0
  0
CLASS
  1
LONG_TRANSACTION
  2
AcDbLongTransaction
  3
AutoCAD 2000
 90
        0
280
     0
281
     0
  0
CLASS
  1
LWPOLYLINE
  2
AcDbPolyline
  3
AutoCAD 2000
 90
        0
280
     0
281
     1
  0
CLASS
  1
HATCH
  2
AcDbHatch
  3
AutoCAD 2000
 90
        0
280
     0
281
     1
  0
CLASS
  1
XRECORD
  2
AcDbXrecord
  3
AutoCAD 2000
 90
        0
280
     0
281
     0
  0
ENDSEC
  0
SECTION
  2
TABLES
  0
TABLE
  2
VPORT
  5
6E
330
0
100
AcDbSymbolTable
 70
     2
  0
VPORT
  5
3129
330
6E
100
AcDbSymbolTableRecord
100
AcDbViewportTableRecord
  2
*ACTIVE
 70
     0
 10
0.0
 20
0.0
 11
1.0
 21
1.0
 12
313.202363625018
 22
220.009246436864
 13
0.0
 23
0.0
 14
10.0
 24
10.0
 15
10.0
 25
10.0
 16
0.0
 26
0.0
 36
1.0
 17
0.0
 27
0.0
 37
0.0
 40
357.6034019315663
 41
1.624458874458874
 42
50.0
 43
0.0
 44
0.0
 50
0.0
 51
0.0
 71
     0
 72
   100
 73
     1
 74
     3
 75
     0
 76
     0
 77
     0
 78
     0
  0
ENDTAB
  0
TABLE
  2
LTYPE
  5
69
330
0
100
AcDbSymbolTable
 70
     5
  0
LTYPE
  5
6A
330
69
100
AcDbSymbolTableRecord
100
AcDbLinetypeTableRecord
  2
BYBLOCK
 70
     0
  3

 72
    65
 73
     0
 40
0.0
  0
LTYPE
  5
6B
330
69
100
AcDbSymbolTableRecord
100
AcDbLinetypeTableRecord
  2
BYLAYER
 70
     0
  3

 72
    65
 73
     0
 40
0.0
  0
LTYPE
  5
8
330
69
100
AcDbSymbolTableRecord
100
AcDbLinetypeTableRecord
  2
CONTINUOUS
 70
     0
  3
Solid line
 72
    65
 73
     0
 40
0.0
  0
LTYPE
  5
27C
330
69
100
AcDbSymbolTableRecord
100
AcDbLinetypeTableRecord
  2
SEKKEI_A2_
 70
     0
  3
center(A2)  ____ _ ____ _ ____ _ ____ _ ____ _ 
 72
    65
 73
     4
 40
14.28749999999999
 49
9.525
 74
     0
 49
-1.587499999999999
 74
     0
 49
1.587499999999999
 74
     0
 49
-1.587499999999999
 74
     0
  0
LTYPE
  5
2B4
330
69
100
AcDbSymbolTableRecord
100
AcDbLinetypeTableRecord
  2
HIDDEN2
 70
     0
  3
Hidden (.5x) _ _ _ _ _ _ _ _ _ _ _ _ _ _ _ _ _
 72
    65
 73
     2
 40
4.762499999999999
 49
3.174999999999999
 74
     0
 49
-1.587499999999999
 74
     0
  0
LTYPE
  5
48F
330
69
100
AcDbSymbolTableRecord
100
AcDbLinetypeTableRecord
  2
SEKKEI_H
 70
     0
  3
Hidden-S _ _ _ _ _ _ _ _ _ _ _ _ _ _ _ _ _
 72
    65
 73
     2
 40
2.381249999999999
 49
1.587499999999999
 74
     0
 49
-0.79375
 74
     0
  0
ENDTAB
  0
TABLE
  2
LAYER
  5
66
102
{ACAD_XDICTIONARY
360
8D5
102
}
330
0
100
AcDbSymbolTable
 70
     9
  0
LAYER
  5
5E
330
66
100
AcDbSymbolTableRecord
100
AcDbLayerTableRecord
  2
0
 70
     0
 62
     7
  6
CONTINUOUS
  0
LAYER
  5
3E
330
66
100
AcDbSymbolTableRecord
100
AcDbLayerTableRecord
  2
CENTER
 70
     0
 62
     3
  6
SEKKEI_A2_
  0
LAYER
  5
2B5
330
66
100
AcDbSymbolTableRecord
100
AcDbLayerTableRecord
  2
HIDS
 70
     0
 62
     1
  6
HIDDEN2
  0
LAYER
  5
2BA
330
66
100
AcDbSymbolTableRecord
100
AcDbLayerTableRecord
  2
HOJO
 70
     0
 62
     4
  6
CONTINUOUS
  0
LAYER
  5
3FA
330
66
100
AcDbSymbolTableRecord
100
AcDbLayerTableRecord
  2
TITLE
 70
     0
 62
     4
  6
CONTINUOUS
  0
ENDTAB
  0
TABLE
  2
STYLE
  5
67
330
0
100
AcDbSymbolTable
 70
     1
  0
STYLE
  5
16
330
67
100
AcDbSymbolTableRecord
100
AcDbTextStyleTableRecord
  2
STANDARD
 70
     0
 40
0.0
 41
1.0
 50
0.0
 71
     0
 42
2.0
  3
simplex.shx
  4
extfont.shx
  0
ENDTAB
  0
TABLE
  2
VIEW
  5
6C
330
0
100
AcDbSymbolTable
 70
     0
  0
ENDTAB
  0
TABLE
  2
UCS
  5
6D
330
0
100
AcDbSymbolTable
 70
     0
  0
ENDTAB
  0
TABLE
  2
APPID
  5
70
330
0
100
AcDbSymbolTable
 70
     1
  0
APPID
  5
71
330
70
100
AcDbSymbolTableRecord
100
AcDbRegAppTableRecord
  2
ACAD
 70
     0
  0
ENDTAB
  0
TABLE
  2
DIMSTYLE
  5
72
330
0
100
AcDbSymbolTable
 70
     1
  0
DIMSTYLE
105
73
330
72
100
AcDbSymbolTableRecord
100
AcDbDimStyleTableRecord
  2
STANDARD
 70
     0
  3

  4

  5

  6

  7

 40
2.0
 41
1.8
 42
0.625
 43
3.75
 44
0.8
 45
0.0
 46
0.0
 47
0.0
 48
0.0
140
1.8
141
2.5
142
0.0
143
0.0394
144
1.0
145
0.0
146
1.0
147
0.75
 71
     0
 72
     0
 73
     0
 74
     0
 75
     0
 76
     0
 77
     1
 78
     8
170
     0
171
     4
172
     1
173
     0
174
     0
175
     0
176
     0
177
     0
178
     0
270
     8
271
     2
272
     2
273
     8
274
     4
340
16
275
     0
280
     0
281
     0
282
     0
283
     1
284
     0
285
     0
286
     0
287
     3
288
     0
  0
ENDTAB
  0
TABLE
  2
BLOCK_RECORD
  5
1
330
0
100
AcDbSymbolTable
 70
    37
  0
BLOCK_RECORD
  5
2
102
{ACAD_XDICTIONARY
360
314B
102
}
330
1
100
AcDbSymbolTableRecord
100
AcDbBlockTableRecord
  2
*MODEL_SPACE
  0
BLOCK_RECORD
  5
3124
102
{ACAD_XDICTIONARY
360
314D
102
}
330
1
100
AcDbSymbolTableRecord
100
AcDbBlockTableRecord
  2
*PAPER_SPACE
  0
ENDTAB
  0
ENDSEC
  0
SECTION
  2
BLOCKS
  0
BLOCK
  5
5D
330
2
100
AcDbEntity
  8
0
100
AcDbBlockBegin
  2
*MODEL_SPACE
 70
     0
 10
0.0
 20
0.0
 30
0.0
  3
*MODEL_SPACE
  1

  0
ENDBLK
  5
5F
330
2
100
AcDbEntity
  8
0
100
AcDbBlockEnd
  0
BLOCK
  5
3126
330
3124
100
AcDbEntity
 67
     1
  8
0
100
AcDbBlockBegin
  2
*PAPER_SPACE
 70
     0
 10
0.0
 20
0.0
 30
0.0
  3
*PAPER_SPACE
  1

  0
ENDBLK
  5
3127
330
3124
100
AcDbEntity
 67
     1
  8
0
100
AcDbBlockEnd
  0
ENDSEC
  0
SECTION
  2
ENTITIES
  0
LINE
  5
2CE3
330
2
100
AcDbEntity
  8
CENTER
100
AcDbLine
 10
241.6244018541599
 20
386.9821271906012
 30
0.0
 11
253.7729918541599
 21
386.9821271906012
 31
0.0
  0
ARC
  5
2CE4
330
2
100
AcDbEntity
  8
HIDS
100
AcDbCircle
 10
247.4054998541599
 20
386.9821271906012
 30
0.0
 40
3.25
100
AcDbArc
 50
180.0
 51
0.0
  0
ARC
  5
2CE5
330
2
100
AcDbEntity
  8
0
100
AcDbCircle
 10
247.4054998541599
 20
386.9821271906012
 30
0.0
 40
3.25
100
AcDbArc
 50
0.0
 51
180.0
  0
LINE
  5
2CE6
330
2
100
AcDbEntity
  8
0
100
AcDbLine
 10
202.4054998541599
 20
393.9821271906012
 30
0.0
 11
252.4054998541599
 21
393.9821271906012
 31
0.0
  0
ARC
  5
2CE7
330
2
100
AcDbEntity
  8
0
100
AcDbCircle
 10
247.4054998541599
 20
296.9821271906011
 30
0.0
 40
3.25
100
AcDbArc
 50
180.0
 51
0.0
  0
LINE
  5
2CE8
330
2
100
AcDbEntity
  8
CENTER
100
AcDbLine
 10
241.6244018541599
 20
296.9821271906011
 30
0.0
 11
253.7729918541599
 21
296.9821271906011
 31
0.0
  0
ARC
  5
2CE9
330
2
100
AcDbEntity
  8
HIDS
100
AcDbCircle
 10
247.4054998541599
 20
296.9821271906011
 30
0.0
 40
3.25
100
AcDbArc
 50
0.0
 51
180.0
  0
LINE
  5
2CEA
330
2
100
AcDbEntity
  8
0
100
AcDbLine
 10
202.4054998541599
 20
289.9821271906012
 30
0.0
 11
252.4054998541599
 21
289.9821271906012
 31
0.0
  0
LINE
  5
2CEB
330
2
100
AcDbEntity
  8
0
100
AcDbLine
 10
140.40549985416
 20
296.9821271906011
 30
0.0
 11
255.4054998541598
 21
296.9821271906011
 31
0.0
  0
LINE
  5
2CEC
330
2
100
AcDbEntity
  8
0
100
AcDbLine
 10
140.4054998541599
 20
312.9821271906012
 30
0.0
 11
255.4054998541598
 21
312.9821271906012
 31
0.0
  0
LINE
  5
2CED
330
2
100
AcDbEntity
  8
0
100
AcDbLine
 10
140.4054998541599
 20
370.9821271906012
 30
0.0
 11
255.4054998541598
 21
370.9821271906012
 31
0.0
  0
LINE
  5
2CEE
330
2
100
AcDbEntity
  8
0
100
AcDbLine
 10
140.4054998541599
 20
386.9821271906012
 30
0.0
 11
255.4054998541598
 21
386.9821271906012
 31
0.0
  0
LINE
  5
2CEF
330
2
100
AcDbEntity
  8
0
100
AcDbLine
 10
140.4054998541598
 20
168.1846887633505
 30
0.0
 11
255.4054998541598
 21
168.1846887633505
 31
0.0
  0
LINE
  5
2CF0
330
2
100
AcDbEntity
  8
0
100
AcDbLine
 10
255.4054998541598
 20
157.5939907633505
 30
0.0
 11
140.4055098541598
 21
157.5939907633505
 31
0.0
  0
LINE
  5
2CF1
330
2
100
AcDbEntity
  8
CENTER
100
AcDbLine
 10
96.90549985415925
 20
341.9821271906011
 30
0.0
 11
294.8831137550815
 21
341.9821271906012
 31
0.0
  0
LINE
  5
2CF2
330
2
100
AcDbEntity
  8
0
100
AcDbLine
 10
255.4054998541598
 20
88.77538676335053
 30
0.0
 11
238.4054998541598
 21
88.77538676335053
 31
0.0
  0
LINE
  5
2CF4
330
2
100
AcDbEntity
  8
0
100
AcDbLine
 10
199.4054998541598
 20
71.18468876335055
 30
0.0
 11
255.4054998541598
 21
71.18468876335055
 31
0.0
  0
LINE
  5
2CF5
330
2
100
AcDbEntity
  8
0
100
AcDbLine
 10
201.4055228541598
 20
79.18468876335055
 30
0.0
 11
253.4054998541598
 21
79.18468876335055
 31
0.0
  0
LINE
  5
2CF7
330
2
100
AcDbEntity
  8
CENTER
100
AcDbLine
 10
233.8252008541599
 20
136.1846887633505
 30
0.0
 11
292.9254905576304
 21
136.1846887633505
 31
0.0
  0
LINE
  5
2CF8
330
2
100
AcDbEntity
  8
CENTER
100
AcDbLine
 10
96.9054998541593
 20
123.1846887633505
 30
0.0
 11
264.6822028541598
 21
123.1846887633505
 31
0.0
  0
LINE
  5
2CFD
330
2
100
AcDbEntity
  8
CENTER
100
AcDbLine
 10
118.9054998541598
 20
150.9346887633503
 30
0.0
 11
118.9054998541598
 21
196.8844867633504
 31
0.0
  0
LINE
  5
2CFE
330
2
100
AcDbEntity
  8
0
100
AcDbLine
 10
127.2359355977666
 20
187.7052364632343
 30
0.0
 11
127.2359355977666
 21
179.1846887633503
 31
0.0
  0
LINE
  5
2CFF
330
2
100
AcDbEntity
  8
0
100
AcDbLine
 10
123.5654451673201
 20
187.7052364632343
 30
0.0
 11
123.5654451673201
 21
179.1846887633503
 31
0.0
  0
LINE
  5
2D00
330
2
100
AcDbEntity
  8
0
100
AcDbLine
 10
122.5759902846068
 20
187.7052364632343
 30
0.0
 11
122.5759902846068
 21
179.1846887633503
 31
0.0
  0
LINE
  5
2D01
330
2
100
AcDbEntity
  8
0
100
AcDbLine
 10
115.2350094237133
 20
187.7052364632343
 30
0.0
 11
115.2350094237133
 21
179.1846887633503
 31
0.0
  0
LINE
  5
2D02
330
2
100
AcDbEntity
  8
0
100
AcDbLine
 10
110.5750641105535
 20
187.7052364632343
 30
0.0
 11
110.5750641105535
 21
179.1846887633503
 31
0.0
  0
LINE
  5
2D03
330
2
100
AcDbEntity
  8
0
100
AcDbLine
 10
114.245554541
 20
187.7052364632343
 30
0.0
 11
114.245554541
 21
179.1846887633503
 31
0.0
  0
LINE
  5
2D05
330
2
100
AcDbEntity
  8
0
100
AcDbLine
 10
140.4054998541598
 20
78.18468876335055
 30
0.0
 11
199.4054998541598
 21
78.18468876335055
 31
0.0
  0
LINE
  5
2D06
330
2
100
AcDbEntity
  8
0
100
AcDbLine
 10
197.4055308541599
 20
88.77538676335053
 30
0.0
 11
140.4054998541598
 21
88.77538676335053
 31
0.0
  0
LINE
  5
2D07
330
2
100
AcDbEntity
  8
0
100
AcDbLine
 10
106.9054998541598
 20
161.1846887633507
 30
0.0
 11
106.9054998541598
 21
85.37248576335082
 31
0.0
  0
LINE
  5
2D08
330
2
100
AcDbEntity
  8
0
100
AcDbLine
 10
131.405442181978
 20
168.0348730957134
 30
0.0
 11
131.40543748514
 21
78.33984935538637
 31
0.0
  0
LINE
  5
2D09
330
2
100
AcDbEntity
  8
0
100
AcDbLine
 10
130.9054998541598
 20
167.5272790944286
 30
0.0
 11
130.9054998541598
 21
78.84774651501129
 31
0.0
  0
LINE
  5
2D0A
330
2
100
AcDbEntity
  8
0
100
AcDbLine
 10
140.4054998541598
 20
168.1846887633505
 30
0.0
 11
140.4054998541598
 21
78.18468876335055
 31
0.0
  0
ARC
  5
2D0B
330
2
100
AcDbEntity
  8
0
100
AcDbCircle
 10
109.9054998541598
 20
85.37248576335082
 30
0.0
 40
3.0
100
AcDbArc
 50
180.0
 51
269.5000000000084
  0
LINE
  5
2D0C
330
2
100
AcDbEntity
  8
0
100
AcDbLine
 10
140.4054998541598
 20
88.77538769518059
 30
0.0
 11
131.4054380398181
 21
88.93248435850773
 31
0.0
  0
LINE
  5
2D0D
330
2
100
AcDbEntity
  8
0
100
AcDbLine
 10
131.40543748514
 20
78.33984935538637
 30
0.0
 11
140.4054998541598
 21
78.19768176335083
 31
0.0
  0
LINE
  5
2D0E
330
2
100
AcDbEntity
  8
0
100
AcDbLine
 10
127.3573419221922
 20
82.22006167624783
 30
0.0
 11
109.8793008541599
 21
82.37258476335069
 31
0.0
  0
LINE
  5
2D0F
330
2
100
AcDbEntity
  8
0
100
AcDbLine
 10
130.9054998541598
 20
78.84774651501129
 30
0.0
 11
131.40543748514
 21
78.33984935538637
 31
0.0
  0
ARC
  5
2D10
330
2
100
AcDbEntity
  8
0
100
AcDbCircle
 10
109.9054998541598
 20
161.1846887633507
 30
0.0
 40
3.0
100
AcDbArc
 50
99.59406822685169
 51
180.0
  0
LINE
  5
2D11
330
2
100
AcDbEntity
  8
0
100
AcDbLine
 10
140.4054998541598
 20
157.5939898315214
 30
0.0
 11
131.4054416270198
 21
157.4368932308093
 31
0.0
  0
LINE
  5
2D12
330
2
100
AcDbEntity
  8
0
100
AcDbLine
 10
131.405442181978
 20
168.0348730957134
 30
0.0
 11
140.4054998541598
 21
168.1715817633507
 31
0.0
  0
LINE
  5
2D15
330
2
100
AcDbEntity
  8
CENTER
100
AcDbLine
 10
118.9054998541598
 20
174.1276064227556
 30
0.0
 11
118.9054998541598
 21
151.7552908111563
 31
0.0
  0
LINE
  5
2D16
330
2
100
AcDbEntity
  8
0
100
AcDbLine
 10
109.4054998541598
 20
160.5164930125204
 30
0.0
 11
109.4054998541598
 21
167.1179169990752
 31
0.0
  0
LINE
  5
2D17
330
2
100
AcDbEntity
  8
0
100
AcDbLine
 10
110.4054998541598
 20
159.5164930125204
 30
0.0
 11
127.4054998541598
 21
159.5164930125204
 31
0.0
  0
LINE
  5
2D18
330
2
100
AcDbEntity
  8
0
100
AcDbLine
 10
124.9054998541598
 20
174.0846887633504
 30
0.0
 11
124.9054998541598
 21
179.1846887633505
 31
0.0
  0
LINE
  5
2D19
330
2
100
AcDbEntity
  8
HOJO
100
AcDbLine
 10
124.1554998541598
 20
174.0846887633504
 30
0.0
 11
124.1554998541598
 21
179.1846887633505
 31
0.0
  0
LINE
  5
2D1A
330
2
100
AcDbEntity
  8
0
100
AcDbLine
 10
112.9054998541598
 20
174.0846887633504
 30
0.0
 11
112.9054998541598
 21
179.1846887633505
 31
0.0
  0
LINE
  5
2D1B
330
2
100
AcDbEntity
  8
HOJO
100
AcDbLine
 10
113.6554998541598
 20
174.0846887633504
 30
0.0
 11
113.6554998541598
 21
179.1846887633505
 31
0.0
  0
LINE
  5
2D1C
330
2
100
AcDbEntity
  8
0
100
AcDbLine
 10
127.2359355977666
 20
179.1846887633503
 30
0.0
 11
110.5750641105535
 21
179.1846887633503
 31
0.0
  0
LINE
  5
2D1D
330
2
100
AcDbEntity
  8
0
100
AcDbLine
 10
127.2359355977666
 20
173.6052364632343
 30
0.0
 11
126.4054998541594
 21
174.0846887633504
 31
0.0
  0
LINE
  5
2D1E
330
2
100
AcDbEntity
  8
0
100
AcDbLine
 10
127.2359355977666
 20
173.6052364632343
 30
0.0
 11
127.2359355977666
 21
169.0846887633504
 31
0.0
  0
LINE
  5
2D1F
330
2
100
AcDbEntity
  8
0
100
AcDbLine
 10
127.9054998541598
 20
167.9765479864756
 30
0.0
 11
127.9054998541598
 21
169.0846887633504
 31
0.0
  0
ARC
  5
2D20
330
2
100
AcDbEntity
  8
0
100
AcDbCircle
 10
127.4054998541598
 20
167.1105225826911
 30
0.0
 40
1.0
100
AcDbArc
 50
0.0
 51
89.50033850738121
  0
ARC
  5
2D21
330
2
100
AcDbEntity
  8
0
100
AcDbCircle
 10
118.9054998541598
 20
159.7950769450631
 30
0.0
 40
14.28961181828743
100
AcDbArc
 50
75.11592111934987
 51
104.8840788806501
  0
LINE
  5
2D22
330
2
100
AcDbEntity
  8
0
100
AcDbLine
 10
115.2350094237133
 20
173.6052364632343
 30
0.0
 11
115.2350094237133
 21
169.0846887633504
 31
0.0
  0
LINE
  5
2D23
330
2
100
AcDbEntity
  8
0
100
AcDbLine
 10
122.5759902846064
 20
173.6052364632343
 30
0.0
 11
123.5654451673196
 21
173.6052364632343
 31
0.0
  0
LINE
  5
2D24
330
2
100
AcDbEntity
  8
0
100
AcDbLine
 10
123.5654451673196
 20
173.6052364632343
 30
0.0
 11
123.5654451673196
 21
169.0846887633504
 31
0.0
  0
LINE
  5
2D25
330
2
100
AcDbEntity
  8
0
100
AcDbLine
 10
122.5759902846068
 20
173.6052364632343
 30
0.0
 11
122.5759902846068
 21
169.0846887633504
 31
0.0
  0
ARC
  5
2D26
330
2
100
AcDbEntity
  8
0
100
AcDbCircle
 10
125.4006903825432
 20
170.3326767432456
 30
0.0
 40
3.752035730226079
100
AcDbArc
 50
60.71637525430852
 51
119.2836247456914
  0
LINE
  5
2D27
330
2
100
AcDbEntity
  8
0
100
AcDbLine
 10
118.9054998541598
 20
168.1846887633507
 30
0.0
 11
127.4142204818147
 21
168.1104845572947
 31
0.0
  0
LINE
  5
2D28
330
2
100
AcDbEntity
  8
0
100
AcDbLine
 10
114.2455545409996
 20
173.6052364632343
 30
0.0
 11
114.2455545409996
 21
169.0846887633504
 31
0.0
  0
LINE
  5
2D29
330
2
100
AcDbEntity
  8
0
100
AcDbLine
 10
110.5750641105535
 20
173.6052364632343
 30
0.0
 11
111.4054998541598
 21
174.0846887633504
 31
0.0
  0
LINE
  5
2D2A
330
2
100
AcDbEntity
  8
0
100
AcDbLine
 10
110.5750641105535
 20
173.6052364632343
 30
0.0
 11
110.5750641105535
 21
169.0846887633504
 31
0.0
  0
ARC
  5
2D2B
330
2
100
AcDbEntity
  8
0
100
AcDbCircle
 10
112.4103093257765
 20
170.3326767432456
 30
0.0
 40
3.752035730226079
100
AcDbArc
 50
60.71637525430852
 51
119.2836247456914
  0
LINE
  5
2D2C
330
2
100
AcDbEntity
  8
0
100
AcDbLine
 10
109.9054998541598
 20
167.9839424028598
 30
0.0
 11
109.9054998541598
 21
169.0846887633504
 31
0.0
  0
ARC
  5
2D2D
330
2
100
AcDbEntity
  8
0
100
AcDbCircle
 10
110.4054998541598
 20
167.1179169990752
 30
0.0
 40
1.0
100
AcDbArc
 50
90.449870062419
 51
180.0
  0
LINE
  5
2D2E
330
2
100
AcDbEntity
  8
0
100
AcDbLine
 10
115.2350094237137
 20
173.6052364632343
 30
0.0
 11
114.245554541
 21
173.6052364632343
 31
0.0
  0
LINE
  5
2D2F
330
2
100
AcDbEntity
  8
0
100
AcDbLine
 10
118.9054998541598
 20
168.1846887633507
 30
0.0
 11
110.3976482210398
 21
168.1178861745288
 31
0.0
  0
LINE
  5
2D30
330
2
100
AcDbEntity
  8
0
100
AcDbLine
 10
109.9054998541598
 20
169.0846887633504
 30
0.0
 11
127.9054998541598
 21
169.0846887633504
 31
0.0
  0
LINE
  5
2D31
330
2
100
AcDbEntity
  8
0
100
AcDbLine
 10
126.4054998541594
 20
174.0846887633504
 30
0.0
 11
111.4054998541598
 21
174.0846887633504
 31
0.0
  0
LINE
  5
2D32
330
2
100
AcDbEntity
  8
0
100
AcDbLine
 10
130.9054998541598
 20
167.5272790944286
 30
0.0
 11
131.405442181978
 21
168.0348730957134
 31
0.0
  0
LINE
  5
2D34
330
2
100
AcDbEntity
  8
0
100
AcDbLine
 10
216.7804998541598
 20
88.77538676335053
 30
0.0
 11
199.0929998541598
 21
88.77538676335053
 31
0.0
  0
LINE
  5
2D35
330
2
100
AcDbEntity
  8
0
100
AcDbLine
 10
199.4054998541598
 20
86.77538676335052
 30
0.0
 11
199.4054998541598
 21
71.18468876335055
 31
0.0
  0
ARC
  5
2D36
330
2
100
AcDbEntity
  8
0
100
AcDbCircle
 10
201.4055228541598
 20
77.18468876335055
 30
0.0
 40
2.0
100
AcDbArc
 50
90.0
 51
180.0
  0
ARC
  5
2D37
330
2
100
AcDbEntity
  8
0
100
AcDbCircle
 10
197.4055308541599
 20
86.77538676335052
 30
0.0
 40
2.0
100
AcDbArc
 50
0.0
 51
90.0
  0
LINE
  5
2D38
330
2
100
AcDbEntity
  8
0
100
AcDbLine
 10
236.7804998541598
 20
95.61728876335052
 30
0.0
 11
217.9054998541598
 21
95.61728876335052
 31
0.0
  0
ARC
  5
2D39
330
2
100
AcDbEntity
  8
0
100
AcDbCircle
 10
215.4054998541598
 20
96.18468876335056
 30
0.0
 40
2.0
100
AcDbArc
 50
0.0
 51
90.0
  0
ARC
  5
2D3A
330
2
100
AcDbEntity
  8
0
100
AcDbCircle
 10
239.4054998541598
 20
96.18468876335056
 30
0.0
 40
2.0
100
AcDbArc
 50
90.0
 51
180.0
  0
ARC
  5
2D3B
330
2
100
AcDbEntity
  8
0
100
AcDbCircle
 10
215.4054998541598
 20
81.18468876335056
 30
0.0
 40
2.0
100
AcDbArc
 50
270.0
 51
0.0
  0
LINE
  5
2D3C
330
2
100
AcDbEntity
  8
CENTER
100
AcDbLine
 10
247.4054998541598
 20
83.43472911126879
 30
0.0
 11
247.4054998541598
 21
66.30972911126878
 31
0.0
  0
ARC
  5
2D3D
330
2
100
AcDbEntity
  8
0
100
AcDbCircle
 10
239.4054998541598
 20
81.18468876335056
 30
0.0
 40
2.0
100
AcDbArc
 50
180.0
 51
270.0
  0
LINE
  5
2D3E
330
2
100
AcDbEntity
  8
HIDS
  6
SEKKEI_H
100
AcDbLine
 10
244.1554998541598
 20
79.18468876335055
 30
0.0
 11
244.1554998541598
 21
71.18468876335055
 31
0.0
  0
LINE
  5
2D3F
330
2
100
AcDbEntity
  8
CENTER
100
AcDbLine
 10
207.4054998541598
 20
83.43472911126879
 30
0.0
 11
207.4054998541598
 21
66.30972911126878
 31
0.0
  0
LINE
  5
2D40
330
2
100
AcDbEntity
  8
HIDS
  6
SEKKEI_H
100
AcDbLine
 10
210.6554998541598
 20
79.18468876335055
 30
0.0
 11
210.6554998541598
 21
71.18468876335055
 31
0.0
  0
LINE
  5
2D41
330
2
100
AcDbEntity
  8
HIDS
  6
SEKKEI_H
100
AcDbLine
 10
204.1554998541598
 20
79.18468876335055
 30
0.0
 11
204.1554998541598
 21
71.18468876335055
 31
0.0
  0
LINE
  5
2D42
330
2
100
AcDbEntity
  8
0
100
AcDbLine
 10
217.4054998541598
 20
81.18468876335056
 30
0.0
 11
217.4054998541598
 21
96.18468876335056
 31
0.0
  0
LINE
  5
2D43
330
2
100
AcDbEntity
  8
0
100
AcDbLine
 10
237.4054998541598
 20
81.18468876335056
 30
0.0
 11
237.4054998541598
 21
96.18468876335056
 31
0.0
  0
LINE
  5
2D44
330
2
100
AcDbEntity
  8
0
100
AcDbLine
 10
130.9054998541586
 20
297.4821271906027
 30
0.0
 11
130.905499854159
 21
327.9820821906009
 31
0.0
  0
LINE
  5
2D45
330
2
100
AcDbEntity
  8
0
100
AcDbLine
 10
131.4054998541599
 20
327.9820821906009
 30
0.0
 11
131.4054998541599
 21
296.9821271906014
 31
0.0
  0
LINE
  5
2D46
330
2
100
AcDbEntity
  8
CENTER
100
AcDbLine
 10
247.4054998541599
 20
286.381816190601
 30
0.0
 11
247.4054998541599
 21
304.418376190601
 31
0.0
  0
LINE
  5
2D47
330
2
100
AcDbEntity
  8
CENTER
100
AcDbLine
 10
207.4054998541599
 20
286.829005190601
 30
0.0
 11
207.4054998541599
 21
303.076823190601
 31
0.0
  0
ARC
  5
2D48
330
2
100
AcDbEntity
  8
HIDS
100
AcDbCircle
 10
207.4054998541599
 20
296.9821271906011
 30
0.0
 40
3.25
100
AcDbArc
 50
0.0
 51
180.0
  0
LINE
  5
2D49
330
2
100
AcDbEntity
  8
0
100
AcDbLine
 10
140.40549985416
 20
296.9821271906011
 30
0.0
 11
140.4054998541598
 21
386.9821271906012
 31
0.0
  0
LINE
  5
2D4A
330
2
100
AcDbEntity
  8
0
100
AcDbLine
 10
126.90550585416
 20
209.1037614506976
 30
0.0
 11
160.5161984146027
 21
209.1037614506976
 31
0.0
  0
LINE
  5
2D4B
330
2
100
AcDbEntity
  8
0
100
AcDbLine
 10
126.9054838541599
 20
203.1037614506976
 30
0.0
 11
160.5161984146027
 21
203.1037614506976
 31
0.0
  0
LINE
  5
2D4C
330
2
100
AcDbEntity
  8
0
100
AcDbLine
 10
126.9054831779769
 20
227.7143661976367
 30
0.0
 11
160.5161870765107
 21
227.7143661976367
 31
0.0
  0
LINE
  5
2D4D
330
2
100
AcDbEntity
  8
0
100
AcDbLine
 10
126.9054838541599
 20
221.7144271976365
 30
0.0
 11
160.5162097526942
 21
221.7144271976367
 31
0.0
  0
LINE
  5
2D4E
330
2
100
AcDbEntity
  8
0
100
AcDbLine
 10
126.4054998541598
 20
190.6846887633505
 30
0.0
 11
126.4054998541598
 21
188.1846887633503
 31
0.0
  0
LINE
  5
2D4F
330
2
100
AcDbEntity
  8
0
100
AcDbLine
 10
127.2359355977666
 20
187.7052364632343
 30
0.0
 11
126.4054998541598
 21
188.1846887633503
 31
0.0
  0
ARC
  5
2D50
330
2
100
AcDbEntity
  8
0
100
AcDbCircle
 10
118.9054998541598
 20
173.895076945063
 30
0.0
 40
14.28961181828743
100
AcDbArc
 50
75.11592111934987
 51
104.8840788806501
  0
LINE
  5
2D51
330
2
100
AcDbEntity
  8
0
100
AcDbLine
 10
122.5759902846064
 20
187.7052364632343
 30
0.0
 11
123.5654451673201
 21
187.7052364632343
 31
0.0
  0
ARC
  5
2D52
330
2
100
AcDbEntity
  8
0
100
AcDbCircle
 10
125.4006903825432
 20
184.4326767432455
 30
0.0
 40
3.752035730226079
100
AcDbArc
 50
60.71637525430852
 51
119.2836247456914
  0
LINE
  5
2D53
330
2
100
AcDbEntity
  8
0
100
AcDbLine
 10
111.4054998541598
 20
190.6846887633503
 30
0.0
 11
111.4054998541598
 21
188.1846887633503
 31
0.0
  0
LINE
  5
2D54
330
2
100
AcDbEntity
  8
0
100
AcDbLine
 10
110.5750641105535
 20
187.7052364632343
 30
0.0
 11
111.4054998541603
 21
188.1846887633503
 31
0.0
  0
ARC
  5
2D55
330
2
100
AcDbEntity
  8
0
100
AcDbCircle
 10
112.410309325777
 20
184.4326767432455
 30
0.0
 40
3.752035730226079
100
AcDbArc
 50
60.71637525430852
 51
119.2836247456914
  0
LINE
  5
2D56
330
2
100
AcDbEntity
  8
0
100
AcDbLine
 10
115.2350094237137
 20
187.7052364632343
 30
0.0
 11
114.245554541
 21
187.7052364632343
 31
0.0
  0
LINE
  5
2D57
330
2
100
AcDbEntity
  8
0
100
AcDbLine
 10
126.4054998541598
 20
188.1846887633503
 30
0.0
 11
111.4054998541603
 21
188.1846887633503
 31
0.0
  0
ARC
  5
2D58
330
2
100
AcDbEntity
  8
0
100
AcDbCircle
 10
126.90550585416
 20
216.7144271976364
 30
0.0
 40
5.0
100
AcDbArc
 50
90.0
 51
180.0
  0
ARC
  5
2D59
330
2
100
AcDbEntity
  8
0
100
AcDbCircle
 10
126.9055211779766
 20
216.7144271976367
 30
0.0
 40
11.0
100
AcDbArc
 50
90.0
 51
179.9998314869998
  0
ARC
  5
2D5A
330
2
100
AcDbEntity
  8
0
100
AcDbCircle
 10
126.9055438541602
 20
198.1038224506976
 30
0.0
 40
11.0
100
AcDbArc
 50
90.0
 51
117.0361362174542
  0
ARC
  5
2D5B
330
2
100
AcDbEntity
  8
0
100
AcDbCircle
 10
124.4054998541598
 20
190.6846887633505
 30
0.0
 40
2.0
100
AcDbArc
 50
0.0
 51
90.0
  0
ARC
  5
2D5C
330
2
100
AcDbEntity
  8
0
100
AcDbCircle
 10
113.4054998541598
 20
190.6846887633503
 30
0.0
 40
2.0
100
AcDbArc
 50
90.0
 51
180.0
  0
LINE
  5
2D5D
330
2
100
AcDbEntity
  8
0
100
AcDbLine
 10
124.4054998541598
 20
192.6846887633505
 30
0.0
 11
113.4054998541598
 21
192.6846887633503
 31
0.0
  0
ARC
  5
2D5E
330
2
100
AcDbEntity
  8
0
100
AcDbCircle
 10
126.90550585416
 20
198.1037614506976
 30
0.0
 40
5.0
100
AcDbArc
 50
90.0
 51
180.0
  0
LINE
  5
2D5F
330
2
100
AcDbEntity
  8
0
100
AcDbLine
 10
115.9055211780243
 20
216.71445954981
 30
0.0
 11
115.9055416902913
 21
192.6846887633503
 31
0.0
  0
LINE
  5
2D60
330
2
100
AcDbEntity
  8
0
100
AcDbLine
 10
121.9054678541599
 20
192.6846887633505
 30
0.0
 11
121.9054678541599
 21
216.7144051976365
 31
0.0
  0
LINE
  5
2D61
330
2
100
AcDbEntity
  8
0
100
AcDbLine
 10
131.4054998541599
 20
296.9821271906014
 30
0.0
 11
140.4054998541599
 21
296.9821271906014
 31
0.0
  0
LINE
  5
2D62
330
2
100
AcDbEntity
  8
0
100
AcDbLine
 10
130.9054998541586
 20
297.4821271906027
 30
0.0
 11
131.4054998541599
 21
296.9821271906014
 31
0.0
  0
LINE
  5
2D63
330
2
100
AcDbEntity
  8
0
100
AcDbLine
 10
186.715339461067
 20
216.6475024611543
 30
0.0
 11
186.7204047100774
 21
216.3696584583524
 31
0.0
  0
LINE
  5
2D64
330
2
100
AcDbEntity
  8
0
100
AcDbLine
 10
187.0968942436645
 20
216.7463316888545
 30
0.0
 11
186.715339461067
 21
216.6475024611543
 31
0.0
  0
LINE
  5
2D65
330
2
100
AcDbEntity
  8
0
100
AcDbLine
 10
187.0968942436645
 20
216.7463316888545
 30
0.0
 11
187.6918915151047
 21
216.7463316888545
 31
0.0
  0
ARC
  5
2D66
330
2
100
AcDbEntity
  8
0
100
AcDbCircle
 10
191.3902747552885
 20
214.9236879884144
 30
0.0
 40
0.1
100
AcDbArc
 50
273.9999999999834
 51
65.15467961213184
  0
LINE
  5
2D67
330
2
100
AcDbEntity
  8
0
100
AcDbLine
 10
187.6918915151047
 20
216.7463316888545
 30
0.0
 11
191.4322917546931
 21
215.014432529633
 31
0.0
  0
LINE
  5
2D68
330
2
100
AcDbEntity
  8
0
100
AcDbLine
 10
197.5943123300073
 20
207.5521657108488
 30
0.0
 11
199.4851390104584
 21
207.5521657108488
 31
0.0
  0
LINE
  5
2D69
330
2
100
AcDbEntity
  8
0
100
AcDbLine
 10
197.5943123300073
 20
204.5171708973625
 30
0.0
 11
199.4851390104579
 21
204.5171708973625
 31
0.0
  0
LINE
  5
2D6A
330
2
100
AcDbEntity
  8
0
100
AcDbLine
 10
197.5943123300073
 20
204.5171708973625
 30
0.0
 11
197.5943123300073
 21
207.5521657108488
 31
0.0
  0
LINE
  5
2D6B
330
2
100
AcDbEntity
  8
0
100
AcDbLine
 10
198.1549566206715
 20
204.5282891596668
 30
0.0
 11
198.1549566206715
 21
207.5410474485445
 31
0.0
  0
LINE
  5
2D6C
330
2
100
AcDbEntity
  8
0
100
AcDbLine
 10
186.695683908277
 20
229.4895106010105
 30
0.0
 11
186.695683908277
 21
226.1895106010106
 31
0.0
  0
LINE
  5
2D6D
330
2
100
AcDbEntity
  8
0
100
AcDbLine
 10
186.695683908277
 20
223.1895106010103
 30
0.0
 11
186.695683908277
 21
219.8895106010106
 31
0.0
  0
LINE
  5
2D6E
330
2
100
AcDbEntity
  8
0
100
AcDbLine
 10
192.4266399706082
 20
226.1895106010104
 30
0.0
 11
192.4266399706082
 21
223.1895106010103
 31
0.0
  0
LINE
  5
2D6F
330
2
100
AcDbEntity
  8
0
100
AcDbLine
 10
192.9956839082772
 20
226.1895106010104
 30
0.0
 11
192.9956839082772
 21
223.1895106010103
 31
0.0
  0
LINE
  5
2D70
330
2
100
AcDbEntity
  8
0
100
AcDbLine
 10
195.5956839082771
 20
220.9895106010105
 30
0.0
 11
186.695683908277
 21
220.9895106010105
 31
0.0
  0
LINE
  5
2D71
330
2
100
AcDbEntity
  8
0
100
AcDbLine
 10
195.5956839082771
 20
228.3895106010106
 30
0.0
 11
186.695683908277
 21
228.3895106010106
 31
0.0
  0
LINE
  5
2D72
330
2
100
AcDbEntity
  8
0
100
AcDbLine
 10
195.5956839082771
 20
225.1895106010104
 30
0.0
 11
192.9956839082772
 21
225.1895106010104
 31
0.0
  0
LINE
  5
2D73
330
2
100
AcDbEntity
  8
0
100
AcDbLine
 10
195.5956839082771
 20
224.1895106010104
 30
0.0
 11
192.9956839082772
 21
224.1895106010104
 31
0.0
  0
LINE
  5
2D74
330
2
100
AcDbEntity
  8
0
100
AcDbLine
 10
195.5956839082771
 20
224.1895106010104
 30
0.0
 11
195.5956839082771
 21
220.9895106010105
 31
0.0
  0
LINE
  5
2D75
330
2
100
AcDbEntity
  8
0
100
AcDbLine
 10
195.5956839082771
 20
228.3895106010106
 30
0.0
 11
195.5956839082771
 21
225.1895106010104
 31
0.0
  0
ARC
  5
2D76
330
2
100
AcDbEntity
  8
0
100
AcDbCircle
 10
191.3902747552885
 20
197.1456486197969
 30
0.0
 40
0.1
100
AcDbArc
 50
294.8453203878681
 51
85.99999999999049
  0
LINE
  5
2D77
330
2
100
AcDbEntity
  8
0
100
AcDbLine
 10
186.715339461067
 20
195.4218341470568
 30
0.0
 11
186.7204047100774
 21
195.6996781498589
 31
0.0
  0
LINE
  5
2D78
330
2
100
AcDbEntity
  8
0
100
AcDbLine
 10
187.0968942436645
 20
195.3230049193568
 30
0.0
 11
186.715339461067
 21
195.4218341470568
 31
0.0
  0
LINE
  5
2D79
330
2
100
AcDbEntity
  8
0
100
AcDbLine
 10
187.0968942436645
 20
195.3230049193568
 30
0.0
 11
187.6918915151047
 21
195.3230049193568
 31
0.0
  0
LINE
  5
2D7A
330
2
100
AcDbEntity
  8
0
100
AcDbLine
 10
187.6918915151047
 20
195.3230049193568
 30
0.0
 11
191.4322917546931
 21
197.0549040785781
 31
0.0
  0
LINE
  5
2D7B
330
2
100
AcDbEntity
  8
0
100
AcDbLine
 10
199.4851390104579
 20
199.1346683041056
 30
0.0
 11
199.4851390104579
 21
212.9346683041055
 31
0.0
  0
LINE
  5
2D7C
330
2
100
AcDbEntity
  8
0
100
AcDbLine
 10
175.7851390104581
 20
207.7701201892955
 30
0.0
 11
173.0139390698398
 21
207.5520220240166
 31
0.0
  0
LINE
  5
2D7D
330
2
100
AcDbEntity
  8
0
100
AcDbLine
 10
173.0139390698398
 20
209.0566603217407
 30
0.0
 11
175.7851390104581
 21
209.2747584870196
 31
0.0
  0
LINE
  5
2D7E
330
2
100
AcDbEntity
  8
0
100
AcDbLine
 10
173.0139390698402
 20
205.3369755491844
 30
0.0
 11
175.7851390104581
 21
205.3369755491844
 31
0.0
  0
LINE
  5
2D7F
330
2
100
AcDbEntity
  8
0
100
AcDbLine
 10
173.0139390698402
 20
206.8369755491844
 30
0.0
 11
175.7851390104581
 21
206.8369755491844
 31
0.0
  0
LINE
  5
2D80
330
2
100
AcDbEntity
  8
0
100
AcDbLine
 10
175.7851390104581
 20
202.7945781211915
 30
0.0
 11
173.0139390698402
 21
203.1508625796543
 31
0.0
  0
LINE
  5
2D81
330
2
100
AcDbEntity
  8
0
100
AcDbLine
 10
173.0139390698398
 20
204.6516822318376
 30
0.0
 11
175.7851390104581
 21
204.2961320136016
 31
0.0
  0
LINE
  5
2D82
330
2
100
AcDbEntity
  8
0
100
AcDbLine
 10
170.5771642301058
 20
210.0869755491844
 30
0.0
 11
171.5174103898746
 21
209.1205473522109
 31
0.0
  0
LINE
  5
2D83
330
2
100
AcDbEntity
  8
0
100
AcDbLine
 10
171.5174103898746
 20
209.1205473522109
 30
0.0
 11
173.0139390698402
 21
209.1205473522109
 31
0.0
  0
LINE
  5
2D84
330
2
100
AcDbEntity
  8
0
100
AcDbLine
 10
170.5771642301058
 20
202.0869755491844
 30
0.0
 11
171.5174103898746
 21
203.0534037461577
 31
0.0
  0
LINE
  5
2D85
330
2
100
AcDbEntity
  8
0
100
AcDbLine
 10
171.5174103898746
 20
203.0534037461577
 30
0.0
 11
173.0139390698402
 21
203.0534037461577
 31
0.0
  0
LINE
  5
2D86
330
2
100
AcDbEntity
  8
0
100
AcDbLine
 10
173.0139390698402
 20
209.1205473522109
 30
0.0
 11
173.0139390698402
 21
203.0534037461577
 31
0.0
  0
LINE
  5
2D87
330
2
100
AcDbEntity
  8
0
100
AcDbLine
 10
160.5161984146027
 20
210.0869755491842
 30
0.0
 11
160.5161984146027
 21
202.0869755491842
 31
0.0
  0
LINE
  5
2D88
330
2
100
AcDbEntity
  8
0
100
AcDbLine
 10
160.5161984146027
 20
210.0869755491842
 30
0.0
 11
170.5771642301058
 21
210.0869755491844
 31
0.0
  0
LINE
  5
2D89
330
2
100
AcDbEntity
  8
0
100
AcDbLine
 10
170.5771642301058
 20
202.0869755491844
 30
0.0
 11
160.5161984146027
 21
202.0869755491842
 31
0.0
  0
LINE
  5
2D8A
330
2
100
AcDbEntity
  8
0
100
AcDbLine
 10
185.9674256429032
 20
215.616311997348
 30
0.0
 11
185.8115800274138
 21
215.4603903416075
 31
0.0
  0
LINE
  5
2D8B
330
2
100
AcDbEntity
  8
0
100
AcDbLine
 10
185.9623603938923
 20
215.8941560001501
 30
0.0
 11
185.9674256429032
 21
215.616311997348
 31
0.0
  0
ARC
  5
2D8C
330
2
100
AcDbEntity
  8
0
100
AcDbCircle
 10
185.7408521050158
 20
215.5310837712404
 30
0.0
 40
0.1
100
AcDbArc
 50
273.9999999999834
 51
315.0139744796679
  0
LINE
  5
2D8D
330
2
100
AcDbEntity
  8
0
100
AcDbLine
 10
184.5851390104582
 20
211.9346683041055
 30
0.0
 11
184.5851390104582
 21
212.9346683041055
 31
0.0
  0
LINE
  5
2D8E
330
2
100
AcDbEntity
  8
0
100
AcDbLine
 10
177.0351390104581
 20
213.3346683041056
 30
0.0
 11
177.0351390104581
 21
213.3533773778852
 31
0.0
  0
ARC
  5
2D8F
330
2
100
AcDbEntity
  8
0
100
AcDbCircle
 10
177.4351390104582
 20
213.3346683041056
 30
0.0
 40
0.4
100
AcDbArc
 50
180.0
 51
270.0
  0
ARC
  5
2D90
330
2
100
AcDbEntity
  8
0
100
AcDbCircle
 10
177.5351390104581
 20
213.3533773778852
 30
0.0
 40
0.5
100
AcDbArc
 50
94.00000000000952
 51
180.0
  0
ARC
  5
2D91
330
2
100
AcDbEntity
  8
0
100
AcDbCircle
 10
176.2851390104581
 20
214.2684107610368
 30
0.0
 40
0.5
100
AcDbArc
 50
94.00000000000952
 51
180.0
  0
LINE
  5
2D92
330
2
100
AcDbEntity
  8
0
100
AcDbLine
 10
184.5851390104582
 20
211.9346683041055
 30
0.0
 11
176.7851390104581
 21
211.9346683041055
 31
0.0
  0
LINE
  5
2D93
330
2
100
AcDbEntity
  8
0
100
AcDbLine
 10
185.7478277523903
 20
215.4313273662144
 30
0.0
 11
176.2502607735862
 21
214.7671927861667
 31
0.0
  0
LINE
  5
2D94
330
2
100
AcDbEntity
  8
0
100
AcDbLine
 10
176.7851390104581
 20
207.9648370804768
 30
0.0
 11
176.7851390104581
 21
211.9346683041055
 31
0.0
  0
LINE
  5
2D95
330
2
100
AcDbEntity
  8
0
100
AcDbLine
 10
173.0139390698398
 20
226.6840814701934
 30
0.0
 11
175.9956839082772
 21
226.9187498782937
 31
0.0
  0
LINE
  5
2D96
330
2
100
AcDbEntity
  8
0
100
AcDbLine
 10
175.9956839082772
 20
222.3949301744835
 30
0.0
 11
173.0139390698402
 21
222.7782837281067
 31
0.0
  0
LINE
  5
2D97
330
2
100
AcDbEntity
  8
0
100
AcDbLine
 10
173.0139390698398
 20
224.2791033802902
 30
0.0
 11
175.9956839082772
 21
223.8965398515849
 31
0.0
  0
LINE
  5
2D98
330
2
100
AcDbEntity
  8
0
100
AcDbLine
 10
175.9956839082772
 20
225.4141115805696
 30
0.0
 11
173.0139390698398
 21
225.179443172469
 31
0.0
  0
LINE
  5
2D99
330
2
100
AcDbEntity
  8
0
100
AcDbLine
 10
170.5771642301058
 20
228.7143966976368
 30
0.0
 11
171.5174103898746
 21
227.7479685006633
 31
0.0
  0
LINE
  5
2D9A
330
2
100
AcDbEntity
  8
0
100
AcDbLine
 10
171.5174103898746
 20
227.7479685006633
 30
0.0
 11
173.0139390698402
 21
227.7479685006635
 31
0.0
  0
LINE
  5
2D9B
330
2
100
AcDbEntity
  8
0
100
AcDbLine
 10
170.5771642301058
 20
220.7143966976368
 30
0.0
 11
171.5174103898746
 21
221.6808248946101
 31
0.0
  0
LINE
  5
2D9C
330
2
100
AcDbEntity
  8
0
100
AcDbLine
 10
171.5174103898746
 20
221.6808248946101
 30
0.0
 11
173.0139390698402
 21
221.6808248946101
 31
0.0
  0
LINE
  5
2D9D
330
2
100
AcDbEntity
  8
0
100
AcDbLine
 10
173.0139390698402
 20
227.7479685006635
 30
0.0
 11
173.0139390698402
 21
221.6808248946101
 31
0.0
  0
LINE
  5
2D9E
330
2
100
AcDbEntity
  8
0
100
AcDbLine
 10
160.5161984146027
 20
228.7143966976366
 30
0.0
 11
160.5161984146027
 21
220.7143966976366
 31
0.0
  0
LINE
  5
2D9F
330
2
100
AcDbEntity
  8
0
100
AcDbLine
 10
160.5161984146027
 20
228.7143966976366
 30
0.0
 11
170.5771642301058
 21
228.7143966976368
 31
0.0
  0
LINE
  5
2DA0
330
2
100
AcDbEntity
  8
0
100
AcDbLine
 10
170.5771642301058
 20
220.7143966976368
 30
0.0
 11
160.5161984146027
 21
220.7143966976366
 31
0.0
  0
LINE
  5
2DA1
330
2
100
AcDbEntity
  8
0
100
AcDbLine
 10
185.1805132330071
 20
227.3895106010106
 30
0.0
 11
185.1805132330071
 21
226.1895106010104
 31
0.0
  0
LINE
  5
2DA2
330
2
100
AcDbEntity
  8
0
100
AcDbLine
 10
185.1805132330071
 20
223.1895106010103
 30
0.0
 11
185.1805132330071
 21
221.9895106010105
 31
0.0
  0
LINE
  5
2DA3
330
2
100
AcDbEntity
  8
0
100
AcDbLine
 10
175.9956839082772
 20
230.2895106010105
 30
0.0
 11
176.4956839082772
 21
230.2895106010105
 31
0.0
  0
ARC
  5
2DA4
330
2
100
AcDbEntity
  8
0
100
AcDbCircle
 10
176.4956839082772
 20
229.7895106010105
 30
0.0
 40
0.5
100
AcDbArc
 50
0.0
 51
90.0
  0
LINE
  5
2DA5
330
2
100
AcDbEntity
  8
0
100
AcDbLine
 10
180.3117010027392
 20
227.3895106010106
 30
0.0
 11
180.3117010027392
 21
226.1895106010104
 31
0.0
  0
LINE
  5
2DA6
330
2
100
AcDbEntity
  8
0
100
AcDbLine
 10
175.9956839082772
 20
218.6895106010104
 30
0.0
 11
176.4956839082772
 21
218.6895106010104
 31
0.0
  0
ARC
  5
2DA7
330
2
100
AcDbEntity
  8
0
100
AcDbCircle
 10
176.4956839082772
 20
219.1895106010103
 30
0.0
 40
0.5
100
AcDbArc
 50
270.0
 51
0.0
  0
LINE
  5
2DA8
330
2
100
AcDbEntity
  8
0
100
AcDbLine
 10
180.3117010027392
 20
223.1895106010103
 30
0.0
 11
180.3117010027392
 21
221.9895106010105
 31
0.0
  0
LINE
  5
2DA9
330
2
100
AcDbEntity
  8
0
100
AcDbLine
 10
175.9956839082772
 20
230.2895106010105
 30
0.0
 11
175.9956839082772
 21
218.6895106010104
 31
0.0
  0
LINE
  5
2DAA
330
2
100
AcDbEntity
  8
0
100
AcDbLine
 10
176.9956839082772
 20
229.7895106010105
 30
0.0
 11
176.9956839082772
 21
219.1895106010103
 31
0.0
  0
LINE
  5
2DAB
330
2
100
AcDbEntity
  8
0
100
AcDbLine
 10
178.3306798492942
 20
227.3895106010106
 30
0.0
 11
178.3306798492942
 21
221.9895106010105
 31
0.0
  0
LINE
  5
2DAC
330
2
100
AcDbEntity
  8
0
100
AcDbLine
 10
179.8504011448619
 20
227.3895106010106
 30
0.0
 11
179.8504011448619
 21
221.9895106010105
 31
0.0
  0
LINE
  5
2DAD
330
2
100
AcDbEntity
  8
0
100
AcDbLine
 10
185.1805132330071
 20
227.3895106010106
 30
0.0
 11
178.3306798492942
 21
227.3895106010106
 31
0.0
  0
LINE
  5
2DAE
330
2
100
AcDbEntity
  8
0
100
AcDbLine
 10
185.1805132330071
 20
221.9895106010105
 30
0.0
 11
178.3306798492942
 21
221.9895106010105
 31
0.0
  0
LINE
  5
2DAF
330
2
100
AcDbEntity
  8
0
100
AcDbLine
 10
185.9623603938923
 20
196.1751806080613
 30
0.0
 11
185.9674256429032
 21
196.4530246108633
 31
0.0
  0
ARC
  5
2DB0
330
2
100
AcDbEntity
  8
0
100
AcDbCircle
 10
185.7408521050158
 20
196.5382528369707
 30
0.0
 40
0.1
100
AcDbArc
 50
44.98602552033203
 51
85.99999999999049
  0
LINE
  5
2DB1
330
2
100
AcDbEntity
  8
0
100
AcDbLine
 10
185.9674256429032
 20
196.4530246108631
 30
0.0
 11
185.8115800274138
 21
196.6089462666038
 31
0.0
  0
LINE
  5
2DB2
330
2
100
AcDbEntity
  8
0
100
AcDbLine
 10
184.5851390104582
 20
199.1346683041056
 30
0.0
 11
184.5851390104582
 21
200.1346683041056
 31
0.0
  0
ARC
  5
2DB3
330
2
100
AcDbEntity
  8
0
100
AcDbCircle
 10
177.4351390104582
 20
198.7346683041057
 30
0.0
 40
0.4
100
AcDbArc
 50
90.0
 51
180.0
  0
LINE
  5
2DB4
330
2
100
AcDbEntity
  8
0
100
AcDbLine
 10
177.0351390104581
 20
198.7346683041057
 30
0.0
 11
177.0351390104581
 21
198.7159592303262
 31
0.0
  0
ARC
  5
2DB5
330
2
100
AcDbEntity
  8
0
100
AcDbCircle
 10
176.2851390104581
 20
197.8009258471745
 30
0.0
 40
0.5
100
AcDbArc
 50
180.0
 51
265.9999999999904
  0
ARC
  5
2DB6
330
2
100
AcDbEntity
  8
0
100
AcDbCircle
 10
177.5351390104581
 20
198.7159592303262
 30
0.0
 40
0.5
100
AcDbArc
 50
180.0
 51
265.9999999999904
  0
LINE
  5
2DB7
330
2
100
AcDbEntity
  8
0
100
AcDbLine
 10
184.5851390104582
 20
200.1346683041056
 30
0.0
 11
176.7851390104581
 21
200.1346683041056
 31
0.0
  0
LINE
  5
2DB8
330
2
100
AcDbEntity
  8
0
100
AcDbLine
 10
185.7478277523903
 20
196.6380092419969
 30
0.0
 11
176.2502607735862
 21
197.3021438220446
 31
0.0
  0
LINE
  5
2DB9
330
2
100
AcDbEntity
  8
0
100
AcDbLine
 10
176.7851390104581
 20
200.1346683041056
 30
0.0
 11
176.7851390104581
 21
204.1044995277343
 31
0.0
  0
LINE
  5
2DBA
330
2
100
AcDbEntity
  8
0
100
AcDbLine
 10
175.7851390104581
 20
197.8009258471745
 30
0.0
 11
175.7851390104581
 21
214.2684107610368
 31
0.0
  0
LINE
  5
2DBB
330
2
100
AcDbEntity
  8
0
100
AcDbLine
 10
186.3439151764903
 20
215.9929852278503
 30
0.0
 11
185.9623603938923
 21
215.8941560001501
 31
0.0
  0
LINE
  5
2DBC
330
2
100
AcDbEntity
  8
0
100
AcDbLine
 10
186.3388499274794
 20
216.2708292306522
 30
0.0
 11
186.3439151764903
 21
215.9929852278503
 31
0.0
  0
LINE
  5
2DBD
330
2
100
AcDbEntity
  8
0
100
AcDbLine
 10
186.7204047100774
 20
216.3696584583524
 30
0.0
 11
186.3388499274794
 21
216.2708292306522
 31
0.0
  0
LINE
  5
2DBE
330
2
100
AcDbEntity
  8
0
100
AcDbLine
 10
191.3972504026626
 20
214.8239315833882
 30
0.0
 11
177.5002607735862
 21
213.8521594030151
 31
0.0
  0
LINE
  5
2DBF
330
2
100
AcDbEntity
  8
0
100
AcDbLine
 10
199.4851390104579
 20
212.9346683041055
 30
0.0
 11
175.7851390104581
 21
212.9346683041055
 31
0.0
  0
LINE
  5
2DC0
330
2
100
AcDbEntity
  8
0
100
AcDbLine
 10
197.5943123300073
 20
207.5521657108488
 30
0.0
 11
175.7851390104581
 21
207.9846683041057
 31
0.0
  0
LINE
  5
2DC1
330
2
100
AcDbEntity
  8
0
100
AcDbLine
 10
186.3388499274794
 20
195.7985073775591
 30
0.0
 11
186.3439151764903
 21
196.076351380361
 31
0.0
  0
LINE
  5
2DC2
330
2
100
AcDbEntity
  8
0
100
AcDbLine
 10
186.3439151764903
 20
196.076351380361
 30
0.0
 11
185.9623603938923
 21
196.1751806080613
 31
0.0
  0
LINE
  5
2DC3
330
2
100
AcDbEntity
  8
0
100
AcDbLine
 10
186.7204047100774
 20
195.6996781498589
 30
0.0
 11
186.3388499274794
 21
195.7985073775591
 31
0.0
  0
LINE
  5
2DC4
330
2
100
AcDbEntity
  8
0
100
AcDbLine
 10
197.5943123300073
 20
204.5171708973625
 30
0.0
 11
175.7851390104581
 21
204.0846683041056
 31
0.0
  0
LINE
  5
2DC5
330
2
100
AcDbEntity
  8
0
100
AcDbLine
 10
191.3972504026626
 20
197.2454050248229
 30
0.0
 11
177.5002607735862
 21
198.2171772051963
 31
0.0
  0
LINE
  5
2DC6
330
2
100
AcDbEntity
  8
0
100
AcDbLine
 10
199.4851390104579
 20
199.1346683041056
 30
0.0
 11
175.7851390104581
 21
199.1346683041056
 31
0.0
  0
LINE
  5
2DC7
330
2
100
AcDbEntity
  8
0
100
AcDbLine
 10
192.9956839082772
 20
226.1895106010104
 30
0.0
 11
179.8504011448619
 21
226.1895106010104
 31
0.0
  0
LINE
  5
2DC8
330
2
100
AcDbEntity
  8
0
100
AcDbLine
 10
186.695683908277
 20
229.4895106010105
 30
0.0
 11
176.9956839082772
 21
229.4895106010105
 31
0.0
  0
LINE
  5
2DC9
330
2
100
AcDbEntity
  8
0
100
AcDbLine
 10
192.9956839082772
 20
223.1895106010103
 30
0.0
 11
179.8504011448619
 21
223.1895106010103
 31
0.0
  0
LINE
  5
2DCA
330
2
100
AcDbEntity
  8
0
100
AcDbLine
 10
186.695683908277
 20
219.8895106010106
 30
0.0
 11
176.9956839082772
 21
219.8895106010106
 31
0.0
  0
ARC
  5
2DCB
330
2
100
AcDbEntity
  8
0
100
AcDbCircle
 10
202.4054998541599
 20
292.9821271906011
 30
0.0
 40
3.0
100
AcDbArc
 50
180.0
 51
270.0
  0
LINE
  5
2DCC
330
2
100
AcDbEntity
  8
CENTER
100
AcDbLine
 10
200.4086198541599
 20
296.9821271906011
 30
0.0
 11
215.9111228541598
 21
296.9821271906011
 31
0.0
  0
LINE
  5
2DCD
330
2
100
AcDbEntity
  8
0
100
AcDbLine
 10
199.4054998541599
 20
292.9821271906011
 30
0.0
 11
199.4054998541599
 21
296.9821271906011
 31
0.0
  0
ARC
  5
2DCE
330
2
100
AcDbEntity
  8
0
100
AcDbCircle
 10
207.4054998541599
 20
296.9821271906011
 30
0.0
 40
3.25
100
AcDbArc
 50
180.0
 51
0.0
  0
LINE
  5
2DCF
330
2
100
AcDbEntity
  8
0
100
AcDbLine
 10
128.4054998541592
 20
359.9821721906007
 30
0.0
 11
128.4054998541592
 21
355.9821721906007
 31
0.0
  0
LINE
  5
2DD0
330
2
100
AcDbEntity
  8
0
100
AcDbLine
 10
125.8337030844346
 20
355.9821721906007
 30
0.0
 11
123.5654451673195
 21
359.9109101477151
 31
0.0
  0
LINE
  5
2DD1
330
2
100
AcDbEntity
  8
0
100
AcDbLine
 10
114.2455545409994
 20
359.9109101477154
 30
0.0
 11
110.5750641105529
 21
353.5534342334867
 31
0.0
  0
LINE
  5
2DD2
330
2
100
AcDbEntity
  8
0
100
AcDbLine
 10
131.4054998541599
 20
386.9821271906014
 30
0.0
 11
131.4054998541599
 21
355.9821721906007
 31
0.0
  0
LINE
  5
2DD3
330
2
100
AcDbEntity
  8
0
100
AcDbLine
 10
130.9054998541594
 20
355.9821721906009
 30
0.0
 11
130.9054998541599
 21
386.4821271906014
 31
0.0
  0
LINE
  5
2DD4
330
2
100
AcDbEntity
  8
CENTER
100
AcDbLine
 10
118.9054998541593
 20
365.9821721906007
 30
0.0
 11
118.9054998541593
 21
339.9821721906007
 31
0.0
  0
LINE
  5
2DD5
330
2
100
AcDbEntity
  8
0
100
AcDbLine
 10
106.9054998541593
 20
379.7943455906468
 30
0.0
 11
106.9054998541593
 21
304.1699241906008
 31
0.0
  0
LINE
  5
2DD6
330
2
100
AcDbEntity
  8
0
100
AcDbLine
 10
109.4054998541593
 20
359.9821721906007
 30
0.0
 11
109.4054998541593
 21
323.9821271906007
 31
0.0
  0
ARC
  5
2DD7
330
2
100
AcDbEntity
  8
0
100
AcDbCircle
 10
118.9054998541593
 20
352.9821721906007
 30
0.0
 40
7.5
100
AcDbArc
 50
23.57817847820715
 51
336.4218215217928
  0
ARC
  5
2DD8
330
2
100
AcDbEntity
  8
0
100
AcDbCircle
 10
118.9054998541593
 20
352.9821721906009
 30
0.0
 40
9.0
100
AcDbArc
 50
19.47122063450018
 51
340.5287793654998
  0
ARC
  5
2DD9
330
2
100
AcDbEntity
  8
0
100
AcDbCircle
 10
109.9054998541592
 20
304.1699241906008
 30
0.0
 40
3.0
100
AcDbArc
 50
180.0
 51
269.5000000000084
  0
LINE
  5
2DDA
330
2
100
AcDbEntity
  8
0
100
AcDbLine
 10
131.4054998541599
 20
312.9821271906014
 30
0.0
 11
140.4054998541599
 21
312.9821271906014
 31
0.0
  0
LINE
  5
2DDB
330
2
100
AcDbEntity
  8
0
100
AcDbLine
 10
118.9054998541593
 20
355.9821721906007
 30
0.0
 11
136.5357373917578
 21
355.9821721906007
 31
0.0
  0
ARC
  5
2DDC
330
2
100
AcDbEntity
  8
0
100
AcDbCircle
 10
118.9054998541593
 20
352.9821721906007
 30
0.0
 40
8.349999999999999
100
AcDbArc
 50
176.0770669291864
 51
183.9229330707873
  0
LINE
  5
2DDD
330
2
100
AcDbEntity
  8
0
100
AcDbLine
 10
130.8836948541594
 20
300.9867271906007
 30
0.0
 11
109.8793008541593
 21
301.1700231906008
 31
0.0
  0
LINE
  5
2DDE
330
2
100
AcDbEntity
  8
0
100
AcDbLine
 10
118.9054998541593
 20
349.9821721906007
 30
0.0
 11
137.7085179298297
 21
349.9821721906007
 31
0.0
  0
LINE
  5
2DDF
330
2
100
AcDbEntity
  8
0
100
AcDbLine
 10
118.9054998541593
 20
333.9820821906009
 30
0.0
 11
137.7085179298297
 21
333.9820821906009
 31
0.0
  0
LINE
  5
2DE0
330
2
100
AcDbEntity
  8
0
100
AcDbLine
 10
118.9054998541593
 20
327.9820821906009
 30
0.0
 11
136.5357373917578
 21
327.9820821906009
 31
0.0
  0
LINE
  5
2DE1
330
2
100
AcDbEntity
  8
0
100
AcDbLine
 10
123.5654451673191
 20
346.0534342334863
 30
0.0
 11
125.8337030844346
 21
349.9821721906007
 31
0.0
  0
LINE
  5
2DE2
330
2
100
AcDbEntity
  8
0
100
AcDbLine
 10
128.4054998541592
 20
349.9821721906007
 30
0.0
 11
128.4054998541592
 21
333.9820821906009
 31
0.0
  0
ARC
  5
2DE3
330
2
100
AcDbEntity
  8
0
100
AcDbCircle
 10
127.4054998541592
 20
323.9821271906007
 30
0.0
 40
1.0
100
AcDbArc
 50
270.0
 51
0.0
  0
LINE
  5
2DE4
330
2
100
AcDbEntity
  8
0
100
AcDbLine
 10
128.4054998541592
 20
327.9820821906009
 30
0.0
 11
128.4054998541592
 21
323.9821271906007
 31
0.0
  0
LINE
  5
2DE5
330
2
100
AcDbEntity
  8
CENTER
100
AcDbLine
 10
118.9054998541593
 20
343.9821271906009
 30
0.0
 11
118.9054998541593
 21
317.9821271906009
 31
0.0
  0
ARC
  5
2DE6
330
2
100
AcDbEntity
  8
0
100
AcDbCircle
 10
118.9054998541593
 20
352.9821721906007
 30
0.0
 40
8.349999999999999
100
AcDbArc
 50
296.0770669292052
 51
303.9229330707851
  0
LINE
  5
2DE7
330
2
100
AcDbEntity
  8
0
100
AcDbLine
 10
115.2350094237127
 20
345.4821721906007
 30
0.0
 11
122.5759902846058
 21
345.4821721906007
 31
0.0
  0
LINE
  5
2DE8
330
2
100
AcDbEntity
  8
0
100
AcDbLine
 10
122.5759902846058
 20
338.4821271906009
 30
0.0
 11
115.2350094237127
 21
338.4821271906009
 31
0.0
  0
ARC
  5
2DE9
330
2
100
AcDbEntity
  8
0
100
AcDbCircle
 10
118.9054998541593
 20
330.982127190601
 30
0.0
 40
8.349999999999999
100
AcDbArc
 50
56.07706692919142
 51
63.92293307079475
  0
ARC
  5
2DEA
330
2
100
AcDbEntity
  8
0
100
AcDbCircle
 10
118.9054998541593
 20
330.982127190601
 30
0.0
 40
8.349999999999999
100
AcDbArc
 50
296.0770669292052
 51
303.9229330707851
  0
LINE
  5
2DEB
330
2
100
AcDbEntity
  8
0
100
AcDbLine
 10
115.2350094237127
 20
323.4821271906009
 30
0.0
 11
122.5759902846058
 21
323.4821271906009
 31
0.0
  0
ARC
  5
2DEC
330
2
100
AcDbEntity
  8
0
100
AcDbCircle
 10
118.9054998541593
 20
330.9820821906009
 30
0.0
 40
3.0
100
AcDbArc
 50
90.0
 51
270.0
  0
LINE
  5
2DED
330
2
100
AcDbEntity
  8
0
100
AcDbLine
 10
125.8337290651967
 20
333.9820821906009
 30
0.0
 11
123.5654451673195
 21
337.9108651477151
 31
0.0
  0
LINE
  5
2DEE
330
2
100
AcDbEntity
  8
0
100
AcDbLine
 10
123.5654451673191
 20
324.0533892334862
 30
0.0
 11
125.8336771036725
 21
327.9820821906009
 31
0.0
  0
LINE
  5
2DEF
330
2
100
AcDbEntity
  8
0
100
AcDbLine
 10
123.0286054797762
 20
322.9821271906007
 30
0.0
 11
127.4054998541592
 21
322.9821271906007
 31
0.0
  0
ARC
  5
2DF0
330
2
100
AcDbEntity
  8
0
100
AcDbCircle
 10
110.4054998541593
 20
323.9821271906007
 30
0.0
 40
1.0
100
AcDbArc
 50
180.0
 51
270.0
  0
LINE
  5
2DF1
330
2
100
AcDbEntity
  8
0
100
AcDbLine
 10
110.5750641105529
 20
330.4108651477154
 30
0.0
 11
114.245554540999
 21
324.0533892334865
 31
0.0
  0
ARC
  5
2DF2
330
2
100
AcDbEntity
  8
0
100
AcDbCircle
 10
118.9054998541593
 20
330.982127190601
 30
0.0
 40
8.349999999999999
100
AcDbArc
 50
176.0770669291864
 51
183.9229330707873
  0
LINE
  5
2DF3
330
2
100
AcDbEntity
  8
0
100
AcDbLine
 10
114.2455545409994
 20
337.9108651477154
 30
0.0
 11
110.5750641105529
 21
331.5533892334867
 31
0.0
  0
LINE
  5
2DF4
330
2
100
AcDbEntity
  8
0
100
AcDbLine
 10
110.4054998541593
 20
322.9821271906007
 30
0.0
 11
114.7823942285418
 21
322.9821271906007
 31
0.0
  0
ARC
  5
2DF5
330
2
100
AcDbEntity
  8
0
100
AcDbCircle
 10
118.9054998541593
 20
352.9821721906007
 30
0.0
 40
8.349999999999999
100
AcDbArc
 50
236.0770669292149
 51
243.9229330707947
  0
ARC
  5
2DF6
330
2
100
AcDbEntity
  8
0
100
AcDbCircle
 10
118.9054998541593
 20
330.982127190601
 30
0.0
 40
8.349999999999999
100
AcDbArc
 50
116.0770669292052
 51
123.922933070785
  0
ARC
  5
2DF7
330
2
100
AcDbEntity
  8
0
100
AcDbCircle
 10
118.9054998541593
 20
330.982127190601
 30
0.0
 40
8.349999999999999
100
AcDbArc
 50
236.0770669292149
 51
243.9229330707947
  0
ARC
  5
2DF8
330
2
100
AcDbEntity
  8
0
100
AcDbCircle
 10
118.9054998541593
 20
330.982127190601
 30
0.0
 40
7.5
100
AcDbArc
 50
23.57780338980747
 51
336.4214464323485
  0
ARC
  5
2DF9
330
2
100
AcDbEntity
  8
0
100
AcDbCircle
 10
118.9054998541593
 20
330.982127190601
 30
0.0
 40
9.0
100
AcDbArc
 50
19.47091677800659
 51
340.5284755084667
  0
LINE
  5
2DFA
330
2
100
AcDbEntity
  8
0
100
AcDbLine
 10
130.9054998541592
 20
333.9820821906012
 30
0.0
 11
130.9054998541594
 21
349.9821721906005
 31
0.0
  0
LINE
  5
2DFB
330
2
100
AcDbEntity
  8
0
100
AcDbLine
 10
131.4054998541599
 20
349.9821721906005
 30
0.0
 11
131.4054998541599
 21
333.9820821906012
 31
0.0
  0
SPLINE
  5
2DFC
330
2
100
AcDbEntity
  8
HOJO
100
AcDbSpline
210
0.0
220
0.0
230
1.0
 70
     8
 71
     3
 72
    11
 73
     7
 74
     5
 42
0.0000000001
 43
0.0000000001
 44
0.0000000001
 40
0.0
 40
0.0
 40
0.0
 40
0.0
 40
2.265619093443499
 40
4.733604272228582
 40
6.146936172709017
 40
7.173597515630966
 40
7.173597515630966
 40
7.173597515630966
 40
7.173597515630966
 10
136.5357373917578
 20
327.9820821906009
 30
0.0
 10
135.9453956820187
 20
328.7117139832788
 30
0.0
 10
134.7119826836103
 20
330.2361485985099
 30
0.0
 10
137.7677992515494
 20
331.4686643985927
 30
0.0
 10
136.4612862980918
 20
333.4311819012735
 30
0.0
 10
137.3391461132587
 20
333.81893122855
 30
0.0
 10
137.7085179298297
 20
333.9820821906009
 30
0.0
 11
136.5357373917578
 21
327.9820821906009
 31
0.0
 11
135.5863408091801
 21
330.0391859812652
 31
0.0
 11
137.0942031891842
 21
331.9929776502185
 31
0.0
 11
136.8708152945629
 21
333.3885438111197
 31
0.0
 11
137.7085179298297
 21
333.9820821906009
 31
0.0
  0
LINE
  5
2DFD
330
2
100
AcDbEntity
  8
0
100
AcDbLine
 10
131.4054998541599
 20
312.9821271906014
 30
0.0
 11
130.9054998541599
 21
313.4821271906014
 31
0.0
  0
LINE
  5
2DFE
330
2
100
AcDbEntity
  8
0
100
AcDbLine
 10
110.5750641105529
 20
352.4109101477154
 30
0.0
 11
114.245554540999
 21
346.0534342334865
 31
0.0
  0
ARC
  5
2DFF
330
2
100
AcDbEntity
  8
0
100
AcDbCircle
 10
118.9054998541593
 20
352.9821721906007
 30
0.0
 40
3.0
100
AcDbArc
 50
90.0
 51
270.0
  0
SPLINE
  5
2E00
330
2
100
AcDbEntity
  8
HOJO
100
AcDbSpline
210
0.0
220
0.0
230
1.0
 70
     8
 71
     3
 72
    11
 73
     7
 74
     5
 42
0.0000000001
 43
0.0000000001
 44
0.0000000001
 40
0.0
 40
0.0
 40
0.0
 40
0.0
 40
2.265619093443499
 40
4.733604272228582
 40
6.146936172709017
 40
7.173597515630966
 40
7.173597515630966
 40
7.173597515630966
 40
7.173597515630966
 10
136.5357373917578
 20
355.9821721906007
 30
0.0
 10
135.9453956820187
 20
355.2525403979228
 30
0.0
 10
134.7119826836103
 20
353.7281057826917
 30
0.0
 10
137.7677992515494
 20
352.495589982609
 30
0.0
 10
136.4612862980918
 20
350.533072479928
 30
0.0
 10
137.3391461132587
 20
350.1453231526516
 30
0.0
 10
137.7085179298297
 20
349.9821721906007
 30
0.0
 11
136.5357373917578
 21
355.9821721906007
 31
0.0
 11
135.5863408091801
 21
353.9250683999364
 31
0.0
 11
137.0942031891842
 21
351.9712767309831
 31
0.0
 11
136.8708152945629
 21
350.575710570082
 31
0.0
 11
137.7085179298297
 21
349.9821721906007
 31
0.0
  0
ARC
  5
2E01
330
2
100
AcDbEntity
  8
0
100
AcDbCircle
 10
109.9054998541592
 20
379.7943455906468
 30
0.0
 40
3.0
100
AcDbArc
 50
90.49998208118822
 51
180.0
  0
LINE
  5
2E02
330
2
100
AcDbEntity
  8
0
100
AcDbLine
 10
131.4054998541599
 20
370.9821271906014
 30
0.0
 11
140.4054998541599
 21
370.9821271906014
 31
0.0
  0
LINE
  5
2E03
330
2
100
AcDbEntity
  8
0
100
AcDbLine
 10
131.4054998541599
 20
386.9821271906014
 30
0.0
 11
140.4054998541599
 21
386.9821271906014
 31
0.0
  0
LINE
  5
2E04
330
2
100
AcDbEntity
  8
0
100
AcDbLine
 10
130.8836948541594
 20
382.9775271906007
 30
0.0
 11
109.8793211858552
 21
382.7942313680266
 31
0.0
  0
ARC
  5
2E05
330
2
100
AcDbEntity
  8
0
100
AcDbCircle
 10
127.4054998541592
 20
359.9821721906007
 30
0.0
 40
1.0
100
AcDbArc
 50
0.0
 51
90.0
  0
LINE
  5
2E06
330
2
100
AcDbEntity
  8
0
100
AcDbLine
 10
122.5759902846058
 20
360.4821721906007
 30
0.0
 11
115.2350094237127
 21
360.4821721906007
 31
0.0
  0
ARC
  5
2E07
330
2
100
AcDbEntity
  8
0
100
AcDbCircle
 10
118.9054998541593
 20
352.9821721906007
 30
0.0
 40
8.349999999999999
100
AcDbArc
 50
56.07706692919142
 51
63.92293307079475
  0
LINE
  5
2E08
330
2
100
AcDbEntity
  8
0
100
AcDbLine
 10
123.0286054797767
 20
360.9821721906007
 30
0.0
 11
127.4054998541592
 21
360.9821721906007
 31
0.0
  0
ARC
  5
2E09
330
2
100
AcDbEntity
  8
0
100
AcDbCircle
 10
110.4054998541593
 20
359.9821721906007
 30
0.0
 40
1.0
100
AcDbArc
 50
90.0
 51
180.0
  0
LINE
  5
2E0A
330
2
100
AcDbEntity
  8
0
100
AcDbLine
 10
110.4054998541593
 20
360.9821721906007
 30
0.0
 11
114.7823942285414
 21
360.9821721906007
 31
0.0
  0
ARC
  5
2E0B
330
2
100
AcDbEntity
  8
0
100
AcDbCircle
 10
118.9054998541593
 20
352.9821721906007
 30
0.0
 40
8.349999999999999
100
AcDbArc
 50
116.0770669292052
 51
123.922933070785
  0
LINE
  5
2E0C
330
2
100
AcDbEntity
  8
0
100
AcDbLine
 10
131.4054998541599
 20
370.9821271906014
 30
0.0
 11
130.9054998541599
 21
370.4821271906014
 31
0.0
  0
LINE
  5
2E0D
330
2
100
AcDbEntity
  8
0
100
AcDbLine
 10
131.4054998541599
 20
386.9821271906014
 30
0.0
 11
130.9054998541599
 21
386.4821271906014
 31
0.0
  0
ARC
  5
2E0E
330
2
100
AcDbEntity
  8
0
100
AcDbCircle
 10
202.4054998541599
 20
390.9821271906011
 30
0.0
 40
3.0
100
AcDbArc
 50
90.0
 51
180.0
  0
LINE
  5
2E0F
330
2
100
AcDbEntity
  8
CENTER
100
AcDbLine
 10
200.4086198541599
 20
386.9821271906012
 30
0.0
 11
215.9111228541598
 21
386.9821271906012
 31
0.0
  0
LINE
  5
2E10
330
2
100
AcDbEntity
  8
0
100
AcDbLine
 10
199.4054998541599
 20
390.9821271906011
 30
0.0
 11
199.4054998541599
 21
386.9821271906012
 31
0.0
  0
ARC
  5
2E11
330
2
100
AcDbEntity
  8
HIDS
100
AcDbCircle
 10
207.4054998541599
 20
386.9821271906012
 30
0.0
 40
3.25
100
AcDbArc
 50
180.0
 51
0.0
  0
ARC
  5
2E12
330
2
100
AcDbEntity
  8
0
100
AcDbCircle
 10
207.4054998541599
 20
386.9821271906012
 30
0.0
 40
3.25
100
AcDbArc
 50
0.0
 51
180.0
  0
LINE
  5
2E13
330
2
100
AcDbEntity
  8
CENTER
100
AcDbLine
 10
247.4054998541599
 20
397.5824381906011
 30
0.0
 11
247.4054998541599
 21
379.5458781906011
 31
0.0
  0
LINE
  5
2E14
330
2
100
AcDbEntity
  8
CENTER
100
AcDbLine
 10
207.4054998541599
 20
397.1352641906012
 30
0.0
 11
207.4054998541599
 21
380.8874461906011
 31
0.0
  0
LINE
  5
2E15
330
2
100
AcDbEntity
  8
CENTER
100
AcDbLine
 10
425.8872255502986
 20
219.7732156164079
 30
0.0
 11
425.8872255502986
 21
163.622798536554
 31
0.0
  0
LINE
  5
2E16
330
2
100
AcDbEntity
  8
CENTER
100
AcDbLine
 10
447.8872255502985
 20
219.7732156164074
 30
0.0
 11
447.8872255502985
 21
163.622798536554
 31
0.0
  0
LINE
  5
2E17
330
2
100
AcDbEntity
  8
0
100
AcDbLine
 10
432.8159635074126
 20
187.6846887633503
 30
0.0
 11
432.8159635074127
 21
179.1846887633503
 31
0.0
  0
LINE
  5
2E18
330
2
100
AcDbEntity
  8
0
100
AcDbLine
 10
433.3872255502983
 20
190.6846887633503
 30
0.0
 11
433.3872255502986
 21
179.1846887633503
 31
0.0
  0
LINE
  5
2E19
330
2
100
AcDbEntity
  8
0
100
AcDbLine
 10
425.1225606911257
 20
187.6846887633503
 30
0.0
 11
425.1225606911259
 21
179.1846887633503
 31
0.0
  0
LINE
  5
2E1A
330
2
100
AcDbEntity
  8
0
100
AcDbLine
 10
426.6518904094716
 20
187.6846887633507
 30
0.0
 11
426.6518904094718
 21
179.1846887633503
 31
0.0
  0
LINE
  5
2E1B
330
2
100
AcDbEntity
  8
0
100
AcDbLine
 10
418.3872255502983
 20
190.6846887633503
 30
0.0
 11
418.3872255502985
 21
179.1846887633503
 31
0.0
  0
LINE
  5
2E1C
330
2
100
AcDbEntity
  8
0
100
AcDbLine
 10
418.9584875931846
 20
187.6846887633507
 30
0.0
 11
418.9584875931846
 21
179.1846887633503
 31
0.0
  0
LINE
  5
2E1D
330
2
100
AcDbEntity
  8
0
100
AcDbLine
 10
440.9584875931845
 20
187.6846887633507
 30
0.0
 11
440.9584875931845
 21
179.1846887633503
 31
0.0
  0
LINE
  5
2E1E
330
2
100
AcDbEntity
  8
0
100
AcDbLine
 10
440.3872255502983
 20
190.6846887633503
 30
0.0
 11
440.3872255502985
 21
179.1846887633503
 31
0.0
  0
LINE
  5
2E1F
330
2
100
AcDbEntity
  8
0
100
AcDbLine
 10
448.6518904094716
 20
187.6846887633507
 30
0.0
 11
448.6518904094719
 21
179.1846887633503
 31
0.0
  0
LINE
  5
2E20
330
2
100
AcDbEntity
  8
0
100
AcDbLine
 10
447.1225606911257
 20
187.6846887633503
 30
0.0
 11
447.1225606911259
 21
179.1846887633503
 31
0.0
  0
LINE
  5
2E21
330
2
100
AcDbEntity
  8
0
100
AcDbLine
 10
455.3872255502983
 20
190.6846887633503
 30
0.0
 11
455.3872255502986
 21
179.1846887633503
 31
0.0
  0
LINE
  5
2E22
330
2
100
AcDbEntity
  8
0
100
AcDbLine
 10
454.8159635074125
 20
187.6846887633503
 30
0.0
 11
454.8159635074127
 21
179.1846887633503
 31
0.0
  0
LINE
  5
2E26
330
2
100
AcDbEntity
  8
0
100
AcDbLine
 10
418.3872255502985
 20
179.1846887633503
 30
0.0
 11
433.3872255502986
 21
179.1846887633503
 31
0.0
  0
LINE
  5
2E27
330
2
100
AcDbEntity
  8
0
100
AcDbLine
 10
418.3872255502985
 20
169.0846887633508
 30
0.0
 11
433.3872255502986
 21
169.0846887633508
 31
0.0
  0
LINE
  5
2E28
330
2
100
AcDbEntity
  8
0
100
AcDbLine
 10
418.3872255502985
 20
174.0846887633508
 30
0.0
 11
433.3872255502986
 21
174.0846887633508
 31
0.0
  0
LINE
  5
2E29
330
2
100
AcDbEntity
  8
0
100
AcDbLine
 10
416.8872255502983
 20
169.0846887633508
 30
0.0
 11
434.8872255502985
 21
169.0846887633508
 31
0.0
  0
LINE
  5
2E2A
330
2
100
AcDbEntity
  8
0
100
AcDbLine
 10
409.8523135502984
 20
167.7127997633506
 30
0.0
 11
436.8872255502985
 21
168.1846887633505
 31
0.0
  0
ARC
  5
2E2B
330
2
100
AcDbEntity
  8
0
100
AcDbCircle
 10
436.8872255502985
 20
136.1846887633505
 30
0.0
 40
7.5
100
AcDbArc
 50
199.4712070000023
 51
160.5287929999976
  0
LINE
  5
2E2C
330
2
100
AcDbEntity
  8
CENTER
100
AcDbLine
 10
411.8246335502986
 20
136.1846887633505
 30
0.0
 11
461.9498175502985
 21
136.1846887633505
 31
0.0
  0
LINE
  5
2E2D
330
2
100
AcDbEntity
  8
0
100
AcDbLine
 10
404.8872255502986
 20
72.18468876335055
 30
0.0
 11
436.8872255502985
 21
72.18468876335055
 31
0.0
  0
ARC
  5
2E2E
330
2
100
AcDbEntity
  8
0
100
AcDbCircle
 10
436.8872255502985
 20
123.1846887633505
 30
0.0
 40
42.5
100
AcDbArc
 50
199.7498930000023
 51
270.0
  0
LINE
  5
2E2F
330
2
100
AcDbEntity
  8
CENTER
100
AcDbLine
 10
383.3872255502985
 20
123.1846887633505
 30
0.0
 11
490.3872255502985
 21
123.1846887633505
 31
0.0
  0
ARC
  5
2E32
330
2
100
AcDbEntity
  8
0
100
AcDbCircle
 10
436.8872255502985
 20
123.1846887633505
 30
0.0
 40
42.5
100
AcDbArc
 50
90.0
 51
160.2501069999976
  0
CIRCLE
  5
2E33
330
2
100
AcDbEntity
  8
0
100
AcDbCircle
 10
436.8872255502985
 20
136.1846887633505
 30
0.0
 40
20.0
  0
LINE
  5
2E37
330
2
100
AcDbEntity
  8
0
100
AcDbLine
 10
255.4054998541598
 20
168.1846887633505
 30
0.0
 11
255.4054998541598
 21
71.18468876335055
 31
0.0
  0
LINE
  5
2E38
330
2
100
AcDbEntity
  8
0
100
AcDbLine
 10
259.4054998541598
 20
117.1846887633505
 30
0.0
 11
259.4054998541598
 21
155.1846887633505
 31
0.0
  0
LINE
  5
2E39
330
2
100
AcDbEntity
  8
0
100
AcDbLine
 10
258.4054998541598
 20
116.1846887633505
 30
0.0
 11
255.4054998541598
 21
116.1846887633505
 31
0.0
  0
LINE
  5
2E3A
330
2
100
AcDbEntity
  8
HIDS
  6
SEKKEI_H
100
AcDbLine
 10
250.6554998541598
 20
79.18468876335055
 30
0.0
 11
250.6554998541598
 21
71.18468876335055
 31
0.0
  0
ARC
  5
2E3B
330
2
100
AcDbEntity
  8
0
100
AcDbCircle
 10
253.4054998541598
 20
77.18468876335055
 30
0.0
 40
2.0
100
AcDbArc
 50
0.0
 51
90.0
  0
ARC
  5
2E3C
330
2
100
AcDbEntity
  8
0
100
AcDbCircle
 10
258.4054998541598
 20
117.1846887633505
 30
0.0
 40
1.0
100
AcDbArc
 50
270.0
 51
0.0
  0
LINE
  5
2E3D
330
2
100
AcDbEntity
  8
0
100
AcDbLine
 10
258.4054998541598
 20
156.1846887633505
 30
0.0
 11
255.4054998541598
 21
156.1846887633505
 31
0.0
  0
ARC
  5
2E3E
330
2
100
AcDbEntity
  8
0
100
AcDbCircle
 10
258.4054998541598
 20
155.1846887633505
 30
0.0
 40
1.0
100
AcDbArc
 50
0.0
 51
90.0
  0
LINE
  5
2E3F
330
2
100
AcDbEntity
  8
0
100
AcDbLine
 10
261.4054998541598
 20
143.6846887633505
 30
0.0
 11
288.4054998541598
 21
143.6846887633505
 31
0.0
  0
LINE
  5
2E40
330
2
100
AcDbEntity
  8
0
100
AcDbLine
 10
261.4054998541598
 20
128.6846887633505
 30
0.0
 11
288.4054998541598
 21
128.6846887633505
 31
0.0
  0
LINE
  5
2E41
330
2
100
AcDbEntity
  8
0
100
AcDbLine
 10
266.9054998541598
 20
138.6846887633505
 30
0.0
 11
288.4054998541598
 21
138.6846887633505
 31
0.0
  0
LINE
  5
2E42
330
2
100
AcDbEntity
  8
0
100
AcDbLine
 10
266.9054998541598
 20
133.6846887633505
 30
0.0
 11
288.4054998541598
 21
133.6846887633505
 31
0.0
  0
LINE
  5
2E43
330
2
100
AcDbEntity
  8
0
100
AcDbLine
 10
261.4054998541598
 20
144.6846887633505
 30
0.0
 11
261.4054998541598
 21
127.6846887633505
 31
0.0
  0
LINE
  5
2E44
330
2
100
AcDbEntity
  8
0
100
AcDbLine
 10
259.4054998541598
 20
127.6846887633505
 30
0.0
 11
261.4054998541598
 21
127.6846887633505
 31
0.0
  0
ARC
  5
2E45
330
2
100
AcDbEntity
  8
0
100
AcDbCircle
 10
266.9054998541598
 20
136.1846887633505
 30
0.0
 40
2.5
100
AcDbArc
 50
90.0
 51
180.0
  0
ARC
  5
2E46
330
2
100
AcDbEntity
  8
0
100
AcDbCircle
 10
266.9054998541598
 20
136.1846887633505
 30
0.0
 40
2.5
100
AcDbArc
 50
180.0
 51
270.0
  0
LINE
  5
2E47
330
2
100
AcDbEntity
  8
0
100
AcDbLine
 10
259.4054998541598
 20
144.6846887633505
 30
0.0
 11
261.4054998541598
 21
144.6846887633505
 31
0.0
  0
LINE
  5
2E48
330
2
100
AcDbEntity
  8
0
100
AcDbLine
 10
288.4054998541598
 20
143.6846887633505
 30
0.0
 11
288.4054998541598
 21
128.6846887633505
 31
0.0
  0
LINE
  5
2E49
330
2
100
AcDbEntity
  8
0
100
AcDbLine
 10
396.8872255502986
 20
137.5460887633505
 30
0.0
 11
396.8872255502986
 21
108.8235887633505
 31
0.0
  0
ARC
  5
2E4A
330
2
100
AcDbEntity
  8
0
100
AcDbCircle
 10
436.8872255502985
 20
123.1846887633505
 30
0.0
 40
45.0
100
AcDbArc
 50
130.1241000000033
 51
218.9423980000031
  0
LINE
  5
2E4B
330
2
100
AcDbEntity
  8
0
100
AcDbLine
 10
403.8872255502985
 20
71.18468876335055
 30
0.0
 11
384.8872255502985
 21
71.18468876335055
 31
0.0
  0
LINE
  5
2E4C
330
2
100
AcDbEntity
  8
0
100
AcDbLine
 10
386.8872255502985
 20
79.18468876335055
 30
0.0
 11
398.8872255502986
 21
79.18468876335055
 31
0.0
  0
LINE
  5
2E4D
330
2
100
AcDbEntity
  8
0
100
AcDbLine
 10
385.4730255502986
 20
78.59888876335048
 30
0.0
 11
401.8368255502986
 21
94.96288876335052
 31
0.0
  0
LINE
  5
2E4E
330
2
100
AcDbEntity
  8
0
100
AcDbLine
 10
384.8872255502985
 20
77.18468876335055
 30
0.0
 11
384.8872255502985
 21
71.18468876335055
 31
0.0
  0
ARC
  5
2E4F
330
2
100
AcDbEntity
  8
0
100
AcDbCircle
 10
386.8872255502985
 20
77.18468876335055
 30
0.0
 40
2.0
100
AcDbArc
 50
90.0
 51
180.0
  0
LINE
  5
2E50
330
2
100
AcDbEntity
  8
0
100
AcDbLine
 10
426.3060175502984
 20
110.1846887633505
 30
0.0
 11
432.1372255502986
 21
110.1846887633505
 31
0.0
  0
ARC
  5
2E51
330
2
100
AcDbEntity
  8
0
100
AcDbCircle
 10
427.0664235502985
 20
104.6846887633505
 30
0.0
 40
2.0
100
AcDbArc
 50
90.0
 51
135.5462039999972
  0
LINE
  5
2E52
330
2
100
AcDbEntity
  8
0
100
AcDbLine
 10
428.8872255502986
 20
105.1846887633505
 30
0.0
 11
432.1372255502986
 21
105.1846887633505
 31
0.0
  0
LINE
  5
2E53
330
2
100
AcDbEntity
  8
0
100
AcDbLine
 10
427.0664235502985
 20
106.6846887633505
 30
0.0
 11
432.1372255502986
 21
106.6846887633505
 31
0.0
  0
LINE
  5
2E54
330
2
100
AcDbEntity
  8
0
100
AcDbLine
 10
432.1372255502986
 20
106.6846887633505
 30
0.0
 11
432.1372255502986
 21
110.1846887633505
 31
0.0
  0
LINE
  5
2E55
330
2
100
AcDbEntity
  8
0
100
AcDbLine
 10
425.8568295502985
 20
101.1846887633505
 30
0.0
 11
428.8872255502986
 21
101.1846887633505
 31
0.0
  0
LINE
  5
2E56
330
2
100
AcDbEntity
  8
0
100
AcDbLine
 10
432.1372255502986
 20
105.1846887633505
 30
0.0
 11
432.1372255502986
 21
100.1846887633505
 31
0.0
  0
LINE
  5
2E57
330
2
100
AcDbEntity
  8
0
100
AcDbLine
 10
428.8872255502986
 20
105.1846887633505
 30
0.0
 11
428.8872255502986
 21
101.1846887633505
 31
0.0
  0
ARC
  5
2E58
330
2
100
AcDbEntity
  8
0
100
AcDbCircle
 10
427.6372255502986
 20
103.9476907633506
 30
0.0
 40
6.5
100
AcDbArc
 50
112.3525010000007
 51
215.3744960000062
  0
ARC
  5
2E59
330
2
100
AcDbEntity
  8
0
100
AcDbCircle
 10
426.3060175502984
 20
107.1846887633505
 30
0.0
 40
3.0
100
AcDbArc
 50
90.0
 51
112.3526989999962
  0
ARC
  5
2E5A
330
2
100
AcDbEntity
  8
0
100
AcDbCircle
 10
425.8568295502985
 20
101.6846887633505
 30
0.0
 40
0.5
100
AcDbArc
 50
220.5301969999924
 51
270.0
  0
LINE
  5
2E5B
330
2
100
AcDbEntity
  8
0
100
AcDbLine
 10
422.3370235502984
 20
100.1846887633505
 30
0.0
 11
432.1372255502986
 21
100.1846887633505
 31
0.0
  0
ARC
  5
2E5C
330
2
100
AcDbEntity
  8
0
100
AcDbCircle
 10
428.1372255502986
 20
103.6341827633505
 30
0.0
 40
3.5
100
AcDbArc
 50
135.5460969999876
 51
220.529007000002
  0
ARC
  5
2E5D
330
2
100
AcDbEntity
  8
0
100
AcDbCircle
 10
398.8872255502986
 20
82.18468876335055
 30
0.0
 40
3.0
100
AcDbArc
 50
270.0
 51
0.0
  0
LINE
  5
2E5E
330
2
100
AcDbEntity
  8
CENTER
100
AcDbLine
 10
391.8872255502985
 20
83.43472911126879
 30
0.0
 11
391.8872255502985
 21
66.30972911126878
 31
0.0
  0
LINE
  5
2E5F
330
2
100
AcDbEntity
  8
HIDS
  6
SEKKEI_H
100
AcDbLine
 10
388.6372255502985
 20
79.18468876335055
 30
0.0
 11
388.6372255502985
 21
71.18468876335055
 31
0.0
  0
LINE
  5
2E60
330
2
100
AcDbEntity
  8
HIDS
  6
SEKKEI_H
100
AcDbLine
 10
395.1372255502985
 20
79.18468876335055
 30
0.0
 11
395.1372255502985
 21
71.18468876335055
 31
0.0
  0
LINE
  5
2E61
330
2
100
AcDbEntity
  8
0
100
AcDbLine
 10
403.8872255502985
 20
71.18468876335055
 30
0.0
 11
404.8872255502986
 21
72.18468876335055
 31
0.0
  0
LINE
  5
2E62
330
2
100
AcDbEntity
  8
0
100
AcDbLine
 10
401.8872255502985
 20
82.18468876335055
 30
0.0
 11
401.8872255502985
 21
94.90038876335052
 31
0.0
  0
LINE
  5
2E63
330
2
100
AcDbEntity
  8
0
100
AcDbLine
 10
418.9584875931846
 20
174.0846887633508
 30
0.0
 11
418.9584875931846
 21
169.0846887633508
 31
0.0
  0
LINE
  5
2E64
330
2
100
AcDbEntity
  8
0
100
AcDbLine
 10
418.3872255502988
 20
174.0846887633508
 30
0.0
 11
418.3872255502985
 21
169.0846887633508
 31
0.0
  0
LINE
  5
2E65
330
2
100
AcDbEntity
  8
0
100
AcDbLine
 10
425.1225606911255
 20
174.0846887633508
 30
0.0
 11
425.1225606911255
 21
169.0846887633508
 31
0.0
  0
LINE
  5
2E66
330
2
100
AcDbEntity
  8
0
100
AcDbLine
 10
426.6518904094714
 20
174.0846887633508
 30
0.0
 11
426.6518904094714
 21
169.0846887633508
 31
0.0
  0
LINE
  5
2E67
330
2
100
AcDbEntity
  8
0
100
AcDbLine
 10
432.8159635074127
 20
174.0846887633508
 30
0.0
 11
432.8159635074127
 21
169.0846887633508
 31
0.0
  0
LINE
  5
2E68
330
2
100
AcDbEntity
  8
HOJO
100
AcDbLine
 10
431.1372255502983
 20
179.1846887633507
 30
0.0
 11
431.1372255502988
 21
174.0846887633508
 31
0.0
  0
LINE
  5
2E69
330
2
100
AcDbEntity
  8
0
100
AcDbLine
 10
431.8872255502981
 20
179.1846887633503
 30
0.0
 11
431.8872255502985
 21
174.0846887633508
 31
0.0
  0
LINE
  5
2E6A
330
2
100
AcDbEntity
  8
0
100
AcDbLine
 10
419.8872255502988
 20
179.1846887633503
 30
0.0
 11
419.8872255502988
 21
174.0846887633508
 31
0.0
  0
LINE
  5
2E6B
330
2
100
AcDbEntity
  8
HOJO
100
AcDbLine
 10
420.6372255502988
 20
179.1846887633507
 30
0.0
 11
420.6372255502981
 21
174.0846887633508
 31
0.0
  0
LINE
  5
2E6C
330
2
100
AcDbEntity
  8
0
100
AcDbLine
 10
416.8872255502983
 20
169.0846887633508
 30
0.0
 11
416.8872255502979
 21
167.8354963408933
 31
0.0
  0
LINE
  5
2E6D
330
2
100
AcDbEntity
  8
0
100
AcDbLine
 10
407.8872255502985
 20
165.7130887633505
 30
0.0
 11
407.8872255502985
 21
157.5939907633505
 31
0.0
  0
ARC
  5
2E6E
330
2
100
AcDbEntity
  8
0
100
AcDbCircle
 10
409.8872255502985
 20
165.7130887633505
 30
0.0
 40
2.0
100
AcDbArc
 50
90.99980900000012
 51
180.0
  0
LINE
  5
2E6F
330
2
100
AcDbEntity
  8
0
100
AcDbLine
 10
427.3872255502985
 20
133.6846887633505
 30
0.0
 11
427.3872255502985
 21
138.6846887633505
 31
0.0
  0
LINE
  5
2E70
330
2
100
AcDbEntity
  8
0
100
AcDbLine
 10
432.3872255502985
 20
138.6846887633505
 30
0.0
 11
432.3872255502985
 21
133.6846887633505
 31
0.0
  0
LINE
  5
2E71
330
2
100
AcDbEntity
  8
0
100
AcDbLine
 10
427.3872255502985
 20
133.6846887633505
 30
0.0
 11
432.3872255502985
 21
133.6846887633505
 31
0.0
  0
LINE
  5
2E72
330
2
100
AcDbEntity
  8
0
100
AcDbLine
 10
427.3872255502985
 20
138.6846887633505
 30
0.0
 11
432.3872255502985
 21
138.6846887633505
 31
0.0
  0
LINE
  5
2E76
330
2
100
AcDbEntity
  8
0
100
AcDbLine
 10
476.8872255502985
 20
137.5460887633505
 30
0.0
 11
476.8872255502985
 21
108.8235887633505
 31
0.0
  0
LINE
  5
2E78
330
2
100
AcDbEntity
  8
CENTER
100
AcDbLine
 10
436.8872255502985
 20
64.33258876335049
 30
0.0
 11
436.8872255502984
 21
178.1862119976699
 31
0.0
  0
ARC
  5
2E79
330
2
100
AcDbEntity
  8
0
100
AcDbCircle
 10
436.8872255502985
 20
123.1846887633505
 30
0.0
 40
45.0
100
AcDbArc
 50
321.0575900000002
 51
49.87591199999784
  0
LINE
  5
2E7A
330
2
100
AcDbEntity
  8
0
100
AcDbLine
 10
486.8872255502985
 20
79.18468876335055
 30
0.0
 11
474.8872255502986
 21
79.18468876335055
 31
0.0
  0
ARC
  5
2E7B
330
2
100
AcDbEntity
  8
0
100
AcDbCircle
 10
436.8872255502985
 20
123.1846887633505
 30
0.0
 40
42.5
100
AcDbArc
 50
270.0
 51
340.2500920000033
  0
LINE
  5
2E7C
330
2
100
AcDbEntity
  8
0
100
AcDbLine
 10
488.3014405502986
 20
78.59888876335048
 30
0.0
 11
471.9546385502986
 21
94.94577776335052
 31
0.0
  0
LINE
  5
2E7D
330
2
100
AcDbEntity
  8
0
100
AcDbLine
 10
469.8872255502985
 20
71.18468876335055
 30
0.0
 11
488.8872255502985
 21
71.18468876335055
 31
0.0
  0
LINE
  5
2E7E
330
2
100
AcDbEntity
  8
0
100
AcDbLine
 10
446.1372555502986
 20
105.1846887633505
 30
0.0
 11
448.3872555502986
 21
105.1846887633505
 31
0.0
  0
LINE
  5
2E7F
330
2
100
AcDbEntity
  8
0
100
AcDbLine
 10
444.8872555502986
 20
106.6846887633505
 30
0.0
 11
448.3872555502986
 21
106.6846887633505
 31
0.0
  0
LINE
  5
2E80
330
2
100
AcDbEntity
  8
0
100
AcDbLine
 10
449.7196535502983
 20
110.1846887633505
 30
0.0
 11
441.6372255502985
 21
110.1846887633505
 31
0.0
  0
LINE
  5
2E81
330
2
100
AcDbEntity
  8
0
100
AcDbLine
 10
446.1372555502986
 20
105.1846887633505
 30
0.0
 11
449.1372555502985
 21
100.1846887633505
 31
0.0
  0
LINE
  5
2E82
330
2
100
AcDbEntity
  8
0
100
AcDbLine
 10
433.3872255502986
 20
110.1846887633505
 30
0.0
 11
440.3872255502985
 21
110.1846887633505
 31
0.0
  0
LINE
  5
2E83
330
2
100
AcDbEntity
  8
0
100
AcDbLine
 10
435.1372255502986
 20
100.1846887633505
 30
0.0
 11
438.6372255502985
 21
100.1846887633505
 31
0.0
  0
LINE
  5
2E84
330
2
100
AcDbEntity
  8
0
100
AcDbLine
 10
433.3872255502986
 20
110.1846887633505
 30
0.0
 11
433.3872255502986
 21
106.6846887633505
 31
0.0
  0
LINE
  5
2E85
330
2
100
AcDbEntity
  8
0
100
AcDbLine
 10
433.3872255502986
 20
106.6846887633505
 30
0.0
 11
435.1372255502986
 21
106.6846887633505
 31
0.0
  0
LINE
  5
2E86
330
2
100
AcDbEntity
  8
0
100
AcDbLine
 10
435.1372255502986
 20
106.6846887633505
 30
0.0
 11
435.1372255502986
 21
100.1846887633505
 31
0.0
  0
LINE
  5
2E87
330
2
100
AcDbEntity
  8
0
100
AcDbLine
 10
441.6372255502985
 20
100.1846887633505
 30
0.0
 11
444.8872555502986
 21
100.1846887633505
 31
0.0
  0
LINE
  5
2E88
330
2
100
AcDbEntity
  8
0
100
AcDbLine
 10
441.6372255502985
 20
110.1846887633505
 30
0.0
 11
441.6372255502985
 21
100.1846887633505
 31
0.0
  0
LINE
  5
2E89
330
2
100
AcDbEntity
  8
0
100
AcDbLine
 10
444.8872555502986
 20
106.6846887633505
 30
0.0
 11
444.8872555502986
 21
100.1846887633505
 31
0.0
  0
LINE
  5
2E8A
330
2
100
AcDbEntity
  8
0
100
AcDbLine
 10
438.6372255502985
 20
106.6846887633505
 30
0.0
 11
440.3872255502985
 21
106.6846887633505
 31
0.0
  0
LINE
  5
2E8B
330
2
100
AcDbEntity
  8
0
100
AcDbLine
 10
440.3872255502985
 20
110.1846887633505
 30
0.0
 11
440.3872255502985
 21
106.6846887633505
 31
0.0
  0
LINE
  5
2E8C
330
2
100
AcDbEntity
  8
0
100
AcDbLine
 10
438.6372255502985
 20
106.6846887633505
 30
0.0
 11
438.6372255502985
 21
100.1846887633505
 31
0.0
  0
ARC
  5
2E8D
330
2
100
AcDbEntity
  8
0
100
AcDbCircle
 10
449.7196535502983
 20
108.1846887633505
 30
0.0
 40
2.0
100
AcDbArc
 50
59.13309899998935
 51
90.0
  0
ARC
  5
2E8E
330
2
100
AcDbEntity
  8
0
100
AcDbCircle
 10
448.3872555502986
 20
105.9346887633505
 30
0.0
 40
0.75
100
AcDbArc
 50
270.0
 51
90.0
  0
LINE
  5
2E8F
330
2
100
AcDbEntity
  8
0
100
AcDbLine
 10
452.9370595502986
 20
100.1846887633505
 30
0.0
 11
451.4370595502986
 21
102.6846887633505
 31
0.0
  0
LINE
  5
2E90
330
2
100
AcDbEntity
  8
0
100
AcDbLine
 10
449.1372555502985
 20
100.1846887633505
 30
0.0
 11
452.9370595502986
 21
100.1846887633505
 31
0.0
  0
ARC
  5
2E91
330
2
100
AcDbEntity
  8
0
100
AcDbCircle
 10
448.4370595502986
 20
106.0387227633505
 30
0.0
 40
4.5
100
AcDbArc
 50
311.8104210000039
 51
59.13299199999959
  0
LINE
  5
2E92
330
2
100
AcDbEntity
  8
HIDS
  6
SEKKEI_H
100
AcDbLine
 10
478.6372255502985
 20
79.18468876335055
 30
0.0
 11
478.6372255502985
 21
71.18468876335055
 31
0.0
  0
LINE
  5
2E93
330
2
100
AcDbEntity
  8
0
100
AcDbLine
 10
468.8872255502985
 20
72.18468876335055
 30
0.0
 11
436.8872255502985
 21
72.18468876335055
 31
0.0
  0
LINE
  5
2E94
330
2
100
AcDbEntity
  8
0
100
AcDbLine
 10
469.8872255502985
 20
71.18468876335055
 30
0.0
 11
468.8872255502985
 21
72.18468876335055
 31
0.0
  0
LINE
  5
2E95
330
2
100
AcDbEntity
  8
0
100
AcDbLine
 10
471.8872255502986
 20
94.90038876335052
 30
0.0
 11
471.8872255502986
 21
82.18468876335055
 31
0.0
  0
ARC
  5
2E96
330
2
100
AcDbEntity
  8
0
100
AcDbCircle
 10
474.8872255502986
 20
82.18468876335055
 30
0.0
 40
3.0
100
AcDbArc
 50
180.0
 51
270.0
  0
LINE
  5
2E97
330
2
100
AcDbEntity
  8
CENTER
100
AcDbLine
 10
481.8872255502985
 20
83.43472911126879
 30
0.0
 11
481.8872255502985
 21
66.30972911126878
 31
0.0
  0
LINE
  5
2E98
330
2
100
AcDbEntity
  8
0
100
AcDbLine
 10
488.8872255502985
 20
77.18468876335055
 30
0.0
 11
488.8872255502985
 21
71.18468876335055
 31
0.0
  0
LINE
  5
2E99
330
2
100
AcDbEntity
  8
HIDS
  6
SEKKEI_H
100
AcDbLine
 10
485.1372255502986
 20
79.18468876335055
 30
0.0
 11
485.1372255502986
 21
71.18468876335055
 31
0.0
  0
ARC
  5
2E9A
330
2
100
AcDbEntity
  8
0
100
AcDbCircle
 10
486.8872255502985
 20
77.18468876335055
 30
0.0
 40
2.0
100
AcDbArc
 50
0.0
 51
90.0
  0
ARC
  5
2E9B
330
2
100
AcDbEntity
  8
0
100
AcDbCircle
 10
436.8872255502985
 20
123.1846887633505
 30
0.0
 40
42.5
100
AcDbArc
 50
19.74990100000077
 51
90.0
  0
LINE
  5
2E9C
330
2
100
AcDbEntity
  8
0
100
AcDbLine
 10
440.3872255502985
 20
179.1846887633503
 30
0.0
 11
455.3872255502986
 21
179.1846887633503
 31
0.0
  0
LINE
  5
2E9D
330
2
100
AcDbEntity
  8
0
100
AcDbLine
 10
433.387225550298
 20
174.0846887633508
 30
0.0
 11
433.3872255502986
 21
169.0846887633508
 31
0.0
  0
LINE
  5
2E9E
330
2
100
AcDbEntity
  8
0
100
AcDbLine
 10
438.8872255502983
 20
169.0846887633508
 30
0.0
 11
456.8872255502985
 21
169.0846887633508
 31
0.0
  0
LINE
  5
2E9F
330
2
100
AcDbEntity
  8
0
100
AcDbLine
 10
440.3872255502985
 20
174.0846887633508
 30
0.0
 11
455.3872255502986
 21
174.0846887633508
 31
0.0
  0
LINE
  5
2EA0
330
2
100
AcDbEntity
  8
0
100
AcDbLine
 10
455.3872255502981
 20
174.0846887633508
 30
0.0
 11
455.3872255502986
 21
169.0846887633508
 31
0.0
  0
LINE
  5
2EA1
330
2
100
AcDbEntity
  8
0
100
AcDbLine
 10
454.8159635074127
 20
174.0846887633508
 30
0.0
 11
454.8159635074127
 21
169.0846887633508
 31
0.0
  0
LINE
  5
2EA2
330
2
100
AcDbEntity
  8
0
100
AcDbLine
 10
448.6518904094714
 20
174.0846887633508
 30
0.0
 11
448.6518904094714
 21
169.0846887633508
 31
0.0
  0
LINE
  5
2EA3
330
2
100
AcDbEntity
  8
0
100
AcDbLine
 10
440.3872255502985
 20
169.0846887633508
 30
0.0
 11
455.3872255502986
 21
169.0846887633508
 31
0.0
  0
LINE
  5
2EA4
330
2
100
AcDbEntity
  8
0
100
AcDbLine
 10
447.1225606911255
 20
174.0846887633508
 30
0.0
 11
447.1225606911255
 21
169.0846887633508
 31
0.0
  0
LINE
  5
2EA5
330
2
100
AcDbEntity
  8
0
100
AcDbLine
 10
440.3872255502988
 20
174.0846887633508
 30
0.0
 11
440.3872255502985
 21
169.0846887633508
 31
0.0
  0
LINE
  5
2EA6
330
2
100
AcDbEntity
  8
0
100
AcDbLine
 10
440.9584875931845
 20
174.0846887633508
 30
0.0
 11
440.9584875931845
 21
169.0846887633508
 31
0.0
  0
LINE
  5
2EA7
330
2
100
AcDbEntity
  8
HOJO
100
AcDbLine
 10
442.6372255502988
 20
179.1846887633507
 30
0.0
 11
442.6372255502981
 21
174.0846887633508
 31
0.0
  0
LINE
  5
2EA8
330
2
100
AcDbEntity
  8
0
100
AcDbLine
 10
441.8872255502988
 20
179.1846887633503
 30
0.0
 11
441.8872255502988
 21
174.0846887633508
 31
0.0
  0
LINE
  5
2EA9
330
2
100
AcDbEntity
  8
0
100
AcDbLine
 10
453.8872255502981
 20
179.1846887633503
 30
0.0
 11
453.8872255502986
 21
174.0846887633508
 31
0.0
  0
LINE
  5
2EAA
330
2
100
AcDbEntity
  8
HOJO
100
AcDbLine
 10
453.1372255502983
 20
179.1846887633507
 30
0.0
 11
453.1372255502987
 21
174.0846887633508
 31
0.0
  0
LINE
  5
2EAB
330
2
100
AcDbEntity
  8
0
100
AcDbLine
 10
434.8872255502988
 20
169.0846887633508
 30
0.0
 11
434.8872255502991
 21
168.1497695211048
 31
0.0
  0
LINE
  5
2EAC
330
2
100
AcDbEntity
  8
0
100
AcDbLine
 10
438.8872255502983
 20
169.0846887633508
 30
0.0
 11
438.887225550298
 21
168.1497695211048
 31
0.0
  0
LINE
  5
2EAD
330
2
100
AcDbEntity
  8
0
100
AcDbLine
 10
456.8872255502988
 20
169.0846887633508
 30
0.0
 11
456.8872255502992
 21
167.8354963408933
 31
0.0
  0
LINE
  5
2EAE
330
2
100
AcDbEntity
  8
0
100
AcDbLine
 10
463.9221375502986
 20
167.7127997633506
 30
0.0
 11
436.8872255502985
 21
168.1846887633505
 31
0.0
  0
LINE
  5
2EAF
330
2
100
AcDbEntity
  8
0
100
AcDbLine
 10
465.8872255502985
 20
165.7130887633505
 30
0.0
 11
465.8872255502985
 21
157.5939907633505
 31
0.0
  0
ARC
  5
2EB0
330
2
100
AcDbEntity
  8
0
100
AcDbCircle
 10
463.8872255502985
 20
165.7130887633505
 30
0.0
 40
2.0
100
AcDbArc
 50
0.0
 51
89.00019099999987
  0
TEXT
  5
2EB1
330
2
100
AcDbEntity
  8
TITLE
100
AcDbText
 10
343.3676517365185
 20
335.232545350352
 30
0.0
 40
9.0
  1
AG3L15N5～60  -BLP010T2
100
AcDbText
  0
LINE
  5
2EB2
330
2
100
AcDbEntity
  8
0
100
AcDbLine
 10
418.3872255502983
 20
188.1846887633503
 30
0.0
 11
433.3872255502983
 21
188.1846887633503
 31
0.0
  0
LINE
  5
2EB3
330
2
100
AcDbEntity
  8
0
100
AcDbLine
 10
432.8159635074126
 20
187.6846887633503
 30
0.0
 11
433.3872255502983
 21
187.6846887633503
 31
0.0
  0
ARC
  5
2EB4
330
2
100
AcDbEntity
  8
0
100
AcDbCircle
 10
431.3872255502984
 20
190.6846887633507
 30
0.0
 40
2.0
100
AcDbArc
 50
0.0
 51
90.0
  0
LINE
  5
2EB5
330
2
100
AcDbEntity
  8
0
100
AcDbLine
 10
255.4054998541598
 20
390.9821271906011
 30
0.0
 11
255.4054998541598
 21
292.9821271906011
 31
0.0
  0
ARC
  5
2EB6
330
2
100
AcDbEntity
  8
0
100
AcDbCircle
 10
252.4054998541599
 20
292.9821271906011
 30
0.0
 40
3.0
100
AcDbArc
 50
270.0
 51
0.0
  0
SPLINE
  5
2EB7
330
2
100
AcDbEntity
  8
HOJO
100
AcDbSpline
210
0.0
220
0.0
230
1.0
 70
     8
 71
     3
 72
    10
 73
     6
 74
     4
 42
0.0000000001
 43
0.0000000001
 44
0.0000000001
 40
0.0
 40
0.0
 40
0.0
 40
0.0
 40
3.077502202276136
 40
5.757721662027301
 40
7.055540263984264
 40
7.055540263984264
 40
7.055540263984264
 40
7.055540263984264
 10
422.8872468741631
 20
216.71445954981
 30
0.0
 10
423.8940158308418
 20
215.8795816956676
 30
0.0
 10
425.7775873279599
 20
214.3176025352996
 30
0.0
 10
427.2343737921694
 20
217.8787722201749
 30
0.0
 10
428.4806130905687
 20
217.0008301855938
 30
0.0
 10
428.8871935502986
 20
216.7144051976363
 30
0.0
 11
422.8872468741631
 21
216.71445954981
 31
0.0
 11
425.7090701646477
 21
215.4863174072659
 31
0.0
 11
427.7126745853386
 21
217.2665268550042
 31
0.0
 11
428.8871935502986
 21
216.7144051976363
 31
0.0
  0
LINE
  5
2EB8
330
2
100
AcDbEntity
  8
0
100
AcDbLine
 10
422.1372255502983
 20
188.1846887633503
 30
0.0
 11
425.1225606911252
 21
187.6846887633507
 31
0.0
  0
LINE
  5
2EB9
330
2
100
AcDbEntity
  8
0
100
AcDbLine
 10
420.3872255502988
 20
192.6846887633503
 30
0.0
 11
431.3872255502988
 21
192.6846887633503
 31
0.0
  0
LINE
  5
2EBA
330
2
100
AcDbEntity
  8
0
100
AcDbLine
 10
429.637225550299
 20
188.1846887633503
 30
0.0
 11
432.8159635074126
 21
187.6846887633503
 31
0.0
  0
LINE
  5
2EBB
330
2
100
AcDbEntity
  8
0
100
AcDbLine
 10
426.6518904094716
 20
187.6846887633503
 30
0.0
 11
425.1225606911257
 21
187.6846887633503
 31
0.0
  0
LINE
  5
2EBC
330
2
100
AcDbEntity
  8
0
100
AcDbLine
 10
426.6518904094716
 20
187.6846887633503
 30
0.0
 11
429.637225550299
 21
188.1846887633503
 31
0.0
  0
LINE
  5
2EBD
330
2
100
AcDbEntity
  8
0
100
AcDbLine
 10
422.1372255502983
 20
188.1846887633503
 30
0.0
 11
418.9584875931847
 21
187.6846887633503
 31
0.0
  0
LINE
  5
2EBE
330
2
100
AcDbEntity
  8
0
100
AcDbLine
 10
418.9584875931847
 20
187.6846887633503
 30
0.0
 11
418.3872255502983
 21
187.6846887633507
 31
0.0
  0
ARC
  5
2EBF
330
2
100
AcDbEntity
  8
0
100
AcDbCircle
 10
420.3872255502988
 20
190.6846887633503
 30
0.0
 40
2.0
100
AcDbArc
 50
90.0
 51
180.0
  0
LINE
  5
2EC0
330
2
100
AcDbEntity
  8
0
100
AcDbLine
 10
428.8871935502986
 20
192.6846887633503
 30
0.0
 11
428.8871935502986
 21
216.7144051976363
 31
0.0
  0
LINE
  5
2EC1
330
2
100
AcDbEntity
  8
0
100
AcDbLine
 10
422.8872468741631
 20
216.71445954981
 30
0.0
 11
422.88726738643
 21
192.6846887633503
 31
0.0
  0
LINE
  5
2EC2
330
2
100
AcDbEntity
  8
0
100
AcDbLine
 10
259.4054998541598
 20
322.9821271906012
 30
0.0
 11
259.4054998541598
 21
360.9821271906012
 31
0.0
  0
LINE
  5
2EC3
330
2
100
AcDbEntity
  8
0
100
AcDbLine
 10
261.4054998541598
 20
349.4821271906012
 30
0.0
 11
288.4054998541598
 21
349.4821271906012
 31
0.0
  0
LINE
  5
2EC4
330
2
100
AcDbEntity
  8
0
100
AcDbLine
 10
259.4054998541598
 20
350.4821271906012
 30
0.0
 11
261.4054998541598
 21
350.4821271906012
 31
0.0
  0
LINE
  5
2EC5
330
2
100
AcDbEntity
  8
0
100
AcDbLine
 10
264.4054998541598
 20
332.4821271906011
 30
0.0
 11
288.4054998541598
 21
332.4821271906011
 31
0.0
  0
LINE
  5
2EC6
330
2
100
AcDbEntity
  8
0
100
AcDbLine
 10
264.4054998541598
 20
334.9111281906012
 30
0.0
 11
288.4054998541598
 21
334.9111281906012
 31
0.0
  0
LINE
  5
2EC7
330
2
100
AcDbEntity
  8
0
100
AcDbLine
 10
261.4054998541598
 20
334.4821271906011
 30
0.0
 11
264.4054998541598
 21
334.4821271906011
 31
0.0
  0
LINE
  5
2EC8
330
2
100
AcDbEntity
  8
0
100
AcDbLine
 10
259.4054998541598
 20
333.4821271906012
 30
0.0
 11
261.4054998541598
 21
333.4821271906012
 31
0.0
  0
LINE
  5
2EC9
330
2
100
AcDbEntity
  8
0
100
AcDbLine
 10
264.4054998541598
 20
334.9111281906012
 30
0.0
 11
264.4054998541598
 21
332.4821271906011
 31
0.0
  0
LINE
  5
2ECA
330
2
100
AcDbEntity
  8
0
100
AcDbLine
 10
261.4054998541598
 20
350.4821271906012
 30
0.0
 11
261.4054998541598
 21
333.4821271906012
 31
0.0
  0
LINE
  5
2ECB
330
2
100
AcDbEntity
  8
0
100
AcDbLine
 10
288.4054998541598
 20
349.4821271906012
 30
0.0
 11
288.4054998541598
 21
332.4821271906011
 31
0.0
  0
LINE
  5
2ECC
330
2
100
AcDbEntity
  8
0
100
AcDbLine
 10
258.4054998541598
 20
321.9821271906011
 30
0.0
 11
255.4054998541598
 21
321.9821271906011
 31
0.0
  0
ARC
  5
2ECD
330
2
100
AcDbEntity
  8
0
100
AcDbCircle
 10
258.4054998541598
 20
322.9821271906012
 30
0.0
 40
1.0
100
AcDbArc
 50
270.0
 51
0.0
  0
LINE
  5
2ECE
330
2
100
AcDbEntity
  8
0
100
AcDbLine
 10
258.4054998541598
 20
361.9821271906012
 30
0.0
 11
255.4054998541598
 21
361.9821271906012
 31
0.0
  0
ARC
  5
2ECF
330
2
100
AcDbEntity
  8
0
100
AcDbCircle
 10
252.4054998541599
 20
390.9821271906011
 30
0.0
 40
3.0
100
AcDbArc
 50
0.0
 51
90.0
  0
ARC
  5
2ED0
330
2
100
AcDbEntity
  8
0
100
AcDbCircle
 10
258.4054998541598
 20
360.9821271906012
 30
0.0
 40
1.0
100
AcDbArc
 50
0.0
 51
90.0
  0
SPLINE
  5
2ED1
330
2
100
AcDbEntity
  8
HOJO
100
AcDbSpline
210
0.0
220
0.0
230
1.0
 70
     8
 71
     3
 72
    10
 73
     6
 74
     4
 42
0.0000000001
 43
0.0000000001
 44
0.0000000001
 40
0.0
 40
0.0
 40
0.0
 40
0.0
 40
3.077502202276136
 40
5.757721662027301
 40
7.055540263984264
 40
7.055540263984264
 40
7.055540263984264
 40
7.055540263984264
 10
444.8872468741631
 20
216.71445954981
 30
0.0
 10
445.8940158308418
 20
215.8795816956676
 30
0.0
 10
447.7775873279599
 20
214.3176025352996
 30
0.0
 10
449.2343737921695
 20
217.8787722201749
 30
0.0
 10
450.4806130905687
 20
217.0008301855938
 30
0.0
 10
450.8871935502987
 20
216.7144051976363
 30
0.0
 11
444.8872468741631
 21
216.71445954981
 31
0.0
 11
447.7090701646477
 21
215.4863174072659
 31
0.0
 11
449.7126745853385
 21
217.2665268550042
 31
0.0
 11
450.8871935502987
 21
216.7144051976363
 31
0.0
  0
ARC
  5
2ED2
330
2
100
AcDbEntity
  8
0
100
AcDbCircle
 10
442.3872255502987
 20
190.6846887633503
 30
0.0
 40
2.0
100
AcDbArc
 50
90.0
 51
180.0
  0
LINE
  5
2ED3
330
2
100
AcDbEntity
  8
0
100
AcDbLine
 10
440.9584875931848
 20
187.6846887633503
 30
0.0
 11
440.3872255502983
 21
187.6846887633507
 31
0.0
  0
LINE
  5
2ED4
330
2
100
AcDbEntity
  8
0
100
AcDbLine
 10
444.1372255502983
 20
188.1846887633503
 30
0.0
 11
440.9584875931848
 21
187.6846887633503
 31
0.0
  0
ARC
  5
2ED5
330
2
100
AcDbEntity
  8
0
100
AcDbCircle
 10
453.3872255502984
 20
190.6846887633507
 30
0.0
 40
2.0
100
AcDbArc
 50
0.0
 51
90.0
  0
LINE
  5
2ED6
330
2
100
AcDbEntity
  8
0
100
AcDbLine
 10
454.8159635074125
 20
187.6846887633503
 30
0.0
 11
455.3872255502983
 21
187.6846887633503
 31
0.0
  0
LINE
  5
2ED7
330
2
100
AcDbEntity
  8
0
100
AcDbLine
 10
448.6518904094716
 20
187.6846887633503
 30
0.0
 11
451.637225550299
 21
188.1846887633503
 31
0.0
  0
LINE
  5
2ED8
330
2
100
AcDbEntity
  8
0
100
AcDbLine
 10
448.6518904094716
 20
187.6846887633503
 30
0.0
 11
447.1225606911257
 21
187.6846887633503
 31
0.0
  0
LINE
  5
2ED9
330
2
100
AcDbEntity
  8
0
100
AcDbLine
 10
451.637225550299
 20
188.1846887633503
 30
0.0
 11
454.8159635074125
 21
187.6846887633503
 31
0.0
  0
LINE
  5
2EDA
330
2
100
AcDbEntity
  8
0
100
AcDbLine
 10
442.3872255502987
 20
192.6846887633503
 30
0.0
 11
453.3872255502988
 21
192.6846887633503
 31
0.0
  0
LINE
  5
2EDB
330
2
100
AcDbEntity
  8
0
100
AcDbLine
 10
440.3872255502983
 20
188.1846887633503
 30
0.0
 11
455.3872255502983
 21
188.1846887633503
 31
0.0
  0
LINE
  5
2EDC
330
2
100
AcDbEntity
  8
0
100
AcDbLine
 10
444.1372255502983
 20
188.1846887633503
 30
0.0
 11
447.1225606911253
 21
187.6846887633507
 31
0.0
  0
LINE
  5
2EDD
330
2
100
AcDbEntity
  8
0
100
AcDbLine
 10
450.8871935502987
 20
192.6846887633503
 30
0.0
 11
450.8871935502987
 21
216.7144051976363
 31
0.0
  0
LINE
  5
2EDE
330
2
100
AcDbEntity
  8
0
100
AcDbLine
 10
444.8872468741631
 20
216.71445954981
 30
0.0
 11
444.88726738643
 21
192.6846887633503
 31
0.0
  0
ARC
  5
306D
330
2
100
AcDbEntity
  8
0
100
AcDbCircle
 10
129.0858851683453
 20
161.5607452092785
 30
0.0
 40
1.59999999999961
100
AcDbArc
 50
192.6768384788919
 51
255.0000000000055
  0
LINE
  5
306E
330
2
100
AcDbEntity
  8
0
100
AcDbLine
 10
129.9054978541596
 20
159.6846887633523
 30
0.0
 11
128.6717746961814
 21
160.0152638872164
 31
0.0
  0
LINE
  5
306F
330
2
100
AcDbEntity
  8
0
100
AcDbLine
 10
130.9054998541598
 20
159.3846887633499
 30
0.0
 11
129.9054978541596
 21
159.3846887633499
 31
0.0
  0
LINE
  5
3070
330
2
100
AcDbEntity
  8
CENTER
100
AcDbLine
 10
125.3024075581286
 20
163.1846887633501
 30
0.0
 11
139.8216713487024
 21
163.1846887633501
 31
0.0
  0
ARC
  5
3071
330
2
100
AcDbEntity
  8
0
100
AcDbCircle
 10
136.3054978541715
 20
163.1846887633501
 30
0.0
 40
9.000000000010642
100
AcDbArc
 50
167.323161521108
 51
192.6768384788919
  0
ARC
  5
3072
330
2
100
AcDbEntity
  8
0
100
AcDbCircle
 10
129.0858851683408
 20
164.8086323174202
 30
0.0
 40
1.59999999999961
100
AcDbArc
 50
104.9999999999944
 51
167.323161521108
  0
LINE
  5
3073
330
2
100
AcDbEntity
  8
0
100
AcDbLine
 10
130.9054998541598
 20
166.9846887633498
 30
0.0
 11
129.9054978541596
 21
166.9846887633498
 31
0.0
  0
LINE
  5
3074
330
2
100
AcDbEntity
  8
0
100
AcDbLine
 10
128.6717746961769
 20
166.3541136394824
 30
0.0
 11
129.9054978541596
 21
166.6846887633473
 31
0.0
  0
ARC
  5
3075
330
2
100
AcDbEntity
  8
0
100
AcDbCircle
 10
136.3054978541716
 20
83.18468876335101
 30
0.0
 40
9.000000000010642
100
AcDbArc
 50
167.323161521108
 51
192.6768384788919
  0
LINE
  5
3076
330
2
100
AcDbEntity
  8
0
100
AcDbLine
 10
129.9054978541597
 20
86.98468876335116
 30
0.0
 11
129.9054978541597
 21
79.38468876335125
 31
0.0
  0
LINE
  5
3077
330
2
100
AcDbEntity
  8
0
100
AcDbLine
 10
130.9054998541599
 20
86.98468876335116
 30
0.0
 11
129.9054978541597
 21
86.98468876335116
 31
0.0
  0
LINE
  5
3078
330
2
100
AcDbEntity
  8
0
100
AcDbLine
 10
129.9054978541597
 20
86.6846887633487
 30
0.0
 11
128.6717746961816
 21
86.35411363948467
 31
0.0
  0
ARC
  5
3079
330
2
100
AcDbEntity
  8
0
100
AcDbCircle
 10
129.0858851683454
 20
84.80863231742247
 30
0.0
 40
1.59999999999961
100
AcDbArc
 50
104.9999999999944
 51
167.323161521108
  0
LINE
  5
307A
330
2
100
AcDbEntity
  8
CENTER
100
AcDbLine
 10
125.3024075581287
 20
83.18468876335098
 30
0.0
 11
139.8216713487025
 21
83.18468876335101
 31
0.0
  0
ARC
  5
307B
330
2
100
AcDbEntity
  8
0
100
AcDbCircle
 10
129.0858851683409
 20
81.56074520928084
 30
0.0
 40
1.59999999999961
100
AcDbArc
 50
192.6768384788919
 51
255.0000000000055
  0
LINE
  5
307C
330
2
100
AcDbEntity
  8
0
100
AcDbLine
 10
128.671774696177
 20
80.01526388721865
 30
0.0
 11
129.9054978541597
 21
79.68468876335371
 31
0.0
  0
LINE
  5
307D
330
2
100
AcDbEntity
  8
0
100
AcDbLine
 10
130.9054998541599
 20
79.38468876335125
 30
0.0
 11
129.9054978541597
 21
79.38468876335125
 31
0.0
  0
LINE
  5
307E
330
2
100
AcDbEntity
  8
0
100
AcDbLine
 10
129.9054978541596
 20
166.9846887633498
 30
0.0
 11
129.9054978541596
 21
159.3846887633499
 31
0.0
  0
LINE
  5
307F
330
2
100
AcDbEntity
  8
0
100
AcDbLine
 10
128.4054998541598
 20
166.2567607040785
 30
0.0
 11
128.4054998541598
 21
167.1105225826911
 31
0.0
  0
LINE
  5
308E
330
2
100
AcDbEntity
  8
CENTER
100
AcDbLine
 10
125.3268323884819
 20
365.9821271906011
 30
0.0
 11
139.8460961790558
 21
365.9821271906011
 31
0.0
  0
ARC
  5
308F
330
2
100
AcDbEntity
  8
0
100
AcDbCircle
 10
129.1103099986982
 20
367.6060707446726
 30
0.0
 40
1.59999999999961
100
AcDbArc
 50
104.9999999999944
 51
167.323161521108
  0
ARC
  5
3090
330
2
100
AcDbEntity
  8
0
100
AcDbCircle
 10
129.1103099986937
 20
364.358183636531
 30
0.0
 40
1.59999999999961
100
AcDbArc
 50
192.676838478865
 51
255.0000000000055
  0
ARC
  5
3091
330
2
100
AcDbEntity
  8
0
100
AcDbCircle
 10
136.3299226845249
 20
365.9821271906011
 30
0.0
 40
9.000000000010642
100
AcDbArc
 50
167.323161521108
 51
192.676838478865
  0
LINE
  5
3092
330
2
100
AcDbEntity
  8
0
100
AcDbLine
 10
129.9299226845129
 20
369.4821271905984
 30
0.0
 11
128.6961995265343
 21
369.1515520667348
 31
0.0
  0
LINE
  5
3093
330
2
100
AcDbEntity
  8
0
100
AcDbLine
 10
128.6961995265298
 20
362.8127023144688
 30
0.0
 11
129.9299226845129
 21
362.4821271906034
 31
0.0
  0
LINE
  5
3094
330
2
100
AcDbEntity
  8
0
100
AcDbLine
 10
130.9299246845132
 20
369.7821271906008
 30
0.0
 11
129.9299226845129
 21
369.7821271906008
 31
0.0
  0
LINE
  5
3095
330
2
100
AcDbEntity
  8
0
100
AcDbLine
 10
129.9299226845129
 20
369.7821271906008
 30
0.0
 11
129.9299226845129
 21
362.1821271906009
 31
0.0
  0
LINE
  5
3096
330
2
100
AcDbEntity
  8
0
100
AcDbLine
 10
130.881075023806
 20
362.1821271906009
 30
0.0
 11
129.9299226845129
 21
362.1821271906009
 31
0.0
  0
LINE
  5
309A
330
2
100
AcDbEntity
  8
0
100
AcDbLine
 10
129.9299226845129
 20
314.1821271906014
 30
0.0
 11
129.9299226845129
 21
321.7821271906013
 31
0.0
  0
LINE
  5
309B
330
2
100
AcDbEntity
  8
CENTER
100
AcDbLine
 10
125.3268323884819
 20
317.9821271906011
 30
0.0
 11
139.8460961790558
 21
317.9821271906011
 31
0.0
  0
ARC
  5
309C
330
2
100
AcDbEntity
  8
0
100
AcDbCircle
 10
129.1103099986982
 20
316.3581836365296
 30
0.0
 40
1.59999999999961
100
AcDbArc
 50
192.6768384788919
 51
255.0000000000055
  0
ARC
  5
309D
330
2
100
AcDbEntity
  8
0
100
AcDbCircle
 10
129.1103099986937
 20
319.6060707446712
 30
0.0
 40
1.59999999999961
100
AcDbArc
 50
104.9999999999944
 51
167.3231615211349
  0
ARC
  5
309E
330
2
100
AcDbEntity
  8
0
100
AcDbCircle
 10
136.3299226845249
 20
317.9821271906011
 30
0.0
 40
9.000000000010642
100
AcDbArc
 50
167.3231615211349
 51
192.6768384788919
  0
LINE
  5
309F
330
2
100
AcDbEntity
  8
0
100
AcDbLine
 10
130.881075023806
 20
321.7821271906013
 30
0.0
 11
129.9299226845129
 21
321.7821271906013
 31
0.0
  0
LINE
  5
30A0
330
2
100
AcDbEntity
  8
0
100
AcDbLine
 10
129.9299226845129
 20
314.4821271906038
 30
0.0
 11
128.6961995265343
 21
314.8127023144674
 31
0.0
  0
LINE
  5
30A1
330
2
100
AcDbEntity
  8
0
100
AcDbLine
 10
128.6961995265298
 20
321.1515520667334
 30
0.0
 11
129.9299226845129
 21
321.4821271905988
 31
0.0
  0
LINE
  5
30A2
330
2
100
AcDbEntity
  8
0
100
AcDbLine
 10
130.9299246845132
 20
314.1821271906014
 30
0.0
 11
129.9299226845129
 21
314.1821271906014
 31
0.0
  0
TEXT
  5
30B6
330
2
100
AcDbEntity
  8
TITLE
100
AcDbText
 10
440.4761477256787
 20
332.3871337698272
 30
0.0
 40
6.0
  1
L
100
AcDbText
  0
TEXT
  5
30B7
330
2
100
AcDbEntity
  8
TITLE
100
AcDbText
 10
440.4761477256787
 20
341.0722797658862
 30
0.0
 40
6.0
  1
N
100
AcDbText
  0
ENDSEC
  0
SECTION
  2
OBJECTS
  0
DICTIONARY
  5
7
330
0
100
AcDbDictionary
  3
ACAD_GROUP
350
75
  3
ACAD_LAYOUT
350
61
  3
ACAD_MLINESTYLE
350
76
  3
ACAD_PLOTSETTINGS
350
77
  3
ACAD_PLOTSTYLENAME
350
6
  3
ACADDIM
350
480
  3
ACDBHEADERROUNDTRIPXREC
350
312A
  3
ACDBVARIABLEDICTIONARY
350
102
  3
DWGPROPS
350
3D2
  0
DICTIONARY
  5
8D5
330
66
100
AcDbDictionary
280
     1
  3
ACAD_LAYERSTATES
360
8D6
  0
DICTIONARY
  5
314B
330
2
100
AcDbDictionary
280
     1
  3
ACAD_LAYOUTSELFREF
360
314C
  0
DICTIONARY
  5
314D
330
3124
100
AcDbDictionary
280
     1
  3
ACAD_LAYOUTSELFREF
360
314E
  0
DICTIONARY
  5
75
102
{ACAD_REACTORS
330
7
102
}
330
7
100
AcDbDictionary
  0
DICTIONARY
  5
61
102
{ACAD_REACTORS
330
7
102
}
330
7
100
AcDbDictionary
  0
DICTIONARY
  5
76
102
{ACAD_REACTORS
330
7
102
}
330
7
100
AcDbDictionary
  3
STANDARD
350
78
  0
DICTIONARY
  5
77
102
{ACAD_REACTORS
330
7
102
}
330
7
100
AcDbDictionary
  0
ACDBDICTIONARYWDFLT
  5
6
102
{ACAD_REACTORS
330
7
102
}
330
7
100
AcDbDictionary
281
     1
  3
Normal
350
5
100
AcDbDictionaryWithDefault
340
5
  0
XRECORD
  5
480
102
{ACAD_REACTORS
330
7
102
}
330
7
100
AcDbXrecord
 90
   990106
  3

 60
     0
 61
     0
 62
     1
 63
     3
 64
     1
 65
     0
 66
     0
 67
     3
 68
     1
 69
     0
 70
     0
 71
     0
 72
     0
 40
0.0
170
     2
340
0
  0
DICTIONARY
  5
312A
102
{ACAD_REACTORS
330
7
102
}
330
7
100
AcDbDictionary
  3
CEPSNTYPE
350
3134
  3
DIMSTYLEDATA
350
3138
  3
FINGERPRINTGUID
350
3135
  3
HYPERLINKBASE
350
312D
  3
INSUNITS
350
3133
  3
LAYOUTDICT
350
312F
  3
LWETCUNION
350
3132
  3
PLOTSETDICT
350
3130
  3
PLOTSTYLNAMDICT
350
3131
  3
PSVPSCALE
350
3137
  3
PUCSBASE
350
313B
  3
PUCSORGBACK
350
3141
  3
PUCSORGBOTTOM
350
313D
  3
PUCSORGFRONT
350
3140
  3
PUCSORGLEFT
350
313E
  3
PUCSORGRIGHT
350
313F
  3
PUCSORGTOP
350
313C
  3
PUCSORTHOREF
350
3139
  3
PUCSORTHOVIEW
350
313A
  3
STYLESHEET
350
312E
  3
TSTACKALIGN
350
312B
  3
TSTACKSIZE
350
312C
  3
UCSBASE
350
3144
  3
UCSORGBACK
350
314A
  3
UCSORGBOTTOM
350
3146
  3
UCSORGFRONT
350
3149
  3
UCSORGLEFT
350
3147
  3
UCSORGRIGHT
350
3148
  3
UCSORGTOP
350
3145
  3
UCSORTHOREF
350
3142
  3
UCSORTHOVIEW
350
3143
  3
VERSIONGUID
350
3136
  0
DICTIONARY
  5
102
102
{ACAD_REACTORS
330
7
102
}
330
7
100
AcDbDictionary
  3
DIMASSOC
350
103
  3
SORTENTS
350
549
  0
XRECORD
  5
3D2
102
{ACAD_REACTORS
330
7
102
}
330
7
100
AcDbXrecord
  1
DWGPROPS COOKIE
  2

  3

  4

  6

  7

  8

  9

300
=
301
=
302
=
303
=
304
=
305
=
306
=
307
=
308
=
309
=
 40
0.5353330671296296
 41
2452052.431989363
 42
2453406.550756377
  1

 90
        0
  0
DICTIONARY
  5
8D6
102
{ACAD_REACTORS
330
8D5
102
}
330
8D5
100
AcDbDictionary
  0
XRECORD
  5
314C
102
{ACAD_REACTORS
330
314B
102
}
330
314B
100
AcDbXrecord
340
2
  0
XRECORD
  5
314E
102
{ACAD_REACTORS
330
314D
102
}
330
314D
100
AcDbXrecord
340
3124
  0
MLINESTYLE
  5
78
102
{ACAD_REACTORS
330
76
102
}
330
76
100
AcDbMlineStyle
  2
STANDARD
 70
     0
  3

 62
     0
 51
90.0
 52
90.0
 71
     2
 49
0.5
 62
   256
  6
BYLAYER
 49
-0.5
 62
   256
  6
BYLAYER
  0
ACDBPLACEHOLDER
  5
5
102
{ACAD_REACTORS
330
6
102
}
330
6
100
AcDbPlaceHolder
280
     0
  0
XRECORD
  5
3134
102
{ACAD_REACTORS
330
312A
102
}
330
312A
100
AcDbXrecord
 90
        0
  0
XRECORD
  5
3138
102
{ACAD_REACTORS
330
312A
102
}
330
312A
100
AcDbXrecord
1000
DSTYLE
1002
{
1070
   179
 70
     2
1070
   277
 70
     6
1002
}
  0
XRECORD
  5
3135
102
{ACAD_REACTORS
330
312A
102
}
330
312A
100
AcDbXrecord
  1
{6385560B-F4B1-4644-A7C2-A3E32AC3D232}
  0
XRECORD
  5
312D
102
{ACAD_REACTORS
330
312A
102
}
330
312A
100
AcDbXrecord
  1

  0
XRECORD
  5
3133
102
{ACAD_REACTORS
330
312A
102
}
330
312A
100
AcDbXrecord
 90
        0
  0
XRECORD
  5
312F
102
{ACAD_REACTORS
330
312A
102
}
330
312A
100
AcDbXrecord
340
61
  0
XRECORD
  5
3132
102
{ACAD_REACTORS
330
312A
102
}
330
312A
100
AcDbXrecord
 90
    10781
  0
XRECORD
  5
3130
102
{ACAD_REACTORS
330
312A
102
}
330
312A
100
AcDbXrecord
340
77
  0
XRECORD
  5
3131
102
{ACAD_REACTORS
330
312A
102
}
330
312A
100
AcDbXrecord
340
6
  0
XRECORD
  5
3137
102
{ACAD_REACTORS
330
312A
102
}
330
312A
100
AcDbXrecord
 40
0.0
  0
XRECORD
  5
313B
102
{ACAD_REACTORS
330
312A
102
}
330
312A
100
AcDbXrecord
340
0
  0
XRECORD
  5
3141
102
{ACAD_REACTORS
330
312A
102
}
330
312A
100
AcDbXrecord
 10
0.0
 20
0.0
 30
0.0
  0
XRECORD
  5
313D
102
{ACAD_REACTORS
330
312A
102
}
330
312A
100
AcDbXrecord
 10
0.0
 20
0.0
 30
0.0
  0
XRECORD
  5
3140
102
{ACAD_REACTORS
330
312A
102
}
330
312A
100
AcDbXrecord
 10
0.0
 20
0.0
 30
0.0
  0
XRECORD
  5
313E
102
{ACAD_REACTORS
330
312A
102
}
330
312A
100
AcDbXrecord
 10
0.0
 20
0.0
 30
0.0
  0
XRECORD
  5
313F
102
{ACAD_REACTORS
330
312A
102
}
330
312A
100
AcDbXrecord
 10
0.0
 20
0.0
 30
0.0
  0
XRECORD
  5
313C
102
{ACAD_REACTORS
330
312A
102
}
330
312A
100
AcDbXrecord
 10
0.0
 20
0.0
 30
0.0
  0
XRECORD
  5
3139
102
{ACAD_REACTORS
330
312A
102
}
330
312A
100
AcDbXrecord
340
0
  0
XRECORD
  5
313A
102
{ACAD_REACTORS
330
312A
102
}
330
312A
100
AcDbXrecord
 70
     0
  0
XRECORD
  5
312E
102
{ACAD_REACTORS
330
312A
102
}
330
312A
100
AcDbXrecord
  1
Sekkei.ctb
  0
XRECORD
  5
312B
102
{ACAD_REACTORS
330
312A
102
}
330
312A
100
AcDbXrecord
 90
        1
  0
XRECORD
  5
312C
102
{ACAD_REACTORS
330
312A
102
}
330
312A
100
AcDbXrecord
 90
       70
  0
XRECORD
  5
3144
102
{ACAD_REACTORS
330
312A
102
}
330
312A
100
AcDbXrecord
340
0
  0
XRECORD
  5
314A
102
{ACAD_REACTORS
330
312A
102
}
330
312A
100
AcDbXrecord
 10
0.0
 20
0.0
 30
0.0
  0
XRECORD
  5
3146
102
{ACAD_REACTORS
330
312A
102
}
330
312A
100
AcDbXrecord
 10
0.0
 20
0.0
 30
0.0
  0
XRECORD
  5
3149
102
{ACAD_REACTORS
330
312A
102
}
330
312A
100
AcDbXrecord
 10
0.0
 20
0.0
 30
0.0
  0
XRECORD
  5
3147
102
{ACAD_REACTORS
330
312A
102
}
330
312A
100
AcDbXrecord
 10
0.0
 20
0.0
 30
0.0
  0
XRECORD
  5
3148
102
{ACAD_REACTORS
330
312A
102
}
330
312A
100
AcDbXrecord
 10
0.0
 20
0.0
 30
0.0
  0
XRECORD
  5
3145
102
{ACAD_REACTORS
330
312A
102
}
330
312A
100
AcDbXrecord
 10
0.0
 20
0.0
 30
0.0
  0
XRECORD
  5
3142
102
{ACAD_REACTORS
330
312A
102
}
330
312A
100
AcDbXrecord
340
0
  0
XRECORD
  5
3143
102
{ACAD_REACTORS
330
312A
102
}
330
312A
100
AcDbXrecord
 70
     0
  0
XRECORD
  5
3136
102
{ACAD_REACTORS
330
312A
102
}
330
312A
100
AcDbXrecord
  1
{9D0B9CF5-EFCB-454C-8050-58C61E428B34}
  0
DICTIONARYVAR
  5
103
102
{ACAD_REACTORS
330
102
102
}
330
102
100
DictionaryVariables
280
     0
  1
1
  0
DICTIONARYVAR
  5
549
102
{ACAD_REACTORS
330
102
102
}
330
102
100
DictionaryVariables
280
     0
  1
96
  0
ENDSEC
  0
EOF
