  0
SECTION
  2
HEADER
  9
$ACADVER
  1
AC1014
  9
$ACADMAINTVER
 70
     9
  9
$DWGCODEPAGE
  3
ANSI_932
  9
$INSBASE
 10
0.0
 20
0.0
 30
0.0
  9
$EXTMIN
 10
73.40549785416015
 20
64.33258876335049
 30
0.0
  9
$EXTMAX
 10
524.3962231650901
 20
397.5824381906011
 30
0.0
  9
$LIMMIN
 10
0.0
 20
0.0
  9
$LIMMAX
 10
297.0
 20
210.0
  9
$ORTHOMODE
 70
     1
  9
$REGENMODE
 70
     1
  9
$FILLMODE
 70
     1
  9
$QTEXTMODE
 70
     0
  9
$MIRRTEXT
 70
     0
  9
$DRAGMODE
 70
     2
  9
$LTSCALE
 40
2.0
  9
$OSMODE
 70
    37
  9
$ATTMODE
 70
     1
  9
$TEXTSIZE
 40
2.0
  9
$TRACEWID
 40
1.0
  9
$TEXTSTYLE
  7
STANDARD
  9
$CLAYER
  8
0
  9
$CELTYPE
  6
BYLAYER
  9
$CECOLOR
 62
   256
  9
$CELTSCALE
 40
1.0
  9
$DELOBJ
 70
     1
  9
$DISPSILH
 70
     0
  9
$DIMSCALE
 40
2.0
  9
$DIMASZ
 40
1.8
  9
$DIMEXO
 40
0.625
  9
$DIMDLI
 40
3.75
  9
$DIMRND
 40
0.0
  9
$DIMDLE
 40
0.0
  9
$DIMEXE
 40
0.8
  9
$DIMTP
 40
0.0
  9
$DIMTM
 40
0.0
  9
$DIMTXT
 40
1.8
  9
$DIMCEN
 40
2.5
  9
$DIMTSZ
 40
0.0
  9
$DIMTOL
 70
     0
  9
$DIMLIM
 70
     0
  9
$DIMTIH
 70
     0
  9
$DIMTOH
 70
     0
  9
$DIMSE1
 70
     0
  9
$DIMSE2
 70
     0
  9
$DIMTAD
 70
     1
  9
$DIMZIN
 70
     8
  9
$DIMBLK
  1

  9
$DIMASO
 70
     1
  9
$DIMSHO
 70
     1
  9
$DIMPOST
  1

  9
$DIMAPOST
  1

  9
$DIMALT
 70
     0
  9
$DIMALTD
 70
     4
  9
$DIMALTF
 40
0.0394
  9
$DIMLFAC
 40
1.0
  9
$DIMTOFL
 70
     1
  9
$DIMTVP
 40
0.0
  9
$DIMTIX
 70
     0
  9
$DIMSOXD
 70
     0
  9
$DIMSAH
 70
     0
  9
$DIMBLK1
  1

  9
$DIMBLK2
  1

  9
$DIMSTYLE
  2
STANDARD
  9
$DIMCLRD
 70
     0
  9
$DIMCLRE
 70
     0
  9
$DIMCLRT
 70
     0
  9
$DIMTFAC
 40
1.0
  9
$DIMGAP
 40
0.75
  9
$DIMJUST
 70
     0
  9
$DIMSD1
 70
     0
  9
$DIMSD2
 70
     0
  9
$DIMTOLJ
 70
     1
  9
$DIMTZIN
 70
     0
  9
$DIMALTZ
 70
     0
  9
$DIMALTTZ
 70
     0
  9
$DIMFIT
 70
     3
  9
$DIMUPT
 70
     0
  9
$DIMUNIT
 70
     8
  9
$DIMDEC
 70
     2
  9
$DIMTDEC
 70
     2
  9
$DIMALTU
 70
     8
  9
$DIMALTTD
 70
     4
  9
$DIMTXSTY
  7
STANDARD
  9
$DIMAUNIT
 70
     0
  9
$LUNITS
 70
     2
  9
$LUPREC
 70
     3
  9
$SKETCHINC
 40
1.0
  9
$FILLETRAD
 40
10.0
  9
$AUNITS
 70
     0
  9
$AUPREC
 70
     2
  9
$MENU
  1
.
  9
$ELEVATION
 40
0.0
  9
$PELEVATION
 40
0.0
  9
$THICKNESS
 40
0.0
  9
$LIMCHECK
 70
     0
  9
$BLIPMODE
 70
     0
  9
$CHAMFERA
 40
0.0
  9
$CHAMFERB
 40
0.0
  9
$CHAMFERC
 40
20.0
  9
$CHAMFERD
 40
0.0
  9
$SKPOLY
 70
     0
  9
$TDCREATE
 40
2454243.702919919
  9
$TDUPDATE
 40
2454306.701142939
  9
$TDINDWG
 40
0.1347084954
  9
$TDUSRTIMER
 40
0.1347084954
  9
$USRTIMER
 70
     1
  9
$ANGBASE
 50
0.0
  9
$ANGDIR
 70
     0
  9
$PDMODE
 70
     0
  9
$PDSIZE
 40
-10.0
  9
$PLINEWID
 40
0.0
  9
$COORDS
 70
     1
  9
$SPLFRAME
 70
     0
  9
$SPLINETYPE
 70
     6
  9
$SPLINESEGS
 70
     8
  9
$ATTDIA
 70
     0
  9
$ATTREQ
 70
     1
  9
$HANDLING
 70
-16383
  9
$HANDSEED
  5
2B4B
  9
$SURFTAB1
 70
     6
  9
$SURFTAB2
 70
     6
  9
$SURFTYPE
 70
     6
  9
$SURFU
 70
     6
  9
$SURFV
 70
     6
  9
$UCSNAME
  2

  9
$UCSORG
 10
0.0
 20
0.0
 30
0.0
  9
$UCSXDIR
 10
1.0
 20
0.0
 30
0.0
  9
$UCSYDIR
 10
0.0
 20
1.0
 30
0.0
  9
$PUCSNAME
  2

  9
$PUCSORG
 10
0.0
 20
0.0
 30
0.0
  9
$PUCSXDIR
 10
1.0
 20
0.0
 30
0.0
  9
$PUCSYDIR
 10
0.0
 20
1.0
 30
0.0
  9
$USERI1
 70
     0
  9
$USERI2
 70
     0
  9
$USERI3
 70
     0
  9
$USERI4
 70
     0
  9
$USERI5
 70
     0
  9
$USERR1
 40
0.0
  9
$USERR2
 40
0.0
  9
$USERR3
 40
0.0
  9
$USERR4
 40
0.0
  9
$USERR5
 40
0.0
  9
$WORLDVIEW
 70
     1
  9
$SHADEDGE
 70
     3
  9
$SHADEDIF
 70
    70
  9
$TILEMODE
 70
     1
  9
$MAXACTVP
 70
    48
  9
$PINSBASE
 10
0.0
 20
0.0
 30
0.0
  9
$PLIMCHECK
 70
     0
  9
$PEXTMIN
 10
0.0
 20
0.0
 30
0.0
  9
$PEXTMAX
 10
0.0
 20
0.0
 30
0.0
  9
$PLIMMIN
 10
0.0
 20
0.0
  9
$PLIMMAX
 10
12.0
 20
9.0
  9
$UNITMODE
 70
     0
  9
$VISRETAIN
 70
     1
  9
$PLINEGEN
 70
     0
  9
$PSLTSCALE
 70
     1
  9
$TREEDEPTH
 70
  3020
  9
$PICKSTYLE
 70
     1
  9
$CMLSTYLE
  2
STANDARD
  9
$CMLJUST
 70
     0
  9
$CMLSCALE
 40
1.0
  9
$PROXYGRAPHICS
 70
     1
  9
$MEASUREMENT
 70
     0
  0
ENDSEC
  0
SECTION
  2
CLASSES
  0
CLASS
  1
DICTIONARYVAR
  2
AcDbDictionaryVar
  3
AutoCAD 2000
 90
        0
280
     0
281
     0
  0
CLASS
  1
ACDBDICTIONARYWDFLT
  2
AcDbDictionaryWithDefault
  3
AutoCAD 2000
 90
        0
280
     0
281
     0
  0
CLASS
  1
ACDBPLACEHOLDER
  2
AcDbPlaceHolder
  3
AutoCAD 2000
 90
        0
280
     0
281
     0
  0
CLASS
  1
LAYOUT
  2
AcDbLayout
  3
AutoCAD 2000
 90
        0
280
     0
281
     0
  0
CLASS
  1
LONG_TRANSACTION
  2
AcDbLongTransaction
  3
AutoCAD 2000
 90
        0
280
     0
281
     0
  0
CLASS
  1
LWPOLYLINE
  2
AcDbPolyline
  3
AutoCAD 2000
 90
        0
280
     0
281
     1
  0
CLASS
  1
HATCH
  2
AcDbHatch
  3
AutoCAD 2000
 90
        0
280
     0
281
     1
  0
CLASS
  1
XRECORD
  2
AcDbXrecord
  3
AutoCAD 2000
 90
        0
280
     0
281
     0
  0
ENDSEC
  0
SECTION
  2
TABLES
  0
TABLE
  2
VPORT
  5
6E
330
0
100
AcDbSymbolTable
 70
     2
  0
VPORT
  5
2B25
330
6E
100
AcDbSymbolTableRecord
100
AcDbViewportTableRecord
  2
*ACTIVE
 70
     0
 10
0.0
 20
0.0
 11
1.0
 21
1.0
 12
301.4468222872541
 22
220.009246436864
 13
0.0
 23
0.0
 14
10.0
 24
10.0
 15
10.0
 25
10.0
 16
0.0
 26
0.0
 36
1.0
 17
0.0
 27
0.0
 37
0.0
 40
357.4744614988469
 41
1.624458874458874
 42
50.0
 43
0.0
 44
0.0
 50
0.0
 51
0.0
 71
     0
 72
   100
 73
     1
 74
     3
 75
     0
 76
     0
 77
     0
 78
     0
  0
ENDTAB
  0
TABLE
  2
LTYPE
  5
69
330
0
100
AcDbSymbolTable
 70
     5
  0
LTYPE
  5
6A
330
69
100
AcDbSymbolTableRecord
100
AcDbLinetypeTableRecord
  2
BYBLOCK
 70
     0
  3

 72
    65
 73
     0
 40
0.0
  0
LTYPE
  5
6B
330
69
100
AcDbSymbolTableRecord
100
AcDbLinetypeTableRecord
  2
BYLAYER
 70
     0
  3

 72
    65
 73
     0
 40
0.0
  0
LTYPE
  5
8
330
69
100
AcDbSymbolTableRecord
100
AcDbLinetypeTableRecord
  2
CONTINUOUS
 70
     0
  3
Solid line
 72
    65
 73
     0
 40
0.0
  0
LTYPE
  5
27C
330
69
100
AcDbSymbolTableRecord
100
AcDbLinetypeTableRecord
  2
SEKKEI_A2_
 70
     0
  3
center(A2)  ____ _ ____ _ ____ _ ____ _ ____ _ 
 72
    65
 73
     4
 40
14.28749999999999
 49
9.525
 74
     0
 49
-1.587499999999999
 74
     0
 49
1.587499999999999
 74
     0
 49
-1.587499999999999
 74
     0
  0
LTYPE
  5
2B4
330
69
100
AcDbSymbolTableRecord
100
AcDbLinetypeTableRecord
  2
HIDDEN2
 70
     0
  3
Hidden (.5x) _ _ _ _ _ _ _ _ _ _ _ _ _ _ _ _ _
 72
    65
 73
     2
 40
4.762499999999999
 49
3.174999999999999
 74
     0
 49
-1.587499999999999
 74
     0
  0
LTYPE
  5
48F
330
69
100
AcDbSymbolTableRecord
100
AcDbLinetypeTableRecord
  2
SEKKEI_H
 70
     0
  3
Hidden-S _ _ _ _ _ _ _ _ _ _ _ _ _ _ _ _ _
 72
    65
 73
     2
 40
2.381249999999999
 49
1.587499999999999
 74
     0
 49
-0.79375
 74
     0
  0
ENDTAB
  0
TABLE
  2
LAYER
  5
66
102
{ACAD_XDICTIONARY
360
8D5
102
}
330
0
100
AcDbSymbolTable
 70
     9
  0
LAYER
  5
5E
330
66
100
AcDbSymbolTableRecord
100
AcDbLayerTableRecord
  2
0
 70
     0
 62
     7
  6
CONTINUOUS
  0
LAYER
  5
3E
330
66
100
AcDbSymbolTableRecord
100
AcDbLayerTableRecord
  2
CENTER
 70
     0
 62
     3
  6
SEKKEI_A2_
  0
LAYER
  5
2B5
330
66
100
AcDbSymbolTableRecord
100
AcDbLayerTableRecord
  2
HIDS
 70
     0
 62
     1
  6
HIDDEN2
  0
LAYER
  5
2BA
330
66
100
AcDbSymbolTableRecord
100
AcDbLayerTableRecord
  2
HOJO
 70
     0
 62
     4
  6
CONTINUOUS
  0
LAYER
  5
3FA
330
66
100
AcDbSymbolTableRecord
100
AcDbLayerTableRecord
  2
TITLE
 70
     0
 62
     4
  6
CONTINUOUS
  0
ENDTAB
  0
TABLE
  2
STYLE
  5
67
330
0
100
AcDbSymbolTable
 70
     1
  0
STYLE
  5
16
330
67
100
AcDbSymbolTableRecord
100
AcDbTextStyleTableRecord
  2
STANDARD
 70
     0
 40
0.0
 41
1.0
 50
0.0
 71
     0
 42
2.0
  3
simplex.shx
  4
extfont.shx
  0
ENDTAB
  0
TABLE
  2
VIEW
  5
6C
330
0
100
AcDbSymbolTable
 70
     0
  0
ENDTAB
  0
TABLE
  2
UCS
  5
6D
330
0
100
AcDbSymbolTable
 70
     0
  0
ENDTAB
  0
TABLE
  2
APPID
  5
70
330
0
100
AcDbSymbolTable
 70
     1
  0
APPID
  5
71
330
70
100
AcDbSymbolTableRecord
100
AcDbRegAppTableRecord
  2
ACAD
 70
     0
  0
ENDTAB
  0
TABLE
  2
DIMSTYLE
  5
72
330
0
100
AcDbSymbolTable
 70
     1
  0
DIMSTYLE
105
73
330
72
100
AcDbSymbolTableRecord
100
AcDbDimStyleTableRecord
  2
STANDARD
 70
     0
  3

  4

  5

  6

  7

 40
2.0
 41
1.8
 42
0.625
 43
3.75
 44
0.8
 45
0.0
 46
0.0
 47
0.0
 48
0.0
140
1.8
141
2.5
142
0.0
143
0.0394
144
1.0
145
0.0
146
1.0
147
0.75
 71
     0
 72
     0
 73
     0
 74
     0
 75
     0
 76
     0
 77
     1
 78
     8
170
     0
171
     4
172
     1
173
     0
174
     0
175
     0
176
     0
177
     0
178
     0
270
     8
271
     2
272
     2
273
     8
274
     4
340
16
275
     0
280
     0
281
     0
282
     0
283
     1
284
     0
285
     0
286
     0
287
     3
288
     0
  0
ENDTAB
  0
TABLE
  2
BLOCK_RECORD
  5
1
330
0
100
AcDbSymbolTable
 70
    38
  0
BLOCK_RECORD
  5
2
102
{ACAD_XDICTIONARY
360
2B47
102
}
330
1
100
AcDbSymbolTableRecord
100
AcDbBlockTableRecord
  2
*MODEL_SPACE
  0
BLOCK_RECORD
  5
2B20
102
{ACAD_XDICTIONARY
360
2B49
102
}
330
1
100
AcDbSymbolTableRecord
100
AcDbBlockTableRecord
  2
*PAPER_SPACE
  0
ENDTAB
  0
ENDSEC
  0
SECTION
  2
BLOCKS
  0
BLOCK
  5
5D
330
2
100
AcDbEntity
  8
0
100
AcDbBlockBegin
  2
*MODEL_SPACE
 70
     0
 10
0.0
 20
0.0
 30
0.0
  3
*MODEL_SPACE
  1

  0
ENDBLK
  5
5F
330
2
100
AcDbEntity
  8
0
100
AcDbBlockEnd
  0
BLOCK
  5
2B22
330
2B20
100
AcDbEntity
 67
     1
  8
0
100
AcDbBlockBegin
  2
*PAPER_SPACE
 70
     0
 10
0.0
 20
0.0
 30
0.0
  3
*PAPER_SPACE
  1

  0
ENDBLK
  5
2B23
330
2B20
100
AcDbEntity
 67
     1
  8
0
100
AcDbBlockEnd
  0
ENDSEC
  0
SECTION
  2
ENTITIES
  0
LINE
  5
26A1
330
2
100
AcDbEntity
  8
CENTER
100
AcDbLine
 10
425.8872255502986
 20
219.7732156164079
 30
0.0
 11
425.8872255502986
 21
163.622798536554
 31
0.0
  0
LINE
  5
26A2
330
2
100
AcDbEntity
  8
CENTER
100
AcDbLine
 10
447.8872255502985
 20
219.7732156164074
 30
0.0
 11
447.8872255502985
 21
163.622798536554
 31
0.0
  0
LINE
  5
26A3
330
2
100
AcDbEntity
  8
HOJO
100
AcDbLine
 10
431.1372255502983
 20
178.184688763351
 30
0.0
 11
431.1372255502988
 21
173.0846887633511
 31
0.0
  0
LINE
  5
26A4
330
2
100
AcDbEntity
  8
0
100
AcDbLine
 10
431.8872255502981
 20
178.1846887633505
 30
0.0
 11
431.8872255502985
 21
173.0846887633511
 31
0.0
  0
LINE
  5
26A5
330
2
100
AcDbEntity
  8
0
100
AcDbLine
 10
419.8872255502988
 20
178.1846887633505
 30
0.0
 11
419.8872255502988
 21
173.0846887633511
 31
0.0
  0
LINE
  5
26A6
330
2
100
AcDbEntity
  8
HOJO
100
AcDbLine
 10
420.6372255502988
 20
178.184688763351
 30
0.0
 11
420.6372255502981
 21
173.0846887633511
 31
0.0
  0
LINE
  5
26A7
330
2
100
AcDbEntity
  8
HOJO
100
AcDbLine
 10
442.6372255502988
 20
178.184688763351
 30
0.0
 11
442.6372255502981
 21
173.0846887633511
 31
0.0
  0
LINE
  5
26A8
330
2
100
AcDbEntity
  8
0
100
AcDbLine
 10
441.8872255502988
 20
178.1846887633505
 30
0.0
 11
441.8872255502988
 21
173.0846887633511
 31
0.0
  0
LINE
  5
26A9
330
2
100
AcDbEntity
  8
0
100
AcDbLine
 10
453.8872255502981
 20
178.1846887633505
 30
0.0
 11
453.8872255502986
 21
173.0846887633511
 31
0.0
  0
LINE
  5
26AA
330
2
100
AcDbEntity
  8
HOJO
100
AcDbLine
 10
453.1372255502983
 20
178.184688763351
 30
0.0
 11
453.1372255502987
 21
173.0846887633511
 31
0.0
  0
LINE
  5
26AB
330
2
100
AcDbEntity
  8
CENTER
100
AcDbLine
 10
118.9054998541598
 20
196.6846887633505
 30
0.0
 11
118.9054998541598
 21
153.5079859386978
 31
0.0
  0
LINE
  5
26AC
330
2
100
AcDbEntity
  8
0
100
AcDbLine
 10
124.9054998541598
 20
173.0846887633501
 30
0.0
 11
124.9054998541598
 21
178.1846887633505
 31
0.0
  0
LINE
  5
26AD
330
2
100
AcDbEntity
  8
HOJO
100
AcDbLine
 10
124.1554998541598
 20
173.0846887633501
 30
0.0
 11
124.1554998541598
 21
178.1846887633505
 31
0.0
  0
LINE
  5
26AE
330
2
100
AcDbEntity
  8
HOJO
100
AcDbLine
 10
113.6554998541598
 20
173.0846887633501
 30
0.0
 11
113.6554998541598
 21
178.1846887633505
 31
0.0
  0
LINE
  5
26AF
330
2
100
AcDbEntity
  8
0
100
AcDbLine
 10
112.9054998541598
 20
173.0846887633501
 30
0.0
 11
112.9054998541598
 21
178.1846887633505
 31
0.0
  0
LINE
  5
26B1
330
2
100
AcDbEntity
  8
CENTER
100
AcDbLine
 10
436.8872255502985
 20
64.33258876335049
 30
0.0
 11
436.8872255502985
 21
206.3876767633505
 31
0.0
  0
LINE
  5
26B5
330
2
100
AcDbEntity
  8
0
100
AcDbLine
 10
255.4054998541598
 20
88.77538676335053
 30
0.0
 11
238.4054998541598
 21
88.77538676335053
 31
0.0
  0
LINE
  5
26B6
330
2
100
AcDbEntity
  8
0
100
AcDbLine
 10
201.4055228541598
 20
79.18468876335055
 30
0.0
 11
253.4054998541598
 21
79.18468876335055
 31
0.0
  0
LINE
  5
26B7
330
2
100
AcDbEntity
  8
0
100
AcDbLine
 10
199.4054998541598
 20
71.18468876335055
 30
0.0
 11
255.4054998541598
 21
71.18468876335055
 31
0.0
  0
LINE
  5
26B8
330
2
100
AcDbEntity
  8
CENTER
100
AcDbLine
 10
73.40549785416015
 20
123.1846887633505
 30
0.0
 11
264.6822028541598
 21
123.1846887633505
 31
0.0
  0
LINE
  5
26B9
330
2
100
AcDbEntity
  8
0
100
AcDbLine
 10
255.4054998541598
 20
157.5939907633505
 30
0.0
 11
140.4055098541598
 21
157.5939907633505
 31
0.0
  0
LINE
  5
26BA
330
2
100
AcDbEntity
  8
0
100
AcDbLine
 10
140.4054998541598
 20
168.1846887633505
 30
0.0
 11
255.4054998541598
 21
168.1846887633505
 31
0.0
  0
LINE
  5
26BC
330
2
100
AcDbEntity
  8
CENTER
100
AcDbLine
 10
233.8252008541599
 20
136.1846887633505
 30
0.0
 11
292.9254905576304
 21
136.1846887633505
 31
0.0
  0
LINE
  5
26BF
330
2
100
AcDbEntity
  8
0
100
AcDbLine
 10
197.4055308541599
 20
88.77538676335053
 30
0.0
 11
140.4054998541598
 21
88.77538676335053
 31
0.0
  0
LINE
  5
26C0
330
2
100
AcDbEntity
  8
0
100
AcDbLine
 10
140.4054998541598
 20
78.18468876335055
 30
0.0
 11
199.4054998541598
 21
78.18468876335055
 31
0.0
  0
LINE
  5
26C1
330
2
100
AcDbEntity
  8
0
100
AcDbLine
 10
86.40549785415965
 20
163.1803253294547
 30
0.0
 11
86.40549785416965
 21
83.18905219723546
 31
0.0
  0
LINE
  5
26C2
330
2
100
AcDbEntity
  8
0
100
AcDbLine
 10
83.4054978541601
 20
160.7189999885431
 30
0.0
 11
83.4054978541601
 21
85.65037753815749
 31
0.0
  0
LINE
  5
26C3
330
2
100
AcDbEntity
  8
0
100
AcDbLine
 10
131.405442181978
 20
168.034873095713
 30
0.0
 11
131.40543748514
 21
78.33984935538592
 31
0.0
  0
LINE
  5
26C4
330
2
100
AcDbEntity
  8
0
100
AcDbLine
 10
130.9054998541598
 20
167.5272790944281
 30
0.0
 11
130.9054998541598
 21
78.84774651501084
 31
0.0
  0
LINE
  5
26C5
330
2
100
AcDbEntity
  8
0
100
AcDbLine
 10
140.4054998541598
 20
168.1846887633505
 30
0.0
 11
140.4054998541598
 21
78.18468876335055
 31
0.0
  0
LINE
  5
26C6
330
2
100
AcDbEntity
  8
0
100
AcDbLine
 10
87.40545977722399
 20
82.18032566174725
 30
0.0
 11
122.4013129021825
 21
81.87492147830061
 31
0.0
  0
LINE
  5
26C7
330
2
100
AcDbEntity
  8
0
100
AcDbLine
 10
85.92294760251139
 20
84.59677748098101
 30
0.0
 11
84.37059835745754
 21
84.6509867111381
 31
0.0
  0
ARC
  5
26C8
330
2
100
AcDbEntity
  8
0
100
AcDbCircle
 10
84.4054978541601
 20
85.65037753815749
 30
0.0
 40
1.0
100
AcDbArc
 50
180.0
 51
267.9999999999963
  0
ARC
  5
26C9
330
2
100
AcDbEntity
  8
0
100
AcDbCircle
 10
85.9054978541601
 20
84.0970820674711
 30
0.0
 40
0.5
100
AcDbArc
 50
0.0
 51
87.99999999999633
  0
LINE
  5
26CA
330
2
100
AcDbEntity
  8
0
100
AcDbLine
 10
86.40549785416965
 20
83.18905219723546
 30
0.0
 11
87.40545977722399
 21
82.18032566174725
 31
0.0
  0
LINE
  5
26CB
330
2
100
AcDbEntity
  8
0
100
AcDbLine
 10
140.4054998541598
 20
88.77538769518015
 30
0.0
 11
131.4054380398181
 21
88.93248435850727
 31
0.0
  0
LINE
  5
26CC
330
2
100
AcDbEntity
  8
0
100
AcDbLine
 10
131.40543748514
 20
78.33984935538592
 30
0.0
 11
140.4054998541598
 21
78.19768176335037
 31
0.0
  0
LINE
  5
26CD
330
2
100
AcDbEntity
  8
0
100
AcDbLine
 10
126.9054998541589
 20
93.23474452300615
 30
0.0
 11
130.9054998541598
 21
93.23474452300615
 31
0.0
  0
LINE
  5
26CE
330
2
100
AcDbEntity
  8
0
100
AcDbLine
 10
130.9054998541598
 20
78.98402569786913
 30
0.0
 11
126.8967733186602
 21
79.0190093243541
 31
0.0
  0
LINE
  5
26CF
330
2
100
AcDbEntity
  8
0
100
AcDbLine
 10
125.9054998541585
 20
86.98468876334983
 30
0.0
 11
125.9054998541585
 21
79.38468876334991
 31
0.0
  0
LINE
  5
26D0
330
2
100
AcDbEntity
  8
0
100
AcDbLine
 10
124.9054978541582
 20
86.98468876334983
 30
0.0
 11
124.9054978541582
 21
79.38468876334991
 31
0.0
  0
LINE
  5
26D1
330
2
100
AcDbEntity
  8
0
100
AcDbLine
 10
124.9054978541582
 20
86.68468876334737
 30
0.0
 11
123.6717746961801
 21
86.35411363948378
 31
0.0
  0
ARC
  5
26D2
330
2
100
AcDbEntity
  8
0
100
AcDbCircle
 10
126.9054998541585
 20
80.018971247418
 30
0.0
 40
1.0
100
AcDbArc
 50
180.0
 51
269.5000000000084
  0
LINE
  5
26D3
330
2
100
AcDbEntity
  8
0
100
AcDbLine
 10
125.9054998541585
 20
79.38468876334991
 30
0.0
 11
124.9054978541582
 21
79.38468876334991
 31
0.0
  0
ARC
  5
26D4
330
2
100
AcDbEntity
  8
0
100
AcDbCircle
 10
124.085885168344
 20
84.8086323174216
 30
0.0
 40
1.59999999999961
100
AcDbArc
 50
104.9999999999944
 51
167.3231615211084
  0
ARC
  5
26D5
330
2
100
AcDbEntity
  8
0
100
AcDbCircle
 10
131.3054978541702
 20
83.18468876335009
 30
0.0
 40
9.000000000010642
100
AcDbArc
 50
167.3231615211084
 51
192.6768384788647
  0
ARC
  5
26D6
330
2
100
AcDbEntity
  8
0
100
AcDbCircle
 10
124.0858851683394
 20
81.56074520927996
 30
0.0
 40
1.59999999999961
100
AcDbArc
 50
192.6768384788647
 51
255.0000000000055
  0
LINE
  5
26D7
330
2
100
AcDbEntity
  8
0
100
AcDbLine
 10
123.6717746961755
 20
80.01526388721776
 30
0.0
 11
124.9054978541582
 21
79.68468876335236
 31
0.0
  0
LINE
  5
26D8
330
2
100
AcDbEntity
  8
0
100
AcDbLine
 10
125.9054998541585
 20
86.98468876334983
 30
0.0
 11
124.9054978541582
 21
86.98468876334983
 31
0.0
  0
LINE
  5
26D9
330
2
100
AcDbEntity
  8
0
100
AcDbLine
 10
130.9054998541598
 20
78.84774651501084
 30
0.0
 11
131.40543748514
 21
78.33984935538592
 31
0.0
  0
LINE
  5
26DA
330
2
100
AcDbEntity
  8
0
100
AcDbLine
 10
125.9054998541589
 20
92.23474452300616
 30
0.0
 11
125.9054998541585
 21
80.018971247418
 31
0.0
  0
LINE
  5
26DB
330
2
100
AcDbEntity
  8
CENTER
100
AcDbLine
 10
120.3024075581272
 20
83.18468876335009
 30
0.0
 11
134.8216713487011
 21
83.18468876335009
 31
0.0
  0
LINE
  5
26DC
330
2
100
AcDbEntity
  8
0
100
AcDbLine
 10
130.9054998541598
 20
167.3853518288306
 30
0.0
 11
108.8967883186608
 21
167.1932847130156
 31
0.0
  0
LINE
  5
26DD
330
2
100
AcDbEntity
  8
0
100
AcDbLine
 10
108.9054767772238
 20
158.4209074513296
 30
0.0
 11
125.9048144698847
 21
158.5692584239036
 31
0.0
  0
LINE
  5
26DE
330
2
100
AcDbEntity
  8
0
100
AcDbLine
 10
107.9055148541594
 20
166.1933227899512
 30
0.0
 11
107.9055148541594
 21
159.4121809158309
 31
0.0
  0
ARC
  5
26DF
330
2
100
AcDbEntity
  8
0
100
AcDbCircle
 10
106.9055148541594
 20
165.3592643459073
 30
0.0
 40
1.0
100
AcDbArc
 50
270.4999999999915
 51
0.0
  0
ARC
  5
26E0
330
2
100
AcDbEntity
  8
0
100
AcDbCircle
 10
108.9055148541594
 20
166.1933227899512
 30
0.0
 40
1.0
100
AcDbArc
 50
90.49999999999155
 51
180.0
  0
LINE
  5
26E1
330
2
100
AcDbEntity
  8
0
100
AcDbLine
 10
85.92294760251139
 20
161.7726000457191
 30
0.0
 11
84.37059835745754
 21
161.718390815562
 31
0.0
  0
ARC
  5
26E2
330
2
100
AcDbEntity
  8
0
100
AcDbCircle
 10
84.4054978541601
 20
160.7189999885426
 30
0.0
 40
1.0
100
AcDbArc
 50
92.00000000000366
 51
180.0
  0
ARC
  5
26E3
330
2
100
AcDbEntity
  8
0
100
AcDbCircle
 10
85.9054978541601
 20
162.272295459229
 30
0.0
 40
0.5
100
AcDbArc
 50
272.0000000000036
 51
0.0
  0
LINE
  5
26E4
330
2
100
AcDbEntity
  8
0
100
AcDbLine
 10
86.40549785415965
 20
163.1803253294547
 30
0.0
 11
87.40545977722399
 21
164.1890518649529
 31
0.0
  0
LINE
  5
26E5
330
2
100
AcDbEntity
  8
0
100
AcDbLine
 10
87.40545977722399
 20
164.1890518649529
 30
0.0
 11
106.9142413896577
 21
164.3593024228434
 31
0.0
  0
LINE
  5
26E6
330
2
100
AcDbEntity
  8
0
100
AcDbLine
 10
140.4054998541598
 20
157.5939898315209
 30
0.0
 11
131.4054416270198
 21
157.4368932308088
 31
0.0
  0
LINE
  5
26E7
330
2
100
AcDbEntity
  8
0
100
AcDbLine
 10
131.405442181978
 20
168.034873095713
 30
0.0
 11
140.4054998541598
 21
168.1715817633503
 31
0.0
  0
ARC
  5
26E8
330
2
100
AcDbEntity
  8
0
100
AcDbCircle
 10
112.4103093257765
 20
169.3326767432454
 30
0.0
 40
3.752035730226079
100
AcDbArc
 50
60.71637525430852
 51
119.2836247456914
  0
LINE
  5
26E9
330
2
100
AcDbEntity
  8
0
100
AcDbLine
 10
110.5750641105535
 20
172.6052364632341
 30
0.0
 11
111.4054998541598
 21
173.0846887633501
 31
0.0
  0
LINE
  5
26EA
330
2
100
AcDbEntity
  8
0
100
AcDbLine
 10
109.9054998541598
 20
168.0846887633501
 30
0.0
 11
127.9054998541598
 21
168.0846887633501
 31
0.0
  0
LINE
  5
26EB
330
2
100
AcDbEntity
  8
0
100
AcDbLine
 10
109.9054998541598
 20
167.2020876052251
 30
0.0
 11
109.9054998541598
 21
168.0846887633501
 31
0.0
  0
LINE
  5
26EC
330
2
100
AcDbEntity
  8
0
100
AcDbLine
 10
110.5750641105535
 20
172.6052364632341
 30
0.0
 11
110.5750641105535
 21
168.0846887633501
 31
0.0
  0
LINE
  5
26ED
330
2
100
AcDbEntity
  8
0
100
AcDbLine
 10
126.9054998541589
 20
153.134633003694
 30
0.0
 11
130.9054998541598
 21
153.134633003694
 31
0.0
  0
LINE
  5
26EE
330
2
100
AcDbEntity
  8
0
100
AcDbLine
 10
127.2359355977666
 20
172.6052364632341
 30
0.0
 11
126.4054998541594
 21
173.0846887633501
 31
0.0
  0
LINE
  5
26EF
330
2
100
AcDbEntity
  8
0
100
AcDbLine
 10
125.9054998541589
 20
154.134633003694
 30
0.0
 11
125.9054998541585
 21
166.3504062792821
 31
0.0
  0
ARC
  5
26F0
330
2
100
AcDbEntity
  8
0
100
AcDbCircle
 10
126.9054998541585
 20
166.3504062792821
 30
0.0
 40
1.0
100
AcDbArc
 50
90.49999999999155
 51
180.0
  0
LINE
  5
26F1
330
2
100
AcDbEntity
  8
0
100
AcDbLine
 10
127.9054998541598
 20
167.3591712254587
 30
0.0
 11
127.9054998541598
 21
168.0846887633501
 31
0.0
  0
LINE
  5
26F2
330
2
100
AcDbEntity
  8
0
100
AcDbLine
 10
125.9054998541585
 20
166.9846887633498
 30
0.0
 11
124.9054978541582
 21
166.9846887633498
 31
0.0
  0
LINE
  5
26F3
330
2
100
AcDbEntity
  8
0
100
AcDbLine
 10
124.9054978541582
 20
159.3846887633499
 30
0.0
 11
124.9054978541582
 21
166.9846887633498
 31
0.0
  0
LINE
  5
26F4
330
2
100
AcDbEntity
  8
0
100
AcDbLine
 10
125.9054998541585
 20
159.3846887633499
 30
0.0
 11
125.9054998541585
 21
166.9846887633498
 31
0.0
  0
LINE
  5
26F5
330
2
100
AcDbEntity
  8
0
100
AcDbLine
 10
125.9054998541585
 20
159.3846887633499
 30
0.0
 11
124.9054978541582
 21
159.3846887633499
 31
0.0
  0
LINE
  5
26F6
330
2
100
AcDbEntity
  8
0
100
AcDbLine
 10
127.2359355977666
 20
172.6052364632341
 30
0.0
 11
127.2359355977666
 21
168.0846887633501
 31
0.0
  0
LINE
  5
26F7
330
2
100
AcDbEntity
  8
0
100
AcDbLine
 10
122.5759902846064
 20
172.6052364632341
 30
0.0
 11
123.5654451673196
 21
172.6052364632341
 31
0.0
  0
LINE
  5
26F8
330
2
100
AcDbEntity
  8
0
100
AcDbLine
 10
115.2350094237137
 20
172.6052364632341
 30
0.0
 11
114.245554541
 21
172.6052364632341
 31
0.0
  0
ARC
  5
26F9
330
2
100
AcDbEntity
  8
0
100
AcDbCircle
 10
118.9054998541598
 20
158.795076945063
 30
0.0
 40
14.28961181828743
100
AcDbArc
 50
75.11592111934987
 51
104.8840788806501
  0
ARC
  5
26FA
330
2
100
AcDbEntity
  8
0
100
AcDbCircle
 10
124.0858851683394
 20
164.8086323174202
 30
0.0
 40
1.59999999999961
100
AcDbArc
 50
104.9999999999944
 51
167.3231615211084
  0
ARC
  5
26FB
330
2
100
AcDbEntity
  8
0
100
AcDbCircle
 10
131.3054978541702
 20
163.1846887633501
 30
0.0
 40
9.000000000010642
100
AcDbArc
 50
167.3231615211084
 51
192.6768384788915
  0
ARC
  5
26FC
330
2
100
AcDbEntity
  8
0
100
AcDbCircle
 10
124.085885168344
 20
161.5607452092785
 30
0.0
 40
1.59999999999961
100
AcDbArc
 50
192.6768384788915
 51
255.0000000000055
  0
LINE
  5
26FD
330
2
100
AcDbEntity
  8
0
100
AcDbLine
 10
122.5759902846068
 20
172.6052364632341
 30
0.0
 11
122.5759902846068
 21
168.0846887633501
 31
0.0
  0
LINE
  5
26FE
330
2
100
AcDbEntity
  8
0
100
AcDbLine
 10
123.5654451673196
 20
172.6052364632341
 30
0.0
 11
123.5654451673196
 21
168.0846887633501
 31
0.0
  0
LINE
  5
26FF
330
2
100
AcDbEntity
  8
0
100
AcDbLine
 10
115.2350094237133
 20
172.6052364632341
 30
0.0
 11
115.2350094237133
 21
168.0846887633501
 31
0.0
  0
LINE
  5
2700
330
2
100
AcDbEntity
  8
0
100
AcDbLine
 10
114.2455545409996
 20
172.6052364632341
 30
0.0
 11
114.2455545409996
 21
168.0846887633501
 31
0.0
  0
ARC
  5
2701
330
2
100
AcDbEntity
  8
0
100
AcDbCircle
 10
125.4006903825432
 20
169.3326767432454
 30
0.0
 40
3.752035730226079
100
AcDbArc
 50
60.71637525430852
 51
119.2836247456914
  0
LINE
  5
2702
330
2
100
AcDbEntity
  8
0
100
AcDbLine
 10
126.4054998541594
 20
173.0846887633501
 30
0.0
 11
111.4054998541598
 21
173.0846887633501
 31
0.0
  0
LINE
  5
2703
330
2
100
AcDbEntity
  8
0
100
AcDbLine
 10
123.6717746961755
 20
166.3541136394824
 30
0.0
 11
124.9054978541582
 21
166.6846887633473
 31
0.0
  0
LINE
  5
2704
330
2
100
AcDbEntity
  8
0
100
AcDbLine
 10
124.9054978541582
 20
159.6846887633523
 30
0.0
 11
123.6717746961801
 21
160.0152638872164
 31
0.0
  0
LINE
  5
2705
330
2
100
AcDbEntity
  8
0
100
AcDbLine
 10
130.9054998541598
 20
167.5272790944281
 30
0.0
 11
131.405442181978
 21
168.034873095713
 31
0.0
  0
LINE
  5
2706
330
2
100
AcDbEntity
  8
CENTER
100
AcDbLine
 10
120.3024075581272
 20
163.1846887633501
 30
0.0
 11
134.8216713487011
 21
163.1846887633501
 31
0.0
  0
LINE
  5
2708
330
2
100
AcDbEntity
  8
0
100
AcDbLine
 10
216.7804998541598
 20
88.77538676335053
 30
0.0
 11
199.0929998541598
 21
88.77538676335053
 31
0.0
  0
ARC
  5
2709
330
2
100
AcDbEntity
  8
0
100
AcDbCircle
 10
197.4055308541599
 20
86.77538676335052
 30
0.0
 40
2.0
100
AcDbArc
 50
0.0
 51
90.0
  0
ARC
  5
270A
330
2
100
AcDbEntity
  8
0
100
AcDbCircle
 10
201.4055228541598
 20
77.18468876335055
 30
0.0
 40
2.0
100
AcDbArc
 50
90.0
 51
180.0
  0
LINE
  5
270B
330
2
100
AcDbEntity
  8
0
100
AcDbLine
 10
199.4054998541598
 20
86.77538676335052
 30
0.0
 11
199.4054998541598
 21
71.18468876335055
 31
0.0
  0
LINE
  5
270C
330
2
100
AcDbEntity
  8
0
100
AcDbLine
 10
237.4054998541598
 20
81.18468876335056
 30
0.0
 11
237.4054998541598
 21
96.18468876335056
 31
0.0
  0
ARC
  5
270D
330
2
100
AcDbEntity
  8
0
100
AcDbCircle
 10
239.4054998541598
 20
96.18468876335056
 30
0.0
 40
2.0
100
AcDbArc
 50
90.0
 51
180.0
  0
LINE
  5
270E
330
2
100
AcDbEntity
  8
HIDS
  6
SEKKEI_H
100
AcDbLine
 10
244.1554998541598
 20
79.18468876335055
 30
0.0
 11
244.1554998541598
 21
71.18468876335055
 31
0.0
  0
ARC
  5
270F
330
2
100
AcDbEntity
  8
0
100
AcDbCircle
 10
239.4054998541598
 20
81.18468876335056
 30
0.0
 40
2.0
100
AcDbArc
 50
180.0
 51
270.0
  0
LINE
  5
2710
330
2
100
AcDbEntity
  8
CENTER
100
AcDbLine
 10
247.4054998541598
 20
83.43472911126879
 30
0.0
 11
247.4054998541598
 21
66.30972911126878
 31
0.0
  0
LINE
  5
2711
330
2
100
AcDbEntity
  8
0
100
AcDbLine
 10
217.4054998541598
 20
81.18468876335056
 30
0.0
 11
217.4054998541598
 21
96.18468876335056
 31
0.0
  0
ARC
  5
2712
330
2
100
AcDbEntity
  8
0
100
AcDbCircle
 10
215.4054998541598
 20
96.18468876335056
 30
0.0
 40
2.0
100
AcDbArc
 50
0.0
 51
90.0
  0
LINE
  5
2713
330
2
100
AcDbEntity
  8
HIDS
  6
SEKKEI_H
100
AcDbLine
 10
204.1554998541598
 20
79.18468876335055
 30
0.0
 11
204.1554998541598
 21
71.18468876335055
 31
0.0
  0
LINE
  5
2714
330
2
100
AcDbEntity
  8
HIDS
  6
SEKKEI_H
100
AcDbLine
 10
210.6554998541598
 20
79.18468876335055
 30
0.0
 11
210.6554998541598
 21
71.18468876335055
 31
0.0
  0
LINE
  5
2715
330
2
100
AcDbEntity
  8
CENTER
100
AcDbLine
 10
207.4054998541598
 20
83.43472911126879
 30
0.0
 11
207.4054998541598
 21
66.30972911126878
 31
0.0
  0
ARC
  5
2716
330
2
100
AcDbEntity
  8
0
100
AcDbCircle
 10
215.4054998541598
 20
81.18468876335056
 30
0.0
 40
2.0
100
AcDbArc
 50
270.0
 51
0.0
  0
LINE
  5
2717
330
2
100
AcDbEntity
  8
0
100
AcDbLine
 10
236.7804998541598
 20
95.61728876335052
 30
0.0
 11
217.9054998541598
 21
95.61728876335052
 31
0.0
  0
LINE
  5
2718
330
2
100
AcDbEntity
  8
0
100
AcDbLine
 10
418.3872255502985
 20
168.084688763351
 30
0.0
 11
433.3872255502986
 21
168.084688763351
 31
0.0
  0
LINE
  5
2719
330
2
100
AcDbEntity
  8
0
100
AcDbLine
 10
418.3872255502985
 20
173.0846887633511
 30
0.0
 11
433.3872255502986
 21
173.0846887633511
 31
0.0
  0
LINE
  5
271A
330
2
100
AcDbEntity
  8
0
100
AcDbLine
 10
416.8872255502983
 20
168.084688763351
 30
0.0
 11
434.8872255502985
 21
168.084688763351
 31
0.0
  0
LINE
  5
271B
330
2
100
AcDbEntity
  8
0
100
AcDbLine
 10
409.8523135502984
 20
167.7127997633506
 30
0.0
 11
436.8872255502985
 21
168.1846887633505
 31
0.0
  0
ARC
  5
271C
330
2
100
AcDbEntity
  8
0
100
AcDbCircle
 10
436.8872255502985
 20
136.1846887633505
 30
0.0
 40
7.5
100
AcDbArc
 50
199.4712070000023
 51
160.5287929999976
  0
CIRCLE
  5
271E
330
2
100
AcDbEntity
  8
0
100
AcDbCircle
 10
436.8872255502985
 20
136.1846887633505
 30
0.0
 40
20.0
  0
LINE
  5
271F
330
2
100
AcDbEntity
  8
CENTER
100
AcDbLine
 10
411.8246335502986
 20
136.1846887633505
 30
0.0
 11
461.9498175502985
 21
136.1846887633505
 31
0.0
  0
LINE
  5
2720
330
2
100
AcDbEntity
  8
0
100
AcDbLine
 10
404.8872255502986
 20
72.18468876335055
 30
0.0
 11
436.8872255502985
 21
72.18468876335055
 31
0.0
  0
ARC
  5
2721
330
2
100
AcDbEntity
  8
0
100
AcDbCircle
 10
436.8872255502985
 20
123.1846887633505
 30
0.0
 40
42.5
100
AcDbArc
 50
90.0
 51
160.2501069999976
  0
ARC
  5
2722
330
2
100
AcDbEntity
  8
0
100
AcDbCircle
 10
436.8872255502985
 20
123.1846887633505
 30
0.0
 40
42.5
100
AcDbArc
 50
199.7498930000023
 51
270.0
  0
LINE
  5
2725
330
2
100
AcDbEntity
  8
CENTER
100
AcDbLine
 10
383.3872255502985
 20
123.1846887633505
 30
0.0
 11
490.3872255502985
 21
123.1846887633505
 31
0.0
  0
LINE
  5
2728
330
2
100
AcDbEntity
  8
0
100
AcDbLine
 10
259.4054998541598
 20
117.1846887633505
 30
0.0
 11
259.4054998541598
 21
155.1846887633505
 31
0.0
  0
LINE
  5
2729
330
2
100
AcDbEntity
  8
0
100
AcDbLine
 10
255.4054998541598
 20
168.1846887633505
 30
0.0
 11
255.4054998541598
 21
71.18468876335055
 31
0.0
  0
LINE
  5
272A
330
2
100
AcDbEntity
  8
0
100
AcDbLine
 10
258.4054998541598
 20
116.1846887633505
 30
0.0
 11
255.4054998541598
 21
116.1846887633505
 31
0.0
  0
ARC
  5
272B
330
2
100
AcDbEntity
  8
0
100
AcDbCircle
 10
258.4054998541598
 20
117.1846887633505
 30
0.0
 40
1.0
100
AcDbArc
 50
270.0
 51
0.0
  0
ARC
  5
272C
330
2
100
AcDbEntity
  8
0
100
AcDbCircle
 10
253.4054998541598
 20
77.18468876335055
 30
0.0
 40
2.0
100
AcDbArc
 50
0.0
 51
90.0
  0
LINE
  5
272D
330
2
100
AcDbEntity
  8
HIDS
  6
SEKKEI_H
100
AcDbLine
 10
250.6554998541598
 20
79.18468876335055
 30
0.0
 11
250.6554998541598
 21
71.18468876335055
 31
0.0
  0
LINE
  5
272E
330
2
100
AcDbEntity
  8
0
100
AcDbLine
 10
288.4054998541598
 20
143.6846887633505
 30
0.0
 11
288.4054998541598
 21
128.6846887633505
 31
0.0
  0
LINE
  5
272F
330
2
100
AcDbEntity
  8
0
100
AcDbLine
 10
258.4054998541598
 20
156.1846887633505
 30
0.0
 11
255.4054998541598
 21
156.1846887633505
 31
0.0
  0
ARC
  5
2730
330
2
100
AcDbEntity
  8
0
100
AcDbCircle
 10
258.4054998541598
 20
155.1846887633505
 30
0.0
 40
1.0
100
AcDbArc
 50
0.0
 51
90.0
  0
LINE
  5
2731
330
2
100
AcDbEntity
  8
0
100
AcDbLine
 10
259.4054998541598
 20
144.6846887633505
 30
0.0
 11
261.4054998541598
 21
144.6846887633505
 31
0.0
  0
ARC
  5
2732
330
2
100
AcDbEntity
  8
0
100
AcDbCircle
 10
266.9054998541598
 20
136.1846887633505
 30
0.0
 40
2.5
100
AcDbArc
 50
180.0
 51
270.0
  0
ARC
  5
2733
330
2
100
AcDbEntity
  8
0
100
AcDbCircle
 10
266.9054998541598
 20
136.1846887633505
 30
0.0
 40
2.5
100
AcDbArc
 50
90.0
 51
180.0
  0
LINE
  5
2734
330
2
100
AcDbEntity
  8
0
100
AcDbLine
 10
259.4054998541598
 20
127.6846887633505
 30
0.0
 11
261.4054998541598
 21
127.6846887633505
 31
0.0
  0
LINE
  5
2735
330
2
100
AcDbEntity
  8
0
100
AcDbLine
 10
261.4054998541598
 20
144.6846887633505
 30
0.0
 11
261.4054998541598
 21
127.6846887633505
 31
0.0
  0
LINE
  5
2736
330
2
100
AcDbEntity
  8
0
100
AcDbLine
 10
266.9054998541598
 20
133.6846887633505
 30
0.0
 11
288.4054998541598
 21
133.6846887633505
 31
0.0
  0
LINE
  5
2737
330
2
100
AcDbEntity
  8
0
100
AcDbLine
 10
266.9054998541598
 20
138.6846887633505
 30
0.0
 11
288.4054998541598
 21
138.6846887633505
 31
0.0
  0
LINE
  5
2738
330
2
100
AcDbEntity
  8
0
100
AcDbLine
 10
261.4054998541598
 20
128.6846887633505
 30
0.0
 11
288.4054998541598
 21
128.6846887633505
 31
0.0
  0
LINE
  5
2739
330
2
100
AcDbEntity
  8
0
100
AcDbLine
 10
261.4054998541598
 20
143.6846887633505
 30
0.0
 11
288.4054998541598
 21
143.6846887633505
 31
0.0
  0
LINE
  5
273A
330
2
100
AcDbEntity
  8
0
100
AcDbLine
 10
396.8872255502986
 20
137.5460887633505
 30
0.0
 11
396.8872255502986
 21
108.8235887633505
 31
0.0
  0
ARC
  5
273B
330
2
100
AcDbEntity
  8
0
100
AcDbCircle
 10
436.8872255502985
 20
123.1846887633505
 30
0.0
 40
45.0
100
AcDbArc
 50
130.1240999999998
 51
218.9423980000031
  0
LINE
  5
273C
330
2
100
AcDbEntity
  8
0
100
AcDbLine
 10
386.8872255502985
 20
79.18468876335055
 30
0.0
 11
398.8872255502986
 21
79.18468876335055
 31
0.0
  0
LINE
  5
273D
330
2
100
AcDbEntity
  8
0
100
AcDbLine
 10
385.4730255502986
 20
78.59888876335048
 30
0.0
 11
401.8368255502986
 21
94.96288876335052
 31
0.0
  0
LINE
  5
273E
330
2
100
AcDbEntity
  8
0
100
AcDbLine
 10
403.8872255502985
 20
71.18468876335055
 30
0.0
 11
384.8872255502985
 21
71.18468876335055
 31
0.0
  0
ARC
  5
273F
330
2
100
AcDbEntity
  8
0
100
AcDbCircle
 10
386.8872255502985
 20
77.18468876335055
 30
0.0
 40
2.0
100
AcDbArc
 50
90.0
 51
180.0
  0
LINE
  5
2740
330
2
100
AcDbEntity
  8
0
100
AcDbLine
 10
384.8872255502985
 20
77.18468876335055
 30
0.0
 11
384.8872255502985
 21
71.18468876335055
 31
0.0
  0
ARC
  5
2741
330
2
100
AcDbEntity
  8
0
100
AcDbCircle
 10
428.1372255502986
 20
103.6341827633505
 30
0.0
 40
3.5
100
AcDbArc
 50
135.546096999991
 51
220.529007000002
  0
LINE
  5
2742
330
2
100
AcDbEntity
  8
0
100
AcDbLine
 10
422.3370235502984
 20
100.1846887633505
 30
0.0
 11
432.1372255502986
 21
100.1846887633505
 31
0.0
  0
ARC
  5
2743
330
2
100
AcDbEntity
  8
0
100
AcDbCircle
 10
425.8568295502985
 20
101.6846887633505
 30
0.0
 40
0.5
100
AcDbArc
 50
220.5301969999924
 51
270.0
  0
ARC
  5
2744
330
2
100
AcDbEntity
  8
0
100
AcDbCircle
 10
426.3060175502984
 20
107.1846887633505
 30
0.0
 40
3.0
100
AcDbArc
 50
90.0
 51
112.3526989999962
  0
ARC
  5
2745
330
2
100
AcDbEntity
  8
0
100
AcDbCircle
 10
427.6372255502986
 20
103.9476907633506
 30
0.0
 40
6.5
100
AcDbArc
 50
112.3525010000007
 51
215.3744960000094
  0
LINE
  5
2746
330
2
100
AcDbEntity
  8
0
100
AcDbLine
 10
428.8872255502986
 20
105.1846887633505
 30
0.0
 11
428.8872255502986
 21
101.1846887633505
 31
0.0
  0
LINE
  5
2747
330
2
100
AcDbEntity
  8
0
100
AcDbLine
 10
432.1372255502986
 20
105.1846887633505
 30
0.0
 11
432.1372255502986
 21
100.1846887633505
 31
0.0
  0
LINE
  5
2748
330
2
100
AcDbEntity
  8
0
100
AcDbLine
 10
425.8568295502985
 20
101.1846887633505
 30
0.0
 11
428.8872255502986
 21
101.1846887633505
 31
0.0
  0
LINE
  5
2749
330
2
100
AcDbEntity
  8
0
100
AcDbLine
 10
432.1372255502986
 20
106.6846887633505
 30
0.0
 11
432.1372255502986
 21
110.1846887633505
 31
0.0
  0
LINE
  5
274A
330
2
100
AcDbEntity
  8
0
100
AcDbLine
 10
427.0664235502985
 20
106.6846887633505
 30
0.0
 11
432.1372255502986
 21
106.6846887633505
 31
0.0
  0
LINE
  5
274B
330
2
100
AcDbEntity
  8
0
100
AcDbLine
 10
428.8872255502986
 20
105.1846887633505
 30
0.0
 11
432.1372255502986
 21
105.1846887633505
 31
0.0
  0
ARC
  5
274C
330
2
100
AcDbEntity
  8
0
100
AcDbCircle
 10
427.0664235502985
 20
104.6846887633505
 30
0.0
 40
2.0
100
AcDbArc
 50
90.0
 51
135.5462039999972
  0
LINE
  5
274D
330
2
100
AcDbEntity
  8
0
100
AcDbLine
 10
426.3060175502984
 20
110.1846887633505
 30
0.0
 11
432.1372255502986
 21
110.1846887633505
 31
0.0
  0
LINE
  5
274E
330
2
100
AcDbEntity
  8
0
100
AcDbLine
 10
401.8872255502985
 20
82.18468876335055
 30
0.0
 11
401.8872255502985
 21
94.90038876335052
 31
0.0
  0
LINE
  5
274F
330
2
100
AcDbEntity
  8
0
100
AcDbLine
 10
403.8872255502985
 20
71.18468876335055
 30
0.0
 11
404.8872255502986
 21
72.18468876335055
 31
0.0
  0
LINE
  5
2750
330
2
100
AcDbEntity
  8
HIDS
  6
SEKKEI_H
100
AcDbLine
 10
395.1372255502985
 20
79.18468876335055
 30
0.0
 11
395.1372255502985
 21
71.18468876335055
 31
0.0
  0
LINE
  5
2751
330
2
100
AcDbEntity
  8
HIDS
  6
SEKKEI_H
100
AcDbLine
 10
388.6372255502985
 20
79.18468876335055
 30
0.0
 11
388.6372255502985
 21
71.18468876335055
 31
0.0
  0
LINE
  5
2752
330
2
100
AcDbEntity
  8
CENTER
100
AcDbLine
 10
391.8872255502985
 20
83.43472911126879
 30
0.0
 11
391.8872255502985
 21
66.30972911126878
 31
0.0
  0
ARC
  5
2753
330
2
100
AcDbEntity
  8
0
100
AcDbCircle
 10
398.8872255502986
 20
82.18468876335055
 30
0.0
 40
3.0
100
AcDbArc
 50
270.0
 51
0.0
  0
LINE
  5
2754
330
2
100
AcDbEntity
  8
0
100
AcDbLine
 10
418.9584875931846
 20
173.0846887633511
 30
0.0
 11
418.9584875931846
 21
168.084688763351
 31
0.0
  0
LINE
  5
2755
330
2
100
AcDbEntity
  8
0
100
AcDbLine
 10
418.3872255502988
 20
173.0846887633511
 30
0.0
 11
418.3872255502985
 21
168.084688763351
 31
0.0
  0
LINE
  5
2756
330
2
100
AcDbEntity
  8
0
100
AcDbLine
 10
425.1225606911255
 20
173.0846887633511
 30
0.0
 11
425.1225606911255
 21
168.084688763351
 31
0.0
  0
LINE
  5
2757
330
2
100
AcDbEntity
  8
0
100
AcDbLine
 10
426.6518904094714
 20
173.0846887633511
 30
0.0
 11
426.6518904094714
 21
168.084688763351
 31
0.0
  0
LINE
  5
2758
330
2
100
AcDbEntity
  8
0
100
AcDbLine
 10
432.8159635074127
 20
173.0846887633511
 30
0.0
 11
432.8159635074127
 21
168.084688763351
 31
0.0
  0
LINE
  5
2759
330
2
100
AcDbEntity
  8
0
100
AcDbLine
 10
416.8872255502983
 20
168.084688763351
 30
0.0
 11
416.8872255502982
 21
167.8354963408928
 31
0.0
  0
ARC
  5
275A
330
2
100
AcDbEntity
  8
0
100
AcDbCircle
 10
409.8872255502985
 20
165.7130887633505
 30
0.0
 40
2.0
100
AcDbArc
 50
90.99980900000012
 51
180.0
  0
LINE
  5
275B
330
2
100
AcDbEntity
  8
0
100
AcDbLine
 10
407.8872255502985
 20
165.7130887633505
 30
0.0
 11
407.8872255502985
 21
157.5939907633505
 31
0.0
  0
LINE
  5
275C
330
2
100
AcDbEntity
  8
0
100
AcDbLine
 10
427.3872255502985
 20
138.6846887633505
 30
0.0
 11
432.3872255502985
 21
138.6846887633505
 31
0.0
  0
LINE
  5
275D
330
2
100
AcDbEntity
  8
0
100
AcDbLine
 10
427.3872255502985
 20
133.6846887633505
 30
0.0
 11
432.3872255502985
 21
133.6846887633505
 31
0.0
  0
LINE
  5
275E
330
2
100
AcDbEntity
  8
0
100
AcDbLine
 10
432.3872255502985
 20
138.6846887633505
 30
0.0
 11
432.3872255502985
 21
133.6846887633505
 31
0.0
  0
LINE
  5
275F
330
2
100
AcDbEntity
  8
0
100
AcDbLine
 10
427.3872255502985
 20
133.6846887633505
 30
0.0
 11
427.3872255502985
 21
138.6846887633505
 31
0.0
  0
ARC
  5
2763
330
2
100
AcDbEntity
  8
0
100
AcDbCircle
 10
436.8872255502985
 20
123.1846887633505
 30
0.0
 40
45.0
100
AcDbArc
 50
321.0575900000002
 51
49.87591200000138
  0
LINE
  5
2764
330
2
100
AcDbEntity
  8
0
100
AcDbLine
 10
476.8872255502985
 20
137.5460887633505
 30
0.0
 11
476.8872255502985
 21
108.8235887633505
 31
0.0
  0
LINE
  5
2766
330
2
100
AcDbEntity
  8
0
100
AcDbLine
 10
486.8872255502985
 20
79.18468876335055
 30
0.0
 11
474.8872255502986
 21
79.18468876335055
 31
0.0
  0
LINE
  5
2767
330
2
100
AcDbEntity
  8
0
100
AcDbLine
 10
469.8872255502985
 20
71.18468876335055
 30
0.0
 11
488.8872255502985
 21
71.18468876335055
 31
0.0
  0
LINE
  5
2768
330
2
100
AcDbEntity
  8
0
100
AcDbLine
 10
488.3014405502986
 20
78.59888876335048
 30
0.0
 11
471.9546385502986
 21
94.94577776335052
 31
0.0
  0
ARC
  5
2769
330
2
100
AcDbEntity
  8
0
100
AcDbCircle
 10
436.8872255502985
 20
123.1846887633505
 30
0.0
 40
42.5
100
AcDbArc
 50
270.0
 51
340.2500920000033
  0
ARC
  5
276A
330
2
100
AcDbEntity
  8
0
100
AcDbCircle
 10
448.4370595502986
 20
106.0387227633505
 30
0.0
 40
4.5
100
AcDbArc
 50
311.8104210000039
 51
59.13299199999959
  0
LINE
  5
276B
330
2
100
AcDbEntity
  8
0
100
AcDbLine
 10
449.1372555502985
 20
100.1846887633505
 30
0.0
 11
452.9370595502986
 21
100.1846887633505
 31
0.0
  0
LINE
  5
276C
330
2
100
AcDbEntity
  8
0
100
AcDbLine
 10
452.9370595502986
 20
100.1846887633505
 30
0.0
 11
451.4370595502986
 21
102.6846887633505
 31
0.0
  0
ARC
  5
276D
330
2
100
AcDbEntity
  8
0
100
AcDbCircle
 10
448.3872555502986
 20
105.9346887633505
 30
0.0
 40
0.75
100
AcDbArc
 50
270.0
 51
90.0
  0
ARC
  5
276E
330
2
100
AcDbEntity
  8
0
100
AcDbCircle
 10
449.7196535502983
 20
108.1846887633505
 30
0.0
 40
2.0
100
AcDbArc
 50
59.13309899998935
 51
90.0
  0
LINE
  5
276F
330
2
100
AcDbEntity
  8
0
100
AcDbLine
 10
438.6372255502985
 20
106.6846887633505
 30
0.0
 11
438.6372255502985
 21
100.1846887633505
 31
0.0
  0
LINE
  5
2770
330
2
100
AcDbEntity
  8
0
100
AcDbLine
 10
440.3872255502985
 20
110.1846887633505
 30
0.0
 11
440.3872255502985
 21
106.6846887633505
 31
0.0
  0
LINE
  5
2771
330
2
100
AcDbEntity
  8
0
100
AcDbLine
 10
438.6372255502985
 20
106.6846887633505
 30
0.0
 11
440.3872255502985
 21
106.6846887633505
 31
0.0
  0
LINE
  5
2772
330
2
100
AcDbEntity
  8
0
100
AcDbLine
 10
444.8872555502986
 20
106.6846887633505
 30
0.0
 11
444.8872555502986
 21
100.1846887633505
 31
0.0
  0
LINE
  5
2773
330
2
100
AcDbEntity
  8
0
100
AcDbLine
 10
441.6372255502985
 20
110.1846887633505
 30
0.0
 11
441.6372255502985
 21
100.1846887633505
 31
0.0
  0
LINE
  5
2774
330
2
100
AcDbEntity
  8
0
100
AcDbLine
 10
441.6372255502985
 20
100.1846887633505
 30
0.0
 11
444.8872555502986
 21
100.1846887633505
 31
0.0
  0
LINE
  5
2775
330
2
100
AcDbEntity
  8
0
100
AcDbLine
 10
435.1372255502986
 20
106.6846887633505
 30
0.0
 11
435.1372255502986
 21
100.1846887633505
 31
0.0
  0
LINE
  5
2776
330
2
100
AcDbEntity
  8
0
100
AcDbLine
 10
433.3872255502986
 20
106.6846887633505
 30
0.0
 11
435.1372255502986
 21
106.6846887633505
 31
0.0
  0
LINE
  5
2777
330
2
100
AcDbEntity
  8
0
100
AcDbLine
 10
433.3872255502986
 20
110.1846887633505
 30
0.0
 11
433.3872255502986
 21
106.6846887633505
 31
0.0
  0
LINE
  5
2778
330
2
100
AcDbEntity
  8
0
100
AcDbLine
 10
435.1372255502986
 20
100.1846887633505
 30
0.0
 11
438.6372255502985
 21
100.1846887633505
 31
0.0
  0
LINE
  5
2779
330
2
100
AcDbEntity
  8
0
100
AcDbLine
 10
433.3872255502986
 20
110.1846887633505
 30
0.0
 11
440.3872255502985
 21
110.1846887633505
 31
0.0
  0
LINE
  5
277A
330
2
100
AcDbEntity
  8
0
100
AcDbLine
 10
446.1372555502986
 20
105.1846887633505
 30
0.0
 11
449.1372555502985
 21
100.1846887633505
 31
0.0
  0
LINE
  5
277B
330
2
100
AcDbEntity
  8
0
100
AcDbLine
 10
449.7196535502983
 20
110.1846887633505
 30
0.0
 11
441.6372255502985
 21
110.1846887633505
 31
0.0
  0
LINE
  5
277C
330
2
100
AcDbEntity
  8
0
100
AcDbLine
 10
444.8872555502986
 20
106.6846887633505
 30
0.0
 11
448.3872555502986
 21
106.6846887633505
 31
0.0
  0
LINE
  5
277D
330
2
100
AcDbEntity
  8
0
100
AcDbLine
 10
446.1372555502986
 20
105.1846887633505
 30
0.0
 11
448.3872555502986
 21
105.1846887633505
 31
0.0
  0
LINE
  5
277E
330
2
100
AcDbEntity
  8
0
100
AcDbLine
 10
471.8872255502986
 20
94.90038876335052
 30
0.0
 11
471.8872255502986
 21
82.18468876335055
 31
0.0
  0
LINE
  5
277F
330
2
100
AcDbEntity
  8
HIDS
  6
SEKKEI_H
100
AcDbLine
 10
478.6372255502985
 20
79.18468876335055
 30
0.0
 11
478.6372255502985
 21
71.18468876335055
 31
0.0
  0
LINE
  5
2780
330
2
100
AcDbEntity
  8
0
100
AcDbLine
 10
469.8872255502985
 20
71.18468876335055
 30
0.0
 11
468.8872255502985
 21
72.18468876335055
 31
0.0
  0
ARC
  5
2781
330
2
100
AcDbEntity
  8
0
100
AcDbCircle
 10
474.8872255502986
 20
82.18468876335055
 30
0.0
 40
3.0
100
AcDbArc
 50
180.0
 51
270.0
  0
LINE
  5
2782
330
2
100
AcDbEntity
  8
0
100
AcDbLine
 10
468.8872255502985
 20
72.18468876335055
 30
0.0
 11
436.8872255502985
 21
72.18468876335055
 31
0.0
  0
ARC
  5
2783
330
2
100
AcDbEntity
  8
0
100
AcDbCircle
 10
486.8872255502985
 20
77.18468876335055
 30
0.0
 40
2.0
100
AcDbArc
 50
0.0
 51
90.0
  0
LINE
  5
2784
330
2
100
AcDbEntity
  8
HIDS
  6
SEKKEI_H
100
AcDbLine
 10
485.1372255502986
 20
79.18468876335055
 30
0.0
 11
485.1372255502986
 21
71.18468876335055
 31
0.0
  0
LINE
  5
2785
330
2
100
AcDbEntity
  8
0
100
AcDbLine
 10
488.8872255502985
 20
77.18468876335055
 30
0.0
 11
488.8872255502985
 21
71.18468876335055
 31
0.0
  0
LINE
  5
2786
330
2
100
AcDbEntity
  8
CENTER
100
AcDbLine
 10
481.8872255502985
 20
83.43472911126879
 30
0.0
 11
481.8872255502985
 21
66.30972911126878
 31
0.0
  0
ARC
  5
2787
330
2
100
AcDbEntity
  8
0
100
AcDbCircle
 10
436.8872255502985
 20
123.1846887633505
 30
0.0
 40
42.5
100
AcDbArc
 50
19.74990100000077
 51
90.0
  0
LINE
  5
2788
330
2
100
AcDbEntity
  8
0
100
AcDbLine
 10
433.387225550298
 20
173.0846887633511
 30
0.0
 11
433.3872255502986
 21
168.084688763351
 31
0.0
  0
LINE
  5
2789
330
2
100
AcDbEntity
  8
0
100
AcDbLine
 10
438.8872255502983
 20
168.084688763351
 30
0.0
 11
456.8872255502985
 21
168.084688763351
 31
0.0
  0
LINE
  5
278A
330
2
100
AcDbEntity
  8
0
100
AcDbLine
 10
440.3872255502985
 20
173.0846887633511
 30
0.0
 11
455.3872255502986
 21
173.0846887633511
 31
0.0
  0
LINE
  5
278B
330
2
100
AcDbEntity
  8
0
100
AcDbLine
 10
455.3872255502981
 20
173.0846887633511
 30
0.0
 11
455.3872255502986
 21
168.084688763351
 31
0.0
  0
LINE
  5
278C
330
2
100
AcDbEntity
  8
0
100
AcDbLine
 10
454.8159635074127
 20
173.0846887633511
 30
0.0
 11
454.8159635074127
 21
168.084688763351
 31
0.0
  0
LINE
  5
278D
330
2
100
AcDbEntity
  8
0
100
AcDbLine
 10
448.6518904094714
 20
173.0846887633511
 30
0.0
 11
448.6518904094714
 21
168.084688763351
 31
0.0
  0
LINE
  5
278E
330
2
100
AcDbEntity
  8
0
100
AcDbLine
 10
440.3872255502985
 20
168.084688763351
 30
0.0
 11
455.3872255502986
 21
168.084688763351
 31
0.0
  0
LINE
  5
278F
330
2
100
AcDbEntity
  8
0
100
AcDbLine
 10
447.1225606911255
 20
173.0846887633511
 30
0.0
 11
447.1225606911255
 21
168.084688763351
 31
0.0
  0
LINE
  5
2790
330
2
100
AcDbEntity
  8
0
100
AcDbLine
 10
440.3872255502988
 20
173.0846887633511
 30
0.0
 11
440.3872255502985
 21
168.084688763351
 31
0.0
  0
LINE
  5
2791
330
2
100
AcDbEntity
  8
0
100
AcDbLine
 10
440.9584875931845
 20
173.0846887633511
 30
0.0
 11
440.9584875931845
 21
168.084688763351
 31
0.0
  0
LINE
  5
2792
330
2
100
AcDbEntity
  8
0
100
AcDbLine
 10
456.8872255502985
 20
168.084688763351
 30
0.0
 11
456.8872255502985
 21
167.8355941935124
 31
0.0
  0
ARC
  5
2793
330
2
100
AcDbEntity
  8
0
100
AcDbCircle
 10
463.8872255502985
 20
165.7130887633505
 30
0.0
 40
2.0
100
AcDbArc
 50
0.0
 51
89.00019099999987
  0
LINE
  5
2794
330
2
100
AcDbEntity
  8
0
100
AcDbLine
 10
465.8872255502985
 20
165.7130887633505
 30
0.0
 11
465.8872255502985
 21
157.5939907633505
 31
0.0
  0
LINE
  5
2795
330
2
100
AcDbEntity
  8
0
100
AcDbLine
 10
463.9221375502986
 20
167.7127997633506
 30
0.0
 11
436.8872255502985
 21
168.1846887633505
 31
0.0
  0
ARC
  5
2796
330
2
100
AcDbEntity
  8
0
100
AcDbCircle
 10
247.4054998541599
 20
386.9821271906012
 30
0.0
 40
3.25
100
AcDbArc
 50
0.0
 51
180.0
  0
ARC
  5
2797
330
2
100
AcDbEntity
  8
HIDS
100
AcDbCircle
 10
247.4054998541599
 20
386.9821271906012
 30
0.0
 40
3.25
100
AcDbArc
 50
180.0
 51
0.0
  0
LINE
  5
2798
330
2
100
AcDbEntity
  8
CENTER
100
AcDbLine
 10
241.6244018541599
 20
386.9821271906012
 30
0.0
 11
253.7729918541599
 21
386.9821271906012
 31
0.0
  0
LINE
  5
2799
330
2
100
AcDbEntity
  8
0
100
AcDbLine
 10
202.4054998541599
 20
393.9821271906012
 30
0.0
 11
252.4054998541599
 21
393.9821271906012
 31
0.0
  0
LINE
  5
279A
330
2
100
AcDbEntity
  8
0
100
AcDbLine
 10
140.4054998541599
 20
386.9821271906012
 30
0.0
 11
255.4054998541598
 21
386.9821271906012
 31
0.0
  0
LINE
  5
279B
330
2
100
AcDbEntity
  8
0
100
AcDbLine
 10
140.4054998541599
 20
370.9821271906012
 30
0.0
 11
255.4054998541598
 21
370.9821271906012
 31
0.0
  0
ARC
  5
279C
330
2
100
AcDbEntity
  8
HIDS
100
AcDbCircle
 10
247.4054998541599
 20
296.9821271906011
 30
0.0
 40
3.25
100
AcDbArc
 50
0.0
 51
180.0
  0
LINE
  5
279D
330
2
100
AcDbEntity
  8
CENTER
100
AcDbLine
 10
241.6244018541599
 20
296.9821271906011
 30
0.0
 11
253.7729918541599
 21
296.9821271906011
 31
0.0
  0
ARC
  5
279E
330
2
100
AcDbEntity
  8
0
100
AcDbCircle
 10
247.4054998541599
 20
296.9821271906011
 30
0.0
 40
3.25
100
AcDbArc
 50
180.0
 51
0.0
  0
LINE
  5
279F
330
2
100
AcDbEntity
  8
0
100
AcDbLine
 10
202.4054998541599
 20
289.9821271906012
 30
0.0
 11
252.4054998541599
 21
289.9821271906012
 31
0.0
  0
LINE
  5
27A0
330
2
100
AcDbEntity
  8
0
100
AcDbLine
 10
140.4054998541599
 20
312.9821271906012
 30
0.0
 11
255.4054998541598
 21
312.9821271906012
 31
0.0
  0
LINE
  5
27A1
330
2
100
AcDbEntity
  8
0
100
AcDbLine
 10
140.4054998541601
 20
296.9821271906011
 30
0.0
 11
255.4054998541598
 21
296.9821271906011
 31
0.0
  0
LINE
  5
27A2
330
2
100
AcDbEntity
  8
CENTER
100
AcDbLine
 10
73.40549785416022
 20
341.9821271906014
 30
0.0
 11
294.8831137550815
 21
341.9821271906012
 31
0.0
  0
LINE
  5
27A3
330
2
100
AcDbEntity
  8
CENTER
100
AcDbLine
 10
247.4054998541599
 20
286.381816190601
 30
0.0
 11
247.4054998541599
 21
304.418376190601
 31
0.0
  0
LINE
  5
27A4
330
2
100
AcDbEntity
  8
CENTER
100
AcDbLine
 10
207.4054998541599
 20
286.829005190601
 30
0.0
 11
207.4054998541599
 21
303.076823190601
 31
0.0
  0
LINE
  5
27A5
330
2
100
AcDbEntity
  8
0
100
AcDbLine
 10
199.4054998541599
 20
292.9821271906011
 30
0.0
 11
199.4054998541599
 21
296.9821271906011
 31
0.0
  0
LINE
  5
27A8
330
2
100
AcDbEntity
  8
0
100
AcDbLine
 10
126.9054838541599
 20
202.1037614506972
 30
0.0
 11
160.5161984146027
 21
202.1037614506972
 31
0.0
  0
LINE
  5
27A9
330
2
100
AcDbEntity
  8
0
100
AcDbLine
 10
126.90550585416
 20
208.1037614506972
 30
0.0
 11
160.5161984146027
 21
208.1037614506972
 31
0.0
  0
LINE
  5
27AA
330
2
100
AcDbEntity
  8
0
100
AcDbLine
 10
126.9054838541599
 20
225.7144271976362
 30
0.0
 11
160.5162210907858
 21
225.7144271976362
 31
0.0
  0
LINE
  5
27AB
330
2
100
AcDbEntity
  8
0
100
AcDbLine
 10
126.9054831779769
 20
231.7143661976365
 30
0.0
 11
160.5161984146027
 21
231.7143661976365
 31
0.0
  0
LINE
  5
27AD
330
2
100
AcDbEntity
  8
0
100
AcDbLine
 10
127.2359355977666
 20
178.18468876335
 30
0.0
 11
110.5750641105535
 21
178.18468876335
 31
0.0
  0
LINE
  5
27AE
330
2
100
AcDbEntity
  8
0
100
AcDbLine
 10
110.575064110553
 20
186.7052364632341
 30
0.0
 11
110.5750641105535
 21
178.18468876335
 31
0.0
  0
LINE
  5
27AF
330
2
100
AcDbEntity
  8
0
100
AcDbLine
 10
127.2359355977666
 20
186.7052364632341
 30
0.0
 11
127.2359355977666
 21
178.18468876335
 31
0.0
  0
LINE
  5
27B0
330
2
100
AcDbEntity
  8
0
100
AcDbLine
 10
123.5654451673201
 20
186.7052364632341
 30
0.0
 11
123.5654451673201
 21
178.18468876335
 31
0.0
  0
LINE
  5
27B1
330
2
100
AcDbEntity
  8
0
100
AcDbLine
 10
122.5759902846068
 20
186.7052364632341
 30
0.0
 11
122.5759902846068
 21
178.18468876335
 31
0.0
  0
LINE
  5
27B2
330
2
100
AcDbEntity
  8
0
100
AcDbLine
 10
115.2350094237133
 20
186.7052364632341
 30
0.0
 11
115.2350094237133
 21
178.18468876335
 31
0.0
  0
LINE
  5
27B3
330
2
100
AcDbEntity
  8
0
100
AcDbLine
 10
114.245554541
 20
186.7052364632341
 30
0.0
 11
114.245554541
 21
178.18468876335
 31
0.0
  0
ARC
  5
27B4
330
2
100
AcDbEntity
  8
0
100
AcDbCircle
 10
112.410309325777
 20
183.4326767432453
 30
0.0
 40
3.752035730226079
100
AcDbArc
 50
60.71637525430852
 51
119.2836247456914
  0
LINE
  5
27B5
330
2
100
AcDbEntity
  8
0
100
AcDbLine
 10
110.5750641105535
 20
186.7052364632341
 30
0.0
 11
111.4054998541603
 21
187.18468876335
 31
0.0
  0
LINE
  5
27B6
330
2
100
AcDbEntity
  8
0
100
AcDbLine
 10
127.2359355977666
 20
186.7052364632341
 30
0.0
 11
126.4054998541598
 21
187.18468876335
 31
0.0
  0
LINE
  5
27B7
330
2
100
AcDbEntity
  8
0
100
AcDbLine
 10
126.4054998541598
 20
189.6846887633505
 30
0.0
 11
126.4054998541598
 21
187.18468876335
 31
0.0
  0
LINE
  5
27B8
330
2
100
AcDbEntity
  8
0
100
AcDbLine
 10
111.4054998541598
 20
189.68468876335
 30
0.0
 11
111.4054998541598
 21
187.18468876335
 31
0.0
  0
LINE
  5
27B9
330
2
100
AcDbEntity
  8
0
100
AcDbLine
 10
122.5759902846064
 20
186.7052364632341
 30
0.0
 11
123.5654451673201
 21
186.7052364632341
 31
0.0
  0
LINE
  5
27BA
330
2
100
AcDbEntity
  8
0
100
AcDbLine
 10
115.2350094237137
 20
186.7052364632341
 30
0.0
 11
114.245554541
 21
186.7052364632341
 31
0.0
  0
ARC
  5
27BB
330
2
100
AcDbEntity
  8
0
100
AcDbCircle
 10
118.9054998541598
 20
172.8950769450625
 30
0.0
 40
14.28961181828743
100
AcDbArc
 50
75.11592111934987
 51
104.8840788806501
  0
LINE
  5
27BC
330
2
100
AcDbEntity
  8
0
100
AcDbLine
 10
126.4054998541598
 20
187.18468876335
 30
0.0
 11
111.4054998541603
 21
187.18468876335
 31
0.0
  0
ARC
  5
27BD
330
2
100
AcDbEntity
  8
0
100
AcDbCircle
 10
125.4006903825432
 20
183.4326767432453
 30
0.0
 40
3.752035730226079
100
AcDbArc
 50
60.71637525430852
 51
119.2836247456914
  0
ARC
  5
27BE
330
2
100
AcDbEntity
  8
0
100
AcDbCircle
 10
126.9055438541602
 20
197.1038224506974
 30
0.0
 40
11.0
100
AcDbArc
 50
90.0
 51
117.0361362174833
  0
ARC
  5
27BF
330
2
100
AcDbEntity
  8
0
100
AcDbCircle
 10
126.90550585416
 20
220.7144271976362
 30
0.0
 40
5.0
100
AcDbArc
 50
90.0
 51
180.0
  0
ARC
  5
27C0
330
2
100
AcDbEntity
  8
0
100
AcDbCircle
 10
126.9055211779766
 20
220.7144271976362
 30
0.0
 40
11.0
100
AcDbArc
 50
90.0
 51
179.9998314869998
  0
ARC
  5
27C1
330
2
100
AcDbEntity
  8
0
100
AcDbCircle
 10
124.4054998541598
 20
189.6846887633505
 30
0.0
 40
2.0
100
AcDbArc
 50
0.0
 51
90.0
  0
ARC
  5
27C2
330
2
100
AcDbEntity
  8
0
100
AcDbCircle
 10
113.4054998541598
 20
189.68468876335
 30
0.0
 40
2.0
100
AcDbArc
 50
90.0
 51
180.0
  0
ARC
  5
27C3
330
2
100
AcDbEntity
  8
0
100
AcDbCircle
 10
126.90550585416
 20
197.1037614506972
 30
0.0
 40
5.0
100
AcDbArc
 50
90.0
 51
180.0
  0
LINE
  5
27C4
330
2
100
AcDbEntity
  8
0
100
AcDbLine
 10
124.4054998541598
 20
191.6846887633505
 30
0.0
 11
113.4054998541598
 21
191.68468876335
 31
0.0
  0
LINE
  5
27C5
330
2
100
AcDbEntity
  8
0
100
AcDbLine
 10
115.9055211780243
 20
220.7144595498098
 30
0.0
 11
115.9055416902913
 21
191.68468876335
 31
0.0
  0
LINE
  5
27C6
330
2
100
AcDbEntity
  8
0
100
AcDbLine
 10
121.9054678541599
 20
191.6846887633505
 30
0.0
 11
121.9054678541599
 21
220.714405197636
 31
0.0
  0
LINE
  5
27C7
330
2
100
AcDbEntity
  8
0
100
AcDbLine
 10
186.4851390104579
 20
235.5975802961233
 30
0.0
 11
186.4851390104579
 21
230.1975802961228
 31
0.0
  0
LINE
  5
27C8
330
2
100
AcDbEntity
  8
0
100
AcDbLine
 10
175.7851390104581
 20
235.5975802961233
 30
0.0
 11
175.7851390104581
 21
221.7975802961232
 31
0.0
  0
LINE
  5
27C9
330
2
100
AcDbEntity
  8
0
100
AcDbLine
 10
187.6918915151047
 20
215.7631175903675
 30
0.0
 11
191.4322917546935
 21
214.0312184311464
 31
0.0
  0
LINE
  5
27CA
330
2
100
AcDbEntity
  8
0
100
AcDbLine
 10
186.715339461067
 20
215.6642883626677
 30
0.0
 11
186.7204047100774
 21
215.3864443598654
 31
0.0
  0
ARC
  5
27CB
330
2
100
AcDbEntity
  8
0
100
AcDbCircle
 10
191.3902747552885
 20
213.9404738899279
 30
0.0
 40
0.1
100
AcDbArc
 50
273.9999999999834
 51
65.15467961211069
  0
LINE
  5
27CC
330
2
100
AcDbEntity
  8
0
100
AcDbLine
 10
197.5943123300073
 20
206.568951612362
 30
0.0
 11
199.4851390104584
 21
206.568951612362
 31
0.0
  0
LINE
  5
27CD
330
2
100
AcDbEntity
  8
0
100
AcDbLine
 10
187.0968942436645
 20
215.7631175903675
 30
0.0
 11
186.715339461067
 21
215.6642883626677
 31
0.0
  0
LINE
  5
27CE
330
2
100
AcDbEntity
  8
0
100
AcDbLine
 10
187.0968942436645
 20
215.7631175903675
 30
0.0
 11
187.6918915151047
 21
215.7631175903675
 31
0.0
  0
LINE
  5
27CF
330
2
100
AcDbEntity
  8
0
100
AcDbLine
 10
186.4851390104579
 20
227.1975802961228
 30
0.0
 11
186.4851390104579
 21
221.7975802961232
 31
0.0
  0
LINE
  5
27D0
330
2
100
AcDbEntity
  8
0
100
AcDbLine
 10
192.7851390104581
 20
230.1975802961228
 30
0.0
 11
192.7851390104581
 21
227.1975802961228
 31
0.0
  0
LINE
  5
27D1
330
2
100
AcDbEntity
  8
0
100
AcDbLine
 10
192.2160950727891
 20
230.1975802961228
 30
0.0
 11
192.2160950727891
 21
227.1975802961228
 31
0.0
  0
LINE
  5
27D2
330
2
100
AcDbEntity
  8
0
100
AcDbLine
 10
195.3851390104584
 20
227.0975802961233
 30
0.0
 11
186.4851390104579
 21
227.0975802961233
 31
0.0
  0
LINE
  5
27D3
330
2
100
AcDbEntity
  8
0
100
AcDbLine
 10
195.3851390104584
 20
226.0975802961234
 30
0.0
 11
186.4851390104579
 21
226.0975802961234
 31
0.0
  0
LINE
  5
27D4
330
2
100
AcDbEntity
  8
0
100
AcDbLine
 10
195.3851390104584
 20
222.8975802961235
 30
0.0
 11
186.4851390104579
 21
222.8975802961235
 31
0.0
  0
LINE
  5
27D5
330
2
100
AcDbEntity
  8
0
100
AcDbLine
 10
195.3851390104584
 20
234.497580296123
 30
0.0
 11
186.4851390104579
 21
234.497580296123
 31
0.0
  0
LINE
  5
27D6
330
2
100
AcDbEntity
  8
0
100
AcDbLine
 10
195.3851390104584
 20
231.2975802961232
 30
0.0
 11
186.4851390104579
 21
231.2975802961232
 31
0.0
  0
LINE
  5
27D7
330
2
100
AcDbEntity
  8
0
100
AcDbLine
 10
195.3851390104584
 20
230.2975802961232
 30
0.0
 11
186.4851390104579
 21
230.2975802961232
 31
0.0
  0
LINE
  5
27D8
330
2
100
AcDbEntity
  8
0
100
AcDbLine
 10
195.3851390104584
 20
230.2975802961232
 30
0.0
 11
195.3851390104584
 21
227.0975802961233
 31
0.0
  0
LINE
  5
27D9
330
2
100
AcDbEntity
  8
0
100
AcDbLine
 10
195.3851390104584
 20
226.0975802961234
 30
0.0
 11
195.3851390104584
 21
222.8975802961235
 31
0.0
  0
LINE
  5
27DA
330
2
100
AcDbEntity
  8
0
100
AcDbLine
 10
195.3851390104584
 20
234.497580296123
 30
0.0
 11
195.3851390104584
 21
231.2975802961232
 31
0.0
  0
LINE
  5
27DB
330
2
100
AcDbEntity
  8
0
100
AcDbLine
 10
187.6918915151047
 20
194.3397908208703
 30
0.0
 11
191.4322917546935
 21
196.0716899800913
 31
0.0
  0
LINE
  5
27DC
330
2
100
AcDbEntity
  8
0
100
AcDbLine
 10
186.715339461067
 20
194.4386200485701
 30
0.0
 11
186.7204047100774
 21
194.7164640513724
 31
0.0
  0
LINE
  5
27DD
330
2
100
AcDbEntity
  8
0
100
AcDbLine
 10
187.0968942436645
 20
194.3397908208703
 30
0.0
 11
186.715339461067
 21
194.4386200485701
 31
0.0
  0
LINE
  5
27DE
330
2
100
AcDbEntity
  8
0
100
AcDbLine
 10
187.0968942436645
 20
194.3397908208703
 30
0.0
 11
187.6918915151047
 21
194.3397908208703
 31
0.0
  0
ARC
  5
27DF
330
2
100
AcDbEntity
  8
0
100
AcDbCircle
 10
191.3902747552885
 20
196.1624345213099
 30
0.0
 40
0.1
100
AcDbArc
 50
294.8453203878893
 51
85.99999999999049
  0
LINE
  5
27E0
330
2
100
AcDbEntity
  8
0
100
AcDbLine
 10
197.5943123300073
 20
203.5339567988758
 30
0.0
 11
199.4851390104579
 21
203.5339567988758
 31
0.0
  0
LINE
  5
27E1
330
2
100
AcDbEntity
  8
0
100
AcDbLine
 10
197.5943123300073
 20
203.5339567988758
 30
0.0
 11
197.5943123300073
 21
206.568951612362
 31
0.0
  0
LINE
  5
27E2
330
2
100
AcDbEntity
  8
0
100
AcDbLine
 10
198.1549566206715
 20
203.5450750611803
 30
0.0
 11
198.1549566206715
 21
206.5578333500575
 31
0.0
  0
LINE
  5
27E3
330
2
100
AcDbEntity
  8
0
100
AcDbLine
 10
199.4851390104579
 20
198.1514542056188
 30
0.0
 11
199.4851390104579
 21
211.951454205619
 31
0.0
  0
LINE
  5
27E4
330
2
100
AcDbEntity
  8
0
100
AcDbLine
 10
185.9674256429032
 20
214.6330978988612
 30
0.0
 11
185.8115800274138
 21
214.4771762431205
 31
0.0
  0
LINE
  5
27E5
330
2
100
AcDbEntity
  8
0
100
AcDbLine
 10
185.9623603938923
 20
214.9109419016635
 30
0.0
 11
185.9674256429032
 21
214.6330978988612
 31
0.0
  0
ARC
  5
27E6
330
2
100
AcDbEntity
  8
0
100
AcDbCircle
 10
185.7408521050158
 20
214.5478696727536
 30
0.0
 40
0.1
100
AcDbArc
 50
273.9999999999834
 51
315.0139744796679
  0
LINE
  5
27E7
330
2
100
AcDbEntity
  8
0
100
AcDbLine
 10
184.5851390104582
 20
210.951454205619
 30
0.0
 11
184.5851390104582
 21
211.951454205619
 31
0.0
  0
LINE
  5
27E8
330
2
100
AcDbEntity
  8
0
100
AcDbLine
 10
184.969968335188
 20
231.3975802961235
 30
0.0
 11
184.969968335188
 21
230.1975802961228
 31
0.0
  0
LINE
  5
27E9
330
2
100
AcDbEntity
  8
0
100
AcDbLine
 10
184.969968335188
 20
231.3975802961235
 30
0.0
 11
184.969968335188
 21
230.1975802961228
 31
0.0
  0
LINE
  5
27EA
330
2
100
AcDbEntity
  8
0
100
AcDbLine
 10
184.969968335188
 20
227.1975802961228
 30
0.0
 11
184.969968335188
 21
225.997580296123
 31
0.0
  0
LINE
  5
27EB
330
2
100
AcDbEntity
  8
0
100
AcDbLine
 10
184.969968335188
 20
227.1975802961228
 30
0.0
 11
184.969968335188
 21
225.997580296123
 31
0.0
  0
LINE
  5
27EC
330
2
100
AcDbEntity
  8
0
100
AcDbLine
 10
160.5161984146027
 20
209.1037614506972
 30
0.0
 11
170.5771642301058
 21
209.1037614506976
 31
0.0
  0
LINE
  5
27ED
330
2
100
AcDbEntity
  8
0
100
AcDbLine
 10
160.5161984146027
 20
232.6975802961228
 30
0.0
 11
170.5771642301058
 21
232.6975802961233
 31
0.0
  0
LINE
  5
27EE
330
2
100
AcDbEntity
  8
0
100
AcDbLine
 10
170.5771642301058
 20
224.6975802961233
 30
0.0
 11
160.5161984146027
 21
224.6975802961228
 31
0.0
  0
LINE
  5
27EF
330
2
100
AcDbEntity
  8
0
100
AcDbLine
 10
160.5161984146027
 20
232.6975802961228
 30
0.0
 11
160.5161984146027
 21
224.6975802961228
 31
0.0
  0
LINE
  5
27F0
330
2
100
AcDbEntity
  8
0
100
AcDbLine
 10
177.0351390104581
 20
212.3514542056186
 30
0.0
 11
177.0351390104581
 21
212.3701632793986
 31
0.0
  0
ARC
  5
27F1
330
2
100
AcDbEntity
  8
0
100
AcDbCircle
 10
177.4351390104582
 20
212.3514542056186
 30
0.0
 40
0.4
100
AcDbArc
 50
180.0
 51
270.0
  0
ARC
  5
27F2
330
2
100
AcDbEntity
  8
0
100
AcDbCircle
 10
177.5351390104581
 20
212.3701632793986
 30
0.0
 40
0.5
100
AcDbArc
 50
94.00000000000952
 51
180.0
  0
ARC
  5
27F3
330
2
100
AcDbEntity
  8
0
100
AcDbCircle
 10
176.2851390104581
 20
213.2851966625498
 30
0.0
 40
0.5
100
AcDbArc
 50
94.00000000000952
 51
180.0
  0
LINE
  5
27F4
330
2
100
AcDbEntity
  8
0
100
AcDbLine
 10
175.7851390104581
 20
206.7869060908087
 30
0.0
 11
173.0139390698398
 21
206.5688079255301
 31
0.0
  0
LINE
  5
27F5
330
2
100
AcDbEntity
  8
0
100
AcDbLine
 10
173.0139390698402
 20
205.8537614506976
 30
0.0
 11
175.7851390104581
 21
205.8537614506976
 31
0.0
  0
LINE
  5
27F6
330
2
100
AcDbEntity
  8
0
100
AcDbLine
 10
173.0139390698398
 20
208.0734462232539
 30
0.0
 11
175.7851390104581
 21
208.2915443885326
 31
0.0
  0
LINE
  5
27F7
330
2
100
AcDbEntity
  8
0
100
AcDbLine
 10
170.5771642301058
 20
209.1037614506976
 30
0.0
 11
171.5174103898746
 21
208.1373332537241
 31
0.0
  0
LINE
  5
27F8
330
2
100
AcDbEntity
  8
0
100
AcDbLine
 10
171.5174103898746
 20
208.1373332537241
 30
0.0
 11
173.0139390698402
 21
208.1373332537241
 31
0.0
  0
LINE
  5
27F9
330
2
100
AcDbEntity
  8
0
100
AcDbLine
 10
176.7851390104581
 20
206.9816229819902
 30
0.0
 11
176.7851390104581
 21
210.951454205619
 31
0.0
  0
LINE
  5
27FA
330
2
100
AcDbEntity
  8
0
100
AcDbLine
 10
170.5771642301058
 20
232.6975802961233
 30
0.0
 11
171.5174103898746
 21
231.7311520991497
 31
0.0
  0
LINE
  5
27FB
330
2
100
AcDbEntity
  8
0
100
AcDbLine
 10
171.5174103898746
 20
231.7311520991497
 30
0.0
 11
173.0139390698402
 21
231.7311520991497
 31
0.0
  0
LINE
  5
27FC
330
2
100
AcDbEntity
  8
0
100
AcDbLine
 10
170.5771642301058
 20
224.6975802961233
 30
0.0
 11
171.5174103898746
 21
225.6640084930964
 31
0.0
  0
LINE
  5
27FD
330
2
100
AcDbEntity
  8
0
100
AcDbLine
 10
171.5174103898746
 20
225.6640084930964
 30
0.0
 11
173.0139390698402
 21
225.6640084930964
 31
0.0
  0
LINE
  5
27FE
330
2
100
AcDbEntity
  8
0
100
AcDbLine
 10
173.0139390698402
 20
231.7311520991497
 30
0.0
 11
173.0139390698402
 21
225.6640084930964
 31
0.0
  0
LINE
  5
27FF
330
2
100
AcDbEntity
  8
0
100
AcDbLine
 10
178.1201349514751
 20
231.3975802961235
 30
0.0
 11
178.1201349514751
 21
225.997580296123
 31
0.0
  0
LINE
  5
2800
330
2
100
AcDbEntity
  8
0
100
AcDbLine
 10
179.6398562470428
 20
231.3975802961235
 30
0.0
 11
179.6398562470428
 21
225.997580296123
 31
0.0
  0
LINE
  5
2801
330
2
100
AcDbEntity
  8
0
100
AcDbLine
 10
180.1011561049201
 20
231.3975802961235
 30
0.0
 11
180.1011561049201
 21
230.1975802961228
 31
0.0
  0
LINE
  5
2802
330
2
100
AcDbEntity
  8
0
100
AcDbLine
 10
180.1011561049201
 20
231.3975802961235
 30
0.0
 11
180.1011561049201
 21
230.1975802961228
 31
0.0
  0
LINE
  5
2803
330
2
100
AcDbEntity
  8
0
100
AcDbLine
 10
180.1011561049201
 20
227.1975802961228
 30
0.0
 11
180.1011561049201
 21
225.997580296123
 31
0.0
  0
LINE
  5
2804
330
2
100
AcDbEntity
  8
0
100
AcDbLine
 10
180.1011561049201
 20
227.1975802961228
 30
0.0
 11
180.1011561049201
 21
225.997580296123
 31
0.0
  0
LINE
  5
2805
330
2
100
AcDbEntity
  8
0
100
AcDbLine
 10
175.7851390104581
 20
230.3807249362344
 30
0.0
 11
173.0139390698398
 21
230.1626267709557
 31
0.0
  0
LINE
  5
2806
330
2
100
AcDbEntity
  8
0
100
AcDbLine
 10
173.0139390698402
 20
227.9475802961228
 30
0.0
 11
175.7851390104581
 21
227.9475802961228
 31
0.0
  0
LINE
  5
2807
330
2
100
AcDbEntity
  8
0
100
AcDbLine
 10
173.0139390698402
 20
229.4475802961228
 30
0.0
 11
175.7851390104581
 21
229.4475802961228
 31
0.0
  0
LINE
  5
2808
330
2
100
AcDbEntity
  8
0
100
AcDbLine
 10
175.7851390104581
 20
225.4051828681304
 30
0.0
 11
173.0139390698402
 21
225.7614673265929
 31
0.0
  0
LINE
  5
2809
330
2
100
AcDbEntity
  8
0
100
AcDbLine
 10
173.0139390698398
 20
227.2622869787765
 30
0.0
 11
175.7851390104581
 21
226.9067367605407
 31
0.0
  0
LINE
  5
280A
330
2
100
AcDbEntity
  8
0
100
AcDbLine
 10
173.0139390698398
 20
231.6672650686796
 30
0.0
 11
175.7851390104581
 21
231.8853632339582
 31
0.0
  0
LINE
  5
280B
330
2
100
AcDbEntity
  8
0
100
AcDbLine
 10
185.7478277523903
 20
214.4481132677278
 30
0.0
 11
176.2502607735862
 21
213.7839786876797
 31
0.0
  0
LINE
  5
280C
330
2
100
AcDbEntity
  8
0
100
AcDbLine
 10
184.5851390104582
 20
210.951454205619
 30
0.0
 11
176.7851390104581
 21
210.951454205619
 31
0.0
  0
LINE
  5
280D
330
2
100
AcDbEntity
  8
0
100
AcDbLine
 10
184.969968335188
 20
225.997580296123
 30
0.0
 11
178.1201349514751
 21
225.997580296123
 31
0.0
  0
LINE
  5
280E
330
2
100
AcDbEntity
  8
0
100
AcDbLine
 10
184.969968335188
 20
231.3975802961235
 30
0.0
 11
178.1201349514751
 21
231.3975802961235
 31
0.0
  0
LINE
  5
280F
330
2
100
AcDbEntity
  8
0
100
AcDbLine
 10
185.9623603938923
 20
195.1919665095742
 30
0.0
 11
185.9674256429032
 21
195.4698105123766
 31
0.0
  0
ARC
  5
2810
330
2
100
AcDbEntity
  8
0
100
AcDbCircle
 10
185.7408521050158
 20
195.5550387384842
 30
0.0
 40
0.1
100
AcDbArc
 50
44.98602552033203
 51
85.99999999999049
  0
LINE
  5
2811
330
2
100
AcDbEntity
  8
0
100
AcDbLine
 10
185.9674256429032
 20
195.4698105123766
 30
0.0
 11
185.8115800274138
 21
195.6257321681173
 31
0.0
  0
LINE
  5
2812
330
2
100
AcDbEntity
  8
0
100
AcDbLine
 10
184.5851390104582
 20
198.1514542056188
 30
0.0
 11
184.5851390104582
 21
199.1514542056188
 31
0.0
  0
LINE
  5
2813
330
2
100
AcDbEntity
  8
0
100
AcDbLine
 10
170.5771642301058
 20
201.1037614506976
 30
0.0
 11
160.5161984146027
 21
201.1037614506972
 31
0.0
  0
LINE
  5
2814
330
2
100
AcDbEntity
  8
0
100
AcDbLine
 10
176.7851390104581
 20
199.1514542056188
 30
0.0
 11
176.7851390104581
 21
203.1212854292475
 31
0.0
  0
ARC
  5
2815
330
2
100
AcDbEntity
  8
0
100
AcDbCircle
 10
177.4351390104582
 20
197.7514542056192
 30
0.0
 40
0.4
100
AcDbArc
 50
90.0
 51
180.0
  0
LINE
  5
2816
330
2
100
AcDbEntity
  8
0
100
AcDbLine
 10
177.0351390104581
 20
197.7514542056192
 30
0.0
 11
177.0351390104581
 21
197.7327451318392
 31
0.0
  0
ARC
  5
2817
330
2
100
AcDbEntity
  8
0
100
AcDbCircle
 10
176.2851390104581
 20
196.8177117486879
 30
0.0
 40
0.5
100
AcDbArc
 50
180.0
 51
265.9999999999904
  0
ARC
  5
2818
330
2
100
AcDbEntity
  8
0
100
AcDbCircle
 10
177.5351390104581
 20
197.7327451318392
 30
0.0
 40
0.5
100
AcDbArc
 50
180.0
 51
265.9999999999904
  0
LINE
  5
2819
330
2
100
AcDbEntity
  8
0
100
AcDbLine
 10
173.0139390698402
 20
204.3537614506976
 30
0.0
 11
175.7851390104581
 21
204.3537614506976
 31
0.0
  0
LINE
  5
281A
330
2
100
AcDbEntity
  8
0
100
AcDbLine
 10
173.0139390698398
 20
203.6684681333508
 30
0.0
 11
175.7851390104581
 21
203.3129179151151
 31
0.0
  0
LINE
  5
281B
330
2
100
AcDbEntity
  8
0
100
AcDbLine
 10
175.7851390104581
 20
201.8113640227047
 30
0.0
 11
173.0139390698402
 21
202.1676484811673
 31
0.0
  0
LINE
  5
281C
330
2
100
AcDbEntity
  8
0
100
AcDbLine
 10
170.5771642301058
 20
201.1037614506976
 30
0.0
 11
171.5174103898746
 21
202.0701896476707
 31
0.0
  0
LINE
  5
281D
330
2
100
AcDbEntity
  8
0
100
AcDbLine
 10
171.5174103898746
 20
202.0701896476707
 30
0.0
 11
173.0139390698402
 21
202.0701896476707
 31
0.0
  0
LINE
  5
281E
330
2
100
AcDbEntity
  8
0
100
AcDbLine
 10
184.5851390104582
 20
199.1514542056188
 30
0.0
 11
176.7851390104581
 21
199.1514542056188
 31
0.0
  0
LINE
  5
281F
330
2
100
AcDbEntity
  8
0
100
AcDbLine
 10
185.7478277523903
 20
195.65479514351
 30
0.0
 11
176.2502607735862
 21
196.318929723558
 31
0.0
  0
LINE
  5
2820
330
2
100
AcDbEntity
  8
0
100
AcDbLine
 10
160.5161984146027
 20
209.1037614506972
 30
0.0
 11
160.5161984146027
 21
201.1037614506972
 31
0.0
  0
LINE
  5
2821
330
2
100
AcDbEntity
  8
0
100
AcDbLine
 10
160.5161984146027
 20
208.1037614506972
 30
0.0
 11
160.5161984146027
 21
202.1037614506972
 31
0.0
  0
LINE
  5
2822
330
2
100
AcDbEntity
  8
0
100
AcDbLine
 10
173.0139390698402
 20
208.1373332537241
 30
0.0
 11
173.0139390698402
 21
202.0701896476707
 31
0.0
  0
LINE
  5
2823
330
2
100
AcDbEntity
  8
0
100
AcDbLine
 10
175.7851390104581
 20
196.8177117486879
 30
0.0
 11
175.7851390104581
 21
213.2851966625498
 31
0.0
  0
LINE
  5
2824
330
2
100
AcDbEntity
  8
0
100
AcDbLine
 10
186.3439151764903
 20
215.0097711293633
 30
0.0
 11
185.9623603938923
 21
214.9109419016635
 31
0.0
  0
LINE
  5
2825
330
2
100
AcDbEntity
  8
0
100
AcDbLine
 10
186.3388499274794
 20
215.2876151321656
 30
0.0
 11
186.3439151764903
 21
215.0097711293633
 31
0.0
  0
LINE
  5
2826
330
2
100
AcDbEntity
  8
0
100
AcDbLine
 10
186.7204047100774
 20
215.3864443598654
 30
0.0
 11
186.3388499274794
 21
215.2876151321656
 31
0.0
  0
LINE
  5
2827
330
2
100
AcDbEntity
  8
0
100
AcDbLine
 10
191.3972504026626
 20
213.8407174849012
 30
0.0
 11
177.5002607735862
 21
212.8689453045285
 31
0.0
  0
LINE
  5
2828
330
2
100
AcDbEntity
  8
0
100
AcDbLine
 10
199.4851390104579
 20
211.951454205619
 30
0.0
 11
175.7851390104581
 21
211.951454205619
 31
0.0
  0
LINE
  5
2829
330
2
100
AcDbEntity
  8
0
100
AcDbLine
 10
197.5943123300073
 20
206.568951612362
 30
0.0
 11
175.7851390104581
 21
207.0014542056191
 31
0.0
  0
LINE
  5
282A
330
2
100
AcDbEntity
  8
0
100
AcDbLine
 10
192.7851390104581
 20
230.1975802961228
 30
0.0
 11
179.6398562470428
 21
230.1975802961228
 31
0.0
  0
LINE
  5
282B
330
2
100
AcDbEntity
  8
0
100
AcDbLine
 10
192.7851390104581
 20
227.1975802961228
 30
0.0
 11
179.6398562470428
 21
227.1975802961228
 31
0.0
  0
LINE
  5
282C
330
2
100
AcDbEntity
  8
0
100
AcDbLine
 10
186.4851390104579
 20
221.7975802961232
 30
0.0
 11
175.7851390104581
 21
221.7975802961232
 31
0.0
  0
LINE
  5
282D
330
2
100
AcDbEntity
  8
0
100
AcDbLine
 10
186.3388499274794
 20
194.8152932790721
 30
0.0
 11
186.3439151764903
 21
195.0931372818745
 31
0.0
  0
LINE
  5
282E
330
2
100
AcDbEntity
  8
0
100
AcDbLine
 10
186.3439151764903
 20
195.0931372818745
 30
0.0
 11
185.9623603938923
 21
195.1919665095742
 31
0.0
  0
LINE
  5
282F
330
2
100
AcDbEntity
  8
0
100
AcDbLine
 10
186.7204047100774
 20
194.7164640513724
 30
0.0
 11
186.3388499274794
 21
194.8152932790721
 31
0.0
  0
LINE
  5
2830
330
2
100
AcDbEntity
  8
0
100
AcDbLine
 10
191.3972504026626
 20
196.2621909263361
 30
0.0
 11
177.5002607735862
 21
197.2339631067093
 31
0.0
  0
LINE
  5
2831
330
2
100
AcDbEntity
  8
0
100
AcDbLine
 10
197.5943123300073
 20
203.5339567988758
 30
0.0
 11
175.7851390104581
 21
203.1014542056186
 31
0.0
  0
LINE
  5
2832
330
2
100
AcDbEntity
  8
0
100
AcDbLine
 10
199.4851390104579
 20
198.1514542056188
 30
0.0
 11
175.7851390104581
 21
198.1514542056188
 31
0.0
  0
ARC
  5
2833
330
2
100
AcDbEntity
  8
0
100
AcDbCircle
 10
202.4054998541599
 20
292.9821271906011
 30
0.0
 40
3.0
100
AcDbArc
 50
180.0
 51
270.0
  0
LINE
  5
2834
330
2
100
AcDbEntity
  8
0
100
AcDbLine
 10
186.4851390104579
 20
235.5975802961233
 30
0.0
 11
175.7851390104581
 21
235.5975802961233
 31
0.0
  0
ARC
  5
2835
330
2
100
AcDbEntity
  8
0
100
AcDbCircle
 10
118.9054998541599
 20
352.9821271905998
 30
0.0
 40
9.0
100
AcDbArc
 50
19.47152449153328
 51
340.5290832219934
  0
LINE
  5
2836
330
2
100
AcDbEntity
  8
0
100
AcDbLine
 10
110.5750641105536
 20
352.4108651477145
 30
0.0
 11
114.2455545409997
 21
346.0533892334856
 31
0.0
  0
SPLINE
  5
2837
330
2
100
AcDbEntity
  8
HOJO
100
AcDbSpline
210
0.0
220
0.0
230
1.0
 70
     8
 71
     3
 72
    11
 73
     7
 74
     5
 42
0.0000000001
 43
0.0000000001
 44
0.0000000001
 40
0.0
 40
0.0
 40
0.0
 40
0.0
 40
2.265619093443086
 40
4.733604272228447
 40
6.146936172709402
 40
7.173597515631723
 40
7.173597515631723
 40
7.173597515631723
 40
7.173597515631723
 10
136.535737391758
 20
355.9821721906005
 30
0.0
 10
135.945395682019
 20
355.2525403979228
 30
0.0
 10
134.7119826836104
 20
353.7281057826918
 30
0.0
 10
137.7677992515506
 20
352.4955899826092
 30
0.0
 10
136.4612862980917
 20
350.5330724799278
 30
0.0
 10
137.3391461132592
 20
350.1453231526513
 30
0.0
 10
137.7085179298304
 20
349.9821721906005
 30
0.0
 11
136.535737391758
 21
355.9821721906005
 31
0.0
 11
135.5863408091803
 21
353.9250683999366
 31
0.0
 11
137.0942031891849
 21
351.9712767309834
 31
0.0
 11
136.8708152945631
 21
350.5757105700818
 31
0.0
 11
137.7085179298304
 21
349.9821721906005
 31
0.0
  0
ARC
  5
2838
330
2
100
AcDbEntity
  8
0
100
AcDbCircle
 10
118.9054998541599
 20
352.9821721906005
 30
0.0
 40
3.0
100
AcDbArc
 50
90.0
 51
270.0
  0
ARC
  5
2839
330
2
100
AcDbEntity
  8
0
100
AcDbCircle
 10
118.9054998541599
 20
352.9821271905998
 30
0.0
 40
7.5
100
AcDbArc
 50
23.5785535676805
 51
336.4221966101925
  0
LINE
  5
283A
330
2
100
AcDbEntity
  8
0
100
AcDbLine
 10
83.40549785416021
 20
379.5164384157938
 30
0.0
 11
83.40549785416021
 21
304.4478159654081
 31
0.0
  0
LINE
  5
283B
330
2
100
AcDbEntity
  8
0
100
AcDbLine
 10
86.40549785415975
 20
381.9777637567053
 30
0.0
 11
86.40549785416977
 21
301.9864906244861
 31
0.0
  0
LINE
  5
283C
330
2
100
AcDbEntity
  8
CENTER
 62
     3
100
AcDbLine
 10
118.9054998541599
 20
366.4908552781839
 30
0.0
 11
118.9054998541599
 21
317.4733991205794
 31
0.0
  0
LINE
  5
283D
330
2
100
AcDbEntity
  8
0
100
AcDbLine
 10
107.9055148541596
 20
360.4908552781839
 30
0.0
 11
107.9055148541596
 21
323.4733991205794
 31
0.0
  0
LINE
  5
283E
330
2
100
AcDbEntity
  8
0
100
AcDbLine
 10
140.4054998541601
 20
296.9821271906011
 30
0.0
 11
140.4054998541598
 21
386.9821271906012
 31
0.0
  0
LINE
  5
283F
330
2
100
AcDbEntity
  8
CENTER
100
AcDbLine
 10
105.9055148541595
 20
330.9821271906007
 30
0.0
 11
132.9054998541599
 21
330.9821271906007
 31
0.0
  0
LINE
  5
2840
330
2
100
AcDbEntity
  8
0
100
AcDbLine
 10
108.9055148541596
 20
322.4733991205794
 30
0.0
 11
115.9726605079925
 21
322.4733991205794
 31
0.0
  0
LINE
  5
2841
330
2
100
AcDbEntity
  8
0
100
AcDbLine
 10
87.4054597772241
 20
300.9777640889983
 30
0.0
 11
130.9054998541599
 21
300.5981449903543
 31
0.0
  0
ARC
  5
2842
330
2
100
AcDbEntity
  8
0
100
AcDbCircle
 10
108.9055148541596
 20
323.4733991205794
 30
0.0
 40
1.0
100
AcDbArc
 50
180.0
 51
270.0
  0
LINE
  5
2843
330
2
100
AcDbEntity
  8
0
100
AcDbLine
 10
85.92294760251149
 20
303.3942159082316
 30
0.0
 11
84.37059835745765
 21
303.4484251383887
 31
0.0
  0
ARC
  5
2844
330
2
100
AcDbEntity
  8
0
100
AcDbCircle
 10
84.40549785416022
 20
304.4478159654081
 30
0.0
 40
1.0
100
AcDbArc
 50
180.0
 51
267.9999999999963
  0
LINE
  5
2845
330
2
100
AcDbEntity
  8
0
100
AcDbLine
 10
86.40549785416977
 20
301.9864906244861
 30
0.0
 11
87.4054597772241
 21
300.9777640889983
 31
0.0
  0
ARC
  5
2846
330
2
100
AcDbEntity
  8
0
100
AcDbCircle
 10
85.90549785416021
 20
302.8945204947222
 30
0.0
 40
0.5
100
AcDbArc
 50
0.0
 51
87.99999999999633
  0
LINE
  5
2847
330
2
100
AcDbEntity
  8
0
100
AcDbLine
 10
131.4054998541599
 20
296.9821271906011
 30
0.0
 11
140.4054998541599
 21
296.9821271906011
 31
0.0
  0
LINE
  5
2848
330
2
100
AcDbEntity
  8
0
100
AcDbLine
 10
131.4054998541599
 20
312.9821271906012
 30
0.0
 11
140.4054998541599
 21
312.9821271906012
 31
0.0
  0
LINE
  5
2849
330
2
100
AcDbEntity
  8
0
100
AcDbLine
 10
114.2455545410001
 20
337.9108651477154
 30
0.0
 11
110.5750641105536
 21
331.5533892334865
 31
0.0
  0
ARC
  5
284A
330
2
100
AcDbEntity
  8
0
100
AcDbCircle
 10
118.9054998541599
 20
330.9821271906007
 30
0.0
 40
8.349999999999999
100
AcDbArc
 50
176.0770669291864
 51
183.9229330707873
  0
ARC
  5
284B
330
2
100
AcDbEntity
  8
0
100
AcDbCircle
 10
118.9054998541599
 20
330.9821271906007
 30
0.0
 40
8.349999999999999
100
AcDbArc
 50
56.07706692921492
 51
63.92293307079475
  0
ARC
  5
284C
330
2
100
AcDbEntity
  8
0
100
AcDbCircle
 10
118.9054998541599
 20
330.9821271906007
 30
0.0
 40
8.349999999999999
100
AcDbArc
 50
116.0770669292052
 51
123.922933070785
  0
LINE
  5
284D
330
2
100
AcDbEntity
  8
0
100
AcDbLine
 10
122.5759902846065
 20
338.4821271906007
 30
0.0
 11
115.2350094237134
 21
338.4821271906007
 31
0.0
  0
ARC
  5
284E
330
2
100
AcDbEntity
  8
0
100
AcDbCircle
 10
118.9054998541599
 20
352.9821271905998
 30
0.0
 40
8.349999999999999
100
AcDbArc
 50
296.0770669292052
 51
303.9229330707851
  0
LINE
  5
284F
330
2
100
AcDbEntity
  8
0
100
AcDbLine
 10
123.5654451673198
 20
346.0533892334856
 30
0.0
 11
125.8337290651978
 21
349.9821721906009
 31
0.0
  0
ARC
  5
2850
330
2
100
AcDbEntity
  8
0
100
AcDbCircle
 10
118.9054998541599
 20
352.9821271905998
 30
0.0
 40
8.349999999999999
100
AcDbArc
 50
236.0770669292149
 51
243.9229330707947
  0
LINE
  5
2851
330
2
100
AcDbEntity
  8
0
100
AcDbLine
 10
115.2350094237134
 20
345.4821271905998
 30
0.0
 11
122.5759902846065
 21
345.4821271905998
 31
0.0
  0
LINE
  5
2852
330
2
100
AcDbEntity
  8
0
100
AcDbLine
 10
118.9054998541599
 20
349.9821721906005
 30
0.0
 11
137.7085179298304
 21
349.9821721906005
 31
0.0
  0
SPLINE
  5
2853
330
2
100
AcDbEntity
  8
HOJO
100
AcDbSpline
210
0.0
220
0.0
230
1.0
 70
     8
 71
     3
 72
    11
 73
     7
 74
     5
 42
0.0000000001
 43
0.0000000001
 44
0.0000000001
 40
0.0
 40
0.0
 40
0.0
 40
0.0
 40
2.265619093443499
 40
4.733604272228859
 40
6.146936172709366
 40
7.173597515631685
 40
7.173597515631685
 40
7.173597515631685
 40
7.173597515631685
 10
136.535737391758
 20
327.9820821906009
 30
0.0
 10
135.9453956820189
 20
328.7117139832788
 30
0.0
 10
134.7119826836103
 20
330.2361485985101
 30
0.0
 10
137.7677992515506
 20
331.4686643985926
 30
0.0
 10
136.4612862980919
 20
333.4311819012737
 30
0.0
 10
137.3391461132592
 20
333.81893122855
 30
0.0
 10
137.7085179298304
 20
333.9820821906009
 30
0.0
 11
136.535737391758
 21
327.9820821906009
 31
0.0
 11
135.5863408091803
 21
330.0391859812652
 31
0.0
 11
137.0942031891849
 21
331.9929776502185
 31
0.0
 11
136.8708152945631
 21
333.3885438111197
 31
0.0
 11
137.7085179298304
 21
333.9820821906009
 31
0.0
  0
ARC
  5
2854
330
2
100
AcDbEntity
  8
0
100
AcDbCircle
 10
118.9054998541599
 20
330.9820821906009
 30
0.0
 40
3.0
100
AcDbArc
 50
90.0
 51
270.0
  0
LINE
  5
2855
330
2
100
AcDbEntity
  8
0
100
AcDbLine
 10
118.9054998541599
 20
333.9820821906009
 30
0.0
 11
137.7085179298304
 21
333.9820821906009
 31
0.0
  0
LINE
  5
2856
330
2
100
AcDbEntity
  8
0
100
AcDbLine
 10
118.9054998541599
 20
327.9820821906009
 30
0.0
 11
136.535737391758
 21
327.9820821906009
 31
0.0
  0
LINE
  5
2857
330
2
100
AcDbEntity
  8
0
100
AcDbLine
 10
130.9054998541604
 20
333.9820821906009
 30
0.0
 11
130.9054998541599
 21
349.9821721906005
 31
0.0
  0
LINE
  5
2858
330
2
100
AcDbEntity
  8
0
100
AcDbLine
 10
131.4054998541599
 20
349.9821721906005
 30
0.0
 11
131.4054998541599
 21
333.9820821906014
 31
0.0
  0
LINE
  5
2859
330
2
100
AcDbEntity
  8
0
100
AcDbLine
 10
130.9054998541599
 20
333.9820821906009
 30
0.0
 11
130.9054998541599
 21
349.9821721906009
 31
0.0
  0
LINE
  5
285A
330
2
100
AcDbEntity
  8
0
100
AcDbLine
 10
130.9054998541599
 20
349.9821721906005
 30
0.0
 11
130.9054998541599
 21
333.9820821906009
 31
0.0
  0
LINE
  5
285B
330
2
100
AcDbEntity
  8
0
100
AcDbLine
 10
130.9054998541599
 20
349.9821721906005
 30
0.0
 11
130.9054998541599
 21
333.9820821906009
 31
0.0
  0
LINE
  5
285C
330
2
100
AcDbEntity
  8
0
100
AcDbLine
 10
125.8337290651974
 20
333.9820821906009
 30
0.0
 11
123.5654451673202
 21
337.9108651477149
 31
0.0
  0
LINE
  5
285D
330
2
100
AcDbEntity
  8
0
100
AcDbLine
 10
131.4054998541599
 20
312.9821271906012
 30
0.0
 11
130.9054998541599
 21
313.4821271906012
 31
0.0
  0
LINE
  5
285E
330
2
100
AcDbEntity
  8
0
100
AcDbLine
 10
130.9054998541599
 20
297.4821271906012
 30
0.0
 11
131.4054998541599
 21
296.9821271906011
 31
0.0
  0
LINE
  5
285F
330
2
100
AcDbEntity
  8
0
100
AcDbLine
 10
125.9054998541586
 20
314.182127190601
 30
0.0
 11
125.9054998541586
 21
321.4733991205794
 31
0.0
  0
ARC
  5
2860
330
2
100
AcDbEntity
  8
0
100
AcDbCircle
 10
124.9054998541581
 20
321.4733991205794
 30
0.0
 40
1.0
100
AcDbArc
 50
0.0
 51
89.99999999997395
  0
ARC
  5
2861
330
2
100
AcDbEntity
  8
0
100
AcDbCircle
 10
126.9054998541586
 20
314.9734464011967
 30
0.0
 40
1.0
100
AcDbArc
 50
180.0
 51
269.5000000000084
  0
LINE
  5
2862
330
2
100
AcDbEntity
  8
0
100
AcDbLine
 10
124.9054978541584
 20
314.182127190601
 30
0.0
 11
124.9054978541584
 21
321.7821271906009
 31
0.0
  0
LINE
  5
2863
330
2
100
AcDbEntity
  8
0
100
AcDbLine
 10
125.9054998541586
 20
314.182127190601
 30
0.0
 11
124.9054978541584
 21
314.182127190601
 31
0.0
  0
LINE
  5
2864
330
2
100
AcDbEntity
  8
0
100
AcDbLine
 10
125.8566501934514
 20
321.7821271906009
 30
0.0
 11
124.9054978541584
 21
321.7821271906009
 31
0.0
  0
ARC
  5
2865
330
2
100
AcDbEntity
  8
0
100
AcDbCircle
 10
118.9054998541599
 20
330.9821271906007
 30
0.0
 40
8.349999999999999
100
AcDbArc
 50
296.0770669292052
 51
303.9229330707851
  0
ARC
  5
2866
330
2
100
AcDbEntity
  8
0
100
AcDbCircle
 10
124.0858851683436
 20
316.3581836365297
 30
0.0
 40
1.59999999999961
100
AcDbArc
 50
192.6768384788915
 51
255.0000000000055
  0
ARC
  5
2867
330
2
100
AcDbEntity
  8
0
100
AcDbCircle
 10
131.3054978541703
 20
317.9821271906011
 30
0.0
 40
9.000000000010642
100
AcDbArc
 50
167.3231615211084
 51
192.6768384788915
  0
ARC
  5
2868
330
2
100
AcDbEntity
  8
0
100
AcDbCircle
 10
124.0858851683391
 20
319.6060707446713
 30
0.0
 40
1.59999999999961
100
AcDbArc
 50
104.9999999999944
 51
167.3231615211084
  0
LINE
  5
2869
330
2
100
AcDbEntity
  8
0
100
AcDbLine
 10
121.8383392003273
 20
322.4733991205794
 30
0.0
 11
124.9054998541586
 21
322.4733991205794
 31
0.0
  0
LINE
  5
286A
330
2
100
AcDbEntity
  8
0
100
AcDbLine
 10
124.9054978541584
 20
314.4821271906034
 30
0.0
 11
123.6717746961798
 21
314.8127023144675
 31
0.0
  0
LINE
  5
286B
330
2
100
AcDbEntity
  8
0
100
AcDbLine
 10
123.6717746961752
 20
321.1515520667335
 30
0.0
 11
124.9054978541584
 21
321.4821271905984
 31
0.0
  0
ARC
  5
286C
330
2
100
AcDbEntity
  8
0
100
AcDbCircle
 10
118.9054998541599
 20
330.9821271906007
 30
0.0
 40
8.349999999999999
100
AcDbArc
 50
236.0770669292149
 51
243.9229330707947
  0
LINE
  5
286D
330
2
100
AcDbEntity
  8
0
100
AcDbLine
 10
115.235009423713
 20
323.4821271906007
 30
0.0
 11
122.5759902846065
 21
323.4821271906007
 31
0.0
  0
LINE
  5
286E
330
2
100
AcDbEntity
  8
0
100
AcDbLine
 10
126.8967733186604
 20
313.9734844781328
 30
0.0
 11
130.9053094694808
 21
313.93850251311
 31
0.0
  0
LINE
  5
286F
330
2
100
AcDbEntity
  8
CENTER
100
AcDbLine
 10
120.3024075581273
 20
317.9821271906011
 30
0.0
 11
134.8216713487012
 21
317.9821271906011
 31
0.0
  0
LINE
  5
2870
330
2
100
AcDbEntity
  8
0
100
AcDbLine
 10
130.9054998541599
 20
297.4821271906012
 30
0.0
 11
130.9054998541599
 21
327.9820821906009
 31
0.0
  0
LINE
  5
2871
330
2
100
AcDbEntity
  8
0
100
AcDbLine
 10
131.4054998541599
 20
327.9820821906009
 30
0.0
 11
131.4054998541599
 21
296.9821271906011
 31
0.0
  0
LINE
  5
2872
330
2
100
AcDbEntity
  8
0
100
AcDbLine
 10
123.5654451673198
 20
324.053389233486
 30
0.0
 11
125.8336771036732
 21
327.9820821906009
 31
0.0
  0
LINE
  5
2873
330
2
100
AcDbEntity
  8
0
100
AcDbLine
 10
110.5750641105536
 20
330.4108651477154
 30
0.0
 11
114.2455545409997
 21
324.0533892334865
 31
0.0
  0
ARC
  5
2874
330
2
100
AcDbEntity
  8
0
100
AcDbCircle
 10
118.9054998541599
 20
330.9821271906007
 30
0.0
 40
9.0
100
AcDbArc
 50
19.47091677800659
 51
340.5284755084667
  0
ARC
  5
2875
330
2
100
AcDbEntity
  8
0
100
AcDbCircle
 10
118.9054998541599
 20
330.9821271906007
 30
0.0
 40
7.5
100
AcDbArc
 50
23.57780338980747
 51
336.4214464323485
  0
LINE
  5
2876
330
2
100
AcDbEntity
  8
0
100
AcDbLine
 10
108.9055148541596
 20
361.4908552781839
 30
0.0
 11
115.9726605589438
 21
361.4908552781839
 31
0.0
  0
LINE
  5
2877
330
2
100
AcDbEntity
  8
CENTER
100
AcDbLine
 10
105.9055148541595
 20
352.9821271905998
 30
0.0
 11
132.9054998541599
 21
352.9821271905998
 31
0.0
  0
LINE
  5
2878
330
2
100
AcDbEntity
  8
0
100
AcDbLine
 10
87.4054597772241
 20
382.986490292204
 30
0.0
 11
130.9054998541599
 21
383.3661093908481
 31
0.0
  0
ARC
  5
2879
330
2
100
AcDbEntity
  8
0
100
AcDbCircle
 10
108.9055148541596
 20
360.4908552781839
 30
0.0
 40
1.0
100
AcDbArc
 50
89.99999999997395
 51
180.0
  0
LINE
  5
287A
330
2
100
AcDbEntity
  8
0
100
AcDbLine
 10
85.92294760251149
 20
380.5700384729703
 30
0.0
 11
84.37059835745765
 21
380.5158292428131
 31
0.0
  0
ARC
  5
287B
330
2
100
AcDbEntity
  8
0
100
AcDbCircle
 10
84.40549785416022
 20
379.5164384157938
 30
0.0
 40
1.0
100
AcDbArc
 50
92.00000000000366
 51
180.0
  0
LINE
  5
287C
330
2
100
AcDbEntity
  8
0
100
AcDbLine
 10
86.40549785415975
 20
381.9777637567053
 30
0.0
 11
87.4054597772241
 21
382.986490292204
 31
0.0
  0
ARC
  5
287D
330
2
100
AcDbEntity
  8
0
100
AcDbCircle
 10
85.90549785416021
 20
381.0697338864797
 30
0.0
 40
0.5
100
AcDbArc
 50
272.0000000000036
 51
0.0
  0
LINE
  5
287E
330
2
100
AcDbEntity
  8
0
100
AcDbLine
 10
131.4054998541599
 20
386.9821271906012
 30
0.0
 11
140.4054998541599
 21
386.9821271906012
 31
0.0
  0
LINE
  5
287F
330
2
100
AcDbEntity
  8
0
100
AcDbLine
 10
131.4054998541599
 20
370.9821271906012
 30
0.0
 11
140.4054998541599
 21
370.9821271906012
 31
0.0
  0
LINE
  5
2880
330
2
100
AcDbEntity
  8
0
100
AcDbLine
 10
131.4054998541599
 20
386.9821271906012
 30
0.0
 11
130.9054998541599
 21
386.4821271906011
 31
0.0
  0
LINE
  5
2881
330
2
100
AcDbEntity
  8
0
100
AcDbLine
 10
114.2455545410001
 20
359.9108651477145
 30
0.0
 11
110.5750641105536
 21
353.5533892334856
 31
0.0
  0
ARC
  5
2882
330
2
100
AcDbEntity
  8
0
100
AcDbCircle
 10
118.9054998541599
 20
352.9821271905998
 30
0.0
 40
8.349999999999999
100
AcDbArc
 50
176.0770669291864
 51
183.9229330707873
  0
LINE
  5
2883
330
2
100
AcDbEntity
  8
0
100
AcDbLine
 10
131.4054998541599
 20
370.9821271906012
 30
0.0
 11
130.9054998541599
 21
370.4821271906012
 31
0.0
  0
LINE
  5
2884
330
2
100
AcDbEntity
  8
0
100
AcDbLine
 10
125.8336771036728
 20
355.9821721906005
 30
0.0
 11
123.5654451673202
 21
359.910865147714
 31
0.0
  0
ARC
  5
2885
330
2
100
AcDbEntity
  8
0
100
AcDbCircle
 10
124.0858851683436
 20
367.6060707446727
 30
0.0
 40
1.59999999999961
100
AcDbArc
 50
104.9999999999944
 51
167.3231615211084
  0
ARC
  5
2886
330
2
100
AcDbEntity
  8
0
100
AcDbCircle
 10
124.0858851683391
 20
364.358183636531
 30
0.0
 40
1.59999999999961
100
AcDbArc
 50
192.6768384788647
 51
255.0000000000055
  0
ARC
  5
2887
330
2
100
AcDbEntity
  8
0
100
AcDbCircle
 10
131.3054978541703
 20
365.9821271906011
 30
0.0
 40
9.000000000010642
100
AcDbArc
 50
167.3231615211084
 51
192.6768384788647
  0
LINE
  5
2888
330
2
100
AcDbEntity
  8
0
100
AcDbLine
 10
121.8383391493756
 20
361.4908552781839
 30
0.0
 11
124.9054998541586
 21
361.4908552781839
 31
0.0
  0
LINE
  5
2889
330
2
100
AcDbEntity
  8
0
100
AcDbLine
 10
124.9054978541584
 20
369.4821271905984
 30
0.0
 11
123.6717746961798
 21
369.1515520667349
 31
0.0
  0
LINE
  5
288A
330
2
100
AcDbEntity
  8
0
100
AcDbLine
 10
123.6717746961752
 20
362.8127023144688
 30
0.0
 11
124.9054978541584
 21
362.4821271906034
 31
0.0
  0
LINE
  5
288B
330
2
100
AcDbEntity
  8
0
100
AcDbLine
 10
125.9054998541586
 20
362.4908552781839
 30
0.0
 11
125.9054998541586
 21
369.7821271906009
 31
0.0
  0
ARC
  5
288C
330
2
100
AcDbEntity
  8
0
100
AcDbCircle
 10
124.9054998541581
 20
362.4908552781839
 30
0.0
 40
1.0
100
AcDbArc
 50
270.0
 51
0.0
  0
ARC
  5
288D
330
2
100
AcDbEntity
  8
0
100
AcDbCircle
 10
126.9054998541586
 20
368.9908079800052
 30
0.0
 40
1.0
100
AcDbArc
 50
90.49999999999155
 51
180.0
  0
LINE
  5
288E
330
2
100
AcDbEntity
  8
0
100
AcDbLine
 10
125.9054998541586
 20
369.7821271906009
 30
0.0
 11
124.9054978541584
 21
369.7821271906009
 31
0.0
  0
LINE
  5
288F
330
2
100
AcDbEntity
  8
0
100
AcDbLine
 10
124.9054978541584
 20
369.7821271906009
 30
0.0
 11
124.9054978541584
 21
362.182127190601
 31
0.0
  0
LINE
  5
2890
330
2
100
AcDbEntity
  8
0
100
AcDbLine
 10
125.8566501934514
 20
362.182127190601
 30
0.0
 11
124.9054978541584
 21
362.182127190601
 31
0.0
  0
ARC
  5
2891
330
2
100
AcDbEntity
  8
0
100
AcDbCircle
 10
118.9054998541599
 20
352.9821271905998
 30
0.0
 40
8.349999999999999
100
AcDbArc
 50
56.07706692921492
 51
63.92293307079475
  0
ARC
  5
2892
330
2
100
AcDbEntity
  8
0
100
AcDbCircle
 10
118.9054998541599
 20
352.9821271905998
 30
0.0
 40
8.349999999999999
100
AcDbArc
 50
116.0770669292052
 51
123.922933070785
  0
LINE
  5
2893
330
2
100
AcDbEntity
  8
0
100
AcDbLine
 10
122.5759902846065
 20
360.4821271905998
 30
0.0
 11
115.2350094237134
 21
360.4821271905998
 31
0.0
  0
LINE
  5
2894
330
2
100
AcDbEntity
  8
0
100
AcDbLine
 10
126.8967733186604
 20
369.9907699030696
 30
0.0
 11
130.9053094694808
 21
370.0257518680923
 31
0.0
  0
LINE
  5
2895
330
2
100
AcDbEntity
  8
0
100
AcDbLine
 10
118.9054998541599
 20
355.9821721906005
 30
0.0
 11
136.535737391758
 21
355.9821721906005
 31
0.0
  0
LINE
  5
2896
330
2
100
AcDbEntity
  8
CENTER
100
AcDbLine
 10
120.3024075581273
 20
365.9821271906011
 30
0.0
 11
134.8216713487012
 21
365.9821271906011
 31
0.0
  0
LINE
  5
2897
330
2
100
AcDbEntity
  8
0
100
AcDbLine
 10
130.9054998541595
 20
355.9821721906005
 30
0.0
 11
130.9054998541599
 21
386.4821271906011
 31
0.0
  0
LINE
  5
2898
330
2
100
AcDbEntity
  8
0
100
AcDbLine
 10
131.4054998541599
 20
386.9821271906012
 30
0.0
 11
131.4054998541599
 21
355.9821721906005
 31
0.0
  0
LINE
  5
2899
330
2
100
AcDbEntity
  8
CENTER
100
AcDbLine
 10
200.4086198541599
 20
296.9821271906011
 30
0.0
 11
215.9111228541598
 21
296.9821271906011
 31
0.0
  0
ARC
  5
289A
330
2
100
AcDbEntity
  8
HIDS
100
AcDbCircle
 10
207.4054998541599
 20
296.9821271906011
 30
0.0
 40
3.25
100
AcDbArc
 50
0.0
 51
180.0
  0
ARC
  5
289B
330
2
100
AcDbEntity
  8
0
100
AcDbCircle
 10
207.4054998541599
 20
296.9821271906011
 30
0.0
 40
3.25
100
AcDbArc
 50
180.0
 51
0.0
  0
ARC
  5
289C
330
2
100
AcDbEntity
  8
0
100
AcDbCircle
 10
202.4054998541599
 20
390.9821271906011
 30
0.0
 40
3.0
100
AcDbArc
 50
90.0
 51
180.0
  0
LINE
  5
289D
330
2
100
AcDbEntity
  8
CENTER
100
AcDbLine
 10
200.4086198541599
 20
386.9821271906012
 30
0.0
 11
215.9111228541598
 21
386.9821271906012
 31
0.0
  0
LINE
  5
289E
330
2
100
AcDbEntity
  8
0
100
AcDbLine
 10
199.4054998541599
 20
390.9821271906011
 30
0.0
 11
199.4054998541599
 21
386.9821271906012
 31
0.0
  0
ARC
  5
289F
330
2
100
AcDbEntity
  8
0
100
AcDbCircle
 10
207.4054998541599
 20
386.9821271906012
 30
0.0
 40
3.25
100
AcDbArc
 50
0.0
 51
180.0
  0
ARC
  5
28A0
330
2
100
AcDbEntity
  8
HIDS
100
AcDbCircle
 10
207.4054998541599
 20
386.9821271906012
 30
0.0
 40
3.25
100
AcDbArc
 50
180.0
 51
0.0
  0
LINE
  5
28A1
330
2
100
AcDbEntity
  8
CENTER
100
AcDbLine
 10
207.4054998541599
 20
397.1352641906012
 30
0.0
 11
207.4054998541599
 21
380.8874461906011
 31
0.0
  0
LINE
  5
28A2
330
2
100
AcDbEntity
  8
CENTER
100
AcDbLine
 10
247.4054998541599
 20
397.5824381906011
 30
0.0
 11
247.4054998541599
 21
379.5458781906011
 31
0.0
  0
TEXT
  5
28A3
330
2
100
AcDbEntity
  8
TITLE
100
AcDbText
 10
343.3676517365185
 20
333.8384421255868
 30
0.0
 40
9.0
  1
AG3L15N5～60  -BLQ010T2
100
AcDbText
  0
LINE
  5
28A4
330
2
100
AcDbEntity
  8
0
100
AcDbLine
 10
418.3872255502983
 20
187.1846887633505
 30
0.0
 11
433.3872255502983
 21
187.1846887633505
 31
0.0
  0
LINE
  5
28A5
330
2
100
AcDbEntity
  8
0
100
AcDbLine
 10
432.8159635074126
 20
186.6846887633505
 30
0.0
 11
433.3872255502983
 21
186.6846887633505
 31
0.0
  0
ARC
  5
28A6
330
2
100
AcDbEntity
  8
0
100
AcDbCircle
 10
431.3872255502984
 20
189.684688763351
 30
0.0
 40
2.0
100
AcDbArc
 50
0.0
 51
90.0
  0
LINE
  5
28A7
330
2
100
AcDbEntity
  8
0
100
AcDbLine
 10
418.3872255502985
 20
178.1846887633505
 30
0.0
 11
433.3872255502986
 21
178.1846887633505
 31
0.0
  0
LINE
  5
28A8
330
2
100
AcDbEntity
  8
0
100
AcDbLine
 10
255.4054998541598
 20
390.9821271906011
 30
0.0
 11
255.4054998541598
 21
292.9821271906011
 31
0.0
  0
ARC
  5
28A9
330
2
100
AcDbEntity
  8
0
100
AcDbCircle
 10
252.4054998541599
 20
292.9821271906011
 30
0.0
 40
3.0
100
AcDbArc
 50
270.0
 51
0.0
  0
LINE
  5
28AA
330
2
100
AcDbEntity
  8
0
100
AcDbLine
 10
422.1372255502983
 20
187.1846887633505
 30
0.0
 11
425.1225606911252
 21
186.684688763351
 31
0.0
  0
LINE
  5
28AB
330
2
100
AcDbEntity
  8
0
100
AcDbLine
 10
420.3872255502988
 20
191.6846887633505
 30
0.0
 11
431.3872255502988
 21
191.6846887633505
 31
0.0
  0
LINE
  5
28AC
330
2
100
AcDbEntity
  8
0
100
AcDbLine
 10
429.637225550299
 20
187.1846887633505
 30
0.0
 11
432.8159635074126
 21
186.6846887633505
 31
0.0
  0
LINE
  5
28AD
330
2
100
AcDbEntity
  8
0
100
AcDbLine
 10
432.8159635074126
 20
186.6846887633505
 30
0.0
 11
432.8159635074127
 21
178.1846887633505
 31
0.0
  0
LINE
  5
28AE
330
2
100
AcDbEntity
  8
0
100
AcDbLine
 10
426.6518904094716
 20
186.6846887633505
 30
0.0
 11
425.1225606911257
 21
186.6846887633505
 31
0.0
  0
LINE
  5
28AF
330
2
100
AcDbEntity
  8
0
100
AcDbLine
 10
426.6518904094716
 20
186.6846887633505
 30
0.0
 11
429.637225550299
 21
187.1846887633505
 31
0.0
  0
LINE
  5
28B0
330
2
100
AcDbEntity
  8
0
100
AcDbLine
 10
425.1225606911257
 20
186.6846887633505
 30
0.0
 11
425.1225606911259
 21
178.1846887633505
 31
0.0
  0
LINE
  5
28B1
330
2
100
AcDbEntity
  8
0
100
AcDbLine
 10
426.6518904094716
 20
186.684688763351
 30
0.0
 11
426.6518904094718
 21
178.1846887633505
 31
0.0
  0
LINE
  5
28B2
330
2
100
AcDbEntity
  8
0
100
AcDbLine
 10
422.1372255502983
 20
187.1846887633505
 30
0.0
 11
418.9584875931847
 21
186.6846887633505
 31
0.0
  0
LINE
  5
28B3
330
2
100
AcDbEntity
  8
0
100
AcDbLine
 10
418.9584875931847
 20
186.6846887633505
 30
0.0
 11
418.3872255502983
 21
186.684688763351
 31
0.0
  0
ARC
  5
28B4
330
2
100
AcDbEntity
  8
0
100
AcDbCircle
 10
420.3872255502988
 20
189.6846887633505
 30
0.0
 40
2.0
100
AcDbArc
 50
90.0
 51
180.0
  0
LINE
  5
28B5
330
2
100
AcDbEntity
  8
0
100
AcDbLine
 10
418.3872255502983
 20
189.6846887633505
 30
0.0
 11
418.3872255502985
 21
178.1846887633505
 31
0.0
  0
LINE
  5
28B6
330
2
100
AcDbEntity
  8
0
100
AcDbLine
 10
418.9584875931846
 20
186.684688763351
 30
0.0
 11
418.9584875931846
 21
178.1846887633505
 31
0.0
  0
SPLINE
  5
28B7
330
2
100
AcDbEntity
  8
HOJO
100
AcDbSpline
210
0.0
220
0.0
230
1.0
 70
     8
 71
     3
 72
    10
 73
     6
 74
     4
 42
0.0000000001
 43
0.0000000001
 44
0.0000000001
 40
0.0
 40
0.0
 40
0.0
 40
0.0
 40
3.077502202276136
 40
5.757721662027301
 40
7.055540263984264
 40
7.055540263984264
 40
7.055540263984264
 40
7.055540263984264
 10
422.8872468741631
 20
215.7144595498102
 30
0.0
 10
423.8940158308418
 20
214.8795816956679
 30
0.0
 10
425.7775873279599
 20
213.3176025352998
 30
0.0
 10
427.2343737921694
 20
216.8787722201752
 30
0.0
 10
428.4806130905687
 20
216.0008301855941
 30
0.0
 10
428.8871935502986
 20
215.7144051976365
 30
0.0
 11
422.8872468741631
 21
215.7144595498102
 31
0.0
 11
425.7090701646477
 21
214.4863174072661
 31
0.0
 11
427.7126745853386
 21
216.2665268550044
 31
0.0
 11
428.8871935502986
 21
215.7144051976365
 31
0.0
  0
LINE
  5
28B8
330
2
100
AcDbEntity
  8
0
100
AcDbLine
 10
428.8871935502986
 20
191.6846887633505
 30
0.0
 11
428.8871935502986
 21
215.7144051976365
 31
0.0
  0
LINE
  5
28B9
330
2
100
AcDbEntity
  8
0
100
AcDbLine
 10
422.8872468741631
 20
215.7144595498102
 30
0.0
 11
422.88726738643
 21
191.6846887633505
 31
0.0
  0
LINE
  5
28BA
330
2
100
AcDbEntity
  8
0
100
AcDbLine
 10
259.4054998541598
 20
322.9821271906012
 30
0.0
 11
259.4054998541598
 21
360.9821271906012
 31
0.0
  0
LINE
  5
28BB
330
2
100
AcDbEntity
  8
0
100
AcDbLine
 10
288.4054998541598
 20
349.4821271906012
 30
0.0
 11
288.4054998541598
 21
332.4821271906011
 31
0.0
  0
LINE
  5
28BC
330
2
100
AcDbEntity
  8
0
100
AcDbLine
 10
259.4054998541598
 20
350.4821271906012
 30
0.0
 11
261.4054998541598
 21
350.4821271906012
 31
0.0
  0
LINE
  5
28BD
330
2
100
AcDbEntity
  8
0
100
AcDbLine
 10
264.4054998541598
 20
334.9111281906012
 30
0.0
 11
264.4054998541598
 21
332.4821271906011
 31
0.0
  0
LINE
  5
28BE
330
2
100
AcDbEntity
  8
0
100
AcDbLine
 10
259.4054998541598
 20
333.4821271906012
 30
0.0
 11
261.4054998541598
 21
333.4821271906012
 31
0.0
  0
LINE
  5
28BF
330
2
100
AcDbEntity
  8
0
100
AcDbLine
 10
261.4054998541598
 20
334.4821271906011
 30
0.0
 11
264.4054998541598
 21
334.4821271906011
 31
0.0
  0
LINE
  5
28C0
330
2
100
AcDbEntity
  8
0
100
AcDbLine
 10
261.4054998541598
 20
350.4821271906012
 30
0.0
 11
261.4054998541598
 21
333.4821271906012
 31
0.0
  0
LINE
  5
28C1
330
2
100
AcDbEntity
  8
0
100
AcDbLine
 10
258.4054998541598
 20
321.9821271906011
 30
0.0
 11
255.4054998541598
 21
321.9821271906011
 31
0.0
  0
ARC
  5
28C2
330
2
100
AcDbEntity
  8
0
100
AcDbCircle
 10
258.4054998541598
 20
322.9821271906012
 30
0.0
 40
1.0
100
AcDbArc
 50
270.0
 51
0.0
  0
LINE
  5
28C3
330
2
100
AcDbEntity
  8
0
100
AcDbLine
 10
264.4054998541598
 20
334.9111281906012
 30
0.0
 11
288.4054998541598
 21
334.9111281906012
 31
0.0
  0
LINE
  5
28C4
330
2
100
AcDbEntity
  8
0
100
AcDbLine
 10
264.4054998541598
 20
332.4821271906011
 30
0.0
 11
288.4054998541598
 21
332.4821271906011
 31
0.0
  0
LINE
  5
28C5
330
2
100
AcDbEntity
  8
0
100
AcDbLine
 10
261.4054998541598
 20
349.4821271906012
 30
0.0
 11
288.4054998541598
 21
349.4821271906012
 31
0.0
  0
ARC
  5
28C6
330
2
100
AcDbEntity
  8
0
100
AcDbCircle
 10
252.4054998541599
 20
390.9821271906011
 30
0.0
 40
3.0
100
AcDbArc
 50
0.0
 51
90.0
  0
LINE
  5
28C7
330
2
100
AcDbEntity
  8
0
100
AcDbLine
 10
258.4054998541598
 20
361.9821271906012
 30
0.0
 11
255.4054998541598
 21
361.9821271906012
 31
0.0
  0
ARC
  5
28C8
330
2
100
AcDbEntity
  8
0
100
AcDbCircle
 10
258.4054998541598
 20
360.9821271906012
 30
0.0
 40
1.0
100
AcDbArc
 50
0.0
 51
90.0
  0
LINE
  5
28C9
330
2
100
AcDbEntity
  8
0
100
AcDbLine
 10
433.3872255502983
 20
189.6846887633505
 30
0.0
 11
433.3872255502986
 21
178.1846887633505
 31
0.0
  0
LINE
  5
28CA
330
2
100
AcDbEntity
  8
0
100
AcDbLine
 10
440.9584875931845
 20
186.684688763351
 30
0.0
 11
440.9584875931845
 21
178.1846887633505
 31
0.0
  0
LINE
  5
28CB
330
2
100
AcDbEntity
  8
0
100
AcDbLine
 10
440.3872255502983
 20
189.6846887633505
 30
0.0
 11
440.3872255502985
 21
178.1846887633505
 31
0.0
  0
LINE
  5
28CC
330
2
100
AcDbEntity
  8
0
100
AcDbLine
 10
440.3872255502985
 20
178.1846887633505
 30
0.0
 11
455.3872255502986
 21
178.1846887633505
 31
0.0
  0
ARC
  5
28CD
330
2
100
AcDbEntity
  8
0
100
AcDbCircle
 10
442.3872255502987
 20
189.6846887633505
 30
0.0
 40
2.0
100
AcDbArc
 50
90.0
 51
180.0
  0
LINE
  5
28CE
330
2
100
AcDbEntity
  8
0
100
AcDbLine
 10
440.9584875931848
 20
186.6846887633505
 30
0.0
 11
440.3872255502983
 21
186.684688763351
 31
0.0
  0
LINE
  5
28CF
330
2
100
AcDbEntity
  8
0
100
AcDbLine
 10
444.1372255502983
 20
187.1846887633505
 30
0.0
 11
440.9584875931848
 21
186.6846887633505
 31
0.0
  0
ARC
  5
28D0
330
2
100
AcDbEntity
  8
0
100
AcDbCircle
 10
453.3872255502984
 20
189.684688763351
 30
0.0
 40
2.0
100
AcDbArc
 50
0.0
 51
90.0
  0
LINE
  5
28D1
330
2
100
AcDbEntity
  8
0
100
AcDbLine
 10
454.8159635074125
 20
186.6846887633505
 30
0.0
 11
455.3872255502983
 21
186.6846887633505
 31
0.0
  0
LINE
  5
28D2
330
2
100
AcDbEntity
  8
0
100
AcDbLine
 10
448.6518904094716
 20
186.684688763351
 30
0.0
 11
448.6518904094719
 21
178.1846887633505
 31
0.0
  0
LINE
  5
28D3
330
2
100
AcDbEntity
  8
0
100
AcDbLine
 10
447.1225606911257
 20
186.6846887633505
 30
0.0
 11
447.1225606911259
 21
178.1846887633505
 31
0.0
  0
LINE
  5
28D4
330
2
100
AcDbEntity
  8
0
100
AcDbLine
 10
448.6518904094716
 20
186.6846887633505
 30
0.0
 11
451.637225550299
 21
187.1846887633505
 31
0.0
  0
LINE
  5
28D5
330
2
100
AcDbEntity
  8
0
100
AcDbLine
 10
448.6518904094716
 20
186.6846887633505
 30
0.0
 11
447.1225606911257
 21
186.6846887633505
 31
0.0
  0
LINE
  5
28D6
330
2
100
AcDbEntity
  8
0
100
AcDbLine
 10
455.3872255502983
 20
189.6846887633505
 30
0.0
 11
455.3872255502986
 21
178.1846887633505
 31
0.0
  0
LINE
  5
28D7
330
2
100
AcDbEntity
  8
0
100
AcDbLine
 10
454.8159635074125
 20
186.6846887633505
 30
0.0
 11
454.8159635074127
 21
178.1846887633505
 31
0.0
  0
LINE
  5
28D8
330
2
100
AcDbEntity
  8
0
100
AcDbLine
 10
451.637225550299
 20
187.1846887633505
 30
0.0
 11
454.8159635074125
 21
186.6846887633505
 31
0.0
  0
LINE
  5
28D9
330
2
100
AcDbEntity
  8
0
100
AcDbLine
 10
442.3872255502987
 20
191.6846887633505
 30
0.0
 11
453.3872255502988
 21
191.6846887633505
 31
0.0
  0
LINE
  5
28DA
330
2
100
AcDbEntity
  8
0
100
AcDbLine
 10
440.3872255502983
 20
187.1846887633505
 30
0.0
 11
455.3872255502983
 21
187.1846887633505
 31
0.0
  0
LINE
  5
28DB
330
2
100
AcDbEntity
  8
0
100
AcDbLine
 10
444.1372255502983
 20
187.1846887633505
 30
0.0
 11
447.1225606911253
 21
186.684688763351
 31
0.0
  0
LINE
  5
28DC
330
2
100
AcDbEntity
  8
0
100
AcDbLine
 10
450.8871935502987
 20
191.6846887633505
 30
0.0
 11
450.8871935502987
 21
215.7144051976365
 31
0.0
  0
SPLINE
  5
28DD
330
2
100
AcDbEntity
  8
HOJO
100
AcDbSpline
210
0.0
220
0.0
230
1.0
 70
     8
 71
     3
 72
    10
 73
     6
 74
     4
 42
0.0000000001
 43
0.0000000001
 44
0.0000000001
 40
0.0
 40
0.0
 40
0.0
 40
0.0
 40
3.077502202276136
 40
5.757721662027301
 40
7.055540263984264
 40
7.055540263984264
 40
7.055540263984264
 40
7.055540263984264
 10
444.8872468741631
 20
215.7144595498102
 30
0.0
 10
445.8940158308418
 20
214.8795816956679
 30
0.0
 10
447.7775873279599
 20
213.3176025352998
 30
0.0
 10
449.2343737921695
 20
216.8787722201752
 30
0.0
 10
450.4806130905687
 20
216.0008301855941
 30
0.0
 10
450.8871935502987
 20
215.7144051976365
 30
0.0
 11
444.8872468741631
 21
215.7144595498102
 31
0.0
 11
447.7090701646477
 21
214.4863174072661
 31
0.0
 11
449.7126745853385
 21
216.2665268550044
 31
0.0
 11
450.8871935502987
 21
215.7144051976365
 31
0.0
  0
LINE
  5
28DE
330
2
100
AcDbEntity
  8
0
100
AcDbLine
 10
444.8872468741631
 20
215.7144595498102
 30
0.0
 11
444.88726738643
 21
191.6846887633505
 31
0.0
  0
TEXT
  5
2AB2
330
2
100
AcDbEntity
  8
TITLE
100
AcDbText
 10
439.5628556313377
 20
331.2899111375045
 30
0.0
 40
6.0
  1
L
100
AcDbText
  0
TEXT
  5
2AB3
330
2
100
AcDbEntity
  8
TITLE
100
AcDbText
 10
439.5628556313377
 20
339.9750571335634
 30
0.0
 40
6.0
  1
N
100
AcDbText
  0
ENDSEC
  0
SECTION
  2
OBJECTS
  0
DICTIONARY
  5
7
330
0
100
AcDbDictionary
  3
ACAD_GROUP
350
75
  3
ACAD_LAYOUT
350
61
  3
ACAD_MLINESTYLE
350
76
  3
ACAD_PLOTSETTINGS
350
77
  3
ACAD_PLOTSTYLENAME
350
6
  3
ACADDIM
350
480
  3
ACDBHEADERROUNDTRIPXREC
350
2B26
  3
ACDBVARIABLEDICTIONARY
350
102
  3
DWGPROPS
350
3D2
  0
DICTIONARY
  5
8D5
330
66
100
AcDbDictionary
280
     1
  3
ACAD_LAYERSTATES
360
8D6
  0
DICTIONARY
  5
2B47
330
2
100
AcDbDictionary
280
     1
  3
ACAD_LAYOUTSELFREF
360
2B48
  0
DICTIONARY
  5
2B49
330
2B20
100
AcDbDictionary
280
     1
  3
ACAD_LAYOUTSELFREF
360
2B4A
  0
DICTIONARY
  5
75
102
{ACAD_REACTORS
330
7
102
}
330
7
100
AcDbDictionary
  0
DICTIONARY
  5
61
102
{ACAD_REACTORS
330
7
102
}
330
7
100
AcDbDictionary
  0
DICTIONARY
  5
76
102
{ACAD_REACTORS
330
7
102
}
330
7
100
AcDbDictionary
  3
STANDARD
350
78
  0
DICTIONARY
  5
77
102
{ACAD_REACTORS
330
7
102
}
330
7
100
AcDbDictionary
  0
ACDBDICTIONARYWDFLT
  5
6
102
{ACAD_REACTORS
330
7
102
}
330
7
100
AcDbDictionary
281
     1
  3
Normal
350
5
100
AcDbDictionaryWithDefault
340
5
  0
XRECORD
  5
480
102
{ACAD_REACTORS
330
7
102
}
330
7
100
AcDbXrecord
 90
   990106
  3

 60
     0
 61
     0
 62
     1
 63
     3
 64
     1
 65
     0
 66
     0
 67
     3
 68
     1
 69
     0
 70
     0
 71
     0
 72
     0
 40
0.0
170
     2
340
0
  0
DICTIONARY
  5
2B26
102
{ACAD_REACTORS
330
7
102
}
330
7
100
AcDbDictionary
  3
CEPSNTYPE
350
2B30
  3
DIMSTYLEDATA
350
2B34
  3
FINGERPRINTGUID
350
2B31
  3
HYPERLINKBASE
350
2B29
  3
INSUNITS
350
2B2F
  3
LAYOUTDICT
350
2B2B
  3
LWETCUNION
350
2B2E
  3
PLOTSETDICT
350
2B2C
  3
PLOTSTYLNAMDICT
350
2B2D
  3
PSVPSCALE
350
2B33
  3
PUCSBASE
350
2B37
  3
PUCSORGBACK
350
2B3D
  3
PUCSORGBOTTOM
350
2B39
  3
PUCSORGFRONT
350
2B3C
  3
PUCSORGLEFT
350
2B3A
  3
PUCSORGRIGHT
350
2B3B
  3
PUCSORGTOP
350
2B38
  3
PUCSORTHOREF
350
2B35
  3
PUCSORTHOVIEW
350
2B36
  3
STYLESHEET
350
2B2A
  3
TSTACKALIGN
350
2B27
  3
TSTACKSIZE
350
2B28
  3
UCSBASE
350
2B40
  3
UCSORGBACK
350
2B46
  3
UCSORGBOTTOM
350
2B42
  3
UCSORGFRONT
350
2B45
  3
UCSORGLEFT
350
2B43
  3
UCSORGRIGHT
350
2B44
  3
UCSORGTOP
350
2B41
  3
UCSORTHOREF
350
2B3E
  3
UCSORTHOVIEW
350
2B3F
  3
VERSIONGUID
350
2B32
  0
DICTIONARY
  5
102
102
{ACAD_REACTORS
330
7
102
}
330
7
100
AcDbDictionary
  3
DIMASSOC
350
103
  3
SORTENTS
350
549
  0
XRECORD
  5
3D2
102
{ACAD_REACTORS
330
7
102
}
330
7
100
AcDbXrecord
  1
DWGPROPS COOKIE
  2

  3

  4

  6

  7

  8

  9

300
=
301
=
302
=
303
=
304
=
305
=
306
=
307
=
308
=
309
=
 40
0.5353330671296296
 41
2452052.431989363
 42
2453406.550756377
  1

 90
        0
  0
DICTIONARY
  5
8D6
102
{ACAD_REACTORS
330
8D5
102
}
330
8D5
100
AcDbDictionary
  0
XRECORD
  5
2B48
102
{ACAD_REACTORS
330
2B47
102
}
330
2B47
100
AcDbXrecord
340
2
  0
XRECORD
  5
2B4A
102
{ACAD_REACTORS
330
2B49
102
}
330
2B49
100
AcDbXrecord
340
2B20
  0
MLINESTYLE
  5
78
102
{ACAD_REACTORS
330
76
102
}
330
76
100
AcDbMlineStyle
  2
STANDARD
 70
     0
  3

 62
     0
 51
90.0
 52
90.0
 71
     2
 49
0.5
 62
   256
  6
BYLAYER
 49
-0.5
 62
   256
  6
BYLAYER
  0
ACDBPLACEHOLDER
  5
5
102
{ACAD_REACTORS
330
6
102
}
330
6
100
AcDbPlaceHolder
280
     0
  0
XRECORD
  5
2B30
102
{ACAD_REACTORS
330
2B26
102
}
330
2B26
100
AcDbXrecord
 90
        0
  0
XRECORD
  5
2B34
102
{ACAD_REACTORS
330
2B26
102
}
330
2B26
100
AcDbXrecord
1000
DSTYLE
1002
{
1070
   179
 70
     2
1070
   277
 70
     6
1002
}
  0
XRECORD
  5
2B31
102
{ACAD_REACTORS
330
2B26
102
}
330
2B26
100
AcDbXrecord
  1
{6385560B-F4B1-4644-A7C2-A3E32AC3D232}
  0
XRECORD
  5
2B29
102
{ACAD_REACTORS
330
2B26
102
}
330
2B26
100
AcDbXrecord
  1

  0
XRECORD
  5
2B2F
102
{ACAD_REACTORS
330
2B26
102
}
330
2B26
100
AcDbXrecord
 90
        0
  0
XRECORD
  5
2B2B
102
{ACAD_REACTORS
330
2B26
102
}
330
2B26
100
AcDbXrecord
340
61
  0
XRECORD
  5
2B2E
102
{ACAD_REACTORS
330
2B26
102
}
330
2B26
100
AcDbXrecord
 90
    10781
  0
XRECORD
  5
2B2C
102
{ACAD_REACTORS
330
2B26
102
}
330
2B26
100
AcDbXrecord
340
77
  0
XRECORD
  5
2B2D
102
{ACAD_REACTORS
330
2B26
102
}
330
2B26
100
AcDbXrecord
340
6
  0
XRECORD
  5
2B33
102
{ACAD_REACTORS
330
2B26
102
}
330
2B26
100
AcDbXrecord
 40
0.0
  0
XRECORD
  5
2B37
102
{ACAD_REACTORS
330
2B26
102
}
330
2B26
100
AcDbXrecord
340
0
  0
XRECORD
  5
2B3D
102
{ACAD_REACTORS
330
2B26
102
}
330
2B26
100
AcDbXrecord
 10
0.0
 20
0.0
 30
0.0
  0
XRECORD
  5
2B39
102
{ACAD_REACTORS
330
2B26
102
}
330
2B26
100
AcDbXrecord
 10
0.0
 20
0.0
 30
0.0
  0
XRECORD
  5
2B3C
102
{ACAD_REACTORS
330
2B26
102
}
330
2B26
100
AcDbXrecord
 10
0.0
 20
0.0
 30
0.0
  0
XRECORD
  5
2B3A
102
{ACAD_REACTORS
330
2B26
102
}
330
2B26
100
AcDbXrecord
 10
0.0
 20
0.0
 30
0.0
  0
XRECORD
  5
2B3B
102
{ACAD_REACTORS
330
2B26
102
}
330
2B26
100
AcDbXrecord
 10
0.0
 20
0.0
 30
0.0
  0
XRECORD
  5
2B38
102
{ACAD_REACTORS
330
2B26
102
}
330
2B26
100
AcDbXrecord
 10
0.0
 20
0.0
 30
0.0
  0
XRECORD
  5
2B35
102
{ACAD_REACTORS
330
2B26
102
}
330
2B26
100
AcDbXrecord
340
0
  0
XRECORD
  5
2B36
102
{ACAD_REACTORS
330
2B26
102
}
330
2B26
100
AcDbXrecord
 70
     0
  0
XRECORD
  5
2B2A
102
{ACAD_REACTORS
330
2B26
102
}
330
2B26
100
AcDbXrecord
  1
Sekkei.ctb
  0
XRECORD
  5
2B27
102
{ACAD_REACTORS
330
2B26
102
}
330
2B26
100
AcDbXrecord
 90
        1
  0
XRECORD
  5
2B28
102
{ACAD_REACTORS
330
2B26
102
}
330
2B26
100
AcDbXrecord
 90
       70
  0
XRECORD
  5
2B40
102
{ACAD_REACTORS
330
2B26
102
}
330
2B26
100
AcDbXrecord
340
0
  0
XRECORD
  5
2B46
102
{ACAD_REACTORS
330
2B26
102
}
330
2B26
100
AcDbXrecord
 10
0.0
 20
0.0
 30
0.0
  0
XRECORD
  5
2B42
102
{ACAD_REACTORS
330
2B26
102
}
330
2B26
100
AcDbXrecord
 10
0.0
 20
0.0
 30
0.0
  0
XRECORD
  5
2B45
102
{ACAD_REACTORS
330
2B26
102
}
330
2B26
100
AcDbXrecord
 10
0.0
 20
0.0
 30
0.0
  0
XRECORD
  5
2B43
102
{ACAD_REACTORS
330
2B26
102
}
330
2B26
100
AcDbXrecord
 10
0.0
 20
0.0
 30
0.0
  0
XRECORD
  5
2B44
102
{ACAD_REACTORS
330
2B26
102
}
330
2B26
100
AcDbXrecord
 10
0.0
 20
0.0
 30
0.0
  0
XRECORD
  5
2B41
102
{ACAD_REACTORS
330
2B26
102
}
330
2B26
100
AcDbXrecord
 10
0.0
 20
0.0
 30
0.0
  0
XRECORD
  5
2B3E
102
{ACAD_REACTORS
330
2B26
102
}
330
2B26
100
AcDbXrecord
340
0
  0
XRECORD
  5
2B3F
102
{ACAD_REACTORS
330
2B26
102
}
330
2B26
100
AcDbXrecord
 70
     0
  0
XRECORD
  5
2B32
102
{ACAD_REACTORS
330
2B26
102
}
330
2B26
100
AcDbXrecord
  1
{58230A30-3EE5-4A2D-A1FA-A988FCD396E5}
  0
DICTIONARYVAR
  5
103
102
{ACAD_REACTORS
330
102
102
}
330
102
100
DictionaryVariables
280
     0
  1
1
  0
DICTIONARYVAR
  5
549
102
{ACAD_REACTORS
330
102
102
}
330
102
100
DictionaryVariables
280
     0
  1
96
  0
ENDSEC
  0
EOF
