  0
SECTION
  2
HEADER
  9
$ACADVER
  1
AC1015
  9
$ACADMAINTVER
 70
    20
  9
$DWGCODEPAGE
  3
ANSI_932
  9
$INSBASE
 10
0.0
 20
0.0
 30
0.0
  9
$EXTMIN
 10
20.9814223136
 20
-46.3550318193
 30
0.0
  9
$EXTMAX
 10
775.7352824792
 20
393.7534834837
 30
0.0
  9
$LIMMIN
 10
0.0
 20
0.0
  9
$LIMMAX
 10
297.0
 20
210.0
  9
$ORTHOMODE
 70
     0
  9
$REGENMODE
 70
     1
  9
$FILLMODE
 70
     1
  9
$QTEXTMODE
 70
     0
  9
$MIRRTEXT
 70
     0
  9
$LTSCALE
 40
2.0
  9
$ATTMODE
 70
     1
  9
$TEXTSIZE
 40
2.0
  9
$TRACEWID
 40
1.0
  9
$TEXTSTYLE
  7
STANDARD
  9
$CLAYER
  8
0
  9
$CELTYPE
  6
BYLAYER
  9
$CECOLOR
 62
   256
  9
$CELTSCALE
 40
1.0
  9
$DISPSILH
 70
     0
  9
$DIMSCALE
 40
2.0
  9
$DIMASZ
 40
1.8
  9
$DIMEXO
 40
0.625
  9
$DIMDLI
 40
3.75
  9
$DIMRND
 40
0.0
  9
$DIMDLE
 40
0.0
  9
$DIMEXE
 40
0.8
  9
$DIMTP
 40
0.0
  9
$DIMTM
 40
0.0
  9
$DIMTXT
 40
1.8
  9
$DIMCEN
 40
2.5
  9
$DIMTSZ
 40
0.0
  9
$DIMTOL
 70
     0
  9
$DIMLIM
 70
     0
  9
$DIMTIH
 70
     0
  9
$DIMTOH
 70
     0
  9
$DIMSE1
 70
     0
  9
$DIMSE2
 70
     0
  9
$DIMTAD
 70
     1
  9
$DIMZIN
 70
     8
  9
$DIMBLK
  1

  9
$DIMASO
 70
     1
  9
$DIMSHO
 70
     1
  9
$DIMPOST
  1

  9
$DIMAPOST
  1

  9
$DIMALT
 70
     0
  9
$DIMALTD
 70
     4
  9
$DIMALTF
 40
0.0394
  9
$DIMLFAC
 40
1.0
  9
$DIMTOFL
 70
     1
  9
$DIMTVP
 40
0.0
  9
$DIMTIX
 70
     0
  9
$DIMSOXD
 70
     0
  9
$DIMSAH
 70
     0
  9
$DIMBLK1
  1

  9
$DIMBLK2
  1

  9
$DIMSTYLE
  2
STANDARD
  9
$DIMCLRD
 70
     0
  9
$DIMCLRE
 70
     0
  9
$DIMCLRT
 70
     0
  9
$DIMTFAC
 40
1.0
  9
$DIMGAP
 40
0.75
  9
$DIMJUST
 70
     0
  9
$DIMSD1
 70
     0
  9
$DIMSD2
 70
     0
  9
$DIMTOLJ
 70
     1
  9
$DIMTZIN
 70
     0
  9
$DIMALTZ
 70
     0
  9
$DIMALTTZ
 70
     0
  9
$DIMUPT
 70
     0
  9
$DIMDEC
 70
     2
  9
$DIMTDEC
 70
     2
  9
$DIMALTU
 70
     8
  9
$DIMALTTD
 70
     4
  9
$DIMTXSTY
  7
STANDARD
  9
$DIMAUNIT
 70
     0
  9
$DIMADEC
 70
     2
  9
$DIMALTRND
 40
0.0
  9
$DIMAZIN
 70
     0
  9
$DIMDSEP
 70
    46
  9
$DIMATFIT
 70
     3
  9
$DIMFRAC
 70
     0
  9
$DIMLDRBLK
  1

  9
$DIMLUNIT
 70
     6
  9
$DIMLWD
 70
    -2
  9
$DIMLWE
 70
    -2
  9
$DIMTMOVE
 70
     0
  9
$LUNITS
 70
     2
  9
$LUPREC
 70
     3
  9
$SKETCHINC
 40
1.0
  9
$FILLETRAD
 40
10.0
  9
$AUNITS
 70
     0
  9
$AUPREC
 70
     2
  9
$MENU
  1
.
  9
$ELEVATION
 40
0.0
  9
$PELEVATION
 40
0.0
  9
$THICKNESS
 40
0.0
  9
$LIMCHECK
 70
     0
  9
$CHAMFERA
 40
0.0
  9
$CHAMFERB
 40
0.0
  9
$CHAMFERC
 40
20.0
  9
$CHAMFERD
 40
0.0
  9
$SKPOLY
 70
     0
  9
$TDCREATE
 40
2453557.740706019
  9
$TDUCREATE
 40
2453557.365709630
  9
$TDUPDATE
 40
2460164.362337963
  9
$TDUUPDATE
 40
2460163.987337963
  9
$TDINDWG
 40
0.5699107407
  9
$TDUSRTIMER
 40
0.5699107407
  9
$USRTIMER
 70
     1
  9
$ANGBASE
 50
0.0
  9
$ANGDIR
 70
     0
  9
$PDMODE
 70
     0
  9
$PDSIZE
 40
-10.0
  9
$PLINEWID
 40
0.0
  9
$SPLFRAME
 70
     0
  9
$SPLINETYPE
 70
     6
  9
$SPLINESEGS
 70
     8
  9
$HANDSEED
  5
3C68
  9
$SURFTAB1
 70
     6
  9
$SURFTAB2
 70
     6
  9
$SURFTYPE
 70
     6
  9
$SURFU
 70
     6
  9
$SURFV
 70
     6
  9
$UCSBASE
  2

  9
$UCSNAME
  2

  9
$UCSORG
 10
0.0
 20
0.0
 30
0.0
  9
$UCSXDIR
 10
1.0
 20
0.0
 30
0.0
  9
$UCSYDIR
 10
0.0
 20
1.0
 30
0.0
  9
$UCSORTHOREF
  2

  9
$UCSORTHOVIEW
 70
     0
  9
$UCSORGTOP
 10
0.0
 20
0.0
 30
0.0
  9
$UCSORGBOTTOM
 10
0.0
 20
0.0
 30
0.0
  9
$UCSORGLEFT
 10
0.0
 20
0.0
 30
0.0
  9
$UCSORGRIGHT
 10
0.0
 20
0.0
 30
0.0
  9
$UCSORGFRONT
 10
0.0
 20
0.0
 30
0.0
  9
$UCSORGBACK
 10
0.0
 20
0.0
 30
0.0
  9
$PUCSBASE
  2

  9
$PUCSNAME
  2

  9
$PUCSORG
 10
0.0
 20
0.0
 30
0.0
  9
$PUCSXDIR
 10
1.0
 20
0.0
 30
0.0
  9
$PUCSYDIR
 10
0.0
 20
1.0
 30
0.0
  9
$PUCSORTHOREF
  2

  9
$PUCSORTHOVIEW
 70
     0
  9
$PUCSORGTOP
 10
0.0
 20
0.0
 30
0.0
  9
$PUCSORGBOTTOM
 10
0.0
 20
0.0
 30
0.0
  9
$PUCSORGLEFT
 10
0.0
 20
0.0
 30
0.0
  9
$PUCSORGRIGHT
 10
0.0
 20
0.0
 30
0.0
  9
$PUCSORGFRONT
 10
0.0
 20
0.0
 30
0.0
  9
$PUCSORGBACK
 10
0.0
 20
0.0
 30
0.0
  9
$USERI1
 70
     0
  9
$USERI2
 70
     0
  9
$USERI3
 70
     0
  9
$USERI4
 70
     0
  9
$USERI5
 70
     0
  9
$USERR1
 40
0.0
  9
$USERR2
 40
0.0
  9
$USERR3
 40
0.0
  9
$USERR4
 40
0.0
  9
$USERR5
 40
0.0
  9
$WORLDVIEW
 70
     1
  9
$SHADEDGE
 70
     3
  9
$SHADEDIF
 70
    70
  9
$TILEMODE
 70
     1
  9
$MAXACTVP
 70
    48
  9
$PINSBASE
 10
0.0
 20
0.0
 30
0.0
  9
$PLIMCHECK
 70
     0
  9
$PEXTMIN
 10
0.0
 20
0.0
 30
0.0
  9
$PEXTMAX
 10
0.0
 20
0.0
 30
0.0
  9
$PLIMMIN
 10
0.0
 20
0.0
  9
$PLIMMAX
 10
12.0
 20
9.0
  9
$UNITMODE
 70
     0
  9
$VISRETAIN
 70
     1
  9
$PLINEGEN
 70
     0
  9
$PSLTSCALE
 70
     1
  9
$TREEDEPTH
 70
  3020
  9
$CMLSTYLE
  2
STANDARD
  9
$CMLJUST
 70
     0
  9
$CMLSCALE
 40
1.0
  9
$PROXYGRAPHICS
 70
     1
  9
$MEASUREMENT
 70
     0
  9
$CELWEIGHT
370
    -1
  9
$ENDCAPS
280
     0
  9
$JOINSTYLE
280
     0
  9
$LWDISPLAY
290
     0
  9
$INSUNITS
 70
     0
  9
$HYPERLINKBASE
  1

  9
$STYLESHEET
  1
SEKKEI.CTB
  9
$XEDIT
290
     1
  9
$CEPSNTYPE
380
     0
  9
$PSTYLEMODE
290
     1
  9
$FINGERPRINTGUID
  2
{6385560B-F4B1-4644-A7C2-A3E32AC3D232}
  9
$VERSIONGUID
  2
{31806F90-BF7C-A749-8F4B-D12661CA36EB}
  9
$EXTNAMES
290
     1
  9
$PSVPSCALE
 40
0.0
  9
$OLESTARTUP
290
     0
  0
ENDSEC
  0
SECTION
  2
CLASSES
  0
CLASS
  1
DICTIONARYVAR
  2
AcDbDictionaryVar
  3
ObjectDBX Classes
 90
        0
280
     0
281
     0
  0
CLASS
  1
ACDBDICTIONARYWDFLT
  2
AcDbDictionaryWithDefault
  3
ObjectDBX Classes
 90
        0
280
     0
281
     0
  0
CLASS
  1
MATERIAL
  2
AcDbMaterial
  3
ObjectDBX Classes
 90
     1153
280
     0
281
     0
  0
CLASS
  1
VISUALSTYLE
  2
AcDbVisualStyle
  3
ObjectDBX Classes
 90
     4095
280
     0
281
     0
  0
CLASS
  1
TABLESTYLE
  2
AcDbTableStyle
  3
ObjectDBX Classes
 90
     4095
280
     0
281
     0
  0
CLASS
  1
SCALE
  2
AcDbScale
  3
ObjectDBX Classes
 90
     1153
280
     0
281
     0
  0
CLASS
  1
MLEADERSTYLE
  2
AcDbMLeaderStyle
  3
ACDB_MLEADERSTYLE_CLASS
 90
     4095
280
     0
281
     0
  0
CLASS
  1
CELLSTYLEMAP
  2
AcDbCellStyleMap
  3
ObjectDBX Classes
 90
     1152
280
     0
281
     0
  0
CLASS
  1
ACAD_EVALUATION_GRAPH
  2
AcDbEvalGraph
  3
ObjectDBX Classes
 90
    33921
280
     0
281
     0
  0
CLASS
  1
ACAECUSTOBJ
  2
AcAeEditorObj
  3
AcAeEditorObj
 90
    33792
280
     0
281
     0
  0
CLASS
  1
ACDB_DYNAMICBLOCKPURGEPREVENTER_VERSION
  2
AcDbDynamicBlockPurgePreventer
  3
ObjectDBX Classes
 90
    33921
280
     0
281
     0
  0
CLASS
  1
ACDBSECTIONVIEWSTYLE
  2
AcDbSectionViewStyle
  3
ObjectDBX Classes
 90
     1025
280
     0
281
     0
  0
CLASS
  1
ACDBDETAILVIEWSTYLE
  2
AcDbDetailViewStyle
  3
ObjectDBX Classes
 90
     1025
280
     0
281
     0
  0
CLASS
  1
SORTENTSTABLE
  2
AcDbSortentsTable
  3
ObjectDBX Classes
 90
    32768
280
     0
281
     0
  0
CLASS
  1
ACDBPLACEHOLDER
  2
AcDbPlaceHolder
  3
ObjectDBX Classes
 90
        0
280
     0
281
     0
  0
CLASS
  1
LAYOUT
  2
AcDbLayout
  3
ObjectDBX Classes
 90
        0
280
     0
281
     0
  0
ENDSEC
  0
SECTION
  2
TABLES
  0
TABLE
  2
VPORT
  5
6E
102
{ACAD_XDICTIONARY
360
2600
102
}
330
0
100
AcDbSymbolTable
 70
     1
  0
VPORT
  5
2367
330
6E
100
AcDbSymbolTableRecord
100
AcDbViewportTableRecord
  2
*Active
 70
     0
 10
0.0
 20
0.0
 11
1.0
 21
1.0
 12
498.1389463706
 22
192.3280805934
 13
0.0
 23
0.0
 14
10.0
 24
10.0
 15
10.0
 25
10.0
 16
0.0
 26
0.0
 36
1.0
 17
0.0
 27
0.0
 37
0.0
 40
447.0777104678
 41
1.4710526316
 42
50.0
 43
0.0
 44
0.0
 50
0.0
 51
0.0
 71
     0
 72
   100
 73
     1
 74
     3
 75
     0
 76
     0
 77
     0
 78
     0
281
     0
 65
     1
110
0.0
120
0.0
130
0.0
111
1.0
121
0.0
131
0.0
112
0.0
122
1.0
132
0.0
 79
     0
146
0.0
1001
ACAD_NAV_VCDISPLAY
1070
     3
  0
ENDTAB
  0
TABLE
  2
LTYPE
  5
69
330
0
100
AcDbSymbolTable
 70
     4
  0
LTYPE
  5
6A
330
69
100
AcDbSymbolTableRecord
100
AcDbLinetypeTableRecord
  2
BYBLOCK
 70
     0
  3

 72
    65
 73
     0
 40
0.0
  0
LTYPE
  5
6B
330
69
100
AcDbSymbolTableRecord
100
AcDbLinetypeTableRecord
  2
BYLAYER
 70
     0
  3

 72
    65
 73
     0
 40
0.0
  0
LTYPE
  5
8
330
69
100
AcDbSymbolTableRecord
100
AcDbLinetypeTableRecord
  2
CONTINUOUS
 70
     0
  3
Solid line
 72
    65
 73
     0
 40
0.0
  0
LTYPE
  5
27C
330
69
100
AcDbSymbolTableRecord
100
AcDbLinetypeTableRecord
  2
sekkei(A2)
 70
     0
  3
center(A2)  ____ _ ____ _ ____ _ ____ _ ____ _ 
 72
    65
 73
     4
 40
14.2875
 49
9.525
 74
     0
 49
-1.5875
 74
     0
 49
1.5875
 74
     0
 49
-1.5875
 74
     0
  0
LTYPE
  5
2B4
330
69
100
AcDbSymbolTableRecord
100
AcDbLinetypeTableRecord
  2
HIDDEN2
 70
     0
  3
Hidden (.5x) _ _ _ _ _ _ _ _ _ _ _ _ _ _ _ _ _
 72
    65
 73
     2
 40
4.7625
 49
3.175
 74
     0
 49
-1.5875
 74
     0
  0
LTYPE
  5
48F
330
69
100
AcDbSymbolTableRecord
100
AcDbLinetypeTableRecord
  2
sekkei_H
 70
     0
  3
Hidden-S _ _ _ _ _ _ _ _ _ _ _ _ _ _ _ _ _
 72
    65
 73
     2
 40
2.38125
 49
1.5875
 74
     0
 49
-0.79375
 74
     0
  0
ENDTAB
  0
TABLE
  2
LAYER
  5
66
102
{ACAD_XDICTIONARY
360
23C2
102
}
330
0
100
AcDbSymbolTable
 70
    10
  0
LAYER
  5
5E
102
{ACAD_XDICTIONARY
360
25E9
102
}
330
66
100
AcDbSymbolTableRecord
100
AcDbLayerTableRecord
  2
0
 70
     0
 62
     7
  6
CONTINUOUS
370
    -3
390
5
  0
LAYER
  5
3E
102
{ACAD_XDICTIONARY
360
25EB
102
}
330
66
100
AcDbSymbolTableRecord
100
AcDbLayerTableRecord
  2
CENTER
 70
     0
 62
     3
  6
sekkei(A2)
370
    -3
390
5
  0
LAYER
  5
135
330
66
100
AcDbSymbolTableRecord
100
AcDbLayerTableRecord
  2
DEFPOINTS
 70
     0
 62
     7
  6
CONTINUOUS
290
     0
370
    -3
390
5
  0
LAYER
  5
2B5
102
{ACAD_XDICTIONARY
360
25F1
102
}
330
66
100
AcDbSymbolTableRecord
100
AcDbLayerTableRecord
  2
HIDS
 70
     0
 62
     1
  6
HIDDEN2
370
    -3
390
5
  0
LAYER
  5
2BA
102
{ACAD_XDICTIONARY
360
25F3
102
}
330
66
100
AcDbSymbolTableRecord
100
AcDbLayerTableRecord
  2
HOJO
 70
     0
 62
     4
  6
CONTINUOUS
370
    -3
390
5
  0
LAYER
  5
3FA
102
{ACAD_XDICTIONARY
360
25F7
102
}
330
66
100
AcDbSymbolTableRecord
100
AcDbLayerTableRecord
  2
TITLE
 70
     0
 62
     4
  6
CONTINUOUS
290
     0
370
    -3
390
5
  0
LAYER
  5
23BF
102
{ACAD_XDICTIONARY
360
23C0
102
}
330
66
100
AcDbSymbolTableRecord
100
AcDbLayerTableRecord
  2
TITLE_C
 70
     0
 62
     4
  6
CONTINUOUS
370
    -3
390
5
1001
AcAecLayerStandard
1000

1000

  0
ENDTAB
  0
TABLE
  2
STYLE
  5
67
330
0
100
AcDbSymbolTable
 70
     1
  0
STYLE
  5
16
330
67
100
AcDbSymbolTableRecord
100
AcDbTextStyleTableRecord
  2
STANDARD
 70
     0
 40
0.0
 41
1.0
 50
0.0
 71
     0
 42
2.0
  3
simplex.shx
  4
extfont.shx
  0
ENDTAB
  0
TABLE
  2
VIEW
  5
6C
330
0
100
AcDbSymbolTable
 70
     0
  0
ENDTAB
  0
TABLE
  2
UCS
  5
6D
330
0
100
AcDbSymbolTable
 70
     0
  0
ENDTAB
  0
TABLE
  2
APPID
  5
70
330
0
100
AcDbSymbolTable
 70
    11
  0
APPID
  5
71
330
70
100
AcDbSymbolTableRecord
100
AcDbRegAppTableRecord
  2
ACAD
 70
     0
  0
APPID
  5
23C1
330
70
100
AcDbSymbolTableRecord
100
AcDbRegAppTableRecord
  2
AcAecLayerStandard
 70
     0
  0
APPID
  5
23E8
330
70
100
AcDbSymbolTableRecord
100
AcDbRegAppTableRecord
  2
ACAD_EXEMPT_FROM_CAD_STANDARDS
 70
     0
  0
APPID
  5
266F
330
70
100
AcDbSymbolTableRecord
100
AcDbRegAppTableRecord
  2
ACAD_MLEADERVER
 70
     0
  0
APPID
  5
30FA
330
70
100
AcDbSymbolTableRecord
100
AcDbRegAppTableRecord
  2
AcadAnnoAV
 70
     0
  0
APPID
  5
3120
330
70
100
AcDbSymbolTableRecord
100
AcDbRegAppTableRecord
  2
ACAUTHENVIRON
 70
     0
  0
APPID
  5
3124
330
70
100
AcDbSymbolTableRecord
100
AcDbRegAppTableRecord
  2
AcDbDynamicBlockTrueName
 70
     0
  0
APPID
  5
3125
330
70
100
AcDbSymbolTableRecord
100
AcDbRegAppTableRecord
  2
AcDbDynamicBlockGUID
 70
     0
  0
APPID
  5
3127
330
70
100
AcDbSymbolTableRecord
100
AcDbRegAppTableRecord
  2
AcDbBlockRepETag
 70
     0
  0
APPID
  5
35CE
330
70
100
AcDbSymbolTableRecord
100
AcDbRegAppTableRecord
  2
ACAD_NAV_VCDISPLAY
 70
     0
  0
APPID
  5
396D
330
70
100
AcDbSymbolTableRecord
100
AcDbRegAppTableRecord
  2
ACAD_DSTYLE_DIMRADIAL_EXTENSION
 70
     0
  0
ENDTAB
  0
TABLE
  2
DIMSTYLE
  5
72
330
0
100
AcDbSymbolTable
 70
     1
100
AcDbDimStyleTable
 71
     1
340
73
  0
DIMSTYLE
105
73
102
{ACAD_REACTORS
330
F2B
330
F2F
330
FAE
330
1007
102
}
330
72
100
AcDbSymbolTableRecord
100
AcDbDimStyleTableRecord
  2
STANDARD
 70
     0
 40
2.0
 41
1.8
 42
0.625
 43
3.75
 44
0.8
 73
     0
 74
     0
 77
     1
 78
     8
140
1.8
141
2.5
143
0.0394
147
0.75
171
     4
172
     1
179
     2
271
     2
272
     2
273
     8
274
     4
277
     6
340
16
  0
ENDTAB
  0
TABLE
  2
BLOCK_RECORD
  5
1
330
0
100
AcDbSymbolTable
 70
    62
  0
BLOCK_RECORD
  5
2
330
1
100
AcDbSymbolTableRecord
100
AcDbBlockTableRecord
  2
*MODEL_SPACE
340
60
  0
BLOCK_RECORD
  5
3BEF
330
1
100
AcDbSymbolTableRecord
100
AcDbBlockTableRecord
  2
*Paper_Space
340
3BF0
  0
BLOCK_RECORD
  5
4AC
330
1
100
AcDbSymbolTableRecord
100
AcDbBlockTableRecord
  2
黒丸矢印1
340
0
  0
BLOCK_RECORD
  5
111D
330
1
100
AcDbSymbolTableRecord
100
AcDbBlockTableRecord
  2
*D2
340
0
  0
BLOCK_RECORD
  5
1129
330
1
100
AcDbSymbolTableRecord
100
AcDbBlockTableRecord
  2
*D3
340
0
  0
BLOCK_RECORD
  5
1135
330
1
100
AcDbSymbolTableRecord
100
AcDbBlockTableRecord
  2
*D4
340
0
  0
BLOCK_RECORD
  5
1141
330
1
100
AcDbSymbolTableRecord
100
AcDbBlockTableRecord
  2
*D5
340
0
  0
BLOCK_RECORD
  5
114D
330
1
100
AcDbSymbolTableRecord
100
AcDbBlockTableRecord
  2
*D6
340
0
  0
BLOCK_RECORD
  5
1159
330
1
100
AcDbSymbolTableRecord
100
AcDbBlockTableRecord
  2
*D7
340
0
  0
BLOCK_RECORD
  5
1165
330
1
100
AcDbSymbolTableRecord
100
AcDbBlockTableRecord
  2
*D8
340
0
  0
BLOCK_RECORD
  5
1171
330
1
100
AcDbSymbolTableRecord
100
AcDbBlockTableRecord
  2
*D9
340
0
  0
BLOCK_RECORD
  5
117D
330
1
100
AcDbSymbolTableRecord
100
AcDbBlockTableRecord
  2
*D10
340
0
  0
BLOCK_RECORD
  5
1189
330
1
100
AcDbSymbolTableRecord
100
AcDbBlockTableRecord
  2
*D11
340
0
  0
BLOCK_RECORD
  5
1195
330
1
100
AcDbSymbolTableRecord
100
AcDbBlockTableRecord
  2
*D12
340
0
  0
BLOCK_RECORD
  5
11A1
330
1
100
AcDbSymbolTableRecord
100
AcDbBlockTableRecord
  2
*D13
340
0
  0
BLOCK_RECORD
  5
11AD
330
1
100
AcDbSymbolTableRecord
100
AcDbBlockTableRecord
  2
*D14
340
0
  0
BLOCK_RECORD
  5
11B9
330
1
100
AcDbSymbolTableRecord
100
AcDbBlockTableRecord
  2
*D15
340
0
  0
BLOCK_RECORD
  5
11C5
330
1
100
AcDbSymbolTableRecord
100
AcDbBlockTableRecord
  2
*D16
340
0
  0
BLOCK_RECORD
  5
11D1
330
1
100
AcDbSymbolTableRecord
100
AcDbBlockTableRecord
  2
*D17
340
0
  0
BLOCK_RECORD
  5
11DD
330
1
100
AcDbSymbolTableRecord
100
AcDbBlockTableRecord
  2
*D18
340
0
  0
BLOCK_RECORD
  5
11E9
330
1
100
AcDbSymbolTableRecord
100
AcDbBlockTableRecord
  2
*D19
340
0
  0
BLOCK_RECORD
  5
11F5
330
1
100
AcDbSymbolTableRecord
100
AcDbBlockTableRecord
  2
*D20
340
0
  0
BLOCK_RECORD
  5
1202
330
1
100
AcDbSymbolTableRecord
100
AcDbBlockTableRecord
  2
*D21
340
0
  0
BLOCK_RECORD
  5
120E
330
1
100
AcDbSymbolTableRecord
100
AcDbBlockTableRecord
  2
*D22
340
0
  0
BLOCK_RECORD
  5
121A
330
1
100
AcDbSymbolTableRecord
100
AcDbBlockTableRecord
  2
*D23
340
0
  0
BLOCK_RECORD
  5
1226
330
1
100
AcDbSymbolTableRecord
100
AcDbBlockTableRecord
  2
*D24
340
0
  0
BLOCK_RECORD
  5
1234
330
1
100
AcDbSymbolTableRecord
100
AcDbBlockTableRecord
  2
*D25
340
0
  0
BLOCK_RECORD
  5
1240
330
1
100
AcDbSymbolTableRecord
100
AcDbBlockTableRecord
  2
*D26
340
0
  0
BLOCK_RECORD
  5
124C
330
1
100
AcDbSymbolTableRecord
100
AcDbBlockTableRecord
  2
*D27
340
0
  0
BLOCK_RECORD
  5
1265
330
1
100
AcDbSymbolTableRecord
100
AcDbBlockTableRecord
  2
*D28
340
0
  0
BLOCK_RECORD
  5
22AD
330
1
100
AcDbSymbolTableRecord
100
AcDbBlockTableRecord
  2
*D32
340
0
  0
BLOCK_RECORD
  5
22B9
330
1
100
AcDbSymbolTableRecord
100
AcDbBlockTableRecord
  2
*D33
340
0
  0
BLOCK_RECORD
  5
22C6
330
1
100
AcDbSymbolTableRecord
100
AcDbBlockTableRecord
  2
*D34
340
0
  0
BLOCK_RECORD
  5
3948
330
1
100
AcDbSymbolTableRecord
100
AcDbBlockTableRecord
  2
*D60
340
0
  0
ENDTAB
  0
ENDSEC
  0
SECTION
  2
BLOCKS
  0
BLOCK
  5
5D
330
2
100
AcDbEntity
  8
0
100
AcDbBlockBegin
  2
*MODEL_SPACE
 70
     0
 10
0.0
 20
0.0
 30
0.0
  3
*MODEL_SPACE
  1

  0
ENDBLK
  5
5F
330
2
100
AcDbEntity
  8
0
100
AcDbBlockEnd
  0
BLOCK
  5
3BF1
330
3BEF
100
AcDbEntity
 67
     1
  8
0
100
AcDbBlockBegin
  2
*Paper_Space
 70
     0
 10
0.0
 20
0.0
 30
0.0
  3
*Paper_Space
  1

  0
ENDBLK
  5
3BF2
330
3BEF
100
AcDbEntity
 67
     1
  8
0
100
AcDbBlockEnd
  0
BLOCK
  5
4B0
330
4AC
100
AcDbEntity
  8
0
100
AcDbBlockBegin
  2
黒丸矢印1
 70
     0
 10
0.0
 20
0.0
 30
0.0
  3
黒丸矢印1
  1

  0
HATCH
  5
4AD
330
4AC
100
AcDbEntity
  8
0
100
AcDbHatch
 10
0.0
 20
0.0
 30
0.0
210
0.0
220
0.0
230
1.0
  2
SOLID
 70
     1
 71
     1
 91
        1
 92
        7
 72
     1
 73
     1
 93
        2
 10
-0.25
 20
0.0
 42
1.0
 10
0.25
 20
0.0
 42
1.0
 97
        1
330
4AE
 75
     0
 76
     1
 47
0.0031599728
 98
        1
 10
-0.0919668375711354
 20
0.0618998464179867
  0
CIRCLE
  5
4AE
102
{ACAD_REACTORS
330
4AD
102
}
330
4AC
100
AcDbEntity
  8
0
100
AcDbCircle
 10
0.0
 20
0.0
 30
0.0
 40
0.25
  0
LINE
  5
4AF
330
4AC
100
AcDbEntity
  8
0
100
AcDbLine
 10
0.0
 20
0.0
 30
0.0
 11
-1.0
 21
0.0
 31
0.0
  0
ENDBLK
  5
4B1
330
4AC
100
AcDbEntity
  8
0
100
AcDbBlockEnd
  0
BLOCK
  5
1127
330
111D
100
AcDbEntity
  8
0
100
AcDbBlockBegin
  2
*D2
 70
     1
 10
0.0
 20
0.0
 30
0.0
  3
*D2
  1

  0
POINT
  5
1A5D
330
111D
100
AcDbEntity
  8
DEFPOINTS
 62
     0
100
AcDbPoint
 10
362.8265968717
 20
103.0921295769
 30
0.0
  0
POINT
  5
1A5E
330
111D
100
AcDbEntity
  8
DEFPOINTS
 62
     0
100
AcDbPoint
 10
330.3265968717
 20
100.7990615769
 30
0.0
  0
POINT
  5
1A5F
330
111D
100
AcDbEntity
  8
DEFPOINTS
 62
     0
100
AcDbPoint
 10
330.3265968717
 20
70.8122228451
 30
0.0
  0
ENDBLK
  5
1128
330
111D
100
AcDbEntity
  8
0
100
AcDbBlockEnd
  0
BLOCK
  5
1133
330
1129
100
AcDbEntity
  8
0
100
AcDbBlockBegin
  2
*D3
 70
     1
 10
0.0
 20
0.0
 30
0.0
  3
*D3
  1

  0
POINT
  5
1A54
330
1129
100
AcDbEntity
  8
DEFPOINTS
 62
     0
100
AcDbPoint
 10
342.8265968717
 20
100.580872688
 30
0.0
  0
POINT
  5
1A55
330
1129
100
AcDbEntity
  8
DEFPOINTS
 62
     0
100
AcDbPoint
 10
362.8265968717
 20
103.0921295769
 30
0.0
  0
POINT
  5
1A56
330
1129
100
AcDbEntity
  8
DEFPOINTS
 62
     0
100
AcDbPoint
 10
362.8265968717
 20
82.6198799409
 30
0.0
  0
ENDBLK
  5
1134
330
1129
100
AcDbEntity
  8
0
100
AcDbBlockEnd
  0
BLOCK
  5
113F
330
1135
100
AcDbEntity
  8
0
100
AcDbBlockBegin
  2
*D4
 70
     1
 10
0.0
 20
0.0
 30
0.0
  3
*D4
  1

  0
POINT
  5
1A07
330
1135
100
AcDbEntity
  8
DEFPOINTS
 62
     0
100
AcDbPoint
 10
370.8265968717
 20
94.0513585769
 30
0.0
  0
POINT
  5
1A08
330
1135
100
AcDbEntity
  8
DEFPOINTS
 62
     0
100
AcDbPoint
 10
330.3265968717
 20
100.7990615769
 30
0.0
  0
POINT
  5
1A09
330
1135
100
AcDbEntity
  8
DEFPOINTS
 62
     0
100
AcDbPoint
 10
330.3265968717
 20
58.6794640593
 30
0.0
  0
ENDBLK
  5
1140
330
1135
100
AcDbEntity
  8
0
100
AcDbBlockEnd
  0
BLOCK
  5
114B
330
1141
100
AcDbEntity
  8
0
100
AcDbBlockBegin
  2
*D5
 70
     1
 10
0.0
 20
0.0
 30
0.0
  3
*D5
  1

  0
POINT
  5
1A19
330
1141
100
AcDbEntity
  8
DEFPOINTS
 62
     0
100
AcDbPoint
 10
330.3265968717
 20
100.7990615769
 30
0.0
  0
POINT
  5
1A1A
330
1141
100
AcDbEntity
  8
DEFPOINTS
 62
     0
100
AcDbPoint
 10
411.3265968717
 20
100.7990615769
 30
0.0
  0
POINT
  5
1A1B
330
1141
100
AcDbEntity
  8
DEFPOINTS
 62
     0
100
AcDbPoint
 10
411.3265968717
 20
46.7173968481
 30
0.0
  0
ENDBLK
  5
114C
330
1141
100
AcDbEntity
  8
0
100
AcDbBlockEnd
  0
BLOCK
  5
1157
330
114D
100
AcDbEntity
  8
0
100
AcDbBlockBegin
  2
*D6
 70
     1
 10
0.0
 20
0.0
 30
0.0
  3
*D6
  1

  0
POINT
  5
1A4B
330
114D
100
AcDbEntity
  8
DEFPOINTS
 62
     0
100
AcDbPoint
 10
342.8265968717
 20
100.5808685769
 30
0.0
  0
POINT
  5
1A4C
330
114D
100
AcDbEntity
  8
DEFPOINTS
 62
     0
100
AcDbPoint
 10
330.3265968717
 20
100.7990615769
 30
0.0
  0
POINT
  5
1A4D
330
114D
100
AcDbEntity
  8
DEFPOINTS
 62
     0
100
AcDbPoint
 10
330.3265968717
 20
82.6198799409
 30
0.0
  0
ENDBLK
  5
1158
330
114D
100
AcDbEntity
  8
0
100
AcDbBlockEnd
  0
BLOCK
  5
1163
330
1159
100
AcDbEntity
  8
0
100
AcDbBlockBegin
  2
*D7
 70
     1
 10
0.0
 20
0.0
 30
0.0
  3
*D7
  1

  0
POINT
  5
1A66
330
1159
100
AcDbEntity
  8
DEFPOINTS
 62
     0
100
AcDbPoint
 10
378.8265968717
 20
103.0921295769
 30
0.0
  0
POINT
  5
1A67
330
1159
100
AcDbEntity
  8
DEFPOINTS
 62
     0
100
AcDbPoint
 10
411.3265968717
 20
100.7990615769
 30
0.0
  0
POINT
  5
1A68
330
1159
100
AcDbEntity
  8
DEFPOINTS
 62
     0
100
AcDbPoint
 10
411.3265968717
 20
70.8122228451
 30
0.0
  0
ENDBLK
  5
1164
330
1159
100
AcDbEntity
  8
0
100
AcDbBlockEnd
  0
BLOCK
  5
116F
330
1165
100
AcDbEntity
  8
0
100
AcDbBlockBegin
  2
*D8
 70
     1
 10
0.0
 20
0.0
 30
0.0
  3
*D8
  1

  0
POINT
  5
1A10
330
1165
100
AcDbEntity
  8
DEFPOINTS
 62
     0
100
AcDbPoint
 10
370.8265968717
 20
94.0513585769
 30
0.0
  0
POINT
  5
1A11
330
1165
100
AcDbEntity
  8
DEFPOINTS
 62
     0
100
AcDbPoint
 10
411.3265968717
 20
100.7990615769
 30
0.0
  0
POINT
  5
1A12
330
1165
100
AcDbEntity
  8
DEFPOINTS
 62
     0
100
AcDbPoint
 10
411.3265968717
 20
58.6794640593
 30
0.0
  0
ENDBLK
  5
1170
330
1165
100
AcDbEntity
  8
0
100
AcDbBlockEnd
  0
BLOCK
  5
117B
330
1171
100
AcDbEntity
  8
0
100
AcDbBlockBegin
  2
*D9
 70
     1
 10
0.0
 20
0.0
 30
0.0
  3
*D9
  1

  0
POINT
  5
19EA
330
1171
100
AcDbEntity
  8
DEFPOINTS
 62
     0
100
AcDbPoint
 10
330.3265968717
 20
180.3851285769
 30
0.0
  0
POINT
  5
19EB
330
1171
100
AcDbEntity
  8
DEFPOINTS
 62
     0
100
AcDbPoint
 10
439.3265968717
 20
148.0921295769
 30
0.0
  0
POINT
  5
19EC
330
1171
100
AcDbEntity
  8
DEFPOINTS
 62
     0
100
AcDbPoint
 10
439.3265968717
 20
241.0918726654
 30
0.0
  0
ENDBLK
  5
117C
330
1171
100
AcDbEntity
  8
0
100
AcDbBlockEnd
  0
BLOCK
  5
1187
330
117D
100
AcDbEntity
  8
0
100
AcDbBlockBegin
  2
*D10
 70
     1
 10
0.0
 20
0.0
 30
0.0
  3
*D10
  1

  0
POINT
  5
2335
330
117D
100
AcDbEntity
  8
DEFPOINTS
 62
     0
100
AcDbPoint
 10
370.8265968717
 20
216.4796275769
 30
0.0
  0
POINT
  5
2336
330
117D
100
AcDbEntity
  8
DEFPOINTS
 62
     0
100
AcDbPoint
 10
439.3265968717
 20
148.0921295769
 30
0.0
  0
POINT
  5
2337
330
117D
100
AcDbEntity
  8
DEFPOINTS
 62
     0
100
AcDbPoint
 10
439.3265968717
 20
229.3717485616
 30
0.0
  0
ENDBLK
  5
1188
330
117D
100
AcDbEntity
  8
0
100
AcDbBlockEnd
  0
BLOCK
  5
1193
330
1189
100
AcDbEntity
  8
0
100
AcDbBlockBegin
  2
*D11
 70
     1
 10
0.0
 20
0.0
 30
0.0
  3
*D11
  1

  0
POINT
  5
19D8
330
1189
100
AcDbEntity
  8
DEFPOINTS
 62
     0
100
AcDbPoint
 10
412.3265968717
 20
148.4035305769
 30
0.0
  0
POINT
  5
19D9
330
1189
100
AcDbEntity
  8
DEFPOINTS
 62
     0
100
AcDbPoint
 10
439.3265968717
 20
148.0921295769
 30
0.0
  0
POINT
  5
19DA
330
1189
100
AcDbEntity
  8
DEFPOINTS
 62
     0
100
AcDbPoint
 10
439.3265968717
 20
217.3228901662
 30
0.0
  0
ENDBLK
  5
1194
330
1189
100
AcDbEntity
  8
0
100
AcDbBlockEnd
  0
BLOCK
  5
119F
330
1195
100
AcDbEntity
  8
0
100
AcDbBlockBegin
  2
*D12
 70
     1
 10
0.0
 20
0.0
 30
0.0
  3
*D12
  1

  0
POINT
  5
19CF
330
1195
100
AcDbEntity
  8
DEFPOINTS
 62
     0
100
AcDbPoint
 10
415.3265968717
 20
140.5921295769
 30
0.0
  0
POINT
  5
19D0
330
1195
100
AcDbEntity
  8
DEFPOINTS
 62
     0
100
AcDbPoint
 10
439.3265968717
 20
148.0921295769
 30
0.0
  0
POINT
  5
19D1
330
1195
100
AcDbEntity
  8
DEFPOINTS
 62
     0
100
AcDbPoint
 10
439.3265968717
 20
205.5796237367
 30
0.0
  0
ENDBLK
  5
11A0
330
1195
100
AcDbEntity
  8
0
100
AcDbBlockEnd
  0
BLOCK
  5
11AB
330
11A1
100
AcDbEntity
  8
0
100
AcDbBlockBegin
  2
*D13
 70
     1
 10
0.0
 20
0.0
 30
0.0
  3
*D13
  1

  0
POINT
  5
1A70
330
11A1
100
AcDbEntity
  8
DEFPOINTS
 62
     0
100
AcDbPoint
 10
439.3265968717
 20
133.0921295769
 30
0.0
  0
POINT
  5
1A71
330
11A1
100
AcDbEntity
  8
DEFPOINTS
 62
     0
100
AcDbPoint
 10
439.3265968717
 20
148.0921295769
 30
0.0
  0
POINT
  5
1A72
330
11A1
100
AcDbEntity
  8
DEFPOINTS
 62
     0
100
AcDbPoint
 10
455.3469007101
 20
148.0921295769
 30
0.0
  0
ENDBLK
  5
11AC
330
11A1
100
AcDbEntity
  8
0
100
AcDbBlockEnd
  0
BLOCK
  5
11B7
330
11AD
100
AcDbEntity
  8
0
100
AcDbBlockBegin
  2
*D14
 70
     1
 10
0.0
 20
0.0
 30
0.0
  3
*D14
  1

  0
POINT
  5
19F3
330
11AD
100
AcDbEntity
  8
DEFPOINTS
 62
     0
100
AcDbPoint
 10
751.5244222573
 20
180.5921295769
 30
0.0
  0
POINT
  5
19F4
330
11AD
100
AcDbEntity
  8
DEFPOINTS
 62
     0
100
AcDbPoint
 10
751.5244222573
 20
100.5921295769
 30
0.0
  0
POINT
  5
19F5
330
11AD
100
AcDbEntity
  8
DEFPOINTS
 62
     0
100
AcDbPoint
 10
774.1352824792
 20
100.5921295769
 30
0.0
  0
ENDBLK
  5
11B8
330
11AD
100
AcDbEntity
  8
0
100
AcDbBlockEnd
  0
BLOCK
  5
11C3
330
11B9
100
AcDbEntity
  8
0
100
AcDbBlockBegin
  2
*D15
 70
     1
 10
0.0
 20
0.0
 30
0.0
  3
*D15
  1

  0
POINT
  5
197D
330
11B9
100
AcDbEntity
  8
DEFPOINTS
 62
     0
100
AcDbPoint
 10
524.9689412573
 20
174.0921295769
 30
0.0
  0
POINT
  5
197E
330
11B9
100
AcDbEntity
  8
DEFPOINTS
 62
     0
100
AcDbPoint
 10
756.5244222573
 20
175.5921295769
 30
0.0
  0
POINT
  5
197F
330
11B9
100
AcDbEntity
  8
DEFPOINTS
 62
     0
100
AcDbPoint
 10
756.5244222573
 20
241.0918726654
 30
0.0
  0
ENDBLK
  5
11C4
330
11B9
100
AcDbEntity
  8
0
100
AcDbBlockEnd
  0
BLOCK
  5
11CF
330
11C5
100
AcDbEntity
  8
0
100
AcDbBlockBegin
  2
*D16
 70
     1
 10
0.0
 20
0.0
 30
0.0
  3
*D16
  1

  0
POINT
  5
1986
330
11C5
100
AcDbEntity
  8
DEFPOINTS
 62
     0
100
AcDbPoint
 10
563.9689412573
 20
170.6990025769
 30
0.0
  0
POINT
  5
1987
330
11C5
100
AcDbEntity
  8
DEFPOINTS
 62
     0
100
AcDbPoint
 10
524.9689412573
 20
174.0921295769
 30
0.0
  0
POINT
  5
1988
330
11C5
100
AcDbEntity
  8
DEFPOINTS
 62
     0
100
AcDbPoint
 10
524.9689412573
 20
217.2511650805
 30
0.0
  0
ENDBLK
  5
11D0
330
11C5
100
AcDbEntity
  8
0
100
AcDbBlockEnd
  0
BLOCK
  5
11DB
330
11D1
100
AcDbEntity
  8
0
100
AcDbBlockBegin
  2
*D17
 70
     1
 10
0.0
 20
0.0
 30
0.0
  3
*D17
  1

  0
POINT
  5
198F
330
11D1
100
AcDbEntity
  8
DEFPOINTS
 62
     0
100
AcDbPoint
 10
563.9689412573
 20
170.6990025769
 30
0.0
  0
POINT
  5
1990
330
11D1
100
AcDbEntity
  8
DEFPOINTS
 62
     0
100
AcDbPoint
 10
624.9689412573
 20
174.0921295769
 30
0.0
  0
POINT
  5
1991
330
11D1
100
AcDbEntity
  8
DEFPOINTS
 62
     0
100
AcDbPoint
 10
624.9689412573
 20
217.2511650805
 30
0.0
  0
ENDBLK
  5
11DC
330
11D1
100
AcDbEntity
  8
0
100
AcDbBlockEnd
  0
BLOCK
  5
11E7
330
11DD
100
AcDbEntity
  8
0
100
AcDbBlockBegin
  2
*D18
 70
     1
 10
0.0
 20
0.0
 30
0.0
  3
*D18
  1

  0
POINT
  5
1998
330
11DD
100
AcDbEntity
  8
DEFPOINTS
 62
     0
100
AcDbPoint
 10
624.9689412573
 20
174.0921295769
 30
0.0
  0
POINT
  5
1999
330
11DD
100
AcDbEntity
  8
DEFPOINTS
 62
     0
100
AcDbPoint
 10
524.9689412573
 20
174.0921295769
 30
0.0
  0
POINT
  5
199A
330
11DD
100
AcDbEntity
  8
DEFPOINTS
 62
     0
100
AcDbPoint
 10
524.9689412573
 20
229.3717485616
 30
0.0
  0
ENDBLK
  5
11E8
330
11DD
100
AcDbEntity
  8
0
100
AcDbBlockEnd
  0
BLOCK
  5
11F3
330
11E9
100
AcDbEntity
  8
0
100
AcDbBlockBegin
  2
*D19
 70
     1
 10
0.0
 20
0.0
 30
0.0
  3
*D19
  1

  0
POINT
  5
19B4
330
11E9
100
AcDbEntity
  8
DEFPOINTS
 62
     0
100
AcDbPoint
 10
563.9689412573
 20
170.6990025769
 30
0.0
  0
POINT
  5
19B5
330
11E9
100
AcDbEntity
  8
DEFPOINTS
 62
     0
100
AcDbPoint
 10
617.9689412573
 20
182.0707675769
 30
0.0
  0
POINT
  5
19B6
330
11E9
100
AcDbEntity
  8
DEFPOINTS
 62
     0
100
AcDbPoint
 10
617.9689412573
 20
205.202306685
 30
0.0
  0
ENDBLK
  5
11F4
330
11E9
100
AcDbEntity
  8
0
100
AcDbBlockEnd
  0
BLOCK
  5
1200
330
11F5
100
AcDbEntity
  8
0
100
AcDbBlockBegin
  2
*D20
 70
     1
 10
0.0
 20
0.0
 30
0.0
  3
*D20
  1

  0
POINT
  5
19A2
330
11F5
100
AcDbEntity
  8
DEFPOINTS
 62
     0
100
AcDbPoint
 10
554.4689412573
 20
143.0921295769
 30
0.0
  0
POINT
  5
19A3
330
11F5
100
AcDbEntity
  8
DEFPOINTS
 62
     0
100
AcDbPoint
 10
571.4689412573
 20
140.5921295769
 30
0.0
  0
POINT
  5
19A4
330
11F5
100
AcDbEntity
  8
DEFPOINTS
 62
     0
100
AcDbPoint
 10
571.4689412573
 20
193.4590402555
 30
0.0
  0
ENDBLK
  5
1201
330
11F5
100
AcDbEntity
  8
0
100
AcDbBlockEnd
  0
BLOCK
  5
120C
330
1202
100
AcDbEntity
  8
0
100
AcDbBlockBegin
  2
*D21
 70
     1
 10
0.0
 20
0.0
 30
0.0
  3
*D21
  1

  0
POINT
  5
19AB
330
1202
100
AcDbEntity
  8
DEFPOINTS
 62
     0
100
AcDbPoint
 10
563.9689412573
 20
170.6990025769
 30
0.0
  0
POINT
  5
19AC
330
1202
100
AcDbEntity
  8
DEFPOINTS
 62
     0
100
AcDbPoint
 10
531.9689412573
 20
182.0707675769
 30
0.0
  0
POINT
  5
19AD
330
1202
100
AcDbEntity
  8
DEFPOINTS
 62
     0
100
AcDbPoint
 10
531.9689412573
 20
205.202306685
 30
0.0
  0
ENDBLK
  5
120D
330
1202
100
AcDbEntity
  8
0
100
AcDbBlockEnd
  0
BLOCK
  5
1218
330
120E
100
AcDbEntity
  8
0
100
AcDbBlockBegin
  2
*D22
 70
     1
 10
0.0
 20
0.0
 30
0.0
  3
*D22
  1

  0
POINT
  5
1A2D
330
120E
100
AcDbEntity
  8
DEFPOINTS
 62
     0
100
AcDbPoint
 10
517.4281702573
 20
140.5921295769
 30
0.0
  0
POINT
  5
1A2E
330
120E
100
AcDbEntity
  8
DEFPOINTS
 62
     0
100
AcDbPoint
 10
523.9903032573
 20
107.0921295769
 30
0.0
  0
POINT
  5
1A2F
330
120E
100
AcDbEntity
  8
DEFPOINTS
 62
     0
100
AcDbPoint
 10
501.3835650867
 20
107.0921295769
 30
0.0
  0
ENDBLK
  5
1219
330
120E
100
AcDbEntity
  8
0
100
AcDbBlockEnd
  0
BLOCK
  5
1224
330
121A
100
AcDbEntity
  8
0
100
AcDbBlockBegin
  2
*D23
 70
     1
 10
0.0
 20
0.0
 30
0.0
  3
*D23
  1

  0
POINT
  5
1A36
330
121A
100
AcDbEntity
  8
DEFPOINTS
 62
     0
100
AcDbPoint
 10
517.4281702573
 20
140.5921295769
 30
0.0
  0
POINT
  5
1A37
330
121A
100
AcDbEntity
  8
DEFPOINTS
 62
     0
100
AcDbPoint
 10
531.9689412573
 20
100.0921295769
 30
0.0
  0
POINT
  5
1A38
330
121A
100
AcDbEntity
  8
DEFPOINTS
 62
     0
100
AcDbPoint
 10
489.4805507026
 20
100.0921295769
 30
0.0
  0
ENDBLK
  5
1225
330
121A
100
AcDbEntity
  8
0
100
AcDbBlockEnd
  0
BLOCK
  5
1232
330
1226
100
AcDbEntity
  8
0
100
AcDbBlockBegin
  2
*D24
 70
     1
 10
0.0
 20
0.0
 30
0.0
  3
*D24
  1

  0
POINT
  5
1A24
330
1226
100
AcDbEntity
  8
DEFPOINTS
 62
     0
100
AcDbPoint
 10
554.4689412573
 20
138.0921295769
 30
0.0
  0
POINT
  5
1A25
330
1226
100
AcDbEntity
  8
DEFPOINTS
 62
     0
100
AcDbPoint
 10
554.4689412573
 20
143.0921295769
 30
0.0
  0
POINT
  5
1A26
330
1226
100
AcDbEntity
  8
DEFPOINTS
 62
     0
100
AcDbPoint
 10
513.3939865463
 20
143.0921295769
 30
0.0
  0
ENDBLK
  5
1233
330
1226
100
AcDbEntity
  8
0
100
AcDbBlockEnd
  0
BLOCK
  5
123E
330
1234
100
AcDbEntity
  8
0
100
AcDbBlockBegin
  2
*D25
 70
     1
 10
0.0
 20
0.0
 30
0.0
  3
*D25
  1

  0
POINT
  5
1A79
330
1234
100
AcDbEntity
  8
DEFPOINTS
 62
     0
100
AcDbPoint
 10
517.4281702573
 20
140.5921295769
 30
0.0
  0
POINT
  5
1A7A
330
1234
100
AcDbEntity
  8
DEFPOINTS
 62
     0
100
AcDbPoint
 10
523.9903032573
 20
174.0921295769
 30
0.0
  0
POINT
  5
1A7B
330
1234
100
AcDbEntity
  8
DEFPOINTS
 62
     0
100
AcDbPoint
 10
501.3835650867
 20
174.0921295769
 30
0.0
  0
ENDBLK
  5
123F
330
1234
100
AcDbEntity
  8
0
100
AcDbBlockEnd
  0
BLOCK
  5
124A
330
1240
100
AcDbEntity
  8
0
100
AcDbBlockBegin
  2
*D26
 70
     1
 10
0.0
 20
0.0
 30
0.0
  3
*D26
  1

  0
POINT
  5
19C6
330
1240
100
AcDbEntity
  8
DEFPOINTS
 62
     0
100
AcDbPoint
 10
517.4281702573
 20
140.5921295769
 30
0.0
  0
POINT
  5
19C7
330
1240
100
AcDbEntity
  8
DEFPOINTS
 62
     0
100
AcDbPoint
 10
531.9689412573
 20
181.0921295769
 30
0.0
  0
POINT
  5
19C8
330
1240
100
AcDbEntity
  8
DEFPOINTS
 62
     0
100
AcDbPoint
 10
489.4805507026
 20
181.0921295769
 30
0.0
  0
ENDBLK
  5
124B
330
1240
100
AcDbEntity
  8
0
100
AcDbBlockEnd
  0
BLOCK
  5
1256
330
124C
100
AcDbEntity
  8
0
100
AcDbBlockBegin
  2
*D27
 70
     1
 10
0.0
 20
0.0
 30
0.0
  3
*D27
  1

  0
POINT
  5
19BD
330
124C
100
AcDbEntity
  8
DEFPOINTS
 62
     0
100
AcDbPoint
 10
531.9689412573
 20
100.0921295769
 30
0.0
  0
POINT
  5
19BE
330
124C
100
AcDbEntity
  8
DEFPOINTS
 62
     0
100
AcDbPoint
 10
531.9689412573
 20
181.0921295769
 30
0.0
  0
POINT
  5
19BF
330
124C
100
AcDbEntity
  8
DEFPOINTS
 62
     0
100
AcDbPoint
 10
477.4187197276
 20
181.0921295769
 30
0.0
  0
ENDBLK
  5
1257
330
124C
100
AcDbEntity
  8
0
100
AcDbBlockEnd
  0
BLOCK
  5
126F
330
1265
100
AcDbEntity
  8
0
100
AcDbBlockBegin
  2
*D28
 70
     1
 10
0.0
 20
0.0
 30
0.0
  3
*D28
  1

  0
POINT
  5
19FE
330
1265
100
AcDbEntity
  8
DEFPOINTS
 62
     0
100
AcDbPoint
 10
330.3265968717
 20
111.3421295769
 30
0.0
  0
POINT
  5
19FF
330
1265
100
AcDbEntity
  8
DEFPOINTS
 62
     0
100
AcDbPoint
 10
330.3265968717
 20
102.8421295769
 30
0.0
  0
POINT
  5
1A00
330
1265
100
AcDbEntity
  8
DEFPOINTS
 62
     0
100
AcDbPoint
 10
310.6782478102
 20
102.8421295769
 30
0.0
  0
ENDBLK
  5
1270
330
1265
100
AcDbEntity
  8
0
100
AcDbBlockEnd
  0
BLOCK
  5
22B7
330
22AD
100
AcDbEntity
  8
0
100
AcDbBlockBegin
  2
*D32
 70
     1
 10
0.0
 20
0.0
 30
0.0
  3
*D32
  1

  0
POINT
  5
22FC
330
22AD
100
AcDbEntity
  8
DEFPOINTS
 62
     0
100
AcDbPoint
 10
657.0244152573
 20
210.0921275769
 30
0.0
  0
POINT
  5
22FD
330
22AD
100
AcDbEntity
  8
DEFPOINTS
 62
     0
100
AcDbPoint
 10
707.0244222573
 20
210.0921275769
 30
0.0
  0
POINT
  5
22FE
330
22AD
100
AcDbEntity
  8
DEFPOINTS
 62
     0
100
AcDbPoint
 10
707.0244222573
 20
229.8717485616
 30
0.0
  0
ENDBLK
  5
22B8
330
22AD
100
AcDbEntity
  8
0
100
AcDbBlockEnd
  0
BLOCK
  5
22C4
330
22B9
100
AcDbEntity
  8
0
100
AcDbBlockBegin
  2
*D33
 70
     1
 10
0.0
 20
0.0
 30
0.0
  3
*D33
  1

  0
POINT
  5
230D
330
22B9
100
AcDbEntity
  8
DEFPOINTS
 62
     0
100
AcDbPoint
 10
707.0244222573
 20
210.0921275769
 30
0.0
  0
POINT
  5
230E
330
22B9
100
AcDbEntity
  8
DEFPOINTS
 62
     0
100
AcDbPoint
 10
756.5244222573
 20
175.5921295769
 30
0.0
  0
POINT
  5
230F
330
22B9
100
AcDbEntity
  8
DEFPOINTS
 62
     0
100
AcDbPoint
 10
756.5244222573
 20
229.8717485616
 30
0.0
  0
ENDBLK
  5
22C5
330
22B9
100
AcDbEntity
  8
0
100
AcDbBlockEnd
  0
BLOCK
  5
22CF
330
22C6
100
AcDbEntity
  8
0
100
AcDbBlockBegin
  2
*D34
 70
     1
 10
0.0
 20
0.0
 30
0.0
  3
*D34
  1

  0
POINT
  5
2360
330
22C6
100
AcDbEntity
  8
DEFPOINTS
 62
     0
100
AcDbPoint
 10
658.0244152573
 20
211.0921275769
 30
0.0
  0
POINT
  5
2361
330
22C6
100
AcDbEntity
  8
DEFPOINTS
 62
     0
100
AcDbPoint
 10
643.7743176374
 20
178.5921295769
 30
0.0
  0
POINT
  5
2362
330
22C6
100
AcDbEntity
  8
DEFPOINTS
 62
     0
100
AcDbPoint
 10
643.7743176374
 20
178.5921295769
 30
0.0
  0
ENDBLK
  5
22D0
330
22C6
100
AcDbEntity
  8
0
100
AcDbBlockEnd
  0
BLOCK
  5
3949
330
3948
100
AcDbEntity
  8
0
100
AcDbBlockBegin
  2
*D60
 70
     1
 10
0.0
 20
0.0
 30
0.0
  3
*D60
  1

  0
POINT
  5
395E
330
3948
100
AcDbEntity
  8
DEFPOINTS
 62
     0
100
AcDbPoint
 10
370.9895277087
 20
110.2921295769
 30
0.0
  0
POINT
  5
395F
330
3948
100
AcDbEntity
  8
DEFPOINTS
 62
     0
100
AcDbPoint
 10
371.4985302598
 20
103.8921295769
 30
0.0
  0
POINT
  5
3960
330
3948
100
AcDbEntity
  8
DEFPOINTS
 62
     0
100
AcDbPoint
 10
368.9750952795
 20
103.8921295769
 30
0.0
  0
ENDBLK
  5
394A
330
3948
100
AcDbEntity
  8
0
100
AcDbBlockEnd
  0
ENDSEC
  0
SECTION
  2
ENTITIES
  0
LINE
  5
7A4
330
2
100
AcDbEntity
  8
HIDS
100
AcDbLine
 10
347.8265968717
 20
100.5921295769
 30
0.0
 11
392.3951388717
 21
100.5921295769
 31
0.0
  0
LINE
  5
7A5
330
2
100
AcDbEntity
  8
HIDS
100
AcDbLine
 10
393.8265968717
 20
180.5921295769
 30
0.0
 11
349.2580548717
 21
180.5921295769
 31
0.0
  0
LINE
  5
7A6
330
2
100
AcDbEntity
  8
CENTER
100
AcDbLine
 10
327.8216228717
 20
174.0921295769
 30
0.0
 11
414.8703588717
 21
174.0921295769
 31
0.0
  0
LINE
  5
7A7
330
2
100
AcDbEntity
  8
CENTER
100
AcDbLine
 10
327.8216228717
 20
107.0921295769
 30
0.0
 11
414.8703588717
 21
107.0921295769
 31
0.0
  0
ARC
  5
7A8
330
2
100
AcDbEntity
  8
0
100
AcDbCircle
 10
377.8265968717
 20
153.5070775769
 30
0.0
 40
2.0
100
AcDbArc
 50
91.0
 51
180.0
  0
ARC
  5
7A9
330
2
100
AcDbEntity
  8
0
100
AcDbCircle
 10
377.8265968717
 20
127.6771815769
 30
0.0
 40
2.0
100
AcDbArc
 50
180.0
 51
269.0
  0
LINE
  5
7AA
330
2
100
AcDbEntity
  8
0
100
AcDbLine
 10
378.5883768717
 20
130.3989225769
 30
0.0
 11
376.2554608717
 21
126.4396335769
 31
0.0
  0
LINE
  5
7AB
330
2
100
AcDbEntity
  8
0
100
AcDbLine
 10
378.5883768717
 20
150.7853665769
 30
0.0
 11
376.2554608717
 21
154.7446255769
 31
0.0
  0
LINE
  5
7AC
330
2
100
AcDbEntity
  8
HIDS
100
AcDbLine
 10
391.8615088717
 20
102.9593015769
 30
0.0
 11
370.8265968717
 21
102.5921295769
 31
0.0
  0
LINE
  5
7AD
330
2
100
AcDbEntity
  8
HIDS
100
AcDbLine
 10
391.8615088717
 20
178.2249725769
 30
0.0
 11
370.8265968717
 21
178.5921295769
 31
0.0
  0
LINE
  5
7AE
330
2
100
AcDbEntity
  8
0
100
AcDbLine
 10
370.8265968717
 20
100.0921295769
 30
0.0
 11
411.3265968717
 21
100.7990535769
 31
0.0
  0
LINE
  5
7AF
330
2
100
AcDbEntity
  8
0
100
AcDbLine
 10
370.8265968717
 20
181.0921295769
 30
0.0
 11
411.3265968717
 21
180.3851895769
 31
0.0
  0
CIRCLE
  5
7B1
330
2
100
AcDbEntity
  8
HOJO
100
AcDbCircle
 10
168.0574442819
 20
107.0921295769
 30
0.0
 40
4.0
  0
CIRCLE
  5
7B2
330
2
100
AcDbEntity
  8
0
100
AcDbCircle
 10
168.0574442819
 20
107.0921295769
 30
0.0
 40
4.25
  0
CIRCLE
  5
7B3
330
2
100
AcDbEntity
  8
HOJO
100
AcDbCircle
 10
254.0574442819
 20
107.0921295769
 30
0.0
 40
4.0
  0
CIRCLE
  5
7B4
330
2
100
AcDbEntity
  8
0
100
AcDbCircle
 10
254.0574442819
 20
107.0921295769
 30
0.0
 40
4.25
  0
LINE
  5
7B5
330
2
100
AcDbEntity
  8
HOJO
100
AcDbLine
 10
362.8265968717
 20
111.0921295769
 30
0.0
 11
362.8265968717
 21
103.0921295769
 31
0.0
  0
CIRCLE
  5
7B6
330
2
100
AcDbEntity
  8
0
100
AcDbCircle
 10
254.0574442819
 20
107.0921295769
 30
0.0
 40
3.2
  0
CIRCLE
  5
7B7
330
2
100
AcDbEntity
  8
0
100
AcDbCircle
 10
168.0574442819
 20
107.0921295769
 30
0.0
 40
3.2
  0
LINE
  5
7B8
330
2
100
AcDbEntity
  8
HIDS
100
AcDbLine
 10
337.4296238717
 20
114.5921295769
 30
0.0
 11
344.8265968717
 21
107.1951565769
 31
0.0
  0
LINE
  5
7B9
330
2
100
AcDbEntity
  8
0
100
AcDbLine
 10
29.5019522819
 20
175.5921295769
 30
0.0
 11
29.5019522819
 21
105.5921295769
 31
0.0
  0
LINE
  5
7BA
330
2
100
AcDbEntity
  8
0
100
AcDbLine
 10
78.5019402819
 20
100.5921295769
 30
0.0
 11
78.5019402819
 21
180.5921295769
 31
0.0
  0
LINE
  5
7BB
330
2
100
AcDbEntity
  8
0
100
AcDbLine
 10
88.0019402819
 20
178.5921295769
 30
0.0
 11
88.0019402819
 21
102.5921295769
 31
0.0
  0
LINE
  5
7BC
330
2
100
AcDbEntity
  8
0
100
AcDbLine
 10
185.0574442819
 20
109.5921295769
 30
0.0
 11
185.0574442819
 21
107.7272005769
 31
0.0
  0
LINE
  5
7BD
330
2
100
AcDbEntity
  8
0
100
AcDbLine
 10
183.0574442819
 20
108.8522915769
 30
0.0
 11
183.0574442819
 21
108.3571445769
 31
0.0
  0
LINE
  5
7BE
330
2
100
AcDbEntity
  8
0
100
AcDbLine
 10
237.0574442819
 20
109.5921295769
 30
0.0
 11
237.0574442819
 21
107.7272005769
 31
0.0
  0
LINE
  5
7BF
330
2
100
AcDbEntity
  8
0
100
AcDbLine
 10
239.0574442819
 20
108.8522915769
 30
0.0
 11
239.0574442819
 21
108.3571445769
 31
0.0
  0
LINE
  5
7C0
330
2
100
AcDbEntity
  8
0
100
AcDbLine
 10
161.0574442819
 20
124.2636995769
 30
0.0
 11
161.0574442819
 21
107.0921295769
 31
0.0
  0
LINE
  5
7C1
330
2
100
AcDbEntity
  8
0
100
AcDbLine
 10
261.0574442819
 20
107.0921295769
 30
0.0
 11
261.0574442819
 21
174.0921295769
 31
0.0
  0
LINE
  5
7C4
330
2
100
AcDbEntity
  8
0
100
AcDbLine
 10
330.3265968717
 20
180.3851895769
 30
0.0
 11
330.3265968717
 21
100.7990535769
 31
0.0
  0
LINE
  5
7C5
330
2
100
AcDbEntity
  8
HIDS
100
AcDbLine
 10
347.8265968717
 20
104.9589965769
 30
0.0
 11
347.8265968717
 21
108.8904085769
 31
0.0
  0
LINE
  5
7C6
330
2
100
AcDbEntity
  8
0
100
AcDbLine
 10
342.8265968717
 20
180.6033905769
 30
0.0
 11
342.8265968717
 21
100.5808685769
 31
0.0
  0
LINE
  5
7C8
330
2
100
AcDbEntity
  8
0
100
AcDbLine
 10
88.0019402819
 20
102.5921295769
 30
0.0
 11
159.6986952819
 21
102.5921295769
 31
0.0
  0
LINE
  5
7CA
330
2
100
AcDbEntity
  8
0
100
AcDbLine
 10
34.5019522819
 20
100.5921295769
 30
0.0
 11
78.5019402819
 21
100.5921295769
 31
0.0
  0
ARC
  5
7CB
330
2
100
AcDbEntity
  8
0
100
AcDbCircle
 10
34.5019592819
 20
105.5921295769
 30
0.0
 40
5.0
100
AcDbArc
 50
180.0
 51
270.0
  0
LINE
  5
7CC
330
2
100
AcDbEntity
  8
0
100
AcDbLine
 10
78.5019402819
 20
102.5921295769
 30
0.0
 11
88.0019402819
 21
102.5921295769
 31
0.0
  0
ARC
  5
7CD
330
2
100
AcDbEntity
  8
0
100
AcDbCircle
 10
245.2520552819
 20
97.5283935769
 30
0.0
 40
6.0
100
AcDbArc
 50
47.364067
 51
120.358299
  0
LINE
  5
7CE
330
2
100
AcDbEntity
  8
0
100
AcDbLine
 10
168.0574442819
 20
100.0921295769
 30
0.0
 11
254.0574442819
 21
100.0921295769
 31
0.0
  0
ARC
  5
7CF
330
2
100
AcDbEntity
  8
0
100
AcDbCircle
 10
187.0574442819
 20
107.7272005769
 30
0.0
 40
2.0
100
AcDbArc
 50
180.0
 51
255.522491
  0
ARC
  5
7D0
330
2
100
AcDbEntity
  8
0
100
AcDbCircle
 10
192.0574442819
 20
127.0921295769
 30
0.0
 40
22.0
100
AcDbArc
 50
249.512688
 51
270.0
  0
ARC
  5
7D1
330
2
100
AcDbEntity
  8
0
100
AcDbCircle
 10
187.4581092819
 20
110.0921295769
 30
0.0
 40
10.0
100
AcDbArc
 50
247.668358
 51
270.0
  0
ARC
  5
7D2
330
2
100
AcDbEntity
  8
0
100
AcDbCircle
 10
168.0574442819
 20
107.0921295769
 30
0.0
 40
7.0
100
AcDbArc
 50
180.0
 51
312.635925
  0
LINE
  5
7D4
330
2
100
AcDbEntity
  8
0
100
AcDbLine
 10
160.3938242819
 20
102.4674345769
 30
0.0
 11
165.6244612819
 21
100.5285465769
 31
0.0
  0
ARC
  5
7D5
330
2
100
AcDbEntity
  8
0
100
AcDbCircle
 10
159.6986952819
 20
100.5921295769
 30
0.0
 40
2.0
100
AcDbArc
 50
69.66127
 51
90.0
  0
ARC
  5
7D6
330
2
100
AcDbEntity
  8
0
100
AcDbCircle
 10
176.8628332819
 20
97.5283935769
 30
0.0
 40
6.0
100
AcDbArc
 50
59.641697
 51
132.635925
  0
ARC
  5
7D7
330
2
100
AcDbEntity
  8
0
100
AcDbCircle
 10
185.0574442819
 20
108.3571445769
 30
0.0
 40
2.0
100
AcDbArc
 50
180.0
 51
249.51268
  0
ARC
  5
7D8
330
2
100
AcDbEntity
  8
0
100
AcDbCircle
 10
195.0574442819
 20
128.5921295769
 30
0.0
 40
30.0
100
AcDbArc
 50
239.641701
 51
247.668358
  0
LINE
  5
7D9
330
2
100
AcDbEntity
  8
0
100
AcDbLine
 10
230.0574442819
 20
105.0921295769
 30
0.0
 11
192.0574442819
 21
105.0921295769
 31
0.0
  0
ARC
  5
7DA
330
2
100
AcDbEntity
  8
0
100
AcDbCircle
 10
230.0574442819
 20
127.0921295769
 30
0.0
 40
22.0
100
AcDbArc
 50
270.0
 51
290.487305
  0
ARC
  5
7DB
330
2
100
AcDbEntity
  8
0
100
AcDbCircle
 10
237.0574442819
 20
108.3571445769
 30
0.0
 40
2.0
100
AcDbArc
 50
290.487312
 51
0.0
  0
ARC
  5
7DC
330
2
100
AcDbEntity
  8
0
100
AcDbCircle
 10
227.0574442819
 20
128.5921295769
 30
0.0
 40
30.0
100
AcDbArc
 50
292.331642
 51
300.358303
  0
ARC
  5
7DD
330
2
100
AcDbEntity
  8
0
100
AcDbCircle
 10
235.0574442819
 20
107.7272005769
 30
0.0
 40
2.0
100
AcDbArc
 50
284.477509
 51
0.0
  0
ARC
  5
7DE
330
2
100
AcDbEntity
  8
0
100
AcDbCircle
 10
234.6567792819
 20
110.0921295769
 30
0.0
 40
10.0
100
AcDbArc
 50
270.0
 51
292.331642
  0
ARC
  5
7DF
330
2
100
AcDbEntity
  8
0
100
AcDbCircle
 10
254.0574442819
 20
107.0921295769
 30
0.0
 40
7.0
100
AcDbArc
 50
227.364075
 51
0.0
  0
LINE
  5
7E1
330
2
100
AcDbEntity
  8
HOJO
100
AcDbLine
 10
342.8265968717
 20
103.0921295769
 30
0.0
 11
362.8265968717
 21
103.0921295769
 31
0.0
  0
ARC
  5
7E2
330
2
100
AcDbEntity
  8
HIDS
100
AcDbCircle
 10
347.8265968717
 20
103.5921295769
 30
0.0
 40
3.0
100
AcDbArc
 50
180.0
 51
270.0
  0
LINE
  5
7E3
330
2
100
AcDbEntity
  8
0
100
AcDbLine
 10
370.8265968717
 20
100.0921295769
 30
0.0
 11
330.3265968717
 21
100.7990535769
 31
0.0
  0
LINE
  5
7E4
330
2
100
AcDbEntity
  8
0
100
AcDbLine
 10
330.3265968717
 20
102.8421295769
 30
0.0
 11
342.8265968717
 21
102.8421295769
 31
0.0
  0
LINE
  5
7E5
330
2
100
AcDbEntity
  8
HIDS
100
AcDbLine
 10
344.8265968717
 20
103.5921295769
 30
0.0
 11
344.8265968717
 21
107.1951565769
 31
0.0
  0
LINE
  5
7E6
330
2
100
AcDbEntity
  8
HIDS
100
AcDbLine
 10
349.7916848717
 20
102.9593015769
 30
0.0
 11
370.8265968717
 21
102.5921295769
 31
0.0
  0
ARC
  5
7E7
330
2
100
AcDbEntity
  8
HIDS
100
AcDbCircle
 10
349.8265968717
 20
104.9589965769
 30
0.0
 40
2.0
100
AcDbArc
 50
180.0
 51
269.0
  0
LINE
  5
7E8
330
2
100
AcDbEntity
  8
0
100
AcDbLine
 10
88.0019402819
 20
170.8410915769
 30
0.0
 11
161.0574442819
 21
170.8410915769
 31
0.0
  0
LINE
  5
7E9
330
2
100
AcDbEntity
  8
0
100
AcDbLine
 10
88.0019402819
 20
110.3431675769
 30
0.0
 11
161.0574442819
 21
110.3431675769
 31
0.0
  0
LINE
  5
7EA
330
2
100
AcDbEntity
  8
0
100
AcDbLine
 10
88.0019402819
 20
178.5921295769
 30
0.0
 11
159.6986952819
 21
178.5921295769
 31
0.0
  0
LINE
  5
7EB
330
2
100
AcDbEntity
  8
CENTER
100
AcDbLine
 10
268.5982152819
 20
140.5921295769
 30
0.0
 11
20.9814223136
 21
140.5921295769
 31
0.0
  0
LINE
  5
7F0
330
2
100
AcDbEntity
  8
0
100
AcDbLine
 10
32.2519522819
 20
164.5921295769
 30
0.0
 11
78.5019402819
 21
164.5921295769
 31
0.0
  0
LINE
  5
7F1
330
2
100
AcDbEntity
  8
0
100
AcDbLine
 10
32.2519522819
 20
114.5921295769
 30
0.0
 11
78.5019402819
 21
114.5921295769
 31
0.0
  0
LINE
  5
7F2
330
2
100
AcDbEntity
  8
0
100
AcDbLine
 10
34.5019522819
 20
180.5921295769
 30
0.0
 11
78.5019402819
 21
180.5921295769
 31
0.0
  0
ARC
  5
7F3
330
2
100
AcDbEntity
  8
0
100
AcDbCircle
 10
34.5019522819
 20
175.5921295769
 30
0.0
 40
5.0
100
AcDbArc
 50
90.0
 51
180.0
  0
LINE
  5
7F4
330
2
100
AcDbEntity
  8
0
100
AcDbLine
 10
78.5019402819
 20
110.3431365769
 30
0.0
 11
88.0019402819
 21
110.3431365769
 31
0.0
  0
ARC
  5
7F5
330
2
100
AcDbEntity
  8
0
100
AcDbCircle
 10
78.5019402819
 20
164.1215175769
 30
0.0
 40
4.5
100
AcDbArc
 50
0.0
 51
90.0
  0
LINE
  5
7F6
330
2
100
AcDbEntity
  8
HOJO
100
AcDbLine
 10
80.0019402819
 20
159.1215175769
 30
0.0
 11
81.5019402819
 21
159.6215175769
 31
0.0
  0
ARC
  5
7F7
330
2
100
AcDbEntity
  8
0
100
AcDbCircle
 10
78.5019402819
 20
164.1215175769
 30
0.0
 40
3.0
100
AcDbArc
 50
0.0
 51
90.0
  0
LINE
  5
7F8
330
2
100
AcDbEntity
  8
0
100
AcDbLine
 10
80.0019402819
 20
164.1215175769
 30
0.0
 11
80.0019402819
 21
159.1059235769
 31
0.0
  0
ARC
  5
7F9
330
2
100
AcDbEntity
  8
0
100
AcDbCircle
 10
78.5019402819
 20
164.1215175769
 30
0.0
 40
1.5
100
AcDbArc
 50
0.0
 51
90.0
  0
LINE
  5
7FA
330
2
100
AcDbEntity
  8
HOJO
100
AcDbLine
 10
81.5019402819
 20
160.1215175769
 30
0.0
 11
83.0019402819
 21
159.6215175769
 31
0.0
  0
LINE
  5
7FB
330
2
100
AcDbEntity
  8
0
100
AcDbLine
 10
83.0019402819
 20
164.1215175769
 30
0.0
 11
83.0019402819
 21
159.6215175769
 31
0.0
  0
LINE
  5
7FC
330
2
100
AcDbEntity
  8
0
100
AcDbLine
 10
81.5019402819
 20
164.1215175769
 30
0.0
 11
81.5019402819
 21
159.6215175769
 31
0.0
  0
LINE
  5
7FD
330
2
100
AcDbEntity
  8
0
100
AcDbLine
 10
78.5019402819
 20
170.8411225769
 30
0.0
 11
88.0019402819
 21
170.8411225769
 31
0.0
  0
LINE
  5
7FE
330
2
100
AcDbEntity
  8
0
100
AcDbLine
 10
78.5019402819
 20
178.5921295769
 30
0.0
 11
88.0019402819
 21
178.5921295769
 31
0.0
  0
CIRCLE
  5
806
330
2
100
AcDbEntity
  8
0
100
AcDbCircle
 10
222.0574442819
 20
140.5921295769
 30
0.0
 40
25.002001
  0
ARC
  5
807
330
2
100
AcDbEntity
  8
0
100
AcDbCircle
 10
245.2520552819
 20
183.6558805769
 30
0.0
 40
6.0
100
AcDbArc
 50
239.641701
 51
312.635933
  0
LINE
  5
808
330
2
100
AcDbEntity
  8
0
100
AcDbLine
 10
246.5389202819
 20
121.3937045769
 30
0.0
 11
237.5389352819
 21
110.8937045769
 31
0.0
  0
LINE
  5
809
330
2
100
AcDbEntity
  8
0
100
AcDbLine
 10
247.4588112819
 20
119.3937045769
 30
0.0
 11
239.5389202819
 21
110.1538665769
 31
0.0
  0
LINE
  5
80A
330
2
100
AcDbEntity
  8
0
100
AcDbLine
 10
246.5389202819
 20
159.7905545769
 30
0.0
 11
237.5389352819
 21
170.2905545769
 31
0.0
  0
LINE
  5
80B
330
2
100
AcDbEntity
  8
0
100
AcDbLine
 10
247.4588112819
 20
161.7905545769
 30
0.0
 11
239.5389202819
 21
171.0303925769
 31
0.0
  0
LINE
  5
80C
330
2
100
AcDbEntity
  8
0
100
AcDbLine
 10
168.0574442819
 20
181.0921295769
 30
0.0
 11
254.0574442819
 21
181.0921295769
 31
0.0
  0
ARC
  5
80D
330
2
100
AcDbEntity
  8
0
100
AcDbCircle
 10
187.0574442819
 20
173.4570585769
 30
0.0
 40
2.0
100
AcDbArc
 50
104.477509
 51
180.0
  0
ARC
  5
80E
330
2
100
AcDbEntity
  8
0
100
AcDbCircle
 10
192.0574442819
 20
154.0921295769
 30
0.0
 40
22.0
100
AcDbArc
 50
90.0
 51
110.487312
  0
ARC
  5
80F
330
2
100
AcDbEntity
  8
0
100
AcDbCircle
 10
187.4581092819
 20
171.0921295769
 30
0.0
 40
10.0
100
AcDbArc
 50
90.0
 51
112.331642
  0
LINE
  5
810
330
2
100
AcDbEntity
  8
0
100
AcDbLine
 10
170.0574442819
 20
154.0921295769
 30
0.0
 11
170.0574442819
 21
127.0921295769
 31
0.0
  0
LINE
  5
811
330
2
100
AcDbEntity
  8
0
100
AcDbLine
 10
165.0574442819
 20
129.9205595769
 30
0.0
 11
165.0574442819
 21
151.2636995769
 31
0.0
  0
LINE
  5
812
330
2
100
AcDbEntity
  8
0
100
AcDbLine
 10
160.5574442819
 20
166.2825895769
 30
0.0
 11
160.5574442819
 21
114.9016695769
 31
0.0
  0
ARC
  5
813
330
2
100
AcDbEntity
  8
0
100
AcDbCircle
 10
163.0574442819
 20
129.9205595769
 30
0.0
 40
2.0
100
AcDbArc
 50
315.0
 51
0.0
  0
ARC
  5
814
330
2
100
AcDbEntity
  8
0
100
AcDbCircle
 10
172.6925302819
 20
122.0921295769
 30
0.0
 40
2.0
100
AcDbArc
 50
194.477509
 51
270.0
  0
ARC
  5
815
330
2
100
AcDbEntity
  8
0
100
AcDbCircle
 10
172.2837172819
 20
124.0921295769
 30
0.0
 40
2.0
100
AcDbArc
 50
188.626923
 51
270.0
  0
LINE
  5
816
330
2
100
AcDbEntity
  8
0
100
AcDbLine
 10
165.5574442819
 20
118.8921475769
 30
0.0
 11
167.0574442819
 21
118.0261195769
 31
0.0
  0
LINE
  5
817
330
2
100
AcDbEntity
  8
0
100
AcDbLine
 10
165.5574442819
 20
118.8921475769
 30
0.0
 11
164.0574442819
 21
118.0261195769
 31
0.0
  0
CIRCLE
  5
819
330
2
100
AcDbEntity
  8
0
100
AcDbCircle
 10
165.5574442819
 20
117.0921295769
 30
0.0
 40
3.5
  0
CIRCLE
  5
81A
330
2
100
AcDbEntity
  8
0
100
AcDbCircle
 10
165.5574442819
 20
117.0921295769
 30
0.0
 40
3.799999999999998
  0
ARC
  5
81B
330
2
100
AcDbEntity
  8
0
100
AcDbCircle
 10
165.5574442819
 20
117.0921295769
 30
0.0
 40
4.5
100
AcDbArc
 50
270.0
 51
90.0
  0
LINE
  5
81D
330
2
100
AcDbEntity
  8
0
100
AcDbLine
 10
163.0574442819
 20
112.5921295769
 30
0.0
 11
165.5574442819
 21
112.5921295769
 31
0.0
  0
ARC
  5
81E
330
2
100
AcDbEntity
  8
0
100
AcDbCircle
 10
163.0574442819
 20
110.5921295769
 30
0.0
 40
2.0
100
AcDbArc
 50
90.0
 51
180.0
  0
LINE
  5
81F
330
2
100
AcDbEntity
  8
0
100
AcDbLine
 10
160.5574442819
 20
114.9016695769
 30
0.0
 11
161.0574442819
 21
114.9016695769
 31
0.0
  0
LINE
  5
820
330
2
100
AcDbEntity
  8
0
100
AcDbLine
 10
165.5574442819
 20
115.2921415769
 30
0.0
 11
167.0574442819
 21
116.1581695769
 31
0.0
  0
LINE
  5
821
330
2
100
AcDbEntity
  8
0
100
AcDbLine
 10
167.0574442819
 20
118.0261195769
 30
0.0
 11
167.0574442819
 21
116.1581695769
 31
0.0
  0
LINE
  5
822
330
2
100
AcDbEntity
  8
0
100
AcDbLine
 10
164.0574442819
 20
118.0261195769
 30
0.0
 11
164.0574442819
 21
116.1581695769
 31
0.0
  0
LINE
  5
823
330
2
100
AcDbEntity
  8
0
100
AcDbLine
 10
165.5574442819
 20
115.2921415769
 30
0.0
 11
164.0574442819
 21
116.1581695769
 31
0.0
  0
LINE
  5
824
330
2
100
AcDbEntity
  8
0
100
AcDbLine
 10
163.0574442819
 20
121.5921295769
 30
0.0
 11
165.5574442819
 21
121.5921295769
 31
0.0
  0
LINE
  5
825
330
2
100
AcDbEntity
  8
0
100
AcDbLine
 10
164.4716592819
 20
128.5063445769
 30
0.0
 11
161.6432292819
 21
125.6779145769
 31
0.0
  0
ARC
  5
826
330
2
100
AcDbEntity
  8
0
100
AcDbCircle
 10
163.0574442819
 20
123.5921295769
 30
0.0
 40
2.0
100
AcDbArc
 50
180.0
 51
270.0
  0
ARC
  5
827
330
2
100
AcDbEntity
  8
0
100
AcDbCircle
 10
163.0574442819
 20
124.2636995769
 30
0.0
 40
2.0
100
AcDbArc
 50
135.0
 51
180.0
  0
ARC
  5
828
330
2
100
AcDbEntity
  8
0
100
AcDbCircle
 10
192.0574442819
 20
127.0921295769
 30
0.0
 40
22.0
100
AcDbArc
 50
180.0
 51
194.477509
  0
LINE
  5
829
330
2
100
AcDbEntity
  8
0
100
AcDbLine
 10
175.5759532819
 20
121.3937045769
 30
0.0
 11
184.5759532819
 21
110.8937045769
 31
0.0
  0
LINE
  5
82A
330
2
100
AcDbEntity
  8
0
100
AcDbLine
 10
174.6560922819
 20
119.3937045769
 30
0.0
 11
182.5759532819
 21
110.1538665769
 31
0.0
  0
LINE
  5
82B
330
2
100
AcDbEntity
  8
0
100
AcDbLine
 10
184.9332072819
 20
110.2860075769
 30
0.0
 11
182.9332072819
 21
109.5461705769
 31
0.0
  0
ARC
  5
82C
330
2
100
AcDbEntity
  8
0
100
AcDbCircle
 10
181.0574442819
 20
108.8522915769
 30
0.0
 40
2.0
100
AcDbArc
 50
0.0
 51
40.601295
  0
ARC
  5
82D
330
2
100
AcDbEntity
  8
0
100
AcDbCircle
 10
183.0574442819
 20
109.5921295769
 30
0.0
 40
2.0
100
AcDbArc
 50
0.0
 51
40.601295
  0
LINE
  5
82E
330
2
100
AcDbEntity
  8
0
100
AcDbLine
 10
173.1375682819
 20
120.0921295769
 30
0.0
 11
172.6925302819
 21
120.0921295769
 31
0.0
  0
LINE
  5
82F
330
2
100
AcDbEntity
  8
0
100
AcDbLine
 10
174.0574442819
 20
122.0921295769
 30
0.0
 11
172.2837172819
 21
122.0921295769
 31
0.0
  0
LINE
  5
830
330
2
100
AcDbEntity
  8
0
100
AcDbLine
 10
174.8931532819
 20
121.9091465769
 30
0.0
 11
173.9732922819
 21
119.9091465769
 31
0.0
  0
ARC
  5
831
330
2
100
AcDbEntity
  8
0
100
AcDbCircle
 10
174.0574442819
 20
120.0921295769
 30
0.0
 40
2.0
100
AcDbArc
 50
40.601295
 51
90.0
  0
ARC
  5
832
330
2
100
AcDbEntity
  8
0
100
AcDbCircle
 10
173.1375682819
 20
118.0921295769
 30
0.0
 40
2.0
100
AcDbArc
 50
40.601295
 51
90.0
  0
ARC
  5
833
330
2
100
AcDbEntity
  8
0
100
AcDbCircle
 10
163.0574442819
 20
170.5921295769
 30
0.0
 40
2.0
100
AcDbArc
 50
180.0
 51
270.0
  0
LINE
  5
835
330
2
100
AcDbEntity
  8
0
100
AcDbLine
 10
175.5759532819
 20
159.7905545769
 30
0.0
 11
184.5759532819
 21
170.2905545769
 31
0.0
  0
LINE
  5
836
330
2
100
AcDbEntity
  8
0
100
AcDbLine
 10
174.6560922819
 20
161.7905545769
 30
0.0
 11
182.5759532819
 21
171.0303925769
 31
0.0
  0
LINE
  5
838
330
2
100
AcDbEntity
  8
0
100
AcDbLine
 10
161.0574442819
 20
174.0921295769
 30
0.0
 11
161.0574442819
 21
156.9205595769
 31
0.0
  0
ARC
  5
839
330
2
100
AcDbEntity
  8
0
100
AcDbCircle
 10
172.6925302819
 20
159.0921295769
 30
0.0
 40
2.0
100
AcDbArc
 50
90.0
 51
165.522491
  0
ARC
  5
83A
330
2
100
AcDbEntity
  8
0
100
AcDbCircle
 10
172.2837172819
 20
157.0921295769
 30
0.0
 40
2.0
100
AcDbArc
 50
90.0
 51
171.373077
  0
ARC
  5
83B
330
2
100
AcDbEntity
  8
0
100
AcDbCircle
 10
163.0574442819
 20
157.5921295769
 30
0.0
 40
2.0
100
AcDbArc
 50
90.0
 51
180.0
  0
ARC
  5
83C
330
2
100
AcDbEntity
  8
0
100
AcDbCircle
 10
192.0574442819
 20
154.0921295769
 30
0.0
 40
22.0
100
AcDbArc
 50
165.522491
 51
180.0
  0
LINE
  5
83D
330
2
100
AcDbEntity
  8
0
100
AcDbLine
 10
164.4716592819
 20
152.6779145769
 30
0.0
 11
161.6432292819
 21
155.5063445769
 31
0.0
  0
ARC
  5
83E
330
2
100
AcDbEntity
  8
0
100
AcDbCircle
 10
163.0574442819
 20
156.9205595769
 30
0.0
 40
2.0
100
AcDbArc
 50
180.0
 51
225.0
  0
ARC
  5
83F
330
2
100
AcDbEntity
  8
0
100
AcDbCircle
 10
163.0574442819
 20
151.2636995769
 30
0.0
 40
2.0
100
AcDbArc
 50
0.0
 51
45.0
  0
LINE
  5
841
330
2
100
AcDbEntity
  8
0
100
AcDbLine
 10
163.0574442819
 20
159.5921295769
 30
0.0
 11
165.5574442819
 21
159.5921295769
 31
0.0
  0
LINE
  5
842
330
2
100
AcDbEntity
  8
0
100
AcDbLine
 10
163.0574442819
 20
168.5921295769
 30
0.0
 11
165.5574442819
 21
168.5921295769
 31
0.0
  0
CIRCLE
  5
843
330
2
100
AcDbEntity
  8
0
100
AcDbCircle
 10
165.5574442819
 20
164.0921295769
 30
0.0
 40
3.5
  0
CIRCLE
  5
844
330
2
100
AcDbEntity
  8
0
100
AcDbCircle
 10
165.5574442819
 20
164.0921295769
 30
0.0
 40
3.799999999999998
  0
LINE
  5
845
330
2
100
AcDbEntity
  8
0
100
AcDbLine
 10
160.5574442819
 20
166.2825895769
 30
0.0
 11
161.0574442819
 21
166.2825895769
 31
0.0
  0
ARC
  5
846
330
2
100
AcDbEntity
  8
0
100
AcDbCircle
 10
165.5574442819
 20
164.0921295769
 30
0.0
 40
4.5
100
AcDbArc
 50
270.0
 51
90.0
  0
LINE
  5
847
330
2
100
AcDbEntity
  8
0
100
AcDbLine
 10
165.5574442819
 20
162.2921115769
 30
0.0
 11
167.0574442819
 21
163.1581395769
 31
0.0
  0
LINE
  5
848
330
2
100
AcDbEntity
  8
0
100
AcDbLine
 10
165.5574442819
 20
162.2921115769
 30
0.0
 11
164.0574442819
 21
163.1581395769
 31
0.0
  0
LINE
  5
849
330
2
100
AcDbEntity
  8
0
100
AcDbLine
 10
165.5574442819
 20
165.8921175769
 30
0.0
 11
164.0574442819
 21
165.0260895769
 31
0.0
  0
LINE
  5
84A
330
2
100
AcDbEntity
  8
0
100
AcDbLine
 10
165.5574442819
 20
165.8921175769
 30
0.0
 11
167.0574442819
 21
165.0260895769
 31
0.0
  0
LINE
  5
84B
330
2
100
AcDbEntity
  8
0
100
AcDbLine
 10
164.0574442819
 20
163.1581395769
 30
0.0
 11
164.0574442819
 21
165.0260895769
 31
0.0
  0
LINE
  5
84C
330
2
100
AcDbEntity
  8
0
100
AcDbLine
 10
167.0574442819
 20
163.1581395769
 30
0.0
 11
167.0574442819
 21
165.0260895769
 31
0.0
  0
ARC
  5
84D
330
2
100
AcDbEntity
  8
0
100
AcDbCircle
 10
174.0574442819
 20
161.0921295769
 30
0.0
 40
2.0
100
AcDbArc
 50
270.0
 51
319.398705
  0
LINE
  5
84E
330
2
100
AcDbEntity
  8
0
100
AcDbLine
 10
173.1375682819
 20
161.0921295769
 30
0.0
 11
172.6925302819
 21
161.0921295769
 31
0.0
  0
LINE
  5
84F
330
2
100
AcDbEntity
  8
0
100
AcDbLine
 10
174.0574442819
 20
159.0921295769
 30
0.0
 11
172.2837172819
 21
159.0921295769
 31
0.0
  0
LINE
  5
850
330
2
100
AcDbEntity
  8
0
100
AcDbLine
 10
174.8931532819
 20
159.2751125769
 30
0.0
 11
173.9732922819
 21
161.2751125769
 31
0.0
  0
ARC
  5
851
330
2
100
AcDbEntity
  8
0
100
AcDbCircle
 10
173.1375682819
 20
163.0921295769
 30
0.0
 40
2.0
100
AcDbArc
 50
270.0
 51
319.398705
  0
CIRCLE
  5
852
330
2
100
AcDbEntity
  8
HOJO
100
AcDbCircle
 10
168.0574442819
 20
174.0921295769
 30
0.0
 40
4.0
  0
CIRCLE
  5
853
330
2
100
AcDbEntity
  8
0
100
AcDbCircle
 10
168.0574442819
 20
174.0921295769
 30
0.0
 40
4.25
  0
CIRCLE
  5
854
330
2
100
AcDbEntity
  8
0
100
AcDbCircle
 10
168.0574442819
 20
174.0921295769
 30
0.0
 40
3.2
  0
ARC
  5
855
330
2
100
AcDbEntity
  8
0
100
AcDbCircle
 10
168.0574442819
 20
174.0921295769
 30
0.0
 40
7.0
100
AcDbArc
 50
47.364067
 51
180.0
  0
LINE
  5
857
330
2
100
AcDbEntity
  8
0
100
AcDbLine
 10
160.3938242819
 20
178.7168245769
 30
0.0
 11
165.6244612819
 21
180.6556975769
 31
0.0
  0
ARC
  5
858
330
2
100
AcDbEntity
  8
0
100
AcDbCircle
 10
159.6986952819
 20
180.5921295769
 30
0.0
 40
2.0
100
AcDbArc
 50
270.0
 51
290.33873
  0
ARC
  5
859
330
2
100
AcDbEntity
  8
0
100
AcDbCircle
 10
176.8628332819
 20
183.6558805769
 30
0.0
 40
6.0
100
AcDbArc
 50
227.364075
 51
300.358303
  0
ARC
  5
85A
330
2
100
AcDbEntity
  8
0
100
AcDbCircle
 10
195.0574442819
 20
152.5921295769
 30
0.0
 40
30.0
100
AcDbArc
 50
112.331642
 51
120.358299
  0
ARC
  5
85B
330
2
100
AcDbEntity
  8
0
100
AcDbCircle
 10
185.0574442819
 20
172.8271145769
 30
0.0
 40
2.0
100
AcDbArc
 50
110.487312
 51
180.0
  0
LINE
  5
85C
330
2
100
AcDbEntity
  8
0
100
AcDbLine
 10
184.9332072819
 20
170.8982515769
 30
0.0
 11
182.9332072819
 21
171.6380885769
 31
0.0
  0
ARC
  5
85D
330
2
100
AcDbEntity
  8
0
100
AcDbCircle
 10
181.0574442819
 20
172.3319675769
 30
0.0
 40
2.0
100
AcDbArc
 50
319.398705
 51
0.0
  0
ARC
  5
85E
330
2
100
AcDbEntity
  8
0
100
AcDbCircle
 10
183.0574442819
 20
171.5921295769
 30
0.0
 40
2.0
100
AcDbArc
 50
319.398705
 51
0.0
  0
LINE
  5
85F
330
2
100
AcDbEntity
  8
0
100
AcDbLine
 10
185.0574442819
 20
171.5921295769
 30
0.0
 11
185.0574442819
 21
173.4570585769
 31
0.0
  0
LINE
  5
860
330
2
100
AcDbEntity
  8
0
100
AcDbLine
 10
183.0574442819
 20
172.3319675769
 30
0.0
 11
183.0574442819
 21
172.8271145769
 31
0.0
  0
CIRCLE
  5
861
330
2
100
AcDbEntity
  8
0
100
AcDbCircle
 10
222.0574442819
 20
140.5921295769
 30
0.0
 40
23.0
  0
CIRCLE
  5
862
330
2
100
AcDbEntity
  8
0
100
AcDbCircle
 10
222.0574442819
 20
140.5921295769
 30
0.0
 40
15.0
  0
CIRCLE
  5
863
330
2
100
AcDbEntity
  8
0
100
AcDbCircle
 10
222.0574442819
 20
140.5921295769
 30
0.0
 40
19.0
  0
LINE
  5
865
330
2
100
AcDbEntity
  8
0
100
AcDbLine
 10
237.1816812819
 20
110.2860075769
 30
0.0
 11
239.1816812819
 21
109.5461705769
 31
0.0
  0
ARC
  5
866
330
2
100
AcDbEntity
  8
0
100
AcDbCircle
 10
239.0574442819
 20
109.5921295769
 30
0.0
 40
2.0
100
AcDbArc
 50
139.398712
 51
180.0
  0
ARC
  5
867
330
2
100
AcDbEntity
  8
0
100
AcDbCircle
 10
241.0574442819
 20
108.8522915769
 30
0.0
 40
2.0
100
AcDbArc
 50
139.398712
 51
180.0
  0
LINE
  5
868
330
2
100
AcDbEntity
  8
0
100
AcDbLine
 10
230.0574442819
 20
176.0921295769
 30
0.0
 11
192.0574442819
 21
176.0921295769
 31
0.0
  0
ARC
  5
869
330
2
100
AcDbEntity
  8
0
100
AcDbCircle
 10
230.0574442819
 20
154.0921295769
 30
0.0
 40
22.0
100
AcDbArc
 50
69.512688
 51
90.0
  0
ARC
  5
86A
330
2
100
AcDbEntity
  8
0
100
AcDbCircle
 10
227.0574442819
 20
152.5921295769
 30
0.0
 40
30.0
100
AcDbArc
 50
59.641697
 51
67.668358
  0
ARC
  5
86B
330
2
100
AcDbEntity
  8
0
100
AcDbCircle
 10
237.0574442819
 20
172.8271145769
 30
0.0
 40
2.0
100
AcDbArc
 50
0.0
 51
69.512688
  0
LINE
  5
86C
330
2
100
AcDbEntity
  8
0
100
AcDbLine
 10
237.1816812819
 20
170.8982515769
 30
0.0
 11
239.1816812819
 21
171.6380885769
 31
0.0
  0
ARC
  5
86D
330
2
100
AcDbEntity
  8
0
100
AcDbCircle
 10
235.0574442819
 20
173.4570585769
 30
0.0
 40
2.0
100
AcDbArc
 50
0.0
 51
75.522491
  0
ARC
  5
86E
330
2
100
AcDbEntity
  8
0
100
AcDbCircle
 10
239.0574442819
 20
171.5921295769
 30
0.0
 40
2.0
100
AcDbArc
 50
180.0
 51
220.601288
  0
LINE
  5
86F
330
2
100
AcDbEntity
  8
0
100
AcDbLine
 10
237.0574442819
 20
171.5921295769
 30
0.0
 11
237.0574442819
 21
173.4570585769
 31
0.0
  0
ARC
  5
870
330
2
100
AcDbEntity
  8
0
100
AcDbCircle
 10
241.0574442819
 20
172.3319675769
 30
0.0
 40
2.0
100
AcDbArc
 50
180.0
 51
220.601288
  0
LINE
  5
871
330
2
100
AcDbEntity
  8
0
100
AcDbLine
 10
239.0574442819
 20
172.3319675769
 30
0.0
 11
239.0574442819
 21
172.8271145769
 31
0.0
  0
ARC
  5
872
330
2
100
AcDbEntity
  8
0
100
AcDbCircle
 10
234.6567792819
 20
171.0921295769
 30
0.0
 40
10.0
100
AcDbArc
 50
67.668358
 51
90.0
  0
LINE
  5
873
330
2
100
AcDbEntity
  8
0
100
AcDbLine
 10
252.0574442819
 20
154.0921295769
 30
0.0
 11
252.0574442819
 21
127.0921295769
 31
0.0
  0
LINE
  5
874
330
2
100
AcDbEntity
  8
0
100
AcDbLine
 10
257.0574442819
 20
129.9205595769
 30
0.0
 11
257.0574442819
 21
151.2636995769
 31
0.0
  0
ARC
  5
875
330
2
100
AcDbEntity
  8
0
100
AcDbCircle
 10
259.0574442819
 20
129.9205595769
 30
0.0
 40
2.0
100
AcDbArc
 50
180.0
 51
225.0
  0
ARC
  5
876
330
2
100
AcDbEntity
  8
0
100
AcDbCircle
 10
259.0574442819
 20
123.5921295769
 30
0.0
 40
2.0
100
AcDbArc
 50
270.0
 51
0.0
  0
ARC
  5
877
330
2
100
AcDbEntity
  8
0
100
AcDbCircle
 10
259.0574442819
 20
110.5921295769
 30
0.0
 40
2.0
100
AcDbArc
 50
0.0
 51
90.0
  0
ARC
  5
879
330
2
100
AcDbEntity
  8
0
100
AcDbCircle
 10
256.5574442819
 20
117.0921295769
 30
0.0
 40
4.5
100
AcDbArc
 50
90.0
 51
270.0
  0
LINE
  5
87B
330
2
100
AcDbEntity
  8
0
100
AcDbLine
 10
256.5574442819
 20
118.8921475769
 30
0.0
 11
255.0574442819
 21
118.0261195769
 31
0.0
  0
LINE
  5
87C
330
2
100
AcDbEntity
  8
0
100
AcDbLine
 10
256.5574442819
 20
118.8921475769
 30
0.0
 11
258.0574442819
 21
118.0261195769
 31
0.0
  0
CIRCLE
  5
87D
330
2
100
AcDbEntity
  8
0
100
AcDbCircle
 10
256.5574442819
 20
117.0921295769
 30
0.0
 40
3.5
  0
CIRCLE
  5
87E
330
2
100
AcDbEntity
  8
0
100
AcDbCircle
 10
256.5574442819
 20
117.0921295769
 30
0.0
 40
3.799999999999998
  0
LINE
  5
87F
330
2
100
AcDbEntity
  8
0
100
AcDbLine
 10
259.0574442819
 20
112.5921295769
 30
0.0
 11
256.5574442819
 21
112.5921295769
 31
0.0
  0
LINE
  5
880
330
2
100
AcDbEntity
  8
0
100
AcDbLine
 10
256.5574442819
 20
115.2921415769
 30
0.0
 11
258.0574442819
 21
116.1581695769
 31
0.0
  0
LINE
  5
881
330
2
100
AcDbEntity
  8
0
100
AcDbLine
 10
256.5574442819
 20
115.2921415769
 30
0.0
 11
255.0574442819
 21
116.1581695769
 31
0.0
  0
LINE
  5
882
330
2
100
AcDbEntity
  8
0
100
AcDbLine
 10
258.0574442819
 20
118.0261195769
 30
0.0
 11
258.0574442819
 21
116.1581695769
 31
0.0
  0
LINE
  5
883
330
2
100
AcDbEntity
  8
0
100
AcDbLine
 10
255.0574442819
 20
118.0261195769
 30
0.0
 11
255.0574442819
 21
116.1581695769
 31
0.0
  0
ARC
  5
884
330
2
100
AcDbEntity
  8
0
100
AcDbCircle
 10
230.0574442819
 20
127.0921295769
 30
0.0
 40
22.0
100
AcDbArc
 50
345.522488
 51
0.0
  0
ARC
  5
885
330
2
100
AcDbEntity
  8
0
100
AcDbCircle
 10
249.4223732819
 20
122.0921295769
 30
0.0
 40
2.0
100
AcDbArc
 50
270.0
 51
345.522491
  0
ARC
  5
886
330
2
100
AcDbEntity
  8
0
100
AcDbCircle
 10
249.8311562819
 20
124.0921295769
 30
0.0
 40
2.0
100
AcDbArc
 50
270.0
 51
351.373077
  0
LINE
  5
887
330
2
100
AcDbEntity
  8
0
100
AcDbLine
 10
248.9773052819
 20
120.0921295769
 30
0.0
 11
249.4223732819
 21
120.0921295769
 31
0.0
  0
LINE
  5
888
330
2
100
AcDbEntity
  8
0
100
AcDbLine
 10
248.0574442819
 20
122.0921295769
 30
0.0
 11
249.8311562819
 21
122.0921295769
 31
0.0
  0
LINE
  5
889
330
2
100
AcDbEntity
  8
0
100
AcDbLine
 10
247.2217202819
 20
121.9091465769
 30
0.0
 11
248.1416112819
 21
119.9091465769
 31
0.0
  0
ARC
  5
88A
330
2
100
AcDbEntity
  8
0
100
AcDbCircle
 10
248.0574442819
 20
120.0921295769
 30
0.0
 40
2.0
100
AcDbArc
 50
90.0
 51
139.398712
  0
ARC
  5
88B
330
2
100
AcDbEntity
  8
0
100
AcDbCircle
 10
248.9773052819
 20
118.0921295769
 30
0.0
 40
2.0
100
AcDbArc
 50
90.0
 51
139.398712
  0
LINE
  5
88C
330
2
100
AcDbEntity
  8
0
100
AcDbLine
 10
259.0574442819
 20
121.5921295769
 30
0.0
 11
256.5574442819
 21
121.5921295769
 31
0.0
  0
ARC
  5
88D
330
2
100
AcDbEntity
  8
0
100
AcDbCircle
 10
259.0574442819
 20
124.2636995769
 30
0.0
 40
2.0
100
AcDbArc
 50
0.0
 51
45.0
  0
LINE
  5
88E
330
2
100
AcDbEntity
  8
0
100
AcDbLine
 10
257.6432292819
 20
128.5063445769
 30
0.0
 11
260.4716592819
 21
125.6779145769
 31
0.0
  0
ARC
  5
88F
330
2
100
AcDbEntity
  8
0
100
AcDbCircle
 10
259.0574442819
 20
170.5921295769
 30
0.0
 40
2.0
100
AcDbArc
 50
270.0
 51
0.0
  0
ARC
  5
892
330
2
100
AcDbEntity
  8
0
100
AcDbCircle
 10
259.0574442819
 20
157.5921295769
 30
0.0
 40
2.0
100
AcDbArc
 50
0.0
 51
90.0
  0
ARC
  5
894
330
2
100
AcDbEntity
  8
0
100
AcDbCircle
 10
230.0574442819
 20
154.0921295769
 30
0.0
 40
22.0
100
AcDbArc
 50
0.0
 51
14.477512
  0
ARC
  5
895
330
2
100
AcDbEntity
  8
0
100
AcDbCircle
 10
249.8311562819
 20
157.0921295769
 30
0.0
 40
2.0
100
AcDbArc
 50
8.626927
 51
90.0
  0
ARC
  5
896
330
2
100
AcDbEntity
  8
0
100
AcDbCircle
 10
248.0574442819
 20
161.0921295769
 30
0.0
 40
2.0
100
AcDbArc
 50
220.601288
 51
270.0
  0
ARC
  5
897
330
2
100
AcDbEntity
  8
0
100
AcDbCircle
 10
259.0574442819
 20
151.2636995769
 30
0.0
 40
2.0
100
AcDbArc
 50
135.0
 51
180.0
  0
ARC
  5
898
330
2
100
AcDbEntity
  8
0
100
AcDbCircle
 10
259.0574442819
 20
156.9205595769
 30
0.0
 40
2.0
100
AcDbArc
 50
315.0
 51
0.0
  0
LINE
  5
899
330
2
100
AcDbEntity
  8
0
100
AcDbLine
 10
257.6432292819
 20
152.6779145769
 30
0.0
 11
260.4716592819
 21
155.5063445769
 31
0.0
  0
ARC
  5
89A
330
2
100
AcDbEntity
  8
0
100
AcDbCircle
 10
256.5574442819
 20
164.0921295769
 30
0.0
 40
4.5
100
AcDbArc
 50
90.0
 51
270.0
  0
CIRCLE
  5
89B
330
2
100
AcDbEntity
  8
0
100
AcDbCircle
 10
256.5574442819
 20
164.0921295769
 30
0.0
 40
3.5
  0
CIRCLE
  5
89C
330
2
100
AcDbEntity
  8
0
100
AcDbCircle
 10
256.5574442819
 20
164.0921295769
 30
0.0
 40
3.799999999999998
  0
ARC
  5
89D
330
2
100
AcDbEntity
  8
0
100
AcDbCircle
 10
249.4223732819
 20
159.0921295769
 30
0.0
 40
2.0
100
AcDbArc
 50
14.477512
 51
90.0
  0
LINE
  5
89E
330
2
100
AcDbEntity
  8
0
100
AcDbLine
 10
248.9773052819
 20
161.0921295769
 30
0.0
 11
249.4223732819
 21
161.0921295769
 31
0.0
  0
LINE
  5
89F
330
2
100
AcDbEntity
  8
0
100
AcDbLine
 10
248.0574442819
 20
159.0921295769
 30
0.0
 11
249.8311562819
 21
159.0921295769
 31
0.0
  0
LINE
  5
8A0
330
2
100
AcDbEntity
  8
0
100
AcDbLine
 10
247.2217202819
 20
159.2751125769
 30
0.0
 11
248.1416112819
 21
161.2751125769
 31
0.0
  0
ARC
  5
8A1
330
2
100
AcDbEntity
  8
0
100
AcDbCircle
 10
248.9773052819
 20
163.0921295769
 30
0.0
 40
2.0
100
AcDbArc
 50
220.601288
 51
270.0
  0
LINE
  5
8A2
330
2
100
AcDbEntity
  8
0
100
AcDbLine
 10
259.0574442819
 20
159.5921295769
 30
0.0
 11
256.5574442819
 21
159.5921295769
 31
0.0
  0
LINE
  5
8A3
330
2
100
AcDbEntity
  8
0
100
AcDbLine
 10
259.0574442819
 20
168.5921295769
 30
0.0
 11
256.5574442819
 21
168.5921295769
 31
0.0
  0
LINE
  5
8A4
330
2
100
AcDbEntity
  8
0
100
AcDbLine
 10
256.5574442819
 20
162.2921115769
 30
0.0
 11
255.0574442819
 21
163.1581395769
 31
0.0
  0
LINE
  5
8A5
330
2
100
AcDbEntity
  8
0
100
AcDbLine
 10
256.5574442819
 20
162.2921115769
 30
0.0
 11
258.0574442819
 21
163.1581395769
 31
0.0
  0
LINE
  5
8A6
330
2
100
AcDbEntity
  8
0
100
AcDbLine
 10
256.5574442819
 20
165.8921175769
 30
0.0
 11
258.0574442819
 21
165.0260895769
 31
0.0
  0
LINE
  5
8A7
330
2
100
AcDbEntity
  8
0
100
AcDbLine
 10
256.5574442819
 20
165.8921175769
 30
0.0
 11
255.0574442819
 21
165.0260895769
 31
0.0
  0
LINE
  5
8A8
330
2
100
AcDbEntity
  8
0
100
AcDbLine
 10
258.0574442819
 20
163.1581395769
 30
0.0
 11
258.0574442819
 21
165.0260895769
 31
0.0
  0
LINE
  5
8A9
330
2
100
AcDbEntity
  8
0
100
AcDbLine
 10
255.0574442819
 20
163.1581395769
 30
0.0
 11
255.0574442819
 21
165.0260895769
 31
0.0
  0
ARC
  5
8AA
330
2
100
AcDbEntity
  8
0
100
AcDbCircle
 10
254.0574442819
 20
174.0921295769
 30
0.0
 40
7.0
100
AcDbArc
 50
0.0
 51
132.635925
  0
CIRCLE
  5
8AC
330
2
100
AcDbEntity
  8
HOJO
100
AcDbCircle
 10
254.0574442819
 20
174.0921295769
 30
0.0
 40
4.0
  0
CIRCLE
  5
8AD
330
2
100
AcDbEntity
  8
0
100
AcDbCircle
 10
254.0574442819
 20
174.0921295769
 30
0.0
 40
4.25
  0
CIRCLE
  5
8AE
330
2
100
AcDbEntity
  8
0
100
AcDbCircle
 10
254.0574442819
 20
174.0921295769
 30
0.0
 40
3.2
  0
LINE
  5
8AF
330
2
100
AcDbEntity
  8
HIDS
100
AcDbLine
 10
330.8265968717
 20
162.1606715769
 30
0.0
 11
330.8265968717
 21
117.5921295769
 31
0.0
  0
LINE
  5
8B0
330
2
100
AcDbEntity
  8
0
100
AcDbLine
 10
363.4936808717
 20
149.7659885769
 30
0.0
 11
363.4936808717
 21
131.4182705769
 31
0.0
  0
LINE
  5
8B1
330
2
100
AcDbEntity
  8
0
100
AcDbLine
 10
365.8265968717
 20
127.4589815769
 30
0.0
 11
365.8265968717
 21
153.7252775769
 31
0.0
  0
LINE
  5
8B2
330
2
100
AcDbEntity
  8
0
100
AcDbLine
 10
375.8265968717
 20
153.5070775769
 30
0.0
 11
375.8265968717
 21
127.6771815769
 31
0.0
  0
ARC
  5
8B3
330
2
100
AcDbEntity
  8
HIDS
100
AcDbCircle
 10
370.8265968717
 20
140.5921295769
 30
0.0
 40
38.0
100
AcDbArc
 50
129.356705
 51
230.643295
  0
LINE
  5
8B5
330
2
100
AcDbEntity
  8
HOJO
100
AcDbLine
 10
342.8265968717
 20
111.0921295769
 30
0.0
 11
362.8265968717
 21
111.0921295769
 31
0.0
  0
LINE
  5
8B6
330
2
100
AcDbEntity
  8
0
100
AcDbLine
 10
361.5285928717
 20
129.4185765769
 30
0.0
 11
342.8265968717
 21
129.0921295769
 31
0.0
  0
LINE
  5
8B7
330
2
100
AcDbEntity
  8
0
100
AcDbLine
 10
363.8615088717
 20
125.4592865769
 30
0.0
 11
342.8265968717
 21
125.0921295769
 31
0.0
  0
ARC
  5
8B8
330
2
100
AcDbEntity
  8
HIDS
100
AcDbCircle
 10
344.8265968717
 20
108.8904085769
 30
0.0
 40
3.0
100
AcDbArc
 50
0.0
 51
50.643299
  0
LINE
  5
8BA
330
2
100
AcDbEntity
  8
0
100
AcDbLine
 10
330.3265968717
 20
111.3421295769
 30
0.0
 11
342.8265968717
 21
111.3421295769
 31
0.0
  0
ARC
  5
8BB
330
2
100
AcDbEntity
  8
HIDS
100
AcDbCircle
 10
333.8265968717
 20
117.5921295769
 30
0.0
 40
3.0
100
AcDbArc
 50
180.0
 51
270.0
  0
LINE
  5
8BC
330
2
100
AcDbEntity
  8
0
100
AcDbLine
 10
342.8265968717
 20
125.0921295769
 30
0.0
 11
330.3265968717
 21
125.0921295769
 31
0.0
  0
LINE
  5
8BD
330
2
100
AcDbEntity
  8
0
100
AcDbLine
 10
330.3265968717
 20
121.7623265769
 30
0.0
 11
336.8265968717
 21
121.5921295769
 31
0.0
  0
LINE
  5
8BE
330
2
100
AcDbEntity
  8
0
100
AcDbLine
 10
331.8265658717
 20
120.5921295769
 30
0.0
 11
335.8265658717
 21
120.5921605769
 31
0.0
  0
LINE
  5
8BF
330
2
100
AcDbEntity
  8
CENTER
100
AcDbLine
 10
329.8868998717
 20
117.0921295769
 30
0.0
 11
337.8716098717
 21
117.0921295769
 31
0.0
  0
LINE
  5
8C2
330
2
100
AcDbEntity
  8
0
100
AcDbLine
 10
331.8265658717
 20
115.0189793167
 30
0.0
 11
331.8265658717
 21
120.5921295769
 31
0.0
  0
LINE
  5
8C3
330
2
100
AcDbEntity
  8
0
100
AcDbLine
 10
336.8265968717
 20
115.4062748982
 30
0.0
 11
336.8265968717
 21
121.5921295769
 31
0.0
  0
LINE
  5
8C4
330
2
100
AcDbEntity
  8
0
100
AcDbLine
 10
335.8265658717
 20
115.2669903892
 30
0.0
 11
335.8265658717
 21
120.8921175769
 31
0.0
  0
LINE
  5
8C7
330
2
100
AcDbEntity
  8
HIDS
100
AcDbLine
 10
333.8265968717
 20
114.5921295769
 30
0.0
 11
337.4296238717
 21
114.5921295769
 31
0.0
  0
LINE
  5
8CA
330
2
100
AcDbEntity
  8
0
100
AcDbLine
 10
335.8265658717
 20
120.8921175769
 30
0.0
 11
336.8265968717
 21
120.8921175769
 31
0.0
  0
LINE
  5
8CB
330
2
100
AcDbEntity
  8
0
100
AcDbLine
 10
342.8265968717
 20
129.0921295769
 30
0.0
 11
330.3265968717
 21
129.0921295769
 31
0.0
  0
LINE
  5
8CC
330
2
100
AcDbEntity
  8
0
100
AcDbLine
 10
365.3977328717
 20
126.2214325769
 30
0.0
 11
363.0648168717
 21
130.1807225769
 31
0.0
  0
ARC
  5
8D3
330
2
100
AcDbEntity
  8
0
100
AcDbCircle
 10
363.8265968717
 20
127.4589815769
 30
0.0
 40
2.0
100
AcDbArc
 50
271.0
 51
0.0
  0
ARC
  5
8D4
330
2
100
AcDbEntity
  8
0
100
AcDbCircle
 10
361.4936808717
 20
131.4182705769
 30
0.0
 40
2.0
100
AcDbArc
 50
271.0
 51
0.0
  0
LINE
  5
8D6
330
2
100
AcDbEntity
  8
HIDS
100
AcDbLine
 10
342.8265968717
 20
170.0921295769
 30
0.0
 11
362.8265968717
 21
170.0921295769
 31
0.0
  0
LINE
  5
8D7
330
2
100
AcDbEntity
  8
HIDS
100
AcDbLine
 10
342.8265968717
 20
178.0921295769
 30
0.0
 11
362.8265968717
 21
178.0921295769
 31
0.0
  0
ARC
  5
8D8
330
2
100
AcDbEntity
  8
HIDS
100
AcDbCircle
 10
349.2580548717
 20
175.5921295769
 30
0.0
 40
5.0
100
AcDbArc
 50
90.0
 51
135.0
  0
LINE
  5
8D9
330
2
100
AcDbEntity
  8
0
100
AcDbLine
 10
361.5285928717
 20
151.7656825769
 30
0.0
 11
342.8265968717
 21
152.0921295769
 31
0.0
  0
LINE
  5
8DA
330
2
100
AcDbEntity
  8
0
100
AcDbLine
 10
363.8615088717
 20
155.7249725769
 30
0.0
 11
342.8265968717
 21
156.0921295769
 31
0.0
  0
ARC
  5
8DB
330
2
100
AcDbEntity
  8
HIDS
100
AcDbCircle
 10
344.8265968717
 20
172.2938505769
 30
0.0
 40
3.0
100
AcDbArc
 50
309.356701
 51
0.0
  0
LINE
  5
8DC
330
2
100
AcDbEntity
  8
0
100
AcDbLine
 10
370.8265968717
 20
181.0921295769
 30
0.0
 11
330.3265968717
 21
180.3851895769
 31
0.0
  0
LINE
  5
8E1
330
2
100
AcDbEntity
  8
HIDS
100
AcDbLine
 10
332.2910748717
 20
165.6961945769
 30
0.0
 11
345.7225318717
 21
179.1276515769
 31
0.0
  0
ARC
  5
8E2
330
2
100
AcDbEntity
  8
HIDS
100
AcDbCircle
 10
335.8265968717
 20
162.1606715769
 30
0.0
 40
5.0
100
AcDbArc
 50
135.0
 51
180.0
  0
LINE
  5
8E3
330
2
100
AcDbEntity
  8
0
100
AcDbLine
 10
342.8265968717
 20
152.0921295769
 30
0.0
 11
330.3265968717
 21
152.0921295769
 31
0.0
  0
LINE
  5
8E4
330
2
100
AcDbEntity
  8
0
100
AcDbLine
 10
342.8265968717
 20
156.0921295769
 30
0.0
 11
330.3265968717
 21
156.0921295769
 31
0.0
  0
LINE
  5
8E5
330
2
100
AcDbEntity
  8
0
100
AcDbLine
 10
330.3265968717
 20
159.4219325769
 30
0.0
 11
336.8265968717
 21
159.5921295769
 31
0.0
  0
LINE
  5
8E6
330
2
100
AcDbEntity
  8
0
100
AcDbLine
 10
331.8265658717
 20
160.5921295769
 30
0.0
 11
335.8265658717
 21
160.5920985769
 31
0.0
  0
LINE
  5
8E7
330
2
100
AcDbEntity
  8
CENTER
100
AcDbLine
 10
329.8868998717
 20
164.0921295769
 30
0.0
 11
337.8716098717
 21
164.0921295769
 31
0.0
  0
LINE
  5
8E8
330
2
100
AcDbEntity
  8
0
100
AcDbLine
 10
330.3265968717
 20
168.7623265769
 30
0.0
 11
336.8265968717
 21
168.5921295769
 31
0.0
  0
LINE
  5
8E9
330
2
100
AcDbEntity
  8
0
100
AcDbLine
 10
331.8265658717
 20
167.5921295769
 30
0.0
 11
335.8265658717
 21
167.5921605769
 31
0.0
  0
LINE
  5
8EA
330
2
100
AcDbEntity
  8
0
100
AcDbLine
 10
331.8265658717
 20
167.5921295769
 30
0.0
 11
331.8265658717
 21
160.5921295769
 31
0.0
  0
LINE
  5
8EB
330
2
100
AcDbEntity
  8
0
100
AcDbLine
 10
335.8265658717
 20
160.2921415769
 30
0.0
 11
336.8265968717
 21
160.2921415769
 31
0.0
  0
LINE
  5
8EC
330
2
100
AcDbEntity
  8
0
100
AcDbLine
 10
336.8265968717
 20
168.5921295769
 30
0.0
 11
336.8265968717
 21
159.5921295769
 31
0.0
  0
LINE
  5
8ED
330
2
100
AcDbEntity
  8
0
100
AcDbLine
 10
335.8265658717
 20
167.8921175769
 30
0.0
 11
336.8265968717
 21
167.8921175769
 31
0.0
  0
LINE
  5
8EE
330
2
100
AcDbEntity
  8
0
100
AcDbLine
 10
335.8265658717
 20
167.8921175769
 30
0.0
 11
335.8265658717
 21
160.2921415769
 31
0.0
  0
LINE
  5
8EF
330
2
100
AcDbEntity
  8
HIDS
100
AcDbLine
 10
330.3265968717
 20
169.8421295769
 30
0.0
 11
342.8265968717
 21
169.8421295769
 31
0.0
  0
LINE
  5
8F0
330
2
100
AcDbEntity
  8
HIDS
100
AcDbLine
 10
330.3265968717
 20
178.3421295769
 30
0.0
 11
342.8265968717
 21
178.3421295769
 31
0.0
  0
ARC
  5
8F3
330
2
100
AcDbEntity
  8
0
100
AcDbCircle
 10
361.4936808717
 20
149.7659885769
 30
0.0
 40
2.0
100
AcDbArc
 50
0.0
 51
89.0
  0
ARC
  5
8F6
330
2
100
AcDbEntity
  8
0
100
AcDbCircle
 10
363.8265968717
 20
153.7252775769
 30
0.0
 40
2.0
100
AcDbArc
 50
0.0
 51
89.0
  0
LINE
  5
8F7
330
2
100
AcDbEntity
  8
0
100
AcDbLine
 10
363.0648168717
 20
151.0035365769
 30
0.0
 11
365.3977328717
 21
154.9628265769
 31
0.0
  0
LINE
  5
8FA
330
2
100
AcDbEntity
  8
HIDS
100
AcDbLine
 10
349.7916848717
 20
178.2249725769
 30
0.0
 11
370.8265968717
 21
178.5921295769
 31
0.0
  0
LINE
  5
8FB
330
2
100
AcDbEntity
  8
HIDS
100
AcDbLine
 10
347.8265968717
 20
176.2252775769
 30
0.0
 11
347.8265968717
 21
172.2938505769
 31
0.0
  0
ARC
  5
8FC
330
2
100
AcDbEntity
  8
HIDS
100
AcDbCircle
 10
349.8265968717
 20
176.2252775769
 30
0.0
 40
2.0
100
AcDbArc
 50
91.0
 51
180.0
  0
LINE
  5
8FD
330
2
100
AcDbEntity
  8
HIDS
100
AcDbLine
 10
362.8265968717
 20
178.0921295769
 30
0.0
 11
362.8265968717
 21
170.0921295769
 31
0.0
  0
CIRCLE
  5
8FE
330
2
100
AcDbEntity
  8
HOJO
100
AcDbCircle
 10
617.9689412573
 20
107.0921295769
 30
0.0
 40
4.0
  0
CIRCLE
  5
8FF
330
2
100
AcDbEntity
  8
HOJO
100
AcDbCircle
 10
531.9689412573
 20
107.0921295769
 30
0.0
 40
4.0
  0
LINE
  5
900
330
2
100
AcDbEntity
  8
HOJO
100
AcDbLine
 10
378.8265968717
 20
111.0921295769
 30
0.0
 11
378.8265968717
 21
103.0921295769
 31
0.0
  0
CIRCLE
  5
901
330
2
100
AcDbEntity
  8
0
100
AcDbCircle
 10
531.9689412573
 20
107.0921295769
 30
0.0
 40
3.2
  0
CIRCLE
  5
902
330
2
100
AcDbEntity
  8
0
100
AcDbCircle
 10
617.9689412573
 20
107.0921295769
 30
0.0
 40
3.2
  0
LINE
  5
903
330
2
100
AcDbEntity
  8
HIDS
100
AcDbLine
 10
409.3621188717
 20
115.4880645769
 30
0.0
 11
395.9306618717
 21
102.0565915769
 31
0.0
  0
LINE
  5
904
330
2
100
AcDbEntity
  8
0
100
AcDbLine
 10
756.5244222573
 20
175.5921295769
 30
0.0
 11
756.5244222573
 21
105.5921295769
 31
0.0
  0
LINE
  5
905
330
2
100
AcDbEntity
  8
0
100
AcDbLine
 10
707.5244222573
 20
100.5921295769
 30
0.0
 11
707.5244222573
 21
180.5921295769
 31
0.0
  0
LINE
  5
906
330
2
100
AcDbEntity
  8
0
100
AcDbLine
 10
698.0244222573
 20
178.5921295769
 30
0.0
 11
698.0244222573
 21
102.5921295769
 31
0.0
  0
LINE
  5
907
330
2
100
AcDbEntity
  8
0
100
AcDbLine
 10
600.9689412573
 20
109.5921295769
 30
0.0
 11
600.9689412573
 21
107.7272005769
 31
0.0
  0
LINE
  5
908
330
2
100
AcDbEntity
  8
0
100
AcDbLine
 10
602.9689412573
 20
108.8522915769
 30
0.0
 11
602.9689412573
 21
108.3571445769
 31
0.0
  0
LINE
  5
909
330
2
100
AcDbEntity
  8
0
100
AcDbLine
 10
548.9689412573
 20
109.5921295769
 30
0.0
 11
548.9689412573
 21
107.7272005769
 31
0.0
  0
LINE
  5
90A
330
2
100
AcDbEntity
  8
0
100
AcDbLine
 10
546.9689412573
 20
108.8522915769
 30
0.0
 11
546.9689412573
 21
108.3571445769
 31
0.0
  0
LINE
  5
90B
330
2
100
AcDbEntity
  8
0
100
AcDbLine
 10
624.9689412573
 20
124.2636995769
 30
0.0
 11
624.9689412573
 21
107.0921295769
 31
0.0
  0
LINE
  5
90C
330
2
100
AcDbEntity
  8
0
100
AcDbLine
 10
524.9689412573
 20
107.0921295769
 30
0.0
 11
524.9689412573
 21
174.0921295769
 31
0.0
  0
LINE
  5
90F
330
2
100
AcDbEntity
  8
HIDS
100
AcDbLine
 10
393.8265968717
 20
104.9589965769
 30
0.0
 11
393.8265968717
 21
108.8904085769
 31
0.0
  0
LINE
  5
910
330
2
100
AcDbEntity
  8
0
100
AcDbLine
 10
411.3265968717
 20
180.3851895769
 30
0.0
 11
411.3265968717
 21
100.7990535769
 31
0.0
  0
ARC
  5
911
330
2
100
AcDbEntity
  8
0
100
AcDbCircle
 10
617.9689412573
 20
107.0921295769
 30
0.0
 40
7.0
100
AcDbArc
 50
227.364075
 51
0.0
  0
LINE
  5
913
330
2
100
AcDbEntity
  8
HOJO
100
AcDbLine
 10
378.8265968717
 20
103.0921295769
 30
0.0
 11
411.3265968717
 21
103.0921295769
 31
0.0
  0
ARC
  5
914
330
2
100
AcDbEntity
  8
HIDS
100
AcDbCircle
 10
391.8265968717
 20
104.9589965769
 30
0.0
 40
2.0
100
AcDbArc
 50
271.0
 51
0.0
  0
ARC
  5
915
330
2
100
AcDbEntity
  8
HIDS
100
AcDbCircle
 10
392.3951388717
 20
105.5921295769
 30
0.0
 40
5.0
100
AcDbArc
 50
270.0
 51
315.0
  0
LINE
  5
916
330
2
100
AcDbEntity
  8
0
100
AcDbLine
 10
555.9689412573
 20
105.0921295769
 30
0.0
 11
593.9689412573
 21
105.0921295769
 31
0.0
  0
LINE
  5
917
330
2
100
AcDbEntity
  8
0
100
AcDbLine
 10
617.9689412573
 20
100.0921295769
 30
0.0
 11
531.9689412573
 21
100.0921295769
 31
0.0
  0
ARC
  5
918
330
2
100
AcDbEntity
  8
0
100
AcDbCircle
 10
531.9689412573
 20
107.0921295769
 30
0.0
 40
7.0
100
AcDbArc
 50
180.0
 51
312.635925
  0
ARC
  5
91A
330
2
100
AcDbEntity
  8
0
100
AcDbCircle
 10
540.7743002573
 20
97.5283935769
 30
0.0
 40
6.0
100
AcDbArc
 50
59.641697
 51
132.635925
  0
ARC
  5
91B
330
2
100
AcDbEntity
  8
0
100
AcDbCircle
 10
555.9689412573
 20
127.0921295769
 30
0.0
 40
22.0
100
AcDbArc
 50
249.512688
 51
270.0
  0
ARC
  5
91C
330
2
100
AcDbEntity
  8
0
100
AcDbCircle
 10
551.3695762573
 20
110.0921295769
 30
0.0
 40
10.0
100
AcDbArc
 50
247.66835
 51
270.0
  0
ARC
  5
91D
330
2
100
AcDbEntity
  8
0
100
AcDbCircle
 10
548.9689412573
 20
108.3571445769
 30
0.0
 40
2.0
100
AcDbArc
 50
180.0
 51
249.51268
  0
ARC
  5
91E
330
2
100
AcDbEntity
  8
0
100
AcDbCircle
 10
550.9689412573
 20
107.7272005769
 30
0.0
 40
2.0
100
AcDbArc
 50
180.0
 51
255.522491
  0
ARC
  5
91F
330
2
100
AcDbEntity
  8
0
100
AcDbCircle
 10
558.9689412573
 20
128.5921295769
 30
0.0
 40
30.0
100
AcDbArc
 50
239.641693
 51
247.66835
  0
ARC
  5
920
330
2
100
AcDbEntity
  8
0
100
AcDbCircle
 10
590.9689412573
 20
128.5921295769
 30
0.0
 40
30.0
100
AcDbArc
 50
292.331635
 51
300.358307
  0
ARC
  5
921
330
2
100
AcDbEntity
  8
0
100
AcDbCircle
 10
593.9689412573
 20
127.0921295769
 30
0.0
 40
22.0
100
AcDbArc
 50
270.0
 51
290.487305
  0
ARC
  5
922
330
2
100
AcDbEntity
  8
0
100
AcDbCircle
 10
600.9689412573
 20
108.3571445769
 30
0.0
 40
2.0
100
AcDbArc
 50
290.487312
 51
0.0
  0
ARC
  5
923
330
2
100
AcDbEntity
  8
0
100
AcDbCircle
 10
598.9689412573
 20
107.7272005769
 30
0.0
 40
2.0
100
AcDbArc
 50
284.477509
 51
0.0
  0
ARC
  5
924
330
2
100
AcDbEntity
  8
0
100
AcDbCircle
 10
598.5683062573
 20
110.0921295769
 30
0.0
 40
10.0
100
AcDbArc
 50
270.0
 51
292.331635
  0
ARC
  5
925
330
2
100
AcDbEntity
  8
0
100
AcDbCircle
 10
609.1635822573
 20
97.5283935769
 30
0.0
 40
6.0
100
AcDbArc
 50
47.364067
 51
120.358299
  0
LINE
  5
926
330
2
100
AcDbEntity
  8
0
100
AcDbLine
 10
751.5244222573
 20
100.5921295769
 30
0.0
 11
707.5244222573
 21
100.5921295769
 31
0.0
  0
LINE
  5
927
330
2
100
AcDbEntity
  8
0
100
AcDbLine
 10
698.0244222573
 20
102.5921295769
 30
0.0
 11
626.3277062573
 21
102.5921295769
 31
0.0
  0
ARC
  5
928
330
2
100
AcDbEntity
  8
0
100
AcDbCircle
 10
626.3277062573
 20
100.5921295769
 30
0.0
 40
2.0
100
AcDbArc
 50
90.0
 51
110.33873
  0
LINE
  5
929
330
2
100
AcDbEntity
  8
0
100
AcDbLine
 10
625.6325762573
 20
102.4674345769
 30
0.0
 11
620.4019242573
 21
100.5285465769
 31
0.0
  0
LINE
  5
92A
330
2
100
AcDbEntity
  8
0
100
AcDbLine
 10
707.5244222573
 20
102.5921295769
 30
0.0
 11
698.0244222573
 21
102.5921295769
 31
0.0
  0
ARC
  5
92B
330
2
100
AcDbEntity
  8
0
100
AcDbCircle
 10
751.5244222573
 20
105.5921295769
 30
0.0
 40
5.0
100
AcDbArc
 50
270.0
 51
0.0
  0
LINE
  5
92C
330
2
100
AcDbEntity
  8
HIDS
100
AcDbLine
 10
613.9689412573
 20
336.2583364837
 30
0.0
 11
621.9689412573
 21
336.2583364837
 31
0.0
  0
LINE
  5
92D
330
2
100
AcDbEntity
  8
HIDS
100
AcDbLine
 10
613.9689412573
 20
352.2583364837
 30
0.0
 11
621.9689412573
 21
352.2583364837
 31
0.0
  0
CIRCLE
  5
92E
330
2
100
AcDbEntity
  8
HOJO
100
AcDbCircle
 10
617.9689412573
 20
174.0921295769
 30
0.0
 40
4.0
  0
CIRCLE
  5
92F
330
2
100
AcDbEntity
  8
0
100
AcDbCircle
 10
617.9689412573
 20
174.0921295769
 30
0.0
 40
3.2
  0
LINE
  5
930
330
2
100
AcDbEntity
  8
0
100
AcDbLine
 10
525.6758502573
 20
384.7583364837
 30
0.0
 11
624.2620322573
 21
384.7583364837
 31
0.0
  0
LINE
  5
931
330
2
100
AcDbEntity
  8
0
100
AcDbLine
 10
625.9689412573
 20
372.2583364837
 30
0.0
 11
525.4577112573
 21
372.2583364837
 31
0.0
  0
LINE
  5
932
330
2
100
AcDbEntity
  8
0
100
AcDbLine
 10
624.2620322573
 20
303.7583364837
 30
0.0
 11
525.6758502573
 21
303.7583364837
 31
0.0
  0
ARC
  5
934
330
2
100
AcDbEntity
  8
0
100
AcDbCircle
 10
617.9689412573
 20
174.0921295769
 30
0.0
 40
7.0
100
AcDbArc
 50
0.0
 51
132.635925
  0
LINE
  5
936
330
2
100
AcDbEntity
  8
CENTER
100
AcDbLine
 10
517.4281702573
 20
140.5921295769
 30
0.0
 11
765.0449522256
 21
140.5921295769
 31
0.0
  0
LINE
  5
937
330
2
100
AcDbEntity
  8
0
100
AcDbLine
 10
556.8978962573
 20
275.7583364837
 30
0.0
 11
556.8978962573
 21
297.2583364837
 31
0.0
  0
LINE
  5
938
330
2
100
AcDbEntity
  8
0
100
AcDbLine
 10
554.4689412573
 20
275.7583364837
 30
0.0
 11
554.4689412573
 21
299.7583364837
 31
0.0
  0
LINE
  5
939
330
2
100
AcDbEntity
  8
0
100
AcDbLine
 10
571.4689412573
 20
302.7583364837
 30
0.0
 11
571.4689412573
 21
275.7583364837
 31
0.0
  0
LINE
  5
93B
330
2
100
AcDbEntity
  8
0
100
AcDbLine
 10
439.3265968717
 20
138.0921295769
 30
0.0
 11
417.8265968717
 21
138.0921295769
 31
0.0
  0
LINE
  5
93C
330
2
100
AcDbEntity
  8
0
100
AcDbLine
 10
439.3265968717
 20
143.0921295769
 30
0.0
 11
417.8265968717
 21
143.0921295769
 31
0.0
  0
LINE
  5
93D
330
2
100
AcDbEntity
  8
0
100
AcDbLine
 10
439.3265968717
 20
133.0921295769
 30
0.0
 11
412.3265968717
 21
133.0921295769
 31
0.0
  0
LINE
  5
93E
330
2
100
AcDbEntity
  8
0
100
AcDbLine
 10
439.3265968717
 20
148.0921295769
 30
0.0
 11
412.3265968717
 21
148.0921295769
 31
0.0
  0
ARC
  5
93F
330
2
100
AcDbEntity
  8
0
100
AcDbCircle
 10
410.9246798717
 20
147.1921355769
 30
0.0
 40
2.0
100
AcDbArc
 50
60.0
 51
71.80513
  0
LINE
  5
940
330
2
100
AcDbEntity
  8
HIDS
100
AcDbLine
 10
410.8265968717
 20
163.5921295769
 30
0.0
 11
410.8265968717
 21
119.0235875769
 31
0.0
  0
LINE
  5
941
330
2
100
AcDbEntity
  8
0
100
AcDbLine
 10
378.1595128717
 20
149.5477875769
 30
0.0
 11
378.1595128717
 21
131.6364715769
 31
0.0
  0
ARC
  5
942
330
2
100
AcDbEntity
  8
HIDS
100
AcDbCircle
 10
370.8265968717
 20
140.5921295769
 30
0.0
 40
38.0
100
AcDbArc
 50
309.356701
 51
50.643299
  0
LINE
  5
944
330
2
100
AcDbEntity
  8
HOJO
100
AcDbLine
 10
378.8265968717
 20
111.0921295769
 30
0.0
 11
411.3265968717
 21
111.0921295769
 31
0.0
  0
LINE
  5
945
330
2
100
AcDbEntity
  8
0
100
AcDbLine
 10
380.1246008717
 20
129.6367765769
 30
0.0
 11
411.3265968717
 21
129.0921295769
 31
0.0
  0
LINE
  5
946
330
2
100
AcDbEntity
  8
0
100
AcDbLine
 10
377.7916848717
 20
125.6774875769
 30
0.0
 11
411.3265968717
 21
125.0921295769
 31
0.0
  0
ARC
  5
94C
330
2
100
AcDbEntity
  8
HIDS
100
AcDbCircle
 10
396.8265968717
 20
108.8904085769
 30
0.0
 40
3.0
100
AcDbArc
 50
129.356705
 51
180.0
  0
ARC
  5
94E
330
2
100
AcDbEntity
  8
0
100
AcDbCircle
 10
380.1595128717
 20
131.6364715769
 30
0.0
 40
2.0
100
AcDbArc
 50
180.0
 51
269.0
  0
ARC
  5
94F
330
2
100
AcDbEntity
  8
HIDS
100
AcDbCircle
 10
405.8265968717
 20
119.0235875769
 30
0.0
 40
5.0
100
AcDbArc
 50
315.0
 51
0.0
  0
LINE
  5
951
330
2
100
AcDbEntity
  8
0
100
AcDbLine
 10
412.3265968717
 20
132.7807895769
 30
0.0
 11
412.3265968717
 21
148.4034695769
 31
0.0
  0
ARC
  5
952
330
2
100
AcDbEntity
  8
0
100
AcDbCircle
 10
417.8265968717
 20
140.5921295769
 30
0.0
 40
2.5
100
AcDbArc
 50
90.0
 51
270.0
  0
LINE
  5
953
330
2
100
AcDbEntity
  8
0
100
AcDbLine
 10
411.5491618717
 20
132.0921295769
 30
0.0
 11
411.3265968717
 21
132.0921295769
 31
0.0
  0
ARC
  5
954
330
2
100
AcDbEntity
  8
0
100
AcDbCircle
 10
410.9246798717
 20
133.9921235769
 30
0.0
 40
2.0
100
AcDbArc
 50
288.19487
 51
300.0
  0
ARC
  5
955
330
2
100
AcDbEntity
  8
0
100
AcDbCircle
 10
411.8265968717
 20
132.7807895769
 30
0.0
 40
0.5
100
AcDbArc
 50
300.0
 51
0.0
  0
LINE
  5
956
330
2
100
AcDbEntity
  8
0
100
AcDbLine
 10
412.0765968717
 20
132.3478055769
 30
0.0
 11
411.9246798717
 21
132.2600675769
 31
0.0
  0
ARC
  5
957
330
2
100
AcDbEntity
  8
0
100
AcDbCircle
 10
411.8265968717
 20
148.4034695769
 30
0.0
 40
0.5
100
AcDbArc
 50
0.0
 51
60.0
  0
LINE
  5
958
330
2
100
AcDbEntity
  8
0
100
AcDbLine
 10
412.0765968717
 20
148.8364535769
 30
0.0
 11
411.9246798717
 21
148.9241915769
 31
0.0
  0
LINE
  5
95A
330
2
100
AcDbEntity
  8
HIDS
100
AcDbLine
 10
378.8265968717
 20
170.0921295769
 30
0.0
 11
411.3265968717
 21
170.0921295769
 31
0.0
  0
LINE
  5
95B
330
2
100
AcDbEntity
  8
HIDS
100
AcDbLine
 10
378.8265968717
 20
178.0921295769
 30
0.0
 11
411.3265968717
 21
178.0921295769
 31
0.0
  0
LINE
  5
95C
330
2
100
AcDbEntity
  8
HIDS
100
AcDbLine
 10
407.8265968717
 20
166.5921295769
 30
0.0
 11
404.2235698717
 21
166.5921295769
 31
0.0
  0
LINE
  5
95D
330
2
100
AcDbEntity
  8
0
100
AcDbLine
 10
380.1246008717
 20
151.5474825769
 30
0.0
 11
411.3265968717
 21
152.0921295769
 31
0.0
  0
LINE
  5
95E
330
2
100
AcDbEntity
  8
0
100
AcDbLine
 10
377.7916848717
 20
155.5067715769
 30
0.0
 11
411.3265968717
 21
156.0921295769
 31
0.0
  0
LINE
  5
963
330
2
100
AcDbEntity
  8
HIDS
100
AcDbLine
 10
396.8265968717
 20
173.9891025769
 30
0.0
 11
404.2235698717
 21
166.5921295769
 31
0.0
  0
ARC
  5
964
330
2
100
AcDbEntity
  8
0
100
AcDbCircle
 10
380.1595128717
 20
149.5477875769
 30
0.0
 40
2.0
100
AcDbArc
 50
91.0
 51
180.0
  0
ARC
  5
967
330
2
100
AcDbEntity
  8
HIDS
100
AcDbCircle
 10
391.8265968717
 20
176.2252775769
 30
0.0
 40
2.0
100
AcDbArc
 50
0.0
 51
89.0
  0
LINE
  5
968
330
2
100
AcDbEntity
  8
HIDS
100
AcDbLine
 10
378.8265968717
 20
178.0921295769
 30
0.0
 11
378.8265968717
 21
170.0921295769
 31
0.0
  0
ARC
  5
969
330
2
100
AcDbEntity
  8
HIDS
100
AcDbCircle
 10
393.8265968717
 20
177.5921295769
 30
0.0
 40
3.0
100
AcDbArc
 50
0.0
 51
90.0
  0
LINE
  5
96A
330
2
100
AcDbEntity
  8
HIDS
100
AcDbLine
 10
396.8265968717
 20
177.5921295769
 30
0.0
 11
396.8265968717
 21
173.9891025769
 31
0.0
  0
LINE
  5
96B
330
2
100
AcDbEntity
  8
HIDS
100
AcDbLine
 10
393.8265968717
 20
176.2252775769
 30
0.0
 11
393.8265968717
 21
172.2938505769
 31
0.0
  0
ARC
  5
96C
330
2
100
AcDbEntity
  8
HIDS
100
AcDbCircle
 10
396.8265968717
 20
172.2938505769
 30
0.0
 40
3.0
100
AcDbArc
 50
180.0
 51
230.643295
  0
LINE
  5
96D
330
2
100
AcDbEntity
  8
0
100
AcDbLine
 10
411.5491618717
 20
149.0921295769
 30
0.0
 11
411.3265968717
 21
149.0921295769
 31
0.0
  0
ARC
  5
96F
330
2
100
AcDbEntity
  8
HIDS
100
AcDbCircle
 10
407.8265968717
 20
163.5921295769
 30
0.0
 40
3.0
100
AcDbArc
 50
0.0
 51
90.0
  0
LINE
  5
970
330
2
100
AcDbEntity
  8
0
100
AcDbLine
 10
439.3265968717
 20
148.0921295769
 30
0.0
 11
439.3265968717
 21
133.0921295769
 31
0.0
  0
ARC
  5
971
330
2
100
AcDbEntity
  8
0
100
AcDbCircle
 10
563.9689412573
 20
140.5921295769
 30
0.0
 40
7.5
100
AcDbArc
 50
199.471222
 51
160.528778
  0
LINE
  5
972
330
2
100
AcDbEntity
  8
0
100
AcDbLine
 10
559.4689412573
 20
138.0921295769
 30
0.0
 11
554.4689412573
 21
138.0921295769
 31
0.0
  0
LINE
  5
973
330
2
100
AcDbEntity
  8
0
100
AcDbLine
 10
559.4689412573
 20
143.0921295769
 30
0.0
 11
554.4689412573
 21
143.0921295769
 31
0.0
  0
ARC
  5
974
330
2
100
AcDbEntity
  8
0
100
AcDbCircle
 10
563.9689412573
 20
140.5921295769
 30
0.0
 40
8.5
100
AcDbArc
 50
197.10463
 51
162.89537
  0
CIRCLE
  5
975
330
2
100
AcDbEntity
  8
0
100
AcDbCircle
 10
563.9689412573
 20
140.5921295769
 30
0.0
 40
25.002001
  0
CIRCLE
  5
976
330
2
100
AcDbEntity
  8
0
100
AcDbCircle
 10
563.9689412573
 20
140.5921295769
 30
0.0
 40
23.0
  0
CIRCLE
  5
977
330
2
100
AcDbEntity
  8
0
100
AcDbCircle
 10
563.9689412573
 20
140.5921295769
 30
0.0
 40
15.0
  0
CIRCLE
  5
978
330
2
100
AcDbEntity
  8
0
100
AcDbCircle
 10
563.9689412573
 20
140.5921295769
 30
0.0
 40
19.0
  0
LINE
  5
979
330
2
100
AcDbEntity
  8
0
100
AcDbLine
 10
555.9689412573
 20
176.0921295769
 30
0.0
 11
593.9689412573
 21
176.0921295769
 31
0.0
  0
LINE
  5
97A
330
2
100
AcDbEntity
  8
0
100
AcDbLine
 10
617.9689412573
 20
181.0921295769
 30
0.0
 11
531.9689412573
 21
181.0921295769
 31
0.0
  0
LINE
  5
97B
330
2
100
AcDbEntity
  8
0
100
AcDbLine
 10
533.9689412573
 20
154.0921295769
 30
0.0
 11
533.9689412573
 21
127.0921295769
 31
0.0
  0
LINE
  5
97C
330
2
100
AcDbEntity
  8
0
100
AcDbLine
 10
528.9689412573
 20
129.9205595769
 30
0.0
 11
528.9689412573
 21
151.2636995769
 31
0.0
  0
ARC
  5
97D
330
2
100
AcDbEntity
  8
0
100
AcDbCircle
 10
526.9689412573
 20
129.9205595769
 30
0.0
 40
2.0
100
AcDbArc
 50
315.0
 51
0.0
  0
ARC
  5
97E
330
2
100
AcDbEntity
  8
0
100
AcDbCircle
 10
526.9689412573
 20
124.2636995769
 30
0.0
 40
2.0
100
AcDbArc
 50
135.0
 51
180.0
  0
LINE
  5
97F
330
2
100
AcDbEntity
  8
0
100
AcDbLine
 10
528.3831262573
 20
128.5063445769
 30
0.0
 11
525.5547562573
 21
125.6779145769
 31
0.0
  0
LINE
  5
980
330
2
100
AcDbEntity
  8
0
100
AcDbLine
 10
539.4874352573
 20
121.3937045769
 30
0.0
 11
548.4874352573
 21
110.8937045769
 31
0.0
  0
LINE
  5
981
330
2
100
AcDbEntity
  8
0
100
AcDbLine
 10
538.5675742573
 20
119.3937045769
 30
0.0
 11
546.4874352573
 21
110.1538665769
 31
0.0
  0
ARC
  5
982
330
2
100
AcDbEntity
  8
0
100
AcDbCircle
 10
536.6040122573
 20
122.0921295769
 30
0.0
 40
2.0
100
AcDbArc
 50
194.477509
 51
270.0
  0
ARC
  5
983
330
2
100
AcDbEntity
  8
0
100
AcDbCircle
 10
536.1951982573
 20
124.0921295769
 30
0.0
 40
2.0
100
AcDbArc
 50
188.626923
 51
270.0
  0
ARC
  5
984
330
2
100
AcDbEntity
  8
0
100
AcDbCircle
 10
555.9689412573
 20
127.0921295769
 30
0.0
 40
22.0
100
AcDbArc
 50
180.0
 51
194.477509
  0
LINE
  5
985
330
2
100
AcDbEntity
  8
0
100
AcDbLine
 10
537.0490802573
 20
120.0921295769
 30
0.0
 11
536.6040122573
 21
120.0921295769
 31
0.0
  0
LINE
  5
986
330
2
100
AcDbEntity
  8
0
100
AcDbLine
 10
537.9689412573
 20
122.0921295769
 30
0.0
 11
536.1951982573
 21
122.0921295769
 31
0.0
  0
LINE
  5
987
330
2
100
AcDbEntity
  8
0
100
AcDbLine
 10
538.8046342573
 20
121.9091465769
 30
0.0
 11
537.8847742573
 21
119.9091465769
 31
0.0
  0
ARC
  5
988
330
2
100
AcDbEntity
  8
0
100
AcDbCircle
 10
537.9689412573
 20
120.0921295769
 30
0.0
 40
2.0
100
AcDbArc
 50
40.601295
 51
90.0
  0
ARC
  5
989
330
2
100
AcDbEntity
  8
0
100
AcDbCircle
 10
537.0490802573
 20
118.0921295769
 30
0.0
 40
2.0
100
AcDbArc
 50
40.601295
 51
90.0
  0
LINE
  5
98A
330
2
100
AcDbEntity
  8
0
100
AcDbLine
 10
548.8447342573
 20
110.2860075769
 30
0.0
 11
546.8447342573
 21
109.5461705769
 31
0.0
  0
ARC
  5
98B
330
2
100
AcDbEntity
  8
0
100
AcDbCircle
 10
544.9689412573
 20
108.8522915769
 30
0.0
 40
2.0
100
AcDbArc
 50
0.0
 51
40.601295
  0
ARC
  5
98C
330
2
100
AcDbEntity
  8
0
100
AcDbCircle
 10
546.9689412573
 20
109.5921295769
 30
0.0
 40
2.0
100
AcDbArc
 50
0.0
 51
40.601295
  0
LINE
  5
98D
330
2
100
AcDbEntity
  8
0
100
AcDbLine
 10
554.4689412573
 20
143.0921295769
 30
0.0
 11
554.4689412573
 21
138.0921295769
 31
0.0
  0
CIRCLE
  5
98E
330
2
100
AcDbEntity
  8
HOJO
100
AcDbCircle
 10
531.9689412573
 20
174.0921295769
 30
0.0
 40
4.0
  0
ARC
  5
98F
330
2
100
AcDbEntity
  8
0
100
AcDbCircle
 10
526.9689412573
 20
151.2636995769
 30
0.0
 40
2.0
100
AcDbArc
 50
0.0
 51
45.0
  0
ARC
  5
990
330
2
100
AcDbEntity
  8
0
100
AcDbCircle
 10
531.9689412573
 20
174.0921295769
 30
0.0
 40
7.0
100
AcDbArc
 50
47.364067
 51
180.0
  0
ARC
  5
992
330
2
100
AcDbEntity
  8
0
100
AcDbCircle
 10
526.9689412573
 20
156.9205595769
 30
0.0
 40
2.0
100
AcDbArc
 50
180.0
 51
225.0
  0
LINE
  5
993
330
2
100
AcDbEntity
  8
0
100
AcDbLine
 10
528.3831262573
 20
152.6779145769
 30
0.0
 11
525.5547562573
 21
155.5063445769
 31
0.0
  0
LINE
  5
994
330
2
100
AcDbEntity
  8
0
100
AcDbLine
 10
539.4874352573
 20
159.7905545769
 30
0.0
 11
548.4874352573
 21
170.2905545769
 31
0.0
  0
LINE
  5
995
330
2
100
AcDbEntity
  8
0
100
AcDbLine
 10
538.5675742573
 20
161.7905545769
 30
0.0
 11
546.4874352573
 21
171.0303925769
 31
0.0
  0
ARC
  5
997
330
2
100
AcDbEntity
  8
0
100
AcDbCircle
 10
555.9689412573
 20
154.0921295769
 30
0.0
 40
22.0
100
AcDbArc
 50
165.522491
 51
180.0
  0
ARC
  5
998
330
2
100
AcDbEntity
  8
0
100
AcDbCircle
 10
536.1951982573
 20
157.0921295769
 30
0.0
 40
2.0
100
AcDbArc
 50
90.0
 51
171.373077
  0
ARC
  5
999
330
2
100
AcDbEntity
  8
0
100
AcDbCircle
 10
537.9689412573
 20
161.0921295769
 30
0.0
 40
2.0
100
AcDbArc
 50
270.0
 51
319.398705
  0
ARC
  5
99A
330
2
100
AcDbEntity
  8
0
100
AcDbCircle
 10
536.6040122573
 20
159.0921295769
 30
0.0
 40
2.0
100
AcDbArc
 50
90.0
 51
165.522491
  0
LINE
  5
99B
330
2
100
AcDbEntity
  8
0
100
AcDbLine
 10
537.0490802573
 20
161.0921295769
 30
0.0
 11
536.6040122573
 21
161.0921295769
 31
0.0
  0
LINE
  5
99C
330
2
100
AcDbEntity
  8
0
100
AcDbLine
 10
537.9689412573
 20
159.0921295769
 30
0.0
 11
536.1951982573
 21
159.0921295769
 31
0.0
  0
LINE
  5
99D
330
2
100
AcDbEntity
  8
0
100
AcDbLine
 10
538.8046342573
 20
159.2751125769
 30
0.0
 11
537.8847742573
 21
161.2751125769
 31
0.0
  0
ARC
  5
99E
330
2
100
AcDbEntity
  8
0
100
AcDbCircle
 10
537.0490802573
 20
163.0921295769
 30
0.0
 40
2.0
100
AcDbArc
 50
270.0
 51
319.398705
  0
ARC
  5
99F
330
2
100
AcDbEntity
  8
0
100
AcDbCircle
 10
540.7743002573
 20
183.6558805769
 30
0.0
 40
6.0
100
AcDbArc
 50
227.364075
 51
300.358307
  0
CIRCLE
  5
9A0
330
2
100
AcDbEntity
  8
0
100
AcDbCircle
 10
531.9689412573
 20
174.0921295769
 30
0.0
 40
3.2
  0
ARC
  5
9A1
330
2
100
AcDbEntity
  8
0
100
AcDbCircle
 10
558.9689412573
 20
152.5921295769
 30
0.0
 40
30.0
100
AcDbArc
 50
112.331642
 51
120.358299
  0
ARC
  5
9A2
330
2
100
AcDbEntity
  8
0
100
AcDbCircle
 10
555.9689412573
 20
154.0921295769
 30
0.0
 40
22.0
100
AcDbArc
 50
90.0
 51
110.487312
  0
ARC
  5
9A3
330
2
100
AcDbEntity
  8
0
100
AcDbCircle
 10
548.9689412573
 20
172.8271145769
 30
0.0
 40
2.0
100
AcDbArc
 50
110.487312
 51
180.0
  0
ARC
  5
9A4
330
2
100
AcDbEntity
  8
0
100
AcDbCircle
 10
550.9689412573
 20
173.4570585769
 30
0.0
 40
2.0
100
AcDbArc
 50
104.477509
 51
180.0
  0
LINE
  5
9A5
330
2
100
AcDbEntity
  8
0
100
AcDbLine
 10
548.8447342573
 20
170.8982515769
 30
0.0
 11
546.8447342573
 21
171.6380885769
 31
0.0
  0
ARC
  5
9A6
330
2
100
AcDbEntity
  8
0
100
AcDbCircle
 10
544.9689412573
 20
172.3319675769
 30
0.0
 40
2.0
100
AcDbArc
 50
319.398705
 51
0.0
  0
ARC
  5
9A7
330
2
100
AcDbEntity
  8
0
100
AcDbCircle
 10
546.9689412573
 20
171.5921295769
 30
0.0
 40
2.0
100
AcDbArc
 50
319.398705
 51
0.0
  0
LINE
  5
9A8
330
2
100
AcDbEntity
  8
0
100
AcDbLine
 10
548.9689412573
 20
171.5921295769
 30
0.0
 11
548.9689412573
 21
173.4570585769
 31
0.0
  0
LINE
  5
9A9
330
2
100
AcDbEntity
  8
0
100
AcDbLine
 10
546.9689412573
 20
172.3319675769
 30
0.0
 11
546.9689412573
 21
172.8271145769
 31
0.0
  0
ARC
  5
9AA
330
2
100
AcDbEntity
  8
0
100
AcDbCircle
 10
551.3695762573
 20
171.0921295769
 30
0.0
 40
10.0
100
AcDbArc
 50
90.0
 51
112.331642
  0
LINE
  5
9AB
330
2
100
AcDbEntity
  8
0
100
AcDbLine
 10
615.9689412573
 20
154.0921295769
 30
0.0
 11
615.9689412573
 21
127.0921295769
 31
0.0
  0
LINE
  5
9AD
330
2
100
AcDbEntity
  8
0
100
AcDbLine
 10
559.4689412573
 20
143.0921295769
 30
0.0
 11
559.4689412573
 21
138.0921295769
 31
0.0
  0
LINE
  5
9AE
330
2
100
AcDbEntity
  8
0
100
AcDbLine
 10
610.4504472573
 20
121.3937045769
 30
0.0
 11
601.4504472573
 21
110.8937045769
 31
0.0
  0
LINE
  5
9AF
330
2
100
AcDbEntity
  8
0
100
AcDbLine
 10
611.3703082573
 20
119.3937045769
 30
0.0
 11
603.4504472573
 21
110.1538665769
 31
0.0
  0
LINE
  5
9B0
330
2
100
AcDbEntity
  8
0
100
AcDbLine
 10
601.0931482573
 20
110.2860075769
 30
0.0
 11
603.0931482573
 21
109.5461705769
 31
0.0
  0
ARC
  5
9B1
330
2
100
AcDbEntity
  8
0
100
AcDbCircle
 10
604.9689412573
 20
108.8522915769
 30
0.0
 40
2.0
100
AcDbArc
 50
139.398712
 51
180.0
  0
ARC
  5
9B2
330
2
100
AcDbEntity
  8
0
100
AcDbCircle
 10
602.9689412573
 20
109.5921295769
 30
0.0
 40
2.0
100
AcDbArc
 50
139.398712
 51
180.0
  0
ARC
  5
9B3
330
2
100
AcDbEntity
  8
0
100
AcDbCircle
 10
611.9689412573
 20
120.0921295769
 30
0.0
 40
2.0
100
AcDbArc
 50
90.0
 51
139.398712
  0
ARC
  5
9B4
330
2
100
AcDbEntity
  8
0
100
AcDbCircle
 10
593.9689412573
 20
127.0921295769
 30
0.0
 40
22.0
100
AcDbArc
 50
345.522488
 51
0.0
  0
ARC
  5
9B5
330
2
100
AcDbEntity
  8
0
100
AcDbCircle
 10
613.3338702573
 20
122.0921295769
 30
0.0
 40
2.0
100
AcDbArc
 50
270.0
 51
345.522491
  0
ARC
  5
9B6
330
2
100
AcDbEntity
  8
0
100
AcDbCircle
 10
613.7426842573
 20
124.0921295769
 30
0.0
 40
2.0
100
AcDbArc
 50
270.0
 51
351.373077
  0
LINE
  5
9B7
330
2
100
AcDbEntity
  8
0
100
AcDbLine
 10
612.8888022573
 20
120.0921295769
 30
0.0
 11
613.3338702573
 21
120.0921295769
 31
0.0
  0
LINE
  5
9B8
330
2
100
AcDbEntity
  8
0
100
AcDbLine
 10
611.9689412573
 20
122.0921295769
 30
0.0
 11
613.7426842573
 21
122.0921295769
 31
0.0
  0
LINE
  5
9B9
330
2
100
AcDbEntity
  8
0
100
AcDbLine
 10
611.1332482573
 20
121.9091465769
 30
0.0
 11
612.0531082573
 21
119.9091465769
 31
0.0
  0
ARC
  5
9BA
330
2
100
AcDbEntity
  8
0
100
AcDbCircle
 10
612.8888022573
 20
118.0921295769
 30
0.0
 40
2.0
100
AcDbArc
 50
90.0
 51
139.398712
  0
LINE
  5
9BB
330
2
100
AcDbEntity
  8
0
100
AcDbLine
 10
610.4504472573
 20
159.7905545769
 30
0.0
 11
601.4504472573
 21
170.2905545769
 31
0.0
  0
LINE
  5
9BC
330
2
100
AcDbEntity
  8
0
100
AcDbLine
 10
611.3703082573
 20
161.7905545769
 30
0.0
 11
603.4504472573
 21
171.0303925769
 31
0.0
  0
ARC
  5
9BE
330
2
100
AcDbEntity
  8
0
100
AcDbCircle
 10
593.9689412573
 20
154.0921295769
 30
0.0
 40
22.0
100
AcDbArc
 50
0.0
 51
14.477512
  0
ARC
  5
9BF
330
2
100
AcDbEntity
  8
0
100
AcDbCircle
 10
613.7426842573
 20
157.0921295769
 30
0.0
 40
2.0
100
AcDbArc
 50
8.626927
 51
90.0
  0
ARC
  5
9C0
330
2
100
AcDbEntity
  8
0
100
AcDbCircle
 10
611.9689412573
 20
161.0921295769
 30
0.0
 40
2.0
100
AcDbArc
 50
220.601288
 51
270.0
  0
ARC
  5
9C1
330
2
100
AcDbEntity
  8
0
100
AcDbCircle
 10
613.3338702573
 20
159.0921295769
 30
0.0
 40
2.0
100
AcDbArc
 50
14.477512
 51
90.0
  0
LINE
  5
9C2
330
2
100
AcDbEntity
  8
0
100
AcDbLine
 10
612.8888022573
 20
161.0921295769
 30
0.0
 11
613.3338702573
 21
161.0921295769
 31
0.0
  0
LINE
  5
9C3
330
2
100
AcDbEntity
  8
0
100
AcDbLine
 10
611.9689412573
 20
159.0921295769
 30
0.0
 11
613.7426842573
 21
159.0921295769
 31
0.0
  0
LINE
  5
9C4
330
2
100
AcDbEntity
  8
0
100
AcDbLine
 10
611.1332482573
 20
159.2751125769
 30
0.0
 11
612.0531082573
 21
161.2751125769
 31
0.0
  0
ARC
  5
9C5
330
2
100
AcDbEntity
  8
0
100
AcDbCircle
 10
612.8888022573
 20
163.0921295769
 30
0.0
 40
2.0
100
AcDbArc
 50
220.601288
 51
270.0
  0
ARC
  5
9C6
330
2
100
AcDbEntity
  8
0
100
AcDbCircle
 10
590.9689412573
 20
152.5921295769
 30
0.0
 40
30.0
100
AcDbArc
 50
59.641697
 51
67.668358
  0
ARC
  5
9C7
330
2
100
AcDbEntity
  8
0
100
AcDbCircle
 10
593.9689412573
 20
154.0921295769
 30
0.0
 40
22.0
100
AcDbArc
 50
69.512688
 51
90.0
  0
ARC
  5
9C8
330
2
100
AcDbEntity
  8
0
100
AcDbCircle
 10
600.9689412573
 20
172.8271145769
 30
0.0
 40
2.0
100
AcDbArc
 50
0.0
 51
69.512688
  0
ARC
  5
9C9
330
2
100
AcDbEntity
  8
0
100
AcDbCircle
 10
598.9689412573
 20
173.4570585769
 30
0.0
 40
2.0
100
AcDbArc
 50
0.0
 51
75.522491
  0
LINE
  5
9CA
330
2
100
AcDbEntity
  8
0
100
AcDbLine
 10
601.0931482573
 20
170.8982515769
 30
0.0
 11
603.0931482573
 21
171.6380885769
 31
0.0
  0
ARC
  5
9CB
330
2
100
AcDbEntity
  8
0
100
AcDbCircle
 10
604.9689412573
 20
172.3319675769
 30
0.0
 40
2.0
100
AcDbArc
 50
180.0
 51
220.601288
  0
ARC
  5
9CC
330
2
100
AcDbEntity
  8
0
100
AcDbCircle
 10
602.9689412573
 20
171.5921295769
 30
0.0
 40
2.0
100
AcDbArc
 50
180.0
 51
220.601288
  0
LINE
  5
9CD
330
2
100
AcDbEntity
  8
0
100
AcDbLine
 10
600.9689412573
 20
171.5921295769
 30
0.0
 11
600.9689412573
 21
173.4570585769
 31
0.0
  0
LINE
  5
9CE
330
2
100
AcDbEntity
  8
0
100
AcDbLine
 10
602.9689412573
 20
172.3319675769
 30
0.0
 11
602.9689412573
 21
172.8271145769
 31
0.0
  0
ARC
  5
9CF
330
2
100
AcDbEntity
  8
0
100
AcDbCircle
 10
598.5683062573
 20
171.0921295769
 30
0.0
 40
10.0
100
AcDbArc
 50
67.668358
 51
90.0
  0
ARC
  5
9D0
330
2
100
AcDbEntity
  8
0
100
AcDbCircle
 10
609.1635822573
 20
183.6558805769
 30
0.0
 40
6.0
100
AcDbArc
 50
239.641693
 51
312.635925
  0
LINE
  5
9D1
330
2
100
AcDbEntity
  8
0
100
AcDbLine
 10
554.4689412573
 20
275.7583364837
 30
0.0
 11
571.4689412573
 21
275.7583364837
 31
0.0
  0
LINE
  5
9D2
330
2
100
AcDbEntity
  8
HIDS
100
AcDbLine
 10
613.7189412573
 20
372.2583364837
 30
0.0
 11
613.7189412573
 21
384.7583364837
 31
0.0
  0
LINE
  5
9D3
330
2
100
AcDbEntity
  8
HIDS
100
AcDbLine
 10
536.2189412573
 20
372.2583364837
 30
0.0
 11
536.2189412573
 21
384.7583364837
 31
0.0
  0
LINE
  5
9D4
330
2
100
AcDbEntity
  8
HIDS
100
AcDbLine
 10
527.7189412573
 20
372.2583364837
 30
0.0
 11
527.7189412573
 21
384.7583364837
 31
0.0
  0
LINE
  5
9D5
330
2
100
AcDbEntity
  8
0
100
AcDbLine
 10
609.3109212573
 20
384.7583364837
 30
0.0
 11
609.3109212573
 21
351.4623464837
 31
0.0
  0
LINE
  5
9D6
330
2
100
AcDbEntity
  8
0
100
AcDbLine
 10
600.3364342573
 20
384.7583364837
 30
0.0
 11
600.3364342573
 21
349.2583364837
 31
0.0
  0
LINE
  5
9D7
330
2
100
AcDbEntity
  8
0
100
AcDbLine
 10
540.6269612573
 20
384.7583364837
 30
0.0
 11
540.6269612573
 21
351.4623464837
 31
0.0
  0
LINE
  5
9D8
330
2
100
AcDbEntity
  8
0
100
AcDbLine
 10
549.6014482573
 20
384.7583364837
 30
0.0
 11
549.6014482573
 21
349.2583364837
 31
0.0
  0
LINE
  5
9D9
330
2
100
AcDbEntity
  8
0
100
AcDbLine
 10
524.9689412573
 20
344.2583364837
 30
0.0
 11
525.6758502573
 21
384.7583364837
 31
0.0
  0
LINE
  5
9DA
330
2
100
AcDbEntity
  8
CENTER
100
AcDbLine
 10
531.9689412573
 20
300.3994194837
 30
0.0
 11
531.9689412573
 21
388.0744374837
 31
0.0
  0
LINE
  5
9DB
330
2
100
AcDbEntity
  8
CENTER
100
AcDbLine
 10
617.9689412573
 20
300.3994194837
 30
0.0
 11
617.9689412573
 21
388.0744374837
 31
0.0
  0
LINE
  5
9DC
330
2
100
AcDbEntity
  8
0
100
AcDbLine
 10
556.1576012573
 20
302.7583364837
 30
0.0
 11
571.7802812573
 21
302.7583364837
 31
0.0
  0
LINE
  5
9DD
330
2
100
AcDbEntity
  8
HIDS
100
AcDbLine
 10
535.9689412573
 20
303.7583364837
 30
0.0
 11
535.9689412573
 21
336.2583364837
 31
0.0
  0
LINE
  5
9DE
330
2
100
AcDbEntity
  8
HIDS
100
AcDbLine
 10
527.9689412573
 20
303.7583364837
 30
0.0
 11
527.9689412573
 21
336.2583364837
 31
0.0
  0
LINE
  5
9E1
330
2
100
AcDbEntity
  8
0
100
AcDbLine
 10
549.6014482573
 20
339.2583364837
 30
0.0
 11
549.6014482573
 21
303.7583364837
 31
0.0
  0
LINE
  5
9E2
330
2
100
AcDbEntity
  8
0
100
AcDbLine
 10
540.6269612573
 20
337.0543264837
 30
0.0
 11
540.6269612573
 21
303.7583364837
 31
0.0
  0
LINE
  5
9E3
330
2
100
AcDbEntity
  8
0
100
AcDbLine
 10
524.9689412573
 20
344.2583364837
 30
0.0
 11
525.6758502573
 21
303.7583364837
 31
0.0
  0
LINE
  5
9E4
330
2
100
AcDbEntity
  8
0
100
AcDbLine
 10
555.4689412573
 20
303.5357714837
 30
0.0
 11
555.4689412573
 21
303.7583364837
 31
0.0
  0
ARC
  5
9E5
330
2
100
AcDbEntity
  8
0
100
AcDbCircle
 10
557.3689652573
 20
304.1602534837
 30
0.0
 40
2.0
100
AcDbArc
 50
198.19487
 51
210.0
  0
ARC
  5
9E6
330
2
100
AcDbEntity
  8
0
100
AcDbCircle
 10
556.1576012573
 20
303.2583364837
 30
0.0
 40
0.5
100
AcDbArc
 50
210.0
 51
270.0
  0
LINE
  5
9E7
330
2
100
AcDbEntity
  8
0
100
AcDbLine
 10
555.7246172573
 20
303.0083364837
 30
0.0
 11
555.6369102573
 21
303.1602534837
 31
0.0
  0
ARC
  5
9E8
330
2
100
AcDbEntity
  8
0
100
AcDbCircle
 10
549.3978962573
 20
297.2583364837
 30
0.0
 40
7.500003999999997
100
AcDbArc
 50
0.0
 51
19.471212
  0
LINE
  5
9E9
330
2
100
AcDbEntity
  8
0
100
AcDbLine
 10
556.4689412573
 20
299.7583364837
 30
0.0
 11
556.4689412573
 21
302.7583364837
 31
0.0
  0
LINE
  5
9EA
330
2
100
AcDbEntity
  8
0
100
AcDbLine
 10
554.4689412573
 20
299.7583364837
 30
0.0
 11
556.4689412573
 21
299.7583364837
 31
0.0
  0
LINE
  5
9EB
330
2
100
AcDbEntity
  8
HIDS
100
AcDbLine
 10
527.9689412573
 20
336.2583364837
 30
0.0
 11
535.9689412573
 21
336.2583364837
 31
0.0
  0
LINE
  5
9EC
330
2
100
AcDbEntity
  8
HIDS
100
AcDbLine
 10
527.9689412573
 20
352.2583364837
 30
0.0
 11
535.9689412573
 21
352.2583364837
 31
0.0
  0
LINE
  5
9ED
330
2
100
AcDbEntity
  8
HIDS
100
AcDbLine
 10
527.9689412573
 20
372.2583364837
 30
0.0
 11
527.9689412573
 21
352.2583364837
 31
0.0
  0
LINE
  5
9EE
330
2
100
AcDbEntity
  8
HIDS
100
AcDbLine
 10
535.9689412573
 20
372.2583364837
 30
0.0
 11
535.9689412573
 21
352.2583364837
 31
0.0
  0
ARC
  5
9EF
330
2
100
AcDbEntity
  8
0
100
AcDbCircle
 10
540.6269612573
 20
348.0543264837
 30
0.0
 40
11.0
100
AcDbArc
 50
244.282272
 51
291.075317
  0
LINE
  5
9F0
330
2
100
AcDbEntity
  8
0
100
AcDbLine
 10
549.6014482573
 20
339.2583364837
 30
0.0
 11
532.0562212573
 21
339.2583364837
 31
0.0
  0
ARC
  5
9F1
330
2
100
AcDbEntity
  8
0
100
AcDbCircle
 10
540.6269612573
 20
340.4623464837
 30
0.0
 40
11.0
100
AcDbArc
 50
68.924667
 51
115.717728
  0
LINE
  5
9F2
330
2
100
AcDbEntity
  8
0
100
AcDbLine
 10
549.6014482573
 20
349.2583364837
 30
0.0
 11
532.0562212573
 21
349.2583364837
 31
0.0
  0
LINE
  5
9F3
330
2
100
AcDbEntity
  8
0
100
AcDbLine
 10
535.8536462573
 20
338.1439564837
 30
0.0
 11
534.8768392573
 21
338.6144764837
 31
0.0
  0
ARC
  5
9F4
330
2
100
AcDbEntity
  8
0
100
AcDbCircle
 10
532.0562212573
 20
332.7583364837
 30
0.0
 40
6.5
100
AcDbArc
 50
64.282272
 51
90.0
  0
LINE
  5
9F5
330
2
100
AcDbEntity
  8
0
100
AcDbLine
 10
535.8536462573
 20
350.3727164837
 30
0.0
 11
534.8768392573
 21
349.9021964837
 31
0.0
  0
ARC
  5
9F6
330
2
100
AcDbEntity
  8
0
100
AcDbCircle
 10
532.0562212573
 20
355.7583364837
 30
0.0
 40
6.5
100
AcDbArc
 50
270.0
 51
295.717728
  0
ARC
  5
9F7
330
2
100
AcDbEntity
  8
0
100
AcDbCircle
 10
549.6014482573
 20
332.7583364837
 30
0.0
 40
6.5
100
AcDbArc
 50
90.0
 51
111.075333
  0
LINE
  5
9F8
330
2
100
AcDbEntity
  8
0
100
AcDbLine
 10
547.2640462573
 20
338.8235524837
 30
0.0
 11
544.5825272573
 21
337.7901354837
 31
0.0
  0
ARC
  5
9F9
330
2
100
AcDbEntity
  8
0
100
AcDbCircle
 10
549.6014482573
 20
355.7583364837
 30
0.0
 40
6.5
100
AcDbArc
 50
248.924667
 51
270.0
  0
LINE
  5
9FA
330
2
100
AcDbEntity
  8
0
100
AcDbLine
 10
547.2640462573
 20
349.6931204837
 30
0.0
 11
544.5825272573
 21
350.7265374837
 31
0.0
  0
LINE
  5
9FB
330
2
100
AcDbEntity
  8
HIDS
100
AcDbLine
 10
613.9689412573
 20
303.7583364837
 30
0.0
 11
613.9689412573
 21
336.2583364837
 31
0.0
  0
LINE
  5
9FD
330
2
100
AcDbEntity
  8
0
100
AcDbLine
 10
609.3109212573
 20
337.0543264837
 30
0.0
 11
609.3109212573
 21
303.7583364837
 31
0.0
  0
LINE
  5
9FE
330
2
100
AcDbEntity
  8
0
100
AcDbLine
 10
600.3364342573
 20
339.2583364837
 30
0.0
 11
600.3364342573
 21
303.7583364837
 31
0.0
  0
LINE
  5
9FF
330
2
100
AcDbEntity
  8
0
100
AcDbLine
 10
572.4689412573
 20
303.5357714837
 30
0.0
 11
572.4689412573
 21
303.7583364837
 31
0.0
  0
ARC
  5
A00
330
2
100
AcDbEntity
  8
0
100
AcDbCircle
 10
570.5689172573
 20
304.1602534837
 30
0.0
 40
2.0
100
AcDbArc
 50
330.0
 51
341.805128
  0
ARC
  5
A01
330
2
100
AcDbEntity
  8
0
100
AcDbCircle
 10
571.7802812573
 20
303.2583364837
 30
0.0
 40
0.5
100
AcDbArc
 50
270.0
 51
330.0
  0
LINE
  5
A02
330
2
100
AcDbEntity
  8
0
100
AcDbLine
 10
572.2132652573
 20
303.0083364837
 30
0.0
 11
572.3009722573
 21
303.1602534837
 31
0.0
  0
LINE
  5
A03
330
2
100
AcDbEntity
  8
HIDS
100
AcDbLine
 10
613.9689412573
 20
372.2583364837
 30
0.0
 11
613.9689412573
 21
352.2583364837
 31
0.0
  0
LINE
  5
A04
330
2
100
AcDbEntity
  8
0
100
AcDbLine
 10
602.6737752573
 20
338.8235524837
 30
0.0
 11
605.3553552573
 21
337.7901354837
 31
0.0
  0
LINE
  5
A05
330
2
100
AcDbEntity
  8
0
100
AcDbLine
 10
600.3364342573
 20
339.2583364837
 30
0.0
 11
617.8816612573
 21
339.2583364837
 31
0.0
  0
LINE
  5
A06
330
2
100
AcDbEntity
  8
0
100
AcDbLine
 10
602.6737752573
 20
349.6931204837
 30
0.0
 11
605.3553552573
 21
350.7265374837
 31
0.0
  0
LINE
  5
A07
330
2
100
AcDbEntity
  8
0
100
AcDbLine
 10
600.3364342573
 20
349.2583364837
 30
0.0
 11
617.8816612573
 21
349.2583364837
 31
0.0
  0
ARC
  5
A08
330
2
100
AcDbEntity
  8
0
100
AcDbCircle
 10
600.3364342573
 20
332.7583364837
 30
0.0
 40
6.5
100
AcDbArc
 50
68.924667
 51
90.0
  0
ARC
  5
A09
330
2
100
AcDbEntity
  8
0
100
AcDbCircle
 10
600.3364342573
 20
355.7583364837
 30
0.0
 40
6.5
100
AcDbArc
 50
270.0
 51
291.075317
  0
ARC
  5
A0A
330
2
100
AcDbEntity
  8
0
100
AcDbCircle
 10
609.3109212573
 20
348.0543264837
 30
0.0
 40
11.0
100
AcDbArc
 50
248.924667
 51
295.717728
  0
LINE
  5
A0B
330
2
100
AcDbEntity
  8
0
100
AcDbLine
 10
614.0842362573
 20
338.1439564837
 30
0.0
 11
615.0610432573
 21
338.6144764837
 31
0.0
  0
ARC
  5
A0C
330
2
100
AcDbEntity
  8
0
100
AcDbCircle
 10
617.8816612573
 20
332.7583364837
 30
0.0
 40
6.5
100
AcDbArc
 50
90.0
 51
115.717728
  0
ARC
  5
A0D
330
2
100
AcDbEntity
  8
0
100
AcDbCircle
 10
609.3109212573
 20
340.4623464837
 30
0.0
 40
11.0
100
AcDbArc
 50
64.282272
 51
111.075333
  0
LINE
  5
A0E
330
2
100
AcDbEntity
  8
0
100
AcDbLine
 10
614.0842362573
 20
350.3727164837
 30
0.0
 11
615.0610432573
 21
349.9021964837
 31
0.0
  0
ARC
  5
A0F
330
2
100
AcDbEntity
  8
0
100
AcDbCircle
 10
617.8816612573
 20
355.7583364837
 30
0.0
 40
6.5
100
AcDbArc
 50
244.282272
 51
270.0
  0
LINE
  5
A10
330
2
100
AcDbEntity
  8
0
100
AcDbLine
 10
753.7744222573
 20
164.5921295769
 30
0.0
 11
707.5244222573
 21
164.5921295769
 31
0.0
  0
LINE
  5
A11
330
2
100
AcDbEntity
  8
0
100
AcDbLine
 10
753.7744222573
 20
114.5921295769
 30
0.0
 11
707.5244222573
 21
114.5921295769
 31
0.0
  0
LINE
  5
A12
330
2
100
AcDbEntity
  8
0
100
AcDbLine
 10
751.5244222573
 20
180.5921295769
 30
0.0
 11
707.5244222573
 21
180.5921295769
 31
0.0
  0
LINE
  5
A17
330
2
100
AcDbEntity
  8
0
100
AcDbLine
 10
698.0244222573
 20
170.8410915769
 30
0.0
 11
624.9689412573
 21
170.8410915769
 31
0.0
  0
LINE
  5
A18
330
2
100
AcDbEntity
  8
0
100
AcDbLine
 10
698.0244222573
 20
110.3431675769
 30
0.0
 11
624.9689412573
 21
110.3431675769
 31
0.0
  0
LINE
  5
A19
330
2
100
AcDbEntity
  8
0
100
AcDbLine
 10
698.0244222573
 20
178.5921295769
 30
0.0
 11
626.3277062573
 21
178.5921295769
 31
0.0
  0
LINE
  5
A1A
330
2
100
AcDbEntity
  8
0
100
AcDbLine
 10
620.9689412573
 20
129.9205595769
 30
0.0
 11
620.9689412573
 21
151.2636995769
 31
0.0
  0
ARC
  5
A1B
330
2
100
AcDbEntity
  8
0
100
AcDbCircle
 10
622.9689412573
 20
129.9205595769
 30
0.0
 40
2.0
100
AcDbArc
 50
180.0
 51
225.0
  0
ARC
  5
A1C
330
2
100
AcDbEntity
  8
0
100
AcDbCircle
 10
622.9689412573
 20
124.2636995769
 30
0.0
 40
2.0
100
AcDbArc
 50
0.0
 51
45.0
  0
LINE
  5
A1D
330
2
100
AcDbEntity
  8
0
100
AcDbLine
 10
621.5547562573
 20
128.5063445769
 30
0.0
 11
624.3831262573
 21
125.6779145769
 31
0.0
  0
LINE
  5
A1E
330
2
100
AcDbEntity
  8
0
100
AcDbLine
 10
624.9689412573
 20
174.0921295769
 30
0.0
 11
624.9689412573
 21
156.9205595769
 31
0.0
  0
ARC
  5
A1F
330
2
100
AcDbEntity
  8
0
100
AcDbCircle
 10
622.9689412573
 20
151.2636995769
 30
0.0
 40
2.0
100
AcDbArc
 50
135.0
 51
180.0
  0
ARC
  5
A20
330
2
100
AcDbEntity
  8
0
100
AcDbCircle
 10
622.9689412573
 20
156.9205595769
 30
0.0
 40
2.0
100
AcDbArc
 50
315.0
 51
0.0
  0
LINE
  5
A21
330
2
100
AcDbEntity
  8
0
100
AcDbLine
 10
621.5547562573
 20
152.6779145769
 30
0.0
 11
624.3831262573
 21
155.5063445769
 31
0.0
  0
LINE
  5
A22
330
2
100
AcDbEntity
  8
0
100
AcDbLine
 10
625.6325762573
 20
178.7168245769
 30
0.0
 11
620.4019242573
 21
180.6556975769
 31
0.0
  0
ARC
  5
A23
330
2
100
AcDbEntity
  8
0
100
AcDbCircle
 10
626.3277062573
 20
180.5921295769
 30
0.0
 40
2.0
100
AcDbArc
 50
249.66127
 51
270.0
  0
LINE
  5
A24
330
2
100
AcDbEntity
  8
0
100
AcDbLine
 10
707.5244222573
 20
110.3431365769
 30
0.0
 11
698.0244222573
 21
110.3431365769
 31
0.0
  0
ARC
  5
A25
330
2
100
AcDbEntity
  8
HIDS
  6
sekkei_H
100
AcDbCircle
 10
707.5244222573
 20
164.1215175769
 30
0.0
 40
4.5
100
AcDbArc
 50
90.0
 51
180.0
  0
LINE
  5
A26
330
2
100
AcDbEntity
  8
HIDS
  6
sekkei_H
100
AcDbLine
 10
704.5244222573
 20
160.1215175769
 30
0.0
 11
703.0244222573
 21
159.6215175769
 31
0.0
  0
LINE
  5
A27
330
2
100
AcDbEntity
  8
HIDS
  6
sekkei_H
100
AcDbLine
 10
706.0244222573
 20
159.1215175769
 30
0.0
 11
704.5244222573
 21
159.6215175769
 31
0.0
  0
LINE
  5
A28
330
2
100
AcDbEntity
  8
HIDS
  6
sekkei_H
100
AcDbLine
 10
703.0244222573
 20
164.1215175769
 30
0.0
 11
703.0244222573
 21
159.6215175769
 31
0.0
  0
LINE
  5
A29
330
2
100
AcDbEntity
  8
HIDS
  6
sekkei_H
100
AcDbLine
 10
704.5244222573
 20
164.1215175769
 30
0.0
 11
704.5244222573
 21
159.6215175769
 31
0.0
  0
LINE
  5
A2A
330
2
100
AcDbEntity
  8
HIDS
  6
sekkei_H
100
AcDbLine
 10
706.0244222573
 20
164.1215175769
 30
0.0
 11
706.0244222573
 21
159.1059235769
 31
0.0
  0
ARC
  5
A2B
330
2
100
AcDbEntity
  8
HIDS
  6
sekkei_H
100
AcDbCircle
 10
707.5244222573
 20
164.1215175769
 30
0.0
 40
1.5
100
AcDbArc
 50
90.0
 51
180.0
  0
ARC
  5
A2C
330
2
100
AcDbEntity
  8
HIDS
  6
sekkei_H
100
AcDbCircle
 10
707.5244222573
 20
164.1215175769
 30
0.0
 40
3.0
100
AcDbArc
 50
90.0
 51
180.0
  0
LINE
  5
A2F
330
2
100
AcDbEntity
  8
0
100
AcDbLine
 10
707.5244222573
 20
170.8411225769
 30
0.0
 11
698.0244222573
 21
170.8411225769
 31
0.0
  0
LINE
  5
A30
330
2
100
AcDbEntity
  8
0
100
AcDbLine
 10
707.5244222573
 20
178.5921295769
 30
0.0
 11
698.0244222573
 21
178.5921295769
 31
0.0
  0
ARC
  5
A36
330
2
100
AcDbEntity
  8
0
100
AcDbCircle
 10
751.5244222573
 20
175.5921295769
 30
0.0
 40
5.0
100
AcDbArc
 50
0.0
 51
90.0
  0
LINE
  5
A37
330
2
100
AcDbEntity
  8
0
100
AcDbLine
 10
754.2744222573
 20
320.2583364837
 30
0.0
 11
707.5244222573
 21
320.2583364837
 31
0.0
  0
LINE
  5
A38
330
2
100
AcDbEntity
  8
0
100
AcDbLine
 10
754.2744222573
 20
368.2583364837
 30
0.0
 11
707.5244222573
 21
368.2583364837
 31
0.0
  0
LINE
  5
A39
330
2
100
AcDbEntity
  8
0
100
AcDbLine
 10
751.5244222573
 20
304.2583364837
 30
0.0
 11
707.5244222573
 21
304.2583364837
 31
0.0
  0
LINE
  5
A3A
330
2
100
AcDbEntity
  8
0
100
AcDbLine
 10
751.5244222573
 20
384.2583364837
 30
0.0
 11
707.5244222573
 21
384.2583364837
 31
0.0
  0
LINE
  5
A3B
330
2
100
AcDbEntity
  8
HIDS
100
AcDbLine
 10
622.2189412573
 20
372.2583364837
 30
0.0
 11
622.2189412573
 21
384.7583364837
 31
0.0
  0
ARC
  5
A3C
330
2
100
AcDbEntity
  8
0
100
AcDbCircle
 10
707.5244222573
 20
376.4014944837
 30
0.0
 40
3.0
100
AcDbArc
 50
180.0
 51
270.0
  0
ARC
  5
A3D
330
2
100
AcDbEntity
  8
0
100
AcDbCircle
 10
707.5244222573
 20
376.4014944837
 30
0.0
 40
4.5
100
AcDbArc
 50
180.0
 51
270.0
  0
LINE
  5
A3E
330
2
100
AcDbEntity
  8
0
100
AcDbLine
 10
707.5244222573
 20
384.2583364837
 30
0.0
 11
707.5244222573
 21
351.7583364837
 31
0.0
  0
LINE
  5
A3F
330
2
100
AcDbEntity
  8
0
100
AcDbLine
 10
698.0244222573
 20
369.2583364837
 30
0.0
 11
698.0244222573
 21
382.2583364837
 31
0.0
  0
LINE
  5
A40
330
2
100
AcDbEntity
  8
0
100
AcDbLine
 10
624.2620322573
 20
384.7583364837
 30
0.0
 11
624.5674522573
 21
367.2583364837
 31
0.0
  0
LINE
  5
A41
330
2
100
AcDbEntity
  8
0
100
AcDbLine
 10
625.9689412573
 20
381.6376084837
 30
0.0
 11
625.9689412573
 21
372.2583364837
 31
0.0
  0
LINE
  5
A42
330
2
100
AcDbEntity
  8
0
100
AcDbLine
 10
657.0245222573
 20
321.2583364837
 30
0.0
 11
621.9658282573
 21
321.2583364837
 31
0.0
  0
LINE
  5
A43
330
2
100
AcDbEntity
  8
0
100
AcDbLine
 10
657.0245222573
 20
367.2583364837
 30
0.0
 11
621.9658282573
 21
367.2583364837
 31
0.0
  0
LINE
  5
A44
330
2
100
AcDbEntity
  8
0
100
AcDbLine
 10
626.2710652573
 20
306.2583364837
 30
0.0
 11
698.0244222573
 21
306.2583364837
 31
0.0
  0
LINE
  5
A45
330
2
100
AcDbEntity
  8
HIDS
100
AcDbLine
 10
621.9689412573
 20
303.7583364837
 30
0.0
 11
621.9689412573
 21
336.2583364837
 31
0.0
  0
LINE
  5
A47
330
2
100
AcDbEntity
  8
0
100
AcDbLine
 10
620.4019242573
 20
344.2583364837
 30
0.0
 11
619.9661332573
 21
319.2932484837
 31
0.0
  0
LINE
  5
A48
330
2
100
AcDbEntity
  8
0
100
AcDbLine
 10
625.9689412573
 20
367.2583364837
 30
0.0
 11
625.9689412573
 21
321.2583364837
 31
0.0
  0
LINE
  5
A49
330
2
100
AcDbEntity
  8
0
100
AcDbLine
 10
624.2620322573
 20
303.7583364837
 30
0.0
 11
624.5674522573
 21
321.2583364837
 31
0.0
  0
ARC
  5
A4A
330
2
100
AcDbEntity
  8
0
100
AcDbCircle
 10
626.2710652573
 20
304.2583364837
 30
0.0
 40
2.0
100
AcDbArc
 50
90.0
 51
179.0
  0
ARC
  5
A4B
330
2
100
AcDbEntity
  8
0
100
AcDbCircle
 10
621.9658282573
 20
319.2583364837
 30
0.0
 40
2.0
100
AcDbArc
 50
90.0
 51
179.0
  0
LINE
  5
A4C
330
2
100
AcDbEntity
  8
HIDS
100
AcDbLine
 10
621.9689412573
 20
372.2583364837
 30
0.0
 11
621.9689412573
 21
352.2583364837
 31
0.0
  0
LINE
  5
A4D
330
2
100
AcDbEntity
  8
0
100
AcDbLine
 10
620.4019242573
 20
344.2583364837
 30
0.0
 11
619.9661332573
 21
369.2234244837
 31
0.0
  0
ARC
  5
A4E
330
2
100
AcDbEntity
  8
0
100
AcDbCircle
 10
621.9658282573
 20
369.2583364837
 30
0.0
 40
2.0
100
AcDbArc
 50
181.0
 51
270.0
  0
LINE
  5
A4F
330
2
100
AcDbEntity
  8
0
100
AcDbLine
 10
698.0244222573
 20
306.2583364837
 30
0.0
 11
698.0244222573
 21
319.2583364837
 31
0.0
  0
LINE
  5
A50
330
2
100
AcDbEntity
  8
0
100
AcDbLine
 10
707.5244222573
 20
306.2583364837
 30
0.0
 11
698.0244222573
 21
306.2583364837
 31
0.0
  0
LINE
  5
A51
330
2
100
AcDbEntity
  8
0
100
AcDbLine
 10
707.5244222573
 20
321.2583364837
 30
0.0
 11
707.0244222573
 21
321.2583364837
 31
0.0
  0
LINE
  5
A5E
330
2
100
AcDbEntity
  8
0
100
AcDbLine
 10
707.5244222573
 20
367.2583364837
 30
0.0
 11
707.0244222573
 21
367.2583364837
 31
0.0
  0
LINE
  5
A5F
330
2
100
AcDbEntity
  8
0
100
AcDbLine
 10
627.4172442573
 20
382.2583364837
 30
0.0
 11
698.0244222573
 21
382.2583364837
 31
0.0
  0
ARC
  5
A60
330
2
100
AcDbEntity
  8
0
100
AcDbCircle
 10
627.4172442573
 20
380.2583364837
 30
0.0
 40
2.0
100
AcDbArc
 50
90.0
 51
136.398758
  0
LINE
  5
A61
330
2
100
AcDbEntity
  8
0
100
AcDbLine
 10
707.5244222573
 20
382.2583364837
 30
0.0
 11
698.0244222573
 21
382.2583364837
 31
0.0
  0
LINE
  5
A62
330
2
100
AcDbEntity
  8
HOJO
100
AcDbLine
 10
704.5244222573
 20
380.4014944837
 30
0.0
 11
703.0244222573
 21
380.9014944837
 31
0.0
  0
LINE
  5
A63
330
2
100
AcDbEntity
  8
HOJO
100
AcDbLine
 10
706.0244222573
 20
381.4014944837
 30
0.0
 11
704.5244222573
 21
380.9014944837
 31
0.0
  0
LINE
  5
A64
330
2
100
AcDbEntity
  8
0
100
AcDbLine
 10
703.0244222573
 20
376.4014944837
 30
0.0
 11
703.0244222573
 21
380.9014944837
 31
0.0
  0
LINE
  5
A65
330
2
100
AcDbEntity
  8
0
100
AcDbLine
 10
704.5244222573
 20
376.4014944837
 30
0.0
 11
704.5244222573
 21
380.9014944837
 31
0.0
  0
LINE
  5
A66
330
2
100
AcDbEntity
  8
0
100
AcDbLine
 10
706.0244222573
 20
376.4014944837
 30
0.0
 11
706.0244222573
 21
381.4171194837
 31
0.0
  0
ARC
  5
A67
330
2
100
AcDbEntity
  8
0
100
AcDbCircle
 10
707.5244222573
 20
376.4014944837
 30
0.0
 40
1.5
100
AcDbArc
 50
180.0
 51
270.0
  0
LINE
  5
A68
330
2
100
AcDbEntity
  8
0
100
AcDbLine
 10
756.5244222573
 20
379.2583364837
 30
0.0
 11
756.5244222573
 21
309.2583364837
 31
0.0
  0
ARC
  5
A69
330
2
100
AcDbEntity
  8
0
100
AcDbCircle
 10
751.5244222573
 20
309.2583364837
 30
0.0
 40
5.0
100
AcDbArc
 50
270.0
 51
0.0
  0
ARC
  5
A6A
330
2
100
AcDbEntity
  8
0
100
AcDbCircle
 10
751.5244222573
 20
379.2583674837
 30
0.0
 40
5.0
100
AcDbArc
 50
0.0
 51
90.0
  0
TEXT
  5
157B
330
2
100
AcDbEntity
  8
TITLE
100
AcDbText
 10
148.2387337579
 20
41.6986878965
 30
0.0
 40
5.0
  1
F2FB-15L-10～240-S25WT
100
AcDbText
  0
TEXT
  5
157C
330
2
100
AcDbEntity
  8
TITLE
100
AcDbText
 10
148.2387337579
 20
59.6986878965
 30
0.0
 40
5.0
  1
F2FB-15L-10～240-S15WT
100
AcDbText
  0
TEXT
  5
157D
330
2
100
AcDbEntity
  8
TITLE
100
AcDbText
 10
148.2387337579
 20
68.6986878965
 30
0.0
 40
5.0
  1
F2FB-15L-10～240-S15T
100
AcDbText
  0
TEXT
  5
157E
330
2
100
AcDbEntity
  8
TITLE
100
AcDbText
 10
148.2387337579
 20
50.6986878965
 30
0.0
 40
5.0
  1
F2FB-15L-10～240-S25T
100
AcDbText
  0
TEXT
  5
157F
330
2
100
AcDbEntity
  8
TITLE
100
AcDbText
 10
32.6646902256
 20
41.7264784062
 30
0.0
 40
5.0
  1
F2FB-15L-10～240-T25WT
100
AcDbText
  0
TEXT
  5
1580
330
2
100
AcDbEntity
  8
TITLE
100
AcDbText
 10
32.6646902256
 20
32.7264784062
 30
0.0
 40
5.0
  1
F2FB-15L-10～120-T40T
100
AcDbText
  0
TEXT
  5
1581
330
2
100
AcDbEntity
  8
TITLE
100
AcDbText
 10
32.6646902256
 20
68.7264784062
 30
0.0
 40
5.0
  1
F2FB-15L-10～240-T15T
100
AcDbText
  0
TEXT
  5
1582
330
2
100
AcDbEntity
  8
TITLE
100
AcDbText
 10
32.6646902256
 20
59.7264784062
 30
0.0
 40
5.0
  1
F2FB-15L-10～240-T15WT
100
AcDbText
  0
TEXT
  5
1583
330
2
100
AcDbEntity
  8
TITLE
100
AcDbText
 10
32.6646902256
 20
50.7264784062
 30
0.0
 40
5.0
  1
F2FB-15L-10～240-T25T
100
AcDbText
  0
TEXT
  5
1586
330
2
100
AcDbEntity
  8
TITLE
100
AcDbText
 10
32.6646902256
 20
14.7264784062
 30
0.0
 40
5.0
  1
F2FB-15L-10～60-T60T
100
AcDbText
  0
TEXT
  5
1587
330
2
100
AcDbEntity
  8
TITLE
100
AcDbText
 10
32.6646902256
 20
23.7264784062
 30
0.0
 40
5.0
  1
F2FB-15L-10～120-T40WT
100
AcDbText
  0
TEXT
  5
1588
330
2
100
AcDbEntity
  8
TITLE
100
AcDbText
 10
148.2387337579
 20
23.6986878965
 30
0.0
 40
5.0
  1
F2FB-15L-10～120-S40WT
100
AcDbText
  0
TEXT
  5
1589
330
2
100
AcDbEntity
  8
TITLE
100
AcDbText
 10
148.2387337579
 20
32.6986878965
 30
0.0
 40
5.0
  1
F2FB-15L-10～120-S40T
100
AcDbText
  0
SPLINE
  5
158C
330
2
100
AcDbEntity
  8
HOJO
100
AcDbSpline
210
0.0
220
0.0
230
1.0
 70
  1064
 71
     3
 72
    27
 73
    23
 74
    21
 42
0.000000001
 43
0.0000000001
 44
0.0000000001
 40
0.0
 40
0.0
 40
0.0
 40
0.0
 40
3.539268772771805
 40
7.287513562995782
 40
11.09046033223694
 40
14.62599423816979
 40
18.69227008921781
 40
22.26802890950274
 40
26.82672101949666
 40
31.55579532198583
 40
36.28066624743823
 40
40.14414690074342
 40
45.48003284016011
 40
49.44095400921186
 40
54.14226030623294
 40
58.62868909724435
 40
62.78426171223552
 40
66.26314687902689
 40
70.60953379849475
 40
74.30511416613945
 40
78.24621988074769
 40
82.00437648752233
 40
82.00437648752233
 40
82.00437648752233
 40
82.00437648752233
 10
330.3265968717435
 20
115.210142378906
 30
0.0
 10
331.5056632374929
 20
115.0444433573276
 30
0.0
 10
333.9334139068327
 20
114.7032616204622
 30
0.0
 10
337.5892943927436
 20
115.8492168650967
 30
0.0
 10
341.2757314873148
 20
114.5896415224665
 30
0.0
 10
345.02820179531
 20
116.0396225480129
 30
0.0
 10
348.7345552370464
 20
114.4804933025794
 30
0.0
 10
352.7349730531192
 20
116.10702979012
 30
0.0
 10
357.0159104517743
 20
114.4579932069511
 30
0.0
 10
361.6316044499094
 20
116.3258851976703
 30
0.0
 10
366.0532021664178
 20
114.5178008687329
 30
0.0
 10
370.6087727712486
 20
116.3517555279906
 30
0.0
 10
375.0128735501539
 20
114.5431084208945
 30
0.0
 10
379.5994941801
 20
116.5821113313041
 30
0.0
 10
383.9142154346983
 20
114.1637217139281
 30
0.0
 10
388.2820427728035
 20
116.7543694755848
 30
0.0
 10
392.2436985372048
 20
114.2091011376189
 30
0.0
 10
396.0892750043841
 20
116.6473010352698
 30
0.0
 10
399.9046771374381
 20
114.3389644570831
 30
0.0
 10
403.8097912245369
 20
116.4656550666384
 30
0.0
 10
407.5423743965073
 20
114.6194937406664
 30
0.0
 10
410.0853312092072
 20
115.3042666682946
 30
0.0
 10
411.3265968717433
 20
115.6385173789061
 30
0.0
 11
330.3265968717435
 21
115.210142378906
 31
0.0
 11
333.8577858717436
 21
114.9711283789061
 31
0.0
 11
337.5765968717435
 21
115.439939378906
 31
0.0
 11
341.3577858717435
 21
115.0337203789061
 31
0.0
 11
344.8577858717436
 21
115.5337203789061
 31
0.0
 11
348.8891888717434
 21
115.0023173789061
 31
0.0
 11
352.4204078717435
 21
115.564939378906
 31
0.0
 11
356.9515968717435
 21
115.064939378906
 31
0.0
 11
361.6391888717434
 21
115.689939378906
 31
0.0
 11
366.3265968717435
 21
115.0961283789061
 31
0.0
 11
370.1391888717434
 21
115.7211283789061
 31
0.0
 11
375.4515968717435
 21
115.2211283789061
 31
0.0
 11
379.3577858717435
 21
115.8773173789061
 31
0.0
 11
383.9827858717436
 21
115.0337203789061
 31
0.0
 11
388.3891888717434
 21
115.8773173789061
 31
0.0
 11
392.4515968717435
 21
115.0023173789061
 31
0.0
 11
395.8265968717435
 21
115.8461283789061
 31
0.0
 11
400.1077858717435
 21
115.0961283789061
 31
0.0
 11
403.7327858717435
 21
115.814939378906
 31
0.0
 11
407.6077858717431
 21
115.0961283789061
 31
0.0
 11
411.3265968717433
 21
115.6385173789061
 31
0.0
  0
LINE
  5
1612
330
2
100
AcDbEntity
  8
CENTER
100
AcDbLine
 10
321.3314498717
 20
140.5921295769
 30
0.0
 11
447.0123636742
 21
140.5921295769
 31
0.0
  0
LINE
  5
1613
330
2
100
AcDbEntity
  8
CENTER
100
AcDbLine
 10
370.8265968717
 20
216.4796275769
 30
0.0
 11
370.8265968717
 21
94.0513585769
 31
0.0
  0
LINE
  5
1615
330
2
100
AcDbEntity
  8
CENTER
100
AcDbLine
 10
563.9689412573
 20
393.7534834837
 30
0.0
 11
563.9689412573
 21
271.3867234837
 31
0.0
  0
LINE
  5
1616
330
2
100
AcDbEntity
  8
CENTER
100
AcDbLine
 10
517.4281702573
 20
344.2583364837
 30
0.0
 11
765.0449522256
 21
344.2583364837
 31
0.0
  0
LINE
  5
1619
330
2
100
AcDbEntity
  8
CENTER
100
AcDbLine
 10
617.9689412573
 20
115.0707675769
 30
0.0
 11
617.9689412573
 21
99.1134915769
 31
0.0
  0
LINE
  5
161A
330
2
100
AcDbEntity
  8
CENTER
100
AcDbLine
 10
531.9689412573
 20
115.0707675769
 30
0.0
 11
531.9689412573
 21
99.1134915769
 31
0.0
  0
LINE
  5
161B
330
2
100
AcDbEntity
  8
CENTER
100
AcDbLine
 10
563.9689412573
 20
110.3856170769
 30
0.0
 11
563.9689412573
 21
170.7986420769
 31
0.0
  0
LINE
  5
161C
330
2
100
AcDbEntity
  8
CENTER
100
AcDbLine
 10
539.9475792573
 20
107.0921295769
 30
0.0
 11
523.9903032573
 21
107.0921295769
 31
0.0
  0
LINE
  5
161D
330
2
100
AcDbEntity
  8
CENTER
100
AcDbLine
 10
625.9475792573
 20
107.0921295769
 30
0.0
 11
609.9903032573
 21
107.0921295769
 31
0.0
  0
LINE
  5
161E
330
2
100
AcDbEntity
  8
CENTER
100
AcDbLine
 10
531.9689412573
 20
182.0707675769
 30
0.0
 11
531.9689412573
 21
166.1134915769
 31
0.0
  0
LINE
  5
161F
330
2
100
AcDbEntity
  8
CENTER
100
AcDbLine
 10
539.9475792573
 20
174.0921295769
 30
0.0
 11
523.9903032573
 21
174.0921295769
 31
0.0
  0
LINE
  5
1620
330
2
100
AcDbEntity
  8
CENTER
100
AcDbLine
 10
617.9689412573
 20
182.0707675769
 30
0.0
 11
617.9689412573
 21
166.1134915769
 31
0.0
  0
LINE
  5
1621
330
2
100
AcDbEntity
  8
CENTER
100
AcDbLine
 10
625.9475792573
 20
174.0921295769
 30
0.0
 11
609.9903032573
 21
174.0921295769
 31
0.0
  0
LINE
  5
1622
330
2
100
AcDbEntity
  8
CENTER
100
AcDbLine
 10
168.0574442819
 20
115.0707675769
 30
0.0
 11
168.0574442819
 21
99.1134915769
 31
0.0
  0
LINE
  5
1623
330
2
100
AcDbEntity
  8
CENTER
100
AcDbLine
 10
254.0574442819
 20
115.0707675769
 30
0.0
 11
254.0574442819
 21
99.1134915769
 31
0.0
  0
LINE
  5
1624
330
2
100
AcDbEntity
  8
CENTER
100
AcDbLine
 10
159.9851022819
 20
164.0921295769
 30
0.0
 11
171.1297862819
 21
164.0921295769
 31
0.0
  0
LINE
  5
1625
330
2
100
AcDbEntity
  8
CENTER
100
AcDbLine
 10
176.0360822819
 20
174.0921295769
 30
0.0
 11
160.0788062819
 21
174.0921295769
 31
0.0
  0
LINE
  5
1626
330
2
100
AcDbEntity
  8
CENTER
100
AcDbLine
 10
176.0360822819
 20
107.0921295769
 30
0.0
 11
160.0788062819
 21
107.0921295769
 31
0.0
  0
LINE
  5
1627
330
2
100
AcDbEntity
  8
CENTER
100
AcDbLine
 10
159.9851022819
 20
117.0921295769
 30
0.0
 11
171.1297862819
 21
117.0921295769
 31
0.0
  0
LINE
  5
1628
330
2
100
AcDbEntity
  8
CENTER
100
AcDbLine
 10
165.5574442819
 20
158.5197875769
 30
0.0
 11
165.5574442819
 21
169.6644715769
 31
0.0
  0
LINE
  5
1629
330
2
100
AcDbEntity
  8
CENTER
100
AcDbLine
 10
165.5574442819
 20
111.5197875769
 30
0.0
 11
165.5574442819
 21
122.6644715769
 31
0.0
  0
LINE
  5
162A
330
2
100
AcDbEntity
  8
CENTER
100
AcDbLine
 10
168.0574442819
 20
182.0707675769
 30
0.0
 11
168.0574442819
 21
166.1134915769
 31
0.0
  0
LINE
  5
162B
330
2
100
AcDbEntity
  8
CENTER
100
AcDbLine
 10
256.5574442819
 20
158.5197875769
 30
0.0
 11
256.5574442819
 21
169.6644715769
 31
0.0
  0
LINE
  5
162C
330
2
100
AcDbEntity
  8
CENTER
100
AcDbLine
 10
222.0574442819
 20
110.4852565769
 30
0.0
 11
222.0574442819
 21
170.6990025769
 31
0.0
  0
LINE
  5
162D
330
2
100
AcDbEntity
  8
CENTER
100
AcDbLine
 10
256.5574442819
 20
111.5197875769
 30
0.0
 11
256.5574442819
 21
122.6644715769
 31
0.0
  0
LINE
  5
162E
330
2
100
AcDbEntity
  8
CENTER
100
AcDbLine
 10
262.0360822819
 20
107.0921295769
 30
0.0
 11
246.0788062819
 21
107.0921295769
 31
0.0
  0
LINE
  5
162F
330
2
100
AcDbEntity
  8
CENTER
100
AcDbLine
 10
250.9851022819
 20
117.0921295769
 30
0.0
 11
262.1297862819
 21
117.0921295769
 31
0.0
  0
LINE
  5
1630
330
2
100
AcDbEntity
  8
CENTER
100
AcDbLine
 10
254.0574442819
 20
182.0707675769
 30
0.0
 11
254.0574442819
 21
166.1134915769
 31
0.0
  0
LINE
  5
1631
330
2
100
AcDbEntity
  8
CENTER
100
AcDbLine
 10
250.9851022819
 20
164.0921295769
 30
0.0
 11
262.1297862819
 21
164.0921295769
 31
0.0
  0
LINE
  5
1632
330
2
100
AcDbEntity
  8
CENTER
100
AcDbLine
 10
262.0360822819
 20
174.0921295769
 30
0.0
 11
246.0788062819
 21
174.0921295769
 31
0.0
  0
LINE
  5
21DE
330
2
100
AcDbEntity
  8
0
100
AcDbLine
 10
345.8265968717
 20
192.0921295769
 30
0.0
 11
395.8265818717
 21
192.0921295769
 31
0.0
  0
LINE
  5
21DF
330
2
100
AcDbEntity
  8
0
100
AcDbLine
 10
345.8265968717
 20
182.0921295769
 30
0.0
 11
395.8265818717
 21
182.0921295769
 31
0.0
  0
LINE
  5
21E0
330
2
100
AcDbEntity
  8
0
100
AcDbLine
 10
346.8265968717
 20
211.0921275769
 30
0.0
 11
390.9886880557
 21
211.0921275769
 31
0.0
  0
LINE
  5
21E1
330
2
100
AcDbEntity
  8
0
100
AcDbLine
 10
345.8265968717
 20
210.0921275769
 30
0.0
 11
388.3265818717
 21
210.0921275769
 31
0.0
  0
LINE
  5
21E3
330
2
100
AcDbEntity
  8
CENTER
100
AcDbLine
 10
340.7829898905
 20
201.5921275769
 30
0.0
 11
400.870203853
 21
201.5921275769
 31
0.0
  0
LINE
  5
2209
330
2
100
AcDbEntity
  8
0
100
AcDbLine
 10
83.8398560979
 20
211.0921275769
 30
0.0
 11
128.0019472819
 21
211.0921275769
 31
0.0
  0
LINE
  5
220A
330
2
100
AcDbEntity
  8
0
100
AcDbLine
 10
80.5019402819
 20
180.0921295769
 30
0.0
 11
127.0019472819
 21
180.0921295769
 31
0.0
  0
LINE
  5
220B
330
2
100
AcDbEntity
  8
0
100
AcDbLine
 10
77.0019402819
 20
192.0921295769
 30
0.0
 11
129.0019472819
 21
192.0921295769
 31
0.0
  0
LINE
  5
220C
330
2
100
AcDbEntity
  8
0
100
AcDbLine
 10
79.0019402819
 20
182.0921295769
 30
0.0
 11
129.0019472819
 21
182.0921295769
 31
0.0
  0
LINE
  5
220D
330
2
100
AcDbEntity
  8
0
100
AcDbLine
 10
86.5019407104
 20
210.0921275769
 30
0.0
 11
129.0019542819
 21
210.0921275769
 31
0.0
  0
LINE
  5
220E
330
2
100
AcDbEntity
  8
CENTER
100
AcDbLine
 10
71.0581912819
 20
201.5921275769
 30
0.0
 11
132.9542502456
 21
201.5921275769
 31
0.0
  0
ARC
  5
2210
330
2
100
AcDbEntity
  8
0
100
AcDbCircle
 10
78.0019552819
 20
208.0921275769
 30
0.0
 40
1.0
100
AcDbArc
 50
90.0
 51
180.0
  0
LINE
  5
2211
330
2
100
AcDbEntity
  8
0
100
AcDbLine
 10
77.0019552819
 20
208.0921275769
 30
0.0
 11
77.0019402819
 21
192.0921295769
 31
0.0
  0
LINE
  5
2212
330
2
100
AcDbEntity
  8
0
100
AcDbLine
 10
73.5019552819
 20
205.5921275769
 30
0.0
 11
73.5019552819
 21
197.5921275769
 31
0.0
  0
LINE
  5
2213
330
2
100
AcDbEntity
  8
0
100
AcDbLine
 10
73.5019402819
 20
197.5921275769
 30
0.0
 11
77.0019402819
 21
196.0921275769
 31
0.0
  0
LINE
  5
2214
330
2
100
AcDbEntity
  8
0
100
AcDbLine
 10
73.5019552819
 20
205.5921275769
 30
0.0
 11
77.0019552819
 21
207.0921275769
 31
0.0
  0
LINE
  5
2215
330
2
100
AcDbEntity
  8
CENTER
100
AcDbLine
 10
104.0019472819
 20
175.3984285769
 30
0.0
 11
104.0019472819
 21
216.4796275769
 31
0.0
  0
LINE
  5
2216
330
2
100
AcDbEntity
  8
0
100
AcDbLine
 10
79.0019402819
 20
210.0921275769
 30
0.0
 11
79.0019402819
 21
182.0921295769
 31
0.0
  0
LINE
  5
2217
330
2
100
AcDbEntity
  8
0
100
AcDbLine
 10
80.5019402819
 20
180.0921295769
 30
0.0
 11
80.5019402819
 21
178.5921295769
 31
0.0
  0
LINE
  5
2219
330
2
100
AcDbEntity
  8
0
100
AcDbLine
 10
79.0019402819
 20
182.0921295769
 30
0.0
 11
81.0019402819
 21
180.0921295769
 31
0.0
  0
ARC
  5
221A
330
2
100
AcDbEntity
  8
0
100
AcDbCircle
 10
82.5019472819
 20
202.1921275769
 30
0.0
 40
9.0
100
AcDbArc
 50
74.1191499917
 51
105.8808500083
  0
LINE
  5
221B
330
2
100
AcDbEntity
  8
0
100
AcDbLine
 10
82.7894472823
 20
209.6751275769
 30
0.0
 11
82.2144472814
 21
209.6751275769
 31
0.0
  0
LINE
  5
221C
330
2
100
AcDbEntity
  8
0
100
AcDbLine
 10
86.5019407104
 20
208.5921275769
 30
0.0
 11
79.0019407104
 21
208.5921275769
 31
0.0
  0
LINE
  5
221D
330
2
100
AcDbEntity
  8
0
100
AcDbLine
 10
80.4722074587
 20
210.7445691142
 30
0.0
 11
80.4519472819
 21
210.9555458597
 31
0.0
  0
SPLINE
  5
221E
330
2
100
AcDbEntity
  8
0
100
AcDbSpline
210
0.0
220
0.0
230
1.0
 70
     8
 71
     3
 72
    11
 73
     7
 74
     0
 42
0.000000001
 43
0.0000000001
 40
0.0
 40
0.0
 40
0.0
 40
0.0
 40
0.4601364636755307
 40
1.04988694485363
 40
1.713742833862792
 40
2.320347933405154
 40
2.320347933405154
 40
2.320347933405154
 40
2.320347933405173
 10
82.21444728140415
 20
209.6751275768587
 30
0.0
 10
82.19202962429632
 20
209.8301510165386
 30
0.0
 10
82.14087956906302
 20
210.1838658344561
 30
0.0
 10
81.70499440752946
 20
210.6085935060578
 30
0.0
 10
81.099943692522
 20
210.8277806860236
 30
0.0
 10
80.67475906834619
 20
210.758789386413
 30
0.0
 10
80.47220745869509
 20
210.7445691142364
 30
0.0
  0
LINE
  5
221F
330
2
100
AcDbEntity
  8
0
100
AcDbLine
 10
79.0019472819
 20
208.5921275769
 30
0.0
 11
79.0998834207
 21
209.7115427667
 31
0.0
  0
ARC
  5
2220
330
2
100
AcDbEntity
  8
0
100
AcDbCircle
 10
80.3949365283
 20
209.5982403011
 30
0.0
 40
1.3
100
AcDbArc
 50
105.8808500083
 51
175.0
  0
LINE
  5
2221
330
2
100
AcDbEntity
  8
0
100
AcDbLine
 10
80.0019407104
 20
211.0921275769
 30
0.0
 11
79.0019402819
 21
210.0921275769
 31
0.0
  0
LINE
  5
2222
330
2
100
AcDbEntity
  8
0
100
AcDbLine
 10
79.0019402819
 20
210.0921275769
 30
0.0
 11
80.0019402819
 21
211.0921275769
 31
0.0
  0
LINE
  5
2223
330
2
100
AcDbEntity
  8
0
100
AcDbLine
 10
78.0019402819
 20
209.0921275769
 30
0.0
 11
79.0019402819
 21
209.0921275769
 31
0.0
  0
LINE
  5
2224
330
2
100
AcDbEntity
  8
0
100
AcDbLine
 10
80.0019402819
 20
211.0921275769
 30
0.0
 11
81.1640384658
 21
211.0921275769
 31
0.0
  0
LINE
  5
2225
330
2
100
AcDbEntity
  8
0
100
AcDbLine
 10
86.0019472819
 20
208.5921275769
 30
0.0
 11
85.904011143
 21
209.7115427667
 31
0.0
  0
ARC
  5
2226
330
2
100
AcDbEntity
  8
0
100
AcDbCircle
 10
84.6089580355
 20
209.5982403011
 30
0.0
 40
1.3
100
AcDbArc
 50
5.0
 51
74.1191499917
  0
LINE
  5
2227
330
2
100
AcDbEntity
  8
0
100
AcDbLine
 10
84.531687105
 20
210.7445691142
 30
0.0
 11
84.5519472819
 21
210.9555458597
 31
0.0
  0
SPLINE
  5
2228
330
2
100
AcDbEntity
  8
0
100
AcDbSpline
210
0.0
220
0.0
230
1.0
 70
     8
 71
     3
 72
    11
 73
     7
 74
     0
 42
0.000000001
 43
0.0000000001
 40
0.0
 40
0.0
 40
0.0
 40
0.0
 40
0.4601364636755307
 40
1.04988694485363
 40
1.713742833862792
 40
2.320347933405154
 40
2.320347933405154
 40
2.320347933405154
 40
2.320347933405173
 10
82.78944728231426
 20
209.6751275768587
 30
0.0
 10
82.81186493942209
 20
209.8301510165386
 30
0.0
 10
82.86301499465537
 20
210.1838658344561
 30
0.0
 10
83.29890015618895
 20
210.6085935060578
 30
0.0
 10
83.90395087119641
 20
210.8277806860236
 30
0.0
 10
84.32913549537222
 20
210.758789386413
 30
0.0
 10
84.5316871050233
 20
210.7445691142364
 30
0.0
  0
LINE
  5
2229
330
2
100
AcDbEntity
  8
0
100
AcDbLine
 10
87.0019407104
 20
211.0921275769
 30
0.0
 11
86.5019407104
 21
210.5921275769
 31
0.0
  0
LINE
  5
222A
330
2
100
AcDbEntity
  8
0
100
AcDbLine
 10
86.5019407104
 20
208.5921275769
 30
0.0
 11
86.5019407104
 21
210.5921275769
 31
0.0
  0
LINE
  5
222B
330
2
100
AcDbEntity
  8
0
100
AcDbLine
 10
86.5019407104
 20
210.5921275769
 30
0.0
 11
85.4469246715
 21
210.5921275769
 31
0.0
  0
LINE
  5
222C
330
2
100
AcDbEntity
  8
0
100
AcDbLine
 10
129.0019472819
 20
210.0921275769
 30
0.0
 11
129.0019472819
 21
182.0921295769
 31
0.0
  0
LINE
  5
222D
330
2
100
AcDbEntity
  8
0
100
AcDbLine
 10
126.5019472819
 20
180.0921295769
 30
0.0
 11
126.5019472819
 21
178.5921295769
 31
0.0
  0
LINE
  5
222E
330
2
100
AcDbEntity
  8
0
100
AcDbLine
 10
127.0019472819
 20
180.0921295769
 30
0.0
 11
129.0019472819
 21
182.0921295769
 31
0.0
  0
LINE
  5
222F
330
2
100
AcDbEntity
  8
0
100
AcDbLine
 10
128.0019542819
 20
211.0921275769
 30
0.0
 11
129.0019542819
 21
210.0921275769
 31
0.0
  0
LINE
  5
2230
330
2
100
AcDbEntity
  8
0
100
AcDbLine
 10
345.8265968717
 20
210.0921275769
 30
0.0
 11
345.8265968717
 21
182.0921295769
 31
0.0
  0
LINE
  5
2232
330
2
100
AcDbEntity
  8
0
100
AcDbLine
 10
345.8265968717
 20
182.0921295769
 30
0.0
 11
347.2383372242
 21
180.6803892244
 31
0.0
  0
LINE
  5
2233
330
2
100
AcDbEntity
  8
0
100
AcDbLine
 10
346.8265968717
 20
211.0921275769
 30
0.0
 11
345.8265968717
 21
210.0921275769
 31
0.0
  0
LINE
  5
2235
330
2
100
AcDbEntity
  8
0
100
AcDbLine
 10
395.8265818717
 20
210.0921275769
 30
0.0
 11
395.8265818717
 21
182.0921295769
 31
0.0
  0
LINE
  5
2238
330
2
100
AcDbEntity
  8
0
100
AcDbLine
 10
394.4148417766
 20
180.6803894817
 30
0.0
 11
395.8265818717
 21
182.0921295769
 31
0.0
  0
ARC
  5
2239
330
2
100
AcDbEntity
  8
0
100
AcDbCircle
 10
392.3265968717
 20
202.1921275769
 30
0.0
 40
9.0
100
AcDbArc
 50
74.1191499917
 51
105.8808500083
  0
SPLINE
  5
223A
330
2
100
AcDbEntity
  8
0
100
AcDbSpline
210
0.0
220
0.0
230
1.0
 70
     8
 71
     3
 72
    11
 73
     7
 74
     0
 42
0.000000001
 43
0.0000000001
 40
0.0
 40
0.0
 40
0.0
 40
0.0
 40
0.4601364636755307
 40
1.04988694485363
 40
1.713742833862792
 40
2.320347933405154
 40
2.320347933405154
 40
2.320347933405154
 40
2.320347933405173
 10
392.0390968712885
 20
209.6751275768588
 30
0.0
 10
392.0166792141807
 20
209.8301510165386
 30
0.0
 10
391.9655291589474
 20
210.1838658344561
 30
0.0
 10
391.5296439974138
 20
210.6085935060579
 30
0.0
 10
390.9245932824063
 20
210.8277806860237
 30
0.0
 10
390.4994086582306
 20
210.758789386413
 30
0.0
 10
390.2968570485795
 20
210.7445691142364
 30
0.0
  0
LINE
  5
223B
330
2
100
AcDbEntity
  8
0
100
AcDbLine
 10
388.3265818717
 20
208.5921275769
 30
0.0
 11
395.8265818717
 21
208.5921275769
 31
0.0
  0
LINE
  5
223C
330
2
100
AcDbEntity
  8
0
100
AcDbLine
 10
390.2968570486
 20
210.7445691142
 30
0.0
 11
390.2765968717
 21
210.9555458597
 31
0.0
  0
LINE
  5
223D
330
2
100
AcDbEntity
  8
0
100
AcDbLine
 10
388.8265968717
 20
208.5921275769
 30
0.0
 11
388.9245330106
 21
209.7115427667
 31
0.0
  0
ARC
  5
223E
330
2
100
AcDbEntity
  8
0
100
AcDbCircle
 10
390.2195861182
 20
209.5982403011
 30
0.0
 40
1.3
100
AcDbArc
 50
105.8808500083
 51
175.0
  0
LINE
  5
223F
330
2
100
AcDbEntity
  8
0
100
AcDbLine
 10
387.8265818717
 20
211.0921275769
 30
0.0
 11
388.3265818717
 21
210.5921275769
 31
0.0
  0
LINE
  5
2240
330
2
100
AcDbEntity
  8
0
100
AcDbLine
 10
388.3265818717
 20
208.5921275769
 30
0.0
 11
388.3265818717
 21
210.5921275769
 31
0.0
  0
LINE
  5
2241
330
2
100
AcDbEntity
  8
0
100
AcDbLine
 10
388.3265818717
 20
210.5921275769
 30
0.0
 11
389.3816194821
 21
210.5921275769
 31
0.0
  0
LINE
  5
2242
330
2
100
AcDbEntity
  8
0
100
AcDbLine
 10
393.6645056878
 20
211.0921275769
 30
0.0
 11
394.8265818717
 21
211.0921275769
 31
0.0
  0
LINE
  5
2243
330
2
100
AcDbEntity
  8
0
100
AcDbLine
 10
395.8265968717
 20
208.5921275769
 30
0.0
 11
395.7286607329
 21
209.7115427667
 31
0.0
  0
ARC
  5
2244
330
2
100
AcDbEntity
  8
0
100
AcDbCircle
 10
394.4336076253
 20
209.5982403011
 30
0.0
 40
1.3
100
AcDbArc
 50
5.0
 51
74.1191499917
  0
LINE
  5
2245
330
2
100
AcDbEntity
  8
0
100
AcDbLine
 10
394.3563366949
 20
210.7445691142
 30
0.0
 11
394.3765968717
 21
210.9555458597
 31
0.0
  0
LINE
  5
2246
330
2
100
AcDbEntity
  8
0
100
AcDbLine
 10
392.6140968722
 20
209.6751275769
 30
0.0
 11
392.0390968713
 21
209.6751275769
 31
0.0
  0
SPLINE
  5
2247
330
2
100
AcDbEntity
  8
0
100
AcDbSpline
210
0.0
220
0.0
230
1.0
 70
     8
 71
     3
 72
    11
 73
     7
 74
     0
 42
0.000000001
 43
0.0000000001
 40
0.0
 40
0.0
 40
0.0
 40
0.0
 40
0.4601364636755307
 40
1.04988694485363
 40
1.713742833862792
 40
2.320347933405154
 40
2.320347933405154
 40
2.320347933405154
 40
2.320347933405173
 10
392.6140968721986
 20
209.6751275768588
 30
0.0
 10
392.6365145293065
 20
209.8301510165386
 30
0.0
 10
392.6876645845397
 20
210.1838658344561
 30
0.0
 10
393.1235497460733
 20
210.6085935060579
 30
0.0
 10
393.7286004610808
 20
210.8277806860237
 30
0.0
 10
394.1537850852567
 20
210.758789386413
 30
0.0
 10
394.3563366949076
 20
210.7445691142364
 30
0.0
  0
LINE
  5
2248
330
2
100
AcDbEntity
  8
0
100
AcDbLine
 10
394.8265818717
 20
211.0921275769
 30
0.0
 11
395.8265818717
 21
210.0921275769
 31
0.0
  0
LINE
  5
224A
330
2
100
AcDbEntity
  8
0
100
AcDbLine
 10
661.8623240734
 20
211.0921275769
 30
0.0
 11
706.0244152573
 21
211.0921275769
 31
0.0
  0
LINE
  5
224B
330
2
100
AcDbEntity
  8
0
100
AcDbLine
 10
664.5244156859
 20
210.0921275769
 30
0.0
 11
707.0244222573
 21
210.0921275769
 31
0.0
  0
LINE
  5
224D
330
2
100
AcDbEntity
  8
0
100
AcDbLine
 10
707.0244222573
 20
182.0921295769
 30
0.0
 11
657.0244152573
 21
182.0921295769
 31
0.0
  0
LINE
  5
224E
330
2
100
AcDbEntity
  8
0
100
AcDbLine
 10
705.5244222573
 20
180.0921295769
 30
0.0
 11
659.0244152573
 21
180.0921295769
 31
0.0
  0
LINE
  5
224F
330
2
100
AcDbEntity
  8
CENTER
100
AcDbLine
 10
714.9681712573
 20
201.5921275769
 30
0.0
 11
653.0721122936
 21
201.5921275769
 31
0.0
  0
LINE
  5
2250
330
2
100
AcDbEntity
  8
0
100
AcDbLine
 10
709.0244222573
 20
192.0921295769
 30
0.0
 11
657.0244152573
 21
192.0921295769
 31
0.0
  0
LINE
  5
2251
330
2
100
AcDbEntity
  8
0
100
AcDbLine
 10
657.0244152573
 20
210.0921275769
 30
0.0
 11
657.0244152573
 21
182.0921295769
 31
0.0
  0
LINE
  5
2252
330
2
100
AcDbEntity
  8
CENTER
100
AcDbLine
 10
682.0244152573
 20
175.3984285769
 30
0.0
 11
682.0244152573
 21
216.4796275769
 31
0.0
  0
LINE
  5
2253
330
2
100
AcDbEntity
  8
0
100
AcDbLine
 10
659.5244152573
 20
180.0921295769
 30
0.0
 11
659.5244152573
 21
178.5921295769
 31
0.0
  0
LINE
  5
2254
330
2
100
AcDbEntity
  8
0
100
AcDbLine
 10
659.0244152573
 20
180.0921295769
 30
0.0
 11
657.0244152573
 21
182.0921295769
 31
0.0
  0
LINE
  5
2255
330
2
100
AcDbEntity
  8
0
100
AcDbLine
 10
664.5244156859
 20
210.5921275769
 30
0.0
 11
663.469392647
 21
210.5921275769
 31
0.0
  0
LINE
  5
2256
330
2
100
AcDbEntity
  8
0
100
AcDbLine
 10
664.5244156859
 20
208.5921275769
 30
0.0
 11
657.0244156859
 21
208.5921275769
 31
0.0
  0
ARC
  5
2257
330
2
100
AcDbEntity
  8
0
100
AcDbCircle
 10
660.5244152573
 20
202.1921275769
 30
0.0
 40
9.0
100
AcDbArc
 50
74.1191499917
 51
105.8808500083
  0
SPLINE
  5
2258
330
2
100
AcDbEntity
  8
0
100
AcDbSpline
210
0.0
220
0.0
230
1.0
 70
     8
 71
     3
 72
    11
 73
     7
 74
     0
 42
0.000000001
 43
0.0000000001
 40
0.0
 40
0.0
 40
0.0
 40
0.0
 40
0.4601364636755307
 40
1.04988694485363
 40
1.713742833862792
 40
2.320347933405154
 40
2.320347933405154
 40
2.320347933405154
 40
2.320347933405173
 10
660.2369152568906
 20
209.6751275768587
 30
0.0
 10
660.2144975997827
 20
209.8301510165386
 30
0.0
 10
660.1633475445494
 20
210.1838658344561
 30
0.0
 10
659.7274623830157
 20
210.6085935060578
 30
0.0
 10
659.1224116680082
 20
210.8277806860236
 30
0.0
 10
658.6972270438325
 20
210.7587893864129
 30
0.0
 10
658.4946754341815
 20
210.7445691142364
 30
0.0
  0
LINE
  5
2259
330
2
100
AcDbEntity
  8
0
100
AcDbLine
 10
658.4946754342
 20
210.7445691142
 30
0.0
 11
658.4744152573
 21
210.9555458597
 31
0.0
  0
LINE
  5
225A
330
2
100
AcDbEntity
  8
0
100
AcDbLine
 10
657.0244152573
 20
208.5921275769
 30
0.0
 11
657.1223513962
 21
209.7115427667
 31
0.0
  0
ARC
  5
225B
330
2
100
AcDbEntity
  8
0
100
AcDbCircle
 10
658.4174045038
 20
209.5982403011
 30
0.0
 40
1.3
100
AcDbArc
 50
105.8808500083
 51
175.0
  0
LINE
  5
225C
330
2
100
AcDbEntity
  8
0
100
AcDbLine
 10
657.0244152573
 20
210.0921275769
 30
0.0
 11
658.0244152573
 21
211.0921275769
 31
0.0
  0
LINE
  5
225D
330
2
100
AcDbEntity
  8
0
100
AcDbLine
 10
658.0244152573
 20
211.0921275769
 30
0.0
 11
659.1865064413
 21
211.0921275769
 31
0.0
  0
LINE
  5
225E
330
2
100
AcDbEntity
  8
0
100
AcDbLine
 10
664.0244152573
 20
208.5921275769
 30
0.0
 11
663.9264791185
 21
209.7115427667
 31
0.0
  0
ARC
  5
225F
330
2
100
AcDbEntity
  8
0
100
AcDbCircle
 10
662.6314260109
 20
209.5982403011
 30
0.0
 40
1.3
100
AcDbArc
 50
5.0
 51
74.1191499917
  0
LINE
  5
2260
330
2
100
AcDbEntity
  8
0
100
AcDbLine
 10
662.5541550805
 20
210.7445691142
 30
0.0
 11
662.5744152573
 21
210.9555458597
 31
0.0
  0
LINE
  5
2261
330
2
100
AcDbEntity
  8
0
100
AcDbLine
 10
660.8119152578
 20
209.6751275769
 30
0.0
 11
660.2369152569
 21
209.6751275769
 31
0.0
  0
SPLINE
  5
2262
330
2
100
AcDbEntity
  8
0
100
AcDbSpline
210
0.0
220
0.0
230
1.0
 70
     8
 71
     3
 72
    11
 73
     7
 74
     0
 42
0.000000001
 43
0.0000000001
 40
0.0
 40
0.0
 40
0.0
 40
0.0
 40
0.4601364636755307
 40
1.04988694485363
 40
1.713742833862792
 40
2.320347933405154
 40
2.320347933405154
 40
2.320347933405154
 40
2.320347933405173
 10
660.8119152578002
 20
209.6751275768587
 30
0.0
 10
660.8343329149085
 20
209.8301510165386
 30
0.0
 10
660.8854829701417
 20
210.1838658344561
 30
0.0
 10
661.3213681316753
 20
210.6085935060578
 30
0.0
 10
661.9264188466827
 20
210.8277806860236
 30
0.0
 10
662.3516034708586
 20
210.7587893864129
 30
0.0
 10
662.5541550805096
 20
210.7445691142364
 30
0.0
  0
LINE
  5
2263
330
2
100
AcDbEntity
  8
0
100
AcDbLine
 10
665.0244156859
 20
211.0921275769
 30
0.0
 11
664.5244156859
 21
210.5921275769
 31
0.0
  0
LINE
  5
2264
330
2
100
AcDbEntity
  8
0
100
AcDbLine
 10
664.5244156859
 20
208.5921275769
 30
0.0
 11
664.5244156859
 21
210.5921275769
 31
0.0
  0
LINE
  5
2266
330
2
100
AcDbEntity
  8
0
100
AcDbLine
 10
707.0244222573
 20
210.0921275769
 30
0.0
 11
707.0244222573
 21
182.0921295769
 31
0.0
  0
LINE
  5
2267
330
2
100
AcDbEntity
  8
0
100
AcDbLine
 10
712.5244072573
 20
205.5921275769
 30
0.0
 11
712.5244072573
 21
197.5921275769
 31
0.0
  0
LINE
  5
2268
330
2
100
AcDbEntity
  8
0
100
AcDbLine
 10
709.0244072573
 20
208.0921275769
 30
0.0
 11
709.0244222573
 21
192.0921295769
 31
0.0
  0
LINE
  5
226A
330
2
100
AcDbEntity
  8
0
100
AcDbLine
 10
705.5244222573
 20
180.0921295769
 30
0.0
 11
705.5244222573
 21
178.5921295769
 31
0.0
  0
LINE
  5
226B
330
2
100
AcDbEntity
  8
0
100
AcDbLine
 10
712.5244222573
 20
197.5921275769
 30
0.0
 11
709.0244222573
 21
196.0921275769
 31
0.0
  0
LINE
  5
226C
330
2
100
AcDbEntity
  8
0
100
AcDbLine
 10
707.0244222573
 20
182.0921295769
 30
0.0
 11
705.0244222573
 21
180.0921295769
 31
0.0
  0
LINE
  5
226D
330
2
100
AcDbEntity
  8
0
100
AcDbLine
 10
712.5244072573
 20
205.5921275769
 30
0.0
 11
709.0244072573
 21
207.0921275769
 31
0.0
  0
LINE
  5
226E
330
2
100
AcDbEntity
  8
0
100
AcDbLine
 10
706.0244222573
 20
211.0921275769
 30
0.0
 11
707.0244222573
 21
210.0921275769
 31
0.0
  0
ARC
  5
226F
330
2
100
AcDbEntity
  8
0
100
AcDbCircle
 10
708.0244072573
 20
208.0921275769
 30
0.0
 40
1.0
100
AcDbArc
 50
0.0
 51
90.0
  0
LINE
  5
2270
330
2
100
AcDbEntity
  8
0
100
AcDbLine
 10
708.0244222573
 20
209.0921275769
 30
0.0
 11
707.0244222573
 21
209.0921275769
 31
0.0
  0
LINE
  5
2271
330
2
100
AcDbEntity
  8
0
100
AcDbLine
 10
659.4243172573
 20
367.8583424837
 30
0.0
 11
699.5244222573
 21
367.8583424837
 31
0.0
  0
LINE
  5
2272
330
2
100
AcDbEntity
  8
0
100
AcDbLine
 10
705.0244222573
 20
369.2583364837
 30
0.0
 11
659.0245222573
 21
369.2583364837
 31
0.0
  0
LINE
  5
2273
330
2
100
AcDbEntity
  8
0
100
AcDbLine
 10
705.0244222573
 20
319.2583364837
 30
0.0
 11
659.0245222573
 21
319.2583364837
 31
0.0
  0
LINE
  5
2274
330
2
100
AcDbEntity
  8
0
100
AcDbLine
 10
704.6244212573
 20
320.6583454837
 30
0.0
 11
664.5245222573
 21
320.6583454837
 31
0.0
  0
LINE
  5
2275
330
2
100
AcDbEntity
  8
0
100
AcDbLine
 10
657.0245222573
 20
321.2583364837
 30
0.0
 11
657.0245222573
 21
367.2583364837
 31
0.0
  0
LINE
  5
2276
330
2
100
AcDbEntity
  8
CENTER
100
AcDbLine
 10
682.0244152573
 20
313.8691105396
 30
0.0
 11
682.0244152573
 21
375.0083364837
 31
0.0
  0
LINE
  5
2277
330
2
100
AcDbEntity
  8
0
100
AcDbLine
 10
658.4243172573
 20
366.8583424837
 30
0.0
 11
658.4243172573
 21
326.7583364837
 31
0.0
  0
ARC
  5
2278
330
2
100
AcDbEntity
  8
0
100
AcDbCircle
 10
660.5243232573
 20
322.7583364837
 30
0.0
 40
4.0
100
AcDbArc
 50
0.0
 51
90.0
  0
ARC
  5
2279
330
2
100
AcDbEntity
  8
0
100
AcDbCircle
 10
658.4946232573
 20
320.7286364837
 30
0.0
 40
1.742199999999999
100
AcDbArc
 50
359.9986903345
 51
90.0013096655
  0
ARC
  5
227A
330
2
100
AcDbEntity
  8
0
100
AcDbCircle
 10
658.4946232573
 20
324.7880364837
 30
0.0
 40
1.742199999999999
100
AcDbArc
 50
269.9986903345
 51
0.0013096655
  0
CIRCLE
  5
227B
330
2
100
AcDbEntity
  8
0
100
AcDbCircle
 10
660.5243232573
 20
322.7583364837
 30
0.0
 40
3.500000000000028
  0
LINE
  5
227C
330
2
100
AcDbEntity
  8
0
100
AcDbLine
 10
660.5245222573
 20
326.7583364837
 30
0.0
 11
657.0245222573
 21
326.7583364837
 31
0.0
  0
ARC
  5
227D
330
2
100
AcDbEntity
  8
0
100
AcDbCircle
 10
660.5243232573
 20
322.7583364837
 30
0.0
 40
2.049999999999998
100
AcDbArc
 50
171.938039916
 51
180.0
  0
ARC
  5
227E
330
2
100
AcDbEntity
  8
0
100
AcDbCircle
 10
660.5243232573
 20
322.7583364837
 30
0.0
 40
2.049999999999998
100
AcDbArc
 50
180.0
 51
188.061960084
  0
LINE
  5
227F
330
2
100
AcDbEntity
  8
0
100
AcDbLine
 10
659.0245222573
 20
319.2583364837
 30
0.0
 11
657.0245222573
 21
321.2583364837
 31
0.0
  0
LINE
  5
2280
330
2
100
AcDbEntity
  8
0
100
AcDbLine
 10
657.0245222573
 20
321.2583364837
 30
0.0
 11
659.0245222573
 21
319.2583364837
 31
0.0
  0
ARC
  5
2281
330
2
100
AcDbEntity
  8
0
100
AcDbCircle
 10
662.5540232573
 20
320.7286364837
 30
0.0
 40
1.742199999999999
100
AcDbArc
 50
89.9986903345
 51
180.0013096655
  0
ARC
  5
2282
330
2
100
AcDbEntity
  8
0
100
AcDbCircle
 10
662.5540232573
 20
324.7880364837
 30
0.0
 40
1.742199999999999
100
AcDbArc
 50
179.9986903345
 51
270.0013096655
  0
ARC
  5
2283
330
2
100
AcDbEntity
  8
0
100
AcDbCircle
 10
660.5243232573
 20
322.7583364837
 30
0.0
 40
2.049999999999998
100
AcDbArc
 50
0.0
 51
8.061960084
  0
ARC
  5
2284
330
2
100
AcDbEntity
  8
0
100
AcDbCircle
 10
660.5243232573
 20
322.7583364837
 30
0.0
 40
2.049999999999998
100
AcDbArc
 50
261.938039916
 51
270.0
  0
ARC
  5
2285
330
2
100
AcDbEntity
  8
0
100
AcDbCircle
 10
660.5243232573
 20
322.7583364837
 30
0.0
 40
2.049999999999998
100
AcDbArc
 50
270.0
 51
278.061960084
  0
ARC
  5
2286
330
2
100
AcDbEntity
  8
0
100
AcDbCircle
 10
660.5243232573
 20
322.7583364837
 30
0.0
 40
2.049999999999998
100
AcDbArc
 50
351.938039916
 51
0.0
  0
ARC
  5
2287
330
2
100
AcDbEntity
  8
0
100
AcDbCircle
 10
660.5243232573
 20
322.7583364837
 30
0.0
 40
2.049999999999998
100
AcDbArc
 50
90.0
 51
98.061960084
  0
ARC
  5
2288
330
2
100
AcDbEntity
  8
0
100
AcDbCircle
 10
660.5243232573
 20
322.7583364837
 30
0.0
 40
2.049999999999998
100
AcDbArc
 50
81.938039916
 51
90.0
  0
LINE
  5
2289
330
2
100
AcDbEntity
  8
0
100
AcDbLine
 10
664.5245222573
 20
322.7583364837
 30
0.0
 11
664.5245222573
 21
319.2583364837
 31
0.0
  0
LINE
  5
228A
330
2
100
AcDbEntity
  8
0
100
AcDbLine
 10
657.0243232573
 20
367.2583364837
 30
0.0
 11
659.0245222573
 21
369.2583364837
 31
0.0
  0
LINE
  5
228B
330
2
100
AcDbEntity
  8
0
100
AcDbLine
 10
657.0245222573
 20
367.2583364837
 30
0.0
 11
659.0245222573
 21
369.2583364837
 31
0.0
  0
LINE
  5
228C
330
2
100
AcDbEntity
  8
0
100
AcDbLine
 10
657.0245222573
 20
367.2583364837
 30
0.0
 11
659.0245222573
 21
369.2583364837
 31
0.0
  0
LINE
  5
228D
330
2
100
AcDbEntity
  8
0
100
AcDbLine
 10
659.4243172573
 20
367.8583424837
 30
0.0
 11
658.4243172573
 21
366.8583424837
 31
0.0
  0
LINE
  5
228E
330
2
100
AcDbEntity
  8
0
100
AcDbLine
 10
707.0244222573
 20
321.2583364837
 30
0.0
 11
707.0244222573
 21
367.2583364837
 31
0.0
  0
LINE
  5
228F
330
2
100
AcDbEntity
  8
0
100
AcDbLine
 10
705.6244282573
 20
321.6583454837
 30
0.0
 11
705.6244212573
 21
361.7583364837
 31
0.0
  0
LINE
  5
2290
330
2
100
AcDbEntity
  8
0
100
AcDbLine
 10
707.0244222573
 20
321.2583364837
 30
0.0
 11
705.0244222573
 21
319.2583364837
 31
0.0
  0
LINE
  5
2291
330
2
100
AcDbEntity
  8
0
100
AcDbLine
 10
705.6244282573
 20
321.6583454837
 30
0.0
 11
704.6244212573
 21
320.6583454837
 31
0.0
  0
LINE
  5
2292
330
2
100
AcDbEntity
  8
0
100
AcDbLine
 10
709.0244222573
 20
349.7583364837
 30
0.0
 11
712.5244222573
 21
346.2583364837
 31
0.0
  0
LINE
  5
2293
330
2
100
AcDbEntity
  8
0
100
AcDbLine
 10
712.5244222573
 20
342.2583364837
 30
0.0
 11
709.0244222573
 21
338.7583364837
 31
0.0
  0
LINE
  5
2294
330
2
100
AcDbEntity
  8
0
100
AcDbLine
 10
709.0244222573
 20
350.7583364837
 30
0.0
 11
709.0244222573
 21
337.7583364837
 31
0.0
  0
ARC
  5
2295
330
2
100
AcDbEntity
  8
0
100
AcDbCircle
 10
708.0244072573
 20
337.7583364837
 30
0.0
 40
1.0
100
AcDbArc
 50
270.0
 51
0.0
  0
LINE
  5
2296
330
2
100
AcDbEntity
  8
0
100
AcDbLine
 10
708.0244222573
 20
336.7583364837
 30
0.0
 11
707.0244222573
 21
336.7583364837
 31
0.0
  0
ARC
  5
2297
330
2
100
AcDbEntity
  8
0
100
AcDbCircle
 10
708.0244222573
 20
350.7583364837
 30
0.0
 40
1.0
100
AcDbArc
 50
0.0
 51
90.0
  0
LINE
  5
2298
330
2
100
AcDbEntity
  8
0
100
AcDbLine
 10
708.0244222573
 20
351.7583364837
 30
0.0
 11
707.0244222573
 21
351.7583364837
 31
0.0
  0
LINE
  5
2299
330
2
100
AcDbEntity
  8
0
100
AcDbLine
 10
712.5244222573
 20
342.2583364837
 30
0.0
 11
712.5244222573
 21
346.2583364837
 31
0.0
  0
ARC
  5
229A
330
2
100
AcDbEntity
  8
0
100
AcDbCircle
 10
701.4946922573
 20
363.7286364837
 30
0.0
 40
1.742199999999999
100
AcDbArc
 50
359.9986903345
 51
90.0013096655
  0
ARC
  5
229B
330
2
100
AcDbEntity
  8
0
100
AcDbCircle
 10
701.4946922573
 20
367.7880364837
 30
0.0
 40
1.742199999999999
100
AcDbArc
 50
269.9986903345
 51
0.0013096655
  0
CIRCLE
  5
229C
330
2
100
AcDbEntity
  8
0
100
AcDbCircle
 10
703.5243922573
 20
365.7583364837
 30
0.0
 40
3.500000000000028
  0
ARC
  5
229D
330
2
100
AcDbEntity
  8
0
100
AcDbCircle
 10
703.5243922573
 20
365.7583364837
 30
0.0
 40
4.0
100
AcDbArc
 50
180.0
 51
270.0
  0
ARC
  5
229E
330
2
100
AcDbEntity
  8
0
100
AcDbCircle
 10
703.5243922573
 20
365.7583364837
 30
0.0
 40
2.049999999999998
100
AcDbArc
 50
171.938039916
 51
180.0
  0
ARC
  5
229F
330
2
100
AcDbEntity
  8
0
100
AcDbCircle
 10
703.5243922573
 20
365.7583364837
 30
0.0
 40
2.049999999999998
100
AcDbArc
 50
180.0
 51
188.061960084
  0
LINE
  5
22A0
330
2
100
AcDbEntity
  8
0
100
AcDbLine
 10
699.5244222573
 20
365.7583364837
 30
0.0
 11
699.5244222573
 21
369.2581374837
 31
0.0
  0
ARC
  5
22A1
330
2
100
AcDbEntity
  8
0
100
AcDbCircle
 10
705.5540922573
 20
363.7286364837
 30
0.0
 40
1.742199999999999
100
AcDbArc
 50
89.9986903345
 51
180.0013096655
  0
LINE
  5
22A2
330
2
100
AcDbEntity
  8
0
100
AcDbLine
 10
703.5243922573
 20
361.7583364837
 30
0.0
 11
707.0243922573
 21
361.7583364837
 31
0.0
  0
ARC
  5
22A3
330
2
100
AcDbEntity
  8
0
100
AcDbCircle
 10
703.5243922573
 20
365.7583364837
 30
0.0
 40
2.049999999999998
100
AcDbArc
 50
261.938039916
 51
270.0
  0
ARC
  5
22A4
330
2
100
AcDbEntity
  8
0
100
AcDbCircle
 10
703.5243922573
 20
365.7583364837
 30
0.0
 40
2.049999999999998
100
AcDbArc
 50
270.0
 51
278.061960084
  0
LINE
  5
22A5
330
2
100
AcDbEntity
  8
0
100
AcDbLine
 10
707.0244222573
 20
367.2583364837
 30
0.0
 11
705.0244222573
 21
369.2583364837
 31
0.0
  0
LINE
  5
22A6
330
2
100
AcDbEntity
  8
0
100
AcDbLine
 10
707.0244222573
 20
367.2583364837
 30
0.0
 11
705.0244222573
 21
369.2583364837
 31
0.0
  0
ARC
  5
22A7
330
2
100
AcDbEntity
  8
0
100
AcDbCircle
 10
705.5540922573
 20
367.7880364837
 30
0.0
 40
1.742199999999999
100
AcDbArc
 50
179.9986903345
 51
270.0013096655
  0
ARC
  5
22A8
330
2
100
AcDbEntity
  8
0
100
AcDbCircle
 10
703.5243922573
 20
365.7583364837
 30
0.0
 40
2.049999999999998
100
AcDbArc
 50
0.0
 51
8.061960084
  0
ARC
  5
22A9
330
2
100
AcDbEntity
  8
0
100
AcDbCircle
 10
703.5243922573
 20
365.7583364837
 30
0.0
 40
2.049999999999998
100
AcDbArc
 50
351.938039916
 51
0.0
  0
ARC
  5
22AA
330
2
100
AcDbEntity
  8
0
100
AcDbCircle
 10
703.5243922573
 20
365.7583364837
 30
0.0
 40
2.049999999999998
100
AcDbArc
 50
90.0
 51
98.061960084
  0
ARC
  5
22AB
330
2
100
AcDbEntity
  8
0
100
AcDbCircle
 10
703.5243922573
 20
365.7583364837
 30
0.0
 40
2.049999999999998
100
AcDbArc
 50
81.938039916
 51
90.0
  0
LINE
  5
232C
330
2
100
AcDbEntity
  8
0
100
AcDbLine
 10
707.5244222573
 20
336.7583364837
 30
0.0
 11
707.5244222573
 21
304.2583364837
 31
0.0
  0
TEXT
  5
23DD
330
2
100
AcDbEntity
  8
TITLE_C
100
AcDbText
 10
148.6661212069
 20
-2.429650845
 30
0.0
 40
5.0
  1
F2F15L010～240-CSBL15NT
100
AcDbText
  0
TEXT
  5
23DF
330
2
100
AcDbEntity
  8
TITLE_C
100
AcDbText
 10
32.9469711083
 20
-46.3550318193
 30
0.0
 40
5.0
  1
F2F15L010～240-CTBL25WT
100
AcDbText
  0
TEXT
  5
23E1
330
2
100
AcDbEntity
  8
TITLE_C
100
AcDbText
 10
33.0920776745
 20
-10.3626850529
 30
0.0
 40
5.0
  1
F2F15L010～240-CTBL15NTX
100
AcDbText
  0
TEXT
  5
23E2
330
2
100
AcDbEntity
  8
TITLE_C
100
AcDbText
 10
33.0920776745
 20
-19.3626850529
 30
0.0
 40
5.0
  1
F2F15L010～240-CTBL15WT
100
AcDbText
  0
TEXT
  5
23E3
330
2
100
AcDbEntity
  8
TITLE_C
100
AcDbText
 10
32.9469711083
 20
-37.3550318193
 30
0.0
 40
5.0
  1
F2F15L010～240-CTBL25NTX
100
AcDbText
  0
TEXT
  5
32BF
330
2
100
AcDbEntity
  8
TITLE_C
100
AcDbText
 10
33.2231097799
 20
-3.2903280225
 30
0.0
 40
5.0
  1
F2F15L010～240-CTBL15NT
100
AcDbText
  0
TEXT
  5
32C0
330
2
100
AcDbEntity
  8
TITLE_C
100
AcDbText
 10
33.3822926514
 20
-28.3626861415
 30
0.0
 40
5.0
  1
F2F15L010～240-CTBL25NT
100
AcDbText
  0
TEXT
  5
35DE
330
2
100
AcDbEntity
  8
TITLE_C
100
AcDbText
 10
148.3017243441
 20
-45.5349875058
 30
0.0
 40
5.0
  1
F2F15L010～240-CSBL25WT
100
AcDbText
  0
TEXT
  5
35DF
330
2
100
AcDbEntity
  8
TITLE_C
100
AcDbText
 10
148.4468309103
 20
-9.5426407394
 30
0.0
 40
5.0
  1
F2F15L010～240-CSBL15WTX
100
AcDbText
  0
TEXT
  5
35E0
330
2
100
AcDbEntity
  8
TITLE_C
100
AcDbText
 10
148.4468309103
 20
-18.5426407394
 30
0.0
 40
5.0
  1
F2F15L010～240-CSBL15WT
100
AcDbText
  0
TEXT
  5
35E1
330
2
100
AcDbEntity
  8
TITLE_C
100
AcDbText
 10
148.3017243441
 20
-36.5349875058
 30
0.0
 40
5.0
  1
F2F15L010～240-CSBL25WTX
100
AcDbText
  0
TEXT
  5
35E2
330
2
100
AcDbEntity
  8
TITLE_C
100
AcDbText
 10
148.7370458872
 20
-27.5426418281
 30
0.0
 40
5.0
  1
F2F15L010～240-CSBL25NT
100
AcDbText
  0
LINE
  5
3943
330
2
100
AcDbEntity
  8
0
100
AcDbLine
 10
342.8265968717
 20
110.2921295769
 30
0.0
 11
411.3265968717
 21
110.2921295769
 31
0.0
  0
LINE
  5
3944
330
2
100
AcDbEntity
  8
0
100
AcDbLine
 10
342.8265968717
 20
103.8921295769
 30
0.0
 11
411.3265968717
 21
103.8921295769
 31
0.0
  0
LINE
  5
3945
330
2
100
AcDbEntity
  8
HIDS
100
AcDbLine
 10
342.8265968717
 20
177.2921295769
 30
0.0
 11
411.3265968717
 21
177.2921295769
 31
0.0
  0
LINE
  5
3946
330
2
100
AcDbEntity
  8
HIDS
100
AcDbLine
 10
342.8265968717
 20
170.8921295769
 30
0.0
 11
411.3265968717
 21
170.8921295769
 31
0.0
  0
LINE
  5
3969
330
2
100
AcDbEntity
  8
HIDS
100
AcDbLine
 10
535.1689412573
 20
372.2583364837
 30
0.0
 11
535.1689412573
 21
303.7583364837
 31
0.0
  0
LINE
  5
396A
330
2
100
AcDbEntity
  8
HIDS
100
AcDbLine
 10
528.7689412573
 20
372.2583364837
 30
0.0
 11
528.7689412573
 21
303.7583364837
 31
0.0
  0
LINE
  5
396B
330
2
100
AcDbEntity
  8
HIDS
100
AcDbLine
 10
621.1689412573
 20
372.2583364837
 30
0.0
 11
621.1689412573
 21
303.7583364837
 31
0.0
  0
LINE
  5
396C
330
2
100
AcDbEntity
  8
HIDS
100
AcDbLine
 10
614.7689412573
 20
372.2583364837
 30
0.0
 11
614.7689412573
 21
303.7583364837
 31
0.0
  0
ENDSEC
  0
SECTION
  2
OBJECTS
  0
DICTIONARY
  5
7
330
0
100
AcDbDictionary
281
     1
  3
ACAD_CIP_PREVIOUS_PRODUCT_INFO
350
35CD
  3
ACAD_COLOR
350
2396
  3
ACAD_DETAILVIEWSTYLE
350
35C9
  3
ACAD_GROUP
350
75
  3
ACAD_LAYOUT
350
61
  3
ACAD_MATERIAL
350
2369
  3
ACAD_MLEADERSTYLE
350
23BB
  3
ACAD_MLINESTYLE
350
76
  3
ACAD_PLOTSETTINGS
350
77
  3
ACAD_PLOTSTYLENAME
350
6
  3
ACAD_SCALELIST
350
2399
  3
ACAD_SECTIONVIEWSTYLE
350
35C7
  3
ACAD_TABLESTYLE
350
2397
  3
ACAD_VISUALSTYLE
350
2382
  3
AcadDim
350
480
  3
ACDB_RECOMPOSE_DATA
350
3BF6
  3
AcDbVariableDictionary
350
102
  3
DWGPROPS
350
3BF7
  0
DICTIONARY
  5
2600
330
6E
100
AcDbDictionary
280
     1
281
     1
  0
DICTIONARY
  5
23C2
330
66
100
AcDbDictionary
280
     1
281
     1
  3
ACAD_LAYERSTATES
360
23C3
  0
DICTIONARY
  5
25E9
330
5E
100
AcDbDictionary
280
     1
281
     1
  3
ADSK_XREC_LAYER_RECONCILED
360
25EA
  0
DICTIONARY
  5
25EB
330
3E
100
AcDbDictionary
280
     1
281
     1
  3
ADSK_XREC_LAYER_RECONCILED
360
25EC
  0
DICTIONARY
  5
25F1
330
2B5
100
AcDbDictionary
280
     1
281
     1
  3
ADSK_XREC_LAYER_RECONCILED
360
25F2
  0
DICTIONARY
  5
25F3
330
2BA
100
AcDbDictionary
280
     1
281
     1
  3
ADSK_XREC_LAYER_RECONCILED
360
25F4
  0
DICTIONARY
  5
25F7
330
3FA
100
AcDbDictionary
280
     1
281
     1
  3
ADSK_XREC_LAYER_RECONCILED
360
25F8
  0
DICTIONARY
  5
23C0
330
23BF
100
AcDbDictionary
280
     1
281
     1
  3
ADSK_XREC_LAYER_RECONCILED
360
25F9
  0
XRECORD
  5
35CD
102
{ACAD_REACTORS
330
7
102
}
330
7
100
AcDbXrecord
280
     1
300
ACD
300
2020
300
87224ACD_2020_0F
  0
DICTIONARY
  5
2396
102
{ACAD_REACTORS
330
7
102
}
330
7
100
AcDbDictionary
281
     1
  0
DICTIONARY
  5
35C9
102
{ACAD_REACTORS
330
7
102
}
330
7
100
AcDbDictionary
281
     1
  3
Imperial24
350
35CA
  0
DICTIONARY
  5
75
102
{ACAD_REACTORS
330
7
102
}
330
7
100
AcDbDictionary
281
     1
  0
DICTIONARY
  5
61
102
{ACAD_REACTORS
330
7
102
}
330
7
100
AcDbDictionary
281
     1
  3
Model
350
60
  3
レイアウト1
350
3BF0
  0
DICTIONARY
  5
2369
102
{ACAD_REACTORS
330
7
102
}
330
7
100
AcDbDictionary
281
     1
  3
ByBlock
350
2372
  3
ByLayer
350
236A
  3
Global
350
237A
  0
DICTIONARY
  5
23BB
102
{ACAD_REACTORS
330
7
102
}
330
7
100
AcDbDictionary
281
     1
  3
Standard
350
23BC
  0
DICTIONARY
  5
76
102
{ACAD_REACTORS
330
7
102
}
330
7
100
AcDbDictionary
281
     1
  3
STANDARD
350
78
  0
DICTIONARY
  5
77
102
{ACAD_REACTORS
330
7
102
}
330
7
100
AcDbDictionary
281
     1
  0
ACDBDICTIONARYWDFLT
  5
6
102
{ACAD_REACTORS
330
7
102
}
330
7
100
AcDbDictionary
281
     1
  3
Normal
350
5
100
AcDbDictionaryWithDefault
340
5
  0
DICTIONARY
  5
2399
102
{ACAD_REACTORS
330
7
102
}
330
7
100
AcDbDictionary
281
     1
  3
A0
350
239A
  3
A1
350
239B
  3
A2
350
239C
  3
A3
350
239D
  3
A4
350
239E
  3
A5
350
239F
  3
A6
350
23A0
  3
A7
350
23A1
  3
A8
350
23A2
  3
A9
350
23A3
  3
B0
350
23A4
  3
B1
350
23A5
  3
B2
350
23A6
  3
B3
350
23A7
  3
B4
350
23A8
  3
B5
350
23A9
  3
B6
350
23AA
  3
B7
350
23AB
  3
B8
350
23AC
  3
B9
350
23AD
  3
C0
350
23AE
  3
C1
350
23AF
  3
C2
350
23B0
  3
C3
350
23B1
  3
C4
350
23B2
  3
C5
350
23B3
  3
C6
350
23B4
  3
C7
350
23B5
  3
C8
350
23B6
  3
C9
350
23B7
  3
D0
350
23B8
  3
D1
350
23B9
  3
D2
350
23BA
  0
DICTIONARY
  5
35C7
102
{ACAD_REACTORS
330
7
102
}
330
7
100
AcDbDictionary
281
     1
  3
Imperial24
350
35C8
  0
DICTIONARY
  5
2397
102
{ACAD_REACTORS
330
7
102
}
330
7
100
AcDbDictionary
281
     1
  3
Standard
350
2398
  0
DICTIONARY
  5
2382
102
{ACAD_REACTORS
330
7
102
}
330
7
100
AcDbDictionary
281
     1
  3
2dWireframe
350
2388
  3
3D Hidden
350
238A
  3
3dWireframe
350
2389
  3
Basic
350
2387
  3
Brighten
350
238E
  3
ColorChange
350
2392
  3
Conceptual
350
238B
  3
Dim
350
238D
  3
EdgeColorOff
350
2395
  3
Facepattern
350
2391
  3
Flat
350
2383
  3
FlatWithEdges
350
2384
  3
Gouraud
350
2385
  3
GouraudWithEdges
350
2386
  3
Hidden
350
35C1
  3
JitterOff
350
2393
  3
Linepattern
350
2390
  3
OverhangOff
350
2394
  3
Realistic
350
238C
  3
Shaded
350
35C6
  3
Shaded with edges
350
35C5
  3
Shades of Gray
350
35C2
  3
Sketchy
350
35C3
  3
Thicken
350
238F
  3
Wireframe
350
35C0
  3
X-Ray
350
35C4
  0
XRECORD
  5
480
102
{ACAD_REACTORS
330
7
102
}
330
7
100
AcDbXrecord
280
     1
 90
   990106
  3

 60
     0
 61
     0
 62
     1
 63
     3
 64
     1
 65
     0
 66
     0
 67
     3
 68
     1
 69
     0
 70
     0
 71
     0
 72
     0
 40
0.0
170
     2
340
0
  0
XRECORD
  5
3BF6
102
{ACAD_REACTORS
330
7
102
}
330
7
100
AcDbXrecord
280
     1
 90
        1
330
2398
  0
DICTIONARY
  5
102
102
{ACAD_REACTORS
330
7
102
}
330
7
100
AcDbDictionary
281
     1
  3
CANNOSCALE
350
2690
  3
CMLEADERSTYLE
350
268F
  3
CTABLESTYLE
350
268E
  3
CVIEWDETAILSTYLE
350
35CF
  3
CVIEWSECTIONSTYLE
350
35D0
  3
DIMASSOC
350
103
  3
INDEXCTL
350
2692
  3
LAYEREVAL
350
35D3
  3
LAYERNOTIFY
350
35D4
  3
LIGHTINGUNITS
350
35D2
  3
MSLTSCALE
350
35D1
  3
SORTENTS
350
2691
  3
XCLIPFRAME
350
3BF4
  0
XRECORD
  5
3BF7
102
{ACAD_REACTORS
330
7
102
}
330
7
100
AcDbXrecord
280
     1
  1
DWGPROPS COOKIE
  2

  3

  4

  6

  7

  8
ykitaga
  9

300
=
301
=
302
=
303
=
304
=
305
=
306
=
307
=
308
=
309
=
 40
0.5698991667
 41
2453557.740706019
 42
2460164.362337963
  1

 90
        0
  0
DICTIONARY
  5
23C3
102
{ACAD_REACTORS
330
23C2
102
}
330
23C2
100
AcDbDictionary
281
     1
  0
XRECORD
  5
25EA
102
{ACAD_REACTORS
330
25E9
102
}
330
25E9
100
AcDbXrecord
280
     1
290
     1
  0
XRECORD
  5
25EC
102
{ACAD_REACTORS
330
25EB
102
}
330
25EB
100
AcDbXrecord
280
     1
290
     1
  0
XRECORD
  5
25F2
102
{ACAD_REACTORS
330
25F1
102
}
330
25F1
100
AcDbXrecord
280
     1
290
     1
  0
XRECORD
  5
25F4
102
{ACAD_REACTORS
330
25F3
102
}
330
25F3
100
AcDbXrecord
280
     1
290
     1
  0
XRECORD
  5
25F8
102
{ACAD_REACTORS
330
25F7
102
}
330
25F7
100
AcDbXrecord
280
     1
290
     1
  0
XRECORD
  5
25F9
102
{ACAD_REACTORS
330
23C0
102
}
330
23C0
100
AcDbXrecord
280
     1
290
     1
  0
ACDBDETAILVIEWSTYLE
  5
35CA
102
{ACAD_XDICTIONARY
360
3C54
102
}
102
{ACAD_REACTORS
330
35C9
102
}
330
35C9
100
AcDbModelDocViewStyle
 70
     0
  3
Imperial24
290
     0
100
AcDbDetailViewStyle
 70
     0
 71
     0
 90
        3
 71
     1
340
16
 40
0.24
340
0
 40
0.24
300

 40
0.36
280
     3
 71
     2
340
8
 90
       25
 71
     3
340
16
 40
0.24
 90
        1
 40
0.75
 90
        1
300
%<\AcVar ViewType \f "%tc1">% %<\AcVar ViewDetailId>%\PSCALE %<\AcVar ViewScale \f "%sn">%
 71
     4
340
8
 90
       25
340
8
 90
       25
280
     0
  0
LAYOUT
  5
60
102
{ACAD_XDICTIONARY
360
3BF8
102
}
102
{ACAD_REACTORS
330
61
102
}
330
61
100
AcDbPlotSettings
  1

  2
Canon LBP-1420
  4
A4
  6

 40
5.873749733
 41
5.8737478256
 42
5.8737487793
 43
5.8737487793
 44
209.9733276367
 45
296.925994873
 46
0.0
 47
5.37
 48
0.0
 49
0.0
140
0.0
141
0.0
142
1.0
143
0.088099941
 70
 11956
 72
     1
 73
     1
 74
     1
  7
Sekkei.ctb
 75
     0
147
11.3507453947
148
-88.9740150773
149
-101.3630682339
100
AcDbLayout
  1
Model
 70
     1
 71
     0
 10
0.0
 20
0.0
 11
12.0
 21
9.0
 12
0.0
 22
0.0
 32
0.0
 14
0.0
 24
0.0
 34
0.0
 15
0.0
 25
0.0
 35
0.0
146
0.0
 13
0.0
 23
0.0
 33
0.0
 16
1.0
 26
0.0
 36
0.0
 17
0.0
 27
1.0
 37
0.0
 76
     0
330
2
331
2367
  0
LAYOUT
  5
3BF0
102
{ACAD_XDICTIONARY
360
3C66
102
}
102
{ACAD_REACTORS
330
61
102
}
330
61
100
AcDbPlotSettings
  1

  2
LBP8610
  4

  6

 40
0.0
 41
0.0
 42
0.0
 43
0.0
 44
0.0
 45
0.0
 46
0.0
 47
0.0
 48
0.0
 49
0.0
140
0.0
141
0.0
142
1.0
143
1.0
 70
   688
 72
     0
 73
     0
 74
     5
  7

 75
    16
147
1.0
148
0.0
149
0.0
100
AcDbLayout
  1
レイアウト1
 70
     1
 71
     1
 10
0.0
 20
0.0
 11
12.0
 21
9.0
 12
0.0
 22
0.0
 32
0.0
 14
0.0
 24
0.0
 34
0.0
 15
0.0
 25
0.0
 35
0.0
146
0.0
 13
0.0
 23
0.0
 33
0.0
 16
1.0
 26
0.0
 36
0.0
 17
0.0
 27
1.0
 37
0.0
 76
     0
330
3BEF
  0
MATERIAL
  5
2372
102
{ACAD_XDICTIONARY
360
2373
102
}
102
{ACAD_REACTORS
330
2369
102
}
330
2369
100
AcDbMaterial
  1
ByBlock
 72
     0
 43
0.0208333333
 43
0.0
 43
0.0
 43
0.0
 43
0.0
 43
0.0208333333
 43
0.0
 43
0.0
 43
0.0
 43
0.0
 43
1.0
 43
0.0
 43
0.0
 43
0.0
 43
0.0
 43
1.0
 77
     0
 47
0.0208333333
 47
0.0
 47
0.0
 47
0.0
 47
0.0
 47
0.0208333333
 47
0.0
 47
0.0
 47
0.0
 47
0.0
 47
1.0
 47
0.0
 47
0.0
 47
0.0
 47
0.0
 47
1.0
171
     0
 49
0.0208333333
 49
0.0
 49
0.0
 49
0.0
 49
0.0
 49
0.0208333333
 49
0.0
 49
0.0
 49
0.0
 49
0.0
 49
1.0
 49
0.0
 49
0.0
 49
0.0
 49
0.0
 49
1.0
175
     0
142
0.0208333333
142
0.0
142
0.0
142
0.0
142
0.0
142
0.0208333333
142
0.0
142
0.0
142
0.0
142
0.0
142
1.0
142
0.0
142
0.0
142
0.0
142
0.0
142
1.0
179
     0
144
0.0208333333
144
0.0
144
0.0
144
0.0
144
0.0
144
0.0208333333
144
0.0
144
0.0
144
0.0
144
0.0
144
1.0
144
0.0
144
0.0
144
0.0
144
0.0
144
1.0
147
0.0208333333
147
0.0
147
0.0
147
0.0
147
0.0
147
0.0208333333
147
0.0
147
0.0
147
0.0
147
0.0
147
1.0
147
0.0
147
0.0
147
0.0
147
0.0
147
1.0
  0
MATERIAL
  5
236A
102
{ACAD_XDICTIONARY
360
236B
102
}
102
{ACAD_REACTORS
330
2369
102
}
330
2369
100
AcDbMaterial
  1
ByLayer
 72
     0
 43
0.0208333333
 43
0.0
 43
0.0
 43
0.0
 43
0.0
 43
0.0208333333
 43
0.0
 43
0.0
 43
0.0
 43
0.0
 43
1.0
 43
0.0
 43
0.0
 43
0.0
 43
0.0
 43
1.0
 77
     0
 47
0.0208333333
 47
0.0
 47
0.0
 47
0.0
 47
0.0
 47
0.0208333333
 47
0.0
 47
0.0
 47
0.0
 47
0.0
 47
1.0
 47
0.0
 47
0.0
 47
0.0
 47
0.0
 47
1.0
171
     0
 49
0.0208333333
 49
0.0
 49
0.0
 49
0.0
 49
0.0
 49
0.0208333333
 49
0.0
 49
0.0
 49
0.0
 49
0.0
 49
1.0
 49
0.0
 49
0.0
 49
0.0
 49
0.0
 49
1.0
175
     0
142
0.0208333333
142
0.0
142
0.0
142
0.0
142
0.0
142
0.0208333333
142
0.0
142
0.0
142
0.0
142
0.0
142
1.0
142
0.0
142
0.0
142
0.0
142
0.0
142
1.0
179
     0
144
0.0208333333
144
0.0
144
0.0
144
0.0
144
0.0
144
0.0208333333
144
0.0
144
0.0
144
0.0
144
0.0
144
1.0
144
0.0
144
0.0
144
0.0
144
0.0
144
1.0
147
0.0208333333
147
0.0
147
0.0
147
0.0
147
0.0
147
0.0208333333
147
0.0
147
0.0
147
0.0
147
0.0
147
1.0
147
0.0
147
0.0
147
0.0
147
0.0
147
1.0
  0
MATERIAL
  5
237A
102
{ACAD_XDICTIONARY
360
237B
102
}
102
{ACAD_REACTORS
330
2369
102
}
330
2369
100
AcDbMaterial
  1
Global
 72
     0
 43
0.0208333333
 43
0.0
 43
0.0
 43
0.0
 43
0.0
 43
0.0208333333
 43
0.0
 43
0.0
 43
0.0
 43
0.0
 43
1.0
 43
0.0
 43
0.0
 43
0.0
 43
0.0
 43
1.0
 77
     0
 47
0.0208333333
 47
0.0
 47
0.0
 47
0.0
 47
0.0
 47
0.0208333333
 47
0.0
 47
0.0
 47
0.0
 47
0.0
 47
1.0
 47
0.0
 47
0.0
 47
0.0
 47
0.0
 47
1.0
171
     0
 49
0.0208333333
 49
0.0
 49
0.0
 49
0.0
 49
0.0
 49
0.0208333333
 49
0.0
 49
0.0
 49
0.0
 49
0.0
 49
1.0
 49
0.0
 49
0.0
 49
0.0
 49
0.0
 49
1.0
175
     0
142
0.0208333333
142
0.0
142
0.0
142
0.0
142
0.0
142
0.0208333333
142
0.0
142
0.0
142
0.0
142
0.0
142
1.0
142
0.0
142
0.0
142
0.0
142
0.0
142
1.0
179
     0
144
0.0208333333
144
0.0
144
0.0
144
0.0
144
0.0
144
0.0208333333
144
0.0
144
0.0
144
0.0
144
0.0
144
1.0
144
0.0
144
0.0
144
0.0
144
0.0
144
1.0
147
0.0208333333
147
0.0
147
0.0
147
0.0
147
0.0
147
0.0208333333
147
0.0
147
0.0
147
0.0
147
0.0
147
1.0
147
0.0
147
0.0
147
0.0
147
0.0
147
1.0
  0
MLEADERSTYLE
  5
23BC
102
{ACAD_REACTORS
330
23BB
102
}
330
23BB
100
AcDbMLeaderStyle
170
     2
171
     1
172
     0
 90
        2
 40
0.0
 41
0.0
173
     1
 91
-1056964608
340
6A
 92
       -2
290
     1
 42
0.09
291
     1
 43
0.36
  3
Standard
 44
0.18
300

342
16
174
     1
178
     6
175
     1
176
     0
 93
-1056964608
 45
0.18
292
     0
297
     0
 46
0.18
 94
-1056964608
 47
1.0
 49
1.0
140
1.0
293
     1
141
0.0
294
     1
177
     0
142
1.0
295
     0
296
     0
143
0.125
1001
ACAD_MLEADERVER
1070
     2
  0
MLINESTYLE
  5
78
102
{ACAD_REACTORS
330
76
102
}
330
76
100
AcDbMlineStyle
  2
STANDARD
 70
     0
  3

 62
     0
 51
90.0
 52
90.0
 71
     2
 49
0.5
 62
   256
  6
BYLAYER
 49
-0.5
 62
   256
  6
BYLAYER
  0
ACDBPLACEHOLDER
  5
5
102
{ACAD_REACTORS
330
6
102
}
330
6
  0
SCALE
  5
239A
102
{ACAD_REACTORS
330
2399
102
}
330
2399
100
AcDbScale
 70
     0
300
1:1
140
1.0
141
1.0
290
     1
  0
SCALE
  5
239B
102
{ACAD_REACTORS
330
2399
102
}
330
2399
100
AcDbScale
 70
     0
300
1:2
140
1.0
141
2.0
290
     0
  0
SCALE
  5
239C
102
{ACAD_REACTORS
330
2399
102
}
330
2399
100
AcDbScale
 70
     0
300
1:4
140
1.0
141
4.0
290
     0
  0
SCALE
  5
239D
102
{ACAD_REACTORS
330
2399
102
}
330
2399
100
AcDbScale
 70
     0
300
1:5
140
1.0
141
5.0
290
     0
  0
SCALE
  5
239E
102
{ACAD_REACTORS
330
2399
102
}
330
2399
100
AcDbScale
 70
     0
300
1:8
140
1.0
141
8.0
290
     0
  0
SCALE
  5
239F
102
{ACAD_REACTORS
330
2399
102
}
330
2399
100
AcDbScale
 70
     0
300
1:10
140
1.0
141
10.0
290
     0
  0
SCALE
  5
23A0
102
{ACAD_REACTORS
330
2399
102
}
330
2399
100
AcDbScale
 70
     0
300
1:16
140
1.0
141
16.0
290
     0
  0
SCALE
  5
23A1
102
{ACAD_REACTORS
330
2399
102
}
330
2399
100
AcDbScale
 70
     0
300
1:20
140
1.0
141
20.0
290
     0
  0
SCALE
  5
23A2
102
{ACAD_REACTORS
330
2399
102
}
330
2399
100
AcDbScale
 70
     0
300
1:30
140
1.0
141
30.0
290
     0
  0
SCALE
  5
23A3
102
{ACAD_REACTORS
330
2399
102
}
330
2399
100
AcDbScale
 70
     0
300
1:40
140
1.0
141
40.0
290
     0
  0
SCALE
  5
23A4
102
{ACAD_REACTORS
330
2399
102
}
330
2399
100
AcDbScale
 70
     0
300
1:50
140
1.0
141
50.0
290
     0
  0
SCALE
  5
23A5
102
{ACAD_REACTORS
330
2399
102
}
330
2399
100
AcDbScale
 70
     0
300
1:100
140
1.0
141
100.0
290
     0
  0
SCALE
  5
23A6
102
{ACAD_REACTORS
330
2399
102
}
330
2399
100
AcDbScale
 70
     0
300
2:1
140
2.0
141
1.0
290
     0
  0
SCALE
  5
23A7
102
{ACAD_REACTORS
330
2399
102
}
330
2399
100
AcDbScale
 70
     0
300
4:1
140
4.0
141
1.0
290
     0
  0
SCALE
  5
23A8
102
{ACAD_REACTORS
330
2399
102
}
330
2399
100
AcDbScale
 70
     0
300
8:1
140
8.0
141
1.0
290
     0
  0
SCALE
  5
23A9
102
{ACAD_REACTORS
330
2399
102
}
330
2399
100
AcDbScale
 70
     0
300
10:1
140
10.0
141
1.0
290
     0
  0
SCALE
  5
23AA
102
{ACAD_REACTORS
330
2399
102
}
330
2399
100
AcDbScale
 70
     0
300
100:1
140
100.0
141
1.0
290
     0
  0
SCALE
  5
23AB
102
{ACAD_REACTORS
330
2399
102
}
330
2399
100
AcDbScale
 70
     0
300
1/128" = 1'-0"
140
0.0078125
141
12.0
290
     0
  0
SCALE
  5
23AC
102
{ACAD_REACTORS
330
2399
102
}
330
2399
100
AcDbScale
 70
     0
300
1/64" = 1'-0"
140
0.015625
141
12.0
290
     0
  0
SCALE
  5
23AD
102
{ACAD_REACTORS
330
2399
102
}
330
2399
100
AcDbScale
 70
     0
300
1/32" = 1'-0"
140
0.03125
141
12.0
290
     0
  0
SCALE
  5
23AE
102
{ACAD_REACTORS
330
2399
102
}
330
2399
100
AcDbScale
 70
     0
300
1/16" = 1'-0"
140
0.0625
141
12.0
290
     0
  0
SCALE
  5
23AF
102
{ACAD_REACTORS
330
2399
102
}
330
2399
100
AcDbScale
 70
     0
300
3/32" = 1'-0"
140
0.09375
141
12.0
290
     0
  0
SCALE
  5
23B0
102
{ACAD_REACTORS
330
2399
102
}
330
2399
100
AcDbScale
 70
     0
300
1/8" = 1'-0"
140
0.125
141
12.0
290
     0
  0
SCALE
  5
23B1
102
{ACAD_REACTORS
330
2399
102
}
330
2399
100
AcDbScale
 70
     0
300
3/16" = 1'-0"
140
0.1875
141
12.0
290
     0
  0
SCALE
  5
23B2
102
{ACAD_REACTORS
330
2399
102
}
330
2399
100
AcDbScale
 70
     0
300
1/4" = 1'-0"
140
0.25
141
12.0
290
     0
  0
SCALE
  5
23B3
102
{ACAD_REACTORS
330
2399
102
}
330
2399
100
AcDbScale
 70
     0
300
3/8" = 1'-0"
140
0.375
141
12.0
290
     0
  0
SCALE
  5
23B4
102
{ACAD_REACTORS
330
2399
102
}
330
2399
100
AcDbScale
 70
     0
300
1/2" = 1'-0"
140
0.5
141
12.0
290
     0
  0
SCALE
  5
23B5
102
{ACAD_REACTORS
330
2399
102
}
330
2399
100
AcDbScale
 70
     0
300
3/4" = 1'-0"
140
0.75
141
12.0
290
     0
  0
SCALE
  5
23B6
102
{ACAD_REACTORS
330
2399
102
}
330
2399
100
AcDbScale
 70
     0
300
1" = 1'-0"
140
1.0
141
12.0
290
     0
  0
SCALE
  5
23B7
102
{ACAD_REACTORS
330
2399
102
}
330
2399
100
AcDbScale
 70
     0
300
1-1/2" = 1'-0"
140
1.5
141
12.0
290
     0
  0
SCALE
  5
23B8
102
{ACAD_REACTORS
330
2399
102
}
330
2399
100
AcDbScale
 70
     0
300
3" = 1'-0"
140
3.0
141
12.0
290
     0
  0
SCALE
  5
23B9
102
{ACAD_REACTORS
330
2399
102
}
330
2399
100
AcDbScale
 70
     0
300
6" = 1'-0"
140
6.0
141
12.0
290
     0
  0
SCALE
  5
23BA
102
{ACAD_REACTORS
330
2399
102
}
330
2399
100
AcDbScale
 70
     0
300
1'-0" = 1'-0"
140
12.0
141
12.0
290
     0
  0
ACDBSECTIONVIEWSTYLE
  5
35C8
102
{ACAD_XDICTIONARY
360
3C52
102
}
102
{ACAD_REACTORS
330
35C7
102
}
330
35C7
100
AcDbModelDocViewStyle
 70
     0
  3
Imperial24
290
     0
100
AcDbSectionViewStyle
 70
     0
 71
     0
 90
       78
 71
     1
340
16
 40
0.24
340
0
340
0
 40
0.24
300
I, O, Q, S, X, Z
 40
0.48
 90
        3
 40
0.18
 90
        1
 71
     2
340
8
 90
       25
340
8
 90
       50
 40
0.24
 40
0.0
 40
0.24
 71
     3
340
16
 40
0.24
 90
        1
 40
0.75
 90
        1
300
%<\AcVar ViewType \f "%tc1">% %<\AcVar ViewSectionStartId>%-%<\AcVar ViewSectionEndId>%\PSCALE %<\AcVar ViewScale \f "%sn">%
 71
     4
300
ANSI31
 40
1.0
 90
        0
290
     0
290
     0
 90
        6
 40
0.0
 40
1.5707963268
 40
0.2617993878
 40
1.308996939
 40
-0.2617993878
 40
1.8325957146
  0
TABLESTYLE
  5
2398
102
{ACAD_XDICTIONARY
360
25FA
102
}
102
{ACAD_REACTORS
330
2397
102
}
330
2397
100
AcDbTableStyle
  3
Standard
 70
     0
 71
     0
 40
0.06
 41
0.06
280
     0
281
     0
  7
STANDARD
140
0.18
170
     2
 62
     0
 63
     7
283
     0
274
    -2
284
     1
 64
     0
275
    -2
285
     1
 65
     0
276
    -2
286
     1
 66
     0
277
    -2
287
     1
 67
     0
278
    -2
288
     1
 68
     0
279
    -2
289
     1
 69
     0
  7
STANDARD
140
0.25
170
     5
 62
     0
 63
     7
283
     0
274
    -2
284
     1
 64
     0
275
    -2
285
     1
 65
     0
276
    -2
286
     1
 66
     0
277
    -2
287
     1
 67
     0
278
    -2
288
     1
 68
     0
279
    -2
289
     1
 69
     0
  7
STANDARD
140
0.18
170
     5
 62
     0
 63
     7
283
     0
274
    -2
284
     1
 64
     0
275
    -2
285
     1
 65
     0
276
    -2
286
     1
 66
     0
277
    -2
287
     1
 67
     0
278
    -2
288
     1
 68
     0
279
    -2
289
     1
 69
     0
  0
VISUALSTYLE
  5
2388
102
{ACAD_XDICTIONARY
360
3C07
102
}
102
{ACAD_REACTORS
330
2382
102
}
330
2382
100
AcDbVisualStyle
  2

 70
     4
 71
     0
 72
     2
 73
     0
 90
        0
 40
-0.6
 41
-30.0
 62
     5
 63
     7
 74
     1
 91
        4
 64
     7
 65
   257
 75
     1
175
     1
 42
1.0
 92
        0
 66
   257
 43
1.0
 76
     1
 77
     6
 78
     2
 67
     7
 79
     5
170
     0
171
     0
290
     0
174
     0
 93
        1
 44
0.0
173
     0
291
     0
 45
0.0
1001
ACAD
1000
AcDbSavedByObjectVersion
1070
     0
  0
VISUALSTYLE
  5
238A
102
{ACAD_XDICTIONARY
360
3C0B
102
}
102
{ACAD_REACTORS
330
2382
102
}
330
2382
100
AcDbVisualStyle
  2

 70
     6
 71
     1
 72
     2
 73
     2
 90
        0
 40
-0.6
 41
-30.0
 62
     5
 63
     7
 74
     2
 91
        2
 64
     7
 65
   257
 75
     2
175
     1
 42
179.0
 92
        0
 66
   257
 43
1.0
 76
     1
 77
     6
 78
     2
 67
     7
 79
     3
170
     0
171
     0
290
     0
174
     0
 93
        1
 44
0.0
173
     0
291
     0
 45
0.0
1001
ACAD
1000
AcDbSavedByObjectVersion
1070
     0
  0
VISUALSTYLE
  5
2389
102
{ACAD_XDICTIONARY
360
3C09
102
}
102
{ACAD_REACTORS
330
2382
102
}
330
2382
100
AcDbVisualStyle
  2

 70
     5
 71
     0
 72
     2
 73
     0
 90
        0
 40
-0.6
 41
-30.0
 62
     5
 63
     7
 74
     1
 91
        4
 64
     7
 65
   257
 75
     1
175
     1
 42
1.0
 92
        0
 66
   257
 43
1.0
 76
     1
 77
     6
 78
     2
 67
     7
 79
     5
170
     0
171
     0
290
     0
174
     0
 93
        1
 44
0.0
173
     0
291
     0
 45
0.0
1001
ACAD
1000
AcDbSavedByObjectVersion
1070
     0
  0
VISUALSTYLE
  5
2387
102
{ACAD_XDICTIONARY
360
3C05
102
}
102
{ACAD_REACTORS
330
2382
102
}
330
2382
100
AcDbVisualStyle
  2

 70
     7
 71
     1
 72
     0
 73
     1
 90
        0
 40
-0.6
 41
-30.0
 62
     5
 63
     7
 74
     0
 91
        4
 64
     7
 65
   257
 75
     1
175
     1
 42
1.0
 92
        8
 66
     7
 43
1.0
 76
     1
 77
     6
 78
     2
 67
     7
 79
     5
170
     0
171
     0
290
     0
174
     0
 93
        1
 44
0.0
173
     0
291
     1
 45
0.0
1001
ACAD
1000
AcDbSavedByObjectVersion
1070
     0
  0
VISUALSTYLE
  5
238E
102
{ACAD_XDICTIONARY
360
3C13
102
}
102
{ACAD_REACTORS
330
2382
102
}
330
2382
100
AcDbVisualStyle
  2

 70
    12
 71
     2
 72
     2
 73
     0
 90
        0
 40
-0.6
 41
-30.0
 62
     5
 63
     7
 74
     1
 91
        4
 64
     7
 65
   257
 75
     1
175
     1
 42
1.0
 92
        8
 66
     7
 43
1.0
 76
     1
 77
     6
 78
     2
 67
     7
 79
     5
170
     0
171
     0
290
     0
174
     0
 93
        1
 44
50.0
173
     0
291
     1
 45
0.0
1001
ACAD
1000
AcDbSavedByObjectVersion
1070
     0
  0
VISUALSTYLE
  5
2392
102
{ACAD_XDICTIONARY
360
3C1B
102
}
102
{ACAD_REACTORS
330
2382
102
}
330
2382
100
AcDbVisualStyle
  2

 70
    16
 71
     2
 72
     2
 73
     3
 90
        0
 40
-0.6
 41
-30.0
 62
     5
 63
     8
 74
     1
 91
        4
 64
     7
 65
   257
 75
     1
175
     1
 42
1.0
 92
        8
 66
     8
 43
1.0
 76
     1
 77
     6
 78
     2
 67
     7
 79
     5
170
     0
171
     0
290
     0
174
     0
 93
        1
 44
0.0
173
     0
291
     1
 45
0.0
1001
ACAD
1000
AcDbSavedByObjectVersion
1070
     0
  0
VISUALSTYLE
  5
238B
102
{ACAD_XDICTIONARY
360
3C0D
102
}
102
{ACAD_REACTORS
330
2382
102
}
330
2382
100
AcDbVisualStyle
  2

 70
     9
 71
     3
 72
     2
 73
     0
 90
        0
 40
-0.6
 41
-30.0
 62
     5
 63
     7
 74
     2
 91
        2
 64
     7
 65
   257
 75
     1
175
     1
 42
179.0
 92
        8
 66
     7
 43
1.0
 76
     1
 77
     6
 78
     2
 67
     7
 79
     3
170
     0
171
     0
290
     0
174
     0
 93
        1
 44
0.0
173
     0
291
     0
 45
0.0
1001
ACAD
1000
AcDbSavedByObjectVersion
1070
     0
  0
VISUALSTYLE
  5
238D
102
{ACAD_XDICTIONARY
360
3C11
102
}
102
{ACAD_REACTORS
330
2382
102
}
330
2382
100
AcDbVisualStyle
  2

 70
    11
 71
     2
 72
     2
 73
     0
 90
        0
 40
-0.6
 41
-30.0
 62
     5
 63
     7
 74
     1
 91
        4
 64
     7
 65
   257
 75
     1
175
     1
 42
1.0
 92
        8
 66
     7
 43
1.0
 76
     1
 77
     6
 78
     2
 67
     7
 79
     5
170
     0
171
     0
290
     0
174
     0
 93
        1
 44
-50.0
173
     0
291
     1
 45
0.0
1001
ACAD
1000
AcDbSavedByObjectVersion
1070
     0
  0
VISUALSTYLE
  5
2395
102
{ACAD_XDICTIONARY
360
3C21
102
}
102
{ACAD_REACTORS
330
2382
102
}
330
2382
100
AcDbVisualStyle
  2

 70
    22
 71
     2
 72
     2
 73
     0
 90
        0
 40
-0.6
 41
-30.0
 62
     5
 63
     7
 74
     1
 91
        4
 64
     7
 65
   257
 75
     1
175
     1
 42
1.0
 92
        8
 66
     7
 43
1.0
 76
     1
 77
     6
 78
     2
 67
     7
 79
     5
170
     0
171
     0
290
     0
174
     0
 93
        1
 44
0.0
173
     0
291
     1
 45
0.0
1001
ACAD
1000
AcDbSavedByObjectVersion
1070
     0
  0
VISUALSTYLE
  5
2391
102
{ACAD_XDICTIONARY
360
3C19
102
}
102
{ACAD_REACTORS
330
2382
102
}
330
2382
100
AcDbVisualStyle
  2

 70
    15
 71
     2
 72
     2
 73
     0
 90
        0
 40
-0.6
 41
-30.0
 62
     5
 63
     7
 74
     1
 91
        4
 64
     7
 65
   257
 75
     1
175
     1
 42
1.0
 92
        8
 66
     7
 43
1.0
 76
     1
 77
     6
 78
     2
 67
     7
 79
     5
170
     0
171
     0
290
     0
174
     0
 93
        1
 44
0.0
173
     0
291
     1
 45
0.0
1001
ACAD
1000
AcDbSavedByObjectVersion
1070
     0
  0
VISUALSTYLE
  5
2383
102
{ACAD_XDICTIONARY
360
3BFD
102
}
102
{ACAD_REACTORS
330
2382
102
}
330
2382
100
AcDbVisualStyle
  2

 70
     0
 71
     2
 72
     1
 73
     1
 90
        2
 40
-0.6
 41
30.0
 62
     5
 63
     7
 74
     0
 91
        4
 64
     7
 65
   257
 75
     1
175
     1
 42
1.0
 92
        8
 66
     7
 43
1.0
 76
     1
 77
     6
 78
     2
 67
     7
 79
     5
170
     0
171
     0
290
     0
174
     0
 93
       13
 44
0.0
173
     0
291
     1
 45
0.0
1001
ACAD
1000
AcDbSavedByObjectVersion
1070
     0
  0
VISUALSTYLE
  5
2384
102
{ACAD_XDICTIONARY
360
3BFF
102
}
102
{ACAD_REACTORS
330
2382
102
}
330
2382
100
AcDbVisualStyle
  2

 70
     1
 71
     2
 72
     1
 73
     1
 90
        2
 40
-0.6
 41
30.0
 62
     5
 63
     7
 74
     1
 91
        4
 64
     7
 65
   257
 75
     1
175
     1
 42
1.0
 92
        0
 66
   257
 43
1.0
 76
     1
 77
     6
 78
     2
 67
     7
 79
     5
170
     0
171
     0
290
     0
174
     0
 93
       13
 44
0.0
173
     0
291
     1
 45
0.0
1001
ACAD
1000
AcDbSavedByObjectVersion
1070
     0
  0
VISUALSTYLE
  5
2385
102
{ACAD_XDICTIONARY
360
3C01
102
}
102
{ACAD_REACTORS
330
2382
102
}
330
2382
100
AcDbVisualStyle
  2

 70
     2
 71
     2
 72
     2
 73
     1
 90
        2
 40
-0.6
 41
30.0
 62
     5
 63
     7
 74
     0
 91
        4
 64
     7
 65
   257
 75
     1
175
     1
 42
1.0
 92
        0
 66
     7
 43
1.0
 76
     1
 77
     6
 78
     2
 67
     7
 79
     5
170
     0
171
     0
290
     0
174
     0
 93
       13
 44
0.0
173
     0
291
     1
 45
0.0
1001
ACAD
1000
AcDbSavedByObjectVersion
1070
     0
  0
VISUALSTYLE
  5
2386
102
{ACAD_XDICTIONARY
360
3C03
102
}
102
{ACAD_REACTORS
330
2382
102
}
330
2382
100
AcDbVisualStyle
  2

 70
     3
 71
     2
 72
     2
 73
     1
 90
        2
 40
-0.6
 41
30.0
 62
     5
 63
     7
 74
     1
 91
        4
 64
     7
 65
   257
 75
     1
175
     1
 42
1.0
 92
        0
 66
   257
 43
1.0
 76
     1
 77
     6
 78
     2
 67
     7
 79
     5
170
     0
171
     0
290
     0
174
     0
 93
       13
 44
0.0
173
     0
291
     1
 45
0.0
1001
ACAD
1000
AcDbSavedByObjectVersion
1070
     0
  0
VISUALSTYLE
  5
35C1
102
{ACAD_XDICTIONARY
360
3C46
102
}
102
{ACAD_REACTORS
330
2382
102
}
330
2382
100
AcDbVisualStyle
  2

 70
     6
 71
     1
 72
     2
 73
     2
 90
        0
 40
-0.6
 41
-30.0
 62
     5
 63
     7
 74
     2
 91
        2
 64
     7
 65
   257
 75
     2
175
     1
 42
40.0
 92
        0
 66
   257
 43
1.0
 76
     1
 77
     6
 78
     2
 67
     7
 79
     3
170
     0
171
     0
290
     0
174
     0
 93
        1
 44
0.0
173
     0
291
     0
 45
0.0
1001
ACAD
1000
AcDbSavedByObjectVersion
1070
     0
  0
VISUALSTYLE
  5
2393
102
{ACAD_XDICTIONARY
360
3C1D
102
}
102
{ACAD_REACTORS
330
2382
102
}
330
2382
100
AcDbVisualStyle
  2

 70
    20
 71
     2
 72
     2
 73
     0
 90
        0
 40
-0.6
 41
-30.0
 62
     5
 63
     7
 74
     1
 91
        4
 64
     7
 65
   257
 75
     1
175
     1
 42
1.0
 92
       10
 66
     7
 43
1.0
 76
     1
 77
     6
 78
     2
 67
     7
 79
     5
170
     0
171
     0
290
     0
174
     0
 93
        1
 44
0.0
173
     0
291
     1
 45
0.0
1001
ACAD
1000
AcDbSavedByObjectVersion
1070
     0
  0
VISUALSTYLE
  5
2390
102
{ACAD_XDICTIONARY
360
3C17
102
}
102
{ACAD_REACTORS
330
2382
102
}
330
2382
100
AcDbVisualStyle
  2

 70
    14
 71
     2
 72
     2
 73
     0
 90
        0
 40
-0.6
 41
-30.0
 62
     5
 63
     7
 74
     1
 91
        4
 64
     7
 65
   257
 75
     7
175
     7
 42
1.0
 92
        8
 66
     7
 43
1.0
 76
     1
 77
     6
 78
     2
 67
     7
 79
     5
170
     0
171
     0
290
     0
174
     0
 93
        1
 44
0.0
173
     0
291
     1
 45
0.0
1001
ACAD
1000
AcDbSavedByObjectVersion
1070
     0
  0
VISUALSTYLE
  5
2394
102
{ACAD_XDICTIONARY
360
3C1F
102
}
102
{ACAD_REACTORS
330
2382
102
}
330
2382
100
AcDbVisualStyle
  2

 70
    21
 71
     2
 72
     2
 73
     0
 90
        0
 40
-0.6
 41
-30.0
 62
     5
 63
     7
 74
     1
 91
        4
 64
     7
 65
   257
 75
     1
175
     1
 42
1.0
 92
        9
 66
     7
 43
1.0
 76
     1
 77
     6
 78
     2
 67
     7
 79
     5
170
     0
171
     0
290
     0
174
     0
 93
        1
 44
0.0
173
     0
291
     1
 45
0.0
1001
ACAD
1000
AcDbSavedByObjectVersion
1070
     0
  0
VISUALSTYLE
  5
238C
102
{ACAD_XDICTIONARY
360
3C0F
102
}
102
{ACAD_REACTORS
330
2382
102
}
330
2382
100
AcDbVisualStyle
  2

 70
     8
 71
     2
 72
     2
 73
     0
 90
        0
 40
-0.6
 41
-30.0
 62
     5
 63
     7
 74
     1
 91
        0
 64
     7
 65
   257
 75
     1
175
     1
 42
1.0
 92
        8
 66
     8
 43
1.0
 76
     1
 77
     6
 78
     2
 67
     7
 79
     5
170
     0
171
     0
290
     0
174
     0
 93
       13
 44
0.0
173
     0
291
     0
 45
0.0
1001
ACAD
1000
AcDbSavedByObjectVersion
1070
     0
  0
VISUALSTYLE
  5
35C6
102
{ACAD_XDICTIONARY
360
3C50
102
}
102
{ACAD_REACTORS
330
2382
102
}
330
2382
100
AcDbVisualStyle
  2

 70
    27
 71
     2
 72
     2
 73
     1
 90
        2
 40
-0.6
 41
30.0
 62
     5
 63
     7
 74
     0
 91
        4
 64
     7
 65
   257
 75
     1
175
     1
 42
1.0
 92
        8
 66
   257
 43
1.0
 76
     1
 77
     6
 78
     2
 67
     8
 79
     3
170
     0
171
     0
290
     0
174
     0
 93
        5
 44
0.0
173
     0
291
     0
 45
0.0
1001
ACAD
1000
AcDbSavedByObjectVersion
1070
     0
  0
VISUALSTYLE
  5
35C5
102
{ACAD_XDICTIONARY
360
3C4E
102
}
102
{ACAD_REACTORS
330
2382
102
}
330
2382
100
AcDbVisualStyle
  2

 70
    26
 71
     2
 72
     2
 73
     1
 90
        2
 40
-0.6
 41
30.0
 62
     5
 63
     7
 74
     1
 91
        2
 64
     7
 65
   257
 75
     2
175
     1
 42
1.0
 92
        8
 66
   257
 43
1.0
 76
     1
 77
     6
 78
     2
 67
     7
 79
     3
170
     0
171
     0
290
     0
174
     0
 93
        5
 44
0.0
173
     0
291
     0
 45
0.0
1001
ACAD
1000
AcDbSavedByObjectVersion
1070
     0
  0
VISUALSTYLE
  5
35C2
102
{ACAD_XDICTIONARY
360
3C48
102
}
102
{ACAD_REACTORS
330
2382
102
}
330
2382
100
AcDbVisualStyle
  2

 70
    23
 71
     2
 72
     2
 73
     3
 90
        0
 40
-0.6
 41
-30.0
 62
     5
 63
     7
 74
     2
 91
        2
 64
     7
 65
     7
 75
     1
175
     1
 42
40.0
 92
        8
 66
     7
 43
1.0
 76
     1
 77
     6
 78
     2
 67
     7
 79
     3
170
     0
171
     0
290
     0
174
     0
 93
        1
 44
0.0
173
     0
291
     0
 45
0.0
1001
ACAD
1000
AcDbSavedByObjectVersion
1070
     0
  0
VISUALSTYLE
  5
35C3
102
{ACAD_XDICTIONARY
360
3C4A
102
}
102
{ACAD_REACTORS
330
2382
102
}
330
2382
100
AcDbVisualStyle
  2

 70
    24
 71
     1
 72
     2
 73
     2
 90
        0
 40
-0.6
 41
-30.0
 62
     5
 63
     7
 74
     2
 91
        2
 64
     7
 65
     7
 75
     1
175
     1
 42
40.0
 92
       11
 66
     7
 43
1.0
 76
     1
 77
     6
 78
     2
 67
     7
 79
     6
170
     0
171
     0
290
     0
174
     0
 93
        1
 44
0.0
173
     0
291
     0
 45
0.0
1001
ACAD
1000
AcDbSavedByObjectVersion
1070
     0
  0
VISUALSTYLE
  5
238F
102
{ACAD_XDICTIONARY
360
3C15
102
}
102
{ACAD_REACTORS
330
2382
102
}
330
2382
100
AcDbVisualStyle
  2

 70
    13
 71
     2
 72
     2
 73
     0
 90
        0
 40
-0.6
 41
-30.0
 62
     5
 63
     7
 74
     1
 91
        4
 64
     7
 65
   257
 75
     1
175
     1
 42
1.0
 92
       12
 66
     7
 43
1.0
 76
     1
 77
     6
 78
     2
 67
     7
 79
     5
170
     0
171
     0
290
     0
174
     0
 93
        1
 44
0.0
173
     0
291
     1
 45
0.0
1001
ACAD
1000
AcDbSavedByObjectVersion
1070
     0
  0
VISUALSTYLE
  5
35C0
102
{ACAD_XDICTIONARY
360
3C44
102
}
102
{ACAD_REACTORS
330
2382
102
}
330
2382
100
AcDbVisualStyle
  2

 70
     5
 71
     0
 72
     2
 73
     0
 90
        0
 40
-0.6
 41
-30.0
 62
     5
 63
     7
 74
     1
 91
        4
 64
     7
 65
   257
 75
     1
175
     1
 42
1.0
 92
        0
 66
   257
 43
1.0
 76
     1
 77
     6
 78
     2
 67
     7
 79
     3
170
     0
171
     0
290
     0
174
     0
 93
        1
 44
0.0
173
     0
291
     0
 45
0.0
1001
ACAD
1000
AcDbSavedByObjectVersion
1070
     0
  0
VISUALSTYLE
  5
35C4
102
{ACAD_XDICTIONARY
360
3C4C
102
}
102
{ACAD_REACTORS
330
2382
102
}
330
2382
100
AcDbVisualStyle
  2

 70
    25
 71
     2
 72
     2
 73
     1
 90
        1
 40
0.5
 41
-30.0
 62
     5
 63
     7
 74
     1
 91
        0
 64
     7
 65
   257
 75
     1
175
     1
 42
1.0
 92
        8
 66
     7
 43
1.0
 76
     1
 77
     6
 78
     2
 67
     7
 79
     3
170
     0
171
     0
290
     0
174
     0
 93
       13
 44
0.0
173
     0
291
     0
 45
0.0
1001
ACAD
1000
AcDbSavedByObjectVersion
1070
     0
  0
DICTIONARYVAR
  5
2690
102
{ACAD_REACTORS
330
102
102
}
330
102
100
DictionaryVariables
280
     0
  1
1:1
  0
DICTIONARYVAR
  5
268F
102
{ACAD_REACTORS
330
102
102
}
330
102
100
DictionaryVariables
280
     0
  1
STANDARD
  0
DICTIONARYVAR
  5
268E
102
{ACAD_REACTORS
330
102
102
}
330
102
100
DictionaryVariables
280
     0
  1
STANDARD
  0
DICTIONARYVAR
  5
35CF
102
{ACAD_REACTORS
330
102
102
}
330
102
100
DictionaryVariables
280
     0
  1
Imperial24
  0
DICTIONARYVAR
  5
35D0
102
{ACAD_REACTORS
330
102
102
}
330
102
100
DictionaryVariables
280
     0
  1
Imperial24
  0
DICTIONARYVAR
  5
103
102
{ACAD_REACTORS
330
102
102
}
330
102
100
DictionaryVariables
280
     0
  1
1
  0
DICTIONARYVAR
  5
2692
102
{ACAD_REACTORS
330
102
102
}
330
102
100
DictionaryVariables
280
     0
  1
0
  0
DICTIONARYVAR
  5
35D3
102
{ACAD_REACTORS
330
102
102
}
330
102
100
DictionaryVariables
280
     0
  1
1
  0
DICTIONARYVAR
  5
35D4
102
{ACAD_REACTORS
330
102
102
}
330
102
100
DictionaryVariables
280
     0
  1
15
  0
DICTIONARYVAR
  5
35D2
102
{ACAD_REACTORS
330
102
102
}
330
102
100
DictionaryVariables
280
     0
  1
0
  0
DICTIONARYVAR
  5
35D1
102
{ACAD_REACTORS
330
102
102
}
330
102
100
DictionaryVariables
280
     0
  1
0
  0
DICTIONARYVAR
  5
2691
102
{ACAD_REACTORS
330
102
102
}
330
102
100
DictionaryVariables
280
     0
  1
127
  0
DICTIONARYVAR
  5
3BF4
102
{ACAD_REACTORS
330
102
102
}
330
102
100
DictionaryVariables
280
     0
  1
2
  0
DICTIONARY
  5
3C54
330
35CA
100
AcDbDictionary
280
     1
281
     1
  3
ACAD_XREC_ROUNDTRIP
360
3C55
  0
DICTIONARY
  5
3BF8
330
60
100
AcDbDictionary
280
     1
281
     1
  3
ACAD_XREC_ROUNDTRIP
360
3BF9
  0
DICTIONARY
  5
3C66
330
3BF0
100
AcDbDictionary
280
     1
281
     1
  3
ACAD_XREC_ROUNDTRIP
360
3C67
  0
DICTIONARY
  5
2373
330
2372
100
AcDbDictionary
280
     1
281
     1
  3
ACAD_XREC_ROUNDTRIP
360
3BFB
  3
BUMPTILE
360
2375
  3
DIFFUSETILE
360
2374
  3
OPACITYTILE
360
2378
  3
REFLECTIONTILE
360
2377
  3
REFRACTIONTILE
360
2379
  3
SPECULARTILE
360
2376
  0
DICTIONARY
  5
236B
330
236A
100
AcDbDictionary
280
     1
281
     1
  3
ACAD_XREC_ROUNDTRIP
360
3BFA
  3
BUMPTILE
360
236D
  3
DIFFUSETILE
360
236C
  3
OPACITYTILE
360
2370
  3
REFLECTIONTILE
360
236F
  3
REFRACTIONTILE
360
2371
  3
SPECULARTILE
360
236E
  0
DICTIONARY
  5
237B
330
237A
100
AcDbDictionary
280
     1
281
     1
  3
ACAD_XREC_ROUNDTRIP
360
3BFC
  3
BUMPTILE
360
237D
  3
DIFFUSETILE
360
237C
  3
OPACITYTILE
360
2380
  3
REFLECTIONTILE
360
237F
  3
REFRACTIONTILE
360
2381
  3
SPECULARTILE
360
237E
  0
DICTIONARY
  5
3C52
330
35C8
100
AcDbDictionary
280
     1
281
     1
  3
ACAD_XREC_ROUNDTRIP
360
3C53
  0
DICTIONARY
  5
25FA
330
2398
100
AcDbDictionary
280
     1
281
     1
  3
ACAD_ROUNDTRIP_2008_TABLESTYLE_CELLSTYLEMAP
360
3BF5
  3
ACAD_XREC_ROUNDTRIP
360
3C23
  0
DICTIONARY
  5
3C07
330
2388
100
AcDbDictionary
280
     1
281
     1
  3
ACAD_XREC_ROUNDTRIP
360
3C08
  0
DICTIONARY
  5
3C0B
330
238A
100
AcDbDictionary
280
     1
281
     1
  3
ACAD_XREC_ROUNDTRIP
360
3C0C
  0
DICTIONARY
  5
3C09
330
2389
100
AcDbDictionary
280
     1
281
     1
  3
ACAD_XREC_ROUNDTRIP
360
3C0A
  0
DICTIONARY
  5
3C05
330
2387
100
AcDbDictionary
280
     1
281
     1
  3
ACAD_XREC_ROUNDTRIP
360
3C06
  0
DICTIONARY
  5
3C13
330
238E
100
AcDbDictionary
280
     1
281
     1
  3
ACAD_XREC_ROUNDTRIP
360
3C14
  0
DICTIONARY
  5
3C1B
330
2392
100
AcDbDictionary
280
     1
281
     1
  3
ACAD_XREC_ROUNDTRIP
360
3C1C
  0
DICTIONARY
  5
3C0D
330
238B
100
AcDbDictionary
280
     1
281
     1
  3
ACAD_XREC_ROUNDTRIP
360
3C0E
  0
DICTIONARY
  5
3C11
330
238D
100
AcDbDictionary
280
     1
281
     1
  3
ACAD_XREC_ROUNDTRIP
360
3C12
  0
DICTIONARY
  5
3C21
330
2395
100
AcDbDictionary
280
     1
281
     1
  3
ACAD_XREC_ROUNDTRIP
360
3C22
  0
DICTIONARY
  5
3C19
330
2391
100
AcDbDictionary
280
     1
281
     1
  3
ACAD_XREC_ROUNDTRIP
360
3C1A
  0
DICTIONARY
  5
3BFD
330
2383
100
AcDbDictionary
280
     1
281
     1
  3
ACAD_XREC_ROUNDTRIP
360
3BFE
  0
DICTIONARY
  5
3BFF
330
2384
100
AcDbDictionary
280
     1
281
     1
  3
ACAD_XREC_ROUNDTRIP
360
3C00
  0
DICTIONARY
  5
3C01
330
2385
100
AcDbDictionary
280
     1
281
     1
  3
ACAD_XREC_ROUNDTRIP
360
3C02
  0
DICTIONARY
  5
3C03
330
2386
100
AcDbDictionary
280
     1
281
     1
  3
ACAD_XREC_ROUNDTRIP
360
3C04
  0
DICTIONARY
  5
3C46
330
35C1
100
AcDbDictionary
280
     1
281
     1
  3
ACAD_XREC_ROUNDTRIP
360
3C47
  0
DICTIONARY
  5
3C1D
330
2393
100
AcDbDictionary
280
     1
281
     1
  3
ACAD_XREC_ROUNDTRIP
360
3C1E
  0
DICTIONARY
  5
3C17
330
2390
100
AcDbDictionary
280
     1
281
     1
  3
ACAD_XREC_ROUNDTRIP
360
3C18
  0
DICTIONARY
  5
3C1F
330
2394
100
AcDbDictionary
280
     1
281
     1
  3
ACAD_XREC_ROUNDTRIP
360
3C20
  0
DICTIONARY
  5
3C0F
330
238C
100
AcDbDictionary
280
     1
281
     1
  3
ACAD_XREC_ROUNDTRIP
360
3C10
  0
DICTIONARY
  5
3C50
330
35C6
100
AcDbDictionary
280
     1
281
     1
  3
ACAD_XREC_ROUNDTRIP
360
3C51
  0
DICTIONARY
  5
3C4E
330
35C5
100
AcDbDictionary
280
     1
281
     1
  3
ACAD_XREC_ROUNDTRIP
360
3C4F
  0
DICTIONARY
  5
3C48
330
35C2
100
AcDbDictionary
280
     1
281
     1
  3
ACAD_XREC_ROUNDTRIP
360
3C49
  0
DICTIONARY
  5
3C4A
330
35C3
100
AcDbDictionary
280
     1
281
     1
  3
ACAD_XREC_ROUNDTRIP
360
3C4B
  0
DICTIONARY
  5
3C15
330
238F
100
AcDbDictionary
280
     1
281
     1
  3
ACAD_XREC_ROUNDTRIP
360
3C16
  0
DICTIONARY
  5
3C44
330
35C0
100
AcDbDictionary
280
     1
281
     1
  3
ACAD_XREC_ROUNDTRIP
360
3C45
  0
DICTIONARY
  5
3C4C
330
35C4
100
AcDbDictionary
280
     1
281
     1
  3
ACAD_XREC_ROUNDTRIP
360
3C4D
  0
XRECORD
  5
3C55
102
{ACAD_REACTORS
330
3C54
102
}
330
3C54
100
AcDbXrecord
280
     1
102
DISPLAYNAME
  1
Imperial24
102
FLAGS
 90
        0
  0
XRECORD
  5
3BF9
102
{ACAD_REACTORS
330
3BF8
102
}
330
3BF8
100
AcDbXrecord
280
     1
102
SHADEPLOT
 70
     0
102
SHADEPLOTRESLEVEL
 70
     2
102
SHADEPLOTCUSTOMDPI
 70
   300
  0
XRECORD
  5
3C67
102
{ACAD_REACTORS
330
3C66
102
}
330
3C66
100
AcDbXrecord
280
     1
102
SHADEPLOT
 70
     0
102
SHADEPLOTRESLEVEL
 70
     2
102
SHADEPLOTCUSTOMDPI
 70
   300
  0
XRECORD
  5
3BFB
102
{ACAD_REACTORS
330
2373
102
}
330
2373
100
AcDbXrecord
280
     1
102
MATERIAL
148
0.0
149
0.0
149
0.0
 93
        0
 94
      127
282
     0
 72
     0
 77
     0
171
     0
175
     0
179
     0
273
     0
  0
XRECORD
  5
2375
102
{ACAD_REACTORS
330
2373
102
}
330
2373
100
AcDbXrecord
280
     1
270
     1
271
     1
  0
XRECORD
  5
2374
102
{ACAD_REACTORS
330
2373
102
}
330
2373
100
AcDbXrecord
280
     1
270
     1
271
     1
  0
XRECORD
  5
2378
102
{ACAD_REACTORS
330
2373
102
}
330
2373
100
AcDbXrecord
280
     1
270
     1
271
     1
  0
XRECORD
  5
2377
102
{ACAD_REACTORS
330
2373
102
}
330
2373
100
AcDbXrecord
280
     1
270
     1
271
     1
  0
XRECORD
  5
2379
102
{ACAD_REACTORS
330
2373
102
}
330
2373
100
AcDbXrecord
280
     1
270
     1
271
     1
  0
XRECORD
  5
2376
102
{ACAD_REACTORS
330
2373
102
}
330
2373
100
AcDbXrecord
280
     1
270
     1
271
     1
  0
XRECORD
  5
3BFA
102
{ACAD_REACTORS
330
236B
102
}
330
236B
100
AcDbXrecord
280
     1
102
MATERIAL
148
0.0
149
0.0
149
0.0
 93
        0
 94
      127
282
     0
 72
     0
 77
     0
171
     0
175
     0
179
     0
273
     0
  0
XRECORD
  5
236D
102
{ACAD_REACTORS
330
236B
102
}
330
236B
100
AcDbXrecord
280
     1
270
     1
271
     1
  0
XRECORD
  5
236C
102
{ACAD_REACTORS
330
236B
102
}
330
236B
100
AcDbXrecord
280
     1
270
     1
271
     1
  0
XRECORD
  5
2370
102
{ACAD_REACTORS
330
236B
102
}
330
236B
100
AcDbXrecord
280
     1
270
     1
271
     1
  0
XRECORD
  5
236F
102
{ACAD_REACTORS
330
236B
102
}
330
236B
100
AcDbXrecord
280
     1
270
     1
271
     1
  0
XRECORD
  5
2371
102
{ACAD_REACTORS
330
236B
102
}
330
236B
100
AcDbXrecord
280
     1
270
     1
271
     1
  0
XRECORD
  5
236E
102
{ACAD_REACTORS
330
236B
102
}
330
236B
100
AcDbXrecord
280
     1
270
     1
271
     1
  0
XRECORD
  5
3BFC
102
{ACAD_REACTORS
330
237B
102
}
330
237B
100
AcDbXrecord
280
     1
102
MATERIAL
148
0.0
149
0.0
149
0.0
 93
        0
 94
      127
282
     0
 72
     0
 77
     0
171
     0
175
     0
179
     0
273
     0
  0
XRECORD
  5
237D
102
{ACAD_REACTORS
330
237B
102
}
330
237B
100
AcDbXrecord
280
     1
270
     1
271
     1
  0
XRECORD
  5
237C
102
{ACAD_REACTORS
330
237B
102
}
330
237B
100
AcDbXrecord
280
     1
270
     1
271
     1
  0
XRECORD
  5
2380
102
{ACAD_REACTORS
330
237B
102
}
330
237B
100
AcDbXrecord
280
     1
270
     1
271
     1
  0
XRECORD
  5
237F
102
{ACAD_REACTORS
330
237B
102
}
330
237B
100
AcDbXrecord
280
     1
270
     1
271
     1
  0
XRECORD
  5
2381
102
{ACAD_REACTORS
330
237B
102
}
330
237B
100
AcDbXrecord
280
     1
270
     1
271
     1
  0
XRECORD
  5
237E
102
{ACAD_REACTORS
330
237B
102
}
330
237B
100
AcDbXrecord
280
     1
270
     1
271
     1
  0
XRECORD
  5
3C53
102
{ACAD_REACTORS
330
3C52
102
}
330
3C52
100
AcDbXrecord
280
     1
102
DISPLAYNAME
  1
Imperial24
102
FLAGS
 90
        0
  0
CELLSTYLEMAP
  5
3BF5
102
{ACAD_REACTORS
330
25FA
102
}
330
25FA
100
AcDbCellStyleMap
 90
        3
300
CELLSTYLE
  1
TABLEFORMAT_BEGIN
 90
        5
170
     1
 91
        0
 92
    32768
 62
   257
 93
        1
300
CONTENTFORMAT
  1
CONTENTFORMAT_BEGIN
 90
        0
 91
        0
 92
      512
 93
        0
300

 40
0.0
140
1.0
 94
        5
 62
     0
340
16
144
0.25
309
CONTENTFORMAT_END
171
     1
301
MARGIN
  1
CELLMARGIN_BEGIN
 40
0.06
 40
0.06
 40
0.06
 40
0.06
 40
0.18
 40
0.18
309
CELLMARGIN_END
 94
        6
 95
        1
302
GRIDFORMAT
  1
GRIDFORMAT_BEGIN
 90
        0
 91
        1
 62
     0
 92
       -2
340
0
 93
        0
 40
0.045
309
GRIDFORMAT_END
 95
        2
302
GRIDFORMAT
  1
GRIDFORMAT_BEGIN
 90
        0
 91
        1
 62
     0
 92
       -2
340
0
 93
        0
 40
0.045
309
GRIDFORMAT_END
 95
        4
302
GRIDFORMAT
  1
GRIDFORMAT_BEGIN
 90
        0
 91
        1
 62
     0
 92
       -2
340
0
 93
        0
 40
0.045
309
GRIDFORMAT_END
 95
        8
302
GRIDFORMAT
  1
GRIDFORMAT_BEGIN
 90
        0
 91
        1
 62
     0
 92
       -2
340
0
 93
        0
 40
0.045
309
GRIDFORMAT_END
 95
       16
302
GRIDFORMAT
  1
GRIDFORMAT_BEGIN
 90
        0
 91
        1
 62
     0
 92
       -2
340
0
 93
        0
 40
0.045
309
GRIDFORMAT_END
 95
       32
302
GRIDFORMAT
  1
GRIDFORMAT_BEGIN
 90
        0
 91
        1
 62
     0
 92
       -2
340
0
 93
        0
 40
0.045
309
GRIDFORMAT_END
309
TABLEFORMAT_END
  1
CELLSTYLE_BEGIN
 90
        1
 91
        1
300
_TITLE
309
CELLSTYLE_END
300
CELLSTYLE
  1
TABLEFORMAT_BEGIN
 90
        5
170
     1
 91
        0
 92
        0
 62
   257
 93
        1
300
CONTENTFORMAT
  1
CONTENTFORMAT_BEGIN
 90
        0
 91
        0
 92
      512
 93
        0
300

 40
0.0
140
1.0
 94
        5
 62
     0
340
16
144
0.18
309
CONTENTFORMAT_END
171
     1
301
MARGIN
  1
CELLMARGIN_BEGIN
 40
0.06
 40
0.06
 40
0.06
 40
0.06
 40
0.18
 40
0.18
309
CELLMARGIN_END
 94
        6
 95
        1
302
GRIDFORMAT
  1
GRIDFORMAT_BEGIN
 90
        0
 91
        1
 62
     0
 92
       -2
340
0
 93
        0
 40
0.045
309
GRIDFORMAT_END
 95
        2
302
GRIDFORMAT
  1
GRIDFORMAT_BEGIN
 90
        0
 91
        1
 62
     0
 92
       -2
340
0
 93
        0
 40
0.045
309
GRIDFORMAT_END
 95
        4
302
GRIDFORMAT
  1
GRIDFORMAT_BEGIN
 90
        0
 91
        1
 62
     0
 92
       -2
340
0
 93
        0
 40
0.045
309
GRIDFORMAT_END
 95
        8
302
GRIDFORMAT
  1
GRIDFORMAT_BEGIN
 90
        0
 91
        1
 62
     0
 92
       -2
340
0
 93
        0
 40
0.045
309
GRIDFORMAT_END
 95
       16
302
GRIDFORMAT
  1
GRIDFORMAT_BEGIN
 90
        0
 91
        1
 62
     0
 92
       -2
340
0
 93
        0
 40
0.045
309
GRIDFORMAT_END
 95
       32
302
GRIDFORMAT
  1
GRIDFORMAT_BEGIN
 90
        0
 91
        1
 62
     0
 92
       -2
340
0
 93
        0
 40
0.045
309
GRIDFORMAT_END
309
TABLEFORMAT_END
  1
CELLSTYLE_BEGIN
 90
        2
 91
        1
300
_HEADER
309
CELLSTYLE_END
300
CELLSTYLE
  1
TABLEFORMAT_BEGIN
 90
        5
170
     1
 91
        0
 92
        0
 62
   257
 93
        1
300
CONTENTFORMAT
  1
CONTENTFORMAT_BEGIN
 90
        0
 91
        0
 92
      512
 93
        0
300

 40
0.0
140
1.0
 94
        2
 62
     0
340
16
144
0.18
309
CONTENTFORMAT_END
171
     1
301
MARGIN
  1
CELLMARGIN_BEGIN
 40
0.06
 40
0.06
 40
0.06
 40
0.06
 40
0.18
 40
0.18
309
CELLMARGIN_END
 94
        6
 95
        1
302
GRIDFORMAT
  1
GRIDFORMAT_BEGIN
 90
        0
 91
        1
 62
     0
 92
       -2
340
0
 93
        0
 40
0.045
309
GRIDFORMAT_END
 95
        2
302
GRIDFORMAT
  1
GRIDFORMAT_BEGIN
 90
        0
 91
        1
 62
     0
 92
       -2
340
0
 93
        0
 40
0.045
309
GRIDFORMAT_END
 95
        4
302
GRIDFORMAT
  1
GRIDFORMAT_BEGIN
 90
        0
 91
        1
 62
     0
 92
       -2
340
0
 93
        0
 40
0.045
309
GRIDFORMAT_END
 95
        8
302
GRIDFORMAT
  1
GRIDFORMAT_BEGIN
 90
        0
 91
        1
 62
     0
 92
       -2
340
0
 93
        0
 40
0.045
309
GRIDFORMAT_END
 95
       16
302
GRIDFORMAT
  1
GRIDFORMAT_BEGIN
 90
        0
 91
        1
 62
     0
 92
       -2
340
0
 93
        0
 40
0.045
309
GRIDFORMAT_END
 95
       32
302
GRIDFORMAT
  1
GRIDFORMAT_BEGIN
 90
        0
 91
        1
 62
     0
 92
       -2
340
0
 93
        0
 40
0.045
309
GRIDFORMAT_END
309
TABLEFORMAT_END
  1
CELLSTYLE_BEGIN
 90
        3
 91
        2
300
_DATA
309
CELLSTYLE_END
  0
XRECORD
  5
3C23
102
{ACAD_REACTORS
330
25FA
102
}
330
25FA
100
AcDbXrecord
280
     1
102
ACAD_ROUNDTRIP_PRE2007_TABLESTYLE
 90
      512
 91
        0
  1

 92
      512
 93
        0
  2

 94
      512
 95
        0
  3

  0
XRECORD
  5
3C08
102
{ACAD_REACTORS
330
3C07
102
}
330
3C07
100
AcDbXrecord
280
     1
102
RTVSPost2010Prop28
280
     1
102
RTVSPost2010PropOp28
 70
     1
102
RTVSPost2010Prop29
280
     1
102
RTVSPost2010PropOp29
 70
     1
102
RTVSPost2010Prop30
280
     0
102
RTVSPost2010PropOp30
 70
     1
102
RTVSPost2010Prop31
280
     0
102
RTVSPost2010PropOp31
 70
     1
102
RTVSPost2010Prop32
280
     0
102
RTVSPost2010PropOp32
 70
     1
102
RTVSPost2010Prop33
280
     0
102
RTVSPost2010PropOp33
 70
     1
102
RTVSPost2010Prop34
280
     0
102
RTVSPost2010PropOp34
 70
     1
102
RTVSPost2010Prop35
280
     0
102
RTVSPost2010PropOp35
 70
     1
102
RTVSPost2010Prop36
280
     0
102
RTVSPost2010PropOp36
 70
     1
102
RTVSPost2010Prop37
 90
       50
102
RTVSPost2010PropOp37
 70
     1
102
RTVSPost2010Prop38
140
0.0
102
RTVSPost2010PropOp38
 70
     1
102
RTVSPost2010Prop39
140
1.0
102
RTVSPost2010PropOp39
 70
     1
102
RTVSPost2010Prop40
 90
        0
102
RTVSPost2010PropOp40
 70
     1
102
RTVSPost2010Prop41ColorIndex
 90
       18
102
RTVSPost2010Prop41ColorRGB
 90
        0
102
RTVSPost2010PropOp41
 70
     1
102
RTVSPost2010Prop42
 90
       50
102
RTVSPost2010PropOp42
 70
     1
102
RTVSPost2010Prop43
 90
        3
102
RTVSPost2010PropOp43
 70
     1
102
RTVSPost2010Prop44ColorIndex
 90
        5
102
RTVSPost2010Prop44ColorRGB
 90
      255
102
RTVSPost2010PropOp44
 70
     1
102
RTVSPost2010Prop45
280
     0
102
RTVSPost2010PropOp45
 70
     1
102
RTVSPost2010Prop46
 90
       50
102
RTVSPost2010PropOp46
 70
     1
102
RTVSPost2010Prop47
 90
       50
102
RTVSPost2010PropOp47
 70
     1
102
RTVSPost2010Prop48
 90
       50
102
RTVSPost2010PropOp48
 70
     1
102
RTVSPost2010Prop49
280
     0
102
RTVSPost2010PropOp49
 70
     1
102
RTVSPost2010Prop50
 90
       50
102
RTVSPost2010PropOp50
 70
     1
102
RTVSPost2010Prop51ColorIndex
 90
      256
102
RTVSPost2010Prop51ColorRGB
 90
-16777216
102
RTVSPost2010PropOp51
 70
     0
102
RTVSPost2010Prop52
140
1.0
102
RTVSPost2010PropOp52
 70
     0
102
RTVSPost2010Prop53
 90
        2
102
RTVSPost2010PropOp53
 70
     1
102
RTVSPost2010Prop54
  1
strokes_ogs.tif
102
RTVSPost2010PropOp54
 70
     1
102
RTVSPost2010Prop55
280
     0
102
RTVSPost2010PropOp55
 70
     1
102
RTVSPost2010Prop56
140
1.0
102
RTVSPost2010PropOp56
 70
     1
102
RTVSPost2010Prop57
140
1.0
102
RTVSPost2010PropOp57
 70
     1
102
RTVSPropertyOp0
 70
     1
102
RTVSPropertyOp1
 70
     1
102
RTVSPropertyOp2
 70
     1
102
RTVSPropertyOp3
 70
     1
102
RTVSPropertyOp4
 70
     1
102
RTVSPropertyOp5
 70
     1
102
RTVSPropertyOp6
 70
     1
102
RTVSPropertyOp7
 70
     1
102
RTVSPropertyOp8
 70
     1
102
RTVSPropertyOp9
 70
     1
102
RTVSPropertyOp10
 70
     1
102
RTVSPropertyOp11
 70
     1
102
RTVSPropertyOp12
 70
     1
102
RTVSPropertyOp13
 70
     1
102
RTVSPropertyOp14
 70
     1
102
RTVSPropertyOp15
 70
     1
102
RTVSPropertyOp16
 70
     1
102
RTVSPropertyOp17
 70
     1
102
RTVSPropertyOp18
 70
     1
102
RTVSPropertyOp19
 70
     1
102
RTVSPropertyOp20
 70
     1
102
RTVSPropertyOp21
 70
     1
102
RTVSPropertyOp22
 70
     1
102
RTVSPropertyOp23
 70
     1
102
RTVSPropertyOp24
 70
     1
102
RTVSPropertyOp25
 70
     1
102
RTVSPropertyOp26
 70
     1
102
RTVSPropertyOp27
 70
     1
102
RTVSPropertyOp28
 70
     1
102
RTVSPropertyOp29
 70
     1
102
RTVSPropertyOp30
 70
     1
102
RTVSPropertyOp31
 70
     1
102
RTVSPropertyOp32
 70
     1
102
RTVSPropertyOp33
 70
     1
102
RTVSPropertyOp34
 70
     1
102
RTVSPropertyOp35
 70
     1
102
RTVSPropertyOp36
 70
     1
102
RTVSPropertyOp37
 70
     1
102
RTVSPropertyOp38
 70
     1
102
RTVSPropertyOp39
 70
     1
102
RTVSPropertyOp40
 70
     1
102
RTVSPropertyOp41
 70
     1
102
RTVSPropertyOp42
 70
     1
102
RTVSPropertyOp43
 70
     1
102
RTVSPropertyOp44
 70
     1
102
RTVSPropertyOp45
 70
     1
102
RTVSPropertyOp46
 70
     1
102
RTVSPropertyOp47
 70
     1
102
RTVSPropertyOp48
 70
     1
102
RTVSPropertyOp49
 70
     1
102
RTVSPropertyOp50
 70
     1
102
RTVSPropertyOp51
 70
     0
102
RTVSPropertyOp52
 70
     0
102
RTVSPropertyOp53
 70
     1
102
RTVSPropertyOp54
 70
     1
102
RTVSPropertyOp55
 70
     1
102
RTVSPropertyOp56
 70
     1
102
RTVSPropertyOp57
 70
     1
102
RTVSPropertyOp58
 70
     1
102
RTVSPropertyOp59
 70
     1
102
RTVSPropertyOp60
 70
     1
102
RTVSPropertyOp61
 70
     1
102
RTVSPropertyOp62
 70
     1
  0
XRECORD
  5
3C0C
102
{ACAD_REACTORS
330
3C0B
102
}
330
3C0B
100
AcDbXrecord
280
     1
102
RTVSPost2010Prop28
280
     0
102
RTVSPost2010PropOp28
 70
     1
102
RTVSPost2010Prop29
280
     1
102
RTVSPost2010PropOp29
 70
     1
102
RTVSPost2010Prop30
280
     1
102
RTVSPost2010PropOp30
 70
     1
102
RTVSPost2010Prop31
280
     0
102
RTVSPost2010PropOp31
 70
     1
102
RTVSPost2010Prop32
280
     0
102
RTVSPost2010PropOp32
 70
     1
102
RTVSPost2010Prop33
280
     0
102
RTVSPost2010PropOp33
 70
     1
102
RTVSPost2010Prop34
280
     0
102
RTVSPost2010PropOp34
 70
     1
102
RTVSPost2010Prop35
280
     0
102
RTVSPost2010PropOp35
 70
     1
102
RTVSPost2010Prop36
280
     0
102
RTVSPost2010PropOp36
 70
     1
102
RTVSPost2010Prop37
 90
       50
102
RTVSPost2010PropOp37
 70
     1
102
RTVSPost2010Prop38
140
0.0
102
RTVSPost2010PropOp38
 70
     1
102
RTVSPost2010Prop39
140
1.0
102
RTVSPost2010PropOp39
 70
     1
102
RTVSPost2010Prop40
 90
        0
102
RTVSPost2010PropOp40
 70
     1
102
RTVSPost2010Prop41ColorIndex
 90
       18
102
RTVSPost2010Prop41ColorRGB
 90
        0
102
RTVSPost2010PropOp41
 70
     1
102
RTVSPost2010Prop42
 90
       50
102
RTVSPost2010PropOp42
 70
     1
102
RTVSPost2010Prop43
 90
        3
102
RTVSPost2010PropOp43
 70
     1
102
RTVSPost2010Prop44ColorIndex
 90
        5
102
RTVSPost2010Prop44ColorRGB
 90
      255
102
RTVSPost2010PropOp44
 70
     1
102
RTVSPost2010Prop45
280
     0
102
RTVSPost2010PropOp45
 70
     1
102
RTVSPost2010Prop46
 90
       50
102
RTVSPost2010PropOp46
 70
     1
102
RTVSPost2010Prop47
 90
       50
102
RTVSPost2010PropOp47
 70
     1
102
RTVSPost2010Prop48
 90
       50
102
RTVSPost2010PropOp48
 70
     1
102
RTVSPost2010Prop49
280
     0
102
RTVSPost2010PropOp49
 70
     1
102
RTVSPost2010Prop50
 90
       50
102
RTVSPost2010PropOp50
 70
     1
102
RTVSPost2010Prop51ColorIndex
 90
      256
102
RTVSPost2010Prop51ColorRGB
 90
-16777216
102
RTVSPost2010PropOp51
 70
     0
102
RTVSPost2010Prop52
140
1.0
102
RTVSPost2010PropOp52
 70
     0
102
RTVSPost2010Prop53
 90
        2
102
RTVSPost2010PropOp53
 70
     1
102
RTVSPost2010Prop54
  1
strokes_ogs.tif
102
RTVSPost2010PropOp54
 70
     1
102
RTVSPost2010Prop55
280
     0
102
RTVSPost2010PropOp55
 70
     1
102
RTVSPost2010Prop56
140
1.0
102
RTVSPost2010PropOp56
 70
     1
102
RTVSPost2010Prop57
140
1.0
102
RTVSPost2010PropOp57
 70
     1
102
RTVSPropertyOp0
 70
     1
102
RTVSPropertyOp1
 70
     1
102
RTVSPropertyOp2
 70
     1
102
RTVSPropertyOp3
 70
     1
102
RTVSPropertyOp4
 70
     1
102
RTVSPropertyOp5
 70
     1
102
RTVSPropertyOp6
 70
     1
102
RTVSPropertyOp7
 70
     1
102
RTVSPropertyOp8
 70
     1
102
RTVSPropertyOp9
 70
     1
102
RTVSPropertyOp10
 70
     1
102
RTVSPropertyOp11
 70
     1
102
RTVSPropertyOp12
 70
     1
102
RTVSPropertyOp13
 70
     1
102
RTVSPropertyOp14
 70
     1
102
RTVSPropertyOp15
 70
     1
102
RTVSPropertyOp16
 70
     1
102
RTVSPropertyOp17
 70
     1
102
RTVSPropertyOp18
 70
     1
102
RTVSPropertyOp19
 70
     1
102
RTVSPropertyOp20
 70
     1
102
RTVSPropertyOp21
 70
     1
102
RTVSPropertyOp22
 70
     1
102
RTVSPropertyOp23
 70
     1
102
RTVSPropertyOp24
 70
     1
102
RTVSPropertyOp25
 70
     1
102
RTVSPropertyOp26
 70
     1
102
RTVSPropertyOp27
 70
     1
102
RTVSPropertyOp28
 70
     1
102
RTVSPropertyOp29
 70
     1
102
RTVSPropertyOp30
 70
     1
102
RTVSPropertyOp31
 70
     1
102
RTVSPropertyOp32
 70
     1
102
RTVSPropertyOp33
 70
     1
102
RTVSPropertyOp34
 70
     1
102
RTVSPropertyOp35
 70
     1
102
RTVSPropertyOp36
 70
     1
102
RTVSPropertyOp37
 70
     1
102
RTVSPropertyOp38
 70
     1
102
RTVSPropertyOp39
 70
     1
102
RTVSPropertyOp40
 70
     1
102
RTVSPropertyOp41
 70
     1
102
RTVSPropertyOp42
 70
     1
102
RTVSPropertyOp43
 70
     1
102
RTVSPropertyOp44
 70
     1
102
RTVSPropertyOp45
 70
     1
102
RTVSPropertyOp46
 70
     1
102
RTVSPropertyOp47
 70
     1
102
RTVSPropertyOp48
 70
     1
102
RTVSPropertyOp49
 70
     1
102
RTVSPropertyOp50
 70
     1
102
RTVSPropertyOp51
 70
     0
102
RTVSPropertyOp52
 70
     0
102
RTVSPropertyOp53
 70
     1
102
RTVSPropertyOp54
 70
     1
102
RTVSPropertyOp55
 70
     1
102
RTVSPropertyOp56
 70
     1
102
RTVSPropertyOp57
 70
     1
102
RTVSPropertyOp58
 70
     1
102
RTVSPropertyOp59
 70
     1
102
RTVSPropertyOp60
 70
     1
102
RTVSPropertyOp61
 70
     1
102
RTVSPropertyOp62
 70
     1
  0
XRECORD
  5
3C0A
102
{ACAD_REACTORS
330
3C09
102
}
330
3C09
100
AcDbXrecord
280
     1
102
RTVSPost2010Prop28
280
     0
102
RTVSPost2010PropOp28
 70
     1
102
RTVSPost2010Prop29
280
     1
102
RTVSPost2010PropOp29
 70
     1
102
RTVSPost2010Prop30
280
     1
102
RTVSPost2010PropOp30
 70
     1
102
RTVSPost2010Prop31
280
     0
102
RTVSPost2010PropOp31
 70
     1
102
RTVSPost2010Prop32
280
     0
102
RTVSPost2010PropOp32
 70
     1
102
RTVSPost2010Prop33
280
     0
102
RTVSPost2010PropOp33
 70
     1
102
RTVSPost2010Prop34
280
     0
102
RTVSPost2010PropOp34
 70
     1
102
RTVSPost2010Prop35
280
     0
102
RTVSPost2010PropOp35
 70
     1
102
RTVSPost2010Prop36
280
     0
102
RTVSPost2010PropOp36
 70
     1
102
RTVSPost2010Prop37
 90
       50
102
RTVSPost2010PropOp37
 70
     1
102
RTVSPost2010Prop38
140
0.0
102
RTVSPost2010PropOp38
 70
     1
102
RTVSPost2010Prop39
140
1.0
102
RTVSPost2010PropOp39
 70
     1
102
RTVSPost2010Prop40
 90
        0
102
RTVSPost2010PropOp40
 70
     1
102
RTVSPost2010Prop41ColorIndex
 90
       18
102
RTVSPost2010Prop41ColorRGB
 90
        0
102
RTVSPost2010PropOp41
 70
     1
102
RTVSPost2010Prop42
 90
       50
102
RTVSPost2010PropOp42
 70
     1
102
RTVSPost2010Prop43
 90
        3
102
RTVSPost2010PropOp43
 70
     1
102
RTVSPost2010Prop44ColorIndex
 90
        5
102
RTVSPost2010Prop44ColorRGB
 90
      255
102
RTVSPost2010PropOp44
 70
     1
102
RTVSPost2010Prop45
280
     0
102
RTVSPost2010PropOp45
 70
     1
102
RTVSPost2010Prop46
 90
       50
102
RTVSPost2010PropOp46
 70
     1
102
RTVSPost2010Prop47
 90
       50
102
RTVSPost2010PropOp47
 70
     1
102
RTVSPost2010Prop48
 90
       50
102
RTVSPost2010PropOp48
 70
     1
102
RTVSPost2010Prop49
280
     0
102
RTVSPost2010PropOp49
 70
     1
102
RTVSPost2010Prop50
 90
       50
102
RTVSPost2010PropOp50
 70
     1
102
RTVSPost2010Prop51ColorIndex
 90
      256
102
RTVSPost2010Prop51ColorRGB
 90
-16777216
102
RTVSPost2010PropOp51
 70
     0
102
RTVSPost2010Prop52
140
1.0
102
RTVSPost2010PropOp52
 70
     0
102
RTVSPost2010Prop53
 90
        2
102
RTVSPost2010PropOp53
 70
     1
102
RTVSPost2010Prop54
  1
strokes_ogs.tif
102
RTVSPost2010PropOp54
 70
     1
102
RTVSPost2010Prop55
280
     0
102
RTVSPost2010PropOp55
 70
     1
102
RTVSPost2010Prop56
140
1.0
102
RTVSPost2010PropOp56
 70
     1
102
RTVSPost2010Prop57
140
1.0
102
RTVSPost2010PropOp57
 70
     1
102
RTVSPropertyOp0
 70
     1
102
RTVSPropertyOp1
 70
     1
102
RTVSPropertyOp2
 70
     1
102
RTVSPropertyOp3
 70
     1
102
RTVSPropertyOp4
 70
     1
102
RTVSPropertyOp5
 70
     1
102
RTVSPropertyOp6
 70
     1
102
RTVSPropertyOp7
 70
     1
102
RTVSPropertyOp8
 70
     1
102
RTVSPropertyOp9
 70
     1
102
RTVSPropertyOp10
 70
     1
102
RTVSPropertyOp11
 70
     1
102
RTVSPropertyOp12
 70
     1
102
RTVSPropertyOp13
 70
     1
102
RTVSPropertyOp14
 70
     1
102
RTVSPropertyOp15
 70
     1
102
RTVSPropertyOp16
 70
     1
102
RTVSPropertyOp17
 70
     1
102
RTVSPropertyOp18
 70
     1
102
RTVSPropertyOp19
 70
     1
102
RTVSPropertyOp20
 70
     1
102
RTVSPropertyOp21
 70
     1
102
RTVSPropertyOp22
 70
     1
102
RTVSPropertyOp23
 70
     1
102
RTVSPropertyOp24
 70
     1
102
RTVSPropertyOp25
 70
     1
102
RTVSPropertyOp26
 70
     1
102
RTVSPropertyOp27
 70
     1
102
RTVSPropertyOp28
 70
     1
102
RTVSPropertyOp29
 70
     1
102
RTVSPropertyOp30
 70
     1
102
RTVSPropertyOp31
 70
     1
102
RTVSPropertyOp32
 70
     1
102
RTVSPropertyOp33
 70
     1
102
RTVSPropertyOp34
 70
     1
102
RTVSPropertyOp35
 70
     1
102
RTVSPropertyOp36
 70
     1
102
RTVSPropertyOp37
 70
     1
102
RTVSPropertyOp38
 70
     1
102
RTVSPropertyOp39
 70
     1
102
RTVSPropertyOp40
 70
     1
102
RTVSPropertyOp41
 70
     1
102
RTVSPropertyOp42
 70
     1
102
RTVSPropertyOp43
 70
     1
102
RTVSPropertyOp44
 70
     1
102
RTVSPropertyOp45
 70
     1
102
RTVSPropertyOp46
 70
     1
102
RTVSPropertyOp47
 70
     1
102
RTVSPropertyOp48
 70
     1
102
RTVSPropertyOp49
 70
     1
102
RTVSPropertyOp50
 70
     1
102
RTVSPropertyOp51
 70
     0
102
RTVSPropertyOp52
 70
     0
102
RTVSPropertyOp53
 70
     1
102
RTVSPropertyOp54
 70
     1
102
RTVSPropertyOp55
 70
     1
102
RTVSPropertyOp56
 70
     1
102
RTVSPropertyOp57
 70
     1
102
RTVSPropertyOp58
 70
     1
102
RTVSPropertyOp59
 70
     1
102
RTVSPropertyOp60
 70
     1
102
RTVSPropertyOp61
 70
     1
102
RTVSPropertyOp62
 70
     1
  0
XRECORD
  5
3C06
102
{ACAD_REACTORS
330
3C05
102
}
330
3C05
100
AcDbXrecord
280
     1
102
RTVSPost2010Prop28
280
     0
102
RTVSPost2010PropOp28
 70
     1
102
RTVSPost2010Prop29
280
     1
102
RTVSPost2010PropOp29
 70
     1
102
RTVSPost2010Prop30
280
     1
102
RTVSPost2010PropOp30
 70
     1
102
RTVSPost2010Prop31
280
     0
102
RTVSPost2010PropOp31
 70
     1
102
RTVSPost2010Prop32
280
     0
102
RTVSPost2010PropOp32
 70
     1
102
RTVSPost2010Prop33
280
     0
102
RTVSPost2010PropOp33
 70
     1
102
RTVSPost2010Prop34
280
     0
102
RTVSPost2010PropOp34
 70
     1
102
RTVSPost2010Prop35
280
     0
102
RTVSPost2010PropOp35
 70
     1
102
RTVSPost2010Prop36
280
     0
102
RTVSPost2010PropOp36
 70
     1
102
RTVSPost2010Prop37
 90
       50
102
RTVSPost2010PropOp37
 70
     1
102
RTVSPost2010Prop38
140
0.0
102
RTVSPost2010PropOp38
 70
     1
102
RTVSPost2010Prop39
140
1.0
102
RTVSPost2010PropOp39
 70
     1
102
RTVSPost2010Prop40
 90
        0
102
RTVSPost2010PropOp40
 70
     1
102
RTVSPost2010Prop41ColorIndex
 90
       18
102
RTVSPost2010Prop41ColorRGB
 90
        0
102
RTVSPost2010PropOp41
 70
     1
102
RTVSPost2010Prop42
 90
       50
102
RTVSPost2010PropOp42
 70
     1
102
RTVSPost2010Prop43
 90
        3
102
RTVSPost2010PropOp43
 70
     1
102
RTVSPost2010Prop44ColorIndex
 90
        5
102
RTVSPost2010Prop44ColorRGB
 90
      255
102
RTVSPost2010PropOp44
 70
     1
102
RTVSPost2010Prop45
280
     0
102
RTVSPost2010PropOp45
 70
     1
102
RTVSPost2010Prop46
 90
       50
102
RTVSPost2010PropOp46
 70
     1
102
RTVSPost2010Prop47
 90
       50
102
RTVSPost2010PropOp47
 70
     1
102
RTVSPost2010Prop48
 90
       50
102
RTVSPost2010PropOp48
 70
     1
102
RTVSPost2010Prop49
280
     0
102
RTVSPost2010PropOp49
 70
     1
102
RTVSPost2010Prop50
 90
       50
102
RTVSPost2010PropOp50
 70
     1
102
RTVSPost2010Prop51ColorIndex
 90
      256
102
RTVSPost2010Prop51ColorRGB
 90
-16777216
102
RTVSPost2010PropOp51
 70
     0
102
RTVSPost2010Prop52
140
1.0
102
RTVSPost2010PropOp52
 70
     0
102
RTVSPost2010Prop53
 90
        2
102
RTVSPost2010PropOp53
 70
     1
102
RTVSPost2010Prop54
  1
strokes_ogs.tif
102
RTVSPost2010PropOp54
 70
     1
102
RTVSPost2010Prop55
280
     0
102
RTVSPost2010PropOp55
 70
     1
102
RTVSPost2010Prop56
140
1.0
102
RTVSPost2010PropOp56
 70
     1
102
RTVSPost2010Prop57
140
1.0
102
RTVSPost2010PropOp57
 70
     1
102
RTVSPropertyOp0
 70
     1
102
RTVSPropertyOp1
 70
     1
102
RTVSPropertyOp2
 70
     1
102
RTVSPropertyOp3
 70
     1
102
RTVSPropertyOp4
 70
     1
102
RTVSPropertyOp5
 70
     1
102
RTVSPropertyOp6
 70
     1
102
RTVSPropertyOp7
 70
     1
102
RTVSPropertyOp8
 70
     1
102
RTVSPropertyOp9
 70
     1
102
RTVSPropertyOp10
 70
     1
102
RTVSPropertyOp11
 70
     1
102
RTVSPropertyOp12
 70
     1
102
RTVSPropertyOp13
 70
     1
102
RTVSPropertyOp14
 70
     1
102
RTVSPropertyOp15
 70
     1
102
RTVSPropertyOp16
 70
     1
102
RTVSPropertyOp17
 70
     1
102
RTVSPropertyOp18
 70
     1
102
RTVSPropertyOp19
 70
     1
102
RTVSPropertyOp20
 70
     1
102
RTVSPropertyOp21
 70
     1
102
RTVSPropertyOp22
 70
     1
102
RTVSPropertyOp23
 70
     1
102
RTVSPropertyOp24
 70
     1
102
RTVSPropertyOp25
 70
     1
102
RTVSPropertyOp26
 70
     1
102
RTVSPropertyOp27
 70
     1
102
RTVSPropertyOp28
 70
     1
102
RTVSPropertyOp29
 70
     1
102
RTVSPropertyOp30
 70
     1
102
RTVSPropertyOp31
 70
     1
102
RTVSPropertyOp32
 70
     1
102
RTVSPropertyOp33
 70
     1
102
RTVSPropertyOp34
 70
     1
102
RTVSPropertyOp35
 70
     1
102
RTVSPropertyOp36
 70
     1
102
RTVSPropertyOp37
 70
     1
102
RTVSPropertyOp38
 70
     1
102
RTVSPropertyOp39
 70
     1
102
RTVSPropertyOp40
 70
     1
102
RTVSPropertyOp41
 70
     1
102
RTVSPropertyOp42
 70
     1
102
RTVSPropertyOp43
 70
     1
102
RTVSPropertyOp44
 70
     1
102
RTVSPropertyOp45
 70
     1
102
RTVSPropertyOp46
 70
     1
102
RTVSPropertyOp47
 70
     1
102
RTVSPropertyOp48
 70
     1
102
RTVSPropertyOp49
 70
     1
102
RTVSPropertyOp50
 70
     1
102
RTVSPropertyOp51
 70
     0
102
RTVSPropertyOp52
 70
     0
102
RTVSPropertyOp53
 70
     1
102
RTVSPropertyOp54
 70
     1
102
RTVSPropertyOp55
 70
     1
102
RTVSPropertyOp56
 70
     1
102
RTVSPropertyOp57
 70
     1
102
RTVSPropertyOp58
 70
     1
102
RTVSPropertyOp59
 70
     1
102
RTVSPropertyOp60
 70
     1
102
RTVSPropertyOp61
 70
     1
102
RTVSPropertyOp62
 70
     1
  0
XRECORD
  5
3C14
102
{ACAD_REACTORS
330
3C13
102
}
330
3C13
100
AcDbXrecord
280
     1
102
RTVSPost2010Prop28
280
     0
102
RTVSPost2010PropOp28
 70
     1
102
RTVSPost2010Prop29
280
     1
102
RTVSPost2010PropOp29
 70
     1
102
RTVSPost2010Prop30
280
     1
102
RTVSPost2010PropOp30
 70
     1
102
RTVSPost2010Prop31
280
     0
102
RTVSPost2010PropOp31
 70
     1
102
RTVSPost2010Prop32
280
     0
102
RTVSPost2010PropOp32
 70
     1
102
RTVSPost2010Prop33
280
     0
102
RTVSPost2010PropOp33
 70
     1
102
RTVSPost2010Prop34
280
     0
102
RTVSPost2010PropOp34
 70
     1
102
RTVSPost2010Prop35
280
     0
102
RTVSPost2010PropOp35
 70
     1
102
RTVSPost2010Prop36
280
     0
102
RTVSPost2010PropOp36
 70
     1
102
RTVSPost2010Prop37
 90
       50
102
RTVSPost2010PropOp37
 70
     1
102
RTVSPost2010Prop38
140
0.0
102
RTVSPost2010PropOp38
 70
     1
102
RTVSPost2010Prop39
140
1.0
102
RTVSPost2010PropOp39
 70
     1
102
RTVSPost2010Prop40
 90
        0
102
RTVSPost2010PropOp40
 70
     1
102
RTVSPost2010Prop41ColorIndex
 90
       18
102
RTVSPost2010Prop41ColorRGB
 90
        0
102
RTVSPost2010PropOp41
 70
     1
102
RTVSPost2010Prop42
 90
       50
102
RTVSPost2010PropOp42
 70
     1
102
RTVSPost2010Prop43
 90
        3
102
RTVSPost2010PropOp43
 70
     1
102
RTVSPost2010Prop44ColorIndex
 90
        5
102
RTVSPost2010Prop44ColorRGB
 90
      255
102
RTVSPost2010PropOp44
 70
     1
102
RTVSPost2010Prop45
280
     0
102
RTVSPost2010PropOp45
 70
     1
102
RTVSPost2010Prop46
 90
       50
102
RTVSPost2010PropOp46
 70
     1
102
RTVSPost2010Prop47
 90
       50
102
RTVSPost2010PropOp47
 70
     1
102
RTVSPost2010Prop48
 90
       50
102
RTVSPost2010PropOp48
 70
     1
102
RTVSPost2010Prop49
280
     0
102
RTVSPost2010PropOp49
 70
     1
102
RTVSPost2010Prop50
 90
       50
102
RTVSPost2010PropOp50
 70
     1
102
RTVSPost2010Prop51ColorIndex
 90
      256
102
RTVSPost2010Prop51ColorRGB
 90
-16777216
102
RTVSPost2010PropOp51
 70
     0
102
RTVSPost2010Prop52
140
1.0
102
RTVSPost2010PropOp52
 70
     0
102
RTVSPost2010Prop53
 90
        2
102
RTVSPost2010PropOp53
 70
     1
102
RTVSPost2010Prop54
  1
strokes_ogs.tif
102
RTVSPost2010PropOp54
 70
     1
102
RTVSPost2010Prop55
280
     0
102
RTVSPost2010PropOp55
 70
     1
102
RTVSPost2010Prop56
140
1.0
102
RTVSPost2010PropOp56
 70
     1
102
RTVSPost2010Prop57
140
1.0
102
RTVSPost2010PropOp57
 70
     1
102
RTVSPropertyOp0
 70
     1
102
RTVSPropertyOp1
 70
     1
102
RTVSPropertyOp2
 70
     1
102
RTVSPropertyOp3
 70
     1
102
RTVSPropertyOp4
 70
     1
102
RTVSPropertyOp5
 70
     1
102
RTVSPropertyOp6
 70
     1
102
RTVSPropertyOp7
 70
     1
102
RTVSPropertyOp8
 70
     1
102
RTVSPropertyOp9
 70
     1
102
RTVSPropertyOp10
 70
     1
102
RTVSPropertyOp11
 70
     1
102
RTVSPropertyOp12
 70
     1
102
RTVSPropertyOp13
 70
     1
102
RTVSPropertyOp14
 70
     1
102
RTVSPropertyOp15
 70
     1
102
RTVSPropertyOp16
 70
     1
102
RTVSPropertyOp17
 70
     1
102
RTVSPropertyOp18
 70
     1
102
RTVSPropertyOp19
 70
     1
102
RTVSPropertyOp20
 70
     1
102
RTVSPropertyOp21
 70
     1
102
RTVSPropertyOp22
 70
     1
102
RTVSPropertyOp23
 70
     1
102
RTVSPropertyOp24
 70
     1
102
RTVSPropertyOp25
 70
     1
102
RTVSPropertyOp26
 70
     1
102
RTVSPropertyOp27
 70
     1
102
RTVSPropertyOp28
 70
     1
102
RTVSPropertyOp29
 70
     1
102
RTVSPropertyOp30
 70
     1
102
RTVSPropertyOp31
 70
     1
102
RTVSPropertyOp32
 70
     1
102
RTVSPropertyOp33
 70
     1
102
RTVSPropertyOp34
 70
     1
102
RTVSPropertyOp35
 70
     1
102
RTVSPropertyOp36
 70
     1
102
RTVSPropertyOp37
 70
     1
102
RTVSPropertyOp38
 70
     1
102
RTVSPropertyOp39
 70
     1
102
RTVSPropertyOp40
 70
     1
102
RTVSPropertyOp41
 70
     1
102
RTVSPropertyOp42
 70
     1
102
RTVSPropertyOp43
 70
     1
102
RTVSPropertyOp44
 70
     1
102
RTVSPropertyOp45
 70
     1
102
RTVSPropertyOp46
 70
     1
102
RTVSPropertyOp47
 70
     1
102
RTVSPropertyOp48
 70
     1
102
RTVSPropertyOp49
 70
     1
102
RTVSPropertyOp50
 70
     1
102
RTVSPropertyOp51
 70
     0
102
RTVSPropertyOp52
 70
     0
102
RTVSPropertyOp53
 70
     1
102
RTVSPropertyOp54
 70
     1
102
RTVSPropertyOp55
 70
     1
102
RTVSPropertyOp56
 70
     1
102
RTVSPropertyOp57
 70
     1
102
RTVSPropertyOp58
 70
     1
102
RTVSPropertyOp59
 70
     1
102
RTVSPropertyOp60
 70
     1
102
RTVSPropertyOp61
 70
     1
102
RTVSPropertyOp62
 70
     1
  0
XRECORD
  5
3C1C
102
{ACAD_REACTORS
330
3C1B
102
}
330
3C1B
100
AcDbXrecord
280
     1
102
RTVSPost2010Prop28
280
     0
102
RTVSPost2010PropOp28
 70
     1
102
RTVSPost2010Prop29
280
     1
102
RTVSPost2010PropOp29
 70
     1
102
RTVSPost2010Prop30
280
     1
102
RTVSPost2010PropOp30
 70
     1
102
RTVSPost2010Prop31
280
     0
102
RTVSPost2010PropOp31
 70
     1
102
RTVSPost2010Prop32
280
     0
102
RTVSPost2010PropOp32
 70
     1
102
RTVSPost2010Prop33
280
     0
102
RTVSPost2010PropOp33
 70
     1
102
RTVSPost2010Prop34
280
     0
102
RTVSPost2010PropOp34
 70
     1
102
RTVSPost2010Prop35
280
     0
102
RTVSPost2010PropOp35
 70
     1
102
RTVSPost2010Prop36
280
     0
102
RTVSPost2010PropOp36
 70
     1
102
RTVSPost2010Prop37
 90
       50
102
RTVSPost2010PropOp37
 70
     1
102
RTVSPost2010Prop38
140
0.0
102
RTVSPost2010PropOp38
 70
     1
102
RTVSPost2010Prop39
140
1.0
102
RTVSPost2010PropOp39
 70
     1
102
RTVSPost2010Prop40
 90
        0
102
RTVSPost2010PropOp40
 70
     1
102
RTVSPost2010Prop41ColorIndex
 90
       18
102
RTVSPost2010Prop41ColorRGB
 90
        0
102
RTVSPost2010PropOp41
 70
     1
102
RTVSPost2010Prop42
 90
       50
102
RTVSPost2010PropOp42
 70
     1
102
RTVSPost2010Prop43
 90
        3
102
RTVSPost2010PropOp43
 70
     1
102
RTVSPost2010Prop44ColorIndex
 90
        5
102
RTVSPost2010Prop44ColorRGB
 90
      255
102
RTVSPost2010PropOp44
 70
     1
102
RTVSPost2010Prop45
280
     0
102
RTVSPost2010PropOp45
 70
     1
102
RTVSPost2010Prop46
 90
       50
102
RTVSPost2010PropOp46
 70
     1
102
RTVSPost2010Prop47
 90
       50
102
RTVSPost2010PropOp47
 70
     1
102
RTVSPost2010Prop48
 90
       50
102
RTVSPost2010PropOp48
 70
     1
102
RTVSPost2010Prop49
280
     0
102
RTVSPost2010PropOp49
 70
     1
102
RTVSPost2010Prop50
 90
       50
102
RTVSPost2010PropOp50
 70
     1
102
RTVSPost2010Prop51ColorIndex
 90
      256
102
RTVSPost2010Prop51ColorRGB
 90
-16777216
102
RTVSPost2010PropOp51
 70
     0
102
RTVSPost2010Prop52
140
1.0
102
RTVSPost2010PropOp52
 70
     0
102
RTVSPost2010Prop53
 90
        2
102
RTVSPost2010PropOp53
 70
     1
102
RTVSPost2010Prop54
  1
strokes_ogs.tif
102
RTVSPost2010PropOp54
 70
     1
102
RTVSPost2010Prop55
280
     0
102
RTVSPost2010PropOp55
 70
     1
102
RTVSPost2010Prop56
140
1.0
102
RTVSPost2010PropOp56
 70
     1
102
RTVSPost2010Prop57
140
1.0
102
RTVSPost2010PropOp57
 70
     1
102
RTVSPropertyOp0
 70
     1
102
RTVSPropertyOp1
 70
     1
102
RTVSPropertyOp2
 70
     1
102
RTVSPropertyOp3
 70
     1
102
RTVSPropertyOp4
 70
     1
102
RTVSPropertyOp5
 70
     1
102
RTVSPropertyOp6
 70
     1
102
RTVSPropertyOp7
 70
     1
102
RTVSPropertyOp8
 70
     1
102
RTVSPropertyOp9
 70
     1
102
RTVSPropertyOp10
 70
     1
102
RTVSPropertyOp11
 70
     1
102
RTVSPropertyOp12
 70
     1
102
RTVSPropertyOp13
 70
     1
102
RTVSPropertyOp14
 70
     1
102
RTVSPropertyOp15
 70
     1
102
RTVSPropertyOp16
 70
     1
102
RTVSPropertyOp17
 70
     1
102
RTVSPropertyOp18
 70
     1
102
RTVSPropertyOp19
 70
     1
102
RTVSPropertyOp20
 70
     1
102
RTVSPropertyOp21
 70
     1
102
RTVSPropertyOp22
 70
     1
102
RTVSPropertyOp23
 70
     1
102
RTVSPropertyOp24
 70
     1
102
RTVSPropertyOp25
 70
     1
102
RTVSPropertyOp26
 70
     1
102
RTVSPropertyOp27
 70
     1
102
RTVSPropertyOp28
 70
     1
102
RTVSPropertyOp29
 70
     1
102
RTVSPropertyOp30
 70
     1
102
RTVSPropertyOp31
 70
     1
102
RTVSPropertyOp32
 70
     1
102
RTVSPropertyOp33
 70
     1
102
RTVSPropertyOp34
 70
     1
102
RTVSPropertyOp35
 70
     1
102
RTVSPropertyOp36
 70
     1
102
RTVSPropertyOp37
 70
     1
102
RTVSPropertyOp38
 70
     1
102
RTVSPropertyOp39
 70
     1
102
RTVSPropertyOp40
 70
     1
102
RTVSPropertyOp41
 70
     1
102
RTVSPropertyOp42
 70
     1
102
RTVSPropertyOp43
 70
     1
102
RTVSPropertyOp44
 70
     1
102
RTVSPropertyOp45
 70
     1
102
RTVSPropertyOp46
 70
     1
102
RTVSPropertyOp47
 70
     1
102
RTVSPropertyOp48
 70
     1
102
RTVSPropertyOp49
 70
     1
102
RTVSPropertyOp50
 70
     1
102
RTVSPropertyOp51
 70
     0
102
RTVSPropertyOp52
 70
     0
102
RTVSPropertyOp53
 70
     1
102
RTVSPropertyOp54
 70
     1
102
RTVSPropertyOp55
 70
     1
102
RTVSPropertyOp56
 70
     1
102
RTVSPropertyOp57
 70
     1
102
RTVSPropertyOp58
 70
     1
102
RTVSPropertyOp59
 70
     1
102
RTVSPropertyOp60
 70
     1
102
RTVSPropertyOp61
 70
     1
102
RTVSPropertyOp62
 70
     1
  0
XRECORD
  5
3C0E
102
{ACAD_REACTORS
330
3C0D
102
}
330
3C0D
100
AcDbXrecord
280
     1
102
RTVSPost2010Prop28
280
     0
102
RTVSPost2010PropOp28
 70
     1
102
RTVSPost2010Prop29
280
     1
102
RTVSPost2010PropOp29
 70
     1
102
RTVSPost2010Prop30
280
     1
102
RTVSPost2010PropOp30
 70
     1
102
RTVSPost2010Prop31
280
     0
102
RTVSPost2010PropOp31
 70
     1
102
RTVSPost2010Prop32
280
     0
102
RTVSPost2010PropOp32
 70
     1
102
RTVSPost2010Prop33
280
     0
102
RTVSPost2010PropOp33
 70
     1
102
RTVSPost2010Prop34
280
     0
102
RTVSPost2010PropOp34
 70
     1
102
RTVSPost2010Prop35
280
     0
102
RTVSPost2010PropOp35
 70
     1
102
RTVSPost2010Prop36
280
     0
102
RTVSPost2010PropOp36
 70
     1
102
RTVSPost2010Prop37
 90
       50
102
RTVSPost2010PropOp37
 70
     1
102
RTVSPost2010Prop38
140
0.0
102
RTVSPost2010PropOp38
 70
     1
102
RTVSPost2010Prop39
140
1.0
102
RTVSPost2010PropOp39
 70
     1
102
RTVSPost2010Prop40
 90
        0
102
RTVSPost2010PropOp40
 70
     1
102
RTVSPost2010Prop41ColorIndex
 90
       18
102
RTVSPost2010Prop41ColorRGB
 90
        0
102
RTVSPost2010PropOp41
 70
     1
102
RTVSPost2010Prop42
 90
       50
102
RTVSPost2010PropOp42
 70
     1
102
RTVSPost2010Prop43
 90
        3
102
RTVSPost2010PropOp43
 70
     1
102
RTVSPost2010Prop44ColorIndex
 90
        5
102
RTVSPost2010Prop44ColorRGB
 90
      255
102
RTVSPost2010PropOp44
 70
     1
102
RTVSPost2010Prop45
280
     0
102
RTVSPost2010PropOp45
 70
     1
102
RTVSPost2010Prop46
 90
       50
102
RTVSPost2010PropOp46
 70
     1
102
RTVSPost2010Prop47
 90
       50
102
RTVSPost2010PropOp47
 70
     1
102
RTVSPost2010Prop48
 90
       50
102
RTVSPost2010PropOp48
 70
     1
102
RTVSPost2010Prop49
280
     0
102
RTVSPost2010PropOp49
 70
     1
102
RTVSPost2010Prop50
 90
       50
102
RTVSPost2010PropOp50
 70
     1
102
RTVSPost2010Prop51ColorIndex
 90
      256
102
RTVSPost2010Prop51ColorRGB
 90
-16777216
102
RTVSPost2010PropOp51
 70
     0
102
RTVSPost2010Prop52
140
1.0
102
RTVSPost2010PropOp52
 70
     0
102
RTVSPost2010Prop53
 90
        2
102
RTVSPost2010PropOp53
 70
     1
102
RTVSPost2010Prop54
  1
strokes_ogs.tif
102
RTVSPost2010PropOp54
 70
     1
102
RTVSPost2010Prop55
280
     0
102
RTVSPost2010PropOp55
 70
     1
102
RTVSPost2010Prop56
140
1.0
102
RTVSPost2010PropOp56
 70
     1
102
RTVSPost2010Prop57
140
1.0
102
RTVSPost2010PropOp57
 70
     1
102
RTVSPropertyOp0
 70
     1
102
RTVSPropertyOp1
 70
     1
102
RTVSPropertyOp2
 70
     1
102
RTVSPropertyOp3
 70
     1
102
RTVSPropertyOp4
 70
     1
102
RTVSPropertyOp5
 70
     1
102
RTVSPropertyOp6
 70
     1
102
RTVSPropertyOp7
 70
     1
102
RTVSPropertyOp8
 70
     1
102
RTVSPropertyOp9
 70
     1
102
RTVSPropertyOp10
 70
     1
102
RTVSPropertyOp11
 70
     1
102
RTVSPropertyOp12
 70
     1
102
RTVSPropertyOp13
 70
     1
102
RTVSPropertyOp14
 70
     1
102
RTVSPropertyOp15
 70
     1
102
RTVSPropertyOp16
 70
     1
102
RTVSPropertyOp17
 70
     1
102
RTVSPropertyOp18
 70
     1
102
RTVSPropertyOp19
 70
     1
102
RTVSPropertyOp20
 70
     1
102
RTVSPropertyOp21
 70
     1
102
RTVSPropertyOp22
 70
     1
102
RTVSPropertyOp23
 70
     1
102
RTVSPropertyOp24
 70
     1
102
RTVSPropertyOp25
 70
     1
102
RTVSPropertyOp26
 70
     1
102
RTVSPropertyOp27
 70
     1
102
RTVSPropertyOp28
 70
     1
102
RTVSPropertyOp29
 70
     1
102
RTVSPropertyOp30
 70
     1
102
RTVSPropertyOp31
 70
     1
102
RTVSPropertyOp32
 70
     1
102
RTVSPropertyOp33
 70
     1
102
RTVSPropertyOp34
 70
     1
102
RTVSPropertyOp35
 70
     1
102
RTVSPropertyOp36
 70
     1
102
RTVSPropertyOp37
 70
     1
102
RTVSPropertyOp38
 70
     1
102
RTVSPropertyOp39
 70
     1
102
RTVSPropertyOp40
 70
     1
102
RTVSPropertyOp41
 70
     1
102
RTVSPropertyOp42
 70
     1
102
RTVSPropertyOp43
 70
     1
102
RTVSPropertyOp44
 70
     1
102
RTVSPropertyOp45
 70
     1
102
RTVSPropertyOp46
 70
     1
102
RTVSPropertyOp47
 70
     1
102
RTVSPropertyOp48
 70
     1
102
RTVSPropertyOp49
 70
     1
102
RTVSPropertyOp50
 70
     1
102
RTVSPropertyOp51
 70
     0
102
RTVSPropertyOp52
 70
     0
102
RTVSPropertyOp53
 70
     1
102
RTVSPropertyOp54
 70
     1
102
RTVSPropertyOp55
 70
     1
102
RTVSPropertyOp56
 70
     1
102
RTVSPropertyOp57
 70
     1
102
RTVSPropertyOp58
 70
     1
102
RTVSPropertyOp59
 70
     1
102
RTVSPropertyOp60
 70
     1
102
RTVSPropertyOp61
 70
     1
102
RTVSPropertyOp62
 70
     1
  0
XRECORD
  5
3C12
102
{ACAD_REACTORS
330
3C11
102
}
330
3C11
100
AcDbXrecord
280
     1
102
RTVSPost2010Prop28
280
     0
102
RTVSPost2010PropOp28
 70
     1
102
RTVSPost2010Prop29
280
     1
102
RTVSPost2010PropOp29
 70
     1
102
RTVSPost2010Prop30
280
     1
102
RTVSPost2010PropOp30
 70
     1
102
RTVSPost2010Prop31
280
     0
102
RTVSPost2010PropOp31
 70
     1
102
RTVSPost2010Prop32
280
     0
102
RTVSPost2010PropOp32
 70
     1
102
RTVSPost2010Prop33
280
     0
102
RTVSPost2010PropOp33
 70
     1
102
RTVSPost2010Prop34
280
     0
102
RTVSPost2010PropOp34
 70
     1
102
RTVSPost2010Prop35
280
     0
102
RTVSPost2010PropOp35
 70
     1
102
RTVSPost2010Prop36
280
     0
102
RTVSPost2010PropOp36
 70
     1
102
RTVSPost2010Prop37
 90
       50
102
RTVSPost2010PropOp37
 70
     1
102
RTVSPost2010Prop38
140
0.0
102
RTVSPost2010PropOp38
 70
     1
102
RTVSPost2010Prop39
140
1.0
102
RTVSPost2010PropOp39
 70
     1
102
RTVSPost2010Prop40
 90
        0
102
RTVSPost2010PropOp40
 70
     1
102
RTVSPost2010Prop41ColorIndex
 90
       18
102
RTVSPost2010Prop41ColorRGB
 90
        0
102
RTVSPost2010PropOp41
 70
     1
102
RTVSPost2010Prop42
 90
       50
102
RTVSPost2010PropOp42
 70
     1
102
RTVSPost2010Prop43
 90
        3
102
RTVSPost2010PropOp43
 70
     1
102
RTVSPost2010Prop44ColorIndex
 90
        5
102
RTVSPost2010Prop44ColorRGB
 90
      255
102
RTVSPost2010PropOp44
 70
     1
102
RTVSPost2010Prop45
280
     0
102
RTVSPost2010PropOp45
 70
     1
102
RTVSPost2010Prop46
 90
       50
102
RTVSPost2010PropOp46
 70
     1
102
RTVSPost2010Prop47
 90
       50
102
RTVSPost2010PropOp47
 70
     1
102
RTVSPost2010Prop48
 90
       50
102
RTVSPost2010PropOp48
 70
     1
102
RTVSPost2010Prop49
280
     0
102
RTVSPost2010PropOp49
 70
     1
102
RTVSPost2010Prop50
 90
       50
102
RTVSPost2010PropOp50
 70
     1
102
RTVSPost2010Prop51ColorIndex
 90
      256
102
RTVSPost2010Prop51ColorRGB
 90
-16777216
102
RTVSPost2010PropOp51
 70
     0
102
RTVSPost2010Prop52
140
1.0
102
RTVSPost2010PropOp52
 70
     0
102
RTVSPost2010Prop53
 90
        2
102
RTVSPost2010PropOp53
 70
     1
102
RTVSPost2010Prop54
  1
strokes_ogs.tif
102
RTVSPost2010PropOp54
 70
     1
102
RTVSPost2010Prop55
280
     0
102
RTVSPost2010PropOp55
 70
     1
102
RTVSPost2010Prop56
140
1.0
102
RTVSPost2010PropOp56
 70
     1
102
RTVSPost2010Prop57
140
1.0
102
RTVSPost2010PropOp57
 70
     1
102
RTVSPropertyOp0
 70
     1
102
RTVSPropertyOp1
 70
     1
102
RTVSPropertyOp2
 70
     1
102
RTVSPropertyOp3
 70
     1
102
RTVSPropertyOp4
 70
     1
102
RTVSPropertyOp5
 70
     1
102
RTVSPropertyOp6
 70
     1
102
RTVSPropertyOp7
 70
     1
102
RTVSPropertyOp8
 70
     1
102
RTVSPropertyOp9
 70
     1
102
RTVSPropertyOp10
 70
     1
102
RTVSPropertyOp11
 70
     1
102
RTVSPropertyOp12
 70
     1
102
RTVSPropertyOp13
 70
     1
102
RTVSPropertyOp14
 70
     1
102
RTVSPropertyOp15
 70
     1
102
RTVSPropertyOp16
 70
     1
102
RTVSPropertyOp17
 70
     1
102
RTVSPropertyOp18
 70
     1
102
RTVSPropertyOp19
 70
     1
102
RTVSPropertyOp20
 70
     1
102
RTVSPropertyOp21
 70
     1
102
RTVSPropertyOp22
 70
     1
102
RTVSPropertyOp23
 70
     1
102
RTVSPropertyOp24
 70
     1
102
RTVSPropertyOp25
 70
     1
102
RTVSPropertyOp26
 70
     1
102
RTVSPropertyOp27
 70
     1
102
RTVSPropertyOp28
 70
     1
102
RTVSPropertyOp29
 70
     1
102
RTVSPropertyOp30
 70
     1
102
RTVSPropertyOp31
 70
     1
102
RTVSPropertyOp32
 70
     1
102
RTVSPropertyOp33
 70
     1
102
RTVSPropertyOp34
 70
     1
102
RTVSPropertyOp35
 70
     1
102
RTVSPropertyOp36
 70
     1
102
RTVSPropertyOp37
 70
     1
102
RTVSPropertyOp38
 70
     1
102
RTVSPropertyOp39
 70
     1
102
RTVSPropertyOp40
 70
     1
102
RTVSPropertyOp41
 70
     1
102
RTVSPropertyOp42
 70
     1
102
RTVSPropertyOp43
 70
     1
102
RTVSPropertyOp44
 70
     1
102
RTVSPropertyOp45
 70
     1
102
RTVSPropertyOp46
 70
     1
102
RTVSPropertyOp47
 70
     1
102
RTVSPropertyOp48
 70
     1
102
RTVSPropertyOp49
 70
     1
102
RTVSPropertyOp50
 70
     1
102
RTVSPropertyOp51
 70
     0
102
RTVSPropertyOp52
 70
     0
102
RTVSPropertyOp53
 70
     1
102
RTVSPropertyOp54
 70
     1
102
RTVSPropertyOp55
 70
     1
102
RTVSPropertyOp56
 70
     1
102
RTVSPropertyOp57
 70
     1
102
RTVSPropertyOp58
 70
     1
102
RTVSPropertyOp59
 70
     1
102
RTVSPropertyOp60
 70
     1
102
RTVSPropertyOp61
 70
     1
102
RTVSPropertyOp62
 70
     1
  0
XRECORD
  5
3C22
102
{ACAD_REACTORS
330
3C21
102
}
330
3C21
100
AcDbXrecord
280
     1
102
RTVSPost2010Prop28
280
     0
102
RTVSPost2010PropOp28
 70
     1
102
RTVSPost2010Prop29
280
     1
102
RTVSPost2010PropOp29
 70
     1
102
RTVSPost2010Prop30
280
     1
102
RTVSPost2010PropOp30
 70
     1
102
RTVSPost2010Prop31
280
     0
102
RTVSPost2010PropOp31
 70
     1
102
RTVSPost2010Prop32
280
     0
102
RTVSPost2010PropOp32
 70
     1
102
RTVSPost2010Prop33
280
     0
102
RTVSPost2010PropOp33
 70
     1
102
RTVSPost2010Prop34
280
     0
102
RTVSPost2010PropOp34
 70
     1
102
RTVSPost2010Prop35
280
     0
102
RTVSPost2010PropOp35
 70
     1
102
RTVSPost2010Prop36
280
     0
102
RTVSPost2010PropOp36
 70
     1
102
RTVSPost2010Prop37
 90
       50
102
RTVSPost2010PropOp37
 70
     1
102
RTVSPost2010Prop38
140
0.0
102
RTVSPost2010PropOp38
 70
     1
102
RTVSPost2010Prop39
140
1.0
102
RTVSPost2010PropOp39
 70
     1
102
RTVSPost2010Prop40
 90
        0
102
RTVSPost2010PropOp40
 70
     1
102
RTVSPost2010Prop41ColorIndex
 90
       18
102
RTVSPost2010Prop41ColorRGB
 90
        0
102
RTVSPost2010PropOp41
 70
     1
102
RTVSPost2010Prop42
 90
       50
102
RTVSPost2010PropOp42
 70
     1
102
RTVSPost2010Prop43
 90
        3
102
RTVSPost2010PropOp43
 70
     1
102
RTVSPost2010Prop44ColorIndex
 90
        5
102
RTVSPost2010Prop44ColorRGB
 90
      255
102
RTVSPost2010PropOp44
 70
     1
102
RTVSPost2010Prop45
280
     0
102
RTVSPost2010PropOp45
 70
     1
102
RTVSPost2010Prop46
 90
       50
102
RTVSPost2010PropOp46
 70
     1
102
RTVSPost2010Prop47
 90
       50
102
RTVSPost2010PropOp47
 70
     1
102
RTVSPost2010Prop48
 90
       50
102
RTVSPost2010PropOp48
 70
     1
102
RTVSPost2010Prop49
280
     0
102
RTVSPost2010PropOp49
 70
     1
102
RTVSPost2010Prop50
 90
       50
102
RTVSPost2010PropOp50
 70
     1
102
RTVSPost2010Prop51ColorIndex
 90
      256
102
RTVSPost2010Prop51ColorRGB
 90
-16777216
102
RTVSPost2010PropOp51
 70
     0
102
RTVSPost2010Prop52
140
1.0
102
RTVSPost2010PropOp52
 70
     0
102
RTVSPost2010Prop53
 90
        2
102
RTVSPost2010PropOp53
 70
     1
102
RTVSPost2010Prop54
  1
strokes_ogs.tif
102
RTVSPost2010PropOp54
 70
     1
102
RTVSPost2010Prop55
280
     0
102
RTVSPost2010PropOp55
 70
     1
102
RTVSPost2010Prop56
140
1.0
102
RTVSPost2010PropOp56
 70
     1
102
RTVSPost2010Prop57
140
1.0
102
RTVSPost2010PropOp57
 70
     1
102
RTVSPropertyOp0
 70
     0
102
RTVSPropertyOp1
 70
     0
102
RTVSPropertyOp2
 70
     0
102
RTVSPropertyOp3
 70
     0
102
RTVSPropertyOp4
 70
     0
102
RTVSPropertyOp5
 70
     0
102
RTVSPropertyOp6
 70
     0
102
RTVSPropertyOp7
 70
     0
102
RTVSPropertyOp8
 70
     0
102
RTVSPropertyOp9
 70
     0
102
RTVSPropertyOp10
 70
     0
102
RTVSPropertyOp11
 70
     0
102
RTVSPropertyOp12
 70
     0
102
RTVSPropertyOp13
 70
     0
102
RTVSPropertyOp14
 70
     2
102
RTVSPropertyOp15
 70
     0
102
RTVSPropertyOp16
 70
     0
102
RTVSPropertyOp17
 70
     0
102
RTVSPropertyOp18
 70
     0
102
RTVSPropertyOp19
 70
     0
102
RTVSPropertyOp20
 70
     0
102
RTVSPropertyOp21
 70
     0
102
RTVSPropertyOp22
 70
     0
102
RTVSPropertyOp23
 70
     0
102
RTVSPropertyOp24
 70
     0
102
RTVSPropertyOp25
 70
     0
102
RTVSPropertyOp26
 70
     0
102
RTVSPropertyOp27
 70
     0
102
RTVSPropertyOp28
 70
     1
102
RTVSPropertyOp29
 70
     1
102
RTVSPropertyOp30
 70
     1
102
RTVSPropertyOp31
 70
     1
102
RTVSPropertyOp32
 70
     1
102
RTVSPropertyOp33
 70
     1
102
RTVSPropertyOp34
 70
     1
102
RTVSPropertyOp35
 70
     1
102
RTVSPropertyOp36
 70
     1
102
RTVSPropertyOp37
 70
     1
102
RTVSPropertyOp38
 70
     1
102
RTVSPropertyOp39
 70
     1
102
RTVSPropertyOp40
 70
     1
102
RTVSPropertyOp41
 70
     1
102
RTVSPropertyOp42
 70
     1
102
RTVSPropertyOp43
 70
     1
102
RTVSPropertyOp44
 70
     1
102
RTVSPropertyOp45
 70
     1
102
RTVSPropertyOp46
 70
     1
102
RTVSPropertyOp47
 70
     1
102
RTVSPropertyOp48
 70
     1
102
RTVSPropertyOp49
 70
     1
102
RTVSPropertyOp50
 70
     1
102
RTVSPropertyOp51
 70
     0
102
RTVSPropertyOp52
 70
     0
102
RTVSPropertyOp53
 70
     1
102
RTVSPropertyOp54
 70
     1
102
RTVSPropertyOp55
 70
     1
102
RTVSPropertyOp56
 70
     1
102
RTVSPropertyOp57
 70
     1
102
RTVSPropertyOp58
 70
     1
102
RTVSPropertyOp59
 70
     1
102
RTVSPropertyOp60
 70
     1
102
RTVSPropertyOp61
 70
     1
102
RTVSPropertyOp62
 70
     1
  0
XRECORD
  5
3C1A
102
{ACAD_REACTORS
330
3C19
102
}
330
3C19
100
AcDbXrecord
280
     1
102
RTVSPost2010Prop28
280
     0
102
RTVSPost2010PropOp28
 70
     1
102
RTVSPost2010Prop29
280
     1
102
RTVSPost2010PropOp29
 70
     1
102
RTVSPost2010Prop30
280
     1
102
RTVSPost2010PropOp30
 70
     1
102
RTVSPost2010Prop31
280
     0
102
RTVSPost2010PropOp31
 70
     1
102
RTVSPost2010Prop32
280
     0
102
RTVSPost2010PropOp32
 70
     1
102
RTVSPost2010Prop33
280
     0
102
RTVSPost2010PropOp33
 70
     1
102
RTVSPost2010Prop34
280
     0
102
RTVSPost2010PropOp34
 70
     1
102
RTVSPost2010Prop35
280
     0
102
RTVSPost2010PropOp35
 70
     1
102
RTVSPost2010Prop36
280
     0
102
RTVSPost2010PropOp36
 70
     1
102
RTVSPost2010Prop37
 90
       50
102
RTVSPost2010PropOp37
 70
     1
102
RTVSPost2010Prop38
140
0.0
102
RTVSPost2010PropOp38
 70
     1
102
RTVSPost2010Prop39
140
1.0
102
RTVSPost2010PropOp39
 70
     1
102
RTVSPost2010Prop40
 90
        0
102
RTVSPost2010PropOp40
 70
     1
102
RTVSPost2010Prop41ColorIndex
 90
       18
102
RTVSPost2010Prop41ColorRGB
 90
        0
102
RTVSPost2010PropOp41
 70
     1
102
RTVSPost2010Prop42
 90
       50
102
RTVSPost2010PropOp42
 70
     1
102
RTVSPost2010Prop43
 90
        3
102
RTVSPost2010PropOp43
 70
     1
102
RTVSPost2010Prop44ColorIndex
 90
        5
102
RTVSPost2010Prop44ColorRGB
 90
      255
102
RTVSPost2010PropOp44
 70
     1
102
RTVSPost2010Prop45
280
     0
102
RTVSPost2010PropOp45
 70
     1
102
RTVSPost2010Prop46
 90
       50
102
RTVSPost2010PropOp46
 70
     1
102
RTVSPost2010Prop47
 90
       50
102
RTVSPost2010PropOp47
 70
     1
102
RTVSPost2010Prop48
 90
       50
102
RTVSPost2010PropOp48
 70
     1
102
RTVSPost2010Prop49
280
     0
102
RTVSPost2010PropOp49
 70
     1
102
RTVSPost2010Prop50
 90
       50
102
RTVSPost2010PropOp50
 70
     1
102
RTVSPost2010Prop51ColorIndex
 90
      256
102
RTVSPost2010Prop51ColorRGB
 90
-16777216
102
RTVSPost2010PropOp51
 70
     0
102
RTVSPost2010Prop52
140
1.0
102
RTVSPost2010PropOp52
 70
     0
102
RTVSPost2010Prop53
 90
        2
102
RTVSPost2010PropOp53
 70
     1
102
RTVSPost2010Prop54
  1
strokes_ogs.tif
102
RTVSPost2010PropOp54
 70
     1
102
RTVSPost2010Prop55
280
     0
102
RTVSPost2010PropOp55
 70
     1
102
RTVSPost2010Prop56
140
1.0
102
RTVSPost2010PropOp56
 70
     1
102
RTVSPost2010Prop57
140
1.0
102
RTVSPost2010PropOp57
 70
     1
102
RTVSPropertyOp0
 70
     1
102
RTVSPropertyOp1
 70
     1
102
RTVSPropertyOp2
 70
     1
102
RTVSPropertyOp3
 70
     1
102
RTVSPropertyOp4
 70
     1
102
RTVSPropertyOp5
 70
     1
102
RTVSPropertyOp6
 70
     1
102
RTVSPropertyOp7
 70
     1
102
RTVSPropertyOp8
 70
     1
102
RTVSPropertyOp9
 70
     1
102
RTVSPropertyOp10
 70
     1
102
RTVSPropertyOp11
 70
     1
102
RTVSPropertyOp12
 70
     1
102
RTVSPropertyOp13
 70
     1
102
RTVSPropertyOp14
 70
     1
102
RTVSPropertyOp15
 70
     1
102
RTVSPropertyOp16
 70
     1
102
RTVSPropertyOp17
 70
     1
102
RTVSPropertyOp18
 70
     1
102
RTVSPropertyOp19
 70
     1
102
RTVSPropertyOp20
 70
     1
102
RTVSPropertyOp21
 70
     1
102
RTVSPropertyOp22
 70
     1
102
RTVSPropertyOp23
 70
     1
102
RTVSPropertyOp24
 70
     1
102
RTVSPropertyOp25
 70
     1
102
RTVSPropertyOp26
 70
     1
102
RTVSPropertyOp27
 70
     1
102
RTVSPropertyOp28
 70
     1
102
RTVSPropertyOp29
 70
     1
102
RTVSPropertyOp30
 70
     1
102
RTVSPropertyOp31
 70
     1
102
RTVSPropertyOp32
 70
     1
102
RTVSPropertyOp33
 70
     1
102
RTVSPropertyOp34
 70
     1
102
RTVSPropertyOp35
 70
     1
102
RTVSPropertyOp36
 70
     1
102
RTVSPropertyOp37
 70
     1
102
RTVSPropertyOp38
 70
     1
102
RTVSPropertyOp39
 70
     1
102
RTVSPropertyOp40
 70
     1
102
RTVSPropertyOp41
 70
     1
102
RTVSPropertyOp42
 70
     1
102
RTVSPropertyOp43
 70
     1
102
RTVSPropertyOp44
 70
     1
102
RTVSPropertyOp45
 70
     1
102
RTVSPropertyOp46
 70
     1
102
RTVSPropertyOp47
 70
     1
102
RTVSPropertyOp48
 70
     1
102
RTVSPropertyOp49
 70
     1
102
RTVSPropertyOp50
 70
     1
102
RTVSPropertyOp51
 70
     0
102
RTVSPropertyOp52
 70
     0
102
RTVSPropertyOp53
 70
     1
102
RTVSPropertyOp54
 70
     1
102
RTVSPropertyOp55
 70
     1
102
RTVSPropertyOp56
 70
     1
102
RTVSPropertyOp57
 70
     1
102
RTVSPropertyOp58
 70
     1
102
RTVSPropertyOp59
 70
     1
102
RTVSPropertyOp60
 70
     1
102
RTVSPropertyOp61
 70
     1
102
RTVSPropertyOp62
 70
     1
  0
XRECORD
  5
3BFE
102
{ACAD_REACTORS
330
3BFD
102
}
330
3BFD
100
AcDbXrecord
280
     1
102
RTVSPost2010Prop28
280
     0
102
RTVSPost2010PropOp28
 70
     1
102
RTVSPost2010Prop29
280
     1
102
RTVSPost2010PropOp29
 70
     1
102
RTVSPost2010Prop30
280
     1
102
RTVSPost2010PropOp30
 70
     1
102
RTVSPost2010Prop31
280
     0
102
RTVSPost2010PropOp31
 70
     1
102
RTVSPost2010Prop32
280
     0
102
RTVSPost2010PropOp32
 70
     1
102
RTVSPost2010Prop33
280
     0
102
RTVSPost2010PropOp33
 70
     1
102
RTVSPost2010Prop34
280
     0
102
RTVSPost2010PropOp34
 70
     1
102
RTVSPost2010Prop35
280
     0
102
RTVSPost2010PropOp35
 70
     1
102
RTVSPost2010Prop36
280
     0
102
RTVSPost2010PropOp36
 70
     1
102
RTVSPost2010Prop37
 90
       50
102
RTVSPost2010PropOp37
 70
     1
102
RTVSPost2010Prop38
140
0.0
102
RTVSPost2010PropOp38
 70
     1
102
RTVSPost2010Prop39
140
1.0
102
RTVSPost2010PropOp39
 70
     1
102
RTVSPost2010Prop40
 90
        0
102
RTVSPost2010PropOp40
 70
     1
102
RTVSPost2010Prop41ColorIndex
 90
       18
102
RTVSPost2010Prop41ColorRGB
 90
        0
102
RTVSPost2010PropOp41
 70
     1
102
RTVSPost2010Prop42
 90
       50
102
RTVSPost2010PropOp42
 70
     1
102
RTVSPost2010Prop43
 90
        3
102
RTVSPost2010PropOp43
 70
     1
102
RTVSPost2010Prop44ColorIndex
 90
        5
102
RTVSPost2010Prop44ColorRGB
 90
      255
102
RTVSPost2010PropOp44
 70
     1
102
RTVSPost2010Prop45
280
     0
102
RTVSPost2010PropOp45
 70
     1
102
RTVSPost2010Prop46
 90
       50
102
RTVSPost2010PropOp46
 70
     1
102
RTVSPost2010Prop47
 90
       50
102
RTVSPost2010PropOp47
 70
     1
102
RTVSPost2010Prop48
 90
       50
102
RTVSPost2010PropOp48
 70
     1
102
RTVSPost2010Prop49
280
     0
102
RTVSPost2010PropOp49
 70
     1
102
RTVSPost2010Prop50
 90
       50
102
RTVSPost2010PropOp50
 70
     1
102
RTVSPost2010Prop51ColorIndex
 90
      256
102
RTVSPost2010Prop51ColorRGB
 90
-16777216
102
RTVSPost2010PropOp51
 70
     0
102
RTVSPost2010Prop52
140
1.0
102
RTVSPost2010PropOp52
 70
     0
102
RTVSPost2010Prop53
 90
        2
102
RTVSPost2010PropOp53
 70
     1
102
RTVSPost2010Prop54
  1
strokes_ogs.tif
102
RTVSPost2010PropOp54
 70
     1
102
RTVSPost2010Prop55
280
     0
102
RTVSPost2010PropOp55
 70
     1
102
RTVSPost2010Prop56
140
1.0
102
RTVSPost2010PropOp56
 70
     1
102
RTVSPost2010Prop57
140
1.0
102
RTVSPost2010PropOp57
 70
     1
102
RTVSPropertyOp0
 70
     1
102
RTVSPropertyOp1
 70
     1
102
RTVSPropertyOp2
 70
     1
102
RTVSPropertyOp3
 70
     1
102
RTVSPropertyOp4
 70
     1
102
RTVSPropertyOp5
 70
     1
102
RTVSPropertyOp6
 70
     1
102
RTVSPropertyOp7
 70
     1
102
RTVSPropertyOp8
 70
     1
102
RTVSPropertyOp9
 70
     1
102
RTVSPropertyOp10
 70
     1
102
RTVSPropertyOp11
 70
     1
102
RTVSPropertyOp12
 70
     1
102
RTVSPropertyOp13
 70
     1
102
RTVSPropertyOp14
 70
     1
102
RTVSPropertyOp15
 70
     1
102
RTVSPropertyOp16
 70
     1
102
RTVSPropertyOp17
 70
     1
102
RTVSPropertyOp18
 70
     1
102
RTVSPropertyOp19
 70
     1
102
RTVSPropertyOp20
 70
     1
102
RTVSPropertyOp21
 70
     1
102
RTVSPropertyOp22
 70
     1
102
RTVSPropertyOp23
 70
     1
102
RTVSPropertyOp24
 70
     1
102
RTVSPropertyOp25
 70
     1
102
RTVSPropertyOp26
 70
     1
102
RTVSPropertyOp27
 70
     1
102
RTVSPropertyOp28
 70
     1
102
RTVSPropertyOp29
 70
     1
102
RTVSPropertyOp30
 70
     1
102
RTVSPropertyOp31
 70
     1
102
RTVSPropertyOp32
 70
     1
102
RTVSPropertyOp33
 70
     1
102
RTVSPropertyOp34
 70
     1
102
RTVSPropertyOp35
 70
     1
102
RTVSPropertyOp36
 70
     1
102
RTVSPropertyOp37
 70
     1
102
RTVSPropertyOp38
 70
     1
102
RTVSPropertyOp39
 70
     1
102
RTVSPropertyOp40
 70
     1
102
RTVSPropertyOp41
 70
     1
102
RTVSPropertyOp42
 70
     1
102
RTVSPropertyOp43
 70
     1
102
RTVSPropertyOp44
 70
     1
102
RTVSPropertyOp45
 70
     1
102
RTVSPropertyOp46
 70
     1
102
RTVSPropertyOp47
 70
     1
102
RTVSPropertyOp48
 70
     1
102
RTVSPropertyOp49
 70
     1
102
RTVSPropertyOp50
 70
     1
102
RTVSPropertyOp51
 70
     0
102
RTVSPropertyOp52
 70
     0
102
RTVSPropertyOp53
 70
     1
102
RTVSPropertyOp54
 70
     1
102
RTVSPropertyOp55
 70
     1
102
RTVSPropertyOp56
 70
     1
102
RTVSPropertyOp57
 70
     1
102
RTVSPropertyOp58
 70
     1
102
RTVSPropertyOp59
 70
     1
102
RTVSPropertyOp60
 70
     1
102
RTVSPropertyOp61
 70
     1
102
RTVSPropertyOp62
 70
     1
  0
XRECORD
  5
3C00
102
{ACAD_REACTORS
330
3BFF
102
}
330
3BFF
100
AcDbXrecord
280
     1
102
RTVSPost2010Prop28
280
     0
102
RTVSPost2010PropOp28
 70
     1
102
RTVSPost2010Prop29
280
     1
102
RTVSPost2010PropOp29
 70
     1
102
RTVSPost2010Prop30
280
     1
102
RTVSPost2010PropOp30
 70
     1
102
RTVSPost2010Prop31
280
     0
102
RTVSPost2010PropOp31
 70
     1
102
RTVSPost2010Prop32
280
     0
102
RTVSPost2010PropOp32
 70
     1
102
RTVSPost2010Prop33
280
     0
102
RTVSPost2010PropOp33
 70
     1
102
RTVSPost2010Prop34
280
     0
102
RTVSPost2010PropOp34
 70
     1
102
RTVSPost2010Prop35
280
     0
102
RTVSPost2010PropOp35
 70
     1
102
RTVSPost2010Prop36
280
     0
102
RTVSPost2010PropOp36
 70
     1
102
RTVSPost2010Prop37
 90
       50
102
RTVSPost2010PropOp37
 70
     1
102
RTVSPost2010Prop38
140
0.0
102
RTVSPost2010PropOp38
 70
     1
102
RTVSPost2010Prop39
140
1.0
102
RTVSPost2010PropOp39
 70
     1
102
RTVSPost2010Prop40
 90
        0
102
RTVSPost2010PropOp40
 70
     1
102
RTVSPost2010Prop41ColorIndex
 90
       18
102
RTVSPost2010Prop41ColorRGB
 90
        0
102
RTVSPost2010PropOp41
 70
     1
102
RTVSPost2010Prop42
 90
       50
102
RTVSPost2010PropOp42
 70
     1
102
RTVSPost2010Prop43
 90
        3
102
RTVSPost2010PropOp43
 70
     1
102
RTVSPost2010Prop44ColorIndex
 90
        5
102
RTVSPost2010Prop44ColorRGB
 90
      255
102
RTVSPost2010PropOp44
 70
     1
102
RTVSPost2010Prop45
280
     0
102
RTVSPost2010PropOp45
 70
     1
102
RTVSPost2010Prop46
 90
       50
102
RTVSPost2010PropOp46
 70
     1
102
RTVSPost2010Prop47
 90
       50
102
RTVSPost2010PropOp47
 70
     1
102
RTVSPost2010Prop48
 90
       50
102
RTVSPost2010PropOp48
 70
     1
102
RTVSPost2010Prop49
280
     0
102
RTVSPost2010PropOp49
 70
     1
102
RTVSPost2010Prop50
 90
       50
102
RTVSPost2010PropOp50
 70
     1
102
RTVSPost2010Prop51ColorIndex
 90
      256
102
RTVSPost2010Prop51ColorRGB
 90
-16777216
102
RTVSPost2010PropOp51
 70
     0
102
RTVSPost2010Prop52
140
1.0
102
RTVSPost2010PropOp52
 70
     0
102
RTVSPost2010Prop53
 90
        2
102
RTVSPost2010PropOp53
 70
     1
102
RTVSPost2010Prop54
  1
strokes_ogs.tif
102
RTVSPost2010PropOp54
 70
     1
102
RTVSPost2010Prop55
280
     0
102
RTVSPost2010PropOp55
 70
     1
102
RTVSPost2010Prop56
140
1.0
102
RTVSPost2010PropOp56
 70
     1
102
RTVSPost2010Prop57
140
1.0
102
RTVSPost2010PropOp57
 70
     1
102
RTVSPropertyOp0
 70
     1
102
RTVSPropertyOp1
 70
     1
102
RTVSPropertyOp2
 70
     1
102
RTVSPropertyOp3
 70
     1
102
RTVSPropertyOp4
 70
     1
102
RTVSPropertyOp5
 70
     1
102
RTVSPropertyOp6
 70
     1
102
RTVSPropertyOp7
 70
     1
102
RTVSPropertyOp8
 70
     1
102
RTVSPropertyOp9
 70
     1
102
RTVSPropertyOp10
 70
     1
102
RTVSPropertyOp11
 70
     1
102
RTVSPropertyOp12
 70
     1
102
RTVSPropertyOp13
 70
     1
102
RTVSPropertyOp14
 70
     1
102
RTVSPropertyOp15
 70
     1
102
RTVSPropertyOp16
 70
     1
102
RTVSPropertyOp17
 70
     1
102
RTVSPropertyOp18
 70
     1
102
RTVSPropertyOp19
 70
     1
102
RTVSPropertyOp20
 70
     1
102
RTVSPropertyOp21
 70
     1
102
RTVSPropertyOp22
 70
     1
102
RTVSPropertyOp23
 70
     1
102
RTVSPropertyOp24
 70
     1
102
RTVSPropertyOp25
 70
     1
102
RTVSPropertyOp26
 70
     1
102
RTVSPropertyOp27
 70
     1
102
RTVSPropertyOp28
 70
     1
102
RTVSPropertyOp29
 70
     1
102
RTVSPropertyOp30
 70
     1
102
RTVSPropertyOp31
 70
     1
102
RTVSPropertyOp32
 70
     1
102
RTVSPropertyOp33
 70
     1
102
RTVSPropertyOp34
 70
     1
102
RTVSPropertyOp35
 70
     1
102
RTVSPropertyOp36
 70
     1
102
RTVSPropertyOp37
 70
     1
102
RTVSPropertyOp38
 70
     1
102
RTVSPropertyOp39
 70
     1
102
RTVSPropertyOp40
 70
     1
102
RTVSPropertyOp41
 70
     1
102
RTVSPropertyOp42
 70
     1
102
RTVSPropertyOp43
 70
     1
102
RTVSPropertyOp44
 70
     1
102
RTVSPropertyOp45
 70
     1
102
RTVSPropertyOp46
 70
     1
102
RTVSPropertyOp47
 70
     1
102
RTVSPropertyOp48
 70
     1
102
RTVSPropertyOp49
 70
     1
102
RTVSPropertyOp50
 70
     1
102
RTVSPropertyOp51
 70
     0
102
RTVSPropertyOp52
 70
     0
102
RTVSPropertyOp53
 70
     1
102
RTVSPropertyOp54
 70
     1
102
RTVSPropertyOp55
 70
     1
102
RTVSPropertyOp56
 70
     1
102
RTVSPropertyOp57
 70
     1
102
RTVSPropertyOp58
 70
     1
102
RTVSPropertyOp59
 70
     1
102
RTVSPropertyOp60
 70
     1
102
RTVSPropertyOp61
 70
     1
102
RTVSPropertyOp62
 70
     1
  0
XRECORD
  5
3C02
102
{ACAD_REACTORS
330
3C01
102
}
330
3C01
100
AcDbXrecord
280
     1
102
RTVSPost2010Prop28
280
     0
102
RTVSPost2010PropOp28
 70
     1
102
RTVSPost2010Prop29
280
     1
102
RTVSPost2010PropOp29
 70
     1
102
RTVSPost2010Prop30
280
     1
102
RTVSPost2010PropOp30
 70
     1
102
RTVSPost2010Prop31
280
     0
102
RTVSPost2010PropOp31
 70
     1
102
RTVSPost2010Prop32
280
     0
102
RTVSPost2010PropOp32
 70
     1
102
RTVSPost2010Prop33
280
     0
102
RTVSPost2010PropOp33
 70
     1
102
RTVSPost2010Prop34
280
     0
102
RTVSPost2010PropOp34
 70
     1
102
RTVSPost2010Prop35
280
     0
102
RTVSPost2010PropOp35
 70
     1
102
RTVSPost2010Prop36
280
     0
102
RTVSPost2010PropOp36
 70
     1
102
RTVSPost2010Prop37
 90
       50
102
RTVSPost2010PropOp37
 70
     1
102
RTVSPost2010Prop38
140
0.0
102
RTVSPost2010PropOp38
 70
     1
102
RTVSPost2010Prop39
140
1.0
102
RTVSPost2010PropOp39
 70
     1
102
RTVSPost2010Prop40
 90
        0
102
RTVSPost2010PropOp40
 70
     1
102
RTVSPost2010Prop41ColorIndex
 90
       18
102
RTVSPost2010Prop41ColorRGB
 90
        0
102
RTVSPost2010PropOp41
 70
     1
102
RTVSPost2010Prop42
 90
       50
102
RTVSPost2010PropOp42
 70
     1
102
RTVSPost2010Prop43
 90
        3
102
RTVSPost2010PropOp43
 70
     1
102
RTVSPost2010Prop44ColorIndex
 90
        5
102
RTVSPost2010Prop44ColorRGB
 90
      255
102
RTVSPost2010PropOp44
 70
     1
102
RTVSPost2010Prop45
280
     0
102
RTVSPost2010PropOp45
 70
     1
102
RTVSPost2010Prop46
 90
       50
102
RTVSPost2010PropOp46
 70
     1
102
RTVSPost2010Prop47
 90
       50
102
RTVSPost2010PropOp47
 70
     1
102
RTVSPost2010Prop48
 90
       50
102
RTVSPost2010PropOp48
 70
     1
102
RTVSPost2010Prop49
280
     0
102
RTVSPost2010PropOp49
 70
     1
102
RTVSPost2010Prop50
 90
       50
102
RTVSPost2010PropOp50
 70
     1
102
RTVSPost2010Prop51ColorIndex
 90
      256
102
RTVSPost2010Prop51ColorRGB
 90
-16777216
102
RTVSPost2010PropOp51
 70
     0
102
RTVSPost2010Prop52
140
1.0
102
RTVSPost2010PropOp52
 70
     0
102
RTVSPost2010Prop53
 90
        2
102
RTVSPost2010PropOp53
 70
     1
102
RTVSPost2010Prop54
  1
strokes_ogs.tif
102
RTVSPost2010PropOp54
 70
     1
102
RTVSPost2010Prop55
280
     0
102
RTVSPost2010PropOp55
 70
     1
102
RTVSPost2010Prop56
140
1.0
102
RTVSPost2010PropOp56
 70
     1
102
RTVSPost2010Prop57
140
1.0
102
RTVSPost2010PropOp57
 70
     1
102
RTVSPropertyOp0
 70
     1
102
RTVSPropertyOp1
 70
     1
102
RTVSPropertyOp2
 70
     1
102
RTVSPropertyOp3
 70
     1
102
RTVSPropertyOp4
 70
     1
102
RTVSPropertyOp5
 70
     1
102
RTVSPropertyOp6
 70
     1
102
RTVSPropertyOp7
 70
     1
102
RTVSPropertyOp8
 70
     1
102
RTVSPropertyOp9
 70
     1
102
RTVSPropertyOp10
 70
     1
102
RTVSPropertyOp11
 70
     1
102
RTVSPropertyOp12
 70
     1
102
RTVSPropertyOp13
 70
     1
102
RTVSPropertyOp14
 70
     1
102
RTVSPropertyOp15
 70
     1
102
RTVSPropertyOp16
 70
     1
102
RTVSPropertyOp17
 70
     1
102
RTVSPropertyOp18
 70
     1
102
RTVSPropertyOp19
 70
     1
102
RTVSPropertyOp20
 70
     1
102
RTVSPropertyOp21
 70
     1
102
RTVSPropertyOp22
 70
     1
102
RTVSPropertyOp23
 70
     1
102
RTVSPropertyOp24
 70
     1
102
RTVSPropertyOp25
 70
     1
102
RTVSPropertyOp26
 70
     1
102
RTVSPropertyOp27
 70
     1
102
RTVSPropertyOp28
 70
     1
102
RTVSPropertyOp29
 70
     1
102
RTVSPropertyOp30
 70
     1
102
RTVSPropertyOp31
 70
     1
102
RTVSPropertyOp32
 70
     1
102
RTVSPropertyOp33
 70
     1
102
RTVSPropertyOp34
 70
     1
102
RTVSPropertyOp35
 70
     1
102
RTVSPropertyOp36
 70
     1
102
RTVSPropertyOp37
 70
     1
102
RTVSPropertyOp38
 70
     1
102
RTVSPropertyOp39
 70
     1
102
RTVSPropertyOp40
 70
     1
102
RTVSPropertyOp41
 70
     1
102
RTVSPropertyOp42
 70
     1
102
RTVSPropertyOp43
 70
     1
102
RTVSPropertyOp44
 70
     1
102
RTVSPropertyOp45
 70
     1
102
RTVSPropertyOp46
 70
     1
102
RTVSPropertyOp47
 70
     1
102
RTVSPropertyOp48
 70
     1
102
RTVSPropertyOp49
 70
     1
102
RTVSPropertyOp50
 70
     1
102
RTVSPropertyOp51
 70
     0
102
RTVSPropertyOp52
 70
     0
102
RTVSPropertyOp53
 70
     1
102
RTVSPropertyOp54
 70
     1
102
RTVSPropertyOp55
 70
     1
102
RTVSPropertyOp56
 70
     1
102
RTVSPropertyOp57
 70
     1
102
RTVSPropertyOp58
 70
     1
102
RTVSPropertyOp59
 70
     1
102
RTVSPropertyOp60
 70
     1
102
RTVSPropertyOp61
 70
     1
102
RTVSPropertyOp62
 70
     1
  0
XRECORD
  5
3C04
102
{ACAD_REACTORS
330
3C03
102
}
330
3C03
100
AcDbXrecord
280
     1
102
RTVSPost2010Prop28
280
     0
102
RTVSPost2010PropOp28
 70
     1
102
RTVSPost2010Prop29
280
     1
102
RTVSPost2010PropOp29
 70
     1
102
RTVSPost2010Prop30
280
     1
102
RTVSPost2010PropOp30
 70
     1
102
RTVSPost2010Prop31
280
     0
102
RTVSPost2010PropOp31
 70
     1
102
RTVSPost2010Prop32
280
     0
102
RTVSPost2010PropOp32
 70
     1
102
RTVSPost2010Prop33
280
     0
102
RTVSPost2010PropOp33
 70
     1
102
RTVSPost2010Prop34
280
     0
102
RTVSPost2010PropOp34
 70
     1
102
RTVSPost2010Prop35
280
     0
102
RTVSPost2010PropOp35
 70
     1
102
RTVSPost2010Prop36
280
     0
102
RTVSPost2010PropOp36
 70
     1
102
RTVSPost2010Prop37
 90
       50
102
RTVSPost2010PropOp37
 70
     1
102
RTVSPost2010Prop38
140
0.0
102
RTVSPost2010PropOp38
 70
     1
102
RTVSPost2010Prop39
140
1.0
102
RTVSPost2010PropOp39
 70
     1
102
RTVSPost2010Prop40
 90
        0
102
RTVSPost2010PropOp40
 70
     1
102
RTVSPost2010Prop41ColorIndex
 90
       18
102
RTVSPost2010Prop41ColorRGB
 90
        0
102
RTVSPost2010PropOp41
 70
     1
102
RTVSPost2010Prop42
 90
       50
102
RTVSPost2010PropOp42
 70
     1
102
RTVSPost2010Prop43
 90
        3
102
RTVSPost2010PropOp43
 70
     1
102
RTVSPost2010Prop44ColorIndex
 90
        5
102
RTVSPost2010Prop44ColorRGB
 90
      255
102
RTVSPost2010PropOp44
 70
     1
102
RTVSPost2010Prop45
280
     0
102
RTVSPost2010PropOp45
 70
     1
102
RTVSPost2010Prop46
 90
       50
102
RTVSPost2010PropOp46
 70
     1
102
RTVSPost2010Prop47
 90
       50
102
RTVSPost2010PropOp47
 70
     1
102
RTVSPost2010Prop48
 90
       50
102
RTVSPost2010PropOp48
 70
     1
102
RTVSPost2010Prop49
280
     0
102
RTVSPost2010PropOp49
 70
     1
102
RTVSPost2010Prop50
 90
       50
102
RTVSPost2010PropOp50
 70
     1
102
RTVSPost2010Prop51ColorIndex
 90
      256
102
RTVSPost2010Prop51ColorRGB
 90
-16777216
102
RTVSPost2010PropOp51
 70
     0
102
RTVSPost2010Prop52
140
1.0
102
RTVSPost2010PropOp52
 70
     0
102
RTVSPost2010Prop53
 90
        2
102
RTVSPost2010PropOp53
 70
     1
102
RTVSPost2010Prop54
  1
strokes_ogs.tif
102
RTVSPost2010PropOp54
 70
     1
102
RTVSPost2010Prop55
280
     0
102
RTVSPost2010PropOp55
 70
     1
102
RTVSPost2010Prop56
140
1.0
102
RTVSPost2010PropOp56
 70
     1
102
RTVSPost2010Prop57
140
1.0
102
RTVSPost2010PropOp57
 70
     1
102
RTVSPropertyOp0
 70
     1
102
RTVSPropertyOp1
 70
     1
102
RTVSPropertyOp2
 70
     1
102
RTVSPropertyOp3
 70
     1
102
RTVSPropertyOp4
 70
     1
102
RTVSPropertyOp5
 70
     1
102
RTVSPropertyOp6
 70
     1
102
RTVSPropertyOp7
 70
     1
102
RTVSPropertyOp8
 70
     1
102
RTVSPropertyOp9
 70
     1
102
RTVSPropertyOp10
 70
     1
102
RTVSPropertyOp11
 70
     1
102
RTVSPropertyOp12
 70
     1
102
RTVSPropertyOp13
 70
     1
102
RTVSPropertyOp14
 70
     1
102
RTVSPropertyOp15
 70
     1
102
RTVSPropertyOp16
 70
     1
102
RTVSPropertyOp17
 70
     1
102
RTVSPropertyOp18
 70
     1
102
RTVSPropertyOp19
 70
     1
102
RTVSPropertyOp20
 70
     1
102
RTVSPropertyOp21
 70
     1
102
RTVSPropertyOp22
 70
     1
102
RTVSPropertyOp23
 70
     1
102
RTVSPropertyOp24
 70
     1
102
RTVSPropertyOp25
 70
     1
102
RTVSPropertyOp26
 70
     1
102
RTVSPropertyOp27
 70
     1
102
RTVSPropertyOp28
 70
     1
102
RTVSPropertyOp29
 70
     1
102
RTVSPropertyOp30
 70
     1
102
RTVSPropertyOp31
 70
     1
102
RTVSPropertyOp32
 70
     1
102
RTVSPropertyOp33
 70
     1
102
RTVSPropertyOp34
 70
     1
102
RTVSPropertyOp35
 70
     1
102
RTVSPropertyOp36
 70
     1
102
RTVSPropertyOp37
 70
     1
102
RTVSPropertyOp38
 70
     1
102
RTVSPropertyOp39
 70
     1
102
RTVSPropertyOp40
 70
     1
102
RTVSPropertyOp41
 70
     1
102
RTVSPropertyOp42
 70
     1
102
RTVSPropertyOp43
 70
     1
102
RTVSPropertyOp44
 70
     1
102
RTVSPropertyOp45
 70
     1
102
RTVSPropertyOp46
 70
     1
102
RTVSPropertyOp47
 70
     1
102
RTVSPropertyOp48
 70
     1
102
RTVSPropertyOp49
 70
     1
102
RTVSPropertyOp50
 70
     1
102
RTVSPropertyOp51
 70
     0
102
RTVSPropertyOp52
 70
     0
102
RTVSPropertyOp53
 70
     1
102
RTVSPropertyOp54
 70
     1
102
RTVSPropertyOp55
 70
     1
102
RTVSPropertyOp56
 70
     1
102
RTVSPropertyOp57
 70
     1
102
RTVSPropertyOp58
 70
     1
102
RTVSPropertyOp59
 70
     1
102
RTVSPropertyOp60
 70
     1
102
RTVSPropertyOp61
 70
     1
102
RTVSPropertyOp62
 70
     1
  0
XRECORD
  5
3C47
102
{ACAD_REACTORS
330
3C46
102
}
330
3C46
100
AcDbXrecord
280
     1
102
RTVSPost2010Prop28
280
     0
102
RTVSPost2010PropOp28
 70
     1
102
RTVSPost2010Prop29
280
     1
102
RTVSPost2010PropOp29
 70
     1
102
RTVSPost2010Prop30
280
     1
102
RTVSPost2010PropOp30
 70
     1
102
RTVSPost2010Prop31
280
     0
102
RTVSPost2010PropOp31
 70
     1
102
RTVSPost2010Prop32
280
     0
102
RTVSPost2010PropOp32
 70
     1
102
RTVSPost2010Prop33
280
     0
102
RTVSPost2010PropOp33
 70
     1
102
RTVSPost2010Prop34
280
     0
102
RTVSPost2010PropOp34
 70
     1
102
RTVSPost2010Prop35
280
     0
102
RTVSPost2010PropOp35
 70
     1
102
RTVSPost2010Prop36
280
     0
102
RTVSPost2010PropOp36
 70
     1
102
RTVSPost2010Prop37
 90
       50
102
RTVSPost2010PropOp37
 70
     1
102
RTVSPost2010Prop38
140
0.0
102
RTVSPost2010PropOp38
 70
     1
102
RTVSPost2010Prop39
140
1.0
102
RTVSPost2010PropOp39
 70
     1
102
RTVSPost2010Prop40
 90
        0
102
RTVSPost2010PropOp40
 70
     1
102
RTVSPost2010Prop41ColorIndex
 90
       18
102
RTVSPost2010Prop41ColorRGB
 90
        0
102
RTVSPost2010PropOp41
 70
     1
102
RTVSPost2010Prop42
 90
       50
102
RTVSPost2010PropOp42
 70
     1
102
RTVSPost2010Prop43
 90
        3
102
RTVSPost2010PropOp43
 70
     1
102
RTVSPost2010Prop44ColorIndex
 90
        5
102
RTVSPost2010Prop44ColorRGB
 90
      255
102
RTVSPost2010PropOp44
 70
     1
102
RTVSPost2010Prop45
280
     0
102
RTVSPost2010PropOp45
 70
     1
102
RTVSPost2010Prop46
 90
       50
102
RTVSPost2010PropOp46
 70
     1
102
RTVSPost2010Prop47
 90
       50
102
RTVSPost2010PropOp47
 70
     1
102
RTVSPost2010Prop48
 90
       50
102
RTVSPost2010PropOp48
 70
     1
102
RTVSPost2010Prop49
280
     0
102
RTVSPost2010PropOp49
 70
     1
102
RTVSPost2010Prop50
 90
       50
102
RTVSPost2010PropOp50
 70
     1
102
RTVSPost2010Prop51ColorIndex
 90
      256
102
RTVSPost2010Prop51ColorRGB
 90
-16777216
102
RTVSPost2010PropOp51
 70
     0
102
RTVSPost2010Prop52
140
1.0
102
RTVSPost2010PropOp52
 70
     0
102
RTVSPost2010Prop53
 90
        2
102
RTVSPost2010PropOp53
 70
     1
102
RTVSPost2010Prop54
  1
strokes_ogs.tif
102
RTVSPost2010PropOp54
 70
     1
102
RTVSPost2010Prop55
280
     0
102
RTVSPost2010PropOp55
 70
     1
102
RTVSPost2010Prop56
140
1.0
102
RTVSPost2010PropOp56
 70
     1
102
RTVSPost2010Prop57
140
1.0
102
RTVSPost2010PropOp57
 70
     1
102
RTVSPropertyOp0
 70
     1
102
RTVSPropertyOp1
 70
     1
102
RTVSPropertyOp2
 70
     1
102
RTVSPropertyOp3
 70
     1
102
RTVSPropertyOp4
 70
     1
102
RTVSPropertyOp5
 70
     1
102
RTVSPropertyOp6
 70
     1
102
RTVSPropertyOp7
 70
     1
102
RTVSPropertyOp8
 70
     1
102
RTVSPropertyOp9
 70
     1
102
RTVSPropertyOp10
 70
     1
102
RTVSPropertyOp11
 70
     1
102
RTVSPropertyOp12
 70
     1
102
RTVSPropertyOp13
 70
     1
102
RTVSPropertyOp14
 70
     1
102
RTVSPropertyOp15
 70
     1
102
RTVSPropertyOp16
 70
     1
102
RTVSPropertyOp17
 70
     1
102
RTVSPropertyOp18
 70
     1
102
RTVSPropertyOp19
 70
     1
102
RTVSPropertyOp20
 70
     1
102
RTVSPropertyOp21
 70
     1
102
RTVSPropertyOp22
 70
     1
102
RTVSPropertyOp23
 70
     1
102
RTVSPropertyOp24
 70
     1
102
RTVSPropertyOp25
 70
     1
102
RTVSPropertyOp26
 70
     1
102
RTVSPropertyOp27
 70
     1
102
RTVSPropertyOp28
 70
     1
102
RTVSPropertyOp29
 70
     1
102
RTVSPropertyOp30
 70
     1
102
RTVSPropertyOp31
 70
     1
102
RTVSPropertyOp32
 70
     1
102
RTVSPropertyOp33
 70
     1
102
RTVSPropertyOp34
 70
     1
102
RTVSPropertyOp35
 70
     1
102
RTVSPropertyOp36
 70
     1
102
RTVSPropertyOp37
 70
     1
102
RTVSPropertyOp38
 70
     1
102
RTVSPropertyOp39
 70
     1
102
RTVSPropertyOp40
 70
     1
102
RTVSPropertyOp41
 70
     1
102
RTVSPropertyOp42
 70
     1
102
RTVSPropertyOp43
 70
     1
102
RTVSPropertyOp44
 70
     1
102
RTVSPropertyOp45
 70
     1
102
RTVSPropertyOp46
 70
     1
102
RTVSPropertyOp47
 70
     1
102
RTVSPropertyOp48
 70
     1
102
RTVSPropertyOp49
 70
     1
102
RTVSPropertyOp50
 70
     1
102
RTVSPropertyOp51
 70
     0
102
RTVSPropertyOp52
 70
     0
102
RTVSPropertyOp53
 70
     1
102
RTVSPropertyOp54
 70
     1
102
RTVSPropertyOp55
 70
     1
102
RTVSPropertyOp56
 70
     1
102
RTVSPropertyOp57
 70
     1
102
RTVSPropertyOp58
 70
     1
102
RTVSPropertyOp59
 70
     1
102
RTVSPropertyOp60
 70
     1
102
RTVSPropertyOp61
 70
     1
102
RTVSPropertyOp62
 70
     1
  0
XRECORD
  5
3C1E
102
{ACAD_REACTORS
330
3C1D
102
}
330
3C1D
100
AcDbXrecord
280
     1
102
RTVSPost2010Prop28
280
     0
102
RTVSPost2010PropOp28
 70
     1
102
RTVSPost2010Prop29
280
     1
102
RTVSPost2010PropOp29
 70
     1
102
RTVSPost2010Prop30
280
     1
102
RTVSPost2010PropOp30
 70
     1
102
RTVSPost2010Prop31
280
     0
102
RTVSPost2010PropOp31
 70
     1
102
RTVSPost2010Prop32
280
     0
102
RTVSPost2010PropOp32
 70
     1
102
RTVSPost2010Prop33
280
     0
102
RTVSPost2010PropOp33
 70
     1
102
RTVSPost2010Prop34
280
     0
102
RTVSPost2010PropOp34
 70
     1
102
RTVSPost2010Prop35
280
     0
102
RTVSPost2010PropOp35
 70
     1
102
RTVSPost2010Prop36
280
     0
102
RTVSPost2010PropOp36
 70
     1
102
RTVSPost2010Prop37
 90
       50
102
RTVSPost2010PropOp37
 70
     1
102
RTVSPost2010Prop38
140
0.0
102
RTVSPost2010PropOp38
 70
     1
102
RTVSPost2010Prop39
140
1.0
102
RTVSPost2010PropOp39
 70
     1
102
RTVSPost2010Prop40
 90
        0
102
RTVSPost2010PropOp40
 70
     1
102
RTVSPost2010Prop41ColorIndex
 90
       18
102
RTVSPost2010Prop41ColorRGB
 90
        0
102
RTVSPost2010PropOp41
 70
     1
102
RTVSPost2010Prop42
 90
       50
102
RTVSPost2010PropOp42
 70
     1
102
RTVSPost2010Prop43
 90
        3
102
RTVSPost2010PropOp43
 70
     1
102
RTVSPost2010Prop44ColorIndex
 90
        5
102
RTVSPost2010Prop44ColorRGB
 90
      255
102
RTVSPost2010PropOp44
 70
     1
102
RTVSPost2010Prop45
280
     0
102
RTVSPost2010PropOp45
 70
     1
102
RTVSPost2010Prop46
 90
       50
102
RTVSPost2010PropOp46
 70
     1
102
RTVSPost2010Prop47
 90
       50
102
RTVSPost2010PropOp47
 70
     1
102
RTVSPost2010Prop48
 90
       50
102
RTVSPost2010PropOp48
 70
     1
102
RTVSPost2010Prop49
280
     0
102
RTVSPost2010PropOp49
 70
     1
102
RTVSPost2010Prop50
 90
       50
102
RTVSPost2010PropOp50
 70
     1
102
RTVSPost2010Prop51ColorIndex
 90
      256
102
RTVSPost2010Prop51ColorRGB
 90
-16777216
102
RTVSPost2010PropOp51
 70
     0
102
RTVSPost2010Prop52
140
1.0
102
RTVSPost2010PropOp52
 70
     0
102
RTVSPost2010Prop53
 90
        2
102
RTVSPost2010PropOp53
 70
     1
102
RTVSPost2010Prop54
  1
strokes_ogs.tif
102
RTVSPost2010PropOp54
 70
     1
102
RTVSPost2010Prop55
280
     0
102
RTVSPost2010PropOp55
 70
     1
102
RTVSPost2010Prop56
140
1.0
102
RTVSPost2010PropOp56
 70
     1
102
RTVSPost2010Prop57
140
1.0
102
RTVSPost2010PropOp57
 70
     1
102
RTVSPropertyOp0
 70
     0
102
RTVSPropertyOp1
 70
     0
102
RTVSPropertyOp2
 70
     0
102
RTVSPropertyOp3
 70
     0
102
RTVSPropertyOp4
 70
     0
102
RTVSPropertyOp5
 70
     0
102
RTVSPropertyOp6
 70
     0
102
RTVSPropertyOp7
 70
     0
102
RTVSPropertyOp8
 70
     0
102
RTVSPropertyOp9
 70
     0
102
RTVSPropertyOp10
 70
     0
102
RTVSPropertyOp11
 70
     0
102
RTVSPropertyOp12
 70
     0
102
RTVSPropertyOp13
 70
     0
102
RTVSPropertyOp14
 70
     2
102
RTVSPropertyOp15
 70
     0
102
RTVSPropertyOp16
 70
     0
102
RTVSPropertyOp17
 70
     0
102
RTVSPropertyOp18
 70
     0
102
RTVSPropertyOp19
 70
     0
102
RTVSPropertyOp20
 70
     0
102
RTVSPropertyOp21
 70
     0
102
RTVSPropertyOp22
 70
     0
102
RTVSPropertyOp23
 70
     0
102
RTVSPropertyOp24
 70
     0
102
RTVSPropertyOp25
 70
     0
102
RTVSPropertyOp26
 70
     0
102
RTVSPropertyOp27
 70
     0
102
RTVSPropertyOp28
 70
     1
102
RTVSPropertyOp29
 70
     1
102
RTVSPropertyOp30
 70
     1
102
RTVSPropertyOp31
 70
     1
102
RTVSPropertyOp32
 70
     1
102
RTVSPropertyOp33
 70
     1
102
RTVSPropertyOp34
 70
     1
102
RTVSPropertyOp35
 70
     1
102
RTVSPropertyOp36
 70
     1
102
RTVSPropertyOp37
 70
     1
102
RTVSPropertyOp38
 70
     1
102
RTVSPropertyOp39
 70
     1
102
RTVSPropertyOp40
 70
     1
102
RTVSPropertyOp41
 70
     1
102
RTVSPropertyOp42
 70
     1
102
RTVSPropertyOp43
 70
     1
102
RTVSPropertyOp44
 70
     1
102
RTVSPropertyOp45
 70
     1
102
RTVSPropertyOp46
 70
     1
102
RTVSPropertyOp47
 70
     1
102
RTVSPropertyOp48
 70
     1
102
RTVSPropertyOp49
 70
     1
102
RTVSPropertyOp50
 70
     1
102
RTVSPropertyOp51
 70
     0
102
RTVSPropertyOp52
 70
     0
102
RTVSPropertyOp53
 70
     1
102
RTVSPropertyOp54
 70
     1
102
RTVSPropertyOp55
 70
     1
102
RTVSPropertyOp56
 70
     1
102
RTVSPropertyOp57
 70
     1
102
RTVSPropertyOp58
 70
     1
102
RTVSPropertyOp59
 70
     1
102
RTVSPropertyOp60
 70
     1
102
RTVSPropertyOp61
 70
     1
102
RTVSPropertyOp62
 70
     1
  0
XRECORD
  5
3C18
102
{ACAD_REACTORS
330
3C17
102
}
330
3C17
100
AcDbXrecord
280
     1
102
RTVSPost2010Prop28
280
     0
102
RTVSPost2010PropOp28
 70
     1
102
RTVSPost2010Prop29
280
     1
102
RTVSPost2010PropOp29
 70
     1
102
RTVSPost2010Prop30
280
     1
102
RTVSPost2010PropOp30
 70
     1
102
RTVSPost2010Prop31
280
     0
102
RTVSPost2010PropOp31
 70
     1
102
RTVSPost2010Prop32
280
     0
102
RTVSPost2010PropOp32
 70
     1
102
RTVSPost2010Prop33
280
     0
102
RTVSPost2010PropOp33
 70
     1
102
RTVSPost2010Prop34
280
     0
102
RTVSPost2010PropOp34
 70
     1
102
RTVSPost2010Prop35
280
     0
102
RTVSPost2010PropOp35
 70
     1
102
RTVSPost2010Prop36
280
     0
102
RTVSPost2010PropOp36
 70
     1
102
RTVSPost2010Prop37
 90
       50
102
RTVSPost2010PropOp37
 70
     1
102
RTVSPost2010Prop38
140
0.0
102
RTVSPost2010PropOp38
 70
     1
102
RTVSPost2010Prop39
140
1.0
102
RTVSPost2010PropOp39
 70
     1
102
RTVSPost2010Prop40
 90
        0
102
RTVSPost2010PropOp40
 70
     1
102
RTVSPost2010Prop41ColorIndex
 90
       18
102
RTVSPost2010Prop41ColorRGB
 90
        0
102
RTVSPost2010PropOp41
 70
     1
102
RTVSPost2010Prop42
 90
       50
102
RTVSPost2010PropOp42
 70
     1
102
RTVSPost2010Prop43
 90
        3
102
RTVSPost2010PropOp43
 70
     1
102
RTVSPost2010Prop44ColorIndex
 90
        5
102
RTVSPost2010Prop44ColorRGB
 90
      255
102
RTVSPost2010PropOp44
 70
     1
102
RTVSPost2010Prop45
280
     0
102
RTVSPost2010PropOp45
 70
     1
102
RTVSPost2010Prop46
 90
       50
102
RTVSPost2010PropOp46
 70
     1
102
RTVSPost2010Prop47
 90
       50
102
RTVSPost2010PropOp47
 70
     1
102
RTVSPost2010Prop48
 90
       50
102
RTVSPost2010PropOp48
 70
     1
102
RTVSPost2010Prop49
280
     0
102
RTVSPost2010PropOp49
 70
     1
102
RTVSPost2010Prop50
 90
       50
102
RTVSPost2010PropOp50
 70
     1
102
RTVSPost2010Prop51ColorIndex
 90
      256
102
RTVSPost2010Prop51ColorRGB
 90
-16777216
102
RTVSPost2010PropOp51
 70
     0
102
RTVSPost2010Prop52
140
1.0
102
RTVSPost2010PropOp52
 70
     0
102
RTVSPost2010Prop53
 90
        2
102
RTVSPost2010PropOp53
 70
     1
102
RTVSPost2010Prop54
  1
strokes_ogs.tif
102
RTVSPost2010PropOp54
 70
     1
102
RTVSPost2010Prop55
280
     0
102
RTVSPost2010PropOp55
 70
     1
102
RTVSPost2010Prop56
140
1.0
102
RTVSPost2010PropOp56
 70
     1
102
RTVSPost2010Prop57
140
1.0
102
RTVSPost2010PropOp57
 70
     1
102
RTVSPropertyOp0
 70
     1
102
RTVSPropertyOp1
 70
     1
102
RTVSPropertyOp2
 70
     1
102
RTVSPropertyOp3
 70
     1
102
RTVSPropertyOp4
 70
     1
102
RTVSPropertyOp5
 70
     1
102
RTVSPropertyOp6
 70
     1
102
RTVSPropertyOp7
 70
     1
102
RTVSPropertyOp8
 70
     1
102
RTVSPropertyOp9
 70
     1
102
RTVSPropertyOp10
 70
     1
102
RTVSPropertyOp11
 70
     1
102
RTVSPropertyOp12
 70
     1
102
RTVSPropertyOp13
 70
     1
102
RTVSPropertyOp14
 70
     1
102
RTVSPropertyOp15
 70
     1
102
RTVSPropertyOp16
 70
     1
102
RTVSPropertyOp17
 70
     1
102
RTVSPropertyOp18
 70
     1
102
RTVSPropertyOp19
 70
     1
102
RTVSPropertyOp20
 70
     1
102
RTVSPropertyOp21
 70
     1
102
RTVSPropertyOp22
 70
     1
102
RTVSPropertyOp23
 70
     1
102
RTVSPropertyOp24
 70
     1
102
RTVSPropertyOp25
 70
     1
102
RTVSPropertyOp26
 70
     1
102
RTVSPropertyOp27
 70
     1
102
RTVSPropertyOp28
 70
     1
102
RTVSPropertyOp29
 70
     1
102
RTVSPropertyOp30
 70
     1
102
RTVSPropertyOp31
 70
     1
102
RTVSPropertyOp32
 70
     1
102
RTVSPropertyOp33
 70
     1
102
RTVSPropertyOp34
 70
     1
102
RTVSPropertyOp35
 70
     1
102
RTVSPropertyOp36
 70
     1
102
RTVSPropertyOp37
 70
     1
102
RTVSPropertyOp38
 70
     1
102
RTVSPropertyOp39
 70
     1
102
RTVSPropertyOp40
 70
     1
102
RTVSPropertyOp41
 70
     1
102
RTVSPropertyOp42
 70
     1
102
RTVSPropertyOp43
 70
     1
102
RTVSPropertyOp44
 70
     1
102
RTVSPropertyOp45
 70
     1
102
RTVSPropertyOp46
 70
     1
102
RTVSPropertyOp47
 70
     1
102
RTVSPropertyOp48
 70
     1
102
RTVSPropertyOp49
 70
     1
102
RTVSPropertyOp50
 70
     1
102
RTVSPropertyOp51
 70
     0
102
RTVSPropertyOp52
 70
     0
102
RTVSPropertyOp53
 70
     1
102
RTVSPropertyOp54
 70
     1
102
RTVSPropertyOp55
 70
     1
102
RTVSPropertyOp56
 70
     1
102
RTVSPropertyOp57
 70
     1
102
RTVSPropertyOp58
 70
     1
102
RTVSPropertyOp59
 70
     1
102
RTVSPropertyOp60
 70
     1
102
RTVSPropertyOp61
 70
     1
102
RTVSPropertyOp62
 70
     1
  0
XRECORD
  5
3C20
102
{ACAD_REACTORS
330
3C1F
102
}
330
3C1F
100
AcDbXrecord
280
     1
102
RTVSPost2010Prop28
280
     0
102
RTVSPost2010PropOp28
 70
     1
102
RTVSPost2010Prop29
280
     1
102
RTVSPost2010PropOp29
 70
     1
102
RTVSPost2010Prop30
280
     1
102
RTVSPost2010PropOp30
 70
     1
102
RTVSPost2010Prop31
280
     0
102
RTVSPost2010PropOp31
 70
     1
102
RTVSPost2010Prop32
280
     0
102
RTVSPost2010PropOp32
 70
     1
102
RTVSPost2010Prop33
280
     0
102
RTVSPost2010PropOp33
 70
     1
102
RTVSPost2010Prop34
280
     0
102
RTVSPost2010PropOp34
 70
     1
102
RTVSPost2010Prop35
280
     0
102
RTVSPost2010PropOp35
 70
     1
102
RTVSPost2010Prop36
280
     0
102
RTVSPost2010PropOp36
 70
     1
102
RTVSPost2010Prop37
 90
       50
102
RTVSPost2010PropOp37
 70
     1
102
RTVSPost2010Prop38
140
0.0
102
RTVSPost2010PropOp38
 70
     1
102
RTVSPost2010Prop39
140
1.0
102
RTVSPost2010PropOp39
 70
     1
102
RTVSPost2010Prop40
 90
        0
102
RTVSPost2010PropOp40
 70
     1
102
RTVSPost2010Prop41ColorIndex
 90
       18
102
RTVSPost2010Prop41ColorRGB
 90
        0
102
RTVSPost2010PropOp41
 70
     1
102
RTVSPost2010Prop42
 90
       50
102
RTVSPost2010PropOp42
 70
     1
102
RTVSPost2010Prop43
 90
        3
102
RTVSPost2010PropOp43
 70
     1
102
RTVSPost2010Prop44ColorIndex
 90
        5
102
RTVSPost2010Prop44ColorRGB
 90
      255
102
RTVSPost2010PropOp44
 70
     1
102
RTVSPost2010Prop45
280
     0
102
RTVSPost2010PropOp45
 70
     1
102
RTVSPost2010Prop46
 90
       50
102
RTVSPost2010PropOp46
 70
     1
102
RTVSPost2010Prop47
 90
       50
102
RTVSPost2010PropOp47
 70
     1
102
RTVSPost2010Prop48
 90
       50
102
RTVSPost2010PropOp48
 70
     1
102
RTVSPost2010Prop49
280
     0
102
RTVSPost2010PropOp49
 70
     1
102
RTVSPost2010Prop50
 90
       50
102
RTVSPost2010PropOp50
 70
     1
102
RTVSPost2010Prop51ColorIndex
 90
      256
102
RTVSPost2010Prop51ColorRGB
 90
-16777216
102
RTVSPost2010PropOp51
 70
     0
102
RTVSPost2010Prop52
140
1.0
102
RTVSPost2010PropOp52
 70
     0
102
RTVSPost2010Prop53
 90
        2
102
RTVSPost2010PropOp53
 70
     1
102
RTVSPost2010Prop54
  1
strokes_ogs.tif
102
RTVSPost2010PropOp54
 70
     1
102
RTVSPost2010Prop55
280
     0
102
RTVSPost2010PropOp55
 70
     1
102
RTVSPost2010Prop56
140
1.0
102
RTVSPost2010PropOp56
 70
     1
102
RTVSPost2010Prop57
140
1.0
102
RTVSPost2010PropOp57
 70
     1
102
RTVSPropertyOp0
 70
     0
102
RTVSPropertyOp1
 70
     0
102
RTVSPropertyOp2
 70
     0
102
RTVSPropertyOp3
 70
     0
102
RTVSPropertyOp4
 70
     0
102
RTVSPropertyOp5
 70
     0
102
RTVSPropertyOp6
 70
     0
102
RTVSPropertyOp7
 70
     0
102
RTVSPropertyOp8
 70
     0
102
RTVSPropertyOp9
 70
     0
102
RTVSPropertyOp10
 70
     0
102
RTVSPropertyOp11
 70
     0
102
RTVSPropertyOp12
 70
     0
102
RTVSPropertyOp13
 70
     0
102
RTVSPropertyOp14
 70
     2
102
RTVSPropertyOp15
 70
     0
102
RTVSPropertyOp16
 70
     0
102
RTVSPropertyOp17
 70
     0
102
RTVSPropertyOp18
 70
     0
102
RTVSPropertyOp19
 70
     0
102
RTVSPropertyOp20
 70
     0
102
RTVSPropertyOp21
 70
     0
102
RTVSPropertyOp22
 70
     0
102
RTVSPropertyOp23
 70
     0
102
RTVSPropertyOp24
 70
     0
102
RTVSPropertyOp25
 70
     0
102
RTVSPropertyOp26
 70
     0
102
RTVSPropertyOp27
 70
     0
102
RTVSPropertyOp28
 70
     1
102
RTVSPropertyOp29
 70
     1
102
RTVSPropertyOp30
 70
     1
102
RTVSPropertyOp31
 70
     1
102
RTVSPropertyOp32
 70
     1
102
RTVSPropertyOp33
 70
     1
102
RTVSPropertyOp34
 70
     1
102
RTVSPropertyOp35
 70
     1
102
RTVSPropertyOp36
 70
     1
102
RTVSPropertyOp37
 70
     1
102
RTVSPropertyOp38
 70
     1
102
RTVSPropertyOp39
 70
     1
102
RTVSPropertyOp40
 70
     1
102
RTVSPropertyOp41
 70
     1
102
RTVSPropertyOp42
 70
     1
102
RTVSPropertyOp43
 70
     1
102
RTVSPropertyOp44
 70
     1
102
RTVSPropertyOp45
 70
     1
102
RTVSPropertyOp46
 70
     1
102
RTVSPropertyOp47
 70
     1
102
RTVSPropertyOp48
 70
     1
102
RTVSPropertyOp49
 70
     1
102
RTVSPropertyOp50
 70
     1
102
RTVSPropertyOp51
 70
     0
102
RTVSPropertyOp52
 70
     0
102
RTVSPropertyOp53
 70
     1
102
RTVSPropertyOp54
 70
     1
102
RTVSPropertyOp55
 70
     1
102
RTVSPropertyOp56
 70
     1
102
RTVSPropertyOp57
 70
     1
102
RTVSPropertyOp58
 70
     1
102
RTVSPropertyOp59
 70
     1
102
RTVSPropertyOp60
 70
     1
102
RTVSPropertyOp61
 70
     1
102
RTVSPropertyOp62
 70
     1
  0
XRECORD
  5
3C10
102
{ACAD_REACTORS
330
3C0F
102
}
330
3C0F
100
AcDbXrecord
280
     1
102
RTVSPost2010Prop28
280
     0
102
RTVSPost2010PropOp28
 70
     1
102
RTVSPost2010Prop29
280
     1
102
RTVSPost2010PropOp29
 70
     1
102
RTVSPost2010Prop30
280
     1
102
RTVSPost2010PropOp30
 70
     1
102
RTVSPost2010Prop31
280
     0
102
RTVSPost2010PropOp31
 70
     1
102
RTVSPost2010Prop32
280
     0
102
RTVSPost2010PropOp32
 70
     1
102
RTVSPost2010Prop33
280
     0
102
RTVSPost2010PropOp33
 70
     1
102
RTVSPost2010Prop34
280
     0
102
RTVSPost2010PropOp34
 70
     1
102
RTVSPost2010Prop35
280
     0
102
RTVSPost2010PropOp35
 70
     1
102
RTVSPost2010Prop36
280
     0
102
RTVSPost2010PropOp36
 70
     1
102
RTVSPost2010Prop37
 90
       50
102
RTVSPost2010PropOp37
 70
     1
102
RTVSPost2010Prop38
140
0.0
102
RTVSPost2010PropOp38
 70
     1
102
RTVSPost2010Prop39
140
1.0
102
RTVSPost2010PropOp39
 70
     1
102
RTVSPost2010Prop40
 90
        0
102
RTVSPost2010PropOp40
 70
     1
102
RTVSPost2010Prop41ColorIndex
 90
       18
102
RTVSPost2010Prop41ColorRGB
 90
        0
102
RTVSPost2010PropOp41
 70
     1
102
RTVSPost2010Prop42
 90
       50
102
RTVSPost2010PropOp42
 70
     1
102
RTVSPost2010Prop43
 90
        3
102
RTVSPost2010PropOp43
 70
     1
102
RTVSPost2010Prop44ColorIndex
 90
        5
102
RTVSPost2010Prop44ColorRGB
 90
      255
102
RTVSPost2010PropOp44
 70
     1
102
RTVSPost2010Prop45
280
     0
102
RTVSPost2010PropOp45
 70
     1
102
RTVSPost2010Prop46
 90
       50
102
RTVSPost2010PropOp46
 70
     1
102
RTVSPost2010Prop47
 90
       50
102
RTVSPost2010PropOp47
 70
     1
102
RTVSPost2010Prop48
 90
       50
102
RTVSPost2010PropOp48
 70
     1
102
RTVSPost2010Prop49
280
     0
102
RTVSPost2010PropOp49
 70
     1
102
RTVSPost2010Prop50
 90
       50
102
RTVSPost2010PropOp50
 70
     1
102
RTVSPost2010Prop51ColorIndex
 90
      256
102
RTVSPost2010Prop51ColorRGB
 90
-16777216
102
RTVSPost2010PropOp51
 70
     0
102
RTVSPost2010Prop52
140
1.0
102
RTVSPost2010PropOp52
 70
     0
102
RTVSPost2010Prop53
 90
        2
102
RTVSPost2010PropOp53
 70
     1
102
RTVSPost2010Prop54
  1
strokes_ogs.tif
102
RTVSPost2010PropOp54
 70
     1
102
RTVSPost2010Prop55
280
     0
102
RTVSPost2010PropOp55
 70
     1
102
RTVSPost2010Prop56
140
1.0
102
RTVSPost2010PropOp56
 70
     1
102
RTVSPost2010Prop57
140
1.0
102
RTVSPost2010PropOp57
 70
     1
102
RTVSPropertyOp0
 70
     1
102
RTVSPropertyOp1
 70
     1
102
RTVSPropertyOp2
 70
     1
102
RTVSPropertyOp3
 70
     1
102
RTVSPropertyOp4
 70
     1
102
RTVSPropertyOp5
 70
     1
102
RTVSPropertyOp6
 70
     1
102
RTVSPropertyOp7
 70
     1
102
RTVSPropertyOp8
 70
     1
102
RTVSPropertyOp9
 70
     1
102
RTVSPropertyOp10
 70
     1
102
RTVSPropertyOp11
 70
     1
102
RTVSPropertyOp12
 70
     1
102
RTVSPropertyOp13
 70
     1
102
RTVSPropertyOp14
 70
     1
102
RTVSPropertyOp15
 70
     1
102
RTVSPropertyOp16
 70
     1
102
RTVSPropertyOp17
 70
     1
102
RTVSPropertyOp18
 70
     1
102
RTVSPropertyOp19
 70
     1
102
RTVSPropertyOp20
 70
     1
102
RTVSPropertyOp21
 70
     1
102
RTVSPropertyOp22
 70
     1
102
RTVSPropertyOp23
 70
     1
102
RTVSPropertyOp24
 70
     1
102
RTVSPropertyOp25
 70
     1
102
RTVSPropertyOp26
 70
     1
102
RTVSPropertyOp27
 70
     1
102
RTVSPropertyOp28
 70
     1
102
RTVSPropertyOp29
 70
     1
102
RTVSPropertyOp30
 70
     1
102
RTVSPropertyOp31
 70
     1
102
RTVSPropertyOp32
 70
     1
102
RTVSPropertyOp33
 70
     1
102
RTVSPropertyOp34
 70
     1
102
RTVSPropertyOp35
 70
     1
102
RTVSPropertyOp36
 70
     1
102
RTVSPropertyOp37
 70
     1
102
RTVSPropertyOp38
 70
     1
102
RTVSPropertyOp39
 70
     1
102
RTVSPropertyOp40
 70
     1
102
RTVSPropertyOp41
 70
     1
102
RTVSPropertyOp42
 70
     1
102
RTVSPropertyOp43
 70
     1
102
RTVSPropertyOp44
 70
     1
102
RTVSPropertyOp45
 70
     1
102
RTVSPropertyOp46
 70
     1
102
RTVSPropertyOp47
 70
     1
102
RTVSPropertyOp48
 70
     1
102
RTVSPropertyOp49
 70
     1
102
RTVSPropertyOp50
 70
     1
102
RTVSPropertyOp51
 70
     0
102
RTVSPropertyOp52
 70
     0
102
RTVSPropertyOp53
 70
     1
102
RTVSPropertyOp54
 70
     1
102
RTVSPropertyOp55
 70
     1
102
RTVSPropertyOp56
 70
     1
102
RTVSPropertyOp57
 70
     1
102
RTVSPropertyOp58
 70
     1
102
RTVSPropertyOp59
 70
     1
102
RTVSPropertyOp60
 70
     1
102
RTVSPropertyOp61
 70
     1
102
RTVSPropertyOp62
 70
     1
  0
XRECORD
  5
3C51
102
{ACAD_REACTORS
330
3C50
102
}
330
3C50
100
AcDbXrecord
280
     1
102
RTVSPost2010Prop28
280
     0
102
RTVSPost2010PropOp28
 70
     1
102
RTVSPost2010Prop29
280
     1
102
RTVSPost2010PropOp29
 70
     1
102
RTVSPost2010Prop30
280
     1
102
RTVSPost2010PropOp30
 70
     1
102
RTVSPost2010Prop31
280
     0
102
RTVSPost2010PropOp31
 70
     1
102
RTVSPost2010Prop32
280
     0
102
RTVSPost2010PropOp32
 70
     1
102
RTVSPost2010Prop33
280
     0
102
RTVSPost2010PropOp33
 70
     1
102
RTVSPost2010Prop34
280
     0
102
RTVSPost2010PropOp34
 70
     1
102
RTVSPost2010Prop35
280
     0
102
RTVSPost2010PropOp35
 70
     1
102
RTVSPost2010Prop36
280
     0
102
RTVSPost2010PropOp36
 70
     1
102
RTVSPost2010Prop37
 90
       50
102
RTVSPost2010PropOp37
 70
     1
102
RTVSPost2010Prop38
140
0.0
102
RTVSPost2010PropOp38
 70
     1
102
RTVSPost2010Prop39
140
1.0
102
RTVSPost2010PropOp39
 70
     1
102
RTVSPost2010Prop40
 90
        0
102
RTVSPost2010PropOp40
 70
     1
102
RTVSPost2010Prop41ColorIndex
 90
       18
102
RTVSPost2010Prop41ColorRGB
 90
        0
102
RTVSPost2010PropOp41
 70
     1
102
RTVSPost2010Prop42
 90
       50
102
RTVSPost2010PropOp42
 70
     1
102
RTVSPost2010Prop43
 90
        3
102
RTVSPost2010PropOp43
 70
     1
102
RTVSPost2010Prop44ColorIndex
 90
        5
102
RTVSPost2010Prop44ColorRGB
 90
      255
102
RTVSPost2010PropOp44
 70
     1
102
RTVSPost2010Prop45
280
     0
102
RTVSPost2010PropOp45
 70
     1
102
RTVSPost2010Prop46
 90
       50
102
RTVSPost2010PropOp46
 70
     1
102
RTVSPost2010Prop47
 90
       50
102
RTVSPost2010PropOp47
 70
     1
102
RTVSPost2010Prop48
 90
       50
102
RTVSPost2010PropOp48
 70
     1
102
RTVSPost2010Prop49
280
     0
102
RTVSPost2010PropOp49
 70
     1
102
RTVSPost2010Prop50
 90
       50
102
RTVSPost2010PropOp50
 70
     1
102
RTVSPost2010Prop51ColorIndex
 90
      256
102
RTVSPost2010Prop51ColorRGB
 90
-16777216
102
RTVSPost2010PropOp51
 70
     0
102
RTVSPost2010Prop52
140
1.0
102
RTVSPost2010PropOp52
 70
     0
102
RTVSPost2010Prop53
 90
        2
102
RTVSPost2010PropOp53
 70
     1
102
RTVSPost2010Prop54
  1
strokes_ogs.tif
102
RTVSPost2010PropOp54
 70
     1
102
RTVSPost2010Prop55
280
     0
102
RTVSPost2010PropOp55
 70
     1
102
RTVSPost2010Prop56
140
1.0
102
RTVSPost2010PropOp56
 70
     1
102
RTVSPost2010Prop57
140
1.0
102
RTVSPost2010PropOp57
 70
     1
102
RTVSPropertyOp0
 70
     1
102
RTVSPropertyOp1
 70
     1
102
RTVSPropertyOp2
 70
     1
102
RTVSPropertyOp3
 70
     1
102
RTVSPropertyOp4
 70
     1
102
RTVSPropertyOp5
 70
     1
102
RTVSPropertyOp6
 70
     1
102
RTVSPropertyOp7
 70
     1
102
RTVSPropertyOp8
 70
     1
102
RTVSPropertyOp9
 70
     1
102
RTVSPropertyOp10
 70
     1
102
RTVSPropertyOp11
 70
     1
102
RTVSPropertyOp12
 70
     1
102
RTVSPropertyOp13
 70
     1
102
RTVSPropertyOp14
 70
     1
102
RTVSPropertyOp15
 70
     1
102
RTVSPropertyOp16
 70
     1
102
RTVSPropertyOp17
 70
     1
102
RTVSPropertyOp18
 70
     1
102
RTVSPropertyOp19
 70
     1
102
RTVSPropertyOp20
 70
     1
102
RTVSPropertyOp21
 70
     1
102
RTVSPropertyOp22
 70
     1
102
RTVSPropertyOp23
 70
     1
102
RTVSPropertyOp24
 70
     1
102
RTVSPropertyOp25
 70
     1
102
RTVSPropertyOp26
 70
     1
102
RTVSPropertyOp27
 70
     1
102
RTVSPropertyOp28
 70
     1
102
RTVSPropertyOp29
 70
     1
102
RTVSPropertyOp30
 70
     1
102
RTVSPropertyOp31
 70
     1
102
RTVSPropertyOp32
 70
     1
102
RTVSPropertyOp33
 70
     1
102
RTVSPropertyOp34
 70
     1
102
RTVSPropertyOp35
 70
     1
102
RTVSPropertyOp36
 70
     1
102
RTVSPropertyOp37
 70
     1
102
RTVSPropertyOp38
 70
     1
102
RTVSPropertyOp39
 70
     1
102
RTVSPropertyOp40
 70
     1
102
RTVSPropertyOp41
 70
     1
102
RTVSPropertyOp42
 70
     1
102
RTVSPropertyOp43
 70
     1
102
RTVSPropertyOp44
 70
     1
102
RTVSPropertyOp45
 70
     1
102
RTVSPropertyOp46
 70
     1
102
RTVSPropertyOp47
 70
     1
102
RTVSPropertyOp48
 70
     1
102
RTVSPropertyOp49
 70
     1
102
RTVSPropertyOp50
 70
     1
102
RTVSPropertyOp51
 70
     0
102
RTVSPropertyOp52
 70
     0
102
RTVSPropertyOp53
 70
     1
102
RTVSPropertyOp54
 70
     1
102
RTVSPropertyOp55
 70
     1
102
RTVSPropertyOp56
 70
     1
102
RTVSPropertyOp57
 70
     1
102
RTVSPropertyOp58
 70
     1
102
RTVSPropertyOp59
 70
     1
102
RTVSPropertyOp60
 70
     1
102
RTVSPropertyOp61
 70
     1
102
RTVSPropertyOp62
 70
     1
  0
XRECORD
  5
3C4F
102
{ACAD_REACTORS
330
3C4E
102
}
330
3C4E
100
AcDbXrecord
280
     1
102
RTVSPost2010Prop28
280
     0
102
RTVSPost2010PropOp28
 70
     1
102
RTVSPost2010Prop29
280
     1
102
RTVSPost2010PropOp29
 70
     1
102
RTVSPost2010Prop30
280
     1
102
RTVSPost2010PropOp30
 70
     1
102
RTVSPost2010Prop31
280
     0
102
RTVSPost2010PropOp31
 70
     1
102
RTVSPost2010Prop32
280
     0
102
RTVSPost2010PropOp32
 70
     1
102
RTVSPost2010Prop33
280
     0
102
RTVSPost2010PropOp33
 70
     1
102
RTVSPost2010Prop34
280
     0
102
RTVSPost2010PropOp34
 70
     1
102
RTVSPost2010Prop35
280
     0
102
RTVSPost2010PropOp35
 70
     1
102
RTVSPost2010Prop36
280
     0
102
RTVSPost2010PropOp36
 70
     1
102
RTVSPost2010Prop37
 90
       50
102
RTVSPost2010PropOp37
 70
     1
102
RTVSPost2010Prop38
140
0.0
102
RTVSPost2010PropOp38
 70
     1
102
RTVSPost2010Prop39
140
1.0
102
RTVSPost2010PropOp39
 70
     1
102
RTVSPost2010Prop40
 90
        0
102
RTVSPost2010PropOp40
 70
     1
102
RTVSPost2010Prop41ColorIndex
 90
       18
102
RTVSPost2010Prop41ColorRGB
 90
        0
102
RTVSPost2010PropOp41
 70
     1
102
RTVSPost2010Prop42
 90
       50
102
RTVSPost2010PropOp42
 70
     1
102
RTVSPost2010Prop43
 90
        3
102
RTVSPost2010PropOp43
 70
     1
102
RTVSPost2010Prop44ColorIndex
 90
        5
102
RTVSPost2010Prop44ColorRGB
 90
      255
102
RTVSPost2010PropOp44
 70
     1
102
RTVSPost2010Prop45
280
     0
102
RTVSPost2010PropOp45
 70
     1
102
RTVSPost2010Prop46
 90
       50
102
RTVSPost2010PropOp46
 70
     1
102
RTVSPost2010Prop47
 90
       50
102
RTVSPost2010PropOp47
 70
     1
102
RTVSPost2010Prop48
 90
       50
102
RTVSPost2010PropOp48
 70
     1
102
RTVSPost2010Prop49
280
     0
102
RTVSPost2010PropOp49
 70
     1
102
RTVSPost2010Prop50
 90
       50
102
RTVSPost2010PropOp50
 70
     1
102
RTVSPost2010Prop51ColorIndex
 90
      256
102
RTVSPost2010Prop51ColorRGB
 90
-16777216
102
RTVSPost2010PropOp51
 70
     0
102
RTVSPost2010Prop52
140
1.0
102
RTVSPost2010PropOp52
 70
     0
102
RTVSPost2010Prop53
 90
        2
102
RTVSPost2010PropOp53
 70
     1
102
RTVSPost2010Prop54
  1
strokes_ogs.tif
102
RTVSPost2010PropOp54
 70
     1
102
RTVSPost2010Prop55
280
     0
102
RTVSPost2010PropOp55
 70
     1
102
RTVSPost2010Prop56
140
1.0
102
RTVSPost2010PropOp56
 70
     1
102
RTVSPost2010Prop57
140
1.0
102
RTVSPost2010PropOp57
 70
     1
102
RTVSPropertyOp0
 70
     1
102
RTVSPropertyOp1
 70
     1
102
RTVSPropertyOp2
 70
     1
102
RTVSPropertyOp3
 70
     1
102
RTVSPropertyOp4
 70
     1
102
RTVSPropertyOp5
 70
     1
102
RTVSPropertyOp6
 70
     1
102
RTVSPropertyOp7
 70
     1
102
RTVSPropertyOp8
 70
     1
102
RTVSPropertyOp9
 70
     1
102
RTVSPropertyOp10
 70
     1
102
RTVSPropertyOp11
 70
     1
102
RTVSPropertyOp12
 70
     1
102
RTVSPropertyOp13
 70
     1
102
RTVSPropertyOp14
 70
     1
102
RTVSPropertyOp15
 70
     1
102
RTVSPropertyOp16
 70
     1
102
RTVSPropertyOp17
 70
     1
102
RTVSPropertyOp18
 70
     1
102
RTVSPropertyOp19
 70
     1
102
RTVSPropertyOp20
 70
     1
102
RTVSPropertyOp21
 70
     1
102
RTVSPropertyOp22
 70
     1
102
RTVSPropertyOp23
 70
     1
102
RTVSPropertyOp24
 70
     1
102
RTVSPropertyOp25
 70
     1
102
RTVSPropertyOp26
 70
     1
102
RTVSPropertyOp27
 70
     1
102
RTVSPropertyOp28
 70
     1
102
RTVSPropertyOp29
 70
     1
102
RTVSPropertyOp30
 70
     1
102
RTVSPropertyOp31
 70
     1
102
RTVSPropertyOp32
 70
     1
102
RTVSPropertyOp33
 70
     1
102
RTVSPropertyOp34
 70
     1
102
RTVSPropertyOp35
 70
     1
102
RTVSPropertyOp36
 70
     1
102
RTVSPropertyOp37
 70
     1
102
RTVSPropertyOp38
 70
     1
102
RTVSPropertyOp39
 70
     1
102
RTVSPropertyOp40
 70
     1
102
RTVSPropertyOp41
 70
     1
102
RTVSPropertyOp42
 70
     1
102
RTVSPropertyOp43
 70
     1
102
RTVSPropertyOp44
 70
     1
102
RTVSPropertyOp45
 70
     1
102
RTVSPropertyOp46
 70
     1
102
RTVSPropertyOp47
 70
     1
102
RTVSPropertyOp48
 70
     1
102
RTVSPropertyOp49
 70
     1
102
RTVSPropertyOp50
 70
     1
102
RTVSPropertyOp51
 70
     0
102
RTVSPropertyOp52
 70
     0
102
RTVSPropertyOp53
 70
     1
102
RTVSPropertyOp54
 70
     1
102
RTVSPropertyOp55
 70
     1
102
RTVSPropertyOp56
 70
     1
102
RTVSPropertyOp57
 70
     1
102
RTVSPropertyOp58
 70
     1
102
RTVSPropertyOp59
 70
     1
102
RTVSPropertyOp60
 70
     1
102
RTVSPropertyOp61
 70
     1
102
RTVSPropertyOp62
 70
     1
  0
XRECORD
  5
3C49
102
{ACAD_REACTORS
330
3C48
102
}
330
3C48
100
AcDbXrecord
280
     1
102
RTVSPost2010Prop28
280
     0
102
RTVSPost2010PropOp28
 70
     1
102
RTVSPost2010Prop29
280
     1
102
RTVSPost2010PropOp29
 70
     1
102
RTVSPost2010Prop30
280
     1
102
RTVSPost2010PropOp30
 70
     1
102
RTVSPost2010Prop31
280
     0
102
RTVSPost2010PropOp31
 70
     1
102
RTVSPost2010Prop32
280
     0
102
RTVSPost2010PropOp32
 70
     1
102
RTVSPost2010Prop33
280
     0
102
RTVSPost2010PropOp33
 70
     1
102
RTVSPost2010Prop34
280
     0
102
RTVSPost2010PropOp34
 70
     1
102
RTVSPost2010Prop35
280
     0
102
RTVSPost2010PropOp35
 70
     1
102
RTVSPost2010Prop36
280
     0
102
RTVSPost2010PropOp36
 70
     1
102
RTVSPost2010Prop37
 90
       50
102
RTVSPost2010PropOp37
 70
     1
102
RTVSPost2010Prop38
140
0.0
102
RTVSPost2010PropOp38
 70
     1
102
RTVSPost2010Prop39
140
1.0
102
RTVSPost2010PropOp39
 70
     1
102
RTVSPost2010Prop40
 90
        0
102
RTVSPost2010PropOp40
 70
     1
102
RTVSPost2010Prop41ColorIndex
 90
       18
102
RTVSPost2010Prop41ColorRGB
 90
        0
102
RTVSPost2010PropOp41
 70
     1
102
RTVSPost2010Prop42
 90
       50
102
RTVSPost2010PropOp42
 70
     1
102
RTVSPost2010Prop43
 90
        3
102
RTVSPost2010PropOp43
 70
     1
102
RTVSPost2010Prop44ColorIndex
 90
        5
102
RTVSPost2010Prop44ColorRGB
 90
      255
102
RTVSPost2010PropOp44
 70
     1
102
RTVSPost2010Prop45
280
     0
102
RTVSPost2010PropOp45
 70
     1
102
RTVSPost2010Prop46
 90
       50
102
RTVSPost2010PropOp46
 70
     1
102
RTVSPost2010Prop47
 90
       50
102
RTVSPost2010PropOp47
 70
     1
102
RTVSPost2010Prop48
 90
       50
102
RTVSPost2010PropOp48
 70
     1
102
RTVSPost2010Prop49
280
     0
102
RTVSPost2010PropOp49
 70
     1
102
RTVSPost2010Prop50
 90
       50
102
RTVSPost2010PropOp50
 70
     1
102
RTVSPost2010Prop51ColorIndex
 90
      256
102
RTVSPost2010Prop51ColorRGB
 90
-16777216
102
RTVSPost2010PropOp51
 70
     0
102
RTVSPost2010Prop52
140
1.0
102
RTVSPost2010PropOp52
 70
     0
102
RTVSPost2010Prop53
 90
        2
102
RTVSPost2010PropOp53
 70
     1
102
RTVSPost2010Prop54
  1
strokes_ogs.tif
102
RTVSPost2010PropOp54
 70
     1
102
RTVSPost2010Prop55
280
     0
102
RTVSPost2010PropOp55
 70
     1
102
RTVSPost2010Prop56
140
1.0
102
RTVSPost2010PropOp56
 70
     1
102
RTVSPost2010Prop57
140
1.0
102
RTVSPost2010PropOp57
 70
     1
102
RTVSPropertyOp0
 70
     1
102
RTVSPropertyOp1
 70
     1
102
RTVSPropertyOp2
 70
     1
102
RTVSPropertyOp3
 70
     1
102
RTVSPropertyOp4
 70
     1
102
RTVSPropertyOp5
 70
     1
102
RTVSPropertyOp6
 70
     1
102
RTVSPropertyOp7
 70
     1
102
RTVSPropertyOp8
 70
     1
102
RTVSPropertyOp9
 70
     1
102
RTVSPropertyOp10
 70
     1
102
RTVSPropertyOp11
 70
     1
102
RTVSPropertyOp12
 70
     1
102
RTVSPropertyOp13
 70
     1
102
RTVSPropertyOp14
 70
     1
102
RTVSPropertyOp15
 70
     1
102
RTVSPropertyOp16
 70
     1
102
RTVSPropertyOp17
 70
     1
102
RTVSPropertyOp18
 70
     1
102
RTVSPropertyOp19
 70
     1
102
RTVSPropertyOp20
 70
     1
102
RTVSPropertyOp21
 70
     1
102
RTVSPropertyOp22
 70
     1
102
RTVSPropertyOp23
 70
     1
102
RTVSPropertyOp24
 70
     1
102
RTVSPropertyOp25
 70
     1
102
RTVSPropertyOp26
 70
     1
102
RTVSPropertyOp27
 70
     1
102
RTVSPropertyOp28
 70
     1
102
RTVSPropertyOp29
 70
     1
102
RTVSPropertyOp30
 70
     1
102
RTVSPropertyOp31
 70
     1
102
RTVSPropertyOp32
 70
     1
102
RTVSPropertyOp33
 70
     1
102
RTVSPropertyOp34
 70
     1
102
RTVSPropertyOp35
 70
     1
102
RTVSPropertyOp36
 70
     1
102
RTVSPropertyOp37
 70
     1
102
RTVSPropertyOp38
 70
     1
102
RTVSPropertyOp39
 70
     1
102
RTVSPropertyOp40
 70
     1
102
RTVSPropertyOp41
 70
     1
102
RTVSPropertyOp42
 70
     1
102
RTVSPropertyOp43
 70
     1
102
RTVSPropertyOp44
 70
     1
102
RTVSPropertyOp45
 70
     1
102
RTVSPropertyOp46
 70
     1
102
RTVSPropertyOp47
 70
     1
102
RTVSPropertyOp48
 70
     1
102
RTVSPropertyOp49
 70
     1
102
RTVSPropertyOp50
 70
     1
102
RTVSPropertyOp51
 70
     0
102
RTVSPropertyOp52
 70
     0
102
RTVSPropertyOp53
 70
     1
102
RTVSPropertyOp54
 70
     1
102
RTVSPropertyOp55
 70
     1
102
RTVSPropertyOp56
 70
     1
102
RTVSPropertyOp57
 70
     1
102
RTVSPropertyOp58
 70
     1
102
RTVSPropertyOp59
 70
     1
102
RTVSPropertyOp60
 70
     1
102
RTVSPropertyOp61
 70
     1
102
RTVSPropertyOp62
 70
     1
  0
XRECORD
  5
3C4B
102
{ACAD_REACTORS
330
3C4A
102
}
330
3C4A
100
AcDbXrecord
280
     1
102
RTVSPost2010Prop28
280
     0
102
RTVSPost2010PropOp28
 70
     1
102
RTVSPost2010Prop29
280
     1
102
RTVSPost2010PropOp29
 70
     1
102
RTVSPost2010Prop30
280
     1
102
RTVSPost2010PropOp30
 70
     1
102
RTVSPost2010Prop31
280
     0
102
RTVSPost2010PropOp31
 70
     1
102
RTVSPost2010Prop32
280
     0
102
RTVSPost2010PropOp32
 70
     1
102
RTVSPost2010Prop33
280
     0
102
RTVSPost2010PropOp33
 70
     1
102
RTVSPost2010Prop34
280
     0
102
RTVSPost2010PropOp34
 70
     1
102
RTVSPost2010Prop35
280
     0
102
RTVSPost2010PropOp35
 70
     1
102
RTVSPost2010Prop36
280
     0
102
RTVSPost2010PropOp36
 70
     1
102
RTVSPost2010Prop37
 90
       50
102
RTVSPost2010PropOp37
 70
     1
102
RTVSPost2010Prop38
140
0.0
102
RTVSPost2010PropOp38
 70
     1
102
RTVSPost2010Prop39
140
1.0
102
RTVSPost2010PropOp39
 70
     1
102
RTVSPost2010Prop40
 90
        0
102
RTVSPost2010PropOp40
 70
     1
102
RTVSPost2010Prop41ColorIndex
 90
       18
102
RTVSPost2010Prop41ColorRGB
 90
        0
102
RTVSPost2010PropOp41
 70
     1
102
RTVSPost2010Prop42
 90
       50
102
RTVSPost2010PropOp42
 70
     1
102
RTVSPost2010Prop43
 90
        3
102
RTVSPost2010PropOp43
 70
     1
102
RTVSPost2010Prop44ColorIndex
 90
        5
102
RTVSPost2010Prop44ColorRGB
 90
      255
102
RTVSPost2010PropOp44
 70
     1
102
RTVSPost2010Prop45
280
     0
102
RTVSPost2010PropOp45
 70
     1
102
RTVSPost2010Prop46
 90
       50
102
RTVSPost2010PropOp46
 70
     1
102
RTVSPost2010Prop47
 90
       50
102
RTVSPost2010PropOp47
 70
     1
102
RTVSPost2010Prop48
 90
       50
102
RTVSPost2010PropOp48
 70
     1
102
RTVSPost2010Prop49
280
     0
102
RTVSPost2010PropOp49
 70
     1
102
RTVSPost2010Prop50
 90
       50
102
RTVSPost2010PropOp50
 70
     1
102
RTVSPost2010Prop51ColorIndex
 90
      256
102
RTVSPost2010Prop51ColorRGB
 90
-16777216
102
RTVSPost2010PropOp51
 70
     0
102
RTVSPost2010Prop52
140
1.0
102
RTVSPost2010PropOp52
 70
     0
102
RTVSPost2010Prop53
 90
        2
102
RTVSPost2010PropOp53
 70
     1
102
RTVSPost2010Prop54
  1
strokes_ogs.tif
102
RTVSPost2010PropOp54
 70
     1
102
RTVSPost2010Prop55
280
     0
102
RTVSPost2010PropOp55
 70
     1
102
RTVSPost2010Prop56
140
1.0
102
RTVSPost2010PropOp56
 70
     1
102
RTVSPost2010Prop57
140
1.0
102
RTVSPost2010PropOp57
 70
     1
102
RTVSPropertyOp0
 70
     1
102
RTVSPropertyOp1
 70
     1
102
RTVSPropertyOp2
 70
     1
102
RTVSPropertyOp3
 70
     1
102
RTVSPropertyOp4
 70
     1
102
RTVSPropertyOp5
 70
     1
102
RTVSPropertyOp6
 70
     1
102
RTVSPropertyOp7
 70
     1
102
RTVSPropertyOp8
 70
     1
102
RTVSPropertyOp9
 70
     1
102
RTVSPropertyOp10
 70
     1
102
RTVSPropertyOp11
 70
     1
102
RTVSPropertyOp12
 70
     1
102
RTVSPropertyOp13
 70
     1
102
RTVSPropertyOp14
 70
     1
102
RTVSPropertyOp15
 70
     1
102
RTVSPropertyOp16
 70
     1
102
RTVSPropertyOp17
 70
     1
102
RTVSPropertyOp18
 70
     1
102
RTVSPropertyOp19
 70
     1
102
RTVSPropertyOp20
 70
     1
102
RTVSPropertyOp21
 70
     1
102
RTVSPropertyOp22
 70
     1
102
RTVSPropertyOp23
 70
     1
102
RTVSPropertyOp24
 70
     1
102
RTVSPropertyOp25
 70
     1
102
RTVSPropertyOp26
 70
     1
102
RTVSPropertyOp27
 70
     1
102
RTVSPropertyOp28
 70
     1
102
RTVSPropertyOp29
 70
     1
102
RTVSPropertyOp30
 70
     1
102
RTVSPropertyOp31
 70
     1
102
RTVSPropertyOp32
 70
     1
102
RTVSPropertyOp33
 70
     1
102
RTVSPropertyOp34
 70
     1
102
RTVSPropertyOp35
 70
     1
102
RTVSPropertyOp36
 70
     1
102
RTVSPropertyOp37
 70
     1
102
RTVSPropertyOp38
 70
     1
102
RTVSPropertyOp39
 70
     1
102
RTVSPropertyOp40
 70
     1
102
RTVSPropertyOp41
 70
     1
102
RTVSPropertyOp42
 70
     1
102
RTVSPropertyOp43
 70
     1
102
RTVSPropertyOp44
 70
     1
102
RTVSPropertyOp45
 70
     1
102
RTVSPropertyOp46
 70
     1
102
RTVSPropertyOp47
 70
     1
102
RTVSPropertyOp48
 70
     1
102
RTVSPropertyOp49
 70
     1
102
RTVSPropertyOp50
 70
     1
102
RTVSPropertyOp51
 70
     0
102
RTVSPropertyOp52
 70
     0
102
RTVSPropertyOp53
 70
     1
102
RTVSPropertyOp54
 70
     1
102
RTVSPropertyOp55
 70
     1
102
RTVSPropertyOp56
 70
     1
102
RTVSPropertyOp57
 70
     1
102
RTVSPropertyOp58
 70
     1
102
RTVSPropertyOp59
 70
     1
102
RTVSPropertyOp60
 70
     1
102
RTVSPropertyOp61
 70
     1
102
RTVSPropertyOp62
 70
     1
  0
XRECORD
  5
3C16
102
{ACAD_REACTORS
330
3C15
102
}
330
3C15
100
AcDbXrecord
280
     1
102
RTVSPost2010Prop28
280
     0
102
RTVSPost2010PropOp28
 70
     1
102
RTVSPost2010Prop29
280
     1
102
RTVSPost2010PropOp29
 70
     1
102
RTVSPost2010Prop30
280
     1
102
RTVSPost2010PropOp30
 70
     1
102
RTVSPost2010Prop31
280
     0
102
RTVSPost2010PropOp31
 70
     1
102
RTVSPost2010Prop32
280
     0
102
RTVSPost2010PropOp32
 70
     1
102
RTVSPost2010Prop33
280
     0
102
RTVSPost2010PropOp33
 70
     1
102
RTVSPost2010Prop34
280
     0
102
RTVSPost2010PropOp34
 70
     1
102
RTVSPost2010Prop35
280
     0
102
RTVSPost2010PropOp35
 70
     1
102
RTVSPost2010Prop36
280
     0
102
RTVSPost2010PropOp36
 70
     1
102
RTVSPost2010Prop37
 90
       50
102
RTVSPost2010PropOp37
 70
     1
102
RTVSPost2010Prop38
140
0.0
102
RTVSPost2010PropOp38
 70
     1
102
RTVSPost2010Prop39
140
1.0
102
RTVSPost2010PropOp39
 70
     1
102
RTVSPost2010Prop40
 90
        0
102
RTVSPost2010PropOp40
 70
     1
102
RTVSPost2010Prop41ColorIndex
 90
       18
102
RTVSPost2010Prop41ColorRGB
 90
        0
102
RTVSPost2010PropOp41
 70
     1
102
RTVSPost2010Prop42
 90
       50
102
RTVSPost2010PropOp42
 70
     1
102
RTVSPost2010Prop43
 90
        3
102
RTVSPost2010PropOp43
 70
     1
102
RTVSPost2010Prop44ColorIndex
 90
        5
102
RTVSPost2010Prop44ColorRGB
 90
      255
102
RTVSPost2010PropOp44
 70
     1
102
RTVSPost2010Prop45
280
     0
102
RTVSPost2010PropOp45
 70
     1
102
RTVSPost2010Prop46
 90
       50
102
RTVSPost2010PropOp46
 70
     1
102
RTVSPost2010Prop47
 90
       50
102
RTVSPost2010PropOp47
 70
     1
102
RTVSPost2010Prop48
 90
       50
102
RTVSPost2010PropOp48
 70
     1
102
RTVSPost2010Prop49
280
     0
102
RTVSPost2010PropOp49
 70
     1
102
RTVSPost2010Prop50
 90
       50
102
RTVSPost2010PropOp50
 70
     1
102
RTVSPost2010Prop51ColorIndex
 90
      256
102
RTVSPost2010Prop51ColorRGB
 90
-16777216
102
RTVSPost2010PropOp51
 70
     0
102
RTVSPost2010Prop52
140
1.0
102
RTVSPost2010PropOp52
 70
     0
102
RTVSPost2010Prop53
 90
        2
102
RTVSPost2010PropOp53
 70
     1
102
RTVSPost2010Prop54
  1
strokes_ogs.tif
102
RTVSPost2010PropOp54
 70
     1
102
RTVSPost2010Prop55
280
     0
102
RTVSPost2010PropOp55
 70
     1
102
RTVSPost2010Prop56
140
1.0
102
RTVSPost2010PropOp56
 70
     1
102
RTVSPost2010Prop57
140
1.0
102
RTVSPost2010PropOp57
 70
     1
102
RTVSPropertyOp0
 70
     1
102
RTVSPropertyOp1
 70
     1
102
RTVSPropertyOp2
 70
     1
102
RTVSPropertyOp3
 70
     1
102
RTVSPropertyOp4
 70
     1
102
RTVSPropertyOp5
 70
     1
102
RTVSPropertyOp6
 70
     1
102
RTVSPropertyOp7
 70
     1
102
RTVSPropertyOp8
 70
     1
102
RTVSPropertyOp9
 70
     1
102
RTVSPropertyOp10
 70
     1
102
RTVSPropertyOp11
 70
     1
102
RTVSPropertyOp12
 70
     1
102
RTVSPropertyOp13
 70
     1
102
RTVSPropertyOp14
 70
     1
102
RTVSPropertyOp15
 70
     1
102
RTVSPropertyOp16
 70
     1
102
RTVSPropertyOp17
 70
     1
102
RTVSPropertyOp18
 70
     1
102
RTVSPropertyOp19
 70
     1
102
RTVSPropertyOp20
 70
     1
102
RTVSPropertyOp21
 70
     1
102
RTVSPropertyOp22
 70
     1
102
RTVSPropertyOp23
 70
     1
102
RTVSPropertyOp24
 70
     1
102
RTVSPropertyOp25
 70
     1
102
RTVSPropertyOp26
 70
     1
102
RTVSPropertyOp27
 70
     1
102
RTVSPropertyOp28
 70
     1
102
RTVSPropertyOp29
 70
     1
102
RTVSPropertyOp30
 70
     1
102
RTVSPropertyOp31
 70
     1
102
RTVSPropertyOp32
 70
     1
102
RTVSPropertyOp33
 70
     1
102
RTVSPropertyOp34
 70
     1
102
RTVSPropertyOp35
 70
     1
102
RTVSPropertyOp36
 70
     1
102
RTVSPropertyOp37
 70
     1
102
RTVSPropertyOp38
 70
     1
102
RTVSPropertyOp39
 70
     1
102
RTVSPropertyOp40
 70
     1
102
RTVSPropertyOp41
 70
     1
102
RTVSPropertyOp42
 70
     1
102
RTVSPropertyOp43
 70
     1
102
RTVSPropertyOp44
 70
     1
102
RTVSPropertyOp45
 70
     1
102
RTVSPropertyOp46
 70
     1
102
RTVSPropertyOp47
 70
     1
102
RTVSPropertyOp48
 70
     1
102
RTVSPropertyOp49
 70
     1
102
RTVSPropertyOp50
 70
     1
102
RTVSPropertyOp51
 70
     0
102
RTVSPropertyOp52
 70
     0
102
RTVSPropertyOp53
 70
     1
102
RTVSPropertyOp54
 70
     1
102
RTVSPropertyOp55
 70
     1
102
RTVSPropertyOp56
 70
     1
102
RTVSPropertyOp57
 70
     1
102
RTVSPropertyOp58
 70
     1
102
RTVSPropertyOp59
 70
     1
102
RTVSPropertyOp60
 70
     1
102
RTVSPropertyOp61
 70
     1
102
RTVSPropertyOp62
 70
     1
  0
XRECORD
  5
3C45
102
{ACAD_REACTORS
330
3C44
102
}
330
3C44
100
AcDbXrecord
280
     1
102
RTVSPost2010Prop28
280
     0
102
RTVSPost2010PropOp28
 70
     1
102
RTVSPost2010Prop29
280
     1
102
RTVSPost2010PropOp29
 70
     1
102
RTVSPost2010Prop30
280
     1
102
RTVSPost2010PropOp30
 70
     1
102
RTVSPost2010Prop31
280
     0
102
RTVSPost2010PropOp31
 70
     1
102
RTVSPost2010Prop32
280
     0
102
RTVSPost2010PropOp32
 70
     1
102
RTVSPost2010Prop33
280
     0
102
RTVSPost2010PropOp33
 70
     1
102
RTVSPost2010Prop34
280
     0
102
RTVSPost2010PropOp34
 70
     1
102
RTVSPost2010Prop35
280
     0
102
RTVSPost2010PropOp35
 70
     1
102
RTVSPost2010Prop36
280
     0
102
RTVSPost2010PropOp36
 70
     1
102
RTVSPost2010Prop37
 90
       50
102
RTVSPost2010PropOp37
 70
     1
102
RTVSPost2010Prop38
140
0.0
102
RTVSPost2010PropOp38
 70
     1
102
RTVSPost2010Prop39
140
1.0
102
RTVSPost2010PropOp39
 70
     1
102
RTVSPost2010Prop40
 90
        0
102
RTVSPost2010PropOp40
 70
     1
102
RTVSPost2010Prop41ColorIndex
 90
       18
102
RTVSPost2010Prop41ColorRGB
 90
        0
102
RTVSPost2010PropOp41
 70
     1
102
RTVSPost2010Prop42
 90
       50
102
RTVSPost2010PropOp42
 70
     1
102
RTVSPost2010Prop43
 90
        3
102
RTVSPost2010PropOp43
 70
     1
102
RTVSPost2010Prop44ColorIndex
 90
        5
102
RTVSPost2010Prop44ColorRGB
 90
      255
102
RTVSPost2010PropOp44
 70
     1
102
RTVSPost2010Prop45
280
     0
102
RTVSPost2010PropOp45
 70
     1
102
RTVSPost2010Prop46
 90
       50
102
RTVSPost2010PropOp46
 70
     1
102
RTVSPost2010Prop47
 90
       50
102
RTVSPost2010PropOp47
 70
     1
102
RTVSPost2010Prop48
 90
       50
102
RTVSPost2010PropOp48
 70
     1
102
RTVSPost2010Prop49
280
     0
102
RTVSPost2010PropOp49
 70
     1
102
RTVSPost2010Prop50
 90
       50
102
RTVSPost2010PropOp50
 70
     1
102
RTVSPost2010Prop51ColorIndex
 90
      256
102
RTVSPost2010Prop51ColorRGB
 90
-16777216
102
RTVSPost2010PropOp51
 70
     0
102
RTVSPost2010Prop52
140
1.0
102
RTVSPost2010PropOp52
 70
     0
102
RTVSPost2010Prop53
 90
        2
102
RTVSPost2010PropOp53
 70
     1
102
RTVSPost2010Prop54
  1
strokes_ogs.tif
102
RTVSPost2010PropOp54
 70
     1
102
RTVSPost2010Prop55
280
     0
102
RTVSPost2010PropOp55
 70
     1
102
RTVSPost2010Prop56
140
1.0
102
RTVSPost2010PropOp56
 70
     1
102
RTVSPost2010Prop57
140
1.0
102
RTVSPost2010PropOp57
 70
     1
102
RTVSPropertyOp0
 70
     1
102
RTVSPropertyOp1
 70
     1
102
RTVSPropertyOp2
 70
     1
102
RTVSPropertyOp3
 70
     1
102
RTVSPropertyOp4
 70
     1
102
RTVSPropertyOp5
 70
     1
102
RTVSPropertyOp6
 70
     1
102
RTVSPropertyOp7
 70
     1
102
RTVSPropertyOp8
 70
     1
102
RTVSPropertyOp9
 70
     1
102
RTVSPropertyOp10
 70
     1
102
RTVSPropertyOp11
 70
     1
102
RTVSPropertyOp12
 70
     1
102
RTVSPropertyOp13
 70
     1
102
RTVSPropertyOp14
 70
     1
102
RTVSPropertyOp15
 70
     1
102
RTVSPropertyOp16
 70
     1
102
RTVSPropertyOp17
 70
     1
102
RTVSPropertyOp18
 70
     1
102
RTVSPropertyOp19
 70
     1
102
RTVSPropertyOp20
 70
     1
102
RTVSPropertyOp21
 70
     1
102
RTVSPropertyOp22
 70
     1
102
RTVSPropertyOp23
 70
     1
102
RTVSPropertyOp24
 70
     1
102
RTVSPropertyOp25
 70
     1
102
RTVSPropertyOp26
 70
     1
102
RTVSPropertyOp27
 70
     1
102
RTVSPropertyOp28
 70
     1
102
RTVSPropertyOp29
 70
     1
102
RTVSPropertyOp30
 70
     1
102
RTVSPropertyOp31
 70
     1
102
RTVSPropertyOp32
 70
     1
102
RTVSPropertyOp33
 70
     1
102
RTVSPropertyOp34
 70
     1
102
RTVSPropertyOp35
 70
     1
102
RTVSPropertyOp36
 70
     1
102
RTVSPropertyOp37
 70
     1
102
RTVSPropertyOp38
 70
     1
102
RTVSPropertyOp39
 70
     1
102
RTVSPropertyOp40
 70
     1
102
RTVSPropertyOp41
 70
     1
102
RTVSPropertyOp42
 70
     1
102
RTVSPropertyOp43
 70
     1
102
RTVSPropertyOp44
 70
     1
102
RTVSPropertyOp45
 70
     1
102
RTVSPropertyOp46
 70
     1
102
RTVSPropertyOp47
 70
     1
102
RTVSPropertyOp48
 70
     1
102
RTVSPropertyOp49
 70
     1
102
RTVSPropertyOp50
 70
     1
102
RTVSPropertyOp51
 70
     0
102
RTVSPropertyOp52
 70
     0
102
RTVSPropertyOp53
 70
     1
102
RTVSPropertyOp54
 70
     1
102
RTVSPropertyOp55
 70
     1
102
RTVSPropertyOp56
 70
     1
102
RTVSPropertyOp57
 70
     1
102
RTVSPropertyOp58
 70
     1
102
RTVSPropertyOp59
 70
     1
102
RTVSPropertyOp60
 70
     1
102
RTVSPropertyOp61
 70
     1
102
RTVSPropertyOp62
 70
     1
  0
XRECORD
  5
3C4D
102
{ACAD_REACTORS
330
3C4C
102
}
330
3C4C
100
AcDbXrecord
280
     1
102
RTVSPost2010Prop28
280
     0
102
RTVSPost2010PropOp28
 70
     1
102
RTVSPost2010Prop29
280
     1
102
RTVSPost2010PropOp29
 70
     1
102
RTVSPost2010Prop30
280
     1
102
RTVSPost2010PropOp30
 70
     1
102
RTVSPost2010Prop31
280
     0
102
RTVSPost2010PropOp31
 70
     1
102
RTVSPost2010Prop32
280
     0
102
RTVSPost2010PropOp32
 70
     1
102
RTVSPost2010Prop33
280
     0
102
RTVSPost2010PropOp33
 70
     1
102
RTVSPost2010Prop34
280
     0
102
RTVSPost2010PropOp34
 70
     1
102
RTVSPost2010Prop35
280
     0
102
RTVSPost2010PropOp35
 70
     1
102
RTVSPost2010Prop36
280
     0
102
RTVSPost2010PropOp36
 70
     1
102
RTVSPost2010Prop37
 90
       50
102
RTVSPost2010PropOp37
 70
     1
102
RTVSPost2010Prop38
140
0.0
102
RTVSPost2010PropOp38
 70
     1
102
RTVSPost2010Prop39
140
1.0
102
RTVSPost2010PropOp39
 70
     1
102
RTVSPost2010Prop40
 90
        0
102
RTVSPost2010PropOp40
 70
     1
102
RTVSPost2010Prop41ColorIndex
 90
       18
102
RTVSPost2010Prop41ColorRGB
 90
        0
102
RTVSPost2010PropOp41
 70
     1
102
RTVSPost2010Prop42
 90
       50
102
RTVSPost2010PropOp42
 70
     1
102
RTVSPost2010Prop43
 90
        3
102
RTVSPost2010PropOp43
 70
     1
102
RTVSPost2010Prop44ColorIndex
 90
        5
102
RTVSPost2010Prop44ColorRGB
 90
      255
102
RTVSPost2010PropOp44
 70
     1
102
RTVSPost2010Prop45
280
     0
102
RTVSPost2010PropOp45
 70
     1
102
RTVSPost2010Prop46
 90
       50
102
RTVSPost2010PropOp46
 70
     1
102
RTVSPost2010Prop47
 90
       50
102
RTVSPost2010PropOp47
 70
     1
102
RTVSPost2010Prop48
 90
       50
102
RTVSPost2010PropOp48
 70
     1
102
RTVSPost2010Prop49
280
     0
102
RTVSPost2010PropOp49
 70
     1
102
RTVSPost2010Prop50
 90
       50
102
RTVSPost2010PropOp50
 70
     1
102
RTVSPost2010Prop51ColorIndex
 90
      256
102
RTVSPost2010Prop51ColorRGB
 90
-16777216
102
RTVSPost2010PropOp51
 70
     0
102
RTVSPost2010Prop52
140
1.0
102
RTVSPost2010PropOp52
 70
     0
102
RTVSPost2010Prop53
 90
        2
102
RTVSPost2010PropOp53
 70
     1
102
RTVSPost2010Prop54
  1
strokes_ogs.tif
102
RTVSPost2010PropOp54
 70
     1
102
RTVSPost2010Prop55
280
     0
102
RTVSPost2010PropOp55
 70
     1
102
RTVSPost2010Prop56
140
1.0
102
RTVSPost2010PropOp56
 70
     1
102
RTVSPost2010Prop57
140
1.0
102
RTVSPost2010PropOp57
 70
     1
102
RTVSPropertyOp0
 70
     1
102
RTVSPropertyOp1
 70
     1
102
RTVSPropertyOp2
 70
     1
102
RTVSPropertyOp3
 70
     1
102
RTVSPropertyOp4
 70
     1
102
RTVSPropertyOp5
 70
     1
102
RTVSPropertyOp6
 70
     1
102
RTVSPropertyOp7
 70
     1
102
RTVSPropertyOp8
 70
     1
102
RTVSPropertyOp9
 70
     1
102
RTVSPropertyOp10
 70
     1
102
RTVSPropertyOp11
 70
     1
102
RTVSPropertyOp12
 70
     1
102
RTVSPropertyOp13
 70
     1
102
RTVSPropertyOp14
 70
     1
102
RTVSPropertyOp15
 70
     1
102
RTVSPropertyOp16
 70
     1
102
RTVSPropertyOp17
 70
     1
102
RTVSPropertyOp18
 70
     1
102
RTVSPropertyOp19
 70
     1
102
RTVSPropertyOp20
 70
     1
102
RTVSPropertyOp21
 70
     1
102
RTVSPropertyOp22
 70
     1
102
RTVSPropertyOp23
 70
     1
102
RTVSPropertyOp24
 70
     1
102
RTVSPropertyOp25
 70
     1
102
RTVSPropertyOp26
 70
     1
102
RTVSPropertyOp27
 70
     1
102
RTVSPropertyOp28
 70
     1
102
RTVSPropertyOp29
 70
     1
102
RTVSPropertyOp30
 70
     1
102
RTVSPropertyOp31
 70
     1
102
RTVSPropertyOp32
 70
     1
102
RTVSPropertyOp33
 70
     1
102
RTVSPropertyOp34
 70
     1
102
RTVSPropertyOp35
 70
     1
102
RTVSPropertyOp36
 70
     1
102
RTVSPropertyOp37
 70
     1
102
RTVSPropertyOp38
 70
     1
102
RTVSPropertyOp39
 70
     1
102
RTVSPropertyOp40
 70
     1
102
RTVSPropertyOp41
 70
     1
102
RTVSPropertyOp42
 70
     1
102
RTVSPropertyOp43
 70
     1
102
RTVSPropertyOp44
 70
     1
102
RTVSPropertyOp45
 70
     1
102
RTVSPropertyOp46
 70
     1
102
RTVSPropertyOp47
 70
     1
102
RTVSPropertyOp48
 70
     1
102
RTVSPropertyOp49
 70
     1
102
RTVSPropertyOp50
 70
     1
102
RTVSPropertyOp51
 70
     0
102
RTVSPropertyOp52
 70
     0
102
RTVSPropertyOp53
 70
     1
102
RTVSPropertyOp54
 70
     1
102
RTVSPropertyOp55
 70
     1
102
RTVSPropertyOp56
 70
     1
102
RTVSPropertyOp57
 70
     1
102
RTVSPropertyOp58
 70
     1
102
RTVSPropertyOp59
 70
     1
102
RTVSPropertyOp60
 70
     1
102
RTVSPropertyOp61
 70
     1
102
RTVSPropertyOp62
 70
     1
  0
ENDSEC
  0
EOF
