  0
SECTION
  2
HEADER
  9
$ACADVER
  1
AC1015
  9
$ACADMAINTVER
 70
    20
  9
$DWGCODEPAGE
  3
ANSI_932
  9
$INSBASE
 10
0.0
 20
0.0
 30
0.0
  9
$EXTMIN
 10
25.6954462186
 20
-35.3568651451
 30
0.0
  9
$EXTMAX
 10
704.3296154024
 20
379.4567509467
 30
0.0
  9
$LIMMIN
 10
-25.7016887913
 20
-28.4288986506
  9
$LIMMAX
 10
976.8987518792
 20
647.4257556928
  9
$ORTHOMODE
 70
     1
  9
$REGENMODE
 70
     1
  9
$FILLMODE
 70
     1
  9
$QTEXTMODE
 70
     0
  9
$MIRRTEXT
 70
     0
  9
$LTSCALE
 40
2.0
  9
$ATTMODE
 70
     1
  9
$TEXTSIZE
 40
2.0
  9
$TRACEWID
 40
1.0
  9
$TEXTSTYLE
  7
STANDARD
  9
$CLAYER
  8
0
  9
$CELTYPE
  6
BYLAYER
  9
$CECOLOR
 62
   256
  9
$CELTSCALE
 40
1.0
  9
$DISPSILH
 70
     0
  9
$DIMSCALE
 40
2.0
  9
$DIMASZ
 40
1.8
  9
$DIMEXO
 40
0.625
  9
$DIMDLI
 40
3.75
  9
$DIMRND
 40
0.0
  9
$DIMDLE
 40
0.0
  9
$DIMEXE
 40
1.25
  9
$DIMTP
 40
0.0
  9
$DIMTM
 40
0.0
  9
$DIMTXT
 40
1.8
  9
$DIMCEN
 40
2.5
  9
$DIMTSZ
 40
0.0
  9
$DIMTOL
 70
     0
  9
$DIMLIM
 70
     0
  9
$DIMTIH
 70
     0
  9
$DIMTOH
 70
     0
  9
$DIMSE1
 70
     0
  9
$DIMSE2
 70
     0
  9
$DIMTAD
 70
     1
  9
$DIMZIN
 70
     8
  9
$DIMBLK
  1

  9
$DIMASO
 70
     1
  9
$DIMSHO
 70
     1
  9
$DIMPOST
  1

  9
$DIMAPOST
  1

  9
$DIMALT
 70
     0
  9
$DIMALTD
 70
     4
  9
$DIMALTF
 40
0.0394
  9
$DIMLFAC
 40
1.0
  9
$DIMTOFL
 70
     1
  9
$DIMTVP
 40
0.0
  9
$DIMTIX
 70
     0
  9
$DIMSOXD
 70
     0
  9
$DIMSAH
 70
     0
  9
$DIMBLK1
  1

  9
$DIMBLK2
  1

  9
$DIMSTYLE
  2
STANDARD
  9
$DIMCLRD
 70
     0
  9
$DIMCLRE
 70
     0
  9
$DIMCLRT
 70
     0
  9
$DIMTFAC
 40
1.0
  9
$DIMGAP
 40
0.75
  9
$DIMJUST
 70
     0
  9
$DIMSD1
 70
     0
  9
$DIMSD2
 70
     0
  9
$DIMTOLJ
 70
     1
  9
$DIMTZIN
 70
     0
  9
$DIMALTZ
 70
     0
  9
$DIMALTTZ
 70
     0
  9
$DIMUPT
 70
     0
  9
$DIMDEC
 70
     2
  9
$DIMTDEC
 70
     2
  9
$DIMALTU
 70
     8
  9
$DIMALTTD
 70
     4
  9
$DIMTXSTY
  7
STANDARD
  9
$DIMAUNIT
 70
     0
  9
$DIMADEC
 70
     2
  9
$DIMALTRND
 40
0.0
  9
$DIMAZIN
 70
     0
  9
$DIMDSEP
 70
    46
  9
$DIMATFIT
 70
     3
  9
$DIMFRAC
 70
     0
  9
$DIMLDRBLK
  1

  9
$DIMLUNIT
 70
     6
  9
$DIMLWD
 70
    -2
  9
$DIMLWE
 70
    -2
  9
$DIMTMOVE
 70
     0
  9
$LUNITS
 70
     2
  9
$LUPREC
 70
     3
  9
$SKETCHINC
 40
1.0
  9
$FILLETRAD
 40
10.0
  9
$AUNITS
 70
     0
  9
$AUPREC
 70
     2
  9
$MENU
  1
.
  9
$ELEVATION
 40
0.0
  9
$PELEVATION
 40
0.0
  9
$THICKNESS
 40
0.0
  9
$LIMCHECK
 70
     0
  9
$CHAMFERA
 40
0.0
  9
$CHAMFERB
 40
0.0
  9
$CHAMFERC
 40
20.0
  9
$CHAMFERD
 40
0.0
  9
$SKPOLY
 70
     0
  9
$TDCREATE
 40
2453557.579675926
  9
$TDUCREATE
 40
2453557.204687130
  9
$TDUPDATE
 40
2460164.362719908
  9
$TDUUPDATE
 40
2460163.987719908
  9
$TDINDWG
 40
0.6397737384
  9
$TDUSRTIMER
 40
0.6397737384
  9
$USRTIMER
 70
     1
  9
$ANGBASE
 50
0.0
  9
$ANGDIR
 70
     0
  9
$PDMODE
 70
     0
  9
$PDSIZE
 40
-10.0
  9
$PLINEWID
 40
0.0
  9
$SPLFRAME
 70
     0
  9
$SPLINETYPE
 70
     6
  9
$SPLINESEGS
 70
     8
  9
$HANDSEED
  5
44CF
  9
$SURFTAB1
 70
     6
  9
$SURFTAB2
 70
     6
  9
$SURFTYPE
 70
     6
  9
$SURFU
 70
     6
  9
$SURFV
 70
     6
  9
$UCSBASE
  2

  9
$UCSNAME
  2

  9
$UCSORG
 10
0.0
 20
0.0
 30
0.0
  9
$UCSXDIR
 10
1.0
 20
0.0
 30
0.0
  9
$UCSYDIR
 10
0.0
 20
1.0
 30
0.0
  9
$UCSORTHOREF
  2

  9
$UCSORTHOVIEW
 70
     0
  9
$UCSORGTOP
 10
0.0
 20
0.0
 30
0.0
  9
$UCSORGBOTTOM
 10
0.0
 20
0.0
 30
0.0
  9
$UCSORGLEFT
 10
0.0
 20
0.0
 30
0.0
  9
$UCSORGRIGHT
 10
0.0
 20
0.0
 30
0.0
  9
$UCSORGFRONT
 10
0.0
 20
0.0
 30
0.0
  9
$UCSORGBACK
 10
0.0
 20
0.0
 30
0.0
  9
$PUCSBASE
  2

  9
$PUCSNAME
  2

  9
$PUCSORG
 10
0.0
 20
0.0
 30
0.0
  9
$PUCSXDIR
 10
1.0
 20
0.0
 30
0.0
  9
$PUCSYDIR
 10
0.0
 20
1.0
 30
0.0
  9
$PUCSORTHOREF
  2

  9
$PUCSORTHOVIEW
 70
     0
  9
$PUCSORGTOP
 10
0.0
 20
0.0
 30
0.0
  9
$PUCSORGBOTTOM
 10
0.0
 20
0.0
 30
0.0
  9
$PUCSORGLEFT
 10
0.0
 20
0.0
 30
0.0
  9
$PUCSORGRIGHT
 10
0.0
 20
0.0
 30
0.0
  9
$PUCSORGFRONT
 10
0.0
 20
0.0
 30
0.0
  9
$PUCSORGBACK
 10
0.0
 20
0.0
 30
0.0
  9
$USERI1
 70
     0
  9
$USERI2
 70
     0
  9
$USERI3
 70
     0
  9
$USERI4
 70
     0
  9
$USERI5
 70
     0
  9
$USERR1
 40
0.0
  9
$USERR2
 40
0.0
  9
$USERR3
 40
0.0
  9
$USERR4
 40
0.0
  9
$USERR5
 40
0.0
  9
$WORLDVIEW
 70
     1
  9
$SHADEDGE
 70
     3
  9
$SHADEDIF
 70
    70
  9
$TILEMODE
 70
     1
  9
$MAXACTVP
 70
    48
  9
$PINSBASE
 10
0.0
 20
0.0
 30
0.0
  9
$PLIMCHECK
 70
     0
  9
$PEXTMIN
 10
0.0
 20
0.0
 30
0.0
  9
$PEXTMAX
 10
0.0
 20
0.0
 30
0.0
  9
$PLIMMIN
 10
0.0
 20
0.0
  9
$PLIMMAX
 10
12.0
 20
9.0
  9
$UNITMODE
 70
     0
  9
$VISRETAIN
 70
     1
  9
$PLINEGEN
 70
     0
  9
$PSLTSCALE
 70
     1
  9
$TREEDEPTH
 70
  3020
  9
$CMLSTYLE
  2
STANDARD
  9
$CMLJUST
 70
     0
  9
$CMLSCALE
 40
1.0
  9
$PROXYGRAPHICS
 70
     1
  9
$MEASUREMENT
 70
     0
  9
$CELWEIGHT
370
    -1
  9
$ENDCAPS
280
     0
  9
$JOINSTYLE
280
     0
  9
$LWDISPLAY
290
     0
  9
$INSUNITS
 70
     0
  9
$HYPERLINKBASE
  1

  9
$STYLESHEET
  1
SEKKEI.CTB
  9
$XEDIT
290
     1
  9
$CEPSNTYPE
380
     0
  9
$PSTYLEMODE
290
     1
  9
$FINGERPRINTGUID
  2
{6385560B-F4B1-4644-A7C2-A3E32AC3D232}
  9
$VERSIONGUID
  2
{31D5EEC2-5F8F-F042-B73E-FF478BF2A7AE}
  9
$EXTNAMES
290
     1
  9
$PSVPSCALE
 40
0.0
  9
$OLESTARTUP
290
     0
  0
ENDSEC
  0
SECTION
  2
CLASSES
  0
CLASS
  1
DICTIONARYVAR
  2
AcDbDictionaryVar
  3
ObjectDBX Classes
 90
        0
280
     0
281
     0
  0
CLASS
  1
ACDBDICTIONARYWDFLT
  2
AcDbDictionaryWithDefault
  3
ObjectDBX Classes
 90
        0
280
     0
281
     0
  0
CLASS
  1
MATERIAL
  2
AcDbMaterial
  3
ObjectDBX Classes
 90
     1153
280
     0
281
     0
  0
CLASS
  1
VISUALSTYLE
  2
AcDbVisualStyle
  3
ObjectDBX Classes
 90
     4095
280
     0
281
     0
  0
CLASS
  1
TABLESTYLE
  2
AcDbTableStyle
  3
ObjectDBX Classes
 90
     4095
280
     0
281
     0
  0
CLASS
  1
SCALE
  2
AcDbScale
  3
ObjectDBX Classes
 90
     1153
280
     0
281
     0
  0
CLASS
  1
MLEADERSTYLE
  2
AcDbMLeaderStyle
  3
ACDB_MLEADERSTYLE_CLASS
 90
     4095
280
     0
281
     0
  0
CLASS
  1
CELLSTYLEMAP
  2
AcDbCellStyleMap
  3
ObjectDBX Classes
 90
     1152
280
     0
281
     0
  0
CLASS
  1
ACAD_EVALUATION_GRAPH
  2
AcDbEvalGraph
  3
ObjectDBX Classes
 90
    33921
280
     0
281
     0
  0
CLASS
  1
ACAECUSTOBJ
  2
AcAeEditorObj
  3
AcAeEditorObj
 90
    33792
280
     0
281
     0
  0
CLASS
  1
ACDB_DYNAMICBLOCKPURGEPREVENTER_VERSION
  2
AcDbDynamicBlockPurgePreventer
  3
ObjectDBX Classes
 90
    33921
280
     0
281
     0
  0
CLASS
  1
ACDB_BLOCKREPRESENTATION_DATA
  2
AcDbBlockRepresentationData
  3
ObjectDBX Classes
 90
    33921
280
     0
281
     0
  0
CLASS
  1
ACDBSECTIONVIEWSTYLE
  2
AcDbSectionViewStyle
  3
ObjectDBX Classes
 90
     1025
280
     0
281
     0
  0
CLASS
  1
ACDBDETAILVIEWSTYLE
  2
AcDbDetailViewStyle
  3
ObjectDBX Classes
 90
     1025
280
     0
281
     0
  0
CLASS
  1
SORTENTSTABLE
  2
AcDbSortentsTable
  3
ObjectDBX Classes
 90
    32768
280
     0
281
     0
  0
CLASS
  1
ACDBPLACEHOLDER
  2
AcDbPlaceHolder
  3
ObjectDBX Classes
 90
        0
280
     0
281
     0
  0
CLASS
  1
LAYOUT
  2
AcDbLayout
  3
ObjectDBX Classes
 90
        0
280
     0
281
     0
  0
ENDSEC
  0
SECTION
  2
TABLES
  0
TABLE
  2
VPORT
  5
6E
102
{ACAD_XDICTIONARY
360
30CE
102
}
330
0
100
AcDbSymbolTable
 70
     1
  0
VPORT
  5
2F0D
330
6E
100
AcDbSymbolTableRecord
100
AcDbViewportTableRecord
  2
*Active
 70
     0
 10
0.0
 20
0.0
 11
1.0
 21
1.0
 12
459.094176732
 22
189.6125159484
 13
0.0
 23
0.0
 14
10.0
 24
10.0
 15
12.0
 25
12.0
 16
0.0
 26
0.0
 36
1.0
 17
0.0
 27
0.0
 37
0.0
 40
421.405814216
 41
1.4710526316
 42
50.0
 43
0.0
 44
0.0
 50
0.0
 51
0.0
 71
     0
 72
   100
 73
     1
 74
     3
 75
     0
 76
     0
 77
     0
 78
     0
281
     0
 65
     1
110
0.0
120
0.0
130
0.0
111
1.0
121
0.0
131
0.0
112
0.0
122
1.0
132
0.0
 79
     0
146
0.0
1001
ACAD_NAV_VCDISPLAY
1070
     3
  0
ENDTAB
  0
TABLE
  2
LTYPE
  5
69
330
0
100
AcDbSymbolTable
 70
     3
  0
LTYPE
  5
6A
330
69
100
AcDbSymbolTableRecord
100
AcDbLinetypeTableRecord
  2
BYBLOCK
 70
     0
  3

 72
    65
 73
     0
 40
0.0
  0
LTYPE
  5
6B
330
69
100
AcDbSymbolTableRecord
100
AcDbLinetypeTableRecord
  2
BYLAYER
 70
     0
  3

 72
    65
 73
     0
 40
0.0
  0
LTYPE
  5
8
330
69
100
AcDbSymbolTableRecord
100
AcDbLinetypeTableRecord
  2
CONTINUOUS
 70
     0
  3
Solid line
 72
    65
 73
     0
 40
0.0
  0
LTYPE
  5
27C
330
69
100
AcDbSymbolTableRecord
100
AcDbLinetypeTableRecord
  2
sekkei(A2)
 70
     0
  3
center(A2)  ____ _ ____ _ ____ _ ____ _ ____ _ 
 72
    65
 73
     4
 40
14.2875
 49
9.525
 74
     0
 49
-1.5875
 74
     0
 49
1.5875
 74
     0
 49
-1.5875
 74
     0
  0
LTYPE
  5
2B4
330
69
100
AcDbSymbolTableRecord
100
AcDbLinetypeTableRecord
  2
HIDDEN2
 70
     0
  3
Hidden (.5x) _ _ _ _ _ _ _ _ _ _ _ _ _ _ _ _ _
 72
    65
 73
     2
 40
4.7625
 49
3.175
 74
     0
 49
-1.5875
 74
     0
  0
ENDTAB
  0
TABLE
  2
LAYER
  5
66
102
{ACAD_XDICTIONARY
360
2F70
102
}
330
0
100
AcDbSymbolTable
 70
    10
  0
LAYER
  5
5E
102
{ACAD_XDICTIONARY
360
30B7
102
}
330
66
100
AcDbSymbolTableRecord
100
AcDbLayerTableRecord
  2
0
 70
     0
 62
     7
  6
CONTINUOUS
370
    -3
390
5
  0
LAYER
  5
3E
102
{ACAD_XDICTIONARY
360
30B9
102
}
330
66
100
AcDbSymbolTableRecord
100
AcDbLayerTableRecord
  2
CENTER
 70
     0
 62
     3
  6
sekkei(A2)
370
    -3
390
5
  0
LAYER
  5
135
330
66
100
AcDbSymbolTableRecord
100
AcDbLayerTableRecord
  2
DEFPOINTS
 70
     0
 62
     7
  6
CONTINUOUS
290
     0
370
    -3
390
5
  0
LAYER
  5
2B5
102
{ACAD_XDICTIONARY
360
30BF
102
}
330
66
100
AcDbSymbolTableRecord
100
AcDbLayerTableRecord
  2
HIDS
 70
     0
 62
     1
  6
HIDDEN2
370
    -3
390
5
  0
LAYER
  5
2BA
102
{ACAD_XDICTIONARY
360
30C1
102
}
330
66
100
AcDbSymbolTableRecord
100
AcDbLayerTableRecord
  2
HOJO
 70
     0
 62
     4
  6
CONTINUOUS
370
    -3
390
5
  0
LAYER
  5
3FA
102
{ACAD_XDICTIONARY
360
30C5
102
}
330
66
100
AcDbSymbolTableRecord
100
AcDbLayerTableRecord
  2
TITLE
 70
     0
 62
     4
  6
CONTINUOUS
290
     0
370
    -3
390
5
  0
LAYER
  5
2F6D
102
{ACAD_XDICTIONARY
360
2F6E
102
}
330
66
100
AcDbSymbolTableRecord
100
AcDbLayerTableRecord
  2
TITLE_C
 70
     0
 62
     4
  6
CONTINUOUS
370
    -3
390
5
1001
AcAecLayerStandard
1000

1000

  0
ENDTAB
  0
TABLE
  2
STYLE
  5
67
330
0
100
AcDbSymbolTable
 70
     1
  0
STYLE
  5
16
330
67
100
AcDbSymbolTableRecord
100
AcDbTextStyleTableRecord
  2
STANDARD
 70
     0
 40
0.0
 41
1.0
 50
0.0
 71
     0
 42
2.0
  3
simplex.shx
  4
extfont.shx
  0
ENDTAB
  0
TABLE
  2
VIEW
  5
6C
330
0
100
AcDbSymbolTable
 70
     0
  0
ENDTAB
  0
TABLE
  2
UCS
  5
6D
330
0
100
AcDbSymbolTable
 70
     0
  0
ENDTAB
  0
TABLE
  2
APPID
  5
70
330
0
100
AcDbSymbolTable
 70
    11
  0
APPID
  5
71
330
70
100
AcDbSymbolTableRecord
100
AcDbRegAppTableRecord
  2
ACAD
 70
     0
  0
APPID
  5
2F6F
330
70
100
AcDbSymbolTableRecord
100
AcDbRegAppTableRecord
  2
AcAecLayerStandard
 70
     0
  0
APPID
  5
2F8E
330
70
100
AcDbSymbolTableRecord
100
AcDbRegAppTableRecord
  2
ACAD_EXEMPT_FROM_CAD_STANDARDS
 70
     0
  0
APPID
  5
312A
330
70
100
AcDbSymbolTableRecord
100
AcDbRegAppTableRecord
  2
ACAD_MLEADERVER
 70
     0
  0
APPID
  5
3796
330
70
100
AcDbSymbolTableRecord
100
AcDbRegAppTableRecord
  2
AcadAnnoAV
 70
     0
  0
APPID
  5
37BC
330
70
100
AcDbSymbolTableRecord
100
AcDbRegAppTableRecord
  2
ACAUTHENVIRON
 70
     0
  0
APPID
  5
37C0
330
70
100
AcDbSymbolTableRecord
100
AcDbRegAppTableRecord
  2
AcDbDynamicBlockTrueName
 70
     0
  0
APPID
  5
37C1
330
70
100
AcDbSymbolTableRecord
100
AcDbRegAppTableRecord
  2
AcDbDynamicBlockGUID
 70
     0
  0
APPID
  5
37C3
330
70
100
AcDbSymbolTableRecord
100
AcDbRegAppTableRecord
  2
AcDbBlockRepETag
 70
     0
  0
APPID
  5
3997
330
70
100
AcDbSymbolTableRecord
100
AcDbRegAppTableRecord
  2
AcDbBlockRepBTag
 70
     0
  0
APPID
  5
3E94
330
70
100
AcDbSymbolTableRecord
100
AcDbRegAppTableRecord
  2
ACAD_NAV_VCDISPLAY
 70
     0
  0
ENDTAB
  0
TABLE
  2
DIMSTYLE
  5
72
330
0
100
AcDbSymbolTable
 70
     1
100
AcDbDimStyleTable
 71
     1
340
73
  0
DIMSTYLE
105
73
102
{ACAD_REACTORS
330
1444
330
144A
330
14E2
330
155D
102
}
330
72
100
AcDbSymbolTableRecord
100
AcDbDimStyleTableRecord
  2
STANDARD
 70
     0
 40
2.0
 41
1.8
 42
0.625
 43
3.75
 44
1.25
 73
     0
 74
     0
 77
     1
 78
     8
140
1.8
141
2.5
143
0.0394
147
0.75
171
     4
172
     1
179
     2
271
     2
272
     2
273
     8
274
     4
277
     6
340
16
  0
ENDTAB
  0
TABLE
  2
BLOCK_RECORD
  5
1
330
0
100
AcDbSymbolTable
 70
    60
  0
BLOCK_RECORD
  5
2
330
1
100
AcDbSymbolTableRecord
100
AcDbBlockTableRecord
  2
*MODEL_SPACE
340
60
  0
BLOCK_RECORD
  5
4456
330
1
100
AcDbSymbolTableRecord
100
AcDbBlockTableRecord
  2
*Paper_Space
340
4457
  0
BLOCK_RECORD
  5
4AC
330
1
100
AcDbSymbolTableRecord
100
AcDbBlockTableRecord
  2
黒丸矢印1
340
0
  0
BLOCK_RECORD
  5
1661
330
1
100
AcDbSymbolTableRecord
100
AcDbBlockTableRecord
  2
*D2
340
0
  0
BLOCK_RECORD
  5
1685
330
1
100
AcDbSymbolTableRecord
100
AcDbBlockTableRecord
  2
*D3
340
0
  0
BLOCK_RECORD
  5
1691
330
1
100
AcDbSymbolTableRecord
100
AcDbBlockTableRecord
  2
*D4
340
0
  0
BLOCK_RECORD
  5
169D
330
1
100
AcDbSymbolTableRecord
100
AcDbBlockTableRecord
  2
*D5
340
0
  0
BLOCK_RECORD
  5
16A9
330
1
100
AcDbSymbolTableRecord
100
AcDbBlockTableRecord
  2
*D6
340
0
  0
BLOCK_RECORD
  5
16B5
330
1
100
AcDbSymbolTableRecord
100
AcDbBlockTableRecord
  2
*D7
340
0
  0
BLOCK_RECORD
  5
16C1
330
1
100
AcDbSymbolTableRecord
100
AcDbBlockTableRecord
  2
*D8
340
0
  0
BLOCK_RECORD
  5
16CD
330
1
100
AcDbSymbolTableRecord
100
AcDbBlockTableRecord
  2
*D9
340
0
  0
BLOCK_RECORD
  5
16E6
330
1
100
AcDbSymbolTableRecord
100
AcDbBlockTableRecord
  2
*D10
340
0
  0
BLOCK_RECORD
  5
16F2
330
1
100
AcDbSymbolTableRecord
100
AcDbBlockTableRecord
  2
*D11
340
0
  0
BLOCK_RECORD
  5
16FE
330
1
100
AcDbSymbolTableRecord
100
AcDbBlockTableRecord
  2
*D12
340
0
  0
BLOCK_RECORD
  5
170A
330
1
100
AcDbSymbolTableRecord
100
AcDbBlockTableRecord
  2
*D13
340
0
  0
BLOCK_RECORD
  5
1716
330
1
100
AcDbSymbolTableRecord
100
AcDbBlockTableRecord
  2
*D14
340
0
  0
BLOCK_RECORD
  5
1722
330
1
100
AcDbSymbolTableRecord
100
AcDbBlockTableRecord
  2
*D15
340
0
  0
BLOCK_RECORD
  5
172E
330
1
100
AcDbSymbolTableRecord
100
AcDbBlockTableRecord
  2
*D16
340
0
  0
BLOCK_RECORD
  5
173A
330
1
100
AcDbSymbolTableRecord
100
AcDbBlockTableRecord
  2
*D17
340
0
  0
BLOCK_RECORD
  5
1746
330
1
100
AcDbSymbolTableRecord
100
AcDbBlockTableRecord
  2
*D18
340
0
  0
BLOCK_RECORD
  5
1752
330
1
100
AcDbSymbolTableRecord
100
AcDbBlockTableRecord
  2
*D19
340
0
  0
BLOCK_RECORD
  5
175E
330
1
100
AcDbSymbolTableRecord
100
AcDbBlockTableRecord
  2
*D20
340
0
  0
BLOCK_RECORD
  5
176A
330
1
100
AcDbSymbolTableRecord
100
AcDbBlockTableRecord
  2
*D21
340
0
  0
BLOCK_RECORD
  5
1776
330
1
100
AcDbSymbolTableRecord
100
AcDbBlockTableRecord
  2
*D22
340
0
  0
BLOCK_RECORD
  5
1784
330
1
100
AcDbSymbolTableRecord
100
AcDbBlockTableRecord
  2
*D23
340
0
  0
BLOCK_RECORD
  5
287B
330
1
100
AcDbSymbolTableRecord
100
AcDbBlockTableRecord
  2
*D24
340
0
  0
BLOCK_RECORD
  5
289B
330
1
100
AcDbSymbolTableRecord
100
AcDbBlockTableRecord
  2
*D25
340
0
  0
BLOCK_RECORD
  5
28B1
330
1
100
AcDbSymbolTableRecord
100
AcDbBlockTableRecord
  2
*D26
340
0
  0
BLOCK_RECORD
  5
28C7
330
1
100
AcDbSymbolTableRecord
100
AcDbBlockTableRecord
  2
*D27
340
0
  0
BLOCK_RECORD
  5
28DD
330
1
100
AcDbSymbolTableRecord
100
AcDbBlockTableRecord
  2
*D28
340
0
  0
BLOCK_RECORD
  5
2E4F
330
1
100
AcDbSymbolTableRecord
100
AcDbBlockTableRecord
  2
*D30
340
0
  0
BLOCK_RECORD
  5
2E5A
330
1
100
AcDbSymbolTableRecord
100
AcDbBlockTableRecord
  2
*D31
340
0
  0
BLOCK_RECORD
  5
2E66
330
1
100
AcDbSymbolTableRecord
100
AcDbBlockTableRecord
  2
*D32
340
0
  0
BLOCK_RECORD
  5
41B0
330
1
100
AcDbSymbolTableRecord
100
AcDbBlockTableRecord
  2
*D58
340
0
  0
ENDTAB
  0
ENDSEC
  0
SECTION
  2
BLOCKS
  0
BLOCK
  5
5D
330
2
100
AcDbEntity
  8
0
100
AcDbBlockBegin
  2
*MODEL_SPACE
 70
     0
 10
0.0
 20
0.0
 30
0.0
  3
*MODEL_SPACE
  1

  0
ENDBLK
  5
5F
330
2
100
AcDbEntity
  8
0
100
AcDbBlockEnd
  0
BLOCK
  5
4458
330
4456
100
AcDbEntity
 67
     1
  8
0
100
AcDbBlockBegin
  2
*Paper_Space
 70
     0
 10
0.0
 20
0.0
 30
0.0
  3
*Paper_Space
  1

  0
ENDBLK
  5
4459
330
4456
100
AcDbEntity
 67
     1
  8
0
100
AcDbBlockEnd
  0
BLOCK
  5
4B0
330
4AC
100
AcDbEntity
  8
0
100
AcDbBlockBegin
  2
黒丸矢印1
 70
     0
 10
0.0
 20
0.0
 30
0.0
  3
黒丸矢印1
  1

  0
HATCH
  5
4AD
330
4AC
100
AcDbEntity
  8
0
100
AcDbHatch
 10
0.0
 20
0.0
 30
0.0
210
0.0
220
0.0
230
1.0
  2
SOLID
 70
     1
 71
     1
 91
        1
 92
        7
 72
     1
 73
     1
 93
        2
 10
-0.25
 20
0.0
 42
1.0
 10
0.25
 20
0.0
 42
1.0
 97
        1
330
4AE
 75
     0
 76
     1
 47
0.0031599728
 98
        1
 10
-0.0919668375711354
 20
0.0618998464179867
  0
CIRCLE
  5
4AE
102
{ACAD_REACTORS
330
4AD
102
}
330
4AC
100
AcDbEntity
  8
0
100
AcDbCircle
 10
0.0
 20
0.0
 30
0.0
 40
0.25
  0
LINE
  5
4AF
330
4AC
100
AcDbEntity
  8
0
100
AcDbLine
 10
0.0
 20
0.0
 30
0.0
 11
-1.0
 21
0.0
 31
0.0
  0
ENDBLK
  5
4B1
330
4AC
100
AcDbEntity
  8
0
100
AcDbBlockEnd
  0
BLOCK
  5
166B
330
1661
100
AcDbEntity
  8
0
100
AcDbBlockBegin
  2
*D2
 70
     1
 10
0.0
 20
0.0
 30
0.0
  3
*D2
  1

  0
POINT
  5
384D
330
1661
100
AcDbEntity
  8
DEFPOINTS
 62
     0
100
AcDbPoint
 10
497.8895549769
 20
92.4414558458
 30
0.0
  0
POINT
  5
384E
330
1661
100
AcDbEntity
  8
DEFPOINTS
 62
     0
100
AcDbPoint
 10
497.8895549769
 20
173.4414558458
 30
0.0
  0
POINT
  5
384F
330
1661
100
AcDbEntity
  8
DEFPOINTS
 62
     0
100
AcDbPoint
 10
443.3393334471
 20
173.4414558458
 30
0.0
  0
ENDBLK
  5
166C
330
1661
100
AcDbEntity
  8
0
100
AcDbBlockEnd
  0
BLOCK
  5
168F
330
1685
100
AcDbEntity
  8
0
100
AcDbBlockBegin
  2
*D3
 70
     1
 10
0.0
 20
0.0
 30
0.0
  3
*D3
  1

  0
POINT
  5
3856
330
1685
100
AcDbEntity
  8
DEFPOINTS
 62
     0
100
AcDbPoint
 10
295.0737074322
 20
93.1483878458
 30
0.0
  0
POINT
  5
3857
330
1685
100
AcDbEntity
  8
DEFPOINTS
 62
     0
100
AcDbPoint
 10
376.0737074322
 20
93.1483878458
 30
0.0
  0
POINT
  5
3858
330
1685
100
AcDbEntity
  8
DEFPOINTS
 62
     0
100
AcDbPoint
 10
376.0737074322
 20
39.066723117
 30
0.0
  0
ENDBLK
  5
1690
330
1685
100
AcDbEntity
  8
0
100
AcDbBlockEnd
  0
BLOCK
  5
169B
330
1691
100
AcDbEntity
  8
0
100
AcDbBlockBegin
  2
*D4
 70
     1
 10
0.0
 20
0.0
 30
0.0
  3
*D4
  1

  0
POINT
  5
385F
330
1691
100
AcDbEntity
  8
DEFPOINTS
 62
     0
100
AcDbPoint
 10
335.5737074322
 20
86.4006848458
 30
0.0
  0
POINT
  5
3860
330
1691
100
AcDbEntity
  8
DEFPOINTS
 62
     0
100
AcDbPoint
 10
295.0737074322
 20
93.1483878458
 30
0.0
  0
POINT
  5
3861
330
1691
100
AcDbEntity
  8
DEFPOINTS
 62
     0
100
AcDbPoint
 10
295.0737074322
 20
51.0287903282
 30
0.0
  0
ENDBLK
  5
169C
330
1691
100
AcDbEntity
  8
0
100
AcDbBlockEnd
  0
BLOCK
  5
16A7
330
169D
100
AcDbEntity
  8
0
100
AcDbBlockBegin
  2
*D5
 70
     1
 10
0.0
 20
0.0
 30
0.0
  3
*D5
  1

  0
POINT
  5
3868
330
169D
100
AcDbEntity
  8
DEFPOINTS
 62
     0
100
AcDbPoint
 10
335.5737074322
 20
86.4006848458
 30
0.0
  0
POINT
  5
3869
330
169D
100
AcDbEntity
  8
DEFPOINTS
 62
     0
100
AcDbPoint
 10
376.0737074322
 20
93.1483878458
 30
0.0
  0
POINT
  5
386A
330
169D
100
AcDbEntity
  8
DEFPOINTS
 62
     0
100
AcDbPoint
 10
376.0737074322
 20
51.0287903282
 30
0.0
  0
ENDBLK
  5
16A8
330
169D
100
AcDbEntity
  8
0
100
AcDbBlockEnd
  0
BLOCK
  5
16B3
330
16A9
100
AcDbEntity
  8
0
100
AcDbBlockBegin
  2
*D6
 70
     1
 10
0.0
 20
0.0
 30
0.0
  3
*D6
  1

  0
POINT
  5
3872
330
16A9
100
AcDbEntity
  8
DEFPOINTS
 62
     0
100
AcDbPoint
 10
307.5737074322
 20
92.9301948458
 30
0.0
  0
POINT
  5
3873
330
16A9
100
AcDbEntity
  8
DEFPOINTS
 62
     0
100
AcDbPoint
 10
295.0737074322
 20
93.1483878458
 30
0.0
  0
POINT
  5
3874
330
16A9
100
AcDbEntity
  8
DEFPOINTS
 62
     0
100
AcDbPoint
 10
295.0737074322
 20
74.9692062098
 30
0.0
  0
ENDBLK
  5
16B4
330
16A9
100
AcDbEntity
  8
0
100
AcDbBlockEnd
  0
BLOCK
  5
16BF
330
16B5
100
AcDbEntity
  8
0
100
AcDbBlockBegin
  2
*D7
 70
     1
 10
0.0
 20
0.0
 30
0.0
  3
*D7
  1

  0
POINT
  5
387D
330
16B5
100
AcDbEntity
  8
DEFPOINTS
 62
     0
100
AcDbPoint
 10
295.0737074322
 20
103.6914558458
 30
0.0
  0
POINT
  5
387E
330
16B5
100
AcDbEntity
  8
DEFPOINTS
 62
     0
100
AcDbPoint
 10
295.0737074322
 20
95.1914558458
 30
0.0
  0
POINT
  5
387F
330
16B5
100
AcDbEntity
  8
DEFPOINTS
 62
     0
100
AcDbPoint
 10
275.4253583707
 20
95.1914558458
 30
0.0
  0
ENDBLK
  5
16C0
330
16B5
100
AcDbEntity
  8
0
100
AcDbBlockEnd
  0
BLOCK
  5
16CB
330
16C1
100
AcDbEntity
  8
0
100
AcDbBlockBegin
  2
*D8
 70
     1
 10
0.0
 20
0.0
 30
0.0
  3
*D8
  1

  0
POINT
  5
3886
330
16C1
100
AcDbEntity
  8
DEFPOINTS
 62
     0
100
AcDbPoint
 10
343.5737074322
 20
95.4414558458
 30
0.0
  0
POINT
  5
3887
330
16C1
100
AcDbEntity
  8
DEFPOINTS
 62
     0
100
AcDbPoint
 10
376.0737074322
 20
93.1483878458
 30
0.0
  0
POINT
  5
3888
330
16C1
100
AcDbEntity
  8
DEFPOINTS
 62
     0
100
AcDbPoint
 10
376.0737074322
 20
63.1615491141
 30
0.0
  0
ENDBLK
  5
16CC
330
16C1
100
AcDbEntity
  8
0
100
AcDbBlockEnd
  0
BLOCK
  5
16D7
330
16CD
100
AcDbEntity
  8
0
100
AcDbBlockBegin
  2
*D9
 70
     1
 10
0.0
 20
0.0
 30
0.0
  3
*D9
  1

  0
POINT
  5
388F
330
16CD
100
AcDbEntity
  8
DEFPOINTS
 62
     0
100
AcDbPoint
 10
307.5737074322
 20
92.9301989569
 30
0.0
  0
POINT
  5
3890
330
16CD
100
AcDbEntity
  8
DEFPOINTS
 62
     0
100
AcDbPoint
 10
327.5737074322
 20
95.4414558458
 30
0.0
  0
POINT
  5
3891
330
16CD
100
AcDbEntity
  8
DEFPOINTS
 62
     0
100
AcDbPoint
 10
327.5737074322
 20
74.9692062098
 30
0.0
  0
ENDBLK
  5
16D8
330
16CD
100
AcDbEntity
  8
0
100
AcDbBlockEnd
  0
BLOCK
  5
16F0
330
16E6
100
AcDbEntity
  8
0
100
AcDbBlockBegin
  2
*D10
 70
     1
 10
0.0
 20
0.0
 30
0.0
  3
*D10
  1

  0
POINT
  5
38A1
330
16E6
100
AcDbEntity
  8
DEFPOINTS
 62
     0
100
AcDbPoint
 10
327.5737074322
 20
95.4414558458
 30
0.0
  0
POINT
  5
38A2
330
16E6
100
AcDbEntity
  8
DEFPOINTS
 62
     0
100
AcDbPoint
 10
295.0737074322
 20
93.1483878458
 30
0.0
  0
POINT
  5
38A3
330
16E6
100
AcDbEntity
  8
DEFPOINTS
 62
     0
100
AcDbPoint
 10
295.0737074322
 20
63.1615491141
 30
0.0
  0
ENDBLK
  5
16F1
330
16E6
100
AcDbEntity
  8
0
100
AcDbBlockEnd
  0
BLOCK
  5
16FC
330
16F2
100
AcDbEntity
  8
0
100
AcDbBlockBegin
  2
*D11
 70
     1
 10
0.0
 20
0.0
 30
0.0
  3
*D11
  1

  0
POINT
  5
38AA
330
16F2
100
AcDbEntity
  8
DEFPOINTS
 62
     0
100
AcDbPoint
 10
490.8895549769
 20
166.4414558458
 30
0.0
  0
POINT
  5
38AB
330
16F2
100
AcDbEntity
  8
DEFPOINTS
 62
     0
100
AcDbPoint
 10
684.4450359769
 20
164.9414558458
 30
0.0
  0
POINT
  5
38AC
330
16F2
100
AcDbEntity
  8
DEFPOINTS
 62
     0
100
AcDbPoint
 10
684.4450359769
 20
233.4411989343
 30
0.0
  0
ENDBLK
  5
16FD
330
16F2
100
AcDbEntity
  8
0
100
AcDbBlockEnd
  0
BLOCK
  5
1708
330
16FE
100
AcDbEntity
  8
0
100
AcDbBlockBegin
  2
*D12
 70
     1
 10
0.0
 20
0.0
 30
0.0
  3
*D12
  1

  0
POINT
  5
38B3
330
16FE
100
AcDbEntity
  8
DEFPOINTS
 62
     0
100
AcDbPoint
 10
590.8895549769
 20
166.4414558458
 30
0.0
  0
POINT
  5
38B4
330
16FE
100
AcDbEntity
  8
DEFPOINTS
 62
     0
100
AcDbPoint
 10
490.8895549769
 20
166.4414558458
 30
0.0
  0
POINT
  5
38B5
330
16FE
100
AcDbEntity
  8
DEFPOINTS
 62
     0
100
AcDbPoint
 10
490.8895549769
 20
221.7210748306
 30
0.0
  0
ENDBLK
  5
1709
330
16FE
100
AcDbEntity
  8
0
100
AcDbBlockEnd
  0
BLOCK
  5
1714
330
170A
100
AcDbEntity
  8
0
100
AcDbBlockBegin
  2
*D13
 70
     1
 10
0.0
 20
0.0
 30
0.0
  3
*D13
  1

  0
POINT
  5
38BC
330
170A
100
AcDbEntity
  8
DEFPOINTS
 62
     0
100
AcDbPoint
 10
529.8895549769
 20
163.0483288458
 30
0.0
  0
POINT
  5
38BD
330
170A
100
AcDbEntity
  8
DEFPOINTS
 62
     0
100
AcDbPoint
 10
590.8895549769
 20
166.4414558458
 30
0.0
  0
POINT
  5
38BE
330
170A
100
AcDbEntity
  8
DEFPOINTS
 62
     0
100
AcDbPoint
 10
590.8895549769
 20
209.6004913494
 30
0.0
  0
ENDBLK
  5
1715
330
170A
100
AcDbEntity
  8
0
100
AcDbBlockEnd
  0
BLOCK
  5
1720
330
1716
100
AcDbEntity
  8
0
100
AcDbBlockBegin
  2
*D14
 70
     1
 10
0.0
 20
0.0
 30
0.0
  3
*D14
  1

  0
POINT
  5
38C5
330
1716
100
AcDbEntity
  8
DEFPOINTS
 62
     0
100
AcDbPoint
 10
529.8895549769
 20
163.0483288458
 30
0.0
  0
POINT
  5
38C6
330
1716
100
AcDbEntity
  8
DEFPOINTS
 62
     0
100
AcDbPoint
 10
490.8895549769
 20
166.4414558458
 30
0.0
  0
POINT
  5
38C7
330
1716
100
AcDbEntity
  8
DEFPOINTS
 62
     0
100
AcDbPoint
 10
490.8895549769
 20
209.6004913494
 30
0.0
  0
ENDBLK
  5
1721
330
1716
100
AcDbEntity
  8
0
100
AcDbBlockEnd
  0
BLOCK
  5
172C
330
1722
100
AcDbEntity
  8
0
100
AcDbBlockBegin
  2
*D15
 70
     1
 10
0.0
 20
0.0
 30
0.0
  3
*D15
  1

  0
POINT
  5
38CE
330
1722
100
AcDbEntity
  8
DEFPOINTS
 62
     0
100
AcDbPoint
 10
483.3487839769
 20
132.9414558458
 30
0.0
  0
POINT
  5
38CF
330
1722
100
AcDbEntity
  8
DEFPOINTS
 62
     0
100
AcDbPoint
 10
497.8895549769
 20
173.4414558458
 30
0.0
  0
POINT
  5
38D0
330
1722
100
AcDbEntity
  8
DEFPOINTS
 62
     0
100
AcDbPoint
 10
455.4011644222
 20
173.4414558458
 30
0.0
  0
ENDBLK
  5
172D
330
1722
100
AcDbEntity
  8
0
100
AcDbBlockEnd
  0
BLOCK
  5
1738
330
172E
100
AcDbEntity
  8
0
100
AcDbBlockBegin
  2
*D16
 70
     1
 10
0.0
 20
0.0
 30
0.0
  3
*D16
  1

  0
POINT
  5
38D7
330
172E
100
AcDbEntity
  8
DEFPOINTS
 62
     0
100
AcDbPoint
 10
483.3487839769
 20
132.9414558458
 30
0.0
  0
POINT
  5
38D8
330
172E
100
AcDbEntity
  8
DEFPOINTS
 62
     0
100
AcDbPoint
 10
489.9109169769
 20
166.4414558458
 30
0.0
  0
POINT
  5
38D9
330
172E
100
AcDbEntity
  8
DEFPOINTS
 62
     0
100
AcDbPoint
 10
467.3041788063
 20
166.4414558458
 30
0.0
  0
ENDBLK
  5
1739
330
172E
100
AcDbEntity
  8
0
100
AcDbBlockEnd
  0
BLOCK
  5
1744
330
173A
100
AcDbEntity
  8
0
100
AcDbBlockBegin
  2
*D17
 70
     1
 10
0.0
 20
0.0
 30
0.0
  3
*D17
  1

  0
POINT
  5
38E2
330
173A
100
AcDbEntity
  8
DEFPOINTS
 62
     0
100
AcDbPoint
 10
520.3895549769
 20
130.4414558458
 30
0.0
  0
POINT
  5
38E3
330
173A
100
AcDbEntity
  8
DEFPOINTS
 62
     0
100
AcDbPoint
 10
520.3895549769
 20
135.4414558458
 30
0.0
  0
POINT
  5
38E4
330
173A
100
AcDbEntity
  8
DEFPOINTS
 62
     0
100
AcDbPoint
 10
479.3146002658
 20
135.4414558458
 30
0.0
  0
ENDBLK
  5
1745
330
173A
100
AcDbEntity
  8
0
100
AcDbBlockEnd
  0
BLOCK
  5
1750
330
1746
100
AcDbEntity
  8
0
100
AcDbBlockBegin
  2
*D18
 70
     1
 10
0.0
 20
0.0
 30
0.0
  3
*D18
  1

  0
POINT
  5
38EB
330
1746
100
AcDbEntity
  8
DEFPOINTS
 62
     0
100
AcDbPoint
 10
483.3487839769
 20
132.9414558458
 30
0.0
  0
POINT
  5
38EC
330
1746
100
AcDbEntity
  8
DEFPOINTS
 62
     0
100
AcDbPoint
 10
497.8895549769
 20
92.4414558458
 30
0.0
  0
POINT
  5
38ED
330
1746
100
AcDbEntity
  8
DEFPOINTS
 62
     0
100
AcDbPoint
 10
455.4011644222
 20
92.4414558458
 30
0.0
  0
ENDBLK
  5
1751
330
1746
100
AcDbEntity
  8
0
100
AcDbBlockEnd
  0
BLOCK
  5
175C
330
1752
100
AcDbEntity
  8
0
100
AcDbBlockBegin
  2
*D19
 70
     1
 10
0.0
 20
0.0
 30
0.0
  3
*D19
  1

  0
POINT
  5
38F4
330
1752
100
AcDbEntity
  8
DEFPOINTS
 62
     0
100
AcDbPoint
 10
483.3487839769
 20
132.9414558458
 30
0.0
  0
POINT
  5
38F5
330
1752
100
AcDbEntity
  8
DEFPOINTS
 62
     0
100
AcDbPoint
 10
489.9109169769
 20
99.4414558458
 30
0.0
  0
POINT
  5
38F6
330
1752
100
AcDbEntity
  8
DEFPOINTS
 62
     0
100
AcDbPoint
 10
467.3041788063
 20
99.4414558458
 30
0.0
  0
ENDBLK
  5
175D
330
1752
100
AcDbEntity
  8
0
100
AcDbBlockEnd
  0
BLOCK
  5
1768
330
175E
100
AcDbEntity
  8
0
100
AcDbBlockBegin
  2
*D20
 70
     1
 10
0.0
 20
0.0
 30
0.0
  3
*D20
  1

  0
POINT
  5
38FD
330
175E
100
AcDbEntity
  8
DEFPOINTS
 62
     0
100
AcDbPoint
 10
529.8895549769
 20
163.0483288458
 30
0.0
  0
POINT
  5
38FE
330
175E
100
AcDbEntity
  8
DEFPOINTS
 62
     0
100
AcDbPoint
 10
497.8895549769
 20
174.4200938458
 30
0.0
  0
POINT
  5
38FF
330
175E
100
AcDbEntity
  8
DEFPOINTS
 62
     0
100
AcDbPoint
 10
497.8895549769
 20
197.5516329539
 30
0.0
  0
ENDBLK
  5
1769
330
175E
100
AcDbEntity
  8
0
100
AcDbBlockEnd
  0
BLOCK
  5
1774
330
176A
100
AcDbEntity
  8
0
100
AcDbBlockBegin
  2
*D21
 70
     1
 10
0.0
 20
0.0
 30
0.0
  3
*D21
  1

  0
POINT
  5
3906
330
176A
100
AcDbEntity
  8
DEFPOINTS
 62
     0
100
AcDbPoint
 10
529.8895549769
 20
163.0483288458
 30
0.0
  0
POINT
  5
3907
330
176A
100
AcDbEntity
  8
DEFPOINTS
 62
     0
100
AcDbPoint
 10
583.8895549769
 20
174.4200938458
 30
0.0
  0
POINT
  5
3908
330
176A
100
AcDbEntity
  8
DEFPOINTS
 62
     0
100
AcDbPoint
 10
583.8895549769
 20
197.5516329539
 30
0.0
  0
ENDBLK
  5
1775
330
176A
100
AcDbEntity
  8
0
100
AcDbBlockEnd
  0
BLOCK
  5
1782
330
1776
100
AcDbEntity
  8
0
100
AcDbBlockBegin
  2
*D22
 70
     1
 10
0.0
 20
0.0
 30
0.0
  3
*D22
  1

  0
POINT
  5
3910
330
1776
100
AcDbEntity
  8
DEFPOINTS
 62
     0
100
AcDbPoint
 10
520.3895549769
 20
135.4414558458
 30
0.0
  0
POINT
  5
3911
330
1776
100
AcDbEntity
  8
DEFPOINTS
 62
     0
100
AcDbPoint
 10
537.3895549769
 20
132.9414558458
 30
0.0
  0
POINT
  5
3912
330
1776
100
AcDbEntity
  8
DEFPOINTS
 62
     0
100
AcDbPoint
 10
537.3895549769
 20
185.8083665245
 30
0.0
  0
ENDBLK
  5
1783
330
1776
100
AcDbEntity
  8
0
100
AcDbBlockEnd
  0
BLOCK
  5
178E
330
1784
100
AcDbEntity
  8
0
100
AcDbBlockBegin
  2
*D23
 70
     1
 10
0.0
 20
0.0
 30
0.0
  3
*D23
  1

  0
POINT
  5
3919
330
1784
100
AcDbEntity
  8
DEFPOINTS
 62
     0
100
AcDbPoint
 10
680.4809859769
 20
170.9414558458
 30
0.0
  0
POINT
  5
391A
330
1784
100
AcDbEntity
  8
DEFPOINTS
 62
     0
100
AcDbPoint
 10
680.4809859769
 20
94.9414558458
 30
0.0
  0
POINT
  5
391B
330
1784
100
AcDbEntity
  8
DEFPOINTS
 62
     0
100
AcDbPoint
 10
701.8296154024
 20
94.9414558458
 30
0.0
  0
ENDBLK
  5
178F
330
1784
100
AcDbEntity
  8
0
100
AcDbBlockEnd
  0
BLOCK
  5
2885
330
287B
100
AcDbEntity
  8
0
100
AcDbBlockBegin
  2
*D24
 70
     1
 10
0.0
 20
0.0
 30
0.0
  3
*D24
  1

  0
POINT
  5
3923
330
287B
100
AcDbEntity
  8
DEFPOINTS
 62
     0
100
AcDbPoint
 10
404.0737074322
 20
125.4414558458
 30
0.0
  0
POINT
  5
3924
330
287B
100
AcDbEntity
  8
DEFPOINTS
 62
     0
100
AcDbPoint
 10
404.0737074322
 20
140.4414558458
 30
0.0
  0
POINT
  5
3925
330
287B
100
AcDbEntity
  8
DEFPOINTS
 62
     0
100
AcDbPoint
 10
420.0940112705
 20
140.4414558458
 30
0.0
  0
ENDBLK
  5
2886
330
287B
100
AcDbEntity
  8
0
100
AcDbBlockEnd
  0
BLOCK
  5
28A5
330
289B
100
AcDbEntity
  8
0
100
AcDbBlockBegin
  2
*D25
 70
     1
 10
0.0
 20
0.0
 30
0.0
  3
*D25
  1

  0
POINT
  5
392C
330
289B
100
AcDbEntity
  8
DEFPOINTS
 62
     0
100
AcDbPoint
 10
380.0737074322
 20
132.9414558458
 30
0.0
  0
POINT
  5
392D
330
289B
100
AcDbEntity
  8
DEFPOINTS
 62
     0
100
AcDbPoint
 10
404.0737074322
 20
140.4414558458
 30
0.0
  0
POINT
  5
392E
330
289B
100
AcDbEntity
  8
DEFPOINTS
 62
     0
100
AcDbPoint
 10
404.0737074322
 20
197.9289500056
 30
0.0
  0
ENDBLK
  5
28A6
330
289B
100
AcDbEntity
  8
0
100
AcDbBlockEnd
  0
BLOCK
  5
28BB
330
28B1
100
AcDbEntity
  8
0
100
AcDbBlockBegin
  2
*D26
 70
     1
 10
0.0
 20
0.0
 30
0.0
  3
*D26
  1

  0
POINT
  5
3935
330
28B1
100
AcDbEntity
  8
DEFPOINTS
 62
     0
100
AcDbPoint
 10
377.0737074322
 20
140.7528568458
 30
0.0
  0
POINT
  5
3936
330
28B1
100
AcDbEntity
  8
DEFPOINTS
 62
     0
100
AcDbPoint
 10
404.0737074322
 20
140.4414558458
 30
0.0
  0
POINT
  5
3937
330
28B1
100
AcDbEntity
  8
DEFPOINTS
 62
     0
100
AcDbPoint
 10
404.0737074322
 20
209.6722164351
 30
0.0
  0
ENDBLK
  5
28BC
330
28B1
100
AcDbEntity
  8
0
100
AcDbBlockEnd
  0
BLOCK
  5
28D1
330
28C7
100
AcDbEntity
  8
0
100
AcDbBlockBegin
  2
*D27
 70
     1
 10
0.0
 20
0.0
 30
0.0
  3
*D27
  1

  0
POINT
  5
393E
330
28C7
100
AcDbEntity
  8
DEFPOINTS
 62
     0
100
AcDbPoint
 10
335.5737074322
 20
208.8289538458
 30
0.0
  0
POINT
  5
393F
330
28C7
100
AcDbEntity
  8
DEFPOINTS
 62
     0
100
AcDbPoint
 10
404.0737074322
 20
140.4414558458
 30
0.0
  0
POINT
  5
3940
330
28C7
100
AcDbEntity
  8
DEFPOINTS
 62
     0
100
AcDbPoint
 10
404.0737074322
 20
221.7210748306
 30
0.0
  0
ENDBLK
  5
28D2
330
28C7
100
AcDbEntity
  8
0
100
AcDbBlockEnd
  0
BLOCK
  5
28E7
330
28DD
100
AcDbEntity
  8
0
100
AcDbBlockBegin
  2
*D28
 70
     1
 10
0.0
 20
0.0
 30
0.0
  3
*D28
  1

  0
POINT
  5
3947
330
28DD
100
AcDbEntity
  8
DEFPOINTS
 62
     0
100
AcDbPoint
 10
295.0737074322
 20
172.7344548458
 30
0.0
  0
POINT
  5
3948
330
28DD
100
AcDbEntity
  8
DEFPOINTS
 62
     0
100
AcDbPoint
 10
404.0737074322
 20
140.4414558458
 30
0.0
  0
POINT
  5
3949
330
28DD
100
AcDbEntity
  8
DEFPOINTS
 62
     0
100
AcDbPoint
 10
404.0737074322
 20
233.4411989343
 30
0.0
  0
ENDBLK
  5
28E8
330
28DD
100
AcDbEntity
  8
0
100
AcDbBlockEnd
  0
BLOCK
  5
2E58
330
2E4F
100
AcDbEntity
  8
0
100
AcDbBlockBegin
  2
*D30
 70
     1
 10
0.0
 20
0.0
 30
0.0
  3
*D30
  1

  0
POINT
  5
394F
330
2E4F
100
AcDbEntity
  8
DEFPOINTS
 62
     0
100
AcDbPoint
 10
623.9449679769
 20
203.4414538458
 30
0.0
  0
POINT
  5
3950
330
2E4F
100
AcDbEntity
  8
DEFPOINTS
 62
     0
100
AcDbPoint
 10
609.6948703569
 20
170.9414558458
 30
0.0
  0
POINT
  5
3951
330
2E4F
100
AcDbEntity
  8
DEFPOINTS
 62
     0
100
AcDbPoint
 10
609.6948703569
 20
170.9414558458
 30
0.0
  0
ENDBLK
  5
2E59
330
2E4F
100
AcDbEntity
  8
0
100
AcDbBlockEnd
  0
BLOCK
  5
2E64
330
2E5A
100
AcDbEntity
  8
0
100
AcDbBlockBegin
  2
*D31
 70
     1
 10
0.0
 20
0.0
 30
0.0
  3
*D31
  1

  0
POINT
  5
3958
330
2E5A
100
AcDbEntity
  8
DEFPOINTS
 62
     0
100
AcDbPoint
 10
622.9449679769
 20
202.4414538458
 30
0.0
  0
POINT
  5
3959
330
2E5A
100
AcDbEntity
  8
DEFPOINTS
 62
     0
100
AcDbPoint
 10
672.9449749769
 20
202.4414538458
 30
0.0
  0
POINT
  5
395A
330
2E5A
100
AcDbEntity
  8
DEFPOINTS
 62
     0
100
AcDbPoint
 10
672.9449749769
 20
221.7210748306
 30
0.0
  0
ENDBLK
  5
2E65
330
2E5A
100
AcDbEntity
  8
0
100
AcDbBlockEnd
  0
BLOCK
  5
2E71
330
2E66
100
AcDbEntity
  8
0
100
AcDbBlockBegin
  2
*D32
 70
     1
 10
0.0
 20
0.0
 30
0.0
  3
*D32
  1

  0
POINT
  5
3962
330
2E66
100
AcDbEntity
  8
DEFPOINTS
 62
     0
100
AcDbPoint
 10
672.9449749769
 20
202.4414538458
 30
0.0
  0
POINT
  5
3963
330
2E66
100
AcDbEntity
  8
DEFPOINTS
 62
     0
100
AcDbPoint
 10
684.4449749769
 20
160.9414558458
 30
0.0
  0
POINT
  5
3964
330
2E66
100
AcDbEntity
  8
DEFPOINTS
 62
     0
100
AcDbPoint
 10
684.4449749769
 20
221.7210748306
 30
0.0
  0
ENDBLK
  5
2E72
330
2E66
100
AcDbEntity
  8
0
100
AcDbBlockEnd
  0
BLOCK
  5
41B1
330
41B0
100
AcDbEntity
  8
0
100
AcDbBlockBegin
  2
*D58
 70
     1
 10
0.0
 20
0.0
 30
0.0
  3
*D58
  1

  0
POINT
  5
41C6
330
41B0
100
AcDbEntity
  8
DEFPOINTS
 62
     0
100
AcDbPoint
 10
332.3244976915
 20
102.6414558458
 30
0.0
  0
POINT
  5
41C7
330
41B0
100
AcDbEntity
  8
DEFPOINTS
 62
     0
100
AcDbPoint
 10
332.8335002426
 20
96.2414558458
 30
0.0
  0
POINT
  5
41C8
330
41B0
100
AcDbEntity
  8
DEFPOINTS
 62
     0
100
AcDbPoint
 10
333.5136798705
 20
96.2414558458
 30
0.0
  0
ENDBLK
  5
41B2
330
41B0
100
AcDbEntity
  8
0
100
AcDbBlockEnd
  0
ENDSEC
  0
SECTION
  2
ENTITIES
  0
LINE
  5
762
330
2
100
AcDbEntity
  8
HIDS
100
AcDbLine
 10
307.5737074322
 20
162.4414558458
 30
0.0
 11
327.5737074322
 21
162.4414558458
 31
0.0
  0
LINE
  5
763
330
2
100
AcDbEntity
  8
HIDS
100
AcDbLine
 10
307.5737074322
 20
170.4414558458
 30
0.0
 11
327.5737074322
 21
170.4414558458
 31
0.0
  0
LINE
  5
764
330
2
100
AcDbEntity
  8
HOJO
100
AcDbLine
 10
307.5737074322
 20
95.4414558458
 30
0.0
 11
327.5737074322
 21
95.4414558458
 31
0.0
  0
LINE
  5
765
330
2
100
AcDbEntity
  8
HOJO
100
AcDbLine
 10
307.5737074322
 20
103.4414558458
 30
0.0
 11
327.5737074322
 21
103.4414558458
 31
0.0
  0
LINE
  5
76A
330
2
100
AcDbEntity
  8
0
100
AcDbLine
 10
326.2757034322
 20
121.7678408458
 30
0.0
 11
307.5737074322
 21
121.4414558458
 31
0.0
  0
LINE
  5
76B
330
2
100
AcDbEntity
  8
0
100
AcDbLine
 10
326.2757034322
 20
144.1150708458
 30
0.0
 11
307.5737074322
 21
144.4414558458
 31
0.0
  0
LINE
  5
76C
330
2
100
AcDbEntity
  8
0
100
AcDbLine
 10
328.6087114322
 20
148.0742678458
 30
0.0
 11
307.5737074322
 21
148.4414558458
 31
0.0
  0
LINE
  5
76D
330
2
100
AcDbEntity
  8
0
100
AcDbLine
 10
328.6087114322
 20
117.8086438458
 30
0.0
 11
307.5737074322
 21
117.4414558458
 31
0.0
  0
LINE
  5
76E
330
2
100
AcDbEntity
  8
CENTER
100
AcDbLine
 10
292.5687024322
 20
166.4414558458
 30
0.0
 11
379.6175004322
 21
166.4414558458
 31
0.0
  0
LINE
  5
76F
330
2
100
AcDbEntity
  8
CENTER
100
AcDbLine
 10
292.5687024322
 20
99.4414558458
 30
0.0
 11
379.6175004322
 21
99.4414558458
 31
0.0
  0
LINE
  5
770
330
2
100
AcDbEntity
  8
HIDS
100
AcDbLine
 10
314.5387034322
 20
95.3086588458
 30
0.0
 11
335.5737074322
 21
94.9414558458
 31
0.0
  0
LINE
  5
771
330
2
100
AcDbEntity
  8
HIDS
100
AcDbLine
 10
314.5387034322
 20
170.5742678458
 30
0.0
 11
335.5737074322
 21
170.9414558458
 31
0.0
  0
LINE
  5
772
330
2
100
AcDbEntity
  8
0
100
AcDbLine
 10
335.5737074322
 20
92.4414558458
 30
0.0
 11
295.0737074322
 21
93.1484568458
 31
0.0
  0
LINE
  5
773
330
2
100
AcDbEntity
  8
0
100
AcDbLine
 10
335.5737074322
 20
173.4414558458
 30
0.0
 11
295.0737074322
 21
172.7344548458
 31
0.0
  0
LINE
  5
774
330
2
100
AcDbEntity
  8
CENTER
100
AcDbLine
 10
286.0785604322
 20
132.9414558458
 30
0.0
 11
406.5531084322
 21
132.9414558458
 31
0.0
  0
CIRCLE
  5
775
330
2
100
AcDbEntity
  8
HOJO
100
AcDbCircle
 10
134.7714721868
 20
99.4414558458
 30
0.0
 40
4.0
  0
CIRCLE
  5
776
330
2
100
AcDbEntity
  8
0
100
AcDbCircle
 10
134.7714721868
 20
99.4414558458
 30
0.0
 40
4.25
  0
CIRCLE
  5
777
330
2
100
AcDbEntity
  8
HOJO
100
AcDbCircle
 10
220.7714721868
 20
99.4414558458
 30
0.0
 40
4.0
  0
CIRCLE
  5
778
330
2
100
AcDbEntity
  8
0
100
AcDbCircle
 10
220.7714721868
 20
99.4414558458
 30
0.0
 40
4.25
  0
CIRCLE
  5
779
330
2
100
AcDbEntity
  8
0
100
AcDbCircle
 10
220.7714721868
 20
99.4414558458
 30
0.0
 40
3.2
  0
CIRCLE
  5
77A
330
2
100
AcDbEntity
  8
0
100
AcDbCircle
 10
134.7714721868
 20
99.4414558458
 30
0.0
 40
3.2
  0
LINE
  5
77B
330
2
100
AcDbEntity
  8
0
100
AcDbLine
 10
34.7159761868
 20
167.9414558458
 30
0.0
 11
34.7159761868
 21
97.9414558458
 31
0.0
  0
LINE
  5
77C
330
2
100
AcDbEntity
  8
0
100
AcDbLine
 10
34.2159761868
 20
164.9414558458
 30
0.0
 11
34.2159761868
 21
100.9414558458
 31
0.0
  0
LINE
  5
77D
330
2
100
AcDbEntity
  8
0
100
AcDbLine
 10
54.7159761868
 20
170.9414558458
 30
0.0
 11
54.7159761868
 21
94.9414558458
 31
0.0
  0
ARC
  5
77E
330
2
100
AcDbEntity
  8
0
100
AcDbCircle
 10
147.7714721868
 20
101.2016488458
 30
0.0
 40
2.0
100
AcDbArc
 50
0.0
 51
40.601299
  0
LINE
  5
77F
330
2
100
AcDbEntity
  8
0
100
AcDbLine
 10
151.7714721868
 20
101.9414558458
 30
0.0
 11
151.7714721868
 21
100.0764658458
 31
0.0
  0
ARC
  5
780
330
2
100
AcDbEntity
  8
0
100
AcDbCircle
 10
207.7714721868
 20
101.2016488458
 30
0.0
 40
2.0
100
AcDbArc
 50
139.398697
 51
180.0
  0
LINE
  5
781
330
2
100
AcDbEntity
  8
0
100
AcDbLine
 10
203.7714721868
 20
101.9414558458
 30
0.0
 11
203.7714721868
 21
100.0764658458
 31
0.0
  0
LINE
  5
782
330
2
100
AcDbEntity
  8
0
100
AcDbLine
 10
127.7714721868
 20
116.6130558458
 30
0.0
 11
127.7714721868
 21
99.4414558458
 31
0.0
  0
LINE
  5
783
330
2
100
AcDbEntity
  8
0
100
AcDbLine
 10
227.7714721868
 20
99.4414558458
 30
0.0
 11
227.7714721868
 21
166.4414558458
 31
0.0
  0
LINE
  5
786
330
2
100
AcDbEntity
  8
0
100
AcDbLine
 10
295.0737074322
 20
172.7344548458
 30
0.0
 11
295.0737074322
 21
93.1484568458
 31
0.0
  0
ARC
  5
787
330
2
100
AcDbEntity
  8
HIDS
100
AcDbCircle
 10
309.5737074322
 20
101.2396428458
 30
0.0
 40
3.0
100
AcDbArc
 50
0.0
 51
50.643299
  0
LINE
  5
788
330
2
100
AcDbEntity
  8
0
100
AcDbLine
 10
307.5737074322
 20
172.9526558458
 30
0.0
 11
307.5737074322
 21
92.9302558458
 31
0.0
  0
LINE
  5
78A
330
2
100
AcDbEntity
  8
0
100
AcDbLine
 10
54.7159761868
 20
94.9414558458
 30
0.0
 11
126.4127381868
 21
94.9414558458
 31
0.0
  0
LINE
  5
78B
330
2
100
AcDbEntity
  8
0
100
AcDbLine
 10
38.1800721868
 20
94.9414558458
 30
0.0
 11
54.7159761868
 21
94.9414558458
 31
0.0
  0
ARC
  5
78C
330
2
100
AcDbEntity
  8
0
100
AcDbCircle
 10
38.1800721868
 20
97.9414558458
 30
0.0
 40
3.0
100
AcDbArc
 50
209.999603
 51
270.0
  0
LINE
  5
78D
330
2
100
AcDbEntity
  8
0
100
AcDbLine
 10
35.5819731868
 20
96.4414558458
 30
0.0
 11
34.7159761868
 21
97.9414558458
 31
0.0
  0
LINE
  5
78E
330
2
100
AcDbEntity
  8
0
100
AcDbLine
 10
34.2159761868
 20
100.9414558458
 30
0.0
 11
34.7159761868
 21
100.4414558458
 31
0.0
  0
ARC
  5
78F
330
2
100
AcDbEntity
  8
0
100
AcDbCircle
 10
196.7714721868
 20
119.4414558458
 30
0.0
 40
22.0
100
AcDbArc
 50
270.0
 51
290.487305
  0
LINE
  5
790
330
2
100
AcDbEntity
  8
0
100
AcDbLine
 10
134.7714721868
 20
92.4414558458
 30
0.0
 11
220.7714721868
 21
92.4414558458
 31
0.0
  0
ARC
  5
791
330
2
100
AcDbEntity
  8
0
100
AcDbCircle
 10
143.5768461868
 20
89.8776588458
 30
0.0
 40
6.0
100
AcDbArc
 50
59.641701
 51
132.635895
  0
LINE
  5
792
330
2
100
AcDbEntity
  8
0
100
AcDbLine
 10
127.1078521868
 20
94.8168528458
 30
0.0
 11
132.3384891868
 21
92.8778568458
 31
0.0
  0
ARC
  5
793
330
2
100
AcDbEntity
  8
0
100
AcDbCircle
 10
134.7714721868
 20
99.4414558458
 30
0.0
 40
7.0
100
AcDbArc
 50
180.0
 51
312.635895
  0
ARC
  5
795
330
2
100
AcDbEntity
  8
0
100
AcDbCircle
 10
126.4127381868
 20
92.9414558458
 30
0.0
 40
2.0
100
AcDbArc
 50
69.66127
 51
90.0
  0
LINE
  5
796
330
2
100
AcDbEntity
  8
0
100
AcDbLine
 10
196.7714721868
 20
97.4414558458
 30
0.0
 11
158.7714721868
 21
97.4414558458
 31
0.0
  0
ARC
  5
797
330
2
100
AcDbEntity
  8
0
100
AcDbCircle
 10
158.7714721868
 20
119.4414558458
 30
0.0
 40
22.0
100
AcDbArc
 50
249.512703
 51
270.0
  0
ARC
  5
798
330
2
100
AcDbEntity
  8
0
100
AcDbCircle
 10
151.7714721868
 20
100.7064708458
 30
0.0
 40
2.0
100
AcDbArc
 50
180.0
 51
249.512695
  0
ARC
  5
799
330
2
100
AcDbEntity
  8
0
100
AcDbCircle
 10
161.7714721868
 20
120.9414558458
 30
0.0
 40
30.0
100
AcDbArc
 50
239.641701
 51
247.668404
  0
LINE
  5
79A
330
2
100
AcDbEntity
  8
0
100
AcDbLine
 10
149.7714721868
 20
101.2016488458
 30
0.0
 11
149.7714721868
 21
100.7064708458
 31
0.0
  0
ARC
  5
79B
330
2
100
AcDbEntity
  8
0
100
AcDbCircle
 10
153.7714721868
 20
100.0764658458
 30
0.0
 40
2.0
100
AcDbArc
 50
180.0
 51
255.522507
  0
ARC
  5
79C
330
2
100
AcDbEntity
  8
0
100
AcDbCircle
 10
154.1720761868
 20
102.4414558458
 30
0.0
 40
10.0
100
AcDbArc
 50
247.668404
 51
270.0
  0
ARC
  5
79D
330
2
100
AcDbEntity
  8
0
100
AcDbCircle
 10
220.7714721868
 20
99.4414558458
 30
0.0
 40
7.0
100
AcDbArc
 50
227.364105
 51
0.0
  0
ARC
  5
79F
330
2
100
AcDbEntity
  8
0
100
AcDbCircle
 10
211.9660831868
 20
89.8776588458
 30
0.0
 40
6.0
100
AcDbArc
 50
47.364071
 51
120.358299
  0
ARC
  5
7A0
330
2
100
AcDbEntity
  8
0
100
AcDbCircle
 10
193.7714721868
 20
120.9414558458
 30
0.0
 40
30.0
100
AcDbArc
 50
292.331642
 51
300.358299
  0
ARC
  5
7A1
330
2
100
AcDbEntity
  8
0
100
AcDbCircle
 10
203.7714721868
 20
100.7064708458
 30
0.0
 40
2.0
100
AcDbArc
 50
290.487312
 51
0.0
  0
ARC
  5
7A2
330
2
100
AcDbEntity
  8
0
100
AcDbCircle
 10
201.7714721868
 20
100.0764658458
 30
0.0
 40
2.0
100
AcDbArc
 50
284.477509
 51
0.0
  0
LINE
  5
7A3
330
2
100
AcDbEntity
  8
0
100
AcDbLine
 10
205.7714721868
 20
101.2016488458
 30
0.0
 11
205.7714721868
 21
100.7064708458
 31
0.0
  0
ARC
  5
7A4
330
2
100
AcDbEntity
  8
0
100
AcDbCircle
 10
201.3708681868
 20
102.4414558458
 30
0.0
 40
10.0
100
AcDbArc
 50
270.0
 51
292.331642
  0
LINE
  5
7A5
330
2
100
AcDbEntity
  8
0
100
AcDbLine
 10
295.0737074322
 20
95.1914558458
 30
0.0
 11
307.5737074322
 21
95.1914558458
 31
0.0
  0
ARC
  5
7A6
330
2
100
AcDbEntity
  8
HIDS
100
AcDbCircle
 10
314.5737074322
 20
97.3082618458
 30
0.0
 40
2.0
100
AcDbArc
 50
180.0
 51
269.0
  0
LINE
  5
7A7
330
2
100
AcDbEntity
  8
HIDS
100
AcDbLine
 10
312.5737074322
 20
97.3082618458
 30
0.0
 11
312.5737074322
 21
101.2396428458
 31
0.0
  0
LINE
  5
7A8
330
2
100
AcDbEntity
  8
0
100
AcDbLine
 10
54.7159761868
 20
163.1904488458
 30
0.0
 11
127.7714721868
 21
163.1904488458
 31
0.0
  0
LINE
  5
7A9
330
2
100
AcDbEntity
  8
0
100
AcDbLine
 10
54.7159761868
 20
102.6924628458
 30
0.0
 11
127.7714721868
 21
102.6924628458
 31
0.0
  0
LINE
  5
7AA
330
2
100
AcDbEntity
  8
0
100
AcDbLine
 10
54.7159761868
 20
170.9414558458
 30
0.0
 11
126.4127381868
 21
170.9414558458
 31
0.0
  0
LINE
  5
7AB
330
2
100
AcDbEntity
  8
CENTER
100
AcDbLine
 10
235.3122431868
 20
132.9414558458
 30
0.0
 11
25.6954462186
 21
132.9414558458
 31
0.0
  0
LINE
  5
7B0
330
2
100
AcDbEntity
  8
0
100
AcDbLine
 10
36.2975721868
 20
102.6924628458
 30
0.0
 11
54.7159761868
 21
102.6924628458
 31
0.0
  0
LINE
  5
7B1
330
2
100
AcDbEntity
  8
0
100
AcDbLine
 10
36.2975721868
 20
163.1904488458
 30
0.0
 11
54.7159761868
 21
163.1904488458
 31
0.0
  0
LINE
  5
7B2
330
2
100
AcDbEntity
  8
0
100
AcDbLine
 10
38.1800721868
 20
170.9414558458
 30
0.0
 11
54.7159761868
 21
170.9414558458
 31
0.0
  0
ARC
  5
7B3
330
2
100
AcDbEntity
  8
0
100
AcDbCircle
 10
38.1800721868
 20
167.9414558458
 30
0.0
 40
3.0
100
AcDbArc
 50
90.0
 51
150.000397
  0
LINE
  5
7B4
330
2
100
AcDbEntity
  8
0
100
AcDbLine
 10
35.5819731868
 20
169.4414558458
 30
0.0
 11
34.7159761868
 21
167.9414558458
 31
0.0
  0
LINE
  5
7B5
330
2
100
AcDbEntity
  8
0
100
AcDbLine
 10
34.2159761868
 20
164.9414558458
 30
0.0
 11
34.7159761868
 21
165.4414558458
 31
0.0
  0
CIRCLE
  5
7BD
330
2
100
AcDbEntity
  8
0
100
AcDbCircle
 10
188.7714721868
 20
132.9414558458
 30
0.0
 40
25.002001
  0
CIRCLE
  5
7BE
330
2
100
AcDbEntity
  8
0
100
AcDbCircle
 10
188.7714721868
 20
132.9414558458
 30
0.0
 40
23.0
  0
CIRCLE
  5
7BF
330
2
100
AcDbEntity
  8
0
100
AcDbCircle
 10
188.7714721868
 20
132.9414558458
 30
0.0
 40
15.0
  0
CIRCLE
  5
7C0
330
2
100
AcDbEntity
  8
0
100
AcDbCircle
 10
188.7714721868
 20
132.9414558458
 30
0.0
 40
19.0
  0
ARC
  5
7C1
330
2
100
AcDbEntity
  8
0
100
AcDbCircle
 10
196.7714721868
 20
146.4414558458
 30
0.0
 40
22.0
100
AcDbArc
 50
69.512688
 51
90.0
  0
LINE
  5
7C2
330
2
100
AcDbEntity
  8
0
100
AcDbLine
 10
134.7714721868
 20
173.4414558458
 30
0.0
 11
220.7714721868
 21
173.4414558458
 31
0.0
  0
ARC
  5
7C3
330
2
100
AcDbEntity
  8
0
100
AcDbCircle
 10
143.5768461868
 20
176.0052678458
 30
0.0
 40
6.0
100
AcDbArc
 50
227.364105
 51
300.358299
  0
LINE
  5
7C4
330
2
100
AcDbEntity
  8
0
100
AcDbLine
 10
142.2899661868
 20
113.7430608458
 30
0.0
 11
151.2900721868
 21
103.2430608458
 31
0.0
  0
LINE
  5
7C5
330
2
100
AcDbEntity
  8
0
100
AcDbLine
 10
141.3701051868
 20
111.7430608458
 30
0.0
 11
149.2900721868
 21
102.5032538458
 31
0.0
  0
LINE
  5
7C6
330
2
100
AcDbEntity
  8
0
100
AcDbLine
 10
142.2899661868
 20
152.1398508458
 30
0.0
 11
151.2900721868
 21
162.6398508458
 31
0.0
  0
LINE
  5
7C7
330
2
100
AcDbEntity
  8
0
100
AcDbLine
 10
141.3701051868
 20
154.1398508458
 30
0.0
 11
149.2900721868
 21
163.3796578458
 31
0.0
  0
LINE
  5
7C8
330
2
100
AcDbEntity
  8
0
100
AcDbLine
 10
136.7714721868
 20
146.4414558458
 30
0.0
 11
136.7714721868
 21
119.4414558458
 31
0.0
  0
LINE
  5
7C9
330
2
100
AcDbEntity
  8
0
100
AcDbLine
 10
131.7714721868
 20
122.2698558458
 30
0.0
 11
131.7714721868
 21
143.6130558458
 31
0.0
  0
LINE
  5
7CA
330
2
100
AcDbEntity
  8
0
100
AcDbLine
 10
127.2714721868
 20
158.6318548458
 30
0.0
 11
127.2714721868
 21
107.2510568458
 31
0.0
  0
ARC
  5
7CB
330
2
100
AcDbEntity
  8
0
100
AcDbCircle
 10
129.7714721868
 20
122.2698558458
 30
0.0
 40
2.0
100
AcDbArc
 50
315.0
 51
0.0
  0
ARC
  5
7CC
330
2
100
AcDbEntity
  8
0
100
AcDbCircle
 10
129.7714721868
 20
115.9414558458
 30
0.0
 40
2.0
100
AcDbArc
 50
180.0
 51
270.0
  0
CIRCLE
  5
7CE
330
2
100
AcDbEntity
  8
0
100
AcDbCircle
 10
132.2714721868
 20
109.4414558458
 30
0.0
 40
3.799999999999998
  0
ARC
  5
7CF
330
2
100
AcDbEntity
  8
0
100
AcDbCircle
 10
129.7714721868
 20
102.9414558458
 30
0.0
 40
2.0
100
AcDbArc
 50
90.0
 51
180.0
  0
LINE
  5
7D0
330
2
100
AcDbEntity
  8
0
100
AcDbLine
 10
131.1856871868
 20
120.8556708458
 30
0.0
 11
128.3572571868
 21
118.0272408458
 31
0.0
  0
LINE
  5
7D1
330
2
100
AcDbEntity
  8
0
100
AcDbLine
 10
127.2714721868
 20
107.2510568458
 30
0.0
 11
127.7714721868
 21
107.2510568458
 31
0.0
  0
ARC
  5
7D2
330
2
100
AcDbEntity
  8
0
100
AcDbCircle
 10
129.7714721868
 20
116.6130558458
 30
0.0
 40
2.0
100
AcDbArc
 50
135.0
 51
180.0
  0
CIRCLE
  5
7D4
330
2
100
AcDbEntity
  8
0
100
AcDbCircle
 10
132.2714721868
 20
109.4414558458
 30
0.0
 40
3.5
  0
ARC
  5
7D5
330
2
100
AcDbEntity
  8
0
100
AcDbCircle
 10
132.2714721868
 20
109.4414558458
 30
0.0
 40
4.5
100
AcDbArc
 50
270.0
 51
90.0
  0
LINE
  5
7D6
330
2
100
AcDbEntity
  8
0
100
AcDbLine
 10
132.2714721868
 20
107.6414678458
 30
0.0
 11
133.7714721868
 21
108.5074658458
 31
0.0
  0
LINE
  5
7D7
330
2
100
AcDbEntity
  8
0
100
AcDbLine
 10
133.7714721868
 20
110.3754458458
 30
0.0
 11
133.7714721868
 21
108.5074658458
 31
0.0
  0
LINE
  5
7D8
330
2
100
AcDbEntity
  8
0
100
AcDbLine
 10
132.2714721868
 20
111.2414438458
 30
0.0
 11
133.7714721868
 21
110.3754458458
 31
0.0
  0
LINE
  5
7D9
330
2
100
AcDbEntity
  8
0
100
AcDbLine
 10
132.2714721868
 20
111.2414438458
 30
0.0
 11
130.7714721868
 21
110.3754458458
 31
0.0
  0
LINE
  5
7DA
330
2
100
AcDbEntity
  8
0
100
AcDbLine
 10
130.7714721868
 20
110.3754458458
 30
0.0
 11
130.7714721868
 21
108.5074658458
 31
0.0
  0
LINE
  5
7DB
330
2
100
AcDbEntity
  8
0
100
AcDbLine
 10
132.2714721868
 20
107.6414678458
 30
0.0
 11
130.7714721868
 21
108.5074658458
 31
0.0
  0
LINE
  5
7DC
330
2
100
AcDbEntity
  8
0
100
AcDbLine
 10
129.7714721868
 20
104.9414558458
 30
0.0
 11
132.2714721868
 21
104.9414558458
 31
0.0
  0
LINE
  5
7DD
330
2
100
AcDbEntity
  8
0
100
AcDbLine
 10
129.7714721868
 20
113.9414558458
 30
0.0
 11
132.2714721868
 21
113.9414558458
 31
0.0
  0
ARC
  5
7DE
330
2
100
AcDbEntity
  8
0
100
AcDbCircle
 10
158.7714721868
 20
119.4414558458
 30
0.0
 40
22.0
100
AcDbArc
 50
180.0
 51
194.477493
  0
ARC
  5
7DF
330
2
100
AcDbEntity
  8
0
100
AcDbCircle
 10
139.4065581868
 20
114.4414558458
 30
0.0
 40
2.0
100
AcDbArc
 50
194.477493
 51
270.0
  0
ARC
  5
7E0
330
2
100
AcDbEntity
  8
0
100
AcDbCircle
 10
138.9977451868
 20
116.4414558458
 30
0.0
 40
2.0
100
AcDbArc
 50
188.626907
 51
270.0
  0
LINE
  5
7E1
330
2
100
AcDbEntity
  8
0
100
AcDbLine
 10
139.8515961868
 20
112.4414558458
 30
0.0
 11
139.4065581868
 21
112.4414558458
 31
0.0
  0
LINE
  5
7E2
330
2
100
AcDbEntity
  8
0
100
AcDbLine
 10
140.7714721868
 20
114.4414558458
 30
0.0
 11
138.9977451868
 21
114.4414558458
 31
0.0
  0
LINE
  5
7E3
330
2
100
AcDbEntity
  8
0
100
AcDbLine
 10
141.6071651868
 20
114.2584418458
 30
0.0
 11
140.6873051868
 21
112.2584418458
 31
0.0
  0
ARC
  5
7E4
330
2
100
AcDbEntity
  8
0
100
AcDbCircle
 10
140.7714721868
 20
112.4414558458
 30
0.0
 40
2.0
100
AcDbArc
 50
40.601299
 51
90.0
  0
ARC
  5
7E5
330
2
100
AcDbEntity
  8
0
100
AcDbCircle
 10
139.8515961868
 20
110.4414558458
 30
0.0
 40
2.0
100
AcDbArc
 50
40.601299
 51
90.0
  0
ARC
  5
7E6
330
2
100
AcDbEntity
  8
0
100
AcDbCircle
 10
129.7714721868
 20
162.9414558458
 30
0.0
 40
2.0
100
AcDbArc
 50
180.0
 51
270.0
  0
LINE
  5
7E9
330
2
100
AcDbEntity
  8
0
100
AcDbLine
 10
127.7714721868
 20
166.4414558458
 30
0.0
 11
127.7714721868
 21
149.2698558458
 31
0.0
  0
ARC
  5
7EB
330
2
100
AcDbEntity
  8
0
100
AcDbCircle
 10
129.7714721868
 20
149.9414558458
 30
0.0
 40
2.0
100
AcDbArc
 50
90.0
 51
180.0
  0
CIRCLE
  5
7EC
330
2
100
AcDbEntity
  8
0
100
AcDbCircle
 10
132.2714721868
 20
156.4414558458
 30
0.0
 40
3.799999999999998
  0
LINE
  5
7ED
330
2
100
AcDbEntity
  8
0
100
AcDbLine
 10
131.1856871868
 20
145.0272408458
 30
0.0
 11
128.3572571868
 21
147.8556708458
 31
0.0
  0
ARC
  5
7EE
330
2
100
AcDbEntity
  8
0
100
AcDbCircle
 10
129.7714721868
 20
149.2698558458
 30
0.0
 40
2.0
100
AcDbArc
 50
180.0
 51
225.0
  0
LINE
  5
7EF
330
2
100
AcDbEntity
  8
0
100
AcDbLine
 10
127.2714721868
 20
158.6318548458
 30
0.0
 11
127.7714721868
 21
158.6318548458
 31
0.0
  0
ARC
  5
7F0
330
2
100
AcDbEntity
  8
0
100
AcDbCircle
 10
158.7714721868
 20
146.4414558458
 30
0.0
 40
22.0
100
AcDbArc
 50
165.522507
 51
180.0
  0
ARC
  5
7F1
330
2
100
AcDbEntity
  8
0
100
AcDbCircle
 10
138.9977451868
 20
149.4414558458
 30
0.0
 40
2.0
100
AcDbArc
 50
90.0
 51
171.373093
  0
LINE
  5
7F2
330
2
100
AcDbEntity
  8
0
100
AcDbLine
 10
141.6071651868
 20
151.6244698458
 30
0.0
 11
140.6873051868
 21
153.6244698458
 31
0.0
  0
ARC
  5
7F3
330
2
100
AcDbEntity
  8
0
100
AcDbCircle
 10
140.7714721868
 20
153.4414558458
 30
0.0
 40
2.0
100
AcDbArc
 50
270.0
 51
319.398701
  0
ARC
  5
7F4
330
2
100
AcDbEntity
  8
0
100
AcDbCircle
 10
129.7714721868
 20
143.6130558458
 30
0.0
 40
2.0
100
AcDbArc
 50
0.0
 51
45.0
  0
LINE
  5
7F5
330
2
100
AcDbEntity
  8
0
100
AcDbLine
 10
140.7714721868
 20
151.4414558458
 30
0.0
 11
138.9977451868
 21
151.4414558458
 31
0.0
  0
ARC
  5
7F6
330
2
100
AcDbEntity
  8
0
100
AcDbCircle
 10
132.2714721868
 20
156.4414558458
 30
0.0
 40
4.5
100
AcDbArc
 50
270.0
 51
90.0
  0
CIRCLE
  5
7F7
330
2
100
AcDbEntity
  8
0
100
AcDbCircle
 10
132.2714721868
 20
156.4414558458
 30
0.0
 40
3.5
  0
LINE
  5
7F8
330
2
100
AcDbEntity
  8
0
100
AcDbLine
 10
129.7714721868
 20
151.9414558458
 30
0.0
 11
132.2714721868
 21
151.9414558458
 31
0.0
  0
LINE
  5
7F9
330
2
100
AcDbEntity
  8
0
100
AcDbLine
 10
129.7714721868
 20
160.9414558458
 30
0.0
 11
132.2714721868
 21
160.9414558458
 31
0.0
  0
LINE
  5
7FA
330
2
100
AcDbEntity
  8
0
100
AcDbLine
 10
132.2714721868
 20
154.6414678458
 30
0.0
 11
133.7714721868
 21
155.5074658458
 31
0.0
  0
LINE
  5
7FB
330
2
100
AcDbEntity
  8
0
100
AcDbLine
 10
132.2714721868
 20
154.6414678458
 30
0.0
 11
130.7714721868
 21
155.5074658458
 31
0.0
  0
LINE
  5
7FC
330
2
100
AcDbEntity
  8
0
100
AcDbLine
 10
132.2714721868
 20
158.2414438458
 30
0.0
 11
130.7714721868
 21
157.3754458458
 31
0.0
  0
LINE
  5
7FD
330
2
100
AcDbEntity
  8
0
100
AcDbLine
 10
132.2714721868
 20
158.2414438458
 30
0.0
 11
133.7714721868
 21
157.3754458458
 31
0.0
  0
LINE
  5
7FE
330
2
100
AcDbEntity
  8
0
100
AcDbLine
 10
130.7714721868
 20
155.5074658458
 30
0.0
 11
130.7714721868
 21
157.3754458458
 31
0.0
  0
LINE
  5
7FF
330
2
100
AcDbEntity
  8
0
100
AcDbLine
 10
133.7714721868
 20
155.5074658458
 30
0.0
 11
133.7714721868
 21
157.3754458458
 31
0.0
  0
ARC
  5
800
330
2
100
AcDbEntity
  8
0
100
AcDbCircle
 10
139.4065581868
 20
151.4414558458
 30
0.0
 40
2.0
100
AcDbArc
 50
90.0
 51
165.522507
  0
LINE
  5
801
330
2
100
AcDbEntity
  8
0
100
AcDbLine
 10
139.8515961868
 20
153.4414558458
 30
0.0
 11
139.4065581868
 21
153.4414558458
 31
0.0
  0
ARC
  5
802
330
2
100
AcDbEntity
  8
0
100
AcDbCircle
 10
139.8515961868
 20
155.4414558458
 30
0.0
 40
2.0
100
AcDbArc
 50
270.0
 51
319.398701
  0
LINE
  5
803
330
2
100
AcDbEntity
  8
0
100
AcDbLine
 10
127.1078521868
 20
171.0660588458
 30
0.0
 11
132.3384891868
 21
173.0050548458
 31
0.0
  0
ARC
  5
804
330
2
100
AcDbEntity
  8
0
100
AcDbCircle
 10
134.7714721868
 20
166.4414558458
 30
0.0
 40
7.0
100
AcDbArc
 50
47.364071
 51
180.0
  0
ARC
  5
806
330
2
100
AcDbEntity
  8
0
100
AcDbCircle
 10
126.4127381868
 20
172.9414558458
 30
0.0
 40
2.0
100
AcDbArc
 50
270.0
 51
290.33873
  0
CIRCLE
  5
807
330
2
100
AcDbEntity
  8
HOJO
100
AcDbCircle
 10
134.7714721868
 20
166.4414558458
 30
0.0
 40
4.0
  0
CIRCLE
  5
808
330
2
100
AcDbEntity
  8
0
100
AcDbCircle
 10
134.7714721868
 20
166.4414558458
 30
0.0
 40
4.25
  0
CIRCLE
  5
809
330
2
100
AcDbEntity
  8
0
100
AcDbCircle
 10
134.7714721868
 20
166.4414558458
 30
0.0
 40
3.2
  0
LINE
  5
80B
330
2
100
AcDbEntity
  8
0
100
AcDbLine
 10
151.6472651868
 20
102.6352428458
 30
0.0
 11
149.6472651868
 21
101.8954658458
 31
0.0
  0
ARC
  5
80C
330
2
100
AcDbEntity
  8
0
100
AcDbCircle
 10
149.7714721868
 20
101.9414558458
 30
0.0
 40
2.0
100
AcDbArc
 50
0.0
 51
40.601299
  0
LINE
  5
80D
330
2
100
AcDbEntity
  8
0
100
AcDbLine
 10
196.7714721868
 20
168.4414558458
 30
0.0
 11
158.7714721868
 21
168.4414558458
 31
0.0
  0
ARC
  5
80E
330
2
100
AcDbEntity
  8
0
100
AcDbCircle
 10
158.7714721868
 20
146.4414558458
 30
0.0
 40
22.0
100
AcDbArc
 50
90.0
 51
110.487297
  0
ARC
  5
80F
330
2
100
AcDbEntity
  8
0
100
AcDbCircle
 10
161.7714721868
 20
144.9414558458
 30
0.0
 40
30.0
100
AcDbArc
 50
112.331596
 51
120.358299
  0
ARC
  5
810
330
2
100
AcDbEntity
  8
0
100
AcDbCircle
 10
151.7714721868
 20
165.1764408458
 30
0.0
 40
2.0
100
AcDbArc
 50
110.487297
 51
180.0
  0
LINE
  5
811
330
2
100
AcDbEntity
  8
0
100
AcDbLine
 10
151.6472651868
 20
163.2476688458
 30
0.0
 11
149.6472651868
 21
163.9874458458
 31
0.0
  0
ARC
  5
812
330
2
100
AcDbEntity
  8
0
100
AcDbCircle
 10
147.7714721868
 20
164.6812628458
 30
0.0
 40
2.0
100
AcDbArc
 50
319.398701
 51
0.0
  0
LINE
  5
813
330
2
100
AcDbEntity
  8
0
100
AcDbLine
 10
149.7714721868
 20
164.6812628458
 30
0.0
 11
149.7714721868
 21
165.1764408458
 31
0.0
  0
ARC
  5
814
330
2
100
AcDbEntity
  8
0
100
AcDbCircle
 10
153.7714721868
 20
165.8064458458
 30
0.0
 40
2.0
100
AcDbArc
 50
104.477501
 51
180.0
  0
ARC
  5
815
330
2
100
AcDbEntity
  8
0
100
AcDbCircle
 10
149.7714721868
 20
163.9414558458
 30
0.0
 40
2.0
100
AcDbArc
 50
319.398701
 51
0.0
  0
LINE
  5
816
330
2
100
AcDbEntity
  8
0
100
AcDbLine
 10
151.7714721868
 20
163.9414558458
 30
0.0
 11
151.7714721868
 21
165.8064458458
 31
0.0
  0
ARC
  5
817
330
2
100
AcDbEntity
  8
0
100
AcDbCircle
 10
154.1720761868
 20
163.4414558458
 30
0.0
 40
10.0
100
AcDbArc
 50
90.0
 51
112.331596
  0
LINE
  5
818
330
2
100
AcDbEntity
  8
0
100
AcDbLine
 10
218.7714721868
 20
146.4414558458
 30
0.0
 11
218.7714721868
 21
119.4414558458
 31
0.0
  0
LINE
  5
819
330
2
100
AcDbEntity
  8
0
100
AcDbLine
 10
223.7714721868
 20
122.2698558458
 30
0.0
 11
223.7714721868
 21
143.6130558458
 31
0.0
  0
ARC
  5
81A
330
2
100
AcDbEntity
  8
0
100
AcDbCircle
 10
225.7714721868
 20
122.2698558458
 30
0.0
 40
2.0
100
AcDbArc
 50
180.0
 51
225.0
  0
LINE
  5
81B
330
2
100
AcDbEntity
  8
0
100
AcDbLine
 10
213.9356871868
 20
114.2584418458
 30
0.0
 11
214.8556701868
 21
112.2584418458
 31
0.0
  0
ARC
  5
81C
330
2
100
AcDbEntity
  8
0
100
AcDbCircle
 10
214.7714721868
 20
112.4414558458
 30
0.0
 40
2.0
100
AcDbArc
 50
90.0
 51
139.398697
  0
LINE
  5
81D
330
2
100
AcDbEntity
  8
0
100
AcDbLine
 10
214.1728701868
 20
111.7430608458
 30
0.0
 11
206.2528871868
 21
102.5032538458
 31
0.0
  0
LINE
  5
81E
330
2
100
AcDbEntity
  8
0
100
AcDbLine
 10
213.2528871868
 20
113.7430608458
 30
0.0
 11
204.2528721868
 21
103.2430608458
 31
0.0
  0
LINE
  5
81F
330
2
100
AcDbEntity
  8
0
100
AcDbLine
 10
203.8956791868
 20
102.6352428458
 30
0.0
 11
205.8956791868
 21
101.8954658458
 31
0.0
  0
ARC
  5
820
330
2
100
AcDbEntity
  8
0
100
AcDbCircle
 10
205.7714721868
 20
101.9414558458
 30
0.0
 40
2.0
100
AcDbArc
 50
139.398697
 51
180.0
  0
ARC
  5
821
330
2
100
AcDbEntity
  8
0
100
AcDbCircle
 10
223.2714721868
 20
109.4414558458
 30
0.0
 40
4.5
100
AcDbArc
 50
90.0
 51
270.0
  0
CIRCLE
  5
823
330
2
100
AcDbEntity
  8
0
100
AcDbCircle
 10
223.2714721868
 20
109.4414558458
 30
0.0
 40
3.5
  0
CIRCLE
  5
824
330
2
100
AcDbEntity
  8
0
100
AcDbCircle
 10
223.2714721868
 20
109.4414558458
 30
0.0
 40
3.799999999999998
  0
LINE
  5
826
330
2
100
AcDbEntity
  8
0
100
AcDbLine
 10
225.7714721868
 20
104.9414558458
 30
0.0
 11
223.2714721868
 21
104.9414558458
 31
0.0
  0
ARC
  5
827
330
2
100
AcDbEntity
  8
0
100
AcDbCircle
 10
225.7714721868
 20
102.9414558458
 30
0.0
 40
2.0
100
AcDbArc
 50
0.0
 51
90.0
  0
LINE
  5
828
330
2
100
AcDbEntity
  8
0
100
AcDbLine
 10
223.2714721868
 20
111.2414438458
 30
0.0
 11
221.7714721868
 21
110.3754458458
 31
0.0
  0
LINE
  5
829
330
2
100
AcDbEntity
  8
0
100
AcDbLine
 10
223.2714721868
 20
111.2414438458
 30
0.0
 11
224.7714721868
 21
110.3754458458
 31
0.0
  0
LINE
  5
82A
330
2
100
AcDbEntity
  8
0
100
AcDbLine
 10
223.2714721868
 20
107.6414678458
 30
0.0
 11
224.7714721868
 21
108.5074658458
 31
0.0
  0
LINE
  5
82B
330
2
100
AcDbEntity
  8
0
100
AcDbLine
 10
223.2714721868
 20
107.6414678458
 30
0.0
 11
221.7714721868
 21
108.5074658458
 31
0.0
  0
LINE
  5
82C
330
2
100
AcDbEntity
  8
0
100
AcDbLine
 10
224.7714721868
 20
110.3754458458
 30
0.0
 11
224.7714721868
 21
108.5074658458
 31
0.0
  0
LINE
  5
82D
330
2
100
AcDbEntity
  8
0
100
AcDbLine
 10
221.7714721868
 20
110.3754458458
 30
0.0
 11
221.7714721868
 21
108.5074658458
 31
0.0
  0
ARC
  5
82E
330
2
100
AcDbEntity
  8
0
100
AcDbCircle
 10
196.7714721868
 20
119.4414558458
 30
0.0
 40
22.0
100
AcDbArc
 50
345.52249
 51
0.0
  0
ARC
  5
82F
330
2
100
AcDbEntity
  8
0
100
AcDbCircle
 10
216.1364621868
 20
114.4414558458
 30
0.0
 40
2.0
100
AcDbArc
 50
270.0
 51
345.522491
  0
ARC
  5
830
330
2
100
AcDbEntity
  8
0
100
AcDbCircle
 10
216.5452761868
 20
116.4414558458
 30
0.0
 40
2.0
100
AcDbArc
 50
270.0
 51
351.373108
  0
LINE
  5
831
330
2
100
AcDbEntity
  8
0
100
AcDbLine
 10
215.6912721868
 20
112.4414558458
 30
0.0
 11
216.1364621868
 21
112.4414558458
 31
0.0
  0
LINE
  5
832
330
2
100
AcDbEntity
  8
0
100
AcDbLine
 10
214.7714721868
 20
114.4414558458
 30
0.0
 11
216.5452761868
 21
114.4414558458
 31
0.0
  0
ARC
  5
833
330
2
100
AcDbEntity
  8
0
100
AcDbCircle
 10
215.6912721868
 20
110.4414558458
 30
0.0
 40
2.0
100
AcDbArc
 50
90.0
 51
139.398697
  0
LINE
  5
834
330
2
100
AcDbEntity
  8
0
100
AcDbLine
 10
225.7714721868
 20
113.9414558458
 30
0.0
 11
223.2714721868
 21
113.9414558458
 31
0.0
  0
ARC
  5
835
330
2
100
AcDbEntity
  8
0
100
AcDbCircle
 10
225.7714721868
 20
115.9414558458
 30
0.0
 40
2.0
100
AcDbArc
 50
270.0
 51
0.0
  0
ARC
  5
836
330
2
100
AcDbEntity
  8
0
100
AcDbCircle
 10
225.7714721868
 20
116.6130558458
 30
0.0
 40
2.0
100
AcDbArc
 50
0.0
 51
45.0
  0
LINE
  5
837
330
2
100
AcDbEntity
  8
0
100
AcDbLine
 10
224.3572571868
 20
120.8556708458
 30
0.0
 11
227.1856871868
 21
118.0272408458
 31
0.0
  0
ARC
  5
838
330
2
100
AcDbEntity
  8
0
100
AcDbCircle
 10
220.7714721868
 20
166.4414558458
 30
0.0
 40
7.0
100
AcDbArc
 50
0.0
 51
132.635895
  0
ARC
  5
83A
330
2
100
AcDbEntity
  8
0
100
AcDbCircle
 10
225.7714721868
 20
162.9414558458
 30
0.0
 40
2.0
100
AcDbArc
 50
270.0
 51
0.0
  0
LINE
  5
83C
330
2
100
AcDbEntity
  8
0
100
AcDbLine
 10
213.2528871868
 20
152.1398508458
 30
0.0
 11
204.2528721868
 21
162.6398508458
 31
0.0
  0
LINE
  5
83D
330
2
100
AcDbEntity
  8
0
100
AcDbLine
 10
214.1728701868
 20
154.1398508458
 30
0.0
 11
206.2528871868
 21
163.3796578458
 31
0.0
  0
LINE
  5
83F
330
2
100
AcDbEntity
  8
0
100
AcDbLine
 10
213.9356871868
 20
151.6244698458
 30
0.0
 11
214.8556701868
 21
153.6244698458
 31
0.0
  0
ARC
  5
840
330
2
100
AcDbEntity
  8
0
100
AcDbCircle
 10
214.7714721868
 20
153.4414558458
 30
0.0
 40
2.0
100
AcDbArc
 50
220.601303
 51
270.0
  0
ARC
  5
841
330
2
100
AcDbEntity
  8
0
100
AcDbCircle
 10
225.7714721868
 20
149.9414558458
 30
0.0
 40
2.0
100
AcDbArc
 50
0.0
 51
90.0
  0
ARC
  5
842
330
2
100
AcDbEntity
  8
0
100
AcDbCircle
 10
196.7714721868
 20
146.4414558458
 30
0.0
 40
22.0
100
AcDbArc
 50
0.0
 51
14.47751
  0
ARC
  5
843
330
2
100
AcDbEntity
  8
0
100
AcDbCircle
 10
216.5452761868
 20
149.4414558458
 30
0.0
 40
2.0
100
AcDbArc
 50
8.626927
 51
90.0
  0
LINE
  5
844
330
2
100
AcDbEntity
  8
0
100
AcDbLine
 10
214.7714721868
 20
151.4414558458
 30
0.0
 11
216.5452761868
 21
151.4414558458
 31
0.0
  0
ARC
  5
845
330
2
100
AcDbEntity
  8
0
100
AcDbCircle
 10
225.7714721868
 20
143.6130558458
 30
0.0
 40
2.0
100
AcDbArc
 50
135.0
 51
180.0
  0
ARC
  5
846
330
2
100
AcDbEntity
  8
0
100
AcDbCircle
 10
225.7714721868
 20
149.2698558458
 30
0.0
 40
2.0
100
AcDbArc
 50
315.0
 51
0.0
  0
LINE
  5
847
330
2
100
AcDbEntity
  8
0
100
AcDbLine
 10
224.3572571868
 20
145.0272408458
 30
0.0
 11
227.1856871868
 21
147.8556708458
 31
0.0
  0
ARC
  5
849
330
2
100
AcDbEntity
  8
0
100
AcDbCircle
 10
223.2714721868
 20
156.4414558458
 30
0.0
 40
4.5
100
AcDbArc
 50
90.0
 51
270.0
  0
CIRCLE
  5
84A
330
2
100
AcDbEntity
  8
0
100
AcDbCircle
 10
223.2714721868
 20
156.4414558458
 30
0.0
 40
3.5
  0
CIRCLE
  5
84B
330
2
100
AcDbEntity
  8
0
100
AcDbCircle
 10
223.2714721868
 20
156.4414558458
 30
0.0
 40
3.799999999999998
  0
ARC
  5
84C
330
2
100
AcDbEntity
  8
0
100
AcDbCircle
 10
216.1364621868
 20
151.4414558458
 30
0.0
 40
2.0
100
AcDbArc
 50
14.47751
 51
90.0
  0
LINE
  5
84D
330
2
100
AcDbEntity
  8
0
100
AcDbLine
 10
215.6912721868
 20
153.4414558458
 30
0.0
 11
216.1364621868
 21
153.4414558458
 31
0.0
  0
ARC
  5
84E
330
2
100
AcDbEntity
  8
0
100
AcDbCircle
 10
215.6912721868
 20
155.4414558458
 30
0.0
 40
2.0
100
AcDbArc
 50
220.601303
 51
270.0
  0
LINE
  5
84F
330
2
100
AcDbEntity
  8
0
100
AcDbLine
 10
225.7714721868
 20
151.9414558458
 30
0.0
 11
223.2714721868
 21
151.9414558458
 31
0.0
  0
LINE
  5
850
330
2
100
AcDbEntity
  8
0
100
AcDbLine
 10
225.7714721868
 20
160.9414558458
 30
0.0
 11
223.2714721868
 21
160.9414558458
 31
0.0
  0
LINE
  5
851
330
2
100
AcDbEntity
  8
0
100
AcDbLine
 10
223.2714721868
 20
154.6414678458
 30
0.0
 11
221.7714721868
 21
155.5074658458
 31
0.0
  0
LINE
  5
852
330
2
100
AcDbEntity
  8
0
100
AcDbLine
 10
223.2714721868
 20
154.6414678458
 30
0.0
 11
224.7714721868
 21
155.5074658458
 31
0.0
  0
LINE
  5
853
330
2
100
AcDbEntity
  8
0
100
AcDbLine
 10
223.2714721868
 20
158.2414438458
 30
0.0
 11
224.7714721868
 21
157.3754458458
 31
0.0
  0
LINE
  5
854
330
2
100
AcDbEntity
  8
0
100
AcDbLine
 10
223.2714721868
 20
158.2414438458
 30
0.0
 11
221.7714721868
 21
157.3754458458
 31
0.0
  0
LINE
  5
855
330
2
100
AcDbEntity
  8
0
100
AcDbLine
 10
224.7714721868
 20
155.5074658458
 30
0.0
 11
224.7714721868
 21
157.3754458458
 31
0.0
  0
LINE
  5
856
330
2
100
AcDbEntity
  8
0
100
AcDbLine
 10
221.7714721868
 20
155.5074658458
 30
0.0
 11
221.7714721868
 21
157.3754458458
 31
0.0
  0
ARC
  5
857
330
2
100
AcDbEntity
  8
0
100
AcDbCircle
 10
211.9660831868
 20
176.0052678458
 30
0.0
 40
6.0
100
AcDbArc
 50
239.641701
 51
312.635929
  0
ARC
  5
858
330
2
100
AcDbEntity
  8
0
100
AcDbCircle
 10
193.7714721868
 20
144.9414558458
 30
0.0
 40
30.0
100
AcDbArc
 50
59.641701
 51
67.668358
  0
ARC
  5
859
330
2
100
AcDbEntity
  8
0
100
AcDbCircle
 10
203.7714721868
 20
165.1764408458
 30
0.0
 40
2.0
100
AcDbArc
 50
0.0
 51
69.512688
  0
ARC
  5
85A
330
2
100
AcDbEntity
  8
0
100
AcDbCircle
 10
201.7714721868
 20
165.8064458458
 30
0.0
 40
2.0
100
AcDbArc
 50
0.0
 51
75.522491
  0
LINE
  5
85B
330
2
100
AcDbEntity
  8
0
100
AcDbLine
 10
203.8956791868
 20
163.2476688458
 30
0.0
 11
205.8956791868
 21
163.9874458458
 31
0.0
  0
ARC
  5
85C
330
2
100
AcDbEntity
  8
0
100
AcDbCircle
 10
207.7714721868
 20
164.6812628458
 30
0.0
 40
2.0
100
AcDbArc
 50
180.0
 51
220.601303
  0
ARC
  5
85D
330
2
100
AcDbEntity
  8
0
100
AcDbCircle
 10
205.7714721868
 20
163.9414558458
 30
0.0
 40
2.0
100
AcDbArc
 50
180.0
 51
220.601303
  0
LINE
  5
85E
330
2
100
AcDbEntity
  8
0
100
AcDbLine
 10
203.7714721868
 20
163.9414558458
 30
0.0
 11
203.7714721868
 21
165.8064458458
 31
0.0
  0
LINE
  5
85F
330
2
100
AcDbEntity
  8
0
100
AcDbLine
 10
205.7714721868
 20
164.6812628458
 30
0.0
 11
205.7714721868
 21
165.1764408458
 31
0.0
  0
ARC
  5
860
330
2
100
AcDbEntity
  8
0
100
AcDbCircle
 10
201.3708681868
 20
163.4414558458
 30
0.0
 40
10.0
100
AcDbArc
 50
67.668358
 51
90.0
  0
CIRCLE
  5
861
330
2
100
AcDbEntity
  8
HOJO
100
AcDbCircle
 10
220.7714721868
 20
166.4414558458
 30
0.0
 40
4.0
  0
CIRCLE
  5
862
330
2
100
AcDbEntity
  8
0
100
AcDbCircle
 10
220.7714721868
 20
166.4414558458
 30
0.0
 40
4.25
  0
CIRCLE
  5
863
330
2
100
AcDbEntity
  8
0
100
AcDbCircle
 10
220.7714721868
 20
166.4414558458
 30
0.0
 40
3.2
  0
ARC
  5
864
330
2
100
AcDbEntity
  8
HIDS
100
AcDbCircle
 10
335.5737074322
 20
132.9414558458
 30
0.0
 40
38.0
100
AcDbArc
 50
129.356705
 51
230.643295
  0
LINE
  5
866
330
2
100
AcDbEntity
  8
0
100
AcDbLine
 10
301.5737074322
 20
107.7556011671
 30
0.0
 11
301.5737074322
 21
113.9414558458
 31
0.0
  0
LINE
  5
867
330
2
100
AcDbEntity
  8
0
100
AcDbLine
 10
296.5737074322
 20
107.3683024472
 30
0.0
 11
296.5737074322
 21
112.9414558458
 31
0.0
  0
LINE
  5
868
330
2
100
AcDbEntity
  8
0
100
AcDbLine
 10
300.5737074322
 20
107.6163219164
 30
0.0
 11
300.5737074322
 21
113.2414438458
 31
0.0
  0
LINE
  5
86A
330
2
100
AcDbEntity
  8
0
100
AcDbLine
 10
295.0737074322
 20
103.6914558458
 30
0.0
 11
307.5737074322
 21
103.6914558458
 31
0.0
  0
LINE
  5
86B
330
2
100
AcDbEntity
  8
CENTER
100
AcDbLine
 10
294.6341014322
 20
109.4414558458
 30
0.0
 11
302.6187204322
 21
109.4414558458
 31
0.0
  0
LINE
  5
871
330
2
100
AcDbEntity
  8
0
100
AcDbLine
 10
307.5737074322
 20
117.4414558458
 30
0.0
 11
295.0737074322
 21
117.4414558458
 31
0.0
  0
LINE
  5
872
330
2
100
AcDbEntity
  8
0
100
AcDbLine
 10
295.0737074322
 20
114.1116528458
 30
0.0
 11
301.5737074322
 21
113.9414558458
 31
0.0
  0
LINE
  5
873
330
2
100
AcDbEntity
  8
0
100
AcDbLine
 10
300.5737074322
 20
113.2414438458
 30
0.0
 11
301.5737074322
 21
113.2414438458
 31
0.0
  0
LINE
  5
874
330
2
100
AcDbEntity
  8
0
100
AcDbLine
 10
296.5737074322
 20
112.9414558458
 30
0.0
 11
300.5737074322
 21
112.9414558458
 31
0.0
  0
LINE
  5
878
330
2
100
AcDbEntity
  8
0
100
AcDbLine
 10
307.5737074322
 20
121.4414558458
 30
0.0
 11
295.0737074322
 21
121.4414558458
 31
0.0
  0
LINE
  5
87A
330
2
100
AcDbEntity
  8
0
100
AcDbLine
 10
307.5737074322
 20
144.4414558458
 30
0.0
 11
295.0737074322
 21
144.4414558458
 31
0.0
  0
LINE
  5
87B
330
2
100
AcDbEntity
  8
0
100
AcDbLine
 10
307.5737074322
 20
148.4414558458
 30
0.0
 11
295.0737074322
 21
148.4414558458
 31
0.0
  0
LINE
  5
87D
330
2
100
AcDbEntity
  8
0
100
AcDbLine
 10
295.0737074322
 20
151.7712588458
 30
0.0
 11
301.5737074322
 21
151.9414558458
 31
0.0
  0
LINE
  5
87E
330
2
100
AcDbEntity
  8
0
100
AcDbLine
 10
300.5737074322
 20
152.6414678458
 30
0.0
 11
301.5737074322
 21
152.6414678458
 31
0.0
  0
LINE
  5
87F
330
2
100
AcDbEntity
  8
CENTER
100
AcDbLine
 10
294.6341014322
 20
156.4414558458
 30
0.0
 11
302.6187204322
 21
156.4414558458
 31
0.0
  0
LINE
  5
880
330
2
100
AcDbEntity
  8
0
100
AcDbLine
 10
295.0737074322
 20
161.1116528458
 30
0.0
 11
301.5737074322
 21
160.9414558458
 31
0.0
  0
LINE
  5
881
330
2
100
AcDbEntity
  8
0
100
AcDbLine
 10
300.5737074322
 20
160.2414438458
 30
0.0
 11
301.5737074322
 21
160.2414438458
 31
0.0
  0
LINE
  5
883
330
2
100
AcDbEntity
  8
0
100
AcDbLine
 10
296.5737074322
 20
152.9414558458
 30
0.0
 11
300.5737074322
 21
152.9414558458
 31
0.0
  0
LINE
  5
884
330
2
100
AcDbEntity
  8
0
100
AcDbLine
 10
296.5737074322
 20
159.9414558458
 30
0.0
 11
296.5737074322
 21
152.9414558458
 31
0.0
  0
LINE
  5
885
330
2
100
AcDbEntity
  8
0
100
AcDbLine
 10
296.5737074322
 20
159.9414558458
 30
0.0
 11
300.5737074322
 21
159.9414558458
 31
0.0
  0
LINE
  5
886
330
2
100
AcDbEntity
  8
0
100
AcDbLine
 10
300.5737074322
 20
160.2414438458
 30
0.0
 11
300.5737074322
 21
152.6414678458
 31
0.0
  0
LINE
  5
888
330
2
100
AcDbEntity
  8
0
100
AcDbLine
 10
301.5737074322
 20
160.9414558458
 30
0.0
 11
301.5737074322
 21
151.9414558458
 31
0.0
  0
LINE
  5
88C
330
2
100
AcDbEntity
  8
HIDS
100
AcDbLine
 10
295.0737074322
 20
162.1914558458
 30
0.0
 11
307.5737074322
 21
162.1914558458
 31
0.0
  0
LINE
  5
88D
330
2
100
AcDbEntity
  8
HIDS
100
AcDbLine
 10
295.0737074322
 20
170.6914558458
 30
0.0
 11
307.5737074322
 21
170.6914558458
 31
0.0
  0
LINE
  5
88E
330
2
100
AcDbEntity
  8
HIDS
100
AcDbLine
 10
312.5737074322
 20
168.5746648458
 30
0.0
 11
312.5737074322
 21
164.6432688458
 31
0.0
  0
ARC
  5
88F
330
2
100
AcDbEntity
  8
HIDS
100
AcDbCircle
 10
314.5737074322
 20
168.5746648458
 30
0.0
 40
2.0
100
AcDbArc
 50
91.0
 51
180.0
  0
ARC
  5
890
330
2
100
AcDbEntity
  8
HIDS
100
AcDbCircle
 10
309.5737074322
 20
164.6432688458
 30
0.0
 40
3.0
100
AcDbArc
 50
309.356701
 51
0.0
  0
CIRCLE
  5
891
330
2
100
AcDbEntity
  8
HOJO
100
AcDbCircle
 10
583.8895549769
 20
99.4414558458
 30
0.0
 40
4.0
  0
CIRCLE
  5
892
330
2
100
AcDbEntity
  8
HOJO
100
AcDbCircle
 10
497.8895549769
 20
99.4414558458
 30
0.0
 40
4.0
  0
LINE
  5
893
330
2
100
AcDbEntity
  8
HOJO
100
AcDbLine
 10
327.5737074322
 20
103.4414558458
 30
0.0
 11
327.5737074322
 21
95.4414558458
 31
0.0
  0
LINE
  5
894
330
2
100
AcDbEntity
  8
HOJO
100
AcDbLine
 10
343.5737074322
 20
103.4414558458
 30
0.0
 11
343.5737074322
 21
95.4414558458
 31
0.0
  0
CIRCLE
  5
895
330
2
100
AcDbEntity
  8
0
100
AcDbCircle
 10
497.8895549769
 20
99.4414558458
 30
0.0
 40
3.2
  0
CIRCLE
  5
896
330
2
100
AcDbEntity
  8
0
100
AcDbCircle
 10
583.8895549769
 20
99.4414558458
 30
0.0
 40
3.2
  0
LINE
  5
897
330
2
100
AcDbEntity
  8
0
100
AcDbLine
 10
683.9449749769
 20
167.9414558458
 30
0.0
 11
683.9449749769
 21
97.9414558458
 31
0.0
  0
LINE
  5
898
330
2
100
AcDbEntity
  8
0
100
AcDbLine
 10
684.4449749769
 20
164.9414558458
 30
0.0
 11
684.4449749769
 21
100.9414558458
 31
0.0
  0
LINE
  5
899
330
2
100
AcDbEntity
  8
0
100
AcDbLine
 10
663.9449749769
 20
170.9414558458
 30
0.0
 11
663.9449749769
 21
94.9414558458
 31
0.0
  0
ARC
  5
89A
330
2
100
AcDbEntity
  8
0
100
AcDbCircle
 10
570.8895549769
 20
101.2016488458
 30
0.0
 40
2.0
100
AcDbArc
 50
139.398697
 51
180.0
  0
LINE
  5
89B
330
2
100
AcDbEntity
  8
0
100
AcDbLine
 10
566.8895549769
 20
101.9414558458
 30
0.0
 11
566.8895549769
 21
100.0764658458
 31
0.0
  0
ARC
  5
89C
330
2
100
AcDbEntity
  8
0
100
AcDbCircle
 10
510.8895549769
 20
101.2016488458
 30
0.0
 40
2.0
100
AcDbArc
 50
0.0
 51
40.601299
  0
LINE
  5
89D
330
2
100
AcDbEntity
  8
0
100
AcDbLine
 10
514.8895549769
 20
101.9414558458
 30
0.0
 11
514.8895549769
 21
100.0764658458
 31
0.0
  0
LINE
  5
89E
330
2
100
AcDbEntity
  8
0
100
AcDbLine
 10
590.8895549769
 20
116.6130558458
 30
0.0
 11
590.8895549769
 21
99.4414558458
 31
0.0
  0
LINE
  5
89F
330
2
100
AcDbEntity
  8
0
100
AcDbLine
 10
490.8895549769
 20
99.4414558458
 30
0.0
 11
490.8895549769
 21
166.4414558458
 31
0.0
  0
ARC
  5
8A2
330
2
100
AcDbEntity
  8
HIDS
100
AcDbCircle
 10
361.5737074322
 20
101.2396428458
 30
0.0
 40
3.0
100
AcDbArc
 50
129.356705
 51
180.0
  0
LINE
  5
8A3
330
2
100
AcDbEntity
  8
0
100
AcDbLine
 10
376.0737074322
 20
172.7344548458
 30
0.0
 11
376.0737074322
 21
93.1484568458
 31
0.0
  0
LINE
  5
8A4
330
2
100
AcDbEntity
  8
CENTER
100
AcDbLine
 10
335.5737074322
 20
208.8289538458
 30
0.0
 11
335.5737074322
 21
86.4006848458
 31
0.0
  0
LINE
  5
8A5
330
2
100
AcDbEntity
  8
0
100
AcDbLine
 10
521.8895549769
 20
97.4414558458
 30
0.0
 11
559.8895549769
 21
97.4414558458
 31
0.0
  0
LINE
  5
8A6
330
2
100
AcDbEntity
  8
0
100
AcDbLine
 10
583.8895549769
 20
92.4414558458
 30
0.0
 11
497.8895549769
 21
92.4414558458
 31
0.0
  0
LINE
  5
8A7
330
2
100
AcDbEntity
  8
HOJO
100
AcDbLine
 10
343.5737074322
 20
95.4414558458
 30
0.0
 11
376.0737074322
 21
95.4414558458
 31
0.0
  0
LINE
  5
8A8
330
2
100
AcDbEntity
  8
HIDS
100
AcDbLine
 10
356.6087114322
 20
95.3086588458
 30
0.0
 11
335.5737074322
 21
94.9414558458
 31
0.0
  0
LINE
  5
8A9
330
2
100
AcDbEntity
  8
0
100
AcDbLine
 10
335.5737074322
 20
92.4414558458
 30
0.0
 11
376.0737074322
 21
93.1484568458
 31
0.0
  0
ARC
  5
8AA
330
2
100
AcDbEntity
  8
HIDS
100
AcDbCircle
 10
356.5737074322
 20
97.3082618458
 30
0.0
 40
2.0
100
AcDbArc
 50
271.0
 51
0.0
  0
LINE
  5
8AB
330
2
100
AcDbEntity
  8
HIDS
100
AcDbLine
 10
358.5737074322
 20
97.3082618458
 30
0.0
 11
358.5737074322
 21
101.2396428458
 31
0.0
  0
ARC
  5
8AC
330
2
100
AcDbEntity
  8
0
100
AcDbCircle
 10
497.8895549769
 20
99.4414558458
 30
0.0
 40
7.0
100
AcDbArc
 50
180.0
 51
312.635895
  0
ARC
  5
8AE
330
2
100
AcDbEntity
  8
0
100
AcDbCircle
 10
524.8895549769
 20
120.9414558458
 30
0.0
 40
30.0
100
AcDbArc
 50
239.641693
 51
247.668396
  0
ARC
  5
8AF
330
2
100
AcDbEntity
  8
0
100
AcDbCircle
 10
506.6949749769
 20
89.8776588458
 30
0.0
 40
6.0
100
AcDbArc
 50
59.641701
 51
132.635895
  0
ARC
  5
8B0
330
2
100
AcDbEntity
  8
0
100
AcDbCircle
 10
521.8895549769
 20
119.4414558458
 30
0.0
 40
22.0
100
AcDbArc
 50
249.512703
 51
270.0
  0
ARC
  5
8B1
330
2
100
AcDbEntity
  8
0
100
AcDbCircle
 10
514.8895549769
 20
100.7064708458
 30
0.0
 40
2.0
100
AcDbArc
 50
180.0
 51
249.512695
  0
ARC
  5
8B2
330
2
100
AcDbEntity
  8
0
100
AcDbCircle
 10
516.8895549769
 20
100.0764658458
 30
0.0
 40
2.0
100
AcDbArc
 50
180.0
 51
255.522507
  0
LINE
  5
8B3
330
2
100
AcDbEntity
  8
0
100
AcDbLine
 10
512.8895549769
 20
101.2016488458
 30
0.0
 11
512.8895549769
 21
100.7064708458
 31
0.0
  0
ARC
  5
8B4
330
2
100
AcDbEntity
  8
0
100
AcDbCircle
 10
517.2901289769
 20
102.4414558458
 30
0.0
 40
10.0
100
AcDbArc
 50
247.668396
 51
270.0
  0
LINE
  5
8B5
330
2
100
AcDbEntity
  8
0
100
AcDbLine
 10
680.4809249769
 20
94.9414558458
 30
0.0
 11
663.9449749769
 21
94.9414558458
 31
0.0
  0
LINE
  5
8B6
330
2
100
AcDbEntity
  8
0
100
AcDbLine
 10
663.9449749769
 20
94.9414558458
 30
0.0
 11
592.2483809769
 21
94.9414558458
 31
0.0
  0
ARC
  5
8B7
330
2
100
AcDbEntity
  8
0
100
AcDbCircle
 10
583.8895549769
 20
99.4414558458
 30
0.0
 40
7.0
100
AcDbArc
 50
227.364105
 51
0.0
  0
ARC
  5
8B9
330
2
100
AcDbEntity
  8
0
100
AcDbCircle
 10
559.8895549769
 20
119.4414558458
 30
0.0
 40
22.0
100
AcDbArc
 50
270.0
 51
290.487305
  0
ARC
  5
8BA
330
2
100
AcDbEntity
  8
0
100
AcDbCircle
 10
564.4889809769
 20
102.4414558458
 30
0.0
 40
10.0
100
AcDbArc
 50
270.0
 51
292.331604
  0
ARC
  5
8BB
330
2
100
AcDbEntity
  8
0
100
AcDbCircle
 10
564.8895549769
 20
100.0764658458
 30
0.0
 40
2.0
100
AcDbArc
 50
284.477509
 51
0.0
  0
ARC
  5
8BC
330
2
100
AcDbEntity
  8
0
100
AcDbCircle
 10
575.0841349769
 20
89.8776588458
 30
0.0
 40
6.0
100
AcDbArc
 50
47.364071
 51
120.358299
  0
ARC
  5
8BD
330
2
100
AcDbEntity
  8
0
100
AcDbCircle
 10
566.8895549769
 20
100.7064708458
 30
0.0
 40
2.0
100
AcDbArc
 50
290.487312
 51
0.0
  0
LINE
  5
8BE
330
2
100
AcDbEntity
  8
0
100
AcDbLine
 10
568.8895549769
 20
101.2016488458
 30
0.0
 11
568.8895549769
 21
100.7064708458
 31
0.0
  0
ARC
  5
8BF
330
2
100
AcDbEntity
  8
0
100
AcDbCircle
 10
556.8895549769
 20
120.9414558458
 30
0.0
 40
30.0
100
AcDbArc
 50
292.331604
 51
300.358307
  0
LINE
  5
8C0
330
2
100
AcDbEntity
  8
0
100
AcDbLine
 10
591.5531289769
 20
94.8168528458
 30
0.0
 11
586.3225379769
 21
92.8778568458
 31
0.0
  0
ARC
  5
8C1
330
2
100
AcDbEntity
  8
0
100
AcDbCircle
 10
592.2483809769
 20
92.9414558458
 30
0.0
 40
2.0
100
AcDbArc
 50
90.0
 51
110.338699
  0
ARC
  5
8C2
330
2
100
AcDbEntity
  8
0
100
AcDbCircle
 10
680.4809249769
 20
97.9414558458
 30
0.0
 40
3.0
100
AcDbArc
 50
270.0
 51
330.000397
  0
LINE
  5
8C3
330
2
100
AcDbEntity
  8
0
100
AcDbLine
 10
683.0791299769
 20
96.4414558458
 30
0.0
 11
683.9449749769
 21
97.9414558458
 31
0.0
  0
LINE
  5
8C4
330
2
100
AcDbEntity
  8
0
100
AcDbLine
 10
684.4449749769
 20
100.9414558458
 30
0.0
 11
683.9449749769
 21
100.4414558458
 31
0.0
  0
LINE
  5
8C5
330
2
100
AcDbEntity
  8
0
100
AcDbLine
 10
491.5965249769
 20
370.4616039467
 30
0.0
 11
590.1825849769
 21
370.4616039467
 31
0.0
  0
CIRCLE
  5
8C6
330
2
100
AcDbEntity
  8
0
100
AcDbCircle
 10
529.8895549769
 20
132.9414558458
 30
0.0
 40
25.002001
  0
LINE
  5
8C7
330
2
100
AcDbEntity
  8
0
100
AcDbLine
 10
591.8895549769
 20
357.9616039467
 30
0.0
 11
491.3783249769
 21
357.9616039467
 31
0.0
  0
LINE
  5
8C8
330
2
100
AcDbEntity
  8
0
100
AcDbLine
 10
590.1825849769
 20
289.4616039467
 30
0.0
 11
491.5965249769
 21
289.4616039467
 31
0.0
  0
LINE
  5
8C9
330
2
100
AcDbEntity
  8
CENTER
100
AcDbLine
 10
483.3487839769
 20
329.9616039467
 30
0.0
 11
692.9655049451
 21
329.9616039467
 31
0.0
  0
LINE
  5
8CA
330
2
100
AcDbEntity
  8
0
100
AcDbLine
 10
521.8895549769
 20
168.4414558458
 30
0.0
 11
559.8895549769
 21
168.4414558458
 31
0.0
  0
LINE
  5
8CB
330
2
100
AcDbEntity
  8
0
100
AcDbLine
 10
583.8895549769
 20
173.4414558458
 30
0.0
 11
497.8895549769
 21
173.4414558458
 31
0.0
  0
LINE
  5
8CC
330
2
100
AcDbEntity
  8
CENTER
100
AcDbLine
 10
483.3487839769
 20
132.9414558458
 30
0.0
 11
692.9655049451
 21
132.9414558458
 31
0.0
  0
LINE
  5
8CD
330
2
100
AcDbEntity
  8
0
100
AcDbLine
 10
522.8185709769
 20
261.4616039467
 30
0.0
 11
522.8185709769
 21
282.9616039467
 31
0.0
  0
LINE
  5
8CE
330
2
100
AcDbEntity
  8
0
100
AcDbLine
 10
520.3895549769
 20
261.4616039467
 30
0.0
 11
520.3895549769
 21
285.4616039467
 31
0.0
  0
LINE
  5
8CF
330
2
100
AcDbEntity
  8
0
100
AcDbLine
 10
537.3895549769
 20
288.4616039467
 30
0.0
 11
537.3895549769
 21
261.4616039467
 31
0.0
  0
LINE
  5
8D0
330
2
100
AcDbEntity
  8
CENTER
100
AcDbLine
 10
529.8895549769
 20
379.4567509467
 30
0.0
 11
529.8895549769
 21
257.0899909467
 31
0.0
  0
LINE
  5
8D1
330
2
100
AcDbEntity
  8
0
100
AcDbLine
 10
404.0737074322
 20
125.4414558458
 30
0.0
 11
377.0737074322
 21
125.4414558458
 31
0.0
  0
LINE
  5
8D2
330
2
100
AcDbEntity
  8
0
100
AcDbLine
 10
404.0737074322
 20
140.4414558458
 30
0.0
 11
377.0737074322
 21
140.4414558458
 31
0.0
  0
LINE
  5
8D3
330
2
100
AcDbEntity
  8
0
100
AcDbLine
 10
342.9067154322
 20
141.8970528458
 30
0.0
 11
342.9067154322
 21
123.9858588458
 31
0.0
  0
LINE
  5
8D4
330
2
100
AcDbEntity
  8
0
100
AcDbLine
 10
328.2406994322
 20
142.1152538458
 30
0.0
 11
328.2406994322
 21
123.7676578458
 31
0.0
  0
LINE
  5
8D5
330
2
100
AcDbEntity
  8
0
100
AcDbLine
 10
330.5737074322
 20
119.8082468458
 30
0.0
 11
330.5737074322
 21
146.0746648458
 31
0.0
  0
LINE
  5
8D6
330
2
100
AcDbEntity
  8
0
100
AcDbLine
 10
340.5737074322
 20
145.8564648458
 30
0.0
 11
340.5737074322
 21
120.0264468458
 31
0.0
  0
ARC
  5
8D7
330
2
100
AcDbEntity
  8
HIDS
100
AcDbCircle
 10
335.5737074322
 20
132.9414558458
 30
0.0
 40
38.0
100
AcDbArc
 50
309.356701
 51
50.643299
  0
LINE
  5
8D9
330
2
100
AcDbEntity
  8
HOJO
100
AcDbLine
 10
343.5737074322
 20
103.4414558458
 30
0.0
 11
376.0737074322
 21
103.4414558458
 31
0.0
  0
LINE
  5
8DA
330
2
100
AcDbEntity
  8
0
100
AcDbLine
 10
344.8717114322
 20
121.9860418458
 30
0.0
 11
376.0737074322
 21
121.4414558458
 31
0.0
  0
LINE
  5
8DB
330
2
100
AcDbEntity
  8
0
100
AcDbLine
 10
342.5387034322
 20
118.0268438458
 30
0.0
 11
376.0737074322
 21
117.4414558458
 31
0.0
  0
ARC
  5
8DC
330
2
100
AcDbEntity
  8
0
100
AcDbCircle
 10
326.2406994322
 20
123.7676578458
 30
0.0
 40
2.0
100
AcDbArc
 50
271.0
 51
0.0
  0
LINE
  5
8DD
330
2
100
AcDbEntity
  8
0
100
AcDbLine
 10
343.3355174322
 20
122.7482488458
 30
0.0
 11
341.0025094322
 21
118.7890508458
 31
0.0
  0
LINE
  5
8DE
330
2
100
AcDbEntity
  8
0
100
AcDbLine
 10
330.1449054322
 20
118.5708508458
 30
0.0
 11
327.8118974322
 21
122.5300488458
 31
0.0
  0
ARC
  5
8E2
330
2
100
AcDbEntity
  8
0
100
AcDbCircle
 10
328.5737074322
 20
119.8082468458
 30
0.0
 40
2.0
100
AcDbArc
 50
271.0
 51
0.0
  0
ARC
  5
8E5
330
2
100
AcDbEntity
  8
0
100
AcDbCircle
 10
342.5737074322
 20
120.0264468458
 30
0.0
 40
2.0
100
AcDbArc
 50
180.0
 51
269.0
  0
ARC
  5
8E6
330
2
100
AcDbEntity
  8
0
100
AcDbCircle
 10
344.9067154322
 20
123.9858588458
 30
0.0
 40
2.0
100
AcDbArc
 50
180.0
 51
269.0
  0
LINE
  5
8ED
330
2
100
AcDbEntity
  8
0
100
AcDbLine
 10
377.0737074322
 20
125.1300548458
 30
0.0
 11
377.0737074322
 21
140.7528568458
 31
0.0
  0
LINE
  5
8EE
330
2
100
AcDbEntity
  8
0
100
AcDbLine
 10
376.2963024322
 20
124.4414558458
 30
0.0
 11
376.0737074322
 21
124.4414558458
 31
0.0
  0
ARC
  5
8EF
330
2
100
AcDbEntity
  8
0
100
AcDbCircle
 10
375.6716994322
 20
126.3414498458
 30
0.0
 40
2.0
100
AcDbArc
 50
288.19487
 51
300.0
  0
ARC
  5
8F0
330
2
100
AcDbEntity
  8
0
100
AcDbCircle
 10
376.5737074322
 20
125.1300548458
 30
0.0
 40
0.5
100
AcDbArc
 50
300.0
 51
0.0
  0
LINE
  5
8F1
330
2
100
AcDbEntity
  8
0
100
AcDbLine
 10
376.8237074322
 20
124.6970708458
 30
0.0
 11
376.6716994322
 21
124.6094548458
 31
0.0
  0
LINE
  5
8F2
330
2
100
AcDbEntity
  8
0
100
AcDbLine
 10
376.2963024322
 20
141.4414558458
 30
0.0
 11
376.0737074322
 21
141.4414558458
 31
0.0
  0
ARC
  5
8F3
330
2
100
AcDbEntity
  8
0
100
AcDbCircle
 10
375.6716994322
 20
139.5414618458
 30
0.0
 40
2.0
100
AcDbArc
 50
60.0
 51
71.80513
  0
ARC
  5
8F4
330
2
100
AcDbEntity
  8
0
100
AcDbCircle
 10
376.5737074322
 20
140.7528568458
 30
0.0
 40
0.5
100
AcDbArc
 50
0.0
 51
60.0
  0
LINE
  5
8F5
330
2
100
AcDbEntity
  8
0
100
AcDbLine
 10
376.8237074322
 20
141.1858408458
 30
0.0
 11
376.6716994322
 21
141.2734568458
 31
0.0
  0
LINE
  5
8F7
330
2
100
AcDbEntity
  8
HIDS
100
AcDbLine
 10
343.5737074322
 20
162.4414558458
 30
0.0
 11
376.0737074322
 21
162.4414558458
 31
0.0
  0
LINE
  5
8F8
330
2
100
AcDbEntity
  8
HIDS
100
AcDbLine
 10
343.5737074322
 20
170.4414558458
 30
0.0
 11
376.0737074322
 21
170.4414558458
 31
0.0
  0
LINE
  5
8F9
330
2
100
AcDbEntity
  8
0
100
AcDbLine
 10
344.8717114322
 20
143.8968698458
 30
0.0
 11
376.0737074322
 21
144.4414558458
 31
0.0
  0
LINE
  5
8FA
330
2
100
AcDbEntity
  8
0
100
AcDbLine
 10
342.5387034322
 20
147.8560678458
 30
0.0
 11
376.0737074322
 21
148.4414558458
 31
0.0
  0
LINE
  5
8FB
330
2
100
AcDbEntity
  8
HIDS
100
AcDbLine
 10
356.6087114322
 20
170.5742678458
 30
0.0
 11
335.5737074322
 21
170.9414558458
 31
0.0
  0
LINE
  5
8FC
330
2
100
AcDbEntity
  8
0
100
AcDbLine
 10
335.5737074322
 20
173.4414558458
 30
0.0
 11
376.0737074322
 21
172.7344548458
 31
0.0
  0
ARC
  5
8FE
330
2
100
AcDbEntity
  8
0
100
AcDbCircle
 10
328.5737074322
 20
146.0746648458
 30
0.0
 40
2.0
100
AcDbArc
 50
0.0
 51
89.0
  0
LINE
  5
8FF
330
2
100
AcDbEntity
  8
0
100
AcDbLine
 10
327.8118974322
 20
143.3528628458
 30
0.0
 11
330.1449054322
 21
147.3120608458
 31
0.0
  0
ARC
  5
900
330
2
100
AcDbEntity
  8
0
100
AcDbCircle
 10
326.2406994322
 20
142.1152538458
 30
0.0
 40
2.0
100
AcDbArc
 50
0.0
 51
89.0
  0
ARC
  5
903
330
2
100
AcDbEntity
  8
0
100
AcDbCircle
 10
344.9067154322
 20
141.8970528458
 30
0.0
 40
2.0
100
AcDbArc
 50
91.0
 51
180.0
  0
ARC
  5
904
330
2
100
AcDbEntity
  8
0
100
AcDbCircle
 10
342.5737074322
 20
145.8564648458
 30
0.0
 40
2.0
100
AcDbArc
 50
91.0
 51
180.0
  0
LINE
  5
905
330
2
100
AcDbEntity
  8
0
100
AcDbLine
 10
343.3355174322
 20
143.1346628458
 30
0.0
 11
341.0025094322
 21
147.0938608458
 31
0.0
  0
LINE
  5
908
330
2
100
AcDbEntity
  8
HIDS
100
AcDbLine
 10
327.5737074322
 20
170.4414558458
 30
0.0
 11
327.5737074322
 21
162.4414558458
 31
0.0
  0
LINE
  5
909
330
2
100
AcDbEntity
  8
HIDS
100
AcDbLine
 10
343.5737074322
 20
170.4414558458
 30
0.0
 11
343.5737074322
 21
162.4414558458
 31
0.0
  0
ARC
  5
910
330
2
100
AcDbEntity
  8
HIDS
100
AcDbCircle
 10
356.5737074322
 20
168.5746648458
 30
0.0
 40
2.0
100
AcDbArc
 50
0.0
 51
89.0
  0
ARC
  5
911
330
2
100
AcDbEntity
  8
HIDS
100
AcDbCircle
 10
361.5737074322
 20
164.6432688458
 30
0.0
 40
3.0
100
AcDbArc
 50
180.0
 51
230.643295
  0
LINE
  5
912
330
2
100
AcDbEntity
  8
HIDS
100
AcDbLine
 10
358.5737074322
 20
168.5746648458
 30
0.0
 11
358.5737074322
 21
164.6432688458
 31
0.0
  0
LINE
  5
913
330
2
100
AcDbEntity
  8
0
100
AcDbLine
 10
404.0737074322
 20
130.4414558458
 30
0.0
 11
382.5737074322
 21
130.4414558458
 31
0.0
  0
LINE
  5
914
330
2
100
AcDbEntity
  8
0
100
AcDbLine
 10
404.0737074322
 20
135.4414558458
 30
0.0
 11
382.5737074322
 21
135.4414558458
 31
0.0
  0
ARC
  5
915
330
2
100
AcDbEntity
  8
0
100
AcDbCircle
 10
382.5737074322
 20
132.9414558458
 30
0.0
 40
2.5
100
AcDbArc
 50
90.0
 51
270.0
  0
LINE
  5
916
330
2
100
AcDbEntity
  8
0
100
AcDbLine
 10
404.0737074322
 20
140.4414558458
 30
0.0
 11
404.0737074322
 21
125.4414558458
 31
0.0
  0
CIRCLE
  5
917
330
2
100
AcDbEntity
  8
HOJO
100
AcDbCircle
 10
497.8895549769
 20
166.4414558458
 30
0.0
 40
4.0
  0
CIRCLE
  5
918
330
2
100
AcDbEntity
  8
0
100
AcDbCircle
 10
497.8895549769
 20
166.4414558458
 30
0.0
 40
3.2
  0
ARC
  5
919
330
2
100
AcDbEntity
  8
0
100
AcDbCircle
 10
497.8895549769
 20
166.4414558458
 30
0.0
 40
7.0
100
AcDbArc
 50
47.364071
 51
180.0
  0
LINE
  5
91B
330
2
100
AcDbEntity
  8
0
100
AcDbLine
 10
494.8895549769
 20
122.2698558458
 30
0.0
 11
494.8895549769
 21
143.6130558458
 31
0.0
  0
ARC
  5
91C
330
2
100
AcDbEntity
  8
0
100
AcDbCircle
 10
492.8895549769
 20
122.2698558458
 30
0.0
 40
2.0
100
AcDbArc
 50
315.0
 51
0.0
  0
ARC
  5
91D
330
2
100
AcDbEntity
  8
0
100
AcDbCircle
 10
492.8895549769
 20
116.6130558458
 30
0.0
 40
2.0
100
AcDbArc
 50
135.0
 51
180.0
  0
LINE
  5
91E
330
2
100
AcDbEntity
  8
0
100
AcDbLine
 10
494.3037399769
 20
120.8556708458
 30
0.0
 11
491.4753699769
 21
118.0272408458
 31
0.0
  0
ARC
  5
91F
330
2
100
AcDbEntity
  8
0
100
AcDbCircle
 10
492.8895549769
 20
143.6130558458
 30
0.0
 40
2.0
100
AcDbArc
 50
0.0
 51
45.0
  0
ARC
  5
920
330
2
100
AcDbEntity
  8
0
100
AcDbCircle
 10
492.8895549769
 20
149.2698558458
 30
0.0
 40
2.0
100
AcDbArc
 50
180.0
 51
225.0
  0
LINE
  5
921
330
2
100
AcDbEntity
  8
0
100
AcDbLine
 10
494.3037399769
 20
145.0272408458
 30
0.0
 11
491.4753699769
 21
147.8556708458
 31
0.0
  0
CIRCLE
  5
922
330
2
100
AcDbEntity
  8
0
100
AcDbCircle
 10
529.8895549769
 20
132.9414558458
 30
0.0
 40
23.0
  0
CIRCLE
  5
923
330
2
100
AcDbEntity
  8
0
100
AcDbCircle
 10
529.8895549769
 20
132.9414558458
 30
0.0
 40
15.0
  0
CIRCLE
  5
924
330
2
100
AcDbEntity
  8
0
100
AcDbCircle
 10
529.8895549769
 20
132.9414558458
 30
0.0
 40
19.0
  0
LINE
  5
925
330
2
100
AcDbEntity
  8
0
100
AcDbLine
 10
499.8895549769
 20
146.4414558458
 30
0.0
 11
499.8895549769
 21
119.4414558458
 31
0.0
  0
LINE
  5
926
330
2
100
AcDbEntity
  8
CENTER
100
AcDbLine
 10
529.8895549769
 20
102.7349433458
 30
0.0
 11
529.8895549769
 21
163.1479683458
 31
0.0
  0
ARC
  5
927
330
2
100
AcDbEntity
  8
0
100
AcDbCircle
 10
529.8895549769
 20
132.9414558458
 30
0.0
 40
7.5
100
AcDbArc
 50
199.471207
 51
160.528793
  0
LINE
  5
928
330
2
100
AcDbEntity
  8
0
100
AcDbLine
 10
525.3895549769
 20
130.4414558458
 30
0.0
 11
520.3895549769
 21
130.4414558458
 31
0.0
  0
LINE
  5
929
330
2
100
AcDbEntity
  8
0
100
AcDbLine
 10
525.3895549769
 20
135.4414558458
 30
0.0
 11
520.3895549769
 21
135.4414558458
 31
0.0
  0
ARC
  5
92A
330
2
100
AcDbEntity
  8
0
100
AcDbCircle
 10
529.8895549769
 20
132.9414558458
 30
0.0
 40
8.5
100
AcDbArc
 50
197.104599
 51
162.895401
  0
LINE
  5
92B
330
2
100
AcDbEntity
  8
0
100
AcDbLine
 10
505.4079269769
 20
113.7430608458
 30
0.0
 11
514.4079269769
 21
103.2430608458
 31
0.0
  0
LINE
  5
92C
330
2
100
AcDbEntity
  8
0
100
AcDbLine
 10
504.4881269769
 20
111.7430608458
 30
0.0
 11
512.4079269769
 21
102.5032538458
 31
0.0
  0
LINE
  5
92D
330
2
100
AcDbEntity
  8
0
100
AcDbLine
 10
503.8895549769
 20
114.4414558458
 30
0.0
 11
502.1157509769
 21
114.4414558458
 31
0.0
  0
ARC
  5
92E
330
2
100
AcDbEntity
  8
0
100
AcDbCircle
 10
502.9697549769
 20
110.4414558458
 30
0.0
 40
2.0
100
AcDbArc
 50
40.601299
 51
90.0
  0
ARC
  5
92F
330
2
100
AcDbEntity
  8
0
100
AcDbCircle
 10
521.8895549769
 20
119.4414558458
 30
0.0
 40
22.0
100
AcDbArc
 50
180.0
 51
194.477493
  0
ARC
  5
930
330
2
100
AcDbEntity
  8
0
100
AcDbCircle
 10
502.5245649769
 20
114.4414558458
 30
0.0
 40
2.0
100
AcDbArc
 50
194.477493
 51
270.0
  0
ARC
  5
931
330
2
100
AcDbEntity
  8
0
100
AcDbCircle
 10
502.1157509769
 20
116.4414558458
 30
0.0
 40
2.0
100
AcDbArc
 50
188.626907
 51
270.0
  0
LINE
  5
932
330
2
100
AcDbEntity
  8
0
100
AcDbLine
 10
502.9697549769
 20
112.4414558458
 30
0.0
 11
502.5245649769
 21
112.4414558458
 31
0.0
  0
LINE
  5
933
330
2
100
AcDbEntity
  8
0
100
AcDbLine
 10
504.7251259769
 20
114.2584418458
 30
0.0
 11
503.8053259769
 21
112.2584418458
 31
0.0
  0
ARC
  5
934
330
2
100
AcDbEntity
  8
0
100
AcDbCircle
 10
503.8895549769
 20
112.4414558458
 30
0.0
 40
2.0
100
AcDbArc
 50
40.601299
 51
90.0
  0
LINE
  5
935
330
2
100
AcDbEntity
  8
0
100
AcDbLine
 10
514.7653479769
 20
102.6352428458
 30
0.0
 11
512.7653479769
 21
101.8954658458
 31
0.0
  0
ARC
  5
936
330
2
100
AcDbEntity
  8
0
100
AcDbCircle
 10
512.8895549769
 20
101.9414558458
 30
0.0
 40
2.0
100
AcDbArc
 50
0.0
 51
40.601299
  0
LINE
  5
937
330
2
100
AcDbEntity
  8
0
100
AcDbLine
 10
520.3895549769
 20
135.4414558458
 30
0.0
 11
520.3895549769
 21
130.4414558458
 31
0.0
  0
LINE
  5
938
330
2
100
AcDbEntity
  8
0
100
AcDbLine
 10
525.3895549769
 20
135.4414558458
 30
0.0
 11
525.3895549769
 21
130.4414558458
 31
0.0
  0
LINE
  5
939
330
2
100
AcDbEntity
  8
0
100
AcDbLine
 10
505.4079269769
 20
152.1398508458
 30
0.0
 11
514.4079269769
 21
162.6398508458
 31
0.0
  0
LINE
  5
93A
330
2
100
AcDbEntity
  8
0
100
AcDbLine
 10
504.4881269769
 20
154.1398508458
 30
0.0
 11
512.4079269769
 21
163.3796578458
 31
0.0
  0
ARC
  5
93C
330
2
100
AcDbEntity
  8
0
100
AcDbCircle
 10
521.8895549769
 20
146.4414558458
 30
0.0
 40
22.0
100
AcDbArc
 50
165.522507
 51
180.0
  0
ARC
  5
93D
330
2
100
AcDbEntity
  8
0
100
AcDbCircle
 10
502.1157509769
 20
149.4414558458
 30
0.0
 40
2.0
100
AcDbArc
 50
90.0
 51
171.373093
  0
LINE
  5
93E
330
2
100
AcDbEntity
  8
0
100
AcDbLine
 10
504.7251259769
 20
151.6244698458
 30
0.0
 11
503.8053259769
 21
153.6244698458
 31
0.0
  0
ARC
  5
93F
330
2
100
AcDbEntity
  8
0
100
AcDbCircle
 10
503.8895549769
 20
153.4414558458
 30
0.0
 40
2.0
100
AcDbArc
 50
270.0
 51
319.398701
  0
LINE
  5
940
330
2
100
AcDbEntity
  8
0
100
AcDbLine
 10
503.8895549769
 20
151.4414558458
 30
0.0
 11
502.1157509769
 21
151.4414558458
 31
0.0
  0
ARC
  5
941
330
2
100
AcDbEntity
  8
0
100
AcDbCircle
 10
502.9697549769
 20
155.4414558458
 30
0.0
 40
2.0
100
AcDbArc
 50
270.0
 51
319.398701
  0
ARC
  5
942
330
2
100
AcDbEntity
  8
0
100
AcDbCircle
 10
502.5245649769
 20
151.4414558458
 30
0.0
 40
2.0
100
AcDbArc
 50
90.0
 51
165.522507
  0
LINE
  5
943
330
2
100
AcDbEntity
  8
0
100
AcDbLine
 10
502.9697549769
 20
153.4414558458
 30
0.0
 11
502.5245649769
 21
153.4414558458
 31
0.0
  0
ARC
  5
944
330
2
100
AcDbEntity
  8
0
100
AcDbCircle
 10
524.8895549769
 20
144.9414558458
 30
0.0
 40
30.0
100
AcDbArc
 50
112.331596
 51
120.358299
  0
ARC
  5
945
330
2
100
AcDbEntity
  8
0
100
AcDbCircle
 10
506.6949749769
 20
176.0052678458
 30
0.0
 40
6.0
100
AcDbArc
 50
227.364105
 51
300.358307
  0
ARC
  5
946
330
2
100
AcDbEntity
  8
0
100
AcDbCircle
 10
521.8895549769
 20
146.4414558458
 30
0.0
 40
22.0
100
AcDbArc
 50
90.0
 51
110.487297
  0
ARC
  5
947
330
2
100
AcDbEntity
  8
0
100
AcDbCircle
 10
514.8895549769
 20
165.1764408458
 30
0.0
 40
2.0
100
AcDbArc
 50
110.487297
 51
180.0
  0
ARC
  5
948
330
2
100
AcDbEntity
  8
0
100
AcDbCircle
 10
516.8895549769
 20
165.8064458458
 30
0.0
 40
2.0
100
AcDbArc
 50
104.477501
 51
180.0
  0
LINE
  5
949
330
2
100
AcDbEntity
  8
0
100
AcDbLine
 10
514.7653479769
 20
163.2476688458
 30
0.0
 11
512.7653479769
 21
163.9874458458
 31
0.0
  0
ARC
  5
94A
330
2
100
AcDbEntity
  8
0
100
AcDbCircle
 10
510.8895549769
 20
164.6812628458
 30
0.0
 40
2.0
100
AcDbArc
 50
319.398701
 51
0.0
  0
ARC
  5
94B
330
2
100
AcDbEntity
  8
0
100
AcDbCircle
 10
512.8895549769
 20
163.9414558458
 30
0.0
 40
2.0
100
AcDbArc
 50
319.398701
 51
0.0
  0
LINE
  5
94C
330
2
100
AcDbEntity
  8
0
100
AcDbLine
 10
514.8895549769
 20
163.9414558458
 30
0.0
 11
514.8895549769
 21
165.8064458458
 31
0.0
  0
LINE
  5
94D
330
2
100
AcDbEntity
  8
0
100
AcDbLine
 10
512.8895549769
 20
164.6812628458
 30
0.0
 11
512.8895549769
 21
165.1764408458
 31
0.0
  0
ARC
  5
94E
330
2
100
AcDbEntity
  8
0
100
AcDbCircle
 10
517.2901289769
 20
163.4414558458
 30
0.0
 40
10.0
100
AcDbArc
 50
90.0
 51
112.331596
  0
LINE
  5
94F
330
2
100
AcDbEntity
  8
0
100
AcDbLine
 10
520.3895549769
 20
261.4616039467
 30
0.0
 11
537.3895549769
 21
261.4616039467
 31
0.0
  0
LINE
  5
950
330
2
100
AcDbEntity
  8
HIDS
100
AcDbLine
 10
502.1395549769
 20
357.9616039467
 30
0.0
 11
502.1395549769
 21
370.4616039467
 31
0.0
  0
LINE
  5
951
330
2
100
AcDbEntity
  8
HIDS
100
AcDbLine
 10
493.6395549769
 20
357.9616039467
 30
0.0
 11
493.6395549769
 21
370.4616039467
 31
0.0
  0
LINE
  5
952
330
2
100
AcDbEntity
  8
0
100
AcDbLine
 10
506.5475749769
 20
370.4616039467
 30
0.0
 11
506.5475749769
 21
337.1656139467
 31
0.0
  0
LINE
  5
953
330
2
100
AcDbEntity
  8
0
100
AcDbLine
 10
515.5221839769
 20
370.4616039467
 30
0.0
 11
515.5221839769
 21
334.9616039467
 31
0.0
  0
LINE
  5
954
330
2
100
AcDbEntity
  8
0
100
AcDbLine
 10
490.8895549769
 20
329.9616039467
 30
0.0
 11
491.5965249769
 21
370.4616039467
 31
0.0
  0
LINE
  5
955
330
2
100
AcDbEntity
  8
CENTER
100
AcDbLine
 10
497.8895549769
 20
286.1025949467
 30
0.0
 11
497.8895549769
 21
373.7778269467
 31
0.0
  0
LINE
  5
956
330
2
100
AcDbEntity
  8
HIDS
100
AcDbLine
 10
493.8895549769
 20
321.9616039467
 30
0.0
 11
501.8895549769
 21
321.9616039467
 31
0.0
  0
LINE
  5
957
330
2
100
AcDbEntity
  8
HIDS
100
AcDbLine
 10
493.8895549769
 20
337.9616039467
 30
0.0
 11
501.8895549769
 21
337.9616039467
 31
0.0
  0
LINE
  5
958
330
2
100
AcDbEntity
  8
HIDS
100
AcDbLine
 10
493.8895549769
 20
289.4616039467
 30
0.0
 11
493.8895549769
 21
321.9616039467
 31
0.0
  0
LINE
  5
95A
330
2
100
AcDbEntity
  8
0
100
AcDbLine
 10
490.8895549769
 20
329.9616039467
 30
0.0
 11
491.5965249769
 21
289.4616039467
 31
0.0
  0
LINE
  5
95B
330
2
100
AcDbEntity
  8
HIDS
100
AcDbLine
 10
493.8895549769
 20
357.9616039467
 30
0.0
 11
493.8895549769
 21
337.9616039467
 31
0.0
  0
LINE
  5
95C
330
2
100
AcDbEntity
  8
HIDS
100
AcDbLine
 10
501.8895549769
 20
289.4616039467
 30
0.0
 11
501.8895549769
 21
321.9616039467
 31
0.0
  0
LINE
  5
95E
330
2
100
AcDbEntity
  8
0
100
AcDbLine
 10
515.5221839769
 20
324.9616039467
 30
0.0
 11
515.5221839769
 21
289.4616039467
 31
0.0
  0
LINE
  5
95F
330
2
100
AcDbEntity
  8
0
100
AcDbLine
 10
506.5475749769
 20
322.7575939467
 30
0.0
 11
506.5475749769
 21
289.4616039467
 31
0.0
  0
LINE
  5
960
330
2
100
AcDbEntity
  8
0
100
AcDbLine
 10
522.0781539769
 20
288.4616039467
 30
0.0
 11
537.7009559769
 21
288.4616039467
 31
0.0
  0
LINE
  5
961
330
2
100
AcDbEntity
  8
0
100
AcDbLine
 10
521.3895549769
 20
289.2390089467
 30
0.0
 11
521.3895549769
 21
289.4616039467
 31
0.0
  0
ARC
  5
962
330
2
100
AcDbEntity
  8
0
100
AcDbCircle
 10
523.2895789769
 20
289.8636119467
 30
0.0
 40
2.0
100
AcDbArc
 50
198.194901
 51
210.0
  0
ARC
  5
963
330
2
100
AcDbEntity
  8
0
100
AcDbCircle
 10
522.0781539769
 20
288.9616039467
 30
0.0
 40
0.5
100
AcDbArc
 50
210.0
 51
270.0
  0
LINE
  5
964
330
2
100
AcDbEntity
  8
0
100
AcDbLine
 10
521.6451699769
 20
288.7116039467
 30
0.0
 11
521.5575849769
 21
288.8636119467
 31
0.0
  0
ARC
  5
965
330
2
100
AcDbEntity
  8
0
100
AcDbCircle
 10
515.3185709769
 20
282.9616039467
 30
0.0
 40
7.500003999999997
100
AcDbArc
 50
0.0
 51
19.47121
  0
LINE
  5
966
330
2
100
AcDbEntity
  8
0
100
AcDbLine
 10
522.3895549769
 20
285.4616039467
 30
0.0
 11
522.3895549769
 21
288.4616039467
 31
0.0
  0
LINE
  5
967
330
2
100
AcDbEntity
  8
0
100
AcDbLine
 10
520.3895549769
 20
285.4616039467
 30
0.0
 11
522.3895549769
 21
285.4616039467
 31
0.0
  0
LINE
  5
968
330
2
100
AcDbEntity
  8
0
100
AcDbLine
 10
538.3895549769
 20
289.2390089467
 30
0.0
 11
538.3895549769
 21
289.4616039467
 31
0.0
  0
ARC
  5
969
330
2
100
AcDbEntity
  8
0
100
AcDbCircle
 10
536.4895309769
 20
289.8636119467
 30
0.0
 40
2.0
100
AcDbArc
 50
330.0
 51
341.80513
  0
ARC
  5
96A
330
2
100
AcDbEntity
  8
0
100
AcDbCircle
 10
537.7009559769
 20
288.9616039467
 30
0.0
 40
0.5
100
AcDbArc
 50
270.0
 51
330.0
  0
LINE
  5
96B
330
2
100
AcDbEntity
  8
0
100
AcDbLine
 10
538.1339399769
 20
288.7116039467
 30
0.0
 11
538.2215249769
 21
288.8636119467
 31
0.0
  0
LINE
  5
96C
330
2
100
AcDbEntity
  8
HIDS
100
AcDbLine
 10
501.8895549769
 20
357.9616039467
 30
0.0
 11
501.8895549769
 21
337.9616039467
 31
0.0
  0
ARC
  5
96D
330
2
100
AcDbEntity
  8
0
100
AcDbCircle
 10
506.5475749769
 20
333.7575939467
 30
0.0
 40
11.0
100
AcDbArc
 50
244.282303
 51
291.075287
  0
LINE
  5
96E
330
2
100
AcDbEntity
  8
0
100
AcDbLine
 10
515.5221839769
 20
324.9616039467
 30
0.0
 11
497.9767739769
 21
324.9616039467
 31
0.0
  0
ARC
  5
96F
330
2
100
AcDbEntity
  8
0
100
AcDbCircle
 10
506.5475749769
 20
326.1656139467
 30
0.0
 40
11.0
100
AcDbArc
 50
68.924667
 51
115.717697
  0
LINE
  5
970
330
2
100
AcDbEntity
  8
0
100
AcDbLine
 10
515.5221839769
 20
334.9616039467
 30
0.0
 11
497.9767739769
 21
334.9616039467
 31
0.0
  0
LINE
  5
971
330
2
100
AcDbEntity
  8
0
100
AcDbLine
 10
501.7743819769
 20
323.8471939467
 30
0.0
 11
500.7973309769
 21
324.3178049467
 31
0.0
  0
ARC
  5
972
330
2
100
AcDbEntity
  8
0
100
AcDbCircle
 10
497.9767739769
 20
318.4616039467
 30
0.0
 40
6.5
100
AcDbArc
 50
64.282272
 51
90.0
  0
LINE
  5
973
330
2
100
AcDbEntity
  8
0
100
AcDbLine
 10
501.7743819769
 20
336.0760139467
 30
0.0
 11
500.7973309769
 21
335.6054029467
 31
0.0
  0
ARC
  5
974
330
2
100
AcDbEntity
  8
0
100
AcDbCircle
 10
497.9767739769
 20
341.4616039467
 30
0.0
 40
6.5
100
AcDbArc
 50
270.0
 51
295.717728
  0
ARC
  5
975
330
2
100
AcDbEntity
  8
0
100
AcDbCircle
 10
515.5221839769
 20
318.4616039467
 30
0.0
 40
6.5
100
AcDbArc
 50
90.0
 51
111.075302
  0
LINE
  5
976
330
2
100
AcDbEntity
  8
0
100
AcDbLine
 10
513.1847819769
 20
324.5267899467
 30
0.0
 11
510.5031409769
 21
323.4934029467
 31
0.0
  0
ARC
  5
977
330
2
100
AcDbEntity
  8
0
100
AcDbCircle
 10
515.5221839769
 20
341.4616039467
 30
0.0
 40
6.5
100
AcDbArc
 50
248.924698
 51
270.0
  0
LINE
  5
978
330
2
100
AcDbEntity
  8
0
100
AcDbLine
 10
513.1847819769
 20
335.3964179467
 30
0.0
 11
510.5031409769
 21
336.4298049467
 31
0.0
  0
LINE
  5
979
330
2
100
AcDbEntity
  8
0
100
AcDbLine
 10
682.3633709769
 20
163.1904488458
 30
0.0
 11
663.9449749769
 21
163.1904488458
 31
0.0
  0
LINE
  5
97A
330
2
100
AcDbEntity
  8
0
100
AcDbLine
 10
682.3633709769
 20
102.6924628458
 30
0.0
 11
663.9449749769
 21
102.6924628458
 31
0.0
  0
LINE
  5
97B
330
2
100
AcDbEntity
  8
0
100
AcDbLine
 10
680.4809249769
 20
170.9414558458
 30
0.0
 11
663.9449749769
 21
170.9414558458
 31
0.0
  0
LINE
  5
980
330
2
100
AcDbEntity
  8
0
100
AcDbLine
 10
663.9449749769
 20
163.1904488458
 30
0.0
 11
590.8895549769
 21
163.1904488458
 31
0.0
  0
LINE
  5
981
330
2
100
AcDbEntity
  8
0
100
AcDbLine
 10
663.9449749769
 20
102.6924628458
 30
0.0
 11
590.8895549769
 21
102.6924628458
 31
0.0
  0
LINE
  5
982
330
2
100
AcDbEntity
  8
0
100
AcDbLine
 10
663.9449749769
 20
170.9414558458
 30
0.0
 11
592.2483809769
 21
170.9414558458
 31
0.0
  0
LINE
  5
983
330
2
100
AcDbEntity
  8
0
100
AcDbLine
 10
581.8895549769
 20
146.4414558458
 30
0.0
 11
581.8895549769
 21
119.4414558458
 31
0.0
  0
LINE
  5
984
330
2
100
AcDbEntity
  8
0
100
AcDbLine
 10
586.8895549769
 20
122.2698558458
 30
0.0
 11
586.8895549769
 21
143.6130558458
 31
0.0
  0
ARC
  5
985
330
2
100
AcDbEntity
  8
0
100
AcDbCircle
 10
559.8895549769
 20
119.4414558458
 30
0.0
 40
22.0
100
AcDbArc
 50
345.52249
 51
0.0
  0
ARC
  5
986
330
2
100
AcDbEntity
  8
0
100
AcDbCircle
 10
579.6633589769
 20
116.4414558458
 30
0.0
 40
2.0
100
AcDbArc
 50
270.0
 51
351.373108
  0
LINE
  5
987
330
2
100
AcDbEntity
  8
0
100
AcDbLine
 10
567.0137619769
 20
102.6352428458
 30
0.0
 11
569.0137619769
 21
101.8954658458
 31
0.0
  0
LINE
  5
988
330
2
100
AcDbEntity
  8
0
100
AcDbLine
 10
576.3711829769
 20
113.7430608458
 30
0.0
 11
567.3711829769
 21
103.2430608458
 31
0.0
  0
ARC
  5
989
330
2
100
AcDbEntity
  8
0
100
AcDbCircle
 10
568.8895549769
 20
101.9414558458
 30
0.0
 40
2.0
100
AcDbArc
 50
139.398697
 51
180.0
  0
LINE
  5
98A
330
2
100
AcDbEntity
  8
0
100
AcDbLine
 10
577.2909829769
 20
111.7430608458
 30
0.0
 11
569.3711829769
 21
102.5032538458
 31
0.0
  0
ARC
  5
98B
330
2
100
AcDbEntity
  8
0
100
AcDbCircle
 10
579.2545449769
 20
114.4414558458
 30
0.0
 40
2.0
100
AcDbArc
 50
270.0
 51
345.522491
  0
LINE
  5
98C
330
2
100
AcDbEntity
  8
0
100
AcDbLine
 10
578.8093549769
 20
112.4414558458
 30
0.0
 11
579.2545449769
 21
112.4414558458
 31
0.0
  0
LINE
  5
98D
330
2
100
AcDbEntity
  8
0
100
AcDbLine
 10
577.8895549769
 20
114.4414558458
 30
0.0
 11
579.6633589769
 21
114.4414558458
 31
0.0
  0
LINE
  5
98E
330
2
100
AcDbEntity
  8
0
100
AcDbLine
 10
577.0539839769
 20
114.2584418458
 30
0.0
 11
577.9737839769
 21
112.2584418458
 31
0.0
  0
ARC
  5
98F
330
2
100
AcDbEntity
  8
0
100
AcDbCircle
 10
577.8895549769
 20
112.4414558458
 30
0.0
 40
2.0
100
AcDbArc
 50
90.0
 51
139.398697
  0
ARC
  5
990
330
2
100
AcDbEntity
  8
0
100
AcDbCircle
 10
578.8093549769
 20
110.4414558458
 30
0.0
 40
2.0
100
AcDbArc
 50
90.0
 51
139.398697
  0
ARC
  5
991
330
2
100
AcDbEntity
  8
0
100
AcDbCircle
 10
588.8895549769
 20
122.2698558458
 30
0.0
 40
2.0
100
AcDbArc
 50
180.0
 51
225.0
  0
LINE
  5
992
330
2
100
AcDbEntity
  8
0
100
AcDbLine
 10
587.4753699769
 20
120.8556708458
 30
0.0
 11
590.3037399769
 21
118.0272408458
 31
0.0
  0
ARC
  5
993
330
2
100
AcDbEntity
  8
0
100
AcDbCircle
 10
588.8895549769
 20
116.6130558458
 30
0.0
 40
2.0
100
AcDbArc
 50
0.0
 51
45.0
  0
CIRCLE
  5
994
330
2
100
AcDbEntity
  8
HOJO
100
AcDbCircle
 10
583.8895549769
 20
166.4414558458
 30
0.0
 40
4.0
  0
CIRCLE
  5
995
330
2
100
AcDbEntity
  8
0
100
AcDbCircle
 10
583.8895549769
 20
166.4414558458
 30
0.0
 40
3.2
  0
ARC
  5
996
330
2
100
AcDbEntity
  8
0
100
AcDbCircle
 10
559.8895549769
 20
146.4414558458
 30
0.0
 40
22.0
100
AcDbArc
 50
0.0
 51
14.47751
  0
ARC
  5
997
330
2
100
AcDbEntity
  8
0
100
AcDbCircle
 10
579.6633589769
 20
149.4414558458
 30
0.0
 40
2.0
100
AcDbArc
 50
8.626927
 51
90.0
  0
ARC
  5
998
330
2
100
AcDbEntity
  8
0
100
AcDbCircle
 10
583.8895549769
 20
166.4414558458
 30
0.0
 40
7.0
100
AcDbArc
 50
0.0
 51
132.635895
  0
LINE
  5
99A
330
2
100
AcDbEntity
  8
0
100
AcDbLine
 10
576.3711829769
 20
152.1398508458
 30
0.0
 11
567.3711829769
 21
162.6398508458
 31
0.0
  0
LINE
  5
99B
330
2
100
AcDbEntity
  8
0
100
AcDbLine
 10
577.2909829769
 20
154.1398508458
 30
0.0
 11
569.3711829769
 21
163.3796578458
 31
0.0
  0
LINE
  5
99C
330
2
100
AcDbEntity
  8
0
100
AcDbLine
 10
577.0539839769
 20
151.6244698458
 30
0.0
 11
577.9737839769
 21
153.6244698458
 31
0.0
  0
ARC
  5
99D
330
2
100
AcDbEntity
  8
0
100
AcDbCircle
 10
577.8895549769
 20
153.4414558458
 30
0.0
 40
2.0
100
AcDbArc
 50
220.601303
 51
270.0
  0
LINE
  5
99E
330
2
100
AcDbEntity
  8
0
100
AcDbLine
 10
577.8895549769
 20
151.4414558458
 30
0.0
 11
579.6633589769
 21
151.4414558458
 31
0.0
  0
ARC
  5
99F
330
2
100
AcDbEntity
  8
0
100
AcDbCircle
 10
579.2545449769
 20
151.4414558458
 30
0.0
 40
2.0
100
AcDbArc
 50
14.47751
 51
90.0
  0
LINE
  5
9A0
330
2
100
AcDbEntity
  8
0
100
AcDbLine
 10
578.8093549769
 20
153.4414558458
 30
0.0
 11
579.2545449769
 21
153.4414558458
 31
0.0
  0
ARC
  5
9A1
330
2
100
AcDbEntity
  8
0
100
AcDbCircle
 10
578.8093549769
 20
155.4414558458
 30
0.0
 40
2.0
100
AcDbArc
 50
220.601303
 51
270.0
  0
LINE
  5
9A2
330
2
100
AcDbEntity
  8
0
100
AcDbLine
 10
567.0137619769
 20
163.2476688458
 30
0.0
 11
569.0137619769
 21
163.9874458458
 31
0.0
  0
ARC
  5
9A3
330
2
100
AcDbEntity
  8
0
100
AcDbCircle
 10
559.8895549769
 20
146.4414558458
 30
0.0
 40
22.0
100
AcDbArc
 50
69.512688
 51
90.0
  0
ARC
  5
9A4
330
2
100
AcDbEntity
  8
0
100
AcDbCircle
 10
564.4889809769
 20
163.4414558458
 30
0.0
 40
10.0
100
AcDbArc
 50
67.668358
 51
90.0
  0
ARC
  5
9A5
330
2
100
AcDbEntity
  8
0
100
AcDbCircle
 10
564.8895549769
 20
165.8064458458
 30
0.0
 40
2.0
100
AcDbArc
 50
0.0
 51
75.522491
  0
ARC
  5
9A6
330
2
100
AcDbEntity
  8
0
100
AcDbCircle
 10
568.8895549769
 20
163.9414558458
 30
0.0
 40
2.0
100
AcDbArc
 50
180.0
 51
220.601303
  0
LINE
  5
9A7
330
2
100
AcDbEntity
  8
0
100
AcDbLine
 10
566.8895549769
 20
163.9414558458
 30
0.0
 11
566.8895549769
 21
165.8064458458
 31
0.0
  0
ARC
  5
9A8
330
2
100
AcDbEntity
  8
0
100
AcDbCircle
 10
556.8895549769
 20
144.9414558458
 30
0.0
 40
30.0
100
AcDbArc
 50
59.641701
 51
67.668358
  0
ARC
  5
9A9
330
2
100
AcDbEntity
  8
0
100
AcDbCircle
 10
575.0841349769
 20
176.0052678458
 30
0.0
 40
6.0
100
AcDbArc
 50
239.641693
 51
312.635895
  0
ARC
  5
9AA
330
2
100
AcDbEntity
  8
0
100
AcDbCircle
 10
566.8895549769
 20
165.1764408458
 30
0.0
 40
2.0
100
AcDbArc
 50
0.0
 51
69.512688
  0
ARC
  5
9AB
330
2
100
AcDbEntity
  8
0
100
AcDbCircle
 10
570.8895549769
 20
164.6812628458
 30
0.0
 40
2.0
100
AcDbArc
 50
180.0
 51
220.601303
  0
LINE
  5
9AC
330
2
100
AcDbEntity
  8
0
100
AcDbLine
 10
568.8895549769
 20
164.6812628458
 30
0.0
 11
568.8895549769
 21
165.1764408458
 31
0.0
  0
LINE
  5
9AE
330
2
100
AcDbEntity
  8
0
100
AcDbLine
 10
590.8895549769
 20
166.4414558458
 30
0.0
 11
590.8895549769
 21
149.2698558458
 31
0.0
  0
LINE
  5
9AF
330
2
100
AcDbEntity
  8
0
100
AcDbLine
 10
587.4753699769
 20
145.0272408458
 30
0.0
 11
590.3037399769
 21
147.8556708458
 31
0.0
  0
ARC
  5
9B0
330
2
100
AcDbEntity
  8
0
100
AcDbCircle
 10
588.8895549769
 20
143.6130558458
 30
0.0
 40
2.0
100
AcDbArc
 50
135.0
 51
180.0
  0
ARC
  5
9B1
330
2
100
AcDbEntity
  8
0
100
AcDbCircle
 10
588.8895549769
 20
149.2698558458
 30
0.0
 40
2.0
100
AcDbArc
 50
315.0
 51
0.0
  0
LINE
  5
9B2
330
2
100
AcDbEntity
  8
0
100
AcDbLine
 10
591.5531289769
 20
171.0660588458
 30
0.0
 11
586.3225379769
 21
173.0050548458
 31
0.0
  0
ARC
  5
9B3
330
2
100
AcDbEntity
  8
0
100
AcDbCircle
 10
592.2483809769
 20
172.9414558458
 30
0.0
 40
2.0
100
AcDbArc
 50
249.661301
 51
270.0
  0
ARC
  5
9B9
330
2
100
AcDbEntity
  8
0
100
AcDbCircle
 10
680.4809249769
 20
167.9414558458
 30
0.0
 40
3.0
100
AcDbArc
 50
29.999599
 51
90.0
  0
LINE
  5
9BB
330
2
100
AcDbEntity
  8
0
100
AcDbLine
 10
683.0791299769
 20
169.4414558458
 30
0.0
 11
683.9449749769
 21
167.9414558458
 31
0.0
  0
LINE
  5
9BC
330
2
100
AcDbEntity
  8
0
100
AcDbLine
 10
684.4449749769
 20
164.9414558458
 30
0.0
 11
683.9449749769
 21
165.4414558458
 31
0.0
  0
LINE
  5
9BE
330
2
100
AcDbEntity
  8
0
100
AcDbLine
 10
680.4809249769
 20
291.9616039467
 30
0.0
 11
663.9449749769
 21
291.9616039467
 31
0.0
  0
LINE
  5
9BF
330
2
100
AcDbEntity
  8
0
100
AcDbLine
 10
680.4809249769
 20
367.9616039467
 30
0.0
 11
663.9449749769
 21
367.9616039467
 31
0.0
  0
LINE
  5
9C0
330
2
100
AcDbEntity
  8
0
100
AcDbLine
 10
682.3633709769
 20
306.9616039467
 30
0.0
 11
672.9449749769
 21
306.9616039467
 31
0.0
  0
LINE
  5
9C1
330
2
100
AcDbEntity
  8
0
100
AcDbLine
 10
682.3633709769
 20
352.9616039467
 30
0.0
 11
672.9449749769
 21
352.9616039467
 31
0.0
  0
LINE
  5
9C6
330
2
100
AcDbEntity
  8
HIDS
100
AcDbLine
 10
588.1395549769
 20
357.9616039467
 30
0.0
 11
588.1395549769
 21
370.4616039467
 31
0.0
  0
LINE
  5
9C7
330
2
100
AcDbEntity
  8
HIDS
100
AcDbLine
 10
579.6395549769
 20
357.9616039467
 30
0.0
 11
579.6395549769
 21
370.4616039467
 31
0.0
  0
LINE
  5
9C8
330
2
100
AcDbEntity
  8
0
100
AcDbLine
 10
663.9449749769
 20
354.9616039467
 30
0.0
 11
663.9449749769
 21
367.9616039467
 31
0.0
  0
LINE
  5
9C9
330
2
100
AcDbEntity
  8
0
100
AcDbLine
 10
575.2315349769
 20
370.4616039467
 30
0.0
 11
575.2315349769
 21
337.1656139467
 31
0.0
  0
LINE
  5
9CA
330
2
100
AcDbEntity
  8
0
100
AcDbLine
 10
566.2569259769
 20
370.4616039467
 30
0.0
 11
566.2569259769
 21
334.9616039467
 31
0.0
  0
LINE
  5
9CB
330
2
100
AcDbEntity
  8
0
100
AcDbLine
 10
590.1825849769
 20
370.4616039467
 30
0.0
 11
590.4881269769
 21
352.9616039467
 31
0.0
  0
LINE
  5
9CC
330
2
100
AcDbEntity
  8
0
100
AcDbLine
 10
591.8895549769
 20
367.3408149467
 30
0.0
 11
591.8895549769
 21
357.9616039467
 31
0.0
  0
LINE
  5
9CD
330
2
100
AcDbEntity
  8
CENTER
100
AcDbLine
 10
583.8895549769
 20
286.1025949467
 30
0.0
 11
583.8895549769
 21
373.7778269467
 31
0.0
  0
LINE
  5
9CE
330
2
100
AcDbEntity
  8
0
100
AcDbLine
 10
622.9450749769
 20
306.9616039467
 30
0.0
 11
587.8863809769
 21
306.9616039467
 31
0.0
  0
LINE
  5
9CF
330
2
100
AcDbEntity
  8
0
100
AcDbLine
 10
622.9450749769
 20
352.9616039467
 30
0.0
 11
587.8863809769
 21
352.9616039467
 31
0.0
  0
LINE
  5
9D0
330
2
100
AcDbEntity
  8
0
100
AcDbLine
 10
592.1917399769
 20
291.9616039467
 30
0.0
 11
663.9449749769
 21
291.9616039467
 31
0.0
  0
LINE
  5
9D1
330
2
100
AcDbEntity
  8
HIDS
100
AcDbLine
 10
587.8895549769
 20
289.4616039467
 30
0.0
 11
587.8895549769
 21
321.9616039467
 31
0.0
  0
LINE
  5
9D2
330
2
100
AcDbEntity
  8
HIDS
100
AcDbLine
 10
579.8895549769
 20
289.4616039467
 30
0.0
 11
579.8895549769
 21
321.9616039467
 31
0.0
  0
LINE
  5
9D5
330
2
100
AcDbEntity
  8
0
100
AcDbLine
 10
575.2315349769
 20
322.7575939467
 30
0.0
 11
575.2315349769
 21
289.4616039467
 31
0.0
  0
LINE
  5
9D6
330
2
100
AcDbEntity
  8
0
100
AcDbLine
 10
566.2569259769
 20
324.9616039467
 30
0.0
 11
566.2569259769
 21
289.4616039467
 31
0.0
  0
LINE
  5
9D7
330
2
100
AcDbEntity
  8
0
100
AcDbLine
 10
586.3225379769
 20
329.9616039467
 30
0.0
 11
585.8867469769
 21
304.9966079467
 31
0.0
  0
LINE
  5
9D8
330
2
100
AcDbEntity
  8
0
100
AcDbLine
 10
591.8895549769
 20
352.9616039467
 30
0.0
 11
591.8895549769
 21
306.9616039467
 31
0.0
  0
LINE
  5
9D9
330
2
100
AcDbEntity
  8
0
100
AcDbLine
 10
590.1825849769
 20
289.4616039467
 30
0.0
 11
590.4881269769
 21
306.9616039467
 31
0.0
  0
ARC
  5
9DA
330
2
100
AcDbEntity
  8
0
100
AcDbCircle
 10
592.1917399769
 20
289.9616039467
 30
0.0
 40
2.0
100
AcDbArc
 50
90.0
 51
179.0
  0
ARC
  5
9DB
330
2
100
AcDbEntity
  8
0
100
AcDbCircle
 10
587.8863809769
 20
304.9616039467
 30
0.0
 40
2.0
100
AcDbArc
 50
90.0
 51
179.0
  0
LINE
  5
9DC
330
2
100
AcDbEntity
  8
HIDS
100
AcDbLine
 10
579.8895549769
 20
321.9616039467
 30
0.0
 11
587.8895549769
 21
321.9616039467
 31
0.0
  0
LINE
  5
9DD
330
2
100
AcDbEntity
  8
HIDS
100
AcDbLine
 10
579.8895549769
 20
337.9616039467
 30
0.0
 11
587.8895549769
 21
337.9616039467
 31
0.0
  0
ARC
  5
9DE
330
2
100
AcDbEntity
  8
0
100
AcDbCircle
 10
583.8023359769
 20
318.4616039467
 30
0.0
 40
6.5
100
AcDbArc
 50
90.0
 51
115.717697
  0
LINE
  5
9DF
330
2
100
AcDbEntity
  8
0
100
AcDbLine
 10
566.2569259769
 20
324.9616039467
 30
0.0
 11
583.8023359769
 21
324.9616039467
 31
0.0
  0
ARC
  5
9E0
330
2
100
AcDbEntity
  8
0
100
AcDbCircle
 10
583.8023359769
 20
341.4616039467
 30
0.0
 40
6.5
100
AcDbArc
 50
244.282303
 51
270.0
  0
LINE
  5
9E1
330
2
100
AcDbEntity
  8
0
100
AcDbLine
 10
566.2569259769
 20
334.9616039467
 30
0.0
 11
583.8023359769
 21
334.9616039467
 31
0.0
  0
LINE
  5
9E2
330
2
100
AcDbEntity
  8
HIDS
100
AcDbLine
 10
579.8895549769
 20
357.9616039467
 30
0.0
 11
579.8895549769
 21
337.9616039467
 31
0.0
  0
ARC
  5
9E3
330
2
100
AcDbEntity
  8
0
100
AcDbCircle
 10
566.2569259769
 20
318.4616039467
 30
0.0
 40
6.5
100
AcDbArc
 50
68.924667
 51
90.0
  0
ARC
  5
9E4
330
2
100
AcDbEntity
  8
0
100
AcDbCircle
 10
566.2569259769
 20
341.4616039467
 30
0.0
 40
6.5
100
AcDbArc
 50
270.0
 51
291.075287
  0
ARC
  5
9E5
330
2
100
AcDbEntity
  8
0
100
AcDbCircle
 10
575.2315349769
 20
333.7575939467
 30
0.0
 40
11.0
100
AcDbArc
 50
248.924698
 51
295.717728
  0
LINE
  5
9E6
330
2
100
AcDbEntity
  8
0
100
AcDbLine
 10
568.5943279769
 20
324.5267899467
 30
0.0
 11
571.2759689769
 21
323.4934029467
 31
0.0
  0
LINE
  5
9E7
330
2
100
AcDbEntity
  8
0
100
AcDbLine
 10
580.0047279769
 20
323.8471939467
 30
0.0
 11
580.9817789769
 21
324.3178049467
 31
0.0
  0
ARC
  5
9E8
330
2
100
AcDbEntity
  8
0
100
AcDbCircle
 10
575.2315349769
 20
326.1656139467
 30
0.0
 40
11.0
100
AcDbArc
 50
64.282272
 51
111.075302
  0
LINE
  5
9E9
330
2
100
AcDbEntity
  8
0
100
AcDbLine
 10
568.5943279769
 20
335.3964179467
 30
0.0
 11
571.2759689769
 21
336.4298049467
 31
0.0
  0
LINE
  5
9EA
330
2
100
AcDbEntity
  8
0
100
AcDbLine
 10
580.0047279769
 20
336.0760139467
 30
0.0
 11
580.9817789769
 21
335.6054029467
 31
0.0
  0
LINE
  5
9EB
330
2
100
AcDbEntity
  8
HIDS
100
AcDbLine
 10
587.8895549769
 20
357.9616039467
 30
0.0
 11
587.8895549769
 21
337.9616039467
 31
0.0
  0
LINE
  5
9EC
330
2
100
AcDbEntity
  8
0
100
AcDbLine
 10
586.3225379769
 20
329.9616039467
 30
0.0
 11
585.8867469769
 21
354.9265999467
 31
0.0
  0
ARC
  5
9ED
330
2
100
AcDbEntity
  8
0
100
AcDbCircle
 10
587.8863809769
 20
354.9616039467
 30
0.0
 40
2.0
100
AcDbArc
 50
181.0
 51
270.0
  0
LINE
  5
9EE
330
2
100
AcDbEntity
  8
0
100
AcDbLine
 10
663.9449749769
 20
291.9616039467
 30
0.0
 11
663.9449749769
 21
304.9616039467
 31
0.0
  0
LINE
  5
9F3
330
2
100
AcDbEntity
  8
0
100
AcDbLine
 10
593.3379799769
 20
367.9616039467
 30
0.0
 11
663.9449749769
 21
367.9616039467
 31
0.0
  0
ARC
  5
9F4
330
2
100
AcDbEntity
  8
0
100
AcDbCircle
 10
593.3379799769
 20
365.9616039467
 30
0.0
 40
2.0
100
AcDbArc
 50
90.0
 51
136.398804
  0
LINE
  5
9F5
330
2
100
AcDbEntity
  8
0
100
AcDbLine
 10
683.9449749769
 20
364.9616039467
 30
0.0
 11
683.9449749769
 21
294.9616039467
 31
0.0
  0
LINE
  5
9F6
330
2
100
AcDbEntity
  8
0
100
AcDbLine
 10
684.4449749769
 20
361.9616039467
 30
0.0
 11
684.4449749769
 21
297.9616039467
 31
0.0
  0
ARC
  5
9F7
330
2
100
AcDbEntity
  8
0
100
AcDbCircle
 10
680.4809249769
 20
294.9616039467
 30
0.0
 40
3.0
100
AcDbArc
 50
270.0
 51
330.000397
  0
LINE
  5
9F8
330
2
100
AcDbEntity
  8
0
100
AcDbLine
 10
683.0791299769
 20
293.4616039467
 30
0.0
 11
683.9449749769
 21
294.9616039467
 31
0.0
  0
LINE
  5
9F9
330
2
100
AcDbEntity
  8
0
100
AcDbLine
 10
684.4449749769
 20
297.9616039467
 30
0.0
 11
683.9449749769
 21
297.4616039467
 31
0.0
  0
ARC
  5
9FE
330
2
100
AcDbEntity
  8
0
100
AcDbCircle
 10
680.4809249769
 20
364.9616039467
 30
0.0
 40
3.0
100
AcDbArc
 50
29.999599
 51
90.0
  0
LINE
  5
9FF
330
2
100
AcDbEntity
  8
0
100
AcDbLine
 10
683.0791299769
 20
366.4616039467
 30
0.0
 11
683.9449749769
 21
364.9616039467
 31
0.0
  0
LINE
  5
A00
330
2
100
AcDbEntity
  8
0
100
AcDbLine
 10
684.4449749769
 20
361.9616039467
 30
0.0
 11
683.9449749769
 21
362.4616039467
 31
0.0
  0
SPLINE
  5
A01
330
2
100
AcDbEntity
  8
HOJO
100
AcDbSpline
210
0.0
220
0.0
230
1.0
 70
  1064
 71
     3
 72
    27
 73
    23
 74
    21
 42
0.000000001
 43
0.0000000001
 44
0.0000000001
 40
0.0
 40
0.0
 40
0.0
 40
0.0
 40
3.53926877277169
 40
7.287513562995778
 40
11.09046033223696
 40
14.62599423816971
 40
18.69227008921793
 40
22.26802890950274
 40
26.82672101949672
 40
31.55579532198595
 40
36.28066624743829
 40
40.1441469007435
 40
45.48003284016012
 40
49.4409540092119
 40
54.14226030623289
 40
58.62868909724457
 40
62.78426171223568
 40
66.26314687902702
 40
70.60953379849481
 40
74.30511416613949
 40
78.24621988074813
 40
82.00437648752254
 40
82.00437648752254
 40
82.00437648752254
 40
82.00437648752254
 10
295.0737074322042
 20
107.5594686478231
 30
0.0
 10
296.2527737979534
 20
107.3937696262447
 30
0.0
 10
298.6805244672933
 20
107.0525878893793
 30
0.0
 10
302.3364049532043
 20
108.1985431340138
 30
0.0
 10
306.0228420477754
 20
106.9389677913833
 30
0.0
 10
309.7753123557707
 20
108.3889488169299
 30
0.0
 10
313.4816657975071
 20
106.8298195714965
 30
0.0
 10
317.48208361358
 20
108.4563560590371
 30
0.0
 10
321.7630210122349
 20
106.8073194758682
 30
0.0
 10
326.3787150103703
 20
108.6752114665874
 30
0.0
 10
330.8003127268785
 20
106.86712713765
 30
0.0
 10
335.3558833317094
 20
108.7010817969074
 30
0.0
 10
339.7599841106146
 20
106.8924346898114
 30
0.0
 10
344.3466047405607
 20
108.9314376002213
 30
0.0
 10
348.661325995159
 20
106.5130479828448
 30
0.0
 10
353.0291533332642
 20
109.103695744502
 30
0.0
 10
356.9908090976657
 20
106.558427406536
 30
0.0
 10
360.8363855648449
 20
108.9966273041867
 30
0.0
 10
364.6517876978988
 20
106.6882907260002
 30
0.0
 10
368.5569017849979
 20
108.8149813355555
 30
0.0
 10
372.2894849569683
 20
106.9688200095835
 30
0.0
 10
374.8324417696681
 20
107.6535929372117
 30
0.0
 10
376.0737074322042
 20
107.9878436478232
 30
0.0
 11
295.0737074322042
 21
107.5594686478231
 31
0.0
 11
298.6048964322042
 21
107.3204546478232
 31
0.0
 11
302.3237074322042
 21
107.7892656478231
 31
0.0
 11
306.1048964322042
 21
107.383046647823
 31
0.0
 11
309.6048964322041
 21
107.8830466478231
 31
0.0
 11
313.6362994322042
 21
107.3516436478232
 31
0.0
 11
317.1675184322041
 21
107.9142656478231
 31
0.0
 11
321.6987074322042
 21
107.4142656478231
 31
0.0
 11
326.3862994322042
 21
108.0392656478231
 31
0.0
 11
331.0737074322042
 21
107.4454546478232
 31
0.0
 11
334.8862994322042
 21
108.070454647823
 31
0.0
 11
340.1987074322042
 21
107.5704546478231
 31
0.0
 11
344.1048964322042
 21
108.2266436478232
 31
0.0
 11
348.7298964322042
 21
107.383046647823
 31
0.0
 11
353.1362994322042
 21
108.2266436478232
 31
0.0
 11
357.1987074322042
 21
107.3516436478232
 31
0.0
 11
360.5737074322042
 21
108.1954546478231
 31
0.0
 11
364.8548964322042
 21
107.4454546478232
 31
0.0
 11
368.4798964322042
 21
108.1642656478231
 31
0.0
 11
372.3548964322042
 21
107.4454546478232
 31
0.0
 11
376.0737074322042
 21
107.9878436478232
 31
0.0
  0
LINE
  5
FE0
330
2
100
AcDbEntity
  8
CENTER
100
AcDbLine
 10
591.8681929769
 20
166.4414558458
 30
0.0
 11
575.9109169769
 21
166.4414558458
 31
0.0
  0
LINE
  5
FE1
330
2
100
AcDbEntity
  8
CENTER
100
AcDbLine
 10
583.8895549769
 20
174.4200938458
 30
0.0
 11
583.8895549769
 21
158.4628178458
 31
0.0
  0
LINE
  5
FE2
330
2
100
AcDbEntity
  8
CENTER
100
AcDbLine
 10
497.8895549769
 20
174.4200938458
 30
0.0
 11
497.8895549769
 21
158.4628178458
 31
0.0
  0
LINE
  5
FE3
330
2
100
AcDbEntity
  8
CENTER
100
AcDbLine
 10
505.8681929769
 20
166.4414558458
 30
0.0
 11
489.9109169769
 21
166.4414558458
 31
0.0
  0
LINE
  5
FE4
330
2
100
AcDbEntity
  8
CENTER
100
AcDbLine
 10
497.8895549769
 20
107.4200938458
 30
0.0
 11
497.8895549769
 21
91.4628178458
 31
0.0
  0
LINE
  5
FE5
330
2
100
AcDbEntity
  8
CENTER
100
AcDbLine
 10
505.8681929769
 20
99.4414558458
 30
0.0
 11
489.9109169769
 21
99.4414558458
 31
0.0
  0
LINE
  5
FE6
330
2
100
AcDbEntity
  8
CENTER
100
AcDbLine
 10
591.8681929769
 20
99.4414558458
 30
0.0
 11
575.9109169769
 21
99.4414558458
 31
0.0
  0
LINE
  5
FE7
330
2
100
AcDbEntity
  8
CENTER
100
AcDbLine
 10
583.8895549769
 20
107.4200938458
 30
0.0
 11
583.8895549769
 21
91.4628178458
 31
0.0
  0
LINE
  5
13D3
330
2
100
AcDbEntity
  8
CENTER
100
AcDbLine
 10
142.7501101868
 20
99.4414558458
 30
0.0
 11
126.7928341868
 21
99.4414558458
 31
0.0
  0
LINE
  5
13D4
330
2
100
AcDbEntity
  8
CENTER
100
AcDbLine
 10
142.7501101868
 20
166.4414558458
 30
0.0
 11
126.7928341868
 21
166.4414558458
 31
0.0
  0
TEXT
  5
13E0
330
2
100
AcDbEntity
  8
TITLE
100
AcDbText
 10
32.5527838151
 20
25.1038944472
 30
0.0
 40
5.0
  1
F2FM-15L-10～120-T40T
 41
0.9
100
AcDbText
  0
TEXT
  5
13E1
330
2
100
AcDbEntity
  8
TITLE
100
AcDbText
 10
32.5527838151
 20
43.1038944472
 30
0.0
 40
5.0
  1
F2FM-15L-10～240-T25T
 41
0.9
100
AcDbText
  0
TEXT
  5
13E2
330
2
100
AcDbEntity
  8
TITLE
100
AcDbText
 10
32.5527838151
 20
34.1038944472
 30
0.0
 40
5.0
  1
F2FM-15L-10～240-T25WT
 41
0.9
100
AcDbText
  0
TEXT
  5
13E9
330
2
100
AcDbEntity
  8
TITLE
100
AcDbText
 10
32.5527838151
 20
52.1038944472
 30
0.0
 40
5.0
  1
F2FM-15L-10～240-T15WT
 41
0.9
100
AcDbText
  0
TEXT
  5
13EA
330
2
100
AcDbEntity
  8
TITLE
100
AcDbText
 10
32.5527838151
 20
61.1038944472
 30
0.0
 40
5.0
  1
F2FM-15L-10～240-T15T
 41
0.9
100
AcDbText
  0
LINE
  5
13F2
330
2
100
AcDbEntity
  8
CENTER
100
AcDbLine
 10
134.7714721868
 20
107.4200938458
 30
0.0
 11
134.7714721868
 21
91.4628178458
 31
0.0
  0
LINE
  5
13F4
330
2
100
AcDbEntity
  8
CENTER
100
AcDbLine
 10
132.2714721868
 20
103.8691138458
 30
0.0
 11
132.2714721868
 21
115.0137978458
 31
0.0
  0
LINE
  5
13FE
330
2
100
AcDbEntity
  8
CENTER
100
AcDbLine
 10
126.6991301868
 20
109.4414558458
 30
0.0
 11
137.8438141868
 21
109.4414558458
 31
0.0
  0
LINE
  5
1424
330
2
100
AcDbEntity
  8
CENTER
100
AcDbLine
 10
132.2714721868
 20
150.8691138458
 30
0.0
 11
132.2714721868
 21
162.0137978458
 31
0.0
  0
LINE
  5
142D
330
2
100
AcDbEntity
  8
CENTER
100
AcDbLine
 10
126.6991301868
 20
156.4414558458
 30
0.0
 11
137.8438141868
 21
156.4414558458
 31
0.0
  0
LINE
  5
1438
330
2
100
AcDbEntity
  8
CENTER
100
AcDbLine
 10
134.7714721868
 20
174.4200938458
 30
0.0
 11
134.7714721868
 21
158.4628178458
 31
0.0
  0
TEXT
  5
1448
330
2
100
AcDbEntity
  8
TITLE
100
AcDbText
 10
137.6841519149
 20
34.0761039376
 30
0.0
 40
5.0
  1
F2FM-15L-10～240-S25WT
 41
0.9
100
AcDbText
  0
TEXT
  5
1449
330
2
100
AcDbEntity
  8
TITLE
100
AcDbText
 10
137.6841519149
 20
43.0761039376
 30
0.0
 40
5.0
  1
F2FM-15L-10～240-S25T
 41
0.9
100
AcDbText
  0
LINE
  5
1459
330
2
100
AcDbEntity
  8
CENTER
100
AcDbLine
 10
188.7714721868
 20
102.8345828458
 30
0.0
 11
188.7714721868
 21
163.0483288458
 31
0.0
  0
TEXT
  5
145B
330
2
100
AcDbEntity
  8
TITLE
100
AcDbText
 10
137.6841519149
 20
61.0761039376
 30
0.0
 40
5.0
  1
F2FM-15L-10～240-S15T
 41
0.9
100
AcDbText
  0
TEXT
  5
145C
330
2
100
AcDbEntity
  8
TITLE
100
AcDbText
 10
137.6841519149
 20
52.0761039376
 30
0.0
 40
5.0
  1
F2FM-15L-10～240-S15WT
 41
0.9
100
AcDbText
  0
LINE
  5
145D
330
2
100
AcDbEntity
  8
CENTER
100
AcDbLine
 10
228.7501101868
 20
99.4414558458
 30
0.0
 11
212.7928341868
 21
99.4414558458
 31
0.0
  0
LINE
  5
145E
330
2
100
AcDbEntity
  8
CENTER
100
AcDbLine
 10
217.6991301868
 20
109.4414558458
 30
0.0
 11
228.8438141868
 21
109.4414558458
 31
0.0
  0
LINE
  5
1466
330
2
100
AcDbEntity
  8
CENTER
100
AcDbLine
 10
220.7714721868
 20
107.4200938458
 30
0.0
 11
220.7714721868
 21
91.4628178458
 31
0.0
  0
LINE
  5
1474
330
2
100
AcDbEntity
  8
CENTER
100
AcDbLine
 10
223.2714721868
 20
103.8691138458
 30
0.0
 11
223.2714721868
 21
115.0137978458
 31
0.0
  0
LINE
  5
1498
330
2
100
AcDbEntity
  8
CENTER
100
AcDbLine
 10
228.7501101868
 20
166.4414558458
 30
0.0
 11
212.7928341868
 21
166.4414558458
 31
0.0
  0
LINE
  5
149E
330
2
100
AcDbEntity
  8
CENTER
100
AcDbLine
 10
217.6991301868
 20
156.4414558458
 30
0.0
 11
228.8438141868
 21
156.4414558458
 31
0.0
  0
LINE
  5
14B0
330
2
100
AcDbEntity
  8
CENTER
100
AcDbLine
 10
223.2714721868
 20
150.8691138458
 30
0.0
 11
223.2714721868
 21
162.0137978458
 31
0.0
  0
LINE
  5
14C9
330
2
100
AcDbEntity
  8
CENTER
100
AcDbLine
 10
220.7714721868
 20
174.4200938458
 30
0.0
 11
220.7714721868
 21
158.4628178458
 31
0.0
  0
LINE
  5
2D80
330
2
100
AcDbEntity
  8
0
100
AcDbLine
 10
310.5737074322
 20
184.4414558458
 30
0.0
 11
360.5736924322
 21
184.4414558458
 31
0.0
  0
LINE
  5
2D81
330
2
100
AcDbEntity
  8
0
100
AcDbLine
 10
310.5737074322
 20
174.4414558458
 30
0.0
 11
360.5736924322
 21
174.4414558458
 31
0.0
  0
LINE
  5
2D82
330
2
100
AcDbEntity
  8
0
100
AcDbLine
 10
311.5737074322
 20
203.4414538458
 30
0.0
 11
355.7357986162
 21
203.4414538458
 31
0.0
  0
LINE
  5
2D83
330
2
100
AcDbEntity
  8
0
100
AcDbLine
 10
310.5737074322
 20
202.4414538458
 30
0.0
 11
353.0736924322
 21
202.4414538458
 31
0.0
  0
LINE
  5
2D85
330
2
100
AcDbEntity
  8
CENTER
100
AcDbLine
 10
305.530100451
 20
193.9414538458
 30
0.0
 11
365.6173144134
 21
193.9414538458
 31
0.0
  0
LINE
  5
2DAB
330
2
100
AcDbEntity
  8
0
100
AcDbLine
 10
50.5538920029
 20
203.4414538458
 30
0.0
 11
94.7159831868
 21
203.4414538458
 31
0.0
  0
LINE
  5
2DAC
330
2
100
AcDbEntity
  8
0
100
AcDbLine
 10
47.2159761868
 20
172.4414558458
 30
0.0
 11
93.7159831868
 21
172.4414558458
 31
0.0
  0
LINE
  5
2DAD
330
2
100
AcDbEntity
  8
0
100
AcDbLine
 10
43.7159761868
 20
184.4414558458
 30
0.0
 11
95.7159831868
 21
184.4414558458
 31
0.0
  0
LINE
  5
2DAE
330
2
100
AcDbEntity
  8
0
100
AcDbLine
 10
45.7159761868
 20
174.4414558458
 30
0.0
 11
95.7159831868
 21
174.4414558458
 31
0.0
  0
LINE
  5
2DAF
330
2
100
AcDbEntity
  8
0
100
AcDbLine
 10
53.2159766154
 20
202.4414538458
 30
0.0
 11
95.7159901868
 21
202.4414538458
 31
0.0
  0
LINE
  5
2DB0
330
2
100
AcDbEntity
  8
CENTER
100
AcDbLine
 10
37.7722271868
 20
193.9414538458
 30
0.0
 11
99.6682861506
 21
193.9414538458
 31
0.0
  0
ARC
  5
2DB2
330
2
100
AcDbEntity
  8
0
100
AcDbCircle
 10
44.7159911868
 20
200.4414538458
 30
0.0
 40
1.0
100
AcDbArc
 50
90.0
 51
180.0
  0
LINE
  5
2DB3
330
2
100
AcDbEntity
  8
0
100
AcDbLine
 10
43.7159911868
 20
200.4414538458
 30
0.0
 11
43.7159761868
 21
184.4414558458
 31
0.0
  0
LINE
  5
2DB4
330
2
100
AcDbEntity
  8
0
100
AcDbLine
 10
40.2159911868
 20
197.9414538458
 30
0.0
 11
40.2159911868
 21
189.9414538458
 31
0.0
  0
LINE
  5
2DB5
330
2
100
AcDbEntity
  8
0
100
AcDbLine
 10
40.2159761868
 20
189.9414538458
 30
0.0
 11
43.7159761868
 21
188.4414538458
 31
0.0
  0
LINE
  5
2DB6
330
2
100
AcDbEntity
  8
0
100
AcDbLine
 10
40.2159911868
 20
197.9414538458
 30
0.0
 11
43.7159911868
 21
199.4414538458
 31
0.0
  0
LINE
  5
2DB7
330
2
100
AcDbEntity
  8
CENTER
100
AcDbLine
 10
70.7159831868
 20
167.7477548458
 30
0.0
 11
70.7159831868
 21
208.8289538458
 31
0.0
  0
LINE
  5
2DB8
330
2
100
AcDbEntity
  8
0
100
AcDbLine
 10
45.7159761868
 20
202.4414538458
 30
0.0
 11
45.7159761868
 21
174.4414558458
 31
0.0
  0
LINE
  5
2DB9
330
2
100
AcDbEntity
  8
0
100
AcDbLine
 10
47.2159761868
 20
172.4414558458
 30
0.0
 11
47.2159761868
 21
170.9414558458
 31
0.0
  0
LINE
  5
2DBB
330
2
100
AcDbEntity
  8
0
100
AcDbLine
 10
45.7159761868
 20
174.4414558458
 30
0.0
 11
47.7159761868
 21
172.4414558458
 31
0.0
  0
ARC
  5
2DBC
330
2
100
AcDbEntity
  8
0
100
AcDbCircle
 10
49.2159831868
 20
194.5414538458
 30
0.0
 40
9.0
100
AcDbArc
 50
74.1191499917
 51
105.8808500083
  0
LINE
  5
2DBD
330
2
100
AcDbEntity
  8
0
100
AcDbLine
 10
49.5034831873
 20
202.0244538458
 30
0.0
 11
48.9284831864
 21
202.0244538458
 31
0.0
  0
LINE
  5
2DBE
330
2
100
AcDbEntity
  8
0
100
AcDbLine
 10
53.2159766154
 20
200.9414538458
 30
0.0
 11
45.7159766154
 21
200.9414538458
 31
0.0
  0
LINE
  5
2DBF
330
2
100
AcDbEntity
  8
0
100
AcDbLine
 10
47.1862433637
 20
203.0938953832
 30
0.0
 11
47.1659831868
 21
203.3048721286
 31
0.0
  0
SPLINE
  5
2DC0
330
2
100
AcDbEntity
  8
0
100
AcDbSpline
210
0.0
220
0.0
230
1.0
 70
     8
 71
     3
 72
    11
 73
     7
 74
     0
 42
0.000000001
 43
0.0000000001
 40
0.0
 40
0.0
 40
0.0
 40
0.0
 40
0.4601364636755307
 40
1.04988694485363
 40
1.713742833862792
 40
2.320347933405154
 40
2.320347933405154
 40
2.320347933405154
 40
2.320347933405173
 10
48.92848318638021
 20
202.0244538457758
 30
0.0
 10
48.90606552927238
 20
202.1794772854557
 30
0.0
 10
48.85491547403909
 20
202.5331921033733
 30
0.0
 10
48.41903031250552
 20
202.9579197749749
 30
0.0
 10
47.81397959749807
 20
203.1771069549408
 30
0.0
 10
47.38879497332225
 20
203.1081156553301
 30
0.0
 10
47.18624336367116
 20
203.0938953831534
 30
0.0
  0
LINE
  5
2DC1
330
2
100
AcDbEntity
  8
0
100
AcDbLine
 10
45.7159831868
 20
200.9414538458
 30
0.0
 11
45.8139193257
 21
202.0608690356
 31
0.0
  0
ARC
  5
2DC2
330
2
100
AcDbEntity
  8
0
100
AcDbCircle
 10
47.1089724332
 20
201.94756657
 30
0.0
 40
1.3
100
AcDbArc
 50
105.8808500083
 51
175.0
  0
LINE
  5
2DC3
330
2
100
AcDbEntity
  8
0
100
AcDbLine
 10
46.7159766154
 20
203.4414538458
 30
0.0
 11
45.7159761868
 21
202.4414538458
 31
0.0
  0
LINE
  5
2DC4
330
2
100
AcDbEntity
  8
0
100
AcDbLine
 10
45.7159761868
 20
202.4414538458
 30
0.0
 11
46.7159761868
 21
203.4414538458
 31
0.0
  0
LINE
  5
2DC5
330
2
100
AcDbEntity
  8
0
100
AcDbLine
 10
44.7159761868
 20
201.4414538458
 30
0.0
 11
45.7159761868
 21
201.4414538458
 31
0.0
  0
LINE
  5
2DC6
330
2
100
AcDbEntity
  8
0
100
AcDbLine
 10
46.7159761868
 20
203.4414538458
 30
0.0
 11
47.8780743708
 21
203.4414538458
 31
0.0
  0
LINE
  5
2DC7
330
2
100
AcDbEntity
  8
0
100
AcDbLine
 10
52.7159831868
 20
200.9414538458
 30
0.0
 11
52.6180470479
 21
202.0608690356
 31
0.0
  0
ARC
  5
2DC8
330
2
100
AcDbEntity
  8
0
100
AcDbCircle
 10
51.3229939404
 20
201.94756657
 30
0.0
 40
1.3
100
AcDbArc
 50
5.0
 51
74.1191499917
  0
LINE
  5
2DC9
330
2
100
AcDbEntity
  8
0
100
AcDbLine
 10
51.24572301
 20
203.0938953832
 30
0.0
 11
51.2659831868
 21
203.3048721286
 31
0.0
  0
SPLINE
  5
2DCA
330
2
100
AcDbEntity
  8
0
100
AcDbSpline
210
0.0
220
0.0
230
1.0
 70
     8
 71
     3
 72
    11
 73
     7
 74
     0
 42
0.000000001
 43
0.0000000001
 40
0.0
 40
0.0
 40
0.0
 40
0.0
 40
0.4601364636755307
 40
1.04988694485363
 40
1.713742833862792
 40
2.320347933405154
 40
2.320347933405154
 40
2.320347933405154
 40
2.320347933405173
 10
49.50348318729033
 20
202.0244538457758
 30
0.0
 10
49.52590084439814
 20
202.1794772854557
 30
0.0
 10
49.57705089963145
 20
202.5331921033733
 30
0.0
 10
50.01293606116503
 20
202.9579197749749
 30
0.0
 10
50.61798677617247
 20
203.1771069549408
 30
0.0
 10
51.04317140034829
 20
203.1081156553301
 30
0.0
 10
51.24572300999938
 20
203.0938953831534
 30
0.0
  0
LINE
  5
2DCB
330
2
100
AcDbEntity
  8
0
100
AcDbLine
 10
53.7159766154
 20
203.4414538458
 30
0.0
 11
53.2159766154
 21
202.9414538458
 31
0.0
  0
LINE
  5
2DCC
330
2
100
AcDbEntity
  8
0
100
AcDbLine
 10
53.2159766154
 20
200.9414538458
 30
0.0
 11
53.2159766154
 21
202.9414538458
 31
0.0
  0
LINE
  5
2DCD
330
2
100
AcDbEntity
  8
0
100
AcDbLine
 10
53.2159766154
 20
202.9414538458
 30
0.0
 11
52.1609605765
 21
202.9414538458
 31
0.0
  0
LINE
  5
2DCE
330
2
100
AcDbEntity
  8
0
100
AcDbLine
 10
95.7159831868
 20
202.4414538458
 30
0.0
 11
95.7159831868
 21
174.4414558458
 31
0.0
  0
LINE
  5
2DCF
330
2
100
AcDbEntity
  8
0
100
AcDbLine
 10
93.2159831868
 20
172.4414558458
 30
0.0
 11
93.2159831868
 21
170.9414558458
 31
0.0
  0
LINE
  5
2DD0
330
2
100
AcDbEntity
  8
0
100
AcDbLine
 10
93.7159831868
 20
172.4414558458
 30
0.0
 11
95.7159831868
 21
174.4414558458
 31
0.0
  0
LINE
  5
2DD1
330
2
100
AcDbEntity
  8
0
100
AcDbLine
 10
94.7159901868
 20
203.4414538458
 30
0.0
 11
95.7159901868
 21
202.4414538458
 31
0.0
  0
LINE
  5
2DD2
330
2
100
AcDbEntity
  8
0
100
AcDbLine
 10
310.5737074322
 20
202.4414538458
 30
0.0
 11
310.5737074322
 21
174.4414558458
 31
0.0
  0
LINE
  5
2DD4
330
2
100
AcDbEntity
  8
0
100
AcDbLine
 10
310.5737074322
 20
174.4414558458
 30
0.0
 11
311.9854827031
 21
173.0296805749
 31
0.0
  0
LINE
  5
2DD5
330
2
100
AcDbEntity
  8
0
100
AcDbLine
 10
311.5737074322
 20
203.4414538458
 30
0.0
 11
310.5737074322
 21
202.4414538458
 31
0.0
  0
LINE
  5
2DD8
330
2
100
AcDbEntity
  8
0
100
AcDbLine
 10
360.5736924322
 20
202.4414538458
 30
0.0
 11
360.5736924322
 21
174.4414558458
 31
0.0
  0
LINE
  5
2DDB
330
2
100
AcDbEntity
  8
0
100
AcDbLine
 10
359.1619174187
 20
173.0296808322
 30
0.0
 11
360.5736924322
 21
174.4414558458
 31
0.0
  0
ARC
  5
2DDC
330
2
100
AcDbEntity
  8
0
100
AcDbCircle
 10
357.0737074322
 20
194.5414538458
 30
0.0
 40
9.0
100
AcDbArc
 50
74.1191499917
 51
105.8808500083
  0
SPLINE
  5
2DDD
330
2
100
AcDbEntity
  8
0
100
AcDbSpline
210
0.0
220
0.0
230
1.0
 70
     8
 71
     3
 72
    11
 73
     7
 74
     0
 42
0.000000001
 43
0.0000000001
 40
0.0
 40
0.0
 40
0.0
 40
0.0
 40
0.4601364636755307
 40
1.04988694485363
 40
1.713742833862792
 40
2.320347933405154
 40
2.320347933405154
 40
2.320347933405154
 40
2.320347933405173
 10
356.7862074317492
 20
202.024453845776
 30
0.0
 10
356.7637897746414
 20
202.1794772854558
 30
0.0
 10
356.7126397194081
 20
202.5331921033734
 30
0.0
 10
356.2767545578745
 20
202.9579197749751
 30
0.0
 10
355.671703842867
 20
203.1771069549409
 30
0.0
 10
355.2465192186911
 20
203.1081156553302
 30
0.0
 10
355.0439676090401
 20
203.0938953831535
 30
0.0
  0
LINE
  5
2DDE
330
2
100
AcDbEntity
  8
0
100
AcDbLine
 10
353.0736924322
 20
200.9414538458
 30
0.0
 11
360.5736924322
 21
200.9414538458
 31
0.0
  0
LINE
  5
2DDF
330
2
100
AcDbEntity
  8
0
100
AcDbLine
 10
355.043967609
 20
203.0938953832
 30
0.0
 11
355.0237074322
 21
203.3048721286
 31
0.0
  0
LINE
  5
2DE0
330
2
100
AcDbEntity
  8
0
100
AcDbLine
 10
353.5737074322
 20
200.9414538458
 30
0.0
 11
353.6716435711
 21
202.0608690356
 31
0.0
  0
ARC
  5
2DE1
330
2
100
AcDbEntity
  8
0
100
AcDbCircle
 10
354.9666966786
 20
201.94756657
 30
0.0
 40
1.3
100
AcDbArc
 50
105.8808500083
 51
175.0
  0
LINE
  5
2DE2
330
2
100
AcDbEntity
  8
0
100
AcDbLine
 10
352.5736924322
 20
203.4414538458
 30
0.0
 11
353.0736924322
 21
202.9414538458
 31
0.0
  0
LINE
  5
2DE3
330
2
100
AcDbEntity
  8
0
100
AcDbLine
 10
353.0736924322
 20
200.9414538458
 30
0.0
 11
353.0736924322
 21
202.9414538458
 31
0.0
  0
LINE
  5
2DE4
330
2
100
AcDbEntity
  8
0
100
AcDbLine
 10
353.0736924322
 20
202.9414538458
 30
0.0
 11
354.1287300426
 21
202.9414538458
 31
0.0
  0
LINE
  5
2DE5
330
2
100
AcDbEntity
  8
0
100
AcDbLine
 10
358.4116162482
 20
203.4414538458
 30
0.0
 11
359.5736924322
 21
203.4414538458
 31
0.0
  0
LINE
  5
2DE6
330
2
100
AcDbEntity
  8
0
100
AcDbLine
 10
360.5737074322
 20
200.9414538458
 30
0.0
 11
360.4757712933
 21
202.0608690356
 31
0.0
  0
ARC
  5
2DE7
330
2
100
AcDbEntity
  8
0
100
AcDbCircle
 10
359.1807181858
 20
201.94756657
 30
0.0
 40
1.3
100
AcDbArc
 50
5.0
 51
74.1191499917
  0
LINE
  5
2DE8
330
2
100
AcDbEntity
  8
0
100
AcDbLine
 10
359.1034472554
 20
203.0938953832
 30
0.0
 11
359.1237074322
 21
203.3048721286
 31
0.0
  0
LINE
  5
2DE9
330
2
100
AcDbEntity
  8
0
100
AcDbLine
 10
357.3612074327
 20
202.0244538458
 30
0.0
 11
356.7862074317
 21
202.0244538458
 31
0.0
  0
SPLINE
  5
2DEA
330
2
100
AcDbEntity
  8
0
100
AcDbSpline
210
0.0
220
0.0
230
1.0
 70
     8
 71
     3
 72
    11
 73
     7
 74
     0
 42
0.000000001
 43
0.0000000001
 40
0.0
 40
0.0
 40
0.0
 40
0.0
 40
0.4601364636755307
 40
1.04988694485363
 40
1.713742833862792
 40
2.320347933405154
 40
2.320347933405154
 40
2.320347933405154
 40
2.320347933405173
 10
357.3612074326593
 20
202.024453845776
 30
0.0
 10
357.3836250897672
 20
202.1794772854558
 30
0.0
 10
357.4347751450004
 20
202.5331921033734
 30
0.0
 10
357.870660306534
 20
202.9579197749751
 30
0.0
 10
358.4757110215414
 20
203.1771069549409
 30
0.0
 10
358.9008956457172
 20
203.1081156553302
 30
0.0
 10
359.1034472553683
 20
203.0938953831535
 30
0.0
  0
LINE
  5
2DEB
330
2
100
AcDbEntity
  8
0
100
AcDbLine
 10
359.5736924322
 20
203.4414538458
 30
0.0
 11
360.5736924322
 21
202.4414538458
 31
0.0
  0
LINE
  5
2DED
330
2
100
AcDbEntity
  8
0
100
AcDbLine
 10
627.7828767929
 20
203.4414538458
 30
0.0
 11
671.9449679769
 21
203.4414538458
 31
0.0
  0
LINE
  5
2DEE
330
2
100
AcDbEntity
  8
0
100
AcDbLine
 10
630.4449684055
 20
202.4414538458
 30
0.0
 11
672.9449749769
 21
202.4414538458
 31
0.0
  0
LINE
  5
2DF0
330
2
100
AcDbEntity
  8
0
100
AcDbLine
 10
672.9449749769
 20
174.4414558458
 30
0.0
 11
622.9449679769
 21
174.4414558458
 31
0.0
  0
LINE
  5
2DF1
330
2
100
AcDbEntity
  8
0
100
AcDbLine
 10
671.4449749769
 20
172.4414558458
 30
0.0
 11
624.9449679769
 21
172.4414558458
 31
0.0
  0
LINE
  5
2DF2
330
2
100
AcDbEntity
  8
CENTER
100
AcDbLine
 10
680.8887239769
 20
193.9414538458
 30
0.0
 11
618.9926650132
 21
193.9414538458
 31
0.0
  0
LINE
  5
2DF3
330
2
100
AcDbEntity
  8
0
100
AcDbLine
 10
674.9449749769
 20
184.4414558458
 30
0.0
 11
622.9449679769
 21
184.4414558458
 31
0.0
  0
LINE
  5
2DF4
330
2
100
AcDbEntity
  8
0
100
AcDbLine
 10
622.9449679769
 20
202.4414538458
 30
0.0
 11
622.9449679769
 21
174.4414558458
 31
0.0
  0
LINE
  5
2DF5
330
2
100
AcDbEntity
  8
CENTER
100
AcDbLine
 10
647.9449679769
 20
167.7477548458
 30
0.0
 11
647.9449679769
 21
208.8289538458
 31
0.0
  0
LINE
  5
2DF6
330
2
100
AcDbEntity
  8
0
100
AcDbLine
 10
625.4449679769
 20
172.4414558458
 30
0.0
 11
625.4449679769
 21
170.9414558458
 31
0.0
  0
LINE
  5
2DF7
330
2
100
AcDbEntity
  8
0
100
AcDbLine
 10
624.9449679769
 20
172.4414558458
 30
0.0
 11
622.9449679769
 21
174.4414558458
 31
0.0
  0
LINE
  5
2DF8
330
2
100
AcDbEntity
  8
0
100
AcDbLine
 10
630.4449684055
 20
202.9414538458
 30
0.0
 11
629.3899453665
 21
202.9414538458
 31
0.0
  0
LINE
  5
2DF9
330
2
100
AcDbEntity
  8
0
100
AcDbLine
 10
630.4449684055
 20
200.9414538458
 30
0.0
 11
622.9449684055
 21
200.9414538458
 31
0.0
  0
ARC
  5
2DFA
330
2
100
AcDbEntity
  8
0
100
AcDbCircle
 10
626.4449679769
 20
194.5414538458
 30
0.0
 40
9.0
100
AcDbArc
 50
74.1191499917
 51
105.8808500083
  0
SPLINE
  5
2DFB
330
2
100
AcDbEntity
  8
0
100
AcDbSpline
210
0.0
220
0.0
230
1.0
 70
     8
 71
     3
 72
    11
 73
     7
 74
     0
 42
0.000000001
 43
0.0000000001
 40
0.0
 40
0.0
 40
0.0
 40
0.0
 40
0.4601364636755307
 40
1.04988694485363
 40
1.713742833862792
 40
2.320347933405154
 40
2.320347933405154
 40
2.320347933405154
 40
2.320347933405173
 10
626.157467976439
 20
202.0244538457758
 30
0.0
 10
626.1350503193312
 20
202.1794772854557
 30
0.0
 10
626.0839002640977
 20
202.5331921033733
 30
0.0
 10
625.6480151025644
 20
202.9579197749749
 30
0.0
 10
625.0429643875567
 20
203.1771069549408
 30
0.0
 10
624.6177797633811
 20
203.1081156553301
 30
0.0
 10
624.4152281537298
 20
203.0938953831534
 30
0.0
  0
LINE
  5
2DFC
330
2
100
AcDbEntity
  8
0
100
AcDbLine
 10
624.4152281537
 20
203.0938953832
 30
0.0
 11
624.3949679769
 21
203.3048721286
 31
0.0
  0
LINE
  5
2DFD
330
2
100
AcDbEntity
  8
0
100
AcDbLine
 10
622.9449679769
 20
200.9414538458
 30
0.0
 11
623.0429041158
 21
202.0608690356
 31
0.0
  0
ARC
  5
2DFE
330
2
100
AcDbEntity
  8
0
100
AcDbCircle
 10
624.3379572233
 20
201.94756657
 30
0.0
 40
1.3
100
AcDbArc
 50
105.8808500083
 51
175.0
  0
LINE
  5
2DFF
330
2
100
AcDbEntity
  8
0
100
AcDbLine
 10
622.9449679769
 20
202.4414538458
 30
0.0
 11
623.9449679769
 21
203.4414538458
 31
0.0
  0
LINE
  5
2E00
330
2
100
AcDbEntity
  8
0
100
AcDbLine
 10
623.9449679769
 20
203.4414538458
 30
0.0
 11
625.1070591609
 21
203.4414538458
 31
0.0
  0
LINE
  5
2E01
330
2
100
AcDbEntity
  8
0
100
AcDbLine
 10
629.9449679769
 20
200.9414538458
 30
0.0
 11
629.847031838
 21
202.0608690356
 31
0.0
  0
ARC
  5
2E02
330
2
100
AcDbEntity
  8
0
100
AcDbCircle
 10
628.5519787305
 20
201.94756657
 30
0.0
 40
1.3
100
AcDbArc
 50
5.0
 51
74.1191499917
  0
LINE
  5
2E03
330
2
100
AcDbEntity
  8
0
100
AcDbLine
 10
628.4747078001
 20
203.0938953832
 30
0.0
 11
628.4949679769
 21
203.3048721286
 31
0.0
  0
LINE
  5
2E04
330
2
100
AcDbEntity
  8
0
100
AcDbLine
 10
626.7324679773
 20
202.0244538458
 30
0.0
 11
626.1574679764
 21
202.0244538458
 31
0.0
  0
SPLINE
  5
2E05
330
2
100
AcDbEntity
  8
0
100
AcDbSpline
210
0.0
220
0.0
230
1.0
 70
     8
 71
     3
 72
    11
 73
     7
 74
     0
 42
0.000000001
 43
0.0000000001
 40
0.0
 40
0.0
 40
0.0
 40
0.0
 40
0.4601364636755307
 40
1.04988694485363
 40
1.713742833862792
 40
2.320347933405154
 40
2.320347933405154
 40
2.320347933405154
 40
2.320347933405173
 10
626.7324679773492
 20
202.0244538457758
 30
0.0
 10
626.754885634457
 20
202.1794772854557
 30
0.0
 10
626.8060356896902
 20
202.5331921033733
 30
0.0
 10
627.2419208512237
 20
202.9579197749749
 30
0.0
 10
627.8469715662311
 20
203.1771069549408
 30
0.0
 10
628.272156190407
 20
203.1081156553301
 30
0.0
 10
628.4747078000582
 20
203.0938953831534
 30
0.0
  0
LINE
  5
2E06
330
2
100
AcDbEntity
  8
0
100
AcDbLine
 10
630.9449684055
 20
203.4414538458
 30
0.0
 11
630.4449684055
 21
202.9414538458
 31
0.0
  0
LINE
  5
2E07
330
2
100
AcDbEntity
  8
0
100
AcDbLine
 10
630.4449684055
 20
200.9414538458
 30
0.0
 11
630.4449684055
 21
202.9414538458
 31
0.0
  0
LINE
  5
2E09
330
2
100
AcDbEntity
  8
0
100
AcDbLine
 10
672.9449749769
 20
202.4414538458
 30
0.0
 11
672.9449749769
 21
174.4414558458
 31
0.0
  0
LINE
  5
2E0A
330
2
100
AcDbEntity
  8
0
100
AcDbLine
 10
678.4449599769
 20
197.9414538458
 30
0.0
 11
678.4449599769
 21
189.9414538458
 31
0.0
  0
LINE
  5
2E0B
330
2
100
AcDbEntity
  8
0
100
AcDbLine
 10
674.9449599769
 20
200.4414538458
 30
0.0
 11
674.9449749769
 21
184.4414558458
 31
0.0
  0
LINE
  5
2E0D
330
2
100
AcDbEntity
  8
0
100
AcDbLine
 10
671.4449749769
 20
172.4414558458
 30
0.0
 11
671.4449749769
 21
170.9414558458
 31
0.0
  0
LINE
  5
2E0E
330
2
100
AcDbEntity
  8
0
100
AcDbLine
 10
678.4449749769
 20
189.9414538458
 30
0.0
 11
674.9449749769
 21
188.4414538458
 31
0.0
  0
LINE
  5
2E0F
330
2
100
AcDbEntity
  8
0
100
AcDbLine
 10
672.9449749769
 20
174.4414558458
 30
0.0
 11
670.9449749769
 21
172.4414558458
 31
0.0
  0
LINE
  5
2E10
330
2
100
AcDbEntity
  8
0
100
AcDbLine
 10
678.4449599769
 20
197.9414538458
 30
0.0
 11
674.9449599769
 21
199.4414538458
 31
0.0
  0
LINE
  5
2E11
330
2
100
AcDbEntity
  8
0
100
AcDbLine
 10
671.9449749769
 20
203.4414538458
 30
0.0
 11
672.9449749769
 21
202.4414538458
 31
0.0
  0
ARC
  5
2E12
330
2
100
AcDbEntity
  8
0
100
AcDbCircle
 10
673.9449599769
 20
200.4414538458
 30
0.0
 40
1.0
100
AcDbArc
 50
0.0
 51
90.0
  0
LINE
  5
2E13
330
2
100
AcDbEntity
  8
0
100
AcDbLine
 10
673.9449749769
 20
201.4414538458
 30
0.0
 11
672.9449749769
 21
201.4414538458
 31
0.0
  0
LINE
  5
2E14
330
2
100
AcDbEntity
  8
0
100
AcDbLine
 10
625.3448699769
 20
353.5616099467
 30
0.0
 11
665.4449749769
 21
353.5616099467
 31
0.0
  0
LINE
  5
2E15
330
2
100
AcDbEntity
  8
0
100
AcDbLine
 10
670.9449749769
 20
354.9616039467
 30
0.0
 11
624.9450749769
 21
354.9616039467
 31
0.0
  0
LINE
  5
2E16
330
2
100
AcDbEntity
  8
0
100
AcDbLine
 10
670.9449749769
 20
304.9616039467
 30
0.0
 11
624.9450749769
 21
304.9616039467
 31
0.0
  0
LINE
  5
2E17
330
2
100
AcDbEntity
  8
0
100
AcDbLine
 10
670.5449739769
 20
306.3616129467
 30
0.0
 11
630.4450749769
 21
306.3616129467
 31
0.0
  0
LINE
  5
2E18
330
2
100
AcDbEntity
  8
0
100
AcDbLine
 10
622.9450749769
 20
306.9616039467
 30
0.0
 11
622.9450749769
 21
352.9616039467
 31
0.0
  0
LINE
  5
2E19
330
2
100
AcDbEntity
  8
CENTER
100
AcDbLine
 10
647.9449679769
 20
299.5723780026
 30
0.0
 11
647.9449679769
 21
360.7116039467
 31
0.0
  0
LINE
  5
2E1A
330
2
100
AcDbEntity
  8
0
100
AcDbLine
 10
624.3448699769
 20
352.5616099467
 30
0.0
 11
624.3448699769
 21
312.4616039467
 31
0.0
  0
ARC
  5
2E1B
330
2
100
AcDbEntity
  8
0
100
AcDbCircle
 10
626.4448759769
 20
308.4616039467
 30
0.0
 40
4.0
100
AcDbArc
 50
0.0
 51
90.0
  0
ARC
  5
2E1C
330
2
100
AcDbEntity
  8
0
100
AcDbCircle
 10
624.4151759769
 20
306.4319039467
 30
0.0
 40
1.742199999999999
100
AcDbArc
 50
359.9986903345
 51
90.0013096655
  0
ARC
  5
2E1D
330
2
100
AcDbEntity
  8
0
100
AcDbCircle
 10
624.4151759769
 20
310.4913039467
 30
0.0
 40
1.742199999999999
100
AcDbArc
 50
269.9986903345
 51
0.0013096655
  0
CIRCLE
  5
2E1E
330
2
100
AcDbEntity
  8
0
100
AcDbCircle
 10
626.4448759769
 20
308.4616039467
 30
0.0
 40
3.500000000000028
  0
LINE
  5
2E1F
330
2
100
AcDbEntity
  8
0
100
AcDbLine
 10
626.4450749769
 20
312.4616039467
 30
0.0
 11
622.9450749769
 21
312.4616039467
 31
0.0
  0
ARC
  5
2E20
330
2
100
AcDbEntity
  8
0
100
AcDbCircle
 10
626.4448759769
 20
308.4616039467
 30
0.0
 40
2.049999999999998
100
AcDbArc
 50
171.938039916
 51
180.0
  0
ARC
  5
2E21
330
2
100
AcDbEntity
  8
0
100
AcDbCircle
 10
626.4448759769
 20
308.4616039467
 30
0.0
 40
2.049999999999998
100
AcDbArc
 50
180.0
 51
188.061960084
  0
LINE
  5
2E22
330
2
100
AcDbEntity
  8
0
100
AcDbLine
 10
624.9450749769
 20
304.9616039467
 30
0.0
 11
622.9450749769
 21
306.9616039467
 31
0.0
  0
LINE
  5
2E23
330
2
100
AcDbEntity
  8
0
100
AcDbLine
 10
622.9450749769
 20
306.9616039467
 30
0.0
 11
624.9450749769
 21
304.9616039467
 31
0.0
  0
ARC
  5
2E24
330
2
100
AcDbEntity
  8
0
100
AcDbCircle
 10
628.4745759769
 20
306.4319039467
 30
0.0
 40
1.742199999999999
100
AcDbArc
 50
89.9986903345
 51
180.0013096655
  0
ARC
  5
2E25
330
2
100
AcDbEntity
  8
0
100
AcDbCircle
 10
628.4745759769
 20
310.4913039467
 30
0.0
 40
1.742199999999999
100
AcDbArc
 50
179.9986903345
 51
270.0013096655
  0
ARC
  5
2E26
330
2
100
AcDbEntity
  8
0
100
AcDbCircle
 10
626.4448759769
 20
308.4616039467
 30
0.0
 40
2.049999999999998
100
AcDbArc
 50
0.0
 51
8.061960084
  0
ARC
  5
2E27
330
2
100
AcDbEntity
  8
0
100
AcDbCircle
 10
626.4448759769
 20
308.4616039467
 30
0.0
 40
2.049999999999998
100
AcDbArc
 50
261.938039916
 51
270.0
  0
ARC
  5
2E28
330
2
100
AcDbEntity
  8
0
100
AcDbCircle
 10
626.4448759769
 20
308.4616039467
 30
0.0
 40
2.049999999999998
100
AcDbArc
 50
270.0
 51
278.061960084
  0
ARC
  5
2E29
330
2
100
AcDbEntity
  8
0
100
AcDbCircle
 10
626.4448759769
 20
308.4616039467
 30
0.0
 40
2.049999999999998
100
AcDbArc
 50
351.938039916
 51
0.0
  0
ARC
  5
2E2A
330
2
100
AcDbEntity
  8
0
100
AcDbCircle
 10
626.4448759769
 20
308.4616039467
 30
0.0
 40
2.049999999999998
100
AcDbArc
 50
90.0
 51
98.061960084
  0
ARC
  5
2E2B
330
2
100
AcDbEntity
  8
0
100
AcDbCircle
 10
626.4448759769
 20
308.4616039467
 30
0.0
 40
2.049999999999998
100
AcDbArc
 50
81.938039916
 51
90.0
  0
LINE
  5
2E2C
330
2
100
AcDbEntity
  8
0
100
AcDbLine
 10
630.4450749769
 20
308.4616039467
 30
0.0
 11
630.4450749769
 21
304.9616039467
 31
0.0
  0
LINE
  5
2E2D
330
2
100
AcDbEntity
  8
0
100
AcDbLine
 10
622.9448759769
 20
352.9616039467
 30
0.0
 11
624.9450749769
 21
354.9616039467
 31
0.0
  0
LINE
  5
2E2E
330
2
100
AcDbEntity
  8
0
100
AcDbLine
 10
622.9450749769
 20
352.9616039467
 30
0.0
 11
624.9450749769
 21
354.9616039467
 31
0.0
  0
LINE
  5
2E2F
330
2
100
AcDbEntity
  8
0
100
AcDbLine
 10
622.9450749769
 20
352.9616039467
 30
0.0
 11
624.9450749769
 21
354.9616039467
 31
0.0
  0
LINE
  5
2E30
330
2
100
AcDbEntity
  8
0
100
AcDbLine
 10
625.3448699769
 20
353.5616099467
 30
0.0
 11
624.3448699769
 21
352.5616099467
 31
0.0
  0
LINE
  5
2E31
330
2
100
AcDbEntity
  8
0
100
AcDbLine
 10
672.9449749769
 20
306.9616039467
 30
0.0
 11
672.9449749769
 21
352.9616039467
 31
0.0
  0
LINE
  5
2E32
330
2
100
AcDbEntity
  8
0
100
AcDbLine
 10
671.5449809769
 20
307.3616129467
 30
0.0
 11
671.5449739769
 21
347.4616039467
 31
0.0
  0
LINE
  5
2E33
330
2
100
AcDbEntity
  8
0
100
AcDbLine
 10
672.9449749769
 20
306.9616039467
 30
0.0
 11
670.9449749769
 21
304.9616039467
 31
0.0
  0
LINE
  5
2E34
330
2
100
AcDbEntity
  8
0
100
AcDbLine
 10
671.5449809769
 20
307.3616129467
 30
0.0
 11
670.5449739769
 21
306.3616129467
 31
0.0
  0
LINE
  5
2E35
330
2
100
AcDbEntity
  8
0
100
AcDbLine
 10
674.9449749769
 20
335.4616039467
 30
0.0
 11
678.4449749769
 21
331.9616039467
 31
0.0
  0
LINE
  5
2E36
330
2
100
AcDbEntity
  8
0
100
AcDbLine
 10
678.4449749769
 20
327.9616039467
 30
0.0
 11
674.9449749769
 21
324.4616039467
 31
0.0
  0
LINE
  5
2E37
330
2
100
AcDbEntity
  8
0
100
AcDbLine
 10
674.9449749769
 20
336.4616039467
 30
0.0
 11
674.9449749769
 21
323.4616039467
 31
0.0
  0
ARC
  5
2E38
330
2
100
AcDbEntity
  8
0
100
AcDbCircle
 10
673.9449599769
 20
323.4616039467
 30
0.0
 40
1.0
100
AcDbArc
 50
270.0
 51
0.0
  0
LINE
  5
2E39
330
2
100
AcDbEntity
  8
0
100
AcDbLine
 10
673.9449749769
 20
322.4616039467
 30
0.0
 11
672.9449749769
 21
322.4616039467
 31
0.0
  0
ARC
  5
2E3A
330
2
100
AcDbEntity
  8
0
100
AcDbCircle
 10
673.9449749769
 20
336.4616039467
 30
0.0
 40
1.0
100
AcDbArc
 50
0.0
 51
90.0
  0
LINE
  5
2E3B
330
2
100
AcDbEntity
  8
0
100
AcDbLine
 10
673.9449749769
 20
337.4616039467
 30
0.0
 11
672.9449749769
 21
337.4616039467
 31
0.0
  0
LINE
  5
2E3C
330
2
100
AcDbEntity
  8
0
100
AcDbLine
 10
678.4449749769
 20
327.9616039467
 30
0.0
 11
678.4449749769
 21
331.9616039467
 31
0.0
  0
ARC
  5
2E3D
330
2
100
AcDbEntity
  8
0
100
AcDbCircle
 10
667.4152449769
 20
349.4319039467
 30
0.0
 40
1.742199999999999
100
AcDbArc
 50
359.9986903345
 51
90.0013096655
  0
ARC
  5
2E3E
330
2
100
AcDbEntity
  8
0
100
AcDbCircle
 10
667.4152449769
 20
353.4913039467
 30
0.0
 40
1.742199999999999
100
AcDbArc
 50
269.9986903345
 51
0.0013096655
  0
CIRCLE
  5
2E3F
330
2
100
AcDbEntity
  8
0
100
AcDbCircle
 10
669.4449449769
 20
351.4616039467
 30
0.0
 40
3.500000000000028
  0
ARC
  5
2E40
330
2
100
AcDbEntity
  8
0
100
AcDbCircle
 10
669.4449449769
 20
351.4616039467
 30
0.0
 40
4.0
100
AcDbArc
 50
180.0
 51
270.0
  0
ARC
  5
2E41
330
2
100
AcDbEntity
  8
0
100
AcDbCircle
 10
669.4449449769
 20
351.4616039467
 30
0.0
 40
2.049999999999998
100
AcDbArc
 50
171.938039916
 51
180.0
  0
ARC
  5
2E42
330
2
100
AcDbEntity
  8
0
100
AcDbCircle
 10
669.4449449769
 20
351.4616039467
 30
0.0
 40
2.049999999999998
100
AcDbArc
 50
180.0
 51
188.061960084
  0
LINE
  5
2E43
330
2
100
AcDbEntity
  8
0
100
AcDbLine
 10
665.4449749769
 20
351.4616039467
 30
0.0
 11
665.4449749769
 21
354.9614049467
 31
0.0
  0
ARC
  5
2E44
330
2
100
AcDbEntity
  8
0
100
AcDbCircle
 10
671.4746449769
 20
349.4319039467
 30
0.0
 40
1.742199999999999
100
AcDbArc
 50
89.9986903345
 51
180.0013096655
  0
LINE
  5
2E45
330
2
100
AcDbEntity
  8
0
100
AcDbLine
 10
669.4449449769
 20
347.4616039467
 30
0.0
 11
672.9449449769
 21
347.4616039467
 31
0.0
  0
ARC
  5
2E46
330
2
100
AcDbEntity
  8
0
100
AcDbCircle
 10
669.4449449769
 20
351.4616039467
 30
0.0
 40
2.049999999999998
100
AcDbArc
 50
261.938039916
 51
270.0
  0
ARC
  5
2E47
330
2
100
AcDbEntity
  8
0
100
AcDbCircle
 10
669.4449449769
 20
351.4616039467
 30
0.0
 40
2.049999999999998
100
AcDbArc
 50
270.0
 51
278.061960084
  0
LINE
  5
2E48
330
2
100
AcDbEntity
  8
0
100
AcDbLine
 10
672.9449749769
 20
352.9616039467
 30
0.0
 11
670.9449749769
 21
354.9616039467
 31
0.0
  0
LINE
  5
2E49
330
2
100
AcDbEntity
  8
0
100
AcDbLine
 10
672.9449749769
 20
352.9616039467
 30
0.0
 11
670.9449749769
 21
354.9616039467
 31
0.0
  0
ARC
  5
2E4A
330
2
100
AcDbEntity
  8
0
100
AcDbCircle
 10
671.4746449769
 20
353.4913039467
 30
0.0
 40
1.742199999999999
100
AcDbArc
 50
179.9986903345
 51
270.0013096655
  0
ARC
  5
2E4B
330
2
100
AcDbEntity
  8
0
100
AcDbCircle
 10
669.4449449769
 20
351.4616039467
 30
0.0
 40
2.049999999999998
100
AcDbArc
 50
0.0
 51
8.061960084
  0
ARC
  5
2E4C
330
2
100
AcDbEntity
  8
0
100
AcDbCircle
 10
669.4449449769
 20
351.4616039467
 30
0.0
 40
2.049999999999998
100
AcDbArc
 50
351.938039916
 51
0.0
  0
ARC
  5
2E4D
330
2
100
AcDbEntity
  8
0
100
AcDbCircle
 10
669.4449449769
 20
351.4616039467
 30
0.0
 40
2.049999999999998
100
AcDbArc
 50
90.0
 51
98.061960084
  0
ARC
  5
2E4E
330
2
100
AcDbEntity
  8
0
100
AcDbCircle
 10
669.4449449769
 20
351.4616039467
 30
0.0
 40
2.049999999999998
100
AcDbArc
 50
81.938039916
 51
90.0
  0
TEXT
  5
2F86
330
2
100
AcDbEntity
  8
TITLE_C
100
AcDbText
 10
32.8035732062
 20
-26.3568651451
 30
0.0
 40
5.0
  1
F2F15L010～240-CTML25NTX
 41
0.9
100
AcDbText
  0
TEXT
  5
2F87
330
2
100
AcDbEntity
  8
TITLE_C
100
AcDbText
 10
32.8035732062
 20
-35.3568651451
 30
0.0
 40
5.0
  1
F2F15L010～240-CTML25WT
 41
0.9
100
AcDbText
  0
TEXT
  5
2F88
330
2
100
AcDbEntity
  8
TITLE_C
100
AcDbText
 10
32.8035732062
 20
-8.242912135
 30
0.0
 40
5.0
  1
F2F15L010～240-CTML15WT
 41
0.9
100
AcDbText
  0
TEXT
  5
2F89
330
2
100
AcDbEntity
  8
TITLE_C
100
AcDbText
 10
32.8035732062
 20
0.757087865
 30
0.0
 40
5.0
  1
F2F15L010～240-CTML15NTX
 41
0.9
100
AcDbText
  0
TEXT
  5
2F8C
330
2
100
AcDbEntity
  8
TITLE_C
100
AcDbText
 10
137.934941306
 20
8.6802318141
 30
0.0
 40
5.0
  1
F2F15L010～240-CSML15NT
 41
0.9
100
AcDbText
  0
TEXT
  5
3AF4
330
2
100
AcDbEntity
  8
TITLE_C
100
AcDbText
 10
32.8035732062
 20
8.3061343096
 30
0.0
 40
5.0
  1
F2F15L010～240-CTML15NT
 41
0.9
100
AcDbText
  0
TEXT
  5
3AF6
330
2
100
AcDbEntity
  8
TITLE_C
100
AcDbText
 10
32.8035732062
 20
-17.7138950352
 30
0.0
 40
5.0
  1
F2F15L010～240-CTML25NT
 41
0.9
100
AcDbText
  0
TEXT
  5
3EA4
330
2
100
AcDbEntity
  8
TITLE_C
100
AcDbText
 10
138.079559378
 20
-26.0714909844
 30
0.0
 40
5.0
  1
F2F15L010～240-CSML25WTX
 41
0.9
100
AcDbText
  0
TEXT
  5
3EA5
330
2
100
AcDbEntity
  8
TITLE_C
100
AcDbText
 10
138.079559378
 20
-35.0714909844
 30
0.0
 40
5.0
  1
F2F15L010～240-CSML25WT
 41
0.9
100
AcDbText
  0
TEXT
  5
3EA6
330
2
100
AcDbEntity
  8
TITLE_C
100
AcDbText
 10
138.079559378
 20
-7.9575379743
 30
0.0
 40
5.0
  1
F2F15L010～240-CSML15WT
 41
0.9
100
AcDbText
  0
TEXT
  5
3EA7
330
2
100
AcDbEntity
  8
TITLE_C
100
AcDbText
 10
138.079559378
 20
1.0424620257
 30
0.0
 40
5.0
  1
F2F15L010～240-CSML15WTX
 41
0.9
100
AcDbText
  0
TEXT
  5
3EA8
330
2
100
AcDbEntity
  8
TITLE_C
100
AcDbText
 10
138.079559378
 20
-17.4285208745
 30
0.0
 40
5.0
  1
F2F15L010～240-CSML25NT
 41
0.9
100
AcDbText
  0
LINE
  5
41AB
330
2
100
AcDbEntity
  8
0
100
AcDbLine
 10
307.5737074322
 20
102.6414558458
 30
0.0
 11
376.0737074322
 21
102.6414558458
 31
0.0
  0
LINE
  5
41AC
330
2
100
AcDbEntity
  8
0
100
AcDbLine
 10
307.5737074322
 20
96.2414558458
 30
0.0
 11
376.0737074322
 21
96.2414558458
 31
0.0
  0
LINE
  5
41AD
330
2
100
AcDbEntity
  8
HIDS
100
AcDbLine
 10
307.5737074322
 20
169.6414558458
 30
0.0
 11
376.0737074322
 21
169.6414558458
 31
0.0
  0
LINE
  5
41AE
330
2
100
AcDbEntity
  8
HIDS
100
AcDbLine
 10
307.5737074322
 20
163.2414558458
 30
0.0
 11
376.0737074322
 21
163.2414558458
 31
0.0
  0
LINE
  5
41D1
330
2
100
AcDbEntity
  8
HIDS
100
AcDbLine
 10
501.0895549769
 20
357.9616039467
 30
0.0
 11
501.0895549769
 21
289.4616039467
 31
0.0
  0
LINE
  5
41D2
330
2
100
AcDbEntity
  8
HIDS
100
AcDbLine
 10
494.6895549769
 20
357.9616039467
 30
0.0
 11
494.6895549769
 21
289.4616039467
 31
0.0
  0
LINE
  5
41D3
330
2
100
AcDbEntity
  8
HIDS
100
AcDbLine
 10
587.0895549769
 20
357.9616039467
 30
0.0
 11
587.0895549769
 21
289.4616039467
 31
0.0
  0
LINE
  5
41D4
330
2
100
AcDbEntity
  8
HIDS
100
AcDbLine
 10
580.6895549769
 20
357.9616039467
 30
0.0
 11
580.6895549769
 21
289.4616039467
 31
0.0
  0
ENDSEC
  0
SECTION
  2
OBJECTS
  0
DICTIONARY
  5
7
330
0
100
AcDbDictionary
281
     1
  3
ACAD_CIP_PREVIOUS_PRODUCT_INFO
350
3E93
  3
ACAD_COLOR
350
2F3C
  3
ACAD_DETAILVIEWSTYLE
350
3E8F
  3
ACAD_GROUP
350
75
  3
ACAD_LAYOUT
350
61
  3
ACAD_MATERIAL
350
2F0F
  3
ACAD_MLEADERSTYLE
350
2F61
  3
ACAD_MLINESTYLE
350
76
  3
ACAD_PLOTSETTINGS
350
77
  3
ACAD_PLOTSTYLENAME
350
6
  3
ACAD_SCALELIST
350
2F3F
  3
ACAD_SECTIONVIEWSTYLE
350
3E8D
  3
ACAD_TABLESTYLE
350
2F3D
  3
ACAD_VISUALSTYLE
350
2F28
  3
AcadDim
350
480
  3
ACDB_RECOMPOSE_DATA
350
445D
  3
AcDbVariableDictionary
350
102
  3
DWGPROPS
350
445E
  0
DICTIONARY
  5
30CE
330
6E
100
AcDbDictionary
280
     1
281
     1
  0
DICTIONARY
  5
2F70
330
66
100
AcDbDictionary
280
     1
281
     1
  3
ACAD_LAYERSTATES
360
2F71
  0
DICTIONARY
  5
30B7
330
5E
100
AcDbDictionary
280
     1
281
     1
  3
ADSK_XREC_LAYER_RECONCILED
360
30B8
  0
DICTIONARY
  5
30B9
330
3E
100
AcDbDictionary
280
     1
281
     1
  3
ADSK_XREC_LAYER_RECONCILED
360
30BA
  0
DICTIONARY
  5
30BF
330
2B5
100
AcDbDictionary
280
     1
281
     1
  3
ADSK_XREC_LAYER_RECONCILED
360
30C0
  0
DICTIONARY
  5
30C1
330
2BA
100
AcDbDictionary
280
     1
281
     1
  3
ADSK_XREC_LAYER_RECONCILED
360
30C2
  0
DICTIONARY
  5
30C5
330
3FA
100
AcDbDictionary
280
     1
281
     1
  3
ADSK_XREC_LAYER_RECONCILED
360
30C6
  0
DICTIONARY
  5
2F6E
330
2F6D
100
AcDbDictionary
280
     1
281
     1
  3
ADSK_XREC_LAYER_RECONCILED
360
30C7
  0
XRECORD
  5
3E93
102
{ACAD_REACTORS
330
7
102
}
330
7
100
AcDbXrecord
280
     1
300
ACD
300
2020
300
87224ACD_2020_0F
  0
DICTIONARY
  5
2F3C
102
{ACAD_REACTORS
330
7
102
}
330
7
100
AcDbDictionary
281
     1
  0
DICTIONARY
  5
3E8F
102
{ACAD_REACTORS
330
7
102
}
330
7
100
AcDbDictionary
281
     1
  3
Imperial24
350
3E90
  0
DICTIONARY
  5
75
102
{ACAD_REACTORS
330
7
102
}
330
7
100
AcDbDictionary
281
     1
  0
DICTIONARY
  5
61
102
{ACAD_REACTORS
330
7
102
}
330
7
100
AcDbDictionary
281
     1
  3
Model
350
60
  3
レイアウト1
350
4457
  0
DICTIONARY
  5
2F0F
102
{ACAD_REACTORS
330
7
102
}
330
7
100
AcDbDictionary
281
     1
  3
ByBlock
350
2F18
  3
ByLayer
350
2F10
  3
Global
350
2F20
  0
DICTIONARY
  5
2F61
102
{ACAD_REACTORS
330
7
102
}
330
7
100
AcDbDictionary
281
     1
  3
Standard
350
2F62
  0
DICTIONARY
  5
76
102
{ACAD_REACTORS
330
7
102
}
330
7
100
AcDbDictionary
281
     1
  3
STANDARD
350
78
  0
DICTIONARY
  5
77
102
{ACAD_REACTORS
330
7
102
}
330
7
100
AcDbDictionary
281
     1
  0
ACDBDICTIONARYWDFLT
  5
6
102
{ACAD_REACTORS
330
7
102
}
330
7
100
AcDbDictionary
281
     1
  3
Normal
350
5
100
AcDbDictionaryWithDefault
340
5
  0
DICTIONARY
  5
2F3F
102
{ACAD_REACTORS
330
7
102
}
330
7
100
AcDbDictionary
281
     1
  3
A0
350
2F40
  3
A1
350
2F41
  3
A2
350
2F42
  3
A3
350
2F43
  3
A4
350
2F44
  3
A5
350
2F45
  3
A6
350
2F46
  3
A7
350
2F47
  3
A8
350
2F48
  3
A9
350
2F49
  3
B0
350
2F4A
  3
B1
350
2F4B
  3
B2
350
2F4C
  3
B3
350
2F4D
  3
B4
350
2F4E
  3
B5
350
2F4F
  3
B6
350
2F50
  3
B7
350
2F51
  3
B8
350
2F52
  3
B9
350
2F53
  3
C0
350
2F54
  3
C1
350
2F55
  3
C2
350
2F56
  3
C3
350
2F57
  3
C4
350
2F58
  3
C5
350
2F59
  3
C6
350
2F5A
  3
C7
350
2F5B
  3
C8
350
2F5C
  3
C9
350
2F5D
  3
D0
350
2F5E
  3
D1
350
2F5F
  3
D2
350
2F60
  0
DICTIONARY
  5
3E8D
102
{ACAD_REACTORS
330
7
102
}
330
7
100
AcDbDictionary
281
     1
  3
Imperial24
350
3E8E
  0
DICTIONARY
  5
2F3D
102
{ACAD_REACTORS
330
7
102
}
330
7
100
AcDbDictionary
281
     1
  3
Standard
350
2F3E
  0
DICTIONARY
  5
2F28
102
{ACAD_REACTORS
330
7
102
}
330
7
100
AcDbDictionary
281
     1
  3
2dWireframe
350
2F2E
  3
3D Hidden
350
2F30
  3
3dWireframe
350
2F2F
  3
Basic
350
2F2D
  3
Brighten
350
2F34
  3
ColorChange
350
2F38
  3
Conceptual
350
2F31
  3
Dim
350
2F33
  3
EdgeColorOff
350
2F3B
  3
Facepattern
350
2F37
  3
Flat
350
2F29
  3
FlatWithEdges
350
2F2A
  3
Gouraud
350
2F2B
  3
GouraudWithEdges
350
2F2C
  3
Hidden
350
3E87
  3
JitterOff
350
2F39
  3
Linepattern
350
2F36
  3
OverhangOff
350
2F3A
  3
Realistic
350
2F32
  3
Shaded
350
3E8C
  3
Shaded with edges
350
3E8B
  3
Shades of Gray
350
3E88
  3
Sketchy
350
3E89
  3
Thicken
350
2F35
  3
Wireframe
350
3E86
  3
X-Ray
350
3E8A
  0
XRECORD
  5
480
102
{ACAD_REACTORS
330
7
102
}
330
7
100
AcDbXrecord
280
     1
 90
   990106
  3

 60
     0
 61
     0
 62
     1
 63
     3
 64
     1
 65
     0
 66
     0
 67
     3
 68
     1
 69
     0
 70
     0
 71
     0
 72
     0
 40
0.0
170
     2
340
0
  0
XRECORD
  5
445D
102
{ACAD_REACTORS
330
7
102
}
330
7
100
AcDbXrecord
280
     1
 90
        1
330
2F3E
  0
DICTIONARY
  5
102
102
{ACAD_REACTORS
330
7
102
}
330
7
100
AcDbDictionary
281
     1
  3
CANNOSCALE
350
314B
  3
CMLEADERSTYLE
350
314A
  3
CTABLESTYLE
350
3149
  3
CVIEWDETAILSTYLE
350
3E95
  3
CVIEWSECTIONSTYLE
350
3E96
  3
DIMASSOC
350
103
  3
INDEXCTL
350
314D
  3
LAYEREVAL
350
3E99
  3
LAYERNOTIFY
350
3E9A
  3
LIGHTINGUNITS
350
3E98
  3
MSLTSCALE
350
3E97
  3
SORTENTS
350
314C
  3
XCLIPFRAME
350
445B
  0
XRECORD
  5
445E
102
{ACAD_REACTORS
330
7
102
}
330
7
100
AcDbXrecord
280
     1
  1
DWGPROPS COOKIE
  2

  3

  4

  6

  7

  8
ykitaga
  9

300
=
301
=
302
=
303
=
304
=
305
=
306
=
307
=
308
=
309
=
 40
0.6397621644
 41
2453557.579675926
 42
2460164.362719908
  1

 90
        0
  0
DICTIONARY
  5
2F71
102
{ACAD_REACTORS
330
2F70
102
}
330
2F70
100
AcDbDictionary
281
     1
  0
XRECORD
  5
30B8
102
{ACAD_REACTORS
330
30B7
102
}
330
30B7
100
AcDbXrecord
280
     1
290
     1
  0
XRECORD
  5
30BA
102
{ACAD_REACTORS
330
30B9
102
}
330
30B9
100
AcDbXrecord
280
     1
290
     1
  0
XRECORD
  5
30C0
102
{ACAD_REACTORS
330
30BF
102
}
330
30BF
100
AcDbXrecord
280
     1
290
     1
  0
XRECORD
  5
30C2
102
{ACAD_REACTORS
330
30C1
102
}
330
30C1
100
AcDbXrecord
280
     1
290
     1
  0
XRECORD
  5
30C6
102
{ACAD_REACTORS
330
30C5
102
}
330
30C5
100
AcDbXrecord
280
     1
290
     1
  0
XRECORD
  5
30C7
102
{ACAD_REACTORS
330
2F6E
102
}
330
2F6E
100
AcDbXrecord
280
     1
290
     1
  0
ACDBDETAILVIEWSTYLE
  5
3E90
102
{ACAD_XDICTIONARY
360
44BB
102
}
102
{ACAD_REACTORS
330
3E8F
102
}
330
3E8F
100
AcDbModelDocViewStyle
 70
     0
  3
Imperial24
290
     0
100
AcDbDetailViewStyle
 70
     0
 71
     0
 90
        3
 71
     1
340
16
 40
0.24
340
0
 40
0.24
300

 40
0.36
280
     3
 71
     2
340
8
 90
       25
 71
     3
340
16
 40
0.24
 90
        1
 40
0.75
 90
        1
300
%<\AcVar ViewType \f "%tc1">% %<\AcVar ViewDetailId>%\PSCALE %<\AcVar ViewScale \f "%sn">%
 71
     4
340
8
 90
       25
340
8
 90
       25
280
     0
  0
LAYOUT
  5
60
102
{ACAD_XDICTIONARY
360
445F
102
}
102
{ACAD_REACTORS
330
61
102
}
330
61
100
AcDbPlotSettings
  1

  2
Canon LBP-1420
  4
A4
  6

 40
5.873749733
 41
5.8737478256
 42
5.8737487793
 43
5.8737487793
 44
209.9733276367
 45
296.925994873
 46
0.0
 47
5.37
 48
0.0
 49
0.0
140
0.0
141
0.0
142
1.0
143
0.088099941
 70
 11956
 72
     1
 73
     1
 74
     1
  7
Sekkei.ctb
 75
     0
147
11.3507453947
148
-88.9740150773
149
-101.3630682339
100
AcDbLayout
  1
Model
 70
     1
 71
     0
 10
0.0
 20
0.0
 11
12.0
 21
9.0
 12
0.0
 22
0.0
 32
0.0
 14
0.0
 24
0.0
 34
0.0
 15
0.0
 25
0.0
 35
0.0
146
0.0
 13
0.0
 23
0.0
 33
0.0
 16
1.0
 26
0.0
 36
0.0
 17
0.0
 27
1.0
 37
0.0
 76
     0
330
2
331
2F0D
  0
LAYOUT
  5
4457
102
{ACAD_XDICTIONARY
360
44CD
102
}
102
{ACAD_REACTORS
330
61
102
}
330
61
100
AcDbPlotSettings
  1

  2
LBP8610
  4

  6

 40
0.0
 41
0.0
 42
0.0
 43
0.0
 44
0.0
 45
0.0
 46
0.0
 47
0.0
 48
0.0
 49
0.0
140
0.0
141
0.0
142
1.0
143
1.0
 70
   688
 72
     0
 73
     0
 74
     5
  7

 75
    16
147
1.0
148
0.0
149
0.0
100
AcDbLayout
  1
レイアウト1
 70
     1
 71
     1
 10
0.0
 20
0.0
 11
12.0
 21
9.0
 12
0.0
 22
0.0
 32
0.0
 14
0.0
 24
0.0
 34
0.0
 15
0.0
 25
0.0
 35
0.0
146
0.0
 13
0.0
 23
0.0
 33
0.0
 16
1.0
 26
0.0
 36
0.0
 17
0.0
 27
1.0
 37
0.0
 76
     0
330
4456
  0
MATERIAL
  5
2F18
102
{ACAD_XDICTIONARY
360
2F19
102
}
102
{ACAD_REACTORS
330
2F0F
102
}
330
2F0F
100
AcDbMaterial
  1
ByBlock
 72
     0
 43
0.0208333333
 43
0.0
 43
0.0
 43
0.0
 43
0.0
 43
0.0208333333
 43
0.0
 43
0.0
 43
0.0
 43
0.0
 43
1.0
 43
0.0
 43
0.0
 43
0.0
 43
0.0
 43
1.0
 77
     0
 47
0.0208333333
 47
0.0
 47
0.0
 47
0.0
 47
0.0
 47
0.0208333333
 47
0.0
 47
0.0
 47
0.0
 47
0.0
 47
1.0
 47
0.0
 47
0.0
 47
0.0
 47
0.0
 47
1.0
171
     0
 49
0.0208333333
 49
0.0
 49
0.0
 49
0.0
 49
0.0
 49
0.0208333333
 49
0.0
 49
0.0
 49
0.0
 49
0.0
 49
1.0
 49
0.0
 49
0.0
 49
0.0
 49
0.0
 49
1.0
175
     0
142
0.0208333333
142
0.0
142
0.0
142
0.0
142
0.0
142
0.0208333333
142
0.0
142
0.0
142
0.0
142
0.0
142
1.0
142
0.0
142
0.0
142
0.0
142
0.0
142
1.0
179
     0
144
0.0208333333
144
0.0
144
0.0
144
0.0
144
0.0
144
0.0208333333
144
0.0
144
0.0
144
0.0
144
0.0
144
1.0
144
0.0
144
0.0
144
0.0
144
0.0
144
1.0
147
0.0208333333
147
0.0
147
0.0
147
0.0
147
0.0
147
0.0208333333
147
0.0
147
0.0
147
0.0
147
0.0
147
1.0
147
0.0
147
0.0
147
0.0
147
0.0
147
1.0
  0
MATERIAL
  5
2F10
102
{ACAD_XDICTIONARY
360
2F11
102
}
102
{ACAD_REACTORS
330
2F0F
102
}
330
2F0F
100
AcDbMaterial
  1
ByLayer
 72
     0
 43
0.0208333333
 43
0.0
 43
0.0
 43
0.0
 43
0.0
 43
0.0208333333
 43
0.0
 43
0.0
 43
0.0
 43
0.0
 43
1.0
 43
0.0
 43
0.0
 43
0.0
 43
0.0
 43
1.0
 77
     0
 47
0.0208333333
 47
0.0
 47
0.0
 47
0.0
 47
0.0
 47
0.0208333333
 47
0.0
 47
0.0
 47
0.0
 47
0.0
 47
1.0
 47
0.0
 47
0.0
 47
0.0
 47
0.0
 47
1.0
171
     0
 49
0.0208333333
 49
0.0
 49
0.0
 49
0.0
 49
0.0
 49
0.0208333333
 49
0.0
 49
0.0
 49
0.0
 49
0.0
 49
1.0
 49
0.0
 49
0.0
 49
0.0
 49
0.0
 49
1.0
175
     0
142
0.0208333333
142
0.0
142
0.0
142
0.0
142
0.0
142
0.0208333333
142
0.0
142
0.0
142
0.0
142
0.0
142
1.0
142
0.0
142
0.0
142
0.0
142
0.0
142
1.0
179
     0
144
0.0208333333
144
0.0
144
0.0
144
0.0
144
0.0
144
0.0208333333
144
0.0
144
0.0
144
0.0
144
0.0
144
1.0
144
0.0
144
0.0
144
0.0
144
0.0
144
1.0
147
0.0208333333
147
0.0
147
0.0
147
0.0
147
0.0
147
0.0208333333
147
0.0
147
0.0
147
0.0
147
0.0
147
1.0
147
0.0
147
0.0
147
0.0
147
0.0
147
1.0
  0
MATERIAL
  5
2F20
102
{ACAD_XDICTIONARY
360
2F21
102
}
102
{ACAD_REACTORS
330
2F0F
102
}
330
2F0F
100
AcDbMaterial
  1
Global
 72
     0
 43
0.0208333333
 43
0.0
 43
0.0
 43
0.0
 43
0.0
 43
0.0208333333
 43
0.0
 43
0.0
 43
0.0
 43
0.0
 43
1.0
 43
0.0
 43
0.0
 43
0.0
 43
0.0
 43
1.0
 77
     0
 47
0.0208333333
 47
0.0
 47
0.0
 47
0.0
 47
0.0
 47
0.0208333333
 47
0.0
 47
0.0
 47
0.0
 47
0.0
 47
1.0
 47
0.0
 47
0.0
 47
0.0
 47
0.0
 47
1.0
171
     0
 49
0.0208333333
 49
0.0
 49
0.0
 49
0.0
 49
0.0
 49
0.0208333333
 49
0.0
 49
0.0
 49
0.0
 49
0.0
 49
1.0
 49
0.0
 49
0.0
 49
0.0
 49
0.0
 49
1.0
175
     0
142
0.0208333333
142
0.0
142
0.0
142
0.0
142
0.0
142
0.0208333333
142
0.0
142
0.0
142
0.0
142
0.0
142
1.0
142
0.0
142
0.0
142
0.0
142
0.0
142
1.0
179
     0
144
0.0208333333
144
0.0
144
0.0
144
0.0
144
0.0
144
0.0208333333
144
0.0
144
0.0
144
0.0
144
0.0
144
1.0
144
0.0
144
0.0
144
0.0
144
0.0
144
1.0
147
0.0208333333
147
0.0
147
0.0
147
0.0
147
0.0
147
0.0208333333
147
0.0
147
0.0
147
0.0
147
0.0
147
1.0
147
0.0
147
0.0
147
0.0
147
0.0
147
1.0
  0
MLEADERSTYLE
  5
2F62
102
{ACAD_REACTORS
330
2F61
102
}
330
2F61
100
AcDbMLeaderStyle
170
     2
171
     1
172
     0
 90
        2
 40
0.0
 41
0.0
173
     1
 91
-1056964608
340
6A
 92
       -2
290
     1
 42
0.09
291
     1
 43
0.36
  3
Standard
 44
0.18
300

342
16
174
     1
178
     6
175
     1
176
     0
 93
-1056964608
 45
0.18
292
     0
297
     0
 46
0.18
 94
-1056964608
 47
1.0
 49
1.0
140
1.0
293
     1
141
0.0
294
     1
177
     0
142
1.0
295
     0
296
     0
143
0.125
1001
ACAD_MLEADERVER
1070
     2
  0
MLINESTYLE
  5
78
102
{ACAD_REACTORS
330
76
102
}
330
76
100
AcDbMlineStyle
  2
STANDARD
 70
     0
  3

 62
     0
 51
90.0
 52
90.0
 71
     2
 49
0.5
 62
   256
  6
BYLAYER
 49
-0.5
 62
   256
  6
BYLAYER
  0
ACDBPLACEHOLDER
  5
5
102
{ACAD_REACTORS
330
6
102
}
330
6
  0
SCALE
  5
2F40
102
{ACAD_REACTORS
330
2F3F
102
}
330
2F3F
100
AcDbScale
 70
     0
300
1:1
140
1.0
141
1.0
290
     1
  0
SCALE
  5
2F41
102
{ACAD_REACTORS
330
2F3F
102
}
330
2F3F
100
AcDbScale
 70
     0
300
1:2
140
1.0
141
2.0
290
     0
  0
SCALE
  5
2F42
102
{ACAD_REACTORS
330
2F3F
102
}
330
2F3F
100
AcDbScale
 70
     0
300
1:4
140
1.0
141
4.0
290
     0
  0
SCALE
  5
2F43
102
{ACAD_REACTORS
330
2F3F
102
}
330
2F3F
100
AcDbScale
 70
     0
300
1:5
140
1.0
141
5.0
290
     0
  0
SCALE
  5
2F44
102
{ACAD_REACTORS
330
2F3F
102
}
330
2F3F
100
AcDbScale
 70
     0
300
1:8
140
1.0
141
8.0
290
     0
  0
SCALE
  5
2F45
102
{ACAD_REACTORS
330
2F3F
102
}
330
2F3F
100
AcDbScale
 70
     0
300
1:10
140
1.0
141
10.0
290
     0
  0
SCALE
  5
2F46
102
{ACAD_REACTORS
330
2F3F
102
}
330
2F3F
100
AcDbScale
 70
     0
300
1:16
140
1.0
141
16.0
290
     0
  0
SCALE
  5
2F47
102
{ACAD_REACTORS
330
2F3F
102
}
330
2F3F
100
AcDbScale
 70
     0
300
1:20
140
1.0
141
20.0
290
     0
  0
SCALE
  5
2F48
102
{ACAD_REACTORS
330
2F3F
102
}
330
2F3F
100
AcDbScale
 70
     0
300
1:30
140
1.0
141
30.0
290
     0
  0
SCALE
  5
2F49
102
{ACAD_REACTORS
330
2F3F
102
}
330
2F3F
100
AcDbScale
 70
     0
300
1:40
140
1.0
141
40.0
290
     0
  0
SCALE
  5
2F4A
102
{ACAD_REACTORS
330
2F3F
102
}
330
2F3F
100
AcDbScale
 70
     0
300
1:50
140
1.0
141
50.0
290
     0
  0
SCALE
  5
2F4B
102
{ACAD_REACTORS
330
2F3F
102
}
330
2F3F
100
AcDbScale
 70
     0
300
1:100
140
1.0
141
100.0
290
     0
  0
SCALE
  5
2F4C
102
{ACAD_REACTORS
330
2F3F
102
}
330
2F3F
100
AcDbScale
 70
     0
300
2:1
140
2.0
141
1.0
290
     0
  0
SCALE
  5
2F4D
102
{ACAD_REACTORS
330
2F3F
102
}
330
2F3F
100
AcDbScale
 70
     0
300
4:1
140
4.0
141
1.0
290
     0
  0
SCALE
  5
2F4E
102
{ACAD_REACTORS
330
2F3F
102
}
330
2F3F
100
AcDbScale
 70
     0
300
8:1
140
8.0
141
1.0
290
     0
  0
SCALE
  5
2F4F
102
{ACAD_REACTORS
330
2F3F
102
}
330
2F3F
100
AcDbScale
 70
     0
300
10:1
140
10.0
141
1.0
290
     0
  0
SCALE
  5
2F50
102
{ACAD_REACTORS
330
2F3F
102
}
330
2F3F
100
AcDbScale
 70
     0
300
100:1
140
100.0
141
1.0
290
     0
  0
SCALE
  5
2F51
102
{ACAD_REACTORS
330
2F3F
102
}
330
2F3F
100
AcDbScale
 70
     0
300
1/128" = 1'-0"
140
0.0078125
141
12.0
290
     0
  0
SCALE
  5
2F52
102
{ACAD_REACTORS
330
2F3F
102
}
330
2F3F
100
AcDbScale
 70
     0
300
1/64" = 1'-0"
140
0.015625
141
12.0
290
     0
  0
SCALE
  5
2F53
102
{ACAD_REACTORS
330
2F3F
102
}
330
2F3F
100
AcDbScale
 70
     0
300
1/32" = 1'-0"
140
0.03125
141
12.0
290
     0
  0
SCALE
  5
2F54
102
{ACAD_REACTORS
330
2F3F
102
}
330
2F3F
100
AcDbScale
 70
     0
300
1/16" = 1'-0"
140
0.0625
141
12.0
290
     0
  0
SCALE
  5
2F55
102
{ACAD_REACTORS
330
2F3F
102
}
330
2F3F
100
AcDbScale
 70
     0
300
3/32" = 1'-0"
140
0.09375
141
12.0
290
     0
  0
SCALE
  5
2F56
102
{ACAD_REACTORS
330
2F3F
102
}
330
2F3F
100
AcDbScale
 70
     0
300
1/8" = 1'-0"
140
0.125
141
12.0
290
     0
  0
SCALE
  5
2F57
102
{ACAD_REACTORS
330
2F3F
102
}
330
2F3F
100
AcDbScale
 70
     0
300
3/16" = 1'-0"
140
0.1875
141
12.0
290
     0
  0
SCALE
  5
2F58
102
{ACAD_REACTORS
330
2F3F
102
}
330
2F3F
100
AcDbScale
 70
     0
300
1/4" = 1'-0"
140
0.25
141
12.0
290
     0
  0
SCALE
  5
2F59
102
{ACAD_REACTORS
330
2F3F
102
}
330
2F3F
100
AcDbScale
 70
     0
300
3/8" = 1'-0"
140
0.375
141
12.0
290
     0
  0
SCALE
  5
2F5A
102
{ACAD_REACTORS
330
2F3F
102
}
330
2F3F
100
AcDbScale
 70
     0
300
1/2" = 1'-0"
140
0.5
141
12.0
290
     0
  0
SCALE
  5
2F5B
102
{ACAD_REACTORS
330
2F3F
102
}
330
2F3F
100
AcDbScale
 70
     0
300
3/4" = 1'-0"
140
0.75
141
12.0
290
     0
  0
SCALE
  5
2F5C
102
{ACAD_REACTORS
330
2F3F
102
}
330
2F3F
100
AcDbScale
 70
     0
300
1" = 1'-0"
140
1.0
141
12.0
290
     0
  0
SCALE
  5
2F5D
102
{ACAD_REACTORS
330
2F3F
102
}
330
2F3F
100
AcDbScale
 70
     0
300
1-1/2" = 1'-0"
140
1.5
141
12.0
290
     0
  0
SCALE
  5
2F5E
102
{ACAD_REACTORS
330
2F3F
102
}
330
2F3F
100
AcDbScale
 70
     0
300
3" = 1'-0"
140
3.0
141
12.0
290
     0
  0
SCALE
  5
2F5F
102
{ACAD_REACTORS
330
2F3F
102
}
330
2F3F
100
AcDbScale
 70
     0
300
6" = 1'-0"
140
6.0
141
12.0
290
     0
  0
SCALE
  5
2F60
102
{ACAD_REACTORS
330
2F3F
102
}
330
2F3F
100
AcDbScale
 70
     0
300
1'-0" = 1'-0"
140
12.0
141
12.0
290
     0
  0
ACDBSECTIONVIEWSTYLE
  5
3E8E
102
{ACAD_XDICTIONARY
360
44B9
102
}
102
{ACAD_REACTORS
330
3E8D
102
}
330
3E8D
100
AcDbModelDocViewStyle
 70
     0
  3
Imperial24
290
     0
100
AcDbSectionViewStyle
 70
     0
 71
     0
 90
       78
 71
     1
340
16
 40
0.24
340
0
340
0
 40
0.24
300
I, O, Q, S, X, Z
 40
0.48
 90
        3
 40
0.18
 90
        1
 71
     2
340
8
 90
       25
340
8
 90
       50
 40
0.24
 40
0.0
 40
0.24
 71
     3
340
16
 40
0.24
 90
        1
 40
0.75
 90
        1
300
%<\AcVar ViewType \f "%tc1">% %<\AcVar ViewSectionStartId>%-%<\AcVar ViewSectionEndId>%\PSCALE %<\AcVar ViewScale \f "%sn">%
 71
     4
300
ANSI31
 40
1.0
 90
        0
290
     0
290
     0
 90
        6
 40
0.0
 40
1.5707963268
 40
0.2617993878
 40
1.308996939
 40
-0.2617993878
 40
1.8325957146
  0
TABLESTYLE
  5
2F3E
102
{ACAD_XDICTIONARY
360
30C8
102
}
102
{ACAD_REACTORS
330
2F3D
102
}
330
2F3D
100
AcDbTableStyle
  3
Standard
 70
     0
 71
     0
 40
0.06
 41
0.06
280
     0
281
     0
  7
STANDARD
140
0.18
170
     2
 62
     0
 63
     7
283
     0
274
    -2
284
     1
 64
     0
275
    -2
285
     1
 65
     0
276
    -2
286
     1
 66
     0
277
    -2
287
     1
 67
     0
278
    -2
288
     1
 68
     0
279
    -2
289
     1
 69
     0
  7
STANDARD
140
0.25
170
     5
 62
     0
 63
     7
283
     0
274
    -2
284
     1
 64
     0
275
    -2
285
     1
 65
     0
276
    -2
286
     1
 66
     0
277
    -2
287
     1
 67
     0
278
    -2
288
     1
 68
     0
279
    -2
289
     1
 69
     0
  7
STANDARD
140
0.18
170
     5
 62
     0
 63
     7
283
     0
274
    -2
284
     1
 64
     0
275
    -2
285
     1
 65
     0
276
    -2
286
     1
 66
     0
277
    -2
287
     1
 67
     0
278
    -2
288
     1
 68
     0
279
    -2
289
     1
 69
     0
  0
VISUALSTYLE
  5
2F2E
102
{ACAD_XDICTIONARY
360
446E
102
}
102
{ACAD_REACTORS
330
2F28
102
}
330
2F28
100
AcDbVisualStyle
  2

 70
     4
 71
     0
 72
     2
 73
     0
 90
        0
 40
-0.6
 41
-30.0
 62
     5
 63
     7
 74
     1
 91
        4
 64
     7
 65
   257
 75
     1
175
     1
 42
1.0
 92
        0
 66
   257
 43
1.0
 76
     1
 77
     6
 78
     2
 67
     7
 79
     5
170
     0
171
     0
290
     0
174
     0
 93
        1
 44
0.0
173
     0
291
     0
 45
0.0
1001
ACAD
1000
AcDbSavedByObjectVersion
1070
     0
  0
VISUALSTYLE
  5
2F30
102
{ACAD_XDICTIONARY
360
4472
102
}
102
{ACAD_REACTORS
330
2F28
102
}
330
2F28
100
AcDbVisualStyle
  2

 70
     6
 71
     1
 72
     2
 73
     2
 90
        0
 40
-0.6
 41
-30.0
 62
     5
 63
     7
 74
     2
 91
        2
 64
     7
 65
   257
 75
     2
175
     1
 42
179.0
 92
        0
 66
   257
 43
1.0
 76
     1
 77
     6
 78
     2
 67
     7
 79
     3
170
     0
171
     0
290
     0
174
     0
 93
        1
 44
0.0
173
     0
291
     0
 45
0.0
1001
ACAD
1000
AcDbSavedByObjectVersion
1070
     0
  0
VISUALSTYLE
  5
2F2F
102
{ACAD_XDICTIONARY
360
4470
102
}
102
{ACAD_REACTORS
330
2F28
102
}
330
2F28
100
AcDbVisualStyle
  2

 70
     5
 71
     0
 72
     2
 73
     0
 90
        0
 40
-0.6
 41
-30.0
 62
     5
 63
     7
 74
     1
 91
        4
 64
     7
 65
   257
 75
     1
175
     1
 42
1.0
 92
        0
 66
   257
 43
1.0
 76
     1
 77
     6
 78
     2
 67
     7
 79
     5
170
     0
171
     0
290
     0
174
     0
 93
        1
 44
0.0
173
     0
291
     0
 45
0.0
1001
ACAD
1000
AcDbSavedByObjectVersion
1070
     0
  0
VISUALSTYLE
  5
2F2D
102
{ACAD_XDICTIONARY
360
446C
102
}
102
{ACAD_REACTORS
330
2F28
102
}
330
2F28
100
AcDbVisualStyle
  2

 70
     7
 71
     1
 72
     0
 73
     1
 90
        0
 40
-0.6
 41
-30.0
 62
     5
 63
     7
 74
     0
 91
        4
 64
     7
 65
   257
 75
     1
175
     1
 42
1.0
 92
        8
 66
     7
 43
1.0
 76
     1
 77
     6
 78
     2
 67
     7
 79
     5
170
     0
171
     0
290
     0
174
     0
 93
        1
 44
0.0
173
     0
291
     1
 45
0.0
1001
ACAD
1000
AcDbSavedByObjectVersion
1070
     0
  0
VISUALSTYLE
  5
2F34
102
{ACAD_XDICTIONARY
360
447A
102
}
102
{ACAD_REACTORS
330
2F28
102
}
330
2F28
100
AcDbVisualStyle
  2

 70
    12
 71
     2
 72
     2
 73
     0
 90
        0
 40
-0.6
 41
-30.0
 62
     5
 63
     7
 74
     1
 91
        4
 64
     7
 65
   257
 75
     1
175
     1
 42
1.0
 92
        8
 66
     7
 43
1.0
 76
     1
 77
     6
 78
     2
 67
     7
 79
     5
170
     0
171
     0
290
     0
174
     0
 93
        1
 44
50.0
173
     0
291
     1
 45
0.0
1001
ACAD
1000
AcDbSavedByObjectVersion
1070
     0
  0
VISUALSTYLE
  5
2F38
102
{ACAD_XDICTIONARY
360
4482
102
}
102
{ACAD_REACTORS
330
2F28
102
}
330
2F28
100
AcDbVisualStyle
  2

 70
    16
 71
     2
 72
     2
 73
     3
 90
        0
 40
-0.6
 41
-30.0
 62
     5
 63
     8
 74
     1
 91
        4
 64
     7
 65
   257
 75
     1
175
     1
 42
1.0
 92
        8
 66
     8
 43
1.0
 76
     1
 77
     6
 78
     2
 67
     7
 79
     5
170
     0
171
     0
290
     0
174
     0
 93
        1
 44
0.0
173
     0
291
     1
 45
0.0
1001
ACAD
1000
AcDbSavedByObjectVersion
1070
     0
  0
VISUALSTYLE
  5
2F31
102
{ACAD_XDICTIONARY
360
4474
102
}
102
{ACAD_REACTORS
330
2F28
102
}
330
2F28
100
AcDbVisualStyle
  2

 70
     9
 71
     3
 72
     2
 73
     0
 90
        0
 40
-0.6
 41
-30.0
 62
     5
 63
     7
 74
     2
 91
        2
 64
     7
 65
   257
 75
     1
175
     1
 42
179.0
 92
        8
 66
     7
 43
1.0
 76
     1
 77
     6
 78
     2
 67
     7
 79
     3
170
     0
171
     0
290
     0
174
     0
 93
        1
 44
0.0
173
     0
291
     0
 45
0.0
1001
ACAD
1000
AcDbSavedByObjectVersion
1070
     0
  0
VISUALSTYLE
  5
2F33
102
{ACAD_XDICTIONARY
360
4478
102
}
102
{ACAD_REACTORS
330
2F28
102
}
330
2F28
100
AcDbVisualStyle
  2

 70
    11
 71
     2
 72
     2
 73
     0
 90
        0
 40
-0.6
 41
-30.0
 62
     5
 63
     7
 74
     1
 91
        4
 64
     7
 65
   257
 75
     1
175
     1
 42
1.0
 92
        8
 66
     7
 43
1.0
 76
     1
 77
     6
 78
     2
 67
     7
 79
     5
170
     0
171
     0
290
     0
174
     0
 93
        1
 44
-50.0
173
     0
291
     1
 45
0.0
1001
ACAD
1000
AcDbSavedByObjectVersion
1070
     0
  0
VISUALSTYLE
  5
2F3B
102
{ACAD_XDICTIONARY
360
4488
102
}
102
{ACAD_REACTORS
330
2F28
102
}
330
2F28
100
AcDbVisualStyle
  2

 70
    22
 71
     2
 72
     2
 73
     0
 90
        0
 40
-0.6
 41
-30.0
 62
     5
 63
     7
 74
     1
 91
        4
 64
     7
 65
   257
 75
     1
175
     1
 42
1.0
 92
        8
 66
     7
 43
1.0
 76
     1
 77
     6
 78
     2
 67
     7
 79
     5
170
     0
171
     0
290
     0
174
     0
 93
        1
 44
0.0
173
     0
291
     1
 45
0.0
1001
ACAD
1000
AcDbSavedByObjectVersion
1070
     0
  0
VISUALSTYLE
  5
2F37
102
{ACAD_XDICTIONARY
360
4480
102
}
102
{ACAD_REACTORS
330
2F28
102
}
330
2F28
100
AcDbVisualStyle
  2

 70
    15
 71
     2
 72
     2
 73
     0
 90
        0
 40
-0.6
 41
-30.0
 62
     5
 63
     7
 74
     1
 91
        4
 64
     7
 65
   257
 75
     1
175
     1
 42
1.0
 92
        8
 66
     7
 43
1.0
 76
     1
 77
     6
 78
     2
 67
     7
 79
     5
170
     0
171
     0
290
     0
174
     0
 93
        1
 44
0.0
173
     0
291
     1
 45
0.0
1001
ACAD
1000
AcDbSavedByObjectVersion
1070
     0
  0
VISUALSTYLE
  5
2F29
102
{ACAD_XDICTIONARY
360
4464
102
}
102
{ACAD_REACTORS
330
2F28
102
}
330
2F28
100
AcDbVisualStyle
  2

 70
     0
 71
     2
 72
     1
 73
     1
 90
        2
 40
-0.6
 41
30.0
 62
     5
 63
     7
 74
     0
 91
        4
 64
     7
 65
   257
 75
     1
175
     1
 42
1.0
 92
        8
 66
     7
 43
1.0
 76
     1
 77
     6
 78
     2
 67
     7
 79
     5
170
     0
171
     0
290
     0
174
     0
 93
       13
 44
0.0
173
     0
291
     1
 45
0.0
1001
ACAD
1000
AcDbSavedByObjectVersion
1070
     0
  0
VISUALSTYLE
  5
2F2A
102
{ACAD_XDICTIONARY
360
4466
102
}
102
{ACAD_REACTORS
330
2F28
102
}
330
2F28
100
AcDbVisualStyle
  2

 70
     1
 71
     2
 72
     1
 73
     1
 90
        2
 40
-0.6
 41
30.0
 62
     5
 63
     7
 74
     1
 91
        4
 64
     7
 65
   257
 75
     1
175
     1
 42
1.0
 92
        0
 66
   257
 43
1.0
 76
     1
 77
     6
 78
     2
 67
     7
 79
     5
170
     0
171
     0
290
     0
174
     0
 93
       13
 44
0.0
173
     0
291
     1
 45
0.0
1001
ACAD
1000
AcDbSavedByObjectVersion
1070
     0
  0
VISUALSTYLE
  5
2F2B
102
{ACAD_XDICTIONARY
360
4468
102
}
102
{ACAD_REACTORS
330
2F28
102
}
330
2F28
100
AcDbVisualStyle
  2

 70
     2
 71
     2
 72
     2
 73
     1
 90
        2
 40
-0.6
 41
30.0
 62
     5
 63
     7
 74
     0
 91
        4
 64
     7
 65
   257
 75
     1
175
     1
 42
1.0
 92
        0
 66
     7
 43
1.0
 76
     1
 77
     6
 78
     2
 67
     7
 79
     5
170
     0
171
     0
290
     0
174
     0
 93
       13
 44
0.0
173
     0
291
     1
 45
0.0
1001
ACAD
1000
AcDbSavedByObjectVersion
1070
     0
  0
VISUALSTYLE
  5
2F2C
102
{ACAD_XDICTIONARY
360
446A
102
}
102
{ACAD_REACTORS
330
2F28
102
}
330
2F28
100
AcDbVisualStyle
  2

 70
     3
 71
     2
 72
     2
 73
     1
 90
        2
 40
-0.6
 41
30.0
 62
     5
 63
     7
 74
     1
 91
        4
 64
     7
 65
   257
 75
     1
175
     1
 42
1.0
 92
        0
 66
   257
 43
1.0
 76
     1
 77
     6
 78
     2
 67
     7
 79
     5
170
     0
171
     0
290
     0
174
     0
 93
       13
 44
0.0
173
     0
291
     1
 45
0.0
1001
ACAD
1000
AcDbSavedByObjectVersion
1070
     0
  0
VISUALSTYLE
  5
3E87
102
{ACAD_XDICTIONARY
360
44AD
102
}
102
{ACAD_REACTORS
330
2F28
102
}
330
2F28
100
AcDbVisualStyle
  2

 70
     6
 71
     1
 72
     2
 73
     2
 90
        0
 40
-0.6
 41
-30.0
 62
     5
 63
     7
 74
     2
 91
        2
 64
     7
 65
   257
 75
     2
175
     1
 42
40.0
 92
        0
 66
   257
 43
1.0
 76
     1
 77
     6
 78
     2
 67
     7
 79
     3
170
     0
171
     0
290
     0
174
     0
 93
        1
 44
0.0
173
     0
291
     0
 45
0.0
1001
ACAD
1000
AcDbSavedByObjectVersion
1070
     0
  0
VISUALSTYLE
  5
2F39
102
{ACAD_XDICTIONARY
360
4484
102
}
102
{ACAD_REACTORS
330
2F28
102
}
330
2F28
100
AcDbVisualStyle
  2

 70
    20
 71
     2
 72
     2
 73
     0
 90
        0
 40
-0.6
 41
-30.0
 62
     5
 63
     7
 74
     1
 91
        4
 64
     7
 65
   257
 75
     1
175
     1
 42
1.0
 92
       10
 66
     7
 43
1.0
 76
     1
 77
     6
 78
     2
 67
     7
 79
     5
170
     0
171
     0
290
     0
174
     0
 93
        1
 44
0.0
173
     0
291
     1
 45
0.0
1001
ACAD
1000
AcDbSavedByObjectVersion
1070
     0
  0
VISUALSTYLE
  5
2F36
102
{ACAD_XDICTIONARY
360
447E
102
}
102
{ACAD_REACTORS
330
2F28
102
}
330
2F28
100
AcDbVisualStyle
  2

 70
    14
 71
     2
 72
     2
 73
     0
 90
        0
 40
-0.6
 41
-30.0
 62
     5
 63
     7
 74
     1
 91
        4
 64
     7
 65
   257
 75
     7
175
     7
 42
1.0
 92
        8
 66
     7
 43
1.0
 76
     1
 77
     6
 78
     2
 67
     7
 79
     5
170
     0
171
     0
290
     0
174
     0
 93
        1
 44
0.0
173
     0
291
     1
 45
0.0
1001
ACAD
1000
AcDbSavedByObjectVersion
1070
     0
  0
VISUALSTYLE
  5
2F3A
102
{ACAD_XDICTIONARY
360
4486
102
}
102
{ACAD_REACTORS
330
2F28
102
}
330
2F28
100
AcDbVisualStyle
  2

 70
    21
 71
     2
 72
     2
 73
     0
 90
        0
 40
-0.6
 41
-30.0
 62
     5
 63
     7
 74
     1
 91
        4
 64
     7
 65
   257
 75
     1
175
     1
 42
1.0
 92
        9
 66
     7
 43
1.0
 76
     1
 77
     6
 78
     2
 67
     7
 79
     5
170
     0
171
     0
290
     0
174
     0
 93
        1
 44
0.0
173
     0
291
     1
 45
0.0
1001
ACAD
1000
AcDbSavedByObjectVersion
1070
     0
  0
VISUALSTYLE
  5
2F32
102
{ACAD_XDICTIONARY
360
4476
102
}
102
{ACAD_REACTORS
330
2F28
102
}
330
2F28
100
AcDbVisualStyle
  2

 70
     8
 71
     2
 72
     2
 73
     0
 90
        0
 40
-0.6
 41
-30.0
 62
     5
 63
     7
 74
     1
 91
        0
 64
     7
 65
   257
 75
     1
175
     1
 42
1.0
 92
        8
 66
     8
 43
1.0
 76
     1
 77
     6
 78
     2
 67
     7
 79
     5
170
     0
171
     0
290
     0
174
     0
 93
       13
 44
0.0
173
     0
291
     0
 45
0.0
1001
ACAD
1000
AcDbSavedByObjectVersion
1070
     0
  0
VISUALSTYLE
  5
3E8C
102
{ACAD_XDICTIONARY
360
44B7
102
}
102
{ACAD_REACTORS
330
2F28
102
}
330
2F28
100
AcDbVisualStyle
  2

 70
    27
 71
     2
 72
     2
 73
     1
 90
        2
 40
-0.6
 41
30.0
 62
     5
 63
     7
 74
     0
 91
        4
 64
     7
 65
   257
 75
     1
175
     1
 42
1.0
 92
        8
 66
   257
 43
1.0
 76
     1
 77
     6
 78
     2
 67
     8
 79
     3
170
     0
171
     0
290
     0
174
     0
 93
        5
 44
0.0
173
     0
291
     0
 45
0.0
1001
ACAD
1000
AcDbSavedByObjectVersion
1070
     0
  0
VISUALSTYLE
  5
3E8B
102
{ACAD_XDICTIONARY
360
44B5
102
}
102
{ACAD_REACTORS
330
2F28
102
}
330
2F28
100
AcDbVisualStyle
  2

 70
    26
 71
     2
 72
     2
 73
     1
 90
        2
 40
-0.6
 41
30.0
 62
     5
 63
     7
 74
     1
 91
        2
 64
     7
 65
   257
 75
     2
175
     1
 42
1.0
 92
        8
 66
   257
 43
1.0
 76
     1
 77
     6
 78
     2
 67
     7
 79
     3
170
     0
171
     0
290
     0
174
     0
 93
        5
 44
0.0
173
     0
291
     0
 45
0.0
1001
ACAD
1000
AcDbSavedByObjectVersion
1070
     0
  0
VISUALSTYLE
  5
3E88
102
{ACAD_XDICTIONARY
360
44AF
102
}
102
{ACAD_REACTORS
330
2F28
102
}
330
2F28
100
AcDbVisualStyle
  2

 70
    23
 71
     2
 72
     2
 73
     3
 90
        0
 40
-0.6
 41
-30.0
 62
     5
 63
     7
 74
     2
 91
        2
 64
     7
 65
     7
 75
     1
175
     1
 42
40.0
 92
        8
 66
     7
 43
1.0
 76
     1
 77
     6
 78
     2
 67
     7
 79
     3
170
     0
171
     0
290
     0
174
     0
 93
        1
 44
0.0
173
     0
291
     0
 45
0.0
1001
ACAD
1000
AcDbSavedByObjectVersion
1070
     0
  0
VISUALSTYLE
  5
3E89
102
{ACAD_XDICTIONARY
360
44B1
102
}
102
{ACAD_REACTORS
330
2F28
102
}
330
2F28
100
AcDbVisualStyle
  2

 70
    24
 71
     1
 72
     2
 73
     2
 90
        0
 40
-0.6
 41
-30.0
 62
     5
 63
     7
 74
     2
 91
        2
 64
     7
 65
     7
 75
     1
175
     1
 42
40.0
 92
       11
 66
     7
 43
1.0
 76
     1
 77
     6
 78
     2
 67
     7
 79
     6
170
     0
171
     0
290
     0
174
     0
 93
        1
 44
0.0
173
     0
291
     0
 45
0.0
1001
ACAD
1000
AcDbSavedByObjectVersion
1070
     0
  0
VISUALSTYLE
  5
2F35
102
{ACAD_XDICTIONARY
360
447C
102
}
102
{ACAD_REACTORS
330
2F28
102
}
330
2F28
100
AcDbVisualStyle
  2

 70
    13
 71
     2
 72
     2
 73
     0
 90
        0
 40
-0.6
 41
-30.0
 62
     5
 63
     7
 74
     1
 91
        4
 64
     7
 65
   257
 75
     1
175
     1
 42
1.0
 92
       12
 66
     7
 43
1.0
 76
     1
 77
     6
 78
     2
 67
     7
 79
     5
170
     0
171
     0
290
     0
174
     0
 93
        1
 44
0.0
173
     0
291
     1
 45
0.0
1001
ACAD
1000
AcDbSavedByObjectVersion
1070
     0
  0
VISUALSTYLE
  5
3E86
102
{ACAD_XDICTIONARY
360
44AB
102
}
102
{ACAD_REACTORS
330
2F28
102
}
330
2F28
100
AcDbVisualStyle
  2

 70
     5
 71
     0
 72
     2
 73
     0
 90
        0
 40
-0.6
 41
-30.0
 62
     5
 63
     7
 74
     1
 91
        4
 64
     7
 65
   257
 75
     1
175
     1
 42
1.0
 92
        0
 66
   257
 43
1.0
 76
     1
 77
     6
 78
     2
 67
     7
 79
     3
170
     0
171
     0
290
     0
174
     0
 93
        1
 44
0.0
173
     0
291
     0
 45
0.0
1001
ACAD
1000
AcDbSavedByObjectVersion
1070
     0
  0
VISUALSTYLE
  5
3E8A
102
{ACAD_XDICTIONARY
360
44B3
102
}
102
{ACAD_REACTORS
330
2F28
102
}
330
2F28
100
AcDbVisualStyle
  2

 70
    25
 71
     2
 72
     2
 73
     1
 90
        1
 40
0.5
 41
-30.0
 62
     5
 63
     7
 74
     1
 91
        0
 64
     7
 65
   257
 75
     1
175
     1
 42
1.0
 92
        8
 66
     7
 43
1.0
 76
     1
 77
     6
 78
     2
 67
     7
 79
     3
170
     0
171
     0
290
     0
174
     0
 93
       13
 44
0.0
173
     0
291
     0
 45
0.0
1001
ACAD
1000
AcDbSavedByObjectVersion
1070
     0
  0
DICTIONARYVAR
  5
314B
102
{ACAD_REACTORS
330
102
102
}
330
102
100
DictionaryVariables
280
     0
  1
1:1
  0
DICTIONARYVAR
  5
314A
102
{ACAD_REACTORS
330
102
102
}
330
102
100
DictionaryVariables
280
     0
  1
STANDARD
  0
DICTIONARYVAR
  5
3149
102
{ACAD_REACTORS
330
102
102
}
330
102
100
DictionaryVariables
280
     0
  1
STANDARD
  0
DICTIONARYVAR
  5
3E95
102
{ACAD_REACTORS
330
102
102
}
330
102
100
DictionaryVariables
280
     0
  1
Imperial24
  0
DICTIONARYVAR
  5
3E96
102
{ACAD_REACTORS
330
102
102
}
330
102
100
DictionaryVariables
280
     0
  1
Imperial24
  0
DICTIONARYVAR
  5
103
102
{ACAD_REACTORS
330
102
102
}
330
102
100
DictionaryVariables
280
     0
  1
1
  0
DICTIONARYVAR
  5
314D
102
{ACAD_REACTORS
330
102
102
}
330
102
100
DictionaryVariables
280
     0
  1
0
  0
DICTIONARYVAR
  5
3E99
102
{ACAD_REACTORS
330
102
102
}
330
102
100
DictionaryVariables
280
     0
  1
1
  0
DICTIONARYVAR
  5
3E9A
102
{ACAD_REACTORS
330
102
102
}
330
102
100
DictionaryVariables
280
     0
  1
15
  0
DICTIONARYVAR
  5
3E98
102
{ACAD_REACTORS
330
102
102
}
330
102
100
DictionaryVariables
280
     0
  1
0
  0
DICTIONARYVAR
  5
3E97
102
{ACAD_REACTORS
330
102
102
}
330
102
100
DictionaryVariables
280
     0
  1
0
  0
DICTIONARYVAR
  5
314C
102
{ACAD_REACTORS
330
102
102
}
330
102
100
DictionaryVariables
280
     0
  1
127
  0
DICTIONARYVAR
  5
445B
102
{ACAD_REACTORS
330
102
102
}
330
102
100
DictionaryVariables
280
     0
  1
2
  0
DICTIONARY
  5
44BB
330
3E90
100
AcDbDictionary
280
     1
281
     1
  3
ACAD_XREC_ROUNDTRIP
360
44BC
  0
DICTIONARY
  5
445F
330
60
100
AcDbDictionary
280
     1
281
     1
  3
ACAD_XREC_ROUNDTRIP
360
4460
  0
DICTIONARY
  5
44CD
330
4457
100
AcDbDictionary
280
     1
281
     1
  3
ACAD_XREC_ROUNDTRIP
360
44CE
  0
DICTIONARY
  5
2F19
330
2F18
100
AcDbDictionary
280
     1
281
     1
  3
ACAD_XREC_ROUNDTRIP
360
4462
  3
BUMPTILE
360
2F1B
  3
DIFFUSETILE
360
2F1A
  3
OPACITYTILE
360
2F1E
  3
REFLECTIONTILE
360
2F1D
  3
REFRACTIONTILE
360
2F1F
  3
SPECULARTILE
360
2F1C
  0
DICTIONARY
  5
2F11
330
2F10
100
AcDbDictionary
280
     1
281
     1
  3
ACAD_XREC_ROUNDTRIP
360
4461
  3
BUMPTILE
360
2F13
  3
DIFFUSETILE
360
2F12
  3
OPACITYTILE
360
2F16
  3
REFLECTIONTILE
360
2F15
  3
REFRACTIONTILE
360
2F17
  3
SPECULARTILE
360
2F14
  0
DICTIONARY
  5
2F21
330
2F20
100
AcDbDictionary
280
     1
281
     1
  3
ACAD_XREC_ROUNDTRIP
360
4463
  3
BUMPTILE
360
2F23
  3
DIFFUSETILE
360
2F22
  3
OPACITYTILE
360
2F26
  3
REFLECTIONTILE
360
2F25
  3
REFRACTIONTILE
360
2F27
  3
SPECULARTILE
360
2F24
  0
DICTIONARY
  5
44B9
330
3E8E
100
AcDbDictionary
280
     1
281
     1
  3
ACAD_XREC_ROUNDTRIP
360
44BA
  0
DICTIONARY
  5
30C8
330
2F3E
100
AcDbDictionary
280
     1
281
     1
  3
ACAD_ROUNDTRIP_2008_TABLESTYLE_CELLSTYLEMAP
360
445C
  3
ACAD_XREC_ROUNDTRIP
360
448A
  0
DICTIONARY
  5
446E
330
2F2E
100
AcDbDictionary
280
     1
281
     1
  3
ACAD_XREC_ROUNDTRIP
360
446F
  0
DICTIONARY
  5
4472
330
2F30
100
AcDbDictionary
280
     1
281
     1
  3
ACAD_XREC_ROUNDTRIP
360
4473
  0
DICTIONARY
  5
4470
330
2F2F
100
AcDbDictionary
280
     1
281
     1
  3
ACAD_XREC_ROUNDTRIP
360
4471
  0
DICTIONARY
  5
446C
330
2F2D
100
AcDbDictionary
280
     1
281
     1
  3
ACAD_XREC_ROUNDTRIP
360
446D
  0
DICTIONARY
  5
447A
330
2F34
100
AcDbDictionary
280
     1
281
     1
  3
ACAD_XREC_ROUNDTRIP
360
447B
  0
DICTIONARY
  5
4482
330
2F38
100
AcDbDictionary
280
     1
281
     1
  3
ACAD_XREC_ROUNDTRIP
360
4483
  0
DICTIONARY
  5
4474
330
2F31
100
AcDbDictionary
280
     1
281
     1
  3
ACAD_XREC_ROUNDTRIP
360
4475
  0
DICTIONARY
  5
4478
330
2F33
100
AcDbDictionary
280
     1
281
     1
  3
ACAD_XREC_ROUNDTRIP
360
4479
  0
DICTIONARY
  5
4488
330
2F3B
100
AcDbDictionary
280
     1
281
     1
  3
ACAD_XREC_ROUNDTRIP
360
4489
  0
DICTIONARY
  5
4480
330
2F37
100
AcDbDictionary
280
     1
281
     1
  3
ACAD_XREC_ROUNDTRIP
360
4481
  0
DICTIONARY
  5
4464
330
2F29
100
AcDbDictionary
280
     1
281
     1
  3
ACAD_XREC_ROUNDTRIP
360
4465
  0
DICTIONARY
  5
4466
330
2F2A
100
AcDbDictionary
280
     1
281
     1
  3
ACAD_XREC_ROUNDTRIP
360
4467
  0
DICTIONARY
  5
4468
330
2F2B
100
AcDbDictionary
280
     1
281
     1
  3
ACAD_XREC_ROUNDTRIP
360
4469
  0
DICTIONARY
  5
446A
330
2F2C
100
AcDbDictionary
280
     1
281
     1
  3
ACAD_XREC_ROUNDTRIP
360
446B
  0
DICTIONARY
  5
44AD
330
3E87
100
AcDbDictionary
280
     1
281
     1
  3
ACAD_XREC_ROUNDTRIP
360
44AE
  0
DICTIONARY
  5
4484
330
2F39
100
AcDbDictionary
280
     1
281
     1
  3
ACAD_XREC_ROUNDTRIP
360
4485
  0
DICTIONARY
  5
447E
330
2F36
100
AcDbDictionary
280
     1
281
     1
  3
ACAD_XREC_ROUNDTRIP
360
447F
  0
DICTIONARY
  5
4486
330
2F3A
100
AcDbDictionary
280
     1
281
     1
  3
ACAD_XREC_ROUNDTRIP
360
4487
  0
DICTIONARY
  5
4476
330
2F32
100
AcDbDictionary
280
     1
281
     1
  3
ACAD_XREC_ROUNDTRIP
360
4477
  0
DICTIONARY
  5
44B7
330
3E8C
100
AcDbDictionary
280
     1
281
     1
  3
ACAD_XREC_ROUNDTRIP
360
44B8
  0
DICTIONARY
  5
44B5
330
3E8B
100
AcDbDictionary
280
     1
281
     1
  3
ACAD_XREC_ROUNDTRIP
360
44B6
  0
DICTIONARY
  5
44AF
330
3E88
100
AcDbDictionary
280
     1
281
     1
  3
ACAD_XREC_ROUNDTRIP
360
44B0
  0
DICTIONARY
  5
44B1
330
3E89
100
AcDbDictionary
280
     1
281
     1
  3
ACAD_XREC_ROUNDTRIP
360
44B2
  0
DICTIONARY
  5
447C
330
2F35
100
AcDbDictionary
280
     1
281
     1
  3
ACAD_XREC_ROUNDTRIP
360
447D
  0
DICTIONARY
  5
44AB
330
3E86
100
AcDbDictionary
280
     1
281
     1
  3
ACAD_XREC_ROUNDTRIP
360
44AC
  0
DICTIONARY
  5
44B3
330
3E8A
100
AcDbDictionary
280
     1
281
     1
  3
ACAD_XREC_ROUNDTRIP
360
44B4
  0
XRECORD
  5
44BC
102
{ACAD_REACTORS
330
44BB
102
}
330
44BB
100
AcDbXrecord
280
     1
102
DISPLAYNAME
  1
Imperial24
102
FLAGS
 90
        0
  0
XRECORD
  5
4460
102
{ACAD_REACTORS
330
445F
102
}
330
445F
100
AcDbXrecord
280
     1
102
SHADEPLOT
 70
     0
102
SHADEPLOTRESLEVEL
 70
     2
102
SHADEPLOTCUSTOMDPI
 70
   300
  0
XRECORD
  5
44CE
102
{ACAD_REACTORS
330
44CD
102
}
330
44CD
100
AcDbXrecord
280
     1
102
SHADEPLOT
 70
     0
102
SHADEPLOTRESLEVEL
 70
     2
102
SHADEPLOTCUSTOMDPI
 70
   300
  0
XRECORD
  5
4462
102
{ACAD_REACTORS
330
2F19
102
}
330
2F19
100
AcDbXrecord
280
     1
102
MATERIAL
148
0.0
149
0.0
149
0.0
 93
        0
 94
      127
282
     0
 72
     0
 77
     0
171
     0
175
     0
179
     0
273
     0
  0
XRECORD
  5
2F1B
102
{ACAD_REACTORS
330
2F19
102
}
330
2F19
100
AcDbXrecord
280
     1
270
     1
271
     1
  0
XRECORD
  5
2F1A
102
{ACAD_REACTORS
330
2F19
102
}
330
2F19
100
AcDbXrecord
280
     1
270
     1
271
     1
  0
XRECORD
  5
2F1E
102
{ACAD_REACTORS
330
2F19
102
}
330
2F19
100
AcDbXrecord
280
     1
270
     1
271
     1
  0
XRECORD
  5
2F1D
102
{ACAD_REACTORS
330
2F19
102
}
330
2F19
100
AcDbXrecord
280
     1
270
     1
271
     1
  0
XRECORD
  5
2F1F
102
{ACAD_REACTORS
330
2F19
102
}
330
2F19
100
AcDbXrecord
280
     1
270
     1
271
     1
  0
XRECORD
  5
2F1C
102
{ACAD_REACTORS
330
2F19
102
}
330
2F19
100
AcDbXrecord
280
     1
270
     1
271
     1
  0
XRECORD
  5
4461
102
{ACAD_REACTORS
330
2F11
102
}
330
2F11
100
AcDbXrecord
280
     1
102
MATERIAL
148
0.0
149
0.0
149
0.0
 93
        0
 94
      127
282
     0
 72
     0
 77
     0
171
     0
175
     0
179
     0
273
     0
  0
XRECORD
  5
2F13
102
{ACAD_REACTORS
330
2F11
102
}
330
2F11
100
AcDbXrecord
280
     1
270
     1
271
     1
  0
XRECORD
  5
2F12
102
{ACAD_REACTORS
330
2F11
102
}
330
2F11
100
AcDbXrecord
280
     1
270
     1
271
     1
  0
XRECORD
  5
2F16
102
{ACAD_REACTORS
330
2F11
102
}
330
2F11
100
AcDbXrecord
280
     1
270
     1
271
     1
  0
XRECORD
  5
2F15
102
{ACAD_REACTORS
330
2F11
102
}
330
2F11
100
AcDbXrecord
280
     1
270
     1
271
     1
  0
XRECORD
  5
2F17
102
{ACAD_REACTORS
330
2F11
102
}
330
2F11
100
AcDbXrecord
280
     1
270
     1
271
     1
  0
XRECORD
  5
2F14
102
{ACAD_REACTORS
330
2F11
102
}
330
2F11
100
AcDbXrecord
280
     1
270
     1
271
     1
  0
XRECORD
  5
4463
102
{ACAD_REACTORS
330
2F21
102
}
330
2F21
100
AcDbXrecord
280
     1
102
MATERIAL
148
0.0
149
0.0
149
0.0
 93
        0
 94
      127
282
     0
 72
     0
 77
     0
171
     0
175
     0
179
     0
273
     0
  0
XRECORD
  5
2F23
102
{ACAD_REACTORS
330
2F21
102
}
330
2F21
100
AcDbXrecord
280
     1
270
     1
271
     1
  0
XRECORD
  5
2F22
102
{ACAD_REACTORS
330
2F21
102
}
330
2F21
100
AcDbXrecord
280
     1
270
     1
271
     1
  0
XRECORD
  5
2F26
102
{ACAD_REACTORS
330
2F21
102
}
330
2F21
100
AcDbXrecord
280
     1
270
     1
271
     1
  0
XRECORD
  5
2F25
102
{ACAD_REACTORS
330
2F21
102
}
330
2F21
100
AcDbXrecord
280
     1
270
     1
271
     1
  0
XRECORD
  5
2F27
102
{ACAD_REACTORS
330
2F21
102
}
330
2F21
100
AcDbXrecord
280
     1
270
     1
271
     1
  0
XRECORD
  5
2F24
102
{ACAD_REACTORS
330
2F21
102
}
330
2F21
100
AcDbXrecord
280
     1
270
     1
271
     1
  0
XRECORD
  5
44BA
102
{ACAD_REACTORS
330
44B9
102
}
330
44B9
100
AcDbXrecord
280
     1
102
DISPLAYNAME
  1
Imperial24
102
FLAGS
 90
        0
  0
CELLSTYLEMAP
  5
445C
102
{ACAD_REACTORS
330
30C8
102
}
330
30C8
100
AcDbCellStyleMap
 90
        3
300
CELLSTYLE
  1
TABLEFORMAT_BEGIN
 90
        5
170
     1
 91
        0
 92
    32768
 62
   257
 93
        1
300
CONTENTFORMAT
  1
CONTENTFORMAT_BEGIN
 90
        0
 91
        0
 92
      512
 93
        0
300

 40
0.0
140
1.0
 94
        5
 62
     0
340
16
144
0.25
309
CONTENTFORMAT_END
171
     1
301
MARGIN
  1
CELLMARGIN_BEGIN
 40
0.06
 40
0.06
 40
0.06
 40
0.06
 40
0.18
 40
0.18
309
CELLMARGIN_END
 94
        6
 95
        1
302
GRIDFORMAT
  1
GRIDFORMAT_BEGIN
 90
        0
 91
        1
 62
     0
 92
       -2
340
0
 93
        0
 40
0.045
309
GRIDFORMAT_END
 95
        2
302
GRIDFORMAT
  1
GRIDFORMAT_BEGIN
 90
        0
 91
        1
 62
     0
 92
       -2
340
0
 93
        0
 40
0.045
309
GRIDFORMAT_END
 95
        4
302
GRIDFORMAT
  1
GRIDFORMAT_BEGIN
 90
        0
 91
        1
 62
     0
 92
       -2
340
0
 93
        0
 40
0.045
309
GRIDFORMAT_END
 95
        8
302
GRIDFORMAT
  1
GRIDFORMAT_BEGIN
 90
        0
 91
        1
 62
     0
 92
       -2
340
0
 93
        0
 40
0.045
309
GRIDFORMAT_END
 95
       16
302
GRIDFORMAT
  1
GRIDFORMAT_BEGIN
 90
        0
 91
        1
 62
     0
 92
       -2
340
0
 93
        0
 40
0.045
309
GRIDFORMAT_END
 95
       32
302
GRIDFORMAT
  1
GRIDFORMAT_BEGIN
 90
        0
 91
        1
 62
     0
 92
       -2
340
0
 93
        0
 40
0.045
309
GRIDFORMAT_END
309
TABLEFORMAT_END
  1
CELLSTYLE_BEGIN
 90
        1
 91
        1
300
_TITLE
309
CELLSTYLE_END
300
CELLSTYLE
  1
TABLEFORMAT_BEGIN
 90
        5
170
     1
 91
        0
 92
        0
 62
   257
 93
        1
300
CONTENTFORMAT
  1
CONTENTFORMAT_BEGIN
 90
        0
 91
        0
 92
      512
 93
        0
300

 40
0.0
140
1.0
 94
        5
 62
     0
340
16
144
0.18
309
CONTENTFORMAT_END
171
     1
301
MARGIN
  1
CELLMARGIN_BEGIN
 40
0.06
 40
0.06
 40
0.06
 40
0.06
 40
0.18
 40
0.18
309
CELLMARGIN_END
 94
        6
 95
        1
302
GRIDFORMAT
  1
GRIDFORMAT_BEGIN
 90
        0
 91
        1
 62
     0
 92
       -2
340
0
 93
        0
 40
0.045
309
GRIDFORMAT_END
 95
        2
302
GRIDFORMAT
  1
GRIDFORMAT_BEGIN
 90
        0
 91
        1
 62
     0
 92
       -2
340
0
 93
        0
 40
0.045
309
GRIDFORMAT_END
 95
        4
302
GRIDFORMAT
  1
GRIDFORMAT_BEGIN
 90
        0
 91
        1
 62
     0
 92
       -2
340
0
 93
        0
 40
0.045
309
GRIDFORMAT_END
 95
        8
302
GRIDFORMAT
  1
GRIDFORMAT_BEGIN
 90
        0
 91
        1
 62
     0
 92
       -2
340
0
 93
        0
 40
0.045
309
GRIDFORMAT_END
 95
       16
302
GRIDFORMAT
  1
GRIDFORMAT_BEGIN
 90
        0
 91
        1
 62
     0
 92
       -2
340
0
 93
        0
 40
0.045
309
GRIDFORMAT_END
 95
       32
302
GRIDFORMAT
  1
GRIDFORMAT_BEGIN
 90
        0
 91
        1
 62
     0
 92
       -2
340
0
 93
        0
 40
0.045
309
GRIDFORMAT_END
309
TABLEFORMAT_END
  1
CELLSTYLE_BEGIN
 90
        2
 91
        1
300
_HEADER
309
CELLSTYLE_END
300
CELLSTYLE
  1
TABLEFORMAT_BEGIN
 90
        5
170
     1
 91
        0
 92
        0
 62
   257
 93
        1
300
CONTENTFORMAT
  1
CONTENTFORMAT_BEGIN
 90
        0
 91
        0
 92
      512
 93
        0
300

 40
0.0
140
1.0
 94
        2
 62
     0
340
16
144
0.18
309
CONTENTFORMAT_END
171
     1
301
MARGIN
  1
CELLMARGIN_BEGIN
 40
0.06
 40
0.06
 40
0.06
 40
0.06
 40
0.18
 40
0.18
309
CELLMARGIN_END
 94
        6
 95
        1
302
GRIDFORMAT
  1
GRIDFORMAT_BEGIN
 90
        0
 91
        1
 62
     0
 92
       -2
340
0
 93
        0
 40
0.045
309
GRIDFORMAT_END
 95
        2
302
GRIDFORMAT
  1
GRIDFORMAT_BEGIN
 90
        0
 91
        1
 62
     0
 92
       -2
340
0
 93
        0
 40
0.045
309
GRIDFORMAT_END
 95
        4
302
GRIDFORMAT
  1
GRIDFORMAT_BEGIN
 90
        0
 91
        1
 62
     0
 92
       -2
340
0
 93
        0
 40
0.045
309
GRIDFORMAT_END
 95
        8
302
GRIDFORMAT
  1
GRIDFORMAT_BEGIN
 90
        0
 91
        1
 62
     0
 92
       -2
340
0
 93
        0
 40
0.045
309
GRIDFORMAT_END
 95
       16
302
GRIDFORMAT
  1
GRIDFORMAT_BEGIN
 90
        0
 91
        1
 62
     0
 92
       -2
340
0
 93
        0
 40
0.045
309
GRIDFORMAT_END
 95
       32
302
GRIDFORMAT
  1
GRIDFORMAT_BEGIN
 90
        0
 91
        1
 62
     0
 92
       -2
340
0
 93
        0
 40
0.045
309
GRIDFORMAT_END
309
TABLEFORMAT_END
  1
CELLSTYLE_BEGIN
 90
        3
 91
        2
300
_DATA
309
CELLSTYLE_END
  0
XRECORD
  5
448A
102
{ACAD_REACTORS
330
30C8
102
}
330
30C8
100
AcDbXrecord
280
     1
102
ACAD_ROUNDTRIP_PRE2007_TABLESTYLE
 90
      512
 91
        0
  1

 92
      512
 93
        0
  2

 94
      512
 95
        0
  3

  0
XRECORD
  5
446F
102
{ACAD_REACTORS
330
446E
102
}
330
446E
100
AcDbXrecord
280
     1
102
RTVSPost2010Prop28
280
     1
102
RTVSPost2010PropOp28
 70
     1
102
RTVSPost2010Prop29
280
     1
102
RTVSPost2010PropOp29
 70
     1
102
RTVSPost2010Prop30
280
     0
102
RTVSPost2010PropOp30
 70
     1
102
RTVSPost2010Prop31
280
     0
102
RTVSPost2010PropOp31
 70
     1
102
RTVSPost2010Prop32
280
     0
102
RTVSPost2010PropOp32
 70
     1
102
RTVSPost2010Prop33
280
     0
102
RTVSPost2010PropOp33
 70
     1
102
RTVSPost2010Prop34
280
     0
102
RTVSPost2010PropOp34
 70
     1
102
RTVSPost2010Prop35
280
     0
102
RTVSPost2010PropOp35
 70
     1
102
RTVSPost2010Prop36
280
     0
102
RTVSPost2010PropOp36
 70
     1
102
RTVSPost2010Prop37
 90
       50
102
RTVSPost2010PropOp37
 70
     1
102
RTVSPost2010Prop38
140
0.0
102
RTVSPost2010PropOp38
 70
     1
102
RTVSPost2010Prop39
140
1.0
102
RTVSPost2010PropOp39
 70
     1
102
RTVSPost2010Prop40
 90
        0
102
RTVSPost2010PropOp40
 70
     1
102
RTVSPost2010Prop41ColorIndex
 90
       18
102
RTVSPost2010Prop41ColorRGB
 90
        0
102
RTVSPost2010PropOp41
 70
     1
102
RTVSPost2010Prop42
 90
       50
102
RTVSPost2010PropOp42
 70
     1
102
RTVSPost2010Prop43
 90
        3
102
RTVSPost2010PropOp43
 70
     1
102
RTVSPost2010Prop44ColorIndex
 90
        5
102
RTVSPost2010Prop44ColorRGB
 90
      255
102
RTVSPost2010PropOp44
 70
     1
102
RTVSPost2010Prop45
280
     0
102
RTVSPost2010PropOp45
 70
     1
102
RTVSPost2010Prop46
 90
       50
102
RTVSPost2010PropOp46
 70
     1
102
RTVSPost2010Prop47
 90
       50
102
RTVSPost2010PropOp47
 70
     1
102
RTVSPost2010Prop48
 90
       50
102
RTVSPost2010PropOp48
 70
     1
102
RTVSPost2010Prop49
280
     0
102
RTVSPost2010PropOp49
 70
     1
102
RTVSPost2010Prop50
 90
       50
102
RTVSPost2010PropOp50
 70
     1
102
RTVSPost2010Prop51ColorIndex
 90
      256
102
RTVSPost2010Prop51ColorRGB
 90
-16777216
102
RTVSPost2010PropOp51
 70
     0
102
RTVSPost2010Prop52
140
1.0
102
RTVSPost2010PropOp52
 70
     0
102
RTVSPost2010Prop53
 90
        2
102
RTVSPost2010PropOp53
 70
     1
102
RTVSPost2010Prop54
  1
strokes_ogs.tif
102
RTVSPost2010PropOp54
 70
     1
102
RTVSPost2010Prop55
280
     0
102
RTVSPost2010PropOp55
 70
     1
102
RTVSPost2010Prop56
140
1.0
102
RTVSPost2010PropOp56
 70
     1
102
RTVSPost2010Prop57
140
1.0
102
RTVSPost2010PropOp57
 70
     1
102
RTVSPropertyOp0
 70
     1
102
RTVSPropertyOp1
 70
     1
102
RTVSPropertyOp2
 70
     1
102
RTVSPropertyOp3
 70
     1
102
RTVSPropertyOp4
 70
     1
102
RTVSPropertyOp5
 70
     1
102
RTVSPropertyOp6
 70
     1
102
RTVSPropertyOp7
 70
     1
102
RTVSPropertyOp8
 70
     1
102
RTVSPropertyOp9
 70
     1
102
RTVSPropertyOp10
 70
     1
102
RTVSPropertyOp11
 70
     1
102
RTVSPropertyOp12
 70
     1
102
RTVSPropertyOp13
 70
     1
102
RTVSPropertyOp14
 70
     1
102
RTVSPropertyOp15
 70
     1
102
RTVSPropertyOp16
 70
     1
102
RTVSPropertyOp17
 70
     1
102
RTVSPropertyOp18
 70
     1
102
RTVSPropertyOp19
 70
     1
102
RTVSPropertyOp20
 70
     1
102
RTVSPropertyOp21
 70
     1
102
RTVSPropertyOp22
 70
     1
102
RTVSPropertyOp23
 70
     1
102
RTVSPropertyOp24
 70
     1
102
RTVSPropertyOp25
 70
     1
102
RTVSPropertyOp26
 70
     1
102
RTVSPropertyOp27
 70
     1
102
RTVSPropertyOp28
 70
     1
102
RTVSPropertyOp29
 70
     1
102
RTVSPropertyOp30
 70
     1
102
RTVSPropertyOp31
 70
     1
102
RTVSPropertyOp32
 70
     1
102
RTVSPropertyOp33
 70
     1
102
RTVSPropertyOp34
 70
     1
102
RTVSPropertyOp35
 70
     1
102
RTVSPropertyOp36
 70
     1
102
RTVSPropertyOp37
 70
     1
102
RTVSPropertyOp38
 70
     1
102
RTVSPropertyOp39
 70
     1
102
RTVSPropertyOp40
 70
     1
102
RTVSPropertyOp41
 70
     1
102
RTVSPropertyOp42
 70
     1
102
RTVSPropertyOp43
 70
     1
102
RTVSPropertyOp44
 70
     1
102
RTVSPropertyOp45
 70
     1
102
RTVSPropertyOp46
 70
     1
102
RTVSPropertyOp47
 70
     1
102
RTVSPropertyOp48
 70
     1
102
RTVSPropertyOp49
 70
     1
102
RTVSPropertyOp50
 70
     1
102
RTVSPropertyOp51
 70
     0
102
RTVSPropertyOp52
 70
     0
102
RTVSPropertyOp53
 70
     1
102
RTVSPropertyOp54
 70
     1
102
RTVSPropertyOp55
 70
     1
102
RTVSPropertyOp56
 70
     1
102
RTVSPropertyOp57
 70
     1
102
RTVSPropertyOp58
 70
     1
102
RTVSPropertyOp59
 70
     1
102
RTVSPropertyOp60
 70
     1
102
RTVSPropertyOp61
 70
     1
102
RTVSPropertyOp62
 70
     1
  0
XRECORD
  5
4473
102
{ACAD_REACTORS
330
4472
102
}
330
4472
100
AcDbXrecord
280
     1
102
RTVSPost2010Prop28
280
     0
102
RTVSPost2010PropOp28
 70
     1
102
RTVSPost2010Prop29
280
     1
102
RTVSPost2010PropOp29
 70
     1
102
RTVSPost2010Prop30
280
     1
102
RTVSPost2010PropOp30
 70
     1
102
RTVSPost2010Prop31
280
     0
102
RTVSPost2010PropOp31
 70
     1
102
RTVSPost2010Prop32
280
     0
102
RTVSPost2010PropOp32
 70
     1
102
RTVSPost2010Prop33
280
     0
102
RTVSPost2010PropOp33
 70
     1
102
RTVSPost2010Prop34
280
     0
102
RTVSPost2010PropOp34
 70
     1
102
RTVSPost2010Prop35
280
     0
102
RTVSPost2010PropOp35
 70
     1
102
RTVSPost2010Prop36
280
     0
102
RTVSPost2010PropOp36
 70
     1
102
RTVSPost2010Prop37
 90
       50
102
RTVSPost2010PropOp37
 70
     1
102
RTVSPost2010Prop38
140
0.0
102
RTVSPost2010PropOp38
 70
     1
102
RTVSPost2010Prop39
140
1.0
102
RTVSPost2010PropOp39
 70
     1
102
RTVSPost2010Prop40
 90
        0
102
RTVSPost2010PropOp40
 70
     1
102
RTVSPost2010Prop41ColorIndex
 90
       18
102
RTVSPost2010Prop41ColorRGB
 90
        0
102
RTVSPost2010PropOp41
 70
     1
102
RTVSPost2010Prop42
 90
       50
102
RTVSPost2010PropOp42
 70
     1
102
RTVSPost2010Prop43
 90
        3
102
RTVSPost2010PropOp43
 70
     1
102
RTVSPost2010Prop44ColorIndex
 90
        5
102
RTVSPost2010Prop44ColorRGB
 90
      255
102
RTVSPost2010PropOp44
 70
     1
102
RTVSPost2010Prop45
280
     0
102
RTVSPost2010PropOp45
 70
     1
102
RTVSPost2010Prop46
 90
       50
102
RTVSPost2010PropOp46
 70
     1
102
RTVSPost2010Prop47
 90
       50
102
RTVSPost2010PropOp47
 70
     1
102
RTVSPost2010Prop48
 90
       50
102
RTVSPost2010PropOp48
 70
     1
102
RTVSPost2010Prop49
280
     0
102
RTVSPost2010PropOp49
 70
     1
102
RTVSPost2010Prop50
 90
       50
102
RTVSPost2010PropOp50
 70
     1
102
RTVSPost2010Prop51ColorIndex
 90
      256
102
RTVSPost2010Prop51ColorRGB
 90
-16777216
102
RTVSPost2010PropOp51
 70
     0
102
RTVSPost2010Prop52
140
1.0
102
RTVSPost2010PropOp52
 70
     0
102
RTVSPost2010Prop53
 90
        2
102
RTVSPost2010PropOp53
 70
     1
102
RTVSPost2010Prop54
  1
strokes_ogs.tif
102
RTVSPost2010PropOp54
 70
     1
102
RTVSPost2010Prop55
280
     0
102
RTVSPost2010PropOp55
 70
     1
102
RTVSPost2010Prop56
140
1.0
102
RTVSPost2010PropOp56
 70
     1
102
RTVSPost2010Prop57
140
1.0
102
RTVSPost2010PropOp57
 70
     1
102
RTVSPropertyOp0
 70
     1
102
RTVSPropertyOp1
 70
     1
102
RTVSPropertyOp2
 70
     1
102
RTVSPropertyOp3
 70
     1
102
RTVSPropertyOp4
 70
     1
102
RTVSPropertyOp5
 70
     1
102
RTVSPropertyOp6
 70
     1
102
RTVSPropertyOp7
 70
     1
102
RTVSPropertyOp8
 70
     1
102
RTVSPropertyOp9
 70
     1
102
RTVSPropertyOp10
 70
     1
102
RTVSPropertyOp11
 70
     1
102
RTVSPropertyOp12
 70
     1
102
RTVSPropertyOp13
 70
     1
102
RTVSPropertyOp14
 70
     1
102
RTVSPropertyOp15
 70
     1
102
RTVSPropertyOp16
 70
     1
102
RTVSPropertyOp17
 70
     1
102
RTVSPropertyOp18
 70
     1
102
RTVSPropertyOp19
 70
     1
102
RTVSPropertyOp20
 70
     1
102
RTVSPropertyOp21
 70
     1
102
RTVSPropertyOp22
 70
     1
102
RTVSPropertyOp23
 70
     1
102
RTVSPropertyOp24
 70
     1
102
RTVSPropertyOp25
 70
     1
102
RTVSPropertyOp26
 70
     1
102
RTVSPropertyOp27
 70
     1
102
RTVSPropertyOp28
 70
     1
102
RTVSPropertyOp29
 70
     1
102
RTVSPropertyOp30
 70
     1
102
RTVSPropertyOp31
 70
     1
102
RTVSPropertyOp32
 70
     1
102
RTVSPropertyOp33
 70
     1
102
RTVSPropertyOp34
 70
     1
102
RTVSPropertyOp35
 70
     1
102
RTVSPropertyOp36
 70
     1
102
RTVSPropertyOp37
 70
     1
102
RTVSPropertyOp38
 70
     1
102
RTVSPropertyOp39
 70
     1
102
RTVSPropertyOp40
 70
     1
102
RTVSPropertyOp41
 70
     1
102
RTVSPropertyOp42
 70
     1
102
RTVSPropertyOp43
 70
     1
102
RTVSPropertyOp44
 70
     1
102
RTVSPropertyOp45
 70
     1
102
RTVSPropertyOp46
 70
     1
102
RTVSPropertyOp47
 70
     1
102
RTVSPropertyOp48
 70
     1
102
RTVSPropertyOp49
 70
     1
102
RTVSPropertyOp50
 70
     1
102
RTVSPropertyOp51
 70
     0
102
RTVSPropertyOp52
 70
     0
102
RTVSPropertyOp53
 70
     1
102
RTVSPropertyOp54
 70
     1
102
RTVSPropertyOp55
 70
     1
102
RTVSPropertyOp56
 70
     1
102
RTVSPropertyOp57
 70
     1
102
RTVSPropertyOp58
 70
     1
102
RTVSPropertyOp59
 70
     1
102
RTVSPropertyOp60
 70
     1
102
RTVSPropertyOp61
 70
     1
102
RTVSPropertyOp62
 70
     1
  0
XRECORD
  5
4471
102
{ACAD_REACTORS
330
4470
102
}
330
4470
100
AcDbXrecord
280
     1
102
RTVSPost2010Prop28
280
     0
102
RTVSPost2010PropOp28
 70
     1
102
RTVSPost2010Prop29
280
     1
102
RTVSPost2010PropOp29
 70
     1
102
RTVSPost2010Prop30
280
     1
102
RTVSPost2010PropOp30
 70
     1
102
RTVSPost2010Prop31
280
     0
102
RTVSPost2010PropOp31
 70
     1
102
RTVSPost2010Prop32
280
     0
102
RTVSPost2010PropOp32
 70
     1
102
RTVSPost2010Prop33
280
     0
102
RTVSPost2010PropOp33
 70
     1
102
RTVSPost2010Prop34
280
     0
102
RTVSPost2010PropOp34
 70
     1
102
RTVSPost2010Prop35
280
     0
102
RTVSPost2010PropOp35
 70
     1
102
RTVSPost2010Prop36
280
     0
102
RTVSPost2010PropOp36
 70
     1
102
RTVSPost2010Prop37
 90
       50
102
RTVSPost2010PropOp37
 70
     1
102
RTVSPost2010Prop38
140
0.0
102
RTVSPost2010PropOp38
 70
     1
102
RTVSPost2010Prop39
140
1.0
102
RTVSPost2010PropOp39
 70
     1
102
RTVSPost2010Prop40
 90
        0
102
RTVSPost2010PropOp40
 70
     1
102
RTVSPost2010Prop41ColorIndex
 90
       18
102
RTVSPost2010Prop41ColorRGB
 90
        0
102
RTVSPost2010PropOp41
 70
     1
102
RTVSPost2010Prop42
 90
       50
102
RTVSPost2010PropOp42
 70
     1
102
RTVSPost2010Prop43
 90
        3
102
RTVSPost2010PropOp43
 70
     1
102
RTVSPost2010Prop44ColorIndex
 90
        5
102
RTVSPost2010Prop44ColorRGB
 90
      255
102
RTVSPost2010PropOp44
 70
     1
102
RTVSPost2010Prop45
280
     0
102
RTVSPost2010PropOp45
 70
     1
102
RTVSPost2010Prop46
 90
       50
102
RTVSPost2010PropOp46
 70
     1
102
RTVSPost2010Prop47
 90
       50
102
RTVSPost2010PropOp47
 70
     1
102
RTVSPost2010Prop48
 90
       50
102
RTVSPost2010PropOp48
 70
     1
102
RTVSPost2010Prop49
280
     0
102
RTVSPost2010PropOp49
 70
     1
102
RTVSPost2010Prop50
 90
       50
102
RTVSPost2010PropOp50
 70
     1
102
RTVSPost2010Prop51ColorIndex
 90
      256
102
RTVSPost2010Prop51ColorRGB
 90
-16777216
102
RTVSPost2010PropOp51
 70
     0
102
RTVSPost2010Prop52
140
1.0
102
RTVSPost2010PropOp52
 70
     0
102
RTVSPost2010Prop53
 90
        2
102
RTVSPost2010PropOp53
 70
     1
102
RTVSPost2010Prop54
  1
strokes_ogs.tif
102
RTVSPost2010PropOp54
 70
     1
102
RTVSPost2010Prop55
280
     0
102
RTVSPost2010PropOp55
 70
     1
102
RTVSPost2010Prop56
140
1.0
102
RTVSPost2010PropOp56
 70
     1
102
RTVSPost2010Prop57
140
1.0
102
RTVSPost2010PropOp57
 70
     1
102
RTVSPropertyOp0
 70
     1
102
RTVSPropertyOp1
 70
     1
102
RTVSPropertyOp2
 70
     1
102
RTVSPropertyOp3
 70
     1
102
RTVSPropertyOp4
 70
     1
102
RTVSPropertyOp5
 70
     1
102
RTVSPropertyOp6
 70
     1
102
RTVSPropertyOp7
 70
     1
102
RTVSPropertyOp8
 70
     1
102
RTVSPropertyOp9
 70
     1
102
RTVSPropertyOp10
 70
     1
102
RTVSPropertyOp11
 70
     1
102
RTVSPropertyOp12
 70
     1
102
RTVSPropertyOp13
 70
     1
102
RTVSPropertyOp14
 70
     1
102
RTVSPropertyOp15
 70
     1
102
RTVSPropertyOp16
 70
     1
102
RTVSPropertyOp17
 70
     1
102
RTVSPropertyOp18
 70
     1
102
RTVSPropertyOp19
 70
     1
102
RTVSPropertyOp20
 70
     1
102
RTVSPropertyOp21
 70
     1
102
RTVSPropertyOp22
 70
     1
102
RTVSPropertyOp23
 70
     1
102
RTVSPropertyOp24
 70
     1
102
RTVSPropertyOp25
 70
     1
102
RTVSPropertyOp26
 70
     1
102
RTVSPropertyOp27
 70
     1
102
RTVSPropertyOp28
 70
     1
102
RTVSPropertyOp29
 70
     1
102
RTVSPropertyOp30
 70
     1
102
RTVSPropertyOp31
 70
     1
102
RTVSPropertyOp32
 70
     1
102
RTVSPropertyOp33
 70
     1
102
RTVSPropertyOp34
 70
     1
102
RTVSPropertyOp35
 70
     1
102
RTVSPropertyOp36
 70
     1
102
RTVSPropertyOp37
 70
     1
102
RTVSPropertyOp38
 70
     1
102
RTVSPropertyOp39
 70
     1
102
RTVSPropertyOp40
 70
     1
102
RTVSPropertyOp41
 70
     1
102
RTVSPropertyOp42
 70
     1
102
RTVSPropertyOp43
 70
     1
102
RTVSPropertyOp44
 70
     1
102
RTVSPropertyOp45
 70
     1
102
RTVSPropertyOp46
 70
     1
102
RTVSPropertyOp47
 70
     1
102
RTVSPropertyOp48
 70
     1
102
RTVSPropertyOp49
 70
     1
102
RTVSPropertyOp50
 70
     1
102
RTVSPropertyOp51
 70
     0
102
RTVSPropertyOp52
 70
     0
102
RTVSPropertyOp53
 70
     1
102
RTVSPropertyOp54
 70
     1
102
RTVSPropertyOp55
 70
     1
102
RTVSPropertyOp56
 70
     1
102
RTVSPropertyOp57
 70
     1
102
RTVSPropertyOp58
 70
     1
102
RTVSPropertyOp59
 70
     1
102
RTVSPropertyOp60
 70
     1
102
RTVSPropertyOp61
 70
     1
102
RTVSPropertyOp62
 70
     1
  0
XRECORD
  5
446D
102
{ACAD_REACTORS
330
446C
102
}
330
446C
100
AcDbXrecord
280
     1
102
RTVSPost2010Prop28
280
     0
102
RTVSPost2010PropOp28
 70
     1
102
RTVSPost2010Prop29
280
     1
102
RTVSPost2010PropOp29
 70
     1
102
RTVSPost2010Prop30
280
     1
102
RTVSPost2010PropOp30
 70
     1
102
RTVSPost2010Prop31
280
     0
102
RTVSPost2010PropOp31
 70
     1
102
RTVSPost2010Prop32
280
     0
102
RTVSPost2010PropOp32
 70
     1
102
RTVSPost2010Prop33
280
     0
102
RTVSPost2010PropOp33
 70
     1
102
RTVSPost2010Prop34
280
     0
102
RTVSPost2010PropOp34
 70
     1
102
RTVSPost2010Prop35
280
     0
102
RTVSPost2010PropOp35
 70
     1
102
RTVSPost2010Prop36
280
     0
102
RTVSPost2010PropOp36
 70
     1
102
RTVSPost2010Prop37
 90
       50
102
RTVSPost2010PropOp37
 70
     1
102
RTVSPost2010Prop38
140
0.0
102
RTVSPost2010PropOp38
 70
     1
102
RTVSPost2010Prop39
140
1.0
102
RTVSPost2010PropOp39
 70
     1
102
RTVSPost2010Prop40
 90
        0
102
RTVSPost2010PropOp40
 70
     1
102
RTVSPost2010Prop41ColorIndex
 90
       18
102
RTVSPost2010Prop41ColorRGB
 90
        0
102
RTVSPost2010PropOp41
 70
     1
102
RTVSPost2010Prop42
 90
       50
102
RTVSPost2010PropOp42
 70
     1
102
RTVSPost2010Prop43
 90
        3
102
RTVSPost2010PropOp43
 70
     1
102
RTVSPost2010Prop44ColorIndex
 90
        5
102
RTVSPost2010Prop44ColorRGB
 90
      255
102
RTVSPost2010PropOp44
 70
     1
102
RTVSPost2010Prop45
280
     0
102
RTVSPost2010PropOp45
 70
     1
102
RTVSPost2010Prop46
 90
       50
102
RTVSPost2010PropOp46
 70
     1
102
RTVSPost2010Prop47
 90
       50
102
RTVSPost2010PropOp47
 70
     1
102
RTVSPost2010Prop48
 90
       50
102
RTVSPost2010PropOp48
 70
     1
102
RTVSPost2010Prop49
280
     0
102
RTVSPost2010PropOp49
 70
     1
102
RTVSPost2010Prop50
 90
       50
102
RTVSPost2010PropOp50
 70
     1
102
RTVSPost2010Prop51ColorIndex
 90
      256
102
RTVSPost2010Prop51ColorRGB
 90
-16777216
102
RTVSPost2010PropOp51
 70
     0
102
RTVSPost2010Prop52
140
1.0
102
RTVSPost2010PropOp52
 70
     0
102
RTVSPost2010Prop53
 90
        2
102
RTVSPost2010PropOp53
 70
     1
102
RTVSPost2010Prop54
  1
strokes_ogs.tif
102
RTVSPost2010PropOp54
 70
     1
102
RTVSPost2010Prop55
280
     0
102
RTVSPost2010PropOp55
 70
     1
102
RTVSPost2010Prop56
140
1.0
102
RTVSPost2010PropOp56
 70
     1
102
RTVSPost2010Prop57
140
1.0
102
RTVSPost2010PropOp57
 70
     1
102
RTVSPropertyOp0
 70
     1
102
RTVSPropertyOp1
 70
     1
102
RTVSPropertyOp2
 70
     1
102
RTVSPropertyOp3
 70
     1
102
RTVSPropertyOp4
 70
     1
102
RTVSPropertyOp5
 70
     1
102
RTVSPropertyOp6
 70
     1
102
RTVSPropertyOp7
 70
     1
102
RTVSPropertyOp8
 70
     1
102
RTVSPropertyOp9
 70
     1
102
RTVSPropertyOp10
 70
     1
102
RTVSPropertyOp11
 70
     1
102
RTVSPropertyOp12
 70
     1
102
RTVSPropertyOp13
 70
     1
102
RTVSPropertyOp14
 70
     1
102
RTVSPropertyOp15
 70
     1
102
RTVSPropertyOp16
 70
     1
102
RTVSPropertyOp17
 70
     1
102
RTVSPropertyOp18
 70
     1
102
RTVSPropertyOp19
 70
     1
102
RTVSPropertyOp20
 70
     1
102
RTVSPropertyOp21
 70
     1
102
RTVSPropertyOp22
 70
     1
102
RTVSPropertyOp23
 70
     1
102
RTVSPropertyOp24
 70
     1
102
RTVSPropertyOp25
 70
     1
102
RTVSPropertyOp26
 70
     1
102
RTVSPropertyOp27
 70
     1
102
RTVSPropertyOp28
 70
     1
102
RTVSPropertyOp29
 70
     1
102
RTVSPropertyOp30
 70
     1
102
RTVSPropertyOp31
 70
     1
102
RTVSPropertyOp32
 70
     1
102
RTVSPropertyOp33
 70
     1
102
RTVSPropertyOp34
 70
     1
102
RTVSPropertyOp35
 70
     1
102
RTVSPropertyOp36
 70
     1
102
RTVSPropertyOp37
 70
     1
102
RTVSPropertyOp38
 70
     1
102
RTVSPropertyOp39
 70
     1
102
RTVSPropertyOp40
 70
     1
102
RTVSPropertyOp41
 70
     1
102
RTVSPropertyOp42
 70
     1
102
RTVSPropertyOp43
 70
     1
102
RTVSPropertyOp44
 70
     1
102
RTVSPropertyOp45
 70
     1
102
RTVSPropertyOp46
 70
     1
102
RTVSPropertyOp47
 70
     1
102
RTVSPropertyOp48
 70
     1
102
RTVSPropertyOp49
 70
     1
102
RTVSPropertyOp50
 70
     1
102
RTVSPropertyOp51
 70
     0
102
RTVSPropertyOp52
 70
     0
102
RTVSPropertyOp53
 70
     1
102
RTVSPropertyOp54
 70
     1
102
RTVSPropertyOp55
 70
     1
102
RTVSPropertyOp56
 70
     1
102
RTVSPropertyOp57
 70
     1
102
RTVSPropertyOp58
 70
     1
102
RTVSPropertyOp59
 70
     1
102
RTVSPropertyOp60
 70
     1
102
RTVSPropertyOp61
 70
     1
102
RTVSPropertyOp62
 70
     1
  0
XRECORD
  5
447B
102
{ACAD_REACTORS
330
447A
102
}
330
447A
100
AcDbXrecord
280
     1
102
RTVSPost2010Prop28
280
     0
102
RTVSPost2010PropOp28
 70
     1
102
RTVSPost2010Prop29
280
     1
102
RTVSPost2010PropOp29
 70
     1
102
RTVSPost2010Prop30
280
     1
102
RTVSPost2010PropOp30
 70
     1
102
RTVSPost2010Prop31
280
     0
102
RTVSPost2010PropOp31
 70
     1
102
RTVSPost2010Prop32
280
     0
102
RTVSPost2010PropOp32
 70
     1
102
RTVSPost2010Prop33
280
     0
102
RTVSPost2010PropOp33
 70
     1
102
RTVSPost2010Prop34
280
     0
102
RTVSPost2010PropOp34
 70
     1
102
RTVSPost2010Prop35
280
     0
102
RTVSPost2010PropOp35
 70
     1
102
RTVSPost2010Prop36
280
     0
102
RTVSPost2010PropOp36
 70
     1
102
RTVSPost2010Prop37
 90
       50
102
RTVSPost2010PropOp37
 70
     1
102
RTVSPost2010Prop38
140
0.0
102
RTVSPost2010PropOp38
 70
     1
102
RTVSPost2010Prop39
140
1.0
102
RTVSPost2010PropOp39
 70
     1
102
RTVSPost2010Prop40
 90
        0
102
RTVSPost2010PropOp40
 70
     1
102
RTVSPost2010Prop41ColorIndex
 90
       18
102
RTVSPost2010Prop41ColorRGB
 90
        0
102
RTVSPost2010PropOp41
 70
     1
102
RTVSPost2010Prop42
 90
       50
102
RTVSPost2010PropOp42
 70
     1
102
RTVSPost2010Prop43
 90
        3
102
RTVSPost2010PropOp43
 70
     1
102
RTVSPost2010Prop44ColorIndex
 90
        5
102
RTVSPost2010Prop44ColorRGB
 90
      255
102
RTVSPost2010PropOp44
 70
     1
102
RTVSPost2010Prop45
280
     0
102
RTVSPost2010PropOp45
 70
     1
102
RTVSPost2010Prop46
 90
       50
102
RTVSPost2010PropOp46
 70
     1
102
RTVSPost2010Prop47
 90
       50
102
RTVSPost2010PropOp47
 70
     1
102
RTVSPost2010Prop48
 90
       50
102
RTVSPost2010PropOp48
 70
     1
102
RTVSPost2010Prop49
280
     0
102
RTVSPost2010PropOp49
 70
     1
102
RTVSPost2010Prop50
 90
       50
102
RTVSPost2010PropOp50
 70
     1
102
RTVSPost2010Prop51ColorIndex
 90
      256
102
RTVSPost2010Prop51ColorRGB
 90
-16777216
102
RTVSPost2010PropOp51
 70
     0
102
RTVSPost2010Prop52
140
1.0
102
RTVSPost2010PropOp52
 70
     0
102
RTVSPost2010Prop53
 90
        2
102
RTVSPost2010PropOp53
 70
     1
102
RTVSPost2010Prop54
  1
strokes_ogs.tif
102
RTVSPost2010PropOp54
 70
     1
102
RTVSPost2010Prop55
280
     0
102
RTVSPost2010PropOp55
 70
     1
102
RTVSPost2010Prop56
140
1.0
102
RTVSPost2010PropOp56
 70
     1
102
RTVSPost2010Prop57
140
1.0
102
RTVSPost2010PropOp57
 70
     1
102
RTVSPropertyOp0
 70
     1
102
RTVSPropertyOp1
 70
     1
102
RTVSPropertyOp2
 70
     1
102
RTVSPropertyOp3
 70
     1
102
RTVSPropertyOp4
 70
     1
102
RTVSPropertyOp5
 70
     1
102
RTVSPropertyOp6
 70
     1
102
RTVSPropertyOp7
 70
     1
102
RTVSPropertyOp8
 70
     1
102
RTVSPropertyOp9
 70
     1
102
RTVSPropertyOp10
 70
     1
102
RTVSPropertyOp11
 70
     1
102
RTVSPropertyOp12
 70
     1
102
RTVSPropertyOp13
 70
     1
102
RTVSPropertyOp14
 70
     1
102
RTVSPropertyOp15
 70
     1
102
RTVSPropertyOp16
 70
     1
102
RTVSPropertyOp17
 70
     1
102
RTVSPropertyOp18
 70
     1
102
RTVSPropertyOp19
 70
     1
102
RTVSPropertyOp20
 70
     1
102
RTVSPropertyOp21
 70
     1
102
RTVSPropertyOp22
 70
     1
102
RTVSPropertyOp23
 70
     1
102
RTVSPropertyOp24
 70
     1
102
RTVSPropertyOp25
 70
     1
102
RTVSPropertyOp26
 70
     1
102
RTVSPropertyOp27
 70
     1
102
RTVSPropertyOp28
 70
     1
102
RTVSPropertyOp29
 70
     1
102
RTVSPropertyOp30
 70
     1
102
RTVSPropertyOp31
 70
     1
102
RTVSPropertyOp32
 70
     1
102
RTVSPropertyOp33
 70
     1
102
RTVSPropertyOp34
 70
     1
102
RTVSPropertyOp35
 70
     1
102
RTVSPropertyOp36
 70
     1
102
RTVSPropertyOp37
 70
     1
102
RTVSPropertyOp38
 70
     1
102
RTVSPropertyOp39
 70
     1
102
RTVSPropertyOp40
 70
     1
102
RTVSPropertyOp41
 70
     1
102
RTVSPropertyOp42
 70
     1
102
RTVSPropertyOp43
 70
     1
102
RTVSPropertyOp44
 70
     1
102
RTVSPropertyOp45
 70
     1
102
RTVSPropertyOp46
 70
     1
102
RTVSPropertyOp47
 70
     1
102
RTVSPropertyOp48
 70
     1
102
RTVSPropertyOp49
 70
     1
102
RTVSPropertyOp50
 70
     1
102
RTVSPropertyOp51
 70
     0
102
RTVSPropertyOp52
 70
     0
102
RTVSPropertyOp53
 70
     1
102
RTVSPropertyOp54
 70
     1
102
RTVSPropertyOp55
 70
     1
102
RTVSPropertyOp56
 70
     1
102
RTVSPropertyOp57
 70
     1
102
RTVSPropertyOp58
 70
     1
102
RTVSPropertyOp59
 70
     1
102
RTVSPropertyOp60
 70
     1
102
RTVSPropertyOp61
 70
     1
102
RTVSPropertyOp62
 70
     1
  0
XRECORD
  5
4483
102
{ACAD_REACTORS
330
4482
102
}
330
4482
100
AcDbXrecord
280
     1
102
RTVSPost2010Prop28
280
     0
102
RTVSPost2010PropOp28
 70
     1
102
RTVSPost2010Prop29
280
     1
102
RTVSPost2010PropOp29
 70
     1
102
RTVSPost2010Prop30
280
     1
102
RTVSPost2010PropOp30
 70
     1
102
RTVSPost2010Prop31
280
     0
102
RTVSPost2010PropOp31
 70
     1
102
RTVSPost2010Prop32
280
     0
102
RTVSPost2010PropOp32
 70
     1
102
RTVSPost2010Prop33
280
     0
102
RTVSPost2010PropOp33
 70
     1
102
RTVSPost2010Prop34
280
     0
102
RTVSPost2010PropOp34
 70
     1
102
RTVSPost2010Prop35
280
     0
102
RTVSPost2010PropOp35
 70
     1
102
RTVSPost2010Prop36
280
     0
102
RTVSPost2010PropOp36
 70
     1
102
RTVSPost2010Prop37
 90
       50
102
RTVSPost2010PropOp37
 70
     1
102
RTVSPost2010Prop38
140
0.0
102
RTVSPost2010PropOp38
 70
     1
102
RTVSPost2010Prop39
140
1.0
102
RTVSPost2010PropOp39
 70
     1
102
RTVSPost2010Prop40
 90
        0
102
RTVSPost2010PropOp40
 70
     1
102
RTVSPost2010Prop41ColorIndex
 90
       18
102
RTVSPost2010Prop41ColorRGB
 90
        0
102
RTVSPost2010PropOp41
 70
     1
102
RTVSPost2010Prop42
 90
       50
102
RTVSPost2010PropOp42
 70
     1
102
RTVSPost2010Prop43
 90
        3
102
RTVSPost2010PropOp43
 70
     1
102
RTVSPost2010Prop44ColorIndex
 90
        5
102
RTVSPost2010Prop44ColorRGB
 90
      255
102
RTVSPost2010PropOp44
 70
     1
102
RTVSPost2010Prop45
280
     0
102
RTVSPost2010PropOp45
 70
     1
102
RTVSPost2010Prop46
 90
       50
102
RTVSPost2010PropOp46
 70
     1
102
RTVSPost2010Prop47
 90
       50
102
RTVSPost2010PropOp47
 70
     1
102
RTVSPost2010Prop48
 90
       50
102
RTVSPost2010PropOp48
 70
     1
102
RTVSPost2010Prop49
280
     0
102
RTVSPost2010PropOp49
 70
     1
102
RTVSPost2010Prop50
 90
       50
102
RTVSPost2010PropOp50
 70
     1
102
RTVSPost2010Prop51ColorIndex
 90
      256
102
RTVSPost2010Prop51ColorRGB
 90
-16777216
102
RTVSPost2010PropOp51
 70
     0
102
RTVSPost2010Prop52
140
1.0
102
RTVSPost2010PropOp52
 70
     0
102
RTVSPost2010Prop53
 90
        2
102
RTVSPost2010PropOp53
 70
     1
102
RTVSPost2010Prop54
  1
strokes_ogs.tif
102
RTVSPost2010PropOp54
 70
     1
102
RTVSPost2010Prop55
280
     0
102
RTVSPost2010PropOp55
 70
     1
102
RTVSPost2010Prop56
140
1.0
102
RTVSPost2010PropOp56
 70
     1
102
RTVSPost2010Prop57
140
1.0
102
RTVSPost2010PropOp57
 70
     1
102
RTVSPropertyOp0
 70
     1
102
RTVSPropertyOp1
 70
     1
102
RTVSPropertyOp2
 70
     1
102
RTVSPropertyOp3
 70
     1
102
RTVSPropertyOp4
 70
     1
102
RTVSPropertyOp5
 70
     1
102
RTVSPropertyOp6
 70
     1
102
RTVSPropertyOp7
 70
     1
102
RTVSPropertyOp8
 70
     1
102
RTVSPropertyOp9
 70
     1
102
RTVSPropertyOp10
 70
     1
102
RTVSPropertyOp11
 70
     1
102
RTVSPropertyOp12
 70
     1
102
RTVSPropertyOp13
 70
     1
102
RTVSPropertyOp14
 70
     1
102
RTVSPropertyOp15
 70
     1
102
RTVSPropertyOp16
 70
     1
102
RTVSPropertyOp17
 70
     1
102
RTVSPropertyOp18
 70
     1
102
RTVSPropertyOp19
 70
     1
102
RTVSPropertyOp20
 70
     1
102
RTVSPropertyOp21
 70
     1
102
RTVSPropertyOp22
 70
     1
102
RTVSPropertyOp23
 70
     1
102
RTVSPropertyOp24
 70
     1
102
RTVSPropertyOp25
 70
     1
102
RTVSPropertyOp26
 70
     1
102
RTVSPropertyOp27
 70
     1
102
RTVSPropertyOp28
 70
     1
102
RTVSPropertyOp29
 70
     1
102
RTVSPropertyOp30
 70
     1
102
RTVSPropertyOp31
 70
     1
102
RTVSPropertyOp32
 70
     1
102
RTVSPropertyOp33
 70
     1
102
RTVSPropertyOp34
 70
     1
102
RTVSPropertyOp35
 70
     1
102
RTVSPropertyOp36
 70
     1
102
RTVSPropertyOp37
 70
     1
102
RTVSPropertyOp38
 70
     1
102
RTVSPropertyOp39
 70
     1
102
RTVSPropertyOp40
 70
     1
102
RTVSPropertyOp41
 70
     1
102
RTVSPropertyOp42
 70
     1
102
RTVSPropertyOp43
 70
     1
102
RTVSPropertyOp44
 70
     1
102
RTVSPropertyOp45
 70
     1
102
RTVSPropertyOp46
 70
     1
102
RTVSPropertyOp47
 70
     1
102
RTVSPropertyOp48
 70
     1
102
RTVSPropertyOp49
 70
     1
102
RTVSPropertyOp50
 70
     1
102
RTVSPropertyOp51
 70
     0
102
RTVSPropertyOp52
 70
     0
102
RTVSPropertyOp53
 70
     1
102
RTVSPropertyOp54
 70
     1
102
RTVSPropertyOp55
 70
     1
102
RTVSPropertyOp56
 70
     1
102
RTVSPropertyOp57
 70
     1
102
RTVSPropertyOp58
 70
     1
102
RTVSPropertyOp59
 70
     1
102
RTVSPropertyOp60
 70
     1
102
RTVSPropertyOp61
 70
     1
102
RTVSPropertyOp62
 70
     1
  0
XRECORD
  5
4475
102
{ACAD_REACTORS
330
4474
102
}
330
4474
100
AcDbXrecord
280
     1
102
RTVSPost2010Prop28
280
     0
102
RTVSPost2010PropOp28
 70
     1
102
RTVSPost2010Prop29
280
     1
102
RTVSPost2010PropOp29
 70
     1
102
RTVSPost2010Prop30
280
     1
102
RTVSPost2010PropOp30
 70
     1
102
RTVSPost2010Prop31
280
     0
102
RTVSPost2010PropOp31
 70
     1
102
RTVSPost2010Prop32
280
     0
102
RTVSPost2010PropOp32
 70
     1
102
RTVSPost2010Prop33
280
     0
102
RTVSPost2010PropOp33
 70
     1
102
RTVSPost2010Prop34
280
     0
102
RTVSPost2010PropOp34
 70
     1
102
RTVSPost2010Prop35
280
     0
102
RTVSPost2010PropOp35
 70
     1
102
RTVSPost2010Prop36
280
     0
102
RTVSPost2010PropOp36
 70
     1
102
RTVSPost2010Prop37
 90
       50
102
RTVSPost2010PropOp37
 70
     1
102
RTVSPost2010Prop38
140
0.0
102
RTVSPost2010PropOp38
 70
     1
102
RTVSPost2010Prop39
140
1.0
102
RTVSPost2010PropOp39
 70
     1
102
RTVSPost2010Prop40
 90
        0
102
RTVSPost2010PropOp40
 70
     1
102
RTVSPost2010Prop41ColorIndex
 90
       18
102
RTVSPost2010Prop41ColorRGB
 90
        0
102
RTVSPost2010PropOp41
 70
     1
102
RTVSPost2010Prop42
 90
       50
102
RTVSPost2010PropOp42
 70
     1
102
RTVSPost2010Prop43
 90
        3
102
RTVSPost2010PropOp43
 70
     1
102
RTVSPost2010Prop44ColorIndex
 90
        5
102
RTVSPost2010Prop44ColorRGB
 90
      255
102
RTVSPost2010PropOp44
 70
     1
102
RTVSPost2010Prop45
280
     0
102
RTVSPost2010PropOp45
 70
     1
102
RTVSPost2010Prop46
 90
       50
102
RTVSPost2010PropOp46
 70
     1
102
RTVSPost2010Prop47
 90
       50
102
RTVSPost2010PropOp47
 70
     1
102
RTVSPost2010Prop48
 90
       50
102
RTVSPost2010PropOp48
 70
     1
102
RTVSPost2010Prop49
280
     0
102
RTVSPost2010PropOp49
 70
     1
102
RTVSPost2010Prop50
 90
       50
102
RTVSPost2010PropOp50
 70
     1
102
RTVSPost2010Prop51ColorIndex
 90
      256
102
RTVSPost2010Prop51ColorRGB
 90
-16777216
102
RTVSPost2010PropOp51
 70
     0
102
RTVSPost2010Prop52
140
1.0
102
RTVSPost2010PropOp52
 70
     0
102
RTVSPost2010Prop53
 90
        2
102
RTVSPost2010PropOp53
 70
     1
102
RTVSPost2010Prop54
  1
strokes_ogs.tif
102
RTVSPost2010PropOp54
 70
     1
102
RTVSPost2010Prop55
280
     0
102
RTVSPost2010PropOp55
 70
     1
102
RTVSPost2010Prop56
140
1.0
102
RTVSPost2010PropOp56
 70
     1
102
RTVSPost2010Prop57
140
1.0
102
RTVSPost2010PropOp57
 70
     1
102
RTVSPropertyOp0
 70
     1
102
RTVSPropertyOp1
 70
     1
102
RTVSPropertyOp2
 70
     1
102
RTVSPropertyOp3
 70
     1
102
RTVSPropertyOp4
 70
     1
102
RTVSPropertyOp5
 70
     1
102
RTVSPropertyOp6
 70
     1
102
RTVSPropertyOp7
 70
     1
102
RTVSPropertyOp8
 70
     1
102
RTVSPropertyOp9
 70
     1
102
RTVSPropertyOp10
 70
     1
102
RTVSPropertyOp11
 70
     1
102
RTVSPropertyOp12
 70
     1
102
RTVSPropertyOp13
 70
     1
102
RTVSPropertyOp14
 70
     1
102
RTVSPropertyOp15
 70
     1
102
RTVSPropertyOp16
 70
     1
102
RTVSPropertyOp17
 70
     1
102
RTVSPropertyOp18
 70
     1
102
RTVSPropertyOp19
 70
     1
102
RTVSPropertyOp20
 70
     1
102
RTVSPropertyOp21
 70
     1
102
RTVSPropertyOp22
 70
     1
102
RTVSPropertyOp23
 70
     1
102
RTVSPropertyOp24
 70
     1
102
RTVSPropertyOp25
 70
     1
102
RTVSPropertyOp26
 70
     1
102
RTVSPropertyOp27
 70
     1
102
RTVSPropertyOp28
 70
     1
102
RTVSPropertyOp29
 70
     1
102
RTVSPropertyOp30
 70
     1
102
RTVSPropertyOp31
 70
     1
102
RTVSPropertyOp32
 70
     1
102
RTVSPropertyOp33
 70
     1
102
RTVSPropertyOp34
 70
     1
102
RTVSPropertyOp35
 70
     1
102
RTVSPropertyOp36
 70
     1
102
RTVSPropertyOp37
 70
     1
102
RTVSPropertyOp38
 70
     1
102
RTVSPropertyOp39
 70
     1
102
RTVSPropertyOp40
 70
     1
102
RTVSPropertyOp41
 70
     1
102
RTVSPropertyOp42
 70
     1
102
RTVSPropertyOp43
 70
     1
102
RTVSPropertyOp44
 70
     1
102
RTVSPropertyOp45
 70
     1
102
RTVSPropertyOp46
 70
     1
102
RTVSPropertyOp47
 70
     1
102
RTVSPropertyOp48
 70
     1
102
RTVSPropertyOp49
 70
     1
102
RTVSPropertyOp50
 70
     1
102
RTVSPropertyOp51
 70
     0
102
RTVSPropertyOp52
 70
     0
102
RTVSPropertyOp53
 70
     1
102
RTVSPropertyOp54
 70
     1
102
RTVSPropertyOp55
 70
     1
102
RTVSPropertyOp56
 70
     1
102
RTVSPropertyOp57
 70
     1
102
RTVSPropertyOp58
 70
     1
102
RTVSPropertyOp59
 70
     1
102
RTVSPropertyOp60
 70
     1
102
RTVSPropertyOp61
 70
     1
102
RTVSPropertyOp62
 70
     1
  0
XRECORD
  5
4479
102
{ACAD_REACTORS
330
4478
102
}
330
4478
100
AcDbXrecord
280
     1
102
RTVSPost2010Prop28
280
     0
102
RTVSPost2010PropOp28
 70
     1
102
RTVSPost2010Prop29
280
     1
102
RTVSPost2010PropOp29
 70
     1
102
RTVSPost2010Prop30
280
     1
102
RTVSPost2010PropOp30
 70
     1
102
RTVSPost2010Prop31
280
     0
102
RTVSPost2010PropOp31
 70
     1
102
RTVSPost2010Prop32
280
     0
102
RTVSPost2010PropOp32
 70
     1
102
RTVSPost2010Prop33
280
     0
102
RTVSPost2010PropOp33
 70
     1
102
RTVSPost2010Prop34
280
     0
102
RTVSPost2010PropOp34
 70
     1
102
RTVSPost2010Prop35
280
     0
102
RTVSPost2010PropOp35
 70
     1
102
RTVSPost2010Prop36
280
     0
102
RTVSPost2010PropOp36
 70
     1
102
RTVSPost2010Prop37
 90
       50
102
RTVSPost2010PropOp37
 70
     1
102
RTVSPost2010Prop38
140
0.0
102
RTVSPost2010PropOp38
 70
     1
102
RTVSPost2010Prop39
140
1.0
102
RTVSPost2010PropOp39
 70
     1
102
RTVSPost2010Prop40
 90
        0
102
RTVSPost2010PropOp40
 70
     1
102
RTVSPost2010Prop41ColorIndex
 90
       18
102
RTVSPost2010Prop41ColorRGB
 90
        0
102
RTVSPost2010PropOp41
 70
     1
102
RTVSPost2010Prop42
 90
       50
102
RTVSPost2010PropOp42
 70
     1
102
RTVSPost2010Prop43
 90
        3
102
RTVSPost2010PropOp43
 70
     1
102
RTVSPost2010Prop44ColorIndex
 90
        5
102
RTVSPost2010Prop44ColorRGB
 90
      255
102
RTVSPost2010PropOp44
 70
     1
102
RTVSPost2010Prop45
280
     0
102
RTVSPost2010PropOp45
 70
     1
102
RTVSPost2010Prop46
 90
       50
102
RTVSPost2010PropOp46
 70
     1
102
RTVSPost2010Prop47
 90
       50
102
RTVSPost2010PropOp47
 70
     1
102
RTVSPost2010Prop48
 90
       50
102
RTVSPost2010PropOp48
 70
     1
102
RTVSPost2010Prop49
280
     0
102
RTVSPost2010PropOp49
 70
     1
102
RTVSPost2010Prop50
 90
       50
102
RTVSPost2010PropOp50
 70
     1
102
RTVSPost2010Prop51ColorIndex
 90
      256
102
RTVSPost2010Prop51ColorRGB
 90
-16777216
102
RTVSPost2010PropOp51
 70
     0
102
RTVSPost2010Prop52
140
1.0
102
RTVSPost2010PropOp52
 70
     0
102
RTVSPost2010Prop53
 90
        2
102
RTVSPost2010PropOp53
 70
     1
102
RTVSPost2010Prop54
  1
strokes_ogs.tif
102
RTVSPost2010PropOp54
 70
     1
102
RTVSPost2010Prop55
280
     0
102
RTVSPost2010PropOp55
 70
     1
102
RTVSPost2010Prop56
140
1.0
102
RTVSPost2010PropOp56
 70
     1
102
RTVSPost2010Prop57
140
1.0
102
RTVSPost2010PropOp57
 70
     1
102
RTVSPropertyOp0
 70
     1
102
RTVSPropertyOp1
 70
     1
102
RTVSPropertyOp2
 70
     1
102
RTVSPropertyOp3
 70
     1
102
RTVSPropertyOp4
 70
     1
102
RTVSPropertyOp5
 70
     1
102
RTVSPropertyOp6
 70
     1
102
RTVSPropertyOp7
 70
     1
102
RTVSPropertyOp8
 70
     1
102
RTVSPropertyOp9
 70
     1
102
RTVSPropertyOp10
 70
     1
102
RTVSPropertyOp11
 70
     1
102
RTVSPropertyOp12
 70
     1
102
RTVSPropertyOp13
 70
     1
102
RTVSPropertyOp14
 70
     1
102
RTVSPropertyOp15
 70
     1
102
RTVSPropertyOp16
 70
     1
102
RTVSPropertyOp17
 70
     1
102
RTVSPropertyOp18
 70
     1
102
RTVSPropertyOp19
 70
     1
102
RTVSPropertyOp20
 70
     1
102
RTVSPropertyOp21
 70
     1
102
RTVSPropertyOp22
 70
     1
102
RTVSPropertyOp23
 70
     1
102
RTVSPropertyOp24
 70
     1
102
RTVSPropertyOp25
 70
     1
102
RTVSPropertyOp26
 70
     1
102
RTVSPropertyOp27
 70
     1
102
RTVSPropertyOp28
 70
     1
102
RTVSPropertyOp29
 70
     1
102
RTVSPropertyOp30
 70
     1
102
RTVSPropertyOp31
 70
     1
102
RTVSPropertyOp32
 70
     1
102
RTVSPropertyOp33
 70
     1
102
RTVSPropertyOp34
 70
     1
102
RTVSPropertyOp35
 70
     1
102
RTVSPropertyOp36
 70
     1
102
RTVSPropertyOp37
 70
     1
102
RTVSPropertyOp38
 70
     1
102
RTVSPropertyOp39
 70
     1
102
RTVSPropertyOp40
 70
     1
102
RTVSPropertyOp41
 70
     1
102
RTVSPropertyOp42
 70
     1
102
RTVSPropertyOp43
 70
     1
102
RTVSPropertyOp44
 70
     1
102
RTVSPropertyOp45
 70
     1
102
RTVSPropertyOp46
 70
     1
102
RTVSPropertyOp47
 70
     1
102
RTVSPropertyOp48
 70
     1
102
RTVSPropertyOp49
 70
     1
102
RTVSPropertyOp50
 70
     1
102
RTVSPropertyOp51
 70
     0
102
RTVSPropertyOp52
 70
     0
102
RTVSPropertyOp53
 70
     1
102
RTVSPropertyOp54
 70
     1
102
RTVSPropertyOp55
 70
     1
102
RTVSPropertyOp56
 70
     1
102
RTVSPropertyOp57
 70
     1
102
RTVSPropertyOp58
 70
     1
102
RTVSPropertyOp59
 70
     1
102
RTVSPropertyOp60
 70
     1
102
RTVSPropertyOp61
 70
     1
102
RTVSPropertyOp62
 70
     1
  0
XRECORD
  5
4489
102
{ACAD_REACTORS
330
4488
102
}
330
4488
100
AcDbXrecord
280
     1
102
RTVSPost2010Prop28
280
     0
102
RTVSPost2010PropOp28
 70
     1
102
RTVSPost2010Prop29
280
     1
102
RTVSPost2010PropOp29
 70
     1
102
RTVSPost2010Prop30
280
     1
102
RTVSPost2010PropOp30
 70
     1
102
RTVSPost2010Prop31
280
     0
102
RTVSPost2010PropOp31
 70
     1
102
RTVSPost2010Prop32
280
     0
102
RTVSPost2010PropOp32
 70
     1
102
RTVSPost2010Prop33
280
     0
102
RTVSPost2010PropOp33
 70
     1
102
RTVSPost2010Prop34
280
     0
102
RTVSPost2010PropOp34
 70
     1
102
RTVSPost2010Prop35
280
     0
102
RTVSPost2010PropOp35
 70
     1
102
RTVSPost2010Prop36
280
     0
102
RTVSPost2010PropOp36
 70
     1
102
RTVSPost2010Prop37
 90
       50
102
RTVSPost2010PropOp37
 70
     1
102
RTVSPost2010Prop38
140
0.0
102
RTVSPost2010PropOp38
 70
     1
102
RTVSPost2010Prop39
140
1.0
102
RTVSPost2010PropOp39
 70
     1
102
RTVSPost2010Prop40
 90
        0
102
RTVSPost2010PropOp40
 70
     1
102
RTVSPost2010Prop41ColorIndex
 90
       18
102
RTVSPost2010Prop41ColorRGB
 90
        0
102
RTVSPost2010PropOp41
 70
     1
102
RTVSPost2010Prop42
 90
       50
102
RTVSPost2010PropOp42
 70
     1
102
RTVSPost2010Prop43
 90
        3
102
RTVSPost2010PropOp43
 70
     1
102
RTVSPost2010Prop44ColorIndex
 90
        5
102
RTVSPost2010Prop44ColorRGB
 90
      255
102
RTVSPost2010PropOp44
 70
     1
102
RTVSPost2010Prop45
280
     0
102
RTVSPost2010PropOp45
 70
     1
102
RTVSPost2010Prop46
 90
       50
102
RTVSPost2010PropOp46
 70
     1
102
RTVSPost2010Prop47
 90
       50
102
RTVSPost2010PropOp47
 70
     1
102
RTVSPost2010Prop48
 90
       50
102
RTVSPost2010PropOp48
 70
     1
102
RTVSPost2010Prop49
280
     0
102
RTVSPost2010PropOp49
 70
     1
102
RTVSPost2010Prop50
 90
       50
102
RTVSPost2010PropOp50
 70
     1
102
RTVSPost2010Prop51ColorIndex
 90
      256
102
RTVSPost2010Prop51ColorRGB
 90
-16777216
102
RTVSPost2010PropOp51
 70
     0
102
RTVSPost2010Prop52
140
1.0
102
RTVSPost2010PropOp52
 70
     0
102
RTVSPost2010Prop53
 90
        2
102
RTVSPost2010PropOp53
 70
     1
102
RTVSPost2010Prop54
  1
strokes_ogs.tif
102
RTVSPost2010PropOp54
 70
     1
102
RTVSPost2010Prop55
280
     0
102
RTVSPost2010PropOp55
 70
     1
102
RTVSPost2010Prop56
140
1.0
102
RTVSPost2010PropOp56
 70
     1
102
RTVSPost2010Prop57
140
1.0
102
RTVSPost2010PropOp57
 70
     1
102
RTVSPropertyOp0
 70
     0
102
RTVSPropertyOp1
 70
     0
102
RTVSPropertyOp2
 70
     0
102
RTVSPropertyOp3
 70
     0
102
RTVSPropertyOp4
 70
     0
102
RTVSPropertyOp5
 70
     0
102
RTVSPropertyOp6
 70
     0
102
RTVSPropertyOp7
 70
     0
102
RTVSPropertyOp8
 70
     0
102
RTVSPropertyOp9
 70
     0
102
RTVSPropertyOp10
 70
     0
102
RTVSPropertyOp11
 70
     0
102
RTVSPropertyOp12
 70
     0
102
RTVSPropertyOp13
 70
     0
102
RTVSPropertyOp14
 70
     2
102
RTVSPropertyOp15
 70
     0
102
RTVSPropertyOp16
 70
     0
102
RTVSPropertyOp17
 70
     0
102
RTVSPropertyOp18
 70
     0
102
RTVSPropertyOp19
 70
     0
102
RTVSPropertyOp20
 70
     0
102
RTVSPropertyOp21
 70
     0
102
RTVSPropertyOp22
 70
     0
102
RTVSPropertyOp23
 70
     0
102
RTVSPropertyOp24
 70
     0
102
RTVSPropertyOp25
 70
     0
102
RTVSPropertyOp26
 70
     0
102
RTVSPropertyOp27
 70
     0
102
RTVSPropertyOp28
 70
     1
102
RTVSPropertyOp29
 70
     1
102
RTVSPropertyOp30
 70
     1
102
RTVSPropertyOp31
 70
     1
102
RTVSPropertyOp32
 70
     1
102
RTVSPropertyOp33
 70
     1
102
RTVSPropertyOp34
 70
     1
102
RTVSPropertyOp35
 70
     1
102
RTVSPropertyOp36
 70
     1
102
RTVSPropertyOp37
 70
     1
102
RTVSPropertyOp38
 70
     1
102
RTVSPropertyOp39
 70
     1
102
RTVSPropertyOp40
 70
     1
102
RTVSPropertyOp41
 70
     1
102
RTVSPropertyOp42
 70
     1
102
RTVSPropertyOp43
 70
     1
102
RTVSPropertyOp44
 70
     1
102
RTVSPropertyOp45
 70
     1
102
RTVSPropertyOp46
 70
     1
102
RTVSPropertyOp47
 70
     1
102
RTVSPropertyOp48
 70
     1
102
RTVSPropertyOp49
 70
     1
102
RTVSPropertyOp50
 70
     1
102
RTVSPropertyOp51
 70
     0
102
RTVSPropertyOp52
 70
     0
102
RTVSPropertyOp53
 70
     1
102
RTVSPropertyOp54
 70
     1
102
RTVSPropertyOp55
 70
     1
102
RTVSPropertyOp56
 70
     1
102
RTVSPropertyOp57
 70
     1
102
RTVSPropertyOp58
 70
     1
102
RTVSPropertyOp59
 70
     1
102
RTVSPropertyOp60
 70
     1
102
RTVSPropertyOp61
 70
     1
102
RTVSPropertyOp62
 70
     1
  0
XRECORD
  5
4481
102
{ACAD_REACTORS
330
4480
102
}
330
4480
100
AcDbXrecord
280
     1
102
RTVSPost2010Prop28
280
     0
102
RTVSPost2010PropOp28
 70
     1
102
RTVSPost2010Prop29
280
     1
102
RTVSPost2010PropOp29
 70
     1
102
RTVSPost2010Prop30
280
     1
102
RTVSPost2010PropOp30
 70
     1
102
RTVSPost2010Prop31
280
     0
102
RTVSPost2010PropOp31
 70
     1
102
RTVSPost2010Prop32
280
     0
102
RTVSPost2010PropOp32
 70
     1
102
RTVSPost2010Prop33
280
     0
102
RTVSPost2010PropOp33
 70
     1
102
RTVSPost2010Prop34
280
     0
102
RTVSPost2010PropOp34
 70
     1
102
RTVSPost2010Prop35
280
     0
102
RTVSPost2010PropOp35
 70
     1
102
RTVSPost2010Prop36
280
     0
102
RTVSPost2010PropOp36
 70
     1
102
RTVSPost2010Prop37
 90
       50
102
RTVSPost2010PropOp37
 70
     1
102
RTVSPost2010Prop38
140
0.0
102
RTVSPost2010PropOp38
 70
     1
102
RTVSPost2010Prop39
140
1.0
102
RTVSPost2010PropOp39
 70
     1
102
RTVSPost2010Prop40
 90
        0
102
RTVSPost2010PropOp40
 70
     1
102
RTVSPost2010Prop41ColorIndex
 90
       18
102
RTVSPost2010Prop41ColorRGB
 90
        0
102
RTVSPost2010PropOp41
 70
     1
102
RTVSPost2010Prop42
 90
       50
102
RTVSPost2010PropOp42
 70
     1
102
RTVSPost2010Prop43
 90
        3
102
RTVSPost2010PropOp43
 70
     1
102
RTVSPost2010Prop44ColorIndex
 90
        5
102
RTVSPost2010Prop44ColorRGB
 90
      255
102
RTVSPost2010PropOp44
 70
     1
102
RTVSPost2010Prop45
280
     0
102
RTVSPost2010PropOp45
 70
     1
102
RTVSPost2010Prop46
 90
       50
102
RTVSPost2010PropOp46
 70
     1
102
RTVSPost2010Prop47
 90
       50
102
RTVSPost2010PropOp47
 70
     1
102
RTVSPost2010Prop48
 90
       50
102
RTVSPost2010PropOp48
 70
     1
102
RTVSPost2010Prop49
280
     0
102
RTVSPost2010PropOp49
 70
     1
102
RTVSPost2010Prop50
 90
       50
102
RTVSPost2010PropOp50
 70
     1
102
RTVSPost2010Prop51ColorIndex
 90
      256
102
RTVSPost2010Prop51ColorRGB
 90
-16777216
102
RTVSPost2010PropOp51
 70
     0
102
RTVSPost2010Prop52
140
1.0
102
RTVSPost2010PropOp52
 70
     0
102
RTVSPost2010Prop53
 90
        2
102
RTVSPost2010PropOp53
 70
     1
102
RTVSPost2010Prop54
  1
strokes_ogs.tif
102
RTVSPost2010PropOp54
 70
     1
102
RTVSPost2010Prop55
280
     0
102
RTVSPost2010PropOp55
 70
     1
102
RTVSPost2010Prop56
140
1.0
102
RTVSPost2010PropOp56
 70
     1
102
RTVSPost2010Prop57
140
1.0
102
RTVSPost2010PropOp57
 70
     1
102
RTVSPropertyOp0
 70
     1
102
RTVSPropertyOp1
 70
     1
102
RTVSPropertyOp2
 70
     1
102
RTVSPropertyOp3
 70
     1
102
RTVSPropertyOp4
 70
     1
102
RTVSPropertyOp5
 70
     1
102
RTVSPropertyOp6
 70
     1
102
RTVSPropertyOp7
 70
     1
102
RTVSPropertyOp8
 70
     1
102
RTVSPropertyOp9
 70
     1
102
RTVSPropertyOp10
 70
     1
102
RTVSPropertyOp11
 70
     1
102
RTVSPropertyOp12
 70
     1
102
RTVSPropertyOp13
 70
     1
102
RTVSPropertyOp14
 70
     1
102
RTVSPropertyOp15
 70
     1
102
RTVSPropertyOp16
 70
     1
102
RTVSPropertyOp17
 70
     1
102
RTVSPropertyOp18
 70
     1
102
RTVSPropertyOp19
 70
     1
102
RTVSPropertyOp20
 70
     1
102
RTVSPropertyOp21
 70
     1
102
RTVSPropertyOp22
 70
     1
102
RTVSPropertyOp23
 70
     1
102
RTVSPropertyOp24
 70
     1
102
RTVSPropertyOp25
 70
     1
102
RTVSPropertyOp26
 70
     1
102
RTVSPropertyOp27
 70
     1
102
RTVSPropertyOp28
 70
     1
102
RTVSPropertyOp29
 70
     1
102
RTVSPropertyOp30
 70
     1
102
RTVSPropertyOp31
 70
     1
102
RTVSPropertyOp32
 70
     1
102
RTVSPropertyOp33
 70
     1
102
RTVSPropertyOp34
 70
     1
102
RTVSPropertyOp35
 70
     1
102
RTVSPropertyOp36
 70
     1
102
RTVSPropertyOp37
 70
     1
102
RTVSPropertyOp38
 70
     1
102
RTVSPropertyOp39
 70
     1
102
RTVSPropertyOp40
 70
     1
102
RTVSPropertyOp41
 70
     1
102
RTVSPropertyOp42
 70
     1
102
RTVSPropertyOp43
 70
     1
102
RTVSPropertyOp44
 70
     1
102
RTVSPropertyOp45
 70
     1
102
RTVSPropertyOp46
 70
     1
102
RTVSPropertyOp47
 70
     1
102
RTVSPropertyOp48
 70
     1
102
RTVSPropertyOp49
 70
     1
102
RTVSPropertyOp50
 70
     1
102
RTVSPropertyOp51
 70
     0
102
RTVSPropertyOp52
 70
     0
102
RTVSPropertyOp53
 70
     1
102
RTVSPropertyOp54
 70
     1
102
RTVSPropertyOp55
 70
     1
102
RTVSPropertyOp56
 70
     1
102
RTVSPropertyOp57
 70
     1
102
RTVSPropertyOp58
 70
     1
102
RTVSPropertyOp59
 70
     1
102
RTVSPropertyOp60
 70
     1
102
RTVSPropertyOp61
 70
     1
102
RTVSPropertyOp62
 70
     1
  0
XRECORD
  5
4465
102
{ACAD_REACTORS
330
4464
102
}
330
4464
100
AcDbXrecord
280
     1
102
RTVSPost2010Prop28
280
     0
102
RTVSPost2010PropOp28
 70
     1
102
RTVSPost2010Prop29
280
     1
102
RTVSPost2010PropOp29
 70
     1
102
RTVSPost2010Prop30
280
     1
102
RTVSPost2010PropOp30
 70
     1
102
RTVSPost2010Prop31
280
     0
102
RTVSPost2010PropOp31
 70
     1
102
RTVSPost2010Prop32
280
     0
102
RTVSPost2010PropOp32
 70
     1
102
RTVSPost2010Prop33
280
     0
102
RTVSPost2010PropOp33
 70
     1
102
RTVSPost2010Prop34
280
     0
102
RTVSPost2010PropOp34
 70
     1
102
RTVSPost2010Prop35
280
     0
102
RTVSPost2010PropOp35
 70
     1
102
RTVSPost2010Prop36
280
     0
102
RTVSPost2010PropOp36
 70
     1
102
RTVSPost2010Prop37
 90
       50
102
RTVSPost2010PropOp37
 70
     1
102
RTVSPost2010Prop38
140
0.0
102
RTVSPost2010PropOp38
 70
     1
102
RTVSPost2010Prop39
140
1.0
102
RTVSPost2010PropOp39
 70
     1
102
RTVSPost2010Prop40
 90
        0
102
RTVSPost2010PropOp40
 70
     1
102
RTVSPost2010Prop41ColorIndex
 90
       18
102
RTVSPost2010Prop41ColorRGB
 90
        0
102
RTVSPost2010PropOp41
 70
     1
102
RTVSPost2010Prop42
 90
       50
102
RTVSPost2010PropOp42
 70
     1
102
RTVSPost2010Prop43
 90
        3
102
RTVSPost2010PropOp43
 70
     1
102
RTVSPost2010Prop44ColorIndex
 90
        5
102
RTVSPost2010Prop44ColorRGB
 90
      255
102
RTVSPost2010PropOp44
 70
     1
102
RTVSPost2010Prop45
280
     0
102
RTVSPost2010PropOp45
 70
     1
102
RTVSPost2010Prop46
 90
       50
102
RTVSPost2010PropOp46
 70
     1
102
RTVSPost2010Prop47
 90
       50
102
RTVSPost2010PropOp47
 70
     1
102
RTVSPost2010Prop48
 90
       50
102
RTVSPost2010PropOp48
 70
     1
102
RTVSPost2010Prop49
280
     0
102
RTVSPost2010PropOp49
 70
     1
102
RTVSPost2010Prop50
 90
       50
102
RTVSPost2010PropOp50
 70
     1
102
RTVSPost2010Prop51ColorIndex
 90
      256
102
RTVSPost2010Prop51ColorRGB
 90
-16777216
102
RTVSPost2010PropOp51
 70
     0
102
RTVSPost2010Prop52
140
1.0
102
RTVSPost2010PropOp52
 70
     0
102
RTVSPost2010Prop53
 90
        2
102
RTVSPost2010PropOp53
 70
     1
102
RTVSPost2010Prop54
  1
strokes_ogs.tif
102
RTVSPost2010PropOp54
 70
     1
102
RTVSPost2010Prop55
280
     0
102
RTVSPost2010PropOp55
 70
     1
102
RTVSPost2010Prop56
140
1.0
102
RTVSPost2010PropOp56
 70
     1
102
RTVSPost2010Prop57
140
1.0
102
RTVSPost2010PropOp57
 70
     1
102
RTVSPropertyOp0
 70
     1
102
RTVSPropertyOp1
 70
     1
102
RTVSPropertyOp2
 70
     1
102
RTVSPropertyOp3
 70
     1
102
RTVSPropertyOp4
 70
     1
102
RTVSPropertyOp5
 70
     1
102
RTVSPropertyOp6
 70
     1
102
RTVSPropertyOp7
 70
     1
102
RTVSPropertyOp8
 70
     1
102
RTVSPropertyOp9
 70
     1
102
RTVSPropertyOp10
 70
     1
102
RTVSPropertyOp11
 70
     1
102
RTVSPropertyOp12
 70
     1
102
RTVSPropertyOp13
 70
     1
102
RTVSPropertyOp14
 70
     1
102
RTVSPropertyOp15
 70
     1
102
RTVSPropertyOp16
 70
     1
102
RTVSPropertyOp17
 70
     1
102
RTVSPropertyOp18
 70
     1
102
RTVSPropertyOp19
 70
     1
102
RTVSPropertyOp20
 70
     1
102
RTVSPropertyOp21
 70
     1
102
RTVSPropertyOp22
 70
     1
102
RTVSPropertyOp23
 70
     1
102
RTVSPropertyOp24
 70
     1
102
RTVSPropertyOp25
 70
     1
102
RTVSPropertyOp26
 70
     1
102
RTVSPropertyOp27
 70
     1
102
RTVSPropertyOp28
 70
     1
102
RTVSPropertyOp29
 70
     1
102
RTVSPropertyOp30
 70
     1
102
RTVSPropertyOp31
 70
     1
102
RTVSPropertyOp32
 70
     1
102
RTVSPropertyOp33
 70
     1
102
RTVSPropertyOp34
 70
     1
102
RTVSPropertyOp35
 70
     1
102
RTVSPropertyOp36
 70
     1
102
RTVSPropertyOp37
 70
     1
102
RTVSPropertyOp38
 70
     1
102
RTVSPropertyOp39
 70
     1
102
RTVSPropertyOp40
 70
     1
102
RTVSPropertyOp41
 70
     1
102
RTVSPropertyOp42
 70
     1
102
RTVSPropertyOp43
 70
     1
102
RTVSPropertyOp44
 70
     1
102
RTVSPropertyOp45
 70
     1
102
RTVSPropertyOp46
 70
     1
102
RTVSPropertyOp47
 70
     1
102
RTVSPropertyOp48
 70
     1
102
RTVSPropertyOp49
 70
     1
102
RTVSPropertyOp50
 70
     1
102
RTVSPropertyOp51
 70
     0
102
RTVSPropertyOp52
 70
     0
102
RTVSPropertyOp53
 70
     1
102
RTVSPropertyOp54
 70
     1
102
RTVSPropertyOp55
 70
     1
102
RTVSPropertyOp56
 70
     1
102
RTVSPropertyOp57
 70
     1
102
RTVSPropertyOp58
 70
     1
102
RTVSPropertyOp59
 70
     1
102
RTVSPropertyOp60
 70
     1
102
RTVSPropertyOp61
 70
     1
102
RTVSPropertyOp62
 70
     1
  0
XRECORD
  5
4467
102
{ACAD_REACTORS
330
4466
102
}
330
4466
100
AcDbXrecord
280
     1
102
RTVSPost2010Prop28
280
     0
102
RTVSPost2010PropOp28
 70
     1
102
RTVSPost2010Prop29
280
     1
102
RTVSPost2010PropOp29
 70
     1
102
RTVSPost2010Prop30
280
     1
102
RTVSPost2010PropOp30
 70
     1
102
RTVSPost2010Prop31
280
     0
102
RTVSPost2010PropOp31
 70
     1
102
RTVSPost2010Prop32
280
     0
102
RTVSPost2010PropOp32
 70
     1
102
RTVSPost2010Prop33
280
     0
102
RTVSPost2010PropOp33
 70
     1
102
RTVSPost2010Prop34
280
     0
102
RTVSPost2010PropOp34
 70
     1
102
RTVSPost2010Prop35
280
     0
102
RTVSPost2010PropOp35
 70
     1
102
RTVSPost2010Prop36
280
     0
102
RTVSPost2010PropOp36
 70
     1
102
RTVSPost2010Prop37
 90
       50
102
RTVSPost2010PropOp37
 70
     1
102
RTVSPost2010Prop38
140
0.0
102
RTVSPost2010PropOp38
 70
     1
102
RTVSPost2010Prop39
140
1.0
102
RTVSPost2010PropOp39
 70
     1
102
RTVSPost2010Prop40
 90
        0
102
RTVSPost2010PropOp40
 70
     1
102
RTVSPost2010Prop41ColorIndex
 90
       18
102
RTVSPost2010Prop41ColorRGB
 90
        0
102
RTVSPost2010PropOp41
 70
     1
102
RTVSPost2010Prop42
 90
       50
102
RTVSPost2010PropOp42
 70
     1
102
RTVSPost2010Prop43
 90
        3
102
RTVSPost2010PropOp43
 70
     1
102
RTVSPost2010Prop44ColorIndex
 90
        5
102
RTVSPost2010Prop44ColorRGB
 90
      255
102
RTVSPost2010PropOp44
 70
     1
102
RTVSPost2010Prop45
280
     0
102
RTVSPost2010PropOp45
 70
     1
102
RTVSPost2010Prop46
 90
       50
102
RTVSPost2010PropOp46
 70
     1
102
RTVSPost2010Prop47
 90
       50
102
RTVSPost2010PropOp47
 70
     1
102
RTVSPost2010Prop48
 90
       50
102
RTVSPost2010PropOp48
 70
     1
102
RTVSPost2010Prop49
280
     0
102
RTVSPost2010PropOp49
 70
     1
102
RTVSPost2010Prop50
 90
       50
102
RTVSPost2010PropOp50
 70
     1
102
RTVSPost2010Prop51ColorIndex
 90
      256
102
RTVSPost2010Prop51ColorRGB
 90
-16777216
102
RTVSPost2010PropOp51
 70
     0
102
RTVSPost2010Prop52
140
1.0
102
RTVSPost2010PropOp52
 70
     0
102
RTVSPost2010Prop53
 90
        2
102
RTVSPost2010PropOp53
 70
     1
102
RTVSPost2010Prop54
  1
strokes_ogs.tif
102
RTVSPost2010PropOp54
 70
     1
102
RTVSPost2010Prop55
280
     0
102
RTVSPost2010PropOp55
 70
     1
102
RTVSPost2010Prop56
140
1.0
102
RTVSPost2010PropOp56
 70
     1
102
RTVSPost2010Prop57
140
1.0
102
RTVSPost2010PropOp57
 70
     1
102
RTVSPropertyOp0
 70
     1
102
RTVSPropertyOp1
 70
     1
102
RTVSPropertyOp2
 70
     1
102
RTVSPropertyOp3
 70
     1
102
RTVSPropertyOp4
 70
     1
102
RTVSPropertyOp5
 70
     1
102
RTVSPropertyOp6
 70
     1
102
RTVSPropertyOp7
 70
     1
102
RTVSPropertyOp8
 70
     1
102
RTVSPropertyOp9
 70
     1
102
RTVSPropertyOp10
 70
     1
102
RTVSPropertyOp11
 70
     1
102
RTVSPropertyOp12
 70
     1
102
RTVSPropertyOp13
 70
     1
102
RTVSPropertyOp14
 70
     1
102
RTVSPropertyOp15
 70
     1
102
RTVSPropertyOp16
 70
     1
102
RTVSPropertyOp17
 70
     1
102
RTVSPropertyOp18
 70
     1
102
RTVSPropertyOp19
 70
     1
102
RTVSPropertyOp20
 70
     1
102
RTVSPropertyOp21
 70
     1
102
RTVSPropertyOp22
 70
     1
102
RTVSPropertyOp23
 70
     1
102
RTVSPropertyOp24
 70
     1
102
RTVSPropertyOp25
 70
     1
102
RTVSPropertyOp26
 70
     1
102
RTVSPropertyOp27
 70
     1
102
RTVSPropertyOp28
 70
     1
102
RTVSPropertyOp29
 70
     1
102
RTVSPropertyOp30
 70
     1
102
RTVSPropertyOp31
 70
     1
102
RTVSPropertyOp32
 70
     1
102
RTVSPropertyOp33
 70
     1
102
RTVSPropertyOp34
 70
     1
102
RTVSPropertyOp35
 70
     1
102
RTVSPropertyOp36
 70
     1
102
RTVSPropertyOp37
 70
     1
102
RTVSPropertyOp38
 70
     1
102
RTVSPropertyOp39
 70
     1
102
RTVSPropertyOp40
 70
     1
102
RTVSPropertyOp41
 70
     1
102
RTVSPropertyOp42
 70
     1
102
RTVSPropertyOp43
 70
     1
102
RTVSPropertyOp44
 70
     1
102
RTVSPropertyOp45
 70
     1
102
RTVSPropertyOp46
 70
     1
102
RTVSPropertyOp47
 70
     1
102
RTVSPropertyOp48
 70
     1
102
RTVSPropertyOp49
 70
     1
102
RTVSPropertyOp50
 70
     1
102
RTVSPropertyOp51
 70
     0
102
RTVSPropertyOp52
 70
     0
102
RTVSPropertyOp53
 70
     1
102
RTVSPropertyOp54
 70
     1
102
RTVSPropertyOp55
 70
     1
102
RTVSPropertyOp56
 70
     1
102
RTVSPropertyOp57
 70
     1
102
RTVSPropertyOp58
 70
     1
102
RTVSPropertyOp59
 70
     1
102
RTVSPropertyOp60
 70
     1
102
RTVSPropertyOp61
 70
     1
102
RTVSPropertyOp62
 70
     1
  0
XRECORD
  5
4469
102
{ACAD_REACTORS
330
4468
102
}
330
4468
100
AcDbXrecord
280
     1
102
RTVSPost2010Prop28
280
     0
102
RTVSPost2010PropOp28
 70
     1
102
RTVSPost2010Prop29
280
     1
102
RTVSPost2010PropOp29
 70
     1
102
RTVSPost2010Prop30
280
     1
102
RTVSPost2010PropOp30
 70
     1
102
RTVSPost2010Prop31
280
     0
102
RTVSPost2010PropOp31
 70
     1
102
RTVSPost2010Prop32
280
     0
102
RTVSPost2010PropOp32
 70
     1
102
RTVSPost2010Prop33
280
     0
102
RTVSPost2010PropOp33
 70
     1
102
RTVSPost2010Prop34
280
     0
102
RTVSPost2010PropOp34
 70
     1
102
RTVSPost2010Prop35
280
     0
102
RTVSPost2010PropOp35
 70
     1
102
RTVSPost2010Prop36
280
     0
102
RTVSPost2010PropOp36
 70
     1
102
RTVSPost2010Prop37
 90
       50
102
RTVSPost2010PropOp37
 70
     1
102
RTVSPost2010Prop38
140
0.0
102
RTVSPost2010PropOp38
 70
     1
102
RTVSPost2010Prop39
140
1.0
102
RTVSPost2010PropOp39
 70
     1
102
RTVSPost2010Prop40
 90
        0
102
RTVSPost2010PropOp40
 70
     1
102
RTVSPost2010Prop41ColorIndex
 90
       18
102
RTVSPost2010Prop41ColorRGB
 90
        0
102
RTVSPost2010PropOp41
 70
     1
102
RTVSPost2010Prop42
 90
       50
102
RTVSPost2010PropOp42
 70
     1
102
RTVSPost2010Prop43
 90
        3
102
RTVSPost2010PropOp43
 70
     1
102
RTVSPost2010Prop44ColorIndex
 90
        5
102
RTVSPost2010Prop44ColorRGB
 90
      255
102
RTVSPost2010PropOp44
 70
     1
102
RTVSPost2010Prop45
280
     0
102
RTVSPost2010PropOp45
 70
     1
102
RTVSPost2010Prop46
 90
       50
102
RTVSPost2010PropOp46
 70
     1
102
RTVSPost2010Prop47
 90
       50
102
RTVSPost2010PropOp47
 70
     1
102
RTVSPost2010Prop48
 90
       50
102
RTVSPost2010PropOp48
 70
     1
102
RTVSPost2010Prop49
280
     0
102
RTVSPost2010PropOp49
 70
     1
102
RTVSPost2010Prop50
 90
       50
102
RTVSPost2010PropOp50
 70
     1
102
RTVSPost2010Prop51ColorIndex
 90
      256
102
RTVSPost2010Prop51ColorRGB
 90
-16777216
102
RTVSPost2010PropOp51
 70
     0
102
RTVSPost2010Prop52
140
1.0
102
RTVSPost2010PropOp52
 70
     0
102
RTVSPost2010Prop53
 90
        2
102
RTVSPost2010PropOp53
 70
     1
102
RTVSPost2010Prop54
  1
strokes_ogs.tif
102
RTVSPost2010PropOp54
 70
     1
102
RTVSPost2010Prop55
280
     0
102
RTVSPost2010PropOp55
 70
     1
102
RTVSPost2010Prop56
140
1.0
102
RTVSPost2010PropOp56
 70
     1
102
RTVSPost2010Prop57
140
1.0
102
RTVSPost2010PropOp57
 70
     1
102
RTVSPropertyOp0
 70
     1
102
RTVSPropertyOp1
 70
     1
102
RTVSPropertyOp2
 70
     1
102
RTVSPropertyOp3
 70
     1
102
RTVSPropertyOp4
 70
     1
102
RTVSPropertyOp5
 70
     1
102
RTVSPropertyOp6
 70
     1
102
RTVSPropertyOp7
 70
     1
102
RTVSPropertyOp8
 70
     1
102
RTVSPropertyOp9
 70
     1
102
RTVSPropertyOp10
 70
     1
102
RTVSPropertyOp11
 70
     1
102
RTVSPropertyOp12
 70
     1
102
RTVSPropertyOp13
 70
     1
102
RTVSPropertyOp14
 70
     1
102
RTVSPropertyOp15
 70
     1
102
RTVSPropertyOp16
 70
     1
102
RTVSPropertyOp17
 70
     1
102
RTVSPropertyOp18
 70
     1
102
RTVSPropertyOp19
 70
     1
102
RTVSPropertyOp20
 70
     1
102
RTVSPropertyOp21
 70
     1
102
RTVSPropertyOp22
 70
     1
102
RTVSPropertyOp23
 70
     1
102
RTVSPropertyOp24
 70
     1
102
RTVSPropertyOp25
 70
     1
102
RTVSPropertyOp26
 70
     1
102
RTVSPropertyOp27
 70
     1
102
RTVSPropertyOp28
 70
     1
102
RTVSPropertyOp29
 70
     1
102
RTVSPropertyOp30
 70
     1
102
RTVSPropertyOp31
 70
     1
102
RTVSPropertyOp32
 70
     1
102
RTVSPropertyOp33
 70
     1
102
RTVSPropertyOp34
 70
     1
102
RTVSPropertyOp35
 70
     1
102
RTVSPropertyOp36
 70
     1
102
RTVSPropertyOp37
 70
     1
102
RTVSPropertyOp38
 70
     1
102
RTVSPropertyOp39
 70
     1
102
RTVSPropertyOp40
 70
     1
102
RTVSPropertyOp41
 70
     1
102
RTVSPropertyOp42
 70
     1
102
RTVSPropertyOp43
 70
     1
102
RTVSPropertyOp44
 70
     1
102
RTVSPropertyOp45
 70
     1
102
RTVSPropertyOp46
 70
     1
102
RTVSPropertyOp47
 70
     1
102
RTVSPropertyOp48
 70
     1
102
RTVSPropertyOp49
 70
     1
102
RTVSPropertyOp50
 70
     1
102
RTVSPropertyOp51
 70
     0
102
RTVSPropertyOp52
 70
     0
102
RTVSPropertyOp53
 70
     1
102
RTVSPropertyOp54
 70
     1
102
RTVSPropertyOp55
 70
     1
102
RTVSPropertyOp56
 70
     1
102
RTVSPropertyOp57
 70
     1
102
RTVSPropertyOp58
 70
     1
102
RTVSPropertyOp59
 70
     1
102
RTVSPropertyOp60
 70
     1
102
RTVSPropertyOp61
 70
     1
102
RTVSPropertyOp62
 70
     1
  0
XRECORD
  5
446B
102
{ACAD_REACTORS
330
446A
102
}
330
446A
100
AcDbXrecord
280
     1
102
RTVSPost2010Prop28
280
     0
102
RTVSPost2010PropOp28
 70
     1
102
RTVSPost2010Prop29
280
     1
102
RTVSPost2010PropOp29
 70
     1
102
RTVSPost2010Prop30
280
     1
102
RTVSPost2010PropOp30
 70
     1
102
RTVSPost2010Prop31
280
     0
102
RTVSPost2010PropOp31
 70
     1
102
RTVSPost2010Prop32
280
     0
102
RTVSPost2010PropOp32
 70
     1
102
RTVSPost2010Prop33
280
     0
102
RTVSPost2010PropOp33
 70
     1
102
RTVSPost2010Prop34
280
     0
102
RTVSPost2010PropOp34
 70
     1
102
RTVSPost2010Prop35
280
     0
102
RTVSPost2010PropOp35
 70
     1
102
RTVSPost2010Prop36
280
     0
102
RTVSPost2010PropOp36
 70
     1
102
RTVSPost2010Prop37
 90
       50
102
RTVSPost2010PropOp37
 70
     1
102
RTVSPost2010Prop38
140
0.0
102
RTVSPost2010PropOp38
 70
     1
102
RTVSPost2010Prop39
140
1.0
102
RTVSPost2010PropOp39
 70
     1
102
RTVSPost2010Prop40
 90
        0
102
RTVSPost2010PropOp40
 70
     1
102
RTVSPost2010Prop41ColorIndex
 90
       18
102
RTVSPost2010Prop41ColorRGB
 90
        0
102
RTVSPost2010PropOp41
 70
     1
102
RTVSPost2010Prop42
 90
       50
102
RTVSPost2010PropOp42
 70
     1
102
RTVSPost2010Prop43
 90
        3
102
RTVSPost2010PropOp43
 70
     1
102
RTVSPost2010Prop44ColorIndex
 90
        5
102
RTVSPost2010Prop44ColorRGB
 90
      255
102
RTVSPost2010PropOp44
 70
     1
102
RTVSPost2010Prop45
280
     0
102
RTVSPost2010PropOp45
 70
     1
102
RTVSPost2010Prop46
 90
       50
102
RTVSPost2010PropOp46
 70
     1
102
RTVSPost2010Prop47
 90
       50
102
RTVSPost2010PropOp47
 70
     1
102
RTVSPost2010Prop48
 90
       50
102
RTVSPost2010PropOp48
 70
     1
102
RTVSPost2010Prop49
280
     0
102
RTVSPost2010PropOp49
 70
     1
102
RTVSPost2010Prop50
 90
       50
102
RTVSPost2010PropOp50
 70
     1
102
RTVSPost2010Prop51ColorIndex
 90
      256
102
RTVSPost2010Prop51ColorRGB
 90
-16777216
102
RTVSPost2010PropOp51
 70
     0
102
RTVSPost2010Prop52
140
1.0
102
RTVSPost2010PropOp52
 70
     0
102
RTVSPost2010Prop53
 90
        2
102
RTVSPost2010PropOp53
 70
     1
102
RTVSPost2010Prop54
  1
strokes_ogs.tif
102
RTVSPost2010PropOp54
 70
     1
102
RTVSPost2010Prop55
280
     0
102
RTVSPost2010PropOp55
 70
     1
102
RTVSPost2010Prop56
140
1.0
102
RTVSPost2010PropOp56
 70
     1
102
RTVSPost2010Prop57
140
1.0
102
RTVSPost2010PropOp57
 70
     1
102
RTVSPropertyOp0
 70
     1
102
RTVSPropertyOp1
 70
     1
102
RTVSPropertyOp2
 70
     1
102
RTVSPropertyOp3
 70
     1
102
RTVSPropertyOp4
 70
     1
102
RTVSPropertyOp5
 70
     1
102
RTVSPropertyOp6
 70
     1
102
RTVSPropertyOp7
 70
     1
102
RTVSPropertyOp8
 70
     1
102
RTVSPropertyOp9
 70
     1
102
RTVSPropertyOp10
 70
     1
102
RTVSPropertyOp11
 70
     1
102
RTVSPropertyOp12
 70
     1
102
RTVSPropertyOp13
 70
     1
102
RTVSPropertyOp14
 70
     1
102
RTVSPropertyOp15
 70
     1
102
RTVSPropertyOp16
 70
     1
102
RTVSPropertyOp17
 70
     1
102
RTVSPropertyOp18
 70
     1
102
RTVSPropertyOp19
 70
     1
102
RTVSPropertyOp20
 70
     1
102
RTVSPropertyOp21
 70
     1
102
RTVSPropertyOp22
 70
     1
102
RTVSPropertyOp23
 70
     1
102
RTVSPropertyOp24
 70
     1
102
RTVSPropertyOp25
 70
     1
102
RTVSPropertyOp26
 70
     1
102
RTVSPropertyOp27
 70
     1
102
RTVSPropertyOp28
 70
     1
102
RTVSPropertyOp29
 70
     1
102
RTVSPropertyOp30
 70
     1
102
RTVSPropertyOp31
 70
     1
102
RTVSPropertyOp32
 70
     1
102
RTVSPropertyOp33
 70
     1
102
RTVSPropertyOp34
 70
     1
102
RTVSPropertyOp35
 70
     1
102
RTVSPropertyOp36
 70
     1
102
RTVSPropertyOp37
 70
     1
102
RTVSPropertyOp38
 70
     1
102
RTVSPropertyOp39
 70
     1
102
RTVSPropertyOp40
 70
     1
102
RTVSPropertyOp41
 70
     1
102
RTVSPropertyOp42
 70
     1
102
RTVSPropertyOp43
 70
     1
102
RTVSPropertyOp44
 70
     1
102
RTVSPropertyOp45
 70
     1
102
RTVSPropertyOp46
 70
     1
102
RTVSPropertyOp47
 70
     1
102
RTVSPropertyOp48
 70
     1
102
RTVSPropertyOp49
 70
     1
102
RTVSPropertyOp50
 70
     1
102
RTVSPropertyOp51
 70
     0
102
RTVSPropertyOp52
 70
     0
102
RTVSPropertyOp53
 70
     1
102
RTVSPropertyOp54
 70
     1
102
RTVSPropertyOp55
 70
     1
102
RTVSPropertyOp56
 70
     1
102
RTVSPropertyOp57
 70
     1
102
RTVSPropertyOp58
 70
     1
102
RTVSPropertyOp59
 70
     1
102
RTVSPropertyOp60
 70
     1
102
RTVSPropertyOp61
 70
     1
102
RTVSPropertyOp62
 70
     1
  0
XRECORD
  5
44AE
102
{ACAD_REACTORS
330
44AD
102
}
330
44AD
100
AcDbXrecord
280
     1
102
RTVSPost2010Prop28
280
     0
102
RTVSPost2010PropOp28
 70
     1
102
RTVSPost2010Prop29
280
     1
102
RTVSPost2010PropOp29
 70
     1
102
RTVSPost2010Prop30
280
     1
102
RTVSPost2010PropOp30
 70
     1
102
RTVSPost2010Prop31
280
     0
102
RTVSPost2010PropOp31
 70
     1
102
RTVSPost2010Prop32
280
     0
102
RTVSPost2010PropOp32
 70
     1
102
RTVSPost2010Prop33
280
     0
102
RTVSPost2010PropOp33
 70
     1
102
RTVSPost2010Prop34
280
     0
102
RTVSPost2010PropOp34
 70
     1
102
RTVSPost2010Prop35
280
     0
102
RTVSPost2010PropOp35
 70
     1
102
RTVSPost2010Prop36
280
     0
102
RTVSPost2010PropOp36
 70
     1
102
RTVSPost2010Prop37
 90
       50
102
RTVSPost2010PropOp37
 70
     1
102
RTVSPost2010Prop38
140
0.0
102
RTVSPost2010PropOp38
 70
     1
102
RTVSPost2010Prop39
140
1.0
102
RTVSPost2010PropOp39
 70
     1
102
RTVSPost2010Prop40
 90
        0
102
RTVSPost2010PropOp40
 70
     1
102
RTVSPost2010Prop41ColorIndex
 90
       18
102
RTVSPost2010Prop41ColorRGB
 90
        0
102
RTVSPost2010PropOp41
 70
     1
102
RTVSPost2010Prop42
 90
       50
102
RTVSPost2010PropOp42
 70
     1
102
RTVSPost2010Prop43
 90
        3
102
RTVSPost2010PropOp43
 70
     1
102
RTVSPost2010Prop44ColorIndex
 90
        5
102
RTVSPost2010Prop44ColorRGB
 90
      255
102
RTVSPost2010PropOp44
 70
     1
102
RTVSPost2010Prop45
280
     0
102
RTVSPost2010PropOp45
 70
     1
102
RTVSPost2010Prop46
 90
       50
102
RTVSPost2010PropOp46
 70
     1
102
RTVSPost2010Prop47
 90
       50
102
RTVSPost2010PropOp47
 70
     1
102
RTVSPost2010Prop48
 90
       50
102
RTVSPost2010PropOp48
 70
     1
102
RTVSPost2010Prop49
280
     0
102
RTVSPost2010PropOp49
 70
     1
102
RTVSPost2010Prop50
 90
       50
102
RTVSPost2010PropOp50
 70
     1
102
RTVSPost2010Prop51ColorIndex
 90
      256
102
RTVSPost2010Prop51ColorRGB
 90
-16777216
102
RTVSPost2010PropOp51
 70
     0
102
RTVSPost2010Prop52
140
1.0
102
RTVSPost2010PropOp52
 70
     0
102
RTVSPost2010Prop53
 90
        2
102
RTVSPost2010PropOp53
 70
     1
102
RTVSPost2010Prop54
  1
strokes_ogs.tif
102
RTVSPost2010PropOp54
 70
     1
102
RTVSPost2010Prop55
280
     0
102
RTVSPost2010PropOp55
 70
     1
102
RTVSPost2010Prop56
140
1.0
102
RTVSPost2010PropOp56
 70
     1
102
RTVSPost2010Prop57
140
1.0
102
RTVSPost2010PropOp57
 70
     1
102
RTVSPropertyOp0
 70
     1
102
RTVSPropertyOp1
 70
     1
102
RTVSPropertyOp2
 70
     1
102
RTVSPropertyOp3
 70
     1
102
RTVSPropertyOp4
 70
     1
102
RTVSPropertyOp5
 70
     1
102
RTVSPropertyOp6
 70
     1
102
RTVSPropertyOp7
 70
     1
102
RTVSPropertyOp8
 70
     1
102
RTVSPropertyOp9
 70
     1
102
RTVSPropertyOp10
 70
     1
102
RTVSPropertyOp11
 70
     1
102
RTVSPropertyOp12
 70
     1
102
RTVSPropertyOp13
 70
     1
102
RTVSPropertyOp14
 70
     1
102
RTVSPropertyOp15
 70
     1
102
RTVSPropertyOp16
 70
     1
102
RTVSPropertyOp17
 70
     1
102
RTVSPropertyOp18
 70
     1
102
RTVSPropertyOp19
 70
     1
102
RTVSPropertyOp20
 70
     1
102
RTVSPropertyOp21
 70
     1
102
RTVSPropertyOp22
 70
     1
102
RTVSPropertyOp23
 70
     1
102
RTVSPropertyOp24
 70
     1
102
RTVSPropertyOp25
 70
     1
102
RTVSPropertyOp26
 70
     1
102
RTVSPropertyOp27
 70
     1
102
RTVSPropertyOp28
 70
     1
102
RTVSPropertyOp29
 70
     1
102
RTVSPropertyOp30
 70
     1
102
RTVSPropertyOp31
 70
     1
102
RTVSPropertyOp32
 70
     1
102
RTVSPropertyOp33
 70
     1
102
RTVSPropertyOp34
 70
     1
102
RTVSPropertyOp35
 70
     1
102
RTVSPropertyOp36
 70
     1
102
RTVSPropertyOp37
 70
     1
102
RTVSPropertyOp38
 70
     1
102
RTVSPropertyOp39
 70
     1
102
RTVSPropertyOp40
 70
     1
102
RTVSPropertyOp41
 70
     1
102
RTVSPropertyOp42
 70
     1
102
RTVSPropertyOp43
 70
     1
102
RTVSPropertyOp44
 70
     1
102
RTVSPropertyOp45
 70
     1
102
RTVSPropertyOp46
 70
     1
102
RTVSPropertyOp47
 70
     1
102
RTVSPropertyOp48
 70
     1
102
RTVSPropertyOp49
 70
     1
102
RTVSPropertyOp50
 70
     1
102
RTVSPropertyOp51
 70
     0
102
RTVSPropertyOp52
 70
     0
102
RTVSPropertyOp53
 70
     1
102
RTVSPropertyOp54
 70
     1
102
RTVSPropertyOp55
 70
     1
102
RTVSPropertyOp56
 70
     1
102
RTVSPropertyOp57
 70
     1
102
RTVSPropertyOp58
 70
     1
102
RTVSPropertyOp59
 70
     1
102
RTVSPropertyOp60
 70
     1
102
RTVSPropertyOp61
 70
     1
102
RTVSPropertyOp62
 70
     1
  0
XRECORD
  5
4485
102
{ACAD_REACTORS
330
4484
102
}
330
4484
100
AcDbXrecord
280
     1
102
RTVSPost2010Prop28
280
     0
102
RTVSPost2010PropOp28
 70
     1
102
RTVSPost2010Prop29
280
     1
102
RTVSPost2010PropOp29
 70
     1
102
RTVSPost2010Prop30
280
     1
102
RTVSPost2010PropOp30
 70
     1
102
RTVSPost2010Prop31
280
     0
102
RTVSPost2010PropOp31
 70
     1
102
RTVSPost2010Prop32
280
     0
102
RTVSPost2010PropOp32
 70
     1
102
RTVSPost2010Prop33
280
     0
102
RTVSPost2010PropOp33
 70
     1
102
RTVSPost2010Prop34
280
     0
102
RTVSPost2010PropOp34
 70
     1
102
RTVSPost2010Prop35
280
     0
102
RTVSPost2010PropOp35
 70
     1
102
RTVSPost2010Prop36
280
     0
102
RTVSPost2010PropOp36
 70
     1
102
RTVSPost2010Prop37
 90
       50
102
RTVSPost2010PropOp37
 70
     1
102
RTVSPost2010Prop38
140
0.0
102
RTVSPost2010PropOp38
 70
     1
102
RTVSPost2010Prop39
140
1.0
102
RTVSPost2010PropOp39
 70
     1
102
RTVSPost2010Prop40
 90
        0
102
RTVSPost2010PropOp40
 70
     1
102
RTVSPost2010Prop41ColorIndex
 90
       18
102
RTVSPost2010Prop41ColorRGB
 90
        0
102
RTVSPost2010PropOp41
 70
     1
102
RTVSPost2010Prop42
 90
       50
102
RTVSPost2010PropOp42
 70
     1
102
RTVSPost2010Prop43
 90
        3
102
RTVSPost2010PropOp43
 70
     1
102
RTVSPost2010Prop44ColorIndex
 90
        5
102
RTVSPost2010Prop44ColorRGB
 90
      255
102
RTVSPost2010PropOp44
 70
     1
102
RTVSPost2010Prop45
280
     0
102
RTVSPost2010PropOp45
 70
     1
102
RTVSPost2010Prop46
 90
       50
102
RTVSPost2010PropOp46
 70
     1
102
RTVSPost2010Prop47
 90
       50
102
RTVSPost2010PropOp47
 70
     1
102
RTVSPost2010Prop48
 90
       50
102
RTVSPost2010PropOp48
 70
     1
102
RTVSPost2010Prop49
280
     0
102
RTVSPost2010PropOp49
 70
     1
102
RTVSPost2010Prop50
 90
       50
102
RTVSPost2010PropOp50
 70
     1
102
RTVSPost2010Prop51ColorIndex
 90
      256
102
RTVSPost2010Prop51ColorRGB
 90
-16777216
102
RTVSPost2010PropOp51
 70
     0
102
RTVSPost2010Prop52
140
1.0
102
RTVSPost2010PropOp52
 70
     0
102
RTVSPost2010Prop53
 90
        2
102
RTVSPost2010PropOp53
 70
     1
102
RTVSPost2010Prop54
  1
strokes_ogs.tif
102
RTVSPost2010PropOp54
 70
     1
102
RTVSPost2010Prop55
280
     0
102
RTVSPost2010PropOp55
 70
     1
102
RTVSPost2010Prop56
140
1.0
102
RTVSPost2010PropOp56
 70
     1
102
RTVSPost2010Prop57
140
1.0
102
RTVSPost2010PropOp57
 70
     1
102
RTVSPropertyOp0
 70
     0
102
RTVSPropertyOp1
 70
     0
102
RTVSPropertyOp2
 70
     0
102
RTVSPropertyOp3
 70
     0
102
RTVSPropertyOp4
 70
     0
102
RTVSPropertyOp5
 70
     0
102
RTVSPropertyOp6
 70
     0
102
RTVSPropertyOp7
 70
     0
102
RTVSPropertyOp8
 70
     0
102
RTVSPropertyOp9
 70
     0
102
RTVSPropertyOp10
 70
     0
102
RTVSPropertyOp11
 70
     0
102
RTVSPropertyOp12
 70
     0
102
RTVSPropertyOp13
 70
     0
102
RTVSPropertyOp14
 70
     2
102
RTVSPropertyOp15
 70
     0
102
RTVSPropertyOp16
 70
     0
102
RTVSPropertyOp17
 70
     0
102
RTVSPropertyOp18
 70
     0
102
RTVSPropertyOp19
 70
     0
102
RTVSPropertyOp20
 70
     0
102
RTVSPropertyOp21
 70
     0
102
RTVSPropertyOp22
 70
     0
102
RTVSPropertyOp23
 70
     0
102
RTVSPropertyOp24
 70
     0
102
RTVSPropertyOp25
 70
     0
102
RTVSPropertyOp26
 70
     0
102
RTVSPropertyOp27
 70
     0
102
RTVSPropertyOp28
 70
     1
102
RTVSPropertyOp29
 70
     1
102
RTVSPropertyOp30
 70
     1
102
RTVSPropertyOp31
 70
     1
102
RTVSPropertyOp32
 70
     1
102
RTVSPropertyOp33
 70
     1
102
RTVSPropertyOp34
 70
     1
102
RTVSPropertyOp35
 70
     1
102
RTVSPropertyOp36
 70
     1
102
RTVSPropertyOp37
 70
     1
102
RTVSPropertyOp38
 70
     1
102
RTVSPropertyOp39
 70
     1
102
RTVSPropertyOp40
 70
     1
102
RTVSPropertyOp41
 70
     1
102
RTVSPropertyOp42
 70
     1
102
RTVSPropertyOp43
 70
     1
102
RTVSPropertyOp44
 70
     1
102
RTVSPropertyOp45
 70
     1
102
RTVSPropertyOp46
 70
     1
102
RTVSPropertyOp47
 70
     1
102
RTVSPropertyOp48
 70
     1
102
RTVSPropertyOp49
 70
     1
102
RTVSPropertyOp50
 70
     1
102
RTVSPropertyOp51
 70
     0
102
RTVSPropertyOp52
 70
     0
102
RTVSPropertyOp53
 70
     1
102
RTVSPropertyOp54
 70
     1
102
RTVSPropertyOp55
 70
     1
102
RTVSPropertyOp56
 70
     1
102
RTVSPropertyOp57
 70
     1
102
RTVSPropertyOp58
 70
     1
102
RTVSPropertyOp59
 70
     1
102
RTVSPropertyOp60
 70
     1
102
RTVSPropertyOp61
 70
     1
102
RTVSPropertyOp62
 70
     1
  0
XRECORD
  5
447F
102
{ACAD_REACTORS
330
447E
102
}
330
447E
100
AcDbXrecord
280
     1
102
RTVSPost2010Prop28
280
     0
102
RTVSPost2010PropOp28
 70
     1
102
RTVSPost2010Prop29
280
     1
102
RTVSPost2010PropOp29
 70
     1
102
RTVSPost2010Prop30
280
     1
102
RTVSPost2010PropOp30
 70
     1
102
RTVSPost2010Prop31
280
     0
102
RTVSPost2010PropOp31
 70
     1
102
RTVSPost2010Prop32
280
     0
102
RTVSPost2010PropOp32
 70
     1
102
RTVSPost2010Prop33
280
     0
102
RTVSPost2010PropOp33
 70
     1
102
RTVSPost2010Prop34
280
     0
102
RTVSPost2010PropOp34
 70
     1
102
RTVSPost2010Prop35
280
     0
102
RTVSPost2010PropOp35
 70
     1
102
RTVSPost2010Prop36
280
     0
102
RTVSPost2010PropOp36
 70
     1
102
RTVSPost2010Prop37
 90
       50
102
RTVSPost2010PropOp37
 70
     1
102
RTVSPost2010Prop38
140
0.0
102
RTVSPost2010PropOp38
 70
     1
102
RTVSPost2010Prop39
140
1.0
102
RTVSPost2010PropOp39
 70
     1
102
RTVSPost2010Prop40
 90
        0
102
RTVSPost2010PropOp40
 70
     1
102
RTVSPost2010Prop41ColorIndex
 90
       18
102
RTVSPost2010Prop41ColorRGB
 90
        0
102
RTVSPost2010PropOp41
 70
     1
102
RTVSPost2010Prop42
 90
       50
102
RTVSPost2010PropOp42
 70
     1
102
RTVSPost2010Prop43
 90
        3
102
RTVSPost2010PropOp43
 70
     1
102
RTVSPost2010Prop44ColorIndex
 90
        5
102
RTVSPost2010Prop44ColorRGB
 90
      255
102
RTVSPost2010PropOp44
 70
     1
102
RTVSPost2010Prop45
280
     0
102
RTVSPost2010PropOp45
 70
     1
102
RTVSPost2010Prop46
 90
       50
102
RTVSPost2010PropOp46
 70
     1
102
RTVSPost2010Prop47
 90
       50
102
RTVSPost2010PropOp47
 70
     1
102
RTVSPost2010Prop48
 90
       50
102
RTVSPost2010PropOp48
 70
     1
102
RTVSPost2010Prop49
280
     0
102
RTVSPost2010PropOp49
 70
     1
102
RTVSPost2010Prop50
 90
       50
102
RTVSPost2010PropOp50
 70
     1
102
RTVSPost2010Prop51ColorIndex
 90
      256
102
RTVSPost2010Prop51ColorRGB
 90
-16777216
102
RTVSPost2010PropOp51
 70
     0
102
RTVSPost2010Prop52
140
1.0
102
RTVSPost2010PropOp52
 70
     0
102
RTVSPost2010Prop53
 90
        2
102
RTVSPost2010PropOp53
 70
     1
102
RTVSPost2010Prop54
  1
strokes_ogs.tif
102
RTVSPost2010PropOp54
 70
     1
102
RTVSPost2010Prop55
280
     0
102
RTVSPost2010PropOp55
 70
     1
102
RTVSPost2010Prop56
140
1.0
102
RTVSPost2010PropOp56
 70
     1
102
RTVSPost2010Prop57
140
1.0
102
RTVSPost2010PropOp57
 70
     1
102
RTVSPropertyOp0
 70
     1
102
RTVSPropertyOp1
 70
     1
102
RTVSPropertyOp2
 70
     1
102
RTVSPropertyOp3
 70
     1
102
RTVSPropertyOp4
 70
     1
102
RTVSPropertyOp5
 70
     1
102
RTVSPropertyOp6
 70
     1
102
RTVSPropertyOp7
 70
     1
102
RTVSPropertyOp8
 70
     1
102
RTVSPropertyOp9
 70
     1
102
RTVSPropertyOp10
 70
     1
102
RTVSPropertyOp11
 70
     1
102
RTVSPropertyOp12
 70
     1
102
RTVSPropertyOp13
 70
     1
102
RTVSPropertyOp14
 70
     1
102
RTVSPropertyOp15
 70
     1
102
RTVSPropertyOp16
 70
     1
102
RTVSPropertyOp17
 70
     1
102
RTVSPropertyOp18
 70
     1
102
RTVSPropertyOp19
 70
     1
102
RTVSPropertyOp20
 70
     1
102
RTVSPropertyOp21
 70
     1
102
RTVSPropertyOp22
 70
     1
102
RTVSPropertyOp23
 70
     1
102
RTVSPropertyOp24
 70
     1
102
RTVSPropertyOp25
 70
     1
102
RTVSPropertyOp26
 70
     1
102
RTVSPropertyOp27
 70
     1
102
RTVSPropertyOp28
 70
     1
102
RTVSPropertyOp29
 70
     1
102
RTVSPropertyOp30
 70
     1
102
RTVSPropertyOp31
 70
     1
102
RTVSPropertyOp32
 70
     1
102
RTVSPropertyOp33
 70
     1
102
RTVSPropertyOp34
 70
     1
102
RTVSPropertyOp35
 70
     1
102
RTVSPropertyOp36
 70
     1
102
RTVSPropertyOp37
 70
     1
102
RTVSPropertyOp38
 70
     1
102
RTVSPropertyOp39
 70
     1
102
RTVSPropertyOp40
 70
     1
102
RTVSPropertyOp41
 70
     1
102
RTVSPropertyOp42
 70
     1
102
RTVSPropertyOp43
 70
     1
102
RTVSPropertyOp44
 70
     1
102
RTVSPropertyOp45
 70
     1
102
RTVSPropertyOp46
 70
     1
102
RTVSPropertyOp47
 70
     1
102
RTVSPropertyOp48
 70
     1
102
RTVSPropertyOp49
 70
     1
102
RTVSPropertyOp50
 70
     1
102
RTVSPropertyOp51
 70
     0
102
RTVSPropertyOp52
 70
     0
102
RTVSPropertyOp53
 70
     1
102
RTVSPropertyOp54
 70
     1
102
RTVSPropertyOp55
 70
     1
102
RTVSPropertyOp56
 70
     1
102
RTVSPropertyOp57
 70
     1
102
RTVSPropertyOp58
 70
     1
102
RTVSPropertyOp59
 70
     1
102
RTVSPropertyOp60
 70
     1
102
RTVSPropertyOp61
 70
     1
102
RTVSPropertyOp62
 70
     1
  0
XRECORD
  5
4487
102
{ACAD_REACTORS
330
4486
102
}
330
4486
100
AcDbXrecord
280
     1
102
RTVSPost2010Prop28
280
     0
102
RTVSPost2010PropOp28
 70
     1
102
RTVSPost2010Prop29
280
     1
102
RTVSPost2010PropOp29
 70
     1
102
RTVSPost2010Prop30
280
     1
102
RTVSPost2010PropOp30
 70
     1
102
RTVSPost2010Prop31
280
     0
102
RTVSPost2010PropOp31
 70
     1
102
RTVSPost2010Prop32
280
     0
102
RTVSPost2010PropOp32
 70
     1
102
RTVSPost2010Prop33
280
     0
102
RTVSPost2010PropOp33
 70
     1
102
RTVSPost2010Prop34
280
     0
102
RTVSPost2010PropOp34
 70
     1
102
RTVSPost2010Prop35
280
     0
102
RTVSPost2010PropOp35
 70
     1
102
RTVSPost2010Prop36
280
     0
102
RTVSPost2010PropOp36
 70
     1
102
RTVSPost2010Prop37
 90
       50
102
RTVSPost2010PropOp37
 70
     1
102
RTVSPost2010Prop38
140
0.0
102
RTVSPost2010PropOp38
 70
     1
102
RTVSPost2010Prop39
140
1.0
102
RTVSPost2010PropOp39
 70
     1
102
RTVSPost2010Prop40
 90
        0
102
RTVSPost2010PropOp40
 70
     1
102
RTVSPost2010Prop41ColorIndex
 90
       18
102
RTVSPost2010Prop41ColorRGB
 90
        0
102
RTVSPost2010PropOp41
 70
     1
102
RTVSPost2010Prop42
 90
       50
102
RTVSPost2010PropOp42
 70
     1
102
RTVSPost2010Prop43
 90
        3
102
RTVSPost2010PropOp43
 70
     1
102
RTVSPost2010Prop44ColorIndex
 90
        5
102
RTVSPost2010Prop44ColorRGB
 90
      255
102
RTVSPost2010PropOp44
 70
     1
102
RTVSPost2010Prop45
280
     0
102
RTVSPost2010PropOp45
 70
     1
102
RTVSPost2010Prop46
 90
       50
102
RTVSPost2010PropOp46
 70
     1
102
RTVSPost2010Prop47
 90
       50
102
RTVSPost2010PropOp47
 70
     1
102
RTVSPost2010Prop48
 90
       50
102
RTVSPost2010PropOp48
 70
     1
102
RTVSPost2010Prop49
280
     0
102
RTVSPost2010PropOp49
 70
     1
102
RTVSPost2010Prop50
 90
       50
102
RTVSPost2010PropOp50
 70
     1
102
RTVSPost2010Prop51ColorIndex
 90
      256
102
RTVSPost2010Prop51ColorRGB
 90
-16777216
102
RTVSPost2010PropOp51
 70
     0
102
RTVSPost2010Prop52
140
1.0
102
RTVSPost2010PropOp52
 70
     0
102
RTVSPost2010Prop53
 90
        2
102
RTVSPost2010PropOp53
 70
     1
102
RTVSPost2010Prop54
  1
strokes_ogs.tif
102
RTVSPost2010PropOp54
 70
     1
102
RTVSPost2010Prop55
280
     0
102
RTVSPost2010PropOp55
 70
     1
102
RTVSPost2010Prop56
140
1.0
102
RTVSPost2010PropOp56
 70
     1
102
RTVSPost2010Prop57
140
1.0
102
RTVSPost2010PropOp57
 70
     1
102
RTVSPropertyOp0
 70
     0
102
RTVSPropertyOp1
 70
     0
102
RTVSPropertyOp2
 70
     0
102
RTVSPropertyOp3
 70
     0
102
RTVSPropertyOp4
 70
     0
102
RTVSPropertyOp5
 70
     0
102
RTVSPropertyOp6
 70
     0
102
RTVSPropertyOp7
 70
     0
102
RTVSPropertyOp8
 70
     0
102
RTVSPropertyOp9
 70
     0
102
RTVSPropertyOp10
 70
     0
102
RTVSPropertyOp11
 70
     0
102
RTVSPropertyOp12
 70
     0
102
RTVSPropertyOp13
 70
     0
102
RTVSPropertyOp14
 70
     2
102
RTVSPropertyOp15
 70
     0
102
RTVSPropertyOp16
 70
     0
102
RTVSPropertyOp17
 70
     0
102
RTVSPropertyOp18
 70
     0
102
RTVSPropertyOp19
 70
     0
102
RTVSPropertyOp20
 70
     0
102
RTVSPropertyOp21
 70
     0
102
RTVSPropertyOp22
 70
     0
102
RTVSPropertyOp23
 70
     0
102
RTVSPropertyOp24
 70
     0
102
RTVSPropertyOp25
 70
     0
102
RTVSPropertyOp26
 70
     0
102
RTVSPropertyOp27
 70
     0
102
RTVSPropertyOp28
 70
     1
102
RTVSPropertyOp29
 70
     1
102
RTVSPropertyOp30
 70
     1
102
RTVSPropertyOp31
 70
     1
102
RTVSPropertyOp32
 70
     1
102
RTVSPropertyOp33
 70
     1
102
RTVSPropertyOp34
 70
     1
102
RTVSPropertyOp35
 70
     1
102
RTVSPropertyOp36
 70
     1
102
RTVSPropertyOp37
 70
     1
102
RTVSPropertyOp38
 70
     1
102
RTVSPropertyOp39
 70
     1
102
RTVSPropertyOp40
 70
     1
102
RTVSPropertyOp41
 70
     1
102
RTVSPropertyOp42
 70
     1
102
RTVSPropertyOp43
 70
     1
102
RTVSPropertyOp44
 70
     1
102
RTVSPropertyOp45
 70
     1
102
RTVSPropertyOp46
 70
     1
102
RTVSPropertyOp47
 70
     1
102
RTVSPropertyOp48
 70
     1
102
RTVSPropertyOp49
 70
     1
102
RTVSPropertyOp50
 70
     1
102
RTVSPropertyOp51
 70
     0
102
RTVSPropertyOp52
 70
     0
102
RTVSPropertyOp53
 70
     1
102
RTVSPropertyOp54
 70
     1
102
RTVSPropertyOp55
 70
     1
102
RTVSPropertyOp56
 70
     1
102
RTVSPropertyOp57
 70
     1
102
RTVSPropertyOp58
 70
     1
102
RTVSPropertyOp59
 70
     1
102
RTVSPropertyOp60
 70
     1
102
RTVSPropertyOp61
 70
     1
102
RTVSPropertyOp62
 70
     1
  0
XRECORD
  5
4477
102
{ACAD_REACTORS
330
4476
102
}
330
4476
100
AcDbXrecord
280
     1
102
RTVSPost2010Prop28
280
     0
102
RTVSPost2010PropOp28
 70
     1
102
RTVSPost2010Prop29
280
     1
102
RTVSPost2010PropOp29
 70
     1
102
RTVSPost2010Prop30
280
     1
102
RTVSPost2010PropOp30
 70
     1
102
RTVSPost2010Prop31
280
     0
102
RTVSPost2010PropOp31
 70
     1
102
RTVSPost2010Prop32
280
     0
102
RTVSPost2010PropOp32
 70
     1
102
RTVSPost2010Prop33
280
     0
102
RTVSPost2010PropOp33
 70
     1
102
RTVSPost2010Prop34
280
     0
102
RTVSPost2010PropOp34
 70
     1
102
RTVSPost2010Prop35
280
     0
102
RTVSPost2010PropOp35
 70
     1
102
RTVSPost2010Prop36
280
     0
102
RTVSPost2010PropOp36
 70
     1
102
RTVSPost2010Prop37
 90
       50
102
RTVSPost2010PropOp37
 70
     1
102
RTVSPost2010Prop38
140
0.0
102
RTVSPost2010PropOp38
 70
     1
102
RTVSPost2010Prop39
140
1.0
102
RTVSPost2010PropOp39
 70
     1
102
RTVSPost2010Prop40
 90
        0
102
RTVSPost2010PropOp40
 70
     1
102
RTVSPost2010Prop41ColorIndex
 90
       18
102
RTVSPost2010Prop41ColorRGB
 90
        0
102
RTVSPost2010PropOp41
 70
     1
102
RTVSPost2010Prop42
 90
       50
102
RTVSPost2010PropOp42
 70
     1
102
RTVSPost2010Prop43
 90
        3
102
RTVSPost2010PropOp43
 70
     1
102
RTVSPost2010Prop44ColorIndex
 90
        5
102
RTVSPost2010Prop44ColorRGB
 90
      255
102
RTVSPost2010PropOp44
 70
     1
102
RTVSPost2010Prop45
280
     0
102
RTVSPost2010PropOp45
 70
     1
102
RTVSPost2010Prop46
 90
       50
102
RTVSPost2010PropOp46
 70
     1
102
RTVSPost2010Prop47
 90
       50
102
RTVSPost2010PropOp47
 70
     1
102
RTVSPost2010Prop48
 90
       50
102
RTVSPost2010PropOp48
 70
     1
102
RTVSPost2010Prop49
280
     0
102
RTVSPost2010PropOp49
 70
     1
102
RTVSPost2010Prop50
 90
       50
102
RTVSPost2010PropOp50
 70
     1
102
RTVSPost2010Prop51ColorIndex
 90
      256
102
RTVSPost2010Prop51ColorRGB
 90
-16777216
102
RTVSPost2010PropOp51
 70
     0
102
RTVSPost2010Prop52
140
1.0
102
RTVSPost2010PropOp52
 70
     0
102
RTVSPost2010Prop53
 90
        2
102
RTVSPost2010PropOp53
 70
     1
102
RTVSPost2010Prop54
  1
strokes_ogs.tif
102
RTVSPost2010PropOp54
 70
     1
102
RTVSPost2010Prop55
280
     0
102
RTVSPost2010PropOp55
 70
     1
102
RTVSPost2010Prop56
140
1.0
102
RTVSPost2010PropOp56
 70
     1
102
RTVSPost2010Prop57
140
1.0
102
RTVSPost2010PropOp57
 70
     1
102
RTVSPropertyOp0
 70
     1
102
RTVSPropertyOp1
 70
     1
102
RTVSPropertyOp2
 70
     1
102
RTVSPropertyOp3
 70
     1
102
RTVSPropertyOp4
 70
     1
102
RTVSPropertyOp5
 70
     1
102
RTVSPropertyOp6
 70
     1
102
RTVSPropertyOp7
 70
     1
102
RTVSPropertyOp8
 70
     1
102
RTVSPropertyOp9
 70
     1
102
RTVSPropertyOp10
 70
     1
102
RTVSPropertyOp11
 70
     1
102
RTVSPropertyOp12
 70
     1
102
RTVSPropertyOp13
 70
     1
102
RTVSPropertyOp14
 70
     1
102
RTVSPropertyOp15
 70
     1
102
RTVSPropertyOp16
 70
     1
102
RTVSPropertyOp17
 70
     1
102
RTVSPropertyOp18
 70
     1
102
RTVSPropertyOp19
 70
     1
102
RTVSPropertyOp20
 70
     1
102
RTVSPropertyOp21
 70
     1
102
RTVSPropertyOp22
 70
     1
102
RTVSPropertyOp23
 70
     1
102
RTVSPropertyOp24
 70
     1
102
RTVSPropertyOp25
 70
     1
102
RTVSPropertyOp26
 70
     1
102
RTVSPropertyOp27
 70
     1
102
RTVSPropertyOp28
 70
     1
102
RTVSPropertyOp29
 70
     1
102
RTVSPropertyOp30
 70
     1
102
RTVSPropertyOp31
 70
     1
102
RTVSPropertyOp32
 70
     1
102
RTVSPropertyOp33
 70
     1
102
RTVSPropertyOp34
 70
     1
102
RTVSPropertyOp35
 70
     1
102
RTVSPropertyOp36
 70
     1
102
RTVSPropertyOp37
 70
     1
102
RTVSPropertyOp38
 70
     1
102
RTVSPropertyOp39
 70
     1
102
RTVSPropertyOp40
 70
     1
102
RTVSPropertyOp41
 70
     1
102
RTVSPropertyOp42
 70
     1
102
RTVSPropertyOp43
 70
     1
102
RTVSPropertyOp44
 70
     1
102
RTVSPropertyOp45
 70
     1
102
RTVSPropertyOp46
 70
     1
102
RTVSPropertyOp47
 70
     1
102
RTVSPropertyOp48
 70
     1
102
RTVSPropertyOp49
 70
     1
102
RTVSPropertyOp50
 70
     1
102
RTVSPropertyOp51
 70
     0
102
RTVSPropertyOp52
 70
     0
102
RTVSPropertyOp53
 70
     1
102
RTVSPropertyOp54
 70
     1
102
RTVSPropertyOp55
 70
     1
102
RTVSPropertyOp56
 70
     1
102
RTVSPropertyOp57
 70
     1
102
RTVSPropertyOp58
 70
     1
102
RTVSPropertyOp59
 70
     1
102
RTVSPropertyOp60
 70
     1
102
RTVSPropertyOp61
 70
     1
102
RTVSPropertyOp62
 70
     1
  0
XRECORD
  5
44B8
102
{ACAD_REACTORS
330
44B7
102
}
330
44B7
100
AcDbXrecord
280
     1
102
RTVSPost2010Prop28
280
     0
102
RTVSPost2010PropOp28
 70
     1
102
RTVSPost2010Prop29
280
     1
102
RTVSPost2010PropOp29
 70
     1
102
RTVSPost2010Prop30
280
     1
102
RTVSPost2010PropOp30
 70
     1
102
RTVSPost2010Prop31
280
     0
102
RTVSPost2010PropOp31
 70
     1
102
RTVSPost2010Prop32
280
     0
102
RTVSPost2010PropOp32
 70
     1
102
RTVSPost2010Prop33
280
     0
102
RTVSPost2010PropOp33
 70
     1
102
RTVSPost2010Prop34
280
     0
102
RTVSPost2010PropOp34
 70
     1
102
RTVSPost2010Prop35
280
     0
102
RTVSPost2010PropOp35
 70
     1
102
RTVSPost2010Prop36
280
     0
102
RTVSPost2010PropOp36
 70
     1
102
RTVSPost2010Prop37
 90
       50
102
RTVSPost2010PropOp37
 70
     1
102
RTVSPost2010Prop38
140
0.0
102
RTVSPost2010PropOp38
 70
     1
102
RTVSPost2010Prop39
140
1.0
102
RTVSPost2010PropOp39
 70
     1
102
RTVSPost2010Prop40
 90
        0
102
RTVSPost2010PropOp40
 70
     1
102
RTVSPost2010Prop41ColorIndex
 90
       18
102
RTVSPost2010Prop41ColorRGB
 90
        0
102
RTVSPost2010PropOp41
 70
     1
102
RTVSPost2010Prop42
 90
       50
102
RTVSPost2010PropOp42
 70
     1
102
RTVSPost2010Prop43
 90
        3
102
RTVSPost2010PropOp43
 70
     1
102
RTVSPost2010Prop44ColorIndex
 90
        5
102
RTVSPost2010Prop44ColorRGB
 90
      255
102
RTVSPost2010PropOp44
 70
     1
102
RTVSPost2010Prop45
280
     0
102
RTVSPost2010PropOp45
 70
     1
102
RTVSPost2010Prop46
 90
       50
102
RTVSPost2010PropOp46
 70
     1
102
RTVSPost2010Prop47
 90
       50
102
RTVSPost2010PropOp47
 70
     1
102
RTVSPost2010Prop48
 90
       50
102
RTVSPost2010PropOp48
 70
     1
102
RTVSPost2010Prop49
280
     0
102
RTVSPost2010PropOp49
 70
     1
102
RTVSPost2010Prop50
 90
       50
102
RTVSPost2010PropOp50
 70
     1
102
RTVSPost2010Prop51ColorIndex
 90
      256
102
RTVSPost2010Prop51ColorRGB
 90
-16777216
102
RTVSPost2010PropOp51
 70
     0
102
RTVSPost2010Prop52
140
1.0
102
RTVSPost2010PropOp52
 70
     0
102
RTVSPost2010Prop53
 90
        2
102
RTVSPost2010PropOp53
 70
     1
102
RTVSPost2010Prop54
  1
strokes_ogs.tif
102
RTVSPost2010PropOp54
 70
     1
102
RTVSPost2010Prop55
280
     0
102
RTVSPost2010PropOp55
 70
     1
102
RTVSPost2010Prop56
140
1.0
102
RTVSPost2010PropOp56
 70
     1
102
RTVSPost2010Prop57
140
1.0
102
RTVSPost2010PropOp57
 70
     1
102
RTVSPropertyOp0
 70
     1
102
RTVSPropertyOp1
 70
     1
102
RTVSPropertyOp2
 70
     1
102
RTVSPropertyOp3
 70
     1
102
RTVSPropertyOp4
 70
     1
102
RTVSPropertyOp5
 70
     1
102
RTVSPropertyOp6
 70
     1
102
RTVSPropertyOp7
 70
     1
102
RTVSPropertyOp8
 70
     1
102
RTVSPropertyOp9
 70
     1
102
RTVSPropertyOp10
 70
     1
102
RTVSPropertyOp11
 70
     1
102
RTVSPropertyOp12
 70
     1
102
RTVSPropertyOp13
 70
     1
102
RTVSPropertyOp14
 70
     1
102
RTVSPropertyOp15
 70
     1
102
RTVSPropertyOp16
 70
     1
102
RTVSPropertyOp17
 70
     1
102
RTVSPropertyOp18
 70
     1
102
RTVSPropertyOp19
 70
     1
102
RTVSPropertyOp20
 70
     1
102
RTVSPropertyOp21
 70
     1
102
RTVSPropertyOp22
 70
     1
102
RTVSPropertyOp23
 70
     1
102
RTVSPropertyOp24
 70
     1
102
RTVSPropertyOp25
 70
     1
102
RTVSPropertyOp26
 70
     1
102
RTVSPropertyOp27
 70
     1
102
RTVSPropertyOp28
 70
     1
102
RTVSPropertyOp29
 70
     1
102
RTVSPropertyOp30
 70
     1
102
RTVSPropertyOp31
 70
     1
102
RTVSPropertyOp32
 70
     1
102
RTVSPropertyOp33
 70
     1
102
RTVSPropertyOp34
 70
     1
102
RTVSPropertyOp35
 70
     1
102
RTVSPropertyOp36
 70
     1
102
RTVSPropertyOp37
 70
     1
102
RTVSPropertyOp38
 70
     1
102
RTVSPropertyOp39
 70
     1
102
RTVSPropertyOp40
 70
     1
102
RTVSPropertyOp41
 70
     1
102
RTVSPropertyOp42
 70
     1
102
RTVSPropertyOp43
 70
     1
102
RTVSPropertyOp44
 70
     1
102
RTVSPropertyOp45
 70
     1
102
RTVSPropertyOp46
 70
     1
102
RTVSPropertyOp47
 70
     1
102
RTVSPropertyOp48
 70
     1
102
RTVSPropertyOp49
 70
     1
102
RTVSPropertyOp50
 70
     1
102
RTVSPropertyOp51
 70
     0
102
RTVSPropertyOp52
 70
     0
102
RTVSPropertyOp53
 70
     1
102
RTVSPropertyOp54
 70
     1
102
RTVSPropertyOp55
 70
     1
102
RTVSPropertyOp56
 70
     1
102
RTVSPropertyOp57
 70
     1
102
RTVSPropertyOp58
 70
     1
102
RTVSPropertyOp59
 70
     1
102
RTVSPropertyOp60
 70
     1
102
RTVSPropertyOp61
 70
     1
102
RTVSPropertyOp62
 70
     1
  0
XRECORD
  5
44B6
102
{ACAD_REACTORS
330
44B5
102
}
330
44B5
100
AcDbXrecord
280
     1
102
RTVSPost2010Prop28
280
     0
102
RTVSPost2010PropOp28
 70
     1
102
RTVSPost2010Prop29
280
     1
102
RTVSPost2010PropOp29
 70
     1
102
RTVSPost2010Prop30
280
     1
102
RTVSPost2010PropOp30
 70
     1
102
RTVSPost2010Prop31
280
     0
102
RTVSPost2010PropOp31
 70
     1
102
RTVSPost2010Prop32
280
     0
102
RTVSPost2010PropOp32
 70
     1
102
RTVSPost2010Prop33
280
     0
102
RTVSPost2010PropOp33
 70
     1
102
RTVSPost2010Prop34
280
     0
102
RTVSPost2010PropOp34
 70
     1
102
RTVSPost2010Prop35
280
     0
102
RTVSPost2010PropOp35
 70
     1
102
RTVSPost2010Prop36
280
     0
102
RTVSPost2010PropOp36
 70
     1
102
RTVSPost2010Prop37
 90
       50
102
RTVSPost2010PropOp37
 70
     1
102
RTVSPost2010Prop38
140
0.0
102
RTVSPost2010PropOp38
 70
     1
102
RTVSPost2010Prop39
140
1.0
102
RTVSPost2010PropOp39
 70
     1
102
RTVSPost2010Prop40
 90
        0
102
RTVSPost2010PropOp40
 70
     1
102
RTVSPost2010Prop41ColorIndex
 90
       18
102
RTVSPost2010Prop41ColorRGB
 90
        0
102
RTVSPost2010PropOp41
 70
     1
102
RTVSPost2010Prop42
 90
       50
102
RTVSPost2010PropOp42
 70
     1
102
RTVSPost2010Prop43
 90
        3
102
RTVSPost2010PropOp43
 70
     1
102
RTVSPost2010Prop44ColorIndex
 90
        5
102
RTVSPost2010Prop44ColorRGB
 90
      255
102
RTVSPost2010PropOp44
 70
     1
102
RTVSPost2010Prop45
280
     0
102
RTVSPost2010PropOp45
 70
     1
102
RTVSPost2010Prop46
 90
       50
102
RTVSPost2010PropOp46
 70
     1
102
RTVSPost2010Prop47
 90
       50
102
RTVSPost2010PropOp47
 70
     1
102
RTVSPost2010Prop48
 90
       50
102
RTVSPost2010PropOp48
 70
     1
102
RTVSPost2010Prop49
280
     0
102
RTVSPost2010PropOp49
 70
     1
102
RTVSPost2010Prop50
 90
       50
102
RTVSPost2010PropOp50
 70
     1
102
RTVSPost2010Prop51ColorIndex
 90
      256
102
RTVSPost2010Prop51ColorRGB
 90
-16777216
102
RTVSPost2010PropOp51
 70
     0
102
RTVSPost2010Prop52
140
1.0
102
RTVSPost2010PropOp52
 70
     0
102
RTVSPost2010Prop53
 90
        2
102
RTVSPost2010PropOp53
 70
     1
102
RTVSPost2010Prop54
  1
strokes_ogs.tif
102
RTVSPost2010PropOp54
 70
     1
102
RTVSPost2010Prop55
280
     0
102
RTVSPost2010PropOp55
 70
     1
102
RTVSPost2010Prop56
140
1.0
102
RTVSPost2010PropOp56
 70
     1
102
RTVSPost2010Prop57
140
1.0
102
RTVSPost2010PropOp57
 70
     1
102
RTVSPropertyOp0
 70
     1
102
RTVSPropertyOp1
 70
     1
102
RTVSPropertyOp2
 70
     1
102
RTVSPropertyOp3
 70
     1
102
RTVSPropertyOp4
 70
     1
102
RTVSPropertyOp5
 70
     1
102
RTVSPropertyOp6
 70
     1
102
RTVSPropertyOp7
 70
     1
102
RTVSPropertyOp8
 70
     1
102
RTVSPropertyOp9
 70
     1
102
RTVSPropertyOp10
 70
     1
102
RTVSPropertyOp11
 70
     1
102
RTVSPropertyOp12
 70
     1
102
RTVSPropertyOp13
 70
     1
102
RTVSPropertyOp14
 70
     1
102
RTVSPropertyOp15
 70
     1
102
RTVSPropertyOp16
 70
     1
102
RTVSPropertyOp17
 70
     1
102
RTVSPropertyOp18
 70
     1
102
RTVSPropertyOp19
 70
     1
102
RTVSPropertyOp20
 70
     1
102
RTVSPropertyOp21
 70
     1
102
RTVSPropertyOp22
 70
     1
102
RTVSPropertyOp23
 70
     1
102
RTVSPropertyOp24
 70
     1
102
RTVSPropertyOp25
 70
     1
102
RTVSPropertyOp26
 70
     1
102
RTVSPropertyOp27
 70
     1
102
RTVSPropertyOp28
 70
     1
102
RTVSPropertyOp29
 70
     1
102
RTVSPropertyOp30
 70
     1
102
RTVSPropertyOp31
 70
     1
102
RTVSPropertyOp32
 70
     1
102
RTVSPropertyOp33
 70
     1
102
RTVSPropertyOp34
 70
     1
102
RTVSPropertyOp35
 70
     1
102
RTVSPropertyOp36
 70
     1
102
RTVSPropertyOp37
 70
     1
102
RTVSPropertyOp38
 70
     1
102
RTVSPropertyOp39
 70
     1
102
RTVSPropertyOp40
 70
     1
102
RTVSPropertyOp41
 70
     1
102
RTVSPropertyOp42
 70
     1
102
RTVSPropertyOp43
 70
     1
102
RTVSPropertyOp44
 70
     1
102
RTVSPropertyOp45
 70
     1
102
RTVSPropertyOp46
 70
     1
102
RTVSPropertyOp47
 70
     1
102
RTVSPropertyOp48
 70
     1
102
RTVSPropertyOp49
 70
     1
102
RTVSPropertyOp50
 70
     1
102
RTVSPropertyOp51
 70
     0
102
RTVSPropertyOp52
 70
     0
102
RTVSPropertyOp53
 70
     1
102
RTVSPropertyOp54
 70
     1
102
RTVSPropertyOp55
 70
     1
102
RTVSPropertyOp56
 70
     1
102
RTVSPropertyOp57
 70
     1
102
RTVSPropertyOp58
 70
     1
102
RTVSPropertyOp59
 70
     1
102
RTVSPropertyOp60
 70
     1
102
RTVSPropertyOp61
 70
     1
102
RTVSPropertyOp62
 70
     1
  0
XRECORD
  5
44B0
102
{ACAD_REACTORS
330
44AF
102
}
330
44AF
100
AcDbXrecord
280
     1
102
RTVSPost2010Prop28
280
     0
102
RTVSPost2010PropOp28
 70
     1
102
RTVSPost2010Prop29
280
     1
102
RTVSPost2010PropOp29
 70
     1
102
RTVSPost2010Prop30
280
     1
102
RTVSPost2010PropOp30
 70
     1
102
RTVSPost2010Prop31
280
     0
102
RTVSPost2010PropOp31
 70
     1
102
RTVSPost2010Prop32
280
     0
102
RTVSPost2010PropOp32
 70
     1
102
RTVSPost2010Prop33
280
     0
102
RTVSPost2010PropOp33
 70
     1
102
RTVSPost2010Prop34
280
     0
102
RTVSPost2010PropOp34
 70
     1
102
RTVSPost2010Prop35
280
     0
102
RTVSPost2010PropOp35
 70
     1
102
RTVSPost2010Prop36
280
     0
102
RTVSPost2010PropOp36
 70
     1
102
RTVSPost2010Prop37
 90
       50
102
RTVSPost2010PropOp37
 70
     1
102
RTVSPost2010Prop38
140
0.0
102
RTVSPost2010PropOp38
 70
     1
102
RTVSPost2010Prop39
140
1.0
102
RTVSPost2010PropOp39
 70
     1
102
RTVSPost2010Prop40
 90
        0
102
RTVSPost2010PropOp40
 70
     1
102
RTVSPost2010Prop41ColorIndex
 90
       18
102
RTVSPost2010Prop41ColorRGB
 90
        0
102
RTVSPost2010PropOp41
 70
     1
102
RTVSPost2010Prop42
 90
       50
102
RTVSPost2010PropOp42
 70
     1
102
RTVSPost2010Prop43
 90
        3
102
RTVSPost2010PropOp43
 70
     1
102
RTVSPost2010Prop44ColorIndex
 90
        5
102
RTVSPost2010Prop44ColorRGB
 90
      255
102
RTVSPost2010PropOp44
 70
     1
102
RTVSPost2010Prop45
280
     0
102
RTVSPost2010PropOp45
 70
     1
102
RTVSPost2010Prop46
 90
       50
102
RTVSPost2010PropOp46
 70
     1
102
RTVSPost2010Prop47
 90
       50
102
RTVSPost2010PropOp47
 70
     1
102
RTVSPost2010Prop48
 90
       50
102
RTVSPost2010PropOp48
 70
     1
102
RTVSPost2010Prop49
280
     0
102
RTVSPost2010PropOp49
 70
     1
102
RTVSPost2010Prop50
 90
       50
102
RTVSPost2010PropOp50
 70
     1
102
RTVSPost2010Prop51ColorIndex
 90
      256
102
RTVSPost2010Prop51ColorRGB
 90
-16777216
102
RTVSPost2010PropOp51
 70
     0
102
RTVSPost2010Prop52
140
1.0
102
RTVSPost2010PropOp52
 70
     0
102
RTVSPost2010Prop53
 90
        2
102
RTVSPost2010PropOp53
 70
     1
102
RTVSPost2010Prop54
  1
strokes_ogs.tif
102
RTVSPost2010PropOp54
 70
     1
102
RTVSPost2010Prop55
280
     0
102
RTVSPost2010PropOp55
 70
     1
102
RTVSPost2010Prop56
140
1.0
102
RTVSPost2010PropOp56
 70
     1
102
RTVSPost2010Prop57
140
1.0
102
RTVSPost2010PropOp57
 70
     1
102
RTVSPropertyOp0
 70
     1
102
RTVSPropertyOp1
 70
     1
102
RTVSPropertyOp2
 70
     1
102
RTVSPropertyOp3
 70
     1
102
RTVSPropertyOp4
 70
     1
102
RTVSPropertyOp5
 70
     1
102
RTVSPropertyOp6
 70
     1
102
RTVSPropertyOp7
 70
     1
102
RTVSPropertyOp8
 70
     1
102
RTVSPropertyOp9
 70
     1
102
RTVSPropertyOp10
 70
     1
102
RTVSPropertyOp11
 70
     1
102
RTVSPropertyOp12
 70
     1
102
RTVSPropertyOp13
 70
     1
102
RTVSPropertyOp14
 70
     1
102
RTVSPropertyOp15
 70
     1
102
RTVSPropertyOp16
 70
     1
102
RTVSPropertyOp17
 70
     1
102
RTVSPropertyOp18
 70
     1
102
RTVSPropertyOp19
 70
     1
102
RTVSPropertyOp20
 70
     1
102
RTVSPropertyOp21
 70
     1
102
RTVSPropertyOp22
 70
     1
102
RTVSPropertyOp23
 70
     1
102
RTVSPropertyOp24
 70
     1
102
RTVSPropertyOp25
 70
     1
102
RTVSPropertyOp26
 70
     1
102
RTVSPropertyOp27
 70
     1
102
RTVSPropertyOp28
 70
     1
102
RTVSPropertyOp29
 70
     1
102
RTVSPropertyOp30
 70
     1
102
RTVSPropertyOp31
 70
     1
102
RTVSPropertyOp32
 70
     1
102
RTVSPropertyOp33
 70
     1
102
RTVSPropertyOp34
 70
     1
102
RTVSPropertyOp35
 70
     1
102
RTVSPropertyOp36
 70
     1
102
RTVSPropertyOp37
 70
     1
102
RTVSPropertyOp38
 70
     1
102
RTVSPropertyOp39
 70
     1
102
RTVSPropertyOp40
 70
     1
102
RTVSPropertyOp41
 70
     1
102
RTVSPropertyOp42
 70
     1
102
RTVSPropertyOp43
 70
     1
102
RTVSPropertyOp44
 70
     1
102
RTVSPropertyOp45
 70
     1
102
RTVSPropertyOp46
 70
     1
102
RTVSPropertyOp47
 70
     1
102
RTVSPropertyOp48
 70
     1
102
RTVSPropertyOp49
 70
     1
102
RTVSPropertyOp50
 70
     1
102
RTVSPropertyOp51
 70
     0
102
RTVSPropertyOp52
 70
     0
102
RTVSPropertyOp53
 70
     1
102
RTVSPropertyOp54
 70
     1
102
RTVSPropertyOp55
 70
     1
102
RTVSPropertyOp56
 70
     1
102
RTVSPropertyOp57
 70
     1
102
RTVSPropertyOp58
 70
     1
102
RTVSPropertyOp59
 70
     1
102
RTVSPropertyOp60
 70
     1
102
RTVSPropertyOp61
 70
     1
102
RTVSPropertyOp62
 70
     1
  0
XRECORD
  5
44B2
102
{ACAD_REACTORS
330
44B1
102
}
330
44B1
100
AcDbXrecord
280
     1
102
RTVSPost2010Prop28
280
     0
102
RTVSPost2010PropOp28
 70
     1
102
RTVSPost2010Prop29
280
     1
102
RTVSPost2010PropOp29
 70
     1
102
RTVSPost2010Prop30
280
     1
102
RTVSPost2010PropOp30
 70
     1
102
RTVSPost2010Prop31
280
     0
102
RTVSPost2010PropOp31
 70
     1
102
RTVSPost2010Prop32
280
     0
102
RTVSPost2010PropOp32
 70
     1
102
RTVSPost2010Prop33
280
     0
102
RTVSPost2010PropOp33
 70
     1
102
RTVSPost2010Prop34
280
     0
102
RTVSPost2010PropOp34
 70
     1
102
RTVSPost2010Prop35
280
     0
102
RTVSPost2010PropOp35
 70
     1
102
RTVSPost2010Prop36
280
     0
102
RTVSPost2010PropOp36
 70
     1
102
RTVSPost2010Prop37
 90
       50
102
RTVSPost2010PropOp37
 70
     1
102
RTVSPost2010Prop38
140
0.0
102
RTVSPost2010PropOp38
 70
     1
102
RTVSPost2010Prop39
140
1.0
102
RTVSPost2010PropOp39
 70
     1
102
RTVSPost2010Prop40
 90
        0
102
RTVSPost2010PropOp40
 70
     1
102
RTVSPost2010Prop41ColorIndex
 90
       18
102
RTVSPost2010Prop41ColorRGB
 90
        0
102
RTVSPost2010PropOp41
 70
     1
102
RTVSPost2010Prop42
 90
       50
102
RTVSPost2010PropOp42
 70
     1
102
RTVSPost2010Prop43
 90
        3
102
RTVSPost2010PropOp43
 70
     1
102
RTVSPost2010Prop44ColorIndex
 90
        5
102
RTVSPost2010Prop44ColorRGB
 90
      255
102
RTVSPost2010PropOp44
 70
     1
102
RTVSPost2010Prop45
280
     0
102
RTVSPost2010PropOp45
 70
     1
102
RTVSPost2010Prop46
 90
       50
102
RTVSPost2010PropOp46
 70
     1
102
RTVSPost2010Prop47
 90
       50
102
RTVSPost2010PropOp47
 70
     1
102
RTVSPost2010Prop48
 90
       50
102
RTVSPost2010PropOp48
 70
     1
102
RTVSPost2010Prop49
280
     0
102
RTVSPost2010PropOp49
 70
     1
102
RTVSPost2010Prop50
 90
       50
102
RTVSPost2010PropOp50
 70
     1
102
RTVSPost2010Prop51ColorIndex
 90
      256
102
RTVSPost2010Prop51ColorRGB
 90
-16777216
102
RTVSPost2010PropOp51
 70
     0
102
RTVSPost2010Prop52
140
1.0
102
RTVSPost2010PropOp52
 70
     0
102
RTVSPost2010Prop53
 90
        2
102
RTVSPost2010PropOp53
 70
     1
102
RTVSPost2010Prop54
  1
strokes_ogs.tif
102
RTVSPost2010PropOp54
 70
     1
102
RTVSPost2010Prop55
280
     0
102
RTVSPost2010PropOp55
 70
     1
102
RTVSPost2010Prop56
140
1.0
102
RTVSPost2010PropOp56
 70
     1
102
RTVSPost2010Prop57
140
1.0
102
RTVSPost2010PropOp57
 70
     1
102
RTVSPropertyOp0
 70
     1
102
RTVSPropertyOp1
 70
     1
102
RTVSPropertyOp2
 70
     1
102
RTVSPropertyOp3
 70
     1
102
RTVSPropertyOp4
 70
     1
102
RTVSPropertyOp5
 70
     1
102
RTVSPropertyOp6
 70
     1
102
RTVSPropertyOp7
 70
     1
102
RTVSPropertyOp8
 70
     1
102
RTVSPropertyOp9
 70
     1
102
RTVSPropertyOp10
 70
     1
102
RTVSPropertyOp11
 70
     1
102
RTVSPropertyOp12
 70
     1
102
RTVSPropertyOp13
 70
     1
102
RTVSPropertyOp14
 70
     1
102
RTVSPropertyOp15
 70
     1
102
RTVSPropertyOp16
 70
     1
102
RTVSPropertyOp17
 70
     1
102
RTVSPropertyOp18
 70
     1
102
RTVSPropertyOp19
 70
     1
102
RTVSPropertyOp20
 70
     1
102
RTVSPropertyOp21
 70
     1
102
RTVSPropertyOp22
 70
     1
102
RTVSPropertyOp23
 70
     1
102
RTVSPropertyOp24
 70
     1
102
RTVSPropertyOp25
 70
     1
102
RTVSPropertyOp26
 70
     1
102
RTVSPropertyOp27
 70
     1
102
RTVSPropertyOp28
 70
     1
102
RTVSPropertyOp29
 70
     1
102
RTVSPropertyOp30
 70
     1
102
RTVSPropertyOp31
 70
     1
102
RTVSPropertyOp32
 70
     1
102
RTVSPropertyOp33
 70
     1
102
RTVSPropertyOp34
 70
     1
102
RTVSPropertyOp35
 70
     1
102
RTVSPropertyOp36
 70
     1
102
RTVSPropertyOp37
 70
     1
102
RTVSPropertyOp38
 70
     1
102
RTVSPropertyOp39
 70
     1
102
RTVSPropertyOp40
 70
     1
102
RTVSPropertyOp41
 70
     1
102
RTVSPropertyOp42
 70
     1
102
RTVSPropertyOp43
 70
     1
102
RTVSPropertyOp44
 70
     1
102
RTVSPropertyOp45
 70
     1
102
RTVSPropertyOp46
 70
     1
102
RTVSPropertyOp47
 70
     1
102
RTVSPropertyOp48
 70
     1
102
RTVSPropertyOp49
 70
     1
102
RTVSPropertyOp50
 70
     1
102
RTVSPropertyOp51
 70
     0
102
RTVSPropertyOp52
 70
     0
102
RTVSPropertyOp53
 70
     1
102
RTVSPropertyOp54
 70
     1
102
RTVSPropertyOp55
 70
     1
102
RTVSPropertyOp56
 70
     1
102
RTVSPropertyOp57
 70
     1
102
RTVSPropertyOp58
 70
     1
102
RTVSPropertyOp59
 70
     1
102
RTVSPropertyOp60
 70
     1
102
RTVSPropertyOp61
 70
     1
102
RTVSPropertyOp62
 70
     1
  0
XRECORD
  5
447D
102
{ACAD_REACTORS
330
447C
102
}
330
447C
100
AcDbXrecord
280
     1
102
RTVSPost2010Prop28
280
     0
102
RTVSPost2010PropOp28
 70
     1
102
RTVSPost2010Prop29
280
     1
102
RTVSPost2010PropOp29
 70
     1
102
RTVSPost2010Prop30
280
     1
102
RTVSPost2010PropOp30
 70
     1
102
RTVSPost2010Prop31
280
     0
102
RTVSPost2010PropOp31
 70
     1
102
RTVSPost2010Prop32
280
     0
102
RTVSPost2010PropOp32
 70
     1
102
RTVSPost2010Prop33
280
     0
102
RTVSPost2010PropOp33
 70
     1
102
RTVSPost2010Prop34
280
     0
102
RTVSPost2010PropOp34
 70
     1
102
RTVSPost2010Prop35
280
     0
102
RTVSPost2010PropOp35
 70
     1
102
RTVSPost2010Prop36
280
     0
102
RTVSPost2010PropOp36
 70
     1
102
RTVSPost2010Prop37
 90
       50
102
RTVSPost2010PropOp37
 70
     1
102
RTVSPost2010Prop38
140
0.0
102
RTVSPost2010PropOp38
 70
     1
102
RTVSPost2010Prop39
140
1.0
102
RTVSPost2010PropOp39
 70
     1
102
RTVSPost2010Prop40
 90
        0
102
RTVSPost2010PropOp40
 70
     1
102
RTVSPost2010Prop41ColorIndex
 90
       18
102
RTVSPost2010Prop41ColorRGB
 90
        0
102
RTVSPost2010PropOp41
 70
     1
102
RTVSPost2010Prop42
 90
       50
102
RTVSPost2010PropOp42
 70
     1
102
RTVSPost2010Prop43
 90
        3
102
RTVSPost2010PropOp43
 70
     1
102
RTVSPost2010Prop44ColorIndex
 90
        5
102
RTVSPost2010Prop44ColorRGB
 90
      255
102
RTVSPost2010PropOp44
 70
     1
102
RTVSPost2010Prop45
280
     0
102
RTVSPost2010PropOp45
 70
     1
102
RTVSPost2010Prop46
 90
       50
102
RTVSPost2010PropOp46
 70
     1
102
RTVSPost2010Prop47
 90
       50
102
RTVSPost2010PropOp47
 70
     1
102
RTVSPost2010Prop48
 90
       50
102
RTVSPost2010PropOp48
 70
     1
102
RTVSPost2010Prop49
280
     0
102
RTVSPost2010PropOp49
 70
     1
102
RTVSPost2010Prop50
 90
       50
102
RTVSPost2010PropOp50
 70
     1
102
RTVSPost2010Prop51ColorIndex
 90
      256
102
RTVSPost2010Prop51ColorRGB
 90
-16777216
102
RTVSPost2010PropOp51
 70
     0
102
RTVSPost2010Prop52
140
1.0
102
RTVSPost2010PropOp52
 70
     0
102
RTVSPost2010Prop53
 90
        2
102
RTVSPost2010PropOp53
 70
     1
102
RTVSPost2010Prop54
  1
strokes_ogs.tif
102
RTVSPost2010PropOp54
 70
     1
102
RTVSPost2010Prop55
280
     0
102
RTVSPost2010PropOp55
 70
     1
102
RTVSPost2010Prop56
140
1.0
102
RTVSPost2010PropOp56
 70
     1
102
RTVSPost2010Prop57
140
1.0
102
RTVSPost2010PropOp57
 70
     1
102
RTVSPropertyOp0
 70
     1
102
RTVSPropertyOp1
 70
     1
102
RTVSPropertyOp2
 70
     1
102
RTVSPropertyOp3
 70
     1
102
RTVSPropertyOp4
 70
     1
102
RTVSPropertyOp5
 70
     1
102
RTVSPropertyOp6
 70
     1
102
RTVSPropertyOp7
 70
     1
102
RTVSPropertyOp8
 70
     1
102
RTVSPropertyOp9
 70
     1
102
RTVSPropertyOp10
 70
     1
102
RTVSPropertyOp11
 70
     1
102
RTVSPropertyOp12
 70
     1
102
RTVSPropertyOp13
 70
     1
102
RTVSPropertyOp14
 70
     1
102
RTVSPropertyOp15
 70
     1
102
RTVSPropertyOp16
 70
     1
102
RTVSPropertyOp17
 70
     1
102
RTVSPropertyOp18
 70
     1
102
RTVSPropertyOp19
 70
     1
102
RTVSPropertyOp20
 70
     1
102
RTVSPropertyOp21
 70
     1
102
RTVSPropertyOp22
 70
     1
102
RTVSPropertyOp23
 70
     1
102
RTVSPropertyOp24
 70
     1
102
RTVSPropertyOp25
 70
     1
102
RTVSPropertyOp26
 70
     1
102
RTVSPropertyOp27
 70
     1
102
RTVSPropertyOp28
 70
     1
102
RTVSPropertyOp29
 70
     1
102
RTVSPropertyOp30
 70
     1
102
RTVSPropertyOp31
 70
     1
102
RTVSPropertyOp32
 70
     1
102
RTVSPropertyOp33
 70
     1
102
RTVSPropertyOp34
 70
     1
102
RTVSPropertyOp35
 70
     1
102
RTVSPropertyOp36
 70
     1
102
RTVSPropertyOp37
 70
     1
102
RTVSPropertyOp38
 70
     1
102
RTVSPropertyOp39
 70
     1
102
RTVSPropertyOp40
 70
     1
102
RTVSPropertyOp41
 70
     1
102
RTVSPropertyOp42
 70
     1
102
RTVSPropertyOp43
 70
     1
102
RTVSPropertyOp44
 70
     1
102
RTVSPropertyOp45
 70
     1
102
RTVSPropertyOp46
 70
     1
102
RTVSPropertyOp47
 70
     1
102
RTVSPropertyOp48
 70
     1
102
RTVSPropertyOp49
 70
     1
102
RTVSPropertyOp50
 70
     1
102
RTVSPropertyOp51
 70
     0
102
RTVSPropertyOp52
 70
     0
102
RTVSPropertyOp53
 70
     1
102
RTVSPropertyOp54
 70
     1
102
RTVSPropertyOp55
 70
     1
102
RTVSPropertyOp56
 70
     1
102
RTVSPropertyOp57
 70
     1
102
RTVSPropertyOp58
 70
     1
102
RTVSPropertyOp59
 70
     1
102
RTVSPropertyOp60
 70
     1
102
RTVSPropertyOp61
 70
     1
102
RTVSPropertyOp62
 70
     1
  0
XRECORD
  5
44AC
102
{ACAD_REACTORS
330
44AB
102
}
330
44AB
100
AcDbXrecord
280
     1
102
RTVSPost2010Prop28
280
     0
102
RTVSPost2010PropOp28
 70
     1
102
RTVSPost2010Prop29
280
     1
102
RTVSPost2010PropOp29
 70
     1
102
RTVSPost2010Prop30
280
     1
102
RTVSPost2010PropOp30
 70
     1
102
RTVSPost2010Prop31
280
     0
102
RTVSPost2010PropOp31
 70
     1
102
RTVSPost2010Prop32
280
     0
102
RTVSPost2010PropOp32
 70
     1
102
RTVSPost2010Prop33
280
     0
102
RTVSPost2010PropOp33
 70
     1
102
RTVSPost2010Prop34
280
     0
102
RTVSPost2010PropOp34
 70
     1
102
RTVSPost2010Prop35
280
     0
102
RTVSPost2010PropOp35
 70
     1
102
RTVSPost2010Prop36
280
     0
102
RTVSPost2010PropOp36
 70
     1
102
RTVSPost2010Prop37
 90
       50
102
RTVSPost2010PropOp37
 70
     1
102
RTVSPost2010Prop38
140
0.0
102
RTVSPost2010PropOp38
 70
     1
102
RTVSPost2010Prop39
140
1.0
102
RTVSPost2010PropOp39
 70
     1
102
RTVSPost2010Prop40
 90
        0
102
RTVSPost2010PropOp40
 70
     1
102
RTVSPost2010Prop41ColorIndex
 90
       18
102
RTVSPost2010Prop41ColorRGB
 90
        0
102
RTVSPost2010PropOp41
 70
     1
102
RTVSPost2010Prop42
 90
       50
102
RTVSPost2010PropOp42
 70
     1
102
RTVSPost2010Prop43
 90
        3
102
RTVSPost2010PropOp43
 70
     1
102
RTVSPost2010Prop44ColorIndex
 90
        5
102
RTVSPost2010Prop44ColorRGB
 90
      255
102
RTVSPost2010PropOp44
 70
     1
102
RTVSPost2010Prop45
280
     0
102
RTVSPost2010PropOp45
 70
     1
102
RTVSPost2010Prop46
 90
       50
102
RTVSPost2010PropOp46
 70
     1
102
RTVSPost2010Prop47
 90
       50
102
RTVSPost2010PropOp47
 70
     1
102
RTVSPost2010Prop48
 90
       50
102
RTVSPost2010PropOp48
 70
     1
102
RTVSPost2010Prop49
280
     0
102
RTVSPost2010PropOp49
 70
     1
102
RTVSPost2010Prop50
 90
       50
102
RTVSPost2010PropOp50
 70
     1
102
RTVSPost2010Prop51ColorIndex
 90
      256
102
RTVSPost2010Prop51ColorRGB
 90
-16777216
102
RTVSPost2010PropOp51
 70
     0
102
RTVSPost2010Prop52
140
1.0
102
RTVSPost2010PropOp52
 70
     0
102
RTVSPost2010Prop53
 90
        2
102
RTVSPost2010PropOp53
 70
     1
102
RTVSPost2010Prop54
  1
strokes_ogs.tif
102
RTVSPost2010PropOp54
 70
     1
102
RTVSPost2010Prop55
280
     0
102
RTVSPost2010PropOp55
 70
     1
102
RTVSPost2010Prop56
140
1.0
102
RTVSPost2010PropOp56
 70
     1
102
RTVSPost2010Prop57
140
1.0
102
RTVSPost2010PropOp57
 70
     1
102
RTVSPropertyOp0
 70
     1
102
RTVSPropertyOp1
 70
     1
102
RTVSPropertyOp2
 70
     1
102
RTVSPropertyOp3
 70
     1
102
RTVSPropertyOp4
 70
     1
102
RTVSPropertyOp5
 70
     1
102
RTVSPropertyOp6
 70
     1
102
RTVSPropertyOp7
 70
     1
102
RTVSPropertyOp8
 70
     1
102
RTVSPropertyOp9
 70
     1
102
RTVSPropertyOp10
 70
     1
102
RTVSPropertyOp11
 70
     1
102
RTVSPropertyOp12
 70
     1
102
RTVSPropertyOp13
 70
     1
102
RTVSPropertyOp14
 70
     1
102
RTVSPropertyOp15
 70
     1
102
RTVSPropertyOp16
 70
     1
102
RTVSPropertyOp17
 70
     1
102
RTVSPropertyOp18
 70
     1
102
RTVSPropertyOp19
 70
     1
102
RTVSPropertyOp20
 70
     1
102
RTVSPropertyOp21
 70
     1
102
RTVSPropertyOp22
 70
     1
102
RTVSPropertyOp23
 70
     1
102
RTVSPropertyOp24
 70
     1
102
RTVSPropertyOp25
 70
     1
102
RTVSPropertyOp26
 70
     1
102
RTVSPropertyOp27
 70
     1
102
RTVSPropertyOp28
 70
     1
102
RTVSPropertyOp29
 70
     1
102
RTVSPropertyOp30
 70
     1
102
RTVSPropertyOp31
 70
     1
102
RTVSPropertyOp32
 70
     1
102
RTVSPropertyOp33
 70
     1
102
RTVSPropertyOp34
 70
     1
102
RTVSPropertyOp35
 70
     1
102
RTVSPropertyOp36
 70
     1
102
RTVSPropertyOp37
 70
     1
102
RTVSPropertyOp38
 70
     1
102
RTVSPropertyOp39
 70
     1
102
RTVSPropertyOp40
 70
     1
102
RTVSPropertyOp41
 70
     1
102
RTVSPropertyOp42
 70
     1
102
RTVSPropertyOp43
 70
     1
102
RTVSPropertyOp44
 70
     1
102
RTVSPropertyOp45
 70
     1
102
RTVSPropertyOp46
 70
     1
102
RTVSPropertyOp47
 70
     1
102
RTVSPropertyOp48
 70
     1
102
RTVSPropertyOp49
 70
     1
102
RTVSPropertyOp50
 70
     1
102
RTVSPropertyOp51
 70
     0
102
RTVSPropertyOp52
 70
     0
102
RTVSPropertyOp53
 70
     1
102
RTVSPropertyOp54
 70
     1
102
RTVSPropertyOp55
 70
     1
102
RTVSPropertyOp56
 70
     1
102
RTVSPropertyOp57
 70
     1
102
RTVSPropertyOp58
 70
     1
102
RTVSPropertyOp59
 70
     1
102
RTVSPropertyOp60
 70
     1
102
RTVSPropertyOp61
 70
     1
102
RTVSPropertyOp62
 70
     1
  0
XRECORD
  5
44B4
102
{ACAD_REACTORS
330
44B3
102
}
330
44B3
100
AcDbXrecord
280
     1
102
RTVSPost2010Prop28
280
     0
102
RTVSPost2010PropOp28
 70
     1
102
RTVSPost2010Prop29
280
     1
102
RTVSPost2010PropOp29
 70
     1
102
RTVSPost2010Prop30
280
     1
102
RTVSPost2010PropOp30
 70
     1
102
RTVSPost2010Prop31
280
     0
102
RTVSPost2010PropOp31
 70
     1
102
RTVSPost2010Prop32
280
     0
102
RTVSPost2010PropOp32
 70
     1
102
RTVSPost2010Prop33
280
     0
102
RTVSPost2010PropOp33
 70
     1
102
RTVSPost2010Prop34
280
     0
102
RTVSPost2010PropOp34
 70
     1
102
RTVSPost2010Prop35
280
     0
102
RTVSPost2010PropOp35
 70
     1
102
RTVSPost2010Prop36
280
     0
102
RTVSPost2010PropOp36
 70
     1
102
RTVSPost2010Prop37
 90
       50
102
RTVSPost2010PropOp37
 70
     1
102
RTVSPost2010Prop38
140
0.0
102
RTVSPost2010PropOp38
 70
     1
102
RTVSPost2010Prop39
140
1.0
102
RTVSPost2010PropOp39
 70
     1
102
RTVSPost2010Prop40
 90
        0
102
RTVSPost2010PropOp40
 70
     1
102
RTVSPost2010Prop41ColorIndex
 90
       18
102
RTVSPost2010Prop41ColorRGB
 90
        0
102
RTVSPost2010PropOp41
 70
     1
102
RTVSPost2010Prop42
 90
       50
102
RTVSPost2010PropOp42
 70
     1
102
RTVSPost2010Prop43
 90
        3
102
RTVSPost2010PropOp43
 70
     1
102
RTVSPost2010Prop44ColorIndex
 90
        5
102
RTVSPost2010Prop44ColorRGB
 90
      255
102
RTVSPost2010PropOp44
 70
     1
102
RTVSPost2010Prop45
280
     0
102
RTVSPost2010PropOp45
 70
     1
102
RTVSPost2010Prop46
 90
       50
102
RTVSPost2010PropOp46
 70
     1
102
RTVSPost2010Prop47
 90
       50
102
RTVSPost2010PropOp47
 70
     1
102
RTVSPost2010Prop48
 90
       50
102
RTVSPost2010PropOp48
 70
     1
102
RTVSPost2010Prop49
280
     0
102
RTVSPost2010PropOp49
 70
     1
102
RTVSPost2010Prop50
 90
       50
102
RTVSPost2010PropOp50
 70
     1
102
RTVSPost2010Prop51ColorIndex
 90
      256
102
RTVSPost2010Prop51ColorRGB
 90
-16777216
102
RTVSPost2010PropOp51
 70
     0
102
RTVSPost2010Prop52
140
1.0
102
RTVSPost2010PropOp52
 70
     0
102
RTVSPost2010Prop53
 90
        2
102
RTVSPost2010PropOp53
 70
     1
102
RTVSPost2010Prop54
  1
strokes_ogs.tif
102
RTVSPost2010PropOp54
 70
     1
102
RTVSPost2010Prop55
280
     0
102
RTVSPost2010PropOp55
 70
     1
102
RTVSPost2010Prop56
140
1.0
102
RTVSPost2010PropOp56
 70
     1
102
RTVSPost2010Prop57
140
1.0
102
RTVSPost2010PropOp57
 70
     1
102
RTVSPropertyOp0
 70
     1
102
RTVSPropertyOp1
 70
     1
102
RTVSPropertyOp2
 70
     1
102
RTVSPropertyOp3
 70
     1
102
RTVSPropertyOp4
 70
     1
102
RTVSPropertyOp5
 70
     1
102
RTVSPropertyOp6
 70
     1
102
RTVSPropertyOp7
 70
     1
102
RTVSPropertyOp8
 70
     1
102
RTVSPropertyOp9
 70
     1
102
RTVSPropertyOp10
 70
     1
102
RTVSPropertyOp11
 70
     1
102
RTVSPropertyOp12
 70
     1
102
RTVSPropertyOp13
 70
     1
102
RTVSPropertyOp14
 70
     1
102
RTVSPropertyOp15
 70
     1
102
RTVSPropertyOp16
 70
     1
102
RTVSPropertyOp17
 70
     1
102
RTVSPropertyOp18
 70
     1
102
RTVSPropertyOp19
 70
     1
102
RTVSPropertyOp20
 70
     1
102
RTVSPropertyOp21
 70
     1
102
RTVSPropertyOp22
 70
     1
102
RTVSPropertyOp23
 70
     1
102
RTVSPropertyOp24
 70
     1
102
RTVSPropertyOp25
 70
     1
102
RTVSPropertyOp26
 70
     1
102
RTVSPropertyOp27
 70
     1
102
RTVSPropertyOp28
 70
     1
102
RTVSPropertyOp29
 70
     1
102
RTVSPropertyOp30
 70
     1
102
RTVSPropertyOp31
 70
     1
102
RTVSPropertyOp32
 70
     1
102
RTVSPropertyOp33
 70
     1
102
RTVSPropertyOp34
 70
     1
102
RTVSPropertyOp35
 70
     1
102
RTVSPropertyOp36
 70
     1
102
RTVSPropertyOp37
 70
     1
102
RTVSPropertyOp38
 70
     1
102
RTVSPropertyOp39
 70
     1
102
RTVSPropertyOp40
 70
     1
102
RTVSPropertyOp41
 70
     1
102
RTVSPropertyOp42
 70
     1
102
RTVSPropertyOp43
 70
     1
102
RTVSPropertyOp44
 70
     1
102
RTVSPropertyOp45
 70
     1
102
RTVSPropertyOp46
 70
     1
102
RTVSPropertyOp47
 70
     1
102
RTVSPropertyOp48
 70
     1
102
RTVSPropertyOp49
 70
     1
102
RTVSPropertyOp50
 70
     1
102
RTVSPropertyOp51
 70
     0
102
RTVSPropertyOp52
 70
     0
102
RTVSPropertyOp53
 70
     1
102
RTVSPropertyOp54
 70
     1
102
RTVSPropertyOp55
 70
     1
102
RTVSPropertyOp56
 70
     1
102
RTVSPropertyOp57
 70
     1
102
RTVSPropertyOp58
 70
     1
102
RTVSPropertyOp59
 70
     1
102
RTVSPropertyOp60
 70
     1
102
RTVSPropertyOp61
 70
     1
102
RTVSPropertyOp62
 70
     1
  0
ENDSEC
  0
EOF
