  0
SECTION
  2
HEADER
  9
$ACADVER
  1
AC1015
  9
$ACADMAINTVER
 70
    20
  9
$DWGCODEPAGE
  3
ANSI_932
  9
$INSBASE
 10
0.0
 20
0.0
 30
0.0
  9
$EXTMIN
 10
22.2466124509
 20
-33.0277901581
 30
0.0
  9
$EXTMAX
 10
807.4752873702
 20
421.2766752752
 30
0.0
  9
$LIMMIN
 10
0.0
 20
0.0
  9
$LIMMAX
 10
297.0
 20
210.0
  9
$ORTHOMODE
 70
     1
  9
$REGENMODE
 70
     1
  9
$FILLMODE
 70
     1
  9
$QTEXTMODE
 70
     0
  9
$MIRRTEXT
 70
     0
  9
$LTSCALE
 40
2.0
  9
$ATTMODE
 70
     1
  9
$TEXTSIZE
 40
2.0
  9
$TRACEWID
 40
1.0
  9
$TEXTSTYLE
  7
STANDARD
  9
$CLAYER
  8
0
  9
$CELTYPE
  6
BYLAYER
  9
$CECOLOR
 62
   256
  9
$CELTSCALE
 40
1.0
  9
$DISPSILH
 70
     0
  9
$DIMSCALE
 40
2.0
  9
$DIMASZ
 40
1.8
  9
$DIMEXO
 40
0.625
  9
$DIMDLI
 40
3.75
  9
$DIMRND
 40
0.0
  9
$DIMDLE
 40
0.0
  9
$DIMEXE
 40
0.8
  9
$DIMTP
 40
0.0
  9
$DIMTM
 40
0.0
  9
$DIMTXT
 40
1.8
  9
$DIMCEN
 40
2.5
  9
$DIMTSZ
 40
0.0
  9
$DIMTOL
 70
     0
  9
$DIMLIM
 70
     0
  9
$DIMTIH
 70
     0
  9
$DIMTOH
 70
     0
  9
$DIMSE1
 70
     0
  9
$DIMSE2
 70
     0
  9
$DIMTAD
 70
     1
  9
$DIMZIN
 70
     8
  9
$DIMBLK
  1

  9
$DIMASO
 70
     1
  9
$DIMSHO
 70
     1
  9
$DIMPOST
  1

  9
$DIMAPOST
  1

  9
$DIMALT
 70
     0
  9
$DIMALTD
 70
     4
  9
$DIMALTF
 40
0.0394
  9
$DIMLFAC
 40
1.0
  9
$DIMTOFL
 70
     1
  9
$DIMTVP
 40
0.0
  9
$DIMTIX
 70
     0
  9
$DIMSOXD
 70
     0
  9
$DIMSAH
 70
     0
  9
$DIMBLK1
  1

  9
$DIMBLK2
  1

  9
$DIMSTYLE
  2
STANDARD
  9
$DIMCLRD
 70
     0
  9
$DIMCLRE
 70
     0
  9
$DIMCLRT
 70
     0
  9
$DIMTFAC
 40
1.0
  9
$DIMGAP
 40
0.75
  9
$DIMJUST
 70
     0
  9
$DIMSD1
 70
     0
  9
$DIMSD2
 70
     0
  9
$DIMTOLJ
 70
     1
  9
$DIMTZIN
 70
     0
  9
$DIMALTZ
 70
     0
  9
$DIMALTTZ
 70
     0
  9
$DIMUPT
 70
     0
  9
$DIMDEC
 70
     2
  9
$DIMTDEC
 70
     2
  9
$DIMALTU
 70
     8
  9
$DIMALTTD
 70
     4
  9
$DIMTXSTY
  7
STANDARD
  9
$DIMAUNIT
 70
     0
  9
$DIMADEC
 70
     2
  9
$DIMALTRND
 40
0.0
  9
$DIMAZIN
 70
     0
  9
$DIMDSEP
 70
    46
  9
$DIMATFIT
 70
     3
  9
$DIMFRAC
 70
     0
  9
$DIMLDRBLK
  1

  9
$DIMLUNIT
 70
     6
  9
$DIMLWD
 70
    -2
  9
$DIMLWE
 70
    -2
  9
$DIMTMOVE
 70
     0
  9
$LUNITS
 70
     2
  9
$LUPREC
 70
     3
  9
$SKETCHINC
 40
1.0
  9
$FILLETRAD
 40
10.0
  9
$AUNITS
 70
     0
  9
$AUPREC
 70
     2
  9
$MENU
  1
.
  9
$ELEVATION
 40
0.0
  9
$PELEVATION
 40
0.0
  9
$THICKNESS
 40
0.0
  9
$LIMCHECK
 70
     0
  9
$CHAMFERA
 40
0.0
  9
$CHAMFERB
 40
0.0
  9
$CHAMFERC
 40
20.0
  9
$CHAMFERD
 40
0.0
  9
$SKPOLY
 70
     0
  9
$TDCREATE
 40
2453557.751273149
  9
$TDUCREATE
 40
2453557.376274769
  9
$TDUPDATE
 40
2460164.363680556
  9
$TDUUPDATE
 40
2460163.988680555
  9
$TDINDWG
 40
0.5645728588
  9
$TDUSRTIMER
 40
0.5645728588
  9
$USRTIMER
 70
     1
  9
$ANGBASE
 50
0.0
  9
$ANGDIR
 70
     0
  9
$PDMODE
 70
     0
  9
$PDSIZE
 40
-10.0
  9
$PLINEWID
 40
0.0
  9
$SPLFRAME
 70
     0
  9
$SPLINETYPE
 70
     6
  9
$SPLINESEGS
 70
     8
  9
$HANDSEED
  5
392F
  9
$SURFTAB1
 70
     6
  9
$SURFTAB2
 70
     6
  9
$SURFTYPE
 70
     6
  9
$SURFU
 70
     6
  9
$SURFV
 70
     6
  9
$UCSBASE
  2

  9
$UCSNAME
  2

  9
$UCSORG
 10
0.0
 20
0.0
 30
0.0
  9
$UCSXDIR
 10
1.0
 20
0.0
 30
0.0
  9
$UCSYDIR
 10
0.0
 20
1.0
 30
0.0
  9
$UCSORTHOREF
  2

  9
$UCSORTHOVIEW
 70
     0
  9
$UCSORGTOP
 10
0.0
 20
0.0
 30
0.0
  9
$UCSORGBOTTOM
 10
0.0
 20
0.0
 30
0.0
  9
$UCSORGLEFT
 10
0.0
 20
0.0
 30
0.0
  9
$UCSORGRIGHT
 10
0.0
 20
0.0
 30
0.0
  9
$UCSORGFRONT
 10
0.0
 20
0.0
 30
0.0
  9
$UCSORGBACK
 10
0.0
 20
0.0
 30
0.0
  9
$PUCSBASE
  2

  9
$PUCSNAME
  2

  9
$PUCSORG
 10
0.0
 20
0.0
 30
0.0
  9
$PUCSXDIR
 10
1.0
 20
0.0
 30
0.0
  9
$PUCSYDIR
 10
0.0
 20
1.0
 30
0.0
  9
$PUCSORTHOREF
  2

  9
$PUCSORTHOVIEW
 70
     0
  9
$PUCSORGTOP
 10
0.0
 20
0.0
 30
0.0
  9
$PUCSORGBOTTOM
 10
0.0
 20
0.0
 30
0.0
  9
$PUCSORGLEFT
 10
0.0
 20
0.0
 30
0.0
  9
$PUCSORGRIGHT
 10
0.0
 20
0.0
 30
0.0
  9
$PUCSORGFRONT
 10
0.0
 20
0.0
 30
0.0
  9
$PUCSORGBACK
 10
0.0
 20
0.0
 30
0.0
  9
$USERI1
 70
     0
  9
$USERI2
 70
     0
  9
$USERI3
 70
     0
  9
$USERI4
 70
     0
  9
$USERI5
 70
     0
  9
$USERR1
 40
0.0
  9
$USERR2
 40
0.0
  9
$USERR3
 40
0.0
  9
$USERR4
 40
0.0
  9
$USERR5
 40
0.0
  9
$WORLDVIEW
 70
     1
  9
$SHADEDGE
 70
     3
  9
$SHADEDIF
 70
    70
  9
$TILEMODE
 70
     1
  9
$MAXACTVP
 70
    48
  9
$PINSBASE
 10
0.0
 20
0.0
 30
0.0
  9
$PLIMCHECK
 70
     0
  9
$PEXTMIN
 10
0.0
 20
0.0
 30
0.0
  9
$PEXTMAX
 10
0.0
 20
0.0
 30
0.0
  9
$PLIMMIN
 10
0.0
 20
0.0
  9
$PLIMMAX
 10
12.0
 20
9.0
  9
$UNITMODE
 70
     0
  9
$VISRETAIN
 70
     1
  9
$PLINEGEN
 70
     0
  9
$PSLTSCALE
 70
     1
  9
$TREEDEPTH
 70
  3020
  9
$CMLSTYLE
  2
STANDARD
  9
$CMLJUST
 70
     0
  9
$CMLSCALE
 40
1.0
  9
$PROXYGRAPHICS
 70
     1
  9
$MEASUREMENT
 70
     0
  9
$CELWEIGHT
370
    -1
  9
$ENDCAPS
280
     0
  9
$JOINSTYLE
280
     0
  9
$LWDISPLAY
290
     0
  9
$INSUNITS
 70
     0
  9
$HYPERLINKBASE
  1

  9
$STYLESHEET
  1
SEKKEI.CTB
  9
$XEDIT
290
     1
  9
$CEPSNTYPE
380
     0
  9
$PSTYLEMODE
290
     1
  9
$FINGERPRINTGUID
  2
{6385560B-F4B1-4644-A7C2-A3E32AC3D232}
  9
$VERSIONGUID
  2
{13BD9CBD-8D5A-724C-AA6A-3E69C10D165B}
  9
$EXTNAMES
290
     1
  9
$PSVPSCALE
 40
0.0
  9
$OLESTARTUP
290
     0
  0
ENDSEC
  0
SECTION
  2
CLASSES
  0
CLASS
  1
DICTIONARYVAR
  2
AcDbDictionaryVar
  3
ObjectDBX Classes
 90
        0
280
     0
281
     0
  0
CLASS
  1
ACDBDICTIONARYWDFLT
  2
AcDbDictionaryWithDefault
  3
ObjectDBX Classes
 90
        0
280
     0
281
     0
  0
CLASS
  1
MATERIAL
  2
AcDbMaterial
  3
ObjectDBX Classes
 90
     1153
280
     0
281
     0
  0
CLASS
  1
VISUALSTYLE
  2
AcDbVisualStyle
  3
ObjectDBX Classes
 90
     4095
280
     0
281
     0
  0
CLASS
  1
TABLESTYLE
  2
AcDbTableStyle
  3
ObjectDBX Classes
 90
     4095
280
     0
281
     0
  0
CLASS
  1
SCALE
  2
AcDbScale
  3
ObjectDBX Classes
 90
     1153
280
     0
281
     0
  0
CLASS
  1
MLEADERSTYLE
  2
AcDbMLeaderStyle
  3
ACDB_MLEADERSTYLE_CLASS
 90
     4095
280
     0
281
     0
  0
CLASS
  1
CELLSTYLEMAP
  2
AcDbCellStyleMap
  3
ObjectDBX Classes
 90
     1152
280
     0
281
     0
  0
CLASS
  1
ACAD_EVALUATION_GRAPH
  2
AcDbEvalGraph
  3
ObjectDBX Classes
 90
    33921
280
     0
281
     0
  0
CLASS
  1
ACAECUSTOBJ
  2
AcAeEditorObj
  3
AcAeEditorObj
 90
    33792
280
     0
281
     0
  0
CLASS
  1
ACDB_DYNAMICBLOCKPURGEPREVENTER_VERSION
  2
AcDbDynamicBlockPurgePreventer
  3
ObjectDBX Classes
 90
    33921
280
     0
281
     0
  0
CLASS
  1
ACDBSECTIONVIEWSTYLE
  2
AcDbSectionViewStyle
  3
ObjectDBX Classes
 90
     1025
280
     0
281
     0
  0
CLASS
  1
ACDBDETAILVIEWSTYLE
  2
AcDbDetailViewStyle
  3
ObjectDBX Classes
 90
     1025
280
     0
281
     0
  0
CLASS
  1
SORTENTSTABLE
  2
AcDbSortentsTable
  3
ObjectDBX Classes
 90
    32768
280
     0
281
     0
  0
CLASS
  1
ACDBPLACEHOLDER
  2
AcDbPlaceHolder
  3
ObjectDBX Classes
 90
        0
280
     0
281
     0
  0
CLASS
  1
LAYOUT
  2
AcDbLayout
  3
ObjectDBX Classes
 90
        0
280
     0
281
     0
  0
ENDSEC
  0
SECTION
  2
TABLES
  0
TABLE
  2
VPORT
  5
6E
102
{ACAD_XDICTIONARY
360
230E
102
}
330
0
100
AcDbSymbolTable
 70
     1
  0
VPORT
  5
2056
330
6E
100
AcDbSymbolTableRecord
100
AcDbViewportTableRecord
  2
*Active
 70
     0
 10
0.0
 20
0.0
 11
1.0
 21
1.0
 12
517.8721546444
 22
213.3541816107
 13
0.0
 23
0.0
 14
10.0
 24
10.0
 15
10.0
 25
10.0
 16
0.0
 26
0.0
 36
1.0
 17
0.0
 27
0.0
 37
0.0
 40
461.4984559464
 41
1.4710526316
 42
50.0
 43
0.0
 44
0.0
 50
0.0
 51
0.0
 71
     0
 72
   100
 73
     1
 74
     3
 75
     0
 76
     0
 77
     0
 78
     0
281
     0
 65
     1
110
0.0
120
0.0
130
0.0
111
1.0
121
0.0
131
0.0
112
0.0
122
1.0
132
0.0
 79
     0
146
0.0
1001
ACAD_NAV_VCDISPLAY
1070
     3
  0
ENDTAB
  0
TABLE
  2
LTYPE
  5
69
330
0
100
AcDbSymbolTable
 70
     4
  0
LTYPE
  5
6A
330
69
100
AcDbSymbolTableRecord
100
AcDbLinetypeTableRecord
  2
BYBLOCK
 70
     0
  3

 72
    65
 73
     0
 40
0.0
  0
LTYPE
  5
6B
330
69
100
AcDbSymbolTableRecord
100
AcDbLinetypeTableRecord
  2
BYLAYER
 70
     0
  3

 72
    65
 73
     0
 40
0.0
  0
LTYPE
  5
8
330
69
100
AcDbSymbolTableRecord
100
AcDbLinetypeTableRecord
  2
CONTINUOUS
 70
     0
  3
Solid line
 72
    65
 73
     0
 40
0.0
  0
LTYPE
  5
27C
330
69
100
AcDbSymbolTableRecord
100
AcDbLinetypeTableRecord
  2
sekkei(A2)
 70
     0
  3
center(A2)  ____ _ ____ _ ____ _ ____ _ ____ _ 
 72
    65
 73
     4
 40
14.2875
 49
9.525
 74
     0
 49
-1.5875
 74
     0
 49
1.5875
 74
     0
 49
-1.5875
 74
     0
  0
LTYPE
  5
2B4
330
69
100
AcDbSymbolTableRecord
100
AcDbLinetypeTableRecord
  2
HIDDEN2
 70
     0
  3
Hidden (.5x) _ _ _ _ _ _ _ _ _ _ _ _ _ _ _ _ _
 72
    65
 73
     2
 40
4.7625
 49
3.175
 74
     0
 49
-1.5875
 74
     0
  0
LTYPE
  5
48F
330
69
100
AcDbSymbolTableRecord
100
AcDbLinetypeTableRecord
  2
sekkei_H
 70
     0
  3
Hidden-S _ _ _ _ _ _ _ _ _ _ _ _ _ _ _ _ _
 72
    65
 73
     2
 40
2.38125
 49
1.5875
 74
     0
 49
-0.79375
 74
     0
  0
ENDTAB
  0
TABLE
  2
LAYER
  5
66
102
{ACAD_XDICTIONARY
360
20B1
102
}
330
0
100
AcDbSymbolTable
 70
    10
  0
LAYER
  5
5E
102
{ACAD_XDICTIONARY
360
22F7
102
}
330
66
100
AcDbSymbolTableRecord
100
AcDbLayerTableRecord
  2
0
 70
     0
 62
     7
  6
CONTINUOUS
370
    -3
390
5
  0
LAYER
  5
3E
102
{ACAD_XDICTIONARY
360
22F9
102
}
330
66
100
AcDbSymbolTableRecord
100
AcDbLayerTableRecord
  2
CENTER
 70
     0
 62
     3
  6
sekkei(A2)
370
    -3
390
5
  0
LAYER
  5
135
330
66
100
AcDbSymbolTableRecord
100
AcDbLayerTableRecord
  2
DEFPOINTS
 70
     0
 62
     7
  6
CONTINUOUS
290
     0
370
    -3
390
5
  0
LAYER
  5
2B5
102
{ACAD_XDICTIONARY
360
22FF
102
}
330
66
100
AcDbSymbolTableRecord
100
AcDbLayerTableRecord
  2
HIDS
 70
     0
 62
     1
  6
HIDDEN2
370
    -3
390
5
  0
LAYER
  5
2BA
102
{ACAD_XDICTIONARY
360
2301
102
}
330
66
100
AcDbSymbolTableRecord
100
AcDbLayerTableRecord
  2
HOJO
 70
     0
 62
     4
  6
CONTINUOUS
370
    -3
390
5
  0
LAYER
  5
3FA
102
{ACAD_XDICTIONARY
360
2305
102
}
330
66
100
AcDbSymbolTableRecord
100
AcDbLayerTableRecord
  2
TITLE
 70
     0
 62
     4
  6
CONTINUOUS
290
     0
370
    -3
390
5
  0
LAYER
  5
20AE
102
{ACAD_XDICTIONARY
360
20AF
102
}
330
66
100
AcDbSymbolTableRecord
100
AcDbLayerTableRecord
  2
TITLE_C
 70
     0
 62
     4
  6
CONTINUOUS
370
    -3
390
5
1001
AcAecLayerStandard
1000

1000

  0
ENDTAB
  0
TABLE
  2
STYLE
  5
67
330
0
100
AcDbSymbolTable
 70
     1
  0
STYLE
  5
16
330
67
100
AcDbSymbolTableRecord
100
AcDbTextStyleTableRecord
  2
STANDARD
 70
     0
 40
0.0
 41
1.0
 50
0.0
 71
     0
 42
2.0
  3
simplex.shx
  4
extfont.shx
  0
ENDTAB
  0
TABLE
  2
VIEW
  5
6C
330
0
100
AcDbSymbolTable
 70
     0
  0
ENDTAB
  0
TABLE
  2
UCS
  5
6D
330
0
100
AcDbSymbolTable
 70
     0
  0
ENDTAB
  0
TABLE
  2
APPID
  5
70
330
0
100
AcDbSymbolTable
 70
    10
  0
APPID
  5
71
330
70
100
AcDbSymbolTableRecord
100
AcDbRegAppTableRecord
  2
ACAD
 70
     0
  0
APPID
  5
20B0
330
70
100
AcDbSymbolTableRecord
100
AcDbRegAppTableRecord
  2
AcAecLayerStandard
 70
     0
  0
APPID
  5
20D7
330
70
100
AcDbSymbolTableRecord
100
AcDbRegAppTableRecord
  2
ACAD_EXEMPT_FROM_CAD_STANDARDS
 70
     0
  0
APPID
  5
237E
330
70
100
AcDbSymbolTableRecord
100
AcDbRegAppTableRecord
  2
ACAD_MLEADERVER
 70
     0
  0
APPID
  5
2E05
330
70
100
AcDbSymbolTableRecord
100
AcDbRegAppTableRecord
  2
AcadAnnoAV
 70
     0
  0
APPID
  5
2E2B
330
70
100
AcDbSymbolTableRecord
100
AcDbRegAppTableRecord
  2
ACAUTHENVIRON
 70
     0
  0
APPID
  5
2E2F
330
70
100
AcDbSymbolTableRecord
100
AcDbRegAppTableRecord
  2
AcDbDynamicBlockTrueName
 70
     0
  0
APPID
  5
2E30
330
70
100
AcDbSymbolTableRecord
100
AcDbRegAppTableRecord
  2
AcDbDynamicBlockGUID
 70
     0
  0
APPID
  5
2E32
330
70
100
AcDbSymbolTableRecord
100
AcDbRegAppTableRecord
  2
AcDbBlockRepETag
 70
     0
  0
APPID
  5
328C
330
70
100
AcDbSymbolTableRecord
100
AcDbRegAppTableRecord
  2
ACAD_NAV_VCDISPLAY
 70
     0
  0
ENDTAB
  0
TABLE
  2
DIMSTYLE
  5
72
330
0
100
AcDbSymbolTable
 70
     1
100
AcDbDimStyleTable
 71
     1
340
73
  0
DIMSTYLE
105
73
102
{ACAD_REACTORS
330
104A
330
110B
330
1144
330
1145
102
}
330
72
100
AcDbSymbolTableRecord
100
AcDbDimStyleTableRecord
  2
STANDARD
 70
     0
 40
2.0
 41
1.8
 42
0.625
 43
3.75
 44
0.8
 73
     0
 74
     0
 77
     1
 78
     8
140
1.8
141
2.5
143
0.0394
147
0.75
171
     4
172
     1
179
     2
271
     2
272
     2
273
     8
274
     4
277
     6
340
16
  0
ENDTAB
  0
TABLE
  2
BLOCK_RECORD
  5
1
330
0
100
AcDbSymbolTable
 70
    66
  0
BLOCK_RECORD
  5
2
330
1
100
AcDbSymbolTableRecord
100
AcDbBlockTableRecord
  2
*MODEL_SPACE
340
60
  0
BLOCK_RECORD
  5
38B6
330
1
100
AcDbSymbolTableRecord
100
AcDbBlockTableRecord
  2
*Paper_Space
340
38B7
  0
BLOCK_RECORD
  5
4AC
330
1
100
AcDbSymbolTableRecord
100
AcDbBlockTableRecord
  2
黒丸矢印1
340
0
  0
BLOCK_RECORD
  5
128E
330
1
100
AcDbSymbolTableRecord
100
AcDbBlockTableRecord
  2
*D2
340
0
  0
BLOCK_RECORD
  5
129A
330
1
100
AcDbSymbolTableRecord
100
AcDbBlockTableRecord
  2
*D3
340
0
  0
BLOCK_RECORD
  5
12A6
330
1
100
AcDbSymbolTableRecord
100
AcDbBlockTableRecord
  2
*D4
340
0
  0
BLOCK_RECORD
  5
12B2
330
1
100
AcDbSymbolTableRecord
100
AcDbBlockTableRecord
  2
*D5
340
0
  0
BLOCK_RECORD
  5
12BE
330
1
100
AcDbSymbolTableRecord
100
AcDbBlockTableRecord
  2
*D6
340
0
  0
BLOCK_RECORD
  5
12CC
330
1
100
AcDbSymbolTableRecord
100
AcDbBlockTableRecord
  2
*D7
340
0
  0
BLOCK_RECORD
  5
12D8
330
1
100
AcDbSymbolTableRecord
100
AcDbBlockTableRecord
  2
*D8
340
0
  0
BLOCK_RECORD
  5
12E5
330
1
100
AcDbSymbolTableRecord
100
AcDbBlockTableRecord
  2
*D9
340
0
  0
BLOCK_RECORD
  5
12F1
330
1
100
AcDbSymbolTableRecord
100
AcDbBlockTableRecord
  2
*D10
340
0
  0
BLOCK_RECORD
  5
12FD
330
1
100
AcDbSymbolTableRecord
100
AcDbBlockTableRecord
  2
*D11
340
0
  0
BLOCK_RECORD
  5
1309
330
1
100
AcDbSymbolTableRecord
100
AcDbBlockTableRecord
  2
*D12
340
0
  0
BLOCK_RECORD
  5
1315
330
1
100
AcDbSymbolTableRecord
100
AcDbBlockTableRecord
  2
*D13
340
0
  0
BLOCK_RECORD
  5
1321
330
1
100
AcDbSymbolTableRecord
100
AcDbBlockTableRecord
  2
*D14
340
0
  0
BLOCK_RECORD
  5
132D
330
1
100
AcDbSymbolTableRecord
100
AcDbBlockTableRecord
  2
*D15
340
0
  0
BLOCK_RECORD
  5
1339
330
1
100
AcDbSymbolTableRecord
100
AcDbBlockTableRecord
  2
*D16
340
0
  0
BLOCK_RECORD
  5
1345
330
1
100
AcDbSymbolTableRecord
100
AcDbBlockTableRecord
  2
*D17
340
0
  0
BLOCK_RECORD
  5
1351
330
1
100
AcDbSymbolTableRecord
100
AcDbBlockTableRecord
  2
*D18
340
0
  0
BLOCK_RECORD
  5
135D
330
1
100
AcDbSymbolTableRecord
100
AcDbBlockTableRecord
  2
*D19
340
0
  0
BLOCK_RECORD
  5
1376
330
1
100
AcDbSymbolTableRecord
100
AcDbBlockTableRecord
  2
*D20
340
0
  0
BLOCK_RECORD
  5
1382
330
1
100
AcDbSymbolTableRecord
100
AcDbBlockTableRecord
  2
*D21
340
0
  0
BLOCK_RECORD
  5
138E
330
1
100
AcDbSymbolTableRecord
100
AcDbBlockTableRecord
  2
*D22
340
0
  0
BLOCK_RECORD
  5
139A
330
1
100
AcDbSymbolTableRecord
100
AcDbBlockTableRecord
  2
*D23
340
0
  0
BLOCK_RECORD
  5
13A6
330
1
100
AcDbSymbolTableRecord
100
AcDbBlockTableRecord
  2
*D24
340
0
  0
BLOCK_RECORD
  5
13B2
330
1
100
AcDbSymbolTableRecord
100
AcDbBlockTableRecord
  2
*D25
340
0
  0
BLOCK_RECORD
  5
13BE
330
1
100
AcDbSymbolTableRecord
100
AcDbBlockTableRecord
  2
*D26
340
0
  0
BLOCK_RECORD
  5
13CA
330
1
100
AcDbSymbolTableRecord
100
AcDbBlockTableRecord
  2
*D27
340
0
  0
BLOCK_RECORD
  5
13D6
330
1
100
AcDbSymbolTableRecord
100
AcDbBlockTableRecord
  2
*D28
340
0
  0
BLOCK_RECORD
  5
13E2
330
1
100
AcDbSymbolTableRecord
100
AcDbBlockTableRecord
  2
*D29
340
0
  0
BLOCK_RECORD
  5
13EE
330
1
100
AcDbSymbolTableRecord
100
AcDbBlockTableRecord
  2
*D30
340
0
  0
BLOCK_RECORD
  5
13FA
330
1
100
AcDbSymbolTableRecord
100
AcDbBlockTableRecord
  2
*D31
340
0
  0
BLOCK_RECORD
  5
1406
330
1
100
AcDbSymbolTableRecord
100
AcDbBlockTableRecord
  2
*D32
340
0
  0
BLOCK_RECORD
  5
1F94
330
1
100
AcDbSymbolTableRecord
100
AcDbBlockTableRecord
  2
*D36
340
0
  0
BLOCK_RECORD
  5
1F9F
330
1
100
AcDbSymbolTableRecord
100
AcDbBlockTableRecord
  2
*D37
340
0
  0
BLOCK_RECORD
  5
1FAB
330
1
100
AcDbSymbolTableRecord
100
AcDbBlockTableRecord
  2
*D38
340
0
  0
BLOCK_RECORD
  5
3610
330
1
100
AcDbSymbolTableRecord
100
AcDbBlockTableRecord
  2
*D64
340
0
  0
ENDTAB
  0
ENDSEC
  0
SECTION
  2
BLOCKS
  0
BLOCK
  5
5D
330
2
100
AcDbEntity
  8
0
100
AcDbBlockBegin
  2
*MODEL_SPACE
 70
     0
 10
0.0
 20
0.0
 30
0.0
  3
*MODEL_SPACE
  1

  0
ENDBLK
  5
5F
330
2
100
AcDbEntity
  8
0
100
AcDbBlockEnd
  0
BLOCK
  5
38B8
330
38B6
100
AcDbEntity
 67
     1
  8
0
100
AcDbBlockBegin
  2
*Paper_Space
 70
     0
 10
0.0
 20
0.0
 30
0.0
  3
*Paper_Space
  1

  0
ENDBLK
  5
38B9
330
38B6
100
AcDbEntity
 67
     1
  8
0
100
AcDbBlockEnd
  0
BLOCK
  5
4B0
330
4AC
100
AcDbEntity
  8
0
100
AcDbBlockBegin
  2
黒丸矢印1
 70
     0
 10
0.0
 20
0.0
 30
0.0
  3
黒丸矢印1
  1

  0
HATCH
  5
4AD
330
4AC
100
AcDbEntity
  8
0
100
AcDbHatch
 10
0.0
 20
0.0
 30
0.0
210
0.0
220
0.0
230
1.0
  2
SOLID
 70
     1
 71
     1
 91
        1
 92
        7
 72
     1
 73
     1
 93
        2
 10
-0.25
 20
0.0
 42
1.0
 10
0.25
 20
0.0
 42
1.0
 97
        1
330
4AE
 75
     0
 76
     1
 47
0.0031599728
 98
        1
 10
-0.0919668375711354
 20
0.0618998464179867
  0
CIRCLE
  5
4AE
102
{ACAD_REACTORS
330
4AD
102
}
330
4AC
100
AcDbEntity
  8
0
100
AcDbCircle
 10
0.0
 20
0.0
 30
0.0
 40
0.25
  0
LINE
  5
4AF
330
4AC
100
AcDbEntity
  8
0
100
AcDbLine
 10
0.0
 20
0.0
 30
0.0
 11
-1.0
 21
0.0
 31
0.0
  0
ENDBLK
  5
4B1
330
4AC
100
AcDbEntity
  8
0
100
AcDbBlockEnd
  0
BLOCK
  5
1298
330
128E
100
AcDbEntity
  8
0
100
AcDbBlockBegin
  2
*D2
 70
     1
 10
0.0
 20
0.0
 30
0.0
  3
*D2
  1

  0
POINT
  5
18D5
330
128E
100
AcDbEntity
  8
DEFPOINTS
 62
     0
100
AcDbPoint
 10
550.4304059446
 20
151.3849751742
 30
0.0
  0
POINT
  5
18D6
330
128E
100
AcDbEntity
  8
DEFPOINTS
 62
     0
100
AcDbPoint
 10
564.9711769446
 20
110.8849751742
 30
0.0
  0
POINT
  5
18D7
330
128E
100
AcDbEntity
  8
DEFPOINTS
 62
     0
100
AcDbPoint
 10
522.4827863899
 20
110.8849751742
 30
0.0
  0
ENDBLK
  5
1299
330
128E
100
AcDbEntity
  8
0
100
AcDbBlockEnd
  0
BLOCK
  5
12A4
330
129A
100
AcDbEntity
  8
0
100
AcDbBlockBegin
  2
*D3
 70
     1
 10
0.0
 20
0.0
 30
0.0
  3
*D3
  1

  0
POINT
  5
18A6
330
129A
100
AcDbEntity
  8
DEFPOINTS
 62
     0
100
AcDbPoint
 10
564.9711769446
 20
110.8849751742
 30
0.0
  0
POINT
  5
18A7
330
129A
100
AcDbEntity
  8
DEFPOINTS
 62
     0
100
AcDbPoint
 10
564.9711769446
 20
191.8849751742
 30
0.0
  0
POINT
  5
18A8
330
129A
100
AcDbEntity
  8
DEFPOINTS
 62
     0
100
AcDbPoint
 10
510.4209554148
 20
191.8849751742
 30
0.0
  0
ENDBLK
  5
12A5
330
129A
100
AcDbEntity
  8
0
100
AcDbBlockEnd
  0
BLOCK
  5
12B0
330
12A6
100
AcDbEntity
  8
0
100
AcDbBlockBegin
  2
*D4
 70
     1
 10
0.0
 20
0.0
 30
0.0
  3
*D4
  1

  0
POINT
  5
18C3
330
12A6
100
AcDbEntity
  8
DEFPOINTS
 62
     0
100
AcDbPoint
 10
550.4304059446
 20
151.3849751742
 30
0.0
  0
POINT
  5
18C4
330
12A6
100
AcDbEntity
  8
DEFPOINTS
 62
     0
100
AcDbPoint
 10
564.9711769446
 20
191.8849751742
 30
0.0
  0
POINT
  5
18C5
330
12A6
100
AcDbEntity
  8
DEFPOINTS
 62
     0
100
AcDbPoint
 10
522.4827863899
 20
191.8849751742
 30
0.0
  0
ENDBLK
  5
12B1
330
12A6
100
AcDbEntity
  8
0
100
AcDbBlockEnd
  0
BLOCK
  5
12BC
330
12B2
100
AcDbEntity
  8
0
100
AcDbBlockBegin
  2
*D5
 70
     1
 10
0.0
 20
0.0
 30
0.0
  3
*D5
  1

  0
POINT
  5
185D
330
12B2
100
AcDbEntity
  8
DEFPOINTS
 62
     0
100
AcDbPoint
 10
465.4711769446
 20
143.8849751742
 30
0.0
  0
POINT
  5
185E
330
12B2
100
AcDbEntity
  8
DEFPOINTS
 62
     0
100
AcDbPoint
 10
465.4711769446
 20
158.8849751742
 30
0.0
  0
POINT
  5
185F
330
12B2
100
AcDbEntity
  8
DEFPOINTS
 62
     0
100
AcDbPoint
 10
481.4914807829
 20
158.8849751742
 30
0.0
  0
ENDBLK
  5
12BD
330
12B2
100
AcDbEntity
  8
0
100
AcDbBlockEnd
  0
BLOCK
  5
12CA
330
12BE
100
AcDbEntity
  8
0
100
AcDbBlockBegin
  2
*D6
 70
     1
 10
0.0
 20
0.0
 30
0.0
  3
*D6
  1

  0
POINT
  5
18B1
330
12BE
100
AcDbEntity
  8
DEFPOINTS
 62
     0
100
AcDbPoint
 10
587.4711769446
 20
148.8849751742
 30
0.0
  0
POINT
  5
18B2
330
12BE
100
AcDbEntity
  8
DEFPOINTS
 62
     0
100
AcDbPoint
 10
587.4711769446
 20
153.8849751742
 30
0.0
  0
POINT
  5
18B3
330
12BE
100
AcDbEntity
  8
DEFPOINTS
 62
     0
100
AcDbPoint
 10
546.3962222335
 20
153.8849751742
 30
0.0
  0
ENDBLK
  5
12CB
330
12BE
100
AcDbEntity
  8
0
100
AcDbBlockEnd
  0
BLOCK
  5
12D6
330
12CC
100
AcDbEntity
  8
0
100
AcDbBlockBegin
  2
*D7
 70
     1
 10
0.0
 20
0.0
 30
0.0
  3
*D7
  1

  0
POINT
  5
18BA
330
12CC
100
AcDbEntity
  8
DEFPOINTS
 62
     0
100
AcDbPoint
 10
550.4304059446
 20
151.3849751742
 30
0.0
  0
POINT
  5
18BB
330
12CC
100
AcDbEntity
  8
DEFPOINTS
 62
     0
100
AcDbPoint
 10
556.9925389446
 20
184.8849751742
 30
0.0
  0
POINT
  5
18BC
330
12CC
100
AcDbEntity
  8
DEFPOINTS
 62
     0
100
AcDbPoint
 10
534.385800774
 20
184.8849751742
 30
0.0
  0
ENDBLK
  5
12D7
330
12CC
100
AcDbEntity
  8
0
100
AcDbBlockEnd
  0
BLOCK
  5
12E3
330
12D8
100
AcDbEntity
  8
0
100
AcDbBlockBegin
  2
*D8
 70
     1
 10
0.0
 20
0.0
 30
0.0
  3
*D8
  1

  0
POINT
  5
189D
330
12D8
100
AcDbEntity
  8
DEFPOINTS
 62
     0
100
AcDbPoint
 10
587.4711769446
 20
153.8849751742
 30
0.0
  0
POINT
  5
189E
330
12D8
100
AcDbEntity
  8
DEFPOINTS
 62
     0
100
AcDbPoint
 10
604.4711769446
 20
151.3849751742
 30
0.0
  0
POINT
  5
189F
330
12D8
100
AcDbEntity
  8
DEFPOINTS
 62
     0
100
AcDbPoint
 10
604.4711769446
 20
204.2518858529
 30
0.0
  0
ENDBLK
  5
12E4
330
12D8
100
AcDbEntity
  8
0
100
AcDbBlockEnd
  0
BLOCK
  5
12EF
330
12E5
100
AcDbEntity
  8
0
100
AcDbBlockBegin
  2
*D9
 70
     1
 10
0.0
 20
0.0
 30
0.0
  3
*D9
  1

  0
POINT
  5
18CC
330
12E5
100
AcDbEntity
  8
DEFPOINTS
 62
     0
100
AcDbPoint
 10
550.4304059446
 20
151.3849751742
 30
0.0
  0
POINT
  5
18CD
330
12E5
100
AcDbEntity
  8
DEFPOINTS
 62
     0
100
AcDbPoint
 10
556.9925389446
 20
117.8849751742
 30
0.0
  0
POINT
  5
18CE
330
12E5
100
AcDbEntity
  8
DEFPOINTS
 62
     0
100
AcDbPoint
 10
534.385800774
 20
117.8849751742
 30
0.0
  0
ENDBLK
  5
12F0
330
12E5
100
AcDbEntity
  8
0
100
AcDbBlockEnd
  0
BLOCK
  5
12FB
330
12F1
100
AcDbEntity
  8
0
100
AcDbBlockBegin
  2
*D10
 70
     1
 10
0.0
 20
0.0
 30
0.0
  3
*D10
  1

  0
POINT
  5
18F0
330
12F1
100
AcDbEntity
  8
DEFPOINTS
 62
     0
100
AcDbPoint
 10
784.5266579446
 20
191.3849751742
 30
0.0
  0
POINT
  5
18F1
330
12F1
100
AcDbEntity
  8
DEFPOINTS
 62
     0
100
AcDbPoint
 10
784.5266579446
 20
111.3849751742
 30
0.0
  0
POINT
  5
18F2
330
12F1
100
AcDbEntity
  8
DEFPOINTS
 62
     0
100
AcDbPoint
 10
805.8752873702
 20
111.3849751742
 30
0.0
  0
ENDBLK
  5
12FC
330
12F1
100
AcDbEntity
  8
0
100
AcDbBlockEnd
  0
BLOCK
  5
1307
330
12FD
100
AcDbEntity
  8
0
100
AcDbBlockBegin
  2
*D11
 70
     1
 10
0.0
 20
0.0
 30
0.0
  3
*D11
  1

  0
POINT
  5
183F
330
12FD
100
AcDbEntity
  8
DEFPOINTS
 62
     0
100
AcDbPoint
 10
356.4711769446
 20
111.5919071742
 30
0.0
  0
POINT
  5
1840
330
12FD
100
AcDbEntity
  8
DEFPOINTS
 62
     0
100
AcDbPoint
 10
437.4711769446
 20
111.5919071742
 30
0.0
  0
POINT
  5
1841
330
12FD
100
AcDbEntity
  8
DEFPOINTS
 62
     0
100
AcDbPoint
 10
437.4711769446
 20
57.5102424454
 30
0.0
  0
ENDBLK
  5
1308
330
12FD
100
AcDbEntity
  8
0
100
AcDbBlockEnd
  0
BLOCK
  5
1313
330
1309
100
AcDbEntity
  8
0
100
AcDbBlockBegin
  2
*D12
 70
     1
 10
0.0
 20
0.0
 30
0.0
  3
*D12
  1

  0
POINT
  5
1836
330
1309
100
AcDbEntity
  8
DEFPOINTS
 62
     0
100
AcDbPoint
 10
396.9711769446
 20
104.8442041742
 30
0.0
  0
POINT
  5
1837
330
1309
100
AcDbEntity
  8
DEFPOINTS
 62
     0
100
AcDbPoint
 10
437.4711769446
 20
111.5919071742
 30
0.0
  0
POINT
  5
1838
330
1309
100
AcDbEntity
  8
DEFPOINTS
 62
     0
100
AcDbPoint
 10
437.4711769446
 20
69.4723096566
 30
0.0
  0
ENDBLK
  5
1314
330
1309
100
AcDbEntity
  8
0
100
AcDbBlockEnd
  0
BLOCK
  5
131F
330
1315
100
AcDbEntity
  8
0
100
AcDbBlockBegin
  2
*D13
 70
     1
 10
0.0
 20
0.0
 30
0.0
  3
*D13
  1

  0
POINT
  5
182D
330
1315
100
AcDbEntity
  8
DEFPOINTS
 62
     0
100
AcDbPoint
 10
404.9711769446
 20
113.8849751742
 30
0.0
  0
POINT
  5
182E
330
1315
100
AcDbEntity
  8
DEFPOINTS
 62
     0
100
AcDbPoint
 10
437.4711769446
 20
111.5919071742
 30
0.0
  0
POINT
  5
182F
330
1315
100
AcDbEntity
  8
DEFPOINTS
 62
     0
100
AcDbPoint
 10
437.4711769446
 20
81.6050684425
 30
0.0
  0
ENDBLK
  5
1320
330
1315
100
AcDbEntity
  8
0
100
AcDbBlockEnd
  0
BLOCK
  5
132B
330
1321
100
AcDbEntity
  8
0
100
AcDbBlockBegin
  2
*D14
 70
     1
 10
0.0
 20
0.0
 30
0.0
  3
*D14
  1

  0
POINT
  5
2024
330
1321
100
AcDbEntity
  8
DEFPOINTS
 62
     0
100
AcDbPoint
 10
396.9711769446
 20
227.2724731742
 30
0.0
  0
POINT
  5
2025
330
1321
100
AcDbEntity
  8
DEFPOINTS
 62
     0
100
AcDbPoint
 10
465.4711769446
 20
158.8849751742
 30
0.0
  0
POINT
  5
2026
330
1321
100
AcDbEntity
  8
DEFPOINTS
 62
     0
100
AcDbPoint
 10
465.4711769446
 20
240.164594159
 30
0.0
  0
ENDBLK
  5
132C
330
1321
100
AcDbEntity
  8
0
100
AcDbBlockEnd
  0
BLOCK
  5
1337
330
132D
100
AcDbEntity
  8
0
100
AcDbBlockBegin
  2
*D15
 70
     1
 10
0.0
 20
0.0
 30
0.0
  3
*D15
  1

  0
POINT
  5
17EA
330
132D
100
AcDbEntity
  8
DEFPOINTS
 62
     0
100
AcDbPoint
 10
328.4711769446
 20
158.8849751742
 30
0.0
  0
POINT
  5
17EB
330
132D
100
AcDbEntity
  8
DEFPOINTS
 62
     0
100
AcDbPoint
 10
465.4711769446
 20
158.8849751742
 30
0.0
  0
POINT
  5
17EC
330
132D
100
AcDbEntity
  8
DEFPOINTS
 62
     0
100
AcDbPoint
 10
465.4711769446
 20
251.8847182628
 30
0.0
  0
ENDBLK
  5
1338
330
132D
100
AcDbEntity
  8
0
100
AcDbBlockEnd
  0
BLOCK
  5
1343
330
1339
100
AcDbEntity
  8
0
100
AcDbBlockBegin
  2
*D16
 70
     1
 10
0.0
 20
0.0
 30
0.0
  3
*D16
  1

  0
POINT
  5
17E1
330
1339
100
AcDbEntity
  8
DEFPOINTS
 62
     0
100
AcDbPoint
 10
355.4711769446
 20
159.1963761742
 30
0.0
  0
POINT
  5
17E2
330
1339
100
AcDbEntity
  8
DEFPOINTS
 62
     0
100
AcDbPoint
 10
328.4711769446
 20
158.8849751742
 30
0.0
  0
POINT
  5
17E3
330
1339
100
AcDbEntity
  8
DEFPOINTS
 62
     0
100
AcDbPoint
 10
328.4711769446
 20
228.1157357635
 30
0.0
  0
ENDBLK
  5
1344
330
1339
100
AcDbEntity
  8
0
100
AcDbBlockEnd
  0
BLOCK
  5
134F
330
1345
100
AcDbEntity
  8
0
100
AcDbBlockBegin
  2
*D17
 70
     1
 10
0.0
 20
0.0
 30
0.0
  3
*D17
  1

  0
POINT
  5
17D8
330
1345
100
AcDbEntity
  8
DEFPOINTS
 62
     0
100
AcDbPoint
 10
352.4711769446
 20
151.3849751742
 30
0.0
  0
POINT
  5
17D9
330
1345
100
AcDbEntity
  8
DEFPOINTS
 62
     0
100
AcDbPoint
 10
328.4711769446
 20
158.8849751742
 30
0.0
  0
POINT
  5
17DA
330
1345
100
AcDbEntity
  8
DEFPOINTS
 62
     0
100
AcDbPoint
 10
328.4711769446
 20
216.3724693341
 30
0.0
  0
ENDBLK
  5
1350
330
1345
100
AcDbEntity
  8
0
100
AcDbBlockEnd
  0
BLOCK
  5
135B
330
1351
100
AcDbEntity
  8
0
100
AcDbBlockBegin
  2
*D18
 70
     1
 10
0.0
 20
0.0
 30
0.0
  3
*D18
  1

  0
POINT
  5
201B
330
1351
100
AcDbEntity
  8
DEFPOINTS
 62
     0
100
AcDbPoint
 10
396.9711769446
 20
227.2724731742
 30
0.0
  0
POINT
  5
201C
330
1351
100
AcDbEntity
  8
DEFPOINTS
 62
     0
100
AcDbPoint
 10
328.4711769446
 20
158.8849751742
 30
0.0
  0
POINT
  5
201D
330
1351
100
AcDbEntity
  8
DEFPOINTS
 62
     0
100
AcDbPoint
 10
328.4711769446
 20
240.164594159
 30
0.0
  0
ENDBLK
  5
135C
330
1351
100
AcDbEntity
  8
0
100
AcDbBlockEnd
  0
BLOCK
  5
1367
330
135D
100
AcDbEntity
  8
0
100
AcDbBlockBegin
  2
*D19
 70
     1
 10
0.0
 20
0.0
 30
0.0
  3
*D19
  1

  0
POINT
  5
1853
330
135D
100
AcDbEntity
  8
DEFPOINTS
 62
     0
100
AcDbPoint
 10
368.9711769446
 20
111.3737182853
 30
0.0
  0
POINT
  5
1854
330
135D
100
AcDbEntity
  8
DEFPOINTS
 62
     0
100
AcDbPoint
 10
388.9711769446
 20
113.8849751742
 30
0.0
  0
POINT
  5
1855
330
135D
100
AcDbEntity
  8
DEFPOINTS
 62
     0
100
AcDbPoint
 10
388.9711769446
 20
93.4127255382
 30
0.0
  0
ENDBLK
  5
1368
330
135D
100
AcDbEntity
  8
0
100
AcDbBlockEnd
  0
BLOCK
  5
1380
330
1376
100
AcDbEntity
  8
0
100
AcDbBlockBegin
  2
*D20
 70
     1
 10
0.0
 20
0.0
 30
0.0
  3
*D20
  1

  0
POINT
  5
1824
330
1376
100
AcDbEntity
  8
DEFPOINTS
 62
     0
100
AcDbPoint
 10
396.9711769446
 20
104.8442041742
 30
0.0
  0
POINT
  5
1825
330
1376
100
AcDbEntity
  8
DEFPOINTS
 62
     0
100
AcDbPoint
 10
356.4711769446
 20
111.5919071742
 30
0.0
  0
POINT
  5
1826
330
1376
100
AcDbEntity
  8
DEFPOINTS
 62
     0
100
AcDbPoint
 10
356.4711769446
 20
69.4723096566
 30
0.0
  0
ENDBLK
  5
1381
330
1376
100
AcDbEntity
  8
0
100
AcDbBlockEnd
  0
BLOCK
  5
138C
330
1382
100
AcDbEntity
  8
0
100
AcDbBlockBegin
  2
*D21
 70
     1
 10
0.0
 20
0.0
 30
0.0
  3
*D21
  1

  0
POINT
  5
181B
330
1382
100
AcDbEntity
  8
DEFPOINTS
 62
     0
100
AcDbPoint
 10
388.9711769446
 20
113.8849751742
 30
0.0
  0
POINT
  5
181C
330
1382
100
AcDbEntity
  8
DEFPOINTS
 62
     0
100
AcDbPoint
 10
356.4711769446
 20
111.5919071742
 30
0.0
  0
POINT
  5
181D
330
1382
100
AcDbEntity
  8
DEFPOINTS
 62
     0
100
AcDbPoint
 10
356.4711769446
 20
81.6050684425
 30
0.0
  0
ENDBLK
  5
138D
330
1382
100
AcDbEntity
  8
0
100
AcDbBlockEnd
  0
BLOCK
  5
1398
330
138E
100
AcDbEntity
  8
0
100
AcDbBlockBegin
  2
*D22
 70
     1
 10
0.0
 20
0.0
 30
0.0
  3
*D22
  1

  0
POINT
  5
1812
330
138E
100
AcDbEntity
  8
DEFPOINTS
 62
     0
100
AcDbPoint
 10
368.9711769446
 20
111.3737141742
 30
0.0
  0
POINT
  5
1813
330
138E
100
AcDbEntity
  8
DEFPOINTS
 62
     0
100
AcDbPoint
 10
356.4711769446
 20
111.5919071742
 30
0.0
  0
POINT
  5
1814
330
138E
100
AcDbEntity
  8
DEFPOINTS
 62
     0
100
AcDbPoint
 10
356.4711769446
 20
93.4127255382
 30
0.0
  0
ENDBLK
  5
1399
330
138E
100
AcDbEntity
  8
0
100
AcDbBlockEnd
  0
BLOCK
  5
13A4
330
139A
100
AcDbEntity
  8
0
100
AcDbBlockBegin
  2
*D23
 70
     1
 10
0.0
 20
0.0
 30
0.0
  3
*D23
  1

  0
POINT
  5
17FD
330
139A
100
AcDbEntity
  8
DEFPOINTS
 62
     0
100
AcDbPoint
 10
328.4711769446
 20
143.8849751742
 30
0.0
  0
POINT
  5
17FE
330
139A
100
AcDbEntity
  8
DEFPOINTS
 62
     0
100
AcDbPoint
 10
328.4711769446
 20
158.8849751742
 30
0.0
  0
POINT
  5
17FF
330
139A
100
AcDbEntity
  8
DEFPOINTS
 62
     0
100
AcDbPoint
 10
312.4508731063
 20
158.8849751742
 30
0.0
  0
ENDBLK
  5
13A5
330
139A
100
AcDbEntity
  8
0
100
AcDbBlockEnd
  0
BLOCK
  5
13B0
330
13A6
100
AcDbEntity
  8
0
100
AcDbBlockBegin
  2
*D24
 70
     1
 10
0.0
 20
0.0
 30
0.0
  3
*D24
  1

  0
POINT
  5
1808
330
13A6
100
AcDbEntity
  8
DEFPOINTS
 62
     0
100
AcDbPoint
 10
356.4711769446
 20
122.1349751742
 30
0.0
  0
POINT
  5
1809
330
13A6
100
AcDbEntity
  8
DEFPOINTS
 62
     0
100
AcDbPoint
 10
356.4711769446
 20
113.6349751742
 30
0.0
  0
POINT
  5
180A
330
13A6
100
AcDbEntity
  8
DEFPOINTS
 62
     0
100
AcDbPoint
 10
336.8228278831
 20
113.6349751742
 30
0.0
  0
ENDBLK
  5
13B1
330
13A6
100
AcDbEntity
  8
0
100
AcDbBlockEnd
  0
BLOCK
  5
13BC
330
13B2
100
AcDbEntity
  8
0
100
AcDbBlockBegin
  2
*D25
 70
     1
 10
0.0
 20
0.0
 30
0.0
  3
*D25
  1

  0
POINT
  5
1893
330
13B2
100
AcDbEntity
  8
DEFPOINTS
 62
     0
100
AcDbPoint
 10
596.9711769446
 20
181.4918481742
 30
0.0
  0
POINT
  5
1894
330
13B2
100
AcDbEntity
  8
DEFPOINTS
 62
     0
100
AcDbPoint
 10
650.9711769446
 20
192.8636131742
 30
0.0
  0
POINT
  5
1895
330
13B2
100
AcDbEntity
  8
DEFPOINTS
 62
     0
100
AcDbPoint
 10
650.9711769446
 20
215.9951522824
 30
0.0
  0
ENDBLK
  5
13BD
330
13B2
100
AcDbEntity
  8
0
100
AcDbBlockEnd
  0
BLOCK
  5
13C8
330
13BE
100
AcDbEntity
  8
0
100
AcDbBlockBegin
  2
*D26
 70
     1
 10
0.0
 20
0.0
 30
0.0
  3
*D26
  1

  0
POINT
  5
188A
330
13BE
100
AcDbEntity
  8
DEFPOINTS
 62
     0
100
AcDbPoint
 10
596.9711769446
 20
181.4918481742
 30
0.0
  0
POINT
  5
188B
330
13BE
100
AcDbEntity
  8
DEFPOINTS
 62
     0
100
AcDbPoint
 10
657.9711769446
 20
184.8849751742
 30
0.0
  0
POINT
  5
188C
330
13BE
100
AcDbEntity
  8
DEFPOINTS
 62
     0
100
AcDbPoint
 10
657.9711769446
 20
228.0440106778
 30
0.0
  0
ENDBLK
  5
13C9
330
13BE
100
AcDbEntity
  8
0
100
AcDbBlockEnd
  0
BLOCK
  5
13D4
330
13CA
100
AcDbEntity
  8
0
100
AcDbBlockBegin
  2
*D27
 70
     1
 10
0.0
 20
0.0
 30
0.0
  3
*D27
  1

  0
POINT
  5
17C6
330
13CA
100
AcDbEntity
  8
DEFPOINTS
 62
     0
100
AcDbPoint
 10
441.4711769446
 20
151.3849751742
 30
0.0
  0
POINT
  5
17C7
330
13CA
100
AcDbEntity
  8
DEFPOINTS
 62
     0
100
AcDbPoint
 10
465.4711769446
 20
158.8849751742
 30
0.0
  0
POINT
  5
17C8
330
13CA
100
AcDbEntity
  8
DEFPOINTS
 62
     0
100
AcDbPoint
 10
465.4711769446
 20
216.3724693341
 30
0.0
  0
ENDBLK
  5
13D5
330
13CA
100
AcDbEntity
  8
0
100
AcDbBlockEnd
  0
BLOCK
  5
13E0
330
13D6
100
AcDbEntity
  8
0
100
AcDbBlockBegin
  2
*D28
 70
     1
 10
0.0
 20
0.0
 30
0.0
  3
*D28
  1

  0
POINT
  5
17BD
330
13D6
100
AcDbEntity
  8
DEFPOINTS
 62
     0
100
AcDbPoint
 10
438.4711769446
 20
159.1963761742
 30
0.0
  0
POINT
  5
17BE
330
13D6
100
AcDbEntity
  8
DEFPOINTS
 62
     0
100
AcDbPoint
 10
465.4711769446
 20
158.8849751742
 30
0.0
  0
POINT
  5
17BF
330
13D6
100
AcDbEntity
  8
DEFPOINTS
 62
     0
100
AcDbPoint
 10
465.4711769446
 20
228.1157357635
 30
0.0
  0
ENDBLK
  5
13E1
330
13D6
100
AcDbEntity
  8
0
100
AcDbBlockEnd
  0
BLOCK
  5
13EC
330
13E2
100
AcDbEntity
  8
0
100
AcDbBlockBegin
  2
*D29
 70
     1
 10
0.0
 20
0.0
 30
0.0
  3
*D29
  1

  0
POINT
  5
1881
330
13E2
100
AcDbEntity
  8
DEFPOINTS
 62
     0
100
AcDbPoint
 10
596.9711769446
 20
181.4918481742
 30
0.0
  0
POINT
  5
1882
330
13E2
100
AcDbEntity
  8
DEFPOINTS
 62
     0
100
AcDbPoint
 10
564.9711769446
 20
192.8636131742
 30
0.0
  0
POINT
  5
1883
330
13E2
100
AcDbEntity
  8
DEFPOINTS
 62
     0
100
AcDbPoint
 10
564.9711769446
 20
215.9951522824
 30
0.0
  0
ENDBLK
  5
13ED
330
13E2
100
AcDbEntity
  8
0
100
AcDbBlockEnd
  0
BLOCK
  5
13F8
330
13EE
100
AcDbEntity
  8
0
100
AcDbBlockBegin
  2
*D30
 70
     1
 10
0.0
 20
0.0
 30
0.0
  3
*D30
  1

  0
POINT
  5
1878
330
13EE
100
AcDbEntity
  8
DEFPOINTS
 62
     0
100
AcDbPoint
 10
596.9711769446
 20
181.4918481742
 30
0.0
  0
POINT
  5
1879
330
13EE
100
AcDbEntity
  8
DEFPOINTS
 62
     0
100
AcDbPoint
 10
557.9711769446
 20
184.8849751742
 30
0.0
  0
POINT
  5
187A
330
13EE
100
AcDbEntity
  8
DEFPOINTS
 62
     0
100
AcDbPoint
 10
557.9711769446
 20
228.0440106778
 30
0.0
  0
ENDBLK
  5
13F9
330
13EE
100
AcDbEntity
  8
0
100
AcDbBlockEnd
  0
BLOCK
  5
1404
330
13FA
100
AcDbEntity
  8
0
100
AcDbBlockBegin
  2
*D31
 70
     1
 10
0.0
 20
0.0
 30
0.0
  3
*D31
  1

  0
POINT
  5
186F
330
13FA
100
AcDbEntity
  8
DEFPOINTS
 62
     0
100
AcDbPoint
 10
657.9711769446
 20
184.8849751742
 30
0.0
  0
POINT
  5
1870
330
13FA
100
AcDbEntity
  8
DEFPOINTS
 62
     0
100
AcDbPoint
 10
557.9711769446
 20
184.8849751742
 30
0.0
  0
POINT
  5
1871
330
13FA
100
AcDbEntity
  8
DEFPOINTS
 62
     0
100
AcDbPoint
 10
557.9711769446
 20
240.164594159
 30
0.0
  0
ENDBLK
  5
1405
330
13FA
100
AcDbEntity
  8
0
100
AcDbBlockEnd
  0
BLOCK
  5
1410
330
1406
100
AcDbEntity
  8
0
100
AcDbBlockBegin
  2
*D32
 70
     1
 10
0.0
 20
0.0
 30
0.0
  3
*D32
  1

  0
POINT
  5
18F9
330
1406
100
AcDbEntity
  8
DEFPOINTS
 62
     0
100
AcDbPoint
 10
557.9711769446
 20
184.8849751742
 30
0.0
  0
POINT
  5
18FA
330
1406
100
AcDbEntity
  8
DEFPOINTS
 62
     0
100
AcDbPoint
 10
789.5266579446
 20
186.3849751742
 30
0.0
  0
POINT
  5
18FB
330
1406
100
AcDbEntity
  8
DEFPOINTS
 62
     0
100
AcDbPoint
 10
789.5266579446
 20
251.8847182628
 30
0.0
  0
ENDBLK
  5
1411
330
1406
100
AcDbEntity
  8
0
100
AcDbBlockEnd
  0
BLOCK
  5
1F9D
330
1F94
100
AcDbEntity
  8
0
100
AcDbBlockBegin
  2
*D36
 70
     1
 10
0.0
 20
0.0
 30
0.0
  3
*D36
  1

  0
POINT
  5
204F
330
1F94
100
AcDbEntity
  8
DEFPOINTS
 62
     0
100
AcDbPoint
 10
691.0266509446
 20
221.8849731742
 30
0.0
  0
POINT
  5
2050
330
1F94
100
AcDbEntity
  8
DEFPOINTS
 62
     0
100
AcDbPoint
 10
676.7765533247
 20
189.3849751742
 30
0.0
  0
POINT
  5
2051
330
1F94
100
AcDbEntity
  8
DEFPOINTS
 62
     0
100
AcDbPoint
 10
676.7765533247
 20
189.3849751742
 30
0.0
  0
ENDBLK
  5
1F9E
330
1F94
100
AcDbEntity
  8
0
100
AcDbBlockEnd
  0
BLOCK
  5
1FA9
330
1F9F
100
AcDbEntity
  8
0
100
AcDbBlockBegin
  2
*D37
 70
     1
 10
0.0
 20
0.0
 30
0.0
  3
*D37
  1

  0
POINT
  5
2005
330
1F9F
100
AcDbEntity
  8
DEFPOINTS
 62
     0
100
AcDbPoint
 10
690.0266509446
 20
220.8849731742
 30
0.0
  0
POINT
  5
2006
330
1F9F
100
AcDbEntity
  8
DEFPOINTS
 62
     0
100
AcDbPoint
 10
740.0266579446
 20
220.8849731742
 30
0.0
  0
POINT
  5
2007
330
1F9F
100
AcDbEntity
  8
DEFPOINTS
 62
     0
100
AcDbPoint
 10
740.0266579446
 20
240.164594159
 30
0.0
  0
ENDBLK
  5
1FAA
330
1F9F
100
AcDbEntity
  8
0
100
AcDbBlockEnd
  0
BLOCK
  5
1FB6
330
1FAB
100
AcDbEntity
  8
0
100
AcDbBlockBegin
  2
*D38
 70
     1
 10
0.0
 20
0.0
 30
0.0
  3
*D38
  1

  0
POINT
  5
200E
330
1FAB
100
AcDbEntity
  8
DEFPOINTS
 62
     0
100
AcDbPoint
 10
740.0266579446
 20
220.8849731742
 30
0.0
  0
POINT
  5
200F
330
1FAB
100
AcDbEntity
  8
DEFPOINTS
 62
     0
100
AcDbPoint
 10
789.5266579446
 20
186.3849751742
 30
0.0
  0
POINT
  5
2010
330
1FAB
100
AcDbEntity
  8
DEFPOINTS
 62
     0
100
AcDbPoint
 10
789.5266579446
 20
240.164594159
 30
0.0
  0
ENDBLK
  5
1FB7
330
1FAB
100
AcDbEntity
  8
0
100
AcDbBlockEnd
  0
BLOCK
  5
3611
330
3610
100
AcDbEntity
  8
0
100
AcDbBlockBegin
  2
*D64
 70
     1
 10
0.0
 20
0.0
 30
0.0
  3
*D64
  1

  0
POINT
  5
3626
330
3610
100
AcDbEntity
  8
DEFPOINTS
 62
     0
100
AcDbPoint
 10
397.1341077815
 20
121.0849751742
 30
0.0
  0
POINT
  5
3627
330
3610
100
AcDbEntity
  8
DEFPOINTS
 62
     0
100
AcDbPoint
 10
397.6431103327
 20
114.6849751742
 30
0.0
  0
POINT
  5
3628
330
3610
100
AcDbEntity
  8
DEFPOINTS
 62
     0
100
AcDbPoint
 10
395.1196753523
 20
114.6849751742
 30
0.0
  0
ENDBLK
  5
3612
330
3610
100
AcDbEntity
  8
0
100
AcDbBlockEnd
  0
ENDSEC
  0
SECTION
  2
ENTITIES
  0
LINE
  5
7C9
330
2
100
AcDbEntity
  8
HIDS
100
AcDbLine
 10
373.9711769446
 20
111.3849751742
 30
0.0
 11
418.5397189446
 21
111.3849751742
 31
0.0
  0
LINE
  5
7CA
330
2
100
AcDbEntity
  8
HIDS
100
AcDbLine
 10
419.9711769446
 20
191.3849751742
 30
0.0
 11
375.4026349446
 21
191.3849751742
 31
0.0
  0
LINE
  5
7CB
330
2
100
AcDbEntity
  8
CENTER
100
AcDbLine
 10
353.9662029446
 20
184.8849751742
 30
0.0
 11
441.0149389446
 21
184.8849751742
 31
0.0
  0
LINE
  5
7CC
330
2
100
AcDbEntity
  8
CENTER
100
AcDbLine
 10
353.9662029446
 20
117.8849751742
 30
0.0
 11
441.0149389446
 21
117.8849751742
 31
0.0
  0
LINE
  5
7CD
330
2
100
AcDbEntity
  8
HIDS
100
AcDbLine
 10
375.9362649446
 20
113.7521471742
 30
0.0
 11
396.9711769446
 21
113.3849751742
 31
0.0
  0
LINE
  5
7CE
330
2
100
AcDbEntity
  8
HIDS
100
AcDbLine
 10
375.9362649446
 20
189.0178181742
 30
0.0
 11
396.9711769446
 21
189.3849751742
 31
0.0
  0
LINE
  5
7CF
330
2
100
AcDbEntity
  8
0
100
AcDbLine
 10
396.9711769446
 20
110.8849751742
 30
0.0
 11
356.4711769446
 21
111.5918991742
 31
0.0
  0
LINE
  5
7D0
330
2
100
AcDbEntity
  8
0
100
AcDbLine
 10
396.9711769446
 20
191.8849751742
 30
0.0
 11
356.4711769446
 21
191.1780351742
 31
0.0
  0
LINE
  5
7D2
330
2
100
AcDbEntity
  8
HIDS
100
AcDbLine
 10
356.9711769446
 20
172.9535171742
 30
0.0
 11
356.9711769446
 21
128.3849751742
 31
0.0
  0
LINE
  5
7D3
330
2
100
AcDbEntity
  8
0
100
AcDbLine
 10
30.7671424191
 20
186.3849751742
 30
0.0
 11
30.7671424191
 21
116.3849751742
 31
0.0
  0
LINE
  5
7D4
330
2
100
AcDbEntity
  8
0
100
AcDbLine
 10
79.7671304191
 20
111.3849751742
 30
0.0
 11
79.7671304191
 21
191.3849751742
 31
0.0
  0
LINE
  5
7D5
330
2
100
AcDbEntity
  8
0
100
AcDbLine
 10
89.2671304191
 20
189.3849751742
 30
0.0
 11
89.2671304191
 21
113.3849751742
 31
0.0
  0
CIRCLE
  5
7D6
330
2
100
AcDbEntity
  8
0
100
AcDbCircle
 10
223.3226344191
 20
151.3849751742
 30
0.0
 40
25.002001
  0
CIRCLE
  5
7D7
330
2
100
AcDbEntity
  8
0
100
AcDbCircle
 10
223.3226344191
 20
151.3849751742
 30
0.0
 40
23.0
  0
CIRCLE
  5
7D8
330
2
100
AcDbEntity
  8
0
100
AcDbCircle
 10
223.3226344191
 20
151.3849751742
 30
0.0
 40
19.0
  0
ARC
  5
7D9
330
2
100
AcDbEntity
  8
0
100
AcDbCircle
 10
164.3226344191
 20
134.3849751742
 30
0.0
 40
2.0
100
AcDbArc
 50
180.0
 51
270.0
  0
ARC
  5
7DB
330
2
100
AcDbEntity
  8
0
100
AcDbCircle
 10
260.3226344191
 20
134.3849751742
 30
0.0
 40
2.0
100
AcDbArc
 50
270.0
 51
0.0
  0
ARC
  5
7DD
330
2
100
AcDbEntity
  8
0
100
AcDbCircle
 10
193.3226344191
 20
137.8849751742
 30
0.0
 40
22.0
100
AcDbArc
 50
180.0
 51
194.477509
  0
ARC
  5
7DE
330
2
100
AcDbEntity
  8
0
100
AcDbCircle
 10
231.3226344191
 20
137.8849751742
 30
0.0
 40
22.0
100
AcDbArc
 50
345.522488
 51
0.0
  0
ARC
  5
7DF
330
2
100
AcDbEntity
  8
0
100
AcDbCircle
 10
173.5489074191
 20
134.8849751742
 30
0.0
 40
2.0
100
AcDbArc
 50
188.626923
 51
270.0
  0
LINE
  5
7E0
330
2
100
AcDbEntity
  8
0
100
AcDbLine
 10
176.1583434191
 20
132.7019921742
 30
0.0
 11
175.2384824191
 21
130.7019921742
 31
0.0
  0
ARC
  5
7E1
330
2
100
AcDbEntity
  8
0
100
AcDbCircle
 10
175.3226344191
 20
130.8849751742
 30
0.0
 40
2.0
100
AcDbArc
 50
40.601295
 51
90.0
  0
ARC
  5
7E2
330
2
100
AcDbEntity
  8
0
100
AcDbCircle
 10
251.0963464191
 20
134.8849751742
 30
0.0
 40
2.0
100
AcDbArc
 50
270.0
 51
351.373077
  0
LINE
  5
7E3
330
2
100
AcDbEntity
  8
0
100
AcDbLine
 10
248.4869104191
 20
132.7019921742
 30
0.0
 11
249.4068014191
 21
130.7019921742
 31
0.0
  0
ARC
  5
7E4
330
2
100
AcDbEntity
  8
0
100
AcDbCircle
 10
249.3226344191
 20
130.8849751742
 30
0.0
 40
2.0
100
AcDbArc
 50
90.0
 51
139.398712
  0
LINE
  5
7E5
330
2
100
AcDbEntity
  8
0
100
AcDbLine
 10
162.3226344191
 20
135.0565451742
 30
0.0
 11
162.3226344191
 21
117.8849751742
 31
0.0
  0
LINE
  5
7E6
330
2
100
AcDbEntity
  8
0
100
AcDbLine
 10
262.3226344191
 20
117.8849751742
 30
0.0
 11
262.3226344191
 21
184.8849751742
 31
0.0
  0
LINE
  5
7E8
330
2
100
AcDbEntity
  8
0
100
AcDbLine
 10
356.4711769446
 20
191.1780351742
 30
0.0
 11
356.4711769446
 21
111.5918991742
 31
0.0
  0
LINE
  5
7E9
330
2
100
AcDbEntity
  8
0
100
AcDbLine
 10
161.8226344191
 20
177.0754351742
 30
0.0
 11
161.8226344191
 21
125.6945151742
 31
0.0
  0
ARC
  5
7EA
330
2
100
AcDbEntity
  8
HIDS
100
AcDbCircle
 10
396.9711769446
 20
151.3849751742
 30
0.0
 40
38.0
100
AcDbArc
 50
129.356705
 51
230.643295
  0
LINE
  5
7EB
330
2
100
AcDbEntity
  8
0
100
AcDbLine
 10
368.9711769446
 20
191.3962361742
 30
0.0
 11
368.9711769446
 21
111.3737141742
 31
0.0
  0
LINE
  5
7EC
330
2
100
AcDbEntity
  8
0
100
AcDbLine
 10
89.2671304191
 20
121.1360131742
 30
0.0
 11
162.3226344191
 21
121.1360131742
 31
0.0
  0
LINE
  5
7ED
330
2
100
AcDbEntity
  8
0
100
AcDbLine
 10
89.2671304191
 20
113.3849751742
 30
0.0
 11
160.9638854191
 21
113.3849751742
 31
0.0
  0
LINE
  5
7EF
330
2
100
AcDbEntity
  8
0
100
AcDbLine
 10
33.5171424191
 20
125.3849751742
 30
0.0
 11
79.7671304191
 21
125.3849751742
 31
0.0
  0
LINE
  5
7F0
330
2
100
AcDbEntity
  8
0
100
AcDbLine
 10
35.7671424191
 20
111.3849751742
 30
0.0
 11
79.7671304191
 21
111.3849751742
 31
0.0
  0
ARC
  5
7F1
330
2
100
AcDbEntity
  8
0
100
AcDbCircle
 10
35.7671494191
 20
116.3849751742
 30
0.0
 40
5.0
100
AcDbArc
 50
180.0
 51
270.0
  0
LINE
  5
7F2
330
2
100
AcDbEntity
  8
0
100
AcDbLine
 10
79.7671304191
 20
121.1359821742
 30
0.0
 11
89.2671304191
 21
121.1359821742
 31
0.0
  0
LINE
  5
7F3
330
2
100
AcDbEntity
  8
0
100
AcDbLine
 10
79.7671304191
 20
113.3849751742
 30
0.0
 11
89.2671304191
 21
113.3849751742
 31
0.0
  0
CIRCLE
  5
7F4
330
2
100
AcDbEntity
  8
HOJO
100
AcDbCircle
 10
255.3226344191
 20
117.8849751742
 30
0.0
 40
4.0
  0
CIRCLE
  5
7F5
330
2
100
AcDbEntity
  8
0
100
AcDbCircle
 10
255.3226344191
 20
117.8849751742
 30
0.0
 40
4.25
  0
CIRCLE
  5
7F6
330
2
100
AcDbEntity
  8
0
100
AcDbCircle
 10
255.3226344191
 20
117.8849751742
 30
0.0
 40
3.2
  0
LINE
  5
7F7
330
2
100
AcDbEntity
  8
0
100
AcDbLine
 10
260.3226344191
 20
132.3849751742
 30
0.0
 11
257.8226344191
 21
132.3849751742
 31
0.0
  0
LINE
  5
7F8
330
2
100
AcDbEntity
  8
0
100
AcDbLine
 10
260.3226344191
 20
123.3849751742
 30
0.0
 11
257.8226344191
 21
123.3849751742
 31
0.0
  0
LINE
  5
7FA
330
2
100
AcDbEntity
  8
0
100
AcDbLine
 10
257.8226344191
 20
129.6849931742
 30
0.0
 11
259.3226344191
 21
128.8189651742
 31
0.0
  0
LINE
  5
7FB
330
2
100
AcDbEntity
  8
0
100
AcDbLine
 10
257.8226344191
 20
126.0849871742
 30
0.0
 11
259.3226344191
 21
126.9510151742
 31
0.0
  0
CIRCLE
  5
7FC
330
2
100
AcDbEntity
  8
0
100
AcDbCircle
 10
257.8226344191
 20
127.8849751742
 30
0.0
 40
3.5
  0
CIRCLE
  5
7FD
330
2
100
AcDbEntity
  8
0
100
AcDbCircle
 10
257.8226344191
 20
127.8849751742
 30
0.0
 40
3.799999999999998
  0
ARC
  5
7FE
330
2
100
AcDbEntity
  8
0
100
AcDbCircle
 10
255.3226344191
 20
117.8849751742
 30
0.0
 40
7.0
100
AcDbArc
 50
227.364075
 51
0.0
  0
LINE
  5
800
330
2
100
AcDbEntity
  8
0
100
AcDbLine
 10
231.3226344191
 20
115.8849751742
 30
0.0
 11
193.3226344191
 21
115.8849751742
 31
0.0
  0
LINE
  5
801
330
2
100
AcDbEntity
  8
0
100
AcDbLine
 10
169.3226344191
 20
110.8849751742
 30
0.0
 11
255.3226344191
 21
110.8849751742
 31
0.0
  0
CIRCLE
  5
803
330
2
100
AcDbEntity
  8
0
100
AcDbCircle
 10
166.8226344191
 20
127.8849751742
 30
0.0
 40
3.5
  0
CIRCLE
  5
804
330
2
100
AcDbEntity
  8
0
100
AcDbCircle
 10
166.8226344191
 20
127.8849751742
 30
0.0
 40
3.799999999999998
  0
ARC
  5
805
330
2
100
AcDbEntity
  8
0
100
AcDbCircle
 10
164.3226344191
 20
121.3849751742
 30
0.0
 40
2.0
100
AcDbArc
 50
90.0
 51
180.0
  0
LINE
  5
806
330
2
100
AcDbEntity
  8
0
100
AcDbLine
 10
161.6590144191
 20
113.2602801742
 30
0.0
 11
166.8896514191
 21
111.3213921742
 31
0.0
  0
ARC
  5
807
330
2
100
AcDbEntity
  8
0
100
AcDbCircle
 10
169.3226344191
 20
117.8849751742
 30
0.0
 40
7.0
100
AcDbArc
 50
180.0
 51
312.635925
  0
ARC
  5
809
330
2
100
AcDbEntity
  8
0
100
AcDbCircle
 10
160.9638854191
 20
111.3849751742
 30
0.0
 40
2.0
100
AcDbArc
 50
69.66127
 51
90.0
  0
LINE
  5
80A
330
2
100
AcDbEntity
  8
0
100
AcDbLine
 10
161.8226344191
 20
125.6945151742
 30
0.0
 11
162.3226344191
 21
125.6945151742
 31
0.0
  0
ARC
  5
80B
330
2
100
AcDbEntity
  8
0
100
AcDbCircle
 10
188.7232994191
 20
120.8849751742
 30
0.0
 40
10.0
100
AcDbArc
 50
247.668358
 51
270.0
  0
ARC
  5
80D
330
2
100
AcDbEntity
  8
0
100
AcDbCircle
 10
178.1280234191
 20
108.3212391742
 30
0.0
 40
6.0
100
AcDbArc
 50
59.641697
 51
132.635925
  0
LINE
  5
80E
330
2
100
AcDbEntity
  8
0
100
AcDbLine
 10
176.8411434191
 20
132.1865501742
 30
0.0
 11
185.8411434191
 21
121.6865501742
 31
0.0
  0
LINE
  5
80F
330
2
100
AcDbEntity
  8
0
100
AcDbLine
 10
175.9212824191
 20
130.1865501742
 30
0.0
 11
183.8411434191
 21
120.9467121742
 31
0.0
  0
CIRCLE
  5
810
330
2
100
AcDbEntity
  8
0
100
AcDbCircle
 10
169.3226344191
 20
117.8849751742
 30
0.0
 40
4.25
  0
CIRCLE
  5
811
330
2
100
AcDbEntity
  8
HOJO
100
AcDbCircle
 10
169.3226344191
 20
117.8849751742
 30
0.0
 40
4.0
  0
CIRCLE
  5
812
330
2
100
AcDbEntity
  8
0
100
AcDbCircle
 10
169.3226344191
 20
117.8849751742
 30
0.0
 40
3.2
  0
ARC
  5
813
330
2
100
AcDbEntity
  8
0
100
AcDbCircle
 10
173.9577204191
 20
132.8849751742
 30
0.0
 40
2.0
100
AcDbArc
 50
194.477509
 51
270.0
  0
LINE
  5
814
330
2
100
AcDbEntity
  8
0
100
AcDbLine
 10
164.3226344191
 20
132.3849751742
 30
0.0
 11
166.8226344191
 21
132.3849751742
 31
0.0
  0
LINE
  5
815
330
2
100
AcDbEntity
  8
0
100
AcDbLine
 10
166.8226344191
 20
126.0849871742
 30
0.0
 11
168.3226344191
 21
126.9510151742
 31
0.0
  0
LINE
  5
816
330
2
100
AcDbEntity
  8
0
100
AcDbLine
 10
168.3226344191
 20
128.8189651742
 30
0.0
 11
168.3226344191
 21
126.9510151742
 31
0.0
  0
LINE
  5
817
330
2
100
AcDbEntity
  8
0
100
AcDbLine
 10
166.8226344191
 20
129.6849931742
 30
0.0
 11
168.3226344191
 21
128.8189651742
 31
0.0
  0
LINE
  5
818
330
2
100
AcDbEntity
  8
0
100
AcDbLine
 10
166.8226344191
 20
129.6849931742
 30
0.0
 11
165.3226344191
 21
128.8189651742
 31
0.0
  0
LINE
  5
819
330
2
100
AcDbEntity
  8
0
100
AcDbLine
 10
165.3226344191
 20
128.8189651742
 30
0.0
 11
165.3226344191
 21
126.9510151742
 31
0.0
  0
LINE
  5
81A
330
2
100
AcDbEntity
  8
0
100
AcDbLine
 10
166.8226344191
 20
126.0849871742
 30
0.0
 11
165.3226344191
 21
126.9510151742
 31
0.0
  0
LINE
  5
81B
330
2
100
AcDbEntity
  8
0
100
AcDbLine
 10
164.3226344191
 20
123.3849751742
 30
0.0
 11
166.8226344191
 21
123.3849751742
 31
0.0
  0
ARC
  5
81C
330
2
100
AcDbEntity
  8
0
100
AcDbCircle
 10
166.8226344191
 20
127.8849751742
 30
0.0
 40
4.5
100
AcDbArc
 50
270.0
 51
90.0
  0
LINE
  5
81D
330
2
100
AcDbEntity
  8
0
100
AcDbLine
 10
174.4027584191
 20
130.8849751742
 30
0.0
 11
173.9577204191
 21
130.8849751742
 31
0.0
  0
ARC
  5
81E
330
2
100
AcDbEntity
  8
0
100
AcDbCircle
 10
174.4027584191
 20
128.8849751742
 30
0.0
 40
2.0
100
AcDbArc
 50
40.601295
 51
90.0
  0
ARC
  5
81F
330
2
100
AcDbEntity
  8
0
100
AcDbCircle
 10
188.3226344191
 20
118.5200461742
 30
0.0
 40
2.0
100
AcDbArc
 50
180.0
 51
255.522491
  0
ARC
  5
820
330
2
100
AcDbEntity
  8
0
100
AcDbCircle
 10
193.3226344191
 20
137.8849751742
 30
0.0
 40
22.0
100
AcDbArc
 50
249.512688
 51
270.0
  0
ARC
  5
821
330
2
100
AcDbEntity
  8
0
100
AcDbCircle
 10
186.3226344191
 20
119.1499901742
 30
0.0
 40
2.0
100
AcDbArc
 50
180.0
 51
249.51268
  0
LINE
  5
822
330
2
100
AcDbEntity
  8
0
100
AcDbLine
 10
186.1983974191
 20
121.0788531742
 30
0.0
 11
184.1983974191
 21
120.3390161742
 31
0.0
  0
ARC
  5
823
330
2
100
AcDbEntity
  8
0
100
AcDbCircle
 10
182.3226344191
 20
119.6451371742
 30
0.0
 40
2.0
100
AcDbArc
 50
0.0
 51
40.601295
  0
ARC
  5
824
330
2
100
AcDbEntity
  8
0
100
AcDbCircle
 10
184.3226344191
 20
120.3849751742
 30
0.0
 40
2.0
100
AcDbArc
 50
0.0
 51
40.601295
  0
LINE
  5
825
330
2
100
AcDbEntity
  8
0
100
AcDbLine
 10
186.3226344191
 20
120.3849751742
 30
0.0
 11
186.3226344191
 21
118.5200461742
 31
0.0
  0
LINE
  5
826
330
2
100
AcDbEntity
  8
0
100
AcDbLine
 10
184.3226344191
 20
119.6451371742
 30
0.0
 11
184.3226344191
 21
119.1499901742
 31
0.0
  0
ARC
  5
827
330
2
100
AcDbEntity
  8
0
100
AcDbCircle
 10
196.3226344191
 20
139.3849751742
 30
0.0
 40
30.0
100
AcDbArc
 50
239.641701
 51
247.668358
  0
ARC
  5
828
330
2
100
AcDbEntity
  8
0
100
AcDbCircle
 10
235.9219694191
 20
120.8849751742
 30
0.0
 40
10.0
100
AcDbArc
 50
270.0
 51
292.331642
  0
LINE
  5
82A
330
2
100
AcDbEntity
  8
0
100
AcDbLine
 10
247.8041104191
 20
132.1865501742
 30
0.0
 11
238.8041254191
 21
121.6865501742
 31
0.0
  0
LINE
  5
82B
330
2
100
AcDbEntity
  8
0
100
AcDbLine
 10
248.7240014191
 20
130.1865501742
 30
0.0
 11
240.8041104191
 21
120.9467121742
 31
0.0
  0
ARC
  5
82C
330
2
100
AcDbEntity
  8
0
100
AcDbCircle
 10
228.3226344191
 20
139.3849751742
 30
0.0
 40
30.0
100
AcDbArc
 50
292.331642
 51
300.358303
  0
ARC
  5
82D
330
2
100
AcDbEntity
  8
0
100
AcDbCircle
 10
231.3226344191
 20
137.8849751742
 30
0.0
 40
22.0
100
AcDbArc
 50
270.0
 51
290.487305
  0
ARC
  5
82E
330
2
100
AcDbEntity
  8
0
100
AcDbCircle
 10
238.3226344191
 20
119.1499901742
 30
0.0
 40
2.0
100
AcDbArc
 50
290.487312
 51
0.0
  0
ARC
  5
82F
330
2
100
AcDbEntity
  8
0
100
AcDbCircle
 10
236.3226344191
 20
118.5200461742
 30
0.0
 40
2.0
100
AcDbArc
 50
284.477509
 51
0.0
  0
LINE
  5
830
330
2
100
AcDbEntity
  8
0
100
AcDbLine
 10
238.4468714191
 20
121.0788531742
 30
0.0
 11
240.4468714191
 21
120.3390161742
 31
0.0
  0
ARC
  5
831
330
2
100
AcDbEntity
  8
0
100
AcDbCircle
 10
242.3226344191
 20
119.6451371742
 30
0.0
 40
2.0
100
AcDbArc
 50
139.398712
 51
180.0
  0
ARC
  5
832
330
2
100
AcDbEntity
  8
0
100
AcDbCircle
 10
240.3226344191
 20
120.3849751742
 30
0.0
 40
2.0
100
AcDbArc
 50
139.398712
 51
180.0
  0
LINE
  5
833
330
2
100
AcDbEntity
  8
0
100
AcDbLine
 10
238.3226344191
 20
120.3849751742
 30
0.0
 11
238.3226344191
 21
118.5200461742
 31
0.0
  0
LINE
  5
834
330
2
100
AcDbEntity
  8
0
100
AcDbLine
 10
240.3226344191
 20
119.6451371742
 30
0.0
 11
240.3226344191
 21
119.1499901742
 31
0.0
  0
ARC
  5
835
330
2
100
AcDbEntity
  8
0
100
AcDbCircle
 10
246.5172454191
 20
108.3212391742
 30
0.0
 40
6.0
100
AcDbArc
 50
47.364067
 51
120.358299
  0
ARC
  5
836
330
2
100
AcDbEntity
  8
0
100
AcDbCircle
 10
250.2424954191
 20
128.8849751742
 30
0.0
 40
2.0
100
AcDbArc
 50
90.0
 51
139.398712
  0
ARC
  5
837
330
2
100
AcDbEntity
  8
0
100
AcDbCircle
 10
257.8226344191
 20
127.8849751742
 30
0.0
 40
4.5
100
AcDbArc
 50
90.0
 51
270.0
  0
LINE
  5
838
330
2
100
AcDbEntity
  8
0
100
AcDbLine
 10
257.8226344191
 20
129.6849931742
 30
0.0
 11
256.3226344191
 21
128.8189651742
 31
0.0
  0
LINE
  5
839
330
2
100
AcDbEntity
  8
0
100
AcDbLine
 10
257.8226344191
 20
126.0849871742
 30
0.0
 11
256.3226344191
 21
126.9510151742
 31
0.0
  0
LINE
  5
83A
330
2
100
AcDbEntity
  8
0
100
AcDbLine
 10
256.3226344191
 20
128.8189651742
 30
0.0
 11
256.3226344191
 21
126.9510151742
 31
0.0
  0
ARC
  5
83B
330
2
100
AcDbEntity
  8
0
100
AcDbCircle
 10
250.6875634191
 20
132.8849751742
 30
0.0
 40
2.0
100
AcDbArc
 50
270.0
 51
345.522491
  0
LINE
  5
83C
330
2
100
AcDbEntity
  8
0
100
AcDbLine
 10
250.2424954191
 20
130.8849751742
 30
0.0
 11
250.6875634191
 21
130.8849751742
 31
0.0
  0
ARC
  5
83D
330
2
100
AcDbEntity
  8
0
100
AcDbCircle
 10
260.3226344191
 20
121.3849751742
 30
0.0
 40
2.0
100
AcDbArc
 50
0.0
 51
90.0
  0
LINE
  5
83E
330
2
100
AcDbEntity
  8
0
100
AcDbLine
 10
259.3226344191
 20
128.8189651742
 30
0.0
 11
259.3226344191
 21
126.9510151742
 31
0.0
  0
LINE
  5
840
330
2
100
AcDbEntity
  8
0
100
AcDbLine
 10
356.4711769446
 20
113.6349751742
 30
0.0
 11
368.9711769446
 21
113.6349751742
 31
0.0
  0
LINE
  5
841
330
2
100
AcDbEntity
  8
0
100
AcDbLine
 10
356.4711769446
 20
122.1349751742
 30
0.0
 11
368.9711769446
 21
122.1349751742
 31
0.0
  0
LINE
  5
842
330
2
100
AcDbEntity
  8
HIDS
100
AcDbLine
 10
363.5742039446
 20
125.3849751742
 30
0.0
 11
370.9711769446
 21
117.9880021742
 31
0.0
  0
ARC
  5
844
330
2
100
AcDbEntity
  8
HIDS
100
AcDbCircle
 10
359.9711769446
 20
128.3849751742
 30
0.0
 40
3.0
100
AcDbArc
 50
180.0
 51
270.0
  0
LINE
  5
845
330
2
100
AcDbEntity
  8
0
100
AcDbLine
 10
356.4711769446
 20
132.5551721742
 30
0.0
 11
362.9711769446
 21
132.3849751742
 31
0.0
  0
LINE
  5
846
330
2
100
AcDbEntity
  8
CENTER
100
AcDbLine
 10
356.0314799446
 20
127.8849751742
 30
0.0
 11
364.0161899446
 21
127.8849751742
 31
0.0
  0
LINE
  5
849
330
2
100
AcDbEntity
  8
HIDS
100
AcDbLine
 10
359.9711769446
 20
125.3849751742
 30
0.0
 11
363.5742039446
 21
125.3849751742
 31
0.0
  0
LINE
  5
84A
330
2
100
AcDbEntity
  8
0
100
AcDbLine
 10
361.9711459446
 20
131.6849631742
 30
0.0
 11
362.9711769446
 21
131.6849631742
 31
0.0
  0
LINE
  5
84B
330
2
100
AcDbEntity
  8
0
100
AcDbLine
 10
357.9711459446
 20
131.3849751742
 30
0.0
 11
361.9711459446
 21
131.3850061742
 31
0.0
  0
LINE
  5
84C
330
2
100
AcDbEntity
  8
0
100
AcDbLine
 10
362.9711769446
 20
126.1991204955
 30
0.0
 11
362.9711769446
 21
132.3849751742
 31
0.0
  0
LINE
  5
84E
330
2
100
AcDbEntity
  8
0
100
AcDbLine
 10
357.9711459446
 20
125.8118249141
 30
0.0
 11
357.9711459446
 21
131.3849751742
 31
0.0
  0
LINE
  5
850
330
2
100
AcDbEntity
  8
0
100
AcDbLine
 10
361.9711459446
 20
126.0598359865
 30
0.0
 11
361.9711459446
 21
131.6849631742
 31
0.0
  0
ARC
  5
851
330
2
100
AcDbEntity
  8
HIDS
100
AcDbCircle
 10
373.9711769446
 20
114.3849751742
 30
0.0
 40
3.0
100
AcDbArc
 50
180.0
 51
270.0
  0
LINE
  5
853
330
2
100
AcDbEntity
  8
HOJO
100
AcDbLine
 10
368.9711769446
 20
113.8849751742
 30
0.0
 11
388.9711769446
 21
113.8849751742
 31
0.0
  0
LINE
  5
854
330
2
100
AcDbEntity
  8
HOJO
100
AcDbLine
 10
368.9711769446
 20
121.8849751742
 30
0.0
 11
388.9711769446
 21
121.8849751742
 31
0.0
  0
ARC
  5
855
330
2
100
AcDbEntity
  8
HIDS
100
AcDbCircle
 10
370.9711769446
 20
119.6832541742
 30
0.0
 40
3.0
100
AcDbArc
 50
0.0
 51
50.643299
  0
LINE
  5
856
330
2
100
AcDbEntity
  8
HIDS
100
AcDbLine
 10
370.9711769446
 20
114.3849751742
 30
0.0
 11
370.9711769446
 21
117.9880021742
 31
0.0
  0
ARC
  5
857
330
2
100
AcDbEntity
  8
HIDS
100
AcDbCircle
 10
375.9711769446
 20
115.7518421742
 30
0.0
 40
2.0
100
AcDbArc
 50
180.0
 51
269.0
  0
LINE
  5
858
330
2
100
AcDbEntity
  8
HIDS
100
AcDbLine
 10
373.9711769446
 20
115.7518421742
 30
0.0
 11
373.9711769446
 21
119.6832541742
 31
0.0
  0
LINE
  5
85C
330
2
100
AcDbEntity
  8
HOJO
100
AcDbLine
 10
388.9711769446
 20
121.8849751742
 30
0.0
 11
388.9711769446
 21
113.8849751742
 31
0.0
  0
LINE
  5
860
330
2
100
AcDbEntity
  8
0
100
AcDbLine
 10
89.2671304191
 20
181.6339371742
 30
0.0
 11
162.3226344191
 21
181.6339371742
 31
0.0
  0
LINE
  5
861
330
2
100
AcDbEntity
  8
0
100
AcDbLine
 10
89.2671304191
 20
189.3849751742
 30
0.0
 11
160.9638854191
 21
189.3849751742
 31
0.0
  0
LINE
  5
862
330
2
100
AcDbEntity
  8
CENTER
100
AcDbLine
 10
269.8634054191
 20
151.3849751742
 30
0.0
 11
22.2466124509
 21
151.3849751742
 31
0.0
  0
LINE
  5
863
330
2
100
AcDbEntity
  8
0
100
AcDbLine
 10
33.5171424191
 20
175.3849751742
 30
0.0
 11
79.7671304191
 21
175.3849751742
 31
0.0
  0
LINE
  5
864
330
2
100
AcDbEntity
  8
0
100
AcDbLine
 10
35.7671424191
 20
191.3849751742
 30
0.0
 11
79.7671304191
 21
191.3849751742
 31
0.0
  0
ARC
  5
865
330
2
100
AcDbEntity
  8
0
100
AcDbCircle
 10
35.7671424191
 20
186.3849751742
 30
0.0
 40
5.0
100
AcDbArc
 50
90.0
 51
180.0
  0
ARC
  5
866
330
2
100
AcDbEntity
  8
0
100
AcDbCircle
 10
79.7671304191
 20
174.9143631742
 30
0.0
 40
1.5
100
AcDbArc
 50
0.0
 51
90.0
  0
ARC
  5
867
330
2
100
AcDbEntity
  8
0
100
AcDbCircle
 10
79.7671304191
 20
174.9143631742
 30
0.0
 40
3.0
100
AcDbArc
 50
0.0
 51
90.0
  0
ARC
  5
868
330
2
100
AcDbEntity
  8
0
100
AcDbCircle
 10
79.7671304191
 20
174.9143631742
 30
0.0
 40
4.5
100
AcDbArc
 50
0.0
 51
90.0
  0
LINE
  5
869
330
2
100
AcDbEntity
  8
HOJO
100
AcDbLine
 10
82.7671304191
 20
170.9143631742
 30
0.0
 11
84.2671304191
 21
170.4143631742
 31
0.0
  0
LINE
  5
86A
330
2
100
AcDbEntity
  8
HOJO
100
AcDbLine
 10
81.2671304191
 20
169.9143631742
 30
0.0
 11
82.7671304191
 21
170.4143631742
 31
0.0
  0
LINE
  5
86B
330
2
100
AcDbEntity
  8
0
100
AcDbLine
 10
84.2671304191
 20
174.9143631742
 30
0.0
 11
84.2671304191
 21
170.4143631742
 31
0.0
  0
LINE
  5
86C
330
2
100
AcDbEntity
  8
0
100
AcDbLine
 10
82.7671304191
 20
174.9143631742
 30
0.0
 11
82.7671304191
 21
170.4143631742
 31
0.0
  0
LINE
  5
86D
330
2
100
AcDbEntity
  8
0
100
AcDbLine
 10
81.2671304191
 20
174.9143631742
 30
0.0
 11
81.2671304191
 21
169.8987691742
 31
0.0
  0
LINE
  5
872
330
2
100
AcDbEntity
  8
0
100
AcDbLine
 10
79.7671304191
 20
181.6339681742
 30
0.0
 11
89.2671304191
 21
181.6339681742
 31
0.0
  0
LINE
  5
873
330
2
100
AcDbEntity
  8
0
100
AcDbLine
 10
79.7671304191
 20
189.3849751742
 30
0.0
 11
89.2671304191
 21
189.3849751742
 31
0.0
  0
CIRCLE
  5
87B
330
2
100
AcDbEntity
  8
HOJO
100
AcDbCircle
 10
255.3226344191
 20
184.8849751742
 30
0.0
 40
4.0
  0
CIRCLE
  5
87C
330
2
100
AcDbEntity
  8
0
100
AcDbCircle
 10
255.3226344191
 20
184.8849751742
 30
0.0
 40
4.25
  0
CIRCLE
  5
87D
330
2
100
AcDbEntity
  8
0
100
AcDbCircle
 10
255.3226344191
 20
184.8849751742
 30
0.0
 40
3.2
  0
LINE
  5
87F
330
2
100
AcDbEntity
  8
0
100
AcDbLine
 10
260.3226344191
 20
170.3849751742
 30
0.0
 11
257.8226344191
 21
170.3849751742
 31
0.0
  0
LINE
  5
880
330
2
100
AcDbEntity
  8
0
100
AcDbLine
 10
260.3226344191
 20
179.3849751742
 30
0.0
 11
257.8226344191
 21
179.3849751742
 31
0.0
  0
LINE
  5
881
330
2
100
AcDbEntity
  8
0
100
AcDbLine
 10
257.8226344191
 20
173.0849571742
 30
0.0
 11
259.3226344191
 21
173.9509851742
 31
0.0
  0
LINE
  5
882
330
2
100
AcDbEntity
  8
0
100
AcDbLine
 10
257.8226344191
 20
176.6849631742
 30
0.0
 11
259.3226344191
 21
175.8189351742
 31
0.0
  0
CIRCLE
  5
883
330
2
100
AcDbEntity
  8
0
100
AcDbCircle
 10
257.8226344191
 20
174.8849751742
 30
0.0
 40
3.5
  0
CIRCLE
  5
884
330
2
100
AcDbEntity
  8
0
100
AcDbCircle
 10
257.8226344191
 20
174.8849751742
 30
0.0
 40
3.799999999999998
  0
ARC
  5
885
330
2
100
AcDbEntity
  8
0
100
AcDbCircle
 10
255.3226344191
 20
184.8849751742
 30
0.0
 40
7.0
100
AcDbArc
 50
0.0
 51
132.635925
  0
LINE
  5
887
330
2
100
AcDbEntity
  8
0
100
AcDbLine
 10
231.3226344191
 20
186.8849751742
 30
0.0
 11
193.3226344191
 21
186.8849751742
 31
0.0
  0
LINE
  5
888
330
2
100
AcDbEntity
  8
0
100
AcDbLine
 10
169.3226344191
 20
191.8849751742
 30
0.0
 11
255.3226344191
 21
191.8849751742
 31
0.0
  0
ARC
  5
88A
330
2
100
AcDbEntity
  8
0
100
AcDbCircle
 10
166.8226344191
 20
174.8849751742
 30
0.0
 40
4.5
100
AcDbArc
 50
270.0
 51
90.0
  0
LINE
  5
88B
330
2
100
AcDbEntity
  8
0
100
AcDbLine
 10
165.3226344191
 20
173.9509851742
 30
0.0
 11
165.3226344191
 21
175.8189351742
 31
0.0
  0
LINE
  5
88C
330
2
100
AcDbEntity
  8
0
100
AcDbLine
 10
168.3226344191
 20
173.9509851742
 30
0.0
 11
168.3226344191
 21
175.8189351742
 31
0.0
  0
CIRCLE
  5
88D
330
2
100
AcDbEntity
  8
0
100
AcDbCircle
 10
166.8226344191
 20
174.8849751742
 30
0.0
 40
3.5
  0
CIRCLE
  5
88E
330
2
100
AcDbEntity
  8
0
100
AcDbCircle
 10
166.8226344191
 20
174.8849751742
 30
0.0
 40
3.799999999999998
  0
LINE
  5
88F
330
2
100
AcDbEntity
  8
0
100
AcDbLine
 10
176.8411434191
 20
170.5834001742
 30
0.0
 11
185.8411434191
 21
181.0834001742
 31
0.0
  0
LINE
  5
890
330
2
100
AcDbEntity
  8
0
100
AcDbLine
 10
175.9212824191
 20
172.5834001742
 30
0.0
 11
183.8411434191
 21
181.8232381742
 31
0.0
  0
LINE
  5
891
330
2
100
AcDbEntity
  8
0
100
AcDbLine
 10
162.3226344191
 20
184.8849751742
 30
0.0
 11
162.3226344191
 21
167.7134051742
 31
0.0
  0
ARC
  5
893
330
2
100
AcDbEntity
  8
0
100
AcDbCircle
 10
164.3226344191
 20
168.3849751742
 30
0.0
 40
2.0
100
AcDbArc
 50
90.0
 51
180.0
  0
LINE
  5
894
330
2
100
AcDbEntity
  8
0
100
AcDbLine
 10
165.7368494191
 20
163.4707601742
 30
0.0
 11
162.9084194191
 21
166.2991901742
 31
0.0
  0
LINE
  5
895
330
2
100
AcDbEntity
  8
0
100
AcDbLine
 10
165.7368494191
 20
139.2991901742
 30
0.0
 11
162.9084194191
 21
136.4707601742
 31
0.0
  0
ARC
  5
896
330
2
100
AcDbEntity
  8
0
100
AcDbCircle
 10
164.3226344191
 20
135.0565451742
 30
0.0
 40
2.0
100
AcDbArc
 50
135.0
 51
180.0
  0
ARC
  5
897
330
2
100
AcDbEntity
  8
0
100
AcDbCircle
 10
164.3226344191
 20
167.7134051742
 30
0.0
 40
2.0
100
AcDbArc
 50
180.0
 51
225.0
  0
LINE
  5
898
330
2
100
AcDbEntity
  8
0
100
AcDbLine
 10
171.3226344191
 20
164.8849751742
 30
0.0
 11
171.3226344191
 21
137.8849751742
 31
0.0
  0
LINE
  5
899
330
2
100
AcDbEntity
  8
0
100
AcDbLine
 10
166.3226344191
 20
140.7134051742
 30
0.0
 11
166.3226344191
 21
162.0565451742
 31
0.0
  0
ARC
  5
89A
330
2
100
AcDbEntity
  8
0
100
AcDbCircle
 10
164.3226344191
 20
140.7134051742
 30
0.0
 40
2.0
100
AcDbArc
 50
315.0
 51
0.0
  0
LINE
  5
89B
330
2
100
AcDbEntity
  8
0
100
AcDbLine
 10
175.3226344191
 20
132.8849751742
 30
0.0
 11
173.5489074191
 21
132.8849751742
 31
0.0
  0
ARC
  5
89C
330
2
100
AcDbEntity
  8
0
100
AcDbCircle
 10
164.3226344191
 20
162.0565451742
 30
0.0
 40
2.0
100
AcDbArc
 50
0.0
 51
45.0
  0
ARC
  5
89D
330
2
100
AcDbEntity
  8
0
100
AcDbCircle
 10
173.9577204191
 20
169.8849751742
 30
0.0
 40
2.0
100
AcDbArc
 50
90.0
 51
165.522491
  0
ARC
  5
89E
330
2
100
AcDbEntity
  8
0
100
AcDbCircle
 10
173.5489074191
 20
167.8849751742
 30
0.0
 40
2.0
100
AcDbArc
 50
90.0
 51
171.373077
  0
LINE
  5
89F
330
2
100
AcDbEntity
  8
0
100
AcDbLine
 10
164.3226344191
 20
170.3849751742
 30
0.0
 11
166.8226344191
 21
170.3849751742
 31
0.0
  0
LINE
  5
8A0
330
2
100
AcDbEntity
  8
0
100
AcDbLine
 10
166.8226344191
 20
173.0849571742
 30
0.0
 11
168.3226344191
 21
173.9509851742
 31
0.0
  0
LINE
  5
8A1
330
2
100
AcDbEntity
  8
0
100
AcDbLine
 10
166.8226344191
 20
173.0849571742
 30
0.0
 11
165.3226344191
 21
173.9509851742
 31
0.0
  0
ARC
  5
8A2
330
2
100
AcDbEntity
  8
0
100
AcDbCircle
 10
193.3226344191
 20
164.8849751742
 30
0.0
 40
22.0
100
AcDbArc
 50
165.522491
 51
180.0
  0
LINE
  5
8A3
330
2
100
AcDbEntity
  8
0
100
AcDbLine
 10
174.4027584191
 20
171.8849751742
 30
0.0
 11
173.9577204191
 21
171.8849751742
 31
0.0
  0
LINE
  5
8A4
330
2
100
AcDbEntity
  8
0
100
AcDbLine
 10
175.3226344191
 20
169.8849751742
 30
0.0
 11
173.5489074191
 21
169.8849751742
 31
0.0
  0
LINE
  5
8A5
330
2
100
AcDbEntity
  8
0
100
AcDbLine
 10
176.1583434191
 20
170.0679581742
 30
0.0
 11
175.2384824191
 21
172.0679581742
 31
0.0
  0
ARC
  5
8A6
330
2
100
AcDbEntity
  8
0
100
AcDbCircle
 10
175.3226344191
 20
171.8849751742
 30
0.0
 40
2.0
100
AcDbArc
 50
270.0
 51
319.398705
  0
ARC
  5
8A7
330
2
100
AcDbEntity
  8
0
100
AcDbCircle
 10
174.4027584191
 20
173.8849751742
 30
0.0
 40
2.0
100
AcDbArc
 50
270.0
 51
319.398705
  0
ARC
  5
8A8
330
2
100
AcDbEntity
  8
0
100
AcDbCircle
 10
164.3226344191
 20
181.3849751742
 30
0.0
 40
2.0
100
AcDbArc
 50
180.0
 51
270.0
  0
LINE
  5
8A9
330
2
100
AcDbEntity
  8
0
100
AcDbLine
 10
161.6590144191
 20
189.5096701742
 30
0.0
 11
166.8896514191
 21
191.4485431742
 31
0.0
  0
ARC
  5
8AA
330
2
100
AcDbEntity
  8
0
100
AcDbCircle
 10
169.3226344191
 20
184.8849751742
 30
0.0
 40
7.0
100
AcDbArc
 50
47.364067
 51
180.0
  0
LINE
  5
8AC
330
2
100
AcDbEntity
  8
0
100
AcDbLine
 10
161.8226344191
 20
177.0754351742
 30
0.0
 11
162.3226344191
 21
177.0754351742
 31
0.0
  0
ARC
  5
8AD
330
2
100
AcDbEntity
  8
0
100
AcDbCircle
 10
160.9638854191
 20
191.3849751742
 30
0.0
 40
2.0
100
AcDbArc
 50
270.0
 51
290.33873
  0
ARC
  5
8AE
330
2
100
AcDbEntity
  8
0
100
AcDbCircle
 10
178.1280234191
 20
194.4487261742
 30
0.0
 40
6.0
100
AcDbArc
 50
227.364075
 51
300.358303
  0
CIRCLE
  5
8AF
330
2
100
AcDbEntity
  8
HOJO
100
AcDbCircle
 10
169.3226344191
 20
184.8849751742
 30
0.0
 40
4.0
  0
CIRCLE
  5
8B0
330
2
100
AcDbEntity
  8
0
100
AcDbCircle
 10
169.3226344191
 20
184.8849751742
 30
0.0
 40
4.25
  0
CIRCLE
  5
8B1
330
2
100
AcDbEntity
  8
0
100
AcDbCircle
 10
169.3226344191
 20
184.8849751742
 30
0.0
 40
3.2
  0
LINE
  5
8B3
330
2
100
AcDbEntity
  8
0
100
AcDbLine
 10
164.3226344191
 20
179.3849751742
 30
0.0
 11
166.8226344191
 21
179.3849751742
 31
0.0
  0
LINE
  5
8B4
330
2
100
AcDbEntity
  8
0
100
AcDbLine
 10
166.8226344191
 20
176.6849631742
 30
0.0
 11
165.3226344191
 21
175.8189351742
 31
0.0
  0
LINE
  5
8B5
330
2
100
AcDbEntity
  8
0
100
AcDbLine
 10
166.8226344191
 20
176.6849631742
 30
0.0
 11
168.3226344191
 21
175.8189351742
 31
0.0
  0
ARC
  5
8B6
330
2
100
AcDbEntity
  8
0
100
AcDbCircle
 10
186.3226344191
 20
183.6199601742
 30
0.0
 40
2.0
100
AcDbArc
 50
110.487312
 51
180.0
  0
ARC
  5
8B7
330
2
100
AcDbEntity
  8
0
100
AcDbCircle
 10
188.3226344191
 20
184.2499041742
 30
0.0
 40
2.0
100
AcDbArc
 50
104.477509
 51
180.0
  0
ARC
  5
8B8
330
2
100
AcDbEntity
  8
0
100
AcDbCircle
 10
193.3226344191
 20
164.8849751742
 30
0.0
 40
22.0
100
AcDbArc
 50
90.0
 51
110.487312
  0
LINE
  5
8B9
330
2
100
AcDbEntity
  8
0
100
AcDbLine
 10
186.1983974191
 20
181.6910971742
 30
0.0
 11
184.1983974191
 21
182.4309341742
 31
0.0
  0
ARC
  5
8BA
330
2
100
AcDbEntity
  8
0
100
AcDbCircle
 10
182.3226344191
 20
183.1248131742
 30
0.0
 40
2.0
100
AcDbArc
 50
319.398705
 51
0.0
  0
ARC
  5
8BB
330
2
100
AcDbEntity
  8
0
100
AcDbCircle
 10
184.3226344191
 20
182.3849751742
 30
0.0
 40
2.0
100
AcDbArc
 50
319.398705
 51
0.0
  0
LINE
  5
8BC
330
2
100
AcDbEntity
  8
0
100
AcDbLine
 10
186.3226344191
 20
182.3849751742
 30
0.0
 11
186.3226344191
 21
184.2499041742
 31
0.0
  0
LINE
  5
8BD
330
2
100
AcDbEntity
  8
0
100
AcDbLine
 10
184.3226344191
 20
183.1248131742
 30
0.0
 11
184.3226344191
 21
183.6199601742
 31
0.0
  0
ARC
  5
8BE
330
2
100
AcDbEntity
  8
0
100
AcDbCircle
 10
188.7232994191
 20
181.8849751742
 30
0.0
 40
10.0
100
AcDbArc
 50
90.0
 51
112.331642
  0
ARC
  5
8BF
330
2
100
AcDbEntity
  8
0
100
AcDbCircle
 10
196.3226344191
 20
163.3849751742
 30
0.0
 40
30.0
100
AcDbArc
 50
112.331642
 51
120.358299
  0
ARC
  5
8C0
330
2
100
AcDbEntity
  8
0
100
AcDbCircle
 10
257.8226344191
 20
174.8849751742
 30
0.0
 40
4.5
100
AcDbArc
 50
90.0
 51
270.0
  0
LINE
  5
8C2
330
2
100
AcDbEntity
  8
0
100
AcDbLine
 10
256.3226344191
 20
173.9509851742
 30
0.0
 11
256.3226344191
 21
175.8189351742
 31
0.0
  0
LINE
  5
8C3
330
2
100
AcDbEntity
  8
0
100
AcDbLine
 10
247.8041104191
 20
170.5834001742
 30
0.0
 11
238.8041254191
 21
181.0834001742
 31
0.0
  0
LINE
  5
8C4
330
2
100
AcDbEntity
  8
0
100
AcDbLine
 10
248.7240014191
 20
172.5834001742
 30
0.0
 11
240.8041104191
 21
181.8232381742
 31
0.0
  0
ARC
  5
8C5
330
2
100
AcDbEntity
  8
0
100
AcDbCircle
 10
223.3226344191
 20
151.3849751742
 30
0.0
 40
7.5
100
AcDbArc
 50
19.471222
 51
340.528778
  0
ARC
  5
8C6
330
2
100
AcDbEntity
  8
0
100
AcDbCircle
 10
223.3226344191
 20
151.3849751742
 30
0.0
 40
8.5
100
AcDbArc
 50
17.104635
 51
342.895355
  0
CIRCLE
  5
8C7
330
2
100
AcDbEntity
  8
0
100
AcDbCircle
 10
223.3226344191
 20
151.3849751742
 30
0.0
 40
15.0
  0
LINE
  5
8C8
330
2
100
AcDbEntity
  8
0
100
AcDbLine
 10
227.8226344191
 20
153.8849751742
 30
0.0
 11
227.8226344191
 21
148.8849751742
 31
0.0
  0
LINE
  5
8C9
330
2
100
AcDbEntity
  8
0
100
AcDbLine
 10
232.8226344191
 20
153.8849751742
 30
0.0
 11
232.8226344191
 21
148.8849751742
 31
0.0
  0
LINE
  5
8CA
330
2
100
AcDbEntity
  8
0
100
AcDbLine
 10
253.3226344191
 20
164.8849751742
 30
0.0
 11
253.3226344191
 21
137.8849751742
 31
0.0
  0
LINE
  5
8CB
330
2
100
AcDbEntity
  8
0
100
AcDbLine
 10
227.8226344191
 20
148.8849751742
 30
0.0
 11
232.8226344191
 21
148.8849751742
 31
0.0
  0
LINE
  5
8CC
330
2
100
AcDbEntity
  8
0
100
AcDbLine
 10
249.3226344191
 20
132.8849751742
 30
0.0
 11
251.0963464191
 21
132.8849751742
 31
0.0
  0
LINE
  5
8CD
330
2
100
AcDbEntity
  8
0
100
AcDbLine
 10
227.8226344191
 20
153.8849751742
 30
0.0
 11
232.8226344191
 21
153.8849751742
 31
0.0
  0
LINE
  5
8CE
330
2
100
AcDbEntity
  8
0
100
AcDbLine
 10
249.3226344191
 20
169.8849751742
 30
0.0
 11
251.0963464191
 21
169.8849751742
 31
0.0
  0
ARC
  5
8CF
330
2
100
AcDbEntity
  8
0
100
AcDbCircle
 10
250.2424954191
 20
173.8849751742
 30
0.0
 40
2.0
100
AcDbArc
 50
220.601288
 51
270.0
  0
LINE
  5
8D0
330
2
100
AcDbEntity
  8
0
100
AcDbLine
 10
248.4869104191
 20
170.0679581742
 30
0.0
 11
249.4068014191
 21
172.0679581742
 31
0.0
  0
ARC
  5
8D1
330
2
100
AcDbEntity
  8
0
100
AcDbCircle
 10
249.3226344191
 20
171.8849751742
 30
0.0
 40
2.0
100
AcDbArc
 50
220.601288
 51
270.0
  0
LINE
  5
8D2
330
2
100
AcDbEntity
  8
0
100
AcDbLine
 10
257.8226344191
 20
173.0849571742
 30
0.0
 11
256.3226344191
 21
173.9509851742
 31
0.0
  0
ARC
  5
8D3
330
2
100
AcDbEntity
  8
0
100
AcDbCircle
 10
231.3226344191
 20
164.8849751742
 30
0.0
 40
22.0
100
AcDbArc
 50
0.0
 51
14.477512
  0
ARC
  5
8D4
330
2
100
AcDbEntity
  8
0
100
AcDbCircle
 10
250.6875634191
 20
169.8849751742
 30
0.0
 40
2.0
100
AcDbArc
 50
14.477512
 51
90.0
  0
ARC
  5
8D5
330
2
100
AcDbEntity
  8
0
100
AcDbCircle
 10
251.0963464191
 20
167.8849751742
 30
0.0
 40
2.0
100
AcDbArc
 50
8.626927
 51
90.0
  0
LINE
  5
8D6
330
2
100
AcDbEntity
  8
0
100
AcDbLine
 10
250.2424954191
 20
171.8849751742
 30
0.0
 11
250.6875634191
 21
171.8849751742
 31
0.0
  0
ARC
  5
8D7
330
2
100
AcDbEntity
  8
0
100
AcDbCircle
 10
228.3226344191
 20
163.3849751742
 30
0.0
 40
30.0
100
AcDbArc
 50
59.641697
 51
67.668358
  0
ARC
  5
8D8
330
2
100
AcDbEntity
  8
0
100
AcDbCircle
 10
238.3226344191
 20
183.6199601742
 30
0.0
 40
2.0
100
AcDbArc
 50
0.0
 51
69.512688
  0
ARC
  5
8D9
330
2
100
AcDbEntity
  8
0
100
AcDbCircle
 10
236.3226344191
 20
184.2499041742
 30
0.0
 40
2.0
100
AcDbArc
 50
0.0
 51
75.522491
  0
ARC
  5
8DA
330
2
100
AcDbEntity
  8
0
100
AcDbCircle
 10
231.3226344191
 20
164.8849751742
 30
0.0
 40
22.0
100
AcDbArc
 50
69.512688
 51
90.0
  0
LINE
  5
8DB
330
2
100
AcDbEntity
  8
0
100
AcDbLine
 10
238.4468714191
 20
181.6910971742
 30
0.0
 11
240.4468714191
 21
182.4309341742
 31
0.0
  0
ARC
  5
8DC
330
2
100
AcDbEntity
  8
0
100
AcDbCircle
 10
242.3226344191
 20
183.1248131742
 30
0.0
 40
2.0
100
AcDbArc
 50
180.0
 51
220.601288
  0
ARC
  5
8DD
330
2
100
AcDbEntity
  8
0
100
AcDbCircle
 10
240.3226344191
 20
182.3849751742
 30
0.0
 40
2.0
100
AcDbArc
 50
180.0
 51
220.601288
  0
LINE
  5
8DE
330
2
100
AcDbEntity
  8
0
100
AcDbLine
 10
238.3226344191
 20
182.3849751742
 30
0.0
 11
238.3226344191
 21
184.2499041742
 31
0.0
  0
LINE
  5
8DF
330
2
100
AcDbEntity
  8
0
100
AcDbLine
 10
240.3226344191
 20
183.1248131742
 30
0.0
 11
240.3226344191
 21
183.6199601742
 31
0.0
  0
ARC
  5
8E0
330
2
100
AcDbEntity
  8
0
100
AcDbCircle
 10
235.9219694191
 20
181.8849751742
 30
0.0
 40
10.0
100
AcDbArc
 50
67.668358
 51
90.0
  0
LINE
  5
8E2
330
2
100
AcDbEntity
  8
0
100
AcDbLine
 10
257.8226344191
 20
176.6849631742
 30
0.0
 11
256.3226344191
 21
175.8189351742
 31
0.0
  0
ARC
  5
8E3
330
2
100
AcDbEntity
  8
0
100
AcDbCircle
 10
246.5172454191
 20
194.4487261742
 30
0.0
 40
6.0
100
AcDbArc
 50
239.641701
 51
312.635933
  0
LINE
  5
8E4
330
2
100
AcDbEntity
  8
0
100
AcDbLine
 10
328.4711769446
 20
148.8849751742
 30
0.0
 11
349.9711769446
 21
148.8849751742
 31
0.0
  0
LINE
  5
8E5
330
2
100
AcDbEntity
  8
0
100
AcDbLine
 10
328.4711769446
 20
153.8849751742
 30
0.0
 11
349.9711769446
 21
153.8849751742
 31
0.0
  0
LINE
  5
8E6
330
2
100
AcDbEntity
  8
0
100
AcDbLine
 10
328.4711769446
 20
143.8849751742
 30
0.0
 11
355.4711769446
 21
143.8849751742
 31
0.0
  0
LINE
  5
8E7
330
2
100
AcDbEntity
  8
0
100
AcDbLine
 10
328.4711769446
 20
158.8849751742
 30
0.0
 11
355.4711769446
 21
158.8849751742
 31
0.0
  0
LINE
  5
8E8
330
2
100
AcDbEntity
  8
0
100
AcDbLine
 10
259.3226344191
 20
173.9509851742
 30
0.0
 11
259.3226344191
 21
175.8189351742
 31
0.0
  0
LINE
  5
8E9
330
2
100
AcDbEntity
  8
0
100
AcDbLine
 10
258.3226344191
 20
140.7134051742
 30
0.0
 11
258.3226344191
 21
162.0565451742
 31
0.0
  0
ARC
  5
8EA
330
2
100
AcDbEntity
  8
0
100
AcDbCircle
 10
260.3226344191
 20
140.7134051742
 30
0.0
 40
2.0
100
AcDbArc
 50
180.0
 51
225.0
  0
ARC
  5
8EB
330
2
100
AcDbEntity
  8
0
100
AcDbCircle
 10
260.3226344191
 20
135.0565451742
 30
0.0
 40
2.0
100
AcDbArc
 50
0.0
 51
45.0
  0
LINE
  5
8EC
330
2
100
AcDbEntity
  8
0
100
AcDbLine
 10
258.9084194191
 20
139.2991901742
 30
0.0
 11
261.7368494191
 21
136.4707601742
 31
0.0
  0
LINE
  5
8ED
330
2
100
AcDbEntity
  8
0
100
AcDbLine
 10
258.9084194191
 20
163.4707601742
 30
0.0
 11
261.7368494191
 21
166.2991901742
 31
0.0
  0
ARC
  5
8EE
330
2
100
AcDbEntity
  8
0
100
AcDbCircle
 10
260.3226344191
 20
162.0565451742
 30
0.0
 40
2.0
100
AcDbArc
 50
135.0
 51
180.0
  0
ARC
  5
8EF
330
2
100
AcDbEntity
  8
0
100
AcDbCircle
 10
260.3226344191
 20
168.3849751742
 30
0.0
 40
2.0
100
AcDbArc
 50
0.0
 51
90.0
  0
ARC
  5
8F0
330
2
100
AcDbEntity
  8
0
100
AcDbCircle
 10
260.3226344191
 20
167.7134051742
 30
0.0
 40
2.0
100
AcDbArc
 50
315.0
 51
0.0
  0
LINE
  5
8F1
330
2
100
AcDbEntity
  8
0
100
AcDbLine
 10
328.4711769446
 20
158.8849751742
 30
0.0
 11
328.4711769446
 21
143.8849751742
 31
0.0
  0
ARC
  5
8F2
330
2
100
AcDbEntity
  8
0
100
AcDbCircle
 10
260.3226344191
 20
181.3849751742
 30
0.0
 40
2.0
100
AcDbArc
 50
270.0
 51
0.0
  0
ARC
  5
8F3
330
2
100
AcDbEntity
  8
HIDS
100
AcDbCircle
 10
361.9711769446
 20
172.9535171742
 30
0.0
 40
5.0
100
AcDbArc
 50
135.0
 51
180.0
  0
LINE
  5
8F4
330
2
100
AcDbEntity
  8
0
100
AcDbLine
 10
362.9711769446
 20
179.3849751742
 30
0.0
 11
362.9711769446
 21
170.3849751742
 31
0.0
  0
LINE
  5
8F5
330
2
100
AcDbEntity
  8
0
100
AcDbLine
 10
357.9711459446
 20
178.3849751742
 30
0.0
 11
357.9711459446
 21
171.3849751742
 31
0.0
  0
LINE
  5
8F6
330
2
100
AcDbEntity
  8
0
100
AcDbLine
 10
361.9711459446
 20
178.6849631742
 30
0.0
 11
361.9711459446
 21
171.0849871742
 31
0.0
  0
LINE
  5
8F7
330
2
100
AcDbEntity
  8
0
100
AcDbLine
 10
368.9711769446
 20
135.8849751742
 30
0.0
 11
356.4711769446
 21
135.8849751742
 31
0.0
  0
LINE
  5
8F8
330
2
100
AcDbEntity
  8
0
100
AcDbLine
 10
368.9711769446
 20
139.8849751742
 30
0.0
 11
356.4711769446
 21
139.8849751742
 31
0.0
  0
LINE
  5
8F9
330
2
100
AcDbEntity
  8
0
100
AcDbLine
 10
368.9711769446
 20
162.8849751742
 30
0.0
 11
356.4711769446
 21
162.8849751742
 31
0.0
  0
LINE
  5
8FA
330
2
100
AcDbEntity
  8
0
100
AcDbLine
 10
368.9711769446
 20
166.8849751742
 30
0.0
 11
356.4711769446
 21
166.8849751742
 31
0.0
  0
LINE
  5
8FB
330
2
100
AcDbEntity
  8
0
100
AcDbLine
 10
355.4711769446
 20
159.1963151742
 30
0.0
 11
355.4711769446
 21
143.5736351742
 31
0.0
  0
ARC
  5
8FC
330
2
100
AcDbEntity
  8
0
100
AcDbCircle
 10
349.9711769446
 20
151.3849751742
 30
0.0
 40
2.5
100
AcDbArc
 50
270.0
 51
90.0
  0
ARC
  5
8FD
330
2
100
AcDbEntity
  8
0
100
AcDbCircle
 10
355.9711769446
 20
143.5736351742
 30
0.0
 40
0.5
100
AcDbArc
 50
180.0
 51
240.0
  0
LINE
  5
8FE
330
2
100
AcDbEntity
  8
0
100
AcDbLine
 10
356.4711769446
 20
142.8849751742
 30
0.0
 11
356.2486119446
 21
142.8849751742
 31
0.0
  0
LINE
  5
8FF
330
2
100
AcDbEntity
  8
0
100
AcDbLine
 10
355.7211769446
 20
143.1406511742
 30
0.0
 11
355.8730939446
 21
143.0529131742
 31
0.0
  0
ARC
  5
900
330
2
100
AcDbEntity
  8
0
100
AcDbCircle
 10
356.8730939446
 20
144.7849691742
 30
0.0
 40
2.0
100
AcDbArc
 50
240.0
 51
251.80513
  0
LINE
  5
901
330
2
100
AcDbEntity
  8
0
100
AcDbLine
 10
356.4711769446
 20
159.8849751742
 30
0.0
 11
356.2486119446
 21
159.8849751742
 31
0.0
  0
ARC
  5
902
330
2
100
AcDbEntity
  8
0
100
AcDbCircle
 10
356.8730939446
 20
157.9849811742
 30
0.0
 40
2.0
100
AcDbArc
 50
108.19487
 51
120.0
  0
LINE
  5
903
330
2
100
AcDbEntity
  8
0
100
AcDbLine
 10
355.7211769446
 20
159.6292991742
 30
0.0
 11
355.8730939446
 21
159.7170371742
 31
0.0
  0
ARC
  5
904
330
2
100
AcDbEntity
  8
0
100
AcDbCircle
 10
355.9711769446
 20
159.1963151742
 30
0.0
 40
0.5
100
AcDbArc
 50
120.0
 51
180.0
  0
LINE
  5
905
330
2
100
AcDbEntity
  8
0
100
AcDbLine
 10
356.4711769446
 20
170.2147781742
 30
0.0
 11
362.9711769446
 21
170.3849751742
 31
0.0
  0
LINE
  5
906
330
2
100
AcDbEntity
  8
CENTER
100
AcDbLine
 10
356.0314799446
 20
174.8849751742
 30
0.0
 11
364.0161899446
 21
174.8849751742
 31
0.0
  0
LINE
  5
907
330
2
100
AcDbEntity
  8
0
100
AcDbLine
 10
361.9711459446
 20
171.0849871742
 30
0.0
 11
362.9711769446
 21
171.0849871742
 31
0.0
  0
LINE
  5
908
330
2
100
AcDbEntity
  8
0
100
AcDbLine
 10
357.9711459446
 20
171.3849751742
 30
0.0
 11
361.9711459446
 21
171.3849441742
 31
0.0
  0
LINE
  5
909
330
2
100
AcDbEntity
  8
0
100
AcDbLine
 10
389.6382609446
 20
160.5588341742
 30
0.0
 11
389.6382609446
 21
142.2111161742
 31
0.0
  0
LINE
  5
90A
330
2
100
AcDbEntity
  8
0
100
AcDbLine
 10
391.9711769446
 20
138.2518271742
 30
0.0
 11
391.9711769446
 21
164.5181231742
 31
0.0
  0
LINE
  5
90B
330
2
100
AcDbEntity
  8
0
100
AcDbLine
 10
387.6731729446
 20
140.2114221742
 30
0.0
 11
368.9711769446
 21
139.8849751742
 31
0.0
  0
LINE
  5
90C
330
2
100
AcDbEntity
  8
0
100
AcDbLine
 10
390.0060889446
 20
136.2521321742
 30
0.0
 11
368.9711769446
 21
135.8849751742
 31
0.0
  0
ARC
  5
90D
330
2
100
AcDbEntity
  8
0
100
AcDbCircle
 10
387.6382609446
 20
142.2111161742
 30
0.0
 40
2.0
100
AcDbArc
 50
271.0
 51
0.0
  0
ARC
  5
90E
330
2
100
AcDbEntity
  8
0
100
AcDbCircle
 10
389.9711769446
 20
138.2518271742
 30
0.0
 40
2.0
100
AcDbArc
 50
271.0
 51
0.0
  0
LINE
  5
90F
330
2
100
AcDbEntity
  8
0
100
AcDbLine
 10
391.5423129446
 20
137.0142781742
 30
0.0
 11
389.2093969446
 21
140.9735681742
 31
0.0
  0
LINE
  5
910
330
2
100
AcDbEntity
  8
0
100
AcDbLine
 10
387.6731729446
 20
162.5585281742
 30
0.0
 11
368.9711769446
 21
162.8849751742
 31
0.0
  0
LINE
  5
911
330
2
100
AcDbEntity
  8
0
100
AcDbLine
 10
390.0060889446
 20
166.5178181742
 30
0.0
 11
368.9711769446
 21
166.8849751742
 31
0.0
  0
LINE
  5
912
330
2
100
AcDbEntity
  8
0
100
AcDbLine
 10
389.2093969446
 20
161.7963821742
 30
0.0
 11
391.5423129446
 21
165.7556721742
 31
0.0
  0
ARC
  5
913
330
2
100
AcDbEntity
  8
0
100
AcDbCircle
 10
387.6382609446
 20
160.5588341742
 30
0.0
 40
2.0
100
AcDbArc
 50
0.0
 51
89.0
  0
ARC
  5
914
330
2
100
AcDbEntity
  8
0
100
AcDbCircle
 10
389.9711769446
 20
164.5181231742
 30
0.0
 40
2.0
100
AcDbArc
 50
0.0
 51
89.0
  0
LINE
  5
916
330
2
100
AcDbEntity
  8
HIDS
100
AcDbLine
 10
356.4711769446
 20
180.6349751742
 30
0.0
 11
368.9711769446
 21
180.6349751742
 31
0.0
  0
LINE
  5
917
330
2
100
AcDbEntity
  8
HIDS
100
AcDbLine
 10
356.4711769446
 20
189.1349751742
 30
0.0
 11
368.9711769446
 21
189.1349751742
 31
0.0
  0
LINE
  5
918
330
2
100
AcDbEntity
  8
HIDS
100
AcDbLine
 10
358.4356549446
 20
176.4890401742
 30
0.0
 11
371.8671119446
 21
189.9204971742
 31
0.0
  0
LINE
  5
91A
330
2
100
AcDbEntity
  8
0
100
AcDbLine
 10
356.4711769446
 20
179.5551721742
 30
0.0
 11
362.9711769446
 21
179.3849751742
 31
0.0
  0
LINE
  5
91C
330
2
100
AcDbEntity
  8
0
100
AcDbLine
 10
361.9711459446
 20
178.6849631742
 30
0.0
 11
362.9711769446
 21
178.6849631742
 31
0.0
  0
LINE
  5
91D
330
2
100
AcDbEntity
  8
0
100
AcDbLine
 10
357.9711459446
 20
178.3849751742
 30
0.0
 11
361.9711459446
 21
178.3850061742
 31
0.0
  0
LINE
  5
91F
330
2
100
AcDbEntity
  8
HIDS
100
AcDbLine
 10
368.9711769446
 20
180.8849751742
 30
0.0
 11
388.9711769446
 21
180.8849751742
 31
0.0
  0
LINE
  5
920
330
2
100
AcDbEntity
  8
HIDS
100
AcDbLine
 10
368.9711769446
 20
188.8849751742
 30
0.0
 11
388.9711769446
 21
188.8849751742
 31
0.0
  0
LINE
  5
921
330
2
100
AcDbEntity
  8
HIDS
100
AcDbLine
 10
373.9711769446
 20
187.0181231742
 30
0.0
 11
373.9711769446
 21
183.0866961742
 31
0.0
  0
ARC
  5
923
330
2
100
AcDbEntity
  8
HIDS
100
AcDbCircle
 10
370.9711769446
 20
183.0866961742
 30
0.0
 40
3.0
100
AcDbArc
 50
309.356701
 51
0.0
  0
ARC
  5
926
330
2
100
AcDbEntity
  8
HIDS
100
AcDbCircle
 10
375.4026349446
 20
186.3849751742
 30
0.0
 40
5.0
100
AcDbArc
 50
90.0
 51
135.0
  0
ARC
  5
927
330
2
100
AcDbEntity
  8
HIDS
100
AcDbCircle
 10
375.9711769446
 20
187.0181231742
 30
0.0
 40
2.0
100
AcDbArc
 50
91.0
 51
180.0
  0
LINE
  5
928
330
2
100
AcDbEntity
  8
HIDS
100
AcDbLine
 10
388.9711769446
 20
188.8849751742
 30
0.0
 11
388.9711769446
 21
180.8849751742
 31
0.0
  0
LINE
  5
92C
330
2
100
AcDbEntity
  8
HIDS
100
AcDbLine
 10
436.9711769446
 20
174.3849751742
 30
0.0
 11
436.9711769446
 21
129.8164331742
 31
0.0
  0
LINE
  5
92D
330
2
100
AcDbEntity
  8
0
100
AcDbLine
 10
789.5266579446
 20
186.3849751742
 30
0.0
 11
789.5266579446
 21
116.3849751742
 31
0.0
  0
LINE
  5
92E
330
2
100
AcDbEntity
  8
0
100
AcDbLine
 10
740.5266579446
 20
111.3849751742
 30
0.0
 11
740.5266579446
 21
191.3849751742
 31
0.0
  0
LINE
  5
92F
330
2
100
AcDbEntity
  8
0
100
AcDbLine
 10
731.0266579446
 20
189.3849751742
 30
0.0
 11
731.0266579446
 21
113.3849751742
 31
0.0
  0
CIRCLE
  5
930
330
2
100
AcDbEntity
  8
0
100
AcDbCircle
 10
596.9711769446
 20
151.3849751742
 30
0.0
 40
25.002001
  0
CIRCLE
  5
931
330
2
100
AcDbEntity
  8
0
100
AcDbCircle
 10
596.9711769446
 20
151.3849751742
 30
0.0
 40
23.0
  0
CIRCLE
  5
932
330
2
100
AcDbEntity
  8
0
100
AcDbCircle
 10
596.9711769446
 20
151.3849751742
 30
0.0
 40
19.0
  0
ARC
  5
933
330
2
100
AcDbEntity
  8
0
100
AcDbCircle
 10
626.9711769446
 20
137.8849751742
 30
0.0
 40
22.0
100
AcDbArc
 50
345.522488
 51
0.0
  0
ARC
  5
934
330
2
100
AcDbEntity
  8
0
100
AcDbCircle
 10
588.9711769446
 20
137.8849751742
 30
0.0
 40
22.0
100
AcDbArc
 50
180.0
 51
194.477509
  0
ARC
  5
935
330
2
100
AcDbEntity
  8
0
100
AcDbCircle
 10
646.7449199446
 20
134.8849751742
 30
0.0
 40
2.0
100
AcDbArc
 50
270.0
 51
351.373077
  0
LINE
  5
936
330
2
100
AcDbEntity
  8
0
100
AcDbLine
 10
644.1354839446
 20
132.7019921742
 30
0.0
 11
645.0553439446
 21
130.7019921742
 31
0.0
  0
ARC
  5
937
330
2
100
AcDbEntity
  8
0
100
AcDbCircle
 10
644.9711769446
 20
130.8849751742
 30
0.0
 40
2.0
100
AcDbArc
 50
90.0
 51
139.398712
  0
ARC
  5
938
330
2
100
AcDbEntity
  8
0
100
AcDbCircle
 10
569.1974339446
 20
134.8849751742
 30
0.0
 40
2.0
100
AcDbArc
 50
188.626923
 51
270.0
  0
LINE
  5
939
330
2
100
AcDbEntity
  8
0
100
AcDbLine
 10
571.8068699446
 20
132.7019921742
 30
0.0
 11
570.8870099446
 21
130.7019921742
 31
0.0
  0
ARC
  5
93A
330
2
100
AcDbEntity
  8
0
100
AcDbCircle
 10
570.9711769446
 20
130.8849751742
 30
0.0
 40
2.0
100
AcDbArc
 50
40.601295
 51
90.0
  0
LINE
  5
93B
330
2
100
AcDbEntity
  8
0
100
AcDbLine
 10
657.9711769446
 20
135.0565451742
 30
0.0
 11
657.9711769446
 21
117.8849751742
 31
0.0
  0
LINE
  5
93C
330
2
100
AcDbEntity
  8
0
100
AcDbLine
 10
557.9711769446
 20
117.8849751742
 30
0.0
 11
557.9711769446
 21
184.8849751742
 31
0.0
  0
ARC
  5
93E
330
2
100
AcDbEntity
  8
HIDS
100
AcDbCircle
 10
396.9711769446
 20
151.3849751742
 30
0.0
 40
38.0
100
AcDbArc
 50
309.356701
 51
50.643299
  0
LINE
  5
93F
330
2
100
AcDbEntity
  8
0
100
AcDbLine
 10
437.4711769446
 20
191.1780351742
 30
0.0
 11
437.4711769446
 21
111.5918991742
 31
0.0
  0
ARC
  5
941
330
2
100
AcDbEntity
  8
0
100
AcDbCircle
 10
642.1658179446
 20
108.3212391742
 30
0.0
 40
6.0
100
AcDbArc
 50
47.364067
 51
120.358299
  0
ARC
  5
942
330
2
100
AcDbEntity
  8
0
100
AcDbCircle
 10
645.8910379446
 20
128.8849751742
 30
0.0
 40
2.0
100
AcDbArc
 50
90.0
 51
139.398712
  0
LINE
  5
943
330
2
100
AcDbEntity
  8
0
100
AcDbLine
 10
650.9711769446
 20
110.8849751742
 30
0.0
 11
564.9711769446
 21
110.8849751742
 31
0.0
  0
LINE
  5
946
330
2
100
AcDbEntity
  8
HOJO
100
AcDbLine
 10
404.9711769446
 20
113.8849751742
 30
0.0
 11
437.4711769446
 21
113.8849751742
 31
0.0
  0
LINE
  5
947
330
2
100
AcDbEntity
  8
HOJO
100
AcDbLine
 10
404.9711769446
 20
121.8849751742
 30
0.0
 11
437.4711769446
 21
121.8849751742
 31
0.0
  0
LINE
  5
948
330
2
100
AcDbEntity
  8
HIDS
100
AcDbLine
 10
435.5066989446
 20
126.2809101742
 30
0.0
 11
422.0752419446
 21
112.8494371742
 31
0.0
  0
LINE
  5
949
330
2
100
AcDbEntity
  8
0
100
AcDbLine
 10
396.9711769446
 20
110.8849751742
 30
0.0
 11
437.4711769446
 21
111.5918991742
 31
0.0
  0
ARC
  5
94A
330
2
100
AcDbEntity
  8
HIDS
100
AcDbCircle
 10
418.5397189446
 20
116.3849751742
 30
0.0
 40
5.0
100
AcDbArc
 50
270.0
 51
315.0
  0
LINE
  5
94C
330
2
100
AcDbEntity
  8
HIDS
100
AcDbLine
 10
418.0060889446
 20
113.7521471742
 30
0.0
 11
396.9711769446
 21
113.3849751742
 31
0.0
  0
LINE
  5
94D
330
2
100
AcDbEntity
  8
HOJO
100
AcDbLine
 10
404.9711769446
 20
121.8849751742
 30
0.0
 11
404.9711769446
 21
113.8849751742
 31
0.0
  0
ARC
  5
950
330
2
100
AcDbEntity
  8
HIDS
100
AcDbCircle
 10
422.9711769446
 20
119.6832541742
 30
0.0
 40
3.0
100
AcDbArc
 50
129.356705
 51
180.0
  0
ARC
  5
951
330
2
100
AcDbEntity
  8
HIDS
100
AcDbCircle
 10
417.9711769446
 20
115.7518421742
 30
0.0
 40
2.0
100
AcDbArc
 50
271.0
 51
0.0
  0
LINE
  5
952
330
2
100
AcDbEntity
  8
HIDS
100
AcDbLine
 10
419.9711769446
 20
115.7518421742
 30
0.0
 11
419.9711769446
 21
119.6832541742
 31
0.0
  0
ARC
  5
958
330
2
100
AcDbEntity
  8
HIDS
100
AcDbCircle
 10
431.9711769446
 20
129.8164331742
 30
0.0
 40
5.0
100
AcDbArc
 50
315.0
 51
0.0
  0
ARC
  5
959
330
2
100
AcDbEntity
  8
0
100
AcDbCircle
 10
583.9711769446
 20
118.5200461742
 30
0.0
 40
2.0
100
AcDbArc
 50
180.0
 51
255.522491
  0
ARC
  5
95A
330
2
100
AcDbEntity
  8
0
100
AcDbCircle
 10
588.9711769446
 20
137.8849751742
 30
0.0
 40
22.0
100
AcDbArc
 50
249.512688
 51
270.0
  0
ARC
  5
95B
330
2
100
AcDbEntity
  8
0
100
AcDbCircle
 10
584.3718119446
 20
120.8849751742
 30
0.0
 40
10.0
100
AcDbArc
 50
247.66835
 51
270.0
  0
ARC
  5
95C
330
2
100
AcDbEntity
  8
0
100
AcDbCircle
 10
564.9711769446
 20
117.8849751742
 30
0.0
 40
7.0
100
AcDbArc
 50
180.0
 51
312.635925
  0
CIRCLE
  5
95E
330
2
100
AcDbEntity
  8
HOJO
100
AcDbCircle
 10
564.9711769446
 20
117.8849751742
 30
0.0
 40
4.0
  0
CIRCLE
  5
95F
330
2
100
AcDbEntity
  8
0
100
AcDbCircle
 10
564.9711769446
 20
117.8849751742
 30
0.0
 40
3.2
  0
ARC
  5
960
330
2
100
AcDbEntity
  8
0
100
AcDbCircle
 10
569.6062479446
 20
132.8849751742
 30
0.0
 40
2.0
100
AcDbArc
 50
194.477509
 51
270.0
  0
LINE
  5
962
330
2
100
AcDbEntity
  8
0
100
AcDbLine
 10
572.4896709446
 20
132.1865501742
 30
0.0
 11
581.4896709446
 21
121.6865501742
 31
0.0
  0
LINE
  5
963
330
2
100
AcDbEntity
  8
0
100
AcDbLine
 10
571.5698099446
 20
130.1865501742
 30
0.0
 11
579.4896709446
 21
120.9467121742
 31
0.0
  0
ARC
  5
964
330
2
100
AcDbEntity
  8
0
100
AcDbCircle
 10
573.7765359446
 20
108.3212391742
 30
0.0
 40
6.0
100
AcDbArc
 50
59.641697
 51
132.635925
  0
ARC
  5
965
330
2
100
AcDbEntity
  8
0
100
AcDbCircle
 10
581.9711769446
 20
119.1499901742
 30
0.0
 40
2.0
100
AcDbArc
 50
180.0
 51
249.51268
  0
LINE
  5
966
330
2
100
AcDbEntity
  8
0
100
AcDbLine
 10
581.8469699446
 20
121.0788531742
 30
0.0
 11
579.8469699446
 21
120.3390161742
 31
0.0
  0
ARC
  5
967
330
2
100
AcDbEntity
  8
0
100
AcDbCircle
 10
577.9711769446
 20
119.6451371742
 30
0.0
 40
2.0
100
AcDbArc
 50
0.0
 51
40.601295
  0
ARC
  5
968
330
2
100
AcDbEntity
  8
0
100
AcDbCircle
 10
579.9711769446
 20
120.3849751742
 30
0.0
 40
2.0
100
AcDbArc
 50
0.0
 51
40.601295
  0
LINE
  5
969
330
2
100
AcDbEntity
  8
0
100
AcDbLine
 10
581.9711769446
 20
120.3849751742
 30
0.0
 11
581.9711769446
 21
118.5200461742
 31
0.0
  0
LINE
  5
96A
330
2
100
AcDbEntity
  8
0
100
AcDbLine
 10
579.9711769446
 20
119.6451371742
 30
0.0
 11
579.9711769446
 21
119.1499901742
 31
0.0
  0
ARC
  5
96B
330
2
100
AcDbEntity
  8
0
100
AcDbCircle
 10
591.9711769446
 20
139.3849751742
 30
0.0
 40
30.0
100
AcDbArc
 50
239.641693
 51
247.66835
  0
LINE
  5
96C
330
2
100
AcDbEntity
  8
0
100
AcDbLine
 10
570.0513159446
 20
130.8849751742
 30
0.0
 11
569.6062479446
 21
130.8849751742
 31
0.0
  0
ARC
  5
96D
330
2
100
AcDbEntity
  8
0
100
AcDbCircle
 10
570.0513159446
 20
128.8849751742
 30
0.0
 40
2.0
100
AcDbArc
 50
40.601295
 51
90.0
  0
LINE
  5
96E
330
2
100
AcDbEntity
  8
0
100
AcDbLine
 10
588.9711769446
 20
115.8849751742
 30
0.0
 11
626.9711769446
 21
115.8849751742
 31
0.0
  0
ARC
  5
96F
330
2
100
AcDbEntity
  8
0
100
AcDbCircle
 10
631.5705419446
 20
120.8849751742
 30
0.0
 40
10.0
100
AcDbArc
 50
270.0
 51
292.331635
  0
ARC
  5
970
330
2
100
AcDbEntity
  8
0
100
AcDbCircle
 10
626.9711769446
 20
137.8849751742
 30
0.0
 40
22.0
100
AcDbArc
 50
270.0
 51
290.487305
  0
LINE
  5
971
330
2
100
AcDbEntity
  8
0
100
AcDbLine
 10
643.4526829446
 20
132.1865501742
 30
0.0
 11
634.4526829446
 21
121.6865501742
 31
0.0
  0
LINE
  5
972
330
2
100
AcDbEntity
  8
0
100
AcDbLine
 10
644.3725439446
 20
130.1865501742
 30
0.0
 11
636.4526829446
 21
120.9467121742
 31
0.0
  0
ARC
  5
973
330
2
100
AcDbEntity
  8
0
100
AcDbCircle
 10
623.9711769446
 20
139.3849751742
 30
0.0
 40
30.0
100
AcDbArc
 50
292.331635
 51
300.358307
  0
ARC
  5
974
330
2
100
AcDbEntity
  8
0
100
AcDbCircle
 10
633.9711769446
 20
119.1499901742
 30
0.0
 40
2.0
100
AcDbArc
 50
290.487312
 51
0.0
  0
ARC
  5
975
330
2
100
AcDbEntity
  8
0
100
AcDbCircle
 10
631.9711769446
 20
118.5200461742
 30
0.0
 40
2.0
100
AcDbArc
 50
284.477509
 51
0.0
  0
LINE
  5
976
330
2
100
AcDbEntity
  8
0
100
AcDbLine
 10
634.0953839446
 20
121.0788531742
 30
0.0
 11
636.0953839446
 21
120.3390161742
 31
0.0
  0
ARC
  5
977
330
2
100
AcDbEntity
  8
0
100
AcDbCircle
 10
637.9711769446
 20
119.6451371742
 30
0.0
 40
2.0
100
AcDbArc
 50
139.398712
 51
180.0
  0
ARC
  5
978
330
2
100
AcDbEntity
  8
0
100
AcDbCircle
 10
635.9711769446
 20
120.3849751742
 30
0.0
 40
2.0
100
AcDbArc
 50
139.398712
 51
180.0
  0
LINE
  5
979
330
2
100
AcDbEntity
  8
0
100
AcDbLine
 10
633.9711769446
 20
120.3849751742
 30
0.0
 11
633.9711769446
 21
118.5200461742
 31
0.0
  0
LINE
  5
97A
330
2
100
AcDbEntity
  8
0
100
AcDbLine
 10
635.9711769446
 20
119.6451371742
 30
0.0
 11
635.9711769446
 21
119.1499901742
 31
0.0
  0
LINE
  5
97B
330
2
100
AcDbEntity
  8
0
100
AcDbLine
 10
786.7766579446
 20
125.3849751742
 30
0.0
 11
740.5266579446
 21
125.3849751742
 31
0.0
  0
LINE
  5
97C
330
2
100
AcDbEntity
  8
0
100
AcDbLine
 10
784.5266579446
 20
111.3849751742
 30
0.0
 11
740.5266579446
 21
111.3849751742
 31
0.0
  0
LINE
  5
97D
330
2
100
AcDbEntity
  8
0
100
AcDbLine
 10
731.0266579446
 20
121.1360131742
 30
0.0
 11
657.9711769446
 21
121.1360131742
 31
0.0
  0
LINE
  5
97E
330
2
100
AcDbEntity
  8
0
100
AcDbLine
 10
731.0266579446
 20
113.3849751742
 30
0.0
 11
659.3299419446
 21
113.3849751742
 31
0.0
  0
LINE
  5
97F
330
2
100
AcDbEntity
  8
0
100
AcDbLine
 10
658.6348119446
 20
113.2602801742
 30
0.0
 11
653.4041599446
 21
111.3213921742
 31
0.0
  0
ARC
  5
980
330
2
100
AcDbEntity
  8
0
100
AcDbCircle
 10
650.9711769446
 20
117.8849751742
 30
0.0
 40
7.0
100
AcDbArc
 50
227.364075
 51
0.0
  0
CIRCLE
  5
982
330
2
100
AcDbEntity
  8
HOJO
100
AcDbCircle
 10
650.9711769446
 20
117.8849751742
 30
0.0
 40
4.0
  0
CIRCLE
  5
983
330
2
100
AcDbEntity
  8
0
100
AcDbCircle
 10
650.9711769446
 20
117.8849751742
 30
0.0
 40
3.2
  0
ARC
  5
984
330
2
100
AcDbEntity
  8
0
100
AcDbCircle
 10
659.3299419446
 20
111.3849751742
 30
0.0
 40
2.0
100
AcDbArc
 50
90.0
 51
110.33873
  0
ARC
  5
985
330
2
100
AcDbEntity
  8
0
100
AcDbCircle
 10
646.3361059446
 20
132.8849751742
 30
0.0
 40
2.0
100
AcDbArc
 50
270.0
 51
345.522491
  0
LINE
  5
986
330
2
100
AcDbEntity
  8
0
100
AcDbLine
 10
645.8910379446
 20
130.8849751742
 30
0.0
 11
646.3361059446
 21
130.8849751742
 31
0.0
  0
LINE
  5
987
330
2
100
AcDbEntity
  8
0
100
AcDbLine
 10
740.5266579446
 20
121.1359821742
 30
0.0
 11
731.0266579446
 21
121.1359821742
 31
0.0
  0
LINE
  5
988
330
2
100
AcDbEntity
  8
0
100
AcDbLine
 10
740.5266579446
 20
113.3849751742
 30
0.0
 11
731.0266579446
 21
113.3849751742
 31
0.0
  0
ARC
  5
989
330
2
100
AcDbEntity
  8
0
100
AcDbCircle
 10
784.5266579446
 20
116.3849751742
 30
0.0
 40
5.0
100
AcDbArc
 50
270.0
 51
0.0
  0
LINE
  5
98A
330
2
100
AcDbEntity
  8
0
100
AcDbLine
 10
558.6780859446
 20
388.9051232752
 30
0.0
 11
657.2642679446
 21
388.9051232752
 31
0.0
  0
ARC
  5
98B
330
2
100
AcDbEntity
  8
0
100
AcDbCircle
 10
642.1658179446
 20
194.4487261742
 30
0.0
 40
6.0
100
AcDbArc
 50
239.641693
 51
312.635925
  0
ARC
  5
98C
330
2
100
AcDbEntity
  8
0
100
AcDbCircle
 10
642.3131569446
 20
352.2011132752
 30
0.0
 40
11.0
100
AcDbArc
 50
248.924667
 51
295.717728
  0
LINE
  5
98D
330
2
100
AcDbEntity
  8
0
100
AcDbLine
 10
633.3386699446
 20
343.4051232752
 30
0.0
 11
650.8838969446
 21
343.4051232752
 31
0.0
  0
ARC
  5
98E
330
2
100
AcDbEntity
  8
0
100
AcDbCircle
 10
642.3131569446
 20
344.6091332752
 30
0.0
 40
11.0
100
AcDbArc
 50
64.282272
 51
111.075333
  0
LINE
  5
98F
330
2
100
AcDbEntity
  8
0
100
AcDbLine
 10
633.3386699446
 20
353.4051232752
 30
0.0
 11
650.8838969446
 21
353.4051232752
 31
0.0
  0
LINE
  5
990
330
2
100
AcDbEntity
  8
0
100
AcDbLine
 10
658.9711769446
 20
376.4051232752
 30
0.0
 11
558.4599469446
 21
376.4051232752
 31
0.0
  0
LINE
  5
991
330
2
100
AcDbEntity
  8
0
100
AcDbLine
 10
657.2642679446
 20
307.9051232752
 30
0.0
 11
558.6780859446
 21
307.9051232752
 31
0.0
  0
LINE
  5
993
330
2
100
AcDbEntity
  8
0
100
AcDbLine
 10
644.9711769446
 20
132.8849751742
 30
0.0
 11
646.7449199446
 21
132.8849751742
 31
0.0
  0
LINE
  5
994
330
2
100
AcDbEntity
  8
0
100
AcDbLine
 10
644.9711769446
 20
169.8849751742
 30
0.0
 11
646.7449199446
 21
169.8849751742
 31
0.0
  0
ARC
  5
995
330
2
100
AcDbEntity
  8
0
100
AcDbCircle
 10
645.8910379446
 20
173.8849751742
 30
0.0
 40
2.0
100
AcDbArc
 50
220.601288
 51
270.0
  0
LINE
  5
996
330
2
100
AcDbEntity
  8
0
100
AcDbLine
 10
650.9711769446
 20
191.8849751742
 30
0.0
 11
564.9711769446
 21
191.8849751742
 31
0.0
  0
LINE
  5
998
330
2
100
AcDbEntity
  8
CENTER
100
AcDbLine
 10
550.4304059446
 20
151.3849751742
 30
0.0
 11
798.0471879128
 21
151.3849751742
 31
0.0
  0
LINE
  5
999
330
2
100
AcDbEntity
  8
HIDS
100
AcDbLine
 10
568.9711769446
 20
307.9051232752
 30
0.0
 11
568.9711769446
 21
340.4051232752
 31
0.0
  0
LINE
  5
99A
330
2
100
AcDbEntity
  8
HIDS
100
AcDbLine
 10
560.9711769446
 20
307.9051232752
 30
0.0
 11
560.9711769446
 21
340.4051232752
 31
0.0
  0
LINE
  5
99D
330
2
100
AcDbEntity
  8
0
100
AcDbLine
 10
642.3131569446
 20
341.2011132752
 30
0.0
 11
642.3131569446
 21
307.9051232752
 31
0.0
  0
LINE
  5
99E
330
2
100
AcDbEntity
  8
0
100
AcDbLine
 10
633.3386699446
 20
343.4051232752
 30
0.0
 11
633.3386699446
 21
307.9051232752
 31
0.0
  0
LINE
  5
99F
330
2
100
AcDbEntity
  8
0
100
AcDbLine
 10
582.6036839446
 20
343.4051232752
 30
0.0
 11
582.6036839446
 21
307.9051232752
 31
0.0
  0
LINE
  5
9A0
330
2
100
AcDbEntity
  8
0
100
AcDbLine
 10
573.6291969446
 20
341.2011132752
 30
0.0
 11
573.6291969446
 21
307.9051232752
 31
0.0
  0
LINE
  5
9A1
330
2
100
AcDbEntity
  8
0
100
AcDbLine
 10
557.9711769446
 20
348.4051232752
 30
0.0
 11
558.6780859446
 21
307.9051232752
 31
0.0
  0
LINE
  5
9A2
330
2
100
AcDbEntity
  8
CENTER
100
AcDbLine
 10
564.9711769446
 20
304.5462062752
 30
0.0
 11
564.9711769446
 21
392.2212242752
 31
0.0
  0
LINE
  5
9A4
330
2
100
AcDbEntity
  8
0
100
AcDbLine
 10
465.4711769446
 20
148.8849751742
 30
0.0
 11
443.9711769446
 21
148.8849751742
 31
0.0
  0
LINE
  5
9A5
330
2
100
AcDbEntity
  8
0
100
AcDbLine
 10
465.4711769446
 20
153.8849751742
 30
0.0
 11
443.9711769446
 21
153.8849751742
 31
0.0
  0
LINE
  5
9A6
330
2
100
AcDbEntity
  8
0
100
AcDbLine
 10
465.4711769446
 20
143.8849751742
 30
0.0
 11
438.4711769446
 21
143.8849751742
 31
0.0
  0
LINE
  5
9A7
330
2
100
AcDbEntity
  8
0
100
AcDbLine
 10
465.4711769446
 20
158.8849751742
 30
0.0
 11
438.4711769446
 21
158.8849751742
 31
0.0
  0
ARC
  5
9A8
330
2
100
AcDbEntity
  8
HIDS
100
AcDbCircle
 10
433.9711769446
 20
174.3849751742
 30
0.0
 40
3.0
100
AcDbArc
 50
0.0
 51
90.0
  0
LINE
  5
9A9
330
2
100
AcDbEntity
  8
0
100
AcDbLine
 10
406.2691809446
 20
162.3403281742
 30
0.0
 11
437.4711769446
 21
162.8849751742
 31
0.0
  0
LINE
  5
9AA
330
2
100
AcDbEntity
  8
0
100
AcDbLine
 10
403.9362649446
 20
166.2996171742
 30
0.0
 11
437.4711769446
 21
166.8849751742
 31
0.0
  0
LINE
  5
9AB
330
2
100
AcDbEntity
  8
0
100
AcDbLine
 10
406.2691809446
 20
140.4296221742
 30
0.0
 11
437.4711769446
 21
139.8849751742
 31
0.0
  0
LINE
  5
9AC
330
2
100
AcDbEntity
  8
0
100
AcDbLine
 10
403.9362649446
 20
136.4703331742
 30
0.0
 11
437.4711769446
 21
135.8849751742
 31
0.0
  0
LINE
  5
9AD
330
2
100
AcDbEntity
  8
0
100
AcDbLine
 10
404.3040929446
 20
160.3406331742
 30
0.0
 11
404.3040929446
 21
142.4293171742
 31
0.0
  0
LINE
  5
9AE
330
2
100
AcDbEntity
  8
0
100
AcDbLine
 10
401.9711769446
 20
164.2999231742
 30
0.0
 11
401.9711769446
 21
138.4700271742
 31
0.0
  0
ARC
  5
9AF
330
2
100
AcDbEntity
  8
0
100
AcDbCircle
 10
406.3040929446
 20
142.4293171742
 30
0.0
 40
2.0
100
AcDbArc
 50
180.0
 51
269.0
  0
LINE
  5
9B0
330
2
100
AcDbEntity
  8
0
100
AcDbLine
 10
404.7329569446
 20
141.1917681742
 30
0.0
 11
402.4000409446
 21
137.2324791742
 31
0.0
  0
ARC
  5
9B1
330
2
100
AcDbEntity
  8
0
100
AcDbCircle
 10
403.9711769446
 20
138.4700271742
 30
0.0
 40
2.0
100
AcDbArc
 50
180.0
 51
269.0
  0
ARC
  5
9B2
330
2
100
AcDbEntity
  8
0
100
AcDbCircle
 10
403.9711769446
 20
164.2999231742
 30
0.0
 40
2.0
100
AcDbArc
 50
91.0
 51
180.0
  0
LINE
  5
9B3
330
2
100
AcDbEntity
  8
0
100
AcDbLine
 10
404.7329569446
 20
161.5782121742
 30
0.0
 11
402.4000409446
 21
165.5374711742
 31
0.0
  0
ARC
  5
9B4
330
2
100
AcDbEntity
  8
0
100
AcDbCircle
 10
406.3040929446
 20
160.3406331742
 30
0.0
 40
2.0
100
AcDbArc
 50
91.0
 51
180.0
  0
LINE
  5
9B5
330
2
100
AcDbEntity
  8
0
100
AcDbLine
 10
438.4711769446
 20
143.5736351742
 30
0.0
 11
438.4711769446
 21
159.1963151742
 31
0.0
  0
ARC
  5
9B6
330
2
100
AcDbEntity
  8
0
100
AcDbCircle
 10
443.9711769446
 20
151.3849751742
 30
0.0
 40
2.5
100
AcDbArc
 50
90.0
 51
270.0
  0
ARC
  5
9B7
330
2
100
AcDbEntity
  8
0
100
AcDbCircle
 10
437.9711769446
 20
143.5736351742
 30
0.0
 40
0.5
100
AcDbArc
 50
300.0
 51
0.0
  0
LINE
  5
9B8
330
2
100
AcDbEntity
  8
0
100
AcDbLine
 10
437.6937419446
 20
142.8849751742
 30
0.0
 11
437.4711769446
 21
142.8849751742
 31
0.0
  0
ARC
  5
9B9
330
2
100
AcDbEntity
  8
0
100
AcDbCircle
 10
437.0692599446
 20
144.7849691742
 30
0.0
 40
2.0
100
AcDbArc
 50
288.19487
 51
300.0
  0
LINE
  5
9BA
330
2
100
AcDbEntity
  8
0
100
AcDbLine
 10
438.2211769446
 20
143.1406511742
 30
0.0
 11
438.0692599446
 21
143.0529131742
 31
0.0
  0
LINE
  5
9BB
330
2
100
AcDbEntity
  8
0
100
AcDbLine
 10
437.6937419446
 20
159.8849751742
 30
0.0
 11
437.4711769446
 21
159.8849751742
 31
0.0
  0
ARC
  5
9BC
330
2
100
AcDbEntity
  8
0
100
AcDbCircle
 10
437.0692599446
 20
157.9849811742
 30
0.0
 40
2.0
100
AcDbArc
 50
60.0
 51
71.80513
  0
ARC
  5
9BD
330
2
100
AcDbEntity
  8
0
100
AcDbCircle
 10
437.9711769446
 20
159.1963151742
 30
0.0
 40
0.5
100
AcDbArc
 50
0.0
 51
60.0
  0
LINE
  5
9BE
330
2
100
AcDbEntity
  8
0
100
AcDbLine
 10
438.2211769446
 20
159.6292991742
 30
0.0
 11
438.0692599446
 21
159.7170371742
 31
0.0
  0
LINE
  5
9C0
330
2
100
AcDbEntity
  8
HIDS
100
AcDbLine
 10
404.9711769446
 20
180.8849751742
 30
0.0
 11
437.4711769446
 21
180.8849751742
 31
0.0
  0
LINE
  5
9C1
330
2
100
AcDbEntity
  8
HIDS
100
AcDbLine
 10
404.9711769446
 20
188.8849751742
 30
0.0
 11
437.4711769446
 21
188.8849751742
 31
0.0
  0
LINE
  5
9C2
330
2
100
AcDbEntity
  8
HIDS
100
AcDbLine
 10
422.9711769446
 20
184.7819481742
 30
0.0
 11
430.3681499446
 21
177.3849751742
 31
0.0
  0
LINE
  5
9C3
330
2
100
AcDbEntity
  8
0
100
AcDbLine
 10
396.9711769446
 20
191.8849751742
 30
0.0
 11
437.4711769446
 21
191.1780351742
 31
0.0
  0
LINE
  5
9C5
330
2
100
AcDbEntity
  8
HIDS
100
AcDbLine
 10
418.0060889446
 20
189.0178181742
 30
0.0
 11
396.9711769446
 21
189.3849751742
 31
0.0
  0
LINE
  5
9C6
330
2
100
AcDbEntity
  8
HIDS
100
AcDbLine
 10
404.9711769446
 20
188.8849751742
 30
0.0
 11
404.9711769446
 21
180.8849751742
 31
0.0
  0
LINE
  5
9C9
330
2
100
AcDbEntity
  8
HIDS
100
AcDbLine
 10
422.9711769446
 20
188.3849751742
 30
0.0
 11
422.9711769446
 21
184.7819481742
 31
0.0
  0
LINE
  5
9CA
330
2
100
AcDbEntity
  8
HIDS
100
AcDbLine
 10
419.9711769446
 20
187.0181231742
 30
0.0
 11
419.9711769446
 21
183.0866961742
 31
0.0
  0
ARC
  5
9CE
330
2
100
AcDbEntity
  8
HIDS
100
AcDbCircle
 10
422.9711769446
 20
183.0866961742
 30
0.0
 40
3.0
100
AcDbArc
 50
180.0
 51
230.643295
  0
ARC
  5
9CF
330
2
100
AcDbEntity
  8
HIDS
100
AcDbCircle
 10
417.9711769446
 20
187.0181231742
 30
0.0
 40
2.0
100
AcDbArc
 50
0.0
 51
89.0
  0
ARC
  5
9D0
330
2
100
AcDbEntity
  8
HIDS
100
AcDbCircle
 10
419.9711769446
 20
188.3849751742
 30
0.0
 40
3.0
100
AcDbArc
 50
0.0
 51
90.0
  0
LINE
  5
9D3
330
2
100
AcDbEntity
  8
HIDS
100
AcDbLine
 10
433.9711769446
 20
177.3849751742
 30
0.0
 11
430.3681499446
 21
177.3849751742
 31
0.0
  0
LINE
  5
9D4
330
2
100
AcDbEntity
  8
0
100
AcDbLine
 10
465.4711769446
 20
158.8849751742
 30
0.0
 11
465.4711769446
 21
143.8849751742
 31
0.0
  0
CIRCLE
  5
9D5
330
2
100
AcDbEntity
  8
0
100
AcDbCircle
 10
596.9711769446
 20
151.3849751742
 30
0.0
 40
15.0
  0
ARC
  5
9D6
330
2
100
AcDbEntity
  8
0
100
AcDbCircle
 10
583.9711769446
 20
184.2499041742
 30
0.0
 40
2.0
100
AcDbArc
 50
104.477509
 51
180.0
  0
ARC
  5
9D7
330
2
100
AcDbEntity
  8
0
100
AcDbCircle
 10
588.9711769446
 20
164.8849751742
 30
0.0
 40
22.0
100
AcDbArc
 50
90.0
 51
110.487312
  0
ARC
  5
9D8
330
2
100
AcDbEntity
  8
0
100
AcDbCircle
 10
584.3718119446
 20
181.8849751742
 30
0.0
 40
10.0
100
AcDbArc
 50
90.0
 51
112.331642
  0
LINE
  5
9D9
330
2
100
AcDbEntity
  8
0
100
AcDbLine
 10
572.4896709446
 20
170.5834001742
 30
0.0
 11
581.4896709446
 21
181.0834001742
 31
0.0
  0
LINE
  5
9DA
330
2
100
AcDbEntity
  8
0
100
AcDbLine
 10
571.5698099446
 20
172.5834001742
 30
0.0
 11
579.4896709446
 21
181.8232381742
 31
0.0
  0
LINE
  5
9DB
330
2
100
AcDbEntity
  8
0
100
AcDbLine
 10
566.9711769446
 20
164.8849751742
 30
0.0
 11
566.9711769446
 21
137.8849751742
 31
0.0
  0
LINE
  5
9DC
330
2
100
AcDbEntity
  8
0
100
AcDbLine
 10
561.9711769446
 20
140.7134051742
 30
0.0
 11
561.9711769446
 21
162.0565451742
 31
0.0
  0
LINE
  5
9DD
330
2
100
AcDbEntity
  8
0
100
AcDbLine
 10
561.3853619446
 20
139.2991901742
 30
0.0
 11
558.5569919446
 21
136.4707601742
 31
0.0
  0
ARC
  5
9DE
330
2
100
AcDbEntity
  8
0
100
AcDbCircle
 10
559.9711769446
 20
135.0565451742
 30
0.0
 40
2.0
100
AcDbArc
 50
135.0
 51
180.0
  0
ARC
  5
9DF
330
2
100
AcDbEntity
  8
0
100
AcDbCircle
 10
559.9711769446
 20
140.7134051742
 30
0.0
 40
2.0
100
AcDbArc
 50
315.0
 51
0.0
  0
LINE
  5
9E0
330
2
100
AcDbEntity
  8
0
100
AcDbLine
 10
570.9711769446
 20
132.8849751742
 30
0.0
 11
569.1974339446
 21
132.8849751742
 31
0.0
  0
ARC
  5
9E1
330
2
100
AcDbEntity
  8
0
100
AcDbCircle
 10
569.6062479446
 20
169.8849751742
 30
0.0
 40
2.0
100
AcDbArc
 50
90.0
 51
165.522491
  0
ARC
  5
9E2
330
2
100
AcDbEntity
  8
0
100
AcDbCircle
 10
569.1974339446
 20
167.8849751742
 30
0.0
 40
2.0
100
AcDbArc
 50
90.0
 51
171.373077
  0
LINE
  5
9E3
330
2
100
AcDbEntity
  8
0
100
AcDbLine
 10
561.3853619446
 20
163.4707601742
 30
0.0
 11
558.5569919446
 21
166.2991901742
 31
0.0
  0
ARC
  5
9E4
330
2
100
AcDbEntity
  8
0
100
AcDbCircle
 10
559.9711769446
 20
162.0565451742
 30
0.0
 40
2.0
100
AcDbArc
 50
0.0
 51
45.0
  0
ARC
  5
9E5
330
2
100
AcDbEntity
  8
0
100
AcDbCircle
 10
559.9711769446
 20
167.7134051742
 30
0.0
 40
2.0
100
AcDbArc
 50
180.0
 51
225.0
  0
ARC
  5
9E6
330
2
100
AcDbEntity
  8
0
100
AcDbCircle
 10
588.9711769446
 20
164.8849751742
 30
0.0
 40
22.0
100
AcDbArc
 50
165.522491
 51
180.0
  0
LINE
  5
9E7
330
2
100
AcDbEntity
  8
0
100
AcDbLine
 10
570.0513159446
 20
171.8849751742
 30
0.0
 11
569.6062479446
 21
171.8849751742
 31
0.0
  0
LINE
  5
9E8
330
2
100
AcDbEntity
  8
0
100
AcDbLine
 10
570.9711769446
 20
169.8849751742
 30
0.0
 11
569.1974339446
 21
169.8849751742
 31
0.0
  0
LINE
  5
9E9
330
2
100
AcDbEntity
  8
0
100
AcDbLine
 10
571.8068699446
 20
170.0679581742
 30
0.0
 11
570.8870099446
 21
172.0679581742
 31
0.0
  0
ARC
  5
9EA
330
2
100
AcDbEntity
  8
0
100
AcDbCircle
 10
570.9711769446
 20
171.8849751742
 30
0.0
 40
2.0
100
AcDbArc
 50
270.0
 51
319.398705
  0
ARC
  5
9EB
330
2
100
AcDbEntity
  8
0
100
AcDbCircle
 10
570.0513159446
 20
173.8849751742
 30
0.0
 40
2.0
100
AcDbArc
 50
270.0
 51
319.398705
  0
CIRCLE
  5
9EC
330
2
100
AcDbEntity
  8
HOJO
100
AcDbCircle
 10
564.9711769446
 20
184.8849751742
 30
0.0
 40
4.0
  0
CIRCLE
  5
9ED
330
2
100
AcDbEntity
  8
0
100
AcDbCircle
 10
564.9711769446
 20
184.8849751742
 30
0.0
 40
3.2
  0
ARC
  5
9EE
330
2
100
AcDbEntity
  8
0
100
AcDbCircle
 10
564.9711769446
 20
184.8849751742
 30
0.0
 40
7.0
100
AcDbArc
 50
47.364067
 51
180.0
  0
ARC
  5
9F1
330
2
100
AcDbEntity
  8
0
100
AcDbCircle
 10
581.9711769446
 20
183.6199601742
 30
0.0
 40
2.0
100
AcDbArc
 50
110.487312
 51
180.0
  0
LINE
  5
9F2
330
2
100
AcDbEntity
  8
0
100
AcDbLine
 10
581.8469699446
 20
181.6910971742
 30
0.0
 11
579.8469699446
 21
182.4309341742
 31
0.0
  0
ARC
  5
9F3
330
2
100
AcDbEntity
  8
0
100
AcDbCircle
 10
577.9711769446
 20
183.1248131742
 30
0.0
 40
2.0
100
AcDbArc
 50
319.398705
 51
0.0
  0
ARC
  5
9F4
330
2
100
AcDbEntity
  8
0
100
AcDbCircle
 10
579.9711769446
 20
182.3849751742
 30
0.0
 40
2.0
100
AcDbArc
 50
319.398705
 51
0.0
  0
LINE
  5
9F5
330
2
100
AcDbEntity
  8
0
100
AcDbLine
 10
581.9711769446
 20
182.3849751742
 30
0.0
 11
581.9711769446
 21
184.2499041742
 31
0.0
  0
LINE
  5
9F6
330
2
100
AcDbEntity
  8
0
100
AcDbLine
 10
579.9711769446
 20
183.1248131742
 30
0.0
 11
579.9711769446
 21
183.6199601742
 31
0.0
  0
ARC
  5
9F7
330
2
100
AcDbEntity
  8
0
100
AcDbCircle
 10
573.7765359446
 20
194.4487261742
 30
0.0
 40
6.0
100
AcDbArc
 50
227.364075
 51
300.358307
  0
ARC
  5
9F8
330
2
100
AcDbEntity
  8
0
100
AcDbCircle
 10
591.9711769446
 20
163.3849751742
 30
0.0
 40
30.0
100
AcDbArc
 50
112.331642
 51
120.358299
  0
LINE
  5
9F9
330
2
100
AcDbEntity
  8
0
100
AcDbLine
 10
643.4526829446
 20
170.5834001742
 30
0.0
 11
634.4526829446
 21
181.0834001742
 31
0.0
  0
LINE
  5
9FA
330
2
100
AcDbEntity
  8
0
100
AcDbLine
 10
644.3725439446
 20
172.5834001742
 30
0.0
 11
636.4526829446
 21
181.8232381742
 31
0.0
  0
ARC
  5
9FB
330
2
100
AcDbEntity
  8
0
100
AcDbCircle
 10
596.9711769446
 20
151.3849751742
 30
0.0
 40
7.5
100
AcDbArc
 50
199.471222
 51
160.528778
  0
LINE
  5
9FC
330
2
100
AcDbEntity
  8
0
100
AcDbLine
 10
592.4711769446
 20
153.8849751742
 30
0.0
 11
592.4711769446
 21
148.8849751742
 31
0.0
  0
LINE
  5
9FD
330
2
100
AcDbEntity
  8
0
100
AcDbLine
 10
587.4711769446
 20
153.8849751742
 30
0.0
 11
587.4711769446
 21
148.8849751742
 31
0.0
  0
ARC
  5
9FE
330
2
100
AcDbEntity
  8
0
100
AcDbCircle
 10
596.9711769446
 20
151.3849751742
 30
0.0
 40
8.5
100
AcDbArc
 50
197.10463
 51
162.89537
  0
LINE
  5
9FF
330
2
100
AcDbEntity
  8
0
100
AcDbLine
 10
592.4711769446
 20
148.8849751742
 30
0.0
 11
587.4711769446
 21
148.8849751742
 31
0.0
  0
LINE
  5
A00
330
2
100
AcDbEntity
  8
0
100
AcDbLine
 10
592.4711769446
 20
153.8849751742
 30
0.0
 11
587.4711769446
 21
153.8849751742
 31
0.0
  0
LINE
  5
A01
330
2
100
AcDbEntity
  8
0
100
AcDbLine
 10
644.1354839446
 20
170.0679581742
 30
0.0
 11
645.0553439446
 21
172.0679581742
 31
0.0
  0
ARC
  5
A02
330
2
100
AcDbEntity
  8
0
100
AcDbCircle
 10
644.9711769446
 20
171.8849751742
 30
0.0
 40
2.0
100
AcDbArc
 50
220.601288
 51
270.0
  0
LINE
  5
A03
330
2
100
AcDbEntity
  8
0
100
AcDbLine
 10
588.9711769446
 20
186.8849751742
 30
0.0
 11
626.9711769446
 21
186.8849751742
 31
0.0
  0
ARC
  5
A04
330
2
100
AcDbEntity
  8
0
100
AcDbCircle
 10
626.9711769446
 20
164.8849751742
 30
0.0
 40
22.0
100
AcDbArc
 50
69.512688
 51
90.0
  0
ARC
  5
A05
330
2
100
AcDbEntity
  8
0
100
AcDbCircle
 10
633.9711769446
 20
183.6199601742
 30
0.0
 40
2.0
100
AcDbArc
 50
0.0
 51
69.512688
  0
ARC
  5
A06
330
2
100
AcDbEntity
  8
0
100
AcDbCircle
 10
631.9711769446
 20
184.2499041742
 30
0.0
 40
2.0
100
AcDbArc
 50
0.0
 51
75.522491
  0
LINE
  5
A07
330
2
100
AcDbEntity
  8
0
100
AcDbLine
 10
634.0953839446
 20
181.6910971742
 30
0.0
 11
636.0953839446
 21
182.4309341742
 31
0.0
  0
ARC
  5
A08
330
2
100
AcDbEntity
  8
0
100
AcDbCircle
 10
637.9711769446
 20
183.1248131742
 30
0.0
 40
2.0
100
AcDbArc
 50
180.0
 51
220.601288
  0
ARC
  5
A09
330
2
100
AcDbEntity
  8
0
100
AcDbCircle
 10
635.9711769446
 20
182.3849751742
 30
0.0
 40
2.0
100
AcDbArc
 50
180.0
 51
220.601288
  0
LINE
  5
A0A
330
2
100
AcDbEntity
  8
0
100
AcDbLine
 10
633.9711769446
 20
182.3849751742
 30
0.0
 11
633.9711769446
 21
184.2499041742
 31
0.0
  0
LINE
  5
A0B
330
2
100
AcDbEntity
  8
0
100
AcDbLine
 10
635.9711769446
 20
183.1248131742
 30
0.0
 11
635.9711769446
 21
183.6199601742
 31
0.0
  0
ARC
  5
A0C
330
2
100
AcDbEntity
  8
0
100
AcDbCircle
 10
623.9711769446
 20
163.3849751742
 30
0.0
 40
30.0
100
AcDbArc
 50
59.641697
 51
67.668358
  0
ARC
  5
A0D
330
2
100
AcDbEntity
  8
0
100
AcDbCircle
 10
631.5705419446
 20
181.8849751742
 30
0.0
 40
10.0
100
AcDbArc
 50
67.668358
 51
90.0
  0
LINE
  5
A0E
330
2
100
AcDbEntity
  8
0
100
AcDbLine
 10
589.9001319446
 20
279.9051232752
 30
0.0
 11
589.9001319446
 21
301.4051232752
 31
0.0
  0
LINE
  5
A0F
330
2
100
AcDbEntity
  8
0
100
AcDbLine
 10
587.4711769446
 20
279.9051232752
 30
0.0
 11
587.4711769446
 21
303.9051232752
 31
0.0
  0
LINE
  5
A10
330
2
100
AcDbEntity
  8
0
100
AcDbLine
 10
604.4711769446
 20
306.9051232752
 30
0.0
 11
604.4711769446
 21
279.9051232752
 31
0.0
  0
LINE
  5
A11
330
2
100
AcDbEntity
  8
0
100
AcDbLine
 10
587.4711769446
 20
279.9051232752
 30
0.0
 11
604.4711769446
 21
279.9051232752
 31
0.0
  0
LINE
  5
A12
330
2
100
AcDbEntity
  8
0
100
AcDbLine
 10
589.1598369446
 20
306.9051232752
 30
0.0
 11
604.7825169446
 21
306.9051232752
 31
0.0
  0
LINE
  5
A13
330
2
100
AcDbEntity
  8
0
100
AcDbLine
 10
588.4711769446
 20
307.6825582752
 30
0.0
 11
588.4711769446
 21
307.9051232752
 31
0.0
  0
ARC
  5
A14
330
2
100
AcDbEntity
  8
0
100
AcDbCircle
 10
590.3712009446
 20
308.3070402752
 30
0.0
 40
2.0
100
AcDbArc
 50
198.19487
 51
210.0
  0
ARC
  5
A15
330
2
100
AcDbEntity
  8
0
100
AcDbCircle
 10
589.1598369446
 20
307.4051232752
 30
0.0
 40
0.5
100
AcDbArc
 50
210.0
 51
270.0
  0
LINE
  5
A16
330
2
100
AcDbEntity
  8
0
100
AcDbLine
 10
588.7268529446
 20
307.1551232752
 30
0.0
 11
588.6391459446
 21
307.3070402752
 31
0.0
  0
ARC
  5
A17
330
2
100
AcDbEntity
  8
0
100
AcDbCircle
 10
582.4001319446
 20
301.4051232752
 30
0.0
 40
7.500003999999997
100
AcDbArc
 50
0.0
 51
19.471212
  0
LINE
  5
A18
330
2
100
AcDbEntity
  8
0
100
AcDbLine
 10
589.4711769446
 20
303.9051232752
 30
0.0
 11
589.4711769446
 21
306.9051232752
 31
0.0
  0
LINE
  5
A19
330
2
100
AcDbEntity
  8
0
100
AcDbLine
 10
587.4711769446
 20
303.9051232752
 30
0.0
 11
589.4711769446
 21
303.9051232752
 31
0.0
  0
LINE
  5
A1A
330
2
100
AcDbEntity
  8
0
100
AcDbLine
 10
605.4711769446
 20
307.6825582752
 30
0.0
 11
605.4711769446
 21
307.9051232752
 31
0.0
  0
ARC
  5
A1B
330
2
100
AcDbEntity
  8
0
100
AcDbCircle
 10
603.5711529446
 20
308.3070402752
 30
0.0
 40
2.0
100
AcDbArc
 50
330.0
 51
341.805128
  0
ARC
  5
A1C
330
2
100
AcDbEntity
  8
0
100
AcDbCircle
 10
604.7825169446
 20
307.4051232752
 30
0.0
 40
0.5
100
AcDbArc
 50
270.0
 51
330.0
  0
LINE
  5
A1D
330
2
100
AcDbEntity
  8
0
100
AcDbLine
 10
605.2155009446
 20
307.1551232752
 30
0.0
 11
605.3032079446
 21
307.3070402752
 31
0.0
  0
LINE
  5
A1E
330
2
100
AcDbEntity
  8
0
100
AcDbLine
 10
589.9001319446
 20
416.9051232752
 30
0.0
 11
589.9001319446
 21
395.4051232752
 31
0.0
  0
LINE
  5
A1F
330
2
100
AcDbEntity
  8
0
100
AcDbLine
 10
587.4711769446
 20
416.9051232752
 30
0.0
 11
587.4711769446
 21
392.9051232752
 31
0.0
  0
LINE
  5
A20
330
2
100
AcDbEntity
  8
0
100
AcDbLine
 10
604.4711769446
 20
389.9051232752
 30
0.0
 11
604.4711769446
 21
416.9051232752
 31
0.0
  0
LINE
  5
A21
330
2
100
AcDbEntity
  8
HIDS
100
AcDbLine
 10
560.9711769446
 20
376.4051232752
 30
0.0
 11
560.9711769446
 21
356.4051232752
 31
0.0
  0
LINE
  5
A22
330
2
100
AcDbEntity
  8
HIDS
100
AcDbLine
 10
568.9711769446
 20
376.4051232752
 30
0.0
 11
568.9711769446
 21
356.4051232752
 31
0.0
  0
LINE
  5
A23
330
2
100
AcDbEntity
  8
0
100
AcDbLine
 10
573.6291969446
 20
388.9051232752
 30
0.0
 11
573.6291969446
 21
355.6091332752
 31
0.0
  0
LINE
  5
A24
330
2
100
AcDbEntity
  8
0
100
AcDbLine
 10
582.6036839446
 20
388.9051232752
 30
0.0
 11
582.6036839446
 21
353.4051232752
 31
0.0
  0
LINE
  5
A25
330
2
100
AcDbEntity
  8
0
100
AcDbLine
 10
557.9711769446
 20
348.4051232752
 30
0.0
 11
558.6780859446
 21
388.9051232752
 31
0.0
  0
LINE
  5
A26
330
2
100
AcDbEntity
  8
HIDS
100
AcDbLine
 10
560.9711769446
 20
340.4051232752
 30
0.0
 11
568.9711769446
 21
340.4051232752
 31
0.0
  0
LINE
  5
A27
330
2
100
AcDbEntity
  8
HIDS
100
AcDbLine
 10
560.9711769446
 20
356.4051232752
 30
0.0
 11
568.9711769446
 21
356.4051232752
 31
0.0
  0
ARC
  5
A28
330
2
100
AcDbEntity
  8
0
100
AcDbCircle
 10
565.0584569446
 20
336.9051232752
 30
0.0
 40
6.5
100
AcDbArc
 50
64.282272
 51
90.0
  0
LINE
  5
A29
330
2
100
AcDbEntity
  8
0
100
AcDbLine
 10
582.6036839446
 20
343.4051232752
 30
0.0
 11
565.0584569446
 21
343.4051232752
 31
0.0
  0
ARC
  5
A2A
330
2
100
AcDbEntity
  8
0
100
AcDbCircle
 10
565.0584569446
 20
359.9051232752
 30
0.0
 40
6.5
100
AcDbArc
 50
270.0
 51
295.717728
  0
LINE
  5
A2B
330
2
100
AcDbEntity
  8
0
100
AcDbLine
 10
582.6036839446
 20
353.4051232752
 30
0.0
 11
565.0584569446
 21
353.4051232752
 31
0.0
  0
ARC
  5
A2C
330
2
100
AcDbEntity
  8
0
100
AcDbCircle
 10
573.6291969446
 20
352.2011132752
 30
0.0
 40
11.0
100
AcDbArc
 50
244.282272
 51
291.075317
  0
LINE
  5
A2D
330
2
100
AcDbEntity
  8
0
100
AcDbLine
 10
568.8558819446
 20
342.2907432752
 30
0.0
 11
567.8790749446
 21
342.7612632752
 31
0.0
  0
ARC
  5
A2E
330
2
100
AcDbEntity
  8
0
100
AcDbCircle
 10
582.6036839446
 20
336.9051232752
 30
0.0
 40
6.5
100
AcDbArc
 50
90.0
 51
111.075333
  0
LINE
  5
A2F
330
2
100
AcDbEntity
  8
0
100
AcDbLine
 10
580.2662819446
 20
342.9703392752
 30
0.0
 11
577.5847629446
 21
341.9369222752
 31
0.0
  0
ARC
  5
A30
330
2
100
AcDbEntity
  8
0
100
AcDbCircle
 10
573.6291969446
 20
344.6091332752
 30
0.0
 40
11.0
100
AcDbArc
 50
68.924667
 51
115.717728
  0
LINE
  5
A31
330
2
100
AcDbEntity
  8
0
100
AcDbLine
 10
568.8558819446
 20
354.5195032752
 30
0.0
 11
567.8790749446
 21
354.0489832752
 31
0.0
  0
ARC
  5
A32
330
2
100
AcDbEntity
  8
0
100
AcDbCircle
 10
582.6036839446
 20
359.9051232752
 30
0.0
 40
6.5
100
AcDbArc
 50
248.924667
 51
270.0
  0
LINE
  5
A33
330
2
100
AcDbEntity
  8
0
100
AcDbLine
 10
580.2662819446
 20
353.8399072752
 30
0.0
 11
577.5847629446
 21
354.8733242752
 31
0.0
  0
LINE
  5
A34
330
2
100
AcDbEntity
  8
HIDS
100
AcDbLine
 10
569.2211769446
 20
376.4051232752
 30
0.0
 11
569.2211769446
 21
388.9051232752
 31
0.0
  0
LINE
  5
A35
330
2
100
AcDbEntity
  8
HIDS
100
AcDbLine
 10
560.7211769446
 20
376.4051232752
 30
0.0
 11
560.7211769446
 21
388.9051232752
 31
0.0
  0
LINE
  5
A36
330
2
100
AcDbEntity
  8
0
100
AcDbLine
 10
642.3131569446
 20
388.9051232752
 30
0.0
 11
642.3131569446
 21
355.6091332752
 31
0.0
  0
LINE
  5
A37
330
2
100
AcDbEntity
  8
0
100
AcDbLine
 10
633.3386699446
 20
388.9051232752
 30
0.0
 11
633.3386699446
 21
353.4051232752
 31
0.0
  0
LINE
  5
A38
330
2
100
AcDbEntity
  8
0
100
AcDbLine
 10
635.6760109446
 20
342.9703392752
 30
0.0
 11
638.3575909446
 21
341.9369222752
 31
0.0
  0
ARC
  5
A39
330
2
100
AcDbEntity
  8
0
100
AcDbCircle
 10
633.3386699446
 20
336.9051232752
 30
0.0
 40
6.5
100
AcDbArc
 50
68.924667
 51
90.0
  0
LINE
  5
A3A
330
2
100
AcDbEntity
  8
0
100
AcDbLine
 10
635.6760109446
 20
353.8399072752
 30
0.0
 11
638.3575909446
 21
354.8733242752
 31
0.0
  0
ARC
  5
A3B
330
2
100
AcDbEntity
  8
0
100
AcDbCircle
 10
633.3386699446
 20
359.9051232752
 30
0.0
 40
6.5
100
AcDbArc
 50
270.0
 51
291.075317
  0
LINE
  5
A3C
330
2
100
AcDbEntity
  8
0
100
AcDbLine
 10
604.7825169446
 20
389.9051232752
 30
0.0
 11
589.1598369446
 21
389.9051232752
 31
0.0
  0
ARC
  5
A3D
330
2
100
AcDbEntity
  8
0
100
AcDbCircle
 10
582.4001319446
 20
395.4051232752
 30
0.0
 40
7.500003999999997
100
AcDbArc
 50
340.528788
 51
0.0
  0
LINE
  5
A3E
330
2
100
AcDbEntity
  8
0
100
AcDbLine
 10
588.4711769446
 20
388.9051232752
 30
0.0
 11
588.4711769446
 21
389.1276882752
 31
0.0
  0
ARC
  5
A3F
330
2
100
AcDbEntity
  8
0
100
AcDbCircle
 10
589.1598369446
 20
389.4051232752
 30
0.0
 40
0.5
100
AcDbArc
 50
90.0
 51
150.0
  0
LINE
  5
A40
330
2
100
AcDbEntity
  8
0
100
AcDbLine
 10
588.7268529446
 20
389.6551232752
 30
0.0
 11
588.6391459446
 21
389.5032062752
 31
0.0
  0
ARC
  5
A41
330
2
100
AcDbEntity
  8
0
100
AcDbCircle
 10
590.3712009446
 20
388.5032062752
 30
0.0
 40
2.0
100
AcDbArc
 50
150.0
 51
161.80513
  0
LINE
  5
A42
330
2
100
AcDbEntity
  8
0
100
AcDbLine
 10
589.4711769446
 20
392.9051232752
 30
0.0
 11
589.4711769446
 21
389.9051232752
 31
0.0
  0
LINE
  5
A43
330
2
100
AcDbEntity
  8
0
100
AcDbLine
 10
587.4711769446
 20
392.9051232752
 30
0.0
 11
589.4711769446
 21
392.9051232752
 31
0.0
  0
LINE
  5
A44
330
2
100
AcDbEntity
  8
0
100
AcDbLine
 10
605.4711769446
 20
388.9051232752
 30
0.0
 11
605.4711769446
 21
389.1276882752
 31
0.0
  0
ARC
  5
A45
330
2
100
AcDbEntity
  8
0
100
AcDbCircle
 10
603.5711529446
 20
388.5032062752
 30
0.0
 40
2.0
100
AcDbArc
 50
18.194872
 51
30.0
  0
LINE
  5
A46
330
2
100
AcDbEntity
  8
0
100
AcDbLine
 10
605.2155009446
 20
389.6551232752
 30
0.0
 11
605.3032079446
 21
389.5032062752
 31
0.0
  0
ARC
  5
A47
330
2
100
AcDbEntity
  8
0
100
AcDbCircle
 10
604.7825169446
 20
389.4051232752
 30
0.0
 40
0.5
100
AcDbArc
 50
30.0
 51
90.0
  0
LINE
  5
A48
330
2
100
AcDbEntity
  8
0
100
AcDbLine
 10
587.4711769446
 20
416.9051232752
 30
0.0
 11
604.4711769446
 21
416.9051232752
 31
0.0
  0
LINE
  5
A49
330
2
100
AcDbEntity
  8
HIDS
100
AcDbLine
 10
654.9711769446
 20
307.9051232752
 30
0.0
 11
654.9711769446
 21
340.4051232752
 31
0.0
  0
LINE
  5
A4A
330
2
100
AcDbEntity
  8
HIDS
100
AcDbLine
 10
646.9711769446
 20
307.9051232752
 30
0.0
 11
646.9711769446
 21
340.4051232752
 31
0.0
  0
LINE
  5
A4D
330
2
100
AcDbEntity
  8
0
100
AcDbLine
 10
789.5266579446
 20
383.4051232752
 30
0.0
 11
789.5266579446
 21
313.4051232752
 31
0.0
  0
LINE
  5
A4E
330
2
100
AcDbEntity
  8
0
100
AcDbLine
 10
740.5266579446
 20
388.4051232752
 30
0.0
 11
740.5266579446
 21
355.9051232752
 31
0.0
  0
LINE
  5
A4F
330
2
100
AcDbEntity
  8
0
100
AcDbLine
 10
731.0266579446
 20
310.4051232752
 30
0.0
 11
731.0266579446
 21
323.4051232752
 31
0.0
  0
LINE
  5
A50
330
2
100
AcDbEntity
  8
0
100
AcDbLine
 10
657.2642679446
 20
307.9051232752
 30
0.0
 11
657.5696879446
 21
325.4051232752
 31
0.0
  0
LINE
  5
A51
330
2
100
AcDbEntity
  8
CENTER
100
AcDbLine
 10
650.9711769446
 20
304.5462062752
 30
0.0
 11
650.9711769446
 21
392.2212242752
 31
0.0
  0
LINE
  5
A52
330
2
100
AcDbEntity
  8
0
100
AcDbLine
 10
784.5266579446
 20
308.4051232752
 30
0.0
 11
740.5266579446
 21
308.4051232752
 31
0.0
  0
LINE
  5
A53
330
2
100
AcDbEntity
  8
0
100
AcDbLine
 10
786.7766579446
 20
175.3849751742
 30
0.0
 11
740.5266579446
 21
175.3849751742
 31
0.0
  0
LINE
  5
A54
330
2
100
AcDbEntity
  8
0
100
AcDbLine
 10
784.5266579446
 20
191.3849751742
 30
0.0
 11
740.5266579446
 21
191.3849751742
 31
0.0
  0
LINE
  5
A55
330
2
100
AcDbEntity
  8
0
100
AcDbLine
 10
731.0266579446
 20
181.6339371742
 30
0.0
 11
657.9711769446
 21
181.6339371742
 31
0.0
  0
LINE
  5
A56
330
2
100
AcDbEntity
  8
0
100
AcDbLine
 10
731.0266579446
 20
189.3849751742
 30
0.0
 11
659.3299419446
 21
189.3849751742
 31
0.0
  0
LINE
  5
A57
330
2
100
AcDbEntity
  8
0
100
AcDbLine
 10
657.9711769446
 20
184.8849751742
 30
0.0
 11
657.9711769446
 21
167.7134051742
 31
0.0
  0
LINE
  5
A58
330
2
100
AcDbEntity
  8
0
100
AcDbLine
 10
648.9711769446
 20
164.8849751742
 30
0.0
 11
648.9711769446
 21
137.8849751742
 31
0.0
  0
LINE
  5
A59
330
2
100
AcDbEntity
  8
0
100
AcDbLine
 10
653.9711769446
 20
140.7134051742
 30
0.0
 11
653.9711769446
 21
162.0565451742
 31
0.0
  0
ARC
  5
A5A
330
2
100
AcDbEntity
  8
0
100
AcDbCircle
 10
655.9711769446
 20
140.7134051742
 30
0.0
 40
2.0
100
AcDbArc
 50
180.0
 51
225.0
  0
ARC
  5
A5B
330
2
100
AcDbEntity
  8
0
100
AcDbCircle
 10
655.9711769446
 20
135.0565451742
 30
0.0
 40
2.0
100
AcDbArc
 50
0.0
 51
45.0
  0
LINE
  5
A5C
330
2
100
AcDbEntity
  8
0
100
AcDbLine
 10
654.5569919446
 20
139.2991901742
 30
0.0
 11
657.3853619446
 21
136.4707601742
 31
0.0
  0
LINE
  5
A5D
330
2
100
AcDbEntity
  8
0
100
AcDbLine
 10
654.5569919446
 20
163.4707601742
 30
0.0
 11
657.3853619446
 21
166.2991901742
 31
0.0
  0
ARC
  5
A5E
330
2
100
AcDbEntity
  8
0
100
AcDbCircle
 10
655.9711769446
 20
162.0565451742
 30
0.0
 40
2.0
100
AcDbArc
 50
135.0
 51
180.0
  0
ARC
  5
A5F
330
2
100
AcDbEntity
  8
0
100
AcDbCircle
 10
626.9711769446
 20
164.8849751742
 30
0.0
 40
22.0
100
AcDbArc
 50
0.0
 51
14.477512
  0
ARC
  5
A60
330
2
100
AcDbEntity
  8
0
100
AcDbCircle
 10
646.3361059446
 20
169.8849751742
 30
0.0
 40
2.0
100
AcDbArc
 50
14.477512
 51
90.0
  0
ARC
  5
A61
330
2
100
AcDbEntity
  8
0
100
AcDbCircle
 10
646.7449199446
 20
167.8849751742
 30
0.0
 40
2.0
100
AcDbArc
 50
8.626927
 51
90.0
  0
LINE
  5
A62
330
2
100
AcDbEntity
  8
0
100
AcDbLine
 10
645.8910379446
 20
171.8849751742
 30
0.0
 11
646.3361059446
 21
171.8849751742
 31
0.0
  0
ARC
  5
A63
330
2
100
AcDbEntity
  8
0
100
AcDbCircle
 10
655.9711769446
 20
167.7134051742
 30
0.0
 40
2.0
100
AcDbArc
 50
315.0
 51
0.0
  0
CIRCLE
  5
A64
330
2
100
AcDbEntity
  8
HOJO
100
AcDbCircle
 10
650.9711769446
 20
184.8849751742
 30
0.0
 40
4.0
  0
CIRCLE
  5
A65
330
2
100
AcDbEntity
  8
0
100
AcDbCircle
 10
650.9711769446
 20
184.8849751742
 30
0.0
 40
3.2
  0
ARC
  5
A66
330
2
100
AcDbEntity
  8
0
100
AcDbCircle
 10
650.9711769446
 20
184.8849751742
 30
0.0
 40
7.0
100
AcDbArc
 50
0.0
 51
132.635925
  0
LINE
  5
A68
330
2
100
AcDbEntity
  8
0
100
AcDbLine
 10
658.6348119446
 20
189.5096701742
 30
0.0
 11
653.4041599446
 21
191.4485431742
 31
0.0
  0
ARC
  5
A69
330
2
100
AcDbEntity
  8
0
100
AcDbCircle
 10
659.3299419446
 20
191.3849751742
 30
0.0
 40
2.0
100
AcDbArc
 50
249.66127
 51
270.0
  0
ARC
  5
A6A
330
2
100
AcDbEntity
  8
HIDS
  6
sekkei_H
100
AcDbCircle
 10
740.5266579446
 20
174.9143631742
 30
0.0
 40
1.5
100
AcDbArc
 50
90.0
 51
180.0
  0
ARC
  5
A6B
330
2
100
AcDbEntity
  8
HIDS
  6
sekkei_H
100
AcDbCircle
 10
740.5266579446
 20
174.9143631742
 30
0.0
 40
3.0
100
AcDbArc
 50
90.0
 51
180.0
  0
ARC
  5
A6C
330
2
100
AcDbEntity
  8
HIDS
  6
sekkei_H
100
AcDbCircle
 10
740.5266579446
 20
174.9143631742
 30
0.0
 40
4.5
100
AcDbArc
 50
90.0
 51
180.0
  0
LINE
  5
A6D
330
2
100
AcDbEntity
  8
HIDS
  6
sekkei_H
100
AcDbLine
 10
737.5266579446
 20
170.9143631742
 30
0.0
 11
736.0266579446
 21
170.4143631742
 31
0.0
  0
LINE
  5
A6E
330
2
100
AcDbEntity
  8
HIDS
  6
sekkei_H
100
AcDbLine
 10
739.0266579446
 20
169.9143631742
 30
0.0
 11
737.5266579446
 21
170.4143631742
 31
0.0
  0
LINE
  5
A6F
330
2
100
AcDbEntity
  8
HIDS
  6
sekkei_H
100
AcDbLine
 10
736.0266579446
 20
174.9143631742
 30
0.0
 11
736.0266579446
 21
170.4143631742
 31
0.0
  0
LINE
  5
A70
330
2
100
AcDbEntity
  8
HIDS
  6
sekkei_H
100
AcDbLine
 10
737.5266579446
 20
174.9143631742
 30
0.0
 11
737.5266579446
 21
170.4143631742
 31
0.0
  0
LINE
  5
A71
330
2
100
AcDbEntity
  8
HIDS
  6
sekkei_H
100
AcDbLine
 10
739.0266579446
 20
174.9143631742
 30
0.0
 11
739.0266579446
 21
169.8987691742
 31
0.0
  0
LINE
  5
A72
330
2
100
AcDbEntity
  8
0
100
AcDbLine
 10
740.5266579446
 20
181.6339681742
 30
0.0
 11
731.0266579446
 21
181.6339681742
 31
0.0
  0
LINE
  5
A73
330
2
100
AcDbEntity
  8
0
100
AcDbLine
 10
740.5266579446
 20
189.3849751742
 30
0.0
 11
731.0266579446
 21
189.3849751742
 31
0.0
  0
LINE
  5
A7F
330
2
100
AcDbEntity
  8
0
100
AcDbLine
 10
659.2733009446
 20
310.4051232752
 30
0.0
 11
731.0266579446
 21
310.4051232752
 31
0.0
  0
ARC
  5
A80
330
2
100
AcDbEntity
  8
0
100
AcDbCircle
 10
659.2733009446
 20
308.4051232752
 30
0.0
 40
2.0
100
AcDbArc
 50
90.0
 51
179.0
  0
LINE
  5
A81
330
2
100
AcDbEntity
  8
0
100
AcDbLine
 10
740.5266579446
 20
310.4051232752
 30
0.0
 11
731.0266579446
 21
310.4051232752
 31
0.0
  0
ARC
  5
A82
330
2
100
AcDbEntity
  8
0
100
AcDbCircle
 10
784.5266579446
 20
186.3849751742
 30
0.0
 40
5.0
100
AcDbArc
 50
0.0
 51
90.0
  0
ARC
  5
A83
330
2
100
AcDbEntity
  8
0
100
AcDbCircle
 10
784.5266579446
 20
313.4051232752
 30
0.0
 40
5.0
100
AcDbArc
 50
270.0
 51
0.0
  0
LINE
  5
A84
330
2
100
AcDbEntity
  8
0
100
AcDbLine
 10
787.2766579446
 20
324.4051232752
 30
0.0
 11
740.5266579446
 21
324.4051232752
 31
0.0
  0
LINE
  5
A85
330
2
100
AcDbEntity
  8
0
100
AcDbLine
 10
787.2766579446
 20
372.4051232752
 30
0.0
 11
740.5266579446
 21
372.4051232752
 31
0.0
  0
LINE
  5
A86
330
2
100
AcDbEntity
  8
0
100
AcDbLine
 10
784.5266579446
 20
388.4051232752
 30
0.0
 11
740.5266579446
 21
388.4051232752
 31
0.0
  0
LINE
  5
A87
330
2
100
AcDbEntity
  8
0
100
AcDbLine
 10
690.0267579446
 20
325.4051232752
 30
0.0
 11
654.9680639446
 21
325.4051232752
 31
0.0
  0
LINE
  5
A88
330
2
100
AcDbEntity
  8
0
100
AcDbLine
 10
690.0267579446
 20
371.4051232752
 30
0.0
 11
654.9680639446
 21
371.4051232752
 31
0.0
  0
LINE
  5
A89
330
2
100
AcDbEntity
  8
0
100
AcDbLine
 10
660.4194799446
 20
386.4051232752
 30
0.0
 11
731.0266579446
 21
386.4051232752
 31
0.0
  0
LINE
  5
A8A
330
2
100
AcDbEntity
  8
HIDS
100
AcDbLine
 10
646.9711769446
 20
376.4051232752
 30
0.0
 11
646.9711769446
 21
356.4051232752
 31
0.0
  0
LINE
  5
A8B
330
2
100
AcDbEntity
  8
HIDS
100
AcDbLine
 10
654.9711769446
 20
376.4051232752
 30
0.0
 11
654.9711769446
 21
356.4051232752
 31
0.0
  0
LINE
  5
A8C
330
2
100
AcDbEntity
  8
0
100
AcDbLine
 10
653.4041599446
 20
348.4051232752
 30
0.0
 11
652.9683689446
 21
373.3702112752
 31
0.0
  0
LINE
  5
A8D
330
2
100
AcDbEntity
  8
0
100
AcDbLine
 10
658.9711769446
 20
371.4051232752
 30
0.0
 11
658.9711769446
 21
325.4051232752
 31
0.0
  0
LINE
  5
A8E
330
2
100
AcDbEntity
  8
0
100
AcDbLine
 10
653.4041599446
 20
348.4051232752
 30
0.0
 11
652.9683689446
 21
323.4400352752
 31
0.0
  0
ARC
  5
A8F
330
2
100
AcDbEntity
  8
0
100
AcDbCircle
 10
654.9680639446
 20
323.4051232752
 30
0.0
 40
2.0
100
AcDbArc
 50
90.0
 51
179.0
  0
LINE
  5
A90
330
2
100
AcDbEntity
  8
HIDS
100
AcDbLine
 10
646.9711769446
 20
340.4051232752
 30
0.0
 11
654.9711769446
 21
340.4051232752
 31
0.0
  0
LINE
  5
A91
330
2
100
AcDbEntity
  8
0
100
AcDbLine
 10
647.0864719446
 20
342.2907432752
 30
0.0
 11
648.0632789446
 21
342.7612632752
 31
0.0
  0
ARC
  5
A92
330
2
100
AcDbEntity
  8
0
100
AcDbCircle
 10
650.8838969446
 20
336.9051232752
 30
0.0
 40
6.5
100
AcDbArc
 50
90.0
 51
115.717728
  0
LINE
  5
A93
330
2
100
AcDbEntity
  8
HIDS
100
AcDbLine
 10
646.9711769446
 20
356.4051232752
 30
0.0
 11
654.9711769446
 21
356.4051232752
 31
0.0
  0
LINE
  5
A94
330
2
100
AcDbEntity
  8
0
100
AcDbLine
 10
647.0864719446
 20
354.5195032752
 30
0.0
 11
648.0632789446
 21
354.0489832752
 31
0.0
  0
ARC
  5
A95
330
2
100
AcDbEntity
  8
0
100
AcDbCircle
 10
650.8838969446
 20
359.9051232752
 30
0.0
 40
6.5
100
AcDbArc
 50
244.282272
 51
270.0
  0
LINE
  5
A96
330
2
100
AcDbEntity
  8
HIDS
100
AcDbLine
 10
655.2211769446
 20
376.4051232752
 30
0.0
 11
655.2211769446
 21
388.9051232752
 31
0.0
  0
LINE
  5
A97
330
2
100
AcDbEntity
  8
HIDS
100
AcDbLine
 10
646.7211769446
 20
376.4051232752
 30
0.0
 11
646.7211769446
 21
388.9051232752
 31
0.0
  0
LINE
  5
A98
330
2
100
AcDbEntity
  8
0
100
AcDbLine
 10
657.2642679446
 20
388.9051232752
 30
0.0
 11
657.5696879446
 21
371.4051232752
 31
0.0
  0
LINE
  5
A99
330
2
100
AcDbEntity
  8
0
100
AcDbLine
 10
658.9711769446
 20
385.7843952752
 30
0.0
 11
658.9711769446
 21
376.4051232752
 31
0.0
  0
ARC
  5
A9A
330
2
100
AcDbEntity
  8
0
100
AcDbCircle
 10
654.9680639446
 20
373.4051232752
 30
0.0
 40
2.0
100
AcDbArc
 50
181.0
 51
270.0
  0
ARC
  5
A9B
330
2
100
AcDbEntity
  8
0
100
AcDbCircle
 10
660.4194799446
 20
384.4051232752
 30
0.0
 40
2.0
100
AcDbArc
 50
90.0
 51
136.398758
  0
LINE
  5
A9C
330
2
100
AcDbEntity
  8
0
100
AcDbLine
 10
731.0266579446
 20
373.4051232752
 30
0.0
 11
731.0266579446
 21
386.4051232752
 31
0.0
  0
LINE
  5
A9D
330
2
100
AcDbEntity
  8
0
100
AcDbLine
 10
740.5266579446
 20
325.4051232752
 30
0.0
 11
740.0266579446
 21
325.4051232752
 31
0.0
  0
ARC
  5
AAA
330
2
100
AcDbEntity
  8
0
100
AcDbCircle
 10
740.5266579446
 20
380.5482812752
 30
0.0
 40
1.5
100
AcDbArc
 50
180.0
 51
270.0
  0
ARC
  5
AAB
330
2
100
AcDbEntity
  8
0
100
AcDbCircle
 10
740.5266579446
 20
380.5482812752
 30
0.0
 40
3.0
100
AcDbArc
 50
180.0
 51
270.0
  0
ARC
  5
AAC
330
2
100
AcDbEntity
  8
0
100
AcDbCircle
 10
740.5266579446
 20
380.5482812752
 30
0.0
 40
4.5
100
AcDbArc
 50
180.0
 51
270.0
  0
LINE
  5
AAD
330
2
100
AcDbEntity
  8
0
100
AcDbLine
 10
740.5266579446
 20
386.4051232752
 30
0.0
 11
731.0266579446
 21
386.4051232752
 31
0.0
  0
LINE
  5
AAE
330
2
100
AcDbEntity
  8
0
100
AcDbLine
 10
740.5266579446
 20
371.4051232752
 30
0.0
 11
740.0266579446
 21
371.4051232752
 31
0.0
  0
LINE
  5
AAF
330
2
100
AcDbEntity
  8
0
100
AcDbLine
 10
736.0266579446
 20
380.5482812752
 30
0.0
 11
736.0266579446
 21
385.0482812752
 31
0.0
  0
LINE
  5
AB0
330
2
100
AcDbEntity
  8
0
100
AcDbLine
 10
737.5266579446
 20
380.5482812752
 30
0.0
 11
737.5266579446
 21
385.0482812752
 31
0.0
  0
LINE
  5
AB1
330
2
100
AcDbEntity
  8
0
100
AcDbLine
 10
739.0266579446
 20
380.5482812752
 30
0.0
 11
739.0266579446
 21
385.5639062752
 31
0.0
  0
LINE
  5
AB2
330
2
100
AcDbEntity
  8
HOJO
100
AcDbLine
 10
737.5266579446
 20
384.5482812752
 30
0.0
 11
736.0266579446
 21
385.0482812752
 31
0.0
  0
LINE
  5
AB3
330
2
100
AcDbEntity
  8
HOJO
100
AcDbLine
 10
739.0266579446
 20
385.5482812752
 30
0.0
 11
737.5266579446
 21
385.0482812752
 31
0.0
  0
ARC
  5
AB4
330
2
100
AcDbEntity
  8
0
100
AcDbCircle
 10
784.5266579446
 20
383.4051542752
 30
0.0
 40
5.0
100
AcDbArc
 50
0.0
 51
90.0
  0
TEXT
  5
1784
330
2
100
AcDbEntity
  8
TITLE
100
AcDbText
 10
154.0061856861
 20
71.8546874173
 30
0.0
 40
5.0
  1
F2FB-15T-10～240-S15WT
100
AcDbText
  0
TEXT
  5
1785
330
2
100
AcDbEntity
  8
TITLE
100
AcDbText
 10
154.0061856861
 20
62.8546874173
 30
0.0
 40
5.0
  1
F2FB-15T-10～240-S25T
100
AcDbText
  0
TEXT
  5
1786
330
2
100
AcDbEntity
  8
TITLE
100
AcDbText
 10
154.0061856861
 20
53.8546874173
 30
0.0
 40
5.0
  1
F2FB-15T-10～240-S25WT
100
AcDbText
  0
TEXT
  5
1787
330
2
100
AcDbEntity
  8
TITLE
100
AcDbText
 10
154.0061856861
 20
80.8546874173
 30
0.0
 40
5.0
  1
F2FB-15T-10～240-S15T
100
AcDbText
  0
TEXT
  5
1788
330
2
100
AcDbEntity
  8
TITLE
100
AcDbText
 10
32.7693271188
 20
71.8824779269
 30
0.0
 40
5.0
  1
F2FB-15T-10～240-T15WT
100
AcDbText
  0
TEXT
  5
1789
330
2
100
AcDbEntity
  8
TITLE
100
AcDbText
 10
32.7693271188
 20
62.8824779269
 30
0.0
 40
5.0
  1
F2FB-15T-10～240-T25T
100
AcDbText
  0
TEXT
  5
178A
330
2
100
AcDbEntity
  8
TITLE
100
AcDbText
 10
32.7693271188
 20
53.8824779269
 30
0.0
 40
5.0
  1
F2FB-15T-10～240-T25WT
100
AcDbText
  0
TEXT
  5
178B
330
2
100
AcDbEntity
  8
TITLE
100
AcDbText
 10
32.7693271188
 20
44.8824779269
 30
0.0
 40
5.0
  1
F2FB-15T-10～120-T40T
100
AcDbText
  0
TEXT
  5
178C
330
2
100
AcDbEntity
  8
TITLE
100
AcDbText
 10
32.7693271188
 20
80.8824779269
 30
0.0
 40
5.0
  1
F2FB-15T-10～240-T15T
100
AcDbText
  0
TEXT
  5
178D
330
2
100
AcDbEntity
  8
TITLE
100
AcDbText
 10
32.7693271188
 20
26.8824779269
 30
0.0
 40
5.0
  1
F2FB-15T-10～60-T60T
100
AcDbText
  0
TEXT
  5
178E
330
2
100
AcDbEntity
  8
TITLE
100
AcDbText
 10
32.7693271188
 20
35.8824779269
 30
0.0
 40
5.0
  1
F2FB-15T-10～120-T40WT
100
AcDbText
  0
TEXT
  5
178F
330
2
100
AcDbEntity
  8
TITLE
100
AcDbText
 10
154.0061856861
 20
44.8546874173
 30
0.0
 40
5.0
  1
F2FB-15T-10～120-S40T
100
AcDbText
  0
TEXT
  5
1790
330
2
100
AcDbEntity
  8
TITLE
100
AcDbText
 10
154.0061856861
 20
35.8546874173
 30
0.0
 40
5.0
  1
F2FB-15T-10～120-S40WT
100
AcDbText
  0
LINE
  5
1793
330
2
100
AcDbEntity
  8
CENTER
100
AcDbLine
 10
169.3226344191
 20
125.8636131742
 30
0.0
 11
169.3226344191
 21
109.9063371742
 31
0.0
  0
LINE
  5
1794
330
2
100
AcDbEntity
  8
CENTER
100
AcDbLine
 10
161.2502924191
 20
127.8849751742
 30
0.0
 11
172.3949764191
 21
127.8849751742
 31
0.0
  0
LINE
  5
1795
330
2
100
AcDbEntity
  8
CENTER
100
AcDbLine
 10
177.3012724191
 20
117.8849751742
 30
0.0
 11
161.3439964191
 21
117.8849751742
 31
0.0
  0
LINE
  5
1796
330
2
100
AcDbEntity
  8
CENTER
100
AcDbLine
 10
166.8226344191
 20
122.3126331742
 30
0.0
 11
166.8226344191
 21
133.4573171742
 31
0.0
  0
LINE
  5
1797
330
2
100
AcDbEntity
  8
CENTER
100
AcDbLine
 10
169.3226344191
 20
192.8636131742
 30
0.0
 11
169.3226344191
 21
176.9063371742
 31
0.0
  0
LINE
  5
1798
330
2
100
AcDbEntity
  8
CENTER
100
AcDbLine
 10
161.2502924191
 20
174.8849751742
 30
0.0
 11
172.3949764191
 21
174.8849751742
 31
0.0
  0
LINE
  5
1799
330
2
100
AcDbEntity
  8
CENTER
100
AcDbLine
 10
166.8226344191
 20
169.3126331742
 30
0.0
 11
166.8226344191
 21
180.4573171742
 31
0.0
  0
LINE
  5
179A
330
2
100
AcDbEntity
  8
CENTER
100
AcDbLine
 10
177.3012724191
 20
184.8849751742
 30
0.0
 11
161.3439964191
 21
184.8849751742
 31
0.0
  0
LINE
  5
179B
330
2
100
AcDbEntity
  8
CENTER
100
AcDbLine
 10
223.3226344191
 20
121.2781021742
 30
0.0
 11
223.3226344191
 21
181.4918481742
 31
0.0
  0
LINE
  5
179C
330
2
100
AcDbEntity
  8
CENTER
100
AcDbLine
 10
255.3226344191
 20
125.8636131742
 30
0.0
 11
255.3226344191
 21
109.9063371742
 31
0.0
  0
LINE
  5
179D
330
2
100
AcDbEntity
  8
CENTER
100
AcDbLine
 10
252.2502924191
 20
127.8849751742
 30
0.0
 11
263.3949764191
 21
127.8849751742
 31
0.0
  0
LINE
  5
179E
330
2
100
AcDbEntity
  8
CENTER
100
AcDbLine
 10
263.3012724191
 20
117.8849751742
 30
0.0
 11
247.3439964191
 21
117.8849751742
 31
0.0
  0
LINE
  5
179F
330
2
100
AcDbEntity
  8
CENTER
100
AcDbLine
 10
257.8226344191
 20
122.3126331742
 30
0.0
 11
257.8226344191
 21
133.4573171742
 31
0.0
  0
LINE
  5
17A0
330
2
100
AcDbEntity
  8
CENTER
100
AcDbLine
 10
255.3226344191
 20
192.8636131742
 30
0.0
 11
255.3226344191
 21
176.9063371742
 31
0.0
  0
LINE
  5
17A1
330
2
100
AcDbEntity
  8
CENTER
100
AcDbLine
 10
252.2502924191
 20
174.8849751742
 30
0.0
 11
263.3949764191
 21
174.8849751742
 31
0.0
  0
LINE
  5
17A2
330
2
100
AcDbEntity
  8
CENTER
100
AcDbLine
 10
257.8226344191
 20
169.3126331742
 30
0.0
 11
257.8226344191
 21
180.4573171742
 31
0.0
  0
LINE
  5
17A3
330
2
100
AcDbEntity
  8
CENTER
100
AcDbLine
 10
263.3012724191
 20
184.8849751742
 30
0.0
 11
247.3439964191
 21
184.8849751742
 31
0.0
  0
LINE
  5
17A4
330
2
100
AcDbEntity
  8
CENTER
100
AcDbLine
 10
596.9711769446
 20
121.1784626742
 30
0.0
 11
596.9711769446
 21
181.5914876742
 31
0.0
  0
LINE
  5
17A5
330
2
100
AcDbEntity
  8
CENTER
100
AcDbLine
 10
564.9711769446
 20
125.8636131742
 30
0.0
 11
564.9711769446
 21
109.9063371742
 31
0.0
  0
LINE
  5
17A6
330
2
100
AcDbEntity
  8
CENTER
100
AcDbLine
 10
572.9498149446
 20
117.8849751742
 30
0.0
 11
556.9925389446
 21
117.8849751742
 31
0.0
  0
LINE
  5
17A7
330
2
100
AcDbEntity
  8
CENTER
100
AcDbLine
 10
650.9711769446
 20
125.8636131742
 30
0.0
 11
650.9711769446
 21
109.9063371742
 31
0.0
  0
LINE
  5
17A8
330
2
100
AcDbEntity
  8
CENTER
100
AcDbLine
 10
658.9498149446
 20
117.8849751742
 30
0.0
 11
642.9925389446
 21
117.8849751742
 31
0.0
  0
LINE
  5
17A9
330
2
100
AcDbEntity
  8
CENTER
100
AcDbLine
 10
564.9711769446
 20
192.8636131742
 30
0.0
 11
564.9711769446
 21
176.9063371742
 31
0.0
  0
LINE
  5
17AA
330
2
100
AcDbEntity
  8
CENTER
100
AcDbLine
 10
572.9498149446
 20
184.8849751742
 30
0.0
 11
556.9925389446
 21
184.8849751742
 31
0.0
  0
LINE
  5
17AB
330
2
100
AcDbEntity
  8
CENTER
100
AcDbLine
 10
650.9711769446
 20
192.8636131742
 30
0.0
 11
650.9711769446
 21
176.9063371742
 31
0.0
  0
LINE
  5
17AC
330
2
100
AcDbEntity
  8
CENTER
100
AcDbLine
 10
658.9498149446
 20
184.8849751742
 30
0.0
 11
642.9925389446
 21
184.8849751742
 31
0.0
  0
SPLINE
  5
17AD
330
2
100
AcDbEntity
  8
HOJO
100
AcDbSpline
210
0.0
220
0.0
230
1.0
 70
  1064
 71
     3
 72
    27
 73
    23
 74
    21
 42
0.000000001
 43
0.0000000001
 44
0.0000000001
 40
0.0
 40
0.0
 40
0.0
 40
0.0
 40
3.539268772771811
 40
7.287513562995675
 40
11.09046033223701
 40
14.62599423816974
 40
18.69227008921782
 40
22.26802890950269
 40
26.82672101949661
 40
31.55579532198584
 40
36.28066624743819
 40
40.14414690074366
 40
45.48003284015983
 40
49.44095400921159
 40
54.14226030623289
 40
58.6286890972443
 40
62.78426171223525
 40
66.26314687902683
 40
70.60953379849481
 40
74.3051141661395
 40
78.24621988074814
 40
82.00437648752238
 40
82.00437648752238
 40
82.00437648752238
 40
82.00437648752238
 10
356.471176944614
 20
126.0029879762538
 30
0.0
 10
357.6502433103633
 20
125.8372889546753
 30
0.0
 10
360.0779939797031
 20
125.4961072178098
 30
0.0
 10
363.7338744656141
 20
126.6420624624444
 30
0.0
 10
367.4203115601853
 20
125.3824871198141
 30
0.0
 10
371.1727818681807
 20
126.8324681453606
 30
0.0
 10
374.8791353099169
 20
125.2733388999271
 30
0.0
 10
378.8795531259897
 20
126.8998753874677
 30
0.0
 10
383.1604905246447
 20
125.2508388042988
 30
0.0
 10
387.7761845227799
 20
127.118730795018
 30
0.0
 10
392.1977822392883
 20
125.3106464660805
 30
0.0
 10
396.7533528441192
 20
127.1446011253382
 30
0.0
 10
401.1574536230242
 20
125.3359540182422
 30
0.0
 10
405.7440742529703
 20
127.3749569286518
 30
0.0
 10
410.0587955075686
 20
124.9565673112758
 30
0.0
 10
414.4266228456738
 20
127.5472150729325
 30
0.0
 10
418.3882786100752
 20
125.0019467349666
 30
0.0
 10
422.2338550772545
 20
127.4401466326175
 30
0.0
 10
426.0492572103087
 20
125.1318100544308
 30
0.0
 10
429.9543712974075
 20
127.258500663986
 30
0.0
 10
433.6869544693781
 20
125.4123393380142
 30
0.0
 10
436.2299112820779
 20
126.0971122656423
 30
0.0
 10
437.4711769446139
 20
126.4313629762538
 30
0.0
 11
356.471176944614
 21
126.0029879762538
 31
0.0
 11
360.0023659446141
 21
125.7639739762538
 31
0.0
 11
363.7211769446139
 21
126.2327849762537
 31
0.0
 11
367.502365944614
 21
125.8265659762538
 31
0.0
 11
371.002365944614
 21
126.3265659762538
 31
0.0
 11
375.0337689446139
 21
125.7951629762538
 31
0.0
 11
378.5649879446139
 21
126.3577849762537
 31
0.0
 11
383.0961769446139
 21
125.8577849762537
 31
0.0
 11
387.7837689446139
 21
126.4827849762537
 31
0.0
 11
392.4711769446139
 21
125.8889739762538
 31
0.0
 11
396.2837689446141
 21
126.5139739762538
 31
0.0
 11
401.5961769446136
 21
126.0139739762538
 31
0.0
 11
405.5023659446137
 21
126.6701629762538
 31
0.0
 11
410.127365944614
 21
125.8265659762538
 31
0.0
 11
414.5337689446138
 21
126.6701629762538
 31
0.0
 11
418.5961769446136
 21
125.7951629762538
 31
0.0
 11
421.9711769446139
 21
126.6389739762538
 31
0.0
 11
426.252365944614
 21
125.8889739762538
 31
0.0
 11
429.877365944614
 21
126.6077849762537
 31
0.0
 11
433.752365944614
 21
125.8889739762538
 31
0.0
 11
437.4711769446139
 21
126.4313629762538
 31
0.0
  0
LINE
  5
17B0
330
2
100
AcDbEntity
  8
CENTER
100
AcDbLine
 10
324.0996249446
 20
151.3849751742
 30
0.0
 11
469.8427289446
 21
151.3849751742
 31
0.0
  0
LINE
  5
17B1
330
2
100
AcDbEntity
  8
CENTER
100
AcDbLine
 10
396.9711769446
 20
227.2724731742
 30
0.0
 11
396.9711769446
 21
103.8368491742
 31
0.0
  0
LINE
  5
17B2
330
2
100
AcDbEntity
  8
CENTER
100
AcDbLine
 10
596.9711769446
 20
421.2766752752
 30
0.0
 11
596.9711769446
 21
275.5335712752
 31
0.0
  0
LINE
  5
17B3
330
2
100
AcDbEntity
  8
CENTER
100
AcDbLine
 10
550.4304059446
 20
348.4051232752
 30
0.0
 11
798.0471879128
 21
348.4051232752
 31
0.0
  0
LINE
  5
1EC5
330
2
100
AcDbEntity
  8
0
100
AcDbLine
 10
371.9711769446
 20
202.8849751742
 30
0.0
 11
421.9711619446
 21
202.8849751742
 31
0.0
  0
LINE
  5
1EC6
330
2
100
AcDbEntity
  8
0
100
AcDbLine
 10
371.9711769446
 20
192.8849751742
 30
0.0
 11
421.9711619446
 21
192.8849751742
 31
0.0
  0
LINE
  5
1EC7
330
2
100
AcDbEntity
  8
0
100
AcDbLine
 10
372.9711769446
 20
221.8849731742
 30
0.0
 11
417.1332681286
 21
221.8849731742
 31
0.0
  0
LINE
  5
1EC8
330
2
100
AcDbEntity
  8
0
100
AcDbLine
 10
371.9711769446
 20
220.8849731742
 30
0.0
 11
414.4711619446
 21
220.8849731742
 31
0.0
  0
LINE
  5
1ECA
330
2
100
AcDbEntity
  8
CENTER
100
AcDbLine
 10
366.9275699634
 20
212.3849731742
 30
0.0
 11
427.0147839258
 21
212.3849731742
 31
0.0
  0
LINE
  5
1EF0
330
2
100
AcDbEntity
  8
0
100
AcDbLine
 10
85.1050462351
 20
221.8849731742
 30
0.0
 11
129.2671374191
 21
221.8849731742
 31
0.0
  0
LINE
  5
1EF1
330
2
100
AcDbEntity
  8
0
100
AcDbLine
 10
81.7671304191
 20
190.8849751742
 30
0.0
 11
128.2671374191
 21
190.8849751742
 31
0.0
  0
LINE
  5
1EF2
330
2
100
AcDbEntity
  8
0
100
AcDbLine
 10
78.2671304191
 20
202.8849751742
 30
0.0
 11
130.2671374191
 21
202.8849751742
 31
0.0
  0
LINE
  5
1EF3
330
2
100
AcDbEntity
  8
0
100
AcDbLine
 10
80.2671304191
 20
192.8849751742
 30
0.0
 11
130.2671374191
 21
192.8849751742
 31
0.0
  0
LINE
  5
1EF4
330
2
100
AcDbEntity
  8
0
100
AcDbLine
 10
87.7671308477
 20
220.8849731742
 30
0.0
 11
130.2671444191
 21
220.8849731742
 31
0.0
  0
LINE
  5
1EF5
330
2
100
AcDbEntity
  8
CENTER
100
AcDbLine
 10
72.3233814191
 20
212.3849731742
 30
0.0
 11
134.2194403829
 21
212.3849731742
 31
0.0
  0
ARC
  5
1EF7
330
2
100
AcDbEntity
  8
0
100
AcDbCircle
 10
79.2671454191
 20
218.8849731742
 30
0.0
 40
1.0
100
AcDbArc
 50
90.0
 51
180.0
  0
LINE
  5
1EF8
330
2
100
AcDbEntity
  8
0
100
AcDbLine
 10
78.2671454191
 20
218.8849731742
 30
0.0
 11
78.2671304191
 21
202.8849751742
 31
0.0
  0
LINE
  5
1EF9
330
2
100
AcDbEntity
  8
0
100
AcDbLine
 10
74.7671454191
 20
216.3849731742
 30
0.0
 11
74.7671454191
 21
208.3849731742
 31
0.0
  0
LINE
  5
1EFA
330
2
100
AcDbEntity
  8
0
100
AcDbLine
 10
74.7671304191
 20
208.3849731742
 30
0.0
 11
78.2671304191
 21
206.8849731742
 31
0.0
  0
LINE
  5
1EFB
330
2
100
AcDbEntity
  8
0
100
AcDbLine
 10
74.7671454191
 20
216.3849731742
 30
0.0
 11
78.2671454191
 21
217.8849731742
 31
0.0
  0
LINE
  5
1EFC
330
2
100
AcDbEntity
  8
CENTER
100
AcDbLine
 10
105.2671374191
 20
186.1912741742
 30
0.0
 11
105.2671374191
 21
227.2724731742
 31
0.0
  0
LINE
  5
1EFD
330
2
100
AcDbEntity
  8
0
100
AcDbLine
 10
80.2671304191
 20
220.8849731742
 30
0.0
 11
80.2671304191
 21
192.8849751742
 31
0.0
  0
LINE
  5
1EFE
330
2
100
AcDbEntity
  8
0
100
AcDbLine
 10
81.7671304191
 20
190.8849751742
 30
0.0
 11
81.7671304191
 21
189.3849751742
 31
0.0
  0
LINE
  5
1F00
330
2
100
AcDbEntity
  8
0
100
AcDbLine
 10
80.2671304191
 20
192.8849751742
 30
0.0
 11
82.2671304191
 21
190.8849751742
 31
0.0
  0
ARC
  5
1F01
330
2
100
AcDbEntity
  8
0
100
AcDbCircle
 10
83.7671374191
 20
212.9849731742
 30
0.0
 40
9.0
100
AcDbArc
 50
74.1191499917
 51
105.8808500083
  0
LINE
  5
1F02
330
2
100
AcDbEntity
  8
0
100
AcDbLine
 10
84.0546374196
 20
220.4679731742
 30
0.0
 11
83.4796374187
 21
220.4679731742
 31
0.0
  0
LINE
  5
1F03
330
2
100
AcDbEntity
  8
0
100
AcDbLine
 10
87.7671308477
 20
219.3849731742
 30
0.0
 11
80.2671308477
 21
219.3849731742
 31
0.0
  0
LINE
  5
1F04
330
2
100
AcDbEntity
  8
0
100
AcDbLine
 10
81.737397596
 20
221.5374147116
 30
0.0
 11
81.7171374191
 21
221.748391457
 31
0.0
  0
SPLINE
  5
1F05
330
2
100
AcDbEntity
  8
0
100
AcDbSpline
210
0.0
220
0.0
230
1.0
 70
     8
 71
     3
 72
    11
 73
     7
 74
     0
 42
0.000000001
 43
0.0000000001
 40
0.0
 40
0.0
 40
0.0
 40
0.0
 40
0.4601364636755307
 40
1.04988694485363
 40
1.713742833862792
 40
2.320347933405154
 40
2.320347933405154
 40
2.320347933405154
 40
2.320347933405173
 10
83.47963741866209
 20
220.4679731742065
 30
0.0
 10
83.45721976155425
 20
220.6229966138864
 30
0.0
 10
83.40606970632098
 20
220.9767114318039
 30
0.0
 10
82.9701845447874
 20
221.4014391034055
 30
0.0
 10
82.36513382977994
 20
221.6206262833714
 30
0.0
 10
81.93994920560411
 20
221.5516349837607
 30
0.0
 10
81.73739759595305
 20
221.5374147115841
 30
0.0
  0
LINE
  5
1F06
330
2
100
AcDbEntity
  8
0
100
AcDbLine
 10
80.2671374191
 20
219.3849731742
 30
0.0
 11
80.365073558
 21
220.504388364
 31
0.0
  0
ARC
  5
1F07
330
2
100
AcDbEntity
  8
0
100
AcDbCircle
 10
81.6601266655
 20
220.3910858985
 30
0.0
 40
1.3
100
AcDbArc
 50
105.8808500083
 51
175.0
  0
LINE
  5
1F08
330
2
100
AcDbEntity
  8
0
100
AcDbLine
 10
81.2671308477
 20
221.8849731742
 30
0.0
 11
80.2671304191
 21
220.8849731742
 31
0.0
  0
LINE
  5
1F09
330
2
100
AcDbEntity
  8
0
100
AcDbLine
 10
80.2671304191
 20
220.8849731742
 30
0.0
 11
81.2671304191
 21
221.8849731742
 31
0.0
  0
LINE
  5
1F0A
330
2
100
AcDbEntity
  8
0
100
AcDbLine
 10
79.2671304191
 20
219.8849731742
 30
0.0
 11
80.2671304191
 21
219.8849731742
 31
0.0
  0
LINE
  5
1F0B
330
2
100
AcDbEntity
  8
0
100
AcDbLine
 10
81.2671304191
 20
221.8849731742
 30
0.0
 11
82.4292286031
 21
221.8849731742
 31
0.0
  0
LINE
  5
1F0C
330
2
100
AcDbEntity
  8
0
100
AcDbLine
 10
87.2671374191
 20
219.3849731742
 30
0.0
 11
87.1692012802
 21
220.504388364
 31
0.0
  0
ARC
  5
1F0D
330
2
100
AcDbEntity
  8
0
100
AcDbCircle
 10
85.8741481727
 20
220.3910858985
 30
0.0
 40
1.3
100
AcDbArc
 50
5.0
 51
74.1191499917
  0
LINE
  5
1F0E
330
2
100
AcDbEntity
  8
0
100
AcDbLine
 10
85.7968772423
 20
221.5374147116
 30
0.0
 11
85.8171374191
 21
221.748391457
 31
0.0
  0
SPLINE
  5
1F0F
330
2
100
AcDbEntity
  8
0
100
AcDbSpline
210
0.0
220
0.0
230
1.0
 70
     8
 71
     3
 72
    11
 73
     7
 74
     0
 42
0.000000001
 43
0.0000000001
 40
0.0
 40
0.0
 40
0.0
 40
0.0
 40
0.4601364636755307
 40
1.04988694485363
 40
1.713742833862792
 40
2.320347933405154
 40
2.320347933405154
 40
2.320347933405154
 40
2.320347933405173
 10
84.0546374195722
 20
220.4679731742065
 30
0.0
 10
84.07705507668003
 20
220.6229966138864
 30
0.0
 10
84.12820513191331
 20
220.9767114318039
 30
0.0
 10
84.56409029344689
 20
221.4014391034055
 30
0.0
 10
85.16914100845434
 20
221.6206262833714
 30
0.0
 10
85.59432563263015
 20
221.5516349837607
 30
0.0
 10
85.79687724228127
 20
221.5374147115841
 30
0.0
  0
LINE
  5
1F10
330
2
100
AcDbEntity
  8
0
100
AcDbLine
 10
88.2671308477
 20
221.8849731742
 30
0.0
 11
87.7671308477
 21
221.3849731742
 31
0.0
  0
LINE
  5
1F11
330
2
100
AcDbEntity
  8
0
100
AcDbLine
 10
87.7671308477
 20
219.3849731742
 30
0.0
 11
87.7671308477
 21
221.3849731742
 31
0.0
  0
LINE
  5
1F12
330
2
100
AcDbEntity
  8
0
100
AcDbLine
 10
87.7671308477
 20
221.3849731742
 30
0.0
 11
86.7121148087
 21
221.3849731742
 31
0.0
  0
LINE
  5
1F13
330
2
100
AcDbEntity
  8
0
100
AcDbLine
 10
130.2671374191
 20
220.8849731742
 30
0.0
 11
130.2671374191
 21
192.8849751742
 31
0.0
  0
LINE
  5
1F14
330
2
100
AcDbEntity
  8
0
100
AcDbLine
 10
127.7671374191
 20
190.8849751742
 30
0.0
 11
127.7671374191
 21
189.3849751742
 31
0.0
  0
LINE
  5
1F15
330
2
100
AcDbEntity
  8
0
100
AcDbLine
 10
128.2671374191
 20
190.8849751742
 30
0.0
 11
130.2671374191
 21
192.8849751742
 31
0.0
  0
LINE
  5
1F16
330
2
100
AcDbEntity
  8
0
100
AcDbLine
 10
129.2671444191
 20
221.8849731742
 30
0.0
 11
130.2671444191
 21
220.8849731742
 31
0.0
  0
LINE
  5
1F17
330
2
100
AcDbEntity
  8
0
100
AcDbLine
 10
371.9711769446
 20
220.8849731742
 30
0.0
 11
371.9711769446
 21
192.8849751742
 31
0.0
  0
LINE
  5
1F19
330
2
100
AcDbEntity
  8
0
100
AcDbLine
 10
371.9711769446
 20
192.8849751742
 30
0.0
 11
373.3829172971
 21
191.4732348217
 31
0.0
  0
LINE
  5
1F1A
330
2
100
AcDbEntity
  8
0
100
AcDbLine
 10
372.9711769446
 20
221.8849731742
 30
0.0
 11
371.9711769446
 21
220.8849731742
 31
0.0
  0
LINE
  5
1F1D
330
2
100
AcDbEntity
  8
0
100
AcDbLine
 10
421.9711619446
 20
220.8849731742
 30
0.0
 11
421.9711619446
 21
192.8849751742
 31
0.0
  0
LINE
  5
1F20
330
2
100
AcDbEntity
  8
0
100
AcDbLine
 10
420.5594218495
 20
191.4732350791
 30
0.0
 11
421.9711619446
 21
192.8849751742
 31
0.0
  0
ARC
  5
1F21
330
2
100
AcDbEntity
  8
0
100
AcDbCircle
 10
418.4711769446
 20
212.9849731742
 30
0.0
 40
9.0
100
AcDbArc
 50
74.1191499917
 51
105.8808500083
  0
SPLINE
  5
1F22
330
2
100
AcDbEntity
  8
0
100
AcDbSpline
210
0.0
220
0.0
230
1.0
 70
     8
 71
     3
 72
    11
 73
     7
 74
     0
 42
0.000000001
 43
0.0000000001
 40
0.0
 40
0.0
 40
0.0
 40
0.0
 40
0.4601364636755307
 40
1.04988694485363
 40
1.713742833862792
 40
2.320347933405154
 40
2.320347933405154
 40
2.320347933405154
 40
2.320347933405173
 10
418.1836769441587
 20
220.4679731742066
 30
0.0
 10
418.1612592870512
 20
220.6229966138865
 30
0.0
 10
418.1101092318177
 20
220.976711431804
 30
0.0
 10
417.6742240702841
 20
221.4014391034057
 30
0.0
 10
417.0691733552768
 20
221.6206262833716
 30
0.0
 10
416.643988731101
 20
221.5516349837608
 30
0.0
 10
416.4414371214498
 20
221.5374147115842
 30
0.0
  0
LINE
  5
1F23
330
2
100
AcDbEntity
  8
0
100
AcDbLine
 10
414.4711619446
 20
219.3849731742
 30
0.0
 11
421.9711619446
 21
219.3849731742
 31
0.0
  0
LINE
  5
1F24
330
2
100
AcDbEntity
  8
0
100
AcDbLine
 10
416.4414371214
 20
221.5374147116
 30
0.0
 11
416.4211769446
 21
221.748391457
 31
0.0
  0
LINE
  5
1F25
330
2
100
AcDbEntity
  8
0
100
AcDbLine
 10
414.9711769446
 20
219.3849731742
 30
0.0
 11
415.0691130835
 21
220.504388364
 31
0.0
  0
ARC
  5
1F26
330
2
100
AcDbEntity
  8
0
100
AcDbCircle
 10
416.364166191
 20
220.3910858985
 30
0.0
 40
1.3
100
AcDbArc
 50
105.8808500083
 51
175.0
  0
LINE
  5
1F27
330
2
100
AcDbEntity
  8
0
100
AcDbLine
 10
413.9711619446
 20
221.8849731742
 30
0.0
 11
414.4711619446
 21
221.3849731742
 31
0.0
  0
LINE
  5
1F28
330
2
100
AcDbEntity
  8
0
100
AcDbLine
 10
414.4711619446
 20
219.3849731742
 30
0.0
 11
414.4711619446
 21
221.3849731742
 31
0.0
  0
LINE
  5
1F29
330
2
100
AcDbEntity
  8
0
100
AcDbLine
 10
414.4711619446
 20
221.3849731742
 30
0.0
 11
415.526199555
 21
221.3849731742
 31
0.0
  0
LINE
  5
1F2A
330
2
100
AcDbEntity
  8
0
100
AcDbLine
 10
419.8090857606
 20
221.8849731742
 30
0.0
 11
420.9711619446
 21
221.8849731742
 31
0.0
  0
LINE
  5
1F2B
330
2
100
AcDbEntity
  8
0
100
AcDbLine
 10
421.9711769446
 20
219.3849731742
 30
0.0
 11
421.8732408057
 21
220.504388364
 31
0.0
  0
ARC
  5
1F2C
330
2
100
AcDbEntity
  8
0
100
AcDbCircle
 10
420.5781876982
 20
220.3910858985
 30
0.0
 40
1.3
100
AcDbArc
 50
5.0
 51
74.1191499917
  0
LINE
  5
1F2D
330
2
100
AcDbEntity
  8
0
100
AcDbLine
 10
420.5009167678
 20
221.5374147116
 30
0.0
 11
420.5211769446
 21
221.748391457
 31
0.0
  0
LINE
  5
1F2E
330
2
100
AcDbEntity
  8
0
100
AcDbLine
 10
418.7586769451
 20
220.4679731742
 30
0.0
 11
418.1836769442
 21
220.4679731742
 31
0.0
  0
SPLINE
  5
1F2F
330
2
100
AcDbEntity
  8
0
100
AcDbSpline
210
0.0
220
0.0
230
1.0
 70
     8
 71
     3
 72
    11
 73
     7
 74
     0
 42
0.000000001
 43
0.0000000001
 40
0.0
 40
0.0
 40
0.0
 40
0.0
 40
0.4601364636755307
 40
1.04988694485363
 40
1.713742833862792
 40
2.320347933405154
 40
2.320347933405154
 40
2.320347933405154
 40
2.320347933405173
 10
418.7586769450688
 20
220.4679731742066
 30
0.0
 10
418.7810946021769
 20
220.6229966138865
 30
0.0
 10
418.8322446574101
 20
220.976711431804
 30
0.0
 10
419.2681298189437
 20
221.4014391034057
 30
0.0
 10
419.8731805339511
 20
221.6206262833716
 30
0.0
 10
420.2983651581268
 20
221.5516349837608
 30
0.0
 10
420.5009167677781
 20
221.5374147115842
 30
0.0
  0
LINE
  5
1F30
330
2
100
AcDbEntity
  8
0
100
AcDbLine
 10
420.9711619446
 20
221.8849731742
 30
0.0
 11
421.9711619446
 21
220.8849731742
 31
0.0
  0
LINE
  5
1F32
330
2
100
AcDbEntity
  8
0
100
AcDbLine
 10
694.8645597606
 20
221.8849731742
 30
0.0
 11
739.0266509446
 21
221.8849731742
 31
0.0
  0
LINE
  5
1F33
330
2
100
AcDbEntity
  8
0
100
AcDbLine
 10
697.5266513732
 20
220.8849731742
 30
0.0
 11
740.0266579446
 21
220.8849731742
 31
0.0
  0
LINE
  5
1F35
330
2
100
AcDbEntity
  8
0
100
AcDbLine
 10
740.0266579446
 20
192.8849751742
 30
0.0
 11
690.0266509446
 21
192.8849751742
 31
0.0
  0
LINE
  5
1F36
330
2
100
AcDbEntity
  8
0
100
AcDbLine
 10
738.5266579446
 20
190.8849751742
 30
0.0
 11
692.0266509446
 21
190.8849751742
 31
0.0
  0
LINE
  5
1F37
330
2
100
AcDbEntity
  8
CENTER
100
AcDbLine
 10
747.9704069446
 20
212.3849731742
 30
0.0
 11
686.0743479809
 21
212.3849731742
 31
0.0
  0
LINE
  5
1F38
330
2
100
AcDbEntity
  8
0
100
AcDbLine
 10
742.0266579446
 20
202.8849751742
 30
0.0
 11
690.0266509446
 21
202.8849751742
 31
0.0
  0
LINE
  5
1F39
330
2
100
AcDbEntity
  8
0
100
AcDbLine
 10
690.0266509446
 20
220.8849731742
 30
0.0
 11
690.0266509446
 21
192.8849751742
 31
0.0
  0
LINE
  5
1F3A
330
2
100
AcDbEntity
  8
CENTER
100
AcDbLine
 10
715.0266509446
 20
186.1912741742
 30
0.0
 11
715.0266509446
 21
227.2724731742
 31
0.0
  0
LINE
  5
1F3B
330
2
100
AcDbEntity
  8
0
100
AcDbLine
 10
692.5266509446
 20
190.8849751742
 30
0.0
 11
692.5266509446
 21
189.3849751742
 31
0.0
  0
LINE
  5
1F3C
330
2
100
AcDbEntity
  8
0
100
AcDbLine
 10
692.0266509446
 20
190.8849751742
 30
0.0
 11
690.0266509446
 21
192.8849751742
 31
0.0
  0
LINE
  5
1F3D
330
2
100
AcDbEntity
  8
0
100
AcDbLine
 10
697.5266513732
 20
221.3849731742
 30
0.0
 11
696.4716283342
 21
221.3849731742
 31
0.0
  0
LINE
  5
1F3E
330
2
100
AcDbEntity
  8
0
100
AcDbLine
 10
697.5266513732
 20
219.3849731742
 30
0.0
 11
690.0266513732
 21
219.3849731742
 31
0.0
  0
ARC
  5
1F3F
330
2
100
AcDbEntity
  8
0
100
AcDbCircle
 10
693.5266509446
 20
212.9849731742
 30
0.0
 40
9.0
100
AcDbArc
 50
74.1191499917
 51
105.8808500083
  0
SPLINE
  5
1F40
330
2
100
AcDbEntity
  8
0
100
AcDbSpline
210
0.0
220
0.0
230
1.0
 70
     8
 71
     3
 72
    11
 73
     7
 74
     0
 42
0.000000001
 43
0.0000000001
 40
0.0
 40
0.0
 40
0.0
 40
0.0
 40
0.4601364636755307
 40
1.04988694485363
 40
1.713742833862792
 40
2.320347933405154
 40
2.320347933405154
 40
2.320347933405154
 40
2.320347933405173
 10
693.2391509441588
 20
220.4679731742065
 30
0.0
 10
693.2167332870509
 20
220.6229966138864
 30
0.0
 10
693.1655832318178
 20
220.9767114318039
 30
0.0
 10
692.7296980702838
 20
221.4014391034055
 30
0.0
 10
692.1246473552766
 20
221.6206262833714
 30
0.0
 10
691.6994627311007
 20
221.5516349837607
 30
0.0
 10
691.4969111214498
 20
221.5374147115841
 30
0.0
  0
LINE
  5
1F41
330
2
100
AcDbEntity
  8
0
100
AcDbLine
 10
691.4969111214
 20
221.5374147116
 30
0.0
 11
691.4766509446
 21
221.748391457
 31
0.0
  0
LINE
  5
1F42
330
2
100
AcDbEntity
  8
0
100
AcDbLine
 10
690.0266509446
 20
219.3849731742
 30
0.0
 11
690.1245870835
 21
220.504388364
 31
0.0
  0
ARC
  5
1F43
330
2
100
AcDbEntity
  8
0
100
AcDbCircle
 10
691.419640191
 20
220.3910858985
 30
0.0
 40
1.3
100
AcDbArc
 50
105.8808500083
 51
175.0
  0
LINE
  5
1F44
330
2
100
AcDbEntity
  8
0
100
AcDbLine
 10
690.0266509446
 20
220.8849731742
 30
0.0
 11
691.0266509446
 21
221.8849731742
 31
0.0
  0
LINE
  5
1F45
330
2
100
AcDbEntity
  8
0
100
AcDbLine
 10
691.0266509446
 20
221.8849731742
 30
0.0
 11
692.1887421286
 21
221.8849731742
 31
0.0
  0
LINE
  5
1F46
330
2
100
AcDbEntity
  8
0
100
AcDbLine
 10
697.0266509446
 20
219.3849731742
 30
0.0
 11
696.9287148057
 21
220.504388364
 31
0.0
  0
ARC
  5
1F47
330
2
100
AcDbEntity
  8
0
100
AcDbCircle
 10
695.6336616982
 20
220.3910858985
 30
0.0
 40
1.3
100
AcDbArc
 50
5.0
 51
74.1191499917
  0
LINE
  5
1F48
330
2
100
AcDbEntity
  8
0
100
AcDbLine
 10
695.5563907678
 20
221.5374147116
 30
0.0
 11
695.5766509446
 21
221.748391457
 31
0.0
  0
LINE
  5
1F49
330
2
100
AcDbEntity
  8
0
100
AcDbLine
 10
693.8141509451
 20
220.4679731742
 30
0.0
 11
693.2391509442
 21
220.4679731742
 31
0.0
  0
SPLINE
  5
1F4A
330
2
100
AcDbEntity
  8
0
100
AcDbSpline
210
0.0
220
0.0
230
1.0
 70
     8
 71
     3
 72
    11
 73
     7
 74
     0
 42
0.000000001
 43
0.0000000001
 40
0.0
 40
0.0
 40
0.0
 40
0.0
 40
0.4601364636755307
 40
1.04988694485363
 40
1.713742833862792
 40
2.320347933405154
 40
2.320347933405154
 40
2.320347933405154
 40
2.320347933405173
 10
693.8141509450688
 20
220.4679731742065
 30
0.0
 10
693.8365686021768
 20
220.6229966138864
 30
0.0
 10
693.8877186574098
 20
220.9767114318039
 30
0.0
 10
694.3236038189436
 20
221.4014391034055
 30
0.0
 10
694.928654533951
 20
221.6206262833714
 30
0.0
 10
695.3538391581266
 20
221.5516349837607
 30
0.0
 10
695.5563907677777
 20
221.5374147115841
 30
0.0
  0
LINE
  5
1F4B
330
2
100
AcDbEntity
  8
0
100
AcDbLine
 10
698.0266513732
 20
221.8849731742
 30
0.0
 11
697.5266513732
 21
221.3849731742
 31
0.0
  0
LINE
  5
1F4C
330
2
100
AcDbEntity
  8
0
100
AcDbLine
 10
697.5266513732
 20
219.3849731742
 30
0.0
 11
697.5266513732
 21
221.3849731742
 31
0.0
  0
LINE
  5
1F4E
330
2
100
AcDbEntity
  8
0
100
AcDbLine
 10
740.0266579446
 20
220.8849731742
 30
0.0
 11
740.0266579446
 21
192.8849751742
 31
0.0
  0
LINE
  5
1F4F
330
2
100
AcDbEntity
  8
0
100
AcDbLine
 10
745.5266429446
 20
216.3849731742
 30
0.0
 11
745.5266429446
 21
208.3849731742
 31
0.0
  0
LINE
  5
1F50
330
2
100
AcDbEntity
  8
0
100
AcDbLine
 10
742.0266429446
 20
218.8849731742
 30
0.0
 11
742.0266579446
 21
202.8849751742
 31
0.0
  0
LINE
  5
1F52
330
2
100
AcDbEntity
  8
0
100
AcDbLine
 10
738.5266579446
 20
190.8849751742
 30
0.0
 11
738.5266579446
 21
189.3849751742
 31
0.0
  0
LINE
  5
1F53
330
2
100
AcDbEntity
  8
0
100
AcDbLine
 10
745.5266579446
 20
208.3849731742
 30
0.0
 11
742.0266579446
 21
206.8849731742
 31
0.0
  0
LINE
  5
1F54
330
2
100
AcDbEntity
  8
0
100
AcDbLine
 10
740.0266579446
 20
192.8849751742
 30
0.0
 11
738.0266579446
 21
190.8849751742
 31
0.0
  0
LINE
  5
1F55
330
2
100
AcDbEntity
  8
0
100
AcDbLine
 10
745.5266429446
 20
216.3849731742
 30
0.0
 11
742.0266429446
 21
217.8849731742
 31
0.0
  0
LINE
  5
1F56
330
2
100
AcDbEntity
  8
0
100
AcDbLine
 10
739.0266579446
 20
221.8849731742
 30
0.0
 11
740.0266579446
 21
220.8849731742
 31
0.0
  0
ARC
  5
1F57
330
2
100
AcDbEntity
  8
0
100
AcDbCircle
 10
741.0266429446
 20
218.8849731742
 30
0.0
 40
1.0
100
AcDbArc
 50
0.0
 51
90.0
  0
LINE
  5
1F58
330
2
100
AcDbEntity
  8
0
100
AcDbLine
 10
741.0266579446
 20
219.8849731742
 30
0.0
 11
740.0266579446
 21
219.8849731742
 31
0.0
  0
LINE
  5
1F59
330
2
100
AcDbEntity
  8
0
100
AcDbLine
 10
692.4265529446
 20
372.0051292752
 30
0.0
 11
732.5266579446
 21
372.0051292752
 31
0.0
  0
LINE
  5
1F5A
330
2
100
AcDbEntity
  8
0
100
AcDbLine
 10
738.0266579446
 20
373.4051232752
 30
0.0
 11
692.0267579446
 21
373.4051232752
 31
0.0
  0
LINE
  5
1F5B
330
2
100
AcDbEntity
  8
0
100
AcDbLine
 10
738.0266579446
 20
323.4051232752
 30
0.0
 11
692.0267579446
 21
323.4051232752
 31
0.0
  0
LINE
  5
1F5C
330
2
100
AcDbEntity
  8
0
100
AcDbLine
 10
737.6266569446
 20
324.8051322752
 30
0.0
 11
697.5267579446
 21
324.8051322752
 31
0.0
  0
LINE
  5
1F5D
330
2
100
AcDbEntity
  8
0
100
AcDbLine
 10
690.0267579446
 20
325.4051232752
 30
0.0
 11
690.0267579446
 21
371.4051232752
 31
0.0
  0
LINE
  5
1F5E
330
2
100
AcDbEntity
  8
CENTER
100
AcDbLine
 10
715.0266509446
 20
318.0158973311
 30
0.0
 11
715.0266509446
 21
379.1551232752
 31
0.0
  0
LINE
  5
1F5F
330
2
100
AcDbEntity
  8
0
100
AcDbLine
 10
691.4265529446
 20
371.0051292752
 30
0.0
 11
691.4265529446
 21
330.9051232752
 31
0.0
  0
ARC
  5
1F60
330
2
100
AcDbEntity
  8
0
100
AcDbCircle
 10
693.5265589446
 20
326.9051232752
 30
0.0
 40
4.0
100
AcDbArc
 50
0.0
 51
90.0
  0
ARC
  5
1F61
330
2
100
AcDbEntity
  8
0
100
AcDbCircle
 10
691.4968589446
 20
324.8754232752
 30
0.0
 40
1.742199999999999
100
AcDbArc
 50
359.9986903345
 51
90.0013096655
  0
ARC
  5
1F62
330
2
100
AcDbEntity
  8
0
100
AcDbCircle
 10
691.4968589446
 20
328.9348232752
 30
0.0
 40
1.742199999999999
100
AcDbArc
 50
269.9986903345
 51
0.0013096655
  0
CIRCLE
  5
1F63
330
2
100
AcDbEntity
  8
0
100
AcDbCircle
 10
693.5265589446
 20
326.9051232752
 30
0.0
 40
3.500000000000028
  0
LINE
  5
1F64
330
2
100
AcDbEntity
  8
0
100
AcDbLine
 10
693.5267579446
 20
330.9051232752
 30
0.0
 11
690.0267579446
 21
330.9051232752
 31
0.0
  0
ARC
  5
1F65
330
2
100
AcDbEntity
  8
0
100
AcDbCircle
 10
693.5265589446
 20
326.9051232752
 30
0.0
 40
2.049999999999998
100
AcDbArc
 50
171.938039916
 51
180.0
  0
ARC
  5
1F66
330
2
100
AcDbEntity
  8
0
100
AcDbCircle
 10
693.5265589446
 20
326.9051232752
 30
0.0
 40
2.049999999999998
100
AcDbArc
 50
180.0
 51
188.061960084
  0
LINE
  5
1F67
330
2
100
AcDbEntity
  8
0
100
AcDbLine
 10
692.0267579446
 20
323.4051232752
 30
0.0
 11
690.0267579446
 21
325.4051232752
 31
0.0
  0
LINE
  5
1F68
330
2
100
AcDbEntity
  8
0
100
AcDbLine
 10
690.0267579446
 20
325.4051232752
 30
0.0
 11
692.0267579446
 21
323.4051232752
 31
0.0
  0
ARC
  5
1F69
330
2
100
AcDbEntity
  8
0
100
AcDbCircle
 10
695.5562589446
 20
324.8754232752
 30
0.0
 40
1.742199999999999
100
AcDbArc
 50
89.9986903345
 51
180.0013096655
  0
ARC
  5
1F6A
330
2
100
AcDbEntity
  8
0
100
AcDbCircle
 10
695.5562589446
 20
328.9348232752
 30
0.0
 40
1.742199999999999
100
AcDbArc
 50
179.9986903345
 51
270.0013096655
  0
ARC
  5
1F6B
330
2
100
AcDbEntity
  8
0
100
AcDbCircle
 10
693.5265589446
 20
326.9051232752
 30
0.0
 40
2.049999999999998
100
AcDbArc
 50
0.0
 51
8.061960084
  0
ARC
  5
1F6C
330
2
100
AcDbEntity
  8
0
100
AcDbCircle
 10
693.5265589446
 20
326.9051232752
 30
0.0
 40
2.049999999999998
100
AcDbArc
 50
261.938039916
 51
270.0
  0
ARC
  5
1F6D
330
2
100
AcDbEntity
  8
0
100
AcDbCircle
 10
693.5265589446
 20
326.9051232752
 30
0.0
 40
2.049999999999998
100
AcDbArc
 50
270.0
 51
278.061960084
  0
ARC
  5
1F6E
330
2
100
AcDbEntity
  8
0
100
AcDbCircle
 10
693.5265589446
 20
326.9051232752
 30
0.0
 40
2.049999999999998
100
AcDbArc
 50
351.938039916
 51
0.0
  0
ARC
  5
1F6F
330
2
100
AcDbEntity
  8
0
100
AcDbCircle
 10
693.5265589446
 20
326.9051232752
 30
0.0
 40
2.049999999999998
100
AcDbArc
 50
90.0
 51
98.061960084
  0
ARC
  5
1F70
330
2
100
AcDbEntity
  8
0
100
AcDbCircle
 10
693.5265589446
 20
326.9051232752
 30
0.0
 40
2.049999999999998
100
AcDbArc
 50
81.938039916
 51
90.0
  0
LINE
  5
1F71
330
2
100
AcDbEntity
  8
0
100
AcDbLine
 10
697.5267579446
 20
326.9051232752
 30
0.0
 11
697.5267579446
 21
323.4051232752
 31
0.0
  0
LINE
  5
1F72
330
2
100
AcDbEntity
  8
0
100
AcDbLine
 10
690.0265589446
 20
371.4051232752
 30
0.0
 11
692.0267579446
 21
373.4051232752
 31
0.0
  0
LINE
  5
1F73
330
2
100
AcDbEntity
  8
0
100
AcDbLine
 10
690.0267579446
 20
371.4051232752
 30
0.0
 11
692.0267579446
 21
373.4051232752
 31
0.0
  0
LINE
  5
1F74
330
2
100
AcDbEntity
  8
0
100
AcDbLine
 10
690.0267579446
 20
371.4051232752
 30
0.0
 11
692.0267579446
 21
373.4051232752
 31
0.0
  0
LINE
  5
1F75
330
2
100
AcDbEntity
  8
0
100
AcDbLine
 10
692.4265529446
 20
372.0051292752
 30
0.0
 11
691.4265529446
 21
371.0051292752
 31
0.0
  0
LINE
  5
1F76
330
2
100
AcDbEntity
  8
0
100
AcDbLine
 10
740.0266579446
 20
325.4051232752
 30
0.0
 11
740.0266579446
 21
371.4051232752
 31
0.0
  0
LINE
  5
1F77
330
2
100
AcDbEntity
  8
0
100
AcDbLine
 10
738.6266639446
 20
325.8051322752
 30
0.0
 11
738.6266569446
 21
365.9051232752
 31
0.0
  0
LINE
  5
1F78
330
2
100
AcDbEntity
  8
0
100
AcDbLine
 10
740.0266579446
 20
325.4051232752
 30
0.0
 11
738.0266579446
 21
323.4051232752
 31
0.0
  0
LINE
  5
1F79
330
2
100
AcDbEntity
  8
0
100
AcDbLine
 10
738.6266639446
 20
325.8051322752
 30
0.0
 11
737.6266569446
 21
324.8051322752
 31
0.0
  0
LINE
  5
1F7A
330
2
100
AcDbEntity
  8
0
100
AcDbLine
 10
742.0266579446
 20
353.9051232752
 30
0.0
 11
745.5266579446
 21
350.4051232752
 31
0.0
  0
LINE
  5
1F7B
330
2
100
AcDbEntity
  8
0
100
AcDbLine
 10
745.5266579446
 20
346.4051232752
 30
0.0
 11
742.0266579446
 21
342.9051232752
 31
0.0
  0
LINE
  5
1F7C
330
2
100
AcDbEntity
  8
0
100
AcDbLine
 10
742.0266579446
 20
354.9051232752
 30
0.0
 11
742.0266579446
 21
341.9051232752
 31
0.0
  0
ARC
  5
1F7D
330
2
100
AcDbEntity
  8
0
100
AcDbCircle
 10
741.0266429446
 20
341.9051232752
 30
0.0
 40
1.0
100
AcDbArc
 50
270.0
 51
0.0
  0
LINE
  5
1F7E
330
2
100
AcDbEntity
  8
0
100
AcDbLine
 10
741.0266579446
 20
340.9051232752
 30
0.0
 11
740.0266579446
 21
340.9051232752
 31
0.0
  0
ARC
  5
1F7F
330
2
100
AcDbEntity
  8
0
100
AcDbCircle
 10
741.0266579446
 20
354.9051232752
 30
0.0
 40
1.0
100
AcDbArc
 50
0.0
 51
90.0
  0
LINE
  5
1F80
330
2
100
AcDbEntity
  8
0
100
AcDbLine
 10
741.0266579446
 20
355.9051232752
 30
0.0
 11
740.0266579446
 21
355.9051232752
 31
0.0
  0
LINE
  5
1F81
330
2
100
AcDbEntity
  8
0
100
AcDbLine
 10
745.5266579446
 20
346.4051232752
 30
0.0
 11
745.5266579446
 21
350.4051232752
 31
0.0
  0
ARC
  5
1F82
330
2
100
AcDbEntity
  8
0
100
AcDbCircle
 10
734.4969279446
 20
367.8754232752
 30
0.0
 40
1.742199999999999
100
AcDbArc
 50
359.9986903345
 51
90.0013096655
  0
ARC
  5
1F83
330
2
100
AcDbEntity
  8
0
100
AcDbCircle
 10
734.4969279446
 20
371.9348232752
 30
0.0
 40
1.742199999999999
100
AcDbArc
 50
269.9986903345
 51
0.0013096655
  0
CIRCLE
  5
1F84
330
2
100
AcDbEntity
  8
0
100
AcDbCircle
 10
736.5266279446
 20
369.9051232752
 30
0.0
 40
3.500000000000028
  0
ARC
  5
1F85
330
2
100
AcDbEntity
  8
0
100
AcDbCircle
 10
736.5266279446
 20
369.9051232752
 30
0.0
 40
4.0
100
AcDbArc
 50
180.0
 51
270.0
  0
ARC
  5
1F86
330
2
100
AcDbEntity
  8
0
100
AcDbCircle
 10
736.5266279446
 20
369.9051232752
 30
0.0
 40
2.049999999999998
100
AcDbArc
 50
171.938039916
 51
180.0
  0
ARC
  5
1F87
330
2
100
AcDbEntity
  8
0
100
AcDbCircle
 10
736.5266279446
 20
369.9051232752
 30
0.0
 40
2.049999999999998
100
AcDbArc
 50
180.0
 51
188.061960084
  0
LINE
  5
1F88
330
2
100
AcDbEntity
  8
0
100
AcDbLine
 10
732.5266579446
 20
369.9051232752
 30
0.0
 11
732.5266579446
 21
373.4049242752
 31
0.0
  0
ARC
  5
1F89
330
2
100
AcDbEntity
  8
0
100
AcDbCircle
 10
738.5563279446
 20
367.8754232752
 30
0.0
 40
1.742199999999999
100
AcDbArc
 50
89.9986903345
 51
180.0013096655
  0
LINE
  5
1F8A
330
2
100
AcDbEntity
  8
0
100
AcDbLine
 10
736.5266279446
 20
365.9051232752
 30
0.0
 11
740.0266279446
 21
365.9051232752
 31
0.0
  0
ARC
  5
1F8B
330
2
100
AcDbEntity
  8
0
100
AcDbCircle
 10
736.5266279446
 20
369.9051232752
 30
0.0
 40
2.049999999999998
100
AcDbArc
 50
261.938039916
 51
270.0
  0
ARC
  5
1F8C
330
2
100
AcDbEntity
  8
0
100
AcDbCircle
 10
736.5266279446
 20
369.9051232752
 30
0.0
 40
2.049999999999998
100
AcDbArc
 50
270.0
 51
278.061960084
  0
LINE
  5
1F8D
330
2
100
AcDbEntity
  8
0
100
AcDbLine
 10
740.0266579446
 20
371.4051232752
 30
0.0
 11
738.0266579446
 21
373.4051232752
 31
0.0
  0
LINE
  5
1F8E
330
2
100
AcDbEntity
  8
0
100
AcDbLine
 10
740.0266579446
 20
371.4051232752
 30
0.0
 11
738.0266579446
 21
373.4051232752
 31
0.0
  0
ARC
  5
1F8F
330
2
100
AcDbEntity
  8
0
100
AcDbCircle
 10
738.5563279446
 20
371.9348232752
 30
0.0
 40
1.742199999999999
100
AcDbArc
 50
179.9986903345
 51
270.0013096655
  0
ARC
  5
1F90
330
2
100
AcDbEntity
  8
0
100
AcDbCircle
 10
736.5266279446
 20
369.9051232752
 30
0.0
 40
2.049999999999998
100
AcDbArc
 50
0.0
 51
8.061960084
  0
ARC
  5
1F91
330
2
100
AcDbEntity
  8
0
100
AcDbCircle
 10
736.5266279446
 20
369.9051232752
 30
0.0
 40
2.049999999999998
100
AcDbArc
 50
351.938039916
 51
0.0
  0
ARC
  5
1F92
330
2
100
AcDbEntity
  8
0
100
AcDbCircle
 10
736.5266279446
 20
369.9051232752
 30
0.0
 40
2.049999999999998
100
AcDbArc
 50
90.0
 51
98.061960084
  0
ARC
  5
1F93
330
2
100
AcDbEntity
  8
0
100
AcDbCircle
 10
736.5266279446
 20
369.9051232752
 30
0.0
 40
2.049999999999998
100
AcDbArc
 50
81.938039916
 51
90.0
  0
LINE
  5
2012
330
2
100
AcDbEntity
  8
0
100
AcDbLine
 10
740.5266579446
 20
340.9051232752
 30
0.0
 11
740.5266579446
 21
308.4051232752
 31
0.0
  0
TEXT
  5
20CD
330
2
100
AcDbEntity
  8
TITLE_C
100
AcDbText
 10
154.1899975534
 20
10.9401191694
 30
0.0
 40
5.0
  1
F2F15T010～240-CSBL15NT
100
AcDbText
  0
TEXT
  5
20CE
330
2
100
AcDbEntity
  8
TITLE_C
100
AcDbText
 10
32.953138986
 20
-5.9991175921
 30
0.0
 40
5.0
  1
F2F15T010～240-CTBL15WT
100
AcDbText
  0
TEXT
  5
20CF
330
2
100
AcDbEntity
  8
TITLE_C
100
AcDbText
 10
32.953138986
 20
-24.0277901581
 30
0.0
 40
5.0
  1
F2F15T010～240-CTBL25NTX
100
AcDbText
  0
TEXT
  5
20D0
330
2
100
AcDbEntity
  8
TITLE_C
100
AcDbText
 10
32.953138986
 20
-33.0277901581
 30
0.0
 40
5.0
  1
F2F15T010～240-CTBL25WT
100
AcDbText
  0
TEXT
  5
20D2
330
2
100
AcDbEntity
  8
TITLE_C
100
AcDbText
 10
32.953138986
 20
3.0008824079
 30
0.0
 40
5.0
  1
F2F15T010～240-CTBL15NTX
100
AcDbText
  0
TEXT
  5
2FDA
330
2
100
AcDbEntity
  8
TITLE_C
100
AcDbText
 10
32.953138986
 20
10.5392754073
 30
0.0
 40
5.0
  1
F2F15T010～240-CTBL15NT
100
AcDbText
  0
TEXT
  5
2FDB
330
2
100
AcDbEntity
  8
TITLE_C
100
AcDbText
 10
32.953138986
 20
-14.4192943761
 30
0.0
 40
5.0
  1
F2F15T010～240-CTBL25NT
100
AcDbText
  0
TEXT
  5
329C
330
2
100
AcDbEntity
  8
TITLE_C
100
AcDbText
 10
154.1305440977
 20
-5.5900592203
 30
0.0
 40
5.0
  1
F2F15T010～240-CSBL15WT
100
AcDbText
  0
TEXT
  5
329D
330
2
100
AcDbEntity
  8
TITLE_C
100
AcDbText
 10
154.1305440977
 20
-23.6187317863
 30
0.0
 40
5.0
  1
F2F15T010～240-CSBL25STX
100
AcDbText
  0
TEXT
  5
329E
330
2
100
AcDbEntity
  8
TITLE_C
100
AcDbText
 10
154.1305440977
 20
-32.6187317863
 30
0.0
 40
5.0
  1
F2F15T010～240-CSBL25WT
100
AcDbText
  0
TEXT
  5
329F
330
2
100
AcDbEntity
  8
TITLE_C
100
AcDbText
 10
154.1305440977
 20
3.4099407797
 30
0.0
 40
5.0
  1
F2F15T010～240-CSBL15WTX
100
AcDbText
  0
TEXT
  5
32A0
330
2
100
AcDbEntity
  8
TITLE_C
100
AcDbText
 10
154.1305440977
 20
-14.0102360043
 30
0.0
 40
5.0
  1
F2F15T010～240-CSBL25NT
100
AcDbText
  0
LINE
  5
360B
330
2
100
AcDbEntity
  8
0
100
AcDbLine
 10
368.9711769446
 20
121.0849751742
 30
0.0
 11
437.4711769446
 21
121.0849751742
 31
0.0
  0
LINE
  5
360C
330
2
100
AcDbEntity
  8
0
100
AcDbLine
 10
368.9711769446
 20
114.6849751742
 30
0.0
 11
437.4711769446
 21
114.6849751742
 31
0.0
  0
LINE
  5
360D
330
2
100
AcDbEntity
  8
HIDS
100
AcDbLine
 10
368.9711769446
 20
188.0849751742
 30
0.0
 11
437.4711769446
 21
188.0849751742
 31
0.0
  0
LINE
  5
360E
330
2
100
AcDbEntity
  8
HIDS
100
AcDbLine
 10
368.9711769446
 20
181.6849751742
 30
0.0
 11
437.4711769446
 21
181.6849751742
 31
0.0
  0
LINE
  5
3631
330
2
100
AcDbEntity
  8
HIDS
100
AcDbLine
 10
568.1711769446
 20
376.4051232752
 30
0.0
 11
568.1711769446
 21
307.9051232752
 31
0.0
  0
LINE
  5
3632
330
2
100
AcDbEntity
  8
HIDS
100
AcDbLine
 10
561.7711769446
 20
376.4051232752
 30
0.0
 11
561.7711769446
 21
307.9051232752
 31
0.0
  0
LINE
  5
3633
330
2
100
AcDbEntity
  8
HIDS
100
AcDbLine
 10
654.1711769446
 20
376.4051232752
 30
0.0
 11
654.1711769446
 21
307.9051232752
 31
0.0
  0
LINE
  5
3634
330
2
100
AcDbEntity
  8
HIDS
100
AcDbLine
 10
647.7711769446
 20
376.4051232752
 30
0.0
 11
647.7711769446
 21
307.9051232752
 31
0.0
  0
ENDSEC
  0
SECTION
  2
OBJECTS
  0
DICTIONARY
  5
7
330
0
100
AcDbDictionary
281
     1
  3
ACAD_CIP_PREVIOUS_PRODUCT_INFO
350
328B
  3
ACAD_COLOR
350
2085
  3
ACAD_DETAILVIEWSTYLE
350
3287
  3
ACAD_GROUP
350
75
  3
ACAD_LAYOUT
350
61
  3
ACAD_MATERIAL
350
2058
  3
ACAD_MLEADERSTYLE
350
20AA
  3
ACAD_MLINESTYLE
350
76
  3
ACAD_PLOTSETTINGS
350
77
  3
ACAD_PLOTSTYLENAME
350
6
  3
ACAD_SCALELIST
350
2088
  3
ACAD_SECTIONVIEWSTYLE
350
3285
  3
ACAD_TABLESTYLE
350
2086
  3
ACAD_VISUALSTYLE
350
2071
  3
AcadDim
350
480
  3
ACDB_RECOMPOSE_DATA
350
38BD
  3
AcDbVariableDictionary
350
102
  3
DWGPROPS
350
38BE
  0
DICTIONARY
  5
230E
330
6E
100
AcDbDictionary
280
     1
281
     1
  0
DICTIONARY
  5
20B1
330
66
100
AcDbDictionary
280
     1
281
     1
  3
ACAD_LAYERSTATES
360
20B2
  0
DICTIONARY
  5
22F7
330
5E
100
AcDbDictionary
280
     1
281
     1
  3
ADSK_XREC_LAYER_RECONCILED
360
22F8
  0
DICTIONARY
  5
22F9
330
3E
100
AcDbDictionary
280
     1
281
     1
  3
ADSK_XREC_LAYER_RECONCILED
360
22FA
  0
DICTIONARY
  5
22FF
330
2B5
100
AcDbDictionary
280
     1
281
     1
  3
ADSK_XREC_LAYER_RECONCILED
360
2300
  0
DICTIONARY
  5
2301
330
2BA
100
AcDbDictionary
280
     1
281
     1
  3
ADSK_XREC_LAYER_RECONCILED
360
2302
  0
DICTIONARY
  5
2305
330
3FA
100
AcDbDictionary
280
     1
281
     1
  3
ADSK_XREC_LAYER_RECONCILED
360
2306
  0
DICTIONARY
  5
20AF
330
20AE
100
AcDbDictionary
280
     1
281
     1
  3
ADSK_XREC_LAYER_RECONCILED
360
2307
  0
XRECORD
  5
328B
102
{ACAD_REACTORS
330
7
102
}
330
7
100
AcDbXrecord
280
     1
300
ACD
300
2020
300
87224ACD_2020_0F
  0
DICTIONARY
  5
2085
102
{ACAD_REACTORS
330
7
102
}
330
7
100
AcDbDictionary
281
     1
  0
DICTIONARY
  5
3287
102
{ACAD_REACTORS
330
7
102
}
330
7
100
AcDbDictionary
281
     1
  3
Imperial24
350
3288
  0
DICTIONARY
  5
75
102
{ACAD_REACTORS
330
7
102
}
330
7
100
AcDbDictionary
281
     1
  0
DICTIONARY
  5
61
102
{ACAD_REACTORS
330
7
102
}
330
7
100
AcDbDictionary
281
     1
  3
Model
350
60
  3
レイアウト1
350
38B7
  0
DICTIONARY
  5
2058
102
{ACAD_REACTORS
330
7
102
}
330
7
100
AcDbDictionary
281
     1
  3
ByBlock
350
2061
  3
ByLayer
350
2059
  3
Global
350
2069
  0
DICTIONARY
  5
20AA
102
{ACAD_REACTORS
330
7
102
}
330
7
100
AcDbDictionary
281
     1
  3
Standard
350
20AB
  0
DICTIONARY
  5
76
102
{ACAD_REACTORS
330
7
102
}
330
7
100
AcDbDictionary
281
     1
  3
STANDARD
350
78
  0
DICTIONARY
  5
77
102
{ACAD_REACTORS
330
7
102
}
330
7
100
AcDbDictionary
281
     1
  0
ACDBDICTIONARYWDFLT
  5
6
102
{ACAD_REACTORS
330
7
102
}
330
7
100
AcDbDictionary
281
     1
  3
Normal
350
5
100
AcDbDictionaryWithDefault
340
5
  0
DICTIONARY
  5
2088
102
{ACAD_REACTORS
330
7
102
}
330
7
100
AcDbDictionary
281
     1
  3
A0
350
2089
  3
A1
350
208A
  3
A2
350
208B
  3
A3
350
208C
  3
A4
350
208D
  3
A5
350
208E
  3
A6
350
208F
  3
A7
350
2090
  3
A8
350
2091
  3
A9
350
2092
  3
B0
350
2093
  3
B1
350
2094
  3
B2
350
2095
  3
B3
350
2096
  3
B4
350
2097
  3
B5
350
2098
  3
B6
350
2099
  3
B7
350
209A
  3
B8
350
209B
  3
B9
350
209C
  3
C0
350
209D
  3
C1
350
209E
  3
C2
350
209F
  3
C3
350
20A0
  3
C4
350
20A1
  3
C5
350
20A2
  3
C6
350
20A3
  3
C7
350
20A4
  3
C8
350
20A5
  3
C9
350
20A6
  3
D0
350
20A7
  3
D1
350
20A8
  3
D2
350
20A9
  0
DICTIONARY
  5
3285
102
{ACAD_REACTORS
330
7
102
}
330
7
100
AcDbDictionary
281
     1
  3
Imperial24
350
3286
  0
DICTIONARY
  5
2086
102
{ACAD_REACTORS
330
7
102
}
330
7
100
AcDbDictionary
281
     1
  3
Standard
350
2087
  0
DICTIONARY
  5
2071
102
{ACAD_REACTORS
330
7
102
}
330
7
100
AcDbDictionary
281
     1
  3
2dWireframe
350
2077
  3
3D Hidden
350
2079
  3
3dWireframe
350
2078
  3
Basic
350
2076
  3
Brighten
350
207D
  3
ColorChange
350
2081
  3
Conceptual
350
207A
  3
Dim
350
207C
  3
EdgeColorOff
350
2084
  3
Facepattern
350
2080
  3
Flat
350
2072
  3
FlatWithEdges
350
2073
  3
Gouraud
350
2074
  3
GouraudWithEdges
350
2075
  3
Hidden
350
327F
  3
JitterOff
350
2082
  3
Linepattern
350
207F
  3
OverhangOff
350
2083
  3
Realistic
350
207B
  3
Shaded
350
3284
  3
Shaded with edges
350
3283
  3
Shades of Gray
350
3280
  3
Sketchy
350
3281
  3
Thicken
350
207E
  3
Wireframe
350
327E
  3
X-Ray
350
3282
  0
XRECORD
  5
480
102
{ACAD_REACTORS
330
7
102
}
330
7
100
AcDbXrecord
280
     1
 90
   990106
  3

 60
     0
 61
     0
 62
     1
 63
     3
 64
     1
 65
     0
 66
     0
 67
     3
 68
     1
 69
     0
 70
     0
 71
     0
 72
     0
 40
0.0
170
     2
340
0
  0
XRECORD
  5
38BD
102
{ACAD_REACTORS
330
7
102
}
330
7
100
AcDbXrecord
280
     1
 90
        1
330
2087
  0
DICTIONARY
  5
102
102
{ACAD_REACTORS
330
7
102
}
330
7
100
AcDbDictionary
281
     1
  3
CANNOSCALE
350
23A7
  3
CMLEADERSTYLE
350
23A6
  3
CTABLESTYLE
350
23A5
  3
CVIEWDETAILSTYLE
350
328D
  3
CVIEWSECTIONSTYLE
350
328E
  3
DIMASSOC
350
103
  3
INDEXCTL
350
23A9
  3
LAYEREVAL
350
3291
  3
LAYERNOTIFY
350
3292
  3
LIGHTINGUNITS
350
3290
  3
MSLTSCALE
350
328F
  3
SORTENTS
350
23A8
  3
XCLIPFRAME
350
38BB
  0
XRECORD
  5
38BE
102
{ACAD_REACTORS
330
7
102
}
330
7
100
AcDbXrecord
280
     1
  1
DWGPROPS COOKIE
  2

  3

  4

  6

  7

  8
ykitaga
  9

300
=
301
=
302
=
303
=
304
=
305
=
306
=
307
=
308
=
309
=
 40
0.5645728588
 41
2453557.751273149
 42
2460164.363680556
  1

 90
        0
  0
DICTIONARY
  5
20B2
102
{ACAD_REACTORS
330
20B1
102
}
330
20B1
100
AcDbDictionary
281
     1
  0
XRECORD
  5
22F8
102
{ACAD_REACTORS
330
22F7
102
}
330
22F7
100
AcDbXrecord
280
     1
290
     1
  0
XRECORD
  5
22FA
102
{ACAD_REACTORS
330
22F9
102
}
330
22F9
100
AcDbXrecord
280
     1
290
     1
  0
XRECORD
  5
2300
102
{ACAD_REACTORS
330
22FF
102
}
330
22FF
100
AcDbXrecord
280
     1
290
     1
  0
XRECORD
  5
2302
102
{ACAD_REACTORS
330
2301
102
}
330
2301
100
AcDbXrecord
280
     1
290
     1
  0
XRECORD
  5
2306
102
{ACAD_REACTORS
330
2305
102
}
330
2305
100
AcDbXrecord
280
     1
290
     1
  0
XRECORD
  5
2307
102
{ACAD_REACTORS
330
20AF
102
}
330
20AF
100
AcDbXrecord
280
     1
290
     1
  0
ACDBDETAILVIEWSTYLE
  5
3288
102
{ACAD_XDICTIONARY
360
391B
102
}
102
{ACAD_REACTORS
330
3287
102
}
330
3287
100
AcDbModelDocViewStyle
 70
     0
  3
Imperial24
290
     0
100
AcDbDetailViewStyle
 70
     0
 71
     0
 90
        3
 71
     1
340
16
 40
0.24
340
0
 40
0.24
300

 40
0.36
280
     3
 71
     2
340
8
 90
       25
 71
     3
340
16
 40
0.24
 90
        1
 40
0.75
 90
        1
300
%<\AcVar ViewType \f "%tc1">% %<\AcVar ViewDetailId>%\PSCALE %<\AcVar ViewScale \f "%sn">%
 71
     4
340
8
 90
       25
340
8
 90
       25
280
     0
  0
LAYOUT
  5
60
102
{ACAD_XDICTIONARY
360
38BF
102
}
102
{ACAD_REACTORS
330
61
102
}
330
61
100
AcDbPlotSettings
  1

  2
Canon LBP-1420
  4
A4
  6

 40
5.873749733
 41
5.8737478256
 42
5.8737487793
 43
5.8737487793
 44
209.9733276367
 45
296.925994873
 46
0.0
 47
5.37
 48
0.0
 49
0.0
140
0.0
141
0.0
142
1.0
143
0.088099941
 70
 11956
 72
     1
 73
     1
 74
     1
  7
Sekkei.ctb
 75
     0
147
11.3507453947
148
-88.9740150773
149
-101.3630682339
100
AcDbLayout
  1
Model
 70
     1
 71
     0
 10
0.0
 20
0.0
 11
12.0
 21
9.0
 12
0.0
 22
0.0
 32
0.0
 14
0.0
 24
0.0
 34
0.0
 15
0.0
 25
0.0
 35
0.0
146
0.0
 13
0.0
 23
0.0
 33
0.0
 16
1.0
 26
0.0
 36
0.0
 17
0.0
 27
1.0
 37
0.0
 76
     0
330
2
331
2056
  0
LAYOUT
  5
38B7
102
{ACAD_XDICTIONARY
360
392D
102
}
102
{ACAD_REACTORS
330
61
102
}
330
61
100
AcDbPlotSettings
  1

  2
LBP8610
  4

  6

 40
0.0
 41
0.0
 42
0.0
 43
0.0
 44
0.0
 45
0.0
 46
0.0
 47
0.0
 48
0.0
 49
0.0
140
0.0
141
0.0
142
1.0
143
1.0
 70
   688
 72
     0
 73
     0
 74
     5
  7

 75
    16
147
1.0
148
0.0
149
0.0
100
AcDbLayout
  1
レイアウト1
 70
     1
 71
     1
 10
0.0
 20
0.0
 11
12.0
 21
9.0
 12
0.0
 22
0.0
 32
0.0
 14
0.0
 24
0.0
 34
0.0
 15
0.0
 25
0.0
 35
0.0
146
0.0
 13
0.0
 23
0.0
 33
0.0
 16
1.0
 26
0.0
 36
0.0
 17
0.0
 27
1.0
 37
0.0
 76
     0
330
38B6
  0
MATERIAL
  5
2061
102
{ACAD_XDICTIONARY
360
2062
102
}
102
{ACAD_REACTORS
330
2058
102
}
330
2058
100
AcDbMaterial
  1
ByBlock
 72
     0
 43
0.0208333333
 43
0.0
 43
0.0
 43
0.0
 43
0.0
 43
0.0208333333
 43
0.0
 43
0.0
 43
0.0
 43
0.0
 43
1.0
 43
0.0
 43
0.0
 43
0.0
 43
0.0
 43
1.0
 77
     0
 47
0.0208333333
 47
0.0
 47
0.0
 47
0.0
 47
0.0
 47
0.0208333333
 47
0.0
 47
0.0
 47
0.0
 47
0.0
 47
1.0
 47
0.0
 47
0.0
 47
0.0
 47
0.0
 47
1.0
171
     0
 49
0.0208333333
 49
0.0
 49
0.0
 49
0.0
 49
0.0
 49
0.0208333333
 49
0.0
 49
0.0
 49
0.0
 49
0.0
 49
1.0
 49
0.0
 49
0.0
 49
0.0
 49
0.0
 49
1.0
175
     0
142
0.0208333333
142
0.0
142
0.0
142
0.0
142
0.0
142
0.0208333333
142
0.0
142
0.0
142
0.0
142
0.0
142
1.0
142
0.0
142
0.0
142
0.0
142
0.0
142
1.0
179
     0
144
0.0208333333
144
0.0
144
0.0
144
0.0
144
0.0
144
0.0208333333
144
0.0
144
0.0
144
0.0
144
0.0
144
1.0
144
0.0
144
0.0
144
0.0
144
0.0
144
1.0
147
0.0208333333
147
0.0
147
0.0
147
0.0
147
0.0
147
0.0208333333
147
0.0
147
0.0
147
0.0
147
0.0
147
1.0
147
0.0
147
0.0
147
0.0
147
0.0
147
1.0
  0
MATERIAL
  5
2059
102
{ACAD_XDICTIONARY
360
205A
102
}
102
{ACAD_REACTORS
330
2058
102
}
330
2058
100
AcDbMaterial
  1
ByLayer
 72
     0
 43
0.0208333333
 43
0.0
 43
0.0
 43
0.0
 43
0.0
 43
0.0208333333
 43
0.0
 43
0.0
 43
0.0
 43
0.0
 43
1.0
 43
0.0
 43
0.0
 43
0.0
 43
0.0
 43
1.0
 77
     0
 47
0.0208333333
 47
0.0
 47
0.0
 47
0.0
 47
0.0
 47
0.0208333333
 47
0.0
 47
0.0
 47
0.0
 47
0.0
 47
1.0
 47
0.0
 47
0.0
 47
0.0
 47
0.0
 47
1.0
171
     0
 49
0.0208333333
 49
0.0
 49
0.0
 49
0.0
 49
0.0
 49
0.0208333333
 49
0.0
 49
0.0
 49
0.0
 49
0.0
 49
1.0
 49
0.0
 49
0.0
 49
0.0
 49
0.0
 49
1.0
175
     0
142
0.0208333333
142
0.0
142
0.0
142
0.0
142
0.0
142
0.0208333333
142
0.0
142
0.0
142
0.0
142
0.0
142
1.0
142
0.0
142
0.0
142
0.0
142
0.0
142
1.0
179
     0
144
0.0208333333
144
0.0
144
0.0
144
0.0
144
0.0
144
0.0208333333
144
0.0
144
0.0
144
0.0
144
0.0
144
1.0
144
0.0
144
0.0
144
0.0
144
0.0
144
1.0
147
0.0208333333
147
0.0
147
0.0
147
0.0
147
0.0
147
0.0208333333
147
0.0
147
0.0
147
0.0
147
0.0
147
1.0
147
0.0
147
0.0
147
0.0
147
0.0
147
1.0
  0
MATERIAL
  5
2069
102
{ACAD_XDICTIONARY
360
206A
102
}
102
{ACAD_REACTORS
330
2058
102
}
330
2058
100
AcDbMaterial
  1
Global
 72
     0
 43
0.0208333333
 43
0.0
 43
0.0
 43
0.0
 43
0.0
 43
0.0208333333
 43
0.0
 43
0.0
 43
0.0
 43
0.0
 43
1.0
 43
0.0
 43
0.0
 43
0.0
 43
0.0
 43
1.0
 77
     0
 47
0.0208333333
 47
0.0
 47
0.0
 47
0.0
 47
0.0
 47
0.0208333333
 47
0.0
 47
0.0
 47
0.0
 47
0.0
 47
1.0
 47
0.0
 47
0.0
 47
0.0
 47
0.0
 47
1.0
171
     0
 49
0.0208333333
 49
0.0
 49
0.0
 49
0.0
 49
0.0
 49
0.0208333333
 49
0.0
 49
0.0
 49
0.0
 49
0.0
 49
1.0
 49
0.0
 49
0.0
 49
0.0
 49
0.0
 49
1.0
175
     0
142
0.0208333333
142
0.0
142
0.0
142
0.0
142
0.0
142
0.0208333333
142
0.0
142
0.0
142
0.0
142
0.0
142
1.0
142
0.0
142
0.0
142
0.0
142
0.0
142
1.0
179
     0
144
0.0208333333
144
0.0
144
0.0
144
0.0
144
0.0
144
0.0208333333
144
0.0
144
0.0
144
0.0
144
0.0
144
1.0
144
0.0
144
0.0
144
0.0
144
0.0
144
1.0
147
0.0208333333
147
0.0
147
0.0
147
0.0
147
0.0
147
0.0208333333
147
0.0
147
0.0
147
0.0
147
0.0
147
1.0
147
0.0
147
0.0
147
0.0
147
0.0
147
1.0
  0
MLEADERSTYLE
  5
20AB
102
{ACAD_REACTORS
330
20AA
102
}
330
20AA
100
AcDbMLeaderStyle
170
     2
171
     1
172
     0
 90
        2
 40
0.0
 41
0.0
173
     1
 91
-1056964608
340
6A
 92
       -2
290
     1
 42
0.09
291
     1
 43
0.36
  3
Standard
 44
0.18
300

342
16
174
     1
178
     6
175
     1
176
     0
 93
-1056964608
 45
0.18
292
     0
297
     0
 46
0.18
 94
-1056964608
 47
1.0
 49
1.0
140
1.0
293
     1
141
0.0
294
     1
177
     0
142
1.0
295
     0
296
     0
143
0.125
1001
ACAD_MLEADERVER
1070
     2
  0
MLINESTYLE
  5
78
102
{ACAD_REACTORS
330
76
102
}
330
76
100
AcDbMlineStyle
  2
STANDARD
 70
     0
  3

 62
     0
 51
90.0
 52
90.0
 71
     2
 49
0.5
 62
   256
  6
BYLAYER
 49
-0.5
 62
   256
  6
BYLAYER
  0
ACDBPLACEHOLDER
  5
5
102
{ACAD_REACTORS
330
6
102
}
330
6
  0
SCALE
  5
2089
102
{ACAD_REACTORS
330
2088
102
}
330
2088
100
AcDbScale
 70
     0
300
1:1
140
1.0
141
1.0
290
     1
  0
SCALE
  5
208A
102
{ACAD_REACTORS
330
2088
102
}
330
2088
100
AcDbScale
 70
     0
300
1:2
140
1.0
141
2.0
290
     0
  0
SCALE
  5
208B
102
{ACAD_REACTORS
330
2088
102
}
330
2088
100
AcDbScale
 70
     0
300
1:4
140
1.0
141
4.0
290
     0
  0
SCALE
  5
208C
102
{ACAD_REACTORS
330
2088
102
}
330
2088
100
AcDbScale
 70
     0
300
1:5
140
1.0
141
5.0
290
     0
  0
SCALE
  5
208D
102
{ACAD_REACTORS
330
2088
102
}
330
2088
100
AcDbScale
 70
     0
300
1:8
140
1.0
141
8.0
290
     0
  0
SCALE
  5
208E
102
{ACAD_REACTORS
330
2088
102
}
330
2088
100
AcDbScale
 70
     0
300
1:10
140
1.0
141
10.0
290
     0
  0
SCALE
  5
208F
102
{ACAD_REACTORS
330
2088
102
}
330
2088
100
AcDbScale
 70
     0
300
1:16
140
1.0
141
16.0
290
     0
  0
SCALE
  5
2090
102
{ACAD_REACTORS
330
2088
102
}
330
2088
100
AcDbScale
 70
     0
300
1:20
140
1.0
141
20.0
290
     0
  0
SCALE
  5
2091
102
{ACAD_REACTORS
330
2088
102
}
330
2088
100
AcDbScale
 70
     0
300
1:30
140
1.0
141
30.0
290
     0
  0
SCALE
  5
2092
102
{ACAD_REACTORS
330
2088
102
}
330
2088
100
AcDbScale
 70
     0
300
1:40
140
1.0
141
40.0
290
     0
  0
SCALE
  5
2093
102
{ACAD_REACTORS
330
2088
102
}
330
2088
100
AcDbScale
 70
     0
300
1:50
140
1.0
141
50.0
290
     0
  0
SCALE
  5
2094
102
{ACAD_REACTORS
330
2088
102
}
330
2088
100
AcDbScale
 70
     0
300
1:100
140
1.0
141
100.0
290
     0
  0
SCALE
  5
2095
102
{ACAD_REACTORS
330
2088
102
}
330
2088
100
AcDbScale
 70
     0
300
2:1
140
2.0
141
1.0
290
     0
  0
SCALE
  5
2096
102
{ACAD_REACTORS
330
2088
102
}
330
2088
100
AcDbScale
 70
     0
300
4:1
140
4.0
141
1.0
290
     0
  0
SCALE
  5
2097
102
{ACAD_REACTORS
330
2088
102
}
330
2088
100
AcDbScale
 70
     0
300
8:1
140
8.0
141
1.0
290
     0
  0
SCALE
  5
2098
102
{ACAD_REACTORS
330
2088
102
}
330
2088
100
AcDbScale
 70
     0
300
10:1
140
10.0
141
1.0
290
     0
  0
SCALE
  5
2099
102
{ACAD_REACTORS
330
2088
102
}
330
2088
100
AcDbScale
 70
     0
300
100:1
140
100.0
141
1.0
290
     0
  0
SCALE
  5
209A
102
{ACAD_REACTORS
330
2088
102
}
330
2088
100
AcDbScale
 70
     0
300
1/128" = 1'-0"
140
0.0078125
141
12.0
290
     0
  0
SCALE
  5
209B
102
{ACAD_REACTORS
330
2088
102
}
330
2088
100
AcDbScale
 70
     0
300
1/64" = 1'-0"
140
0.015625
141
12.0
290
     0
  0
SCALE
  5
209C
102
{ACAD_REACTORS
330
2088
102
}
330
2088
100
AcDbScale
 70
     0
300
1/32" = 1'-0"
140
0.03125
141
12.0
290
     0
  0
SCALE
  5
209D
102
{ACAD_REACTORS
330
2088
102
}
330
2088
100
AcDbScale
 70
     0
300
1/16" = 1'-0"
140
0.0625
141
12.0
290
     0
  0
SCALE
  5
209E
102
{ACAD_REACTORS
330
2088
102
}
330
2088
100
AcDbScale
 70
     0
300
3/32" = 1'-0"
140
0.09375
141
12.0
290
     0
  0
SCALE
  5
209F
102
{ACAD_REACTORS
330
2088
102
}
330
2088
100
AcDbScale
 70
     0
300
1/8" = 1'-0"
140
0.125
141
12.0
290
     0
  0
SCALE
  5
20A0
102
{ACAD_REACTORS
330
2088
102
}
330
2088
100
AcDbScale
 70
     0
300
3/16" = 1'-0"
140
0.1875
141
12.0
290
     0
  0
SCALE
  5
20A1
102
{ACAD_REACTORS
330
2088
102
}
330
2088
100
AcDbScale
 70
     0
300
1/4" = 1'-0"
140
0.25
141
12.0
290
     0
  0
SCALE
  5
20A2
102
{ACAD_REACTORS
330
2088
102
}
330
2088
100
AcDbScale
 70
     0
300
3/8" = 1'-0"
140
0.375
141
12.0
290
     0
  0
SCALE
  5
20A3
102
{ACAD_REACTORS
330
2088
102
}
330
2088
100
AcDbScale
 70
     0
300
1/2" = 1'-0"
140
0.5
141
12.0
290
     0
  0
SCALE
  5
20A4
102
{ACAD_REACTORS
330
2088
102
}
330
2088
100
AcDbScale
 70
     0
300
3/4" = 1'-0"
140
0.75
141
12.0
290
     0
  0
SCALE
  5
20A5
102
{ACAD_REACTORS
330
2088
102
}
330
2088
100
AcDbScale
 70
     0
300
1" = 1'-0"
140
1.0
141
12.0
290
     0
  0
SCALE
  5
20A6
102
{ACAD_REACTORS
330
2088
102
}
330
2088
100
AcDbScale
 70
     0
300
1-1/2" = 1'-0"
140
1.5
141
12.0
290
     0
  0
SCALE
  5
20A7
102
{ACAD_REACTORS
330
2088
102
}
330
2088
100
AcDbScale
 70
     0
300
3" = 1'-0"
140
3.0
141
12.0
290
     0
  0
SCALE
  5
20A8
102
{ACAD_REACTORS
330
2088
102
}
330
2088
100
AcDbScale
 70
     0
300
6" = 1'-0"
140
6.0
141
12.0
290
     0
  0
SCALE
  5
20A9
102
{ACAD_REACTORS
330
2088
102
}
330
2088
100
AcDbScale
 70
     0
300
1'-0" = 1'-0"
140
12.0
141
12.0
290
     0
  0
ACDBSECTIONVIEWSTYLE
  5
3286
102
{ACAD_XDICTIONARY
360
3919
102
}
102
{ACAD_REACTORS
330
3285
102
}
330
3285
100
AcDbModelDocViewStyle
 70
     0
  3
Imperial24
290
     0
100
AcDbSectionViewStyle
 70
     0
 71
     0
 90
       78
 71
     1
340
16
 40
0.24
340
0
340
0
 40
0.24
300
I, O, Q, S, X, Z
 40
0.48
 90
        3
 40
0.18
 90
        1
 71
     2
340
8
 90
       25
340
8
 90
       50
 40
0.24
 40
0.0
 40
0.24
 71
     3
340
16
 40
0.24
 90
        1
 40
0.75
 90
        1
300
%<\AcVar ViewType \f "%tc1">% %<\AcVar ViewSectionStartId>%-%<\AcVar ViewSectionEndId>%\PSCALE %<\AcVar ViewScale \f "%sn">%
 71
     4
300
ANSI31
 40
1.0
 90
        0
290
     0
290
     0
 90
        6
 40
0.0
 40
1.5707963268
 40
0.2617993878
 40
1.308996939
 40
-0.2617993878
 40
1.8325957146
  0
TABLESTYLE
  5
2087
102
{ACAD_XDICTIONARY
360
2308
102
}
102
{ACAD_REACTORS
330
2086
102
}
330
2086
100
AcDbTableStyle
  3
Standard
 70
     0
 71
     0
 40
0.06
 41
0.06
280
     0
281
     0
  7
STANDARD
140
0.18
170
     2
 62
     0
 63
     7
283
     0
274
    -2
284
     1
 64
     0
275
    -2
285
     1
 65
     0
276
    -2
286
     1
 66
     0
277
    -2
287
     1
 67
     0
278
    -2
288
     1
 68
     0
279
    -2
289
     1
 69
     0
  7
STANDARD
140
0.25
170
     5
 62
     0
 63
     7
283
     0
274
    -2
284
     1
 64
     0
275
    -2
285
     1
 65
     0
276
    -2
286
     1
 66
     0
277
    -2
287
     1
 67
     0
278
    -2
288
     1
 68
     0
279
    -2
289
     1
 69
     0
  7
STANDARD
140
0.18
170
     5
 62
     0
 63
     7
283
     0
274
    -2
284
     1
 64
     0
275
    -2
285
     1
 65
     0
276
    -2
286
     1
 66
     0
277
    -2
287
     1
 67
     0
278
    -2
288
     1
 68
     0
279
    -2
289
     1
 69
     0
  0
VISUALSTYLE
  5
2077
102
{ACAD_XDICTIONARY
360
38CE
102
}
102
{ACAD_REACTORS
330
2071
102
}
330
2071
100
AcDbVisualStyle
  2

 70
     4
 71
     0
 72
     2
 73
     0
 90
        0
 40
-0.6
 41
-30.0
 62
     5
 63
     7
 74
     1
 91
        4
 64
     7
 65
   257
 75
     1
175
     1
 42
1.0
 92
        0
 66
   257
 43
1.0
 76
     1
 77
     6
 78
     2
 67
     7
 79
     5
170
     0
171
     0
290
     0
174
     0
 93
        1
 44
0.0
173
     0
291
     0
 45
0.0
1001
ACAD
1000
AcDbSavedByObjectVersion
1070
     0
  0
VISUALSTYLE
  5
2079
102
{ACAD_XDICTIONARY
360
38D2
102
}
102
{ACAD_REACTORS
330
2071
102
}
330
2071
100
AcDbVisualStyle
  2

 70
     6
 71
     1
 72
     2
 73
     2
 90
        0
 40
-0.6
 41
-30.0
 62
     5
 63
     7
 74
     2
 91
        2
 64
     7
 65
   257
 75
     2
175
     1
 42
179.0
 92
        0
 66
   257
 43
1.0
 76
     1
 77
     6
 78
     2
 67
     7
 79
     3
170
     0
171
     0
290
     0
174
     0
 93
        1
 44
0.0
173
     0
291
     0
 45
0.0
1001
ACAD
1000
AcDbSavedByObjectVersion
1070
     0
  0
VISUALSTYLE
  5
2078
102
{ACAD_XDICTIONARY
360
38D0
102
}
102
{ACAD_REACTORS
330
2071
102
}
330
2071
100
AcDbVisualStyle
  2

 70
     5
 71
     0
 72
     2
 73
     0
 90
        0
 40
-0.6
 41
-30.0
 62
     5
 63
     7
 74
     1
 91
        4
 64
     7
 65
   257
 75
     1
175
     1
 42
1.0
 92
        0
 66
   257
 43
1.0
 76
     1
 77
     6
 78
     2
 67
     7
 79
     5
170
     0
171
     0
290
     0
174
     0
 93
        1
 44
0.0
173
     0
291
     0
 45
0.0
1001
ACAD
1000
AcDbSavedByObjectVersion
1070
     0
  0
VISUALSTYLE
  5
2076
102
{ACAD_XDICTIONARY
360
38CC
102
}
102
{ACAD_REACTORS
330
2071
102
}
330
2071
100
AcDbVisualStyle
  2

 70
     7
 71
     1
 72
     0
 73
     1
 90
        0
 40
-0.6
 41
-30.0
 62
     5
 63
     7
 74
     0
 91
        4
 64
     7
 65
   257
 75
     1
175
     1
 42
1.0
 92
        8
 66
     7
 43
1.0
 76
     1
 77
     6
 78
     2
 67
     7
 79
     5
170
     0
171
     0
290
     0
174
     0
 93
        1
 44
0.0
173
     0
291
     1
 45
0.0
1001
ACAD
1000
AcDbSavedByObjectVersion
1070
     0
  0
VISUALSTYLE
  5
207D
102
{ACAD_XDICTIONARY
360
38DA
102
}
102
{ACAD_REACTORS
330
2071
102
}
330
2071
100
AcDbVisualStyle
  2

 70
    12
 71
     2
 72
     2
 73
     0
 90
        0
 40
-0.6
 41
-30.0
 62
     5
 63
     7
 74
     1
 91
        4
 64
     7
 65
   257
 75
     1
175
     1
 42
1.0
 92
        8
 66
     7
 43
1.0
 76
     1
 77
     6
 78
     2
 67
     7
 79
     5
170
     0
171
     0
290
     0
174
     0
 93
        1
 44
50.0
173
     0
291
     1
 45
0.0
1001
ACAD
1000
AcDbSavedByObjectVersion
1070
     0
  0
VISUALSTYLE
  5
2081
102
{ACAD_XDICTIONARY
360
38E2
102
}
102
{ACAD_REACTORS
330
2071
102
}
330
2071
100
AcDbVisualStyle
  2

 70
    16
 71
     2
 72
     2
 73
     3
 90
        0
 40
-0.6
 41
-30.0
 62
     5
 63
     8
 74
     1
 91
        4
 64
     7
 65
   257
 75
     1
175
     1
 42
1.0
 92
        8
 66
     8
 43
1.0
 76
     1
 77
     6
 78
     2
 67
     7
 79
     5
170
     0
171
     0
290
     0
174
     0
 93
        1
 44
0.0
173
     0
291
     1
 45
0.0
1001
ACAD
1000
AcDbSavedByObjectVersion
1070
     0
  0
VISUALSTYLE
  5
207A
102
{ACAD_XDICTIONARY
360
38D4
102
}
102
{ACAD_REACTORS
330
2071
102
}
330
2071
100
AcDbVisualStyle
  2

 70
     9
 71
     3
 72
     2
 73
     0
 90
        0
 40
-0.6
 41
-30.0
 62
     5
 63
     7
 74
     2
 91
        2
 64
     7
 65
   257
 75
     1
175
     1
 42
179.0
 92
        8
 66
     7
 43
1.0
 76
     1
 77
     6
 78
     2
 67
     7
 79
     3
170
     0
171
     0
290
     0
174
     0
 93
        1
 44
0.0
173
     0
291
     0
 45
0.0
1001
ACAD
1000
AcDbSavedByObjectVersion
1070
     0
  0
VISUALSTYLE
  5
207C
102
{ACAD_XDICTIONARY
360
38D8
102
}
102
{ACAD_REACTORS
330
2071
102
}
330
2071
100
AcDbVisualStyle
  2

 70
    11
 71
     2
 72
     2
 73
     0
 90
        0
 40
-0.6
 41
-30.0
 62
     5
 63
     7
 74
     1
 91
        4
 64
     7
 65
   257
 75
     1
175
     1
 42
1.0
 92
        8
 66
     7
 43
1.0
 76
     1
 77
     6
 78
     2
 67
     7
 79
     5
170
     0
171
     0
290
     0
174
     0
 93
        1
 44
-50.0
173
     0
291
     1
 45
0.0
1001
ACAD
1000
AcDbSavedByObjectVersion
1070
     0
  0
VISUALSTYLE
  5
2084
102
{ACAD_XDICTIONARY
360
38E8
102
}
102
{ACAD_REACTORS
330
2071
102
}
330
2071
100
AcDbVisualStyle
  2

 70
    22
 71
     2
 72
     2
 73
     0
 90
        0
 40
-0.6
 41
-30.0
 62
     5
 63
     7
 74
     1
 91
        4
 64
     7
 65
   257
 75
     1
175
     1
 42
1.0
 92
        8
 66
     7
 43
1.0
 76
     1
 77
     6
 78
     2
 67
     7
 79
     5
170
     0
171
     0
290
     0
174
     0
 93
        1
 44
0.0
173
     0
291
     1
 45
0.0
1001
ACAD
1000
AcDbSavedByObjectVersion
1070
     0
  0
VISUALSTYLE
  5
2080
102
{ACAD_XDICTIONARY
360
38E0
102
}
102
{ACAD_REACTORS
330
2071
102
}
330
2071
100
AcDbVisualStyle
  2

 70
    15
 71
     2
 72
     2
 73
     0
 90
        0
 40
-0.6
 41
-30.0
 62
     5
 63
     7
 74
     1
 91
        4
 64
     7
 65
   257
 75
     1
175
     1
 42
1.0
 92
        8
 66
     7
 43
1.0
 76
     1
 77
     6
 78
     2
 67
     7
 79
     5
170
     0
171
     0
290
     0
174
     0
 93
        1
 44
0.0
173
     0
291
     1
 45
0.0
1001
ACAD
1000
AcDbSavedByObjectVersion
1070
     0
  0
VISUALSTYLE
  5
2072
102
{ACAD_XDICTIONARY
360
38C4
102
}
102
{ACAD_REACTORS
330
2071
102
}
330
2071
100
AcDbVisualStyle
  2

 70
     0
 71
     2
 72
     1
 73
     1
 90
        2
 40
-0.6
 41
30.0
 62
     5
 63
     7
 74
     0
 91
        4
 64
     7
 65
   257
 75
     1
175
     1
 42
1.0
 92
        8
 66
     7
 43
1.0
 76
     1
 77
     6
 78
     2
 67
     7
 79
     5
170
     0
171
     0
290
     0
174
     0
 93
       13
 44
0.0
173
     0
291
     1
 45
0.0
1001
ACAD
1000
AcDbSavedByObjectVersion
1070
     0
  0
VISUALSTYLE
  5
2073
102
{ACAD_XDICTIONARY
360
38C6
102
}
102
{ACAD_REACTORS
330
2071
102
}
330
2071
100
AcDbVisualStyle
  2

 70
     1
 71
     2
 72
     1
 73
     1
 90
        2
 40
-0.6
 41
30.0
 62
     5
 63
     7
 74
     1
 91
        4
 64
     7
 65
   257
 75
     1
175
     1
 42
1.0
 92
        0
 66
   257
 43
1.0
 76
     1
 77
     6
 78
     2
 67
     7
 79
     5
170
     0
171
     0
290
     0
174
     0
 93
       13
 44
0.0
173
     0
291
     1
 45
0.0
1001
ACAD
1000
AcDbSavedByObjectVersion
1070
     0
  0
VISUALSTYLE
  5
2074
102
{ACAD_XDICTIONARY
360
38C8
102
}
102
{ACAD_REACTORS
330
2071
102
}
330
2071
100
AcDbVisualStyle
  2

 70
     2
 71
     2
 72
     2
 73
     1
 90
        2
 40
-0.6
 41
30.0
 62
     5
 63
     7
 74
     0
 91
        4
 64
     7
 65
   257
 75
     1
175
     1
 42
1.0
 92
        0
 66
     7
 43
1.0
 76
     1
 77
     6
 78
     2
 67
     7
 79
     5
170
     0
171
     0
290
     0
174
     0
 93
       13
 44
0.0
173
     0
291
     1
 45
0.0
1001
ACAD
1000
AcDbSavedByObjectVersion
1070
     0
  0
VISUALSTYLE
  5
2075
102
{ACAD_XDICTIONARY
360
38CA
102
}
102
{ACAD_REACTORS
330
2071
102
}
330
2071
100
AcDbVisualStyle
  2

 70
     3
 71
     2
 72
     2
 73
     1
 90
        2
 40
-0.6
 41
30.0
 62
     5
 63
     7
 74
     1
 91
        4
 64
     7
 65
   257
 75
     1
175
     1
 42
1.0
 92
        0
 66
   257
 43
1.0
 76
     1
 77
     6
 78
     2
 67
     7
 79
     5
170
     0
171
     0
290
     0
174
     0
 93
       13
 44
0.0
173
     0
291
     1
 45
0.0
1001
ACAD
1000
AcDbSavedByObjectVersion
1070
     0
  0
VISUALSTYLE
  5
327F
102
{ACAD_XDICTIONARY
360
390D
102
}
102
{ACAD_REACTORS
330
2071
102
}
330
2071
100
AcDbVisualStyle
  2

 70
     6
 71
     1
 72
     2
 73
     2
 90
        0
 40
-0.6
 41
-30.0
 62
     5
 63
     7
 74
     2
 91
        2
 64
     7
 65
   257
 75
     2
175
     1
 42
40.0
 92
        0
 66
   257
 43
1.0
 76
     1
 77
     6
 78
     2
 67
     7
 79
     3
170
     0
171
     0
290
     0
174
     0
 93
        1
 44
0.0
173
     0
291
     0
 45
0.0
1001
ACAD
1000
AcDbSavedByObjectVersion
1070
     0
  0
VISUALSTYLE
  5
2082
102
{ACAD_XDICTIONARY
360
38E4
102
}
102
{ACAD_REACTORS
330
2071
102
}
330
2071
100
AcDbVisualStyle
  2

 70
    20
 71
     2
 72
     2
 73
     0
 90
        0
 40
-0.6
 41
-30.0
 62
     5
 63
     7
 74
     1
 91
        4
 64
     7
 65
   257
 75
     1
175
     1
 42
1.0
 92
       10
 66
     7
 43
1.0
 76
     1
 77
     6
 78
     2
 67
     7
 79
     5
170
     0
171
     0
290
     0
174
     0
 93
        1
 44
0.0
173
     0
291
     1
 45
0.0
1001
ACAD
1000
AcDbSavedByObjectVersion
1070
     0
  0
VISUALSTYLE
  5
207F
102
{ACAD_XDICTIONARY
360
38DE
102
}
102
{ACAD_REACTORS
330
2071
102
}
330
2071
100
AcDbVisualStyle
  2

 70
    14
 71
     2
 72
     2
 73
     0
 90
        0
 40
-0.6
 41
-30.0
 62
     5
 63
     7
 74
     1
 91
        4
 64
     7
 65
   257
 75
     7
175
     7
 42
1.0
 92
        8
 66
     7
 43
1.0
 76
     1
 77
     6
 78
     2
 67
     7
 79
     5
170
     0
171
     0
290
     0
174
     0
 93
        1
 44
0.0
173
     0
291
     1
 45
0.0
1001
ACAD
1000
AcDbSavedByObjectVersion
1070
     0
  0
VISUALSTYLE
  5
2083
102
{ACAD_XDICTIONARY
360
38E6
102
}
102
{ACAD_REACTORS
330
2071
102
}
330
2071
100
AcDbVisualStyle
  2

 70
    21
 71
     2
 72
     2
 73
     0
 90
        0
 40
-0.6
 41
-30.0
 62
     5
 63
     7
 74
     1
 91
        4
 64
     7
 65
   257
 75
     1
175
     1
 42
1.0
 92
        9
 66
     7
 43
1.0
 76
     1
 77
     6
 78
     2
 67
     7
 79
     5
170
     0
171
     0
290
     0
174
     0
 93
        1
 44
0.0
173
     0
291
     1
 45
0.0
1001
ACAD
1000
AcDbSavedByObjectVersion
1070
     0
  0
VISUALSTYLE
  5
207B
102
{ACAD_XDICTIONARY
360
38D6
102
}
102
{ACAD_REACTORS
330
2071
102
}
330
2071
100
AcDbVisualStyle
  2

 70
     8
 71
     2
 72
     2
 73
     0
 90
        0
 40
-0.6
 41
-30.0
 62
     5
 63
     7
 74
     1
 91
        0
 64
     7
 65
   257
 75
     1
175
     1
 42
1.0
 92
        8
 66
     8
 43
1.0
 76
     1
 77
     6
 78
     2
 67
     7
 79
     5
170
     0
171
     0
290
     0
174
     0
 93
       13
 44
0.0
173
     0
291
     0
 45
0.0
1001
ACAD
1000
AcDbSavedByObjectVersion
1070
     0
  0
VISUALSTYLE
  5
3284
102
{ACAD_XDICTIONARY
360
3917
102
}
102
{ACAD_REACTORS
330
2071
102
}
330
2071
100
AcDbVisualStyle
  2

 70
    27
 71
     2
 72
     2
 73
     1
 90
        2
 40
-0.6
 41
30.0
 62
     5
 63
     7
 74
     0
 91
        4
 64
     7
 65
   257
 75
     1
175
     1
 42
1.0
 92
        8
 66
   257
 43
1.0
 76
     1
 77
     6
 78
     2
 67
     8
 79
     3
170
     0
171
     0
290
     0
174
     0
 93
        5
 44
0.0
173
     0
291
     0
 45
0.0
1001
ACAD
1000
AcDbSavedByObjectVersion
1070
     0
  0
VISUALSTYLE
  5
3283
102
{ACAD_XDICTIONARY
360
3915
102
}
102
{ACAD_REACTORS
330
2071
102
}
330
2071
100
AcDbVisualStyle
  2

 70
    26
 71
     2
 72
     2
 73
     1
 90
        2
 40
-0.6
 41
30.0
 62
     5
 63
     7
 74
     1
 91
        2
 64
     7
 65
   257
 75
     2
175
     1
 42
1.0
 92
        8
 66
   257
 43
1.0
 76
     1
 77
     6
 78
     2
 67
     7
 79
     3
170
     0
171
     0
290
     0
174
     0
 93
        5
 44
0.0
173
     0
291
     0
 45
0.0
1001
ACAD
1000
AcDbSavedByObjectVersion
1070
     0
  0
VISUALSTYLE
  5
3280
102
{ACAD_XDICTIONARY
360
390F
102
}
102
{ACAD_REACTORS
330
2071
102
}
330
2071
100
AcDbVisualStyle
  2

 70
    23
 71
     2
 72
     2
 73
     3
 90
        0
 40
-0.6
 41
-30.0
 62
     5
 63
     7
 74
     2
 91
        2
 64
     7
 65
     7
 75
     1
175
     1
 42
40.0
 92
        8
 66
     7
 43
1.0
 76
     1
 77
     6
 78
     2
 67
     7
 79
     3
170
     0
171
     0
290
     0
174
     0
 93
        1
 44
0.0
173
     0
291
     0
 45
0.0
1001
ACAD
1000
AcDbSavedByObjectVersion
1070
     0
  0
VISUALSTYLE
  5
3281
102
{ACAD_XDICTIONARY
360
3911
102
}
102
{ACAD_REACTORS
330
2071
102
}
330
2071
100
AcDbVisualStyle
  2

 70
    24
 71
     1
 72
     2
 73
     2
 90
        0
 40
-0.6
 41
-30.0
 62
     5
 63
     7
 74
     2
 91
        2
 64
     7
 65
     7
 75
     1
175
     1
 42
40.0
 92
       11
 66
     7
 43
1.0
 76
     1
 77
     6
 78
     2
 67
     7
 79
     6
170
     0
171
     0
290
     0
174
     0
 93
        1
 44
0.0
173
     0
291
     0
 45
0.0
1001
ACAD
1000
AcDbSavedByObjectVersion
1070
     0
  0
VISUALSTYLE
  5
207E
102
{ACAD_XDICTIONARY
360
38DC
102
}
102
{ACAD_REACTORS
330
2071
102
}
330
2071
100
AcDbVisualStyle
  2

 70
    13
 71
     2
 72
     2
 73
     0
 90
        0
 40
-0.6
 41
-30.0
 62
     5
 63
     7
 74
     1
 91
        4
 64
     7
 65
   257
 75
     1
175
     1
 42
1.0
 92
       12
 66
     7
 43
1.0
 76
     1
 77
     6
 78
     2
 67
     7
 79
     5
170
     0
171
     0
290
     0
174
     0
 93
        1
 44
0.0
173
     0
291
     1
 45
0.0
1001
ACAD
1000
AcDbSavedByObjectVersion
1070
     0
  0
VISUALSTYLE
  5
327E
102
{ACAD_XDICTIONARY
360
390B
102
}
102
{ACAD_REACTORS
330
2071
102
}
330
2071
100
AcDbVisualStyle
  2

 70
     5
 71
     0
 72
     2
 73
     0
 90
        0
 40
-0.6
 41
-30.0
 62
     5
 63
     7
 74
     1
 91
        4
 64
     7
 65
   257
 75
     1
175
     1
 42
1.0
 92
        0
 66
   257
 43
1.0
 76
     1
 77
     6
 78
     2
 67
     7
 79
     3
170
     0
171
     0
290
     0
174
     0
 93
        1
 44
0.0
173
     0
291
     0
 45
0.0
1001
ACAD
1000
AcDbSavedByObjectVersion
1070
     0
  0
VISUALSTYLE
  5
3282
102
{ACAD_XDICTIONARY
360
3913
102
}
102
{ACAD_REACTORS
330
2071
102
}
330
2071
100
AcDbVisualStyle
  2

 70
    25
 71
     2
 72
     2
 73
     1
 90
        1
 40
0.5
 41
-30.0
 62
     5
 63
     7
 74
     1
 91
        0
 64
     7
 65
   257
 75
     1
175
     1
 42
1.0
 92
        8
 66
     7
 43
1.0
 76
     1
 77
     6
 78
     2
 67
     7
 79
     3
170
     0
171
     0
290
     0
174
     0
 93
       13
 44
0.0
173
     0
291
     0
 45
0.0
1001
ACAD
1000
AcDbSavedByObjectVersion
1070
     0
  0
DICTIONARYVAR
  5
23A7
102
{ACAD_REACTORS
330
102
102
}
330
102
100
DictionaryVariables
280
     0
  1
1:1
  0
DICTIONARYVAR
  5
23A6
102
{ACAD_REACTORS
330
102
102
}
330
102
100
DictionaryVariables
280
     0
  1
STANDARD
  0
DICTIONARYVAR
  5
23A5
102
{ACAD_REACTORS
330
102
102
}
330
102
100
DictionaryVariables
280
     0
  1
STANDARD
  0
DICTIONARYVAR
  5
328D
102
{ACAD_REACTORS
330
102
102
}
330
102
100
DictionaryVariables
280
     0
  1
Imperial24
  0
DICTIONARYVAR
  5
328E
102
{ACAD_REACTORS
330
102
102
}
330
102
100
DictionaryVariables
280
     0
  1
Imperial24
  0
DICTIONARYVAR
  5
103
102
{ACAD_REACTORS
330
102
102
}
330
102
100
DictionaryVariables
280
     0
  1
1
  0
DICTIONARYVAR
  5
23A9
102
{ACAD_REACTORS
330
102
102
}
330
102
100
DictionaryVariables
280
     0
  1
0
  0
DICTIONARYVAR
  5
3291
102
{ACAD_REACTORS
330
102
102
}
330
102
100
DictionaryVariables
280
     0
  1
1
  0
DICTIONARYVAR
  5
3292
102
{ACAD_REACTORS
330
102
102
}
330
102
100
DictionaryVariables
280
     0
  1
15
  0
DICTIONARYVAR
  5
3290
102
{ACAD_REACTORS
330
102
102
}
330
102
100
DictionaryVariables
280
     0
  1
0
  0
DICTIONARYVAR
  5
328F
102
{ACAD_REACTORS
330
102
102
}
330
102
100
DictionaryVariables
280
     0
  1
0
  0
DICTIONARYVAR
  5
23A8
102
{ACAD_REACTORS
330
102
102
}
330
102
100
DictionaryVariables
280
     0
  1
127
  0
DICTIONARYVAR
  5
38BB
102
{ACAD_REACTORS
330
102
102
}
330
102
100
DictionaryVariables
280
     0
  1
2
  0
DICTIONARY
  5
391B
330
3288
100
AcDbDictionary
280
     1
281
     1
  3
ACAD_XREC_ROUNDTRIP
360
391C
  0
DICTIONARY
  5
38BF
330
60
100
AcDbDictionary
280
     1
281
     1
  3
ACAD_XREC_ROUNDTRIP
360
38C0
  0
DICTIONARY
  5
392D
330
38B7
100
AcDbDictionary
280
     1
281
     1
  3
ACAD_XREC_ROUNDTRIP
360
392E
  0
DICTIONARY
  5
2062
330
2061
100
AcDbDictionary
280
     1
281
     1
  3
ACAD_XREC_ROUNDTRIP
360
38C2
  3
BUMPTILE
360
2064
  3
DIFFUSETILE
360
2063
  3
OPACITYTILE
360
2067
  3
REFLECTIONTILE
360
2066
  3
REFRACTIONTILE
360
2068
  3
SPECULARTILE
360
2065
  0
DICTIONARY
  5
205A
330
2059
100
AcDbDictionary
280
     1
281
     1
  3
ACAD_XREC_ROUNDTRIP
360
38C1
  3
BUMPTILE
360
205C
  3
DIFFUSETILE
360
205B
  3
OPACITYTILE
360
205F
  3
REFLECTIONTILE
360
205E
  3
REFRACTIONTILE
360
2060
  3
SPECULARTILE
360
205D
  0
DICTIONARY
  5
206A
330
2069
100
AcDbDictionary
280
     1
281
     1
  3
ACAD_XREC_ROUNDTRIP
360
38C3
  3
BUMPTILE
360
206C
  3
DIFFUSETILE
360
206B
  3
OPACITYTILE
360
206F
  3
REFLECTIONTILE
360
206E
  3
REFRACTIONTILE
360
2070
  3
SPECULARTILE
360
206D
  0
DICTIONARY
  5
3919
330
3286
100
AcDbDictionary
280
     1
281
     1
  3
ACAD_XREC_ROUNDTRIP
360
391A
  0
DICTIONARY
  5
2308
330
2087
100
AcDbDictionary
280
     1
281
     1
  3
ACAD_ROUNDTRIP_2008_TABLESTYLE_CELLSTYLEMAP
360
38BC
  3
ACAD_XREC_ROUNDTRIP
360
38EA
  0
DICTIONARY
  5
38CE
330
2077
100
AcDbDictionary
280
     1
281
     1
  3
ACAD_XREC_ROUNDTRIP
360
38CF
  0
DICTIONARY
  5
38D2
330
2079
100
AcDbDictionary
280
     1
281
     1
  3
ACAD_XREC_ROUNDTRIP
360
38D3
  0
DICTIONARY
  5
38D0
330
2078
100
AcDbDictionary
280
     1
281
     1
  3
ACAD_XREC_ROUNDTRIP
360
38D1
  0
DICTIONARY
  5
38CC
330
2076
100
AcDbDictionary
280
     1
281
     1
  3
ACAD_XREC_ROUNDTRIP
360
38CD
  0
DICTIONARY
  5
38DA
330
207D
100
AcDbDictionary
280
     1
281
     1
  3
ACAD_XREC_ROUNDTRIP
360
38DB
  0
DICTIONARY
  5
38E2
330
2081
100
AcDbDictionary
280
     1
281
     1
  3
ACAD_XREC_ROUNDTRIP
360
38E3
  0
DICTIONARY
  5
38D4
330
207A
100
AcDbDictionary
280
     1
281
     1
  3
ACAD_XREC_ROUNDTRIP
360
38D5
  0
DICTIONARY
  5
38D8
330
207C
100
AcDbDictionary
280
     1
281
     1
  3
ACAD_XREC_ROUNDTRIP
360
38D9
  0
DICTIONARY
  5
38E8
330
2084
100
AcDbDictionary
280
     1
281
     1
  3
ACAD_XREC_ROUNDTRIP
360
38E9
  0
DICTIONARY
  5
38E0
330
2080
100
AcDbDictionary
280
     1
281
     1
  3
ACAD_XREC_ROUNDTRIP
360
38E1
  0
DICTIONARY
  5
38C4
330
2072
100
AcDbDictionary
280
     1
281
     1
  3
ACAD_XREC_ROUNDTRIP
360
38C5
  0
DICTIONARY
  5
38C6
330
2073
100
AcDbDictionary
280
     1
281
     1
  3
ACAD_XREC_ROUNDTRIP
360
38C7
  0
DICTIONARY
  5
38C8
330
2074
100
AcDbDictionary
280
     1
281
     1
  3
ACAD_XREC_ROUNDTRIP
360
38C9
  0
DICTIONARY
  5
38CA
330
2075
100
AcDbDictionary
280
     1
281
     1
  3
ACAD_XREC_ROUNDTRIP
360
38CB
  0
DICTIONARY
  5
390D
330
327F
100
AcDbDictionary
280
     1
281
     1
  3
ACAD_XREC_ROUNDTRIP
360
390E
  0
DICTIONARY
  5
38E4
330
2082
100
AcDbDictionary
280
     1
281
     1
  3
ACAD_XREC_ROUNDTRIP
360
38E5
  0
DICTIONARY
  5
38DE
330
207F
100
AcDbDictionary
280
     1
281
     1
  3
ACAD_XREC_ROUNDTRIP
360
38DF
  0
DICTIONARY
  5
38E6
330
2083
100
AcDbDictionary
280
     1
281
     1
  3
ACAD_XREC_ROUNDTRIP
360
38E7
  0
DICTIONARY
  5
38D6
330
207B
100
AcDbDictionary
280
     1
281
     1
  3
ACAD_XREC_ROUNDTRIP
360
38D7
  0
DICTIONARY
  5
3917
330
3284
100
AcDbDictionary
280
     1
281
     1
  3
ACAD_XREC_ROUNDTRIP
360
3918
  0
DICTIONARY
  5
3915
330
3283
100
AcDbDictionary
280
     1
281
     1
  3
ACAD_XREC_ROUNDTRIP
360
3916
  0
DICTIONARY
  5
390F
330
3280
100
AcDbDictionary
280
     1
281
     1
  3
ACAD_XREC_ROUNDTRIP
360
3910
  0
DICTIONARY
  5
3911
330
3281
100
AcDbDictionary
280
     1
281
     1
  3
ACAD_XREC_ROUNDTRIP
360
3912
  0
DICTIONARY
  5
38DC
330
207E
100
AcDbDictionary
280
     1
281
     1
  3
ACAD_XREC_ROUNDTRIP
360
38DD
  0
DICTIONARY
  5
390B
330
327E
100
AcDbDictionary
280
     1
281
     1
  3
ACAD_XREC_ROUNDTRIP
360
390C
  0
DICTIONARY
  5
3913
330
3282
100
AcDbDictionary
280
     1
281
     1
  3
ACAD_XREC_ROUNDTRIP
360
3914
  0
XRECORD
  5
391C
102
{ACAD_REACTORS
330
391B
102
}
330
391B
100
AcDbXrecord
280
     1
102
DISPLAYNAME
  1
Imperial24
102
FLAGS
 90
        0
  0
XRECORD
  5
38C0
102
{ACAD_REACTORS
330
38BF
102
}
330
38BF
100
AcDbXrecord
280
     1
102
SHADEPLOT
 70
     0
102
SHADEPLOTRESLEVEL
 70
     2
102
SHADEPLOTCUSTOMDPI
 70
   300
  0
XRECORD
  5
392E
102
{ACAD_REACTORS
330
392D
102
}
330
392D
100
AcDbXrecord
280
     1
102
SHADEPLOT
 70
     0
102
SHADEPLOTRESLEVEL
 70
     2
102
SHADEPLOTCUSTOMDPI
 70
   300
  0
XRECORD
  5
38C2
102
{ACAD_REACTORS
330
2062
102
}
330
2062
100
AcDbXrecord
280
     1
102
MATERIAL
148
0.0
149
0.0
149
0.0
 93
        0
 94
      127
282
     0
 72
     0
 77
     0
171
     0
175
     0
179
     0
273
     0
  0
XRECORD
  5
2064
102
{ACAD_REACTORS
330
2062
102
}
330
2062
100
AcDbXrecord
280
     1
270
     1
271
     1
  0
XRECORD
  5
2063
102
{ACAD_REACTORS
330
2062
102
}
330
2062
100
AcDbXrecord
280
     1
270
     1
271
     1
  0
XRECORD
  5
2067
102
{ACAD_REACTORS
330
2062
102
}
330
2062
100
AcDbXrecord
280
     1
270
     1
271
     1
  0
XRECORD
  5
2066
102
{ACAD_REACTORS
330
2062
102
}
330
2062
100
AcDbXrecord
280
     1
270
     1
271
     1
  0
XRECORD
  5
2068
102
{ACAD_REACTORS
330
2062
102
}
330
2062
100
AcDbXrecord
280
     1
270
     1
271
     1
  0
XRECORD
  5
2065
102
{ACAD_REACTORS
330
2062
102
}
330
2062
100
AcDbXrecord
280
     1
270
     1
271
     1
  0
XRECORD
  5
38C1
102
{ACAD_REACTORS
330
205A
102
}
330
205A
100
AcDbXrecord
280
     1
102
MATERIAL
148
0.0
149
0.0
149
0.0
 93
        0
 94
      127
282
     0
 72
     0
 77
     0
171
     0
175
     0
179
     0
273
     0
  0
XRECORD
  5
205C
102
{ACAD_REACTORS
330
205A
102
}
330
205A
100
AcDbXrecord
280
     1
270
     1
271
     1
  0
XRECORD
  5
205B
102
{ACAD_REACTORS
330
205A
102
}
330
205A
100
AcDbXrecord
280
     1
270
     1
271
     1
  0
XRECORD
  5
205F
102
{ACAD_REACTORS
330
205A
102
}
330
205A
100
AcDbXrecord
280
     1
270
     1
271
     1
  0
XRECORD
  5
205E
102
{ACAD_REACTORS
330
205A
102
}
330
205A
100
AcDbXrecord
280
     1
270
     1
271
     1
  0
XRECORD
  5
2060
102
{ACAD_REACTORS
330
205A
102
}
330
205A
100
AcDbXrecord
280
     1
270
     1
271
     1
  0
XRECORD
  5
205D
102
{ACAD_REACTORS
330
205A
102
}
330
205A
100
AcDbXrecord
280
     1
270
     1
271
     1
  0
XRECORD
  5
38C3
102
{ACAD_REACTORS
330
206A
102
}
330
206A
100
AcDbXrecord
280
     1
102
MATERIAL
148
0.0
149
0.0
149
0.0
 93
        0
 94
      127
282
     0
 72
     0
 77
     0
171
     0
175
     0
179
     0
273
     0
  0
XRECORD
  5
206C
102
{ACAD_REACTORS
330
206A
102
}
330
206A
100
AcDbXrecord
280
     1
270
     1
271
     1
  0
XRECORD
  5
206B
102
{ACAD_REACTORS
330
206A
102
}
330
206A
100
AcDbXrecord
280
     1
270
     1
271
     1
  0
XRECORD
  5
206F
102
{ACAD_REACTORS
330
206A
102
}
330
206A
100
AcDbXrecord
280
     1
270
     1
271
     1
  0
XRECORD
  5
206E
102
{ACAD_REACTORS
330
206A
102
}
330
206A
100
AcDbXrecord
280
     1
270
     1
271
     1
  0
XRECORD
  5
2070
102
{ACAD_REACTORS
330
206A
102
}
330
206A
100
AcDbXrecord
280
     1
270
     1
271
     1
  0
XRECORD
  5
206D
102
{ACAD_REACTORS
330
206A
102
}
330
206A
100
AcDbXrecord
280
     1
270
     1
271
     1
  0
XRECORD
  5
391A
102
{ACAD_REACTORS
330
3919
102
}
330
3919
100
AcDbXrecord
280
     1
102
DISPLAYNAME
  1
Imperial24
102
FLAGS
 90
        0
  0
CELLSTYLEMAP
  5
38BC
102
{ACAD_REACTORS
330
2308
102
}
330
2308
100
AcDbCellStyleMap
 90
        3
300
CELLSTYLE
  1
TABLEFORMAT_BEGIN
 90
        5
170
     1
 91
        0
 92
    32768
 62
   257
 93
        1
300
CONTENTFORMAT
  1
CONTENTFORMAT_BEGIN
 90
        0
 91
        0
 92
      512
 93
        0
300

 40
0.0
140
1.0
 94
        5
 62
     0
340
16
144
0.25
309
CONTENTFORMAT_END
171
     1
301
MARGIN
  1
CELLMARGIN_BEGIN
 40
0.06
 40
0.06
 40
0.06
 40
0.06
 40
0.18
 40
0.18
309
CELLMARGIN_END
 94
        6
 95
        1
302
GRIDFORMAT
  1
GRIDFORMAT_BEGIN
 90
        0
 91
        1
 62
     0
 92
       -2
340
0
 93
        0
 40
0.045
309
GRIDFORMAT_END
 95
        2
302
GRIDFORMAT
  1
GRIDFORMAT_BEGIN
 90
        0
 91
        1
 62
     0
 92
       -2
340
0
 93
        0
 40
0.045
309
GRIDFORMAT_END
 95
        4
302
GRIDFORMAT
  1
GRIDFORMAT_BEGIN
 90
        0
 91
        1
 62
     0
 92
       -2
340
0
 93
        0
 40
0.045
309
GRIDFORMAT_END
 95
        8
302
GRIDFORMAT
  1
GRIDFORMAT_BEGIN
 90
        0
 91
        1
 62
     0
 92
       -2
340
0
 93
        0
 40
0.045
309
GRIDFORMAT_END
 95
       16
302
GRIDFORMAT
  1
GRIDFORMAT_BEGIN
 90
        0
 91
        1
 62
     0
 92
       -2
340
0
 93
        0
 40
0.045
309
GRIDFORMAT_END
 95
       32
302
GRIDFORMAT
  1
GRIDFORMAT_BEGIN
 90
        0
 91
        1
 62
     0
 92
       -2
340
0
 93
        0
 40
0.045
309
GRIDFORMAT_END
309
TABLEFORMAT_END
  1
CELLSTYLE_BEGIN
 90
        1
 91
        1
300
_TITLE
309
CELLSTYLE_END
300
CELLSTYLE
  1
TABLEFORMAT_BEGIN
 90
        5
170
     1
 91
        0
 92
        0
 62
   257
 93
        1
300
CONTENTFORMAT
  1
CONTENTFORMAT_BEGIN
 90
        0
 91
        0
 92
      512
 93
        0
300

 40
0.0
140
1.0
 94
        5
 62
     0
340
16
144
0.18
309
CONTENTFORMAT_END
171
     1
301
MARGIN
  1
CELLMARGIN_BEGIN
 40
0.06
 40
0.06
 40
0.06
 40
0.06
 40
0.18
 40
0.18
309
CELLMARGIN_END
 94
        6
 95
        1
302
GRIDFORMAT
  1
GRIDFORMAT_BEGIN
 90
        0
 91
        1
 62
     0
 92
       -2
340
0
 93
        0
 40
0.045
309
GRIDFORMAT_END
 95
        2
302
GRIDFORMAT
  1
GRIDFORMAT_BEGIN
 90
        0
 91
        1
 62
     0
 92
       -2
340
0
 93
        0
 40
0.045
309
GRIDFORMAT_END
 95
        4
302
GRIDFORMAT
  1
GRIDFORMAT_BEGIN
 90
        0
 91
        1
 62
     0
 92
       -2
340
0
 93
        0
 40
0.045
309
GRIDFORMAT_END
 95
        8
302
GRIDFORMAT
  1
GRIDFORMAT_BEGIN
 90
        0
 91
        1
 62
     0
 92
       -2
340
0
 93
        0
 40
0.045
309
GRIDFORMAT_END
 95
       16
302
GRIDFORMAT
  1
GRIDFORMAT_BEGIN
 90
        0
 91
        1
 62
     0
 92
       -2
340
0
 93
        0
 40
0.045
309
GRIDFORMAT_END
 95
       32
302
GRIDFORMAT
  1
GRIDFORMAT_BEGIN
 90
        0
 91
        1
 62
     0
 92
       -2
340
0
 93
        0
 40
0.045
309
GRIDFORMAT_END
309
TABLEFORMAT_END
  1
CELLSTYLE_BEGIN
 90
        2
 91
        1
300
_HEADER
309
CELLSTYLE_END
300
CELLSTYLE
  1
TABLEFORMAT_BEGIN
 90
        5
170
     1
 91
        0
 92
        0
 62
   257
 93
        1
300
CONTENTFORMAT
  1
CONTENTFORMAT_BEGIN
 90
        0
 91
        0
 92
      512
 93
        0
300

 40
0.0
140
1.0
 94
        2
 62
     0
340
16
144
0.18
309
CONTENTFORMAT_END
171
     1
301
MARGIN
  1
CELLMARGIN_BEGIN
 40
0.06
 40
0.06
 40
0.06
 40
0.06
 40
0.18
 40
0.18
309
CELLMARGIN_END
 94
        6
 95
        1
302
GRIDFORMAT
  1
GRIDFORMAT_BEGIN
 90
        0
 91
        1
 62
     0
 92
       -2
340
0
 93
        0
 40
0.045
309
GRIDFORMAT_END
 95
        2
302
GRIDFORMAT
  1
GRIDFORMAT_BEGIN
 90
        0
 91
        1
 62
     0
 92
       -2
340
0
 93
        0
 40
0.045
309
GRIDFORMAT_END
 95
        4
302
GRIDFORMAT
  1
GRIDFORMAT_BEGIN
 90
        0
 91
        1
 62
     0
 92
       -2
340
0
 93
        0
 40
0.045
309
GRIDFORMAT_END
 95
        8
302
GRIDFORMAT
  1
GRIDFORMAT_BEGIN
 90
        0
 91
        1
 62
     0
 92
       -2
340
0
 93
        0
 40
0.045
309
GRIDFORMAT_END
 95
       16
302
GRIDFORMAT
  1
GRIDFORMAT_BEGIN
 90
        0
 91
        1
 62
     0
 92
       -2
340
0
 93
        0
 40
0.045
309
GRIDFORMAT_END
 95
       32
302
GRIDFORMAT
  1
GRIDFORMAT_BEGIN
 90
        0
 91
        1
 62
     0
 92
       -2
340
0
 93
        0
 40
0.045
309
GRIDFORMAT_END
309
TABLEFORMAT_END
  1
CELLSTYLE_BEGIN
 90
        3
 91
        2
300
_DATA
309
CELLSTYLE_END
  0
XRECORD
  5
38EA
102
{ACAD_REACTORS
330
2308
102
}
330
2308
100
AcDbXrecord
280
     1
102
ACAD_ROUNDTRIP_PRE2007_TABLESTYLE
 90
      512
 91
        0
  1

 92
      512
 93
        0
  2

 94
      512
 95
        0
  3

  0
XRECORD
  5
38CF
102
{ACAD_REACTORS
330
38CE
102
}
330
38CE
100
AcDbXrecord
280
     1
102
RTVSPost2010Prop28
280
     1
102
RTVSPost2010PropOp28
 70
     1
102
RTVSPost2010Prop29
280
     1
102
RTVSPost2010PropOp29
 70
     1
102
RTVSPost2010Prop30
280
     0
102
RTVSPost2010PropOp30
 70
     1
102
RTVSPost2010Prop31
280
     0
102
RTVSPost2010PropOp31
 70
     1
102
RTVSPost2010Prop32
280
     0
102
RTVSPost2010PropOp32
 70
     1
102
RTVSPost2010Prop33
280
     0
102
RTVSPost2010PropOp33
 70
     1
102
RTVSPost2010Prop34
280
     0
102
RTVSPost2010PropOp34
 70
     1
102
RTVSPost2010Prop35
280
     0
102
RTVSPost2010PropOp35
 70
     1
102
RTVSPost2010Prop36
280
     0
102
RTVSPost2010PropOp36
 70
     1
102
RTVSPost2010Prop37
 90
       50
102
RTVSPost2010PropOp37
 70
     1
102
RTVSPost2010Prop38
140
0.0
102
RTVSPost2010PropOp38
 70
     1
102
RTVSPost2010Prop39
140
1.0
102
RTVSPost2010PropOp39
 70
     1
102
RTVSPost2010Prop40
 90
        0
102
RTVSPost2010PropOp40
 70
     1
102
RTVSPost2010Prop41ColorIndex
 90
       18
102
RTVSPost2010Prop41ColorRGB
 90
        0
102
RTVSPost2010PropOp41
 70
     1
102
RTVSPost2010Prop42
 90
       50
102
RTVSPost2010PropOp42
 70
     1
102
RTVSPost2010Prop43
 90
        3
102
RTVSPost2010PropOp43
 70
     1
102
RTVSPost2010Prop44ColorIndex
 90
        5
102
RTVSPost2010Prop44ColorRGB
 90
      255
102
RTVSPost2010PropOp44
 70
     1
102
RTVSPost2010Prop45
280
     0
102
RTVSPost2010PropOp45
 70
     1
102
RTVSPost2010Prop46
 90
       50
102
RTVSPost2010PropOp46
 70
     1
102
RTVSPost2010Prop47
 90
       50
102
RTVSPost2010PropOp47
 70
     1
102
RTVSPost2010Prop48
 90
       50
102
RTVSPost2010PropOp48
 70
     1
102
RTVSPost2010Prop49
280
     0
102
RTVSPost2010PropOp49
 70
     1
102
RTVSPost2010Prop50
 90
       50
102
RTVSPost2010PropOp50
 70
     1
102
RTVSPost2010Prop51ColorIndex
 90
      256
102
RTVSPost2010Prop51ColorRGB
 90
-16777216
102
RTVSPost2010PropOp51
 70
     0
102
RTVSPost2010Prop52
140
1.0
102
RTVSPost2010PropOp52
 70
     0
102
RTVSPost2010Prop53
 90
        2
102
RTVSPost2010PropOp53
 70
     1
102
RTVSPost2010Prop54
  1
strokes_ogs.tif
102
RTVSPost2010PropOp54
 70
     1
102
RTVSPost2010Prop55
280
     0
102
RTVSPost2010PropOp55
 70
     1
102
RTVSPost2010Prop56
140
1.0
102
RTVSPost2010PropOp56
 70
     1
102
RTVSPost2010Prop57
140
1.0
102
RTVSPost2010PropOp57
 70
     1
102
RTVSPropertyOp0
 70
     1
102
RTVSPropertyOp1
 70
     1
102
RTVSPropertyOp2
 70
     1
102
RTVSPropertyOp3
 70
     1
102
RTVSPropertyOp4
 70
     1
102
RTVSPropertyOp5
 70
     1
102
RTVSPropertyOp6
 70
     1
102
RTVSPropertyOp7
 70
     1
102
RTVSPropertyOp8
 70
     1
102
RTVSPropertyOp9
 70
     1
102
RTVSPropertyOp10
 70
     1
102
RTVSPropertyOp11
 70
     1
102
RTVSPropertyOp12
 70
     1
102
RTVSPropertyOp13
 70
     1
102
RTVSPropertyOp14
 70
     1
102
RTVSPropertyOp15
 70
     1
102
RTVSPropertyOp16
 70
     1
102
RTVSPropertyOp17
 70
     1
102
RTVSPropertyOp18
 70
     1
102
RTVSPropertyOp19
 70
     1
102
RTVSPropertyOp20
 70
     1
102
RTVSPropertyOp21
 70
     1
102
RTVSPropertyOp22
 70
     1
102
RTVSPropertyOp23
 70
     1
102
RTVSPropertyOp24
 70
     1
102
RTVSPropertyOp25
 70
     1
102
RTVSPropertyOp26
 70
     1
102
RTVSPropertyOp27
 70
     1
102
RTVSPropertyOp28
 70
     1
102
RTVSPropertyOp29
 70
     1
102
RTVSPropertyOp30
 70
     1
102
RTVSPropertyOp31
 70
     1
102
RTVSPropertyOp32
 70
     1
102
RTVSPropertyOp33
 70
     1
102
RTVSPropertyOp34
 70
     1
102
RTVSPropertyOp35
 70
     1
102
RTVSPropertyOp36
 70
     1
102
RTVSPropertyOp37
 70
     1
102
RTVSPropertyOp38
 70
     1
102
RTVSPropertyOp39
 70
     1
102
RTVSPropertyOp40
 70
     1
102
RTVSPropertyOp41
 70
     1
102
RTVSPropertyOp42
 70
     1
102
RTVSPropertyOp43
 70
     1
102
RTVSPropertyOp44
 70
     1
102
RTVSPropertyOp45
 70
     1
102
RTVSPropertyOp46
 70
     1
102
RTVSPropertyOp47
 70
     1
102
RTVSPropertyOp48
 70
     1
102
RTVSPropertyOp49
 70
     1
102
RTVSPropertyOp50
 70
     1
102
RTVSPropertyOp51
 70
     0
102
RTVSPropertyOp52
 70
     0
102
RTVSPropertyOp53
 70
     1
102
RTVSPropertyOp54
 70
     1
102
RTVSPropertyOp55
 70
     1
102
RTVSPropertyOp56
 70
     1
102
RTVSPropertyOp57
 70
     1
102
RTVSPropertyOp58
 70
     1
102
RTVSPropertyOp59
 70
     1
102
RTVSPropertyOp60
 70
     1
102
RTVSPropertyOp61
 70
     1
102
RTVSPropertyOp62
 70
     1
  0
XRECORD
  5
38D3
102
{ACAD_REACTORS
330
38D2
102
}
330
38D2
100
AcDbXrecord
280
     1
102
RTVSPost2010Prop28
280
     0
102
RTVSPost2010PropOp28
 70
     1
102
RTVSPost2010Prop29
280
     1
102
RTVSPost2010PropOp29
 70
     1
102
RTVSPost2010Prop30
280
     1
102
RTVSPost2010PropOp30
 70
     1
102
RTVSPost2010Prop31
280
     0
102
RTVSPost2010PropOp31
 70
     1
102
RTVSPost2010Prop32
280
     0
102
RTVSPost2010PropOp32
 70
     1
102
RTVSPost2010Prop33
280
     0
102
RTVSPost2010PropOp33
 70
     1
102
RTVSPost2010Prop34
280
     0
102
RTVSPost2010PropOp34
 70
     1
102
RTVSPost2010Prop35
280
     0
102
RTVSPost2010PropOp35
 70
     1
102
RTVSPost2010Prop36
280
     0
102
RTVSPost2010PropOp36
 70
     1
102
RTVSPost2010Prop37
 90
       50
102
RTVSPost2010PropOp37
 70
     1
102
RTVSPost2010Prop38
140
0.0
102
RTVSPost2010PropOp38
 70
     1
102
RTVSPost2010Prop39
140
1.0
102
RTVSPost2010PropOp39
 70
     1
102
RTVSPost2010Prop40
 90
        0
102
RTVSPost2010PropOp40
 70
     1
102
RTVSPost2010Prop41ColorIndex
 90
       18
102
RTVSPost2010Prop41ColorRGB
 90
        0
102
RTVSPost2010PropOp41
 70
     1
102
RTVSPost2010Prop42
 90
       50
102
RTVSPost2010PropOp42
 70
     1
102
RTVSPost2010Prop43
 90
        3
102
RTVSPost2010PropOp43
 70
     1
102
RTVSPost2010Prop44ColorIndex
 90
        5
102
RTVSPost2010Prop44ColorRGB
 90
      255
102
RTVSPost2010PropOp44
 70
     1
102
RTVSPost2010Prop45
280
     0
102
RTVSPost2010PropOp45
 70
     1
102
RTVSPost2010Prop46
 90
       50
102
RTVSPost2010PropOp46
 70
     1
102
RTVSPost2010Prop47
 90
       50
102
RTVSPost2010PropOp47
 70
     1
102
RTVSPost2010Prop48
 90
       50
102
RTVSPost2010PropOp48
 70
     1
102
RTVSPost2010Prop49
280
     0
102
RTVSPost2010PropOp49
 70
     1
102
RTVSPost2010Prop50
 90
       50
102
RTVSPost2010PropOp50
 70
     1
102
RTVSPost2010Prop51ColorIndex
 90
      256
102
RTVSPost2010Prop51ColorRGB
 90
-16777216
102
RTVSPost2010PropOp51
 70
     0
102
RTVSPost2010Prop52
140
1.0
102
RTVSPost2010PropOp52
 70
     0
102
RTVSPost2010Prop53
 90
        2
102
RTVSPost2010PropOp53
 70
     1
102
RTVSPost2010Prop54
  1
strokes_ogs.tif
102
RTVSPost2010PropOp54
 70
     1
102
RTVSPost2010Prop55
280
     0
102
RTVSPost2010PropOp55
 70
     1
102
RTVSPost2010Prop56
140
1.0
102
RTVSPost2010PropOp56
 70
     1
102
RTVSPost2010Prop57
140
1.0
102
RTVSPost2010PropOp57
 70
     1
102
RTVSPropertyOp0
 70
     1
102
RTVSPropertyOp1
 70
     1
102
RTVSPropertyOp2
 70
     1
102
RTVSPropertyOp3
 70
     1
102
RTVSPropertyOp4
 70
     1
102
RTVSPropertyOp5
 70
     1
102
RTVSPropertyOp6
 70
     1
102
RTVSPropertyOp7
 70
     1
102
RTVSPropertyOp8
 70
     1
102
RTVSPropertyOp9
 70
     1
102
RTVSPropertyOp10
 70
     1
102
RTVSPropertyOp11
 70
     1
102
RTVSPropertyOp12
 70
     1
102
RTVSPropertyOp13
 70
     1
102
RTVSPropertyOp14
 70
     1
102
RTVSPropertyOp15
 70
     1
102
RTVSPropertyOp16
 70
     1
102
RTVSPropertyOp17
 70
     1
102
RTVSPropertyOp18
 70
     1
102
RTVSPropertyOp19
 70
     1
102
RTVSPropertyOp20
 70
     1
102
RTVSPropertyOp21
 70
     1
102
RTVSPropertyOp22
 70
     1
102
RTVSPropertyOp23
 70
     1
102
RTVSPropertyOp24
 70
     1
102
RTVSPropertyOp25
 70
     1
102
RTVSPropertyOp26
 70
     1
102
RTVSPropertyOp27
 70
     1
102
RTVSPropertyOp28
 70
     1
102
RTVSPropertyOp29
 70
     1
102
RTVSPropertyOp30
 70
     1
102
RTVSPropertyOp31
 70
     1
102
RTVSPropertyOp32
 70
     1
102
RTVSPropertyOp33
 70
     1
102
RTVSPropertyOp34
 70
     1
102
RTVSPropertyOp35
 70
     1
102
RTVSPropertyOp36
 70
     1
102
RTVSPropertyOp37
 70
     1
102
RTVSPropertyOp38
 70
     1
102
RTVSPropertyOp39
 70
     1
102
RTVSPropertyOp40
 70
     1
102
RTVSPropertyOp41
 70
     1
102
RTVSPropertyOp42
 70
     1
102
RTVSPropertyOp43
 70
     1
102
RTVSPropertyOp44
 70
     1
102
RTVSPropertyOp45
 70
     1
102
RTVSPropertyOp46
 70
     1
102
RTVSPropertyOp47
 70
     1
102
RTVSPropertyOp48
 70
     1
102
RTVSPropertyOp49
 70
     1
102
RTVSPropertyOp50
 70
     1
102
RTVSPropertyOp51
 70
     0
102
RTVSPropertyOp52
 70
     0
102
RTVSPropertyOp53
 70
     1
102
RTVSPropertyOp54
 70
     1
102
RTVSPropertyOp55
 70
     1
102
RTVSPropertyOp56
 70
     1
102
RTVSPropertyOp57
 70
     1
102
RTVSPropertyOp58
 70
     1
102
RTVSPropertyOp59
 70
     1
102
RTVSPropertyOp60
 70
     1
102
RTVSPropertyOp61
 70
     1
102
RTVSPropertyOp62
 70
     1
  0
XRECORD
  5
38D1
102
{ACAD_REACTORS
330
38D0
102
}
330
38D0
100
AcDbXrecord
280
     1
102
RTVSPost2010Prop28
280
     0
102
RTVSPost2010PropOp28
 70
     1
102
RTVSPost2010Prop29
280
     1
102
RTVSPost2010PropOp29
 70
     1
102
RTVSPost2010Prop30
280
     1
102
RTVSPost2010PropOp30
 70
     1
102
RTVSPost2010Prop31
280
     0
102
RTVSPost2010PropOp31
 70
     1
102
RTVSPost2010Prop32
280
     0
102
RTVSPost2010PropOp32
 70
     1
102
RTVSPost2010Prop33
280
     0
102
RTVSPost2010PropOp33
 70
     1
102
RTVSPost2010Prop34
280
     0
102
RTVSPost2010PropOp34
 70
     1
102
RTVSPost2010Prop35
280
     0
102
RTVSPost2010PropOp35
 70
     1
102
RTVSPost2010Prop36
280
     0
102
RTVSPost2010PropOp36
 70
     1
102
RTVSPost2010Prop37
 90
       50
102
RTVSPost2010PropOp37
 70
     1
102
RTVSPost2010Prop38
140
0.0
102
RTVSPost2010PropOp38
 70
     1
102
RTVSPost2010Prop39
140
1.0
102
RTVSPost2010PropOp39
 70
     1
102
RTVSPost2010Prop40
 90
        0
102
RTVSPost2010PropOp40
 70
     1
102
RTVSPost2010Prop41ColorIndex
 90
       18
102
RTVSPost2010Prop41ColorRGB
 90
        0
102
RTVSPost2010PropOp41
 70
     1
102
RTVSPost2010Prop42
 90
       50
102
RTVSPost2010PropOp42
 70
     1
102
RTVSPost2010Prop43
 90
        3
102
RTVSPost2010PropOp43
 70
     1
102
RTVSPost2010Prop44ColorIndex
 90
        5
102
RTVSPost2010Prop44ColorRGB
 90
      255
102
RTVSPost2010PropOp44
 70
     1
102
RTVSPost2010Prop45
280
     0
102
RTVSPost2010PropOp45
 70
     1
102
RTVSPost2010Prop46
 90
       50
102
RTVSPost2010PropOp46
 70
     1
102
RTVSPost2010Prop47
 90
       50
102
RTVSPost2010PropOp47
 70
     1
102
RTVSPost2010Prop48
 90
       50
102
RTVSPost2010PropOp48
 70
     1
102
RTVSPost2010Prop49
280
     0
102
RTVSPost2010PropOp49
 70
     1
102
RTVSPost2010Prop50
 90
       50
102
RTVSPost2010PropOp50
 70
     1
102
RTVSPost2010Prop51ColorIndex
 90
      256
102
RTVSPost2010Prop51ColorRGB
 90
-16777216
102
RTVSPost2010PropOp51
 70
     0
102
RTVSPost2010Prop52
140
1.0
102
RTVSPost2010PropOp52
 70
     0
102
RTVSPost2010Prop53
 90
        2
102
RTVSPost2010PropOp53
 70
     1
102
RTVSPost2010Prop54
  1
strokes_ogs.tif
102
RTVSPost2010PropOp54
 70
     1
102
RTVSPost2010Prop55
280
     0
102
RTVSPost2010PropOp55
 70
     1
102
RTVSPost2010Prop56
140
1.0
102
RTVSPost2010PropOp56
 70
     1
102
RTVSPost2010Prop57
140
1.0
102
RTVSPost2010PropOp57
 70
     1
102
RTVSPropertyOp0
 70
     1
102
RTVSPropertyOp1
 70
     1
102
RTVSPropertyOp2
 70
     1
102
RTVSPropertyOp3
 70
     1
102
RTVSPropertyOp4
 70
     1
102
RTVSPropertyOp5
 70
     1
102
RTVSPropertyOp6
 70
     1
102
RTVSPropertyOp7
 70
     1
102
RTVSPropertyOp8
 70
     1
102
RTVSPropertyOp9
 70
     1
102
RTVSPropertyOp10
 70
     1
102
RTVSPropertyOp11
 70
     1
102
RTVSPropertyOp12
 70
     1
102
RTVSPropertyOp13
 70
     1
102
RTVSPropertyOp14
 70
     1
102
RTVSPropertyOp15
 70
     1
102
RTVSPropertyOp16
 70
     1
102
RTVSPropertyOp17
 70
     1
102
RTVSPropertyOp18
 70
     1
102
RTVSPropertyOp19
 70
     1
102
RTVSPropertyOp20
 70
     1
102
RTVSPropertyOp21
 70
     1
102
RTVSPropertyOp22
 70
     1
102
RTVSPropertyOp23
 70
     1
102
RTVSPropertyOp24
 70
     1
102
RTVSPropertyOp25
 70
     1
102
RTVSPropertyOp26
 70
     1
102
RTVSPropertyOp27
 70
     1
102
RTVSPropertyOp28
 70
     1
102
RTVSPropertyOp29
 70
     1
102
RTVSPropertyOp30
 70
     1
102
RTVSPropertyOp31
 70
     1
102
RTVSPropertyOp32
 70
     1
102
RTVSPropertyOp33
 70
     1
102
RTVSPropertyOp34
 70
     1
102
RTVSPropertyOp35
 70
     1
102
RTVSPropertyOp36
 70
     1
102
RTVSPropertyOp37
 70
     1
102
RTVSPropertyOp38
 70
     1
102
RTVSPropertyOp39
 70
     1
102
RTVSPropertyOp40
 70
     1
102
RTVSPropertyOp41
 70
     1
102
RTVSPropertyOp42
 70
     1
102
RTVSPropertyOp43
 70
     1
102
RTVSPropertyOp44
 70
     1
102
RTVSPropertyOp45
 70
     1
102
RTVSPropertyOp46
 70
     1
102
RTVSPropertyOp47
 70
     1
102
RTVSPropertyOp48
 70
     1
102
RTVSPropertyOp49
 70
     1
102
RTVSPropertyOp50
 70
     1
102
RTVSPropertyOp51
 70
     0
102
RTVSPropertyOp52
 70
     0
102
RTVSPropertyOp53
 70
     1
102
RTVSPropertyOp54
 70
     1
102
RTVSPropertyOp55
 70
     1
102
RTVSPropertyOp56
 70
     1
102
RTVSPropertyOp57
 70
     1
102
RTVSPropertyOp58
 70
     1
102
RTVSPropertyOp59
 70
     1
102
RTVSPropertyOp60
 70
     1
102
RTVSPropertyOp61
 70
     1
102
RTVSPropertyOp62
 70
     1
  0
XRECORD
  5
38CD
102
{ACAD_REACTORS
330
38CC
102
}
330
38CC
100
AcDbXrecord
280
     1
102
RTVSPost2010Prop28
280
     0
102
RTVSPost2010PropOp28
 70
     1
102
RTVSPost2010Prop29
280
     1
102
RTVSPost2010PropOp29
 70
     1
102
RTVSPost2010Prop30
280
     1
102
RTVSPost2010PropOp30
 70
     1
102
RTVSPost2010Prop31
280
     0
102
RTVSPost2010PropOp31
 70
     1
102
RTVSPost2010Prop32
280
     0
102
RTVSPost2010PropOp32
 70
     1
102
RTVSPost2010Prop33
280
     0
102
RTVSPost2010PropOp33
 70
     1
102
RTVSPost2010Prop34
280
     0
102
RTVSPost2010PropOp34
 70
     1
102
RTVSPost2010Prop35
280
     0
102
RTVSPost2010PropOp35
 70
     1
102
RTVSPost2010Prop36
280
     0
102
RTVSPost2010PropOp36
 70
     1
102
RTVSPost2010Prop37
 90
       50
102
RTVSPost2010PropOp37
 70
     1
102
RTVSPost2010Prop38
140
0.0
102
RTVSPost2010PropOp38
 70
     1
102
RTVSPost2010Prop39
140
1.0
102
RTVSPost2010PropOp39
 70
     1
102
RTVSPost2010Prop40
 90
        0
102
RTVSPost2010PropOp40
 70
     1
102
RTVSPost2010Prop41ColorIndex
 90
       18
102
RTVSPost2010Prop41ColorRGB
 90
        0
102
RTVSPost2010PropOp41
 70
     1
102
RTVSPost2010Prop42
 90
       50
102
RTVSPost2010PropOp42
 70
     1
102
RTVSPost2010Prop43
 90
        3
102
RTVSPost2010PropOp43
 70
     1
102
RTVSPost2010Prop44ColorIndex
 90
        5
102
RTVSPost2010Prop44ColorRGB
 90
      255
102
RTVSPost2010PropOp44
 70
     1
102
RTVSPost2010Prop45
280
     0
102
RTVSPost2010PropOp45
 70
     1
102
RTVSPost2010Prop46
 90
       50
102
RTVSPost2010PropOp46
 70
     1
102
RTVSPost2010Prop47
 90
       50
102
RTVSPost2010PropOp47
 70
     1
102
RTVSPost2010Prop48
 90
       50
102
RTVSPost2010PropOp48
 70
     1
102
RTVSPost2010Prop49
280
     0
102
RTVSPost2010PropOp49
 70
     1
102
RTVSPost2010Prop50
 90
       50
102
RTVSPost2010PropOp50
 70
     1
102
RTVSPost2010Prop51ColorIndex
 90
      256
102
RTVSPost2010Prop51ColorRGB
 90
-16777216
102
RTVSPost2010PropOp51
 70
     0
102
RTVSPost2010Prop52
140
1.0
102
RTVSPost2010PropOp52
 70
     0
102
RTVSPost2010Prop53
 90
        2
102
RTVSPost2010PropOp53
 70
     1
102
RTVSPost2010Prop54
  1
strokes_ogs.tif
102
RTVSPost2010PropOp54
 70
     1
102
RTVSPost2010Prop55
280
     0
102
RTVSPost2010PropOp55
 70
     1
102
RTVSPost2010Prop56
140
1.0
102
RTVSPost2010PropOp56
 70
     1
102
RTVSPost2010Prop57
140
1.0
102
RTVSPost2010PropOp57
 70
     1
102
RTVSPropertyOp0
 70
     1
102
RTVSPropertyOp1
 70
     1
102
RTVSPropertyOp2
 70
     1
102
RTVSPropertyOp3
 70
     1
102
RTVSPropertyOp4
 70
     1
102
RTVSPropertyOp5
 70
     1
102
RTVSPropertyOp6
 70
     1
102
RTVSPropertyOp7
 70
     1
102
RTVSPropertyOp8
 70
     1
102
RTVSPropertyOp9
 70
     1
102
RTVSPropertyOp10
 70
     1
102
RTVSPropertyOp11
 70
     1
102
RTVSPropertyOp12
 70
     1
102
RTVSPropertyOp13
 70
     1
102
RTVSPropertyOp14
 70
     1
102
RTVSPropertyOp15
 70
     1
102
RTVSPropertyOp16
 70
     1
102
RTVSPropertyOp17
 70
     1
102
RTVSPropertyOp18
 70
     1
102
RTVSPropertyOp19
 70
     1
102
RTVSPropertyOp20
 70
     1
102
RTVSPropertyOp21
 70
     1
102
RTVSPropertyOp22
 70
     1
102
RTVSPropertyOp23
 70
     1
102
RTVSPropertyOp24
 70
     1
102
RTVSPropertyOp25
 70
     1
102
RTVSPropertyOp26
 70
     1
102
RTVSPropertyOp27
 70
     1
102
RTVSPropertyOp28
 70
     1
102
RTVSPropertyOp29
 70
     1
102
RTVSPropertyOp30
 70
     1
102
RTVSPropertyOp31
 70
     1
102
RTVSPropertyOp32
 70
     1
102
RTVSPropertyOp33
 70
     1
102
RTVSPropertyOp34
 70
     1
102
RTVSPropertyOp35
 70
     1
102
RTVSPropertyOp36
 70
     1
102
RTVSPropertyOp37
 70
     1
102
RTVSPropertyOp38
 70
     1
102
RTVSPropertyOp39
 70
     1
102
RTVSPropertyOp40
 70
     1
102
RTVSPropertyOp41
 70
     1
102
RTVSPropertyOp42
 70
     1
102
RTVSPropertyOp43
 70
     1
102
RTVSPropertyOp44
 70
     1
102
RTVSPropertyOp45
 70
     1
102
RTVSPropertyOp46
 70
     1
102
RTVSPropertyOp47
 70
     1
102
RTVSPropertyOp48
 70
     1
102
RTVSPropertyOp49
 70
     1
102
RTVSPropertyOp50
 70
     1
102
RTVSPropertyOp51
 70
     0
102
RTVSPropertyOp52
 70
     0
102
RTVSPropertyOp53
 70
     1
102
RTVSPropertyOp54
 70
     1
102
RTVSPropertyOp55
 70
     1
102
RTVSPropertyOp56
 70
     1
102
RTVSPropertyOp57
 70
     1
102
RTVSPropertyOp58
 70
     1
102
RTVSPropertyOp59
 70
     1
102
RTVSPropertyOp60
 70
     1
102
RTVSPropertyOp61
 70
     1
102
RTVSPropertyOp62
 70
     1
  0
XRECORD
  5
38DB
102
{ACAD_REACTORS
330
38DA
102
}
330
38DA
100
AcDbXrecord
280
     1
102
RTVSPost2010Prop28
280
     0
102
RTVSPost2010PropOp28
 70
     1
102
RTVSPost2010Prop29
280
     1
102
RTVSPost2010PropOp29
 70
     1
102
RTVSPost2010Prop30
280
     1
102
RTVSPost2010PropOp30
 70
     1
102
RTVSPost2010Prop31
280
     0
102
RTVSPost2010PropOp31
 70
     1
102
RTVSPost2010Prop32
280
     0
102
RTVSPost2010PropOp32
 70
     1
102
RTVSPost2010Prop33
280
     0
102
RTVSPost2010PropOp33
 70
     1
102
RTVSPost2010Prop34
280
     0
102
RTVSPost2010PropOp34
 70
     1
102
RTVSPost2010Prop35
280
     0
102
RTVSPost2010PropOp35
 70
     1
102
RTVSPost2010Prop36
280
     0
102
RTVSPost2010PropOp36
 70
     1
102
RTVSPost2010Prop37
 90
       50
102
RTVSPost2010PropOp37
 70
     1
102
RTVSPost2010Prop38
140
0.0
102
RTVSPost2010PropOp38
 70
     1
102
RTVSPost2010Prop39
140
1.0
102
RTVSPost2010PropOp39
 70
     1
102
RTVSPost2010Prop40
 90
        0
102
RTVSPost2010PropOp40
 70
     1
102
RTVSPost2010Prop41ColorIndex
 90
       18
102
RTVSPost2010Prop41ColorRGB
 90
        0
102
RTVSPost2010PropOp41
 70
     1
102
RTVSPost2010Prop42
 90
       50
102
RTVSPost2010PropOp42
 70
     1
102
RTVSPost2010Prop43
 90
        3
102
RTVSPost2010PropOp43
 70
     1
102
RTVSPost2010Prop44ColorIndex
 90
        5
102
RTVSPost2010Prop44ColorRGB
 90
      255
102
RTVSPost2010PropOp44
 70
     1
102
RTVSPost2010Prop45
280
     0
102
RTVSPost2010PropOp45
 70
     1
102
RTVSPost2010Prop46
 90
       50
102
RTVSPost2010PropOp46
 70
     1
102
RTVSPost2010Prop47
 90
       50
102
RTVSPost2010PropOp47
 70
     1
102
RTVSPost2010Prop48
 90
       50
102
RTVSPost2010PropOp48
 70
     1
102
RTVSPost2010Prop49
280
     0
102
RTVSPost2010PropOp49
 70
     1
102
RTVSPost2010Prop50
 90
       50
102
RTVSPost2010PropOp50
 70
     1
102
RTVSPost2010Prop51ColorIndex
 90
      256
102
RTVSPost2010Prop51ColorRGB
 90
-16777216
102
RTVSPost2010PropOp51
 70
     0
102
RTVSPost2010Prop52
140
1.0
102
RTVSPost2010PropOp52
 70
     0
102
RTVSPost2010Prop53
 90
        2
102
RTVSPost2010PropOp53
 70
     1
102
RTVSPost2010Prop54
  1
strokes_ogs.tif
102
RTVSPost2010PropOp54
 70
     1
102
RTVSPost2010Prop55
280
     0
102
RTVSPost2010PropOp55
 70
     1
102
RTVSPost2010Prop56
140
1.0
102
RTVSPost2010PropOp56
 70
     1
102
RTVSPost2010Prop57
140
1.0
102
RTVSPost2010PropOp57
 70
     1
102
RTVSPropertyOp0
 70
     1
102
RTVSPropertyOp1
 70
     1
102
RTVSPropertyOp2
 70
     1
102
RTVSPropertyOp3
 70
     1
102
RTVSPropertyOp4
 70
     1
102
RTVSPropertyOp5
 70
     1
102
RTVSPropertyOp6
 70
     1
102
RTVSPropertyOp7
 70
     1
102
RTVSPropertyOp8
 70
     1
102
RTVSPropertyOp9
 70
     1
102
RTVSPropertyOp10
 70
     1
102
RTVSPropertyOp11
 70
     1
102
RTVSPropertyOp12
 70
     1
102
RTVSPropertyOp13
 70
     1
102
RTVSPropertyOp14
 70
     1
102
RTVSPropertyOp15
 70
     1
102
RTVSPropertyOp16
 70
     1
102
RTVSPropertyOp17
 70
     1
102
RTVSPropertyOp18
 70
     1
102
RTVSPropertyOp19
 70
     1
102
RTVSPropertyOp20
 70
     1
102
RTVSPropertyOp21
 70
     1
102
RTVSPropertyOp22
 70
     1
102
RTVSPropertyOp23
 70
     1
102
RTVSPropertyOp24
 70
     1
102
RTVSPropertyOp25
 70
     1
102
RTVSPropertyOp26
 70
     1
102
RTVSPropertyOp27
 70
     1
102
RTVSPropertyOp28
 70
     1
102
RTVSPropertyOp29
 70
     1
102
RTVSPropertyOp30
 70
     1
102
RTVSPropertyOp31
 70
     1
102
RTVSPropertyOp32
 70
     1
102
RTVSPropertyOp33
 70
     1
102
RTVSPropertyOp34
 70
     1
102
RTVSPropertyOp35
 70
     1
102
RTVSPropertyOp36
 70
     1
102
RTVSPropertyOp37
 70
     1
102
RTVSPropertyOp38
 70
     1
102
RTVSPropertyOp39
 70
     1
102
RTVSPropertyOp40
 70
     1
102
RTVSPropertyOp41
 70
     1
102
RTVSPropertyOp42
 70
     1
102
RTVSPropertyOp43
 70
     1
102
RTVSPropertyOp44
 70
     1
102
RTVSPropertyOp45
 70
     1
102
RTVSPropertyOp46
 70
     1
102
RTVSPropertyOp47
 70
     1
102
RTVSPropertyOp48
 70
     1
102
RTVSPropertyOp49
 70
     1
102
RTVSPropertyOp50
 70
     1
102
RTVSPropertyOp51
 70
     0
102
RTVSPropertyOp52
 70
     0
102
RTVSPropertyOp53
 70
     1
102
RTVSPropertyOp54
 70
     1
102
RTVSPropertyOp55
 70
     1
102
RTVSPropertyOp56
 70
     1
102
RTVSPropertyOp57
 70
     1
102
RTVSPropertyOp58
 70
     1
102
RTVSPropertyOp59
 70
     1
102
RTVSPropertyOp60
 70
     1
102
RTVSPropertyOp61
 70
     1
102
RTVSPropertyOp62
 70
     1
  0
XRECORD
  5
38E3
102
{ACAD_REACTORS
330
38E2
102
}
330
38E2
100
AcDbXrecord
280
     1
102
RTVSPost2010Prop28
280
     0
102
RTVSPost2010PropOp28
 70
     1
102
RTVSPost2010Prop29
280
     1
102
RTVSPost2010PropOp29
 70
     1
102
RTVSPost2010Prop30
280
     1
102
RTVSPost2010PropOp30
 70
     1
102
RTVSPost2010Prop31
280
     0
102
RTVSPost2010PropOp31
 70
     1
102
RTVSPost2010Prop32
280
     0
102
RTVSPost2010PropOp32
 70
     1
102
RTVSPost2010Prop33
280
     0
102
RTVSPost2010PropOp33
 70
     1
102
RTVSPost2010Prop34
280
     0
102
RTVSPost2010PropOp34
 70
     1
102
RTVSPost2010Prop35
280
     0
102
RTVSPost2010PropOp35
 70
     1
102
RTVSPost2010Prop36
280
     0
102
RTVSPost2010PropOp36
 70
     1
102
RTVSPost2010Prop37
 90
       50
102
RTVSPost2010PropOp37
 70
     1
102
RTVSPost2010Prop38
140
0.0
102
RTVSPost2010PropOp38
 70
     1
102
RTVSPost2010Prop39
140
1.0
102
RTVSPost2010PropOp39
 70
     1
102
RTVSPost2010Prop40
 90
        0
102
RTVSPost2010PropOp40
 70
     1
102
RTVSPost2010Prop41ColorIndex
 90
       18
102
RTVSPost2010Prop41ColorRGB
 90
        0
102
RTVSPost2010PropOp41
 70
     1
102
RTVSPost2010Prop42
 90
       50
102
RTVSPost2010PropOp42
 70
     1
102
RTVSPost2010Prop43
 90
        3
102
RTVSPost2010PropOp43
 70
     1
102
RTVSPost2010Prop44ColorIndex
 90
        5
102
RTVSPost2010Prop44ColorRGB
 90
      255
102
RTVSPost2010PropOp44
 70
     1
102
RTVSPost2010Prop45
280
     0
102
RTVSPost2010PropOp45
 70
     1
102
RTVSPost2010Prop46
 90
       50
102
RTVSPost2010PropOp46
 70
     1
102
RTVSPost2010Prop47
 90
       50
102
RTVSPost2010PropOp47
 70
     1
102
RTVSPost2010Prop48
 90
       50
102
RTVSPost2010PropOp48
 70
     1
102
RTVSPost2010Prop49
280
     0
102
RTVSPost2010PropOp49
 70
     1
102
RTVSPost2010Prop50
 90
       50
102
RTVSPost2010PropOp50
 70
     1
102
RTVSPost2010Prop51ColorIndex
 90
      256
102
RTVSPost2010Prop51ColorRGB
 90
-16777216
102
RTVSPost2010PropOp51
 70
     0
102
RTVSPost2010Prop52
140
1.0
102
RTVSPost2010PropOp52
 70
     0
102
RTVSPost2010Prop53
 90
        2
102
RTVSPost2010PropOp53
 70
     1
102
RTVSPost2010Prop54
  1
strokes_ogs.tif
102
RTVSPost2010PropOp54
 70
     1
102
RTVSPost2010Prop55
280
     0
102
RTVSPost2010PropOp55
 70
     1
102
RTVSPost2010Prop56
140
1.0
102
RTVSPost2010PropOp56
 70
     1
102
RTVSPost2010Prop57
140
1.0
102
RTVSPost2010PropOp57
 70
     1
102
RTVSPropertyOp0
 70
     1
102
RTVSPropertyOp1
 70
     1
102
RTVSPropertyOp2
 70
     1
102
RTVSPropertyOp3
 70
     1
102
RTVSPropertyOp4
 70
     1
102
RTVSPropertyOp5
 70
     1
102
RTVSPropertyOp6
 70
     1
102
RTVSPropertyOp7
 70
     1
102
RTVSPropertyOp8
 70
     1
102
RTVSPropertyOp9
 70
     1
102
RTVSPropertyOp10
 70
     1
102
RTVSPropertyOp11
 70
     1
102
RTVSPropertyOp12
 70
     1
102
RTVSPropertyOp13
 70
     1
102
RTVSPropertyOp14
 70
     1
102
RTVSPropertyOp15
 70
     1
102
RTVSPropertyOp16
 70
     1
102
RTVSPropertyOp17
 70
     1
102
RTVSPropertyOp18
 70
     1
102
RTVSPropertyOp19
 70
     1
102
RTVSPropertyOp20
 70
     1
102
RTVSPropertyOp21
 70
     1
102
RTVSPropertyOp22
 70
     1
102
RTVSPropertyOp23
 70
     1
102
RTVSPropertyOp24
 70
     1
102
RTVSPropertyOp25
 70
     1
102
RTVSPropertyOp26
 70
     1
102
RTVSPropertyOp27
 70
     1
102
RTVSPropertyOp28
 70
     1
102
RTVSPropertyOp29
 70
     1
102
RTVSPropertyOp30
 70
     1
102
RTVSPropertyOp31
 70
     1
102
RTVSPropertyOp32
 70
     1
102
RTVSPropertyOp33
 70
     1
102
RTVSPropertyOp34
 70
     1
102
RTVSPropertyOp35
 70
     1
102
RTVSPropertyOp36
 70
     1
102
RTVSPropertyOp37
 70
     1
102
RTVSPropertyOp38
 70
     1
102
RTVSPropertyOp39
 70
     1
102
RTVSPropertyOp40
 70
     1
102
RTVSPropertyOp41
 70
     1
102
RTVSPropertyOp42
 70
     1
102
RTVSPropertyOp43
 70
     1
102
RTVSPropertyOp44
 70
     1
102
RTVSPropertyOp45
 70
     1
102
RTVSPropertyOp46
 70
     1
102
RTVSPropertyOp47
 70
     1
102
RTVSPropertyOp48
 70
     1
102
RTVSPropertyOp49
 70
     1
102
RTVSPropertyOp50
 70
     1
102
RTVSPropertyOp51
 70
     0
102
RTVSPropertyOp52
 70
     0
102
RTVSPropertyOp53
 70
     1
102
RTVSPropertyOp54
 70
     1
102
RTVSPropertyOp55
 70
     1
102
RTVSPropertyOp56
 70
     1
102
RTVSPropertyOp57
 70
     1
102
RTVSPropertyOp58
 70
     1
102
RTVSPropertyOp59
 70
     1
102
RTVSPropertyOp60
 70
     1
102
RTVSPropertyOp61
 70
     1
102
RTVSPropertyOp62
 70
     1
  0
XRECORD
  5
38D5
102
{ACAD_REACTORS
330
38D4
102
}
330
38D4
100
AcDbXrecord
280
     1
102
RTVSPost2010Prop28
280
     0
102
RTVSPost2010PropOp28
 70
     1
102
RTVSPost2010Prop29
280
     1
102
RTVSPost2010PropOp29
 70
     1
102
RTVSPost2010Prop30
280
     1
102
RTVSPost2010PropOp30
 70
     1
102
RTVSPost2010Prop31
280
     0
102
RTVSPost2010PropOp31
 70
     1
102
RTVSPost2010Prop32
280
     0
102
RTVSPost2010PropOp32
 70
     1
102
RTVSPost2010Prop33
280
     0
102
RTVSPost2010PropOp33
 70
     1
102
RTVSPost2010Prop34
280
     0
102
RTVSPost2010PropOp34
 70
     1
102
RTVSPost2010Prop35
280
     0
102
RTVSPost2010PropOp35
 70
     1
102
RTVSPost2010Prop36
280
     0
102
RTVSPost2010PropOp36
 70
     1
102
RTVSPost2010Prop37
 90
       50
102
RTVSPost2010PropOp37
 70
     1
102
RTVSPost2010Prop38
140
0.0
102
RTVSPost2010PropOp38
 70
     1
102
RTVSPost2010Prop39
140
1.0
102
RTVSPost2010PropOp39
 70
     1
102
RTVSPost2010Prop40
 90
        0
102
RTVSPost2010PropOp40
 70
     1
102
RTVSPost2010Prop41ColorIndex
 90
       18
102
RTVSPost2010Prop41ColorRGB
 90
        0
102
RTVSPost2010PropOp41
 70
     1
102
RTVSPost2010Prop42
 90
       50
102
RTVSPost2010PropOp42
 70
     1
102
RTVSPost2010Prop43
 90
        3
102
RTVSPost2010PropOp43
 70
     1
102
RTVSPost2010Prop44ColorIndex
 90
        5
102
RTVSPost2010Prop44ColorRGB
 90
      255
102
RTVSPost2010PropOp44
 70
     1
102
RTVSPost2010Prop45
280
     0
102
RTVSPost2010PropOp45
 70
     1
102
RTVSPost2010Prop46
 90
       50
102
RTVSPost2010PropOp46
 70
     1
102
RTVSPost2010Prop47
 90
       50
102
RTVSPost2010PropOp47
 70
     1
102
RTVSPost2010Prop48
 90
       50
102
RTVSPost2010PropOp48
 70
     1
102
RTVSPost2010Prop49
280
     0
102
RTVSPost2010PropOp49
 70
     1
102
RTVSPost2010Prop50
 90
       50
102
RTVSPost2010PropOp50
 70
     1
102
RTVSPost2010Prop51ColorIndex
 90
      256
102
RTVSPost2010Prop51ColorRGB
 90
-16777216
102
RTVSPost2010PropOp51
 70
     0
102
RTVSPost2010Prop52
140
1.0
102
RTVSPost2010PropOp52
 70
     0
102
RTVSPost2010Prop53
 90
        2
102
RTVSPost2010PropOp53
 70
     1
102
RTVSPost2010Prop54
  1
strokes_ogs.tif
102
RTVSPost2010PropOp54
 70
     1
102
RTVSPost2010Prop55
280
     0
102
RTVSPost2010PropOp55
 70
     1
102
RTVSPost2010Prop56
140
1.0
102
RTVSPost2010PropOp56
 70
     1
102
RTVSPost2010Prop57
140
1.0
102
RTVSPost2010PropOp57
 70
     1
102
RTVSPropertyOp0
 70
     1
102
RTVSPropertyOp1
 70
     1
102
RTVSPropertyOp2
 70
     1
102
RTVSPropertyOp3
 70
     1
102
RTVSPropertyOp4
 70
     1
102
RTVSPropertyOp5
 70
     1
102
RTVSPropertyOp6
 70
     1
102
RTVSPropertyOp7
 70
     1
102
RTVSPropertyOp8
 70
     1
102
RTVSPropertyOp9
 70
     1
102
RTVSPropertyOp10
 70
     1
102
RTVSPropertyOp11
 70
     1
102
RTVSPropertyOp12
 70
     1
102
RTVSPropertyOp13
 70
     1
102
RTVSPropertyOp14
 70
     1
102
RTVSPropertyOp15
 70
     1
102
RTVSPropertyOp16
 70
     1
102
RTVSPropertyOp17
 70
     1
102
RTVSPropertyOp18
 70
     1
102
RTVSPropertyOp19
 70
     1
102
RTVSPropertyOp20
 70
     1
102
RTVSPropertyOp21
 70
     1
102
RTVSPropertyOp22
 70
     1
102
RTVSPropertyOp23
 70
     1
102
RTVSPropertyOp24
 70
     1
102
RTVSPropertyOp25
 70
     1
102
RTVSPropertyOp26
 70
     1
102
RTVSPropertyOp27
 70
     1
102
RTVSPropertyOp28
 70
     1
102
RTVSPropertyOp29
 70
     1
102
RTVSPropertyOp30
 70
     1
102
RTVSPropertyOp31
 70
     1
102
RTVSPropertyOp32
 70
     1
102
RTVSPropertyOp33
 70
     1
102
RTVSPropertyOp34
 70
     1
102
RTVSPropertyOp35
 70
     1
102
RTVSPropertyOp36
 70
     1
102
RTVSPropertyOp37
 70
     1
102
RTVSPropertyOp38
 70
     1
102
RTVSPropertyOp39
 70
     1
102
RTVSPropertyOp40
 70
     1
102
RTVSPropertyOp41
 70
     1
102
RTVSPropertyOp42
 70
     1
102
RTVSPropertyOp43
 70
     1
102
RTVSPropertyOp44
 70
     1
102
RTVSPropertyOp45
 70
     1
102
RTVSPropertyOp46
 70
     1
102
RTVSPropertyOp47
 70
     1
102
RTVSPropertyOp48
 70
     1
102
RTVSPropertyOp49
 70
     1
102
RTVSPropertyOp50
 70
     1
102
RTVSPropertyOp51
 70
     0
102
RTVSPropertyOp52
 70
     0
102
RTVSPropertyOp53
 70
     1
102
RTVSPropertyOp54
 70
     1
102
RTVSPropertyOp55
 70
     1
102
RTVSPropertyOp56
 70
     1
102
RTVSPropertyOp57
 70
     1
102
RTVSPropertyOp58
 70
     1
102
RTVSPropertyOp59
 70
     1
102
RTVSPropertyOp60
 70
     1
102
RTVSPropertyOp61
 70
     1
102
RTVSPropertyOp62
 70
     1
  0
XRECORD
  5
38D9
102
{ACAD_REACTORS
330
38D8
102
}
330
38D8
100
AcDbXrecord
280
     1
102
RTVSPost2010Prop28
280
     0
102
RTVSPost2010PropOp28
 70
     1
102
RTVSPost2010Prop29
280
     1
102
RTVSPost2010PropOp29
 70
     1
102
RTVSPost2010Prop30
280
     1
102
RTVSPost2010PropOp30
 70
     1
102
RTVSPost2010Prop31
280
     0
102
RTVSPost2010PropOp31
 70
     1
102
RTVSPost2010Prop32
280
     0
102
RTVSPost2010PropOp32
 70
     1
102
RTVSPost2010Prop33
280
     0
102
RTVSPost2010PropOp33
 70
     1
102
RTVSPost2010Prop34
280
     0
102
RTVSPost2010PropOp34
 70
     1
102
RTVSPost2010Prop35
280
     0
102
RTVSPost2010PropOp35
 70
     1
102
RTVSPost2010Prop36
280
     0
102
RTVSPost2010PropOp36
 70
     1
102
RTVSPost2010Prop37
 90
       50
102
RTVSPost2010PropOp37
 70
     1
102
RTVSPost2010Prop38
140
0.0
102
RTVSPost2010PropOp38
 70
     1
102
RTVSPost2010Prop39
140
1.0
102
RTVSPost2010PropOp39
 70
     1
102
RTVSPost2010Prop40
 90
        0
102
RTVSPost2010PropOp40
 70
     1
102
RTVSPost2010Prop41ColorIndex
 90
       18
102
RTVSPost2010Prop41ColorRGB
 90
        0
102
RTVSPost2010PropOp41
 70
     1
102
RTVSPost2010Prop42
 90
       50
102
RTVSPost2010PropOp42
 70
     1
102
RTVSPost2010Prop43
 90
        3
102
RTVSPost2010PropOp43
 70
     1
102
RTVSPost2010Prop44ColorIndex
 90
        5
102
RTVSPost2010Prop44ColorRGB
 90
      255
102
RTVSPost2010PropOp44
 70
     1
102
RTVSPost2010Prop45
280
     0
102
RTVSPost2010PropOp45
 70
     1
102
RTVSPost2010Prop46
 90
       50
102
RTVSPost2010PropOp46
 70
     1
102
RTVSPost2010Prop47
 90
       50
102
RTVSPost2010PropOp47
 70
     1
102
RTVSPost2010Prop48
 90
       50
102
RTVSPost2010PropOp48
 70
     1
102
RTVSPost2010Prop49
280
     0
102
RTVSPost2010PropOp49
 70
     1
102
RTVSPost2010Prop50
 90
       50
102
RTVSPost2010PropOp50
 70
     1
102
RTVSPost2010Prop51ColorIndex
 90
      256
102
RTVSPost2010Prop51ColorRGB
 90
-16777216
102
RTVSPost2010PropOp51
 70
     0
102
RTVSPost2010Prop52
140
1.0
102
RTVSPost2010PropOp52
 70
     0
102
RTVSPost2010Prop53
 90
        2
102
RTVSPost2010PropOp53
 70
     1
102
RTVSPost2010Prop54
  1
strokes_ogs.tif
102
RTVSPost2010PropOp54
 70
     1
102
RTVSPost2010Prop55
280
     0
102
RTVSPost2010PropOp55
 70
     1
102
RTVSPost2010Prop56
140
1.0
102
RTVSPost2010PropOp56
 70
     1
102
RTVSPost2010Prop57
140
1.0
102
RTVSPost2010PropOp57
 70
     1
102
RTVSPropertyOp0
 70
     1
102
RTVSPropertyOp1
 70
     1
102
RTVSPropertyOp2
 70
     1
102
RTVSPropertyOp3
 70
     1
102
RTVSPropertyOp4
 70
     1
102
RTVSPropertyOp5
 70
     1
102
RTVSPropertyOp6
 70
     1
102
RTVSPropertyOp7
 70
     1
102
RTVSPropertyOp8
 70
     1
102
RTVSPropertyOp9
 70
     1
102
RTVSPropertyOp10
 70
     1
102
RTVSPropertyOp11
 70
     1
102
RTVSPropertyOp12
 70
     1
102
RTVSPropertyOp13
 70
     1
102
RTVSPropertyOp14
 70
     1
102
RTVSPropertyOp15
 70
     1
102
RTVSPropertyOp16
 70
     1
102
RTVSPropertyOp17
 70
     1
102
RTVSPropertyOp18
 70
     1
102
RTVSPropertyOp19
 70
     1
102
RTVSPropertyOp20
 70
     1
102
RTVSPropertyOp21
 70
     1
102
RTVSPropertyOp22
 70
     1
102
RTVSPropertyOp23
 70
     1
102
RTVSPropertyOp24
 70
     1
102
RTVSPropertyOp25
 70
     1
102
RTVSPropertyOp26
 70
     1
102
RTVSPropertyOp27
 70
     1
102
RTVSPropertyOp28
 70
     1
102
RTVSPropertyOp29
 70
     1
102
RTVSPropertyOp30
 70
     1
102
RTVSPropertyOp31
 70
     1
102
RTVSPropertyOp32
 70
     1
102
RTVSPropertyOp33
 70
     1
102
RTVSPropertyOp34
 70
     1
102
RTVSPropertyOp35
 70
     1
102
RTVSPropertyOp36
 70
     1
102
RTVSPropertyOp37
 70
     1
102
RTVSPropertyOp38
 70
     1
102
RTVSPropertyOp39
 70
     1
102
RTVSPropertyOp40
 70
     1
102
RTVSPropertyOp41
 70
     1
102
RTVSPropertyOp42
 70
     1
102
RTVSPropertyOp43
 70
     1
102
RTVSPropertyOp44
 70
     1
102
RTVSPropertyOp45
 70
     1
102
RTVSPropertyOp46
 70
     1
102
RTVSPropertyOp47
 70
     1
102
RTVSPropertyOp48
 70
     1
102
RTVSPropertyOp49
 70
     1
102
RTVSPropertyOp50
 70
     1
102
RTVSPropertyOp51
 70
     0
102
RTVSPropertyOp52
 70
     0
102
RTVSPropertyOp53
 70
     1
102
RTVSPropertyOp54
 70
     1
102
RTVSPropertyOp55
 70
     1
102
RTVSPropertyOp56
 70
     1
102
RTVSPropertyOp57
 70
     1
102
RTVSPropertyOp58
 70
     1
102
RTVSPropertyOp59
 70
     1
102
RTVSPropertyOp60
 70
     1
102
RTVSPropertyOp61
 70
     1
102
RTVSPropertyOp62
 70
     1
  0
XRECORD
  5
38E9
102
{ACAD_REACTORS
330
38E8
102
}
330
38E8
100
AcDbXrecord
280
     1
102
RTVSPost2010Prop28
280
     0
102
RTVSPost2010PropOp28
 70
     1
102
RTVSPost2010Prop29
280
     1
102
RTVSPost2010PropOp29
 70
     1
102
RTVSPost2010Prop30
280
     1
102
RTVSPost2010PropOp30
 70
     1
102
RTVSPost2010Prop31
280
     0
102
RTVSPost2010PropOp31
 70
     1
102
RTVSPost2010Prop32
280
     0
102
RTVSPost2010PropOp32
 70
     1
102
RTVSPost2010Prop33
280
     0
102
RTVSPost2010PropOp33
 70
     1
102
RTVSPost2010Prop34
280
     0
102
RTVSPost2010PropOp34
 70
     1
102
RTVSPost2010Prop35
280
     0
102
RTVSPost2010PropOp35
 70
     1
102
RTVSPost2010Prop36
280
     0
102
RTVSPost2010PropOp36
 70
     1
102
RTVSPost2010Prop37
 90
       50
102
RTVSPost2010PropOp37
 70
     1
102
RTVSPost2010Prop38
140
0.0
102
RTVSPost2010PropOp38
 70
     1
102
RTVSPost2010Prop39
140
1.0
102
RTVSPost2010PropOp39
 70
     1
102
RTVSPost2010Prop40
 90
        0
102
RTVSPost2010PropOp40
 70
     1
102
RTVSPost2010Prop41ColorIndex
 90
       18
102
RTVSPost2010Prop41ColorRGB
 90
        0
102
RTVSPost2010PropOp41
 70
     1
102
RTVSPost2010Prop42
 90
       50
102
RTVSPost2010PropOp42
 70
     1
102
RTVSPost2010Prop43
 90
        3
102
RTVSPost2010PropOp43
 70
     1
102
RTVSPost2010Prop44ColorIndex
 90
        5
102
RTVSPost2010Prop44ColorRGB
 90
      255
102
RTVSPost2010PropOp44
 70
     1
102
RTVSPost2010Prop45
280
     0
102
RTVSPost2010PropOp45
 70
     1
102
RTVSPost2010Prop46
 90
       50
102
RTVSPost2010PropOp46
 70
     1
102
RTVSPost2010Prop47
 90
       50
102
RTVSPost2010PropOp47
 70
     1
102
RTVSPost2010Prop48
 90
       50
102
RTVSPost2010PropOp48
 70
     1
102
RTVSPost2010Prop49
280
     0
102
RTVSPost2010PropOp49
 70
     1
102
RTVSPost2010Prop50
 90
       50
102
RTVSPost2010PropOp50
 70
     1
102
RTVSPost2010Prop51ColorIndex
 90
      256
102
RTVSPost2010Prop51ColorRGB
 90
-16777216
102
RTVSPost2010PropOp51
 70
     0
102
RTVSPost2010Prop52
140
1.0
102
RTVSPost2010PropOp52
 70
     0
102
RTVSPost2010Prop53
 90
        2
102
RTVSPost2010PropOp53
 70
     1
102
RTVSPost2010Prop54
  1
strokes_ogs.tif
102
RTVSPost2010PropOp54
 70
     1
102
RTVSPost2010Prop55
280
     0
102
RTVSPost2010PropOp55
 70
     1
102
RTVSPost2010Prop56
140
1.0
102
RTVSPost2010PropOp56
 70
     1
102
RTVSPost2010Prop57
140
1.0
102
RTVSPost2010PropOp57
 70
     1
102
RTVSPropertyOp0
 70
     0
102
RTVSPropertyOp1
 70
     0
102
RTVSPropertyOp2
 70
     0
102
RTVSPropertyOp3
 70
     0
102
RTVSPropertyOp4
 70
     0
102
RTVSPropertyOp5
 70
     0
102
RTVSPropertyOp6
 70
     0
102
RTVSPropertyOp7
 70
     0
102
RTVSPropertyOp8
 70
     0
102
RTVSPropertyOp9
 70
     0
102
RTVSPropertyOp10
 70
     0
102
RTVSPropertyOp11
 70
     0
102
RTVSPropertyOp12
 70
     0
102
RTVSPropertyOp13
 70
     0
102
RTVSPropertyOp14
 70
     2
102
RTVSPropertyOp15
 70
     0
102
RTVSPropertyOp16
 70
     0
102
RTVSPropertyOp17
 70
     0
102
RTVSPropertyOp18
 70
     0
102
RTVSPropertyOp19
 70
     0
102
RTVSPropertyOp20
 70
     0
102
RTVSPropertyOp21
 70
     0
102
RTVSPropertyOp22
 70
     0
102
RTVSPropertyOp23
 70
     0
102
RTVSPropertyOp24
 70
     0
102
RTVSPropertyOp25
 70
     0
102
RTVSPropertyOp26
 70
     0
102
RTVSPropertyOp27
 70
     0
102
RTVSPropertyOp28
 70
     1
102
RTVSPropertyOp29
 70
     1
102
RTVSPropertyOp30
 70
     1
102
RTVSPropertyOp31
 70
     1
102
RTVSPropertyOp32
 70
     1
102
RTVSPropertyOp33
 70
     1
102
RTVSPropertyOp34
 70
     1
102
RTVSPropertyOp35
 70
     1
102
RTVSPropertyOp36
 70
     1
102
RTVSPropertyOp37
 70
     1
102
RTVSPropertyOp38
 70
     1
102
RTVSPropertyOp39
 70
     1
102
RTVSPropertyOp40
 70
     1
102
RTVSPropertyOp41
 70
     1
102
RTVSPropertyOp42
 70
     1
102
RTVSPropertyOp43
 70
     1
102
RTVSPropertyOp44
 70
     1
102
RTVSPropertyOp45
 70
     1
102
RTVSPropertyOp46
 70
     1
102
RTVSPropertyOp47
 70
     1
102
RTVSPropertyOp48
 70
     1
102
RTVSPropertyOp49
 70
     1
102
RTVSPropertyOp50
 70
     1
102
RTVSPropertyOp51
 70
     0
102
RTVSPropertyOp52
 70
     0
102
RTVSPropertyOp53
 70
     1
102
RTVSPropertyOp54
 70
     1
102
RTVSPropertyOp55
 70
     1
102
RTVSPropertyOp56
 70
     1
102
RTVSPropertyOp57
 70
     1
102
RTVSPropertyOp58
 70
     1
102
RTVSPropertyOp59
 70
     1
102
RTVSPropertyOp60
 70
     1
102
RTVSPropertyOp61
 70
     1
102
RTVSPropertyOp62
 70
     1
  0
XRECORD
  5
38E1
102
{ACAD_REACTORS
330
38E0
102
}
330
38E0
100
AcDbXrecord
280
     1
102
RTVSPost2010Prop28
280
     0
102
RTVSPost2010PropOp28
 70
     1
102
RTVSPost2010Prop29
280
     1
102
RTVSPost2010PropOp29
 70
     1
102
RTVSPost2010Prop30
280
     1
102
RTVSPost2010PropOp30
 70
     1
102
RTVSPost2010Prop31
280
     0
102
RTVSPost2010PropOp31
 70
     1
102
RTVSPost2010Prop32
280
     0
102
RTVSPost2010PropOp32
 70
     1
102
RTVSPost2010Prop33
280
     0
102
RTVSPost2010PropOp33
 70
     1
102
RTVSPost2010Prop34
280
     0
102
RTVSPost2010PropOp34
 70
     1
102
RTVSPost2010Prop35
280
     0
102
RTVSPost2010PropOp35
 70
     1
102
RTVSPost2010Prop36
280
     0
102
RTVSPost2010PropOp36
 70
     1
102
RTVSPost2010Prop37
 90
       50
102
RTVSPost2010PropOp37
 70
     1
102
RTVSPost2010Prop38
140
0.0
102
RTVSPost2010PropOp38
 70
     1
102
RTVSPost2010Prop39
140
1.0
102
RTVSPost2010PropOp39
 70
     1
102
RTVSPost2010Prop40
 90
        0
102
RTVSPost2010PropOp40
 70
     1
102
RTVSPost2010Prop41ColorIndex
 90
       18
102
RTVSPost2010Prop41ColorRGB
 90
        0
102
RTVSPost2010PropOp41
 70
     1
102
RTVSPost2010Prop42
 90
       50
102
RTVSPost2010PropOp42
 70
     1
102
RTVSPost2010Prop43
 90
        3
102
RTVSPost2010PropOp43
 70
     1
102
RTVSPost2010Prop44ColorIndex
 90
        5
102
RTVSPost2010Prop44ColorRGB
 90
      255
102
RTVSPost2010PropOp44
 70
     1
102
RTVSPost2010Prop45
280
     0
102
RTVSPost2010PropOp45
 70
     1
102
RTVSPost2010Prop46
 90
       50
102
RTVSPost2010PropOp46
 70
     1
102
RTVSPost2010Prop47
 90
       50
102
RTVSPost2010PropOp47
 70
     1
102
RTVSPost2010Prop48
 90
       50
102
RTVSPost2010PropOp48
 70
     1
102
RTVSPost2010Prop49
280
     0
102
RTVSPost2010PropOp49
 70
     1
102
RTVSPost2010Prop50
 90
       50
102
RTVSPost2010PropOp50
 70
     1
102
RTVSPost2010Prop51ColorIndex
 90
      256
102
RTVSPost2010Prop51ColorRGB
 90
-16777216
102
RTVSPost2010PropOp51
 70
     0
102
RTVSPost2010Prop52
140
1.0
102
RTVSPost2010PropOp52
 70
     0
102
RTVSPost2010Prop53
 90
        2
102
RTVSPost2010PropOp53
 70
     1
102
RTVSPost2010Prop54
  1
strokes_ogs.tif
102
RTVSPost2010PropOp54
 70
     1
102
RTVSPost2010Prop55
280
     0
102
RTVSPost2010PropOp55
 70
     1
102
RTVSPost2010Prop56
140
1.0
102
RTVSPost2010PropOp56
 70
     1
102
RTVSPost2010Prop57
140
1.0
102
RTVSPost2010PropOp57
 70
     1
102
RTVSPropertyOp0
 70
     1
102
RTVSPropertyOp1
 70
     1
102
RTVSPropertyOp2
 70
     1
102
RTVSPropertyOp3
 70
     1
102
RTVSPropertyOp4
 70
     1
102
RTVSPropertyOp5
 70
     1
102
RTVSPropertyOp6
 70
     1
102
RTVSPropertyOp7
 70
     1
102
RTVSPropertyOp8
 70
     1
102
RTVSPropertyOp9
 70
     1
102
RTVSPropertyOp10
 70
     1
102
RTVSPropertyOp11
 70
     1
102
RTVSPropertyOp12
 70
     1
102
RTVSPropertyOp13
 70
     1
102
RTVSPropertyOp14
 70
     1
102
RTVSPropertyOp15
 70
     1
102
RTVSPropertyOp16
 70
     1
102
RTVSPropertyOp17
 70
     1
102
RTVSPropertyOp18
 70
     1
102
RTVSPropertyOp19
 70
     1
102
RTVSPropertyOp20
 70
     1
102
RTVSPropertyOp21
 70
     1
102
RTVSPropertyOp22
 70
     1
102
RTVSPropertyOp23
 70
     1
102
RTVSPropertyOp24
 70
     1
102
RTVSPropertyOp25
 70
     1
102
RTVSPropertyOp26
 70
     1
102
RTVSPropertyOp27
 70
     1
102
RTVSPropertyOp28
 70
     1
102
RTVSPropertyOp29
 70
     1
102
RTVSPropertyOp30
 70
     1
102
RTVSPropertyOp31
 70
     1
102
RTVSPropertyOp32
 70
     1
102
RTVSPropertyOp33
 70
     1
102
RTVSPropertyOp34
 70
     1
102
RTVSPropertyOp35
 70
     1
102
RTVSPropertyOp36
 70
     1
102
RTVSPropertyOp37
 70
     1
102
RTVSPropertyOp38
 70
     1
102
RTVSPropertyOp39
 70
     1
102
RTVSPropertyOp40
 70
     1
102
RTVSPropertyOp41
 70
     1
102
RTVSPropertyOp42
 70
     1
102
RTVSPropertyOp43
 70
     1
102
RTVSPropertyOp44
 70
     1
102
RTVSPropertyOp45
 70
     1
102
RTVSPropertyOp46
 70
     1
102
RTVSPropertyOp47
 70
     1
102
RTVSPropertyOp48
 70
     1
102
RTVSPropertyOp49
 70
     1
102
RTVSPropertyOp50
 70
     1
102
RTVSPropertyOp51
 70
     0
102
RTVSPropertyOp52
 70
     0
102
RTVSPropertyOp53
 70
     1
102
RTVSPropertyOp54
 70
     1
102
RTVSPropertyOp55
 70
     1
102
RTVSPropertyOp56
 70
     1
102
RTVSPropertyOp57
 70
     1
102
RTVSPropertyOp58
 70
     1
102
RTVSPropertyOp59
 70
     1
102
RTVSPropertyOp60
 70
     1
102
RTVSPropertyOp61
 70
     1
102
RTVSPropertyOp62
 70
     1
  0
XRECORD
  5
38C5
102
{ACAD_REACTORS
330
38C4
102
}
330
38C4
100
AcDbXrecord
280
     1
102
RTVSPost2010Prop28
280
     0
102
RTVSPost2010PropOp28
 70
     1
102
RTVSPost2010Prop29
280
     1
102
RTVSPost2010PropOp29
 70
     1
102
RTVSPost2010Prop30
280
     1
102
RTVSPost2010PropOp30
 70
     1
102
RTVSPost2010Prop31
280
     0
102
RTVSPost2010PropOp31
 70
     1
102
RTVSPost2010Prop32
280
     0
102
RTVSPost2010PropOp32
 70
     1
102
RTVSPost2010Prop33
280
     0
102
RTVSPost2010PropOp33
 70
     1
102
RTVSPost2010Prop34
280
     0
102
RTVSPost2010PropOp34
 70
     1
102
RTVSPost2010Prop35
280
     0
102
RTVSPost2010PropOp35
 70
     1
102
RTVSPost2010Prop36
280
     0
102
RTVSPost2010PropOp36
 70
     1
102
RTVSPost2010Prop37
 90
       50
102
RTVSPost2010PropOp37
 70
     1
102
RTVSPost2010Prop38
140
0.0
102
RTVSPost2010PropOp38
 70
     1
102
RTVSPost2010Prop39
140
1.0
102
RTVSPost2010PropOp39
 70
     1
102
RTVSPost2010Prop40
 90
        0
102
RTVSPost2010PropOp40
 70
     1
102
RTVSPost2010Prop41ColorIndex
 90
       18
102
RTVSPost2010Prop41ColorRGB
 90
        0
102
RTVSPost2010PropOp41
 70
     1
102
RTVSPost2010Prop42
 90
       50
102
RTVSPost2010PropOp42
 70
     1
102
RTVSPost2010Prop43
 90
        3
102
RTVSPost2010PropOp43
 70
     1
102
RTVSPost2010Prop44ColorIndex
 90
        5
102
RTVSPost2010Prop44ColorRGB
 90
      255
102
RTVSPost2010PropOp44
 70
     1
102
RTVSPost2010Prop45
280
     0
102
RTVSPost2010PropOp45
 70
     1
102
RTVSPost2010Prop46
 90
       50
102
RTVSPost2010PropOp46
 70
     1
102
RTVSPost2010Prop47
 90
       50
102
RTVSPost2010PropOp47
 70
     1
102
RTVSPost2010Prop48
 90
       50
102
RTVSPost2010PropOp48
 70
     1
102
RTVSPost2010Prop49
280
     0
102
RTVSPost2010PropOp49
 70
     1
102
RTVSPost2010Prop50
 90
       50
102
RTVSPost2010PropOp50
 70
     1
102
RTVSPost2010Prop51ColorIndex
 90
      256
102
RTVSPost2010Prop51ColorRGB
 90
-16777216
102
RTVSPost2010PropOp51
 70
     0
102
RTVSPost2010Prop52
140
1.0
102
RTVSPost2010PropOp52
 70
     0
102
RTVSPost2010Prop53
 90
        2
102
RTVSPost2010PropOp53
 70
     1
102
RTVSPost2010Prop54
  1
strokes_ogs.tif
102
RTVSPost2010PropOp54
 70
     1
102
RTVSPost2010Prop55
280
     0
102
RTVSPost2010PropOp55
 70
     1
102
RTVSPost2010Prop56
140
1.0
102
RTVSPost2010PropOp56
 70
     1
102
RTVSPost2010Prop57
140
1.0
102
RTVSPost2010PropOp57
 70
     1
102
RTVSPropertyOp0
 70
     1
102
RTVSPropertyOp1
 70
     1
102
RTVSPropertyOp2
 70
     1
102
RTVSPropertyOp3
 70
     1
102
RTVSPropertyOp4
 70
     1
102
RTVSPropertyOp5
 70
     1
102
RTVSPropertyOp6
 70
     1
102
RTVSPropertyOp7
 70
     1
102
RTVSPropertyOp8
 70
     1
102
RTVSPropertyOp9
 70
     1
102
RTVSPropertyOp10
 70
     1
102
RTVSPropertyOp11
 70
     1
102
RTVSPropertyOp12
 70
     1
102
RTVSPropertyOp13
 70
     1
102
RTVSPropertyOp14
 70
     1
102
RTVSPropertyOp15
 70
     1
102
RTVSPropertyOp16
 70
     1
102
RTVSPropertyOp17
 70
     1
102
RTVSPropertyOp18
 70
     1
102
RTVSPropertyOp19
 70
     1
102
RTVSPropertyOp20
 70
     1
102
RTVSPropertyOp21
 70
     1
102
RTVSPropertyOp22
 70
     1
102
RTVSPropertyOp23
 70
     1
102
RTVSPropertyOp24
 70
     1
102
RTVSPropertyOp25
 70
     1
102
RTVSPropertyOp26
 70
     1
102
RTVSPropertyOp27
 70
     1
102
RTVSPropertyOp28
 70
     1
102
RTVSPropertyOp29
 70
     1
102
RTVSPropertyOp30
 70
     1
102
RTVSPropertyOp31
 70
     1
102
RTVSPropertyOp32
 70
     1
102
RTVSPropertyOp33
 70
     1
102
RTVSPropertyOp34
 70
     1
102
RTVSPropertyOp35
 70
     1
102
RTVSPropertyOp36
 70
     1
102
RTVSPropertyOp37
 70
     1
102
RTVSPropertyOp38
 70
     1
102
RTVSPropertyOp39
 70
     1
102
RTVSPropertyOp40
 70
     1
102
RTVSPropertyOp41
 70
     1
102
RTVSPropertyOp42
 70
     1
102
RTVSPropertyOp43
 70
     1
102
RTVSPropertyOp44
 70
     1
102
RTVSPropertyOp45
 70
     1
102
RTVSPropertyOp46
 70
     1
102
RTVSPropertyOp47
 70
     1
102
RTVSPropertyOp48
 70
     1
102
RTVSPropertyOp49
 70
     1
102
RTVSPropertyOp50
 70
     1
102
RTVSPropertyOp51
 70
     0
102
RTVSPropertyOp52
 70
     0
102
RTVSPropertyOp53
 70
     1
102
RTVSPropertyOp54
 70
     1
102
RTVSPropertyOp55
 70
     1
102
RTVSPropertyOp56
 70
     1
102
RTVSPropertyOp57
 70
     1
102
RTVSPropertyOp58
 70
     1
102
RTVSPropertyOp59
 70
     1
102
RTVSPropertyOp60
 70
     1
102
RTVSPropertyOp61
 70
     1
102
RTVSPropertyOp62
 70
     1
  0
XRECORD
  5
38C7
102
{ACAD_REACTORS
330
38C6
102
}
330
38C6
100
AcDbXrecord
280
     1
102
RTVSPost2010Prop28
280
     0
102
RTVSPost2010PropOp28
 70
     1
102
RTVSPost2010Prop29
280
     1
102
RTVSPost2010PropOp29
 70
     1
102
RTVSPost2010Prop30
280
     1
102
RTVSPost2010PropOp30
 70
     1
102
RTVSPost2010Prop31
280
     0
102
RTVSPost2010PropOp31
 70
     1
102
RTVSPost2010Prop32
280
     0
102
RTVSPost2010PropOp32
 70
     1
102
RTVSPost2010Prop33
280
     0
102
RTVSPost2010PropOp33
 70
     1
102
RTVSPost2010Prop34
280
     0
102
RTVSPost2010PropOp34
 70
     1
102
RTVSPost2010Prop35
280
     0
102
RTVSPost2010PropOp35
 70
     1
102
RTVSPost2010Prop36
280
     0
102
RTVSPost2010PropOp36
 70
     1
102
RTVSPost2010Prop37
 90
       50
102
RTVSPost2010PropOp37
 70
     1
102
RTVSPost2010Prop38
140
0.0
102
RTVSPost2010PropOp38
 70
     1
102
RTVSPost2010Prop39
140
1.0
102
RTVSPost2010PropOp39
 70
     1
102
RTVSPost2010Prop40
 90
        0
102
RTVSPost2010PropOp40
 70
     1
102
RTVSPost2010Prop41ColorIndex
 90
       18
102
RTVSPost2010Prop41ColorRGB
 90
        0
102
RTVSPost2010PropOp41
 70
     1
102
RTVSPost2010Prop42
 90
       50
102
RTVSPost2010PropOp42
 70
     1
102
RTVSPost2010Prop43
 90
        3
102
RTVSPost2010PropOp43
 70
     1
102
RTVSPost2010Prop44ColorIndex
 90
        5
102
RTVSPost2010Prop44ColorRGB
 90
      255
102
RTVSPost2010PropOp44
 70
     1
102
RTVSPost2010Prop45
280
     0
102
RTVSPost2010PropOp45
 70
     1
102
RTVSPost2010Prop46
 90
       50
102
RTVSPost2010PropOp46
 70
     1
102
RTVSPost2010Prop47
 90
       50
102
RTVSPost2010PropOp47
 70
     1
102
RTVSPost2010Prop48
 90
       50
102
RTVSPost2010PropOp48
 70
     1
102
RTVSPost2010Prop49
280
     0
102
RTVSPost2010PropOp49
 70
     1
102
RTVSPost2010Prop50
 90
       50
102
RTVSPost2010PropOp50
 70
     1
102
RTVSPost2010Prop51ColorIndex
 90
      256
102
RTVSPost2010Prop51ColorRGB
 90
-16777216
102
RTVSPost2010PropOp51
 70
     0
102
RTVSPost2010Prop52
140
1.0
102
RTVSPost2010PropOp52
 70
     0
102
RTVSPost2010Prop53
 90
        2
102
RTVSPost2010PropOp53
 70
     1
102
RTVSPost2010Prop54
  1
strokes_ogs.tif
102
RTVSPost2010PropOp54
 70
     1
102
RTVSPost2010Prop55
280
     0
102
RTVSPost2010PropOp55
 70
     1
102
RTVSPost2010Prop56
140
1.0
102
RTVSPost2010PropOp56
 70
     1
102
RTVSPost2010Prop57
140
1.0
102
RTVSPost2010PropOp57
 70
     1
102
RTVSPropertyOp0
 70
     1
102
RTVSPropertyOp1
 70
     1
102
RTVSPropertyOp2
 70
     1
102
RTVSPropertyOp3
 70
     1
102
RTVSPropertyOp4
 70
     1
102
RTVSPropertyOp5
 70
     1
102
RTVSPropertyOp6
 70
     1
102
RTVSPropertyOp7
 70
     1
102
RTVSPropertyOp8
 70
     1
102
RTVSPropertyOp9
 70
     1
102
RTVSPropertyOp10
 70
     1
102
RTVSPropertyOp11
 70
     1
102
RTVSPropertyOp12
 70
     1
102
RTVSPropertyOp13
 70
     1
102
RTVSPropertyOp14
 70
     1
102
RTVSPropertyOp15
 70
     1
102
RTVSPropertyOp16
 70
     1
102
RTVSPropertyOp17
 70
     1
102
RTVSPropertyOp18
 70
     1
102
RTVSPropertyOp19
 70
     1
102
RTVSPropertyOp20
 70
     1
102
RTVSPropertyOp21
 70
     1
102
RTVSPropertyOp22
 70
     1
102
RTVSPropertyOp23
 70
     1
102
RTVSPropertyOp24
 70
     1
102
RTVSPropertyOp25
 70
     1
102
RTVSPropertyOp26
 70
     1
102
RTVSPropertyOp27
 70
     1
102
RTVSPropertyOp28
 70
     1
102
RTVSPropertyOp29
 70
     1
102
RTVSPropertyOp30
 70
     1
102
RTVSPropertyOp31
 70
     1
102
RTVSPropertyOp32
 70
     1
102
RTVSPropertyOp33
 70
     1
102
RTVSPropertyOp34
 70
     1
102
RTVSPropertyOp35
 70
     1
102
RTVSPropertyOp36
 70
     1
102
RTVSPropertyOp37
 70
     1
102
RTVSPropertyOp38
 70
     1
102
RTVSPropertyOp39
 70
     1
102
RTVSPropertyOp40
 70
     1
102
RTVSPropertyOp41
 70
     1
102
RTVSPropertyOp42
 70
     1
102
RTVSPropertyOp43
 70
     1
102
RTVSPropertyOp44
 70
     1
102
RTVSPropertyOp45
 70
     1
102
RTVSPropertyOp46
 70
     1
102
RTVSPropertyOp47
 70
     1
102
RTVSPropertyOp48
 70
     1
102
RTVSPropertyOp49
 70
     1
102
RTVSPropertyOp50
 70
     1
102
RTVSPropertyOp51
 70
     0
102
RTVSPropertyOp52
 70
     0
102
RTVSPropertyOp53
 70
     1
102
RTVSPropertyOp54
 70
     1
102
RTVSPropertyOp55
 70
     1
102
RTVSPropertyOp56
 70
     1
102
RTVSPropertyOp57
 70
     1
102
RTVSPropertyOp58
 70
     1
102
RTVSPropertyOp59
 70
     1
102
RTVSPropertyOp60
 70
     1
102
RTVSPropertyOp61
 70
     1
102
RTVSPropertyOp62
 70
     1
  0
XRECORD
  5
38C9
102
{ACAD_REACTORS
330
38C8
102
}
330
38C8
100
AcDbXrecord
280
     1
102
RTVSPost2010Prop28
280
     0
102
RTVSPost2010PropOp28
 70
     1
102
RTVSPost2010Prop29
280
     1
102
RTVSPost2010PropOp29
 70
     1
102
RTVSPost2010Prop30
280
     1
102
RTVSPost2010PropOp30
 70
     1
102
RTVSPost2010Prop31
280
     0
102
RTVSPost2010PropOp31
 70
     1
102
RTVSPost2010Prop32
280
     0
102
RTVSPost2010PropOp32
 70
     1
102
RTVSPost2010Prop33
280
     0
102
RTVSPost2010PropOp33
 70
     1
102
RTVSPost2010Prop34
280
     0
102
RTVSPost2010PropOp34
 70
     1
102
RTVSPost2010Prop35
280
     0
102
RTVSPost2010PropOp35
 70
     1
102
RTVSPost2010Prop36
280
     0
102
RTVSPost2010PropOp36
 70
     1
102
RTVSPost2010Prop37
 90
       50
102
RTVSPost2010PropOp37
 70
     1
102
RTVSPost2010Prop38
140
0.0
102
RTVSPost2010PropOp38
 70
     1
102
RTVSPost2010Prop39
140
1.0
102
RTVSPost2010PropOp39
 70
     1
102
RTVSPost2010Prop40
 90
        0
102
RTVSPost2010PropOp40
 70
     1
102
RTVSPost2010Prop41ColorIndex
 90
       18
102
RTVSPost2010Prop41ColorRGB
 90
        0
102
RTVSPost2010PropOp41
 70
     1
102
RTVSPost2010Prop42
 90
       50
102
RTVSPost2010PropOp42
 70
     1
102
RTVSPost2010Prop43
 90
        3
102
RTVSPost2010PropOp43
 70
     1
102
RTVSPost2010Prop44ColorIndex
 90
        5
102
RTVSPost2010Prop44ColorRGB
 90
      255
102
RTVSPost2010PropOp44
 70
     1
102
RTVSPost2010Prop45
280
     0
102
RTVSPost2010PropOp45
 70
     1
102
RTVSPost2010Prop46
 90
       50
102
RTVSPost2010PropOp46
 70
     1
102
RTVSPost2010Prop47
 90
       50
102
RTVSPost2010PropOp47
 70
     1
102
RTVSPost2010Prop48
 90
       50
102
RTVSPost2010PropOp48
 70
     1
102
RTVSPost2010Prop49
280
     0
102
RTVSPost2010PropOp49
 70
     1
102
RTVSPost2010Prop50
 90
       50
102
RTVSPost2010PropOp50
 70
     1
102
RTVSPost2010Prop51ColorIndex
 90
      256
102
RTVSPost2010Prop51ColorRGB
 90
-16777216
102
RTVSPost2010PropOp51
 70
     0
102
RTVSPost2010Prop52
140
1.0
102
RTVSPost2010PropOp52
 70
     0
102
RTVSPost2010Prop53
 90
        2
102
RTVSPost2010PropOp53
 70
     1
102
RTVSPost2010Prop54
  1
strokes_ogs.tif
102
RTVSPost2010PropOp54
 70
     1
102
RTVSPost2010Prop55
280
     0
102
RTVSPost2010PropOp55
 70
     1
102
RTVSPost2010Prop56
140
1.0
102
RTVSPost2010PropOp56
 70
     1
102
RTVSPost2010Prop57
140
1.0
102
RTVSPost2010PropOp57
 70
     1
102
RTVSPropertyOp0
 70
     1
102
RTVSPropertyOp1
 70
     1
102
RTVSPropertyOp2
 70
     1
102
RTVSPropertyOp3
 70
     1
102
RTVSPropertyOp4
 70
     1
102
RTVSPropertyOp5
 70
     1
102
RTVSPropertyOp6
 70
     1
102
RTVSPropertyOp7
 70
     1
102
RTVSPropertyOp8
 70
     1
102
RTVSPropertyOp9
 70
     1
102
RTVSPropertyOp10
 70
     1
102
RTVSPropertyOp11
 70
     1
102
RTVSPropertyOp12
 70
     1
102
RTVSPropertyOp13
 70
     1
102
RTVSPropertyOp14
 70
     1
102
RTVSPropertyOp15
 70
     1
102
RTVSPropertyOp16
 70
     1
102
RTVSPropertyOp17
 70
     1
102
RTVSPropertyOp18
 70
     1
102
RTVSPropertyOp19
 70
     1
102
RTVSPropertyOp20
 70
     1
102
RTVSPropertyOp21
 70
     1
102
RTVSPropertyOp22
 70
     1
102
RTVSPropertyOp23
 70
     1
102
RTVSPropertyOp24
 70
     1
102
RTVSPropertyOp25
 70
     1
102
RTVSPropertyOp26
 70
     1
102
RTVSPropertyOp27
 70
     1
102
RTVSPropertyOp28
 70
     1
102
RTVSPropertyOp29
 70
     1
102
RTVSPropertyOp30
 70
     1
102
RTVSPropertyOp31
 70
     1
102
RTVSPropertyOp32
 70
     1
102
RTVSPropertyOp33
 70
     1
102
RTVSPropertyOp34
 70
     1
102
RTVSPropertyOp35
 70
     1
102
RTVSPropertyOp36
 70
     1
102
RTVSPropertyOp37
 70
     1
102
RTVSPropertyOp38
 70
     1
102
RTVSPropertyOp39
 70
     1
102
RTVSPropertyOp40
 70
     1
102
RTVSPropertyOp41
 70
     1
102
RTVSPropertyOp42
 70
     1
102
RTVSPropertyOp43
 70
     1
102
RTVSPropertyOp44
 70
     1
102
RTVSPropertyOp45
 70
     1
102
RTVSPropertyOp46
 70
     1
102
RTVSPropertyOp47
 70
     1
102
RTVSPropertyOp48
 70
     1
102
RTVSPropertyOp49
 70
     1
102
RTVSPropertyOp50
 70
     1
102
RTVSPropertyOp51
 70
     0
102
RTVSPropertyOp52
 70
     0
102
RTVSPropertyOp53
 70
     1
102
RTVSPropertyOp54
 70
     1
102
RTVSPropertyOp55
 70
     1
102
RTVSPropertyOp56
 70
     1
102
RTVSPropertyOp57
 70
     1
102
RTVSPropertyOp58
 70
     1
102
RTVSPropertyOp59
 70
     1
102
RTVSPropertyOp60
 70
     1
102
RTVSPropertyOp61
 70
     1
102
RTVSPropertyOp62
 70
     1
  0
XRECORD
  5
38CB
102
{ACAD_REACTORS
330
38CA
102
}
330
38CA
100
AcDbXrecord
280
     1
102
RTVSPost2010Prop28
280
     0
102
RTVSPost2010PropOp28
 70
     1
102
RTVSPost2010Prop29
280
     1
102
RTVSPost2010PropOp29
 70
     1
102
RTVSPost2010Prop30
280
     1
102
RTVSPost2010PropOp30
 70
     1
102
RTVSPost2010Prop31
280
     0
102
RTVSPost2010PropOp31
 70
     1
102
RTVSPost2010Prop32
280
     0
102
RTVSPost2010PropOp32
 70
     1
102
RTVSPost2010Prop33
280
     0
102
RTVSPost2010PropOp33
 70
     1
102
RTVSPost2010Prop34
280
     0
102
RTVSPost2010PropOp34
 70
     1
102
RTVSPost2010Prop35
280
     0
102
RTVSPost2010PropOp35
 70
     1
102
RTVSPost2010Prop36
280
     0
102
RTVSPost2010PropOp36
 70
     1
102
RTVSPost2010Prop37
 90
       50
102
RTVSPost2010PropOp37
 70
     1
102
RTVSPost2010Prop38
140
0.0
102
RTVSPost2010PropOp38
 70
     1
102
RTVSPost2010Prop39
140
1.0
102
RTVSPost2010PropOp39
 70
     1
102
RTVSPost2010Prop40
 90
        0
102
RTVSPost2010PropOp40
 70
     1
102
RTVSPost2010Prop41ColorIndex
 90
       18
102
RTVSPost2010Prop41ColorRGB
 90
        0
102
RTVSPost2010PropOp41
 70
     1
102
RTVSPost2010Prop42
 90
       50
102
RTVSPost2010PropOp42
 70
     1
102
RTVSPost2010Prop43
 90
        3
102
RTVSPost2010PropOp43
 70
     1
102
RTVSPost2010Prop44ColorIndex
 90
        5
102
RTVSPost2010Prop44ColorRGB
 90
      255
102
RTVSPost2010PropOp44
 70
     1
102
RTVSPost2010Prop45
280
     0
102
RTVSPost2010PropOp45
 70
     1
102
RTVSPost2010Prop46
 90
       50
102
RTVSPost2010PropOp46
 70
     1
102
RTVSPost2010Prop47
 90
       50
102
RTVSPost2010PropOp47
 70
     1
102
RTVSPost2010Prop48
 90
       50
102
RTVSPost2010PropOp48
 70
     1
102
RTVSPost2010Prop49
280
     0
102
RTVSPost2010PropOp49
 70
     1
102
RTVSPost2010Prop50
 90
       50
102
RTVSPost2010PropOp50
 70
     1
102
RTVSPost2010Prop51ColorIndex
 90
      256
102
RTVSPost2010Prop51ColorRGB
 90
-16777216
102
RTVSPost2010PropOp51
 70
     0
102
RTVSPost2010Prop52
140
1.0
102
RTVSPost2010PropOp52
 70
     0
102
RTVSPost2010Prop53
 90
        2
102
RTVSPost2010PropOp53
 70
     1
102
RTVSPost2010Prop54
  1
strokes_ogs.tif
102
RTVSPost2010PropOp54
 70
     1
102
RTVSPost2010Prop55
280
     0
102
RTVSPost2010PropOp55
 70
     1
102
RTVSPost2010Prop56
140
1.0
102
RTVSPost2010PropOp56
 70
     1
102
RTVSPost2010Prop57
140
1.0
102
RTVSPost2010PropOp57
 70
     1
102
RTVSPropertyOp0
 70
     1
102
RTVSPropertyOp1
 70
     1
102
RTVSPropertyOp2
 70
     1
102
RTVSPropertyOp3
 70
     1
102
RTVSPropertyOp4
 70
     1
102
RTVSPropertyOp5
 70
     1
102
RTVSPropertyOp6
 70
     1
102
RTVSPropertyOp7
 70
     1
102
RTVSPropertyOp8
 70
     1
102
RTVSPropertyOp9
 70
     1
102
RTVSPropertyOp10
 70
     1
102
RTVSPropertyOp11
 70
     1
102
RTVSPropertyOp12
 70
     1
102
RTVSPropertyOp13
 70
     1
102
RTVSPropertyOp14
 70
     1
102
RTVSPropertyOp15
 70
     1
102
RTVSPropertyOp16
 70
     1
102
RTVSPropertyOp17
 70
     1
102
RTVSPropertyOp18
 70
     1
102
RTVSPropertyOp19
 70
     1
102
RTVSPropertyOp20
 70
     1
102
RTVSPropertyOp21
 70
     1
102
RTVSPropertyOp22
 70
     1
102
RTVSPropertyOp23
 70
     1
102
RTVSPropertyOp24
 70
     1
102
RTVSPropertyOp25
 70
     1
102
RTVSPropertyOp26
 70
     1
102
RTVSPropertyOp27
 70
     1
102
RTVSPropertyOp28
 70
     1
102
RTVSPropertyOp29
 70
     1
102
RTVSPropertyOp30
 70
     1
102
RTVSPropertyOp31
 70
     1
102
RTVSPropertyOp32
 70
     1
102
RTVSPropertyOp33
 70
     1
102
RTVSPropertyOp34
 70
     1
102
RTVSPropertyOp35
 70
     1
102
RTVSPropertyOp36
 70
     1
102
RTVSPropertyOp37
 70
     1
102
RTVSPropertyOp38
 70
     1
102
RTVSPropertyOp39
 70
     1
102
RTVSPropertyOp40
 70
     1
102
RTVSPropertyOp41
 70
     1
102
RTVSPropertyOp42
 70
     1
102
RTVSPropertyOp43
 70
     1
102
RTVSPropertyOp44
 70
     1
102
RTVSPropertyOp45
 70
     1
102
RTVSPropertyOp46
 70
     1
102
RTVSPropertyOp47
 70
     1
102
RTVSPropertyOp48
 70
     1
102
RTVSPropertyOp49
 70
     1
102
RTVSPropertyOp50
 70
     1
102
RTVSPropertyOp51
 70
     0
102
RTVSPropertyOp52
 70
     0
102
RTVSPropertyOp53
 70
     1
102
RTVSPropertyOp54
 70
     1
102
RTVSPropertyOp55
 70
     1
102
RTVSPropertyOp56
 70
     1
102
RTVSPropertyOp57
 70
     1
102
RTVSPropertyOp58
 70
     1
102
RTVSPropertyOp59
 70
     1
102
RTVSPropertyOp60
 70
     1
102
RTVSPropertyOp61
 70
     1
102
RTVSPropertyOp62
 70
     1
  0
XRECORD
  5
390E
102
{ACAD_REACTORS
330
390D
102
}
330
390D
100
AcDbXrecord
280
     1
102
RTVSPost2010Prop28
280
     0
102
RTVSPost2010PropOp28
 70
     1
102
RTVSPost2010Prop29
280
     1
102
RTVSPost2010PropOp29
 70
     1
102
RTVSPost2010Prop30
280
     1
102
RTVSPost2010PropOp30
 70
     1
102
RTVSPost2010Prop31
280
     0
102
RTVSPost2010PropOp31
 70
     1
102
RTVSPost2010Prop32
280
     0
102
RTVSPost2010PropOp32
 70
     1
102
RTVSPost2010Prop33
280
     0
102
RTVSPost2010PropOp33
 70
     1
102
RTVSPost2010Prop34
280
     0
102
RTVSPost2010PropOp34
 70
     1
102
RTVSPost2010Prop35
280
     0
102
RTVSPost2010PropOp35
 70
     1
102
RTVSPost2010Prop36
280
     0
102
RTVSPost2010PropOp36
 70
     1
102
RTVSPost2010Prop37
 90
       50
102
RTVSPost2010PropOp37
 70
     1
102
RTVSPost2010Prop38
140
0.0
102
RTVSPost2010PropOp38
 70
     1
102
RTVSPost2010Prop39
140
1.0
102
RTVSPost2010PropOp39
 70
     1
102
RTVSPost2010Prop40
 90
        0
102
RTVSPost2010PropOp40
 70
     1
102
RTVSPost2010Prop41ColorIndex
 90
       18
102
RTVSPost2010Prop41ColorRGB
 90
        0
102
RTVSPost2010PropOp41
 70
     1
102
RTVSPost2010Prop42
 90
       50
102
RTVSPost2010PropOp42
 70
     1
102
RTVSPost2010Prop43
 90
        3
102
RTVSPost2010PropOp43
 70
     1
102
RTVSPost2010Prop44ColorIndex
 90
        5
102
RTVSPost2010Prop44ColorRGB
 90
      255
102
RTVSPost2010PropOp44
 70
     1
102
RTVSPost2010Prop45
280
     0
102
RTVSPost2010PropOp45
 70
     1
102
RTVSPost2010Prop46
 90
       50
102
RTVSPost2010PropOp46
 70
     1
102
RTVSPost2010Prop47
 90
       50
102
RTVSPost2010PropOp47
 70
     1
102
RTVSPost2010Prop48
 90
       50
102
RTVSPost2010PropOp48
 70
     1
102
RTVSPost2010Prop49
280
     0
102
RTVSPost2010PropOp49
 70
     1
102
RTVSPost2010Prop50
 90
       50
102
RTVSPost2010PropOp50
 70
     1
102
RTVSPost2010Prop51ColorIndex
 90
      256
102
RTVSPost2010Prop51ColorRGB
 90
-16777216
102
RTVSPost2010PropOp51
 70
     0
102
RTVSPost2010Prop52
140
1.0
102
RTVSPost2010PropOp52
 70
     0
102
RTVSPost2010Prop53
 90
        2
102
RTVSPost2010PropOp53
 70
     1
102
RTVSPost2010Prop54
  1
strokes_ogs.tif
102
RTVSPost2010PropOp54
 70
     1
102
RTVSPost2010Prop55
280
     0
102
RTVSPost2010PropOp55
 70
     1
102
RTVSPost2010Prop56
140
1.0
102
RTVSPost2010PropOp56
 70
     1
102
RTVSPost2010Prop57
140
1.0
102
RTVSPost2010PropOp57
 70
     1
102
RTVSPropertyOp0
 70
     1
102
RTVSPropertyOp1
 70
     1
102
RTVSPropertyOp2
 70
     1
102
RTVSPropertyOp3
 70
     1
102
RTVSPropertyOp4
 70
     1
102
RTVSPropertyOp5
 70
     1
102
RTVSPropertyOp6
 70
     1
102
RTVSPropertyOp7
 70
     1
102
RTVSPropertyOp8
 70
     1
102
RTVSPropertyOp9
 70
     1
102
RTVSPropertyOp10
 70
     1
102
RTVSPropertyOp11
 70
     1
102
RTVSPropertyOp12
 70
     1
102
RTVSPropertyOp13
 70
     1
102
RTVSPropertyOp14
 70
     1
102
RTVSPropertyOp15
 70
     1
102
RTVSPropertyOp16
 70
     1
102
RTVSPropertyOp17
 70
     1
102
RTVSPropertyOp18
 70
     1
102
RTVSPropertyOp19
 70
     1
102
RTVSPropertyOp20
 70
     1
102
RTVSPropertyOp21
 70
     1
102
RTVSPropertyOp22
 70
     1
102
RTVSPropertyOp23
 70
     1
102
RTVSPropertyOp24
 70
     1
102
RTVSPropertyOp25
 70
     1
102
RTVSPropertyOp26
 70
     1
102
RTVSPropertyOp27
 70
     1
102
RTVSPropertyOp28
 70
     1
102
RTVSPropertyOp29
 70
     1
102
RTVSPropertyOp30
 70
     1
102
RTVSPropertyOp31
 70
     1
102
RTVSPropertyOp32
 70
     1
102
RTVSPropertyOp33
 70
     1
102
RTVSPropertyOp34
 70
     1
102
RTVSPropertyOp35
 70
     1
102
RTVSPropertyOp36
 70
     1
102
RTVSPropertyOp37
 70
     1
102
RTVSPropertyOp38
 70
     1
102
RTVSPropertyOp39
 70
     1
102
RTVSPropertyOp40
 70
     1
102
RTVSPropertyOp41
 70
     1
102
RTVSPropertyOp42
 70
     1
102
RTVSPropertyOp43
 70
     1
102
RTVSPropertyOp44
 70
     1
102
RTVSPropertyOp45
 70
     1
102
RTVSPropertyOp46
 70
     1
102
RTVSPropertyOp47
 70
     1
102
RTVSPropertyOp48
 70
     1
102
RTVSPropertyOp49
 70
     1
102
RTVSPropertyOp50
 70
     1
102
RTVSPropertyOp51
 70
     0
102
RTVSPropertyOp52
 70
     0
102
RTVSPropertyOp53
 70
     1
102
RTVSPropertyOp54
 70
     1
102
RTVSPropertyOp55
 70
     1
102
RTVSPropertyOp56
 70
     1
102
RTVSPropertyOp57
 70
     1
102
RTVSPropertyOp58
 70
     1
102
RTVSPropertyOp59
 70
     1
102
RTVSPropertyOp60
 70
     1
102
RTVSPropertyOp61
 70
     1
102
RTVSPropertyOp62
 70
     1
  0
XRECORD
  5
38E5
102
{ACAD_REACTORS
330
38E4
102
}
330
38E4
100
AcDbXrecord
280
     1
102
RTVSPost2010Prop28
280
     0
102
RTVSPost2010PropOp28
 70
     1
102
RTVSPost2010Prop29
280
     1
102
RTVSPost2010PropOp29
 70
     1
102
RTVSPost2010Prop30
280
     1
102
RTVSPost2010PropOp30
 70
     1
102
RTVSPost2010Prop31
280
     0
102
RTVSPost2010PropOp31
 70
     1
102
RTVSPost2010Prop32
280
     0
102
RTVSPost2010PropOp32
 70
     1
102
RTVSPost2010Prop33
280
     0
102
RTVSPost2010PropOp33
 70
     1
102
RTVSPost2010Prop34
280
     0
102
RTVSPost2010PropOp34
 70
     1
102
RTVSPost2010Prop35
280
     0
102
RTVSPost2010PropOp35
 70
     1
102
RTVSPost2010Prop36
280
     0
102
RTVSPost2010PropOp36
 70
     1
102
RTVSPost2010Prop37
 90
       50
102
RTVSPost2010PropOp37
 70
     1
102
RTVSPost2010Prop38
140
0.0
102
RTVSPost2010PropOp38
 70
     1
102
RTVSPost2010Prop39
140
1.0
102
RTVSPost2010PropOp39
 70
     1
102
RTVSPost2010Prop40
 90
        0
102
RTVSPost2010PropOp40
 70
     1
102
RTVSPost2010Prop41ColorIndex
 90
       18
102
RTVSPost2010Prop41ColorRGB
 90
        0
102
RTVSPost2010PropOp41
 70
     1
102
RTVSPost2010Prop42
 90
       50
102
RTVSPost2010PropOp42
 70
     1
102
RTVSPost2010Prop43
 90
        3
102
RTVSPost2010PropOp43
 70
     1
102
RTVSPost2010Prop44ColorIndex
 90
        5
102
RTVSPost2010Prop44ColorRGB
 90
      255
102
RTVSPost2010PropOp44
 70
     1
102
RTVSPost2010Prop45
280
     0
102
RTVSPost2010PropOp45
 70
     1
102
RTVSPost2010Prop46
 90
       50
102
RTVSPost2010PropOp46
 70
     1
102
RTVSPost2010Prop47
 90
       50
102
RTVSPost2010PropOp47
 70
     1
102
RTVSPost2010Prop48
 90
       50
102
RTVSPost2010PropOp48
 70
     1
102
RTVSPost2010Prop49
280
     0
102
RTVSPost2010PropOp49
 70
     1
102
RTVSPost2010Prop50
 90
       50
102
RTVSPost2010PropOp50
 70
     1
102
RTVSPost2010Prop51ColorIndex
 90
      256
102
RTVSPost2010Prop51ColorRGB
 90
-16777216
102
RTVSPost2010PropOp51
 70
     0
102
RTVSPost2010Prop52
140
1.0
102
RTVSPost2010PropOp52
 70
     0
102
RTVSPost2010Prop53
 90
        2
102
RTVSPost2010PropOp53
 70
     1
102
RTVSPost2010Prop54
  1
strokes_ogs.tif
102
RTVSPost2010PropOp54
 70
     1
102
RTVSPost2010Prop55
280
     0
102
RTVSPost2010PropOp55
 70
     1
102
RTVSPost2010Prop56
140
1.0
102
RTVSPost2010PropOp56
 70
     1
102
RTVSPost2010Prop57
140
1.0
102
RTVSPost2010PropOp57
 70
     1
102
RTVSPropertyOp0
 70
     0
102
RTVSPropertyOp1
 70
     0
102
RTVSPropertyOp2
 70
     0
102
RTVSPropertyOp3
 70
     0
102
RTVSPropertyOp4
 70
     0
102
RTVSPropertyOp5
 70
     0
102
RTVSPropertyOp6
 70
     0
102
RTVSPropertyOp7
 70
     0
102
RTVSPropertyOp8
 70
     0
102
RTVSPropertyOp9
 70
     0
102
RTVSPropertyOp10
 70
     0
102
RTVSPropertyOp11
 70
     0
102
RTVSPropertyOp12
 70
     0
102
RTVSPropertyOp13
 70
     0
102
RTVSPropertyOp14
 70
     2
102
RTVSPropertyOp15
 70
     0
102
RTVSPropertyOp16
 70
     0
102
RTVSPropertyOp17
 70
     0
102
RTVSPropertyOp18
 70
     0
102
RTVSPropertyOp19
 70
     0
102
RTVSPropertyOp20
 70
     0
102
RTVSPropertyOp21
 70
     0
102
RTVSPropertyOp22
 70
     0
102
RTVSPropertyOp23
 70
     0
102
RTVSPropertyOp24
 70
     0
102
RTVSPropertyOp25
 70
     0
102
RTVSPropertyOp26
 70
     0
102
RTVSPropertyOp27
 70
     0
102
RTVSPropertyOp28
 70
     1
102
RTVSPropertyOp29
 70
     1
102
RTVSPropertyOp30
 70
     1
102
RTVSPropertyOp31
 70
     1
102
RTVSPropertyOp32
 70
     1
102
RTVSPropertyOp33
 70
     1
102
RTVSPropertyOp34
 70
     1
102
RTVSPropertyOp35
 70
     1
102
RTVSPropertyOp36
 70
     1
102
RTVSPropertyOp37
 70
     1
102
RTVSPropertyOp38
 70
     1
102
RTVSPropertyOp39
 70
     1
102
RTVSPropertyOp40
 70
     1
102
RTVSPropertyOp41
 70
     1
102
RTVSPropertyOp42
 70
     1
102
RTVSPropertyOp43
 70
     1
102
RTVSPropertyOp44
 70
     1
102
RTVSPropertyOp45
 70
     1
102
RTVSPropertyOp46
 70
     1
102
RTVSPropertyOp47
 70
     1
102
RTVSPropertyOp48
 70
     1
102
RTVSPropertyOp49
 70
     1
102
RTVSPropertyOp50
 70
     1
102
RTVSPropertyOp51
 70
     0
102
RTVSPropertyOp52
 70
     0
102
RTVSPropertyOp53
 70
     1
102
RTVSPropertyOp54
 70
     1
102
RTVSPropertyOp55
 70
     1
102
RTVSPropertyOp56
 70
     1
102
RTVSPropertyOp57
 70
     1
102
RTVSPropertyOp58
 70
     1
102
RTVSPropertyOp59
 70
     1
102
RTVSPropertyOp60
 70
     1
102
RTVSPropertyOp61
 70
     1
102
RTVSPropertyOp62
 70
     1
  0
XRECORD
  5
38DF
102
{ACAD_REACTORS
330
38DE
102
}
330
38DE
100
AcDbXrecord
280
     1
102
RTVSPost2010Prop28
280
     0
102
RTVSPost2010PropOp28
 70
     1
102
RTVSPost2010Prop29
280
     1
102
RTVSPost2010PropOp29
 70
     1
102
RTVSPost2010Prop30
280
     1
102
RTVSPost2010PropOp30
 70
     1
102
RTVSPost2010Prop31
280
     0
102
RTVSPost2010PropOp31
 70
     1
102
RTVSPost2010Prop32
280
     0
102
RTVSPost2010PropOp32
 70
     1
102
RTVSPost2010Prop33
280
     0
102
RTVSPost2010PropOp33
 70
     1
102
RTVSPost2010Prop34
280
     0
102
RTVSPost2010PropOp34
 70
     1
102
RTVSPost2010Prop35
280
     0
102
RTVSPost2010PropOp35
 70
     1
102
RTVSPost2010Prop36
280
     0
102
RTVSPost2010PropOp36
 70
     1
102
RTVSPost2010Prop37
 90
       50
102
RTVSPost2010PropOp37
 70
     1
102
RTVSPost2010Prop38
140
0.0
102
RTVSPost2010PropOp38
 70
     1
102
RTVSPost2010Prop39
140
1.0
102
RTVSPost2010PropOp39
 70
     1
102
RTVSPost2010Prop40
 90
        0
102
RTVSPost2010PropOp40
 70
     1
102
RTVSPost2010Prop41ColorIndex
 90
       18
102
RTVSPost2010Prop41ColorRGB
 90
        0
102
RTVSPost2010PropOp41
 70
     1
102
RTVSPost2010Prop42
 90
       50
102
RTVSPost2010PropOp42
 70
     1
102
RTVSPost2010Prop43
 90
        3
102
RTVSPost2010PropOp43
 70
     1
102
RTVSPost2010Prop44ColorIndex
 90
        5
102
RTVSPost2010Prop44ColorRGB
 90
      255
102
RTVSPost2010PropOp44
 70
     1
102
RTVSPost2010Prop45
280
     0
102
RTVSPost2010PropOp45
 70
     1
102
RTVSPost2010Prop46
 90
       50
102
RTVSPost2010PropOp46
 70
     1
102
RTVSPost2010Prop47
 90
       50
102
RTVSPost2010PropOp47
 70
     1
102
RTVSPost2010Prop48
 90
       50
102
RTVSPost2010PropOp48
 70
     1
102
RTVSPost2010Prop49
280
     0
102
RTVSPost2010PropOp49
 70
     1
102
RTVSPost2010Prop50
 90
       50
102
RTVSPost2010PropOp50
 70
     1
102
RTVSPost2010Prop51ColorIndex
 90
      256
102
RTVSPost2010Prop51ColorRGB
 90
-16777216
102
RTVSPost2010PropOp51
 70
     0
102
RTVSPost2010Prop52
140
1.0
102
RTVSPost2010PropOp52
 70
     0
102
RTVSPost2010Prop53
 90
        2
102
RTVSPost2010PropOp53
 70
     1
102
RTVSPost2010Prop54
  1
strokes_ogs.tif
102
RTVSPost2010PropOp54
 70
     1
102
RTVSPost2010Prop55
280
     0
102
RTVSPost2010PropOp55
 70
     1
102
RTVSPost2010Prop56
140
1.0
102
RTVSPost2010PropOp56
 70
     1
102
RTVSPost2010Prop57
140
1.0
102
RTVSPost2010PropOp57
 70
     1
102
RTVSPropertyOp0
 70
     1
102
RTVSPropertyOp1
 70
     1
102
RTVSPropertyOp2
 70
     1
102
RTVSPropertyOp3
 70
     1
102
RTVSPropertyOp4
 70
     1
102
RTVSPropertyOp5
 70
     1
102
RTVSPropertyOp6
 70
     1
102
RTVSPropertyOp7
 70
     1
102
RTVSPropertyOp8
 70
     1
102
RTVSPropertyOp9
 70
     1
102
RTVSPropertyOp10
 70
     1
102
RTVSPropertyOp11
 70
     1
102
RTVSPropertyOp12
 70
     1
102
RTVSPropertyOp13
 70
     1
102
RTVSPropertyOp14
 70
     1
102
RTVSPropertyOp15
 70
     1
102
RTVSPropertyOp16
 70
     1
102
RTVSPropertyOp17
 70
     1
102
RTVSPropertyOp18
 70
     1
102
RTVSPropertyOp19
 70
     1
102
RTVSPropertyOp20
 70
     1
102
RTVSPropertyOp21
 70
     1
102
RTVSPropertyOp22
 70
     1
102
RTVSPropertyOp23
 70
     1
102
RTVSPropertyOp24
 70
     1
102
RTVSPropertyOp25
 70
     1
102
RTVSPropertyOp26
 70
     1
102
RTVSPropertyOp27
 70
     1
102
RTVSPropertyOp28
 70
     1
102
RTVSPropertyOp29
 70
     1
102
RTVSPropertyOp30
 70
     1
102
RTVSPropertyOp31
 70
     1
102
RTVSPropertyOp32
 70
     1
102
RTVSPropertyOp33
 70
     1
102
RTVSPropertyOp34
 70
     1
102
RTVSPropertyOp35
 70
     1
102
RTVSPropertyOp36
 70
     1
102
RTVSPropertyOp37
 70
     1
102
RTVSPropertyOp38
 70
     1
102
RTVSPropertyOp39
 70
     1
102
RTVSPropertyOp40
 70
     1
102
RTVSPropertyOp41
 70
     1
102
RTVSPropertyOp42
 70
     1
102
RTVSPropertyOp43
 70
     1
102
RTVSPropertyOp44
 70
     1
102
RTVSPropertyOp45
 70
     1
102
RTVSPropertyOp46
 70
     1
102
RTVSPropertyOp47
 70
     1
102
RTVSPropertyOp48
 70
     1
102
RTVSPropertyOp49
 70
     1
102
RTVSPropertyOp50
 70
     1
102
RTVSPropertyOp51
 70
     0
102
RTVSPropertyOp52
 70
     0
102
RTVSPropertyOp53
 70
     1
102
RTVSPropertyOp54
 70
     1
102
RTVSPropertyOp55
 70
     1
102
RTVSPropertyOp56
 70
     1
102
RTVSPropertyOp57
 70
     1
102
RTVSPropertyOp58
 70
     1
102
RTVSPropertyOp59
 70
     1
102
RTVSPropertyOp60
 70
     1
102
RTVSPropertyOp61
 70
     1
102
RTVSPropertyOp62
 70
     1
  0
XRECORD
  5
38E7
102
{ACAD_REACTORS
330
38E6
102
}
330
38E6
100
AcDbXrecord
280
     1
102
RTVSPost2010Prop28
280
     0
102
RTVSPost2010PropOp28
 70
     1
102
RTVSPost2010Prop29
280
     1
102
RTVSPost2010PropOp29
 70
     1
102
RTVSPost2010Prop30
280
     1
102
RTVSPost2010PropOp30
 70
     1
102
RTVSPost2010Prop31
280
     0
102
RTVSPost2010PropOp31
 70
     1
102
RTVSPost2010Prop32
280
     0
102
RTVSPost2010PropOp32
 70
     1
102
RTVSPost2010Prop33
280
     0
102
RTVSPost2010PropOp33
 70
     1
102
RTVSPost2010Prop34
280
     0
102
RTVSPost2010PropOp34
 70
     1
102
RTVSPost2010Prop35
280
     0
102
RTVSPost2010PropOp35
 70
     1
102
RTVSPost2010Prop36
280
     0
102
RTVSPost2010PropOp36
 70
     1
102
RTVSPost2010Prop37
 90
       50
102
RTVSPost2010PropOp37
 70
     1
102
RTVSPost2010Prop38
140
0.0
102
RTVSPost2010PropOp38
 70
     1
102
RTVSPost2010Prop39
140
1.0
102
RTVSPost2010PropOp39
 70
     1
102
RTVSPost2010Prop40
 90
        0
102
RTVSPost2010PropOp40
 70
     1
102
RTVSPost2010Prop41ColorIndex
 90
       18
102
RTVSPost2010Prop41ColorRGB
 90
        0
102
RTVSPost2010PropOp41
 70
     1
102
RTVSPost2010Prop42
 90
       50
102
RTVSPost2010PropOp42
 70
     1
102
RTVSPost2010Prop43
 90
        3
102
RTVSPost2010PropOp43
 70
     1
102
RTVSPost2010Prop44ColorIndex
 90
        5
102
RTVSPost2010Prop44ColorRGB
 90
      255
102
RTVSPost2010PropOp44
 70
     1
102
RTVSPost2010Prop45
280
     0
102
RTVSPost2010PropOp45
 70
     1
102
RTVSPost2010Prop46
 90
       50
102
RTVSPost2010PropOp46
 70
     1
102
RTVSPost2010Prop47
 90
       50
102
RTVSPost2010PropOp47
 70
     1
102
RTVSPost2010Prop48
 90
       50
102
RTVSPost2010PropOp48
 70
     1
102
RTVSPost2010Prop49
280
     0
102
RTVSPost2010PropOp49
 70
     1
102
RTVSPost2010Prop50
 90
       50
102
RTVSPost2010PropOp50
 70
     1
102
RTVSPost2010Prop51ColorIndex
 90
      256
102
RTVSPost2010Prop51ColorRGB
 90
-16777216
102
RTVSPost2010PropOp51
 70
     0
102
RTVSPost2010Prop52
140
1.0
102
RTVSPost2010PropOp52
 70
     0
102
RTVSPost2010Prop53
 90
        2
102
RTVSPost2010PropOp53
 70
     1
102
RTVSPost2010Prop54
  1
strokes_ogs.tif
102
RTVSPost2010PropOp54
 70
     1
102
RTVSPost2010Prop55
280
     0
102
RTVSPost2010PropOp55
 70
     1
102
RTVSPost2010Prop56
140
1.0
102
RTVSPost2010PropOp56
 70
     1
102
RTVSPost2010Prop57
140
1.0
102
RTVSPost2010PropOp57
 70
     1
102
RTVSPropertyOp0
 70
     0
102
RTVSPropertyOp1
 70
     0
102
RTVSPropertyOp2
 70
     0
102
RTVSPropertyOp3
 70
     0
102
RTVSPropertyOp4
 70
     0
102
RTVSPropertyOp5
 70
     0
102
RTVSPropertyOp6
 70
     0
102
RTVSPropertyOp7
 70
     0
102
RTVSPropertyOp8
 70
     0
102
RTVSPropertyOp9
 70
     0
102
RTVSPropertyOp10
 70
     0
102
RTVSPropertyOp11
 70
     0
102
RTVSPropertyOp12
 70
     0
102
RTVSPropertyOp13
 70
     0
102
RTVSPropertyOp14
 70
     2
102
RTVSPropertyOp15
 70
     0
102
RTVSPropertyOp16
 70
     0
102
RTVSPropertyOp17
 70
     0
102
RTVSPropertyOp18
 70
     0
102
RTVSPropertyOp19
 70
     0
102
RTVSPropertyOp20
 70
     0
102
RTVSPropertyOp21
 70
     0
102
RTVSPropertyOp22
 70
     0
102
RTVSPropertyOp23
 70
     0
102
RTVSPropertyOp24
 70
     0
102
RTVSPropertyOp25
 70
     0
102
RTVSPropertyOp26
 70
     0
102
RTVSPropertyOp27
 70
     0
102
RTVSPropertyOp28
 70
     1
102
RTVSPropertyOp29
 70
     1
102
RTVSPropertyOp30
 70
     1
102
RTVSPropertyOp31
 70
     1
102
RTVSPropertyOp32
 70
     1
102
RTVSPropertyOp33
 70
     1
102
RTVSPropertyOp34
 70
     1
102
RTVSPropertyOp35
 70
     1
102
RTVSPropertyOp36
 70
     1
102
RTVSPropertyOp37
 70
     1
102
RTVSPropertyOp38
 70
     1
102
RTVSPropertyOp39
 70
     1
102
RTVSPropertyOp40
 70
     1
102
RTVSPropertyOp41
 70
     1
102
RTVSPropertyOp42
 70
     1
102
RTVSPropertyOp43
 70
     1
102
RTVSPropertyOp44
 70
     1
102
RTVSPropertyOp45
 70
     1
102
RTVSPropertyOp46
 70
     1
102
RTVSPropertyOp47
 70
     1
102
RTVSPropertyOp48
 70
     1
102
RTVSPropertyOp49
 70
     1
102
RTVSPropertyOp50
 70
     1
102
RTVSPropertyOp51
 70
     0
102
RTVSPropertyOp52
 70
     0
102
RTVSPropertyOp53
 70
     1
102
RTVSPropertyOp54
 70
     1
102
RTVSPropertyOp55
 70
     1
102
RTVSPropertyOp56
 70
     1
102
RTVSPropertyOp57
 70
     1
102
RTVSPropertyOp58
 70
     1
102
RTVSPropertyOp59
 70
     1
102
RTVSPropertyOp60
 70
     1
102
RTVSPropertyOp61
 70
     1
102
RTVSPropertyOp62
 70
     1
  0
XRECORD
  5
38D7
102
{ACAD_REACTORS
330
38D6
102
}
330
38D6
100
AcDbXrecord
280
     1
102
RTVSPost2010Prop28
280
     0
102
RTVSPost2010PropOp28
 70
     1
102
RTVSPost2010Prop29
280
     1
102
RTVSPost2010PropOp29
 70
     1
102
RTVSPost2010Prop30
280
     1
102
RTVSPost2010PropOp30
 70
     1
102
RTVSPost2010Prop31
280
     0
102
RTVSPost2010PropOp31
 70
     1
102
RTVSPost2010Prop32
280
     0
102
RTVSPost2010PropOp32
 70
     1
102
RTVSPost2010Prop33
280
     0
102
RTVSPost2010PropOp33
 70
     1
102
RTVSPost2010Prop34
280
     0
102
RTVSPost2010PropOp34
 70
     1
102
RTVSPost2010Prop35
280
     0
102
RTVSPost2010PropOp35
 70
     1
102
RTVSPost2010Prop36
280
     0
102
RTVSPost2010PropOp36
 70
     1
102
RTVSPost2010Prop37
 90
       50
102
RTVSPost2010PropOp37
 70
     1
102
RTVSPost2010Prop38
140
0.0
102
RTVSPost2010PropOp38
 70
     1
102
RTVSPost2010Prop39
140
1.0
102
RTVSPost2010PropOp39
 70
     1
102
RTVSPost2010Prop40
 90
        0
102
RTVSPost2010PropOp40
 70
     1
102
RTVSPost2010Prop41ColorIndex
 90
       18
102
RTVSPost2010Prop41ColorRGB
 90
        0
102
RTVSPost2010PropOp41
 70
     1
102
RTVSPost2010Prop42
 90
       50
102
RTVSPost2010PropOp42
 70
     1
102
RTVSPost2010Prop43
 90
        3
102
RTVSPost2010PropOp43
 70
     1
102
RTVSPost2010Prop44ColorIndex
 90
        5
102
RTVSPost2010Prop44ColorRGB
 90
      255
102
RTVSPost2010PropOp44
 70
     1
102
RTVSPost2010Prop45
280
     0
102
RTVSPost2010PropOp45
 70
     1
102
RTVSPost2010Prop46
 90
       50
102
RTVSPost2010PropOp46
 70
     1
102
RTVSPost2010Prop47
 90
       50
102
RTVSPost2010PropOp47
 70
     1
102
RTVSPost2010Prop48
 90
       50
102
RTVSPost2010PropOp48
 70
     1
102
RTVSPost2010Prop49
280
     0
102
RTVSPost2010PropOp49
 70
     1
102
RTVSPost2010Prop50
 90
       50
102
RTVSPost2010PropOp50
 70
     1
102
RTVSPost2010Prop51ColorIndex
 90
      256
102
RTVSPost2010Prop51ColorRGB
 90
-16777216
102
RTVSPost2010PropOp51
 70
     0
102
RTVSPost2010Prop52
140
1.0
102
RTVSPost2010PropOp52
 70
     0
102
RTVSPost2010Prop53
 90
        2
102
RTVSPost2010PropOp53
 70
     1
102
RTVSPost2010Prop54
  1
strokes_ogs.tif
102
RTVSPost2010PropOp54
 70
     1
102
RTVSPost2010Prop55
280
     0
102
RTVSPost2010PropOp55
 70
     1
102
RTVSPost2010Prop56
140
1.0
102
RTVSPost2010PropOp56
 70
     1
102
RTVSPost2010Prop57
140
1.0
102
RTVSPost2010PropOp57
 70
     1
102
RTVSPropertyOp0
 70
     1
102
RTVSPropertyOp1
 70
     1
102
RTVSPropertyOp2
 70
     1
102
RTVSPropertyOp3
 70
     1
102
RTVSPropertyOp4
 70
     1
102
RTVSPropertyOp5
 70
     1
102
RTVSPropertyOp6
 70
     1
102
RTVSPropertyOp7
 70
     1
102
RTVSPropertyOp8
 70
     1
102
RTVSPropertyOp9
 70
     1
102
RTVSPropertyOp10
 70
     1
102
RTVSPropertyOp11
 70
     1
102
RTVSPropertyOp12
 70
     1
102
RTVSPropertyOp13
 70
     1
102
RTVSPropertyOp14
 70
     1
102
RTVSPropertyOp15
 70
     1
102
RTVSPropertyOp16
 70
     1
102
RTVSPropertyOp17
 70
     1
102
RTVSPropertyOp18
 70
     1
102
RTVSPropertyOp19
 70
     1
102
RTVSPropertyOp20
 70
     1
102
RTVSPropertyOp21
 70
     1
102
RTVSPropertyOp22
 70
     1
102
RTVSPropertyOp23
 70
     1
102
RTVSPropertyOp24
 70
     1
102
RTVSPropertyOp25
 70
     1
102
RTVSPropertyOp26
 70
     1
102
RTVSPropertyOp27
 70
     1
102
RTVSPropertyOp28
 70
     1
102
RTVSPropertyOp29
 70
     1
102
RTVSPropertyOp30
 70
     1
102
RTVSPropertyOp31
 70
     1
102
RTVSPropertyOp32
 70
     1
102
RTVSPropertyOp33
 70
     1
102
RTVSPropertyOp34
 70
     1
102
RTVSPropertyOp35
 70
     1
102
RTVSPropertyOp36
 70
     1
102
RTVSPropertyOp37
 70
     1
102
RTVSPropertyOp38
 70
     1
102
RTVSPropertyOp39
 70
     1
102
RTVSPropertyOp40
 70
     1
102
RTVSPropertyOp41
 70
     1
102
RTVSPropertyOp42
 70
     1
102
RTVSPropertyOp43
 70
     1
102
RTVSPropertyOp44
 70
     1
102
RTVSPropertyOp45
 70
     1
102
RTVSPropertyOp46
 70
     1
102
RTVSPropertyOp47
 70
     1
102
RTVSPropertyOp48
 70
     1
102
RTVSPropertyOp49
 70
     1
102
RTVSPropertyOp50
 70
     1
102
RTVSPropertyOp51
 70
     0
102
RTVSPropertyOp52
 70
     0
102
RTVSPropertyOp53
 70
     1
102
RTVSPropertyOp54
 70
     1
102
RTVSPropertyOp55
 70
     1
102
RTVSPropertyOp56
 70
     1
102
RTVSPropertyOp57
 70
     1
102
RTVSPropertyOp58
 70
     1
102
RTVSPropertyOp59
 70
     1
102
RTVSPropertyOp60
 70
     1
102
RTVSPropertyOp61
 70
     1
102
RTVSPropertyOp62
 70
     1
  0
XRECORD
  5
3918
102
{ACAD_REACTORS
330
3917
102
}
330
3917
100
AcDbXrecord
280
     1
102
RTVSPost2010Prop28
280
     0
102
RTVSPost2010PropOp28
 70
     1
102
RTVSPost2010Prop29
280
     1
102
RTVSPost2010PropOp29
 70
     1
102
RTVSPost2010Prop30
280
     1
102
RTVSPost2010PropOp30
 70
     1
102
RTVSPost2010Prop31
280
     0
102
RTVSPost2010PropOp31
 70
     1
102
RTVSPost2010Prop32
280
     0
102
RTVSPost2010PropOp32
 70
     1
102
RTVSPost2010Prop33
280
     0
102
RTVSPost2010PropOp33
 70
     1
102
RTVSPost2010Prop34
280
     0
102
RTVSPost2010PropOp34
 70
     1
102
RTVSPost2010Prop35
280
     0
102
RTVSPost2010PropOp35
 70
     1
102
RTVSPost2010Prop36
280
     0
102
RTVSPost2010PropOp36
 70
     1
102
RTVSPost2010Prop37
 90
       50
102
RTVSPost2010PropOp37
 70
     1
102
RTVSPost2010Prop38
140
0.0
102
RTVSPost2010PropOp38
 70
     1
102
RTVSPost2010Prop39
140
1.0
102
RTVSPost2010PropOp39
 70
     1
102
RTVSPost2010Prop40
 90
        0
102
RTVSPost2010PropOp40
 70
     1
102
RTVSPost2010Prop41ColorIndex
 90
       18
102
RTVSPost2010Prop41ColorRGB
 90
        0
102
RTVSPost2010PropOp41
 70
     1
102
RTVSPost2010Prop42
 90
       50
102
RTVSPost2010PropOp42
 70
     1
102
RTVSPost2010Prop43
 90
        3
102
RTVSPost2010PropOp43
 70
     1
102
RTVSPost2010Prop44ColorIndex
 90
        5
102
RTVSPost2010Prop44ColorRGB
 90
      255
102
RTVSPost2010PropOp44
 70
     1
102
RTVSPost2010Prop45
280
     0
102
RTVSPost2010PropOp45
 70
     1
102
RTVSPost2010Prop46
 90
       50
102
RTVSPost2010PropOp46
 70
     1
102
RTVSPost2010Prop47
 90
       50
102
RTVSPost2010PropOp47
 70
     1
102
RTVSPost2010Prop48
 90
       50
102
RTVSPost2010PropOp48
 70
     1
102
RTVSPost2010Prop49
280
     0
102
RTVSPost2010PropOp49
 70
     1
102
RTVSPost2010Prop50
 90
       50
102
RTVSPost2010PropOp50
 70
     1
102
RTVSPost2010Prop51ColorIndex
 90
      256
102
RTVSPost2010Prop51ColorRGB
 90
-16777216
102
RTVSPost2010PropOp51
 70
     0
102
RTVSPost2010Prop52
140
1.0
102
RTVSPost2010PropOp52
 70
     0
102
RTVSPost2010Prop53
 90
        2
102
RTVSPost2010PropOp53
 70
     1
102
RTVSPost2010Prop54
  1
strokes_ogs.tif
102
RTVSPost2010PropOp54
 70
     1
102
RTVSPost2010Prop55
280
     0
102
RTVSPost2010PropOp55
 70
     1
102
RTVSPost2010Prop56
140
1.0
102
RTVSPost2010PropOp56
 70
     1
102
RTVSPost2010Prop57
140
1.0
102
RTVSPost2010PropOp57
 70
     1
102
RTVSPropertyOp0
 70
     1
102
RTVSPropertyOp1
 70
     1
102
RTVSPropertyOp2
 70
     1
102
RTVSPropertyOp3
 70
     1
102
RTVSPropertyOp4
 70
     1
102
RTVSPropertyOp5
 70
     1
102
RTVSPropertyOp6
 70
     1
102
RTVSPropertyOp7
 70
     1
102
RTVSPropertyOp8
 70
     1
102
RTVSPropertyOp9
 70
     1
102
RTVSPropertyOp10
 70
     1
102
RTVSPropertyOp11
 70
     1
102
RTVSPropertyOp12
 70
     1
102
RTVSPropertyOp13
 70
     1
102
RTVSPropertyOp14
 70
     1
102
RTVSPropertyOp15
 70
     1
102
RTVSPropertyOp16
 70
     1
102
RTVSPropertyOp17
 70
     1
102
RTVSPropertyOp18
 70
     1
102
RTVSPropertyOp19
 70
     1
102
RTVSPropertyOp20
 70
     1
102
RTVSPropertyOp21
 70
     1
102
RTVSPropertyOp22
 70
     1
102
RTVSPropertyOp23
 70
     1
102
RTVSPropertyOp24
 70
     1
102
RTVSPropertyOp25
 70
     1
102
RTVSPropertyOp26
 70
     1
102
RTVSPropertyOp27
 70
     1
102
RTVSPropertyOp28
 70
     1
102
RTVSPropertyOp29
 70
     1
102
RTVSPropertyOp30
 70
     1
102
RTVSPropertyOp31
 70
     1
102
RTVSPropertyOp32
 70
     1
102
RTVSPropertyOp33
 70
     1
102
RTVSPropertyOp34
 70
     1
102
RTVSPropertyOp35
 70
     1
102
RTVSPropertyOp36
 70
     1
102
RTVSPropertyOp37
 70
     1
102
RTVSPropertyOp38
 70
     1
102
RTVSPropertyOp39
 70
     1
102
RTVSPropertyOp40
 70
     1
102
RTVSPropertyOp41
 70
     1
102
RTVSPropertyOp42
 70
     1
102
RTVSPropertyOp43
 70
     1
102
RTVSPropertyOp44
 70
     1
102
RTVSPropertyOp45
 70
     1
102
RTVSPropertyOp46
 70
     1
102
RTVSPropertyOp47
 70
     1
102
RTVSPropertyOp48
 70
     1
102
RTVSPropertyOp49
 70
     1
102
RTVSPropertyOp50
 70
     1
102
RTVSPropertyOp51
 70
     0
102
RTVSPropertyOp52
 70
     0
102
RTVSPropertyOp53
 70
     1
102
RTVSPropertyOp54
 70
     1
102
RTVSPropertyOp55
 70
     1
102
RTVSPropertyOp56
 70
     1
102
RTVSPropertyOp57
 70
     1
102
RTVSPropertyOp58
 70
     1
102
RTVSPropertyOp59
 70
     1
102
RTVSPropertyOp60
 70
     1
102
RTVSPropertyOp61
 70
     1
102
RTVSPropertyOp62
 70
     1
  0
XRECORD
  5
3916
102
{ACAD_REACTORS
330
3915
102
}
330
3915
100
AcDbXrecord
280
     1
102
RTVSPost2010Prop28
280
     0
102
RTVSPost2010PropOp28
 70
     1
102
RTVSPost2010Prop29
280
     1
102
RTVSPost2010PropOp29
 70
     1
102
RTVSPost2010Prop30
280
     1
102
RTVSPost2010PropOp30
 70
     1
102
RTVSPost2010Prop31
280
     0
102
RTVSPost2010PropOp31
 70
     1
102
RTVSPost2010Prop32
280
     0
102
RTVSPost2010PropOp32
 70
     1
102
RTVSPost2010Prop33
280
     0
102
RTVSPost2010PropOp33
 70
     1
102
RTVSPost2010Prop34
280
     0
102
RTVSPost2010PropOp34
 70
     1
102
RTVSPost2010Prop35
280
     0
102
RTVSPost2010PropOp35
 70
     1
102
RTVSPost2010Prop36
280
     0
102
RTVSPost2010PropOp36
 70
     1
102
RTVSPost2010Prop37
 90
       50
102
RTVSPost2010PropOp37
 70
     1
102
RTVSPost2010Prop38
140
0.0
102
RTVSPost2010PropOp38
 70
     1
102
RTVSPost2010Prop39
140
1.0
102
RTVSPost2010PropOp39
 70
     1
102
RTVSPost2010Prop40
 90
        0
102
RTVSPost2010PropOp40
 70
     1
102
RTVSPost2010Prop41ColorIndex
 90
       18
102
RTVSPost2010Prop41ColorRGB
 90
        0
102
RTVSPost2010PropOp41
 70
     1
102
RTVSPost2010Prop42
 90
       50
102
RTVSPost2010PropOp42
 70
     1
102
RTVSPost2010Prop43
 90
        3
102
RTVSPost2010PropOp43
 70
     1
102
RTVSPost2010Prop44ColorIndex
 90
        5
102
RTVSPost2010Prop44ColorRGB
 90
      255
102
RTVSPost2010PropOp44
 70
     1
102
RTVSPost2010Prop45
280
     0
102
RTVSPost2010PropOp45
 70
     1
102
RTVSPost2010Prop46
 90
       50
102
RTVSPost2010PropOp46
 70
     1
102
RTVSPost2010Prop47
 90
       50
102
RTVSPost2010PropOp47
 70
     1
102
RTVSPost2010Prop48
 90
       50
102
RTVSPost2010PropOp48
 70
     1
102
RTVSPost2010Prop49
280
     0
102
RTVSPost2010PropOp49
 70
     1
102
RTVSPost2010Prop50
 90
       50
102
RTVSPost2010PropOp50
 70
     1
102
RTVSPost2010Prop51ColorIndex
 90
      256
102
RTVSPost2010Prop51ColorRGB
 90
-16777216
102
RTVSPost2010PropOp51
 70
     0
102
RTVSPost2010Prop52
140
1.0
102
RTVSPost2010PropOp52
 70
     0
102
RTVSPost2010Prop53
 90
        2
102
RTVSPost2010PropOp53
 70
     1
102
RTVSPost2010Prop54
  1
strokes_ogs.tif
102
RTVSPost2010PropOp54
 70
     1
102
RTVSPost2010Prop55
280
     0
102
RTVSPost2010PropOp55
 70
     1
102
RTVSPost2010Prop56
140
1.0
102
RTVSPost2010PropOp56
 70
     1
102
RTVSPost2010Prop57
140
1.0
102
RTVSPost2010PropOp57
 70
     1
102
RTVSPropertyOp0
 70
     1
102
RTVSPropertyOp1
 70
     1
102
RTVSPropertyOp2
 70
     1
102
RTVSPropertyOp3
 70
     1
102
RTVSPropertyOp4
 70
     1
102
RTVSPropertyOp5
 70
     1
102
RTVSPropertyOp6
 70
     1
102
RTVSPropertyOp7
 70
     1
102
RTVSPropertyOp8
 70
     1
102
RTVSPropertyOp9
 70
     1
102
RTVSPropertyOp10
 70
     1
102
RTVSPropertyOp11
 70
     1
102
RTVSPropertyOp12
 70
     1
102
RTVSPropertyOp13
 70
     1
102
RTVSPropertyOp14
 70
     1
102
RTVSPropertyOp15
 70
     1
102
RTVSPropertyOp16
 70
     1
102
RTVSPropertyOp17
 70
     1
102
RTVSPropertyOp18
 70
     1
102
RTVSPropertyOp19
 70
     1
102
RTVSPropertyOp20
 70
     1
102
RTVSPropertyOp21
 70
     1
102
RTVSPropertyOp22
 70
     1
102
RTVSPropertyOp23
 70
     1
102
RTVSPropertyOp24
 70
     1
102
RTVSPropertyOp25
 70
     1
102
RTVSPropertyOp26
 70
     1
102
RTVSPropertyOp27
 70
     1
102
RTVSPropertyOp28
 70
     1
102
RTVSPropertyOp29
 70
     1
102
RTVSPropertyOp30
 70
     1
102
RTVSPropertyOp31
 70
     1
102
RTVSPropertyOp32
 70
     1
102
RTVSPropertyOp33
 70
     1
102
RTVSPropertyOp34
 70
     1
102
RTVSPropertyOp35
 70
     1
102
RTVSPropertyOp36
 70
     1
102
RTVSPropertyOp37
 70
     1
102
RTVSPropertyOp38
 70
     1
102
RTVSPropertyOp39
 70
     1
102
RTVSPropertyOp40
 70
     1
102
RTVSPropertyOp41
 70
     1
102
RTVSPropertyOp42
 70
     1
102
RTVSPropertyOp43
 70
     1
102
RTVSPropertyOp44
 70
     1
102
RTVSPropertyOp45
 70
     1
102
RTVSPropertyOp46
 70
     1
102
RTVSPropertyOp47
 70
     1
102
RTVSPropertyOp48
 70
     1
102
RTVSPropertyOp49
 70
     1
102
RTVSPropertyOp50
 70
     1
102
RTVSPropertyOp51
 70
     0
102
RTVSPropertyOp52
 70
     0
102
RTVSPropertyOp53
 70
     1
102
RTVSPropertyOp54
 70
     1
102
RTVSPropertyOp55
 70
     1
102
RTVSPropertyOp56
 70
     1
102
RTVSPropertyOp57
 70
     1
102
RTVSPropertyOp58
 70
     1
102
RTVSPropertyOp59
 70
     1
102
RTVSPropertyOp60
 70
     1
102
RTVSPropertyOp61
 70
     1
102
RTVSPropertyOp62
 70
     1
  0
XRECORD
  5
3910
102
{ACAD_REACTORS
330
390F
102
}
330
390F
100
AcDbXrecord
280
     1
102
RTVSPost2010Prop28
280
     0
102
RTVSPost2010PropOp28
 70
     1
102
RTVSPost2010Prop29
280
     1
102
RTVSPost2010PropOp29
 70
     1
102
RTVSPost2010Prop30
280
     1
102
RTVSPost2010PropOp30
 70
     1
102
RTVSPost2010Prop31
280
     0
102
RTVSPost2010PropOp31
 70
     1
102
RTVSPost2010Prop32
280
     0
102
RTVSPost2010PropOp32
 70
     1
102
RTVSPost2010Prop33
280
     0
102
RTVSPost2010PropOp33
 70
     1
102
RTVSPost2010Prop34
280
     0
102
RTVSPost2010PropOp34
 70
     1
102
RTVSPost2010Prop35
280
     0
102
RTVSPost2010PropOp35
 70
     1
102
RTVSPost2010Prop36
280
     0
102
RTVSPost2010PropOp36
 70
     1
102
RTVSPost2010Prop37
 90
       50
102
RTVSPost2010PropOp37
 70
     1
102
RTVSPost2010Prop38
140
0.0
102
RTVSPost2010PropOp38
 70
     1
102
RTVSPost2010Prop39
140
1.0
102
RTVSPost2010PropOp39
 70
     1
102
RTVSPost2010Prop40
 90
        0
102
RTVSPost2010PropOp40
 70
     1
102
RTVSPost2010Prop41ColorIndex
 90
       18
102
RTVSPost2010Prop41ColorRGB
 90
        0
102
RTVSPost2010PropOp41
 70
     1
102
RTVSPost2010Prop42
 90
       50
102
RTVSPost2010PropOp42
 70
     1
102
RTVSPost2010Prop43
 90
        3
102
RTVSPost2010PropOp43
 70
     1
102
RTVSPost2010Prop44ColorIndex
 90
        5
102
RTVSPost2010Prop44ColorRGB
 90
      255
102
RTVSPost2010PropOp44
 70
     1
102
RTVSPost2010Prop45
280
     0
102
RTVSPost2010PropOp45
 70
     1
102
RTVSPost2010Prop46
 90
       50
102
RTVSPost2010PropOp46
 70
     1
102
RTVSPost2010Prop47
 90
       50
102
RTVSPost2010PropOp47
 70
     1
102
RTVSPost2010Prop48
 90
       50
102
RTVSPost2010PropOp48
 70
     1
102
RTVSPost2010Prop49
280
     0
102
RTVSPost2010PropOp49
 70
     1
102
RTVSPost2010Prop50
 90
       50
102
RTVSPost2010PropOp50
 70
     1
102
RTVSPost2010Prop51ColorIndex
 90
      256
102
RTVSPost2010Prop51ColorRGB
 90
-16777216
102
RTVSPost2010PropOp51
 70
     0
102
RTVSPost2010Prop52
140
1.0
102
RTVSPost2010PropOp52
 70
     0
102
RTVSPost2010Prop53
 90
        2
102
RTVSPost2010PropOp53
 70
     1
102
RTVSPost2010Prop54
  1
strokes_ogs.tif
102
RTVSPost2010PropOp54
 70
     1
102
RTVSPost2010Prop55
280
     0
102
RTVSPost2010PropOp55
 70
     1
102
RTVSPost2010Prop56
140
1.0
102
RTVSPost2010PropOp56
 70
     1
102
RTVSPost2010Prop57
140
1.0
102
RTVSPost2010PropOp57
 70
     1
102
RTVSPropertyOp0
 70
     1
102
RTVSPropertyOp1
 70
     1
102
RTVSPropertyOp2
 70
     1
102
RTVSPropertyOp3
 70
     1
102
RTVSPropertyOp4
 70
     1
102
RTVSPropertyOp5
 70
     1
102
RTVSPropertyOp6
 70
     1
102
RTVSPropertyOp7
 70
     1
102
RTVSPropertyOp8
 70
     1
102
RTVSPropertyOp9
 70
     1
102
RTVSPropertyOp10
 70
     1
102
RTVSPropertyOp11
 70
     1
102
RTVSPropertyOp12
 70
     1
102
RTVSPropertyOp13
 70
     1
102
RTVSPropertyOp14
 70
     1
102
RTVSPropertyOp15
 70
     1
102
RTVSPropertyOp16
 70
     1
102
RTVSPropertyOp17
 70
     1
102
RTVSPropertyOp18
 70
     1
102
RTVSPropertyOp19
 70
     1
102
RTVSPropertyOp20
 70
     1
102
RTVSPropertyOp21
 70
     1
102
RTVSPropertyOp22
 70
     1
102
RTVSPropertyOp23
 70
     1
102
RTVSPropertyOp24
 70
     1
102
RTVSPropertyOp25
 70
     1
102
RTVSPropertyOp26
 70
     1
102
RTVSPropertyOp27
 70
     1
102
RTVSPropertyOp28
 70
     1
102
RTVSPropertyOp29
 70
     1
102
RTVSPropertyOp30
 70
     1
102
RTVSPropertyOp31
 70
     1
102
RTVSPropertyOp32
 70
     1
102
RTVSPropertyOp33
 70
     1
102
RTVSPropertyOp34
 70
     1
102
RTVSPropertyOp35
 70
     1
102
RTVSPropertyOp36
 70
     1
102
RTVSPropertyOp37
 70
     1
102
RTVSPropertyOp38
 70
     1
102
RTVSPropertyOp39
 70
     1
102
RTVSPropertyOp40
 70
     1
102
RTVSPropertyOp41
 70
     1
102
RTVSPropertyOp42
 70
     1
102
RTVSPropertyOp43
 70
     1
102
RTVSPropertyOp44
 70
     1
102
RTVSPropertyOp45
 70
     1
102
RTVSPropertyOp46
 70
     1
102
RTVSPropertyOp47
 70
     1
102
RTVSPropertyOp48
 70
     1
102
RTVSPropertyOp49
 70
     1
102
RTVSPropertyOp50
 70
     1
102
RTVSPropertyOp51
 70
     0
102
RTVSPropertyOp52
 70
     0
102
RTVSPropertyOp53
 70
     1
102
RTVSPropertyOp54
 70
     1
102
RTVSPropertyOp55
 70
     1
102
RTVSPropertyOp56
 70
     1
102
RTVSPropertyOp57
 70
     1
102
RTVSPropertyOp58
 70
     1
102
RTVSPropertyOp59
 70
     1
102
RTVSPropertyOp60
 70
     1
102
RTVSPropertyOp61
 70
     1
102
RTVSPropertyOp62
 70
     1
  0
XRECORD
  5
3912
102
{ACAD_REACTORS
330
3911
102
}
330
3911
100
AcDbXrecord
280
     1
102
RTVSPost2010Prop28
280
     0
102
RTVSPost2010PropOp28
 70
     1
102
RTVSPost2010Prop29
280
     1
102
RTVSPost2010PropOp29
 70
     1
102
RTVSPost2010Prop30
280
     1
102
RTVSPost2010PropOp30
 70
     1
102
RTVSPost2010Prop31
280
     0
102
RTVSPost2010PropOp31
 70
     1
102
RTVSPost2010Prop32
280
     0
102
RTVSPost2010PropOp32
 70
     1
102
RTVSPost2010Prop33
280
     0
102
RTVSPost2010PropOp33
 70
     1
102
RTVSPost2010Prop34
280
     0
102
RTVSPost2010PropOp34
 70
     1
102
RTVSPost2010Prop35
280
     0
102
RTVSPost2010PropOp35
 70
     1
102
RTVSPost2010Prop36
280
     0
102
RTVSPost2010PropOp36
 70
     1
102
RTVSPost2010Prop37
 90
       50
102
RTVSPost2010PropOp37
 70
     1
102
RTVSPost2010Prop38
140
0.0
102
RTVSPost2010PropOp38
 70
     1
102
RTVSPost2010Prop39
140
1.0
102
RTVSPost2010PropOp39
 70
     1
102
RTVSPost2010Prop40
 90
        0
102
RTVSPost2010PropOp40
 70
     1
102
RTVSPost2010Prop41ColorIndex
 90
       18
102
RTVSPost2010Prop41ColorRGB
 90
        0
102
RTVSPost2010PropOp41
 70
     1
102
RTVSPost2010Prop42
 90
       50
102
RTVSPost2010PropOp42
 70
     1
102
RTVSPost2010Prop43
 90
        3
102
RTVSPost2010PropOp43
 70
     1
102
RTVSPost2010Prop44ColorIndex
 90
        5
102
RTVSPost2010Prop44ColorRGB
 90
      255
102
RTVSPost2010PropOp44
 70
     1
102
RTVSPost2010Prop45
280
     0
102
RTVSPost2010PropOp45
 70
     1
102
RTVSPost2010Prop46
 90
       50
102
RTVSPost2010PropOp46
 70
     1
102
RTVSPost2010Prop47
 90
       50
102
RTVSPost2010PropOp47
 70
     1
102
RTVSPost2010Prop48
 90
       50
102
RTVSPost2010PropOp48
 70
     1
102
RTVSPost2010Prop49
280
     0
102
RTVSPost2010PropOp49
 70
     1
102
RTVSPost2010Prop50
 90
       50
102
RTVSPost2010PropOp50
 70
     1
102
RTVSPost2010Prop51ColorIndex
 90
      256
102
RTVSPost2010Prop51ColorRGB
 90
-16777216
102
RTVSPost2010PropOp51
 70
     0
102
RTVSPost2010Prop52
140
1.0
102
RTVSPost2010PropOp52
 70
     0
102
RTVSPost2010Prop53
 90
        2
102
RTVSPost2010PropOp53
 70
     1
102
RTVSPost2010Prop54
  1
strokes_ogs.tif
102
RTVSPost2010PropOp54
 70
     1
102
RTVSPost2010Prop55
280
     0
102
RTVSPost2010PropOp55
 70
     1
102
RTVSPost2010Prop56
140
1.0
102
RTVSPost2010PropOp56
 70
     1
102
RTVSPost2010Prop57
140
1.0
102
RTVSPost2010PropOp57
 70
     1
102
RTVSPropertyOp0
 70
     1
102
RTVSPropertyOp1
 70
     1
102
RTVSPropertyOp2
 70
     1
102
RTVSPropertyOp3
 70
     1
102
RTVSPropertyOp4
 70
     1
102
RTVSPropertyOp5
 70
     1
102
RTVSPropertyOp6
 70
     1
102
RTVSPropertyOp7
 70
     1
102
RTVSPropertyOp8
 70
     1
102
RTVSPropertyOp9
 70
     1
102
RTVSPropertyOp10
 70
     1
102
RTVSPropertyOp11
 70
     1
102
RTVSPropertyOp12
 70
     1
102
RTVSPropertyOp13
 70
     1
102
RTVSPropertyOp14
 70
     1
102
RTVSPropertyOp15
 70
     1
102
RTVSPropertyOp16
 70
     1
102
RTVSPropertyOp17
 70
     1
102
RTVSPropertyOp18
 70
     1
102
RTVSPropertyOp19
 70
     1
102
RTVSPropertyOp20
 70
     1
102
RTVSPropertyOp21
 70
     1
102
RTVSPropertyOp22
 70
     1
102
RTVSPropertyOp23
 70
     1
102
RTVSPropertyOp24
 70
     1
102
RTVSPropertyOp25
 70
     1
102
RTVSPropertyOp26
 70
     1
102
RTVSPropertyOp27
 70
     1
102
RTVSPropertyOp28
 70
     1
102
RTVSPropertyOp29
 70
     1
102
RTVSPropertyOp30
 70
     1
102
RTVSPropertyOp31
 70
     1
102
RTVSPropertyOp32
 70
     1
102
RTVSPropertyOp33
 70
     1
102
RTVSPropertyOp34
 70
     1
102
RTVSPropertyOp35
 70
     1
102
RTVSPropertyOp36
 70
     1
102
RTVSPropertyOp37
 70
     1
102
RTVSPropertyOp38
 70
     1
102
RTVSPropertyOp39
 70
     1
102
RTVSPropertyOp40
 70
     1
102
RTVSPropertyOp41
 70
     1
102
RTVSPropertyOp42
 70
     1
102
RTVSPropertyOp43
 70
     1
102
RTVSPropertyOp44
 70
     1
102
RTVSPropertyOp45
 70
     1
102
RTVSPropertyOp46
 70
     1
102
RTVSPropertyOp47
 70
     1
102
RTVSPropertyOp48
 70
     1
102
RTVSPropertyOp49
 70
     1
102
RTVSPropertyOp50
 70
     1
102
RTVSPropertyOp51
 70
     0
102
RTVSPropertyOp52
 70
     0
102
RTVSPropertyOp53
 70
     1
102
RTVSPropertyOp54
 70
     1
102
RTVSPropertyOp55
 70
     1
102
RTVSPropertyOp56
 70
     1
102
RTVSPropertyOp57
 70
     1
102
RTVSPropertyOp58
 70
     1
102
RTVSPropertyOp59
 70
     1
102
RTVSPropertyOp60
 70
     1
102
RTVSPropertyOp61
 70
     1
102
RTVSPropertyOp62
 70
     1
  0
XRECORD
  5
38DD
102
{ACAD_REACTORS
330
38DC
102
}
330
38DC
100
AcDbXrecord
280
     1
102
RTVSPost2010Prop28
280
     0
102
RTVSPost2010PropOp28
 70
     1
102
RTVSPost2010Prop29
280
     1
102
RTVSPost2010PropOp29
 70
     1
102
RTVSPost2010Prop30
280
     1
102
RTVSPost2010PropOp30
 70
     1
102
RTVSPost2010Prop31
280
     0
102
RTVSPost2010PropOp31
 70
     1
102
RTVSPost2010Prop32
280
     0
102
RTVSPost2010PropOp32
 70
     1
102
RTVSPost2010Prop33
280
     0
102
RTVSPost2010PropOp33
 70
     1
102
RTVSPost2010Prop34
280
     0
102
RTVSPost2010PropOp34
 70
     1
102
RTVSPost2010Prop35
280
     0
102
RTVSPost2010PropOp35
 70
     1
102
RTVSPost2010Prop36
280
     0
102
RTVSPost2010PropOp36
 70
     1
102
RTVSPost2010Prop37
 90
       50
102
RTVSPost2010PropOp37
 70
     1
102
RTVSPost2010Prop38
140
0.0
102
RTVSPost2010PropOp38
 70
     1
102
RTVSPost2010Prop39
140
1.0
102
RTVSPost2010PropOp39
 70
     1
102
RTVSPost2010Prop40
 90
        0
102
RTVSPost2010PropOp40
 70
     1
102
RTVSPost2010Prop41ColorIndex
 90
       18
102
RTVSPost2010Prop41ColorRGB
 90
        0
102
RTVSPost2010PropOp41
 70
     1
102
RTVSPost2010Prop42
 90
       50
102
RTVSPost2010PropOp42
 70
     1
102
RTVSPost2010Prop43
 90
        3
102
RTVSPost2010PropOp43
 70
     1
102
RTVSPost2010Prop44ColorIndex
 90
        5
102
RTVSPost2010Prop44ColorRGB
 90
      255
102
RTVSPost2010PropOp44
 70
     1
102
RTVSPost2010Prop45
280
     0
102
RTVSPost2010PropOp45
 70
     1
102
RTVSPost2010Prop46
 90
       50
102
RTVSPost2010PropOp46
 70
     1
102
RTVSPost2010Prop47
 90
       50
102
RTVSPost2010PropOp47
 70
     1
102
RTVSPost2010Prop48
 90
       50
102
RTVSPost2010PropOp48
 70
     1
102
RTVSPost2010Prop49
280
     0
102
RTVSPost2010PropOp49
 70
     1
102
RTVSPost2010Prop50
 90
       50
102
RTVSPost2010PropOp50
 70
     1
102
RTVSPost2010Prop51ColorIndex
 90
      256
102
RTVSPost2010Prop51ColorRGB
 90
-16777216
102
RTVSPost2010PropOp51
 70
     0
102
RTVSPost2010Prop52
140
1.0
102
RTVSPost2010PropOp52
 70
     0
102
RTVSPost2010Prop53
 90
        2
102
RTVSPost2010PropOp53
 70
     1
102
RTVSPost2010Prop54
  1
strokes_ogs.tif
102
RTVSPost2010PropOp54
 70
     1
102
RTVSPost2010Prop55
280
     0
102
RTVSPost2010PropOp55
 70
     1
102
RTVSPost2010Prop56
140
1.0
102
RTVSPost2010PropOp56
 70
     1
102
RTVSPost2010Prop57
140
1.0
102
RTVSPost2010PropOp57
 70
     1
102
RTVSPropertyOp0
 70
     1
102
RTVSPropertyOp1
 70
     1
102
RTVSPropertyOp2
 70
     1
102
RTVSPropertyOp3
 70
     1
102
RTVSPropertyOp4
 70
     1
102
RTVSPropertyOp5
 70
     1
102
RTVSPropertyOp6
 70
     1
102
RTVSPropertyOp7
 70
     1
102
RTVSPropertyOp8
 70
     1
102
RTVSPropertyOp9
 70
     1
102
RTVSPropertyOp10
 70
     1
102
RTVSPropertyOp11
 70
     1
102
RTVSPropertyOp12
 70
     1
102
RTVSPropertyOp13
 70
     1
102
RTVSPropertyOp14
 70
     1
102
RTVSPropertyOp15
 70
     1
102
RTVSPropertyOp16
 70
     1
102
RTVSPropertyOp17
 70
     1
102
RTVSPropertyOp18
 70
     1
102
RTVSPropertyOp19
 70
     1
102
RTVSPropertyOp20
 70
     1
102
RTVSPropertyOp21
 70
     1
102
RTVSPropertyOp22
 70
     1
102
RTVSPropertyOp23
 70
     1
102
RTVSPropertyOp24
 70
     1
102
RTVSPropertyOp25
 70
     1
102
RTVSPropertyOp26
 70
     1
102
RTVSPropertyOp27
 70
     1
102
RTVSPropertyOp28
 70
     1
102
RTVSPropertyOp29
 70
     1
102
RTVSPropertyOp30
 70
     1
102
RTVSPropertyOp31
 70
     1
102
RTVSPropertyOp32
 70
     1
102
RTVSPropertyOp33
 70
     1
102
RTVSPropertyOp34
 70
     1
102
RTVSPropertyOp35
 70
     1
102
RTVSPropertyOp36
 70
     1
102
RTVSPropertyOp37
 70
     1
102
RTVSPropertyOp38
 70
     1
102
RTVSPropertyOp39
 70
     1
102
RTVSPropertyOp40
 70
     1
102
RTVSPropertyOp41
 70
     1
102
RTVSPropertyOp42
 70
     1
102
RTVSPropertyOp43
 70
     1
102
RTVSPropertyOp44
 70
     1
102
RTVSPropertyOp45
 70
     1
102
RTVSPropertyOp46
 70
     1
102
RTVSPropertyOp47
 70
     1
102
RTVSPropertyOp48
 70
     1
102
RTVSPropertyOp49
 70
     1
102
RTVSPropertyOp50
 70
     1
102
RTVSPropertyOp51
 70
     0
102
RTVSPropertyOp52
 70
     0
102
RTVSPropertyOp53
 70
     1
102
RTVSPropertyOp54
 70
     1
102
RTVSPropertyOp55
 70
     1
102
RTVSPropertyOp56
 70
     1
102
RTVSPropertyOp57
 70
     1
102
RTVSPropertyOp58
 70
     1
102
RTVSPropertyOp59
 70
     1
102
RTVSPropertyOp60
 70
     1
102
RTVSPropertyOp61
 70
     1
102
RTVSPropertyOp62
 70
     1
  0
XRECORD
  5
390C
102
{ACAD_REACTORS
330
390B
102
}
330
390B
100
AcDbXrecord
280
     1
102
RTVSPost2010Prop28
280
     0
102
RTVSPost2010PropOp28
 70
     1
102
RTVSPost2010Prop29
280
     1
102
RTVSPost2010PropOp29
 70
     1
102
RTVSPost2010Prop30
280
     1
102
RTVSPost2010PropOp30
 70
     1
102
RTVSPost2010Prop31
280
     0
102
RTVSPost2010PropOp31
 70
     1
102
RTVSPost2010Prop32
280
     0
102
RTVSPost2010PropOp32
 70
     1
102
RTVSPost2010Prop33
280
     0
102
RTVSPost2010PropOp33
 70
     1
102
RTVSPost2010Prop34
280
     0
102
RTVSPost2010PropOp34
 70
     1
102
RTVSPost2010Prop35
280
     0
102
RTVSPost2010PropOp35
 70
     1
102
RTVSPost2010Prop36
280
     0
102
RTVSPost2010PropOp36
 70
     1
102
RTVSPost2010Prop37
 90
       50
102
RTVSPost2010PropOp37
 70
     1
102
RTVSPost2010Prop38
140
0.0
102
RTVSPost2010PropOp38
 70
     1
102
RTVSPost2010Prop39
140
1.0
102
RTVSPost2010PropOp39
 70
     1
102
RTVSPost2010Prop40
 90
        0
102
RTVSPost2010PropOp40
 70
     1
102
RTVSPost2010Prop41ColorIndex
 90
       18
102
RTVSPost2010Prop41ColorRGB
 90
        0
102
RTVSPost2010PropOp41
 70
     1
102
RTVSPost2010Prop42
 90
       50
102
RTVSPost2010PropOp42
 70
     1
102
RTVSPost2010Prop43
 90
        3
102
RTVSPost2010PropOp43
 70
     1
102
RTVSPost2010Prop44ColorIndex
 90
        5
102
RTVSPost2010Prop44ColorRGB
 90
      255
102
RTVSPost2010PropOp44
 70
     1
102
RTVSPost2010Prop45
280
     0
102
RTVSPost2010PropOp45
 70
     1
102
RTVSPost2010Prop46
 90
       50
102
RTVSPost2010PropOp46
 70
     1
102
RTVSPost2010Prop47
 90
       50
102
RTVSPost2010PropOp47
 70
     1
102
RTVSPost2010Prop48
 90
       50
102
RTVSPost2010PropOp48
 70
     1
102
RTVSPost2010Prop49
280
     0
102
RTVSPost2010PropOp49
 70
     1
102
RTVSPost2010Prop50
 90
       50
102
RTVSPost2010PropOp50
 70
     1
102
RTVSPost2010Prop51ColorIndex
 90
      256
102
RTVSPost2010Prop51ColorRGB
 90
-16777216
102
RTVSPost2010PropOp51
 70
     0
102
RTVSPost2010Prop52
140
1.0
102
RTVSPost2010PropOp52
 70
     0
102
RTVSPost2010Prop53
 90
        2
102
RTVSPost2010PropOp53
 70
     1
102
RTVSPost2010Prop54
  1
strokes_ogs.tif
102
RTVSPost2010PropOp54
 70
     1
102
RTVSPost2010Prop55
280
     0
102
RTVSPost2010PropOp55
 70
     1
102
RTVSPost2010Prop56
140
1.0
102
RTVSPost2010PropOp56
 70
     1
102
RTVSPost2010Prop57
140
1.0
102
RTVSPost2010PropOp57
 70
     1
102
RTVSPropertyOp0
 70
     1
102
RTVSPropertyOp1
 70
     1
102
RTVSPropertyOp2
 70
     1
102
RTVSPropertyOp3
 70
     1
102
RTVSPropertyOp4
 70
     1
102
RTVSPropertyOp5
 70
     1
102
RTVSPropertyOp6
 70
     1
102
RTVSPropertyOp7
 70
     1
102
RTVSPropertyOp8
 70
     1
102
RTVSPropertyOp9
 70
     1
102
RTVSPropertyOp10
 70
     1
102
RTVSPropertyOp11
 70
     1
102
RTVSPropertyOp12
 70
     1
102
RTVSPropertyOp13
 70
     1
102
RTVSPropertyOp14
 70
     1
102
RTVSPropertyOp15
 70
     1
102
RTVSPropertyOp16
 70
     1
102
RTVSPropertyOp17
 70
     1
102
RTVSPropertyOp18
 70
     1
102
RTVSPropertyOp19
 70
     1
102
RTVSPropertyOp20
 70
     1
102
RTVSPropertyOp21
 70
     1
102
RTVSPropertyOp22
 70
     1
102
RTVSPropertyOp23
 70
     1
102
RTVSPropertyOp24
 70
     1
102
RTVSPropertyOp25
 70
     1
102
RTVSPropertyOp26
 70
     1
102
RTVSPropertyOp27
 70
     1
102
RTVSPropertyOp28
 70
     1
102
RTVSPropertyOp29
 70
     1
102
RTVSPropertyOp30
 70
     1
102
RTVSPropertyOp31
 70
     1
102
RTVSPropertyOp32
 70
     1
102
RTVSPropertyOp33
 70
     1
102
RTVSPropertyOp34
 70
     1
102
RTVSPropertyOp35
 70
     1
102
RTVSPropertyOp36
 70
     1
102
RTVSPropertyOp37
 70
     1
102
RTVSPropertyOp38
 70
     1
102
RTVSPropertyOp39
 70
     1
102
RTVSPropertyOp40
 70
     1
102
RTVSPropertyOp41
 70
     1
102
RTVSPropertyOp42
 70
     1
102
RTVSPropertyOp43
 70
     1
102
RTVSPropertyOp44
 70
     1
102
RTVSPropertyOp45
 70
     1
102
RTVSPropertyOp46
 70
     1
102
RTVSPropertyOp47
 70
     1
102
RTVSPropertyOp48
 70
     1
102
RTVSPropertyOp49
 70
     1
102
RTVSPropertyOp50
 70
     1
102
RTVSPropertyOp51
 70
     0
102
RTVSPropertyOp52
 70
     0
102
RTVSPropertyOp53
 70
     1
102
RTVSPropertyOp54
 70
     1
102
RTVSPropertyOp55
 70
     1
102
RTVSPropertyOp56
 70
     1
102
RTVSPropertyOp57
 70
     1
102
RTVSPropertyOp58
 70
     1
102
RTVSPropertyOp59
 70
     1
102
RTVSPropertyOp60
 70
     1
102
RTVSPropertyOp61
 70
     1
102
RTVSPropertyOp62
 70
     1
  0
XRECORD
  5
3914
102
{ACAD_REACTORS
330
3913
102
}
330
3913
100
AcDbXrecord
280
     1
102
RTVSPost2010Prop28
280
     0
102
RTVSPost2010PropOp28
 70
     1
102
RTVSPost2010Prop29
280
     1
102
RTVSPost2010PropOp29
 70
     1
102
RTVSPost2010Prop30
280
     1
102
RTVSPost2010PropOp30
 70
     1
102
RTVSPost2010Prop31
280
     0
102
RTVSPost2010PropOp31
 70
     1
102
RTVSPost2010Prop32
280
     0
102
RTVSPost2010PropOp32
 70
     1
102
RTVSPost2010Prop33
280
     0
102
RTVSPost2010PropOp33
 70
     1
102
RTVSPost2010Prop34
280
     0
102
RTVSPost2010PropOp34
 70
     1
102
RTVSPost2010Prop35
280
     0
102
RTVSPost2010PropOp35
 70
     1
102
RTVSPost2010Prop36
280
     0
102
RTVSPost2010PropOp36
 70
     1
102
RTVSPost2010Prop37
 90
       50
102
RTVSPost2010PropOp37
 70
     1
102
RTVSPost2010Prop38
140
0.0
102
RTVSPost2010PropOp38
 70
     1
102
RTVSPost2010Prop39
140
1.0
102
RTVSPost2010PropOp39
 70
     1
102
RTVSPost2010Prop40
 90
        0
102
RTVSPost2010PropOp40
 70
     1
102
RTVSPost2010Prop41ColorIndex
 90
       18
102
RTVSPost2010Prop41ColorRGB
 90
        0
102
RTVSPost2010PropOp41
 70
     1
102
RTVSPost2010Prop42
 90
       50
102
RTVSPost2010PropOp42
 70
     1
102
RTVSPost2010Prop43
 90
        3
102
RTVSPost2010PropOp43
 70
     1
102
RTVSPost2010Prop44ColorIndex
 90
        5
102
RTVSPost2010Prop44ColorRGB
 90
      255
102
RTVSPost2010PropOp44
 70
     1
102
RTVSPost2010Prop45
280
     0
102
RTVSPost2010PropOp45
 70
     1
102
RTVSPost2010Prop46
 90
       50
102
RTVSPost2010PropOp46
 70
     1
102
RTVSPost2010Prop47
 90
       50
102
RTVSPost2010PropOp47
 70
     1
102
RTVSPost2010Prop48
 90
       50
102
RTVSPost2010PropOp48
 70
     1
102
RTVSPost2010Prop49
280
     0
102
RTVSPost2010PropOp49
 70
     1
102
RTVSPost2010Prop50
 90
       50
102
RTVSPost2010PropOp50
 70
     1
102
RTVSPost2010Prop51ColorIndex
 90
      256
102
RTVSPost2010Prop51ColorRGB
 90
-16777216
102
RTVSPost2010PropOp51
 70
     0
102
RTVSPost2010Prop52
140
1.0
102
RTVSPost2010PropOp52
 70
     0
102
RTVSPost2010Prop53
 90
        2
102
RTVSPost2010PropOp53
 70
     1
102
RTVSPost2010Prop54
  1
strokes_ogs.tif
102
RTVSPost2010PropOp54
 70
     1
102
RTVSPost2010Prop55
280
     0
102
RTVSPost2010PropOp55
 70
     1
102
RTVSPost2010Prop56
140
1.0
102
RTVSPost2010PropOp56
 70
     1
102
RTVSPost2010Prop57
140
1.0
102
RTVSPost2010PropOp57
 70
     1
102
RTVSPropertyOp0
 70
     1
102
RTVSPropertyOp1
 70
     1
102
RTVSPropertyOp2
 70
     1
102
RTVSPropertyOp3
 70
     1
102
RTVSPropertyOp4
 70
     1
102
RTVSPropertyOp5
 70
     1
102
RTVSPropertyOp6
 70
     1
102
RTVSPropertyOp7
 70
     1
102
RTVSPropertyOp8
 70
     1
102
RTVSPropertyOp9
 70
     1
102
RTVSPropertyOp10
 70
     1
102
RTVSPropertyOp11
 70
     1
102
RTVSPropertyOp12
 70
     1
102
RTVSPropertyOp13
 70
     1
102
RTVSPropertyOp14
 70
     1
102
RTVSPropertyOp15
 70
     1
102
RTVSPropertyOp16
 70
     1
102
RTVSPropertyOp17
 70
     1
102
RTVSPropertyOp18
 70
     1
102
RTVSPropertyOp19
 70
     1
102
RTVSPropertyOp20
 70
     1
102
RTVSPropertyOp21
 70
     1
102
RTVSPropertyOp22
 70
     1
102
RTVSPropertyOp23
 70
     1
102
RTVSPropertyOp24
 70
     1
102
RTVSPropertyOp25
 70
     1
102
RTVSPropertyOp26
 70
     1
102
RTVSPropertyOp27
 70
     1
102
RTVSPropertyOp28
 70
     1
102
RTVSPropertyOp29
 70
     1
102
RTVSPropertyOp30
 70
     1
102
RTVSPropertyOp31
 70
     1
102
RTVSPropertyOp32
 70
     1
102
RTVSPropertyOp33
 70
     1
102
RTVSPropertyOp34
 70
     1
102
RTVSPropertyOp35
 70
     1
102
RTVSPropertyOp36
 70
     1
102
RTVSPropertyOp37
 70
     1
102
RTVSPropertyOp38
 70
     1
102
RTVSPropertyOp39
 70
     1
102
RTVSPropertyOp40
 70
     1
102
RTVSPropertyOp41
 70
     1
102
RTVSPropertyOp42
 70
     1
102
RTVSPropertyOp43
 70
     1
102
RTVSPropertyOp44
 70
     1
102
RTVSPropertyOp45
 70
     1
102
RTVSPropertyOp46
 70
     1
102
RTVSPropertyOp47
 70
     1
102
RTVSPropertyOp48
 70
     1
102
RTVSPropertyOp49
 70
     1
102
RTVSPropertyOp50
 70
     1
102
RTVSPropertyOp51
 70
     0
102
RTVSPropertyOp52
 70
     0
102
RTVSPropertyOp53
 70
     1
102
RTVSPropertyOp54
 70
     1
102
RTVSPropertyOp55
 70
     1
102
RTVSPropertyOp56
 70
     1
102
RTVSPropertyOp57
 70
     1
102
RTVSPropertyOp58
 70
     1
102
RTVSPropertyOp59
 70
     1
102
RTVSPropertyOp60
 70
     1
102
RTVSPropertyOp61
 70
     1
102
RTVSPropertyOp62
 70
     1
  0
ENDSEC
  0
EOF
