  0
SECTION
  2
HEADER
  9
$ACADVER
  1
AC1015
  9
$ACADMAINTVER
 70
    20
  9
$DWGCODEPAGE
  3
ANSI_932
  9
$INSBASE
 10
0.0
 20
0.0
 30
0.0
  9
$EXTMIN
 10
23.4820384756
 20
-45.6771423325
 30
0.0
  9
$EXTMAX
 10
720.0981328694
 20
400.8229355609
 30
0.0
  9
$LIMMIN
 10
0.0
 20
0.0
  9
$LIMMAX
 10
297.0
 20
210.0
  9
$ORTHOMODE
 70
     1
  9
$REGENMODE
 70
     1
  9
$FILLMODE
 70
     1
  9
$QTEXTMODE
 70
     0
  9
$MIRRTEXT
 70
     0
  9
$LTSCALE
 40
2.0
  9
$ATTMODE
 70
     1
  9
$TEXTSIZE
 40
2.0
  9
$TRACEWID
 40
1.0
  9
$TEXTSTYLE
  7
STANDARD
  9
$CLAYER
  8
0
  9
$CELTYPE
  6
BYLAYER
  9
$CECOLOR
 62
   256
  9
$CELTSCALE
 40
1.0
  9
$DISPSILH
 70
     0
  9
$DIMSCALE
 40
2.0
  9
$DIMASZ
 40
1.8
  9
$DIMEXO
 40
0.625
  9
$DIMDLI
 40
3.75
  9
$DIMRND
 40
0.0
  9
$DIMDLE
 40
0.0
  9
$DIMEXE
 40
0.8
  9
$DIMTP
 40
0.0
  9
$DIMTM
 40
0.0
  9
$DIMTXT
 40
1.8
  9
$DIMCEN
 40
2.5
  9
$DIMTSZ
 40
0.0
  9
$DIMTOL
 70
     0
  9
$DIMLIM
 70
     0
  9
$DIMTIH
 70
     0
  9
$DIMTOH
 70
     0
  9
$DIMSE1
 70
     0
  9
$DIMSE2
 70
     0
  9
$DIMTAD
 70
     1
  9
$DIMZIN
 70
     8
  9
$DIMBLK
  1

  9
$DIMASO
 70
     1
  9
$DIMSHO
 70
     1
  9
$DIMPOST
  1

  9
$DIMAPOST
  1

  9
$DIMALT
 70
     0
  9
$DIMALTD
 70
     4
  9
$DIMALTF
 40
0.0394
  9
$DIMLFAC
 40
1.0
  9
$DIMTOFL
 70
     1
  9
$DIMTVP
 40
0.0
  9
$DIMTIX
 70
     0
  9
$DIMSOXD
 70
     0
  9
$DIMSAH
 70
     0
  9
$DIMBLK1
  1

  9
$DIMBLK2
  1

  9
$DIMSTYLE
  2
STANDARD
  9
$DIMCLRD
 70
     0
  9
$DIMCLRE
 70
     0
  9
$DIMCLRT
 70
     0
  9
$DIMTFAC
 40
1.0
  9
$DIMGAP
 40
0.75
  9
$DIMJUST
 70
     0
  9
$DIMSD1
 70
     0
  9
$DIMSD2
 70
     0
  9
$DIMTOLJ
 70
     1
  9
$DIMTZIN
 70
     0
  9
$DIMALTZ
 70
     0
  9
$DIMALTTZ
 70
     0
  9
$DIMUPT
 70
     0
  9
$DIMDEC
 70
     2
  9
$DIMTDEC
 70
     2
  9
$DIMALTU
 70
     8
  9
$DIMALTTD
 70
     4
  9
$DIMTXSTY
  7
STANDARD
  9
$DIMAUNIT
 70
     0
  9
$DIMADEC
 70
     2
  9
$DIMALTRND
 40
0.0
  9
$DIMAZIN
 70
     0
  9
$DIMDSEP
 70
    46
  9
$DIMATFIT
 70
     3
  9
$DIMFRAC
 70
     0
  9
$DIMLDRBLK
  1

  9
$DIMLUNIT
 70
     6
  9
$DIMLWD
 70
    -2
  9
$DIMLWE
 70
    -2
  9
$DIMTMOVE
 70
     0
  9
$LUNITS
 70
     2
  9
$LUPREC
 70
     3
  9
$SKETCHINC
 40
1.0
  9
$FILLETRAD
 40
10.0
  9
$AUNITS
 70
     0
  9
$AUPREC
 70
     2
  9
$MENU
  1
.
  9
$ELEVATION
 40
0.0
  9
$PELEVATION
 40
0.0
  9
$THICKNESS
 40
0.0
  9
$LIMCHECK
 70
     0
  9
$CHAMFERA
 40
0.0
  9
$CHAMFERB
 40
0.0
  9
$CHAMFERC
 40
20.0
  9
$CHAMFERD
 40
0.0
  9
$SKPOLY
 70
     0
  9
$TDCREATE
 40
2453557.748483796
  9
$TDUCREATE
 40
2453557.373493009
  9
$TDUPDATE
 40
2460164.364050926
  9
$TDUUPDATE
 40
2460163.989050926
  9
$TDINDWG
 40
0.4973369213
  9
$TDUSRTIMER
 40
0.4973369213
  9
$USRTIMER
 70
     1
  9
$ANGBASE
 50
0.0
  9
$ANGDIR
 70
     0
  9
$PDMODE
 70
     0
  9
$PDSIZE
 40
-10.0
  9
$PLINEWID
 40
0.0
  9
$SPLFRAME
 70
     0
  9
$SPLINETYPE
 70
     6
  9
$SPLINESEGS
 70
     8
  9
$HANDSEED
  5
34B6
  9
$SURFTAB1
 70
     6
  9
$SURFTAB2
 70
     6
  9
$SURFTYPE
 70
     6
  9
$SURFU
 70
     6
  9
$SURFV
 70
     6
  9
$UCSBASE
  2

  9
$UCSNAME
  2

  9
$UCSORG
 10
0.0
 20
0.0
 30
0.0
  9
$UCSXDIR
 10
1.0
 20
0.0
 30
0.0
  9
$UCSYDIR
 10
0.0
 20
1.0
 30
0.0
  9
$UCSORTHOREF
  2

  9
$UCSORTHOVIEW
 70
     0
  9
$UCSORGTOP
 10
0.0
 20
0.0
 30
0.0
  9
$UCSORGBOTTOM
 10
0.0
 20
0.0
 30
0.0
  9
$UCSORGLEFT
 10
0.0
 20
0.0
 30
0.0
  9
$UCSORGRIGHT
 10
0.0
 20
0.0
 30
0.0
  9
$UCSORGFRONT
 10
0.0
 20
0.0
 30
0.0
  9
$UCSORGBACK
 10
0.0
 20
0.0
 30
0.0
  9
$PUCSBASE
  2

  9
$PUCSNAME
  2

  9
$PUCSORG
 10
0.0
 20
0.0
 30
0.0
  9
$PUCSXDIR
 10
1.0
 20
0.0
 30
0.0
  9
$PUCSYDIR
 10
0.0
 20
1.0
 30
0.0
  9
$PUCSORTHOREF
  2

  9
$PUCSORTHOVIEW
 70
     0
  9
$PUCSORGTOP
 10
0.0
 20
0.0
 30
0.0
  9
$PUCSORGBOTTOM
 10
0.0
 20
0.0
 30
0.0
  9
$PUCSORGLEFT
 10
0.0
 20
0.0
 30
0.0
  9
$PUCSORGRIGHT
 10
0.0
 20
0.0
 30
0.0
  9
$PUCSORGFRONT
 10
0.0
 20
0.0
 30
0.0
  9
$PUCSORGBACK
 10
0.0
 20
0.0
 30
0.0
  9
$USERI1
 70
     0
  9
$USERI2
 70
     0
  9
$USERI3
 70
     0
  9
$USERI4
 70
     0
  9
$USERI5
 70
     0
  9
$USERR1
 40
0.0
  9
$USERR2
 40
0.0
  9
$USERR3
 40
0.0
  9
$USERR4
 40
0.0
  9
$USERR5
 40
0.0
  9
$WORLDVIEW
 70
     1
  9
$SHADEDGE
 70
     3
  9
$SHADEDIF
 70
    70
  9
$TILEMODE
 70
     1
  9
$MAXACTVP
 70
    48
  9
$PINSBASE
 10
0.0
 20
0.0
 30
0.0
  9
$PLIMCHECK
 70
     0
  9
$PEXTMIN
 10
0.0
 20
0.0
 30
0.0
  9
$PEXTMAX
 10
0.0
 20
0.0
 30
0.0
  9
$PLIMMIN
 10
0.0
 20
0.0
  9
$PLIMMAX
 10
12.0
 20
9.0
  9
$UNITMODE
 70
     0
  9
$VISRETAIN
 70
     1
  9
$PLINEGEN
 70
     0
  9
$PSLTSCALE
 70
     1
  9
$TREEDEPTH
 70
  3020
  9
$CMLSTYLE
  2
STANDARD
  9
$CMLJUST
 70
     0
  9
$CMLSCALE
 40
1.0
  9
$PROXYGRAPHICS
 70
     1
  9
$MEASUREMENT
 70
     0
  9
$CELWEIGHT
370
    -1
  9
$ENDCAPS
280
     0
  9
$JOINSTYLE
280
     0
  9
$LWDISPLAY
290
     0
  9
$INSUNITS
 70
     0
  9
$HYPERLINKBASE
  1

  9
$STYLESHEET
  1
SEKKEI.CTB
  9
$XEDIT
290
     1
  9
$CEPSNTYPE
380
     0
  9
$PSTYLEMODE
290
     1
  9
$FINGERPRINTGUID
  2
{6385560B-F4B1-4644-A7C2-A3E32AC3D232}
  9
$VERSIONGUID
  2
{98DB19E2-975D-F341-8B0B-87BF8FA16186}
  9
$EXTNAMES
290
     1
  9
$PSVPSCALE
 40
0.0
  9
$OLESTARTUP
290
     0
  0
ENDSEC
  0
SECTION
  2
CLASSES
  0
CLASS
  1
DICTIONARYVAR
  2
AcDbDictionaryVar
  3
ObjectDBX Classes
 90
        0
280
     0
281
     0
  0
CLASS
  1
ACDBDICTIONARYWDFLT
  2
AcDbDictionaryWithDefault
  3
ObjectDBX Classes
 90
        0
280
     0
281
     0
  0
CLASS
  1
MATERIAL
  2
AcDbMaterial
  3
ObjectDBX Classes
 90
     1153
280
     0
281
     0
  0
CLASS
  1
VISUALSTYLE
  2
AcDbVisualStyle
  3
ObjectDBX Classes
 90
     4095
280
     0
281
     0
  0
CLASS
  1
TABLESTYLE
  2
AcDbTableStyle
  3
ObjectDBX Classes
 90
     4095
280
     0
281
     0
  0
CLASS
  1
SCALE
  2
AcDbScale
  3
ObjectDBX Classes
 90
     1153
280
     0
281
     0
  0
CLASS
  1
MLEADERSTYLE
  2
AcDbMLeaderStyle
  3
ACDB_MLEADERSTYLE_CLASS
 90
     4095
280
     0
281
     0
  0
CLASS
  1
CELLSTYLEMAP
  2
AcDbCellStyleMap
  3
ObjectDBX Classes
 90
     1152
280
     0
281
     0
  0
CLASS
  1
ACAD_EVALUATION_GRAPH
  2
AcDbEvalGraph
  3
ObjectDBX Classes
 90
    33921
280
     0
281
     0
  0
CLASS
  1
ACAECUSTOBJ
  2
AcAeEditorObj
  3
AcAeEditorObj
 90
    33792
280
     0
281
     0
  0
CLASS
  1
ACDB_DYNAMICBLOCKPURGEPREVENTER_VERSION
  2
AcDbDynamicBlockPurgePreventer
  3
ObjectDBX Classes
 90
    33921
280
     0
281
     0
  0
CLASS
  1
ACDBSECTIONVIEWSTYLE
  2
AcDbSectionViewStyle
  3
ObjectDBX Classes
 90
     1025
280
     0
281
     0
  0
CLASS
  1
ACDBDETAILVIEWSTYLE
  2
AcDbDetailViewStyle
  3
ObjectDBX Classes
 90
     1025
280
     0
281
     0
  0
CLASS
  1
SORTENTSTABLE
  2
AcDbSortentsTable
  3
ObjectDBX Classes
 90
    32768
280
     0
281
     0
  0
CLASS
  1
ACDBPLACEHOLDER
  2
AcDbPlaceHolder
  3
ObjectDBX Classes
 90
        0
280
     0
281
     0
  0
CLASS
  1
LAYOUT
  2
AcDbLayout
  3
ObjectDBX Classes
 90
        0
280
     0
281
     0
  0
ENDSEC
  0
SECTION
  2
TABLES
  0
TABLE
  2
VPORT
  5
6E
102
{ACAD_XDICTIONARY
360
226B
102
}
330
0
100
AcDbSymbolTable
 70
     1
  0
VPORT
  5
20AF
330
6E
100
AcDbSymbolTableRecord
100
AcDbViewportTableRecord
  2
*Active
 70
     0
 10
0.0
 20
0.0
 11
1.0
 21
1.0
 12
473.0236274138
 22
196.4722925875
 13
0.0
 23
0.0
 14
10.0
 24
10.0
 15
10.0
 25
10.0
 16
0.0
 26
0.0
 36
1.0
 17
0.0
 27
0.0
 37
0.0
 40
453.5704845675
 41
1.4710526316
 42
50.0
 43
0.0
 44
0.0
 50
0.0
 51
0.0
 71
     0
 72
   100
 73
     1
 74
     3
 75
     0
 76
     0
 77
     0
 78
     0
281
     0
 65
     1
110
0.0
120
0.0
130
0.0
111
1.0
121
0.0
131
0.0
112
0.0
122
1.0
132
0.0
 79
     0
146
0.0
1001
ACAD_NAV_VCDISPLAY
1070
     3
  0
ENDTAB
  0
TABLE
  2
LTYPE
  5
69
330
0
100
AcDbSymbolTable
 70
     3
  0
LTYPE
  5
6A
330
69
100
AcDbSymbolTableRecord
100
AcDbLinetypeTableRecord
  2
BYBLOCK
 70
     0
  3

 72
    65
 73
     0
 40
0.0
  0
LTYPE
  5
6B
330
69
100
AcDbSymbolTableRecord
100
AcDbLinetypeTableRecord
  2
BYLAYER
 70
     0
  3

 72
    65
 73
     0
 40
0.0
  0
LTYPE
  5
8
330
69
100
AcDbSymbolTableRecord
100
AcDbLinetypeTableRecord
  2
CONTINUOUS
 70
     0
  3
Solid line
 72
    65
 73
     0
 40
0.0
  0
LTYPE
  5
27C
330
69
100
AcDbSymbolTableRecord
100
AcDbLinetypeTableRecord
  2
sekkei(A2)
 70
     0
  3
center(A2)  ____ _ ____ _ ____ _ ____ _ ____ _ 
 72
    65
 73
     4
 40
14.2875
 49
9.525
 74
     0
 49
-1.5875
 74
     0
 49
1.5875
 74
     0
 49
-1.5875
 74
     0
  0
LTYPE
  5
2B4
330
69
100
AcDbSymbolTableRecord
100
AcDbLinetypeTableRecord
  2
HIDDEN2
 70
     0
  3
Hidden (.5x) _ _ _ _ _ _ _ _ _ _ _ _ _ _ _ _ _
 72
    65
 73
     2
 40
4.7625
 49
3.175
 74
     0
 49
-1.5875
 74
     0
  0
ENDTAB
  0
TABLE
  2
LAYER
  5
66
102
{ACAD_XDICTIONARY
360
210A
102
}
330
0
100
AcDbSymbolTable
 70
    10
  0
LAYER
  5
5E
102
{ACAD_XDICTIONARY
360
2254
102
}
330
66
100
AcDbSymbolTableRecord
100
AcDbLayerTableRecord
  2
0
 70
     0
 62
     7
  6
CONTINUOUS
370
    -3
390
5
  0
LAYER
  5
3E
102
{ACAD_XDICTIONARY
360
2256
102
}
330
66
100
AcDbSymbolTableRecord
100
AcDbLayerTableRecord
  2
CENTER
 70
     0
 62
     3
  6
sekkei(A2)
370
    -3
390
5
  0
LAYER
  5
135
330
66
100
AcDbSymbolTableRecord
100
AcDbLayerTableRecord
  2
DEFPOINTS
 70
     0
 62
     7
  6
CONTINUOUS
290
     0
370
    -3
390
5
  0
LAYER
  5
2B5
102
{ACAD_XDICTIONARY
360
225C
102
}
330
66
100
AcDbSymbolTableRecord
100
AcDbLayerTableRecord
  2
HIDS
 70
     0
 62
     1
  6
HIDDEN2
370
    -3
390
5
  0
LAYER
  5
2BA
102
{ACAD_XDICTIONARY
360
225E
102
}
330
66
100
AcDbSymbolTableRecord
100
AcDbLayerTableRecord
  2
HOJO
 70
     0
 62
     4
  6
CONTINUOUS
370
    -3
390
5
  0
LAYER
  5
3FA
102
{ACAD_XDICTIONARY
360
2262
102
}
330
66
100
AcDbSymbolTableRecord
100
AcDbLayerTableRecord
  2
TITLE
 70
     0
 62
     4
  6
CONTINUOUS
290
     0
370
    -3
390
5
  0
LAYER
  5
2107
102
{ACAD_XDICTIONARY
360
2108
102
}
330
66
100
AcDbSymbolTableRecord
100
AcDbLayerTableRecord
  2
TITLE_C
 70
     0
 62
     4
  6
CONTINUOUS
370
    -3
390
5
1001
AcAecLayerStandard
1000

1000

  0
ENDTAB
  0
TABLE
  2
STYLE
  5
67
330
0
100
AcDbSymbolTable
 70
     1
  0
STYLE
  5
16
330
67
100
AcDbSymbolTableRecord
100
AcDbTextStyleTableRecord
  2
STANDARD
 70
     0
 40
0.0
 41
1.0
 50
0.0
 71
     0
 42
2.0
  3
simplex.shx
  4
extfont.shx
  0
ENDTAB
  0
TABLE
  2
VIEW
  5
6C
330
0
100
AcDbSymbolTable
 70
     0
  0
ENDTAB
  0
TABLE
  2
UCS
  5
6D
330
0
100
AcDbSymbolTable
 70
     0
  0
ENDTAB
  0
TABLE
  2
APPID
  5
70
330
0
100
AcDbSymbolTable
 70
    10
  0
APPID
  5
71
330
70
100
AcDbSymbolTableRecord
100
AcDbRegAppTableRecord
  2
ACAD
 70
     0
  0
APPID
  5
2109
330
70
100
AcDbSymbolTableRecord
100
AcDbRegAppTableRecord
  2
AcAecLayerStandard
 70
     0
  0
APPID
  5
2128
330
70
100
AcDbSymbolTableRecord
100
AcDbRegAppTableRecord
  2
ACAD_EXEMPT_FROM_CAD_STANDARDS
 70
     0
  0
APPID
  5
22C7
330
70
100
AcDbSymbolTableRecord
100
AcDbRegAppTableRecord
  2
ACAD_MLEADERVER
 70
     0
  0
APPID
  5
2920
330
70
100
AcDbSymbolTableRecord
100
AcDbRegAppTableRecord
  2
AcadAnnoAV
 70
     0
  0
APPID
  5
2946
330
70
100
AcDbSymbolTableRecord
100
AcDbRegAppTableRecord
  2
ACAUTHENVIRON
 70
     0
  0
APPID
  5
294A
330
70
100
AcDbSymbolTableRecord
100
AcDbRegAppTableRecord
  2
AcDbDynamicBlockTrueName
 70
     0
  0
APPID
  5
294B
330
70
100
AcDbSymbolTableRecord
100
AcDbRegAppTableRecord
  2
AcDbDynamicBlockGUID
 70
     0
  0
APPID
  5
294D
330
70
100
AcDbSymbolTableRecord
100
AcDbRegAppTableRecord
  2
AcDbBlockRepETag
 70
     0
  0
APPID
  5
2E82
330
70
100
AcDbSymbolTableRecord
100
AcDbRegAppTableRecord
  2
ACAD_NAV_VCDISPLAY
 70
     0
  0
ENDTAB
  0
TABLE
  2
DIMSTYLE
  5
72
330
0
100
AcDbSymbolTable
 70
     1
100
AcDbDimStyleTable
 71
     1
340
73
  0
DIMSTYLE
105
73
330
72
100
AcDbSymbolTableRecord
100
AcDbDimStyleTableRecord
  2
STANDARD
 70
     0
 40
2.0
 41
1.8
 42
0.625
 43
3.75
 44
0.8
 73
     0
 74
     0
 77
     1
 78
     8
140
1.8
141
2.5
143
0.0394
147
0.75
171
     4
172
     1
179
     2
271
     2
272
     2
273
     8
274
     4
277
     6
340
16
  0
ENDTAB
  0
TABLE
  2
BLOCK_RECORD
  5
1
330
0
100
AcDbSymbolTable
 70
    64
  0
BLOCK_RECORD
  5
2
330
1
100
AcDbSymbolTableRecord
100
AcDbBlockTableRecord
  2
*MODEL_SPACE
340
60
  0
BLOCK_RECORD
  5
343D
330
1
100
AcDbSymbolTableRecord
100
AcDbBlockTableRecord
  2
*Paper_Space
340
343E
  0
BLOCK_RECORD
  5
4AC
330
1
100
AcDbSymbolTableRecord
100
AcDbBlockTableRecord
  2
黒丸矢印1
340
0
  0
BLOCK_RECORD
  5
110E
330
1
100
AcDbSymbolTableRecord
100
AcDbBlockTableRecord
  2
*D2
340
0
  0
BLOCK_RECORD
  5
111A
330
1
100
AcDbSymbolTableRecord
100
AcDbBlockTableRecord
  2
*D3
340
0
  0
BLOCK_RECORD
  5
1126
330
1
100
AcDbSymbolTableRecord
100
AcDbBlockTableRecord
  2
*D4
340
0
  0
BLOCK_RECORD
  5
1134
330
1
100
AcDbSymbolTableRecord
100
AcDbBlockTableRecord
  2
*D5
340
0
  0
BLOCK_RECORD
  5
1140
330
1
100
AcDbSymbolTableRecord
100
AcDbBlockTableRecord
  2
*D6
340
0
  0
BLOCK_RECORD
  5
114C
330
1
100
AcDbSymbolTableRecord
100
AcDbBlockTableRecord
  2
*D7
340
0
  0
BLOCK_RECORD
  5
1166
330
1
100
AcDbSymbolTableRecord
100
AcDbBlockTableRecord
  2
*D8
340
0
  0
BLOCK_RECORD
  5
1174
330
1
100
AcDbSymbolTableRecord
100
AcDbBlockTableRecord
  2
*D9
340
0
  0
BLOCK_RECORD
  5
1180
330
1
100
AcDbSymbolTableRecord
100
AcDbBlockTableRecord
  2
*D10
340
0
  0
BLOCK_RECORD
  5
118C
330
1
100
AcDbSymbolTableRecord
100
AcDbBlockTableRecord
  2
*D11
340
0
  0
BLOCK_RECORD
  5
1198
330
1
100
AcDbSymbolTableRecord
100
AcDbBlockTableRecord
  2
*D12
340
0
  0
BLOCK_RECORD
  5
11A4
330
1
100
AcDbSymbolTableRecord
100
AcDbBlockTableRecord
  2
*D13
340
0
  0
BLOCK_RECORD
  5
11B1
330
1
100
AcDbSymbolTableRecord
100
AcDbBlockTableRecord
  2
*D14
340
0
  0
BLOCK_RECORD
  5
11BD
330
1
100
AcDbSymbolTableRecord
100
AcDbBlockTableRecord
  2
*D15
340
0
  0
BLOCK_RECORD
  5
11C9
330
1
100
AcDbSymbolTableRecord
100
AcDbBlockTableRecord
  2
*D16
340
0
  0
BLOCK_RECORD
  5
11D5
330
1
100
AcDbSymbolTableRecord
100
AcDbBlockTableRecord
  2
*D17
340
0
  0
BLOCK_RECORD
  5
11E1
330
1
100
AcDbSymbolTableRecord
100
AcDbBlockTableRecord
  2
*D18
340
0
  0
BLOCK_RECORD
  5
11ED
330
1
100
AcDbSymbolTableRecord
100
AcDbBlockTableRecord
  2
*D19
340
0
  0
BLOCK_RECORD
  5
11F9
330
1
100
AcDbSymbolTableRecord
100
AcDbBlockTableRecord
  2
*D20
340
0
  0
BLOCK_RECORD
  5
1206
330
1
100
AcDbSymbolTableRecord
100
AcDbBlockTableRecord
  2
*D21
340
0
  0
BLOCK_RECORD
  5
1212
330
1
100
AcDbSymbolTableRecord
100
AcDbBlockTableRecord
  2
*D22
340
0
  0
BLOCK_RECORD
  5
121E
330
1
100
AcDbSymbolTableRecord
100
AcDbBlockTableRecord
  2
*D23
340
0
  0
BLOCK_RECORD
  5
122A
330
1
100
AcDbSymbolTableRecord
100
AcDbBlockTableRecord
  2
*D24
340
0
  0
BLOCK_RECORD
  5
1236
330
1
100
AcDbSymbolTableRecord
100
AcDbBlockTableRecord
  2
*D25
340
0
  0
BLOCK_RECORD
  5
1242
330
1
100
AcDbSymbolTableRecord
100
AcDbBlockTableRecord
  2
*D26
340
0
  0
BLOCK_RECORD
  5
124E
330
1
100
AcDbSymbolTableRecord
100
AcDbBlockTableRecord
  2
*D27
340
0
  0
BLOCK_RECORD
  5
125B
330
1
100
AcDbSymbolTableRecord
100
AcDbBlockTableRecord
  2
*D28
340
0
  0
BLOCK_RECORD
  5
1707
330
1
100
AcDbSymbolTableRecord
100
AcDbBlockTableRecord
  2
*D29
340
0
  0
BLOCK_RECORD
  5
1721
330
1
100
AcDbSymbolTableRecord
100
AcDbBlockTableRecord
  2
*D30
340
0
  0
BLOCK_RECORD
  5
172D
330
1
100
AcDbSymbolTableRecord
100
AcDbBlockTableRecord
  2
*D31
340
0
  0
BLOCK_RECORD
  5
1739
330
1
100
AcDbSymbolTableRecord
100
AcDbBlockTableRecord
  2
*D32
340
0
  0
BLOCK_RECORD
  5
1FC1
330
1
100
AcDbSymbolTableRecord
100
AcDbBlockTableRecord
  2
*D34
340
0
  0
BLOCK_RECORD
  5
1FCC
330
1
100
AcDbSymbolTableRecord
100
AcDbBlockTableRecord
  2
*D35
340
0
  0
BLOCK_RECORD
  5
1FD8
330
1
100
AcDbSymbolTableRecord
100
AcDbBlockTableRecord
  2
*D36
340
0
  0
BLOCK_RECORD
  5
3197
330
1
100
AcDbSymbolTableRecord
100
AcDbBlockTableRecord
  2
*D62
340
0
  0
ENDTAB
  0
ENDSEC
  0
SECTION
  2
BLOCKS
  0
BLOCK
  5
5D
330
2
100
AcDbEntity
  8
0
100
AcDbBlockBegin
  2
*MODEL_SPACE
 70
     0
 10
0.0
 20
0.0
 30
0.0
  3
*MODEL_SPACE
  1

  0
ENDBLK
  5
5F
330
2
100
AcDbEntity
  8
0
100
AcDbBlockEnd
  0
BLOCK
  5
343F
330
343D
100
AcDbEntity
 67
     1
  8
0
100
AcDbBlockBegin
  2
*Paper_Space
 70
     0
 10
0.0
 20
0.0
 30
0.0
  3
*Paper_Space
  1

  0
ENDBLK
  5
3440
330
343D
100
AcDbEntity
 67
     1
  8
0
100
AcDbBlockEnd
  0
BLOCK
  5
4B0
330
4AC
100
AcDbEntity
  8
0
100
AcDbBlockBegin
  2
黒丸矢印1
 70
     0
 10
0.0
 20
0.0
 30
0.0
  3
黒丸矢印1
  1

  0
HATCH
  5
4AD
330
4AC
100
AcDbEntity
  8
0
100
AcDbHatch
 10
0.0
 20
0.0
 30
0.0
210
0.0
220
0.0
230
1.0
  2
SOLID
 70
     1
 71
     1
 91
        1
 92
        7
 72
     1
 73
     1
 93
        2
 10
-0.25
 20
0.0
 42
1.0
 10
0.25
 20
0.0
 42
1.0
 97
        1
330
4AE
 75
     0
 76
     1
 47
0.0031599728
 98
        1
 10
-0.0919668375711354
 20
0.0618998464179867
  0
CIRCLE
  5
4AE
102
{ACAD_REACTORS
330
4AD
102
}
330
4AC
100
AcDbEntity
  8
0
100
AcDbCircle
 10
0.0
 20
0.0
 30
0.0
 40
0.25
  0
LINE
  5
4AF
330
4AC
100
AcDbEntity
  8
0
100
AcDbLine
 10
0.0
 20
0.0
 30
0.0
 11
-1.0
 21
0.0
 31
0.0
  0
ENDBLK
  5
4B1
330
4AC
100
AcDbEntity
  8
0
100
AcDbBlockEnd
  0
BLOCK
  5
1118
330
110E
100
AcDbEntity
  8
0
100
AcDbBlockBegin
  2
*D2
 70
     1
 10
0.0
 20
0.0
 30
0.0
  3
*D2
  1

  0
POINT
  5
1AC7
330
110E
100
AcDbEntity
  8
DEFPOINTS
 62
     0
100
AcDbPoint
 10
500.0173014439
 20
130.93123546
 30
0.0
  0
POINT
  5
1AC8
330
110E
100
AcDbEntity
  8
DEFPOINTS
 62
     0
100
AcDbPoint
 10
506.5794344439
 20
97.43123546
 30
0.0
  0
POINT
  5
1AC9
330
110E
100
AcDbEntity
  8
DEFPOINTS
 62
     0
100
AcDbPoint
 10
483.9726962733
 20
97.43123546
 30
0.0
  0
ENDBLK
  5
1119
330
110E
100
AcDbEntity
  8
0
100
AcDbBlockEnd
  0
BLOCK
  5
1124
330
111A
100
AcDbEntity
  8
0
100
AcDbBlockBegin
  2
*D3
 70
     1
 10
0.0
 20
0.0
 30
0.0
  3
*D3
  1

  0
POINT
  5
1AD0
330
111A
100
AcDbEntity
  8
DEFPOINTS
 62
     0
100
AcDbPoint
 10
500.0173014439
 20
130.93123546
 30
0.0
  0
POINT
  5
1AD1
330
111A
100
AcDbEntity
  8
DEFPOINTS
 62
     0
100
AcDbPoint
 10
514.5580724439
 20
90.43123546
 30
0.0
  0
POINT
  5
1AD2
330
111A
100
AcDbEntity
  8
DEFPOINTS
 62
     0
100
AcDbPoint
 10
472.0696818891
 20
90.43123546
 30
0.0
  0
ENDBLK
  5
1125
330
111A
100
AcDbEntity
  8
0
100
AcDbBlockEnd
  0
BLOCK
  5
1132
330
1126
100
AcDbEntity
  8
0
100
AcDbBlockBegin
  2
*D4
 70
     1
 10
0.0
 20
0.0
 30
0.0
  3
*D4
  1

  0
POINT
  5
1ADB
330
1126
100
AcDbEntity
  8
DEFPOINTS
 62
     0
100
AcDbPoint
 10
537.0580724439
 20
128.43123546
 30
0.0
  0
POINT
  5
1ADC
330
1126
100
AcDbEntity
  8
DEFPOINTS
 62
     0
100
AcDbPoint
 10
537.0580724439
 20
133.43123546
 30
0.0
  0
POINT
  5
1ADD
330
1126
100
AcDbEntity
  8
DEFPOINTS
 62
     0
100
AcDbPoint
 10
495.9831177328
 20
133.43123546
 30
0.0
  0
ENDBLK
  5
1133
330
1126
100
AcDbEntity
  8
0
100
AcDbBlockEnd
  0
BLOCK
  5
113E
330
1134
100
AcDbEntity
  8
0
100
AcDbBlockBegin
  2
*D5
 70
     1
 10
0.0
 20
0.0
 30
0.0
  3
*D5
  1

  0
POINT
  5
1A90
330
1134
100
AcDbEntity
  8
DEFPOINTS
 62
     0
100
AcDbPoint
 10
500.0173014439
 20
130.93123546
 30
0.0
  0
POINT
  5
1A91
330
1134
100
AcDbEntity
  8
DEFPOINTS
 62
     0
100
AcDbPoint
 10
506.5794344439
 20
164.43123546
 30
0.0
  0
POINT
  5
1A92
330
1134
100
AcDbEntity
  8
DEFPOINTS
 62
     0
100
AcDbPoint
 10
483.9726962733
 20
164.43123546
 30
0.0
  0
ENDBLK
  5
113F
330
1134
100
AcDbEntity
  8
0
100
AcDbBlockEnd
  0
BLOCK
  5
114A
330
1140
100
AcDbEntity
  8
0
100
AcDbBlockBegin
  2
*D6
 70
     1
 10
0.0
 20
0.0
 30
0.0
  3
*D6
  1

  0
POINT
  5
1A99
330
1140
100
AcDbEntity
  8
DEFPOINTS
 62
     0
100
AcDbPoint
 10
500.0173014439
 20
130.93123546
 30
0.0
  0
POINT
  5
1A9A
330
1140
100
AcDbEntity
  8
DEFPOINTS
 62
     0
100
AcDbPoint
 10
514.5580724439
 20
171.43123546
 30
0.0
  0
POINT
  5
1A9B
330
1140
100
AcDbEntity
  8
DEFPOINTS
 62
     0
100
AcDbPoint
 10
472.0696818891
 20
171.43123546
 30
0.0
  0
ENDBLK
  5
114B
330
1140
100
AcDbEntity
  8
0
100
AcDbBlockEnd
  0
BLOCK
  5
1156
330
114C
100
AcDbEntity
  8
0
100
AcDbBlockBegin
  2
*D7
 70
     1
 10
0.0
 20
0.0
 30
0.0
  3
*D7
  1

  0
POINT
  5
1AA2
330
114C
100
AcDbEntity
  8
DEFPOINTS
 62
     0
100
AcDbPoint
 10
514.5580724439
 20
90.43123546
 30
0.0
  0
POINT
  5
1AA3
330
114C
100
AcDbEntity
  8
DEFPOINTS
 62
     0
100
AcDbPoint
 10
514.5580724439
 20
171.43123546
 30
0.0
  0
POINT
  5
1AA4
330
114C
100
AcDbEntity
  8
DEFPOINTS
 62
     0
100
AcDbPoint
 10
460.0078509141
 20
171.43123546
 30
0.0
  0
ENDBLK
  5
1157
330
114C
100
AcDbEntity
  8
0
100
AcDbBlockEnd
  0
BLOCK
  5
1172
330
1166
100
AcDbEntity
  8
0
100
AcDbBlockBegin
  2
*D8
 70
     1
 10
0.0
 20
0.0
 30
0.0
  3
*D8
  1

  0
POINT
  5
1A16
330
1166
100
AcDbEntity
  8
DEFPOINTS
 62
     0
100
AcDbPoint
 10
306.0580724439
 20
101.68123546
 30
0.0
  0
POINT
  5
1A17
330
1166
100
AcDbEntity
  8
DEFPOINTS
 62
     0
100
AcDbPoint
 10
306.0580724439
 20
93.18123546
 30
0.0
  0
POINT
  5
1A18
330
1166
100
AcDbEntity
  8
DEFPOINTS
 62
     0
100
AcDbPoint
 10
286.4097233823
 20
93.18123546
 30
0.0
  0
ENDBLK
  5
1173
330
1166
100
AcDbEntity
  8
0
100
AcDbBlockEnd
  0
BLOCK
  5
117E
330
1174
100
AcDbEntity
  8
0
100
AcDbBlockBegin
  2
*D9
 70
     1
 10
0.0
 20
0.0
 30
0.0
  3
*D9
  1

  0
POINT
  5
1A45
330
1174
100
AcDbEntity
  8
DEFPOINTS
 62
     0
100
AcDbPoint
 10
338.5580724439
 20
93.43123546
 30
0.0
  0
POINT
  5
1A46
330
1174
100
AcDbEntity
  8
DEFPOINTS
 62
     0
100
AcDbPoint
 10
306.0580724439
 20
91.13816746
 30
0.0
  0
POINT
  5
1A47
330
1174
100
AcDbEntity
  8
DEFPOINTS
 62
     0
100
AcDbPoint
 10
306.0580724439
 20
61.1513287283
 30
0.0
  0
ENDBLK
  5
117F
330
1174
100
AcDbEntity
  8
0
100
AcDbBlockEnd
  0
BLOCK
  5
118A
330
1180
100
AcDbEntity
  8
0
100
AcDbBlockBegin
  2
*D10
 70
     1
 10
0.0
 20
0.0
 30
0.0
  3
*D10
  1

  0
POINT
  5
1A6B
330
1180
100
AcDbEntity
  8
DEFPOINTS
 62
     0
100
AcDbPoint
 10
318.5580724439
 20
90.9199785711
 30
0.0
  0
POINT
  5
1A6C
330
1180
100
AcDbEntity
  8
DEFPOINTS
 62
     0
100
AcDbPoint
 10
338.5580724439
 20
93.43123546
 30
0.0
  0
POINT
  5
1A6D
330
1180
100
AcDbEntity
  8
DEFPOINTS
 62
     0
100
AcDbPoint
 10
338.5580724439
 20
72.958985824
 30
0.0
  0
ENDBLK
  5
118B
330
1180
100
AcDbEntity
  8
0
100
AcDbBlockEnd
  0
BLOCK
  5
1196
330
118C
100
AcDbEntity
  8
0
100
AcDbBlockBegin
  2
*D11
 70
     1
 10
0.0
 20
0.0
 30
0.0
  3
*D11
  1

  0
POINT
  5
1A4E
330
118C
100
AcDbEntity
  8
DEFPOINTS
 62
     0
100
AcDbPoint
 10
346.5580724439
 20
84.39046446
 30
0.0
  0
POINT
  5
1A4F
330
118C
100
AcDbEntity
  8
DEFPOINTS
 62
     0
100
AcDbPoint
 10
306.0580724439
 20
91.13816746
 30
0.0
  0
POINT
  5
1A50
330
118C
100
AcDbEntity
  8
DEFPOINTS
 62
     0
100
AcDbPoint
 10
306.0580724439
 20
49.0185699424
 30
0.0
  0
ENDBLK
  5
1197
330
118C
100
AcDbEntity
  8
0
100
AcDbBlockEnd
  0
BLOCK
  5
11A2
330
1198
100
AcDbEntity
  8
0
100
AcDbBlockBegin
  2
*D12
 70
     1
 10
0.0
 20
0.0
 30
0.0
  3
*D12
  1

  0
POINT
  5
1A57
330
1198
100
AcDbEntity
  8
DEFPOINTS
 62
     0
100
AcDbPoint
 10
306.0580724439
 20
91.13816746
 30
0.0
  0
POINT
  5
1A58
330
1198
100
AcDbEntity
  8
DEFPOINTS
 62
     0
100
AcDbPoint
 10
387.0580724439
 20
91.13816746
 30
0.0
  0
POINT
  5
1A59
330
1198
100
AcDbEntity
  8
DEFPOINTS
 62
     0
100
AcDbPoint
 10
387.0580724439
 20
37.0565027312
 30
0.0
  0
ENDBLK
  5
11A3
330
1198
100
AcDbEntity
  8
0
100
AcDbBlockEnd
  0
BLOCK
  5
11AF
330
11A4
100
AcDbEntity
  8
0
100
AcDbBlockBegin
  2
*D13
 70
     1
 10
0.0
 20
0.0
 30
0.0
  3
*D13
  1

  0
POINT
  5
1A20
330
11A4
100
AcDbEntity
  8
DEFPOINTS
 62
     0
100
AcDbPoint
 10
318.5580724439
 20
90.91997446
 30
0.0
  0
POINT
  5
1A21
330
11A4
100
AcDbEntity
  8
DEFPOINTS
 62
     0
100
AcDbPoint
 10
306.0580724439
 20
91.13816746
 30
0.0
  0
POINT
  5
1A22
330
11A4
100
AcDbEntity
  8
DEFPOINTS
 62
     0
100
AcDbPoint
 10
306.0580724439
 20
72.958985824
 30
0.0
  0
ENDBLK
  5
11B0
330
11A4
100
AcDbEntity
  8
0
100
AcDbBlockEnd
  0
BLOCK
  5
11BB
330
11B1
100
AcDbEntity
  8
0
100
AcDbBlockBegin
  2
*D14
 70
     1
 10
0.0
 20
0.0
 30
0.0
  3
*D14
  1

  0
POINT
  5
1A33
330
11B1
100
AcDbEntity
  8
DEFPOINTS
 62
     0
100
AcDbPoint
 10
354.5580724439
 20
93.43123546
 30
0.0
  0
POINT
  5
1A34
330
11B1
100
AcDbEntity
  8
DEFPOINTS
 62
     0
100
AcDbPoint
 10
387.0580724439
 20
91.13816746
 30
0.0
  0
POINT
  5
1A35
330
11B1
100
AcDbEntity
  8
DEFPOINTS
 62
     0
100
AcDbPoint
 10
387.0580724439
 20
61.1513287283
 30
0.0
  0
ENDBLK
  5
11BC
330
11B1
100
AcDbEntity
  8
0
100
AcDbBlockEnd
  0
BLOCK
  5
11C7
330
11BD
100
AcDbEntity
  8
0
100
AcDbBlockBegin
  2
*D15
 70
     1
 10
0.0
 20
0.0
 30
0.0
  3
*D15
  1

  0
POINT
  5
1A3C
330
11BD
100
AcDbEntity
  8
DEFPOINTS
 62
     0
100
AcDbPoint
 10
346.5580724439
 20
84.39046446
 30
0.0
  0
POINT
  5
1A3D
330
11BD
100
AcDbEntity
  8
DEFPOINTS
 62
     0
100
AcDbPoint
 10
387.0580724439
 20
91.13816746
 30
0.0
  0
POINT
  5
1A3E
330
11BD
100
AcDbEntity
  8
DEFPOINTS
 62
     0
100
AcDbPoint
 10
387.0580724439
 20
49.0185699424
 30
0.0
  0
ENDBLK
  5
11C8
330
11BD
100
AcDbEntity
  8
0
100
AcDbBlockEnd
  0
BLOCK
  5
11D3
330
11C9
100
AcDbEntity
  8
0
100
AcDbBlockBegin
  2
*D16
 70
     1
 10
0.0
 20
0.0
 30
0.0
  3
*D16
  1

  0
POINT
  5
19D5
330
11C9
100
AcDbEntity
  8
DEFPOINTS
 62
     0
100
AcDbPoint
 10
278.0580724439
 20
138.43123546
 30
0.0
  0
POINT
  5
19D6
330
11C9
100
AcDbEntity
  8
DEFPOINTS
 62
     0
100
AcDbPoint
 10
415.0580724439
 20
138.43123546
 30
0.0
  0
POINT
  5
19D7
330
11C9
100
AcDbEntity
  8
DEFPOINTS
 62
     0
100
AcDbPoint
 10
415.0580724439
 20
231.4309785485
 30
0.0
  0
ENDBLK
  5
11D4
330
11C9
100
AcDbEntity
  8
0
100
AcDbBlockEnd
  0
BLOCK
  5
11DF
330
11D5
100
AcDbEntity
  8
0
100
AcDbBlockBegin
  2
*D17
 70
     1
 10
0.0
 20
0.0
 30
0.0
  3
*D17
  1

  0
POINT
  5
2064
330
11D5
100
AcDbEntity
  8
DEFPOINTS
 62
     0
100
AcDbPoint
 10
346.5580724439
 20
206.81873346
 30
0.0
  0
POINT
  5
2065
330
11D5
100
AcDbEntity
  8
DEFPOINTS
 62
     0
100
AcDbPoint
 10
415.0580724439
 20
138.43123546
 30
0.0
  0
POINT
  5
2066
330
11D5
100
AcDbEntity
  8
DEFPOINTS
 62
     0
100
AcDbPoint
 10
415.0580724439
 20
219.7108544448
 30
0.0
  0
ENDBLK
  5
11E0
330
11D5
100
AcDbEntity
  8
0
100
AcDbBlockEnd
  0
BLOCK
  5
11EB
330
11E1
100
AcDbEntity
  8
0
100
AcDbBlockBegin
  2
*D18
 70
     1
 10
0.0
 20
0.0
 30
0.0
  3
*D18
  1

  0
POINT
  5
1AAB
330
11E1
100
AcDbEntity
  8
DEFPOINTS
 62
     0
100
AcDbPoint
 10
388.0580724439
 20
138.74263646
 30
0.0
  0
POINT
  5
1AAC
330
11E1
100
AcDbEntity
  8
DEFPOINTS
 62
     0
100
AcDbPoint
 10
415.0580724439
 20
138.43123546
 30
0.0
  0
POINT
  5
1AAD
330
11E1
100
AcDbEntity
  8
DEFPOINTS
 62
     0
100
AcDbPoint
 10
415.0580724439
 20
207.6619960493
 30
0.0
  0
ENDBLK
  5
11EC
330
11E1
100
AcDbEntity
  8
0
100
AcDbBlockEnd
  0
BLOCK
  5
11F7
330
11ED
100
AcDbEntity
  8
0
100
AcDbBlockBegin
  2
*D19
 70
     1
 10
0.0
 20
0.0
 30
0.0
  3
*D19
  1

  0
POINT
  5
1AB4
330
11ED
100
AcDbEntity
  8
DEFPOINTS
 62
     0
100
AcDbPoint
 10
391.0580724439
 20
130.93123546
 30
0.0
  0
POINT
  5
1AB5
330
11ED
100
AcDbEntity
  8
DEFPOINTS
 62
     0
100
AcDbPoint
 10
415.0580724439
 20
138.43123546
 30
0.0
  0
POINT
  5
1AB6
330
11ED
100
AcDbEntity
  8
DEFPOINTS
 62
     0
100
AcDbPoint
 10
415.0580724439
 20
195.9187296198
 30
0.0
  0
ENDBLK
  5
11F8
330
11ED
100
AcDbEntity
  8
0
100
AcDbBlockEnd
  0
BLOCK
  5
1204
330
11F9
100
AcDbEntity
  8
0
100
AcDbBlockBegin
  2
*D20
 70
     1
 10
0.0
 20
0.0
 30
0.0
  3
*D20
  1

  0
POINT
  5
1ABE
330
11F9
100
AcDbEntity
  8
DEFPOINTS
 62
     0
100
AcDbPoint
 10
415.0580724439
 20
123.43123546
 30
0.0
  0
POINT
  5
1ABF
330
11F9
100
AcDbEntity
  8
DEFPOINTS
 62
     0
100
AcDbPoint
 10
415.0580724439
 20
138.43123546
 30
0.0
  0
POINT
  5
1AC0
330
11F9
100
AcDbEntity
  8
DEFPOINTS
 62
     0
100
AcDbPoint
 10
431.0783762822
 20
138.43123546
 30
0.0
  0
ENDBLK
  5
1205
330
11F9
100
AcDbEntity
  8
0
100
AcDbBlockEnd
  0
BLOCK
  5
1210
330
1206
100
AcDbEntity
  8
0
100
AcDbBlockBegin
  2
*D21
 70
     1
 10
0.0
 20
0.0
 30
0.0
  3
*D21
  1

  0
POINT
  5
1AE4
330
1206
100
AcDbEntity
  8
DEFPOINTS
 62
     0
100
AcDbPoint
 10
697.1495034439
 20
168.93123546
 30
0.0
  0
POINT
  5
1AE5
330
1206
100
AcDbEntity
  8
DEFPOINTS
 62
     0
100
AcDbPoint
 10
697.1495034439
 20
92.93123546
 30
0.0
  0
POINT
  5
1AE6
330
1206
100
AcDbEntity
  8
DEFPOINTS
 62
     0
100
AcDbPoint
 10
718.4981328694
 20
92.93123546
 30
0.0
  0
ENDBLK
  5
1211
330
1206
100
AcDbEntity
  8
0
100
AcDbBlockEnd
  0
BLOCK
  5
121C
330
1212
100
AcDbEntity
  8
0
100
AcDbBlockBegin
  2
*D22
 70
     1
 10
0.0
 20
0.0
 30
0.0
  3
*D22
  1

  0
POINT
  5
19F0
330
1212
100
AcDbEntity
  8
DEFPOINTS
 62
     0
100
AcDbPoint
 10
507.5580724439
 20
164.43123546
 30
0.0
  0
POINT
  5
19F1
330
1212
100
AcDbEntity
  8
DEFPOINTS
 62
     0
100
AcDbPoint
 10
701.1135534439
 20
162.93123546
 30
0.0
  0
POINT
  5
19F2
330
1212
100
AcDbEntity
  8
DEFPOINTS
 62
     0
100
AcDbPoint
 10
701.1135534439
 20
231.4309785485
 30
0.0
  0
ENDBLK
  5
121D
330
1212
100
AcDbEntity
  8
0
100
AcDbBlockEnd
  0
BLOCK
  5
1228
330
121E
100
AcDbEntity
  8
0
100
AcDbBlockBegin
  2
*D23
 70
     1
 10
0.0
 20
0.0
 30
0.0
  3
*D23
  1

  0
POINT
  5
1A74
330
121E
100
AcDbEntity
  8
DEFPOINTS
 62
     0
100
AcDbPoint
 10
546.5580724439
 20
161.03810846
 30
0.0
  0
POINT
  5
1A75
330
121E
100
AcDbEntity
  8
DEFPOINTS
 62
     0
100
AcDbPoint
 10
507.5580724439
 20
164.43123546
 30
0.0
  0
POINT
  5
1A76
330
121E
100
AcDbEntity
  8
DEFPOINTS
 62
     0
100
AcDbPoint
 10
507.5580724439
 20
207.5902709636
 30
0.0
  0
ENDBLK
  5
1229
330
121E
100
AcDbEntity
  8
0
100
AcDbBlockEnd
  0
BLOCK
  5
1234
330
122A
100
AcDbEntity
  8
0
100
AcDbBlockBegin
  2
*D24
 70
     1
 10
0.0
 20
0.0
 30
0.0
  3
*D24
  1

  0
POINT
  5
1AED
330
122A
100
AcDbEntity
  8
DEFPOINTS
 62
     0
100
AcDbPoint
 10
546.5580724439
 20
161.03810846
 30
0.0
  0
POINT
  5
1AEE
330
122A
100
AcDbEntity
  8
DEFPOINTS
 62
     0
100
AcDbPoint
 10
607.5580724439
 20
164.43123546
 30
0.0
  0
POINT
  5
1AEF
330
122A
100
AcDbEntity
  8
DEFPOINTS
 62
     0
100
AcDbPoint
 10
607.5580724439
 20
207.5902709636
 30
0.0
  0
ENDBLK
  5
1235
330
122A
100
AcDbEntity
  8
0
100
AcDbBlockEnd
  0
BLOCK
  5
1240
330
1236
100
AcDbEntity
  8
0
100
AcDbBlockBegin
  2
*D25
 70
     1
 10
0.0
 20
0.0
 30
0.0
  3
*D25
  1

  0
POINT
  5
19F9
330
1236
100
AcDbEntity
  8
DEFPOINTS
 62
     0
100
AcDbPoint
 10
607.5580724439
 20
164.43123546
 30
0.0
  0
POINT
  5
19FA
330
1236
100
AcDbEntity
  8
DEFPOINTS
 62
     0
100
AcDbPoint
 10
507.5580724439
 20
164.43123546
 30
0.0
  0
POINT
  5
19FB
330
1236
100
AcDbEntity
  8
DEFPOINTS
 62
     0
100
AcDbPoint
 10
507.5580724439
 20
219.7108544448
 30
0.0
  0
ENDBLK
  5
1241
330
1236
100
AcDbEntity
  8
0
100
AcDbBlockEnd
  0
BLOCK
  5
124C
330
1242
100
AcDbEntity
  8
0
100
AcDbBlockBegin
  2
*D26
 70
     1
 10
0.0
 20
0.0
 30
0.0
  3
*D26
  1

  0
POINT
  5
1AF6
330
1242
100
AcDbEntity
  8
DEFPOINTS
 62
     0
100
AcDbPoint
 10
546.5580724439
 20
161.03810846
 30
0.0
  0
POINT
  5
1AF7
330
1242
100
AcDbEntity
  8
DEFPOINTS
 62
     0
100
AcDbPoint
 10
600.5580724439
 20
172.40987346
 30
0.0
  0
POINT
  5
1AF8
330
1242
100
AcDbEntity
  8
DEFPOINTS
 62
     0
100
AcDbPoint
 10
600.5580724439
 20
195.5414125681
 30
0.0
  0
ENDBLK
  5
124D
330
1242
100
AcDbEntity
  8
0
100
AcDbBlockEnd
  0
BLOCK
  5
1259
330
124E
100
AcDbEntity
  8
0
100
AcDbBlockBegin
  2
*D27
 70
     1
 10
0.0
 20
0.0
 30
0.0
  3
*D27
  1

  0
POINT
  5
1A87
330
124E
100
AcDbEntity
  8
DEFPOINTS
 62
     0
100
AcDbPoint
 10
537.0580724439
 20
133.43123546
 30
0.0
  0
POINT
  5
1A88
330
124E
100
AcDbEntity
  8
DEFPOINTS
 62
     0
100
AcDbPoint
 10
554.0580724439
 20
130.93123546
 30
0.0
  0
POINT
  5
1A89
330
124E
100
AcDbEntity
  8
DEFPOINTS
 62
     0
100
AcDbPoint
 10
554.0580724439
 20
183.7981461387
 30
0.0
  0
ENDBLK
  5
125A
330
124E
100
AcDbEntity
  8
0
100
AcDbBlockEnd
  0
BLOCK
  5
1265
330
125B
100
AcDbEntity
  8
0
100
AcDbBlockBegin
  2
*D28
 70
     1
 10
0.0
 20
0.0
 30
0.0
  3
*D28
  1

  0
POINT
  5
1A7D
330
125B
100
AcDbEntity
  8
DEFPOINTS
 62
     0
100
AcDbPoint
 10
546.5580724439
 20
161.03810846
 30
0.0
  0
POINT
  5
1A7E
330
125B
100
AcDbEntity
  8
DEFPOINTS
 62
     0
100
AcDbPoint
 10
514.5580724439
 20
172.40987346
 30
0.0
  0
POINT
  5
1A7F
330
125B
100
AcDbEntity
  8
DEFPOINTS
 62
     0
100
AcDbPoint
 10
514.5580724439
 20
195.5414125681
 30
0.0
  0
ENDBLK
  5
1266
330
125B
100
AcDbEntity
  8
0
100
AcDbBlockEnd
  0
BLOCK
  5
1712
330
1707
100
AcDbEntity
  8
0
100
AcDbBlockBegin
  2
*D29
 70
     1
 10
0.0
 20
0.0
 30
0.0
  3
*D29
  1

  0
POINT
  5
1A2A
330
1707
100
AcDbEntity
  8
DEFPOINTS
 62
     0
100
AcDbPoint
 10
278.0580724439
 20
123.43123546
 30
0.0
  0
POINT
  5
1A2B
330
1707
100
AcDbEntity
  8
DEFPOINTS
 62
     0
100
AcDbPoint
 10
278.0580724439
 20
138.43123546
 30
0.0
  0
POINT
  5
1A2C
330
1707
100
AcDbEntity
  8
DEFPOINTS
 62
     0
100
AcDbPoint
 10
262.0377686055
 20
138.43123546
 30
0.0
  0
ENDBLK
  5
1713
330
1707
100
AcDbEntity
  8
0
100
AcDbBlockEnd
  0
BLOCK
  5
172B
330
1721
100
AcDbEntity
  8
0
100
AcDbBlockBegin
  2
*D30
 70
     1
 10
0.0
 20
0.0
 30
0.0
  3
*D30
  1

  0
POINT
  5
205B
330
1721
100
AcDbEntity
  8
DEFPOINTS
 62
     0
100
AcDbPoint
 10
346.5580724439
 20
206.81873346
 30
0.0
  0
POINT
  5
205C
330
1721
100
AcDbEntity
  8
DEFPOINTS
 62
     0
100
AcDbPoint
 10
278.0580724439
 20
138.43123546
 30
0.0
  0
POINT
  5
205D
330
1721
100
AcDbEntity
  8
DEFPOINTS
 62
     0
100
AcDbPoint
 10
278.0580724439
 20
219.7108544448
 30
0.0
  0
ENDBLK
  5
172C
330
1721
100
AcDbEntity
  8
0
100
AcDbBlockEnd
  0
BLOCK
  5
1737
330
172D
100
AcDbEntity
  8
0
100
AcDbBlockBegin
  2
*D31
 70
     1
 10
0.0
 20
0.0
 30
0.0
  3
*D31
  1

  0
POINT
  5
1A0B
330
172D
100
AcDbEntity
  8
DEFPOINTS
 62
     0
100
AcDbPoint
 10
305.0580724439
 20
138.74263646
 30
0.0
  0
POINT
  5
1A0C
330
172D
100
AcDbEntity
  8
DEFPOINTS
 62
     0
100
AcDbPoint
 10
278.0580724439
 20
138.43123546
 30
0.0
  0
POINT
  5
1A0D
330
172D
100
AcDbEntity
  8
DEFPOINTS
 62
     0
100
AcDbPoint
 10
278.0580724439
 20
207.6619960493
 30
0.0
  0
ENDBLK
  5
1738
330
172D
100
AcDbEntity
  8
0
100
AcDbBlockEnd
  0
BLOCK
  5
1743
330
1739
100
AcDbEntity
  8
0
100
AcDbBlockBegin
  2
*D32
 70
     1
 10
0.0
 20
0.0
 30
0.0
  3
*D32
  1

  0
POINT
  5
1A02
330
1739
100
AcDbEntity
  8
DEFPOINTS
 62
     0
100
AcDbPoint
 10
302.0580724439
 20
130.93123546
 30
0.0
  0
POINT
  5
1A03
330
1739
100
AcDbEntity
  8
DEFPOINTS
 62
     0
100
AcDbPoint
 10
278.0580724439
 20
138.43123546
 30
0.0
  0
POINT
  5
1A04
330
1739
100
AcDbEntity
  8
DEFPOINTS
 62
     0
100
AcDbPoint
 10
278.0580724439
 20
195.9187296198
 30
0.0
  0
ENDBLK
  5
1744
330
1739
100
AcDbEntity
  8
0
100
AcDbBlockEnd
  0
BLOCK
  5
1FCA
330
1FC1
100
AcDbEntity
  8
0
100
AcDbBlockBegin
  2
*D34
 70
     1
 10
0.0
 20
0.0
 30
0.0
  3
*D34
  1

  0
POINT
  5
20A8
330
1FC1
100
AcDbEntity
  8
DEFPOINTS
 62
     0
100
AcDbPoint
 10
640.6135464439
 20
201.43123346
 30
0.0
  0
POINT
  5
20A9
330
1FC1
100
AcDbEntity
  8
DEFPOINTS
 62
     0
100
AcDbPoint
 10
626.3634488239
 20
168.93123546
 30
0.0
  0
POINT
  5
20AA
330
1FC1
100
AcDbEntity
  8
DEFPOINTS
 62
     0
100
AcDbPoint
 10
626.3634488239
 20
168.93123546
 30
0.0
  0
ENDBLK
  5
1FCB
330
1FC1
100
AcDbEntity
  8
0
100
AcDbBlockEnd
  0
BLOCK
  5
1FD6
330
1FCC
100
AcDbEntity
  8
0
100
AcDbBlockBegin
  2
*D35
 70
     1
 10
0.0
 20
0.0
 30
0.0
  3
*D35
  1

  0
POINT
  5
2029
330
1FCC
100
AcDbEntity
  8
DEFPOINTS
 62
     0
100
AcDbPoint
 10
639.6135464439
 20
200.43123346
 30
0.0
  0
POINT
  5
202A
330
1FCC
100
AcDbEntity
  8
DEFPOINTS
 62
     0
100
AcDbPoint
 10
689.6135534439
 20
200.43123346
 30
0.0
  0
POINT
  5
202B
330
1FCC
100
AcDbEntity
  8
DEFPOINTS
 62
     0
100
AcDbPoint
 10
689.6135534439
 20
219.7108544448
 30
0.0
  0
ENDBLK
  5
1FD7
330
1FCC
100
AcDbEntity
  8
0
100
AcDbBlockEnd
  0
BLOCK
  5
1FE3
330
1FD8
100
AcDbEntity
  8
0
100
AcDbBlockBegin
  2
*D36
 70
     1
 10
0.0
 20
0.0
 30
0.0
  3
*D36
  1

  0
POINT
  5
2047
330
1FD8
100
AcDbEntity
  8
DEFPOINTS
 62
     0
100
AcDbPoint
 10
689.6135534439
 20
200.43123346
 30
0.0
  0
POINT
  5
2048
330
1FD8
100
AcDbEntity
  8
DEFPOINTS
 62
     0
100
AcDbPoint
 10
701.1135534439
 20
162.93123546
 30
0.0
  0
POINT
  5
2049
330
1FD8
100
AcDbEntity
  8
DEFPOINTS
 62
     0
100
AcDbPoint
 10
701.1135534439
 20
219.7108544448
 30
0.0
  0
ENDBLK
  5
1FE4
330
1FD8
100
AcDbEntity
  8
0
100
AcDbBlockEnd
  0
BLOCK
  5
3198
330
3197
100
AcDbEntity
  8
0
100
AcDbBlockBegin
  2
*D62
 70
     1
 10
0.0
 20
0.0
 30
0.0
  3
*D62
  1

  0
POINT
  5
31AD
330
3197
100
AcDbEntity
  8
DEFPOINTS
 62
     0
100
AcDbPoint
 10
343.3088627031
 20
100.63123546
 30
0.0
  0
POINT
  5
31AE
330
3197
100
AcDbEntity
  8
DEFPOINTS
 62
     0
100
AcDbPoint
 10
343.8178652543
 20
94.23123546
 30
0.0
  0
POINT
  5
31AF
330
3197
100
AcDbEntity
  8
DEFPOINTS
 62
     0
100
AcDbPoint
 10
344.4980448822
 20
94.23123546
 30
0.0
  0
ENDBLK
  5
3199
330
3197
100
AcDbEntity
  8
0
100
AcDbBlockEnd
  0
ENDSEC
  0
SECTION
  2
ENTITIES
  0
LINE
  5
799
330
2
100
AcDbEntity
  8
HIDS
100
AcDbLine
 10
318.5580724439
 20
160.43123546
 30
0.0
 11
338.5580724439
 21
160.43123546
 31
0.0
  0
LINE
  5
79A
330
2
100
AcDbEntity
  8
HIDS
100
AcDbLine
 10
318.5580724439
 20
168.43123546
 30
0.0
 11
338.5580724439
 21
168.43123546
 31
0.0
  0
LINE
  5
79B
330
2
100
AcDbEntity
  8
HOJO
100
AcDbLine
 10
318.5580724439
 20
93.43123546
 30
0.0
 11
338.5580724439
 21
93.43123546
 31
0.0
  0
LINE
  5
79C
330
2
100
AcDbEntity
  8
HOJO
100
AcDbLine
 10
318.5580724439
 20
101.43123546
 30
0.0
 11
338.5580724439
 21
101.43123546
 31
0.0
  0
LINE
  5
79D
330
2
100
AcDbEntity
  8
0
100
AcDbLine
 10
337.2600684439
 20
119.75768246
 30
0.0
 11
318.5580724439
 21
119.43123546
 31
0.0
  0
LINE
  5
79E
330
2
100
AcDbEntity
  8
0
100
AcDbLine
 10
337.2600684439
 20
142.10478846
 30
0.0
 11
318.5580724439
 21
142.43123546
 31
0.0
  0
LINE
  5
79F
330
2
100
AcDbEntity
  8
0
100
AcDbLine
 10
339.5929844439
 20
146.06407846
 30
0.0
 11
318.5580724439
 21
146.43123546
 31
0.0
  0
LINE
  5
7A0
330
2
100
AcDbEntity
  8
0
100
AcDbLine
 10
339.5929844439
 20
115.79839246
 30
0.0
 11
318.5580724439
 21
115.43123546
 31
0.0
  0
LINE
  5
7A5
330
2
100
AcDbEntity
  8
CENTER
100
AcDbLine
 10
303.5530984439
 20
164.43123546
 30
0.0
 11
390.6018344439
 21
164.43123546
 31
0.0
  0
LINE
  5
7A6
330
2
100
AcDbEntity
  8
CENTER
100
AcDbLine
 10
303.5530984439
 20
97.43123546
 30
0.0
 11
390.6018344439
 21
97.43123546
 31
0.0
  0
LINE
  5
7A7
330
2
100
AcDbEntity
  8
HIDS
100
AcDbLine
 10
325.5231604439
 20
93.29840746
 30
0.0
 11
346.5580724439
 21
92.93123546
 31
0.0
  0
LINE
  5
7A8
330
2
100
AcDbEntity
  8
HIDS
100
AcDbLine
 10
325.5231604439
 20
168.56407846
 30
0.0
 11
346.5580724439
 21
168.93123546
 31
0.0
  0
LINE
  5
7A9
330
2
100
AcDbEntity
  8
0
100
AcDbLine
 10
346.5580724439
 20
90.43123546
 30
0.0
 11
306.0580724439
 21
91.13815946
 31
0.0
  0
LINE
  5
7AA
330
2
100
AcDbEntity
  8
0
100
AcDbLine
 10
346.5580724439
 20
171.43123546
 30
0.0
 11
306.0580724439
 21
170.72429546
 31
0.0
  0
LINE
  5
7AB
330
2
100
AcDbEntity
  8
CENTER
100
AcDbLine
 10
273.6865204439
 20
130.93123546
 30
0.0
 11
419.4296244439
 21
130.93123546
 31
0.0
  0
LINE
  5
7AC
330
2
100
AcDbEntity
  8
0
100
AcDbLine
 10
32.5025684439
 20
165.93123546
 30
0.0
 11
32.5025684439
 21
95.93123546
 31
0.0
  0
LINE
  5
7AD
330
2
100
AcDbEntity
  8
0
100
AcDbLine
 10
32.0025684439
 20
162.93123546
 30
0.0
 11
32.0025684439
 21
98.93123546
 31
0.0
  0
LINE
  5
7AE
330
2
100
AcDbEntity
  8
0
100
AcDbLine
 10
52.5025684439
 20
168.93123546
 30
0.0
 11
52.5025684439
 21
92.93123546
 31
0.0
  0
CIRCLE
  5
7AF
330
2
100
AcDbEntity
  8
0
100
AcDbCircle
 10
186.5580724439
 20
130.93123546
 30
0.0
 40
25.002001
  0
CIRCLE
  5
7B0
330
2
100
AcDbEntity
  8
0
100
AcDbCircle
 10
186.5580724439
 20
130.93123546
 30
0.0
 40
23.0
  0
CIRCLE
  5
7B1
330
2
100
AcDbEntity
  8
0
100
AcDbCircle
 10
186.5580724439
 20
130.93123546
 30
0.0
 40
19.0
  0
ARC
  5
7B2
330
2
100
AcDbEntity
  8
0
100
AcDbCircle
 10
127.5580724439
 20
113.93123546
 30
0.0
 40
2.0
100
AcDbArc
 50
180.0
 51
270.0
  0
ARC
  5
7B4
330
2
100
AcDbEntity
  8
0
100
AcDbCircle
 10
223.5580724439
 20
113.93123546
 30
0.0
 40
2.0
100
AcDbArc
 50
270.0
 51
0.0
  0
ARC
  5
7B6
330
2
100
AcDbEntity
  8
0
100
AcDbCircle
 10
156.5580724439
 20
117.43123546
 30
0.0
 40
22.0
100
AcDbArc
 50
180.0
 51
194.477509
  0
ARC
  5
7B7
330
2
100
AcDbEntity
  8
0
100
AcDbCircle
 10
194.5580724439
 20
117.43123546
 30
0.0
 40
22.0
100
AcDbArc
 50
345.522488
 51
0.0
  0
ARC
  5
7B8
330
2
100
AcDbEntity
  8
0
100
AcDbCircle
 10
136.7843454439
 20
114.43123546
 30
0.0
 40
2.0
100
AcDbArc
 50
188.626923
 51
270.0
  0
LINE
  5
7B9
330
2
100
AcDbEntity
  8
0
100
AcDbLine
 10
139.3937814439
 20
112.24825246
 30
0.0
 11
138.4739204439
 21
110.24825246
 31
0.0
  0
ARC
  5
7BA
330
2
100
AcDbEntity
  8
0
100
AcDbCircle
 10
138.5580724439
 20
110.43123546
 30
0.0
 40
2.0
100
AcDbArc
 50
40.601295
 51
90.0
  0
ARC
  5
7BB
330
2
100
AcDbEntity
  8
0
100
AcDbCircle
 10
214.3317844439
 20
114.43123546
 30
0.0
 40
2.0
100
AcDbArc
 50
270.0
 51
351.373077
  0
LINE
  5
7BC
330
2
100
AcDbEntity
  8
0
100
AcDbLine
 10
211.7223484439
 20
112.24825246
 30
0.0
 11
212.6422394439
 21
110.24825246
 31
0.0
  0
ARC
  5
7BD
330
2
100
AcDbEntity
  8
0
100
AcDbCircle
 10
212.5580724439
 20
110.43123546
 30
0.0
 40
2.0
100
AcDbArc
 50
90.0
 51
139.398712
  0
LINE
  5
7BE
330
2
100
AcDbEntity
  8
0
100
AcDbLine
 10
125.5580724439
 20
114.60280546
 30
0.0
 11
125.5580724439
 21
97.43123546
 31
0.0
  0
LINE
  5
7BF
330
2
100
AcDbEntity
  8
0
100
AcDbLine
 10
225.5580724439
 20
97.43123546
 30
0.0
 11
225.5580724439
 21
164.43123546
 31
0.0
  0
LINE
  5
7C1
330
2
100
AcDbEntity
  8
0
100
AcDbLine
 10
306.0580724439
 20
170.72429546
 30
0.0
 11
306.0580724439
 21
91.13815946
 31
0.0
  0
LINE
  5
7C2
330
2
100
AcDbEntity
  8
0
100
AcDbLine
 10
125.0580724439
 20
156.62169546
 30
0.0
 11
125.0580724439
 21
105.24077546
 31
0.0
  0
ARC
  5
7C3
330
2
100
AcDbEntity
  8
HIDS
100
AcDbCircle
 10
346.5580724439
 20
130.93123546
 30
0.0
 40
38.0
100
AcDbArc
 50
129.356705
 51
230.643295
  0
LINE
  5
7C4
330
2
100
AcDbEntity
  8
0
100
AcDbLine
 10
318.5580724439
 20
170.94249646
 30
0.0
 11
318.5580724439
 21
90.91997446
 31
0.0
  0
LINE
  5
7C6
330
2
100
AcDbEntity
  8
0
100
AcDbLine
 10
52.5025684439
 20
100.68227346
 30
0.0
 11
125.5580724439
 21
100.68227346
 31
0.0
  0
LINE
  5
7C7
330
2
100
AcDbEntity
  8
0
100
AcDbLine
 10
52.5025684439
 20
92.93123546
 30
0.0
 11
124.1993234439
 21
92.93123546
 31
0.0
  0
LINE
  5
7C8
330
2
100
AcDbEntity
  8
0
100
AcDbLine
 10
34.0841654439
 20
100.68224246
 30
0.0
 11
52.5025684439
 21
100.68224246
 31
0.0
  0
LINE
  5
7C9
330
2
100
AcDbEntity
  8
0
100
AcDbLine
 10
35.9666644439
 20
92.93123546
 30
0.0
 11
52.5025684439
 21
92.93123546
 31
0.0
  0
ARC
  5
7CA
330
2
100
AcDbEntity
  8
0
100
AcDbCircle
 10
35.9666644439
 20
95.93123546
 30
0.0
 40
3.0
100
AcDbArc
 50
209.999603
 51
270.0
  0
LINE
  5
7CB
330
2
100
AcDbEntity
  8
0
100
AcDbLine
 10
33.3685654439
 20
94.43123546
 30
0.0
 11
32.5025684439
 21
95.93123546
 31
0.0
  0
LINE
  5
7CC
330
2
100
AcDbEntity
  8
0
100
AcDbLine
 10
32.0025684439
 20
98.93123546
 30
0.0
 11
32.5025684439
 21
98.43123546
 31
0.0
  0
ARC
  5
7CD
330
2
100
AcDbEntity
  8
0
100
AcDbCircle
 10
209.7526834439
 20
87.86749946
 30
0.0
 40
6.0
100
AcDbArc
 50
47.364067
 51
120.358299
  0
LINE
  5
7CE
330
2
100
AcDbEntity
  8
0
100
AcDbLine
 10
211.0395484439
 20
111.73281046
 30
0.0
 11
202.0395634439
 21
101.23281046
 31
0.0
  0
LINE
  5
7CF
330
2
100
AcDbEntity
  8
0
100
AcDbLine
 10
211.9594394439
 20
109.73281046
 30
0.0
 11
204.0395484439
 21
100.49297246
 31
0.0
  0
LINE
  5
7D0
330
2
100
AcDbEntity
  8
0
100
AcDbLine
 10
132.5580724439
 20
90.43123546
 30
0.0
 11
218.5580724439
 21
90.43123546
 31
0.0
  0
ARC
  5
7D1
330
2
100
AcDbEntity
  8
0
100
AcDbCircle
 10
149.5580724439
 20
98.69625046
 30
0.0
 40
2.0
100
AcDbArc
 50
180.0
 51
249.51268
  0
LINE
  5
7D2
330
2
100
AcDbEntity
  8
0
100
AcDbLine
 10
149.4338354439
 20
100.62511346
 30
0.0
 11
147.4338354439
 21
99.88527646
 31
0.0
  0
LINE
  5
7D3
330
2
100
AcDbEntity
  8
0
100
AcDbLine
 10
140.0765814439
 20
111.73281046
 30
0.0
 11
149.0765814439
 21
101.23281046
 31
0.0
  0
ARC
  5
7D4
330
2
100
AcDbEntity
  8
0
100
AcDbCircle
 10
151.9587374439
 20
100.43123546
 30
0.0
 40
10.0
100
AcDbArc
 50
247.668358
 51
270.0
  0
LINE
  5
7D5
330
2
100
AcDbEntity
  8
0
100
AcDbLine
 10
124.8944524439
 20
92.80654046
 30
0.0
 11
130.1250894439
 21
90.86765246
 31
0.0
  0
ARC
  5
7D6
330
2
100
AcDbEntity
  8
0
100
AcDbCircle
 10
132.5580724439
 20
97.43123546
 30
0.0
 40
7.0
100
AcDbArc
 50
180.0
 51
312.635925
  0
CIRCLE
  5
7D8
330
2
100
AcDbEntity
  8
HOJO
100
AcDbCircle
 10
132.5580724439
 20
97.43123546
 30
0.0
 40
4.0
  0
CIRCLE
  5
7D9
330
2
100
AcDbEntity
  8
0
100
AcDbCircle
 10
132.5580724439
 20
97.43123546
 30
0.0
 40
4.25
  0
CIRCLE
  5
7DB
330
2
100
AcDbEntity
  8
0
100
AcDbCircle
 10
130.0580724439
 20
107.43123546
 30
0.0
 40
3.799999999999998
  0
ARC
  5
7DC
330
2
100
AcDbEntity
  8
0
100
AcDbCircle
 10
130.0580724439
 20
107.43123546
 30
0.0
 40
4.5
100
AcDbArc
 50
270.0
 51
90.0
  0
CIRCLE
  5
7DD
330
2
100
AcDbEntity
  8
0
100
AcDbCircle
 10
132.5580724439
 20
97.43123546
 30
0.0
 40
3.2
  0
ARC
  5
7DF
330
2
100
AcDbEntity
  8
0
100
AcDbCircle
 10
127.5580724439
 20
100.93123546
 30
0.0
 40
2.0
100
AcDbArc
 50
90.0
 51
180.0
  0
ARC
  5
7E0
330
2
100
AcDbEntity
  8
0
100
AcDbCircle
 10
124.1993234439
 20
90.93123546
 30
0.0
 40
2.0
100
AcDbArc
 50
69.66127
 51
90.0
  0
LINE
  5
7E1
330
2
100
AcDbEntity
  8
0
100
AcDbLine
 10
125.0580724439
 20
105.24077546
 30
0.0
 11
125.5580724439
 21
105.24077546
 31
0.0
  0
LINE
  5
7E2
330
2
100
AcDbEntity
  8
0
100
AcDbLine
 10
127.5580724439
 20
111.93123546
 30
0.0
 11
130.0580724439
 21
111.93123546
 31
0.0
  0
LINE
  5
7E3
330
2
100
AcDbEntity
  8
0
100
AcDbLine
 10
130.0580724439
 20
105.63124746
 30
0.0
 11
131.5580724439
 21
106.49727546
 31
0.0
  0
LINE
  5
7E4
330
2
100
AcDbEntity
  8
0
100
AcDbLine
 10
131.5580724439
 20
108.36522546
 30
0.0
 11
131.5580724439
 21
106.49727546
 31
0.0
  0
LINE
  5
7E5
330
2
100
AcDbEntity
  8
0
100
AcDbLine
 10
130.0580724439
 20
109.23125346
 30
0.0
 11
131.5580724439
 21
108.36522546
 31
0.0
  0
LINE
  5
7E6
330
2
100
AcDbEntity
  8
0
100
AcDbLine
 10
130.0580724439
 20
109.23125346
 30
0.0
 11
128.5580724439
 21
108.36522546
 31
0.0
  0
LINE
  5
7E7
330
2
100
AcDbEntity
  8
0
100
AcDbLine
 10
128.5580724439
 20
108.36522546
 30
0.0
 11
128.5580724439
 21
106.49727546
 31
0.0
  0
LINE
  5
7E8
330
2
100
AcDbEntity
  8
0
100
AcDbLine
 10
130.0580724439
 20
105.63124746
 30
0.0
 11
128.5580724439
 21
106.49727546
 31
0.0
  0
CIRCLE
  5
7E9
330
2
100
AcDbEntity
  8
0
100
AcDbCircle
 10
130.0580724439
 20
107.43123546
 30
0.0
 40
3.5
  0
LINE
  5
7EA
330
2
100
AcDbEntity
  8
0
100
AcDbLine
 10
127.5580724439
 20
102.93123546
 30
0.0
 11
130.0580724439
 21
102.93123546
 31
0.0
  0
LINE
  5
7EB
330
2
100
AcDbEntity
  8
0
100
AcDbLine
 10
139.1567204439
 20
109.73281046
 30
0.0
 11
147.0765814439
 21
100.49297246
 31
0.0
  0
ARC
  5
7EC
330
2
100
AcDbEntity
  8
0
100
AcDbCircle
 10
141.3634614439
 20
87.86749946
 30
0.0
 40
6.0
100
AcDbArc
 50
59.641697
 51
132.635925
  0
ARC
  5
7ED
330
2
100
AcDbEntity
  8
0
100
AcDbCircle
 10
145.5580724439
 20
99.19139746
 30
0.0
 40
2.0
100
AcDbArc
 50
0.0
 51
40.601295
  0
LINE
  5
7EE
330
2
100
AcDbEntity
  8
0
100
AcDbLine
 10
147.5580724439
 20
99.19139746
 30
0.0
 11
147.5580724439
 21
98.69625046
 31
0.0
  0
ARC
  5
7EF
330
2
100
AcDbEntity
  8
0
100
AcDbCircle
 10
159.5580724439
 20
118.93123546
 30
0.0
 40
30.0
100
AcDbArc
 50
239.641701
 51
247.668358
  0
ARC
  5
7F0
330
2
100
AcDbEntity
  8
0
100
AcDbCircle
 10
137.1931584439
 20
112.43123546
 30
0.0
 40
2.0
100
AcDbArc
 50
194.477509
 51
270.0
  0
LINE
  5
7F1
330
2
100
AcDbEntity
  8
0
100
AcDbLine
 10
137.6381964439
 20
110.43123546
 30
0.0
 11
137.1931584439
 21
110.43123546
 31
0.0
  0
ARC
  5
7F2
330
2
100
AcDbEntity
  8
0
100
AcDbCircle
 10
137.6381964439
 20
108.43123546
 30
0.0
 40
2.0
100
AcDbArc
 50
40.601295
 51
90.0
  0
LINE
  5
7F3
330
2
100
AcDbEntity
  8
0
100
AcDbLine
 10
194.5580724439
 20
95.43123546
 30
0.0
 11
156.5580724439
 21
95.43123546
 31
0.0
  0
ARC
  5
7F4
330
2
100
AcDbEntity
  8
0
100
AcDbCircle
 10
156.5580724439
 20
117.43123546
 30
0.0
 40
22.0
100
AcDbArc
 50
249.512688
 51
270.0
  0
ARC
  5
7F5
330
2
100
AcDbEntity
  8
0
100
AcDbCircle
 10
151.5580724439
 20
98.06630646
 30
0.0
 40
2.0
100
AcDbArc
 50
180.0
 51
255.522491
  0
ARC
  5
7F6
330
2
100
AcDbEntity
  8
0
100
AcDbCircle
 10
147.5580724439
 20
99.93123546
 30
0.0
 40
2.0
100
AcDbArc
 50
0.0
 51
40.601295
  0
LINE
  5
7F7
330
2
100
AcDbEntity
  8
0
100
AcDbLine
 10
149.5580724439
 20
99.93123546
 30
0.0
 11
149.5580724439
 21
98.06630646
 31
0.0
  0
ARC
  5
7F8
330
2
100
AcDbEntity
  8
0
100
AcDbCircle
 10
199.1574074439
 20
100.43123546
 30
0.0
 40
10.0
100
AcDbArc
 50
270.0
 51
292.331642
  0
ARC
  5
7F9
330
2
100
AcDbEntity
  8
0
100
AcDbCircle
 10
199.5580724439
 20
98.06630646
 30
0.0
 40
2.0
100
AcDbArc
 50
284.477509
 51
0.0
  0
ARC
  5
7FA
330
2
100
AcDbEntity
  8
0
100
AcDbCircle
 10
194.5580724439
 20
117.43123546
 30
0.0
 40
22.0
100
AcDbArc
 50
270.0
 51
290.487305
  0
ARC
  5
7FB
330
2
100
AcDbEntity
  8
0
100
AcDbCircle
 10
201.5580724439
 20
98.69625046
 30
0.0
 40
2.0
100
AcDbArc
 50
290.487312
 51
0.0
  0
LINE
  5
7FC
330
2
100
AcDbEntity
  8
0
100
AcDbLine
 10
201.6823094439
 20
100.62511346
 30
0.0
 11
203.6823094439
 21
99.88527646
 31
0.0
  0
ARC
  5
7FD
330
2
100
AcDbEntity
  8
0
100
AcDbCircle
 10
205.5580724439
 20
99.19139746
 30
0.0
 40
2.0
100
AcDbArc
 50
139.398712
 51
180.0
  0
ARC
  5
7FE
330
2
100
AcDbEntity
  8
0
100
AcDbCircle
 10
203.5580724439
 20
99.93123546
 30
0.0
 40
2.0
100
AcDbArc
 50
139.398712
 51
180.0
  0
LINE
  5
7FF
330
2
100
AcDbEntity
  8
0
100
AcDbLine
 10
201.5580724439
 20
99.93123546
 30
0.0
 11
201.5580724439
 21
98.06630646
 31
0.0
  0
LINE
  5
800
330
2
100
AcDbEntity
  8
0
100
AcDbLine
 10
203.5580724439
 20
99.19139746
 30
0.0
 11
203.5580724439
 21
98.69625046
 31
0.0
  0
ARC
  5
801
330
2
100
AcDbEntity
  8
0
100
AcDbCircle
 10
191.5580724439
 20
118.93123546
 30
0.0
 40
30.0
100
AcDbArc
 50
292.331642
 51
300.358303
  0
ARC
  5
802
330
2
100
AcDbEntity
  8
0
100
AcDbCircle
 10
218.5580724439
 20
97.43123546
 30
0.0
 40
7.0
100
AcDbArc
 50
227.364075
 51
0.0
  0
CIRCLE
  5
804
330
2
100
AcDbEntity
  8
0
100
AcDbCircle
 10
218.5580724439
 20
97.43123546
 30
0.0
 40
4.25
  0
LINE
  5
805
330
2
100
AcDbEntity
  8
0
100
AcDbLine
 10
223.5580724439
 20
111.93123546
 30
0.0
 11
221.0580724439
 21
111.93123546
 31
0.0
  0
LINE
  5
806
330
2
100
AcDbEntity
  8
0
100
AcDbLine
 10
223.5580724439
 20
102.93123546
 30
0.0
 11
221.0580724439
 21
102.93123546
 31
0.0
  0
CIRCLE
  5
808
330
2
100
AcDbEntity
  8
0
100
AcDbCircle
 10
221.0580724439
 20
107.43123546
 30
0.0
 40
3.5
  0
CIRCLE
  5
809
330
2
100
AcDbEntity
  8
0
100
AcDbCircle
 10
221.0580724439
 20
107.43123546
 30
0.0
 40
3.799999999999998
  0
CIRCLE
  5
80B
330
2
100
AcDbEntity
  8
HOJO
100
AcDbCircle
 10
218.5580724439
 20
97.43123546
 30
0.0
 40
4.0
  0
CIRCLE
  5
80C
330
2
100
AcDbEntity
  8
0
100
AcDbCircle
 10
218.5580724439
 20
97.43123546
 30
0.0
 40
3.2
  0
ARC
  5
80D
330
2
100
AcDbEntity
  8
0
100
AcDbCircle
 10
213.9230014439
 20
112.43123546
 30
0.0
 40
2.0
100
AcDbArc
 50
270.0
 51
345.522491
  0
LINE
  5
80E
330
2
100
AcDbEntity
  8
0
100
AcDbLine
 10
213.4779334439
 20
110.43123546
 30
0.0
 11
213.9230014439
 21
110.43123546
 31
0.0
  0
ARC
  5
80F
330
2
100
AcDbEntity
  8
0
100
AcDbCircle
 10
213.4779334439
 20
108.43123546
 30
0.0
 40
2.0
100
AcDbArc
 50
90.0
 51
139.398712
  0
ARC
  5
810
330
2
100
AcDbEntity
  8
0
100
AcDbCircle
 10
221.0580724439
 20
107.43123546
 30
0.0
 40
4.5
100
AcDbArc
 50
90.0
 51
270.0
  0
LINE
  5
811
330
2
100
AcDbEntity
  8
0
100
AcDbLine
 10
221.0580724439
 20
109.23125346
 30
0.0
 11
219.5580724439
 21
108.36522546
 31
0.0
  0
LINE
  5
812
330
2
100
AcDbEntity
  8
0
100
AcDbLine
 10
221.0580724439
 20
109.23125346
 30
0.0
 11
222.5580724439
 21
108.36522546
 31
0.0
  0
LINE
  5
813
330
2
100
AcDbEntity
  8
0
100
AcDbLine
 10
221.0580724439
 20
105.63124746
 30
0.0
 11
222.5580724439
 21
106.49727546
 31
0.0
  0
LINE
  5
814
330
2
100
AcDbEntity
  8
0
100
AcDbLine
 10
221.0580724439
 20
105.63124746
 30
0.0
 11
219.5580724439
 21
106.49727546
 31
0.0
  0
LINE
  5
815
330
2
100
AcDbEntity
  8
0
100
AcDbLine
 10
222.5580724439
 20
108.36522546
 30
0.0
 11
222.5580724439
 21
106.49727546
 31
0.0
  0
LINE
  5
816
330
2
100
AcDbEntity
  8
0
100
AcDbLine
 10
219.5580724439
 20
108.36522546
 30
0.0
 11
219.5580724439
 21
106.49727546
 31
0.0
  0
ARC
  5
817
330
2
100
AcDbEntity
  8
0
100
AcDbCircle
 10
223.5580724439
 20
100.93123546
 30
0.0
 40
2.0
100
AcDbArc
 50
0.0
 51
90.0
  0
LINE
  5
819
330
2
100
AcDbEntity
  8
0
100
AcDbLine
 10
306.0580724439
 20
93.18123546
 30
0.0
 11
318.5580724439
 21
93.18123546
 31
0.0
  0
LINE
  5
81A
330
2
100
AcDbEntity
  8
0
100
AcDbLine
 10
306.0580724439
 20
101.68123546
 30
0.0
 11
318.5580724439
 21
101.68123546
 31
0.0
  0
LINE
  5
81B
330
2
100
AcDbEntity
  8
0
100
AcDbLine
 10
306.0580724439
 20
112.10143246
 30
0.0
 11
312.5580724439
 21
111.93123546
 31
0.0
  0
LINE
  5
81C
330
2
100
AcDbEntity
  8
0
100
AcDbLine
 10
311.5580414439
 20
111.23122346
 30
0.0
 11
312.5580724439
 21
111.23122346
 31
0.0
  0
LINE
  5
81D
330
2
100
AcDbEntity
  8
CENTER
100
AcDbLine
 10
305.6183754439
 20
107.43123546
 30
0.0
 11
313.6030854439
 21
107.43123546
 31
0.0
  0
LINE
  5
821
330
2
100
AcDbEntity
  8
0
100
AcDbLine
 10
307.5580414439
 20
110.93123546
 30
0.0
 11
311.5580414439
 21
110.93126646
 31
0.0
  0
LINE
  5
822
330
2
100
AcDbEntity
  8
0
100
AcDbLine
 10
307.5580414439
 20
105.3580851999
 30
0.0
 11
307.5580414439
 21
110.93123546
 31
0.0
  0
LINE
  5
824
330
2
100
AcDbEntity
  8
0
100
AcDbLine
 10
311.5580414439
 20
105.6060962723
 30
0.0
 11
311.5580414439
 21
111.23122346
 31
0.0
  0
ARC
  5
825
330
2
100
AcDbEntity
  8
HIDS
100
AcDbCircle
 10
320.5580724439
 20
99.22951446
 30
0.0
 40
3.0
100
AcDbArc
 50
0.0
 51
50.643299
  0
ARC
  5
826
330
2
100
AcDbEntity
  8
HIDS
100
AcDbCircle
 10
325.5580724439
 20
95.29810246
 30
0.0
 40
2.0
100
AcDbArc
 50
180.0
 51
269.0
  0
LINE
  5
827
330
2
100
AcDbEntity
  8
HIDS
100
AcDbLine
 10
323.5580724439
 20
95.29810246
 30
0.0
 11
323.5580724439
 21
99.22951446
 31
0.0
  0
LINE
  5
82A
330
2
100
AcDbEntity
  8
0
100
AcDbLine
 10
312.5580724439
 20
105.7453807813
 30
0.0
 11
312.5580724439
 21
111.93123546
 31
0.0
  0
LINE
  5
82C
330
2
100
AcDbEntity
  8
0
100
AcDbLine
 10
52.5025684439
 20
161.18019746
 30
0.0
 11
125.5580724439
 21
161.18019746
 31
0.0
  0
LINE
  5
82D
330
2
100
AcDbEntity
  8
0
100
AcDbLine
 10
52.5025684439
 20
168.93123546
 30
0.0
 11
124.1993234439
 21
168.93123546
 31
0.0
  0
LINE
  5
82E
330
2
100
AcDbEntity
  8
CENTER
100
AcDbLine
 10
233.0988434439
 20
130.93123546
 30
0.0
 11
23.4820384756
 21
130.93123546
 31
0.0
  0
LINE
  5
833
330
2
100
AcDbEntity
  8
0
100
AcDbLine
 10
34.0841654439
 20
161.18022846
 30
0.0
 11
52.5025684439
 21
161.18022846
 31
0.0
  0
LINE
  5
834
330
2
100
AcDbEntity
  8
0
100
AcDbLine
 10
35.9666644439
 20
168.93123546
 30
0.0
 11
52.5025684439
 21
168.93123546
 31
0.0
  0
LINE
  5
835
330
2
100
AcDbEntity
  8
0
100
AcDbLine
 10
32.0025684439
 20
162.93123546
 30
0.0
 11
32.5025684439
 21
163.43123546
 31
0.0
  0
ARC
  5
836
330
2
100
AcDbEntity
  8
0
100
AcDbCircle
 10
35.9666644439
 20
165.93126646
 30
0.0
 40
3.0
100
AcDbArc
 50
90.0
 51
150.000397
  0
LINE
  5
837
330
2
100
AcDbEntity
  8
0
100
AcDbLine
 10
33.3685654439
 20
167.43123546
 30
0.0
 11
32.5025684439
 21
165.93123546
 31
0.0
  0
ARC
  5
83F
330
2
100
AcDbEntity
  8
0
100
AcDbCircle
 10
209.7526834439
 20
173.99498646
 30
0.0
 40
6.0
100
AcDbArc
 50
239.641701
 51
312.635933
  0
LINE
  5
840
330
2
100
AcDbEntity
  8
0
100
AcDbLine
 10
211.0395484439
 20
150.12966046
 30
0.0
 11
202.0395634439
 21
160.62966046
 31
0.0
  0
LINE
  5
841
330
2
100
AcDbEntity
  8
0
100
AcDbLine
 10
211.9594394439
 20
152.12966046
 30
0.0
 11
204.0395484439
 21
161.36949846
 31
0.0
  0
LINE
  5
842
330
2
100
AcDbEntity
  8
0
100
AcDbLine
 10
132.5580724439
 20
171.43123546
 30
0.0
 11
218.5580724439
 21
171.43123546
 31
0.0
  0
ARC
  5
843
330
2
100
AcDbEntity
  8
0
100
AcDbCircle
 10
149.5580724439
 20
163.16622046
 30
0.0
 40
2.0
100
AcDbArc
 50
110.487312
 51
180.0
  0
LINE
  5
844
330
2
100
AcDbEntity
  8
0
100
AcDbLine
 10
149.4338354439
 20
161.23735746
 30
0.0
 11
147.4338354439
 21
161.97719446
 31
0.0
  0
LINE
  5
845
330
2
100
AcDbEntity
  8
0
100
AcDbLine
 10
140.0765814439
 20
150.12966046
 30
0.0
 11
149.0765814439
 21
160.62966046
 31
0.0
  0
ARC
  5
846
330
2
100
AcDbEntity
  8
0
100
AcDbCircle
 10
151.9587374439
 20
161.43123546
 30
0.0
 40
10.0
100
AcDbArc
 50
90.0
 51
112.331642
  0
ARC
  5
848
330
2
100
AcDbEntity
  8
0
100
AcDbCircle
 10
130.0580724439
 20
154.43123546
 30
0.0
 40
4.5
100
AcDbArc
 50
270.0
 51
90.0
  0
LINE
  5
849
330
2
100
AcDbEntity
  8
0
100
AcDbLine
 10
128.5580724439
 20
153.49724546
 30
0.0
 11
128.5580724439
 21
155.36519546
 31
0.0
  0
LINE
  5
84A
330
2
100
AcDbEntity
  8
0
100
AcDbLine
 10
131.5580724439
 20
153.49724546
 30
0.0
 11
131.5580724439
 21
155.36519546
 31
0.0
  0
CIRCLE
  5
84B
330
2
100
AcDbEntity
  8
0
100
AcDbCircle
 10
130.0580724439
 20
154.43123546
 30
0.0
 40
3.5
  0
CIRCLE
  5
84C
330
2
100
AcDbEntity
  8
0
100
AcDbCircle
 10
130.0580724439
 20
154.43123546
 30
0.0
 40
3.799999999999998
  0
LINE
  5
84D
330
2
100
AcDbEntity
  8
0
100
AcDbLine
 10
139.1567204439
 20
152.12966046
 30
0.0
 11
147.0765814439
 21
161.36949846
 31
0.0
  0
LINE
  5
84E
330
2
100
AcDbEntity
  8
0
100
AcDbLine
 10
125.5580724439
 20
164.43123546
 30
0.0
 11
125.5580724439
 21
147.25966546
 31
0.0
  0
LINE
  5
84F
330
2
100
AcDbEntity
  8
0
100
AcDbLine
 10
134.5580724439
 20
144.43123546
 30
0.0
 11
134.5580724439
 21
117.43123546
 31
0.0
  0
LINE
  5
850
330
2
100
AcDbEntity
  8
0
100
AcDbLine
 10
129.5580724439
 20
120.25966546
 30
0.0
 11
129.5580724439
 21
141.60280546
 31
0.0
  0
LINE
  5
851
330
2
100
AcDbEntity
  8
0
100
AcDbLine
 10
128.9722874439
 20
118.84545046
 30
0.0
 11
126.1438574439
 21
116.01702046
 31
0.0
  0
ARC
  5
852
330
2
100
AcDbEntity
  8
0
100
AcDbCircle
 10
127.5580724439
 20
114.60280546
 30
0.0
 40
2.0
100
AcDbArc
 50
135.0
 51
180.0
  0
ARC
  5
853
330
2
100
AcDbEntity
  8
0
100
AcDbCircle
 10
127.5580724439
 20
120.25966546
 30
0.0
 40
2.0
100
AcDbArc
 50
315.0
 51
0.0
  0
LINE
  5
854
330
2
100
AcDbEntity
  8
0
100
AcDbLine
 10
138.5580724439
 20
112.43123546
 30
0.0
 11
136.7843454439
 21
112.43123546
 31
0.0
  0
LINE
  5
856
330
2
100
AcDbEntity
  8
0
100
AcDbLine
 10
128.9722874439
 20
143.01702046
 30
0.0
 11
126.1438574439
 21
145.84545046
 31
0.0
  0
ARC
  5
857
330
2
100
AcDbEntity
  8
0
100
AcDbCircle
 10
127.5580724439
 20
141.60280546
 30
0.0
 40
2.0
100
AcDbArc
 50
0.0
 51
45.0
  0
ARC
  5
858
330
2
100
AcDbEntity
  8
0
100
AcDbCircle
 10
127.5580724439
 20
147.93123546
 30
0.0
 40
2.0
100
AcDbArc
 50
90.0
 51
180.0
  0
ARC
  5
859
330
2
100
AcDbEntity
  8
0
100
AcDbCircle
 10
127.5580724439
 20
147.25966546
 30
0.0
 40
2.0
100
AcDbArc
 50
180.0
 51
225.0
  0
LINE
  5
85A
330
2
100
AcDbEntity
  8
0
100
AcDbLine
 10
127.5580724439
 20
149.93123546
 30
0.0
 11
130.0580724439
 21
149.93123546
 31
0.0
  0
LINE
  5
85B
330
2
100
AcDbEntity
  8
0
100
AcDbLine
 10
130.0580724439
 20
152.63121746
 30
0.0
 11
131.5580724439
 21
153.49724546
 31
0.0
  0
LINE
  5
85C
330
2
100
AcDbEntity
  8
0
100
AcDbLine
 10
130.0580724439
 20
152.63121746
 30
0.0
 11
128.5580724439
 21
153.49724546
 31
0.0
  0
ARC
  5
85D
330
2
100
AcDbEntity
  8
0
100
AcDbCircle
 10
156.5580724439
 20
144.43123546
 30
0.0
 40
22.0
100
AcDbArc
 50
165.522491
 51
180.0
  0
ARC
  5
85E
330
2
100
AcDbEntity
  8
0
100
AcDbCircle
 10
137.1931584439
 20
149.43123546
 30
0.0
 40
2.0
100
AcDbArc
 50
90.0
 51
165.522491
  0
ARC
  5
85F
330
2
100
AcDbEntity
  8
0
100
AcDbCircle
 10
136.7843454439
 20
147.43123546
 30
0.0
 40
2.0
100
AcDbArc
 50
90.0
 51
171.373077
  0
LINE
  5
860
330
2
100
AcDbEntity
  8
0
100
AcDbLine
 10
137.6381964439
 20
151.43123546
 30
0.0
 11
137.1931584439
 21
151.43123546
 31
0.0
  0
LINE
  5
861
330
2
100
AcDbEntity
  8
0
100
AcDbLine
 10
138.5580724439
 20
149.43123546
 30
0.0
 11
136.7843454439
 21
149.43123546
 31
0.0
  0
LINE
  5
862
330
2
100
AcDbEntity
  8
0
100
AcDbLine
 10
139.3937814439
 20
149.61421846
 30
0.0
 11
138.4739204439
 21
151.61421846
 31
0.0
  0
ARC
  5
863
330
2
100
AcDbEntity
  8
0
100
AcDbCircle
 10
138.5580724439
 20
151.43123546
 30
0.0
 40
2.0
100
AcDbArc
 50
270.0
 51
319.398705
  0
ARC
  5
864
330
2
100
AcDbEntity
  8
0
100
AcDbCircle
 10
137.6381964439
 20
153.43123546
 30
0.0
 40
2.0
100
AcDbArc
 50
270.0
 51
319.398705
  0
CIRCLE
  5
865
330
2
100
AcDbEntity
  8
HOJO
100
AcDbCircle
 10
132.5580724439
 20
164.43123546
 30
0.0
 40
4.0
  0
CIRCLE
  5
866
330
2
100
AcDbEntity
  8
0
100
AcDbCircle
 10
132.5580724439
 20
164.43123546
 30
0.0
 40
4.25
  0
ARC
  5
867
330
2
100
AcDbEntity
  8
0
100
AcDbCircle
 10
132.5580724439
 20
164.43123546
 30
0.0
 40
7.0
100
AcDbArc
 50
47.364067
 51
180.0
  0
CIRCLE
  5
868
330
2
100
AcDbEntity
  8
0
100
AcDbCircle
 10
132.5580724439
 20
164.43123546
 30
0.0
 40
3.2
  0
ARC
  5
86B
330
2
100
AcDbEntity
  8
0
100
AcDbCircle
 10
127.5580724439
 20
160.93123546
 30
0.0
 40
2.0
100
AcDbArc
 50
180.0
 51
270.0
  0
LINE
  5
86C
330
2
100
AcDbEntity
  8
0
100
AcDbLine
 10
125.0580724439
 20
156.62169546
 30
0.0
 11
125.5580724439
 21
156.62169546
 31
0.0
  0
LINE
  5
86D
330
2
100
AcDbEntity
  8
0
100
AcDbLine
 10
127.5580724439
 20
158.93123546
 30
0.0
 11
130.0580724439
 21
158.93123546
 31
0.0
  0
LINE
  5
86E
330
2
100
AcDbEntity
  8
0
100
AcDbLine
 10
130.0580724439
 20
156.23122346
 30
0.0
 11
128.5580724439
 21
155.36519546
 31
0.0
  0
LINE
  5
86F
330
2
100
AcDbEntity
  8
0
100
AcDbLine
 10
130.0580724439
 20
156.23122346
 30
0.0
 11
131.5580724439
 21
155.36519546
 31
0.0
  0
LINE
  5
870
330
2
100
AcDbEntity
  8
0
100
AcDbLine
 10
124.8944524439
 20
169.05593046
 30
0.0
 11
130.1250894439
 21
170.99480346
 31
0.0
  0
ARC
  5
871
330
2
100
AcDbEntity
  8
0
100
AcDbCircle
 10
124.1993234439
 20
170.93123546
 30
0.0
 40
2.0
100
AcDbArc
 50
270.0
 51
290.33873
  0
ARC
  5
872
330
2
100
AcDbEntity
  8
0
100
AcDbCircle
 10
145.5580724439
 20
162.67107346
 30
0.0
 40
2.0
100
AcDbArc
 50
319.398705
 51
0.0
  0
LINE
  5
873
330
2
100
AcDbEntity
  8
0
100
AcDbLine
 10
147.5580724439
 20
162.67107346
 30
0.0
 11
147.5580724439
 21
163.16622046
 31
0.0
  0
ARC
  5
874
330
2
100
AcDbEntity
  8
0
100
AcDbCircle
 10
141.3634614439
 20
173.99498646
 30
0.0
 40
6.0
100
AcDbArc
 50
227.364075
 51
300.358303
  0
ARC
  5
875
330
2
100
AcDbEntity
  8
0
100
AcDbCircle
 10
159.5580724439
 20
142.93123546
 30
0.0
 40
30.0
100
AcDbArc
 50
112.331642
 51
120.358299
  0
ARC
  5
876
330
2
100
AcDbEntity
  8
0
100
AcDbCircle
 10
186.5580724439
 20
130.93123546
 30
0.0
 40
8.5
100
AcDbArc
 50
17.104635
 51
342.895355
  0
CIRCLE
  5
877
330
2
100
AcDbEntity
  8
0
100
AcDbCircle
 10
186.5580724439
 20
130.93123546
 30
0.0
 40
15.0
  0
LINE
  5
878
330
2
100
AcDbEntity
  8
0
100
AcDbLine
 10
191.0580724439
 20
133.43123546
 30
0.0
 11
191.0580724439
 21
128.43123546
 31
0.0
  0
LINE
  5
879
330
2
100
AcDbEntity
  8
0
100
AcDbLine
 10
196.0580724439
 20
133.43123546
 30
0.0
 11
196.0580724439
 21
128.43123546
 31
0.0
  0
ARC
  5
87A
330
2
100
AcDbEntity
  8
0
100
AcDbCircle
 10
186.5580724439
 20
130.93123546
 30
0.0
 40
7.5
100
AcDbArc
 50
19.471222
 51
340.528778
  0
LINE
  5
87B
330
2
100
AcDbEntity
  8
0
100
AcDbLine
 10
191.0580724439
 20
128.43123546
 30
0.0
 11
196.0580724439
 21
128.43123546
 31
0.0
  0
LINE
  5
87C
330
2
100
AcDbEntity
  8
0
100
AcDbLine
 10
191.0580724439
 20
133.43123546
 30
0.0
 11
196.0580724439
 21
133.43123546
 31
0.0
  0
LINE
  5
87D
330
2
100
AcDbEntity
  8
0
100
AcDbLine
 10
194.5580724439
 20
166.43123546
 30
0.0
 11
156.5580724439
 21
166.43123546
 31
0.0
  0
ARC
  5
87E
330
2
100
AcDbEntity
  8
0
100
AcDbCircle
 10
151.5580724439
 20
163.79616446
 30
0.0
 40
2.0
100
AcDbArc
 50
104.477509
 51
180.0
  0
ARC
  5
87F
330
2
100
AcDbEntity
  8
0
100
AcDbCircle
 10
156.5580724439
 20
144.43123546
 30
0.0
 40
22.0
100
AcDbArc
 50
90.0
 51
110.487312
  0
ARC
  5
880
330
2
100
AcDbEntity
  8
0
100
AcDbCircle
 10
147.5580724439
 20
161.93123546
 30
0.0
 40
2.0
100
AcDbArc
 50
319.398705
 51
0.0
  0
LINE
  5
881
330
2
100
AcDbEntity
  8
0
100
AcDbLine
 10
149.5580724439
 20
161.93123546
 30
0.0
 11
149.5580724439
 21
163.79616446
 31
0.0
  0
ARC
  5
882
330
2
100
AcDbEntity
  8
0
100
AcDbCircle
 10
201.5580724439
 20
163.16622046
 30
0.0
 40
2.0
100
AcDbArc
 50
0.0
 51
69.512688
  0
ARC
  5
883
330
2
100
AcDbEntity
  8
0
100
AcDbCircle
 10
199.5580724439
 20
163.79616446
 30
0.0
 40
2.0
100
AcDbArc
 50
0.0
 51
75.522491
  0
ARC
  5
884
330
2
100
AcDbEntity
  8
0
100
AcDbCircle
 10
194.5580724439
 20
144.43123546
 30
0.0
 40
22.0
100
AcDbArc
 50
69.512688
 51
90.0
  0
LINE
  5
885
330
2
100
AcDbEntity
  8
0
100
AcDbLine
 10
201.6823094439
 20
161.23735746
 30
0.0
 11
203.6823094439
 21
161.97719446
 31
0.0
  0
ARC
  5
886
330
2
100
AcDbEntity
  8
0
100
AcDbCircle
 10
205.5580724439
 20
162.67107346
 30
0.0
 40
2.0
100
AcDbArc
 50
180.0
 51
220.601288
  0
ARC
  5
887
330
2
100
AcDbEntity
  8
0
100
AcDbCircle
 10
203.5580724439
 20
161.93123546
 30
0.0
 40
2.0
100
AcDbArc
 50
180.0
 51
220.601288
  0
LINE
  5
888
330
2
100
AcDbEntity
  8
0
100
AcDbLine
 10
201.5580724439
 20
161.93123546
 30
0.0
 11
201.5580724439
 21
163.79616446
 31
0.0
  0
LINE
  5
889
330
2
100
AcDbEntity
  8
0
100
AcDbLine
 10
203.5580724439
 20
162.67107346
 30
0.0
 11
203.5580724439
 21
163.16622046
 31
0.0
  0
ARC
  5
88A
330
2
100
AcDbEntity
  8
0
100
AcDbCircle
 10
199.1574074439
 20
161.43123546
 30
0.0
 40
10.0
100
AcDbArc
 50
67.668358
 51
90.0
  0
ARC
  5
88B
330
2
100
AcDbEntity
  8
0
100
AcDbCircle
 10
191.5580724439
 20
142.93123546
 30
0.0
 40
30.0
100
AcDbArc
 50
59.641697
 51
67.668358
  0
ARC
  5
88C
330
2
100
AcDbEntity
  8
0
100
AcDbCircle
 10
221.0580724439
 20
154.43123546
 30
0.0
 40
4.5
100
AcDbArc
 50
90.0
 51
270.0
  0
LINE
  5
88E
330
2
100
AcDbEntity
  8
0
100
AcDbLine
 10
222.5580724439
 20
153.49724546
 30
0.0
 11
222.5580724439
 21
155.36519546
 31
0.0
  0
LINE
  5
88F
330
2
100
AcDbEntity
  8
0
100
AcDbLine
 10
219.5580724439
 20
153.49724546
 30
0.0
 11
219.5580724439
 21
155.36519546
 31
0.0
  0
CIRCLE
  5
890
330
2
100
AcDbEntity
  8
0
100
AcDbCircle
 10
221.0580724439
 20
154.43123546
 30
0.0
 40
3.5
  0
CIRCLE
  5
891
330
2
100
AcDbEntity
  8
0
100
AcDbCircle
 10
221.0580724439
 20
154.43123546
 30
0.0
 40
3.799999999999998
  0
LINE
  5
892
330
2
100
AcDbEntity
  8
0
100
AcDbLine
 10
216.5580724439
 20
144.43123546
 30
0.0
 11
216.5580724439
 21
117.43123546
 31
0.0
  0
LINE
  5
893
330
2
100
AcDbEntity
  8
0
100
AcDbLine
 10
221.5580724439
 20
120.25966546
 30
0.0
 11
221.5580724439
 21
141.60280546
 31
0.0
  0
LINE
  5
894
330
2
100
AcDbEntity
  8
0
100
AcDbLine
 10
222.1438574439
 20
118.84545046
 30
0.0
 11
224.9722874439
 21
116.01702046
 31
0.0
  0
LINE
  5
895
330
2
100
AcDbEntity
  8
0
100
AcDbLine
 10
212.5580724439
 20
112.43123546
 30
0.0
 11
214.3317844439
 21
112.43123546
 31
0.0
  0
ARC
  5
896
330
2
100
AcDbEntity
  8
0
100
AcDbCircle
 10
223.5580724439
 20
120.25966546
 30
0.0
 40
2.0
100
AcDbArc
 50
180.0
 51
225.0
  0
ARC
  5
897
330
2
100
AcDbEntity
  8
0
100
AcDbCircle
 10
223.5580724439
 20
114.60280546
 30
0.0
 40
2.0
100
AcDbArc
 50
0.0
 51
45.0
  0
LINE
  5
899
330
2
100
AcDbEntity
  8
0
100
AcDbLine
 10
223.5580724439
 20
149.93123546
 30
0.0
 11
221.0580724439
 21
149.93123546
 31
0.0
  0
LINE
  5
89A
330
2
100
AcDbEntity
  8
0
100
AcDbLine
 10
222.1438574439
 20
143.01702046
 30
0.0
 11
224.9722874439
 21
145.84545046
 31
0.0
  0
ARC
  5
89B
330
2
100
AcDbEntity
  8
0
100
AcDbCircle
 10
223.5580724439
 20
141.60280546
 30
0.0
 40
2.0
100
AcDbArc
 50
135.0
 51
180.0
  0
ARC
  5
89C
330
2
100
AcDbEntity
  8
0
100
AcDbCircle
 10
213.9230014439
 20
149.43123546
 30
0.0
 40
2.0
100
AcDbArc
 50
14.477512
 51
90.0
  0
ARC
  5
89D
330
2
100
AcDbEntity
  8
0
100
AcDbCircle
 10
214.3317844439
 20
147.43123546
 30
0.0
 40
2.0
100
AcDbArc
 50
8.626927
 51
90.0
  0
LINE
  5
89E
330
2
100
AcDbEntity
  8
0
100
AcDbLine
 10
213.4779334439
 20
151.43123546
 30
0.0
 11
213.9230014439
 21
151.43123546
 31
0.0
  0
LINE
  5
89F
330
2
100
AcDbEntity
  8
0
100
AcDbLine
 10
212.5580724439
 20
149.43123546
 30
0.0
 11
214.3317844439
 21
149.43123546
 31
0.0
  0
LINE
  5
8A0
330
2
100
AcDbEntity
  8
0
100
AcDbLine
 10
211.7223484439
 20
149.61421846
 30
0.0
 11
212.6422394439
 21
151.61421846
 31
0.0
  0
ARC
  5
8A1
330
2
100
AcDbEntity
  8
0
100
AcDbCircle
 10
212.5580724439
 20
151.43123546
 30
0.0
 40
2.0
100
AcDbArc
 50
220.601288
 51
270.0
  0
ARC
  5
8A2
330
2
100
AcDbEntity
  8
0
100
AcDbCircle
 10
213.4779334439
 20
153.43123546
 30
0.0
 40
2.0
100
AcDbArc
 50
220.601288
 51
270.0
  0
LINE
  5
8A3
330
2
100
AcDbEntity
  8
0
100
AcDbLine
 10
221.0580724439
 20
152.63121746
 30
0.0
 11
219.5580724439
 21
153.49724546
 31
0.0
  0
LINE
  5
8A4
330
2
100
AcDbEntity
  8
0
100
AcDbLine
 10
221.0580724439
 20
152.63121746
 30
0.0
 11
222.5580724439
 21
153.49724546
 31
0.0
  0
ARC
  5
8A5
330
2
100
AcDbEntity
  8
0
100
AcDbCircle
 10
194.5580724439
 20
144.43123546
 30
0.0
 40
22.0
100
AcDbArc
 50
0.0
 51
14.477512
  0
ARC
  5
8A6
330
2
100
AcDbEntity
  8
0
100
AcDbCircle
 10
223.5580724439
 20
147.93123546
 30
0.0
 40
2.0
100
AcDbArc
 50
0.0
 51
90.0
  0
ARC
  5
8A7
330
2
100
AcDbEntity
  8
0
100
AcDbCircle
 10
223.5580724439
 20
147.25966546
 30
0.0
 40
2.0
100
AcDbArc
 50
315.0
 51
0.0
  0
CIRCLE
  5
8A8
330
2
100
AcDbEntity
  8
0
100
AcDbCircle
 10
218.5580724439
 20
164.43123546
 30
0.0
 40
4.25
  0
LINE
  5
8A9
330
2
100
AcDbEntity
  8
0
100
AcDbLine
 10
223.5580724439
 20
158.93123546
 30
0.0
 11
221.0580724439
 21
158.93123546
 31
0.0
  0
ARC
  5
8AA
330
2
100
AcDbEntity
  8
0
100
AcDbCircle
 10
218.5580724439
 20
164.43123546
 30
0.0
 40
7.0
100
AcDbArc
 50
0.0
 51
132.635925
  0
CIRCLE
  5
8AC
330
2
100
AcDbEntity
  8
HOJO
100
AcDbCircle
 10
218.5580724439
 20
164.43123546
 30
0.0
 40
4.0
  0
CIRCLE
  5
8AD
330
2
100
AcDbEntity
  8
0
100
AcDbCircle
 10
218.5580724439
 20
164.43123546
 30
0.0
 40
3.2
  0
LINE
  5
8AF
330
2
100
AcDbEntity
  8
0
100
AcDbLine
 10
221.0580724439
 20
156.23122346
 30
0.0
 11
222.5580724439
 21
155.36519546
 31
0.0
  0
LINE
  5
8B0
330
2
100
AcDbEntity
  8
0
100
AcDbLine
 10
221.0580724439
 20
156.23122346
 30
0.0
 11
219.5580724439
 21
155.36519546
 31
0.0
  0
ARC
  5
8B1
330
2
100
AcDbEntity
  8
0
100
AcDbCircle
 10
223.5580724439
 20
160.93123546
 30
0.0
 40
2.0
100
AcDbArc
 50
270.0
 51
0.0
  0
LINE
  5
8B2
330
2
100
AcDbEntity
  8
0
100
AcDbLine
 10
312.5580724439
 20
158.93123546
 30
0.0
 11
312.5580724439
 21
149.93123546
 31
0.0
  0
LINE
  5
8B3
330
2
100
AcDbEntity
  8
0
100
AcDbLine
 10
307.5580414439
 20
157.93123546
 30
0.0
 11
307.5580414439
 21
150.93123546
 31
0.0
  0
LINE
  5
8B4
330
2
100
AcDbEntity
  8
0
100
AcDbLine
 10
311.5580414439
 20
158.23122346
 30
0.0
 11
311.5580414439
 21
150.63124746
 31
0.0
  0
LINE
  5
8B5
330
2
100
AcDbEntity
  8
0
100
AcDbLine
 10
278.0580724439
 20
128.43123546
 30
0.0
 11
299.5580724439
 21
128.43123546
 31
0.0
  0
LINE
  5
8B6
330
2
100
AcDbEntity
  8
0
100
AcDbLine
 10
278.0580724439
 20
133.43123546
 30
0.0
 11
299.5580724439
 21
133.43123546
 31
0.0
  0
LINE
  5
8B7
330
2
100
AcDbEntity
  8
0
100
AcDbLine
 10
278.0580724439
 20
123.43123546
 30
0.0
 11
305.0580724439
 21
123.43123546
 31
0.0
  0
LINE
  5
8B8
330
2
100
AcDbEntity
  8
0
100
AcDbLine
 10
278.0580724439
 20
138.43123546
 30
0.0
 11
305.0580724439
 21
138.43123546
 31
0.0
  0
LINE
  5
8B9
330
2
100
AcDbEntity
  8
0
100
AcDbLine
 10
278.0580724439
 20
138.43123546
 30
0.0
 11
278.0580724439
 21
123.43123546
 31
0.0
  0
LINE
  5
8BA
330
2
100
AcDbEntity
  8
0
100
AcDbLine
 10
305.0580724439
 20
138.74257546
 30
0.0
 11
305.0580724439
 21
123.11989546
 31
0.0
  0
ARC
  5
8BB
330
2
100
AcDbEntity
  8
0
100
AcDbCircle
 10
299.5580724439
 20
130.93123546
 30
0.0
 40
2.5
100
AcDbArc
 50
270.0
 51
90.0
  0
LINE
  5
8BC
330
2
100
AcDbEntity
  8
0
100
AcDbLine
 10
318.5580724439
 20
115.43123546
 30
0.0
 11
306.0580724439
 21
115.43123546
 31
0.0
  0
LINE
  5
8BD
330
2
100
AcDbEntity
  8
0
100
AcDbLine
 10
318.5580724439
 20
119.43123546
 30
0.0
 11
306.0580724439
 21
119.43123546
 31
0.0
  0
ARC
  5
8BE
330
2
100
AcDbEntity
  8
0
100
AcDbCircle
 10
305.5580724439
 20
123.11989546
 30
0.0
 40
0.5
100
AcDbArc
 50
180.0
 51
240.0
  0
LINE
  5
8BF
330
2
100
AcDbEntity
  8
0
100
AcDbLine
 10
306.0580724439
 20
122.43123546
 30
0.0
 11
305.8355074439
 21
122.43123546
 31
0.0
  0
LINE
  5
8C0
330
2
100
AcDbEntity
  8
0
100
AcDbLine
 10
305.3080724439
 20
122.68691146
 30
0.0
 11
305.4599894439
 21
122.59917346
 31
0.0
  0
ARC
  5
8C1
330
2
100
AcDbEntity
  8
0
100
AcDbCircle
 10
306.4599894439
 20
124.33122946
 30
0.0
 40
2.0
100
AcDbArc
 50
240.0
 51
251.80513
  0
LINE
  5
8C2
330
2
100
AcDbEntity
  8
0
100
AcDbLine
 10
318.5580724439
 20
142.43123546
 30
0.0
 11
306.0580724439
 21
142.43123546
 31
0.0
  0
LINE
  5
8C3
330
2
100
AcDbEntity
  8
0
100
AcDbLine
 10
318.5580724439
 20
146.43123546
 30
0.0
 11
306.0580724439
 21
146.43123546
 31
0.0
  0
LINE
  5
8C4
330
2
100
AcDbEntity
  8
0
100
AcDbLine
 10
306.0580724439
 20
149.76103846
 30
0.0
 11
312.5580724439
 21
149.93123546
 31
0.0
  0
LINE
  5
8C5
330
2
100
AcDbEntity
  8
0
100
AcDbLine
 10
311.5580414439
 20
150.63124746
 30
0.0
 11
312.5580724439
 21
150.63124746
 31
0.0
  0
LINE
  5
8C6
330
2
100
AcDbEntity
  8
CENTER
100
AcDbLine
 10
305.6183754439
 20
154.43123546
 30
0.0
 11
313.6030854439
 21
154.43123546
 31
0.0
  0
LINE
  5
8C7
330
2
100
AcDbEntity
  8
0
100
AcDbLine
 10
306.0580724439
 20
139.43123546
 30
0.0
 11
305.8355074439
 21
139.43123546
 31
0.0
  0
ARC
  5
8C8
330
2
100
AcDbEntity
  8
0
100
AcDbCircle
 10
306.4599894439
 20
137.53124146
 30
0.0
 40
2.0
100
AcDbArc
 50
108.19487
 51
120.0
  0
LINE
  5
8C9
330
2
100
AcDbEntity
  8
0
100
AcDbLine
 10
305.3080724439
 20
139.17555946
 30
0.0
 11
305.4599894439
 21
139.26329746
 31
0.0
  0
ARC
  5
8CA
330
2
100
AcDbEntity
  8
0
100
AcDbCircle
 10
305.5580724439
 20
138.74257546
 30
0.0
 40
0.5
100
AcDbArc
 50
120.0
 51
180.0
  0
LINE
  5
8CB
330
2
100
AcDbEntity
  8
0
100
AcDbLine
 10
307.5580414439
 20
150.93123546
 30
0.0
 11
311.5580414439
 21
150.93120446
 31
0.0
  0
LINE
  5
8CD
330
2
100
AcDbEntity
  8
HIDS
100
AcDbLine
 10
306.0580724439
 20
160.18123546
 30
0.0
 11
318.5580724439
 21
160.18123546
 31
0.0
  0
LINE
  5
8CE
330
2
100
AcDbEntity
  8
HIDS
100
AcDbLine
 10
306.0580724439
 20
168.68123546
 30
0.0
 11
318.5580724439
 21
168.68123546
 31
0.0
  0
LINE
  5
8CF
330
2
100
AcDbEntity
  8
0
100
AcDbLine
 10
306.0580724439
 20
159.10143246
 30
0.0
 11
312.5580724439
 21
158.93123546
 31
0.0
  0
LINE
  5
8D0
330
2
100
AcDbEntity
  8
0
100
AcDbLine
 10
311.5580414439
 20
158.23122346
 30
0.0
 11
312.5580724439
 21
158.23122346
 31
0.0
  0
LINE
  5
8D2
330
2
100
AcDbEntity
  8
0
100
AcDbLine
 10
307.5580414439
 20
157.93123546
 30
0.0
 11
311.5580414439
 21
157.93126646
 31
0.0
  0
LINE
  5
8D3
330
2
100
AcDbEntity
  8
HIDS
100
AcDbLine
 10
323.5580724439
 20
166.56438346
 30
0.0
 11
323.5580724439
 21
162.63295646
 31
0.0
  0
ARC
  5
8D7
330
2
100
AcDbEntity
  8
HIDS
100
AcDbCircle
 10
320.5580724439
 20
162.63295646
 30
0.0
 40
3.0
100
AcDbArc
 50
309.356701
 51
0.0
  0
ARC
  5
8D8
330
2
100
AcDbEntity
  8
HIDS
100
AcDbCircle
 10
325.5580724439
 20
166.56438346
 30
0.0
 40
2.0
100
AcDbArc
 50
91.0
 51
180.0
  0
LINE
  5
8D9
330
2
100
AcDbEntity
  8
0
100
AcDbLine
 10
700.6135534439
 20
165.93123546
 30
0.0
 11
700.6135534439
 21
95.93123546
 31
0.0
  0
LINE
  5
8DA
330
2
100
AcDbEntity
  8
0
100
AcDbLine
 10
701.1135534439
 20
162.93123546
 30
0.0
 11
701.1135534439
 21
98.93123546
 31
0.0
  0
LINE
  5
8DB
330
2
100
AcDbEntity
  8
0
100
AcDbLine
 10
680.6135534439
 20
168.93123546
 30
0.0
 11
680.6135534439
 21
92.93123546
 31
0.0
  0
CIRCLE
  5
8DC
330
2
100
AcDbEntity
  8
0
100
AcDbCircle
 10
546.5580724439
 20
130.93123546
 30
0.0
 40
25.002001
  0
CIRCLE
  5
8DD
330
2
100
AcDbEntity
  8
0
100
AcDbCircle
 10
546.5580724439
 20
130.93123546
 30
0.0
 40
23.0
  0
CIRCLE
  5
8DE
330
2
100
AcDbEntity
  8
0
100
AcDbCircle
 10
546.5580724439
 20
130.93123546
 30
0.0
 40
19.0
  0
ARC
  5
8DF
330
2
100
AcDbEntity
  8
0
100
AcDbCircle
 10
576.5580724439
 20
117.43123546
 30
0.0
 40
22.0
100
AcDbArc
 50
345.522488
 51
0.0
  0
ARC
  5
8E0
330
2
100
AcDbEntity
  8
0
100
AcDbCircle
 10
538.5580724439
 20
117.43123546
 30
0.0
 40
22.0
100
AcDbArc
 50
180.0
 51
194.477509
  0
ARC
  5
8E1
330
2
100
AcDbEntity
  8
0
100
AcDbCircle
 10
596.3318154439
 20
114.43123546
 30
0.0
 40
2.0
100
AcDbArc
 50
270.0
 51
351.373077
  0
LINE
  5
8E2
330
2
100
AcDbEntity
  8
0
100
AcDbLine
 10
593.7223794439
 20
112.24825246
 30
0.0
 11
594.6422394439
 21
110.24825246
 31
0.0
  0
ARC
  5
8E3
330
2
100
AcDbEntity
  8
0
100
AcDbCircle
 10
594.5580724439
 20
110.43123546
 30
0.0
 40
2.0
100
AcDbArc
 50
90.0
 51
139.398712
  0
ARC
  5
8E4
330
2
100
AcDbEntity
  8
0
100
AcDbCircle
 10
518.7843294439
 20
114.43123546
 30
0.0
 40
2.0
100
AcDbArc
 50
188.626923
 51
270.0
  0
LINE
  5
8E5
330
2
100
AcDbEntity
  8
0
100
AcDbLine
 10
521.3937654439
 20
112.24825246
 30
0.0
 11
520.4739054439
 21
110.24825246
 31
0.0
  0
ARC
  5
8E6
330
2
100
AcDbEntity
  8
0
100
AcDbCircle
 10
520.5580724439
 20
110.43123546
 30
0.0
 40
2.0
100
AcDbArc
 50
40.601295
 51
90.0
  0
LINE
  5
8E7
330
2
100
AcDbEntity
  8
0
100
AcDbLine
 10
607.5580724439
 20
114.60280546
 30
0.0
 11
607.5580724439
 21
97.43123546
 31
0.0
  0
LINE
  5
8E8
330
2
100
AcDbEntity
  8
0
100
AcDbLine
 10
507.5580724439
 20
97.43123546
 30
0.0
 11
507.5580724439
 21
164.43123546
 31
0.0
  0
ARC
  5
8EA
330
2
100
AcDbEntity
  8
HIDS
100
AcDbCircle
 10
346.5580724439
 20
130.93123546
 30
0.0
 40
38.0
100
AcDbArc
 50
309.356701
 51
50.643299
  0
LINE
  5
8EB
330
2
100
AcDbEntity
  8
0
100
AcDbLine
 10
387.0580724439
 20
170.72429546
 30
0.0
 11
387.0580724439
 21
91.13815946
 31
0.0
  0
LINE
  5
8EC
330
2
100
AcDbEntity
  8
CENTER
100
AcDbLine
 10
346.5580724439
 20
206.81873346
 30
0.0
 11
346.5580724439
 21
83.38310946
 31
0.0
  0
LINE
  5
8ED
330
2
100
AcDbEntity
  8
0
100
AcDbLine
 10
538.5580724439
 20
95.43123546
 30
0.0
 11
576.5580724439
 21
95.43123546
 31
0.0
  0
LINE
  5
8EE
330
2
100
AcDbEntity
  8
0
100
AcDbLine
 10
600.5580724439
 20
90.43123546
 30
0.0
 11
514.5580724439
 21
90.43123546
 31
0.0
  0
LINE
  5
8F0
330
2
100
AcDbEntity
  8
HOJO
100
AcDbLine
 10
354.5580724439
 20
93.43123546
 30
0.0
 11
387.0580724439
 21
93.43123546
 31
0.0
  0
LINE
  5
8F1
330
2
100
AcDbEntity
  8
HOJO
100
AcDbLine
 10
354.5580724439
 20
101.43123546
 30
0.0
 11
387.0580724439
 21
101.43123546
 31
0.0
  0
LINE
  5
8F2
330
2
100
AcDbEntity
  8
0
100
AcDbLine
 10
346.5580724439
 20
90.43123546
 30
0.0
 11
387.0580724439
 21
91.13815946
 31
0.0
  0
LINE
  5
8F4
330
2
100
AcDbEntity
  8
HIDS
100
AcDbLine
 10
367.5929844439
 20
93.29840746
 30
0.0
 11
346.5580724439
 21
92.93123546
 31
0.0
  0
LINE
  5
8F6
330
2
100
AcDbEntity
  8
HOJO
100
AcDbLine
 10
338.5580724439
 20
101.43123546
 30
0.0
 11
338.5580724439
 21
93.43123546
 31
0.0
  0
LINE
  5
8F9
330
2
100
AcDbEntity
  8
HOJO
100
AcDbLine
 10
354.5580724439
 20
101.43123546
 30
0.0
 11
354.5580724439
 21
93.43123546
 31
0.0
  0
ARC
  5
8FE
330
2
100
AcDbEntity
  8
HIDS
100
AcDbCircle
 10
372.5580724439
 20
99.22951446
 30
0.0
 40
3.0
100
AcDbArc
 50
129.356705
 51
180.0
  0
ARC
  5
8FF
330
2
100
AcDbEntity
  8
HIDS
100
AcDbCircle
 10
367.5580724439
 20
95.29810246
 30
0.0
 40
2.0
100
AcDbArc
 50
271.0
 51
0.0
  0
LINE
  5
900
330
2
100
AcDbEntity
  8
HIDS
100
AcDbLine
 10
369.5580724439
 20
95.29810246
 30
0.0
 11
369.5580724439
 21
99.22951446
 31
0.0
  0
ARC
  5
906
330
2
100
AcDbEntity
  8
0
100
AcDbCircle
 10
538.5580724439
 20
117.43123546
 30
0.0
 40
22.0
100
AcDbArc
 50
249.512688
 51
270.0
  0
ARC
  5
907
330
2
100
AcDbEntity
  8
0
100
AcDbCircle
 10
533.9587074439
 20
100.43123546
 30
0.0
 40
10.0
100
AcDbArc
 50
247.66835
 51
270.0
  0
ARC
  5
908
330
2
100
AcDbEntity
  8
0
100
AcDbCircle
 10
514.5580724439
 20
97.43123546
 30
0.0
 40
7.0
100
AcDbArc
 50
180.0
 51
312.635925
  0
ARC
  5
90A
330
2
100
AcDbEntity
  8
0
100
AcDbCircle
 10
523.3634314439
 20
87.86749946
 30
0.0
 40
6.0
100
AcDbArc
 50
59.641697
 51
132.635925
  0
ARC
  5
90B
330
2
100
AcDbEntity
  8
0
100
AcDbCircle
 10
519.6382114439
 20
108.43123546
 30
0.0
 40
2.0
100
AcDbArc
 50
40.601295
 51
90.0
  0
CIRCLE
  5
90D
330
2
100
AcDbEntity
  8
HOJO
100
AcDbCircle
 10
514.5580724439
 20
97.43123546
 30
0.0
 40
4.0
  0
CIRCLE
  5
90E
330
2
100
AcDbEntity
  8
0
100
AcDbCircle
 10
514.5580724439
 20
97.43123546
 30
0.0
 40
3.2
  0
ARC
  5
90F
330
2
100
AcDbEntity
  8
0
100
AcDbCircle
 10
519.1931434439
 20
112.43123546
 30
0.0
 40
2.0
100
AcDbArc
 50
194.477509
 51
270.0
  0
LINE
  5
910
330
2
100
AcDbEntity
  8
0
100
AcDbLine
 10
519.6382114439
 20
110.43123546
 30
0.0
 11
519.1931434439
 21
110.43123546
 31
0.0
  0
LINE
  5
911
330
2
100
AcDbEntity
  8
0
100
AcDbLine
 10
522.0765664439
 20
111.73281046
 30
0.0
 11
531.0765664439
 21
101.23281046
 31
0.0
  0
LINE
  5
912
330
2
100
AcDbEntity
  8
0
100
AcDbLine
 10
521.1567054439
 20
109.73281046
 30
0.0
 11
529.0765664439
 21
100.49297246
 31
0.0
  0
ARC
  5
913
330
2
100
AcDbEntity
  8
0
100
AcDbCircle
 10
541.5580724439
 20
118.93123546
 30
0.0
 40
30.0
100
AcDbArc
 50
239.641693
 51
247.66835
  0
ARC
  5
914
330
2
100
AcDbEntity
  8
0
100
AcDbCircle
 10
531.5580724439
 20
98.69625046
 30
0.0
 40
2.0
100
AcDbArc
 50
180.0
 51
249.51268
  0
ARC
  5
915
330
2
100
AcDbEntity
  8
0
100
AcDbCircle
 10
533.5580724439
 20
98.06630646
 30
0.0
 40
2.0
100
AcDbArc
 50
180.0
 51
255.522491
  0
LINE
  5
916
330
2
100
AcDbEntity
  8
0
100
AcDbLine
 10
531.4338654439
 20
100.62511346
 30
0.0
 11
529.4338654439
 21
99.88527646
 31
0.0
  0
ARC
  5
917
330
2
100
AcDbEntity
  8
0
100
AcDbCircle
 10
527.5580724439
 20
99.19139746
 30
0.0
 40
2.0
100
AcDbArc
 50
0.0
 51
40.601295
  0
ARC
  5
918
330
2
100
AcDbEntity
  8
0
100
AcDbCircle
 10
529.5580724439
 20
99.93123546
 30
0.0
 40
2.0
100
AcDbArc
 50
0.0
 51
40.601295
  0
LINE
  5
919
330
2
100
AcDbEntity
  8
0
100
AcDbLine
 10
531.5580724439
 20
99.93123546
 30
0.0
 11
531.5580724439
 21
98.06630646
 31
0.0
  0
LINE
  5
91A
330
2
100
AcDbEntity
  8
0
100
AcDbLine
 10
529.5580724439
 20
99.19139746
 30
0.0
 11
529.5580724439
 21
98.69625046
 31
0.0
  0
LINE
  5
91B
330
2
100
AcDbEntity
  8
0
100
AcDbLine
 10
699.0319494439
 20
100.68224246
 30
0.0
 11
680.6135534439
 21
100.68224246
 31
0.0
  0
LINE
  5
91C
330
2
100
AcDbEntity
  8
0
100
AcDbLine
 10
697.1495034439
 20
92.93123546
 30
0.0
 11
680.6135534439
 21
92.93123546
 31
0.0
  0
LINE
  5
91D
330
2
100
AcDbEntity
  8
0
100
AcDbLine
 10
680.6135534439
 20
100.68227346
 30
0.0
 11
607.5580724439
 21
100.68227346
 31
0.0
  0
LINE
  5
91E
330
2
100
AcDbEntity
  8
0
100
AcDbLine
 10
680.6135534439
 20
92.93123546
 30
0.0
 11
608.9168374439
 21
92.93123546
 31
0.0
  0
ARC
  5
91F
330
2
100
AcDbEntity
  8
0
100
AcDbCircle
 10
591.7527134439
 20
87.86749946
 30
0.0
 40
6.0
100
AcDbArc
 50
47.364067
 51
120.358299
  0
ARC
  5
920
330
2
100
AcDbEntity
  8
0
100
AcDbCircle
 10
595.4779334439
 20
108.43123546
 30
0.0
 40
2.0
100
AcDbArc
 50
90.0
 51
139.398712
  0
LINE
  5
921
330
2
100
AcDbEntity
  8
0
100
AcDbLine
 10
593.9594394439
 20
109.73281046
 30
0.0
 11
586.0395784439
 21
100.49297246
 31
0.0
  0
ARC
  5
923
330
2
100
AcDbEntity
  8
0
100
AcDbCircle
 10
581.1574374439
 20
100.43123546
 30
0.0
 40
10.0
100
AcDbArc
 50
270.0
 51
292.331635
  0
ARC
  5
924
330
2
100
AcDbEntity
  8
0
100
AcDbCircle
 10
576.5580724439
 20
117.43123546
 30
0.0
 40
22.0
100
AcDbArc
 50
270.0
 51
290.487305
  0
LINE
  5
925
330
2
100
AcDbEntity
  8
0
100
AcDbLine
 10
593.0395784439
 20
111.73281046
 30
0.0
 11
584.0395784439
 21
101.23281046
 31
0.0
  0
ARC
  5
926
330
2
100
AcDbEntity
  8
0
100
AcDbCircle
 10
573.5580724439
 20
118.93123546
 30
0.0
 40
30.0
100
AcDbArc
 50
292.331635
 51
300.358307
  0
ARC
  5
927
330
2
100
AcDbEntity
  8
0
100
AcDbCircle
 10
583.5580724439
 20
98.69625046
 30
0.0
 40
2.0
100
AcDbArc
 50
290.487312
 51
0.0
  0
ARC
  5
928
330
2
100
AcDbEntity
  8
0
100
AcDbCircle
 10
581.5580724439
 20
98.06630646
 30
0.0
 40
2.0
100
AcDbArc
 50
284.477509
 51
0.0
  0
LINE
  5
929
330
2
100
AcDbEntity
  8
0
100
AcDbLine
 10
583.6822794439
 20
100.62511346
 30
0.0
 11
585.6822794439
 21
99.88527646
 31
0.0
  0
ARC
  5
92A
330
2
100
AcDbEntity
  8
0
100
AcDbCircle
 10
587.5580724439
 20
99.19139746
 30
0.0
 40
2.0
100
AcDbArc
 50
139.398712
 51
180.0
  0
ARC
  5
92B
330
2
100
AcDbEntity
  8
0
100
AcDbCircle
 10
585.5580724439
 20
99.93123546
 30
0.0
 40
2.0
100
AcDbArc
 50
139.398712
 51
180.0
  0
LINE
  5
92C
330
2
100
AcDbEntity
  8
0
100
AcDbLine
 10
583.5580724439
 20
99.93123546
 30
0.0
 11
583.5580724439
 21
98.06630646
 31
0.0
  0
LINE
  5
92D
330
2
100
AcDbEntity
  8
0
100
AcDbLine
 10
585.5580724439
 20
99.19139746
 30
0.0
 11
585.5580724439
 21
98.69625046
 31
0.0
  0
LINE
  5
92E
330
2
100
AcDbEntity
  8
0
100
AcDbLine
 10
608.2217074439
 20
92.80654046
 30
0.0
 11
602.9910554439
 21
90.86765246
 31
0.0
  0
ARC
  5
92F
330
2
100
AcDbEntity
  8
0
100
AcDbCircle
 10
600.5580724439
 20
97.43123546
 30
0.0
 40
7.0
100
AcDbArc
 50
227.364075
 51
0.0
  0
ARC
  5
931
330
2
100
AcDbEntity
  8
0
100
AcDbCircle
 10
608.9168374439
 20
90.93123546
 30
0.0
 40
2.0
100
AcDbArc
 50
90.0
 51
110.33873
  0
CIRCLE
  5
932
330
2
100
AcDbEntity
  8
HOJO
100
AcDbCircle
 10
600.5580724439
 20
97.43123546
 30
0.0
 40
4.0
  0
CIRCLE
  5
933
330
2
100
AcDbEntity
  8
0
100
AcDbCircle
 10
600.5580724439
 20
97.43123546
 30
0.0
 40
3.2
  0
ARC
  5
934
330
2
100
AcDbEntity
  8
0
100
AcDbCircle
 10
595.9230014439
 20
112.43123546
 30
0.0
 40
2.0
100
AcDbArc
 50
270.0
 51
345.522491
  0
LINE
  5
935
330
2
100
AcDbEntity
  8
0
100
AcDbLine
 10
595.4779334439
 20
110.43123546
 30
0.0
 11
595.9230014439
 21
110.43123546
 31
0.0
  0
ARC
  5
936
330
2
100
AcDbEntity
  8
0
100
AcDbCircle
 10
697.1495034439
 20
95.93123546
 30
0.0
 40
3.0
100
AcDbArc
 50
270.0
 51
330.000397
  0
LINE
  5
937
330
2
100
AcDbEntity
  8
0
100
AcDbLine
 10
699.7475864439
 20
94.43123546
 30
0.0
 11
700.6135534439
 21
95.93123546
 31
0.0
  0
LINE
  5
938
330
2
100
AcDbEntity
  8
0
100
AcDbLine
 10
701.1135534439
 20
98.93123546
 30
0.0
 11
700.6135534439
 21
98.43123546
 31
0.0
  0
LINE
  5
939
330
2
100
AcDbEntity
  8
0
100
AcDbLine
 10
508.2649814439
 20
368.4513835609
 30
0.0
 11
606.8511634439
 21
368.4513835609
 31
0.0
  0
LINE
  5
93A
330
2
100
AcDbEntity
  8
0
100
AcDbLine
 10
608.5580724439
 20
355.9513835609
 30
0.0
 11
508.0468424439
 21
355.9513835609
 31
0.0
  0
LINE
  5
93B
330
2
100
AcDbEntity
  8
0
100
AcDbLine
 10
606.8511634439
 20
287.4513835609
 30
0.0
 11
508.2649814439
 21
287.4513835609
 31
0.0
  0
LINE
  5
93C
330
2
100
AcDbEntity
  8
CENTER
100
AcDbLine
 10
500.0173014439
 20
327.9513835609
 30
0.0
 11
709.6340834121
 21
327.9513835609
 31
0.0
  0
LINE
  5
93D
330
2
100
AcDbEntity
  8
0
100
AcDbLine
 10
538.5580724439
 20
166.43123546
 30
0.0
 11
576.5580724439
 21
166.43123546
 31
0.0
  0
LINE
  5
93E
330
2
100
AcDbEntity
  8
0
100
AcDbLine
 10
600.5580724439
 20
171.43123546
 30
0.0
 11
514.5580724439
 21
171.43123546
 31
0.0
  0
LINE
  5
93F
330
2
100
AcDbEntity
  8
CENTER
100
AcDbLine
 10
500.0173014439
 20
130.93123546
 30
0.0
 11
709.6340834121
 21
130.93123546
 31
0.0
  0
LINE
  5
940
330
2
100
AcDbEntity
  8
HIDS
100
AcDbLine
 10
518.5580724439
 20
287.4513835609
 30
0.0
 11
518.5580724439
 21
319.9513835609
 31
0.0
  0
LINE
  5
941
330
2
100
AcDbEntity
  8
HIDS
100
AcDbLine
 10
510.5580724439
 20
287.4513835609
 30
0.0
 11
510.5580724439
 21
319.9513835609
 31
0.0
  0
LINE
  5
944
330
2
100
AcDbEntity
  8
0
100
AcDbLine
 10
532.1905794439
 20
322.9513835609
 30
0.0
 11
532.1905794439
 21
287.4513835609
 31
0.0
  0
LINE
  5
945
330
2
100
AcDbEntity
  8
0
100
AcDbLine
 10
523.2160924439
 20
320.7473735609
 30
0.0
 11
523.2160924439
 21
287.4513835609
 31
0.0
  0
LINE
  5
946
330
2
100
AcDbEntity
  8
0
100
AcDbLine
 10
507.5580724439
 20
327.9513835609
 30
0.0
 11
508.2649814439
 21
287.4513835609
 31
0.0
  0
LINE
  5
947
330
2
100
AcDbEntity
  8
CENTER
100
AcDbLine
 10
514.5580724439
 20
284.0924665609
 30
0.0
 11
514.5580724439
 21
371.7674845609
 31
0.0
  0
LINE
  5
948
330
2
100
AcDbEntity
  8
CENTER
100
AcDbLine
 10
546.5580724439
 20
400.8229355609
 30
0.0
 11
546.5580724439
 21
255.0798315609
 31
0.0
  0
LINE
  5
94A
330
2
100
AcDbEntity
  8
HIDS
100
AcDbLine
 10
354.5580724439
 20
160.43123546
 30
0.0
 11
387.0580724439
 21
160.43123546
 31
0.0
  0
LINE
  5
94B
330
2
100
AcDbEntity
  8
HIDS
100
AcDbLine
 10
354.5580724439
 20
168.43123546
 30
0.0
 11
387.0580724439
 21
168.43123546
 31
0.0
  0
LINE
  5
94C
330
2
100
AcDbEntity
  8
0
100
AcDbLine
 10
355.8560764439
 20
141.88658846
 30
0.0
 11
387.0580724439
 21
142.43123546
 31
0.0
  0
LINE
  5
94D
330
2
100
AcDbEntity
  8
0
100
AcDbLine
 10
353.5231604439
 20
145.84587746
 30
0.0
 11
387.0580724439
 21
146.43123546
 31
0.0
  0
LINE
  5
94E
330
2
100
AcDbEntity
  8
0
100
AcDbLine
 10
355.8560764439
 20
119.97588246
 30
0.0
 11
387.0580724439
 21
119.43123546
 31
0.0
  0
LINE
  5
94F
330
2
100
AcDbEntity
  8
0
100
AcDbLine
 10
353.5231604439
 20
116.01659346
 30
0.0
 11
387.0580724439
 21
115.43123546
 31
0.0
  0
LINE
  5
950
330
2
100
AcDbEntity
  8
0
100
AcDbLine
 10
346.5580724439
 20
171.43123546
 30
0.0
 11
387.0580724439
 21
170.72429546
 31
0.0
  0
LINE
  5
951
330
2
100
AcDbEntity
  8
0
100
AcDbLine
 10
353.8909884439
 20
139.88689346
 30
0.0
 11
353.8909884439
 21
121.97557746
 31
0.0
  0
LINE
  5
952
330
2
100
AcDbEntity
  8
0
100
AcDbLine
 10
339.2251564439
 20
140.10509446
 30
0.0
 11
339.2251564439
 21
121.75737646
 31
0.0
  0
LINE
  5
953
330
2
100
AcDbEntity
  8
0
100
AcDbLine
 10
341.5580724439
 20
117.79808746
 30
0.0
 11
341.5580724439
 21
144.06438346
 31
0.0
  0
LINE
  5
954
330
2
100
AcDbEntity
  8
0
100
AcDbLine
 10
351.5580724439
 20
143.84618346
 30
0.0
 11
351.5580724439
 21
118.01628746
 31
0.0
  0
ARC
  5
955
330
2
100
AcDbEntity
  8
0
100
AcDbCircle
 10
339.5580724439
 20
117.79808746
 30
0.0
 40
2.0
100
AcDbArc
 50
271.0
 51
0.0
  0
ARC
  5
956
330
2
100
AcDbEntity
  8
0
100
AcDbCircle
 10
337.2251564439
 20
121.75737646
 30
0.0
 40
2.0
100
AcDbArc
 50
271.0
 51
0.0
  0
LINE
  5
957
330
2
100
AcDbEntity
  8
0
100
AcDbLine
 10
341.1292084439
 20
116.56053846
 30
0.0
 11
338.7962924439
 21
120.51982846
 31
0.0
  0
ARC
  5
958
330
2
100
AcDbEntity
  8
0
100
AcDbCircle
 10
355.8909884439
 20
121.97557746
 30
0.0
 40
2.0
100
AcDbArc
 50
180.0
 51
269.0
  0
ARC
  5
959
330
2
100
AcDbEntity
  8
0
100
AcDbCircle
 10
353.5580724439
 20
118.01628746
 30
0.0
 40
2.0
100
AcDbArc
 50
180.0
 51
269.0
  0
LINE
  5
95A
330
2
100
AcDbEntity
  8
0
100
AcDbLine
 10
354.3198524439
 20
120.73802846
 30
0.0
 11
351.9869364439
 21
116.77873946
 31
0.0
  0
ARC
  5
95B
330
2
100
AcDbEntity
  8
0
100
AcDbCircle
 10
339.5580724439
 20
144.06438346
 30
0.0
 40
2.0
100
AcDbArc
 50
0.0
 51
89.0
  0
LINE
  5
95C
330
2
100
AcDbEntity
  8
0
100
AcDbLine
 10
338.7962924439
 20
141.34264246
 30
0.0
 11
341.1292084439
 21
145.30193246
 31
0.0
  0
ARC
  5
95D
330
2
100
AcDbEntity
  8
0
100
AcDbCircle
 10
337.2251564439
 20
140.10509446
 30
0.0
 40
2.0
100
AcDbArc
 50
0.0
 51
89.0
  0
ARC
  5
95E
330
2
100
AcDbEntity
  8
0
100
AcDbCircle
 10
353.5580724439
 20
143.84618346
 30
0.0
 40
2.0
100
AcDbArc
 50
91.0
 51
180.0
  0
LINE
  5
95F
330
2
100
AcDbEntity
  8
0
100
AcDbLine
 10
354.3198524439
 20
141.12447246
 30
0.0
 11
351.9869364439
 21
145.08373146
 31
0.0
  0
ARC
  5
960
330
2
100
AcDbEntity
  8
0
100
AcDbCircle
 10
355.8909884439
 20
139.88689346
 30
0.0
 40
2.0
100
AcDbArc
 50
91.0
 51
180.0
  0
LINE
  5
962
330
2
100
AcDbEntity
  8
HIDS
100
AcDbLine
 10
367.5929844439
 20
168.56407846
 30
0.0
 11
346.5580724439
 21
168.93123546
 31
0.0
  0
LINE
  5
964
330
2
100
AcDbEntity
  8
HIDS
100
AcDbLine
 10
338.5580724439
 20
168.43123546
 30
0.0
 11
338.5580724439
 21
160.43123546
 31
0.0
  0
LINE
  5
967
330
2
100
AcDbEntity
  8
HIDS
100
AcDbLine
 10
354.5580724439
 20
168.43123546
 30
0.0
 11
354.5580724439
 21
160.43123546
 31
0.0
  0
LINE
  5
96C
330
2
100
AcDbEntity
  8
HIDS
100
AcDbLine
 10
369.5580724439
 20
166.56438346
 30
0.0
 11
369.5580724439
 21
162.63295646
 31
0.0
  0
ARC
  5
96F
330
2
100
AcDbEntity
  8
HIDS
100
AcDbCircle
 10
372.5580724439
 20
162.63295646
 30
0.0
 40
3.0
100
AcDbArc
 50
180.0
 51
230.643295
  0
ARC
  5
970
330
2
100
AcDbEntity
  8
HIDS
100
AcDbCircle
 10
367.5580724439
 20
166.56438346
 30
0.0
 40
2.0
100
AcDbArc
 50
0.0
 51
89.0
  0
LINE
  5
974
330
2
100
AcDbEntity
  8
0
100
AcDbLine
 10
388.0580724439
 20
123.11989546
 30
0.0
 11
388.0580724439
 21
138.74257546
 31
0.0
  0
ARC
  5
975
330
2
100
AcDbEntity
  8
0
100
AcDbCircle
 10
393.5580724439
 20
130.93123546
 30
0.0
 40
2.5
100
AcDbArc
 50
90.0
 51
270.0
  0
LINE
  5
976
330
2
100
AcDbEntity
  8
0
100
AcDbLine
 10
415.0580724439
 20
138.43123546
 30
0.0
 11
415.0580724439
 21
123.43123546
 31
0.0
  0
LINE
  5
977
330
2
100
AcDbEntity
  8
0
100
AcDbLine
 10
415.0580724439
 20
128.43123546
 30
0.0
 11
393.5580724439
 21
128.43123546
 31
0.0
  0
LINE
  5
978
330
2
100
AcDbEntity
  8
0
100
AcDbLine
 10
415.0580724439
 20
123.43123546
 30
0.0
 11
388.0580724439
 21
123.43123546
 31
0.0
  0
ARC
  5
979
330
2
100
AcDbEntity
  8
0
100
AcDbCircle
 10
387.5580724439
 20
123.11989546
 30
0.0
 40
0.5
100
AcDbArc
 50
300.0
 51
0.0
  0
LINE
  5
97A
330
2
100
AcDbEntity
  8
0
100
AcDbLine
 10
387.2806374439
 20
122.43123546
 30
0.0
 11
387.0580724439
 21
122.43123546
 31
0.0
  0
ARC
  5
97B
330
2
100
AcDbEntity
  8
0
100
AcDbCircle
 10
386.6561554439
 20
124.33122946
 30
0.0
 40
2.0
100
AcDbArc
 50
288.19487
 51
300.0
  0
LINE
  5
97C
330
2
100
AcDbEntity
  8
0
100
AcDbLine
 10
387.8080724439
 20
122.68691146
 30
0.0
 11
387.6561554439
 21
122.59917346
 31
0.0
  0
LINE
  5
97D
330
2
100
AcDbEntity
  8
0
100
AcDbLine
 10
415.0580724439
 20
133.43123546
 30
0.0
 11
393.5580724439
 21
133.43123546
 31
0.0
  0
LINE
  5
97E
330
2
100
AcDbEntity
  8
0
100
AcDbLine
 10
415.0580724439
 20
138.43123546
 30
0.0
 11
388.0580724439
 21
138.43123546
 31
0.0
  0
LINE
  5
97F
330
2
100
AcDbEntity
  8
0
100
AcDbLine
 10
387.2806374439
 20
139.43123546
 30
0.0
 11
387.0580724439
 21
139.43123546
 31
0.0
  0
ARC
  5
980
330
2
100
AcDbEntity
  8
0
100
AcDbCircle
 10
386.6561554439
 20
137.53124146
 30
0.0
 40
2.0
100
AcDbArc
 50
60.0
 51
71.80513
  0
ARC
  5
981
330
2
100
AcDbEntity
  8
0
100
AcDbCircle
 10
387.5580724439
 20
138.74257546
 30
0.0
 40
0.5
100
AcDbArc
 50
0.0
 51
60.0
  0
LINE
  5
982
330
2
100
AcDbEntity
  8
0
100
AcDbLine
 10
387.8080724439
 20
139.17555946
 30
0.0
 11
387.6561554439
 21
139.26329746
 31
0.0
  0
LINE
  5
983
330
2
100
AcDbEntity
  8
0
100
AcDbLine
 10
522.0765664439
 20
150.12966046
 30
0.0
 11
531.0765664439
 21
160.62966046
 31
0.0
  0
LINE
  5
984
330
2
100
AcDbEntity
  8
0
100
AcDbLine
 10
521.1567054439
 20
152.12966046
 30
0.0
 11
529.0765664439
 21
161.36949846
 31
0.0
  0
CIRCLE
  5
985
330
2
100
AcDbEntity
  8
0
100
AcDbCircle
 10
546.5580724439
 20
130.93123546
 30
0.0
 40
15.0
  0
LINE
  5
986
330
2
100
AcDbEntity
  8
0
100
AcDbLine
 10
516.5580724439
 20
144.43123546
 30
0.0
 11
516.5580724439
 21
117.43123546
 31
0.0
  0
LINE
  5
987
330
2
100
AcDbEntity
  8
0
100
AcDbLine
 10
511.5580724439
 20
120.25966546
 30
0.0
 11
511.5580724439
 21
141.60280546
 31
0.0
  0
LINE
  5
988
330
2
100
AcDbEntity
  8
0
100
AcDbLine
 10
520.5580724439
 20
112.43123546
 30
0.0
 11
518.7843294439
 21
112.43123546
 31
0.0
  0
ARC
  5
989
330
2
100
AcDbEntity
  8
0
100
AcDbCircle
 10
509.5580724439
 20
120.25966546
 30
0.0
 40
2.0
100
AcDbArc
 50
315.0
 51
0.0
  0
ARC
  5
98A
330
2
100
AcDbEntity
  8
0
100
AcDbCircle
 10
509.5580724439
 20
114.60280546
 30
0.0
 40
2.0
100
AcDbArc
 50
135.0
 51
180.0
  0
LINE
  5
98B
330
2
100
AcDbEntity
  8
0
100
AcDbLine
 10
510.9722574439
 20
118.84545046
 30
0.0
 11
508.1438874439
 21
116.01702046
 31
0.0
  0
LINE
  5
98C
330
2
100
AcDbEntity
  8
0
100
AcDbLine
 10
520.5580724439
 20
149.43123546
 30
0.0
 11
518.7843294439
 21
149.43123546
 31
0.0
  0
ARC
  5
98D
330
2
100
AcDbEntity
  8
0
100
AcDbCircle
 10
519.6382114439
 20
153.43123546
 30
0.0
 40
2.0
100
AcDbArc
 50
270.0
 51
319.398705
  0
LINE
  5
98E
330
2
100
AcDbEntity
  8
0
100
AcDbLine
 10
510.9722574439
 20
143.01702046
 30
0.0
 11
508.1438874439
 21
145.84545046
 31
0.0
  0
ARC
  5
98F
330
2
100
AcDbEntity
  8
0
100
AcDbCircle
 10
509.5580724439
 20
141.60280546
 30
0.0
 40
2.0
100
AcDbArc
 50
0.0
 51
45.0
  0
ARC
  5
990
330
2
100
AcDbEntity
  8
0
100
AcDbCircle
 10
509.5580724439
 20
147.25966546
 30
0.0
 40
2.0
100
AcDbArc
 50
180.0
 51
225.0
  0
ARC
  5
991
330
2
100
AcDbEntity
  8
0
100
AcDbCircle
 10
538.5580724439
 20
144.43123546
 30
0.0
 40
22.0
100
AcDbArc
 50
165.522491
 51
180.0
  0
ARC
  5
992
330
2
100
AcDbEntity
  8
0
100
AcDbCircle
 10
519.1931434439
 20
149.43123546
 30
0.0
 40
2.0
100
AcDbArc
 50
90.0
 51
165.522491
  0
ARC
  5
993
330
2
100
AcDbEntity
  8
0
100
AcDbCircle
 10
518.7843294439
 20
147.43123546
 30
0.0
 40
2.0
100
AcDbArc
 50
90.0
 51
171.373077
  0
LINE
  5
994
330
2
100
AcDbEntity
  8
0
100
AcDbLine
 10
519.6382114439
 20
151.43123546
 30
0.0
 11
519.1931434439
 21
151.43123546
 31
0.0
  0
LINE
  5
995
330
2
100
AcDbEntity
  8
0
100
AcDbLine
 10
521.3937654439
 20
149.61421846
 30
0.0
 11
520.4739054439
 21
151.61421846
 31
0.0
  0
ARC
  5
996
330
2
100
AcDbEntity
  8
0
100
AcDbCircle
 10
520.5580724439
 20
151.43123546
 30
0.0
 40
2.0
100
AcDbArc
 50
270.0
 51
319.398705
  0
ARC
  5
997
330
2
100
AcDbEntity
  8
0
100
AcDbCircle
 10
546.5580724439
 20
130.93123546
 30
0.0
 40
7.5
100
AcDbArc
 50
199.471222
 51
160.528778
  0
LINE
  5
998
330
2
100
AcDbEntity
  8
0
100
AcDbLine
 10
542.0580724439
 20
133.43123546
 30
0.0
 11
542.0580724439
 21
128.43123546
 31
0.0
  0
LINE
  5
999
330
2
100
AcDbEntity
  8
0
100
AcDbLine
 10
537.0580724439
 20
133.43123546
 30
0.0
 11
537.0580724439
 21
128.43123546
 31
0.0
  0
ARC
  5
99A
330
2
100
AcDbEntity
  8
0
100
AcDbCircle
 10
546.5580724439
 20
130.93123546
 30
0.0
 40
8.5
100
AcDbArc
 50
197.10463
 51
162.89537
  0
LINE
  5
99B
330
2
100
AcDbEntity
  8
0
100
AcDbLine
 10
542.0580724439
 20
128.43123546
 30
0.0
 11
537.0580724439
 21
128.43123546
 31
0.0
  0
LINE
  5
99C
330
2
100
AcDbEntity
  8
0
100
AcDbLine
 10
542.0580724439
 20
133.43123546
 30
0.0
 11
537.0580724439
 21
133.43123546
 31
0.0
  0
ARC
  5
99D
330
2
100
AcDbEntity
  8
0
100
AcDbCircle
 10
538.5580724439
 20
144.43123546
 30
0.0
 40
22.0
100
AcDbArc
 50
90.0
 51
110.487312
  0
ARC
  5
99E
330
2
100
AcDbEntity
  8
0
100
AcDbCircle
 10
523.3634314439
 20
173.99498646
 30
0.0
 40
6.0
100
AcDbArc
 50
227.364075
 51
300.358307
  0
CIRCLE
  5
9A0
330
2
100
AcDbEntity
  8
HOJO
100
AcDbCircle
 10
514.5580724439
 20
164.43123546
 30
0.0
 40
4.0
  0
ARC
  5
9A1
330
2
100
AcDbEntity
  8
0
100
AcDbCircle
 10
514.5580724439
 20
164.43123546
 30
0.0
 40
7.0
100
AcDbArc
 50
47.364067
 51
180.0
  0
CIRCLE
  5
9A2
330
2
100
AcDbEntity
  8
0
100
AcDbCircle
 10
514.5580724439
 20
164.43123546
 30
0.0
 40
3.2
  0
ARC
  5
9A4
330
2
100
AcDbEntity
  8
0
100
AcDbCircle
 10
531.5580724439
 20
163.16622046
 30
0.0
 40
2.0
100
AcDbArc
 50
110.487312
 51
180.0
  0
ARC
  5
9A5
330
2
100
AcDbEntity
  8
0
100
AcDbCircle
 10
533.5580724439
 20
163.79616446
 30
0.0
 40
2.0
100
AcDbArc
 50
104.477509
 51
180.0
  0
LINE
  5
9A6
330
2
100
AcDbEntity
  8
0
100
AcDbLine
 10
531.4338654439
 20
161.23735746
 30
0.0
 11
529.4338654439
 21
161.97719446
 31
0.0
  0
ARC
  5
9A7
330
2
100
AcDbEntity
  8
0
100
AcDbCircle
 10
527.5580724439
 20
162.67107346
 30
0.0
 40
2.0
100
AcDbArc
 50
319.398705
 51
0.0
  0
ARC
  5
9A8
330
2
100
AcDbEntity
  8
0
100
AcDbCircle
 10
529.5580724439
 20
161.93123546
 30
0.0
 40
2.0
100
AcDbArc
 50
319.398705
 51
0.0
  0
LINE
  5
9A9
330
2
100
AcDbEntity
  8
0
100
AcDbLine
 10
531.5580724439
 20
161.93123546
 30
0.0
 11
531.5580724439
 21
163.79616446
 31
0.0
  0
LINE
  5
9AA
330
2
100
AcDbEntity
  8
0
100
AcDbLine
 10
529.5580724439
 20
162.67107346
 30
0.0
 11
529.5580724439
 21
163.16622046
 31
0.0
  0
ARC
  5
9AB
330
2
100
AcDbEntity
  8
0
100
AcDbCircle
 10
541.5580724439
 20
142.93123546
 30
0.0
 40
30.0
100
AcDbArc
 50
112.331642
 51
120.358299
  0
ARC
  5
9AC
330
2
100
AcDbEntity
  8
0
100
AcDbCircle
 10
533.9587074439
 20
161.43123546
 30
0.0
 40
10.0
100
AcDbArc
 50
90.0
 51
112.331642
  0
LINE
  5
9AD
330
2
100
AcDbEntity
  8
0
100
AcDbLine
 10
539.4870274439
 20
259.4513835609
 30
0.0
 11
539.4870274439
 21
280.9513835609
 31
0.0
  0
LINE
  5
9AE
330
2
100
AcDbEntity
  8
0
100
AcDbLine
 10
537.0580724439
 20
259.4513835609
 30
0.0
 11
537.0580724439
 21
283.4513835609
 31
0.0
  0
LINE
  5
9AF
330
2
100
AcDbEntity
  8
0
100
AcDbLine
 10
554.0580724439
 20
286.4513835609
 30
0.0
 11
554.0580724439
 21
259.4513835609
 31
0.0
  0
LINE
  5
9B0
330
2
100
AcDbEntity
  8
0
100
AcDbLine
 10
537.0580724439
 20
259.4513835609
 30
0.0
 11
554.0580724439
 21
259.4513835609
 31
0.0
  0
LINE
  5
9B1
330
2
100
AcDbEntity
  8
0
100
AcDbLine
 10
538.7467324439
 20
286.4513835609
 30
0.0
 11
554.3694124439
 21
286.4513835609
 31
0.0
  0
LINE
  5
9B2
330
2
100
AcDbEntity
  8
0
100
AcDbLine
 10
538.0580724439
 20
287.2288185609
 30
0.0
 11
538.0580724439
 21
287.4513835609
 31
0.0
  0
ARC
  5
9B3
330
2
100
AcDbEntity
  8
0
100
AcDbCircle
 10
539.9580964439
 20
287.8533005609
 30
0.0
 40
2.0
100
AcDbArc
 50
198.19487
 51
210.0
  0
ARC
  5
9B4
330
2
100
AcDbEntity
  8
0
100
AcDbCircle
 10
538.7467324439
 20
286.9513835609
 30
0.0
 40
0.5
100
AcDbArc
 50
210.0
 51
270.0
  0
LINE
  5
9B5
330
2
100
AcDbEntity
  8
0
100
AcDbLine
 10
538.3137484439
 20
286.7013835609
 30
0.0
 11
538.2260414439
 21
286.8533005609
 31
0.0
  0
ARC
  5
9B6
330
2
100
AcDbEntity
  8
0
100
AcDbCircle
 10
531.9870274439
 20
280.9513835609
 30
0.0
 40
7.500003999999997
100
AcDbArc
 50
0.0
 51
19.471212
  0
LINE
  5
9B7
330
2
100
AcDbEntity
  8
0
100
AcDbLine
 10
539.0580724439
 20
283.4513835609
 30
0.0
 11
539.0580724439
 21
286.4513835609
 31
0.0
  0
LINE
  5
9B8
330
2
100
AcDbEntity
  8
0
100
AcDbLine
 10
537.0580724439
 20
283.4513835609
 30
0.0
 11
539.0580724439
 21
283.4513835609
 31
0.0
  0
LINE
  5
9B9
330
2
100
AcDbEntity
  8
0
100
AcDbLine
 10
555.0580724439
 20
287.2288185609
 30
0.0
 11
555.0580724439
 21
287.4513835609
 31
0.0
  0
ARC
  5
9BA
330
2
100
AcDbEntity
  8
0
100
AcDbCircle
 10
553.1580484439
 20
287.8533005609
 30
0.0
 40
2.0
100
AcDbArc
 50
330.0
 51
341.805128
  0
ARC
  5
9BB
330
2
100
AcDbEntity
  8
0
100
AcDbCircle
 10
554.3694124439
 20
286.9513835609
 30
0.0
 40
0.5
100
AcDbArc
 50
270.0
 51
330.0
  0
LINE
  5
9BC
330
2
100
AcDbEntity
  8
0
100
AcDbLine
 10
554.8023964439
 20
286.7013835609
 30
0.0
 11
554.8901034439
 21
286.8533005609
 31
0.0
  0
LINE
  5
9BD
330
2
100
AcDbEntity
  8
0
100
AcDbLine
 10
539.4870274439
 20
396.4513835609
 30
0.0
 11
539.4870274439
 21
374.9513835609
 31
0.0
  0
LINE
  5
9BE
330
2
100
AcDbEntity
  8
0
100
AcDbLine
 10
537.0580724439
 20
396.4513835609
 30
0.0
 11
537.0580724439
 21
372.4513835609
 31
0.0
  0
LINE
  5
9BF
330
2
100
AcDbEntity
  8
0
100
AcDbLine
 10
554.0580724439
 20
369.4513835609
 30
0.0
 11
554.0580724439
 21
396.4513835609
 31
0.0
  0
LINE
  5
9C0
330
2
100
AcDbEntity
  8
HIDS
100
AcDbLine
 10
510.5580724439
 20
355.9513835609
 30
0.0
 11
510.5580724439
 21
335.9513835609
 31
0.0
  0
LINE
  5
9C1
330
2
100
AcDbEntity
  8
HIDS
100
AcDbLine
 10
518.5580724439
 20
355.9513835609
 30
0.0
 11
518.5580724439
 21
335.9513835609
 31
0.0
  0
LINE
  5
9C2
330
2
100
AcDbEntity
  8
0
100
AcDbLine
 10
523.2160924439
 20
368.4513835609
 30
0.0
 11
523.2160924439
 21
335.1553935609
 31
0.0
  0
LINE
  5
9C3
330
2
100
AcDbEntity
  8
0
100
AcDbLine
 10
532.1905794439
 20
368.4513835609
 30
0.0
 11
532.1905794439
 21
332.9513835609
 31
0.0
  0
LINE
  5
9C4
330
2
100
AcDbEntity
  8
0
100
AcDbLine
 10
507.5580724439
 20
327.9513835609
 30
0.0
 11
508.2649814439
 21
368.4513835609
 31
0.0
  0
ARC
  5
9C5
330
2
100
AcDbEntity
  8
0
100
AcDbCircle
 10
523.2160924439
 20
331.7473735609
 30
0.0
 40
11.0
100
AcDbArc
 50
244.282272
 51
291.075317
  0
LINE
  5
9C6
330
2
100
AcDbEntity
  8
0
100
AcDbLine
 10
532.1905794439
 20
322.9513835609
 30
0.0
 11
514.6453524439
 21
322.9513835609
 31
0.0
  0
ARC
  5
9C7
330
2
100
AcDbEntity
  8
0
100
AcDbCircle
 10
523.2160924439
 20
324.1553935609
 30
0.0
 40
11.0
100
AcDbArc
 50
68.924667
 51
115.717728
  0
LINE
  5
9C8
330
2
100
AcDbEntity
  8
0
100
AcDbLine
 10
532.1905794439
 20
332.9513835609
 30
0.0
 11
514.6453524439
 21
332.9513835609
 31
0.0
  0
LINE
  5
9C9
330
2
100
AcDbEntity
  8
HIDS
100
AcDbLine
 10
510.5580724439
 20
319.9513835609
 30
0.0
 11
518.5580724439
 21
319.9513835609
 31
0.0
  0
LINE
  5
9CA
330
2
100
AcDbEntity
  8
0
100
AcDbLine
 10
518.4427774439
 20
321.8370035609
 30
0.0
 11
517.4659704439
 21
322.3075235609
 31
0.0
  0
ARC
  5
9CB
330
2
100
AcDbEntity
  8
0
100
AcDbCircle
 10
514.6453524439
 20
316.4513835609
 30
0.0
 40
6.5
100
AcDbArc
 50
64.282272
 51
90.0
  0
LINE
  5
9CC
330
2
100
AcDbEntity
  8
HIDS
100
AcDbLine
 10
510.5580724439
 20
335.9513835609
 30
0.0
 11
518.5580724439
 21
335.9513835609
 31
0.0
  0
LINE
  5
9CD
330
2
100
AcDbEntity
  8
0
100
AcDbLine
 10
518.4427774439
 20
334.0657635609
 30
0.0
 11
517.4659704439
 21
333.5952435609
 31
0.0
  0
ARC
  5
9CE
330
2
100
AcDbEntity
  8
0
100
AcDbCircle
 10
514.6453524439
 20
339.4513835609
 30
0.0
 40
6.5
100
AcDbArc
 50
270.0
 51
295.717728
  0
ARC
  5
9CF
330
2
100
AcDbEntity
  8
0
100
AcDbCircle
 10
532.1905794439
 20
316.4513835609
 30
0.0
 40
6.5
100
AcDbArc
 50
90.0
 51
111.075333
  0
LINE
  5
9D0
330
2
100
AcDbEntity
  8
0
100
AcDbLine
 10
529.8531774439
 20
322.5165995609
 30
0.0
 11
527.1716584439
 21
321.4831825609
 31
0.0
  0
ARC
  5
9D1
330
2
100
AcDbEntity
  8
0
100
AcDbCircle
 10
532.1905794439
 20
339.4513835609
 30
0.0
 40
6.5
100
AcDbArc
 50
248.924667
 51
270.0
  0
LINE
  5
9D2
330
2
100
AcDbEntity
  8
0
100
AcDbLine
 10
529.8531774439
 20
333.3861675609
 30
0.0
 11
527.1716584439
 21
334.4195845609
 31
0.0
  0
LINE
  5
9D3
330
2
100
AcDbEntity
  8
HIDS
100
AcDbLine
 10
518.8080724439
 20
355.9513835609
 30
0.0
 11
518.8080724439
 21
368.4513835609
 31
0.0
  0
LINE
  5
9D4
330
2
100
AcDbEntity
  8
HIDS
100
AcDbLine
 10
510.3080724439
 20
355.9513835609
 30
0.0
 11
510.3080724439
 21
368.4513835609
 31
0.0
  0
LINE
  5
9D5
330
2
100
AcDbEntity
  8
0
100
AcDbLine
 10
554.3694124439
 20
369.4513835609
 30
0.0
 11
538.7467324439
 21
369.4513835609
 31
0.0
  0
ARC
  5
9D6
330
2
100
AcDbEntity
  8
0
100
AcDbCircle
 10
531.9870274439
 20
374.9513835609
 30
0.0
 40
7.500003999999997
100
AcDbArc
 50
340.528788
 51
0.0
  0
LINE
  5
9D7
330
2
100
AcDbEntity
  8
0
100
AcDbLine
 10
538.0580724439
 20
368.4513835609
 30
0.0
 11
538.0580724439
 21
368.6739485609
 31
0.0
  0
ARC
  5
9D8
330
2
100
AcDbEntity
  8
0
100
AcDbCircle
 10
538.7467324439
 20
368.9513835609
 30
0.0
 40
0.5
100
AcDbArc
 50
90.0
 51
150.0
  0
LINE
  5
9D9
330
2
100
AcDbEntity
  8
0
100
AcDbLine
 10
538.3137484439
 20
369.2013835609
 30
0.0
 11
538.2260414439
 21
369.0494665609
 31
0.0
  0
ARC
  5
9DA
330
2
100
AcDbEntity
  8
0
100
AcDbCircle
 10
539.9580964439
 20
368.0494665609
 30
0.0
 40
2.0
100
AcDbArc
 50
150.0
 51
161.80513
  0
LINE
  5
9DB
330
2
100
AcDbEntity
  8
0
100
AcDbLine
 10
539.0580724439
 20
372.4513835609
 30
0.0
 11
539.0580724439
 21
369.4513835609
 31
0.0
  0
LINE
  5
9DC
330
2
100
AcDbEntity
  8
0
100
AcDbLine
 10
537.0580724439
 20
372.4513835609
 30
0.0
 11
539.0580724439
 21
372.4513835609
 31
0.0
  0
LINE
  5
9DD
330
2
100
AcDbEntity
  8
0
100
AcDbLine
 10
555.0580724439
 20
368.4513835609
 30
0.0
 11
555.0580724439
 21
368.6739485609
 31
0.0
  0
ARC
  5
9DE
330
2
100
AcDbEntity
  8
0
100
AcDbCircle
 10
553.1580484439
 20
368.0494665609
 30
0.0
 40
2.0
100
AcDbArc
 50
18.194872
 51
30.0
  0
LINE
  5
9DF
330
2
100
AcDbEntity
  8
0
100
AcDbLine
 10
554.8023964439
 20
369.2013835609
 30
0.0
 11
554.8901034439
 21
369.0494665609
 31
0.0
  0
ARC
  5
9E0
330
2
100
AcDbEntity
  8
0
100
AcDbCircle
 10
554.3694124439
 20
368.9513835609
 30
0.0
 40
0.5
100
AcDbArc
 50
30.0
 51
90.0
  0
LINE
  5
9E1
330
2
100
AcDbEntity
  8
0
100
AcDbLine
 10
537.0580724439
 20
396.4513835609
 30
0.0
 11
554.0580724439
 21
396.4513835609
 31
0.0
  0
LINE
  5
9E2
330
2
100
AcDbEntity
  8
HIDS
100
AcDbLine
 10
604.5580724439
 20
287.4513835609
 30
0.0
 11
604.5580724439
 21
319.9513835609
 31
0.0
  0
LINE
  5
9E3
330
2
100
AcDbEntity
  8
HIDS
100
AcDbLine
 10
596.5580724439
 20
287.4513835609
 30
0.0
 11
596.5580724439
 21
319.9513835609
 31
0.0
  0
LINE
  5
9E6
330
2
100
AcDbEntity
  8
0
100
AcDbLine
 10
700.6135534439
 20
362.9513835609
 30
0.0
 11
700.6135534439
 21
292.9513835609
 31
0.0
  0
LINE
  5
9E7
330
2
100
AcDbEntity
  8
0
100
AcDbLine
 10
701.1135534439
 20
359.9513835609
 30
0.0
 11
701.1135534439
 21
295.9513835609
 31
0.0
  0
LINE
  5
9E8
330
2
100
AcDbEntity
  8
0
100
AcDbLine
 10
591.9000524439
 20
320.7473735609
 30
0.0
 11
591.9000524439
 21
287.4513835609
 31
0.0
  0
LINE
  5
9E9
330
2
100
AcDbEntity
  8
0
100
AcDbLine
 10
582.9255654439
 20
322.9513835609
 30
0.0
 11
582.9255654439
 21
287.4513835609
 31
0.0
  0
LINE
  5
9EA
330
2
100
AcDbEntity
  8
0
100
AcDbLine
 10
606.8511634439
 20
287.4513835609
 30
0.0
 11
607.1565834439
 21
304.9513835609
 31
0.0
  0
LINE
  5
9EB
330
2
100
AcDbEntity
  8
CENTER
100
AcDbLine
 10
600.5580724439
 20
284.0924665609
 30
0.0
 11
600.5580724439
 21
371.7674845609
 31
0.0
  0
LINE
  5
9EC
330
2
100
AcDbEntity
  8
0
100
AcDbLine
 10
680.6135534439
 20
289.9513835609
 30
0.0
 11
680.6135534439
 21
302.9513835609
 31
0.0
  0
LINE
  5
9ED
330
2
100
AcDbEntity
  8
0
100
AcDbLine
 10
699.0319494439
 20
161.18022846
 30
0.0
 11
680.6135534439
 21
161.18022846
 31
0.0
  0
LINE
  5
9EE
330
2
100
AcDbEntity
  8
0
100
AcDbLine
 10
697.1495034439
 20
168.93123546
 30
0.0
 11
680.6135534439
 21
168.93123546
 31
0.0
  0
LINE
  5
9EF
330
2
100
AcDbEntity
  8
0
100
AcDbLine
 10
697.1495034439
 20
289.9513835609
 30
0.0
 11
680.6135534439
 21
289.9513835609
 31
0.0
  0
LINE
  5
9F2
330
2
100
AcDbEntity
  8
0
100
AcDbLine
 10
680.6135534439
 20
161.18019746
 30
0.0
 11
607.5580724439
 21
161.18019746
 31
0.0
  0
LINE
  5
9F3
330
2
100
AcDbEntity
  8
0
100
AcDbLine
 10
680.6135534439
 20
168.93123546
 30
0.0
 11
608.9168374439
 21
168.93123546
 31
0.0
  0
LINE
  5
9F4
330
2
100
AcDbEntity
  8
0
100
AcDbLine
 10
593.0395784439
 20
150.12966046
 30
0.0
 11
584.0395784439
 21
160.62966046
 31
0.0
  0
LINE
  5
9F5
330
2
100
AcDbEntity
  8
0
100
AcDbLine
 10
593.9594394439
 20
152.12966046
 30
0.0
 11
586.0395784439
 21
161.36949846
 31
0.0
  0
LINE
  5
9F6
330
2
100
AcDbEntity
  8
0
100
AcDbLine
 10
607.5580724439
 20
164.43123546
 30
0.0
 11
607.5580724439
 21
147.25966546
 31
0.0
  0
LINE
  5
9F7
330
2
100
AcDbEntity
  8
0
100
AcDbLine
 10
593.7223794439
 20
149.61421846
 30
0.0
 11
594.6422394439
 21
151.61421846
 31
0.0
  0
ARC
  5
9F8
330
2
100
AcDbEntity
  8
0
100
AcDbCircle
 10
594.5580724439
 20
151.43123546
 30
0.0
 40
2.0
100
AcDbArc
 50
220.601288
 51
270.0
  0
ARC
  5
9F9
330
2
100
AcDbEntity
  8
0
100
AcDbCircle
 10
595.4779334439
 20
153.43123546
 30
0.0
 40
2.0
100
AcDbArc
 50
220.601288
 51
270.0
  0
LINE
  5
9FA
330
2
100
AcDbEntity
  8
0
100
AcDbLine
 10
598.5580724439
 20
144.43123546
 30
0.0
 11
598.5580724439
 21
117.43123546
 31
0.0
  0
LINE
  5
9FB
330
2
100
AcDbEntity
  8
0
100
AcDbLine
 10
603.5580724439
 20
120.25966546
 30
0.0
 11
603.5580724439
 21
141.60280546
 31
0.0
  0
LINE
  5
9FC
330
2
100
AcDbEntity
  8
0
100
AcDbLine
 10
594.5580724439
 20
112.43123546
 30
0.0
 11
596.3318154439
 21
112.43123546
 31
0.0
  0
ARC
  5
9FD
330
2
100
AcDbEntity
  8
0
100
AcDbCircle
 10
605.5580724439
 20
120.25966546
 30
0.0
 40
2.0
100
AcDbArc
 50
180.0
 51
225.0
  0
ARC
  5
9FE
330
2
100
AcDbEntity
  8
0
100
AcDbCircle
 10
605.5580724439
 20
114.60280546
 30
0.0
 40
2.0
100
AcDbArc
 50
0.0
 51
45.0
  0
LINE
  5
9FF
330
2
100
AcDbEntity
  8
0
100
AcDbLine
 10
604.1438874439
 20
118.84545046
 30
0.0
 11
606.9722574439
 21
116.01702046
 31
0.0
  0
LINE
  5
A00
330
2
100
AcDbEntity
  8
0
100
AcDbLine
 10
604.1438874439
 20
143.01702046
 30
0.0
 11
606.9722574439
 21
145.84545046
 31
0.0
  0
ARC
  5
A01
330
2
100
AcDbEntity
  8
0
100
AcDbCircle
 10
605.5580724439
 20
141.60280546
 30
0.0
 40
2.0
100
AcDbArc
 50
135.0
 51
180.0
  0
ARC
  5
A02
330
2
100
AcDbEntity
  8
0
100
AcDbCircle
 10
576.5580724439
 20
144.43123546
 30
0.0
 40
22.0
100
AcDbArc
 50
0.0
 51
14.477512
  0
ARC
  5
A03
330
2
100
AcDbEntity
  8
0
100
AcDbCircle
 10
595.9230014439
 20
149.43123546
 30
0.0
 40
2.0
100
AcDbArc
 50
14.477512
 51
90.0
  0
ARC
  5
A04
330
2
100
AcDbEntity
  8
0
100
AcDbCircle
 10
596.3318154439
 20
147.43123546
 30
0.0
 40
2.0
100
AcDbArc
 50
8.626927
 51
90.0
  0
LINE
  5
A05
330
2
100
AcDbEntity
  8
0
100
AcDbLine
 10
595.4779334439
 20
151.43123546
 30
0.0
 11
595.9230014439
 21
151.43123546
 31
0.0
  0
LINE
  5
A06
330
2
100
AcDbEntity
  8
0
100
AcDbLine
 10
594.5580724439
 20
149.43123546
 30
0.0
 11
596.3318154439
 21
149.43123546
 31
0.0
  0
ARC
  5
A07
330
2
100
AcDbEntity
  8
0
100
AcDbCircle
 10
605.5580724439
 20
147.25966546
 30
0.0
 40
2.0
100
AcDbArc
 50
315.0
 51
0.0
  0
ARC
  5
A08
330
2
100
AcDbEntity
  8
0
100
AcDbCircle
 10
591.7527134439
 20
173.99498646
 30
0.0
 40
6.0
100
AcDbArc
 50
239.641693
 51
312.635925
  0
ARC
  5
A0A
330
2
100
AcDbEntity
  8
0
100
AcDbCircle
 10
576.5580724439
 20
144.43123546
 30
0.0
 40
22.0
100
AcDbArc
 50
69.512688
 51
90.0
  0
ARC
  5
A0B
330
2
100
AcDbEntity
  8
0
100
AcDbCircle
 10
583.5580724439
 20
163.16622046
 30
0.0
 40
2.0
100
AcDbArc
 50
0.0
 51
69.512688
  0
ARC
  5
A0C
330
2
100
AcDbEntity
  8
0
100
AcDbCircle
 10
581.5580724439
 20
163.79616446
 30
0.0
 40
2.0
100
AcDbArc
 50
0.0
 51
75.522491
  0
LINE
  5
A0D
330
2
100
AcDbEntity
  8
0
100
AcDbLine
 10
583.6822794439
 20
161.23735746
 30
0.0
 11
585.6822794439
 21
161.97719446
 31
0.0
  0
ARC
  5
A0E
330
2
100
AcDbEntity
  8
0
100
AcDbCircle
 10
587.5580724439
 20
162.67107346
 30
0.0
 40
2.0
100
AcDbArc
 50
180.0
 51
220.601288
  0
ARC
  5
A0F
330
2
100
AcDbEntity
  8
0
100
AcDbCircle
 10
585.5580724439
 20
161.93123546
 30
0.0
 40
2.0
100
AcDbArc
 50
180.0
 51
220.601288
  0
LINE
  5
A10
330
2
100
AcDbEntity
  8
0
100
AcDbLine
 10
583.5580724439
 20
161.93123546
 30
0.0
 11
583.5580724439
 21
163.79616446
 31
0.0
  0
LINE
  5
A11
330
2
100
AcDbEntity
  8
0
100
AcDbLine
 10
585.5580724439
 20
162.67107346
 30
0.0
 11
585.5580724439
 21
163.16622046
 31
0.0
  0
ARC
  5
A12
330
2
100
AcDbEntity
  8
0
100
AcDbCircle
 10
573.5580724439
 20
142.93123546
 30
0.0
 40
30.0
100
AcDbArc
 50
59.641697
 51
67.668358
  0
ARC
  5
A13
330
2
100
AcDbEntity
  8
0
100
AcDbCircle
 10
581.1574374439
 20
161.43123546
 30
0.0
 40
10.0
100
AcDbArc
 50
67.668358
 51
90.0
  0
ARC
  5
A14
330
2
100
AcDbEntity
  8
0
100
AcDbCircle
 10
608.9168374439
 20
170.93123546
 30
0.0
 40
2.0
100
AcDbArc
 50
249.66127
 51
270.0
  0
ARC
  5
A15
330
2
100
AcDbEntity
  8
0
100
AcDbCircle
 10
600.5580724439
 20
164.43123546
 30
0.0
 40
7.0
100
AcDbArc
 50
0.0
 51
132.635925
  0
CIRCLE
  5
A16
330
2
100
AcDbEntity
  8
HOJO
100
AcDbCircle
 10
600.5580724439
 20
164.43123546
 30
0.0
 40
4.0
  0
CIRCLE
  5
A17
330
2
100
AcDbEntity
  8
0
100
AcDbCircle
 10
600.5580724439
 20
164.43123546
 30
0.0
 40
3.2
  0
LINE
  5
A19
330
2
100
AcDbEntity
  8
0
100
AcDbLine
 10
608.2217074439
 20
169.05593046
 30
0.0
 11
602.9910554439
 21
170.99480346
 31
0.0
  0
LINE
  5
A1F
330
2
100
AcDbEntity
  8
0
100
AcDbLine
 10
608.8601964439
 20
289.9513835609
 30
0.0
 11
680.6135534439
 21
289.9513835609
 31
0.0
  0
ARC
  5
A20
330
2
100
AcDbEntity
  8
0
100
AcDbCircle
 10
608.8601964439
 20
287.9513835609
 30
0.0
 40
2.0
100
AcDbArc
 50
90.0
 51
179.0
  0
ARC
  5
A23
330
2
100
AcDbEntity
  8
0
100
AcDbCircle
 10
697.1495034439
 20
165.93126646
 30
0.0
 40
3.0
100
AcDbArc
 50
29.999599
 51
90.0
  0
LINE
  5
A25
330
2
100
AcDbEntity
  8
0
100
AcDbLine
 10
701.1135534439
 20
162.93123546
 30
0.0
 11
700.6135534439
 21
163.43123546
 31
0.0
  0
LINE
  5
A26
330
2
100
AcDbEntity
  8
0
100
AcDbLine
 10
699.7475864439
 20
167.43123546
 30
0.0
 11
700.6135534439
 21
165.93123546
 31
0.0
  0
ARC
  5
A28
330
2
100
AcDbEntity
  8
0
100
AcDbCircle
 10
697.1495034439
 20
292.9513835609
 30
0.0
 40
3.0
100
AcDbArc
 50
270.0
 51
330.000397
  0
LINE
  5
A29
330
2
100
AcDbEntity
  8
0
100
AcDbLine
 10
699.7475864439
 20
291.4513835609
 30
0.0
 11
700.6135534439
 21
292.9513835609
 31
0.0
  0
LINE
  5
A2A
330
2
100
AcDbEntity
  8
0
100
AcDbLine
 10
701.1135534439
 20
295.9513835609
 30
0.0
 11
700.6135534439
 21
295.4513835609
 31
0.0
  0
LINE
  5
A2B
330
2
100
AcDbEntity
  8
0
100
AcDbLine
 10
697.1495034439
 20
365.9513835609
 30
0.0
 11
680.6135534439
 21
365.9513835609
 31
0.0
  0
LINE
  5
A2C
330
2
100
AcDbEntity
  8
0
100
AcDbLine
 10
699.0319494439
 20
304.9513835609
 30
0.0
 11
689.6135534439
 21
304.9513835609
 31
0.0
  0
LINE
  5
A2D
330
2
100
AcDbEntity
  8
0
100
AcDbLine
 10
699.0319494439
 20
350.9513835609
 30
0.0
 11
689.6135534439
 21
350.9513835609
 31
0.0
  0
LINE
  5
A32
330
2
100
AcDbEntity
  8
0
100
AcDbLine
 10
639.6136534439
 20
304.9513835609
 30
0.0
 11
604.5549594439
 21
304.9513835609
 31
0.0
  0
LINE
  5
A33
330
2
100
AcDbEntity
  8
0
100
AcDbLine
 10
639.6136534439
 20
350.9513835609
 30
0.0
 11
604.5549594439
 21
350.9513835609
 31
0.0
  0
LINE
  5
A34
330
2
100
AcDbEntity
  8
0
100
AcDbLine
 10
610.0063754439
 20
365.9513835609
 30
0.0
 11
680.6135534439
 21
365.9513835609
 31
0.0
  0
LINE
  5
A35
330
2
100
AcDbEntity
  8
HIDS
100
AcDbLine
 10
596.5580724439
 20
355.9513835609
 30
0.0
 11
596.5580724439
 21
335.9513835609
 31
0.0
  0
LINE
  5
A36
330
2
100
AcDbEntity
  8
HIDS
100
AcDbLine
 10
604.5580724439
 20
355.9513835609
 30
0.0
 11
604.5580724439
 21
335.9513835609
 31
0.0
  0
LINE
  5
A37
330
2
100
AcDbEntity
  8
0
100
AcDbLine
 10
591.9000524439
 20
368.4513835609
 30
0.0
 11
591.9000524439
 21
335.1553935609
 31
0.0
  0
LINE
  5
A38
330
2
100
AcDbEntity
  8
0
100
AcDbLine
 10
582.9255654439
 20
368.4513835609
 30
0.0
 11
582.9255654439
 21
332.9513835609
 31
0.0
  0
LINE
  5
A39
330
2
100
AcDbEntity
  8
0
100
AcDbLine
 10
602.9910554439
 20
327.9513835609
 30
0.0
 11
602.5552644439
 21
352.9164715609
 31
0.0
  0
LINE
  5
A3A
330
2
100
AcDbEntity
  8
0
100
AcDbLine
 10
608.5580724439
 20
350.9513835609
 30
0.0
 11
608.5580724439
 21
304.9513835609
 31
0.0
  0
ARC
  5
A3B
330
2
100
AcDbEntity
  8
0
100
AcDbCircle
 10
591.9000524439
 20
331.7473735609
 30
0.0
 40
11.0
100
AcDbArc
 50
248.924667
 51
295.717728
  0
LINE
  5
A3C
330
2
100
AcDbEntity
  8
0
100
AcDbLine
 10
582.9255654439
 20
322.9513835609
 30
0.0
 11
600.4707924439
 21
322.9513835609
 31
0.0
  0
ARC
  5
A3D
330
2
100
AcDbEntity
  8
0
100
AcDbCircle
 10
591.9000524439
 20
324.1553935609
 30
0.0
 40
11.0
100
AcDbArc
 50
64.282272
 51
111.075333
  0
LINE
  5
A3E
330
2
100
AcDbEntity
  8
0
100
AcDbLine
 10
582.9255654439
 20
332.9513835609
 30
0.0
 11
600.4707924439
 21
332.9513835609
 31
0.0
  0
LINE
  5
A3F
330
2
100
AcDbEntity
  8
0
100
AcDbLine
 10
585.2629064439
 20
322.5165995609
 30
0.0
 11
587.9444864439
 21
321.4831825609
 31
0.0
  0
ARC
  5
A40
330
2
100
AcDbEntity
  8
0
100
AcDbCircle
 10
582.9255654439
 20
316.4513835609
 30
0.0
 40
6.5
100
AcDbArc
 50
68.924667
 51
90.0
  0
LINE
  5
A41
330
2
100
AcDbEntity
  8
0
100
AcDbLine
 10
585.2629064439
 20
333.3861675609
 30
0.0
 11
587.9444864439
 21
334.4195845609
 31
0.0
  0
ARC
  5
A42
330
2
100
AcDbEntity
  8
0
100
AcDbCircle
 10
582.9255654439
 20
339.4513835609
 30
0.0
 40
6.5
100
AcDbArc
 50
270.0
 51
291.075317
  0
LINE
  5
A43
330
2
100
AcDbEntity
  8
0
100
AcDbLine
 10
602.9910554439
 20
327.9513835609
 30
0.0
 11
602.5552644439
 21
302.9862955609
 31
0.0
  0
ARC
  5
A44
330
2
100
AcDbEntity
  8
0
100
AcDbCircle
 10
604.5549594439
 20
302.9513835609
 30
0.0
 40
2.0
100
AcDbArc
 50
90.0
 51
179.0
  0
LINE
  5
A45
330
2
100
AcDbEntity
  8
HIDS
100
AcDbLine
 10
596.5580724439
 20
319.9513835609
 30
0.0
 11
604.5580724439
 21
319.9513835609
 31
0.0
  0
LINE
  5
A46
330
2
100
AcDbEntity
  8
0
100
AcDbLine
 10
596.6733674439
 20
321.8370035609
 30
0.0
 11
597.6501744439
 21
322.3075235609
 31
0.0
  0
ARC
  5
A47
330
2
100
AcDbEntity
  8
0
100
AcDbCircle
 10
600.4707924439
 20
316.4513835609
 30
0.0
 40
6.5
100
AcDbArc
 50
90.0
 51
115.717728
  0
LINE
  5
A48
330
2
100
AcDbEntity
  8
HIDS
100
AcDbLine
 10
596.5580724439
 20
335.9513835609
 30
0.0
 11
604.5580724439
 21
335.9513835609
 31
0.0
  0
LINE
  5
A49
330
2
100
AcDbEntity
  8
0
100
AcDbLine
 10
596.6733674439
 20
334.0657635609
 30
0.0
 11
597.6501744439
 21
333.5952435609
 31
0.0
  0
ARC
  5
A4A
330
2
100
AcDbEntity
  8
0
100
AcDbCircle
 10
600.4707924439
 20
339.4513835609
 30
0.0
 40
6.5
100
AcDbArc
 50
244.282272
 51
270.0
  0
LINE
  5
A4B
330
2
100
AcDbEntity
  8
HIDS
100
AcDbLine
 10
604.8080724439
 20
355.9513835609
 30
0.0
 11
604.8080724439
 21
368.4513835609
 31
0.0
  0
LINE
  5
A4C
330
2
100
AcDbEntity
  8
HIDS
100
AcDbLine
 10
596.3080724439
 20
355.9513835609
 30
0.0
 11
596.3080724439
 21
368.4513835609
 31
0.0
  0
LINE
  5
A4D
330
2
100
AcDbEntity
  8
0
100
AcDbLine
 10
606.8511634439
 20
368.4513835609
 30
0.0
 11
607.1565834439
 21
350.9513835609
 31
0.0
  0
LINE
  5
A4E
330
2
100
AcDbEntity
  8
0
100
AcDbLine
 10
608.5580724439
 20
365.3306555609
 30
0.0
 11
608.5580724439
 21
355.9513835609
 31
0.0
  0
ARC
  5
A4F
330
2
100
AcDbEntity
  8
0
100
AcDbCircle
 10
604.5549594439
 20
352.9513835609
 30
0.0
 40
2.0
100
AcDbArc
 50
181.0
 51
270.0
  0
ARC
  5
A50
330
2
100
AcDbEntity
  8
0
100
AcDbCircle
 10
610.0063754439
 20
363.9513835609
 30
0.0
 40
2.0
100
AcDbArc
 50
90.0
 51
136.398758
  0
LINE
  5
A51
330
2
100
AcDbEntity
  8
0
100
AcDbLine
 10
680.6135534439
 20
352.9513835609
 30
0.0
 11
680.6135534439
 21
365.9513835609
 31
0.0
  0
LINE
  5
A5A
330
2
100
AcDbEntity
  8
0
100
AcDbLine
 10
701.1135534439
 20
359.9513835609
 30
0.0
 11
700.6135534439
 21
360.4513835609
 31
0.0
  0
ARC
  5
A5B
330
2
100
AcDbEntity
  8
0
100
AcDbCircle
 10
697.1495034439
 20
362.9514145609
 30
0.0
 40
3.0
100
AcDbArc
 50
29.999599
 51
90.0
  0
LINE
  5
A5C
330
2
100
AcDbEntity
  8
0
100
AcDbLine
 10
699.7475864439
 20
364.4513835609
 30
0.0
 11
700.6135534439
 21
362.9513835609
 31
0.0
  0
TEXT
  5
E6F
330
2
100
AcDbEntity
  8
TITLE
100
AcDbText
 10
135.6185551096
 20
50.0658835518
 30
0.0
 40
5.0
  1
F2FM-15T-10～240-S15WT
 41
0.9
100
AcDbText
  0
TEXT
  5
E70
330
2
100
AcDbEntity
  8
TITLE
100
AcDbText
 10
135.6185551096
 20
59.0658835518
 30
0.0
 40
5.0
  1
F2FM-15T-10～240-S15T
 41
0.9
100
AcDbText
  0
TEXT
  5
E71
330
2
100
AcDbEntity
  8
TITLE
100
AcDbText
 10
135.6185551096
 20
41.0658835518
 30
0.0
 40
5.0
  1
F2FM-15T-10～240-S25T
 41
0.9
100
AcDbText
  0
TEXT
  5
E72
330
2
100
AcDbEntity
  8
TITLE
100
AcDbText
 10
135.6185551096
 20
32.0658835518
 30
0.0
 40
5.0
  1
F2FM-15T-10～240-S25WT
 41
0.9
100
AcDbText
  0
LINE
  5
E78
330
2
100
AcDbEntity
  8
CENTER
100
AcDbLine
 10
132.5580724439
 20
105.40987346
 30
0.0
 11
132.5580724439
 21
89.45259746
 31
0.0
  0
TEXT
  5
E81
330
2
100
AcDbEntity
  8
TITLE
100
AcDbText
 10
30.3393760722
 20
59.0936740614
 30
0.0
 40
5.0
  1
F2FM-15T-10～240-T15T
 41
0.9
100
AcDbText
  0
TEXT
  5
E82
330
2
100
AcDbEntity
  8
TITLE
100
AcDbText
 10
30.3393760722
 20
50.0936740614
 30
0.0
 40
5.0
  1
F2FM-15T-10～240-T15WT
 41
0.9
100
AcDbText
  0
TEXT
  5
E83
330
2
100
AcDbEntity
  8
TITLE
100
AcDbText
 10
30.3393760722
 20
32.0936740614
 30
0.0
 40
5.0
  1
F2FM-15T-10～240-T25WT
 41
0.9
100
AcDbText
  0
TEXT
  5
E84
330
2
100
AcDbEntity
  8
TITLE
100
AcDbText
 10
30.3393760722
 20
41.0936740614
 30
0.0
 40
5.0
  1
F2FM-15T-10～240-T25T
 41
0.9
100
AcDbText
  0
TEXT
  5
E85
330
2
100
AcDbEntity
  8
TITLE
100
AcDbText
 10
30.3393760722
 20
23.0936740614
 30
0.0
 40
5.0
  1
F2FM-15T-10～120-T40T
 41
0.9
100
AcDbText
  0
LINE
  5
EA5
330
2
100
AcDbEntity
  8
CENTER
100
AcDbLine
 10
130.0580724439
 20
148.85889346
 30
0.0
 11
130.0580724439
 21
160.00357746
 31
0.0
  0
LINE
  5
EAD
330
2
100
AcDbEntity
  8
CENTER
100
AcDbLine
 10
140.5367104439
 20
97.43123546
 30
0.0
 11
124.5794344439
 21
97.43123546
 31
0.0
  0
LINE
  5
EB0
330
2
100
AcDbEntity
  8
CENTER
100
AcDbLine
 10
130.0580724439
 20
101.85889346
 30
0.0
 11
130.0580724439
 21
113.00357746
 31
0.0
  0
LINE
  5
EB5
330
2
100
AcDbEntity
  8
CENTER
100
AcDbLine
 10
124.4857304439
 20
107.43123546
 30
0.0
 11
135.6304144439
 21
107.43123546
 31
0.0
  0
LINE
  5
ED5
330
2
100
AcDbEntity
  8
CENTER
100
AcDbLine
 10
140.5367104439
 20
164.43123546
 30
0.0
 11
124.5794344439
 21
164.43123546
 31
0.0
  0
LINE
  5
ED9
330
2
100
AcDbEntity
  8
CENTER
100
AcDbLine
 10
132.5580724439
 20
172.40987346
 30
0.0
 11
132.5580724439
 21
156.45259746
 31
0.0
  0
LINE
  5
EDD
330
2
100
AcDbEntity
  8
CENTER
100
AcDbLine
 10
124.4857304439
 20
154.43123546
 30
0.0
 11
135.6304144439
 21
154.43123546
 31
0.0
  0
LINE
  5
EFF
330
2
100
AcDbEntity
  8
CENTER
100
AcDbLine
 10
218.5580724439
 20
105.40987346
 30
0.0
 11
218.5580724439
 21
89.45259746
 31
0.0
  0
SPLINE
  5
F28
330
2
100
AcDbEntity
  8
HOJO
100
AcDbSpline
210
0.0
220
0.0
230
1.0
 70
  1064
 71
     3
 72
    27
 73
    23
 74
    21
 42
0.000000001
 43
0.0000000001
 44
0.0000000001
 40
0.0
 40
0.0
 40
0.0
 40
0.0
 40
3.539268772771755
 40
7.287513562995791
 40
11.09046033223701
 40
14.62599423816975
 40
18.69227008921793
 40
22.26802890950276
 40
26.82672101949675
 40
31.55579532198599
 40
36.28066624743835
 40
40.14414690074359
 40
45.48003284016028
 40
49.44095400921199
 40
54.14226030623296
 40
58.62868909724453
 40
62.7842617122357
 40
66.26314687902706
 40
70.60953379849486
 40
74.30511416613957
 40
78.24621988074823
 40
82.00437648752258
 40
82.00437648752258
 40
82.00437648752258
 40
82.00437648752258
 10
306.0580724438641
 20
105.5492482620205
 30
0.0
 10
307.2371388096134
 20
105.383549240442
 30
0.0
 10
309.6648894789534
 20
105.0423675035765
 30
0.0
 10
313.3207699648642
 20
106.1883227482111
 30
0.0
 10
317.0072070594355
 20
104.9287474055809
 30
0.0
 10
320.7596773674308
 20
106.3787284311273
 30
0.0
 10
324.4660308091671
 20
104.8195991856937
 30
0.0
 10
328.4664486252399
 20
106.4461356732346
 30
0.0
 10
332.7473860238951
 20
104.7970990900654
 30
0.0
 10
337.3630800220302
 20
106.6649910807848
 30
0.0
 10
341.7846777385384
 20
104.8569067518472
 30
0.0
 10
346.3402483433696
 20
106.690861411105
 30
0.0
 10
350.7443491222745
 20
104.8822143040089
 30
0.0
 10
355.3309697522207
 20
106.9212172144185
 30
0.0
 10
359.645691006819
 20
104.5028275970425
 30
0.0
 10
364.0135183449242
 20
107.0934753586992
 30
0.0
 10
367.9751741093255
 20
104.5482070207333
 30
0.0
 10
371.8207505765049
 20
106.9864069183842
 30
0.0
 10
375.6361527095589
 20
104.6780703401974
 30
0.0
 10
379.5412667966578
 20
106.8047609497529
 30
0.0
 10
383.2738499686282
 20
104.9585996237808
 30
0.0
 10
385.8168067813281
 20
105.643372551409
 30
0.0
 10
387.0580724438641
 20
105.9776232620205
 30
0.0
 11
306.0580724438641
 21
105.5492482620205
 31
0.0
 11
309.5892614438642
 21
105.3102342620205
 31
0.0
 11
313.3080724438642
 21
105.7790452620204
 31
0.0
 11
317.0892614438642
 21
105.3728262620205
 31
0.0
 11
320.5892614438642
 21
105.8728262620205
 31
0.0
 11
324.6206644438641
 21
105.3414232620205
 31
0.0
 11
328.1518834438641
 21
105.9040452620205
 31
0.0
 11
332.6830724438642
 21
105.4040452620204
 31
0.0
 11
337.3706644438641
 21
106.0290452620205
 31
0.0
 11
342.0580724438642
 21
105.4352342620205
 31
0.0
 11
345.8706644438641
 21
106.0602342620205
 31
0.0
 11
351.1830724438642
 21
105.5602342620205
 31
0.0
 11
355.0892614438642
 21
106.2164232620205
 31
0.0
 11
359.7142614438642
 21
105.3728262620205
 31
0.0
 11
364.1206644438641
 21
106.2164232620205
 31
0.0
 11
368.1830724438642
 21
105.3414232620205
 31
0.0
 11
371.5580724438642
 21
106.1852342620205
 31
0.0
 11
375.8392614438642
 21
105.4352342620205
 31
0.0
 11
379.4642614438642
 21
106.1540452620205
 31
0.0
 11
383.3392614438642
 21
105.4352342620205
 31
0.0
 11
387.0580724438641
 21
105.9776232620205
 31
0.0
  0
LINE
  5
F38
330
2
100
AcDbEntity
  8
CENTER
100
AcDbLine
 10
221.0580724439
 20
148.85889346
 30
0.0
 11
221.0580724439
 21
160.00357746
 31
0.0
  0
LINE
  5
F39
330
2
100
AcDbEntity
  8
CENTER
100
AcDbLine
 10
186.5580724439
 20
100.82436246
 30
0.0
 11
186.5580724439
 21
161.03810846
 31
0.0
  0
LINE
  5
F44
330
2
100
AcDbEntity
  8
CENTER
100
AcDbLine
 10
215.4857304439
 20
107.43123546
 30
0.0
 11
226.6304144439
 21
107.43123546
 31
0.0
  0
LINE
  5
F45
330
2
100
AcDbEntity
  8
CENTER
100
AcDbLine
 10
226.5367104439
 20
97.43123546
 30
0.0
 11
210.5794344439
 21
97.43123546
 31
0.0
  0
LINE
  5
F59
330
2
100
AcDbEntity
  8
CENTER
100
AcDbLine
 10
221.0580724439
 20
101.85889346
 30
0.0
 11
221.0580724439
 21
113.00357746
 31
0.0
  0
LINE
  5
F6C
330
2
100
AcDbEntity
  8
CENTER
100
AcDbLine
 10
215.4857304439
 20
154.43123546
 30
0.0
 11
226.6304144439
 21
154.43123546
 31
0.0
  0
LINE
  5
F6D
330
2
100
AcDbEntity
  8
CENTER
100
AcDbLine
 10
226.5367104439
 20
164.43123546
 30
0.0
 11
210.5794344439
 21
164.43123546
 31
0.0
  0
LINE
  5
F75
330
2
100
AcDbEntity
  8
CENTER
100
AcDbLine
 10
218.5580724439
 20
172.40987346
 30
0.0
 11
218.5580724439
 21
156.45259746
 31
0.0
  0
LINE
  5
FF9
330
2
100
AcDbEntity
  8
CENTER
100
AcDbLine
 10
600.5580724439
 20
105.40987346
 30
0.0
 11
600.5580724439
 21
89.45259746
 31
0.0
  0
LINE
  5
FFA
330
2
100
AcDbEntity
  8
CENTER
100
AcDbLine
 10
514.5580724439
 20
105.40987346
 30
0.0
 11
514.5580724439
 21
89.45259746
 31
0.0
  0
LINE
  5
1029
330
2
100
AcDbEntity
  8
CENTER
100
AcDbLine
 10
546.5580724439
 20
100.72472296
 30
0.0
 11
546.5580724439
 21
161.13774796
 31
0.0
  0
LINE
  5
1031
330
2
100
AcDbEntity
  8
CENTER
100
AcDbLine
 10
522.5367104439
 20
97.43123546
 30
0.0
 11
506.5794344439
 21
97.43123546
 31
0.0
  0
LINE
  5
1053
330
2
100
AcDbEntity
  8
CENTER
100
AcDbLine
 10
522.5367104439
 20
164.43123546
 30
0.0
 11
506.5794344439
 21
164.43123546
 31
0.0
  0
LINE
  5
1057
330
2
100
AcDbEntity
  8
CENTER
100
AcDbLine
 10
514.5580724439
 20
172.40987346
 30
0.0
 11
514.5580724439
 21
156.45259746
 31
0.0
  0
LINE
  5
1074
330
2
100
AcDbEntity
  8
CENTER
100
AcDbLine
 10
608.5367104439
 20
97.43123546
 30
0.0
 11
592.5794344439
 21
97.43123546
 31
0.0
  0
LINE
  5
1090
330
2
100
AcDbEntity
  8
CENTER
100
AcDbLine
 10
600.5580724439
 20
172.40987346
 30
0.0
 11
600.5580724439
 21
156.45259746
 31
0.0
  0
LINE
  5
1099
330
2
100
AcDbEntity
  8
CENTER
100
AcDbLine
 10
608.5367104439
 20
164.43123546
 30
0.0
 11
592.5794344439
 21
164.43123546
 31
0.0
  0
LINE
  5
1EF2
330
2
100
AcDbEntity
  8
0
100
AcDbLine
 10
321.5580724439
 20
182.43123546
 30
0.0
 11
371.5580574439
 21
182.43123546
 31
0.0
  0
LINE
  5
1EF3
330
2
100
AcDbEntity
  8
0
100
AcDbLine
 10
321.5580724439
 20
172.43123546
 30
0.0
 11
371.5580574439
 21
172.43123546
 31
0.0
  0
LINE
  5
1EF4
330
2
100
AcDbEntity
  8
0
100
AcDbLine
 10
322.5580724439
 20
201.43123346
 30
0.0
 11
366.7201636278
 21
201.43123346
 31
0.0
  0
LINE
  5
1EF5
330
2
100
AcDbEntity
  8
0
100
AcDbLine
 10
321.5580724439
 20
200.43123346
 30
0.0
 11
364.0580574439
 21
200.43123346
 31
0.0
  0
LINE
  5
1EF7
330
2
100
AcDbEntity
  8
CENTER
100
AcDbLine
 10
316.5144654627
 20
191.93123346
 30
0.0
 11
376.6016794251
 21
191.93123346
 31
0.0
  0
LINE
  5
1F1D
330
2
100
AcDbEntity
  8
0
100
AcDbLine
 10
48.3404842599
 20
201.43123346
 30
0.0
 11
92.5025754439
 21
201.43123346
 31
0.0
  0
LINE
  5
1F1E
330
2
100
AcDbEntity
  8
0
100
AcDbLine
 10
45.0025684439
 20
170.43123546
 30
0.0
 11
91.5025754439
 21
170.43123546
 31
0.0
  0
LINE
  5
1F1F
330
2
100
AcDbEntity
  8
0
100
AcDbLine
 10
41.5025684439
 20
182.43123546
 30
0.0
 11
93.5025754439
 21
182.43123546
 31
0.0
  0
LINE
  5
1F20
330
2
100
AcDbEntity
  8
0
100
AcDbLine
 10
43.5025684439
 20
172.43123546
 30
0.0
 11
93.5025754439
 21
172.43123546
 31
0.0
  0
LINE
  5
1F21
330
2
100
AcDbEntity
  8
0
100
AcDbLine
 10
51.0025688724
 20
200.43123346
 30
0.0
 11
93.5025824439
 21
200.43123346
 31
0.0
  0
LINE
  5
1F22
330
2
100
AcDbEntity
  8
CENTER
100
AcDbLine
 10
35.5588194439
 20
191.93123346
 30
0.0
 11
97.4548784076
 21
191.93123346
 31
0.0
  0
ARC
  5
1F24
330
2
100
AcDbEntity
  8
0
100
AcDbCircle
 10
42.5025834439
 20
198.43123346
 30
0.0
 40
1.0
100
AcDbArc
 50
90.0
 51
180.0
  0
LINE
  5
1F25
330
2
100
AcDbEntity
  8
0
100
AcDbLine
 10
41.5025834439
 20
198.43123346
 30
0.0
 11
41.5025684439
 21
182.43123546
 31
0.0
  0
LINE
  5
1F26
330
2
100
AcDbEntity
  8
0
100
AcDbLine
 10
38.0025834439
 20
195.93123346
 30
0.0
 11
38.0025834439
 21
187.93123346
 31
0.0
  0
LINE
  5
1F27
330
2
100
AcDbEntity
  8
0
100
AcDbLine
 10
38.0025684439
 20
187.93123346
 30
0.0
 11
41.5025684439
 21
186.43123346
 31
0.0
  0
LINE
  5
1F28
330
2
100
AcDbEntity
  8
0
100
AcDbLine
 10
38.0025834439
 20
195.93123346
 30
0.0
 11
41.5025834439
 21
197.43123346
 31
0.0
  0
LINE
  5
1F29
330
2
100
AcDbEntity
  8
CENTER
100
AcDbLine
 10
68.5025754439
 20
165.73753446
 30
0.0
 11
68.5025754439
 21
206.81873346
 31
0.0
  0
LINE
  5
1F2A
330
2
100
AcDbEntity
  8
0
100
AcDbLine
 10
43.5025684439
 20
200.43123346
 30
0.0
 11
43.5025684439
 21
172.43123546
 31
0.0
  0
LINE
  5
1F2B
330
2
100
AcDbEntity
  8
0
100
AcDbLine
 10
45.0025684439
 20
170.43123546
 30
0.0
 11
45.0025684439
 21
168.93123546
 31
0.0
  0
LINE
  5
1F2D
330
2
100
AcDbEntity
  8
0
100
AcDbLine
 10
43.5025684439
 20
172.43123546
 30
0.0
 11
45.5025684439
 21
170.43123546
 31
0.0
  0
ARC
  5
1F2E
330
2
100
AcDbEntity
  8
0
100
AcDbCircle
 10
47.0025754439
 20
192.53123346
 30
0.0
 40
9.0
100
AcDbArc
 50
74.1191499917
 51
105.8808500083
  0
LINE
  5
1F2F
330
2
100
AcDbEntity
  8
0
100
AcDbLine
 10
47.2900754443
 20
200.01423346
 30
0.0
 11
46.7150754434
 21
200.01423346
 31
0.0
  0
LINE
  5
1F30
330
2
100
AcDbEntity
  8
0
100
AcDbLine
 10
51.0025688724
 20
198.93123346
 30
0.0
 11
43.5025688724
 21
198.93123346
 31
0.0
  0
LINE
  5
1F31
330
2
100
AcDbEntity
  8
0
100
AcDbLine
 10
44.9728356207
 20
201.0836749974
 30
0.0
 11
44.9525754439
 21
201.2946517428
 31
0.0
  0
SPLINE
  5
1F32
330
2
100
AcDbEntity
  8
0
100
AcDbSpline
210
0.0
220
0.0
230
1.0
 70
     8
 71
     3
 72
    11
 73
     7
 74
     0
 42
0.000000001
 43
0.0000000001
 40
0.0
 40
0.0
 40
0.0
 40
0.0
 40
0.4601364636755307
 40
1.04988694485363
 40
1.713742833862792
 40
2.320347933405154
 40
2.320347933405154
 40
2.320347933405154
 40
2.320347933405173
 10
46.71507544340926
 20
200.0142334599732
 30
0.0
 10
46.69265778630142
 20
200.1692568996531
 30
0.0
 10
46.64150773106814
 20
200.5229717175706
 30
0.0
 10
46.20562256953457
 20
200.9476993891723
 30
0.0
 10
45.60057185452712
 20
201.1668865691381
 30
0.0
 10
45.17538723035128
 20
201.0978952695274
 30
0.0
 10
44.97283562070021
 20
201.0836749973508
 30
0.0
  0
LINE
  5
1F33
330
2
100
AcDbEntity
  8
0
100
AcDbLine
 10
43.5025754439
 20
198.93123346
 30
0.0
 11
43.6005115828
 21
200.0506486498
 31
0.0
  0
ARC
  5
1F34
330
2
100
AcDbEntity
  8
0
100
AcDbCircle
 10
44.8955646903
 20
199.9373461842
 30
0.0
 40
1.3
100
AcDbArc
 50
105.8808500083
 51
175.0
  0
LINE
  5
1F35
330
2
100
AcDbEntity
  8
0
100
AcDbLine
 10
44.5025688724
 20
201.43123346
 30
0.0
 11
43.5025684439
 21
200.43123346
 31
0.0
  0
LINE
  5
1F36
330
2
100
AcDbEntity
  8
0
100
AcDbLine
 10
43.5025684439
 20
200.43123346
 30
0.0
 11
44.5025684439
 21
201.43123346
 31
0.0
  0
LINE
  5
1F37
330
2
100
AcDbEntity
  8
0
100
AcDbLine
 10
42.5025684439
 20
199.43123346
 30
0.0
 11
43.5025684439
 21
199.43123346
 31
0.0
  0
LINE
  5
1F38
330
2
100
AcDbEntity
  8
0
100
AcDbLine
 10
44.5025684439
 20
201.43123346
 30
0.0
 11
45.6646666278
 21
201.43123346
 31
0.0
  0
LINE
  5
1F39
330
2
100
AcDbEntity
  8
0
100
AcDbLine
 10
50.5025754439
 20
198.93123346
 30
0.0
 11
50.404639305
 21
200.0506486498
 31
0.0
  0
ARC
  5
1F3A
330
2
100
AcDbEntity
  8
0
100
AcDbCircle
 10
49.1095861975
 20
199.9373461842
 30
0.0
 40
1.3
100
AcDbArc
 50
5.0
 51
74.1191499917
  0
LINE
  5
1F3B
330
2
100
AcDbEntity
  8
0
100
AcDbLine
 10
49.032315267
 20
201.0836749974
 30
0.0
 11
49.0525754439
 21
201.2946517428
 31
0.0
  0
SPLINE
  5
1F3C
330
2
100
AcDbEntity
  8
0
100
AcDbSpline
210
0.0
220
0.0
230
1.0
 70
     8
 71
     3
 72
    11
 73
     7
 74
     0
 42
0.000000001
 43
0.0000000001
 40
0.0
 40
0.0
 40
0.0
 40
0.0
 40
0.4601364636755307
 40
1.04988694485363
 40
1.713742833862792
 40
2.320347933405154
 40
2.320347933405154
 40
2.320347933405154
 40
2.320347933405173
 10
47.29007544431936
 20
200.0142334599732
 30
0.0
 10
47.31249310142721
 20
200.1692568996531
 30
0.0
 10
47.36364315666047
 20
200.5229717175706
 30
0.0
 10
47.79952831819406
 20
200.9476993891723
 30
0.0
 10
48.4045790332015
 20
201.1668865691381
 30
0.0
 10
48.82976365737732
 20
201.0978952695274
 30
0.0
 10
49.03231526702843
 20
201.0836749973508
 30
0.0
  0
LINE
  5
1F3D
330
2
100
AcDbEntity
  8
0
100
AcDbLine
 10
51.5025688724
 20
201.43123346
 30
0.0
 11
51.0025688724
 21
200.93123346
 31
0.0
  0
LINE
  5
1F3E
330
2
100
AcDbEntity
  8
0
100
AcDbLine
 10
51.0025688724
 20
198.93123346
 30
0.0
 11
51.0025688724
 21
200.93123346
 31
0.0
  0
LINE
  5
1F3F
330
2
100
AcDbEntity
  8
0
100
AcDbLine
 10
51.0025688724
 20
200.93123346
 30
0.0
 11
49.9475528335
 21
200.93123346
 31
0.0
  0
LINE
  5
1F40
330
2
100
AcDbEntity
  8
0
100
AcDbLine
 10
93.5025754439
 20
200.43123346
 30
0.0
 11
93.5025754439
 21
172.43123546
 31
0.0
  0
LINE
  5
1F41
330
2
100
AcDbEntity
  8
0
100
AcDbLine
 10
91.0025754439
 20
170.43123546
 30
0.0
 11
91.0025754439
 21
168.93123546
 31
0.0
  0
LINE
  5
1F42
330
2
100
AcDbEntity
  8
0
100
AcDbLine
 10
91.5025754439
 20
170.43123546
 30
0.0
 11
93.5025754439
 21
172.43123546
 31
0.0
  0
LINE
  5
1F43
330
2
100
AcDbEntity
  8
0
100
AcDbLine
 10
92.5025824439
 20
201.43123346
 30
0.0
 11
93.5025824439
 21
200.43123346
 31
0.0
  0
LINE
  5
1F44
330
2
100
AcDbEntity
  8
0
100
AcDbLine
 10
321.5580724439
 20
200.43123346
 30
0.0
 11
321.5580724439
 21
172.43123546
 31
0.0
  0
LINE
  5
1F46
330
2
100
AcDbEntity
  8
0
100
AcDbLine
 10
321.5580724439
 20
172.43123546
 30
0.0
 11
322.9698127963
 21
171.0194951075
 31
0.0
  0
LINE
  5
1F47
330
2
100
AcDbEntity
  8
0
100
AcDbLine
 10
322.5580724439
 20
201.43123346
 30
0.0
 11
321.5580724439
 21
200.43123346
 31
0.0
  0
LINE
  5
1F4A
330
2
100
AcDbEntity
  8
0
100
AcDbLine
 10
371.5580574439
 20
200.43123346
 30
0.0
 11
371.5580574439
 21
172.43123546
 31
0.0
  0
LINE
  5
1F4D
330
2
100
AcDbEntity
  8
0
100
AcDbLine
 10
370.1463173487
 20
171.0194953648
 30
0.0
 11
371.5580574439
 21
172.43123546
 31
0.0
  0
ARC
  5
1F4E
330
2
100
AcDbEntity
  8
0
100
AcDbCircle
 10
368.0580724439
 20
192.53123346
 30
0.0
 40
9.0
100
AcDbArc
 50
74.1191499917
 51
105.8808500083
  0
SPLINE
  5
1F4F
330
2
100
AcDbEntity
  8
0
100
AcDbSpline
210
0.0
220
0.0
230
1.0
 70
     8
 71
     3
 72
    11
 73
     7
 74
     0
 42
0.000000001
 43
0.0000000001
 40
0.0
 40
0.0
 40
0.0
 40
0.0
 40
0.4601364636755307
 40
1.04988694485363
 40
1.713742833862792
 40
2.320347933405154
 40
2.320347933405154
 40
2.320347933405154
 40
2.320347933405173
 10
367.7705724434091
 20
200.0142334599734
 30
0.0
 10
367.7481547863014
 20
200.1692568996532
 30
0.0
 10
367.6970047310681
 20
200.5229717175707
 30
0.0
 10
367.2611195695345
 20
200.9476993891724
 30
0.0
 10
366.656068854527
 20
201.1668865691383
 30
0.0
 10
366.2308842303512
 20
201.0978952695276
 30
0.0
 10
366.0283326207002
 20
201.0836749973509
 30
0.0
  0
LINE
  5
1F50
330
2
100
AcDbEntity
  8
0
100
AcDbLine
 10
364.0580574439
 20
198.93123346
 30
0.0
 11
371.5580574439
 21
198.93123346
 31
0.0
  0
LINE
  5
1F51
330
2
100
AcDbEntity
  8
0
100
AcDbLine
 10
366.0283326207
 20
201.0836749974
 30
0.0
 11
366.0080724439
 21
201.2946517428
 31
0.0
  0
LINE
  5
1F52
330
2
100
AcDbEntity
  8
0
100
AcDbLine
 10
364.5580724439
 20
198.93123346
 30
0.0
 11
364.6560085828
 21
200.0506486498
 31
0.0
  0
ARC
  5
1F53
330
2
100
AcDbEntity
  8
0
100
AcDbCircle
 10
365.9510616903
 20
199.9373461842
 30
0.0
 40
1.3
100
AcDbArc
 50
105.8808500083
 51
175.0
  0
LINE
  5
1F54
330
2
100
AcDbEntity
  8
0
100
AcDbLine
 10
363.5580574439
 20
201.43123346
 30
0.0
 11
364.0580574439
 21
200.93123346
 31
0.0
  0
LINE
  5
1F55
330
2
100
AcDbEntity
  8
0
100
AcDbLine
 10
364.0580574439
 20
198.93123346
 30
0.0
 11
364.0580574439
 21
200.93123346
 31
0.0
  0
LINE
  5
1F56
330
2
100
AcDbEntity
  8
0
100
AcDbLine
 10
364.0580574439
 20
200.93123346
 30
0.0
 11
365.1130950542
 21
200.93123346
 31
0.0
  0
LINE
  5
1F57
330
2
100
AcDbEntity
  8
0
100
AcDbLine
 10
369.3959812599
 20
201.43123346
 30
0.0
 11
370.5580574439
 21
201.43123346
 31
0.0
  0
LINE
  5
1F58
330
2
100
AcDbEntity
  8
0
100
AcDbLine
 10
371.5580724439
 20
198.93123346
 30
0.0
 11
371.460136305
 21
200.0506486498
 31
0.0
  0
ARC
  5
1F59
330
2
100
AcDbEntity
  8
0
100
AcDbCircle
 10
370.1650831975
 20
199.9373461842
 30
0.0
 40
1.3
100
AcDbArc
 50
5.0
 51
74.1191499917
  0
LINE
  5
1F5A
330
2
100
AcDbEntity
  8
0
100
AcDbLine
 10
370.087812267
 20
201.0836749974
 30
0.0
 11
370.1080724439
 21
201.2946517428
 31
0.0
  0
LINE
  5
1F5B
330
2
100
AcDbEntity
  8
0
100
AcDbLine
 10
368.3455724443
 20
200.01423346
 30
0.0
 11
367.7705724434
 21
200.01423346
 31
0.0
  0
SPLINE
  5
1F5C
330
2
100
AcDbEntity
  8
0
100
AcDbSpline
210
0.0
220
0.0
230
1.0
 70
     8
 71
     3
 72
    11
 73
     7
 74
     0
 42
0.000000001
 43
0.0000000001
 40
0.0
 40
0.0
 40
0.0
 40
0.0
 40
0.4601364636755307
 40
1.04988694485363
 40
1.713742833862792
 40
2.320347933405154
 40
2.320347933405154
 40
2.320347933405154
 40
2.320347933405173
 10
368.3455724443192
 20
200.0142334599734
 30
0.0
 10
368.3679901014272
 20
200.1692568996532
 30
0.0
 10
368.4191401566604
 20
200.5229717175707
 30
0.0
 10
368.855025318194
 20
200.9476993891724
 30
0.0
 10
369.4600760332014
 20
201.1668865691383
 30
0.0
 10
369.8852606573772
 20
201.0978952695276
 30
0.0
 10
370.0878122670283
 20
201.0836749973509
 30
0.0
  0
LINE
  5
1F5D
330
2
100
AcDbEntity
  8
0
100
AcDbLine
 10
370.5580574439
 20
201.43123346
 30
0.0
 11
371.5580574439
 21
200.43123346
 31
0.0
  0
LINE
  5
1F5F
330
2
100
AcDbEntity
  8
0
100
AcDbLine
 10
644.4514552599
 20
201.43123346
 30
0.0
 11
688.6135464439
 21
201.43123346
 31
0.0
  0
LINE
  5
1F60
330
2
100
AcDbEntity
  8
0
100
AcDbLine
 10
647.1135468724
 20
200.43123346
 30
0.0
 11
689.6135534439
 21
200.43123346
 31
0.0
  0
LINE
  5
1F62
330
2
100
AcDbEntity
  8
0
100
AcDbLine
 10
689.6135534439
 20
172.43123546
 30
0.0
 11
639.6135464439
 21
172.43123546
 31
0.0
  0
LINE
  5
1F63
330
2
100
AcDbEntity
  8
0
100
AcDbLine
 10
688.1135534439
 20
170.43123546
 30
0.0
 11
641.6135464439
 21
170.43123546
 31
0.0
  0
LINE
  5
1F64
330
2
100
AcDbEntity
  8
CENTER
100
AcDbLine
 10
697.5573024439
 20
191.93123346
 30
0.0
 11
635.6612434801
 21
191.93123346
 31
0.0
  0
LINE
  5
1F65
330
2
100
AcDbEntity
  8
0
100
AcDbLine
 10
691.6135534439
 20
182.43123546
 30
0.0
 11
639.6135464439
 21
182.43123546
 31
0.0
  0
LINE
  5
1F66
330
2
100
AcDbEntity
  8
0
100
AcDbLine
 10
639.6135464439
 20
200.43123346
 30
0.0
 11
639.6135464439
 21
172.43123546
 31
0.0
  0
LINE
  5
1F67
330
2
100
AcDbEntity
  8
CENTER
100
AcDbLine
 10
664.6135464439
 20
165.73753446
 30
0.0
 11
664.6135464439
 21
206.81873346
 31
0.0
  0
LINE
  5
1F68
330
2
100
AcDbEntity
  8
0
100
AcDbLine
 10
642.1135464439
 20
170.43123546
 30
0.0
 11
642.1135464439
 21
168.93123546
 31
0.0
  0
LINE
  5
1F69
330
2
100
AcDbEntity
  8
0
100
AcDbLine
 10
641.6135464439
 20
170.43123546
 30
0.0
 11
639.6135464439
 21
172.43123546
 31
0.0
  0
LINE
  5
1F6A
330
2
100
AcDbEntity
  8
0
100
AcDbLine
 10
647.1135468724
 20
200.93123346
 30
0.0
 11
646.0585238335
 21
200.93123346
 31
0.0
  0
LINE
  5
1F6B
330
2
100
AcDbEntity
  8
0
100
AcDbLine
 10
647.1135468724
 20
198.93123346
 30
0.0
 11
639.6135468724
 21
198.93123346
 31
0.0
  0
ARC
  5
1F6C
330
2
100
AcDbEntity
  8
0
100
AcDbCircle
 10
643.1135464439
 20
192.53123346
 30
0.0
 40
9.0
100
AcDbArc
 50
74.1191499917
 51
105.8808500083
  0
SPLINE
  5
1F6D
330
2
100
AcDbEntity
  8
0
100
AcDbSpline
210
0.0
220
0.0
230
1.0
 70
     8
 71
     3
 72
    11
 73
     7
 74
     0
 42
0.000000001
 43
0.0000000001
 40
0.0
 40
0.0
 40
0.0
 40
0.0
 40
0.4601364636755307
 40
1.04988694485363
 40
1.713742833862792
 40
2.320347933405154
 40
2.320347933405154
 40
2.320347933405154
 40
2.320347933405173
 10
642.8260464434092
 20
200.0142334599732
 30
0.0
 10
642.8036287863013
 20
200.1692568996531
 30
0.0
 10
642.7524787310678
 20
200.5229717175706
 30
0.0
 10
642.3165935695342
 20
200.9476993891723
 30
0.0
 10
641.7115428545271
 20
201.1668865691381
 30
0.0
 10
641.286358230351
 20
201.0978952695274
 30
0.0
 10
641.0838066207002
 20
201.0836749973508
 30
0.0
  0
LINE
  5
1F6E
330
2
100
AcDbEntity
  8
0
100
AcDbLine
 10
641.0838066207
 20
201.0836749974
 30
0.0
 11
641.0635464439
 21
201.2946517428
 31
0.0
  0
LINE
  5
1F6F
330
2
100
AcDbEntity
  8
0
100
AcDbLine
 10
639.6135464439
 20
198.93123346
 30
0.0
 11
639.7114825828
 21
200.0506486498
 31
0.0
  0
ARC
  5
1F70
330
2
100
AcDbEntity
  8
0
100
AcDbCircle
 10
641.0065356903
 20
199.9373461842
 30
0.0
 40
1.3
100
AcDbArc
 50
105.8808500083
 51
175.0
  0
LINE
  5
1F71
330
2
100
AcDbEntity
  8
0
100
AcDbLine
 10
639.6135464439
 20
200.43123346
 30
0.0
 11
640.6135464439
 21
201.43123346
 31
0.0
  0
LINE
  5
1F72
330
2
100
AcDbEntity
  8
0
100
AcDbLine
 10
640.6135464439
 20
201.43123346
 30
0.0
 11
641.7756376278
 21
201.43123346
 31
0.0
  0
LINE
  5
1F73
330
2
100
AcDbEntity
  8
0
100
AcDbLine
 10
646.6135464439
 20
198.93123346
 30
0.0
 11
646.515610305
 21
200.0506486498
 31
0.0
  0
ARC
  5
1F74
330
2
100
AcDbEntity
  8
0
100
AcDbCircle
 10
645.2205571975
 20
199.9373461842
 30
0.0
 40
1.3
100
AcDbArc
 50
5.0
 51
74.1191499917
  0
LINE
  5
1F75
330
2
100
AcDbEntity
  8
0
100
AcDbLine
 10
645.143286267
 20
201.0836749974
 30
0.0
 11
645.1635464439
 21
201.2946517428
 31
0.0
  0
LINE
  5
1F76
330
2
100
AcDbEntity
  8
0
100
AcDbLine
 10
643.4010464443
 20
200.01423346
 30
0.0
 11
642.8260464434
 21
200.01423346
 31
0.0
  0
SPLINE
  5
1F77
330
2
100
AcDbEntity
  8
0
100
AcDbSpline
210
0.0
220
0.0
230
1.0
 70
     8
 71
     3
 72
    11
 73
     7
 74
     0
 42
0.000000001
 43
0.0000000001
 40
0.0
 40
0.0
 40
0.0
 40
0.0
 40
0.4601364636755307
 40
1.04988694485363
 40
1.713742833862792
 40
2.320347933405154
 40
2.320347933405154
 40
2.320347933405154
 40
2.320347933405173
 10
643.4010464443193
 20
200.0142334599732
 30
0.0
 10
643.4234641014271
 20
200.1692568996531
 30
0.0
 10
643.4746141566604
 20
200.5229717175706
 30
0.0
 10
643.9104993181937
 20
200.9476993891723
 30
0.0
 10
644.5155500332012
 20
201.1668865691381
 30
0.0
 10
644.9407346573772
 20
201.0978952695274
 30
0.0
 10
645.1432862670283
 20
201.0836749973508
 30
0.0
  0
LINE
  5
1F78
330
2
100
AcDbEntity
  8
0
100
AcDbLine
 10
647.6135468724
 20
201.43123346
 30
0.0
 11
647.1135468724
 21
200.93123346
 31
0.0
  0
LINE
  5
1F79
330
2
100
AcDbEntity
  8
0
100
AcDbLine
 10
647.1135468724
 20
198.93123346
 30
0.0
 11
647.1135468724
 21
200.93123346
 31
0.0
  0
LINE
  5
1F7B
330
2
100
AcDbEntity
  8
0
100
AcDbLine
 10
689.6135534439
 20
200.43123346
 30
0.0
 11
689.6135534439
 21
172.43123546
 31
0.0
  0
LINE
  5
1F7C
330
2
100
AcDbEntity
  8
0
100
AcDbLine
 10
695.1135384439
 20
195.93123346
 30
0.0
 11
695.1135384439
 21
187.93123346
 31
0.0
  0
LINE
  5
1F7D
330
2
100
AcDbEntity
  8
0
100
AcDbLine
 10
691.6135384439
 20
198.43123346
 30
0.0
 11
691.6135534439
 21
182.43123546
 31
0.0
  0
LINE
  5
1F7F
330
2
100
AcDbEntity
  8
0
100
AcDbLine
 10
688.1135534439
 20
170.43123546
 30
0.0
 11
688.1135534439
 21
168.93123546
 31
0.0
  0
LINE
  5
1F80
330
2
100
AcDbEntity
  8
0
100
AcDbLine
 10
695.1135534439
 20
187.93123346
 30
0.0
 11
691.6135534439
 21
186.43123346
 31
0.0
  0
LINE
  5
1F81
330
2
100
AcDbEntity
  8
0
100
AcDbLine
 10
689.6135534439
 20
172.43123546
 30
0.0
 11
687.6135534439
 21
170.43123546
 31
0.0
  0
LINE
  5
1F82
330
2
100
AcDbEntity
  8
0
100
AcDbLine
 10
695.1135384439
 20
195.93123346
 30
0.0
 11
691.6135384439
 21
197.43123346
 31
0.0
  0
LINE
  5
1F83
330
2
100
AcDbEntity
  8
0
100
AcDbLine
 10
688.6135534439
 20
201.43123346
 30
0.0
 11
689.6135534439
 21
200.43123346
 31
0.0
  0
ARC
  5
1F84
330
2
100
AcDbEntity
  8
0
100
AcDbCircle
 10
690.6135384439
 20
198.43123346
 30
0.0
 40
1.0
100
AcDbArc
 50
0.0
 51
90.0
  0
LINE
  5
1F85
330
2
100
AcDbEntity
  8
0
100
AcDbLine
 10
690.6135534439
 20
199.43123346
 30
0.0
 11
689.6135534439
 21
199.43123346
 31
0.0
  0
LINE
  5
1F86
330
2
100
AcDbEntity
  8
0
100
AcDbLine
 10
642.0134484439
 20
351.5513895609
 30
0.0
 11
682.1135534439
 21
351.5513895609
 31
0.0
  0
LINE
  5
1F87
330
2
100
AcDbEntity
  8
0
100
AcDbLine
 10
687.6135534439
 20
352.9513835609
 30
0.0
 11
641.6136534439
 21
352.9513835609
 31
0.0
  0
LINE
  5
1F88
330
2
100
AcDbEntity
  8
0
100
AcDbLine
 10
687.6135534439
 20
302.9513835609
 30
0.0
 11
641.6136534439
 21
302.9513835609
 31
0.0
  0
LINE
  5
1F89
330
2
100
AcDbEntity
  8
0
100
AcDbLine
 10
687.2135524439
 20
304.3513925609
 30
0.0
 11
647.1136534439
 21
304.3513925609
 31
0.0
  0
LINE
  5
1F8A
330
2
100
AcDbEntity
  8
0
100
AcDbLine
 10
639.6136534439
 20
304.9513835609
 30
0.0
 11
639.6136534439
 21
350.9513835609
 31
0.0
  0
LINE
  5
1F8B
330
2
100
AcDbEntity
  8
CENTER
100
AcDbLine
 10
664.6135464439
 20
297.5621576168
 30
0.0
 11
664.6135464439
 21
358.7013835609
 31
0.0
  0
LINE
  5
1F8C
330
2
100
AcDbEntity
  8
0
100
AcDbLine
 10
641.0134484439
 20
350.5513895609
 30
0.0
 11
641.0134484439
 21
310.4513835609
 31
0.0
  0
ARC
  5
1F8D
330
2
100
AcDbEntity
  8
0
100
AcDbCircle
 10
643.1134544439
 20
306.4513835609
 30
0.0
 40
4.0
100
AcDbArc
 50
0.0
 51
90.0
  0
ARC
  5
1F8E
330
2
100
AcDbEntity
  8
0
100
AcDbCircle
 10
641.0837544439
 20
304.4216835609
 30
0.0
 40
1.742199999999999
100
AcDbArc
 50
359.9986903345
 51
90.0013096655
  0
ARC
  5
1F8F
330
2
100
AcDbEntity
  8
0
100
AcDbCircle
 10
641.0837544439
 20
308.4810835609
 30
0.0
 40
1.742199999999999
100
AcDbArc
 50
269.9986903345
 51
0.0013096655
  0
CIRCLE
  5
1F90
330
2
100
AcDbEntity
  8
0
100
AcDbCircle
 10
643.1134544439
 20
306.4513835609
 30
0.0
 40
3.500000000000028
  0
LINE
  5
1F91
330
2
100
AcDbEntity
  8
0
100
AcDbLine
 10
643.1136534439
 20
310.4513835609
 30
0.0
 11
639.6136534439
 21
310.4513835609
 31
0.0
  0
ARC
  5
1F92
330
2
100
AcDbEntity
  8
0
100
AcDbCircle
 10
643.1134544439
 20
306.4513835609
 30
0.0
 40
2.049999999999998
100
AcDbArc
 50
171.938039916
 51
180.0
  0
ARC
  5
1F93
330
2
100
AcDbEntity
  8
0
100
AcDbCircle
 10
643.1134544439
 20
306.4513835609
 30
0.0
 40
2.049999999999998
100
AcDbArc
 50
180.0
 51
188.061960084
  0
LINE
  5
1F94
330
2
100
AcDbEntity
  8
0
100
AcDbLine
 10
641.6136534439
 20
302.9513835609
 30
0.0
 11
639.6136534439
 21
304.9513835609
 31
0.0
  0
LINE
  5
1F95
330
2
100
AcDbEntity
  8
0
100
AcDbLine
 10
639.6136534439
 20
304.9513835609
 30
0.0
 11
641.6136534439
 21
302.9513835609
 31
0.0
  0
ARC
  5
1F96
330
2
100
AcDbEntity
  8
0
100
AcDbCircle
 10
645.1431544439
 20
304.4216835609
 30
0.0
 40
1.742199999999999
100
AcDbArc
 50
89.9986903345
 51
180.0013096655
  0
ARC
  5
1F97
330
2
100
AcDbEntity
  8
0
100
AcDbCircle
 10
645.1431544439
 20
308.4810835609
 30
0.0
 40
1.742199999999999
100
AcDbArc
 50
179.9986903345
 51
270.0013096655
  0
ARC
  5
1F98
330
2
100
AcDbEntity
  8
0
100
AcDbCircle
 10
643.1134544439
 20
306.4513835609
 30
0.0
 40
2.049999999999998
100
AcDbArc
 50
0.0
 51
8.061960084
  0
ARC
  5
1F99
330
2
100
AcDbEntity
  8
0
100
AcDbCircle
 10
643.1134544439
 20
306.4513835609
 30
0.0
 40
2.049999999999998
100
AcDbArc
 50
261.938039916
 51
270.0
  0
ARC
  5
1F9A
330
2
100
AcDbEntity
  8
0
100
AcDbCircle
 10
643.1134544439
 20
306.4513835609
 30
0.0
 40
2.049999999999998
100
AcDbArc
 50
270.0
 51
278.061960084
  0
ARC
  5
1F9B
330
2
100
AcDbEntity
  8
0
100
AcDbCircle
 10
643.1134544439
 20
306.4513835609
 30
0.0
 40
2.049999999999998
100
AcDbArc
 50
351.938039916
 51
0.0
  0
ARC
  5
1F9C
330
2
100
AcDbEntity
  8
0
100
AcDbCircle
 10
643.1134544439
 20
306.4513835609
 30
0.0
 40
2.049999999999998
100
AcDbArc
 50
90.0
 51
98.061960084
  0
ARC
  5
1F9D
330
2
100
AcDbEntity
  8
0
100
AcDbCircle
 10
643.1134544439
 20
306.4513835609
 30
0.0
 40
2.049999999999998
100
AcDbArc
 50
81.938039916
 51
90.0
  0
LINE
  5
1F9E
330
2
100
AcDbEntity
  8
0
100
AcDbLine
 10
647.1136534439
 20
306.4513835609
 30
0.0
 11
647.1136534439
 21
302.9513835609
 31
0.0
  0
LINE
  5
1F9F
330
2
100
AcDbEntity
  8
0
100
AcDbLine
 10
639.6134544439
 20
350.9513835609
 30
0.0
 11
641.6136534439
 21
352.9513835609
 31
0.0
  0
LINE
  5
1FA0
330
2
100
AcDbEntity
  8
0
100
AcDbLine
 10
639.6136534439
 20
350.9513835609
 30
0.0
 11
641.6136534439
 21
352.9513835609
 31
0.0
  0
LINE
  5
1FA1
330
2
100
AcDbEntity
  8
0
100
AcDbLine
 10
639.6136534439
 20
350.9513835609
 30
0.0
 11
641.6136534439
 21
352.9513835609
 31
0.0
  0
LINE
  5
1FA2
330
2
100
AcDbEntity
  8
0
100
AcDbLine
 10
642.0134484439
 20
351.5513895609
 30
0.0
 11
641.0134484439
 21
350.5513895609
 31
0.0
  0
LINE
  5
1FA3
330
2
100
AcDbEntity
  8
0
100
AcDbLine
 10
689.6135534439
 20
304.9513835609
 30
0.0
 11
689.6135534439
 21
350.9513835609
 31
0.0
  0
LINE
  5
1FA4
330
2
100
AcDbEntity
  8
0
100
AcDbLine
 10
688.2135594439
 20
305.3513925609
 30
0.0
 11
688.2135524439
 21
345.4513835609
 31
0.0
  0
LINE
  5
1FA5
330
2
100
AcDbEntity
  8
0
100
AcDbLine
 10
689.6135534439
 20
304.9513835609
 30
0.0
 11
687.6135534439
 21
302.9513835609
 31
0.0
  0
LINE
  5
1FA6
330
2
100
AcDbEntity
  8
0
100
AcDbLine
 10
688.2135594439
 20
305.3513925609
 30
0.0
 11
687.2135524439
 21
304.3513925609
 31
0.0
  0
LINE
  5
1FA7
330
2
100
AcDbEntity
  8
0
100
AcDbLine
 10
691.6135534439
 20
333.4513835609
 30
0.0
 11
695.1135534439
 21
329.9513835609
 31
0.0
  0
LINE
  5
1FA8
330
2
100
AcDbEntity
  8
0
100
AcDbLine
 10
695.1135534439
 20
325.9513835609
 30
0.0
 11
691.6135534439
 21
322.4513835609
 31
0.0
  0
LINE
  5
1FA9
330
2
100
AcDbEntity
  8
0
100
AcDbLine
 10
691.6135534439
 20
334.4513835609
 30
0.0
 11
691.6135534439
 21
321.4513835609
 31
0.0
  0
ARC
  5
1FAA
330
2
100
AcDbEntity
  8
0
100
AcDbCircle
 10
690.6135384439
 20
321.4513835609
 30
0.0
 40
1.0
100
AcDbArc
 50
270.0
 51
0.0
  0
LINE
  5
1FAB
330
2
100
AcDbEntity
  8
0
100
AcDbLine
 10
690.6135534439
 20
320.4513835609
 30
0.0
 11
689.6135534439
 21
320.4513835609
 31
0.0
  0
ARC
  5
1FAC
330
2
100
AcDbEntity
  8
0
100
AcDbCircle
 10
690.6135534439
 20
334.4513835609
 30
0.0
 40
1.0
100
AcDbArc
 50
0.0
 51
90.0
  0
LINE
  5
1FAD
330
2
100
AcDbEntity
  8
0
100
AcDbLine
 10
690.6135534439
 20
335.4513835609
 30
0.0
 11
689.6135534439
 21
335.4513835609
 31
0.0
  0
LINE
  5
1FAE
330
2
100
AcDbEntity
  8
0
100
AcDbLine
 10
695.1135534439
 20
325.9513835609
 30
0.0
 11
695.1135534439
 21
329.9513835609
 31
0.0
  0
ARC
  5
1FAF
330
2
100
AcDbEntity
  8
0
100
AcDbCircle
 10
684.0838234439
 20
347.4216835609
 30
0.0
 40
1.742199999999999
100
AcDbArc
 50
359.9986903345
 51
90.0013096655
  0
ARC
  5
1FB0
330
2
100
AcDbEntity
  8
0
100
AcDbCircle
 10
684.0838234439
 20
351.4810835609
 30
0.0
 40
1.742199999999999
100
AcDbArc
 50
269.9986903345
 51
0.0013096655
  0
CIRCLE
  5
1FB1
330
2
100
AcDbEntity
  8
0
100
AcDbCircle
 10
686.1135234439
 20
349.4513835609
 30
0.0
 40
3.500000000000028
  0
ARC
  5
1FB2
330
2
100
AcDbEntity
  8
0
100
AcDbCircle
 10
686.1135234439
 20
349.4513835609
 30
0.0
 40
4.0
100
AcDbArc
 50
180.0
 51
270.0
  0
ARC
  5
1FB3
330
2
100
AcDbEntity
  8
0
100
AcDbCircle
 10
686.1135234439
 20
349.4513835609
 30
0.0
 40
2.049999999999998
100
AcDbArc
 50
171.938039916
 51
180.0
  0
ARC
  5
1FB4
330
2
100
AcDbEntity
  8
0
100
AcDbCircle
 10
686.1135234439
 20
349.4513835609
 30
0.0
 40
2.049999999999998
100
AcDbArc
 50
180.0
 51
188.061960084
  0
LINE
  5
1FB5
330
2
100
AcDbEntity
  8
0
100
AcDbLine
 10
682.1135534439
 20
349.4513835609
 30
0.0
 11
682.1135534439
 21
352.9511845609
 31
0.0
  0
ARC
  5
1FB6
330
2
100
AcDbEntity
  8
0
100
AcDbCircle
 10
688.1432234439
 20
347.4216835609
 30
0.0
 40
1.742199999999999
100
AcDbArc
 50
89.9986903345
 51
180.0013096655
  0
LINE
  5
1FB7
330
2
100
AcDbEntity
  8
0
100
AcDbLine
 10
686.1135234439
 20
345.4513835609
 30
0.0
 11
689.6135234439
 21
345.4513835609
 31
0.0
  0
ARC
  5
1FB8
330
2
100
AcDbEntity
  8
0
100
AcDbCircle
 10
686.1135234439
 20
349.4513835609
 30
0.0
 40
2.049999999999998
100
AcDbArc
 50
261.938039916
 51
270.0
  0
ARC
  5
1FB9
330
2
100
AcDbEntity
  8
0
100
AcDbCircle
 10
686.1135234439
 20
349.4513835609
 30
0.0
 40
2.049999999999998
100
AcDbArc
 50
270.0
 51
278.061960084
  0
LINE
  5
1FBA
330
2
100
AcDbEntity
  8
0
100
AcDbLine
 10
689.6135534439
 20
350.9513835609
 30
0.0
 11
687.6135534439
 21
352.9513835609
 31
0.0
  0
LINE
  5
1FBB
330
2
100
AcDbEntity
  8
0
100
AcDbLine
 10
689.6135534439
 20
350.9513835609
 30
0.0
 11
687.6135534439
 21
352.9513835609
 31
0.0
  0
ARC
  5
1FBC
330
2
100
AcDbEntity
  8
0
100
AcDbCircle
 10
688.1432234439
 20
351.4810835609
 30
0.0
 40
1.742199999999999
100
AcDbArc
 50
179.9986903345
 51
270.0013096655
  0
ARC
  5
1FBD
330
2
100
AcDbEntity
  8
0
100
AcDbCircle
 10
686.1135234439
 20
349.4513835609
 30
0.0
 40
2.049999999999998
100
AcDbArc
 50
0.0
 51
8.061960084
  0
ARC
  5
1FBE
330
2
100
AcDbEntity
  8
0
100
AcDbCircle
 10
686.1135234439
 20
349.4513835609
 30
0.0
 40
2.049999999999998
100
AcDbArc
 50
351.938039916
 51
0.0
  0
ARC
  5
1FBF
330
2
100
AcDbEntity
  8
0
100
AcDbCircle
 10
686.1135234439
 20
349.4513835609
 30
0.0
 40
2.049999999999998
100
AcDbArc
 50
90.0
 51
98.061960084
  0
ARC
  5
1FC0
330
2
100
AcDbEntity
  8
0
100
AcDbCircle
 10
686.1135234439
 20
349.4513835609
 30
0.0
 40
2.049999999999998
100
AcDbArc
 50
81.938039916
 51
90.0
  0
TEXT
  5
2120
330
2
100
AcDbEntity
  8
TITLE_C
100
AcDbText
 10
135.5971328848
 20
-0.2595618083
 30
0.0
 40
5.0
  1
F2F15T010～240-CSML15NT
 41
0.9
100
AcDbText
  0
TEXT
  5
2123
330
2
100
AcDbEntity
  8
TITLE_C
100
AcDbText
 10
30.3179538473
 20
-9.4967701372
 30
0.0
 40
5.0
  1
F2F15T010～240-CTML15NTX
 41
0.9
100
AcDbText
  0
TEXT
  5
2124
330
2
100
AcDbEntity
  8
TITLE_C
100
AcDbText
 10
30.3179538473
 20
-18.4967701372
 30
0.0
 40
5.0
  1
F2F15T010～240-CTML15WT
 41
0.9
100
AcDbText
  0
TEXT
  5
2125
330
2
100
AcDbEntity
  8
TITLE_C
100
AcDbText
 10
30.3179538473
 20
-45.6771423325
 30
0.0
 40
5.0
  1
F2F15T010～240-CTML25WT
 41
0.9
100
AcDbText
  0
TEXT
  5
2126
330
2
100
AcDbEntity
  8
TITLE_C
100
AcDbText
 10
30.3179538473
 20
-36.6771423325
 30
0.0
 40
5.0
  1
F2F15T010～240-CTML25NTX
 41
0.9
100
AcDbText
  0
TEXT
  5
2ADD
330
2
100
AcDbEntity
  8
TITLE_C
100
AcDbText
 10
30.3179538473
 20
-0.6814585973
 30
0.0
 40
5.0
  1
F2F15T010～240-CTML15NT
 41
0.9
100
AcDbText
  0
TEXT
  5
2ADF
330
2
100
AcDbEntity
  8
TITLE_C
100
AcDbText
 10
30.3179538473
 20
-27.5172285729
 30
0.0
 40
5.0
  1
F2F15T010～240-CTML25NT
 41
0.9
100
AcDbText
  0
TEXT
  5
2E92
330
2
100
AcDbEntity
  8
TITLE_C
100
AcDbText
 10
135.6993459012
 20
-9.0569083436
 30
0.0
 40
5.0
  1
F2F15T010～240-CSML15WTX
 41
0.9
100
AcDbText
  0
TEXT
  5
2E93
330
2
100
AcDbEntity
  8
TITLE_C
100
AcDbText
 10
135.6993459012
 20
-18.0569083436
 30
0.0
 40
5.0
  1
F2F15T010～240-CSML15WT
 41
0.9
100
AcDbText
  0
TEXT
  5
2E94
330
2
100
AcDbEntity
  8
TITLE_C
100
AcDbText
 10
135.6993459012
 20
-45.2372805389
 30
0.0
 40
5.0
  1
F2F15T010～240-CSML25WT
 41
0.9
100
AcDbText
  0
TEXT
  5
2E95
330
2
100
AcDbEntity
  8
TITLE_C
100
AcDbText
 10
135.6993459012
 20
-36.2372805389
 30
0.0
 40
5.0
  1
F2F15T010～240-CSML25WTX
 41
0.9
100
AcDbText
  0
TEXT
  5
2E96
330
2
100
AcDbEntity
  8
TITLE_C
100
AcDbText
 10
135.6993459012
 20
-27.0773667793
 30
0.0
 40
5.0
  1
F2F15T010～240-CSML25NT
 41
0.9
100
AcDbText
  0
LINE
  5
3192
330
2
100
AcDbEntity
  8
0
100
AcDbLine
 10
318.5580724439
 20
100.63123546
 30
0.0
 11
387.0580724439
 21
100.63123546
 31
0.0
  0
LINE
  5
3193
330
2
100
AcDbEntity
  8
0
100
AcDbLine
 10
318.5580724439
 20
94.23123546
 30
0.0
 11
387.0580724439
 21
94.23123546
 31
0.0
  0
LINE
  5
3194
330
2
100
AcDbEntity
  8
HIDS
100
AcDbLine
 10
318.5580724439
 20
167.63123546
 30
0.0
 11
387.0580724439
 21
167.63123546
 31
0.0
  0
LINE
  5
3195
330
2
100
AcDbEntity
  8
HIDS
100
AcDbLine
 10
318.5580724439
 20
161.23123546
 30
0.0
 11
387.0580724439
 21
161.23123546
 31
0.0
  0
LINE
  5
31B8
330
2
100
AcDbEntity
  8
HIDS
100
AcDbLine
 10
517.7580724439
 20
355.9513835609
 30
0.0
 11
517.7580724439
 21
287.4513835609
 31
0.0
  0
LINE
  5
31B9
330
2
100
AcDbEntity
  8
HIDS
100
AcDbLine
 10
511.3580724439
 20
355.9513835609
 30
0.0
 11
511.3580724439
 21
287.4513835609
 31
0.0
  0
LINE
  5
31BA
330
2
100
AcDbEntity
  8
HIDS
100
AcDbLine
 10
603.7580724439
 20
355.9513835609
 30
0.0
 11
603.7580724439
 21
287.4513835609
 31
0.0
  0
LINE
  5
31BB
330
2
100
AcDbEntity
  8
HIDS
100
AcDbLine
 10
597.3580724439
 20
355.9513835609
 30
0.0
 11
597.3580724439
 21
287.4513835609
 31
0.0
  0
ENDSEC
  0
SECTION
  2
OBJECTS
  0
DICTIONARY
  5
7
330
0
100
AcDbDictionary
281
     1
  3
ACAD_CIP_PREVIOUS_PRODUCT_INFO
350
2E81
  3
ACAD_COLOR
350
20DE
  3
ACAD_DETAILVIEWSTYLE
350
2E7D
  3
ACAD_GROUP
350
75
  3
ACAD_LAYOUT
350
61
  3
ACAD_MATERIAL
350
20B1
  3
ACAD_MLEADERSTYLE
350
2103
  3
ACAD_MLINESTYLE
350
76
  3
ACAD_PLOTSETTINGS
350
77
  3
ACAD_PLOTSTYLENAME
350
6
  3
ACAD_SCALELIST
350
20E1
  3
ACAD_SECTIONVIEWSTYLE
350
2E7B
  3
ACAD_TABLESTYLE
350
20DF
  3
ACAD_VISUALSTYLE
350
20CA
  3
AcadDim
350
480
  3
ACDB_RECOMPOSE_DATA
350
3444
  3
AcDbVariableDictionary
350
102
  3
DWGPROPS
350
3445
  0
DICTIONARY
  5
226B
330
6E
100
AcDbDictionary
280
     1
281
     1
  0
DICTIONARY
  5
210A
330
66
100
AcDbDictionary
280
     1
281
     1
  3
ACAD_LAYERSTATES
360
210B
  0
DICTIONARY
  5
2254
330
5E
100
AcDbDictionary
280
     1
281
     1
  3
ADSK_XREC_LAYER_RECONCILED
360
2255
  0
DICTIONARY
  5
2256
330
3E
100
AcDbDictionary
280
     1
281
     1
  3
ADSK_XREC_LAYER_RECONCILED
360
2257
  0
DICTIONARY
  5
225C
330
2B5
100
AcDbDictionary
280
     1
281
     1
  3
ADSK_XREC_LAYER_RECONCILED
360
225D
  0
DICTIONARY
  5
225E
330
2BA
100
AcDbDictionary
280
     1
281
     1
  3
ADSK_XREC_LAYER_RECONCILED
360
225F
  0
DICTIONARY
  5
2262
330
3FA
100
AcDbDictionary
280
     1
281
     1
  3
ADSK_XREC_LAYER_RECONCILED
360
2263
  0
DICTIONARY
  5
2108
330
2107
100
AcDbDictionary
280
     1
281
     1
  3
ADSK_XREC_LAYER_RECONCILED
360
2264
  0
XRECORD
  5
2E81
102
{ACAD_REACTORS
330
7
102
}
330
7
100
AcDbXrecord
280
     1
300
ACD
300
2020
300
87224ACD_2020_0F
  0
DICTIONARY
  5
20DE
102
{ACAD_REACTORS
330
7
102
}
330
7
100
AcDbDictionary
281
     1
  0
DICTIONARY
  5
2E7D
102
{ACAD_REACTORS
330
7
102
}
330
7
100
AcDbDictionary
281
     1
  3
Imperial24
350
2E7E
  0
DICTIONARY
  5
75
102
{ACAD_REACTORS
330
7
102
}
330
7
100
AcDbDictionary
281
     1
  0
DICTIONARY
  5
61
102
{ACAD_REACTORS
330
7
102
}
330
7
100
AcDbDictionary
281
     1
  3
Model
350
60
  3
レイアウト1
350
343E
  0
DICTIONARY
  5
20B1
102
{ACAD_REACTORS
330
7
102
}
330
7
100
AcDbDictionary
281
     1
  3
ByBlock
350
20BA
  3
ByLayer
350
20B2
  3
Global
350
20C2
  0
DICTIONARY
  5
2103
102
{ACAD_REACTORS
330
7
102
}
330
7
100
AcDbDictionary
281
     1
  3
Standard
350
2104
  0
DICTIONARY
  5
76
102
{ACAD_REACTORS
330
7
102
}
330
7
100
AcDbDictionary
281
     1
  3
STANDARD
350
78
  0
DICTIONARY
  5
77
102
{ACAD_REACTORS
330
7
102
}
330
7
100
AcDbDictionary
281
     1
  0
ACDBDICTIONARYWDFLT
  5
6
102
{ACAD_REACTORS
330
7
102
}
330
7
100
AcDbDictionary
281
     1
  3
Normal
350
5
100
AcDbDictionaryWithDefault
340
5
  0
DICTIONARY
  5
20E1
102
{ACAD_REACTORS
330
7
102
}
330
7
100
AcDbDictionary
281
     1
  3
A0
350
20E2
  3
A1
350
20E3
  3
A2
350
20E4
  3
A3
350
20E5
  3
A4
350
20E6
  3
A5
350
20E7
  3
A6
350
20E8
  3
A7
350
20E9
  3
A8
350
20EA
  3
A9
350
20EB
  3
B0
350
20EC
  3
B1
350
20ED
  3
B2
350
20EE
  3
B3
350
20EF
  3
B4
350
20F0
  3
B5
350
20F1
  3
B6
350
20F2
  3
B7
350
20F3
  3
B8
350
20F4
  3
B9
350
20F5
  3
C0
350
20F6
  3
C1
350
20F7
  3
C2
350
20F8
  3
C3
350
20F9
  3
C4
350
20FA
  3
C5
350
20FB
  3
C6
350
20FC
  3
C7
350
20FD
  3
C8
350
20FE
  3
C9
350
20FF
  3
D0
350
2100
  3
D1
350
2101
  3
D2
350
2102
  0
DICTIONARY
  5
2E7B
102
{ACAD_REACTORS
330
7
102
}
330
7
100
AcDbDictionary
281
     1
  3
Imperial24
350
2E7C
  0
DICTIONARY
  5
20DF
102
{ACAD_REACTORS
330
7
102
}
330
7
100
AcDbDictionary
281
     1
  3
Standard
350
20E0
  0
DICTIONARY
  5
20CA
102
{ACAD_REACTORS
330
7
102
}
330
7
100
AcDbDictionary
281
     1
  3
2dWireframe
350
20D0
  3
3D Hidden
350
20D2
  3
3dWireframe
350
20D1
  3
Basic
350
20CF
  3
Brighten
350
20D6
  3
ColorChange
350
20DA
  3
Conceptual
350
20D3
  3
Dim
350
20D5
  3
EdgeColorOff
350
20DD
  3
Facepattern
350
20D9
  3
Flat
350
20CB
  3
FlatWithEdges
350
20CC
  3
Gouraud
350
20CD
  3
GouraudWithEdges
350
20CE
  3
Hidden
350
2E75
  3
JitterOff
350
20DB
  3
Linepattern
350
20D8
  3
OverhangOff
350
20DC
  3
Realistic
350
20D4
  3
Shaded
350
2E7A
  3
Shaded with edges
350
2E79
  3
Shades of Gray
350
2E76
  3
Sketchy
350
2E77
  3
Thicken
350
20D7
  3
Wireframe
350
2E74
  3
X-Ray
350
2E78
  0
XRECORD
  5
480
102
{ACAD_REACTORS
330
7
102
}
330
7
100
AcDbXrecord
280
     1
 90
   990106
  3

 60
     0
 61
     0
 62
     1
 63
     3
 64
     1
 65
     0
 66
     0
 67
     3
 68
     1
 69
     0
 70
     0
 71
     0
 72
     0
 40
0.0
170
     2
340
0
  0
XRECORD
  5
3444
102
{ACAD_REACTORS
330
7
102
}
330
7
100
AcDbXrecord
280
     1
 90
        1
330
20E0
  0
DICTIONARY
  5
102
102
{ACAD_REACTORS
330
7
102
}
330
7
100
AcDbDictionary
281
     1
  3
CANNOSCALE
350
22E8
  3
CMLEADERSTYLE
350
22E7
  3
CTABLESTYLE
350
22E6
  3
CVIEWDETAILSTYLE
350
2E83
  3
CVIEWSECTIONSTYLE
350
2E84
  3
DIMASSOC
350
103
  3
INDEXCTL
350
22EA
  3
LAYEREVAL
350
2E87
  3
LAYERNOTIFY
350
2E88
  3
LIGHTINGUNITS
350
2E86
  3
MSLTSCALE
350
2E85
  3
SORTENTS
350
22E9
  3
XCLIPFRAME
350
3442
  0
XRECORD
  5
3445
102
{ACAD_REACTORS
330
7
102
}
330
7
100
AcDbXrecord
280
     1
  1
DWGPROPS COOKIE
  2

  3

  4

  6

  7

  8
ykitaga
  9

300
=
301
=
302
=
303
=
304
=
305
=
306
=
307
=
308
=
309
=
 40
0.4973253472
 41
2453557.748483796
 42
2460164.364050926
  1

 90
        0
  0
DICTIONARY
  5
210B
102
{ACAD_REACTORS
330
210A
102
}
330
210A
100
AcDbDictionary
281
     1
  0
XRECORD
  5
2255
102
{ACAD_REACTORS
330
2254
102
}
330
2254
100
AcDbXrecord
280
     1
290
     1
  0
XRECORD
  5
2257
102
{ACAD_REACTORS
330
2256
102
}
330
2256
100
AcDbXrecord
280
     1
290
     1
  0
XRECORD
  5
225D
102
{ACAD_REACTORS
330
225C
102
}
330
225C
100
AcDbXrecord
280
     1
290
     1
  0
XRECORD
  5
225F
102
{ACAD_REACTORS
330
225E
102
}
330
225E
100
AcDbXrecord
280
     1
290
     1
  0
XRECORD
  5
2263
102
{ACAD_REACTORS
330
2262
102
}
330
2262
100
AcDbXrecord
280
     1
290
     1
  0
XRECORD
  5
2264
102
{ACAD_REACTORS
330
2108
102
}
330
2108
100
AcDbXrecord
280
     1
290
     1
  0
ACDBDETAILVIEWSTYLE
  5
2E7E
102
{ACAD_XDICTIONARY
360
34A2
102
}
102
{ACAD_REACTORS
330
2E7D
102
}
330
2E7D
100
AcDbModelDocViewStyle
 70
     0
  3
Imperial24
290
     0
100
AcDbDetailViewStyle
 70
     0
 71
     0
 90
        3
 71
     1
340
16
 40
0.24
340
0
 40
0.24
300

 40
0.36
280
     3
 71
     2
340
8
 90
       25
 71
     3
340
16
 40
0.24
 90
        1
 40
0.75
 90
        1
300
%<\AcVar ViewType \f "%tc1">% %<\AcVar ViewDetailId>%\PSCALE %<\AcVar ViewScale \f "%sn">%
 71
     4
340
8
 90
       25
340
8
 90
       25
280
     0
  0
LAYOUT
  5
60
102
{ACAD_XDICTIONARY
360
3446
102
}
102
{ACAD_REACTORS
330
61
102
}
330
61
100
AcDbPlotSettings
  1

  2
Canon LBP-1420
  4
A4
  6

 40
5.873749733
 41
5.8737478256
 42
5.8737487793
 43
5.8737487793
 44
209.9733276367
 45
296.925994873
 46
0.0
 47
5.37
 48
0.0
 49
0.0
140
0.0
141
0.0
142
1.0
143
0.088099941
 70
 11956
 72
     1
 73
     1
 74
     1
  7
Sekkei.ctb
 75
     0
147
11.3507453947
148
-88.9740150773
149
-101.3630682339
100
AcDbLayout
  1
Model
 70
     1
 71
     0
 10
0.0
 20
0.0
 11
12.0
 21
9.0
 12
0.0
 22
0.0
 32
0.0
 14
0.0
 24
0.0
 34
0.0
 15
0.0
 25
0.0
 35
0.0
146
0.0
 13
0.0
 23
0.0
 33
0.0
 16
1.0
 26
0.0
 36
0.0
 17
0.0
 27
1.0
 37
0.0
 76
     0
330
2
331
20AF
  0
LAYOUT
  5
343E
102
{ACAD_XDICTIONARY
360
34B4
102
}
102
{ACAD_REACTORS
330
61
102
}
330
61
100
AcDbPlotSettings
  1

  2
LBP8610
  4

  6

 40
0.0
 41
0.0
 42
0.0
 43
0.0
 44
0.0
 45
0.0
 46
0.0
 47
0.0
 48
0.0
 49
0.0
140
0.0
141
0.0
142
1.0
143
1.0
 70
   688
 72
     0
 73
     0
 74
     5
  7

 75
    16
147
1.0
148
0.0
149
0.0
100
AcDbLayout
  1
レイアウト1
 70
     1
 71
     1
 10
0.0
 20
0.0
 11
12.0
 21
9.0
 12
0.0
 22
0.0
 32
0.0
 14
0.0
 24
0.0
 34
0.0
 15
0.0
 25
0.0
 35
0.0
146
0.0
 13
0.0
 23
0.0
 33
0.0
 16
1.0
 26
0.0
 36
0.0
 17
0.0
 27
1.0
 37
0.0
 76
     0
330
343D
  0
MATERIAL
  5
20BA
102
{ACAD_XDICTIONARY
360
20BB
102
}
102
{ACAD_REACTORS
330
20B1
102
}
330
20B1
100
AcDbMaterial
  1
ByBlock
 72
     0
 43
0.0208333333
 43
0.0
 43
0.0
 43
0.0
 43
0.0
 43
0.0208333333
 43
0.0
 43
0.0
 43
0.0
 43
0.0
 43
1.0
 43
0.0
 43
0.0
 43
0.0
 43
0.0
 43
1.0
 77
     0
 47
0.0208333333
 47
0.0
 47
0.0
 47
0.0
 47
0.0
 47
0.0208333333
 47
0.0
 47
0.0
 47
0.0
 47
0.0
 47
1.0
 47
0.0
 47
0.0
 47
0.0
 47
0.0
 47
1.0
171
     0
 49
0.0208333333
 49
0.0
 49
0.0
 49
0.0
 49
0.0
 49
0.0208333333
 49
0.0
 49
0.0
 49
0.0
 49
0.0
 49
1.0
 49
0.0
 49
0.0
 49
0.0
 49
0.0
 49
1.0
175
     0
142
0.0208333333
142
0.0
142
0.0
142
0.0
142
0.0
142
0.0208333333
142
0.0
142
0.0
142
0.0
142
0.0
142
1.0
142
0.0
142
0.0
142
0.0
142
0.0
142
1.0
179
     0
144
0.0208333333
144
0.0
144
0.0
144
0.0
144
0.0
144
0.0208333333
144
0.0
144
0.0
144
0.0
144
0.0
144
1.0
144
0.0
144
0.0
144
0.0
144
0.0
144
1.0
147
0.0208333333
147
0.0
147
0.0
147
0.0
147
0.0
147
0.0208333333
147
0.0
147
0.0
147
0.0
147
0.0
147
1.0
147
0.0
147
0.0
147
0.0
147
0.0
147
1.0
  0
MATERIAL
  5
20B2
102
{ACAD_XDICTIONARY
360
20B3
102
}
102
{ACAD_REACTORS
330
20B1
102
}
330
20B1
100
AcDbMaterial
  1
ByLayer
 72
     0
 43
0.0208333333
 43
0.0
 43
0.0
 43
0.0
 43
0.0
 43
0.0208333333
 43
0.0
 43
0.0
 43
0.0
 43
0.0
 43
1.0
 43
0.0
 43
0.0
 43
0.0
 43
0.0
 43
1.0
 77
     0
 47
0.0208333333
 47
0.0
 47
0.0
 47
0.0
 47
0.0
 47
0.0208333333
 47
0.0
 47
0.0
 47
0.0
 47
0.0
 47
1.0
 47
0.0
 47
0.0
 47
0.0
 47
0.0
 47
1.0
171
     0
 49
0.0208333333
 49
0.0
 49
0.0
 49
0.0
 49
0.0
 49
0.0208333333
 49
0.0
 49
0.0
 49
0.0
 49
0.0
 49
1.0
 49
0.0
 49
0.0
 49
0.0
 49
0.0
 49
1.0
175
     0
142
0.0208333333
142
0.0
142
0.0
142
0.0
142
0.0
142
0.0208333333
142
0.0
142
0.0
142
0.0
142
0.0
142
1.0
142
0.0
142
0.0
142
0.0
142
0.0
142
1.0
179
     0
144
0.0208333333
144
0.0
144
0.0
144
0.0
144
0.0
144
0.0208333333
144
0.0
144
0.0
144
0.0
144
0.0
144
1.0
144
0.0
144
0.0
144
0.0
144
0.0
144
1.0
147
0.0208333333
147
0.0
147
0.0
147
0.0
147
0.0
147
0.0208333333
147
0.0
147
0.0
147
0.0
147
0.0
147
1.0
147
0.0
147
0.0
147
0.0
147
0.0
147
1.0
  0
MATERIAL
  5
20C2
102
{ACAD_XDICTIONARY
360
20C3
102
}
102
{ACAD_REACTORS
330
20B1
102
}
330
20B1
100
AcDbMaterial
  1
Global
 72
     0
 43
0.0208333333
 43
0.0
 43
0.0
 43
0.0
 43
0.0
 43
0.0208333333
 43
0.0
 43
0.0
 43
0.0
 43
0.0
 43
1.0
 43
0.0
 43
0.0
 43
0.0
 43
0.0
 43
1.0
 77
     0
 47
0.0208333333
 47
0.0
 47
0.0
 47
0.0
 47
0.0
 47
0.0208333333
 47
0.0
 47
0.0
 47
0.0
 47
0.0
 47
1.0
 47
0.0
 47
0.0
 47
0.0
 47
0.0
 47
1.0
171
     0
 49
0.0208333333
 49
0.0
 49
0.0
 49
0.0
 49
0.0
 49
0.0208333333
 49
0.0
 49
0.0
 49
0.0
 49
0.0
 49
1.0
 49
0.0
 49
0.0
 49
0.0
 49
0.0
 49
1.0
175
     0
142
0.0208333333
142
0.0
142
0.0
142
0.0
142
0.0
142
0.0208333333
142
0.0
142
0.0
142
0.0
142
0.0
142
1.0
142
0.0
142
0.0
142
0.0
142
0.0
142
1.0
179
     0
144
0.0208333333
144
0.0
144
0.0
144
0.0
144
0.0
144
0.0208333333
144
0.0
144
0.0
144
0.0
144
0.0
144
1.0
144
0.0
144
0.0
144
0.0
144
0.0
144
1.0
147
0.0208333333
147
0.0
147
0.0
147
0.0
147
0.0
147
0.0208333333
147
0.0
147
0.0
147
0.0
147
0.0
147
1.0
147
0.0
147
0.0
147
0.0
147
0.0
147
1.0
  0
MLEADERSTYLE
  5
2104
102
{ACAD_REACTORS
330
2103
102
}
330
2103
100
AcDbMLeaderStyle
170
     2
171
     1
172
     0
 90
        2
 40
0.0
 41
0.0
173
     1
 91
-1056964608
340
6A
 92
       -2
290
     1
 42
0.09
291
     1
 43
0.36
  3
Standard
 44
0.18
300

342
16
174
     1
178
     6
175
     1
176
     0
 93
-1056964608
 45
0.18
292
     0
297
     0
 46
0.18
 94
-1056964608
 47
1.0
 49
1.0
140
1.0
293
     1
141
0.0
294
     1
177
     0
142
1.0
295
     0
296
     0
143
0.125
1001
ACAD_MLEADERVER
1070
     2
  0
MLINESTYLE
  5
78
102
{ACAD_REACTORS
330
76
102
}
330
76
100
AcDbMlineStyle
  2
STANDARD
 70
     0
  3

 62
     0
 51
90.0
 52
90.0
 71
     2
 49
0.5
 62
   256
  6
BYLAYER
 49
-0.5
 62
   256
  6
BYLAYER
  0
ACDBPLACEHOLDER
  5
5
102
{ACAD_REACTORS
330
6
102
}
330
6
  0
SCALE
  5
20E2
102
{ACAD_REACTORS
330
20E1
102
}
330
20E1
100
AcDbScale
 70
     0
300
1:1
140
1.0
141
1.0
290
     1
  0
SCALE
  5
20E3
102
{ACAD_REACTORS
330
20E1
102
}
330
20E1
100
AcDbScale
 70
     0
300
1:2
140
1.0
141
2.0
290
     0
  0
SCALE
  5
20E4
102
{ACAD_REACTORS
330
20E1
102
}
330
20E1
100
AcDbScale
 70
     0
300
1:4
140
1.0
141
4.0
290
     0
  0
SCALE
  5
20E5
102
{ACAD_REACTORS
330
20E1
102
}
330
20E1
100
AcDbScale
 70
     0
300
1:5
140
1.0
141
5.0
290
     0
  0
SCALE
  5
20E6
102
{ACAD_REACTORS
330
20E1
102
}
330
20E1
100
AcDbScale
 70
     0
300
1:8
140
1.0
141
8.0
290
     0
  0
SCALE
  5
20E7
102
{ACAD_REACTORS
330
20E1
102
}
330
20E1
100
AcDbScale
 70
     0
300
1:10
140
1.0
141
10.0
290
     0
  0
SCALE
  5
20E8
102
{ACAD_REACTORS
330
20E1
102
}
330
20E1
100
AcDbScale
 70
     0
300
1:16
140
1.0
141
16.0
290
     0
  0
SCALE
  5
20E9
102
{ACAD_REACTORS
330
20E1
102
}
330
20E1
100
AcDbScale
 70
     0
300
1:20
140
1.0
141
20.0
290
     0
  0
SCALE
  5
20EA
102
{ACAD_REACTORS
330
20E1
102
}
330
20E1
100
AcDbScale
 70
     0
300
1:30
140
1.0
141
30.0
290
     0
  0
SCALE
  5
20EB
102
{ACAD_REACTORS
330
20E1
102
}
330
20E1
100
AcDbScale
 70
     0
300
1:40
140
1.0
141
40.0
290
     0
  0
SCALE
  5
20EC
102
{ACAD_REACTORS
330
20E1
102
}
330
20E1
100
AcDbScale
 70
     0
300
1:50
140
1.0
141
50.0
290
     0
  0
SCALE
  5
20ED
102
{ACAD_REACTORS
330
20E1
102
}
330
20E1
100
AcDbScale
 70
     0
300
1:100
140
1.0
141
100.0
290
     0
  0
SCALE
  5
20EE
102
{ACAD_REACTORS
330
20E1
102
}
330
20E1
100
AcDbScale
 70
     0
300
2:1
140
2.0
141
1.0
290
     0
  0
SCALE
  5
20EF
102
{ACAD_REACTORS
330
20E1
102
}
330
20E1
100
AcDbScale
 70
     0
300
4:1
140
4.0
141
1.0
290
     0
  0
SCALE
  5
20F0
102
{ACAD_REACTORS
330
20E1
102
}
330
20E1
100
AcDbScale
 70
     0
300
8:1
140
8.0
141
1.0
290
     0
  0
SCALE
  5
20F1
102
{ACAD_REACTORS
330
20E1
102
}
330
20E1
100
AcDbScale
 70
     0
300
10:1
140
10.0
141
1.0
290
     0
  0
SCALE
  5
20F2
102
{ACAD_REACTORS
330
20E1
102
}
330
20E1
100
AcDbScale
 70
     0
300
100:1
140
100.0
141
1.0
290
     0
  0
SCALE
  5
20F3
102
{ACAD_REACTORS
330
20E1
102
}
330
20E1
100
AcDbScale
 70
     0
300
1/128" = 1'-0"
140
0.0078125
141
12.0
290
     0
  0
SCALE
  5
20F4
102
{ACAD_REACTORS
330
20E1
102
}
330
20E1
100
AcDbScale
 70
     0
300
1/64" = 1'-0"
140
0.015625
141
12.0
290
     0
  0
SCALE
  5
20F5
102
{ACAD_REACTORS
330
20E1
102
}
330
20E1
100
AcDbScale
 70
     0
300
1/32" = 1'-0"
140
0.03125
141
12.0
290
     0
  0
SCALE
  5
20F6
102
{ACAD_REACTORS
330
20E1
102
}
330
20E1
100
AcDbScale
 70
     0
300
1/16" = 1'-0"
140
0.0625
141
12.0
290
     0
  0
SCALE
  5
20F7
102
{ACAD_REACTORS
330
20E1
102
}
330
20E1
100
AcDbScale
 70
     0
300
3/32" = 1'-0"
140
0.09375
141
12.0
290
     0
  0
SCALE
  5
20F8
102
{ACAD_REACTORS
330
20E1
102
}
330
20E1
100
AcDbScale
 70
     0
300
1/8" = 1'-0"
140
0.125
141
12.0
290
     0
  0
SCALE
  5
20F9
102
{ACAD_REACTORS
330
20E1
102
}
330
20E1
100
AcDbScale
 70
     0
300
3/16" = 1'-0"
140
0.1875
141
12.0
290
     0
  0
SCALE
  5
20FA
102
{ACAD_REACTORS
330
20E1
102
}
330
20E1
100
AcDbScale
 70
     0
300
1/4" = 1'-0"
140
0.25
141
12.0
290
     0
  0
SCALE
  5
20FB
102
{ACAD_REACTORS
330
20E1
102
}
330
20E1
100
AcDbScale
 70
     0
300
3/8" = 1'-0"
140
0.375
141
12.0
290
     0
  0
SCALE
  5
20FC
102
{ACAD_REACTORS
330
20E1
102
}
330
20E1
100
AcDbScale
 70
     0
300
1/2" = 1'-0"
140
0.5
141
12.0
290
     0
  0
SCALE
  5
20FD
102
{ACAD_REACTORS
330
20E1
102
}
330
20E1
100
AcDbScale
 70
     0
300
3/4" = 1'-0"
140
0.75
141
12.0
290
     0
  0
SCALE
  5
20FE
102
{ACAD_REACTORS
330
20E1
102
}
330
20E1
100
AcDbScale
 70
     0
300
1" = 1'-0"
140
1.0
141
12.0
290
     0
  0
SCALE
  5
20FF
102
{ACAD_REACTORS
330
20E1
102
}
330
20E1
100
AcDbScale
 70
     0
300
1-1/2" = 1'-0"
140
1.5
141
12.0
290
     0
  0
SCALE
  5
2100
102
{ACAD_REACTORS
330
20E1
102
}
330
20E1
100
AcDbScale
 70
     0
300
3" = 1'-0"
140
3.0
141
12.0
290
     0
  0
SCALE
  5
2101
102
{ACAD_REACTORS
330
20E1
102
}
330
20E1
100
AcDbScale
 70
     0
300
6" = 1'-0"
140
6.0
141
12.0
290
     0
  0
SCALE
  5
2102
102
{ACAD_REACTORS
330
20E1
102
}
330
20E1
100
AcDbScale
 70
     0
300
1'-0" = 1'-0"
140
12.0
141
12.0
290
     0
  0
ACDBSECTIONVIEWSTYLE
  5
2E7C
102
{ACAD_XDICTIONARY
360
34A0
102
}
102
{ACAD_REACTORS
330
2E7B
102
}
330
2E7B
100
AcDbModelDocViewStyle
 70
     0
  3
Imperial24
290
     0
100
AcDbSectionViewStyle
 70
     0
 71
     0
 90
       78
 71
     1
340
16
 40
0.24
340
0
340
0
 40
0.24
300
I, O, Q, S, X, Z
 40
0.48
 90
        3
 40
0.18
 90
        1
 71
     2
340
8
 90
       25
340
8
 90
       50
 40
0.24
 40
0.0
 40
0.24
 71
     3
340
16
 40
0.24
 90
        1
 40
0.75
 90
        1
300
%<\AcVar ViewType \f "%tc1">% %<\AcVar ViewSectionStartId>%-%<\AcVar ViewSectionEndId>%\PSCALE %<\AcVar ViewScale \f "%sn">%
 71
     4
300
ANSI31
 40
1.0
 90
        0
290
     0
290
     0
 90
        6
 40
0.0
 40
1.5707963268
 40
0.2617993878
 40
1.308996939
 40
-0.2617993878
 40
1.8325957146
  0
TABLESTYLE
  5
20E0
102
{ACAD_XDICTIONARY
360
2265
102
}
102
{ACAD_REACTORS
330
20DF
102
}
330
20DF
100
AcDbTableStyle
  3
Standard
 70
     0
 71
     0
 40
0.06
 41
0.06
280
     0
281
     0
  7
STANDARD
140
0.18
170
     2
 62
     0
 63
     7
283
     0
274
    -2
284
     1
 64
     0
275
    -2
285
     1
 65
     0
276
    -2
286
     1
 66
     0
277
    -2
287
     1
 67
     0
278
    -2
288
     1
 68
     0
279
    -2
289
     1
 69
     0
  7
STANDARD
140
0.25
170
     5
 62
     0
 63
     7
283
     0
274
    -2
284
     1
 64
     0
275
    -2
285
     1
 65
     0
276
    -2
286
     1
 66
     0
277
    -2
287
     1
 67
     0
278
    -2
288
     1
 68
     0
279
    -2
289
     1
 69
     0
  7
STANDARD
140
0.18
170
     5
 62
     0
 63
     7
283
     0
274
    -2
284
     1
 64
     0
275
    -2
285
     1
 65
     0
276
    -2
286
     1
 66
     0
277
    -2
287
     1
 67
     0
278
    -2
288
     1
 68
     0
279
    -2
289
     1
 69
     0
  0
VISUALSTYLE
  5
20D0
102
{ACAD_XDICTIONARY
360
3455
102
}
102
{ACAD_REACTORS
330
20CA
102
}
330
20CA
100
AcDbVisualStyle
  2

 70
     4
 71
     0
 72
     2
 73
     0
 90
        0
 40
-0.6
 41
-30.0
 62
     5
 63
     7
 74
     1
 91
        4
 64
     7
 65
   257
 75
     1
175
     1
 42
1.0
 92
        0
 66
   257
 43
1.0
 76
     1
 77
     6
 78
     2
 67
     7
 79
     5
170
     0
171
     0
290
     0
174
     0
 93
        1
 44
0.0
173
     0
291
     0
 45
0.0
1001
ACAD
1000
AcDbSavedByObjectVersion
1070
     0
  0
VISUALSTYLE
  5
20D2
102
{ACAD_XDICTIONARY
360
3459
102
}
102
{ACAD_REACTORS
330
20CA
102
}
330
20CA
100
AcDbVisualStyle
  2

 70
     6
 71
     1
 72
     2
 73
     2
 90
        0
 40
-0.6
 41
-30.0
 62
     5
 63
     7
 74
     2
 91
        2
 64
     7
 65
   257
 75
     2
175
     1
 42
179.0
 92
        0
 66
   257
 43
1.0
 76
     1
 77
     6
 78
     2
 67
     7
 79
     3
170
     0
171
     0
290
     0
174
     0
 93
        1
 44
0.0
173
     0
291
     0
 45
0.0
1001
ACAD
1000
AcDbSavedByObjectVersion
1070
     0
  0
VISUALSTYLE
  5
20D1
102
{ACAD_XDICTIONARY
360
3457
102
}
102
{ACAD_REACTORS
330
20CA
102
}
330
20CA
100
AcDbVisualStyle
  2

 70
     5
 71
     0
 72
     2
 73
     0
 90
        0
 40
-0.6
 41
-30.0
 62
     5
 63
     7
 74
     1
 91
        4
 64
     7
 65
   257
 75
     1
175
     1
 42
1.0
 92
        0
 66
   257
 43
1.0
 76
     1
 77
     6
 78
     2
 67
     7
 79
     5
170
     0
171
     0
290
     0
174
     0
 93
        1
 44
0.0
173
     0
291
     0
 45
0.0
1001
ACAD
1000
AcDbSavedByObjectVersion
1070
     0
  0
VISUALSTYLE
  5
20CF
102
{ACAD_XDICTIONARY
360
3453
102
}
102
{ACAD_REACTORS
330
20CA
102
}
330
20CA
100
AcDbVisualStyle
  2

 70
     7
 71
     1
 72
     0
 73
     1
 90
        0
 40
-0.6
 41
-30.0
 62
     5
 63
     7
 74
     0
 91
        4
 64
     7
 65
   257
 75
     1
175
     1
 42
1.0
 92
        8
 66
     7
 43
1.0
 76
     1
 77
     6
 78
     2
 67
     7
 79
     5
170
     0
171
     0
290
     0
174
     0
 93
        1
 44
0.0
173
     0
291
     1
 45
0.0
1001
ACAD
1000
AcDbSavedByObjectVersion
1070
     0
  0
VISUALSTYLE
  5
20D6
102
{ACAD_XDICTIONARY
360
3461
102
}
102
{ACAD_REACTORS
330
20CA
102
}
330
20CA
100
AcDbVisualStyle
  2

 70
    12
 71
     2
 72
     2
 73
     0
 90
        0
 40
-0.6
 41
-30.0
 62
     5
 63
     7
 74
     1
 91
        4
 64
     7
 65
   257
 75
     1
175
     1
 42
1.0
 92
        8
 66
     7
 43
1.0
 76
     1
 77
     6
 78
     2
 67
     7
 79
     5
170
     0
171
     0
290
     0
174
     0
 93
        1
 44
50.0
173
     0
291
     1
 45
0.0
1001
ACAD
1000
AcDbSavedByObjectVersion
1070
     0
  0
VISUALSTYLE
  5
20DA
102
{ACAD_XDICTIONARY
360
3469
102
}
102
{ACAD_REACTORS
330
20CA
102
}
330
20CA
100
AcDbVisualStyle
  2

 70
    16
 71
     2
 72
     2
 73
     3
 90
        0
 40
-0.6
 41
-30.0
 62
     5
 63
     8
 74
     1
 91
        4
 64
     7
 65
   257
 75
     1
175
     1
 42
1.0
 92
        8
 66
     8
 43
1.0
 76
     1
 77
     6
 78
     2
 67
     7
 79
     5
170
     0
171
     0
290
     0
174
     0
 93
        1
 44
0.0
173
     0
291
     1
 45
0.0
1001
ACAD
1000
AcDbSavedByObjectVersion
1070
     0
  0
VISUALSTYLE
  5
20D3
102
{ACAD_XDICTIONARY
360
345B
102
}
102
{ACAD_REACTORS
330
20CA
102
}
330
20CA
100
AcDbVisualStyle
  2

 70
     9
 71
     3
 72
     2
 73
     0
 90
        0
 40
-0.6
 41
-30.0
 62
     5
 63
     7
 74
     2
 91
        2
 64
     7
 65
   257
 75
     1
175
     1
 42
179.0
 92
        8
 66
     7
 43
1.0
 76
     1
 77
     6
 78
     2
 67
     7
 79
     3
170
     0
171
     0
290
     0
174
     0
 93
        1
 44
0.0
173
     0
291
     0
 45
0.0
1001
ACAD
1000
AcDbSavedByObjectVersion
1070
     0
  0
VISUALSTYLE
  5
20D5
102
{ACAD_XDICTIONARY
360
345F
102
}
102
{ACAD_REACTORS
330
20CA
102
}
330
20CA
100
AcDbVisualStyle
  2

 70
    11
 71
     2
 72
     2
 73
     0
 90
        0
 40
-0.6
 41
-30.0
 62
     5
 63
     7
 74
     1
 91
        4
 64
     7
 65
   257
 75
     1
175
     1
 42
1.0
 92
        8
 66
     7
 43
1.0
 76
     1
 77
     6
 78
     2
 67
     7
 79
     5
170
     0
171
     0
290
     0
174
     0
 93
        1
 44
-50.0
173
     0
291
     1
 45
0.0
1001
ACAD
1000
AcDbSavedByObjectVersion
1070
     0
  0
VISUALSTYLE
  5
20DD
102
{ACAD_XDICTIONARY
360
346F
102
}
102
{ACAD_REACTORS
330
20CA
102
}
330
20CA
100
AcDbVisualStyle
  2

 70
    22
 71
     2
 72
     2
 73
     0
 90
        0
 40
-0.6
 41
-30.0
 62
     5
 63
     7
 74
     1
 91
        4
 64
     7
 65
   257
 75
     1
175
     1
 42
1.0
 92
        8
 66
     7
 43
1.0
 76
     1
 77
     6
 78
     2
 67
     7
 79
     5
170
     0
171
     0
290
     0
174
     0
 93
        1
 44
0.0
173
     0
291
     1
 45
0.0
1001
ACAD
1000
AcDbSavedByObjectVersion
1070
     0
  0
VISUALSTYLE
  5
20D9
102
{ACAD_XDICTIONARY
360
3467
102
}
102
{ACAD_REACTORS
330
20CA
102
}
330
20CA
100
AcDbVisualStyle
  2

 70
    15
 71
     2
 72
     2
 73
     0
 90
        0
 40
-0.6
 41
-30.0
 62
     5
 63
     7
 74
     1
 91
        4
 64
     7
 65
   257
 75
     1
175
     1
 42
1.0
 92
        8
 66
     7
 43
1.0
 76
     1
 77
     6
 78
     2
 67
     7
 79
     5
170
     0
171
     0
290
     0
174
     0
 93
        1
 44
0.0
173
     0
291
     1
 45
0.0
1001
ACAD
1000
AcDbSavedByObjectVersion
1070
     0
  0
VISUALSTYLE
  5
20CB
102
{ACAD_XDICTIONARY
360
344B
102
}
102
{ACAD_REACTORS
330
20CA
102
}
330
20CA
100
AcDbVisualStyle
  2

 70
     0
 71
     2
 72
     1
 73
     1
 90
        2
 40
-0.6
 41
30.0
 62
     5
 63
     7
 74
     0
 91
        4
 64
     7
 65
   257
 75
     1
175
     1
 42
1.0
 92
        8
 66
     7
 43
1.0
 76
     1
 77
     6
 78
     2
 67
     7
 79
     5
170
     0
171
     0
290
     0
174
     0
 93
       13
 44
0.0
173
     0
291
     1
 45
0.0
1001
ACAD
1000
AcDbSavedByObjectVersion
1070
     0
  0
VISUALSTYLE
  5
20CC
102
{ACAD_XDICTIONARY
360
344D
102
}
102
{ACAD_REACTORS
330
20CA
102
}
330
20CA
100
AcDbVisualStyle
  2

 70
     1
 71
     2
 72
     1
 73
     1
 90
        2
 40
-0.6
 41
30.0
 62
     5
 63
     7
 74
     1
 91
        4
 64
     7
 65
   257
 75
     1
175
     1
 42
1.0
 92
        0
 66
   257
 43
1.0
 76
     1
 77
     6
 78
     2
 67
     7
 79
     5
170
     0
171
     0
290
     0
174
     0
 93
       13
 44
0.0
173
     0
291
     1
 45
0.0
1001
ACAD
1000
AcDbSavedByObjectVersion
1070
     0
  0
VISUALSTYLE
  5
20CD
102
{ACAD_XDICTIONARY
360
344F
102
}
102
{ACAD_REACTORS
330
20CA
102
}
330
20CA
100
AcDbVisualStyle
  2

 70
     2
 71
     2
 72
     2
 73
     1
 90
        2
 40
-0.6
 41
30.0
 62
     5
 63
     7
 74
     0
 91
        4
 64
     7
 65
   257
 75
     1
175
     1
 42
1.0
 92
        0
 66
     7
 43
1.0
 76
     1
 77
     6
 78
     2
 67
     7
 79
     5
170
     0
171
     0
290
     0
174
     0
 93
       13
 44
0.0
173
     0
291
     1
 45
0.0
1001
ACAD
1000
AcDbSavedByObjectVersion
1070
     0
  0
VISUALSTYLE
  5
20CE
102
{ACAD_XDICTIONARY
360
3451
102
}
102
{ACAD_REACTORS
330
20CA
102
}
330
20CA
100
AcDbVisualStyle
  2

 70
     3
 71
     2
 72
     2
 73
     1
 90
        2
 40
-0.6
 41
30.0
 62
     5
 63
     7
 74
     1
 91
        4
 64
     7
 65
   257
 75
     1
175
     1
 42
1.0
 92
        0
 66
   257
 43
1.0
 76
     1
 77
     6
 78
     2
 67
     7
 79
     5
170
     0
171
     0
290
     0
174
     0
 93
       13
 44
0.0
173
     0
291
     1
 45
0.0
1001
ACAD
1000
AcDbSavedByObjectVersion
1070
     0
  0
VISUALSTYLE
  5
2E75
102
{ACAD_XDICTIONARY
360
3494
102
}
102
{ACAD_REACTORS
330
20CA
102
}
330
20CA
100
AcDbVisualStyle
  2

 70
     6
 71
     1
 72
     2
 73
     2
 90
        0
 40
-0.6
 41
-30.0
 62
     5
 63
     7
 74
     2
 91
        2
 64
     7
 65
   257
 75
     2
175
     1
 42
40.0
 92
        0
 66
   257
 43
1.0
 76
     1
 77
     6
 78
     2
 67
     7
 79
     3
170
     0
171
     0
290
     0
174
     0
 93
        1
 44
0.0
173
     0
291
     0
 45
0.0
1001
ACAD
1000
AcDbSavedByObjectVersion
1070
     0
  0
VISUALSTYLE
  5
20DB
102
{ACAD_XDICTIONARY
360
346B
102
}
102
{ACAD_REACTORS
330
20CA
102
}
330
20CA
100
AcDbVisualStyle
  2

 70
    20
 71
     2
 72
     2
 73
     0
 90
        0
 40
-0.6
 41
-30.0
 62
     5
 63
     7
 74
     1
 91
        4
 64
     7
 65
   257
 75
     1
175
     1
 42
1.0
 92
       10
 66
     7
 43
1.0
 76
     1
 77
     6
 78
     2
 67
     7
 79
     5
170
     0
171
     0
290
     0
174
     0
 93
        1
 44
0.0
173
     0
291
     1
 45
0.0
1001
ACAD
1000
AcDbSavedByObjectVersion
1070
     0
  0
VISUALSTYLE
  5
20D8
102
{ACAD_XDICTIONARY
360
3465
102
}
102
{ACAD_REACTORS
330
20CA
102
}
330
20CA
100
AcDbVisualStyle
  2

 70
    14
 71
     2
 72
     2
 73
     0
 90
        0
 40
-0.6
 41
-30.0
 62
     5
 63
     7
 74
     1
 91
        4
 64
     7
 65
   257
 75
     7
175
     7
 42
1.0
 92
        8
 66
     7
 43
1.0
 76
     1
 77
     6
 78
     2
 67
     7
 79
     5
170
     0
171
     0
290
     0
174
     0
 93
        1
 44
0.0
173
     0
291
     1
 45
0.0
1001
ACAD
1000
AcDbSavedByObjectVersion
1070
     0
  0
VISUALSTYLE
  5
20DC
102
{ACAD_XDICTIONARY
360
346D
102
}
102
{ACAD_REACTORS
330
20CA
102
}
330
20CA
100
AcDbVisualStyle
  2

 70
    21
 71
     2
 72
     2
 73
     0
 90
        0
 40
-0.6
 41
-30.0
 62
     5
 63
     7
 74
     1
 91
        4
 64
     7
 65
   257
 75
     1
175
     1
 42
1.0
 92
        9
 66
     7
 43
1.0
 76
     1
 77
     6
 78
     2
 67
     7
 79
     5
170
     0
171
     0
290
     0
174
     0
 93
        1
 44
0.0
173
     0
291
     1
 45
0.0
1001
ACAD
1000
AcDbSavedByObjectVersion
1070
     0
  0
VISUALSTYLE
  5
20D4
102
{ACAD_XDICTIONARY
360
345D
102
}
102
{ACAD_REACTORS
330
20CA
102
}
330
20CA
100
AcDbVisualStyle
  2

 70
     8
 71
     2
 72
     2
 73
     0
 90
        0
 40
-0.6
 41
-30.0
 62
     5
 63
     7
 74
     1
 91
        0
 64
     7
 65
   257
 75
     1
175
     1
 42
1.0
 92
        8
 66
     8
 43
1.0
 76
     1
 77
     6
 78
     2
 67
     7
 79
     5
170
     0
171
     0
290
     0
174
     0
 93
       13
 44
0.0
173
     0
291
     0
 45
0.0
1001
ACAD
1000
AcDbSavedByObjectVersion
1070
     0
  0
VISUALSTYLE
  5
2E7A
102
{ACAD_XDICTIONARY
360
349E
102
}
102
{ACAD_REACTORS
330
20CA
102
}
330
20CA
100
AcDbVisualStyle
  2

 70
    27
 71
     2
 72
     2
 73
     1
 90
        2
 40
-0.6
 41
30.0
 62
     5
 63
     7
 74
     0
 91
        4
 64
     7
 65
   257
 75
     1
175
     1
 42
1.0
 92
        8
 66
   257
 43
1.0
 76
     1
 77
     6
 78
     2
 67
     8
 79
     3
170
     0
171
     0
290
     0
174
     0
 93
        5
 44
0.0
173
     0
291
     0
 45
0.0
1001
ACAD
1000
AcDbSavedByObjectVersion
1070
     0
  0
VISUALSTYLE
  5
2E79
102
{ACAD_XDICTIONARY
360
349C
102
}
102
{ACAD_REACTORS
330
20CA
102
}
330
20CA
100
AcDbVisualStyle
  2

 70
    26
 71
     2
 72
     2
 73
     1
 90
        2
 40
-0.6
 41
30.0
 62
     5
 63
     7
 74
     1
 91
        2
 64
     7
 65
   257
 75
     2
175
     1
 42
1.0
 92
        8
 66
   257
 43
1.0
 76
     1
 77
     6
 78
     2
 67
     7
 79
     3
170
     0
171
     0
290
     0
174
     0
 93
        5
 44
0.0
173
     0
291
     0
 45
0.0
1001
ACAD
1000
AcDbSavedByObjectVersion
1070
     0
  0
VISUALSTYLE
  5
2E76
102
{ACAD_XDICTIONARY
360
3496
102
}
102
{ACAD_REACTORS
330
20CA
102
}
330
20CA
100
AcDbVisualStyle
  2

 70
    23
 71
     2
 72
     2
 73
     3
 90
        0
 40
-0.6
 41
-30.0
 62
     5
 63
     7
 74
     2
 91
        2
 64
     7
 65
     7
 75
     1
175
     1
 42
40.0
 92
        8
 66
     7
 43
1.0
 76
     1
 77
     6
 78
     2
 67
     7
 79
     3
170
     0
171
     0
290
     0
174
     0
 93
        1
 44
0.0
173
     0
291
     0
 45
0.0
1001
ACAD
1000
AcDbSavedByObjectVersion
1070
     0
  0
VISUALSTYLE
  5
2E77
102
{ACAD_XDICTIONARY
360
3498
102
}
102
{ACAD_REACTORS
330
20CA
102
}
330
20CA
100
AcDbVisualStyle
  2

 70
    24
 71
     1
 72
     2
 73
     2
 90
        0
 40
-0.6
 41
-30.0
 62
     5
 63
     7
 74
     2
 91
        2
 64
     7
 65
     7
 75
     1
175
     1
 42
40.0
 92
       11
 66
     7
 43
1.0
 76
     1
 77
     6
 78
     2
 67
     7
 79
     6
170
     0
171
     0
290
     0
174
     0
 93
        1
 44
0.0
173
     0
291
     0
 45
0.0
1001
ACAD
1000
AcDbSavedByObjectVersion
1070
     0
  0
VISUALSTYLE
  5
20D7
102
{ACAD_XDICTIONARY
360
3463
102
}
102
{ACAD_REACTORS
330
20CA
102
}
330
20CA
100
AcDbVisualStyle
  2

 70
    13
 71
     2
 72
     2
 73
     0
 90
        0
 40
-0.6
 41
-30.0
 62
     5
 63
     7
 74
     1
 91
        4
 64
     7
 65
   257
 75
     1
175
     1
 42
1.0
 92
       12
 66
     7
 43
1.0
 76
     1
 77
     6
 78
     2
 67
     7
 79
     5
170
     0
171
     0
290
     0
174
     0
 93
        1
 44
0.0
173
     0
291
     1
 45
0.0
1001
ACAD
1000
AcDbSavedByObjectVersion
1070
     0
  0
VISUALSTYLE
  5
2E74
102
{ACAD_XDICTIONARY
360
3492
102
}
102
{ACAD_REACTORS
330
20CA
102
}
330
20CA
100
AcDbVisualStyle
  2

 70
     5
 71
     0
 72
     2
 73
     0
 90
        0
 40
-0.6
 41
-30.0
 62
     5
 63
     7
 74
     1
 91
        4
 64
     7
 65
   257
 75
     1
175
     1
 42
1.0
 92
        0
 66
   257
 43
1.0
 76
     1
 77
     6
 78
     2
 67
     7
 79
     3
170
     0
171
     0
290
     0
174
     0
 93
        1
 44
0.0
173
     0
291
     0
 45
0.0
1001
ACAD
1000
AcDbSavedByObjectVersion
1070
     0
  0
VISUALSTYLE
  5
2E78
102
{ACAD_XDICTIONARY
360
349A
102
}
102
{ACAD_REACTORS
330
20CA
102
}
330
20CA
100
AcDbVisualStyle
  2

 70
    25
 71
     2
 72
     2
 73
     1
 90
        1
 40
0.5
 41
-30.0
 62
     5
 63
     7
 74
     1
 91
        0
 64
     7
 65
   257
 75
     1
175
     1
 42
1.0
 92
        8
 66
     7
 43
1.0
 76
     1
 77
     6
 78
     2
 67
     7
 79
     3
170
     0
171
     0
290
     0
174
     0
 93
       13
 44
0.0
173
     0
291
     0
 45
0.0
1001
ACAD
1000
AcDbSavedByObjectVersion
1070
     0
  0
DICTIONARYVAR
  5
22E8
102
{ACAD_REACTORS
330
102
102
}
330
102
100
DictionaryVariables
280
     0
  1
1:1
  0
DICTIONARYVAR
  5
22E7
102
{ACAD_REACTORS
330
102
102
}
330
102
100
DictionaryVariables
280
     0
  1
STANDARD
  0
DICTIONARYVAR
  5
22E6
102
{ACAD_REACTORS
330
102
102
}
330
102
100
DictionaryVariables
280
     0
  1
STANDARD
  0
DICTIONARYVAR
  5
2E83
102
{ACAD_REACTORS
330
102
102
}
330
102
100
DictionaryVariables
280
     0
  1
Imperial24
  0
DICTIONARYVAR
  5
2E84
102
{ACAD_REACTORS
330
102
102
}
330
102
100
DictionaryVariables
280
     0
  1
Imperial24
  0
DICTIONARYVAR
  5
103
102
{ACAD_REACTORS
330
102
102
}
330
102
100
DictionaryVariables
280
     0
  1
1
  0
DICTIONARYVAR
  5
22EA
102
{ACAD_REACTORS
330
102
102
}
330
102
100
DictionaryVariables
280
     0
  1
0
  0
DICTIONARYVAR
  5
2E87
102
{ACAD_REACTORS
330
102
102
}
330
102
100
DictionaryVariables
280
     0
  1
1
  0
DICTIONARYVAR
  5
2E88
102
{ACAD_REACTORS
330
102
102
}
330
102
100
DictionaryVariables
280
     0
  1
15
  0
DICTIONARYVAR
  5
2E86
102
{ACAD_REACTORS
330
102
102
}
330
102
100
DictionaryVariables
280
     0
  1
0
  0
DICTIONARYVAR
  5
2E85
102
{ACAD_REACTORS
330
102
102
}
330
102
100
DictionaryVariables
280
     0
  1
0
  0
DICTIONARYVAR
  5
22E9
102
{ACAD_REACTORS
330
102
102
}
330
102
100
DictionaryVariables
280
     0
  1
127
  0
DICTIONARYVAR
  5
3442
102
{ACAD_REACTORS
330
102
102
}
330
102
100
DictionaryVariables
280
     0
  1
2
  0
DICTIONARY
  5
34A2
330
2E7E
100
AcDbDictionary
280
     1
281
     1
  3
ACAD_XREC_ROUNDTRIP
360
34A3
  0
DICTIONARY
  5
3446
330
60
100
AcDbDictionary
280
     1
281
     1
  3
ACAD_XREC_ROUNDTRIP
360
3447
  0
DICTIONARY
  5
34B4
330
343E
100
AcDbDictionary
280
     1
281
     1
  3
ACAD_XREC_ROUNDTRIP
360
34B5
  0
DICTIONARY
  5
20BB
330
20BA
100
AcDbDictionary
280
     1
281
     1
  3
ACAD_XREC_ROUNDTRIP
360
3449
  3
BUMPTILE
360
20BD
  3
DIFFUSETILE
360
20BC
  3
OPACITYTILE
360
20C0
  3
REFLECTIONTILE
360
20BF
  3
REFRACTIONTILE
360
20C1
  3
SPECULARTILE
360
20BE
  0
DICTIONARY
  5
20B3
330
20B2
100
AcDbDictionary
280
     1
281
     1
  3
ACAD_XREC_ROUNDTRIP
360
3448
  3
BUMPTILE
360
20B5
  3
DIFFUSETILE
360
20B4
  3
OPACITYTILE
360
20B8
  3
REFLECTIONTILE
360
20B7
  3
REFRACTIONTILE
360
20B9
  3
SPECULARTILE
360
20B6
  0
DICTIONARY
  5
20C3
330
20C2
100
AcDbDictionary
280
     1
281
     1
  3
ACAD_XREC_ROUNDTRIP
360
344A
  3
BUMPTILE
360
20C5
  3
DIFFUSETILE
360
20C4
  3
OPACITYTILE
360
20C8
  3
REFLECTIONTILE
360
20C7
  3
REFRACTIONTILE
360
20C9
  3
SPECULARTILE
360
20C6
  0
DICTIONARY
  5
34A0
330
2E7C
100
AcDbDictionary
280
     1
281
     1
  3
ACAD_XREC_ROUNDTRIP
360
34A1
  0
DICTIONARY
  5
2265
330
20E0
100
AcDbDictionary
280
     1
281
     1
  3
ACAD_ROUNDTRIP_2008_TABLESTYLE_CELLSTYLEMAP
360
3443
  3
ACAD_XREC_ROUNDTRIP
360
3471
  0
DICTIONARY
  5
3455
330
20D0
100
AcDbDictionary
280
     1
281
     1
  3
ACAD_XREC_ROUNDTRIP
360
3456
  0
DICTIONARY
  5
3459
330
20D2
100
AcDbDictionary
280
     1
281
     1
  3
ACAD_XREC_ROUNDTRIP
360
345A
  0
DICTIONARY
  5
3457
330
20D1
100
AcDbDictionary
280
     1
281
     1
  3
ACAD_XREC_ROUNDTRIP
360
3458
  0
DICTIONARY
  5
3453
330
20CF
100
AcDbDictionary
280
     1
281
     1
  3
ACAD_XREC_ROUNDTRIP
360
3454
  0
DICTIONARY
  5
3461
330
20D6
100
AcDbDictionary
280
     1
281
     1
  3
ACAD_XREC_ROUNDTRIP
360
3462
  0
DICTIONARY
  5
3469
330
20DA
100
AcDbDictionary
280
     1
281
     1
  3
ACAD_XREC_ROUNDTRIP
360
346A
  0
DICTIONARY
  5
345B
330
20D3
100
AcDbDictionary
280
     1
281
     1
  3
ACAD_XREC_ROUNDTRIP
360
345C
  0
DICTIONARY
  5
345F
330
20D5
100
AcDbDictionary
280
     1
281
     1
  3
ACAD_XREC_ROUNDTRIP
360
3460
  0
DICTIONARY
  5
346F
330
20DD
100
AcDbDictionary
280
     1
281
     1
  3
ACAD_XREC_ROUNDTRIP
360
3470
  0
DICTIONARY
  5
3467
330
20D9
100
AcDbDictionary
280
     1
281
     1
  3
ACAD_XREC_ROUNDTRIP
360
3468
  0
DICTIONARY
  5
344B
330
20CB
100
AcDbDictionary
280
     1
281
     1
  3
ACAD_XREC_ROUNDTRIP
360
344C
  0
DICTIONARY
  5
344D
330
20CC
100
AcDbDictionary
280
     1
281
     1
  3
ACAD_XREC_ROUNDTRIP
360
344E
  0
DICTIONARY
  5
344F
330
20CD
100
AcDbDictionary
280
     1
281
     1
  3
ACAD_XREC_ROUNDTRIP
360
3450
  0
DICTIONARY
  5
3451
330
20CE
100
AcDbDictionary
280
     1
281
     1
  3
ACAD_XREC_ROUNDTRIP
360
3452
  0
DICTIONARY
  5
3494
330
2E75
100
AcDbDictionary
280
     1
281
     1
  3
ACAD_XREC_ROUNDTRIP
360
3495
  0
DICTIONARY
  5
346B
330
20DB
100
AcDbDictionary
280
     1
281
     1
  3
ACAD_XREC_ROUNDTRIP
360
346C
  0
DICTIONARY
  5
3465
330
20D8
100
AcDbDictionary
280
     1
281
     1
  3
ACAD_XREC_ROUNDTRIP
360
3466
  0
DICTIONARY
  5
346D
330
20DC
100
AcDbDictionary
280
     1
281
     1
  3
ACAD_XREC_ROUNDTRIP
360
346E
  0
DICTIONARY
  5
345D
330
20D4
100
AcDbDictionary
280
     1
281
     1
  3
ACAD_XREC_ROUNDTRIP
360
345E
  0
DICTIONARY
  5
349E
330
2E7A
100
AcDbDictionary
280
     1
281
     1
  3
ACAD_XREC_ROUNDTRIP
360
349F
  0
DICTIONARY
  5
349C
330
2E79
100
AcDbDictionary
280
     1
281
     1
  3
ACAD_XREC_ROUNDTRIP
360
349D
  0
DICTIONARY
  5
3496
330
2E76
100
AcDbDictionary
280
     1
281
     1
  3
ACAD_XREC_ROUNDTRIP
360
3497
  0
DICTIONARY
  5
3498
330
2E77
100
AcDbDictionary
280
     1
281
     1
  3
ACAD_XREC_ROUNDTRIP
360
3499
  0
DICTIONARY
  5
3463
330
20D7
100
AcDbDictionary
280
     1
281
     1
  3
ACAD_XREC_ROUNDTRIP
360
3464
  0
DICTIONARY
  5
3492
330
2E74
100
AcDbDictionary
280
     1
281
     1
  3
ACAD_XREC_ROUNDTRIP
360
3493
  0
DICTIONARY
  5
349A
330
2E78
100
AcDbDictionary
280
     1
281
     1
  3
ACAD_XREC_ROUNDTRIP
360
349B
  0
XRECORD
  5
34A3
102
{ACAD_REACTORS
330
34A2
102
}
330
34A2
100
AcDbXrecord
280
     1
102
DISPLAYNAME
  1
Imperial24
102
FLAGS
 90
        0
  0
XRECORD
  5
3447
102
{ACAD_REACTORS
330
3446
102
}
330
3446
100
AcDbXrecord
280
     1
102
SHADEPLOT
 70
     0
102
SHADEPLOTRESLEVEL
 70
     2
102
SHADEPLOTCUSTOMDPI
 70
   300
  0
XRECORD
  5
34B5
102
{ACAD_REACTORS
330
34B4
102
}
330
34B4
100
AcDbXrecord
280
     1
102
SHADEPLOT
 70
     0
102
SHADEPLOTRESLEVEL
 70
     2
102
SHADEPLOTCUSTOMDPI
 70
   300
  0
XRECORD
  5
3449
102
{ACAD_REACTORS
330
20BB
102
}
330
20BB
100
AcDbXrecord
280
     1
102
MATERIAL
148
0.0
149
0.0
149
0.0
 93
        0
 94
      127
282
     0
 72
     0
 77
     0
171
     0
175
     0
179
     0
273
     0
  0
XRECORD
  5
20BD
102
{ACAD_REACTORS
330
20BB
102
}
330
20BB
100
AcDbXrecord
280
     1
270
     1
271
     1
  0
XRECORD
  5
20BC
102
{ACAD_REACTORS
330
20BB
102
}
330
20BB
100
AcDbXrecord
280
     1
270
     1
271
     1
  0
XRECORD
  5
20C0
102
{ACAD_REACTORS
330
20BB
102
}
330
20BB
100
AcDbXrecord
280
     1
270
     1
271
     1
  0
XRECORD
  5
20BF
102
{ACAD_REACTORS
330
20BB
102
}
330
20BB
100
AcDbXrecord
280
     1
270
     1
271
     1
  0
XRECORD
  5
20C1
102
{ACAD_REACTORS
330
20BB
102
}
330
20BB
100
AcDbXrecord
280
     1
270
     1
271
     1
  0
XRECORD
  5
20BE
102
{ACAD_REACTORS
330
20BB
102
}
330
20BB
100
AcDbXrecord
280
     1
270
     1
271
     1
  0
XRECORD
  5
3448
102
{ACAD_REACTORS
330
20B3
102
}
330
20B3
100
AcDbXrecord
280
     1
102
MATERIAL
148
0.0
149
0.0
149
0.0
 93
        0
 94
      127
282
     0
 72
     0
 77
     0
171
     0
175
     0
179
     0
273
     0
  0
XRECORD
  5
20B5
102
{ACAD_REACTORS
330
20B3
102
}
330
20B3
100
AcDbXrecord
280
     1
270
     1
271
     1
  0
XRECORD
  5
20B4
102
{ACAD_REACTORS
330
20B3
102
}
330
20B3
100
AcDbXrecord
280
     1
270
     1
271
     1
  0
XRECORD
  5
20B8
102
{ACAD_REACTORS
330
20B3
102
}
330
20B3
100
AcDbXrecord
280
     1
270
     1
271
     1
  0
XRECORD
  5
20B7
102
{ACAD_REACTORS
330
20B3
102
}
330
20B3
100
AcDbXrecord
280
     1
270
     1
271
     1
  0
XRECORD
  5
20B9
102
{ACAD_REACTORS
330
20B3
102
}
330
20B3
100
AcDbXrecord
280
     1
270
     1
271
     1
  0
XRECORD
  5
20B6
102
{ACAD_REACTORS
330
20B3
102
}
330
20B3
100
AcDbXrecord
280
     1
270
     1
271
     1
  0
XRECORD
  5
344A
102
{ACAD_REACTORS
330
20C3
102
}
330
20C3
100
AcDbXrecord
280
     1
102
MATERIAL
148
0.0
149
0.0
149
0.0
 93
        0
 94
      127
282
     0
 72
     0
 77
     0
171
     0
175
     0
179
     0
273
     0
  0
XRECORD
  5
20C5
102
{ACAD_REACTORS
330
20C3
102
}
330
20C3
100
AcDbXrecord
280
     1
270
     1
271
     1
  0
XRECORD
  5
20C4
102
{ACAD_REACTORS
330
20C3
102
}
330
20C3
100
AcDbXrecord
280
     1
270
     1
271
     1
  0
XRECORD
  5
20C8
102
{ACAD_REACTORS
330
20C3
102
}
330
20C3
100
AcDbXrecord
280
     1
270
     1
271
     1
  0
XRECORD
  5
20C7
102
{ACAD_REACTORS
330
20C3
102
}
330
20C3
100
AcDbXrecord
280
     1
270
     1
271
     1
  0
XRECORD
  5
20C9
102
{ACAD_REACTORS
330
20C3
102
}
330
20C3
100
AcDbXrecord
280
     1
270
     1
271
     1
  0
XRECORD
  5
20C6
102
{ACAD_REACTORS
330
20C3
102
}
330
20C3
100
AcDbXrecord
280
     1
270
     1
271
     1
  0
XRECORD
  5
34A1
102
{ACAD_REACTORS
330
34A0
102
}
330
34A0
100
AcDbXrecord
280
     1
102
DISPLAYNAME
  1
Imperial24
102
FLAGS
 90
        0
  0
CELLSTYLEMAP
  5
3443
102
{ACAD_REACTORS
330
2265
102
}
330
2265
100
AcDbCellStyleMap
 90
        3
300
CELLSTYLE
  1
TABLEFORMAT_BEGIN
 90
        5
170
     1
 91
        0
 92
    32768
 62
   257
 93
        1
300
CONTENTFORMAT
  1
CONTENTFORMAT_BEGIN
 90
        0
 91
        0
 92
      512
 93
        0
300

 40
0.0
140
1.0
 94
        5
 62
     0
340
16
144
0.25
309
CONTENTFORMAT_END
171
     1
301
MARGIN
  1
CELLMARGIN_BEGIN
 40
0.06
 40
0.06
 40
0.06
 40
0.06
 40
0.18
 40
0.18
309
CELLMARGIN_END
 94
        6
 95
        1
302
GRIDFORMAT
  1
GRIDFORMAT_BEGIN
 90
        0
 91
        1
 62
     0
 92
       -2
340
0
 93
        0
 40
0.045
309
GRIDFORMAT_END
 95
        2
302
GRIDFORMAT
  1
GRIDFORMAT_BEGIN
 90
        0
 91
        1
 62
     0
 92
       -2
340
0
 93
        0
 40
0.045
309
GRIDFORMAT_END
 95
        4
302
GRIDFORMAT
  1
GRIDFORMAT_BEGIN
 90
        0
 91
        1
 62
     0
 92
       -2
340
0
 93
        0
 40
0.045
309
GRIDFORMAT_END
 95
        8
302
GRIDFORMAT
  1
GRIDFORMAT_BEGIN
 90
        0
 91
        1
 62
     0
 92
       -2
340
0
 93
        0
 40
0.045
309
GRIDFORMAT_END
 95
       16
302
GRIDFORMAT
  1
GRIDFORMAT_BEGIN
 90
        0
 91
        1
 62
     0
 92
       -2
340
0
 93
        0
 40
0.045
309
GRIDFORMAT_END
 95
       32
302
GRIDFORMAT
  1
GRIDFORMAT_BEGIN
 90
        0
 91
        1
 62
     0
 92
       -2
340
0
 93
        0
 40
0.045
309
GRIDFORMAT_END
309
TABLEFORMAT_END
  1
CELLSTYLE_BEGIN
 90
        1
 91
        1
300
_TITLE
309
CELLSTYLE_END
300
CELLSTYLE
  1
TABLEFORMAT_BEGIN
 90
        5
170
     1
 91
        0
 92
        0
 62
   257
 93
        1
300
CONTENTFORMAT
  1
CONTENTFORMAT_BEGIN
 90
        0
 91
        0
 92
      512
 93
        0
300

 40
0.0
140
1.0
 94
        5
 62
     0
340
16
144
0.18
309
CONTENTFORMAT_END
171
     1
301
MARGIN
  1
CELLMARGIN_BEGIN
 40
0.06
 40
0.06
 40
0.06
 40
0.06
 40
0.18
 40
0.18
309
CELLMARGIN_END
 94
        6
 95
        1
302
GRIDFORMAT
  1
GRIDFORMAT_BEGIN
 90
        0
 91
        1
 62
     0
 92
       -2
340
0
 93
        0
 40
0.045
309
GRIDFORMAT_END
 95
        2
302
GRIDFORMAT
  1
GRIDFORMAT_BEGIN
 90
        0
 91
        1
 62
     0
 92
       -2
340
0
 93
        0
 40
0.045
309
GRIDFORMAT_END
 95
        4
302
GRIDFORMAT
  1
GRIDFORMAT_BEGIN
 90
        0
 91
        1
 62
     0
 92
       -2
340
0
 93
        0
 40
0.045
309
GRIDFORMAT_END
 95
        8
302
GRIDFORMAT
  1
GRIDFORMAT_BEGIN
 90
        0
 91
        1
 62
     0
 92
       -2
340
0
 93
        0
 40
0.045
309
GRIDFORMAT_END
 95
       16
302
GRIDFORMAT
  1
GRIDFORMAT_BEGIN
 90
        0
 91
        1
 62
     0
 92
       -2
340
0
 93
        0
 40
0.045
309
GRIDFORMAT_END
 95
       32
302
GRIDFORMAT
  1
GRIDFORMAT_BEGIN
 90
        0
 91
        1
 62
     0
 92
       -2
340
0
 93
        0
 40
0.045
309
GRIDFORMAT_END
309
TABLEFORMAT_END
  1
CELLSTYLE_BEGIN
 90
        2
 91
        1
300
_HEADER
309
CELLSTYLE_END
300
CELLSTYLE
  1
TABLEFORMAT_BEGIN
 90
        5
170
     1
 91
        0
 92
        0
 62
   257
 93
        1
300
CONTENTFORMAT
  1
CONTENTFORMAT_BEGIN
 90
        0
 91
        0
 92
      512
 93
        0
300

 40
0.0
140
1.0
 94
        2
 62
     0
340
16
144
0.18
309
CONTENTFORMAT_END
171
     1
301
MARGIN
  1
CELLMARGIN_BEGIN
 40
0.06
 40
0.06
 40
0.06
 40
0.06
 40
0.18
 40
0.18
309
CELLMARGIN_END
 94
        6
 95
        1
302
GRIDFORMAT
  1
GRIDFORMAT_BEGIN
 90
        0
 91
        1
 62
     0
 92
       -2
340
0
 93
        0
 40
0.045
309
GRIDFORMAT_END
 95
        2
302
GRIDFORMAT
  1
GRIDFORMAT_BEGIN
 90
        0
 91
        1
 62
     0
 92
       -2
340
0
 93
        0
 40
0.045
309
GRIDFORMAT_END
 95
        4
302
GRIDFORMAT
  1
GRIDFORMAT_BEGIN
 90
        0
 91
        1
 62
     0
 92
       -2
340
0
 93
        0
 40
0.045
309
GRIDFORMAT_END
 95
        8
302
GRIDFORMAT
  1
GRIDFORMAT_BEGIN
 90
        0
 91
        1
 62
     0
 92
       -2
340
0
 93
        0
 40
0.045
309
GRIDFORMAT_END
 95
       16
302
GRIDFORMAT
  1
GRIDFORMAT_BEGIN
 90
        0
 91
        1
 62
     0
 92
       -2
340
0
 93
        0
 40
0.045
309
GRIDFORMAT_END
 95
       32
302
GRIDFORMAT
  1
GRIDFORMAT_BEGIN
 90
        0
 91
        1
 62
     0
 92
       -2
340
0
 93
        0
 40
0.045
309
GRIDFORMAT_END
309
TABLEFORMAT_END
  1
CELLSTYLE_BEGIN
 90
        3
 91
        2
300
_DATA
309
CELLSTYLE_END
  0
XRECORD
  5
3471
102
{ACAD_REACTORS
330
2265
102
}
330
2265
100
AcDbXrecord
280
     1
102
ACAD_ROUNDTRIP_PRE2007_TABLESTYLE
 90
      512
 91
        0
  1

 92
      512
 93
        0
  2

 94
      512
 95
        0
  3

  0
XRECORD
  5
3456
102
{ACAD_REACTORS
330
3455
102
}
330
3455
100
AcDbXrecord
280
     1
102
RTVSPost2010Prop28
280
     1
102
RTVSPost2010PropOp28
 70
     1
102
RTVSPost2010Prop29
280
     1
102
RTVSPost2010PropOp29
 70
     1
102
RTVSPost2010Prop30
280
     0
102
RTVSPost2010PropOp30
 70
     1
102
RTVSPost2010Prop31
280
     0
102
RTVSPost2010PropOp31
 70
     1
102
RTVSPost2010Prop32
280
     0
102
RTVSPost2010PropOp32
 70
     1
102
RTVSPost2010Prop33
280
     0
102
RTVSPost2010PropOp33
 70
     1
102
RTVSPost2010Prop34
280
     0
102
RTVSPost2010PropOp34
 70
     1
102
RTVSPost2010Prop35
280
     0
102
RTVSPost2010PropOp35
 70
     1
102
RTVSPost2010Prop36
280
     0
102
RTVSPost2010PropOp36
 70
     1
102
RTVSPost2010Prop37
 90
       50
102
RTVSPost2010PropOp37
 70
     1
102
RTVSPost2010Prop38
140
0.0
102
RTVSPost2010PropOp38
 70
     1
102
RTVSPost2010Prop39
140
1.0
102
RTVSPost2010PropOp39
 70
     1
102
RTVSPost2010Prop40
 90
        0
102
RTVSPost2010PropOp40
 70
     1
102
RTVSPost2010Prop41ColorIndex
 90
       18
102
RTVSPost2010Prop41ColorRGB
 90
        0
102
RTVSPost2010PropOp41
 70
     1
102
RTVSPost2010Prop42
 90
       50
102
RTVSPost2010PropOp42
 70
     1
102
RTVSPost2010Prop43
 90
        3
102
RTVSPost2010PropOp43
 70
     1
102
RTVSPost2010Prop44ColorIndex
 90
        5
102
RTVSPost2010Prop44ColorRGB
 90
      255
102
RTVSPost2010PropOp44
 70
     1
102
RTVSPost2010Prop45
280
     0
102
RTVSPost2010PropOp45
 70
     1
102
RTVSPost2010Prop46
 90
       50
102
RTVSPost2010PropOp46
 70
     1
102
RTVSPost2010Prop47
 90
       50
102
RTVSPost2010PropOp47
 70
     1
102
RTVSPost2010Prop48
 90
       50
102
RTVSPost2010PropOp48
 70
     1
102
RTVSPost2010Prop49
280
     0
102
RTVSPost2010PropOp49
 70
     1
102
RTVSPost2010Prop50
 90
       50
102
RTVSPost2010PropOp50
 70
     1
102
RTVSPost2010Prop51ColorIndex
 90
      256
102
RTVSPost2010Prop51ColorRGB
 90
-16777216
102
RTVSPost2010PropOp51
 70
     0
102
RTVSPost2010Prop52
140
1.0
102
RTVSPost2010PropOp52
 70
     0
102
RTVSPost2010Prop53
 90
        2
102
RTVSPost2010PropOp53
 70
     1
102
RTVSPost2010Prop54
  1
strokes_ogs.tif
102
RTVSPost2010PropOp54
 70
     1
102
RTVSPost2010Prop55
280
     0
102
RTVSPost2010PropOp55
 70
     1
102
RTVSPost2010Prop56
140
1.0
102
RTVSPost2010PropOp56
 70
     1
102
RTVSPost2010Prop57
140
1.0
102
RTVSPost2010PropOp57
 70
     1
102
RTVSPropertyOp0
 70
     1
102
RTVSPropertyOp1
 70
     1
102
RTVSPropertyOp2
 70
     1
102
RTVSPropertyOp3
 70
     1
102
RTVSPropertyOp4
 70
     1
102
RTVSPropertyOp5
 70
     1
102
RTVSPropertyOp6
 70
     1
102
RTVSPropertyOp7
 70
     1
102
RTVSPropertyOp8
 70
     1
102
RTVSPropertyOp9
 70
     1
102
RTVSPropertyOp10
 70
     1
102
RTVSPropertyOp11
 70
     1
102
RTVSPropertyOp12
 70
     1
102
RTVSPropertyOp13
 70
     1
102
RTVSPropertyOp14
 70
     1
102
RTVSPropertyOp15
 70
     1
102
RTVSPropertyOp16
 70
     1
102
RTVSPropertyOp17
 70
     1
102
RTVSPropertyOp18
 70
     1
102
RTVSPropertyOp19
 70
     1
102
RTVSPropertyOp20
 70
     1
102
RTVSPropertyOp21
 70
     1
102
RTVSPropertyOp22
 70
     1
102
RTVSPropertyOp23
 70
     1
102
RTVSPropertyOp24
 70
     1
102
RTVSPropertyOp25
 70
     1
102
RTVSPropertyOp26
 70
     1
102
RTVSPropertyOp27
 70
     1
102
RTVSPropertyOp28
 70
     1
102
RTVSPropertyOp29
 70
     1
102
RTVSPropertyOp30
 70
     1
102
RTVSPropertyOp31
 70
     1
102
RTVSPropertyOp32
 70
     1
102
RTVSPropertyOp33
 70
     1
102
RTVSPropertyOp34
 70
     1
102
RTVSPropertyOp35
 70
     1
102
RTVSPropertyOp36
 70
     1
102
RTVSPropertyOp37
 70
     1
102
RTVSPropertyOp38
 70
     1
102
RTVSPropertyOp39
 70
     1
102
RTVSPropertyOp40
 70
     1
102
RTVSPropertyOp41
 70
     1
102
RTVSPropertyOp42
 70
     1
102
RTVSPropertyOp43
 70
     1
102
RTVSPropertyOp44
 70
     1
102
RTVSPropertyOp45
 70
     1
102
RTVSPropertyOp46
 70
     1
102
RTVSPropertyOp47
 70
     1
102
RTVSPropertyOp48
 70
     1
102
RTVSPropertyOp49
 70
     1
102
RTVSPropertyOp50
 70
     1
102
RTVSPropertyOp51
 70
     0
102
RTVSPropertyOp52
 70
     0
102
RTVSPropertyOp53
 70
     1
102
RTVSPropertyOp54
 70
     1
102
RTVSPropertyOp55
 70
     1
102
RTVSPropertyOp56
 70
     1
102
RTVSPropertyOp57
 70
     1
102
RTVSPropertyOp58
 70
     1
102
RTVSPropertyOp59
 70
     1
102
RTVSPropertyOp60
 70
     1
102
RTVSPropertyOp61
 70
     1
102
RTVSPropertyOp62
 70
     1
  0
XRECORD
  5
345A
102
{ACAD_REACTORS
330
3459
102
}
330
3459
100
AcDbXrecord
280
     1
102
RTVSPost2010Prop28
280
     0
102
RTVSPost2010PropOp28
 70
     1
102
RTVSPost2010Prop29
280
     1
102
RTVSPost2010PropOp29
 70
     1
102
RTVSPost2010Prop30
280
     1
102
RTVSPost2010PropOp30
 70
     1
102
RTVSPost2010Prop31
280
     0
102
RTVSPost2010PropOp31
 70
     1
102
RTVSPost2010Prop32
280
     0
102
RTVSPost2010PropOp32
 70
     1
102
RTVSPost2010Prop33
280
     0
102
RTVSPost2010PropOp33
 70
     1
102
RTVSPost2010Prop34
280
     0
102
RTVSPost2010PropOp34
 70
     1
102
RTVSPost2010Prop35
280
     0
102
RTVSPost2010PropOp35
 70
     1
102
RTVSPost2010Prop36
280
     0
102
RTVSPost2010PropOp36
 70
     1
102
RTVSPost2010Prop37
 90
       50
102
RTVSPost2010PropOp37
 70
     1
102
RTVSPost2010Prop38
140
0.0
102
RTVSPost2010PropOp38
 70
     1
102
RTVSPost2010Prop39
140
1.0
102
RTVSPost2010PropOp39
 70
     1
102
RTVSPost2010Prop40
 90
        0
102
RTVSPost2010PropOp40
 70
     1
102
RTVSPost2010Prop41ColorIndex
 90
       18
102
RTVSPost2010Prop41ColorRGB
 90
        0
102
RTVSPost2010PropOp41
 70
     1
102
RTVSPost2010Prop42
 90
       50
102
RTVSPost2010PropOp42
 70
     1
102
RTVSPost2010Prop43
 90
        3
102
RTVSPost2010PropOp43
 70
     1
102
RTVSPost2010Prop44ColorIndex
 90
        5
102
RTVSPost2010Prop44ColorRGB
 90
      255
102
RTVSPost2010PropOp44
 70
     1
102
RTVSPost2010Prop45
280
     0
102
RTVSPost2010PropOp45
 70
     1
102
RTVSPost2010Prop46
 90
       50
102
RTVSPost2010PropOp46
 70
     1
102
RTVSPost2010Prop47
 90
       50
102
RTVSPost2010PropOp47
 70
     1
102
RTVSPost2010Prop48
 90
       50
102
RTVSPost2010PropOp48
 70
     1
102
RTVSPost2010Prop49
280
     0
102
RTVSPost2010PropOp49
 70
     1
102
RTVSPost2010Prop50
 90
       50
102
RTVSPost2010PropOp50
 70
     1
102
RTVSPost2010Prop51ColorIndex
 90
      256
102
RTVSPost2010Prop51ColorRGB
 90
-16777216
102
RTVSPost2010PropOp51
 70
     0
102
RTVSPost2010Prop52
140
1.0
102
RTVSPost2010PropOp52
 70
     0
102
RTVSPost2010Prop53
 90
        2
102
RTVSPost2010PropOp53
 70
     1
102
RTVSPost2010Prop54
  1
strokes_ogs.tif
102
RTVSPost2010PropOp54
 70
     1
102
RTVSPost2010Prop55
280
     0
102
RTVSPost2010PropOp55
 70
     1
102
RTVSPost2010Prop56
140
1.0
102
RTVSPost2010PropOp56
 70
     1
102
RTVSPost2010Prop57
140
1.0
102
RTVSPost2010PropOp57
 70
     1
102
RTVSPropertyOp0
 70
     1
102
RTVSPropertyOp1
 70
     1
102
RTVSPropertyOp2
 70
     1
102
RTVSPropertyOp3
 70
     1
102
RTVSPropertyOp4
 70
     1
102
RTVSPropertyOp5
 70
     1
102
RTVSPropertyOp6
 70
     1
102
RTVSPropertyOp7
 70
     1
102
RTVSPropertyOp8
 70
     1
102
RTVSPropertyOp9
 70
     1
102
RTVSPropertyOp10
 70
     1
102
RTVSPropertyOp11
 70
     1
102
RTVSPropertyOp12
 70
     1
102
RTVSPropertyOp13
 70
     1
102
RTVSPropertyOp14
 70
     1
102
RTVSPropertyOp15
 70
     1
102
RTVSPropertyOp16
 70
     1
102
RTVSPropertyOp17
 70
     1
102
RTVSPropertyOp18
 70
     1
102
RTVSPropertyOp19
 70
     1
102
RTVSPropertyOp20
 70
     1
102
RTVSPropertyOp21
 70
     1
102
RTVSPropertyOp22
 70
     1
102
RTVSPropertyOp23
 70
     1
102
RTVSPropertyOp24
 70
     1
102
RTVSPropertyOp25
 70
     1
102
RTVSPropertyOp26
 70
     1
102
RTVSPropertyOp27
 70
     1
102
RTVSPropertyOp28
 70
     1
102
RTVSPropertyOp29
 70
     1
102
RTVSPropertyOp30
 70
     1
102
RTVSPropertyOp31
 70
     1
102
RTVSPropertyOp32
 70
     1
102
RTVSPropertyOp33
 70
     1
102
RTVSPropertyOp34
 70
     1
102
RTVSPropertyOp35
 70
     1
102
RTVSPropertyOp36
 70
     1
102
RTVSPropertyOp37
 70
     1
102
RTVSPropertyOp38
 70
     1
102
RTVSPropertyOp39
 70
     1
102
RTVSPropertyOp40
 70
     1
102
RTVSPropertyOp41
 70
     1
102
RTVSPropertyOp42
 70
     1
102
RTVSPropertyOp43
 70
     1
102
RTVSPropertyOp44
 70
     1
102
RTVSPropertyOp45
 70
     1
102
RTVSPropertyOp46
 70
     1
102
RTVSPropertyOp47
 70
     1
102
RTVSPropertyOp48
 70
     1
102
RTVSPropertyOp49
 70
     1
102
RTVSPropertyOp50
 70
     1
102
RTVSPropertyOp51
 70
     0
102
RTVSPropertyOp52
 70
     0
102
RTVSPropertyOp53
 70
     1
102
RTVSPropertyOp54
 70
     1
102
RTVSPropertyOp55
 70
     1
102
RTVSPropertyOp56
 70
     1
102
RTVSPropertyOp57
 70
     1
102
RTVSPropertyOp58
 70
     1
102
RTVSPropertyOp59
 70
     1
102
RTVSPropertyOp60
 70
     1
102
RTVSPropertyOp61
 70
     1
102
RTVSPropertyOp62
 70
     1
  0
XRECORD
  5
3458
102
{ACAD_REACTORS
330
3457
102
}
330
3457
100
AcDbXrecord
280
     1
102
RTVSPost2010Prop28
280
     0
102
RTVSPost2010PropOp28
 70
     1
102
RTVSPost2010Prop29
280
     1
102
RTVSPost2010PropOp29
 70
     1
102
RTVSPost2010Prop30
280
     1
102
RTVSPost2010PropOp30
 70
     1
102
RTVSPost2010Prop31
280
     0
102
RTVSPost2010PropOp31
 70
     1
102
RTVSPost2010Prop32
280
     0
102
RTVSPost2010PropOp32
 70
     1
102
RTVSPost2010Prop33
280
     0
102
RTVSPost2010PropOp33
 70
     1
102
RTVSPost2010Prop34
280
     0
102
RTVSPost2010PropOp34
 70
     1
102
RTVSPost2010Prop35
280
     0
102
RTVSPost2010PropOp35
 70
     1
102
RTVSPost2010Prop36
280
     0
102
RTVSPost2010PropOp36
 70
     1
102
RTVSPost2010Prop37
 90
       50
102
RTVSPost2010PropOp37
 70
     1
102
RTVSPost2010Prop38
140
0.0
102
RTVSPost2010PropOp38
 70
     1
102
RTVSPost2010Prop39
140
1.0
102
RTVSPost2010PropOp39
 70
     1
102
RTVSPost2010Prop40
 90
        0
102
RTVSPost2010PropOp40
 70
     1
102
RTVSPost2010Prop41ColorIndex
 90
       18
102
RTVSPost2010Prop41ColorRGB
 90
        0
102
RTVSPost2010PropOp41
 70
     1
102
RTVSPost2010Prop42
 90
       50
102
RTVSPost2010PropOp42
 70
     1
102
RTVSPost2010Prop43
 90
        3
102
RTVSPost2010PropOp43
 70
     1
102
RTVSPost2010Prop44ColorIndex
 90
        5
102
RTVSPost2010Prop44ColorRGB
 90
      255
102
RTVSPost2010PropOp44
 70
     1
102
RTVSPost2010Prop45
280
     0
102
RTVSPost2010PropOp45
 70
     1
102
RTVSPost2010Prop46
 90
       50
102
RTVSPost2010PropOp46
 70
     1
102
RTVSPost2010Prop47
 90
       50
102
RTVSPost2010PropOp47
 70
     1
102
RTVSPost2010Prop48
 90
       50
102
RTVSPost2010PropOp48
 70
     1
102
RTVSPost2010Prop49
280
     0
102
RTVSPost2010PropOp49
 70
     1
102
RTVSPost2010Prop50
 90
       50
102
RTVSPost2010PropOp50
 70
     1
102
RTVSPost2010Prop51ColorIndex
 90
      256
102
RTVSPost2010Prop51ColorRGB
 90
-16777216
102
RTVSPost2010PropOp51
 70
     0
102
RTVSPost2010Prop52
140
1.0
102
RTVSPost2010PropOp52
 70
     0
102
RTVSPost2010Prop53
 90
        2
102
RTVSPost2010PropOp53
 70
     1
102
RTVSPost2010Prop54
  1
strokes_ogs.tif
102
RTVSPost2010PropOp54
 70
     1
102
RTVSPost2010Prop55
280
     0
102
RTVSPost2010PropOp55
 70
     1
102
RTVSPost2010Prop56
140
1.0
102
RTVSPost2010PropOp56
 70
     1
102
RTVSPost2010Prop57
140
1.0
102
RTVSPost2010PropOp57
 70
     1
102
RTVSPropertyOp0
 70
     1
102
RTVSPropertyOp1
 70
     1
102
RTVSPropertyOp2
 70
     1
102
RTVSPropertyOp3
 70
     1
102
RTVSPropertyOp4
 70
     1
102
RTVSPropertyOp5
 70
     1
102
RTVSPropertyOp6
 70
     1
102
RTVSPropertyOp7
 70
     1
102
RTVSPropertyOp8
 70
     1
102
RTVSPropertyOp9
 70
     1
102
RTVSPropertyOp10
 70
     1
102
RTVSPropertyOp11
 70
     1
102
RTVSPropertyOp12
 70
     1
102
RTVSPropertyOp13
 70
     1
102
RTVSPropertyOp14
 70
     1
102
RTVSPropertyOp15
 70
     1
102
RTVSPropertyOp16
 70
     1
102
RTVSPropertyOp17
 70
     1
102
RTVSPropertyOp18
 70
     1
102
RTVSPropertyOp19
 70
     1
102
RTVSPropertyOp20
 70
     1
102
RTVSPropertyOp21
 70
     1
102
RTVSPropertyOp22
 70
     1
102
RTVSPropertyOp23
 70
     1
102
RTVSPropertyOp24
 70
     1
102
RTVSPropertyOp25
 70
     1
102
RTVSPropertyOp26
 70
     1
102
RTVSPropertyOp27
 70
     1
102
RTVSPropertyOp28
 70
     1
102
RTVSPropertyOp29
 70
     1
102
RTVSPropertyOp30
 70
     1
102
RTVSPropertyOp31
 70
     1
102
RTVSPropertyOp32
 70
     1
102
RTVSPropertyOp33
 70
     1
102
RTVSPropertyOp34
 70
     1
102
RTVSPropertyOp35
 70
     1
102
RTVSPropertyOp36
 70
     1
102
RTVSPropertyOp37
 70
     1
102
RTVSPropertyOp38
 70
     1
102
RTVSPropertyOp39
 70
     1
102
RTVSPropertyOp40
 70
     1
102
RTVSPropertyOp41
 70
     1
102
RTVSPropertyOp42
 70
     1
102
RTVSPropertyOp43
 70
     1
102
RTVSPropertyOp44
 70
     1
102
RTVSPropertyOp45
 70
     1
102
RTVSPropertyOp46
 70
     1
102
RTVSPropertyOp47
 70
     1
102
RTVSPropertyOp48
 70
     1
102
RTVSPropertyOp49
 70
     1
102
RTVSPropertyOp50
 70
     1
102
RTVSPropertyOp51
 70
     0
102
RTVSPropertyOp52
 70
     0
102
RTVSPropertyOp53
 70
     1
102
RTVSPropertyOp54
 70
     1
102
RTVSPropertyOp55
 70
     1
102
RTVSPropertyOp56
 70
     1
102
RTVSPropertyOp57
 70
     1
102
RTVSPropertyOp58
 70
     1
102
RTVSPropertyOp59
 70
     1
102
RTVSPropertyOp60
 70
     1
102
RTVSPropertyOp61
 70
     1
102
RTVSPropertyOp62
 70
     1
  0
XRECORD
  5
3454
102
{ACAD_REACTORS
330
3453
102
}
330
3453
100
AcDbXrecord
280
     1
102
RTVSPost2010Prop28
280
     0
102
RTVSPost2010PropOp28
 70
     1
102
RTVSPost2010Prop29
280
     1
102
RTVSPost2010PropOp29
 70
     1
102
RTVSPost2010Prop30
280
     1
102
RTVSPost2010PropOp30
 70
     1
102
RTVSPost2010Prop31
280
     0
102
RTVSPost2010PropOp31
 70
     1
102
RTVSPost2010Prop32
280
     0
102
RTVSPost2010PropOp32
 70
     1
102
RTVSPost2010Prop33
280
     0
102
RTVSPost2010PropOp33
 70
     1
102
RTVSPost2010Prop34
280
     0
102
RTVSPost2010PropOp34
 70
     1
102
RTVSPost2010Prop35
280
     0
102
RTVSPost2010PropOp35
 70
     1
102
RTVSPost2010Prop36
280
     0
102
RTVSPost2010PropOp36
 70
     1
102
RTVSPost2010Prop37
 90
       50
102
RTVSPost2010PropOp37
 70
     1
102
RTVSPost2010Prop38
140
0.0
102
RTVSPost2010PropOp38
 70
     1
102
RTVSPost2010Prop39
140
1.0
102
RTVSPost2010PropOp39
 70
     1
102
RTVSPost2010Prop40
 90
        0
102
RTVSPost2010PropOp40
 70
     1
102
RTVSPost2010Prop41ColorIndex
 90
       18
102
RTVSPost2010Prop41ColorRGB
 90
        0
102
RTVSPost2010PropOp41
 70
     1
102
RTVSPost2010Prop42
 90
       50
102
RTVSPost2010PropOp42
 70
     1
102
RTVSPost2010Prop43
 90
        3
102
RTVSPost2010PropOp43
 70
     1
102
RTVSPost2010Prop44ColorIndex
 90
        5
102
RTVSPost2010Prop44ColorRGB
 90
      255
102
RTVSPost2010PropOp44
 70
     1
102
RTVSPost2010Prop45
280
     0
102
RTVSPost2010PropOp45
 70
     1
102
RTVSPost2010Prop46
 90
       50
102
RTVSPost2010PropOp46
 70
     1
102
RTVSPost2010Prop47
 90
       50
102
RTVSPost2010PropOp47
 70
     1
102
RTVSPost2010Prop48
 90
       50
102
RTVSPost2010PropOp48
 70
     1
102
RTVSPost2010Prop49
280
     0
102
RTVSPost2010PropOp49
 70
     1
102
RTVSPost2010Prop50
 90
       50
102
RTVSPost2010PropOp50
 70
     1
102
RTVSPost2010Prop51ColorIndex
 90
      256
102
RTVSPost2010Prop51ColorRGB
 90
-16777216
102
RTVSPost2010PropOp51
 70
     0
102
RTVSPost2010Prop52
140
1.0
102
RTVSPost2010PropOp52
 70
     0
102
RTVSPost2010Prop53
 90
        2
102
RTVSPost2010PropOp53
 70
     1
102
RTVSPost2010Prop54
  1
strokes_ogs.tif
102
RTVSPost2010PropOp54
 70
     1
102
RTVSPost2010Prop55
280
     0
102
RTVSPost2010PropOp55
 70
     1
102
RTVSPost2010Prop56
140
1.0
102
RTVSPost2010PropOp56
 70
     1
102
RTVSPost2010Prop57
140
1.0
102
RTVSPost2010PropOp57
 70
     1
102
RTVSPropertyOp0
 70
     1
102
RTVSPropertyOp1
 70
     1
102
RTVSPropertyOp2
 70
     1
102
RTVSPropertyOp3
 70
     1
102
RTVSPropertyOp4
 70
     1
102
RTVSPropertyOp5
 70
     1
102
RTVSPropertyOp6
 70
     1
102
RTVSPropertyOp7
 70
     1
102
RTVSPropertyOp8
 70
     1
102
RTVSPropertyOp9
 70
     1
102
RTVSPropertyOp10
 70
     1
102
RTVSPropertyOp11
 70
     1
102
RTVSPropertyOp12
 70
     1
102
RTVSPropertyOp13
 70
     1
102
RTVSPropertyOp14
 70
     1
102
RTVSPropertyOp15
 70
     1
102
RTVSPropertyOp16
 70
     1
102
RTVSPropertyOp17
 70
     1
102
RTVSPropertyOp18
 70
     1
102
RTVSPropertyOp19
 70
     1
102
RTVSPropertyOp20
 70
     1
102
RTVSPropertyOp21
 70
     1
102
RTVSPropertyOp22
 70
     1
102
RTVSPropertyOp23
 70
     1
102
RTVSPropertyOp24
 70
     1
102
RTVSPropertyOp25
 70
     1
102
RTVSPropertyOp26
 70
     1
102
RTVSPropertyOp27
 70
     1
102
RTVSPropertyOp28
 70
     1
102
RTVSPropertyOp29
 70
     1
102
RTVSPropertyOp30
 70
     1
102
RTVSPropertyOp31
 70
     1
102
RTVSPropertyOp32
 70
     1
102
RTVSPropertyOp33
 70
     1
102
RTVSPropertyOp34
 70
     1
102
RTVSPropertyOp35
 70
     1
102
RTVSPropertyOp36
 70
     1
102
RTVSPropertyOp37
 70
     1
102
RTVSPropertyOp38
 70
     1
102
RTVSPropertyOp39
 70
     1
102
RTVSPropertyOp40
 70
     1
102
RTVSPropertyOp41
 70
     1
102
RTVSPropertyOp42
 70
     1
102
RTVSPropertyOp43
 70
     1
102
RTVSPropertyOp44
 70
     1
102
RTVSPropertyOp45
 70
     1
102
RTVSPropertyOp46
 70
     1
102
RTVSPropertyOp47
 70
     1
102
RTVSPropertyOp48
 70
     1
102
RTVSPropertyOp49
 70
     1
102
RTVSPropertyOp50
 70
     1
102
RTVSPropertyOp51
 70
     0
102
RTVSPropertyOp52
 70
     0
102
RTVSPropertyOp53
 70
     1
102
RTVSPropertyOp54
 70
     1
102
RTVSPropertyOp55
 70
     1
102
RTVSPropertyOp56
 70
     1
102
RTVSPropertyOp57
 70
     1
102
RTVSPropertyOp58
 70
     1
102
RTVSPropertyOp59
 70
     1
102
RTVSPropertyOp60
 70
     1
102
RTVSPropertyOp61
 70
     1
102
RTVSPropertyOp62
 70
     1
  0
XRECORD
  5
3462
102
{ACAD_REACTORS
330
3461
102
}
330
3461
100
AcDbXrecord
280
     1
102
RTVSPost2010Prop28
280
     0
102
RTVSPost2010PropOp28
 70
     1
102
RTVSPost2010Prop29
280
     1
102
RTVSPost2010PropOp29
 70
     1
102
RTVSPost2010Prop30
280
     1
102
RTVSPost2010PropOp30
 70
     1
102
RTVSPost2010Prop31
280
     0
102
RTVSPost2010PropOp31
 70
     1
102
RTVSPost2010Prop32
280
     0
102
RTVSPost2010PropOp32
 70
     1
102
RTVSPost2010Prop33
280
     0
102
RTVSPost2010PropOp33
 70
     1
102
RTVSPost2010Prop34
280
     0
102
RTVSPost2010PropOp34
 70
     1
102
RTVSPost2010Prop35
280
     0
102
RTVSPost2010PropOp35
 70
     1
102
RTVSPost2010Prop36
280
     0
102
RTVSPost2010PropOp36
 70
     1
102
RTVSPost2010Prop37
 90
       50
102
RTVSPost2010PropOp37
 70
     1
102
RTVSPost2010Prop38
140
0.0
102
RTVSPost2010PropOp38
 70
     1
102
RTVSPost2010Prop39
140
1.0
102
RTVSPost2010PropOp39
 70
     1
102
RTVSPost2010Prop40
 90
        0
102
RTVSPost2010PropOp40
 70
     1
102
RTVSPost2010Prop41ColorIndex
 90
       18
102
RTVSPost2010Prop41ColorRGB
 90
        0
102
RTVSPost2010PropOp41
 70
     1
102
RTVSPost2010Prop42
 90
       50
102
RTVSPost2010PropOp42
 70
     1
102
RTVSPost2010Prop43
 90
        3
102
RTVSPost2010PropOp43
 70
     1
102
RTVSPost2010Prop44ColorIndex
 90
        5
102
RTVSPost2010Prop44ColorRGB
 90
      255
102
RTVSPost2010PropOp44
 70
     1
102
RTVSPost2010Prop45
280
     0
102
RTVSPost2010PropOp45
 70
     1
102
RTVSPost2010Prop46
 90
       50
102
RTVSPost2010PropOp46
 70
     1
102
RTVSPost2010Prop47
 90
       50
102
RTVSPost2010PropOp47
 70
     1
102
RTVSPost2010Prop48
 90
       50
102
RTVSPost2010PropOp48
 70
     1
102
RTVSPost2010Prop49
280
     0
102
RTVSPost2010PropOp49
 70
     1
102
RTVSPost2010Prop50
 90
       50
102
RTVSPost2010PropOp50
 70
     1
102
RTVSPost2010Prop51ColorIndex
 90
      256
102
RTVSPost2010Prop51ColorRGB
 90
-16777216
102
RTVSPost2010PropOp51
 70
     0
102
RTVSPost2010Prop52
140
1.0
102
RTVSPost2010PropOp52
 70
     0
102
RTVSPost2010Prop53
 90
        2
102
RTVSPost2010PropOp53
 70
     1
102
RTVSPost2010Prop54
  1
strokes_ogs.tif
102
RTVSPost2010PropOp54
 70
     1
102
RTVSPost2010Prop55
280
     0
102
RTVSPost2010PropOp55
 70
     1
102
RTVSPost2010Prop56
140
1.0
102
RTVSPost2010PropOp56
 70
     1
102
RTVSPost2010Prop57
140
1.0
102
RTVSPost2010PropOp57
 70
     1
102
RTVSPropertyOp0
 70
     1
102
RTVSPropertyOp1
 70
     1
102
RTVSPropertyOp2
 70
     1
102
RTVSPropertyOp3
 70
     1
102
RTVSPropertyOp4
 70
     1
102
RTVSPropertyOp5
 70
     1
102
RTVSPropertyOp6
 70
     1
102
RTVSPropertyOp7
 70
     1
102
RTVSPropertyOp8
 70
     1
102
RTVSPropertyOp9
 70
     1
102
RTVSPropertyOp10
 70
     1
102
RTVSPropertyOp11
 70
     1
102
RTVSPropertyOp12
 70
     1
102
RTVSPropertyOp13
 70
     1
102
RTVSPropertyOp14
 70
     1
102
RTVSPropertyOp15
 70
     1
102
RTVSPropertyOp16
 70
     1
102
RTVSPropertyOp17
 70
     1
102
RTVSPropertyOp18
 70
     1
102
RTVSPropertyOp19
 70
     1
102
RTVSPropertyOp20
 70
     1
102
RTVSPropertyOp21
 70
     1
102
RTVSPropertyOp22
 70
     1
102
RTVSPropertyOp23
 70
     1
102
RTVSPropertyOp24
 70
     1
102
RTVSPropertyOp25
 70
     1
102
RTVSPropertyOp26
 70
     1
102
RTVSPropertyOp27
 70
     1
102
RTVSPropertyOp28
 70
     1
102
RTVSPropertyOp29
 70
     1
102
RTVSPropertyOp30
 70
     1
102
RTVSPropertyOp31
 70
     1
102
RTVSPropertyOp32
 70
     1
102
RTVSPropertyOp33
 70
     1
102
RTVSPropertyOp34
 70
     1
102
RTVSPropertyOp35
 70
     1
102
RTVSPropertyOp36
 70
     1
102
RTVSPropertyOp37
 70
     1
102
RTVSPropertyOp38
 70
     1
102
RTVSPropertyOp39
 70
     1
102
RTVSPropertyOp40
 70
     1
102
RTVSPropertyOp41
 70
     1
102
RTVSPropertyOp42
 70
     1
102
RTVSPropertyOp43
 70
     1
102
RTVSPropertyOp44
 70
     1
102
RTVSPropertyOp45
 70
     1
102
RTVSPropertyOp46
 70
     1
102
RTVSPropertyOp47
 70
     1
102
RTVSPropertyOp48
 70
     1
102
RTVSPropertyOp49
 70
     1
102
RTVSPropertyOp50
 70
     1
102
RTVSPropertyOp51
 70
     0
102
RTVSPropertyOp52
 70
     0
102
RTVSPropertyOp53
 70
     1
102
RTVSPropertyOp54
 70
     1
102
RTVSPropertyOp55
 70
     1
102
RTVSPropertyOp56
 70
     1
102
RTVSPropertyOp57
 70
     1
102
RTVSPropertyOp58
 70
     1
102
RTVSPropertyOp59
 70
     1
102
RTVSPropertyOp60
 70
     1
102
RTVSPropertyOp61
 70
     1
102
RTVSPropertyOp62
 70
     1
  0
XRECORD
  5
346A
102
{ACAD_REACTORS
330
3469
102
}
330
3469
100
AcDbXrecord
280
     1
102
RTVSPost2010Prop28
280
     0
102
RTVSPost2010PropOp28
 70
     1
102
RTVSPost2010Prop29
280
     1
102
RTVSPost2010PropOp29
 70
     1
102
RTVSPost2010Prop30
280
     1
102
RTVSPost2010PropOp30
 70
     1
102
RTVSPost2010Prop31
280
     0
102
RTVSPost2010PropOp31
 70
     1
102
RTVSPost2010Prop32
280
     0
102
RTVSPost2010PropOp32
 70
     1
102
RTVSPost2010Prop33
280
     0
102
RTVSPost2010PropOp33
 70
     1
102
RTVSPost2010Prop34
280
     0
102
RTVSPost2010PropOp34
 70
     1
102
RTVSPost2010Prop35
280
     0
102
RTVSPost2010PropOp35
 70
     1
102
RTVSPost2010Prop36
280
     0
102
RTVSPost2010PropOp36
 70
     1
102
RTVSPost2010Prop37
 90
       50
102
RTVSPost2010PropOp37
 70
     1
102
RTVSPost2010Prop38
140
0.0
102
RTVSPost2010PropOp38
 70
     1
102
RTVSPost2010Prop39
140
1.0
102
RTVSPost2010PropOp39
 70
     1
102
RTVSPost2010Prop40
 90
        0
102
RTVSPost2010PropOp40
 70
     1
102
RTVSPost2010Prop41ColorIndex
 90
       18
102
RTVSPost2010Prop41ColorRGB
 90
        0
102
RTVSPost2010PropOp41
 70
     1
102
RTVSPost2010Prop42
 90
       50
102
RTVSPost2010PropOp42
 70
     1
102
RTVSPost2010Prop43
 90
        3
102
RTVSPost2010PropOp43
 70
     1
102
RTVSPost2010Prop44ColorIndex
 90
        5
102
RTVSPost2010Prop44ColorRGB
 90
      255
102
RTVSPost2010PropOp44
 70
     1
102
RTVSPost2010Prop45
280
     0
102
RTVSPost2010PropOp45
 70
     1
102
RTVSPost2010Prop46
 90
       50
102
RTVSPost2010PropOp46
 70
     1
102
RTVSPost2010Prop47
 90
       50
102
RTVSPost2010PropOp47
 70
     1
102
RTVSPost2010Prop48
 90
       50
102
RTVSPost2010PropOp48
 70
     1
102
RTVSPost2010Prop49
280
     0
102
RTVSPost2010PropOp49
 70
     1
102
RTVSPost2010Prop50
 90
       50
102
RTVSPost2010PropOp50
 70
     1
102
RTVSPost2010Prop51ColorIndex
 90
      256
102
RTVSPost2010Prop51ColorRGB
 90
-16777216
102
RTVSPost2010PropOp51
 70
     0
102
RTVSPost2010Prop52
140
1.0
102
RTVSPost2010PropOp52
 70
     0
102
RTVSPost2010Prop53
 90
        2
102
RTVSPost2010PropOp53
 70
     1
102
RTVSPost2010Prop54
  1
strokes_ogs.tif
102
RTVSPost2010PropOp54
 70
     1
102
RTVSPost2010Prop55
280
     0
102
RTVSPost2010PropOp55
 70
     1
102
RTVSPost2010Prop56
140
1.0
102
RTVSPost2010PropOp56
 70
     1
102
RTVSPost2010Prop57
140
1.0
102
RTVSPost2010PropOp57
 70
     1
102
RTVSPropertyOp0
 70
     1
102
RTVSPropertyOp1
 70
     1
102
RTVSPropertyOp2
 70
     1
102
RTVSPropertyOp3
 70
     1
102
RTVSPropertyOp4
 70
     1
102
RTVSPropertyOp5
 70
     1
102
RTVSPropertyOp6
 70
     1
102
RTVSPropertyOp7
 70
     1
102
RTVSPropertyOp8
 70
     1
102
RTVSPropertyOp9
 70
     1
102
RTVSPropertyOp10
 70
     1
102
RTVSPropertyOp11
 70
     1
102
RTVSPropertyOp12
 70
     1
102
RTVSPropertyOp13
 70
     1
102
RTVSPropertyOp14
 70
     1
102
RTVSPropertyOp15
 70
     1
102
RTVSPropertyOp16
 70
     1
102
RTVSPropertyOp17
 70
     1
102
RTVSPropertyOp18
 70
     1
102
RTVSPropertyOp19
 70
     1
102
RTVSPropertyOp20
 70
     1
102
RTVSPropertyOp21
 70
     1
102
RTVSPropertyOp22
 70
     1
102
RTVSPropertyOp23
 70
     1
102
RTVSPropertyOp24
 70
     1
102
RTVSPropertyOp25
 70
     1
102
RTVSPropertyOp26
 70
     1
102
RTVSPropertyOp27
 70
     1
102
RTVSPropertyOp28
 70
     1
102
RTVSPropertyOp29
 70
     1
102
RTVSPropertyOp30
 70
     1
102
RTVSPropertyOp31
 70
     1
102
RTVSPropertyOp32
 70
     1
102
RTVSPropertyOp33
 70
     1
102
RTVSPropertyOp34
 70
     1
102
RTVSPropertyOp35
 70
     1
102
RTVSPropertyOp36
 70
     1
102
RTVSPropertyOp37
 70
     1
102
RTVSPropertyOp38
 70
     1
102
RTVSPropertyOp39
 70
     1
102
RTVSPropertyOp40
 70
     1
102
RTVSPropertyOp41
 70
     1
102
RTVSPropertyOp42
 70
     1
102
RTVSPropertyOp43
 70
     1
102
RTVSPropertyOp44
 70
     1
102
RTVSPropertyOp45
 70
     1
102
RTVSPropertyOp46
 70
     1
102
RTVSPropertyOp47
 70
     1
102
RTVSPropertyOp48
 70
     1
102
RTVSPropertyOp49
 70
     1
102
RTVSPropertyOp50
 70
     1
102
RTVSPropertyOp51
 70
     0
102
RTVSPropertyOp52
 70
     0
102
RTVSPropertyOp53
 70
     1
102
RTVSPropertyOp54
 70
     1
102
RTVSPropertyOp55
 70
     1
102
RTVSPropertyOp56
 70
     1
102
RTVSPropertyOp57
 70
     1
102
RTVSPropertyOp58
 70
     1
102
RTVSPropertyOp59
 70
     1
102
RTVSPropertyOp60
 70
     1
102
RTVSPropertyOp61
 70
     1
102
RTVSPropertyOp62
 70
     1
  0
XRECORD
  5
345C
102
{ACAD_REACTORS
330
345B
102
}
330
345B
100
AcDbXrecord
280
     1
102
RTVSPost2010Prop28
280
     0
102
RTVSPost2010PropOp28
 70
     1
102
RTVSPost2010Prop29
280
     1
102
RTVSPost2010PropOp29
 70
     1
102
RTVSPost2010Prop30
280
     1
102
RTVSPost2010PropOp30
 70
     1
102
RTVSPost2010Prop31
280
     0
102
RTVSPost2010PropOp31
 70
     1
102
RTVSPost2010Prop32
280
     0
102
RTVSPost2010PropOp32
 70
     1
102
RTVSPost2010Prop33
280
     0
102
RTVSPost2010PropOp33
 70
     1
102
RTVSPost2010Prop34
280
     0
102
RTVSPost2010PropOp34
 70
     1
102
RTVSPost2010Prop35
280
     0
102
RTVSPost2010PropOp35
 70
     1
102
RTVSPost2010Prop36
280
     0
102
RTVSPost2010PropOp36
 70
     1
102
RTVSPost2010Prop37
 90
       50
102
RTVSPost2010PropOp37
 70
     1
102
RTVSPost2010Prop38
140
0.0
102
RTVSPost2010PropOp38
 70
     1
102
RTVSPost2010Prop39
140
1.0
102
RTVSPost2010PropOp39
 70
     1
102
RTVSPost2010Prop40
 90
        0
102
RTVSPost2010PropOp40
 70
     1
102
RTVSPost2010Prop41ColorIndex
 90
       18
102
RTVSPost2010Prop41ColorRGB
 90
        0
102
RTVSPost2010PropOp41
 70
     1
102
RTVSPost2010Prop42
 90
       50
102
RTVSPost2010PropOp42
 70
     1
102
RTVSPost2010Prop43
 90
        3
102
RTVSPost2010PropOp43
 70
     1
102
RTVSPost2010Prop44ColorIndex
 90
        5
102
RTVSPost2010Prop44ColorRGB
 90
      255
102
RTVSPost2010PropOp44
 70
     1
102
RTVSPost2010Prop45
280
     0
102
RTVSPost2010PropOp45
 70
     1
102
RTVSPost2010Prop46
 90
       50
102
RTVSPost2010PropOp46
 70
     1
102
RTVSPost2010Prop47
 90
       50
102
RTVSPost2010PropOp47
 70
     1
102
RTVSPost2010Prop48
 90
       50
102
RTVSPost2010PropOp48
 70
     1
102
RTVSPost2010Prop49
280
     0
102
RTVSPost2010PropOp49
 70
     1
102
RTVSPost2010Prop50
 90
       50
102
RTVSPost2010PropOp50
 70
     1
102
RTVSPost2010Prop51ColorIndex
 90
      256
102
RTVSPost2010Prop51ColorRGB
 90
-16777216
102
RTVSPost2010PropOp51
 70
     0
102
RTVSPost2010Prop52
140
1.0
102
RTVSPost2010PropOp52
 70
     0
102
RTVSPost2010Prop53
 90
        2
102
RTVSPost2010PropOp53
 70
     1
102
RTVSPost2010Prop54
  1
strokes_ogs.tif
102
RTVSPost2010PropOp54
 70
     1
102
RTVSPost2010Prop55
280
     0
102
RTVSPost2010PropOp55
 70
     1
102
RTVSPost2010Prop56
140
1.0
102
RTVSPost2010PropOp56
 70
     1
102
RTVSPost2010Prop57
140
1.0
102
RTVSPost2010PropOp57
 70
     1
102
RTVSPropertyOp0
 70
     1
102
RTVSPropertyOp1
 70
     1
102
RTVSPropertyOp2
 70
     1
102
RTVSPropertyOp3
 70
     1
102
RTVSPropertyOp4
 70
     1
102
RTVSPropertyOp5
 70
     1
102
RTVSPropertyOp6
 70
     1
102
RTVSPropertyOp7
 70
     1
102
RTVSPropertyOp8
 70
     1
102
RTVSPropertyOp9
 70
     1
102
RTVSPropertyOp10
 70
     1
102
RTVSPropertyOp11
 70
     1
102
RTVSPropertyOp12
 70
     1
102
RTVSPropertyOp13
 70
     1
102
RTVSPropertyOp14
 70
     1
102
RTVSPropertyOp15
 70
     1
102
RTVSPropertyOp16
 70
     1
102
RTVSPropertyOp17
 70
     1
102
RTVSPropertyOp18
 70
     1
102
RTVSPropertyOp19
 70
     1
102
RTVSPropertyOp20
 70
     1
102
RTVSPropertyOp21
 70
     1
102
RTVSPropertyOp22
 70
     1
102
RTVSPropertyOp23
 70
     1
102
RTVSPropertyOp24
 70
     1
102
RTVSPropertyOp25
 70
     1
102
RTVSPropertyOp26
 70
     1
102
RTVSPropertyOp27
 70
     1
102
RTVSPropertyOp28
 70
     1
102
RTVSPropertyOp29
 70
     1
102
RTVSPropertyOp30
 70
     1
102
RTVSPropertyOp31
 70
     1
102
RTVSPropertyOp32
 70
     1
102
RTVSPropertyOp33
 70
     1
102
RTVSPropertyOp34
 70
     1
102
RTVSPropertyOp35
 70
     1
102
RTVSPropertyOp36
 70
     1
102
RTVSPropertyOp37
 70
     1
102
RTVSPropertyOp38
 70
     1
102
RTVSPropertyOp39
 70
     1
102
RTVSPropertyOp40
 70
     1
102
RTVSPropertyOp41
 70
     1
102
RTVSPropertyOp42
 70
     1
102
RTVSPropertyOp43
 70
     1
102
RTVSPropertyOp44
 70
     1
102
RTVSPropertyOp45
 70
     1
102
RTVSPropertyOp46
 70
     1
102
RTVSPropertyOp47
 70
     1
102
RTVSPropertyOp48
 70
     1
102
RTVSPropertyOp49
 70
     1
102
RTVSPropertyOp50
 70
     1
102
RTVSPropertyOp51
 70
     0
102
RTVSPropertyOp52
 70
     0
102
RTVSPropertyOp53
 70
     1
102
RTVSPropertyOp54
 70
     1
102
RTVSPropertyOp55
 70
     1
102
RTVSPropertyOp56
 70
     1
102
RTVSPropertyOp57
 70
     1
102
RTVSPropertyOp58
 70
     1
102
RTVSPropertyOp59
 70
     1
102
RTVSPropertyOp60
 70
     1
102
RTVSPropertyOp61
 70
     1
102
RTVSPropertyOp62
 70
     1
  0
XRECORD
  5
3460
102
{ACAD_REACTORS
330
345F
102
}
330
345F
100
AcDbXrecord
280
     1
102
RTVSPost2010Prop28
280
     0
102
RTVSPost2010PropOp28
 70
     1
102
RTVSPost2010Prop29
280
     1
102
RTVSPost2010PropOp29
 70
     1
102
RTVSPost2010Prop30
280
     1
102
RTVSPost2010PropOp30
 70
     1
102
RTVSPost2010Prop31
280
     0
102
RTVSPost2010PropOp31
 70
     1
102
RTVSPost2010Prop32
280
     0
102
RTVSPost2010PropOp32
 70
     1
102
RTVSPost2010Prop33
280
     0
102
RTVSPost2010PropOp33
 70
     1
102
RTVSPost2010Prop34
280
     0
102
RTVSPost2010PropOp34
 70
     1
102
RTVSPost2010Prop35
280
     0
102
RTVSPost2010PropOp35
 70
     1
102
RTVSPost2010Prop36
280
     0
102
RTVSPost2010PropOp36
 70
     1
102
RTVSPost2010Prop37
 90
       50
102
RTVSPost2010PropOp37
 70
     1
102
RTVSPost2010Prop38
140
0.0
102
RTVSPost2010PropOp38
 70
     1
102
RTVSPost2010Prop39
140
1.0
102
RTVSPost2010PropOp39
 70
     1
102
RTVSPost2010Prop40
 90
        0
102
RTVSPost2010PropOp40
 70
     1
102
RTVSPost2010Prop41ColorIndex
 90
       18
102
RTVSPost2010Prop41ColorRGB
 90
        0
102
RTVSPost2010PropOp41
 70
     1
102
RTVSPost2010Prop42
 90
       50
102
RTVSPost2010PropOp42
 70
     1
102
RTVSPost2010Prop43
 90
        3
102
RTVSPost2010PropOp43
 70
     1
102
RTVSPost2010Prop44ColorIndex
 90
        5
102
RTVSPost2010Prop44ColorRGB
 90
      255
102
RTVSPost2010PropOp44
 70
     1
102
RTVSPost2010Prop45
280
     0
102
RTVSPost2010PropOp45
 70
     1
102
RTVSPost2010Prop46
 90
       50
102
RTVSPost2010PropOp46
 70
     1
102
RTVSPost2010Prop47
 90
       50
102
RTVSPost2010PropOp47
 70
     1
102
RTVSPost2010Prop48
 90
       50
102
RTVSPost2010PropOp48
 70
     1
102
RTVSPost2010Prop49
280
     0
102
RTVSPost2010PropOp49
 70
     1
102
RTVSPost2010Prop50
 90
       50
102
RTVSPost2010PropOp50
 70
     1
102
RTVSPost2010Prop51ColorIndex
 90
      256
102
RTVSPost2010Prop51ColorRGB
 90
-16777216
102
RTVSPost2010PropOp51
 70
     0
102
RTVSPost2010Prop52
140
1.0
102
RTVSPost2010PropOp52
 70
     0
102
RTVSPost2010Prop53
 90
        2
102
RTVSPost2010PropOp53
 70
     1
102
RTVSPost2010Prop54
  1
strokes_ogs.tif
102
RTVSPost2010PropOp54
 70
     1
102
RTVSPost2010Prop55
280
     0
102
RTVSPost2010PropOp55
 70
     1
102
RTVSPost2010Prop56
140
1.0
102
RTVSPost2010PropOp56
 70
     1
102
RTVSPost2010Prop57
140
1.0
102
RTVSPost2010PropOp57
 70
     1
102
RTVSPropertyOp0
 70
     1
102
RTVSPropertyOp1
 70
     1
102
RTVSPropertyOp2
 70
     1
102
RTVSPropertyOp3
 70
     1
102
RTVSPropertyOp4
 70
     1
102
RTVSPropertyOp5
 70
     1
102
RTVSPropertyOp6
 70
     1
102
RTVSPropertyOp7
 70
     1
102
RTVSPropertyOp8
 70
     1
102
RTVSPropertyOp9
 70
     1
102
RTVSPropertyOp10
 70
     1
102
RTVSPropertyOp11
 70
     1
102
RTVSPropertyOp12
 70
     1
102
RTVSPropertyOp13
 70
     1
102
RTVSPropertyOp14
 70
     1
102
RTVSPropertyOp15
 70
     1
102
RTVSPropertyOp16
 70
     1
102
RTVSPropertyOp17
 70
     1
102
RTVSPropertyOp18
 70
     1
102
RTVSPropertyOp19
 70
     1
102
RTVSPropertyOp20
 70
     1
102
RTVSPropertyOp21
 70
     1
102
RTVSPropertyOp22
 70
     1
102
RTVSPropertyOp23
 70
     1
102
RTVSPropertyOp24
 70
     1
102
RTVSPropertyOp25
 70
     1
102
RTVSPropertyOp26
 70
     1
102
RTVSPropertyOp27
 70
     1
102
RTVSPropertyOp28
 70
     1
102
RTVSPropertyOp29
 70
     1
102
RTVSPropertyOp30
 70
     1
102
RTVSPropertyOp31
 70
     1
102
RTVSPropertyOp32
 70
     1
102
RTVSPropertyOp33
 70
     1
102
RTVSPropertyOp34
 70
     1
102
RTVSPropertyOp35
 70
     1
102
RTVSPropertyOp36
 70
     1
102
RTVSPropertyOp37
 70
     1
102
RTVSPropertyOp38
 70
     1
102
RTVSPropertyOp39
 70
     1
102
RTVSPropertyOp40
 70
     1
102
RTVSPropertyOp41
 70
     1
102
RTVSPropertyOp42
 70
     1
102
RTVSPropertyOp43
 70
     1
102
RTVSPropertyOp44
 70
     1
102
RTVSPropertyOp45
 70
     1
102
RTVSPropertyOp46
 70
     1
102
RTVSPropertyOp47
 70
     1
102
RTVSPropertyOp48
 70
     1
102
RTVSPropertyOp49
 70
     1
102
RTVSPropertyOp50
 70
     1
102
RTVSPropertyOp51
 70
     0
102
RTVSPropertyOp52
 70
     0
102
RTVSPropertyOp53
 70
     1
102
RTVSPropertyOp54
 70
     1
102
RTVSPropertyOp55
 70
     1
102
RTVSPropertyOp56
 70
     1
102
RTVSPropertyOp57
 70
     1
102
RTVSPropertyOp58
 70
     1
102
RTVSPropertyOp59
 70
     1
102
RTVSPropertyOp60
 70
     1
102
RTVSPropertyOp61
 70
     1
102
RTVSPropertyOp62
 70
     1
  0
XRECORD
  5
3470
102
{ACAD_REACTORS
330
346F
102
}
330
346F
100
AcDbXrecord
280
     1
102
RTVSPost2010Prop28
280
     0
102
RTVSPost2010PropOp28
 70
     1
102
RTVSPost2010Prop29
280
     1
102
RTVSPost2010PropOp29
 70
     1
102
RTVSPost2010Prop30
280
     1
102
RTVSPost2010PropOp30
 70
     1
102
RTVSPost2010Prop31
280
     0
102
RTVSPost2010PropOp31
 70
     1
102
RTVSPost2010Prop32
280
     0
102
RTVSPost2010PropOp32
 70
     1
102
RTVSPost2010Prop33
280
     0
102
RTVSPost2010PropOp33
 70
     1
102
RTVSPost2010Prop34
280
     0
102
RTVSPost2010PropOp34
 70
     1
102
RTVSPost2010Prop35
280
     0
102
RTVSPost2010PropOp35
 70
     1
102
RTVSPost2010Prop36
280
     0
102
RTVSPost2010PropOp36
 70
     1
102
RTVSPost2010Prop37
 90
       50
102
RTVSPost2010PropOp37
 70
     1
102
RTVSPost2010Prop38
140
0.0
102
RTVSPost2010PropOp38
 70
     1
102
RTVSPost2010Prop39
140
1.0
102
RTVSPost2010PropOp39
 70
     1
102
RTVSPost2010Prop40
 90
        0
102
RTVSPost2010PropOp40
 70
     1
102
RTVSPost2010Prop41ColorIndex
 90
       18
102
RTVSPost2010Prop41ColorRGB
 90
        0
102
RTVSPost2010PropOp41
 70
     1
102
RTVSPost2010Prop42
 90
       50
102
RTVSPost2010PropOp42
 70
     1
102
RTVSPost2010Prop43
 90
        3
102
RTVSPost2010PropOp43
 70
     1
102
RTVSPost2010Prop44ColorIndex
 90
        5
102
RTVSPost2010Prop44ColorRGB
 90
      255
102
RTVSPost2010PropOp44
 70
     1
102
RTVSPost2010Prop45
280
     0
102
RTVSPost2010PropOp45
 70
     1
102
RTVSPost2010Prop46
 90
       50
102
RTVSPost2010PropOp46
 70
     1
102
RTVSPost2010Prop47
 90
       50
102
RTVSPost2010PropOp47
 70
     1
102
RTVSPost2010Prop48
 90
       50
102
RTVSPost2010PropOp48
 70
     1
102
RTVSPost2010Prop49
280
     0
102
RTVSPost2010PropOp49
 70
     1
102
RTVSPost2010Prop50
 90
       50
102
RTVSPost2010PropOp50
 70
     1
102
RTVSPost2010Prop51ColorIndex
 90
      256
102
RTVSPost2010Prop51ColorRGB
 90
-16777216
102
RTVSPost2010PropOp51
 70
     0
102
RTVSPost2010Prop52
140
1.0
102
RTVSPost2010PropOp52
 70
     0
102
RTVSPost2010Prop53
 90
        2
102
RTVSPost2010PropOp53
 70
     1
102
RTVSPost2010Prop54
  1
strokes_ogs.tif
102
RTVSPost2010PropOp54
 70
     1
102
RTVSPost2010Prop55
280
     0
102
RTVSPost2010PropOp55
 70
     1
102
RTVSPost2010Prop56
140
1.0
102
RTVSPost2010PropOp56
 70
     1
102
RTVSPost2010Prop57
140
1.0
102
RTVSPost2010PropOp57
 70
     1
102
RTVSPropertyOp0
 70
     0
102
RTVSPropertyOp1
 70
     0
102
RTVSPropertyOp2
 70
     0
102
RTVSPropertyOp3
 70
     0
102
RTVSPropertyOp4
 70
     0
102
RTVSPropertyOp5
 70
     0
102
RTVSPropertyOp6
 70
     0
102
RTVSPropertyOp7
 70
     0
102
RTVSPropertyOp8
 70
     0
102
RTVSPropertyOp9
 70
     0
102
RTVSPropertyOp10
 70
     0
102
RTVSPropertyOp11
 70
     0
102
RTVSPropertyOp12
 70
     0
102
RTVSPropertyOp13
 70
     0
102
RTVSPropertyOp14
 70
     2
102
RTVSPropertyOp15
 70
     0
102
RTVSPropertyOp16
 70
     0
102
RTVSPropertyOp17
 70
     0
102
RTVSPropertyOp18
 70
     0
102
RTVSPropertyOp19
 70
     0
102
RTVSPropertyOp20
 70
     0
102
RTVSPropertyOp21
 70
     0
102
RTVSPropertyOp22
 70
     0
102
RTVSPropertyOp23
 70
     0
102
RTVSPropertyOp24
 70
     0
102
RTVSPropertyOp25
 70
     0
102
RTVSPropertyOp26
 70
     0
102
RTVSPropertyOp27
 70
     0
102
RTVSPropertyOp28
 70
     1
102
RTVSPropertyOp29
 70
     1
102
RTVSPropertyOp30
 70
     1
102
RTVSPropertyOp31
 70
     1
102
RTVSPropertyOp32
 70
     1
102
RTVSPropertyOp33
 70
     1
102
RTVSPropertyOp34
 70
     1
102
RTVSPropertyOp35
 70
     1
102
RTVSPropertyOp36
 70
     1
102
RTVSPropertyOp37
 70
     1
102
RTVSPropertyOp38
 70
     1
102
RTVSPropertyOp39
 70
     1
102
RTVSPropertyOp40
 70
     1
102
RTVSPropertyOp41
 70
     1
102
RTVSPropertyOp42
 70
     1
102
RTVSPropertyOp43
 70
     1
102
RTVSPropertyOp44
 70
     1
102
RTVSPropertyOp45
 70
     1
102
RTVSPropertyOp46
 70
     1
102
RTVSPropertyOp47
 70
     1
102
RTVSPropertyOp48
 70
     1
102
RTVSPropertyOp49
 70
     1
102
RTVSPropertyOp50
 70
     1
102
RTVSPropertyOp51
 70
     0
102
RTVSPropertyOp52
 70
     0
102
RTVSPropertyOp53
 70
     1
102
RTVSPropertyOp54
 70
     1
102
RTVSPropertyOp55
 70
     1
102
RTVSPropertyOp56
 70
     1
102
RTVSPropertyOp57
 70
     1
102
RTVSPropertyOp58
 70
     1
102
RTVSPropertyOp59
 70
     1
102
RTVSPropertyOp60
 70
     1
102
RTVSPropertyOp61
 70
     1
102
RTVSPropertyOp62
 70
     1
  0
XRECORD
  5
3468
102
{ACAD_REACTORS
330
3467
102
}
330
3467
100
AcDbXrecord
280
     1
102
RTVSPost2010Prop28
280
     0
102
RTVSPost2010PropOp28
 70
     1
102
RTVSPost2010Prop29
280
     1
102
RTVSPost2010PropOp29
 70
     1
102
RTVSPost2010Prop30
280
     1
102
RTVSPost2010PropOp30
 70
     1
102
RTVSPost2010Prop31
280
     0
102
RTVSPost2010PropOp31
 70
     1
102
RTVSPost2010Prop32
280
     0
102
RTVSPost2010PropOp32
 70
     1
102
RTVSPost2010Prop33
280
     0
102
RTVSPost2010PropOp33
 70
     1
102
RTVSPost2010Prop34
280
     0
102
RTVSPost2010PropOp34
 70
     1
102
RTVSPost2010Prop35
280
     0
102
RTVSPost2010PropOp35
 70
     1
102
RTVSPost2010Prop36
280
     0
102
RTVSPost2010PropOp36
 70
     1
102
RTVSPost2010Prop37
 90
       50
102
RTVSPost2010PropOp37
 70
     1
102
RTVSPost2010Prop38
140
0.0
102
RTVSPost2010PropOp38
 70
     1
102
RTVSPost2010Prop39
140
1.0
102
RTVSPost2010PropOp39
 70
     1
102
RTVSPost2010Prop40
 90
        0
102
RTVSPost2010PropOp40
 70
     1
102
RTVSPost2010Prop41ColorIndex
 90
       18
102
RTVSPost2010Prop41ColorRGB
 90
        0
102
RTVSPost2010PropOp41
 70
     1
102
RTVSPost2010Prop42
 90
       50
102
RTVSPost2010PropOp42
 70
     1
102
RTVSPost2010Prop43
 90
        3
102
RTVSPost2010PropOp43
 70
     1
102
RTVSPost2010Prop44ColorIndex
 90
        5
102
RTVSPost2010Prop44ColorRGB
 90
      255
102
RTVSPost2010PropOp44
 70
     1
102
RTVSPost2010Prop45
280
     0
102
RTVSPost2010PropOp45
 70
     1
102
RTVSPost2010Prop46
 90
       50
102
RTVSPost2010PropOp46
 70
     1
102
RTVSPost2010Prop47
 90
       50
102
RTVSPost2010PropOp47
 70
     1
102
RTVSPost2010Prop48
 90
       50
102
RTVSPost2010PropOp48
 70
     1
102
RTVSPost2010Prop49
280
     0
102
RTVSPost2010PropOp49
 70
     1
102
RTVSPost2010Prop50
 90
       50
102
RTVSPost2010PropOp50
 70
     1
102
RTVSPost2010Prop51ColorIndex
 90
      256
102
RTVSPost2010Prop51ColorRGB
 90
-16777216
102
RTVSPost2010PropOp51
 70
     0
102
RTVSPost2010Prop52
140
1.0
102
RTVSPost2010PropOp52
 70
     0
102
RTVSPost2010Prop53
 90
        2
102
RTVSPost2010PropOp53
 70
     1
102
RTVSPost2010Prop54
  1
strokes_ogs.tif
102
RTVSPost2010PropOp54
 70
     1
102
RTVSPost2010Prop55
280
     0
102
RTVSPost2010PropOp55
 70
     1
102
RTVSPost2010Prop56
140
1.0
102
RTVSPost2010PropOp56
 70
     1
102
RTVSPost2010Prop57
140
1.0
102
RTVSPost2010PropOp57
 70
     1
102
RTVSPropertyOp0
 70
     1
102
RTVSPropertyOp1
 70
     1
102
RTVSPropertyOp2
 70
     1
102
RTVSPropertyOp3
 70
     1
102
RTVSPropertyOp4
 70
     1
102
RTVSPropertyOp5
 70
     1
102
RTVSPropertyOp6
 70
     1
102
RTVSPropertyOp7
 70
     1
102
RTVSPropertyOp8
 70
     1
102
RTVSPropertyOp9
 70
     1
102
RTVSPropertyOp10
 70
     1
102
RTVSPropertyOp11
 70
     1
102
RTVSPropertyOp12
 70
     1
102
RTVSPropertyOp13
 70
     1
102
RTVSPropertyOp14
 70
     1
102
RTVSPropertyOp15
 70
     1
102
RTVSPropertyOp16
 70
     1
102
RTVSPropertyOp17
 70
     1
102
RTVSPropertyOp18
 70
     1
102
RTVSPropertyOp19
 70
     1
102
RTVSPropertyOp20
 70
     1
102
RTVSPropertyOp21
 70
     1
102
RTVSPropertyOp22
 70
     1
102
RTVSPropertyOp23
 70
     1
102
RTVSPropertyOp24
 70
     1
102
RTVSPropertyOp25
 70
     1
102
RTVSPropertyOp26
 70
     1
102
RTVSPropertyOp27
 70
     1
102
RTVSPropertyOp28
 70
     1
102
RTVSPropertyOp29
 70
     1
102
RTVSPropertyOp30
 70
     1
102
RTVSPropertyOp31
 70
     1
102
RTVSPropertyOp32
 70
     1
102
RTVSPropertyOp33
 70
     1
102
RTVSPropertyOp34
 70
     1
102
RTVSPropertyOp35
 70
     1
102
RTVSPropertyOp36
 70
     1
102
RTVSPropertyOp37
 70
     1
102
RTVSPropertyOp38
 70
     1
102
RTVSPropertyOp39
 70
     1
102
RTVSPropertyOp40
 70
     1
102
RTVSPropertyOp41
 70
     1
102
RTVSPropertyOp42
 70
     1
102
RTVSPropertyOp43
 70
     1
102
RTVSPropertyOp44
 70
     1
102
RTVSPropertyOp45
 70
     1
102
RTVSPropertyOp46
 70
     1
102
RTVSPropertyOp47
 70
     1
102
RTVSPropertyOp48
 70
     1
102
RTVSPropertyOp49
 70
     1
102
RTVSPropertyOp50
 70
     1
102
RTVSPropertyOp51
 70
     0
102
RTVSPropertyOp52
 70
     0
102
RTVSPropertyOp53
 70
     1
102
RTVSPropertyOp54
 70
     1
102
RTVSPropertyOp55
 70
     1
102
RTVSPropertyOp56
 70
     1
102
RTVSPropertyOp57
 70
     1
102
RTVSPropertyOp58
 70
     1
102
RTVSPropertyOp59
 70
     1
102
RTVSPropertyOp60
 70
     1
102
RTVSPropertyOp61
 70
     1
102
RTVSPropertyOp62
 70
     1
  0
XRECORD
  5
344C
102
{ACAD_REACTORS
330
344B
102
}
330
344B
100
AcDbXrecord
280
     1
102
RTVSPost2010Prop28
280
     0
102
RTVSPost2010PropOp28
 70
     1
102
RTVSPost2010Prop29
280
     1
102
RTVSPost2010PropOp29
 70
     1
102
RTVSPost2010Prop30
280
     1
102
RTVSPost2010PropOp30
 70
     1
102
RTVSPost2010Prop31
280
     0
102
RTVSPost2010PropOp31
 70
     1
102
RTVSPost2010Prop32
280
     0
102
RTVSPost2010PropOp32
 70
     1
102
RTVSPost2010Prop33
280
     0
102
RTVSPost2010PropOp33
 70
     1
102
RTVSPost2010Prop34
280
     0
102
RTVSPost2010PropOp34
 70
     1
102
RTVSPost2010Prop35
280
     0
102
RTVSPost2010PropOp35
 70
     1
102
RTVSPost2010Prop36
280
     0
102
RTVSPost2010PropOp36
 70
     1
102
RTVSPost2010Prop37
 90
       50
102
RTVSPost2010PropOp37
 70
     1
102
RTVSPost2010Prop38
140
0.0
102
RTVSPost2010PropOp38
 70
     1
102
RTVSPost2010Prop39
140
1.0
102
RTVSPost2010PropOp39
 70
     1
102
RTVSPost2010Prop40
 90
        0
102
RTVSPost2010PropOp40
 70
     1
102
RTVSPost2010Prop41ColorIndex
 90
       18
102
RTVSPost2010Prop41ColorRGB
 90
        0
102
RTVSPost2010PropOp41
 70
     1
102
RTVSPost2010Prop42
 90
       50
102
RTVSPost2010PropOp42
 70
     1
102
RTVSPost2010Prop43
 90
        3
102
RTVSPost2010PropOp43
 70
     1
102
RTVSPost2010Prop44ColorIndex
 90
        5
102
RTVSPost2010Prop44ColorRGB
 90
      255
102
RTVSPost2010PropOp44
 70
     1
102
RTVSPost2010Prop45
280
     0
102
RTVSPost2010PropOp45
 70
     1
102
RTVSPost2010Prop46
 90
       50
102
RTVSPost2010PropOp46
 70
     1
102
RTVSPost2010Prop47
 90
       50
102
RTVSPost2010PropOp47
 70
     1
102
RTVSPost2010Prop48
 90
       50
102
RTVSPost2010PropOp48
 70
     1
102
RTVSPost2010Prop49
280
     0
102
RTVSPost2010PropOp49
 70
     1
102
RTVSPost2010Prop50
 90
       50
102
RTVSPost2010PropOp50
 70
     1
102
RTVSPost2010Prop51ColorIndex
 90
      256
102
RTVSPost2010Prop51ColorRGB
 90
-16777216
102
RTVSPost2010PropOp51
 70
     0
102
RTVSPost2010Prop52
140
1.0
102
RTVSPost2010PropOp52
 70
     0
102
RTVSPost2010Prop53
 90
        2
102
RTVSPost2010PropOp53
 70
     1
102
RTVSPost2010Prop54
  1
strokes_ogs.tif
102
RTVSPost2010PropOp54
 70
     1
102
RTVSPost2010Prop55
280
     0
102
RTVSPost2010PropOp55
 70
     1
102
RTVSPost2010Prop56
140
1.0
102
RTVSPost2010PropOp56
 70
     1
102
RTVSPost2010Prop57
140
1.0
102
RTVSPost2010PropOp57
 70
     1
102
RTVSPropertyOp0
 70
     1
102
RTVSPropertyOp1
 70
     1
102
RTVSPropertyOp2
 70
     1
102
RTVSPropertyOp3
 70
     1
102
RTVSPropertyOp4
 70
     1
102
RTVSPropertyOp5
 70
     1
102
RTVSPropertyOp6
 70
     1
102
RTVSPropertyOp7
 70
     1
102
RTVSPropertyOp8
 70
     1
102
RTVSPropertyOp9
 70
     1
102
RTVSPropertyOp10
 70
     1
102
RTVSPropertyOp11
 70
     1
102
RTVSPropertyOp12
 70
     1
102
RTVSPropertyOp13
 70
     1
102
RTVSPropertyOp14
 70
     1
102
RTVSPropertyOp15
 70
     1
102
RTVSPropertyOp16
 70
     1
102
RTVSPropertyOp17
 70
     1
102
RTVSPropertyOp18
 70
     1
102
RTVSPropertyOp19
 70
     1
102
RTVSPropertyOp20
 70
     1
102
RTVSPropertyOp21
 70
     1
102
RTVSPropertyOp22
 70
     1
102
RTVSPropertyOp23
 70
     1
102
RTVSPropertyOp24
 70
     1
102
RTVSPropertyOp25
 70
     1
102
RTVSPropertyOp26
 70
     1
102
RTVSPropertyOp27
 70
     1
102
RTVSPropertyOp28
 70
     1
102
RTVSPropertyOp29
 70
     1
102
RTVSPropertyOp30
 70
     1
102
RTVSPropertyOp31
 70
     1
102
RTVSPropertyOp32
 70
     1
102
RTVSPropertyOp33
 70
     1
102
RTVSPropertyOp34
 70
     1
102
RTVSPropertyOp35
 70
     1
102
RTVSPropertyOp36
 70
     1
102
RTVSPropertyOp37
 70
     1
102
RTVSPropertyOp38
 70
     1
102
RTVSPropertyOp39
 70
     1
102
RTVSPropertyOp40
 70
     1
102
RTVSPropertyOp41
 70
     1
102
RTVSPropertyOp42
 70
     1
102
RTVSPropertyOp43
 70
     1
102
RTVSPropertyOp44
 70
     1
102
RTVSPropertyOp45
 70
     1
102
RTVSPropertyOp46
 70
     1
102
RTVSPropertyOp47
 70
     1
102
RTVSPropertyOp48
 70
     1
102
RTVSPropertyOp49
 70
     1
102
RTVSPropertyOp50
 70
     1
102
RTVSPropertyOp51
 70
     0
102
RTVSPropertyOp52
 70
     0
102
RTVSPropertyOp53
 70
     1
102
RTVSPropertyOp54
 70
     1
102
RTVSPropertyOp55
 70
     1
102
RTVSPropertyOp56
 70
     1
102
RTVSPropertyOp57
 70
     1
102
RTVSPropertyOp58
 70
     1
102
RTVSPropertyOp59
 70
     1
102
RTVSPropertyOp60
 70
     1
102
RTVSPropertyOp61
 70
     1
102
RTVSPropertyOp62
 70
     1
  0
XRECORD
  5
344E
102
{ACAD_REACTORS
330
344D
102
}
330
344D
100
AcDbXrecord
280
     1
102
RTVSPost2010Prop28
280
     0
102
RTVSPost2010PropOp28
 70
     1
102
RTVSPost2010Prop29
280
     1
102
RTVSPost2010PropOp29
 70
     1
102
RTVSPost2010Prop30
280
     1
102
RTVSPost2010PropOp30
 70
     1
102
RTVSPost2010Prop31
280
     0
102
RTVSPost2010PropOp31
 70
     1
102
RTVSPost2010Prop32
280
     0
102
RTVSPost2010PropOp32
 70
     1
102
RTVSPost2010Prop33
280
     0
102
RTVSPost2010PropOp33
 70
     1
102
RTVSPost2010Prop34
280
     0
102
RTVSPost2010PropOp34
 70
     1
102
RTVSPost2010Prop35
280
     0
102
RTVSPost2010PropOp35
 70
     1
102
RTVSPost2010Prop36
280
     0
102
RTVSPost2010PropOp36
 70
     1
102
RTVSPost2010Prop37
 90
       50
102
RTVSPost2010PropOp37
 70
     1
102
RTVSPost2010Prop38
140
0.0
102
RTVSPost2010PropOp38
 70
     1
102
RTVSPost2010Prop39
140
1.0
102
RTVSPost2010PropOp39
 70
     1
102
RTVSPost2010Prop40
 90
        0
102
RTVSPost2010PropOp40
 70
     1
102
RTVSPost2010Prop41ColorIndex
 90
       18
102
RTVSPost2010Prop41ColorRGB
 90
        0
102
RTVSPost2010PropOp41
 70
     1
102
RTVSPost2010Prop42
 90
       50
102
RTVSPost2010PropOp42
 70
     1
102
RTVSPost2010Prop43
 90
        3
102
RTVSPost2010PropOp43
 70
     1
102
RTVSPost2010Prop44ColorIndex
 90
        5
102
RTVSPost2010Prop44ColorRGB
 90
      255
102
RTVSPost2010PropOp44
 70
     1
102
RTVSPost2010Prop45
280
     0
102
RTVSPost2010PropOp45
 70
     1
102
RTVSPost2010Prop46
 90
       50
102
RTVSPost2010PropOp46
 70
     1
102
RTVSPost2010Prop47
 90
       50
102
RTVSPost2010PropOp47
 70
     1
102
RTVSPost2010Prop48
 90
       50
102
RTVSPost2010PropOp48
 70
     1
102
RTVSPost2010Prop49
280
     0
102
RTVSPost2010PropOp49
 70
     1
102
RTVSPost2010Prop50
 90
       50
102
RTVSPost2010PropOp50
 70
     1
102
RTVSPost2010Prop51ColorIndex
 90
      256
102
RTVSPost2010Prop51ColorRGB
 90
-16777216
102
RTVSPost2010PropOp51
 70
     0
102
RTVSPost2010Prop52
140
1.0
102
RTVSPost2010PropOp52
 70
     0
102
RTVSPost2010Prop53
 90
        2
102
RTVSPost2010PropOp53
 70
     1
102
RTVSPost2010Prop54
  1
strokes_ogs.tif
102
RTVSPost2010PropOp54
 70
     1
102
RTVSPost2010Prop55
280
     0
102
RTVSPost2010PropOp55
 70
     1
102
RTVSPost2010Prop56
140
1.0
102
RTVSPost2010PropOp56
 70
     1
102
RTVSPost2010Prop57
140
1.0
102
RTVSPost2010PropOp57
 70
     1
102
RTVSPropertyOp0
 70
     1
102
RTVSPropertyOp1
 70
     1
102
RTVSPropertyOp2
 70
     1
102
RTVSPropertyOp3
 70
     1
102
RTVSPropertyOp4
 70
     1
102
RTVSPropertyOp5
 70
     1
102
RTVSPropertyOp6
 70
     1
102
RTVSPropertyOp7
 70
     1
102
RTVSPropertyOp8
 70
     1
102
RTVSPropertyOp9
 70
     1
102
RTVSPropertyOp10
 70
     1
102
RTVSPropertyOp11
 70
     1
102
RTVSPropertyOp12
 70
     1
102
RTVSPropertyOp13
 70
     1
102
RTVSPropertyOp14
 70
     1
102
RTVSPropertyOp15
 70
     1
102
RTVSPropertyOp16
 70
     1
102
RTVSPropertyOp17
 70
     1
102
RTVSPropertyOp18
 70
     1
102
RTVSPropertyOp19
 70
     1
102
RTVSPropertyOp20
 70
     1
102
RTVSPropertyOp21
 70
     1
102
RTVSPropertyOp22
 70
     1
102
RTVSPropertyOp23
 70
     1
102
RTVSPropertyOp24
 70
     1
102
RTVSPropertyOp25
 70
     1
102
RTVSPropertyOp26
 70
     1
102
RTVSPropertyOp27
 70
     1
102
RTVSPropertyOp28
 70
     1
102
RTVSPropertyOp29
 70
     1
102
RTVSPropertyOp30
 70
     1
102
RTVSPropertyOp31
 70
     1
102
RTVSPropertyOp32
 70
     1
102
RTVSPropertyOp33
 70
     1
102
RTVSPropertyOp34
 70
     1
102
RTVSPropertyOp35
 70
     1
102
RTVSPropertyOp36
 70
     1
102
RTVSPropertyOp37
 70
     1
102
RTVSPropertyOp38
 70
     1
102
RTVSPropertyOp39
 70
     1
102
RTVSPropertyOp40
 70
     1
102
RTVSPropertyOp41
 70
     1
102
RTVSPropertyOp42
 70
     1
102
RTVSPropertyOp43
 70
     1
102
RTVSPropertyOp44
 70
     1
102
RTVSPropertyOp45
 70
     1
102
RTVSPropertyOp46
 70
     1
102
RTVSPropertyOp47
 70
     1
102
RTVSPropertyOp48
 70
     1
102
RTVSPropertyOp49
 70
     1
102
RTVSPropertyOp50
 70
     1
102
RTVSPropertyOp51
 70
     0
102
RTVSPropertyOp52
 70
     0
102
RTVSPropertyOp53
 70
     1
102
RTVSPropertyOp54
 70
     1
102
RTVSPropertyOp55
 70
     1
102
RTVSPropertyOp56
 70
     1
102
RTVSPropertyOp57
 70
     1
102
RTVSPropertyOp58
 70
     1
102
RTVSPropertyOp59
 70
     1
102
RTVSPropertyOp60
 70
     1
102
RTVSPropertyOp61
 70
     1
102
RTVSPropertyOp62
 70
     1
  0
XRECORD
  5
3450
102
{ACAD_REACTORS
330
344F
102
}
330
344F
100
AcDbXrecord
280
     1
102
RTVSPost2010Prop28
280
     0
102
RTVSPost2010PropOp28
 70
     1
102
RTVSPost2010Prop29
280
     1
102
RTVSPost2010PropOp29
 70
     1
102
RTVSPost2010Prop30
280
     1
102
RTVSPost2010PropOp30
 70
     1
102
RTVSPost2010Prop31
280
     0
102
RTVSPost2010PropOp31
 70
     1
102
RTVSPost2010Prop32
280
     0
102
RTVSPost2010PropOp32
 70
     1
102
RTVSPost2010Prop33
280
     0
102
RTVSPost2010PropOp33
 70
     1
102
RTVSPost2010Prop34
280
     0
102
RTVSPost2010PropOp34
 70
     1
102
RTVSPost2010Prop35
280
     0
102
RTVSPost2010PropOp35
 70
     1
102
RTVSPost2010Prop36
280
     0
102
RTVSPost2010PropOp36
 70
     1
102
RTVSPost2010Prop37
 90
       50
102
RTVSPost2010PropOp37
 70
     1
102
RTVSPost2010Prop38
140
0.0
102
RTVSPost2010PropOp38
 70
     1
102
RTVSPost2010Prop39
140
1.0
102
RTVSPost2010PropOp39
 70
     1
102
RTVSPost2010Prop40
 90
        0
102
RTVSPost2010PropOp40
 70
     1
102
RTVSPost2010Prop41ColorIndex
 90
       18
102
RTVSPost2010Prop41ColorRGB
 90
        0
102
RTVSPost2010PropOp41
 70
     1
102
RTVSPost2010Prop42
 90
       50
102
RTVSPost2010PropOp42
 70
     1
102
RTVSPost2010Prop43
 90
        3
102
RTVSPost2010PropOp43
 70
     1
102
RTVSPost2010Prop44ColorIndex
 90
        5
102
RTVSPost2010Prop44ColorRGB
 90
      255
102
RTVSPost2010PropOp44
 70
     1
102
RTVSPost2010Prop45
280
     0
102
RTVSPost2010PropOp45
 70
     1
102
RTVSPost2010Prop46
 90
       50
102
RTVSPost2010PropOp46
 70
     1
102
RTVSPost2010Prop47
 90
       50
102
RTVSPost2010PropOp47
 70
     1
102
RTVSPost2010Prop48
 90
       50
102
RTVSPost2010PropOp48
 70
     1
102
RTVSPost2010Prop49
280
     0
102
RTVSPost2010PropOp49
 70
     1
102
RTVSPost2010Prop50
 90
       50
102
RTVSPost2010PropOp50
 70
     1
102
RTVSPost2010Prop51ColorIndex
 90
      256
102
RTVSPost2010Prop51ColorRGB
 90
-16777216
102
RTVSPost2010PropOp51
 70
     0
102
RTVSPost2010Prop52
140
1.0
102
RTVSPost2010PropOp52
 70
     0
102
RTVSPost2010Prop53
 90
        2
102
RTVSPost2010PropOp53
 70
     1
102
RTVSPost2010Prop54
  1
strokes_ogs.tif
102
RTVSPost2010PropOp54
 70
     1
102
RTVSPost2010Prop55
280
     0
102
RTVSPost2010PropOp55
 70
     1
102
RTVSPost2010Prop56
140
1.0
102
RTVSPost2010PropOp56
 70
     1
102
RTVSPost2010Prop57
140
1.0
102
RTVSPost2010PropOp57
 70
     1
102
RTVSPropertyOp0
 70
     1
102
RTVSPropertyOp1
 70
     1
102
RTVSPropertyOp2
 70
     1
102
RTVSPropertyOp3
 70
     1
102
RTVSPropertyOp4
 70
     1
102
RTVSPropertyOp5
 70
     1
102
RTVSPropertyOp6
 70
     1
102
RTVSPropertyOp7
 70
     1
102
RTVSPropertyOp8
 70
     1
102
RTVSPropertyOp9
 70
     1
102
RTVSPropertyOp10
 70
     1
102
RTVSPropertyOp11
 70
     1
102
RTVSPropertyOp12
 70
     1
102
RTVSPropertyOp13
 70
     1
102
RTVSPropertyOp14
 70
     1
102
RTVSPropertyOp15
 70
     1
102
RTVSPropertyOp16
 70
     1
102
RTVSPropertyOp17
 70
     1
102
RTVSPropertyOp18
 70
     1
102
RTVSPropertyOp19
 70
     1
102
RTVSPropertyOp20
 70
     1
102
RTVSPropertyOp21
 70
     1
102
RTVSPropertyOp22
 70
     1
102
RTVSPropertyOp23
 70
     1
102
RTVSPropertyOp24
 70
     1
102
RTVSPropertyOp25
 70
     1
102
RTVSPropertyOp26
 70
     1
102
RTVSPropertyOp27
 70
     1
102
RTVSPropertyOp28
 70
     1
102
RTVSPropertyOp29
 70
     1
102
RTVSPropertyOp30
 70
     1
102
RTVSPropertyOp31
 70
     1
102
RTVSPropertyOp32
 70
     1
102
RTVSPropertyOp33
 70
     1
102
RTVSPropertyOp34
 70
     1
102
RTVSPropertyOp35
 70
     1
102
RTVSPropertyOp36
 70
     1
102
RTVSPropertyOp37
 70
     1
102
RTVSPropertyOp38
 70
     1
102
RTVSPropertyOp39
 70
     1
102
RTVSPropertyOp40
 70
     1
102
RTVSPropertyOp41
 70
     1
102
RTVSPropertyOp42
 70
     1
102
RTVSPropertyOp43
 70
     1
102
RTVSPropertyOp44
 70
     1
102
RTVSPropertyOp45
 70
     1
102
RTVSPropertyOp46
 70
     1
102
RTVSPropertyOp47
 70
     1
102
RTVSPropertyOp48
 70
     1
102
RTVSPropertyOp49
 70
     1
102
RTVSPropertyOp50
 70
     1
102
RTVSPropertyOp51
 70
     0
102
RTVSPropertyOp52
 70
     0
102
RTVSPropertyOp53
 70
     1
102
RTVSPropertyOp54
 70
     1
102
RTVSPropertyOp55
 70
     1
102
RTVSPropertyOp56
 70
     1
102
RTVSPropertyOp57
 70
     1
102
RTVSPropertyOp58
 70
     1
102
RTVSPropertyOp59
 70
     1
102
RTVSPropertyOp60
 70
     1
102
RTVSPropertyOp61
 70
     1
102
RTVSPropertyOp62
 70
     1
  0
XRECORD
  5
3452
102
{ACAD_REACTORS
330
3451
102
}
330
3451
100
AcDbXrecord
280
     1
102
RTVSPost2010Prop28
280
     0
102
RTVSPost2010PropOp28
 70
     1
102
RTVSPost2010Prop29
280
     1
102
RTVSPost2010PropOp29
 70
     1
102
RTVSPost2010Prop30
280
     1
102
RTVSPost2010PropOp30
 70
     1
102
RTVSPost2010Prop31
280
     0
102
RTVSPost2010PropOp31
 70
     1
102
RTVSPost2010Prop32
280
     0
102
RTVSPost2010PropOp32
 70
     1
102
RTVSPost2010Prop33
280
     0
102
RTVSPost2010PropOp33
 70
     1
102
RTVSPost2010Prop34
280
     0
102
RTVSPost2010PropOp34
 70
     1
102
RTVSPost2010Prop35
280
     0
102
RTVSPost2010PropOp35
 70
     1
102
RTVSPost2010Prop36
280
     0
102
RTVSPost2010PropOp36
 70
     1
102
RTVSPost2010Prop37
 90
       50
102
RTVSPost2010PropOp37
 70
     1
102
RTVSPost2010Prop38
140
0.0
102
RTVSPost2010PropOp38
 70
     1
102
RTVSPost2010Prop39
140
1.0
102
RTVSPost2010PropOp39
 70
     1
102
RTVSPost2010Prop40
 90
        0
102
RTVSPost2010PropOp40
 70
     1
102
RTVSPost2010Prop41ColorIndex
 90
       18
102
RTVSPost2010Prop41ColorRGB
 90
        0
102
RTVSPost2010PropOp41
 70
     1
102
RTVSPost2010Prop42
 90
       50
102
RTVSPost2010PropOp42
 70
     1
102
RTVSPost2010Prop43
 90
        3
102
RTVSPost2010PropOp43
 70
     1
102
RTVSPost2010Prop44ColorIndex
 90
        5
102
RTVSPost2010Prop44ColorRGB
 90
      255
102
RTVSPost2010PropOp44
 70
     1
102
RTVSPost2010Prop45
280
     0
102
RTVSPost2010PropOp45
 70
     1
102
RTVSPost2010Prop46
 90
       50
102
RTVSPost2010PropOp46
 70
     1
102
RTVSPost2010Prop47
 90
       50
102
RTVSPost2010PropOp47
 70
     1
102
RTVSPost2010Prop48
 90
       50
102
RTVSPost2010PropOp48
 70
     1
102
RTVSPost2010Prop49
280
     0
102
RTVSPost2010PropOp49
 70
     1
102
RTVSPost2010Prop50
 90
       50
102
RTVSPost2010PropOp50
 70
     1
102
RTVSPost2010Prop51ColorIndex
 90
      256
102
RTVSPost2010Prop51ColorRGB
 90
-16777216
102
RTVSPost2010PropOp51
 70
     0
102
RTVSPost2010Prop52
140
1.0
102
RTVSPost2010PropOp52
 70
     0
102
RTVSPost2010Prop53
 90
        2
102
RTVSPost2010PropOp53
 70
     1
102
RTVSPost2010Prop54
  1
strokes_ogs.tif
102
RTVSPost2010PropOp54
 70
     1
102
RTVSPost2010Prop55
280
     0
102
RTVSPost2010PropOp55
 70
     1
102
RTVSPost2010Prop56
140
1.0
102
RTVSPost2010PropOp56
 70
     1
102
RTVSPost2010Prop57
140
1.0
102
RTVSPost2010PropOp57
 70
     1
102
RTVSPropertyOp0
 70
     1
102
RTVSPropertyOp1
 70
     1
102
RTVSPropertyOp2
 70
     1
102
RTVSPropertyOp3
 70
     1
102
RTVSPropertyOp4
 70
     1
102
RTVSPropertyOp5
 70
     1
102
RTVSPropertyOp6
 70
     1
102
RTVSPropertyOp7
 70
     1
102
RTVSPropertyOp8
 70
     1
102
RTVSPropertyOp9
 70
     1
102
RTVSPropertyOp10
 70
     1
102
RTVSPropertyOp11
 70
     1
102
RTVSPropertyOp12
 70
     1
102
RTVSPropertyOp13
 70
     1
102
RTVSPropertyOp14
 70
     1
102
RTVSPropertyOp15
 70
     1
102
RTVSPropertyOp16
 70
     1
102
RTVSPropertyOp17
 70
     1
102
RTVSPropertyOp18
 70
     1
102
RTVSPropertyOp19
 70
     1
102
RTVSPropertyOp20
 70
     1
102
RTVSPropertyOp21
 70
     1
102
RTVSPropertyOp22
 70
     1
102
RTVSPropertyOp23
 70
     1
102
RTVSPropertyOp24
 70
     1
102
RTVSPropertyOp25
 70
     1
102
RTVSPropertyOp26
 70
     1
102
RTVSPropertyOp27
 70
     1
102
RTVSPropertyOp28
 70
     1
102
RTVSPropertyOp29
 70
     1
102
RTVSPropertyOp30
 70
     1
102
RTVSPropertyOp31
 70
     1
102
RTVSPropertyOp32
 70
     1
102
RTVSPropertyOp33
 70
     1
102
RTVSPropertyOp34
 70
     1
102
RTVSPropertyOp35
 70
     1
102
RTVSPropertyOp36
 70
     1
102
RTVSPropertyOp37
 70
     1
102
RTVSPropertyOp38
 70
     1
102
RTVSPropertyOp39
 70
     1
102
RTVSPropertyOp40
 70
     1
102
RTVSPropertyOp41
 70
     1
102
RTVSPropertyOp42
 70
     1
102
RTVSPropertyOp43
 70
     1
102
RTVSPropertyOp44
 70
     1
102
RTVSPropertyOp45
 70
     1
102
RTVSPropertyOp46
 70
     1
102
RTVSPropertyOp47
 70
     1
102
RTVSPropertyOp48
 70
     1
102
RTVSPropertyOp49
 70
     1
102
RTVSPropertyOp50
 70
     1
102
RTVSPropertyOp51
 70
     0
102
RTVSPropertyOp52
 70
     0
102
RTVSPropertyOp53
 70
     1
102
RTVSPropertyOp54
 70
     1
102
RTVSPropertyOp55
 70
     1
102
RTVSPropertyOp56
 70
     1
102
RTVSPropertyOp57
 70
     1
102
RTVSPropertyOp58
 70
     1
102
RTVSPropertyOp59
 70
     1
102
RTVSPropertyOp60
 70
     1
102
RTVSPropertyOp61
 70
     1
102
RTVSPropertyOp62
 70
     1
  0
XRECORD
  5
3495
102
{ACAD_REACTORS
330
3494
102
}
330
3494
100
AcDbXrecord
280
     1
102
RTVSPost2010Prop28
280
     0
102
RTVSPost2010PropOp28
 70
     1
102
RTVSPost2010Prop29
280
     1
102
RTVSPost2010PropOp29
 70
     1
102
RTVSPost2010Prop30
280
     1
102
RTVSPost2010PropOp30
 70
     1
102
RTVSPost2010Prop31
280
     0
102
RTVSPost2010PropOp31
 70
     1
102
RTVSPost2010Prop32
280
     0
102
RTVSPost2010PropOp32
 70
     1
102
RTVSPost2010Prop33
280
     0
102
RTVSPost2010PropOp33
 70
     1
102
RTVSPost2010Prop34
280
     0
102
RTVSPost2010PropOp34
 70
     1
102
RTVSPost2010Prop35
280
     0
102
RTVSPost2010PropOp35
 70
     1
102
RTVSPost2010Prop36
280
     0
102
RTVSPost2010PropOp36
 70
     1
102
RTVSPost2010Prop37
 90
       50
102
RTVSPost2010PropOp37
 70
     1
102
RTVSPost2010Prop38
140
0.0
102
RTVSPost2010PropOp38
 70
     1
102
RTVSPost2010Prop39
140
1.0
102
RTVSPost2010PropOp39
 70
     1
102
RTVSPost2010Prop40
 90
        0
102
RTVSPost2010PropOp40
 70
     1
102
RTVSPost2010Prop41ColorIndex
 90
       18
102
RTVSPost2010Prop41ColorRGB
 90
        0
102
RTVSPost2010PropOp41
 70
     1
102
RTVSPost2010Prop42
 90
       50
102
RTVSPost2010PropOp42
 70
     1
102
RTVSPost2010Prop43
 90
        3
102
RTVSPost2010PropOp43
 70
     1
102
RTVSPost2010Prop44ColorIndex
 90
        5
102
RTVSPost2010Prop44ColorRGB
 90
      255
102
RTVSPost2010PropOp44
 70
     1
102
RTVSPost2010Prop45
280
     0
102
RTVSPost2010PropOp45
 70
     1
102
RTVSPost2010Prop46
 90
       50
102
RTVSPost2010PropOp46
 70
     1
102
RTVSPost2010Prop47
 90
       50
102
RTVSPost2010PropOp47
 70
     1
102
RTVSPost2010Prop48
 90
       50
102
RTVSPost2010PropOp48
 70
     1
102
RTVSPost2010Prop49
280
     0
102
RTVSPost2010PropOp49
 70
     1
102
RTVSPost2010Prop50
 90
       50
102
RTVSPost2010PropOp50
 70
     1
102
RTVSPost2010Prop51ColorIndex
 90
      256
102
RTVSPost2010Prop51ColorRGB
 90
-16777216
102
RTVSPost2010PropOp51
 70
     0
102
RTVSPost2010Prop52
140
1.0
102
RTVSPost2010PropOp52
 70
     0
102
RTVSPost2010Prop53
 90
        2
102
RTVSPost2010PropOp53
 70
     1
102
RTVSPost2010Prop54
  1
strokes_ogs.tif
102
RTVSPost2010PropOp54
 70
     1
102
RTVSPost2010Prop55
280
     0
102
RTVSPost2010PropOp55
 70
     1
102
RTVSPost2010Prop56
140
1.0
102
RTVSPost2010PropOp56
 70
     1
102
RTVSPost2010Prop57
140
1.0
102
RTVSPost2010PropOp57
 70
     1
102
RTVSPropertyOp0
 70
     1
102
RTVSPropertyOp1
 70
     1
102
RTVSPropertyOp2
 70
     1
102
RTVSPropertyOp3
 70
     1
102
RTVSPropertyOp4
 70
     1
102
RTVSPropertyOp5
 70
     1
102
RTVSPropertyOp6
 70
     1
102
RTVSPropertyOp7
 70
     1
102
RTVSPropertyOp8
 70
     1
102
RTVSPropertyOp9
 70
     1
102
RTVSPropertyOp10
 70
     1
102
RTVSPropertyOp11
 70
     1
102
RTVSPropertyOp12
 70
     1
102
RTVSPropertyOp13
 70
     1
102
RTVSPropertyOp14
 70
     1
102
RTVSPropertyOp15
 70
     1
102
RTVSPropertyOp16
 70
     1
102
RTVSPropertyOp17
 70
     1
102
RTVSPropertyOp18
 70
     1
102
RTVSPropertyOp19
 70
     1
102
RTVSPropertyOp20
 70
     1
102
RTVSPropertyOp21
 70
     1
102
RTVSPropertyOp22
 70
     1
102
RTVSPropertyOp23
 70
     1
102
RTVSPropertyOp24
 70
     1
102
RTVSPropertyOp25
 70
     1
102
RTVSPropertyOp26
 70
     1
102
RTVSPropertyOp27
 70
     1
102
RTVSPropertyOp28
 70
     1
102
RTVSPropertyOp29
 70
     1
102
RTVSPropertyOp30
 70
     1
102
RTVSPropertyOp31
 70
     1
102
RTVSPropertyOp32
 70
     1
102
RTVSPropertyOp33
 70
     1
102
RTVSPropertyOp34
 70
     1
102
RTVSPropertyOp35
 70
     1
102
RTVSPropertyOp36
 70
     1
102
RTVSPropertyOp37
 70
     1
102
RTVSPropertyOp38
 70
     1
102
RTVSPropertyOp39
 70
     1
102
RTVSPropertyOp40
 70
     1
102
RTVSPropertyOp41
 70
     1
102
RTVSPropertyOp42
 70
     1
102
RTVSPropertyOp43
 70
     1
102
RTVSPropertyOp44
 70
     1
102
RTVSPropertyOp45
 70
     1
102
RTVSPropertyOp46
 70
     1
102
RTVSPropertyOp47
 70
     1
102
RTVSPropertyOp48
 70
     1
102
RTVSPropertyOp49
 70
     1
102
RTVSPropertyOp50
 70
     1
102
RTVSPropertyOp51
 70
     0
102
RTVSPropertyOp52
 70
     0
102
RTVSPropertyOp53
 70
     1
102
RTVSPropertyOp54
 70
     1
102
RTVSPropertyOp55
 70
     1
102
RTVSPropertyOp56
 70
     1
102
RTVSPropertyOp57
 70
     1
102
RTVSPropertyOp58
 70
     1
102
RTVSPropertyOp59
 70
     1
102
RTVSPropertyOp60
 70
     1
102
RTVSPropertyOp61
 70
     1
102
RTVSPropertyOp62
 70
     1
  0
XRECORD
  5
346C
102
{ACAD_REACTORS
330
346B
102
}
330
346B
100
AcDbXrecord
280
     1
102
RTVSPost2010Prop28
280
     0
102
RTVSPost2010PropOp28
 70
     1
102
RTVSPost2010Prop29
280
     1
102
RTVSPost2010PropOp29
 70
     1
102
RTVSPost2010Prop30
280
     1
102
RTVSPost2010PropOp30
 70
     1
102
RTVSPost2010Prop31
280
     0
102
RTVSPost2010PropOp31
 70
     1
102
RTVSPost2010Prop32
280
     0
102
RTVSPost2010PropOp32
 70
     1
102
RTVSPost2010Prop33
280
     0
102
RTVSPost2010PropOp33
 70
     1
102
RTVSPost2010Prop34
280
     0
102
RTVSPost2010PropOp34
 70
     1
102
RTVSPost2010Prop35
280
     0
102
RTVSPost2010PropOp35
 70
     1
102
RTVSPost2010Prop36
280
     0
102
RTVSPost2010PropOp36
 70
     1
102
RTVSPost2010Prop37
 90
       50
102
RTVSPost2010PropOp37
 70
     1
102
RTVSPost2010Prop38
140
0.0
102
RTVSPost2010PropOp38
 70
     1
102
RTVSPost2010Prop39
140
1.0
102
RTVSPost2010PropOp39
 70
     1
102
RTVSPost2010Prop40
 90
        0
102
RTVSPost2010PropOp40
 70
     1
102
RTVSPost2010Prop41ColorIndex
 90
       18
102
RTVSPost2010Prop41ColorRGB
 90
        0
102
RTVSPost2010PropOp41
 70
     1
102
RTVSPost2010Prop42
 90
       50
102
RTVSPost2010PropOp42
 70
     1
102
RTVSPost2010Prop43
 90
        3
102
RTVSPost2010PropOp43
 70
     1
102
RTVSPost2010Prop44ColorIndex
 90
        5
102
RTVSPost2010Prop44ColorRGB
 90
      255
102
RTVSPost2010PropOp44
 70
     1
102
RTVSPost2010Prop45
280
     0
102
RTVSPost2010PropOp45
 70
     1
102
RTVSPost2010Prop46
 90
       50
102
RTVSPost2010PropOp46
 70
     1
102
RTVSPost2010Prop47
 90
       50
102
RTVSPost2010PropOp47
 70
     1
102
RTVSPost2010Prop48
 90
       50
102
RTVSPost2010PropOp48
 70
     1
102
RTVSPost2010Prop49
280
     0
102
RTVSPost2010PropOp49
 70
     1
102
RTVSPost2010Prop50
 90
       50
102
RTVSPost2010PropOp50
 70
     1
102
RTVSPost2010Prop51ColorIndex
 90
      256
102
RTVSPost2010Prop51ColorRGB
 90
-16777216
102
RTVSPost2010PropOp51
 70
     0
102
RTVSPost2010Prop52
140
1.0
102
RTVSPost2010PropOp52
 70
     0
102
RTVSPost2010Prop53
 90
        2
102
RTVSPost2010PropOp53
 70
     1
102
RTVSPost2010Prop54
  1
strokes_ogs.tif
102
RTVSPost2010PropOp54
 70
     1
102
RTVSPost2010Prop55
280
     0
102
RTVSPost2010PropOp55
 70
     1
102
RTVSPost2010Prop56
140
1.0
102
RTVSPost2010PropOp56
 70
     1
102
RTVSPost2010Prop57
140
1.0
102
RTVSPost2010PropOp57
 70
     1
102
RTVSPropertyOp0
 70
     0
102
RTVSPropertyOp1
 70
     0
102
RTVSPropertyOp2
 70
     0
102
RTVSPropertyOp3
 70
     0
102
RTVSPropertyOp4
 70
     0
102
RTVSPropertyOp5
 70
     0
102
RTVSPropertyOp6
 70
     0
102
RTVSPropertyOp7
 70
     0
102
RTVSPropertyOp8
 70
     0
102
RTVSPropertyOp9
 70
     0
102
RTVSPropertyOp10
 70
     0
102
RTVSPropertyOp11
 70
     0
102
RTVSPropertyOp12
 70
     0
102
RTVSPropertyOp13
 70
     0
102
RTVSPropertyOp14
 70
     2
102
RTVSPropertyOp15
 70
     0
102
RTVSPropertyOp16
 70
     0
102
RTVSPropertyOp17
 70
     0
102
RTVSPropertyOp18
 70
     0
102
RTVSPropertyOp19
 70
     0
102
RTVSPropertyOp20
 70
     0
102
RTVSPropertyOp21
 70
     0
102
RTVSPropertyOp22
 70
     0
102
RTVSPropertyOp23
 70
     0
102
RTVSPropertyOp24
 70
     0
102
RTVSPropertyOp25
 70
     0
102
RTVSPropertyOp26
 70
     0
102
RTVSPropertyOp27
 70
     0
102
RTVSPropertyOp28
 70
     1
102
RTVSPropertyOp29
 70
     1
102
RTVSPropertyOp30
 70
     1
102
RTVSPropertyOp31
 70
     1
102
RTVSPropertyOp32
 70
     1
102
RTVSPropertyOp33
 70
     1
102
RTVSPropertyOp34
 70
     1
102
RTVSPropertyOp35
 70
     1
102
RTVSPropertyOp36
 70
     1
102
RTVSPropertyOp37
 70
     1
102
RTVSPropertyOp38
 70
     1
102
RTVSPropertyOp39
 70
     1
102
RTVSPropertyOp40
 70
     1
102
RTVSPropertyOp41
 70
     1
102
RTVSPropertyOp42
 70
     1
102
RTVSPropertyOp43
 70
     1
102
RTVSPropertyOp44
 70
     1
102
RTVSPropertyOp45
 70
     1
102
RTVSPropertyOp46
 70
     1
102
RTVSPropertyOp47
 70
     1
102
RTVSPropertyOp48
 70
     1
102
RTVSPropertyOp49
 70
     1
102
RTVSPropertyOp50
 70
     1
102
RTVSPropertyOp51
 70
     0
102
RTVSPropertyOp52
 70
     0
102
RTVSPropertyOp53
 70
     1
102
RTVSPropertyOp54
 70
     1
102
RTVSPropertyOp55
 70
     1
102
RTVSPropertyOp56
 70
     1
102
RTVSPropertyOp57
 70
     1
102
RTVSPropertyOp58
 70
     1
102
RTVSPropertyOp59
 70
     1
102
RTVSPropertyOp60
 70
     1
102
RTVSPropertyOp61
 70
     1
102
RTVSPropertyOp62
 70
     1
  0
XRECORD
  5
3466
102
{ACAD_REACTORS
330
3465
102
}
330
3465
100
AcDbXrecord
280
     1
102
RTVSPost2010Prop28
280
     0
102
RTVSPost2010PropOp28
 70
     1
102
RTVSPost2010Prop29
280
     1
102
RTVSPost2010PropOp29
 70
     1
102
RTVSPost2010Prop30
280
     1
102
RTVSPost2010PropOp30
 70
     1
102
RTVSPost2010Prop31
280
     0
102
RTVSPost2010PropOp31
 70
     1
102
RTVSPost2010Prop32
280
     0
102
RTVSPost2010PropOp32
 70
     1
102
RTVSPost2010Prop33
280
     0
102
RTVSPost2010PropOp33
 70
     1
102
RTVSPost2010Prop34
280
     0
102
RTVSPost2010PropOp34
 70
     1
102
RTVSPost2010Prop35
280
     0
102
RTVSPost2010PropOp35
 70
     1
102
RTVSPost2010Prop36
280
     0
102
RTVSPost2010PropOp36
 70
     1
102
RTVSPost2010Prop37
 90
       50
102
RTVSPost2010PropOp37
 70
     1
102
RTVSPost2010Prop38
140
0.0
102
RTVSPost2010PropOp38
 70
     1
102
RTVSPost2010Prop39
140
1.0
102
RTVSPost2010PropOp39
 70
     1
102
RTVSPost2010Prop40
 90
        0
102
RTVSPost2010PropOp40
 70
     1
102
RTVSPost2010Prop41ColorIndex
 90
       18
102
RTVSPost2010Prop41ColorRGB
 90
        0
102
RTVSPost2010PropOp41
 70
     1
102
RTVSPost2010Prop42
 90
       50
102
RTVSPost2010PropOp42
 70
     1
102
RTVSPost2010Prop43
 90
        3
102
RTVSPost2010PropOp43
 70
     1
102
RTVSPost2010Prop44ColorIndex
 90
        5
102
RTVSPost2010Prop44ColorRGB
 90
      255
102
RTVSPost2010PropOp44
 70
     1
102
RTVSPost2010Prop45
280
     0
102
RTVSPost2010PropOp45
 70
     1
102
RTVSPost2010Prop46
 90
       50
102
RTVSPost2010PropOp46
 70
     1
102
RTVSPost2010Prop47
 90
       50
102
RTVSPost2010PropOp47
 70
     1
102
RTVSPost2010Prop48
 90
       50
102
RTVSPost2010PropOp48
 70
     1
102
RTVSPost2010Prop49
280
     0
102
RTVSPost2010PropOp49
 70
     1
102
RTVSPost2010Prop50
 90
       50
102
RTVSPost2010PropOp50
 70
     1
102
RTVSPost2010Prop51ColorIndex
 90
      256
102
RTVSPost2010Prop51ColorRGB
 90
-16777216
102
RTVSPost2010PropOp51
 70
     0
102
RTVSPost2010Prop52
140
1.0
102
RTVSPost2010PropOp52
 70
     0
102
RTVSPost2010Prop53
 90
        2
102
RTVSPost2010PropOp53
 70
     1
102
RTVSPost2010Prop54
  1
strokes_ogs.tif
102
RTVSPost2010PropOp54
 70
     1
102
RTVSPost2010Prop55
280
     0
102
RTVSPost2010PropOp55
 70
     1
102
RTVSPost2010Prop56
140
1.0
102
RTVSPost2010PropOp56
 70
     1
102
RTVSPost2010Prop57
140
1.0
102
RTVSPost2010PropOp57
 70
     1
102
RTVSPropertyOp0
 70
     1
102
RTVSPropertyOp1
 70
     1
102
RTVSPropertyOp2
 70
     1
102
RTVSPropertyOp3
 70
     1
102
RTVSPropertyOp4
 70
     1
102
RTVSPropertyOp5
 70
     1
102
RTVSPropertyOp6
 70
     1
102
RTVSPropertyOp7
 70
     1
102
RTVSPropertyOp8
 70
     1
102
RTVSPropertyOp9
 70
     1
102
RTVSPropertyOp10
 70
     1
102
RTVSPropertyOp11
 70
     1
102
RTVSPropertyOp12
 70
     1
102
RTVSPropertyOp13
 70
     1
102
RTVSPropertyOp14
 70
     1
102
RTVSPropertyOp15
 70
     1
102
RTVSPropertyOp16
 70
     1
102
RTVSPropertyOp17
 70
     1
102
RTVSPropertyOp18
 70
     1
102
RTVSPropertyOp19
 70
     1
102
RTVSPropertyOp20
 70
     1
102
RTVSPropertyOp21
 70
     1
102
RTVSPropertyOp22
 70
     1
102
RTVSPropertyOp23
 70
     1
102
RTVSPropertyOp24
 70
     1
102
RTVSPropertyOp25
 70
     1
102
RTVSPropertyOp26
 70
     1
102
RTVSPropertyOp27
 70
     1
102
RTVSPropertyOp28
 70
     1
102
RTVSPropertyOp29
 70
     1
102
RTVSPropertyOp30
 70
     1
102
RTVSPropertyOp31
 70
     1
102
RTVSPropertyOp32
 70
     1
102
RTVSPropertyOp33
 70
     1
102
RTVSPropertyOp34
 70
     1
102
RTVSPropertyOp35
 70
     1
102
RTVSPropertyOp36
 70
     1
102
RTVSPropertyOp37
 70
     1
102
RTVSPropertyOp38
 70
     1
102
RTVSPropertyOp39
 70
     1
102
RTVSPropertyOp40
 70
     1
102
RTVSPropertyOp41
 70
     1
102
RTVSPropertyOp42
 70
     1
102
RTVSPropertyOp43
 70
     1
102
RTVSPropertyOp44
 70
     1
102
RTVSPropertyOp45
 70
     1
102
RTVSPropertyOp46
 70
     1
102
RTVSPropertyOp47
 70
     1
102
RTVSPropertyOp48
 70
     1
102
RTVSPropertyOp49
 70
     1
102
RTVSPropertyOp50
 70
     1
102
RTVSPropertyOp51
 70
     0
102
RTVSPropertyOp52
 70
     0
102
RTVSPropertyOp53
 70
     1
102
RTVSPropertyOp54
 70
     1
102
RTVSPropertyOp55
 70
     1
102
RTVSPropertyOp56
 70
     1
102
RTVSPropertyOp57
 70
     1
102
RTVSPropertyOp58
 70
     1
102
RTVSPropertyOp59
 70
     1
102
RTVSPropertyOp60
 70
     1
102
RTVSPropertyOp61
 70
     1
102
RTVSPropertyOp62
 70
     1
  0
XRECORD
  5
346E
102
{ACAD_REACTORS
330
346D
102
}
330
346D
100
AcDbXrecord
280
     1
102
RTVSPost2010Prop28
280
     0
102
RTVSPost2010PropOp28
 70
     1
102
RTVSPost2010Prop29
280
     1
102
RTVSPost2010PropOp29
 70
     1
102
RTVSPost2010Prop30
280
     1
102
RTVSPost2010PropOp30
 70
     1
102
RTVSPost2010Prop31
280
     0
102
RTVSPost2010PropOp31
 70
     1
102
RTVSPost2010Prop32
280
     0
102
RTVSPost2010PropOp32
 70
     1
102
RTVSPost2010Prop33
280
     0
102
RTVSPost2010PropOp33
 70
     1
102
RTVSPost2010Prop34
280
     0
102
RTVSPost2010PropOp34
 70
     1
102
RTVSPost2010Prop35
280
     0
102
RTVSPost2010PropOp35
 70
     1
102
RTVSPost2010Prop36
280
     0
102
RTVSPost2010PropOp36
 70
     1
102
RTVSPost2010Prop37
 90
       50
102
RTVSPost2010PropOp37
 70
     1
102
RTVSPost2010Prop38
140
0.0
102
RTVSPost2010PropOp38
 70
     1
102
RTVSPost2010Prop39
140
1.0
102
RTVSPost2010PropOp39
 70
     1
102
RTVSPost2010Prop40
 90
        0
102
RTVSPost2010PropOp40
 70
     1
102
RTVSPost2010Prop41ColorIndex
 90
       18
102
RTVSPost2010Prop41ColorRGB
 90
        0
102
RTVSPost2010PropOp41
 70
     1
102
RTVSPost2010Prop42
 90
       50
102
RTVSPost2010PropOp42
 70
     1
102
RTVSPost2010Prop43
 90
        3
102
RTVSPost2010PropOp43
 70
     1
102
RTVSPost2010Prop44ColorIndex
 90
        5
102
RTVSPost2010Prop44ColorRGB
 90
      255
102
RTVSPost2010PropOp44
 70
     1
102
RTVSPost2010Prop45
280
     0
102
RTVSPost2010PropOp45
 70
     1
102
RTVSPost2010Prop46
 90
       50
102
RTVSPost2010PropOp46
 70
     1
102
RTVSPost2010Prop47
 90
       50
102
RTVSPost2010PropOp47
 70
     1
102
RTVSPost2010Prop48
 90
       50
102
RTVSPost2010PropOp48
 70
     1
102
RTVSPost2010Prop49
280
     0
102
RTVSPost2010PropOp49
 70
     1
102
RTVSPost2010Prop50
 90
       50
102
RTVSPost2010PropOp50
 70
     1
102
RTVSPost2010Prop51ColorIndex
 90
      256
102
RTVSPost2010Prop51ColorRGB
 90
-16777216
102
RTVSPost2010PropOp51
 70
     0
102
RTVSPost2010Prop52
140
1.0
102
RTVSPost2010PropOp52
 70
     0
102
RTVSPost2010Prop53
 90
        2
102
RTVSPost2010PropOp53
 70
     1
102
RTVSPost2010Prop54
  1
strokes_ogs.tif
102
RTVSPost2010PropOp54
 70
     1
102
RTVSPost2010Prop55
280
     0
102
RTVSPost2010PropOp55
 70
     1
102
RTVSPost2010Prop56
140
1.0
102
RTVSPost2010PropOp56
 70
     1
102
RTVSPost2010Prop57
140
1.0
102
RTVSPost2010PropOp57
 70
     1
102
RTVSPropertyOp0
 70
     0
102
RTVSPropertyOp1
 70
     0
102
RTVSPropertyOp2
 70
     0
102
RTVSPropertyOp3
 70
     0
102
RTVSPropertyOp4
 70
     0
102
RTVSPropertyOp5
 70
     0
102
RTVSPropertyOp6
 70
     0
102
RTVSPropertyOp7
 70
     0
102
RTVSPropertyOp8
 70
     0
102
RTVSPropertyOp9
 70
     0
102
RTVSPropertyOp10
 70
     0
102
RTVSPropertyOp11
 70
     0
102
RTVSPropertyOp12
 70
     0
102
RTVSPropertyOp13
 70
     0
102
RTVSPropertyOp14
 70
     2
102
RTVSPropertyOp15
 70
     0
102
RTVSPropertyOp16
 70
     0
102
RTVSPropertyOp17
 70
     0
102
RTVSPropertyOp18
 70
     0
102
RTVSPropertyOp19
 70
     0
102
RTVSPropertyOp20
 70
     0
102
RTVSPropertyOp21
 70
     0
102
RTVSPropertyOp22
 70
     0
102
RTVSPropertyOp23
 70
     0
102
RTVSPropertyOp24
 70
     0
102
RTVSPropertyOp25
 70
     0
102
RTVSPropertyOp26
 70
     0
102
RTVSPropertyOp27
 70
     0
102
RTVSPropertyOp28
 70
     1
102
RTVSPropertyOp29
 70
     1
102
RTVSPropertyOp30
 70
     1
102
RTVSPropertyOp31
 70
     1
102
RTVSPropertyOp32
 70
     1
102
RTVSPropertyOp33
 70
     1
102
RTVSPropertyOp34
 70
     1
102
RTVSPropertyOp35
 70
     1
102
RTVSPropertyOp36
 70
     1
102
RTVSPropertyOp37
 70
     1
102
RTVSPropertyOp38
 70
     1
102
RTVSPropertyOp39
 70
     1
102
RTVSPropertyOp40
 70
     1
102
RTVSPropertyOp41
 70
     1
102
RTVSPropertyOp42
 70
     1
102
RTVSPropertyOp43
 70
     1
102
RTVSPropertyOp44
 70
     1
102
RTVSPropertyOp45
 70
     1
102
RTVSPropertyOp46
 70
     1
102
RTVSPropertyOp47
 70
     1
102
RTVSPropertyOp48
 70
     1
102
RTVSPropertyOp49
 70
     1
102
RTVSPropertyOp50
 70
     1
102
RTVSPropertyOp51
 70
     0
102
RTVSPropertyOp52
 70
     0
102
RTVSPropertyOp53
 70
     1
102
RTVSPropertyOp54
 70
     1
102
RTVSPropertyOp55
 70
     1
102
RTVSPropertyOp56
 70
     1
102
RTVSPropertyOp57
 70
     1
102
RTVSPropertyOp58
 70
     1
102
RTVSPropertyOp59
 70
     1
102
RTVSPropertyOp60
 70
     1
102
RTVSPropertyOp61
 70
     1
102
RTVSPropertyOp62
 70
     1
  0
XRECORD
  5
345E
102
{ACAD_REACTORS
330
345D
102
}
330
345D
100
AcDbXrecord
280
     1
102
RTVSPost2010Prop28
280
     0
102
RTVSPost2010PropOp28
 70
     1
102
RTVSPost2010Prop29
280
     1
102
RTVSPost2010PropOp29
 70
     1
102
RTVSPost2010Prop30
280
     1
102
RTVSPost2010PropOp30
 70
     1
102
RTVSPost2010Prop31
280
     0
102
RTVSPost2010PropOp31
 70
     1
102
RTVSPost2010Prop32
280
     0
102
RTVSPost2010PropOp32
 70
     1
102
RTVSPost2010Prop33
280
     0
102
RTVSPost2010PropOp33
 70
     1
102
RTVSPost2010Prop34
280
     0
102
RTVSPost2010PropOp34
 70
     1
102
RTVSPost2010Prop35
280
     0
102
RTVSPost2010PropOp35
 70
     1
102
RTVSPost2010Prop36
280
     0
102
RTVSPost2010PropOp36
 70
     1
102
RTVSPost2010Prop37
 90
       50
102
RTVSPost2010PropOp37
 70
     1
102
RTVSPost2010Prop38
140
0.0
102
RTVSPost2010PropOp38
 70
     1
102
RTVSPost2010Prop39
140
1.0
102
RTVSPost2010PropOp39
 70
     1
102
RTVSPost2010Prop40
 90
        0
102
RTVSPost2010PropOp40
 70
     1
102
RTVSPost2010Prop41ColorIndex
 90
       18
102
RTVSPost2010Prop41ColorRGB
 90
        0
102
RTVSPost2010PropOp41
 70
     1
102
RTVSPost2010Prop42
 90
       50
102
RTVSPost2010PropOp42
 70
     1
102
RTVSPost2010Prop43
 90
        3
102
RTVSPost2010PropOp43
 70
     1
102
RTVSPost2010Prop44ColorIndex
 90
        5
102
RTVSPost2010Prop44ColorRGB
 90
      255
102
RTVSPost2010PropOp44
 70
     1
102
RTVSPost2010Prop45
280
     0
102
RTVSPost2010PropOp45
 70
     1
102
RTVSPost2010Prop46
 90
       50
102
RTVSPost2010PropOp46
 70
     1
102
RTVSPost2010Prop47
 90
       50
102
RTVSPost2010PropOp47
 70
     1
102
RTVSPost2010Prop48
 90
       50
102
RTVSPost2010PropOp48
 70
     1
102
RTVSPost2010Prop49
280
     0
102
RTVSPost2010PropOp49
 70
     1
102
RTVSPost2010Prop50
 90
       50
102
RTVSPost2010PropOp50
 70
     1
102
RTVSPost2010Prop51ColorIndex
 90
      256
102
RTVSPost2010Prop51ColorRGB
 90
-16777216
102
RTVSPost2010PropOp51
 70
     0
102
RTVSPost2010Prop52
140
1.0
102
RTVSPost2010PropOp52
 70
     0
102
RTVSPost2010Prop53
 90
        2
102
RTVSPost2010PropOp53
 70
     1
102
RTVSPost2010Prop54
  1
strokes_ogs.tif
102
RTVSPost2010PropOp54
 70
     1
102
RTVSPost2010Prop55
280
     0
102
RTVSPost2010PropOp55
 70
     1
102
RTVSPost2010Prop56
140
1.0
102
RTVSPost2010PropOp56
 70
     1
102
RTVSPost2010Prop57
140
1.0
102
RTVSPost2010PropOp57
 70
     1
102
RTVSPropertyOp0
 70
     1
102
RTVSPropertyOp1
 70
     1
102
RTVSPropertyOp2
 70
     1
102
RTVSPropertyOp3
 70
     1
102
RTVSPropertyOp4
 70
     1
102
RTVSPropertyOp5
 70
     1
102
RTVSPropertyOp6
 70
     1
102
RTVSPropertyOp7
 70
     1
102
RTVSPropertyOp8
 70
     1
102
RTVSPropertyOp9
 70
     1
102
RTVSPropertyOp10
 70
     1
102
RTVSPropertyOp11
 70
     1
102
RTVSPropertyOp12
 70
     1
102
RTVSPropertyOp13
 70
     1
102
RTVSPropertyOp14
 70
     1
102
RTVSPropertyOp15
 70
     1
102
RTVSPropertyOp16
 70
     1
102
RTVSPropertyOp17
 70
     1
102
RTVSPropertyOp18
 70
     1
102
RTVSPropertyOp19
 70
     1
102
RTVSPropertyOp20
 70
     1
102
RTVSPropertyOp21
 70
     1
102
RTVSPropertyOp22
 70
     1
102
RTVSPropertyOp23
 70
     1
102
RTVSPropertyOp24
 70
     1
102
RTVSPropertyOp25
 70
     1
102
RTVSPropertyOp26
 70
     1
102
RTVSPropertyOp27
 70
     1
102
RTVSPropertyOp28
 70
     1
102
RTVSPropertyOp29
 70
     1
102
RTVSPropertyOp30
 70
     1
102
RTVSPropertyOp31
 70
     1
102
RTVSPropertyOp32
 70
     1
102
RTVSPropertyOp33
 70
     1
102
RTVSPropertyOp34
 70
     1
102
RTVSPropertyOp35
 70
     1
102
RTVSPropertyOp36
 70
     1
102
RTVSPropertyOp37
 70
     1
102
RTVSPropertyOp38
 70
     1
102
RTVSPropertyOp39
 70
     1
102
RTVSPropertyOp40
 70
     1
102
RTVSPropertyOp41
 70
     1
102
RTVSPropertyOp42
 70
     1
102
RTVSPropertyOp43
 70
     1
102
RTVSPropertyOp44
 70
     1
102
RTVSPropertyOp45
 70
     1
102
RTVSPropertyOp46
 70
     1
102
RTVSPropertyOp47
 70
     1
102
RTVSPropertyOp48
 70
     1
102
RTVSPropertyOp49
 70
     1
102
RTVSPropertyOp50
 70
     1
102
RTVSPropertyOp51
 70
     0
102
RTVSPropertyOp52
 70
     0
102
RTVSPropertyOp53
 70
     1
102
RTVSPropertyOp54
 70
     1
102
RTVSPropertyOp55
 70
     1
102
RTVSPropertyOp56
 70
     1
102
RTVSPropertyOp57
 70
     1
102
RTVSPropertyOp58
 70
     1
102
RTVSPropertyOp59
 70
     1
102
RTVSPropertyOp60
 70
     1
102
RTVSPropertyOp61
 70
     1
102
RTVSPropertyOp62
 70
     1
  0
XRECORD
  5
349F
102
{ACAD_REACTORS
330
349E
102
}
330
349E
100
AcDbXrecord
280
     1
102
RTVSPost2010Prop28
280
     0
102
RTVSPost2010PropOp28
 70
     1
102
RTVSPost2010Prop29
280
     1
102
RTVSPost2010PropOp29
 70
     1
102
RTVSPost2010Prop30
280
     1
102
RTVSPost2010PropOp30
 70
     1
102
RTVSPost2010Prop31
280
     0
102
RTVSPost2010PropOp31
 70
     1
102
RTVSPost2010Prop32
280
     0
102
RTVSPost2010PropOp32
 70
     1
102
RTVSPost2010Prop33
280
     0
102
RTVSPost2010PropOp33
 70
     1
102
RTVSPost2010Prop34
280
     0
102
RTVSPost2010PropOp34
 70
     1
102
RTVSPost2010Prop35
280
     0
102
RTVSPost2010PropOp35
 70
     1
102
RTVSPost2010Prop36
280
     0
102
RTVSPost2010PropOp36
 70
     1
102
RTVSPost2010Prop37
 90
       50
102
RTVSPost2010PropOp37
 70
     1
102
RTVSPost2010Prop38
140
0.0
102
RTVSPost2010PropOp38
 70
     1
102
RTVSPost2010Prop39
140
1.0
102
RTVSPost2010PropOp39
 70
     1
102
RTVSPost2010Prop40
 90
        0
102
RTVSPost2010PropOp40
 70
     1
102
RTVSPost2010Prop41ColorIndex
 90
       18
102
RTVSPost2010Prop41ColorRGB
 90
        0
102
RTVSPost2010PropOp41
 70
     1
102
RTVSPost2010Prop42
 90
       50
102
RTVSPost2010PropOp42
 70
     1
102
RTVSPost2010Prop43
 90
        3
102
RTVSPost2010PropOp43
 70
     1
102
RTVSPost2010Prop44ColorIndex
 90
        5
102
RTVSPost2010Prop44ColorRGB
 90
      255
102
RTVSPost2010PropOp44
 70
     1
102
RTVSPost2010Prop45
280
     0
102
RTVSPost2010PropOp45
 70
     1
102
RTVSPost2010Prop46
 90
       50
102
RTVSPost2010PropOp46
 70
     1
102
RTVSPost2010Prop47
 90
       50
102
RTVSPost2010PropOp47
 70
     1
102
RTVSPost2010Prop48
 90
       50
102
RTVSPost2010PropOp48
 70
     1
102
RTVSPost2010Prop49
280
     0
102
RTVSPost2010PropOp49
 70
     1
102
RTVSPost2010Prop50
 90
       50
102
RTVSPost2010PropOp50
 70
     1
102
RTVSPost2010Prop51ColorIndex
 90
      256
102
RTVSPost2010Prop51ColorRGB
 90
-16777216
102
RTVSPost2010PropOp51
 70
     0
102
RTVSPost2010Prop52
140
1.0
102
RTVSPost2010PropOp52
 70
     0
102
RTVSPost2010Prop53
 90
        2
102
RTVSPost2010PropOp53
 70
     1
102
RTVSPost2010Prop54
  1
strokes_ogs.tif
102
RTVSPost2010PropOp54
 70
     1
102
RTVSPost2010Prop55
280
     0
102
RTVSPost2010PropOp55
 70
     1
102
RTVSPost2010Prop56
140
1.0
102
RTVSPost2010PropOp56
 70
     1
102
RTVSPost2010Prop57
140
1.0
102
RTVSPost2010PropOp57
 70
     1
102
RTVSPropertyOp0
 70
     1
102
RTVSPropertyOp1
 70
     1
102
RTVSPropertyOp2
 70
     1
102
RTVSPropertyOp3
 70
     1
102
RTVSPropertyOp4
 70
     1
102
RTVSPropertyOp5
 70
     1
102
RTVSPropertyOp6
 70
     1
102
RTVSPropertyOp7
 70
     1
102
RTVSPropertyOp8
 70
     1
102
RTVSPropertyOp9
 70
     1
102
RTVSPropertyOp10
 70
     1
102
RTVSPropertyOp11
 70
     1
102
RTVSPropertyOp12
 70
     1
102
RTVSPropertyOp13
 70
     1
102
RTVSPropertyOp14
 70
     1
102
RTVSPropertyOp15
 70
     1
102
RTVSPropertyOp16
 70
     1
102
RTVSPropertyOp17
 70
     1
102
RTVSPropertyOp18
 70
     1
102
RTVSPropertyOp19
 70
     1
102
RTVSPropertyOp20
 70
     1
102
RTVSPropertyOp21
 70
     1
102
RTVSPropertyOp22
 70
     1
102
RTVSPropertyOp23
 70
     1
102
RTVSPropertyOp24
 70
     1
102
RTVSPropertyOp25
 70
     1
102
RTVSPropertyOp26
 70
     1
102
RTVSPropertyOp27
 70
     1
102
RTVSPropertyOp28
 70
     1
102
RTVSPropertyOp29
 70
     1
102
RTVSPropertyOp30
 70
     1
102
RTVSPropertyOp31
 70
     1
102
RTVSPropertyOp32
 70
     1
102
RTVSPropertyOp33
 70
     1
102
RTVSPropertyOp34
 70
     1
102
RTVSPropertyOp35
 70
     1
102
RTVSPropertyOp36
 70
     1
102
RTVSPropertyOp37
 70
     1
102
RTVSPropertyOp38
 70
     1
102
RTVSPropertyOp39
 70
     1
102
RTVSPropertyOp40
 70
     1
102
RTVSPropertyOp41
 70
     1
102
RTVSPropertyOp42
 70
     1
102
RTVSPropertyOp43
 70
     1
102
RTVSPropertyOp44
 70
     1
102
RTVSPropertyOp45
 70
     1
102
RTVSPropertyOp46
 70
     1
102
RTVSPropertyOp47
 70
     1
102
RTVSPropertyOp48
 70
     1
102
RTVSPropertyOp49
 70
     1
102
RTVSPropertyOp50
 70
     1
102
RTVSPropertyOp51
 70
     0
102
RTVSPropertyOp52
 70
     0
102
RTVSPropertyOp53
 70
     1
102
RTVSPropertyOp54
 70
     1
102
RTVSPropertyOp55
 70
     1
102
RTVSPropertyOp56
 70
     1
102
RTVSPropertyOp57
 70
     1
102
RTVSPropertyOp58
 70
     1
102
RTVSPropertyOp59
 70
     1
102
RTVSPropertyOp60
 70
     1
102
RTVSPropertyOp61
 70
     1
102
RTVSPropertyOp62
 70
     1
  0
XRECORD
  5
349D
102
{ACAD_REACTORS
330
349C
102
}
330
349C
100
AcDbXrecord
280
     1
102
RTVSPost2010Prop28
280
     0
102
RTVSPost2010PropOp28
 70
     1
102
RTVSPost2010Prop29
280
     1
102
RTVSPost2010PropOp29
 70
     1
102
RTVSPost2010Prop30
280
     1
102
RTVSPost2010PropOp30
 70
     1
102
RTVSPost2010Prop31
280
     0
102
RTVSPost2010PropOp31
 70
     1
102
RTVSPost2010Prop32
280
     0
102
RTVSPost2010PropOp32
 70
     1
102
RTVSPost2010Prop33
280
     0
102
RTVSPost2010PropOp33
 70
     1
102
RTVSPost2010Prop34
280
     0
102
RTVSPost2010PropOp34
 70
     1
102
RTVSPost2010Prop35
280
     0
102
RTVSPost2010PropOp35
 70
     1
102
RTVSPost2010Prop36
280
     0
102
RTVSPost2010PropOp36
 70
     1
102
RTVSPost2010Prop37
 90
       50
102
RTVSPost2010PropOp37
 70
     1
102
RTVSPost2010Prop38
140
0.0
102
RTVSPost2010PropOp38
 70
     1
102
RTVSPost2010Prop39
140
1.0
102
RTVSPost2010PropOp39
 70
     1
102
RTVSPost2010Prop40
 90
        0
102
RTVSPost2010PropOp40
 70
     1
102
RTVSPost2010Prop41ColorIndex
 90
       18
102
RTVSPost2010Prop41ColorRGB
 90
        0
102
RTVSPost2010PropOp41
 70
     1
102
RTVSPost2010Prop42
 90
       50
102
RTVSPost2010PropOp42
 70
     1
102
RTVSPost2010Prop43
 90
        3
102
RTVSPost2010PropOp43
 70
     1
102
RTVSPost2010Prop44ColorIndex
 90
        5
102
RTVSPost2010Prop44ColorRGB
 90
      255
102
RTVSPost2010PropOp44
 70
     1
102
RTVSPost2010Prop45
280
     0
102
RTVSPost2010PropOp45
 70
     1
102
RTVSPost2010Prop46
 90
       50
102
RTVSPost2010PropOp46
 70
     1
102
RTVSPost2010Prop47
 90
       50
102
RTVSPost2010PropOp47
 70
     1
102
RTVSPost2010Prop48
 90
       50
102
RTVSPost2010PropOp48
 70
     1
102
RTVSPost2010Prop49
280
     0
102
RTVSPost2010PropOp49
 70
     1
102
RTVSPost2010Prop50
 90
       50
102
RTVSPost2010PropOp50
 70
     1
102
RTVSPost2010Prop51ColorIndex
 90
      256
102
RTVSPost2010Prop51ColorRGB
 90
-16777216
102
RTVSPost2010PropOp51
 70
     0
102
RTVSPost2010Prop52
140
1.0
102
RTVSPost2010PropOp52
 70
     0
102
RTVSPost2010Prop53
 90
        2
102
RTVSPost2010PropOp53
 70
     1
102
RTVSPost2010Prop54
  1
strokes_ogs.tif
102
RTVSPost2010PropOp54
 70
     1
102
RTVSPost2010Prop55
280
     0
102
RTVSPost2010PropOp55
 70
     1
102
RTVSPost2010Prop56
140
1.0
102
RTVSPost2010PropOp56
 70
     1
102
RTVSPost2010Prop57
140
1.0
102
RTVSPost2010PropOp57
 70
     1
102
RTVSPropertyOp0
 70
     1
102
RTVSPropertyOp1
 70
     1
102
RTVSPropertyOp2
 70
     1
102
RTVSPropertyOp3
 70
     1
102
RTVSPropertyOp4
 70
     1
102
RTVSPropertyOp5
 70
     1
102
RTVSPropertyOp6
 70
     1
102
RTVSPropertyOp7
 70
     1
102
RTVSPropertyOp8
 70
     1
102
RTVSPropertyOp9
 70
     1
102
RTVSPropertyOp10
 70
     1
102
RTVSPropertyOp11
 70
     1
102
RTVSPropertyOp12
 70
     1
102
RTVSPropertyOp13
 70
     1
102
RTVSPropertyOp14
 70
     1
102
RTVSPropertyOp15
 70
     1
102
RTVSPropertyOp16
 70
     1
102
RTVSPropertyOp17
 70
     1
102
RTVSPropertyOp18
 70
     1
102
RTVSPropertyOp19
 70
     1
102
RTVSPropertyOp20
 70
     1
102
RTVSPropertyOp21
 70
     1
102
RTVSPropertyOp22
 70
     1
102
RTVSPropertyOp23
 70
     1
102
RTVSPropertyOp24
 70
     1
102
RTVSPropertyOp25
 70
     1
102
RTVSPropertyOp26
 70
     1
102
RTVSPropertyOp27
 70
     1
102
RTVSPropertyOp28
 70
     1
102
RTVSPropertyOp29
 70
     1
102
RTVSPropertyOp30
 70
     1
102
RTVSPropertyOp31
 70
     1
102
RTVSPropertyOp32
 70
     1
102
RTVSPropertyOp33
 70
     1
102
RTVSPropertyOp34
 70
     1
102
RTVSPropertyOp35
 70
     1
102
RTVSPropertyOp36
 70
     1
102
RTVSPropertyOp37
 70
     1
102
RTVSPropertyOp38
 70
     1
102
RTVSPropertyOp39
 70
     1
102
RTVSPropertyOp40
 70
     1
102
RTVSPropertyOp41
 70
     1
102
RTVSPropertyOp42
 70
     1
102
RTVSPropertyOp43
 70
     1
102
RTVSPropertyOp44
 70
     1
102
RTVSPropertyOp45
 70
     1
102
RTVSPropertyOp46
 70
     1
102
RTVSPropertyOp47
 70
     1
102
RTVSPropertyOp48
 70
     1
102
RTVSPropertyOp49
 70
     1
102
RTVSPropertyOp50
 70
     1
102
RTVSPropertyOp51
 70
     0
102
RTVSPropertyOp52
 70
     0
102
RTVSPropertyOp53
 70
     1
102
RTVSPropertyOp54
 70
     1
102
RTVSPropertyOp55
 70
     1
102
RTVSPropertyOp56
 70
     1
102
RTVSPropertyOp57
 70
     1
102
RTVSPropertyOp58
 70
     1
102
RTVSPropertyOp59
 70
     1
102
RTVSPropertyOp60
 70
     1
102
RTVSPropertyOp61
 70
     1
102
RTVSPropertyOp62
 70
     1
  0
XRECORD
  5
3497
102
{ACAD_REACTORS
330
3496
102
}
330
3496
100
AcDbXrecord
280
     1
102
RTVSPost2010Prop28
280
     0
102
RTVSPost2010PropOp28
 70
     1
102
RTVSPost2010Prop29
280
     1
102
RTVSPost2010PropOp29
 70
     1
102
RTVSPost2010Prop30
280
     1
102
RTVSPost2010PropOp30
 70
     1
102
RTVSPost2010Prop31
280
     0
102
RTVSPost2010PropOp31
 70
     1
102
RTVSPost2010Prop32
280
     0
102
RTVSPost2010PropOp32
 70
     1
102
RTVSPost2010Prop33
280
     0
102
RTVSPost2010PropOp33
 70
     1
102
RTVSPost2010Prop34
280
     0
102
RTVSPost2010PropOp34
 70
     1
102
RTVSPost2010Prop35
280
     0
102
RTVSPost2010PropOp35
 70
     1
102
RTVSPost2010Prop36
280
     0
102
RTVSPost2010PropOp36
 70
     1
102
RTVSPost2010Prop37
 90
       50
102
RTVSPost2010PropOp37
 70
     1
102
RTVSPost2010Prop38
140
0.0
102
RTVSPost2010PropOp38
 70
     1
102
RTVSPost2010Prop39
140
1.0
102
RTVSPost2010PropOp39
 70
     1
102
RTVSPost2010Prop40
 90
        0
102
RTVSPost2010PropOp40
 70
     1
102
RTVSPost2010Prop41ColorIndex
 90
       18
102
RTVSPost2010Prop41ColorRGB
 90
        0
102
RTVSPost2010PropOp41
 70
     1
102
RTVSPost2010Prop42
 90
       50
102
RTVSPost2010PropOp42
 70
     1
102
RTVSPost2010Prop43
 90
        3
102
RTVSPost2010PropOp43
 70
     1
102
RTVSPost2010Prop44ColorIndex
 90
        5
102
RTVSPost2010Prop44ColorRGB
 90
      255
102
RTVSPost2010PropOp44
 70
     1
102
RTVSPost2010Prop45
280
     0
102
RTVSPost2010PropOp45
 70
     1
102
RTVSPost2010Prop46
 90
       50
102
RTVSPost2010PropOp46
 70
     1
102
RTVSPost2010Prop47
 90
       50
102
RTVSPost2010PropOp47
 70
     1
102
RTVSPost2010Prop48
 90
       50
102
RTVSPost2010PropOp48
 70
     1
102
RTVSPost2010Prop49
280
     0
102
RTVSPost2010PropOp49
 70
     1
102
RTVSPost2010Prop50
 90
       50
102
RTVSPost2010PropOp50
 70
     1
102
RTVSPost2010Prop51ColorIndex
 90
      256
102
RTVSPost2010Prop51ColorRGB
 90
-16777216
102
RTVSPost2010PropOp51
 70
     0
102
RTVSPost2010Prop52
140
1.0
102
RTVSPost2010PropOp52
 70
     0
102
RTVSPost2010Prop53
 90
        2
102
RTVSPost2010PropOp53
 70
     1
102
RTVSPost2010Prop54
  1
strokes_ogs.tif
102
RTVSPost2010PropOp54
 70
     1
102
RTVSPost2010Prop55
280
     0
102
RTVSPost2010PropOp55
 70
     1
102
RTVSPost2010Prop56
140
1.0
102
RTVSPost2010PropOp56
 70
     1
102
RTVSPost2010Prop57
140
1.0
102
RTVSPost2010PropOp57
 70
     1
102
RTVSPropertyOp0
 70
     1
102
RTVSPropertyOp1
 70
     1
102
RTVSPropertyOp2
 70
     1
102
RTVSPropertyOp3
 70
     1
102
RTVSPropertyOp4
 70
     1
102
RTVSPropertyOp5
 70
     1
102
RTVSPropertyOp6
 70
     1
102
RTVSPropertyOp7
 70
     1
102
RTVSPropertyOp8
 70
     1
102
RTVSPropertyOp9
 70
     1
102
RTVSPropertyOp10
 70
     1
102
RTVSPropertyOp11
 70
     1
102
RTVSPropertyOp12
 70
     1
102
RTVSPropertyOp13
 70
     1
102
RTVSPropertyOp14
 70
     1
102
RTVSPropertyOp15
 70
     1
102
RTVSPropertyOp16
 70
     1
102
RTVSPropertyOp17
 70
     1
102
RTVSPropertyOp18
 70
     1
102
RTVSPropertyOp19
 70
     1
102
RTVSPropertyOp20
 70
     1
102
RTVSPropertyOp21
 70
     1
102
RTVSPropertyOp22
 70
     1
102
RTVSPropertyOp23
 70
     1
102
RTVSPropertyOp24
 70
     1
102
RTVSPropertyOp25
 70
     1
102
RTVSPropertyOp26
 70
     1
102
RTVSPropertyOp27
 70
     1
102
RTVSPropertyOp28
 70
     1
102
RTVSPropertyOp29
 70
     1
102
RTVSPropertyOp30
 70
     1
102
RTVSPropertyOp31
 70
     1
102
RTVSPropertyOp32
 70
     1
102
RTVSPropertyOp33
 70
     1
102
RTVSPropertyOp34
 70
     1
102
RTVSPropertyOp35
 70
     1
102
RTVSPropertyOp36
 70
     1
102
RTVSPropertyOp37
 70
     1
102
RTVSPropertyOp38
 70
     1
102
RTVSPropertyOp39
 70
     1
102
RTVSPropertyOp40
 70
     1
102
RTVSPropertyOp41
 70
     1
102
RTVSPropertyOp42
 70
     1
102
RTVSPropertyOp43
 70
     1
102
RTVSPropertyOp44
 70
     1
102
RTVSPropertyOp45
 70
     1
102
RTVSPropertyOp46
 70
     1
102
RTVSPropertyOp47
 70
     1
102
RTVSPropertyOp48
 70
     1
102
RTVSPropertyOp49
 70
     1
102
RTVSPropertyOp50
 70
     1
102
RTVSPropertyOp51
 70
     0
102
RTVSPropertyOp52
 70
     0
102
RTVSPropertyOp53
 70
     1
102
RTVSPropertyOp54
 70
     1
102
RTVSPropertyOp55
 70
     1
102
RTVSPropertyOp56
 70
     1
102
RTVSPropertyOp57
 70
     1
102
RTVSPropertyOp58
 70
     1
102
RTVSPropertyOp59
 70
     1
102
RTVSPropertyOp60
 70
     1
102
RTVSPropertyOp61
 70
     1
102
RTVSPropertyOp62
 70
     1
  0
XRECORD
  5
3499
102
{ACAD_REACTORS
330
3498
102
}
330
3498
100
AcDbXrecord
280
     1
102
RTVSPost2010Prop28
280
     0
102
RTVSPost2010PropOp28
 70
     1
102
RTVSPost2010Prop29
280
     1
102
RTVSPost2010PropOp29
 70
     1
102
RTVSPost2010Prop30
280
     1
102
RTVSPost2010PropOp30
 70
     1
102
RTVSPost2010Prop31
280
     0
102
RTVSPost2010PropOp31
 70
     1
102
RTVSPost2010Prop32
280
     0
102
RTVSPost2010PropOp32
 70
     1
102
RTVSPost2010Prop33
280
     0
102
RTVSPost2010PropOp33
 70
     1
102
RTVSPost2010Prop34
280
     0
102
RTVSPost2010PropOp34
 70
     1
102
RTVSPost2010Prop35
280
     0
102
RTVSPost2010PropOp35
 70
     1
102
RTVSPost2010Prop36
280
     0
102
RTVSPost2010PropOp36
 70
     1
102
RTVSPost2010Prop37
 90
       50
102
RTVSPost2010PropOp37
 70
     1
102
RTVSPost2010Prop38
140
0.0
102
RTVSPost2010PropOp38
 70
     1
102
RTVSPost2010Prop39
140
1.0
102
RTVSPost2010PropOp39
 70
     1
102
RTVSPost2010Prop40
 90
        0
102
RTVSPost2010PropOp40
 70
     1
102
RTVSPost2010Prop41ColorIndex
 90
       18
102
RTVSPost2010Prop41ColorRGB
 90
        0
102
RTVSPost2010PropOp41
 70
     1
102
RTVSPost2010Prop42
 90
       50
102
RTVSPost2010PropOp42
 70
     1
102
RTVSPost2010Prop43
 90
        3
102
RTVSPost2010PropOp43
 70
     1
102
RTVSPost2010Prop44ColorIndex
 90
        5
102
RTVSPost2010Prop44ColorRGB
 90
      255
102
RTVSPost2010PropOp44
 70
     1
102
RTVSPost2010Prop45
280
     0
102
RTVSPost2010PropOp45
 70
     1
102
RTVSPost2010Prop46
 90
       50
102
RTVSPost2010PropOp46
 70
     1
102
RTVSPost2010Prop47
 90
       50
102
RTVSPost2010PropOp47
 70
     1
102
RTVSPost2010Prop48
 90
       50
102
RTVSPost2010PropOp48
 70
     1
102
RTVSPost2010Prop49
280
     0
102
RTVSPost2010PropOp49
 70
     1
102
RTVSPost2010Prop50
 90
       50
102
RTVSPost2010PropOp50
 70
     1
102
RTVSPost2010Prop51ColorIndex
 90
      256
102
RTVSPost2010Prop51ColorRGB
 90
-16777216
102
RTVSPost2010PropOp51
 70
     0
102
RTVSPost2010Prop52
140
1.0
102
RTVSPost2010PropOp52
 70
     0
102
RTVSPost2010Prop53
 90
        2
102
RTVSPost2010PropOp53
 70
     1
102
RTVSPost2010Prop54
  1
strokes_ogs.tif
102
RTVSPost2010PropOp54
 70
     1
102
RTVSPost2010Prop55
280
     0
102
RTVSPost2010PropOp55
 70
     1
102
RTVSPost2010Prop56
140
1.0
102
RTVSPost2010PropOp56
 70
     1
102
RTVSPost2010Prop57
140
1.0
102
RTVSPost2010PropOp57
 70
     1
102
RTVSPropertyOp0
 70
     1
102
RTVSPropertyOp1
 70
     1
102
RTVSPropertyOp2
 70
     1
102
RTVSPropertyOp3
 70
     1
102
RTVSPropertyOp4
 70
     1
102
RTVSPropertyOp5
 70
     1
102
RTVSPropertyOp6
 70
     1
102
RTVSPropertyOp7
 70
     1
102
RTVSPropertyOp8
 70
     1
102
RTVSPropertyOp9
 70
     1
102
RTVSPropertyOp10
 70
     1
102
RTVSPropertyOp11
 70
     1
102
RTVSPropertyOp12
 70
     1
102
RTVSPropertyOp13
 70
     1
102
RTVSPropertyOp14
 70
     1
102
RTVSPropertyOp15
 70
     1
102
RTVSPropertyOp16
 70
     1
102
RTVSPropertyOp17
 70
     1
102
RTVSPropertyOp18
 70
     1
102
RTVSPropertyOp19
 70
     1
102
RTVSPropertyOp20
 70
     1
102
RTVSPropertyOp21
 70
     1
102
RTVSPropertyOp22
 70
     1
102
RTVSPropertyOp23
 70
     1
102
RTVSPropertyOp24
 70
     1
102
RTVSPropertyOp25
 70
     1
102
RTVSPropertyOp26
 70
     1
102
RTVSPropertyOp27
 70
     1
102
RTVSPropertyOp28
 70
     1
102
RTVSPropertyOp29
 70
     1
102
RTVSPropertyOp30
 70
     1
102
RTVSPropertyOp31
 70
     1
102
RTVSPropertyOp32
 70
     1
102
RTVSPropertyOp33
 70
     1
102
RTVSPropertyOp34
 70
     1
102
RTVSPropertyOp35
 70
     1
102
RTVSPropertyOp36
 70
     1
102
RTVSPropertyOp37
 70
     1
102
RTVSPropertyOp38
 70
     1
102
RTVSPropertyOp39
 70
     1
102
RTVSPropertyOp40
 70
     1
102
RTVSPropertyOp41
 70
     1
102
RTVSPropertyOp42
 70
     1
102
RTVSPropertyOp43
 70
     1
102
RTVSPropertyOp44
 70
     1
102
RTVSPropertyOp45
 70
     1
102
RTVSPropertyOp46
 70
     1
102
RTVSPropertyOp47
 70
     1
102
RTVSPropertyOp48
 70
     1
102
RTVSPropertyOp49
 70
     1
102
RTVSPropertyOp50
 70
     1
102
RTVSPropertyOp51
 70
     0
102
RTVSPropertyOp52
 70
     0
102
RTVSPropertyOp53
 70
     1
102
RTVSPropertyOp54
 70
     1
102
RTVSPropertyOp55
 70
     1
102
RTVSPropertyOp56
 70
     1
102
RTVSPropertyOp57
 70
     1
102
RTVSPropertyOp58
 70
     1
102
RTVSPropertyOp59
 70
     1
102
RTVSPropertyOp60
 70
     1
102
RTVSPropertyOp61
 70
     1
102
RTVSPropertyOp62
 70
     1
  0
XRECORD
  5
3464
102
{ACAD_REACTORS
330
3463
102
}
330
3463
100
AcDbXrecord
280
     1
102
RTVSPost2010Prop28
280
     0
102
RTVSPost2010PropOp28
 70
     1
102
RTVSPost2010Prop29
280
     1
102
RTVSPost2010PropOp29
 70
     1
102
RTVSPost2010Prop30
280
     1
102
RTVSPost2010PropOp30
 70
     1
102
RTVSPost2010Prop31
280
     0
102
RTVSPost2010PropOp31
 70
     1
102
RTVSPost2010Prop32
280
     0
102
RTVSPost2010PropOp32
 70
     1
102
RTVSPost2010Prop33
280
     0
102
RTVSPost2010PropOp33
 70
     1
102
RTVSPost2010Prop34
280
     0
102
RTVSPost2010PropOp34
 70
     1
102
RTVSPost2010Prop35
280
     0
102
RTVSPost2010PropOp35
 70
     1
102
RTVSPost2010Prop36
280
     0
102
RTVSPost2010PropOp36
 70
     1
102
RTVSPost2010Prop37
 90
       50
102
RTVSPost2010PropOp37
 70
     1
102
RTVSPost2010Prop38
140
0.0
102
RTVSPost2010PropOp38
 70
     1
102
RTVSPost2010Prop39
140
1.0
102
RTVSPost2010PropOp39
 70
     1
102
RTVSPost2010Prop40
 90
        0
102
RTVSPost2010PropOp40
 70
     1
102
RTVSPost2010Prop41ColorIndex
 90
       18
102
RTVSPost2010Prop41ColorRGB
 90
        0
102
RTVSPost2010PropOp41
 70
     1
102
RTVSPost2010Prop42
 90
       50
102
RTVSPost2010PropOp42
 70
     1
102
RTVSPost2010Prop43
 90
        3
102
RTVSPost2010PropOp43
 70
     1
102
RTVSPost2010Prop44ColorIndex
 90
        5
102
RTVSPost2010Prop44ColorRGB
 90
      255
102
RTVSPost2010PropOp44
 70
     1
102
RTVSPost2010Prop45
280
     0
102
RTVSPost2010PropOp45
 70
     1
102
RTVSPost2010Prop46
 90
       50
102
RTVSPost2010PropOp46
 70
     1
102
RTVSPost2010Prop47
 90
       50
102
RTVSPost2010PropOp47
 70
     1
102
RTVSPost2010Prop48
 90
       50
102
RTVSPost2010PropOp48
 70
     1
102
RTVSPost2010Prop49
280
     0
102
RTVSPost2010PropOp49
 70
     1
102
RTVSPost2010Prop50
 90
       50
102
RTVSPost2010PropOp50
 70
     1
102
RTVSPost2010Prop51ColorIndex
 90
      256
102
RTVSPost2010Prop51ColorRGB
 90
-16777216
102
RTVSPost2010PropOp51
 70
     0
102
RTVSPost2010Prop52
140
1.0
102
RTVSPost2010PropOp52
 70
     0
102
RTVSPost2010Prop53
 90
        2
102
RTVSPost2010PropOp53
 70
     1
102
RTVSPost2010Prop54
  1
strokes_ogs.tif
102
RTVSPost2010PropOp54
 70
     1
102
RTVSPost2010Prop55
280
     0
102
RTVSPost2010PropOp55
 70
     1
102
RTVSPost2010Prop56
140
1.0
102
RTVSPost2010PropOp56
 70
     1
102
RTVSPost2010Prop57
140
1.0
102
RTVSPost2010PropOp57
 70
     1
102
RTVSPropertyOp0
 70
     1
102
RTVSPropertyOp1
 70
     1
102
RTVSPropertyOp2
 70
     1
102
RTVSPropertyOp3
 70
     1
102
RTVSPropertyOp4
 70
     1
102
RTVSPropertyOp5
 70
     1
102
RTVSPropertyOp6
 70
     1
102
RTVSPropertyOp7
 70
     1
102
RTVSPropertyOp8
 70
     1
102
RTVSPropertyOp9
 70
     1
102
RTVSPropertyOp10
 70
     1
102
RTVSPropertyOp11
 70
     1
102
RTVSPropertyOp12
 70
     1
102
RTVSPropertyOp13
 70
     1
102
RTVSPropertyOp14
 70
     1
102
RTVSPropertyOp15
 70
     1
102
RTVSPropertyOp16
 70
     1
102
RTVSPropertyOp17
 70
     1
102
RTVSPropertyOp18
 70
     1
102
RTVSPropertyOp19
 70
     1
102
RTVSPropertyOp20
 70
     1
102
RTVSPropertyOp21
 70
     1
102
RTVSPropertyOp22
 70
     1
102
RTVSPropertyOp23
 70
     1
102
RTVSPropertyOp24
 70
     1
102
RTVSPropertyOp25
 70
     1
102
RTVSPropertyOp26
 70
     1
102
RTVSPropertyOp27
 70
     1
102
RTVSPropertyOp28
 70
     1
102
RTVSPropertyOp29
 70
     1
102
RTVSPropertyOp30
 70
     1
102
RTVSPropertyOp31
 70
     1
102
RTVSPropertyOp32
 70
     1
102
RTVSPropertyOp33
 70
     1
102
RTVSPropertyOp34
 70
     1
102
RTVSPropertyOp35
 70
     1
102
RTVSPropertyOp36
 70
     1
102
RTVSPropertyOp37
 70
     1
102
RTVSPropertyOp38
 70
     1
102
RTVSPropertyOp39
 70
     1
102
RTVSPropertyOp40
 70
     1
102
RTVSPropertyOp41
 70
     1
102
RTVSPropertyOp42
 70
     1
102
RTVSPropertyOp43
 70
     1
102
RTVSPropertyOp44
 70
     1
102
RTVSPropertyOp45
 70
     1
102
RTVSPropertyOp46
 70
     1
102
RTVSPropertyOp47
 70
     1
102
RTVSPropertyOp48
 70
     1
102
RTVSPropertyOp49
 70
     1
102
RTVSPropertyOp50
 70
     1
102
RTVSPropertyOp51
 70
     0
102
RTVSPropertyOp52
 70
     0
102
RTVSPropertyOp53
 70
     1
102
RTVSPropertyOp54
 70
     1
102
RTVSPropertyOp55
 70
     1
102
RTVSPropertyOp56
 70
     1
102
RTVSPropertyOp57
 70
     1
102
RTVSPropertyOp58
 70
     1
102
RTVSPropertyOp59
 70
     1
102
RTVSPropertyOp60
 70
     1
102
RTVSPropertyOp61
 70
     1
102
RTVSPropertyOp62
 70
     1
  0
XRECORD
  5
3493
102
{ACAD_REACTORS
330
3492
102
}
330
3492
100
AcDbXrecord
280
     1
102
RTVSPost2010Prop28
280
     0
102
RTVSPost2010PropOp28
 70
     1
102
RTVSPost2010Prop29
280
     1
102
RTVSPost2010PropOp29
 70
     1
102
RTVSPost2010Prop30
280
     1
102
RTVSPost2010PropOp30
 70
     1
102
RTVSPost2010Prop31
280
     0
102
RTVSPost2010PropOp31
 70
     1
102
RTVSPost2010Prop32
280
     0
102
RTVSPost2010PropOp32
 70
     1
102
RTVSPost2010Prop33
280
     0
102
RTVSPost2010PropOp33
 70
     1
102
RTVSPost2010Prop34
280
     0
102
RTVSPost2010PropOp34
 70
     1
102
RTVSPost2010Prop35
280
     0
102
RTVSPost2010PropOp35
 70
     1
102
RTVSPost2010Prop36
280
     0
102
RTVSPost2010PropOp36
 70
     1
102
RTVSPost2010Prop37
 90
       50
102
RTVSPost2010PropOp37
 70
     1
102
RTVSPost2010Prop38
140
0.0
102
RTVSPost2010PropOp38
 70
     1
102
RTVSPost2010Prop39
140
1.0
102
RTVSPost2010PropOp39
 70
     1
102
RTVSPost2010Prop40
 90
        0
102
RTVSPost2010PropOp40
 70
     1
102
RTVSPost2010Prop41ColorIndex
 90
       18
102
RTVSPost2010Prop41ColorRGB
 90
        0
102
RTVSPost2010PropOp41
 70
     1
102
RTVSPost2010Prop42
 90
       50
102
RTVSPost2010PropOp42
 70
     1
102
RTVSPost2010Prop43
 90
        3
102
RTVSPost2010PropOp43
 70
     1
102
RTVSPost2010Prop44ColorIndex
 90
        5
102
RTVSPost2010Prop44ColorRGB
 90
      255
102
RTVSPost2010PropOp44
 70
     1
102
RTVSPost2010Prop45
280
     0
102
RTVSPost2010PropOp45
 70
     1
102
RTVSPost2010Prop46
 90
       50
102
RTVSPost2010PropOp46
 70
     1
102
RTVSPost2010Prop47
 90
       50
102
RTVSPost2010PropOp47
 70
     1
102
RTVSPost2010Prop48
 90
       50
102
RTVSPost2010PropOp48
 70
     1
102
RTVSPost2010Prop49
280
     0
102
RTVSPost2010PropOp49
 70
     1
102
RTVSPost2010Prop50
 90
       50
102
RTVSPost2010PropOp50
 70
     1
102
RTVSPost2010Prop51ColorIndex
 90
      256
102
RTVSPost2010Prop51ColorRGB
 90
-16777216
102
RTVSPost2010PropOp51
 70
     0
102
RTVSPost2010Prop52
140
1.0
102
RTVSPost2010PropOp52
 70
     0
102
RTVSPost2010Prop53
 90
        2
102
RTVSPost2010PropOp53
 70
     1
102
RTVSPost2010Prop54
  1
strokes_ogs.tif
102
RTVSPost2010PropOp54
 70
     1
102
RTVSPost2010Prop55
280
     0
102
RTVSPost2010PropOp55
 70
     1
102
RTVSPost2010Prop56
140
1.0
102
RTVSPost2010PropOp56
 70
     1
102
RTVSPost2010Prop57
140
1.0
102
RTVSPost2010PropOp57
 70
     1
102
RTVSPropertyOp0
 70
     1
102
RTVSPropertyOp1
 70
     1
102
RTVSPropertyOp2
 70
     1
102
RTVSPropertyOp3
 70
     1
102
RTVSPropertyOp4
 70
     1
102
RTVSPropertyOp5
 70
     1
102
RTVSPropertyOp6
 70
     1
102
RTVSPropertyOp7
 70
     1
102
RTVSPropertyOp8
 70
     1
102
RTVSPropertyOp9
 70
     1
102
RTVSPropertyOp10
 70
     1
102
RTVSPropertyOp11
 70
     1
102
RTVSPropertyOp12
 70
     1
102
RTVSPropertyOp13
 70
     1
102
RTVSPropertyOp14
 70
     1
102
RTVSPropertyOp15
 70
     1
102
RTVSPropertyOp16
 70
     1
102
RTVSPropertyOp17
 70
     1
102
RTVSPropertyOp18
 70
     1
102
RTVSPropertyOp19
 70
     1
102
RTVSPropertyOp20
 70
     1
102
RTVSPropertyOp21
 70
     1
102
RTVSPropertyOp22
 70
     1
102
RTVSPropertyOp23
 70
     1
102
RTVSPropertyOp24
 70
     1
102
RTVSPropertyOp25
 70
     1
102
RTVSPropertyOp26
 70
     1
102
RTVSPropertyOp27
 70
     1
102
RTVSPropertyOp28
 70
     1
102
RTVSPropertyOp29
 70
     1
102
RTVSPropertyOp30
 70
     1
102
RTVSPropertyOp31
 70
     1
102
RTVSPropertyOp32
 70
     1
102
RTVSPropertyOp33
 70
     1
102
RTVSPropertyOp34
 70
     1
102
RTVSPropertyOp35
 70
     1
102
RTVSPropertyOp36
 70
     1
102
RTVSPropertyOp37
 70
     1
102
RTVSPropertyOp38
 70
     1
102
RTVSPropertyOp39
 70
     1
102
RTVSPropertyOp40
 70
     1
102
RTVSPropertyOp41
 70
     1
102
RTVSPropertyOp42
 70
     1
102
RTVSPropertyOp43
 70
     1
102
RTVSPropertyOp44
 70
     1
102
RTVSPropertyOp45
 70
     1
102
RTVSPropertyOp46
 70
     1
102
RTVSPropertyOp47
 70
     1
102
RTVSPropertyOp48
 70
     1
102
RTVSPropertyOp49
 70
     1
102
RTVSPropertyOp50
 70
     1
102
RTVSPropertyOp51
 70
     0
102
RTVSPropertyOp52
 70
     0
102
RTVSPropertyOp53
 70
     1
102
RTVSPropertyOp54
 70
     1
102
RTVSPropertyOp55
 70
     1
102
RTVSPropertyOp56
 70
     1
102
RTVSPropertyOp57
 70
     1
102
RTVSPropertyOp58
 70
     1
102
RTVSPropertyOp59
 70
     1
102
RTVSPropertyOp60
 70
     1
102
RTVSPropertyOp61
 70
     1
102
RTVSPropertyOp62
 70
     1
  0
XRECORD
  5
349B
102
{ACAD_REACTORS
330
349A
102
}
330
349A
100
AcDbXrecord
280
     1
102
RTVSPost2010Prop28
280
     0
102
RTVSPost2010PropOp28
 70
     1
102
RTVSPost2010Prop29
280
     1
102
RTVSPost2010PropOp29
 70
     1
102
RTVSPost2010Prop30
280
     1
102
RTVSPost2010PropOp30
 70
     1
102
RTVSPost2010Prop31
280
     0
102
RTVSPost2010PropOp31
 70
     1
102
RTVSPost2010Prop32
280
     0
102
RTVSPost2010PropOp32
 70
     1
102
RTVSPost2010Prop33
280
     0
102
RTVSPost2010PropOp33
 70
     1
102
RTVSPost2010Prop34
280
     0
102
RTVSPost2010PropOp34
 70
     1
102
RTVSPost2010Prop35
280
     0
102
RTVSPost2010PropOp35
 70
     1
102
RTVSPost2010Prop36
280
     0
102
RTVSPost2010PropOp36
 70
     1
102
RTVSPost2010Prop37
 90
       50
102
RTVSPost2010PropOp37
 70
     1
102
RTVSPost2010Prop38
140
0.0
102
RTVSPost2010PropOp38
 70
     1
102
RTVSPost2010Prop39
140
1.0
102
RTVSPost2010PropOp39
 70
     1
102
RTVSPost2010Prop40
 90
        0
102
RTVSPost2010PropOp40
 70
     1
102
RTVSPost2010Prop41ColorIndex
 90
       18
102
RTVSPost2010Prop41ColorRGB
 90
        0
102
RTVSPost2010PropOp41
 70
     1
102
RTVSPost2010Prop42
 90
       50
102
RTVSPost2010PropOp42
 70
     1
102
RTVSPost2010Prop43
 90
        3
102
RTVSPost2010PropOp43
 70
     1
102
RTVSPost2010Prop44ColorIndex
 90
        5
102
RTVSPost2010Prop44ColorRGB
 90
      255
102
RTVSPost2010PropOp44
 70
     1
102
RTVSPost2010Prop45
280
     0
102
RTVSPost2010PropOp45
 70
     1
102
RTVSPost2010Prop46
 90
       50
102
RTVSPost2010PropOp46
 70
     1
102
RTVSPost2010Prop47
 90
       50
102
RTVSPost2010PropOp47
 70
     1
102
RTVSPost2010Prop48
 90
       50
102
RTVSPost2010PropOp48
 70
     1
102
RTVSPost2010Prop49
280
     0
102
RTVSPost2010PropOp49
 70
     1
102
RTVSPost2010Prop50
 90
       50
102
RTVSPost2010PropOp50
 70
     1
102
RTVSPost2010Prop51ColorIndex
 90
      256
102
RTVSPost2010Prop51ColorRGB
 90
-16777216
102
RTVSPost2010PropOp51
 70
     0
102
RTVSPost2010Prop52
140
1.0
102
RTVSPost2010PropOp52
 70
     0
102
RTVSPost2010Prop53
 90
        2
102
RTVSPost2010PropOp53
 70
     1
102
RTVSPost2010Prop54
  1
strokes_ogs.tif
102
RTVSPost2010PropOp54
 70
     1
102
RTVSPost2010Prop55
280
     0
102
RTVSPost2010PropOp55
 70
     1
102
RTVSPost2010Prop56
140
1.0
102
RTVSPost2010PropOp56
 70
     1
102
RTVSPost2010Prop57
140
1.0
102
RTVSPost2010PropOp57
 70
     1
102
RTVSPropertyOp0
 70
     1
102
RTVSPropertyOp1
 70
     1
102
RTVSPropertyOp2
 70
     1
102
RTVSPropertyOp3
 70
     1
102
RTVSPropertyOp4
 70
     1
102
RTVSPropertyOp5
 70
     1
102
RTVSPropertyOp6
 70
     1
102
RTVSPropertyOp7
 70
     1
102
RTVSPropertyOp8
 70
     1
102
RTVSPropertyOp9
 70
     1
102
RTVSPropertyOp10
 70
     1
102
RTVSPropertyOp11
 70
     1
102
RTVSPropertyOp12
 70
     1
102
RTVSPropertyOp13
 70
     1
102
RTVSPropertyOp14
 70
     1
102
RTVSPropertyOp15
 70
     1
102
RTVSPropertyOp16
 70
     1
102
RTVSPropertyOp17
 70
     1
102
RTVSPropertyOp18
 70
     1
102
RTVSPropertyOp19
 70
     1
102
RTVSPropertyOp20
 70
     1
102
RTVSPropertyOp21
 70
     1
102
RTVSPropertyOp22
 70
     1
102
RTVSPropertyOp23
 70
     1
102
RTVSPropertyOp24
 70
     1
102
RTVSPropertyOp25
 70
     1
102
RTVSPropertyOp26
 70
     1
102
RTVSPropertyOp27
 70
     1
102
RTVSPropertyOp28
 70
     1
102
RTVSPropertyOp29
 70
     1
102
RTVSPropertyOp30
 70
     1
102
RTVSPropertyOp31
 70
     1
102
RTVSPropertyOp32
 70
     1
102
RTVSPropertyOp33
 70
     1
102
RTVSPropertyOp34
 70
     1
102
RTVSPropertyOp35
 70
     1
102
RTVSPropertyOp36
 70
     1
102
RTVSPropertyOp37
 70
     1
102
RTVSPropertyOp38
 70
     1
102
RTVSPropertyOp39
 70
     1
102
RTVSPropertyOp40
 70
     1
102
RTVSPropertyOp41
 70
     1
102
RTVSPropertyOp42
 70
     1
102
RTVSPropertyOp43
 70
     1
102
RTVSPropertyOp44
 70
     1
102
RTVSPropertyOp45
 70
     1
102
RTVSPropertyOp46
 70
     1
102
RTVSPropertyOp47
 70
     1
102
RTVSPropertyOp48
 70
     1
102
RTVSPropertyOp49
 70
     1
102
RTVSPropertyOp50
 70
     1
102
RTVSPropertyOp51
 70
     0
102
RTVSPropertyOp52
 70
     0
102
RTVSPropertyOp53
 70
     1
102
RTVSPropertyOp54
 70
     1
102
RTVSPropertyOp55
 70
     1
102
RTVSPropertyOp56
 70
     1
102
RTVSPropertyOp57
 70
     1
102
RTVSPropertyOp58
 70
     1
102
RTVSPropertyOp59
 70
     1
102
RTVSPropertyOp60
 70
     1
102
RTVSPropertyOp61
 70
     1
102
RTVSPropertyOp62
 70
     1
  0
ENDSEC
  0
EOF
