  0
SECTION
  2
HEADER
  9
$ACADVER
  1
AC1015
  9
$ACADMAINTVER
 70
    20
  9
$DWGCODEPAGE
  3
ANSI_932
  9
$INSBASE
 10
0.0
 20
0.0
 30
0.0
  9
$EXTMIN
 10
25.2222735535
 20
-72.3078323234
 30
0.0
  9
$EXTMAX
 10
905.9850348931
 20
475.8822463019
 30
0.0
  9
$LIMMIN
 10
0.0
 20
0.0
  9
$LIMMAX
 10
297.0
 20
210.0
  9
$ORTHOMODE
 70
     0
  9
$REGENMODE
 70
     1
  9
$FILLMODE
 70
     1
  9
$QTEXTMODE
 70
     0
  9
$MIRRTEXT
 70
     0
  9
$LTSCALE
 40
3.0
  9
$ATTMODE
 70
     1
  9
$TEXTSIZE
 40
2.0
  9
$TRACEWID
 40
1.0
  9
$TEXTSTYLE
  7
STANDARD
  9
$CLAYER
  8
0
  9
$CELTYPE
  6
BYLAYER
  9
$CECOLOR
 62
   256
  9
$CELTSCALE
 40
1.0
  9
$DISPSILH
 70
     0
  9
$DIMSCALE
 40
3.0
  9
$DIMASZ
 40
1.8
  9
$DIMEXO
 40
0.625
  9
$DIMDLI
 40
3.75
  9
$DIMRND
 40
0.0
  9
$DIMDLE
 40
0.0
  9
$DIMEXE
 40
0.8
  9
$DIMTP
 40
0.0
  9
$DIMTM
 40
0.0
  9
$DIMTXT
 40
1.8
  9
$DIMCEN
 40
2.5
  9
$DIMTSZ
 40
0.0
  9
$DIMTOL
 70
     0
  9
$DIMLIM
 70
     0
  9
$DIMTIH
 70
     0
  9
$DIMTOH
 70
     0
  9
$DIMSE1
 70
     0
  9
$DIMSE2
 70
     0
  9
$DIMTAD
 70
     1
  9
$DIMZIN
 70
     8
  9
$DIMBLK
  1

  9
$DIMASO
 70
     1
  9
$DIMSHO
 70
     1
  9
$DIMPOST
  1

  9
$DIMAPOST
  1

  9
$DIMALT
 70
     0
  9
$DIMALTD
 70
     4
  9
$DIMALTF
 40
0.0394
  9
$DIMLFAC
 40
1.0
  9
$DIMTOFL
 70
     1
  9
$DIMTVP
 40
0.0
  9
$DIMTIX
 70
     0
  9
$DIMSOXD
 70
     0
  9
$DIMSAH
 70
     0
  9
$DIMBLK1
  1

  9
$DIMBLK2
  1

  9
$DIMSTYLE
  2
STANDARD
  9
$DIMCLRD
 70
     0
  9
$DIMCLRE
 70
     0
  9
$DIMCLRT
 70
     0
  9
$DIMTFAC
 40
1.0
  9
$DIMGAP
 40
0.75
  9
$DIMJUST
 70
     0
  9
$DIMSD1
 70
     0
  9
$DIMSD2
 70
     0
  9
$DIMTOLJ
 70
     1
  9
$DIMTZIN
 70
     0
  9
$DIMALTZ
 70
     0
  9
$DIMALTTZ
 70
     0
  9
$DIMUPT
 70
     0
  9
$DIMDEC
 70
     2
  9
$DIMTDEC
 70
     2
  9
$DIMALTU
 70
     8
  9
$DIMALTTD
 70
     4
  9
$DIMTXSTY
  7
STANDARD
  9
$DIMAUNIT
 70
     0
  9
$DIMADEC
 70
     2
  9
$DIMALTRND
 40
0.0
  9
$DIMAZIN
 70
     0
  9
$DIMDSEP
 70
    46
  9
$DIMATFIT
 70
     3
  9
$DIMFRAC
 70
     0
  9
$DIMLDRBLK
  1

  9
$DIMLUNIT
 70
     6
  9
$DIMLWD
 70
    -2
  9
$DIMLWE
 70
    -2
  9
$DIMTMOVE
 70
     0
  9
$LUNITS
 70
     2
  9
$LUPREC
 70
     3
  9
$SKETCHINC
 40
1.0
  9
$FILLETRAD
 40
10.0
  9
$AUNITS
 70
     0
  9
$AUPREC
 70
     2
  9
$MENU
  1
.
  9
$ELEVATION
 40
0.0
  9
$PELEVATION
 40
0.0
  9
$THICKNESS
 40
0.0
  9
$LIMCHECK
 70
     0
  9
$CHAMFERA
 40
0.0
  9
$CHAMFERB
 40
0.0
  9
$CHAMFERC
 40
20.0
  9
$CHAMFERD
 40
0.0
  9
$SKPOLY
 70
     0
  9
$TDCREATE
 40
2453557.747268519
  9
$TDUCREATE
 40
2453557.372268692
  9
$TDUPDATE
 40
2460164.365289352
  9
$TDUUPDATE
 40
2460163.990289352
  9
$TDINDWG
 40
0.3840153935
  9
$TDUSRTIMER
 40
0.3840152083
  9
$USRTIMER
 70
     1
  9
$ANGBASE
 50
0.0
  9
$ANGDIR
 70
     0
  9
$PDMODE
 70
     0
  9
$PDSIZE
 40
-10.0
  9
$PLINEWID
 40
0.0
  9
$SPLFRAME
 70
     0
  9
$SPLINETYPE
 70
     6
  9
$SPLINESEGS
 70
     8
  9
$HANDSEED
  5
3F8E
  9
$SURFTAB1
 70
     6
  9
$SURFTAB2
 70
     6
  9
$SURFTYPE
 70
     6
  9
$SURFU
 70
     6
  9
$SURFV
 70
     6
  9
$UCSBASE
  2

  9
$UCSNAME
  2

  9
$UCSORG
 10
0.0
 20
0.0
 30
0.0
  9
$UCSXDIR
 10
1.0
 20
0.0
 30
0.0
  9
$UCSYDIR
 10
0.0
 20
1.0
 30
0.0
  9
$UCSORTHOREF
  2

  9
$UCSORTHOVIEW
 70
     0
  9
$UCSORGTOP
 10
0.0
 20
0.0
 30
0.0
  9
$UCSORGBOTTOM
 10
0.0
 20
0.0
 30
0.0
  9
$UCSORGLEFT
 10
0.0
 20
0.0
 30
0.0
  9
$UCSORGRIGHT
 10
0.0
 20
0.0
 30
0.0
  9
$UCSORGFRONT
 10
0.0
 20
0.0
 30
0.0
  9
$UCSORGBACK
 10
0.0
 20
0.0
 30
0.0
  9
$PUCSBASE
  2

  9
$PUCSNAME
  2

  9
$PUCSORG
 10
0.0
 20
0.0
 30
0.0
  9
$PUCSXDIR
 10
1.0
 20
0.0
 30
0.0
  9
$PUCSYDIR
 10
0.0
 20
1.0
 30
0.0
  9
$PUCSORTHOREF
  2

  9
$PUCSORTHOVIEW
 70
     0
  9
$PUCSORGTOP
 10
0.0
 20
0.0
 30
0.0
  9
$PUCSORGBOTTOM
 10
0.0
 20
0.0
 30
0.0
  9
$PUCSORGLEFT
 10
0.0
 20
0.0
 30
0.0
  9
$PUCSORGRIGHT
 10
0.0
 20
0.0
 30
0.0
  9
$PUCSORGFRONT
 10
0.0
 20
0.0
 30
0.0
  9
$PUCSORGBACK
 10
0.0
 20
0.0
 30
0.0
  9
$USERI1
 70
     0
  9
$USERI2
 70
     0
  9
$USERI3
 70
     0
  9
$USERI4
 70
     0
  9
$USERI5
 70
     0
  9
$USERR1
 40
0.0
  9
$USERR2
 40
0.0
  9
$USERR3
 40
0.0
  9
$USERR4
 40
0.0
  9
$USERR5
 40
0.0
  9
$WORLDVIEW
 70
     1
  9
$SHADEDGE
 70
     3
  9
$SHADEDIF
 70
    70
  9
$TILEMODE
 70
     1
  9
$MAXACTVP
 70
    48
  9
$PINSBASE
 10
0.0
 20
0.0
 30
0.0
  9
$PLIMCHECK
 70
     0
  9
$PEXTMIN
 10
0.0
 20
0.0
 30
0.0
  9
$PEXTMAX
 10
0.0
 20
0.0
 30
0.0
  9
$PLIMMIN
 10
0.0
 20
0.0
  9
$PLIMMAX
 10
12.0
 20
9.0
  9
$UNITMODE
 70
     0
  9
$VISRETAIN
 70
     1
  9
$PLINEGEN
 70
     0
  9
$PSLTSCALE
 70
     1
  9
$TREEDEPTH
 70
  3020
  9
$CMLSTYLE
  2
STANDARD
  9
$CMLJUST
 70
     0
  9
$CMLSCALE
 40
1.0
  9
$PROXYGRAPHICS
 70
     1
  9
$MEASUREMENT
 70
     0
  9
$CELWEIGHT
370
    -1
  9
$ENDCAPS
280
     0
  9
$JOINSTYLE
280
     0
  9
$LWDISPLAY
290
     0
  9
$INSUNITS
 70
     0
  9
$HYPERLINKBASE
  1

  9
$STYLESHEET
  1
SEKKEI.CTB
  9
$XEDIT
290
     1
  9
$CEPSNTYPE
380
     0
  9
$PSTYLEMODE
290
     1
  9
$FINGERPRINTGUID
  2
{6385560B-F4B1-4644-A7C2-A3E32AC3D232}
  9
$VERSIONGUID
  2
{1AC6F005-31E4-2E42-BE65-1E17BC241EBC}
  9
$EXTNAMES
290
     1
  9
$PSVPSCALE
 40
0.0
  9
$OLESTARTUP
290
     0
  0
ENDSEC
  0
SECTION
  2
CLASSES
  0
CLASS
  1
DICTIONARYVAR
  2
AcDbDictionaryVar
  3
ObjectDBX Classes
 90
        0
280
     0
281
     0
  0
CLASS
  1
ACDBDICTIONARYWDFLT
  2
AcDbDictionaryWithDefault
  3
ObjectDBX Classes
 90
        0
280
     0
281
     0
  0
CLASS
  1
MATERIAL
  2
AcDbMaterial
  3
ObjectDBX Classes
 90
     1153
280
     0
281
     0
  0
CLASS
  1
VISUALSTYLE
  2
AcDbVisualStyle
  3
ObjectDBX Classes
 90
     4095
280
     0
281
     0
  0
CLASS
  1
TABLESTYLE
  2
AcDbTableStyle
  3
ObjectDBX Classes
 90
     4095
280
     0
281
     0
  0
CLASS
  1
SCALE
  2
AcDbScale
  3
ObjectDBX Classes
 90
     1153
280
     0
281
     0
  0
CLASS
  1
MLEADERSTYLE
  2
AcDbMLeaderStyle
  3
ACDB_MLEADERSTYLE_CLASS
 90
     4095
280
     0
281
     0
  0
CLASS
  1
CELLSTYLEMAP
  2
AcDbCellStyleMap
  3
ObjectDBX Classes
 90
     1152
280
     0
281
     0
  0
CLASS
  1
SORTENTSTABLE
  2
AcDbSortentsTable
  3
ObjectDBX Classes
 90
        0
280
     0
281
     0
  0
CLASS
  1
ACAD_EVALUATION_GRAPH
  2
AcDbEvalGraph
  3
ObjectDBX Classes
 90
    33921
280
     0
281
     0
  0
CLASS
  1
ACAECUSTOBJ
  2
AcAeEditorObj
  3
AcAeEditorObj
 90
    33792
280
     0
281
     0
  0
CLASS
  1
ACDB_DYNAMICBLOCKPURGEPREVENTER_VERSION
  2
AcDbDynamicBlockPurgePreventer
  3
ObjectDBX Classes
 90
    33921
280
     0
281
     0
  0
CLASS
  1
ACDBSECTIONVIEWSTYLE
  2
AcDbSectionViewStyle
  3
ObjectDBX Classes
 90
     1025
280
     0
281
     0
  0
CLASS
  1
ACDBDETAILVIEWSTYLE
  2
AcDbDetailViewStyle
  3
ObjectDBX Classes
 90
     1025
280
     0
281
     0
  0
CLASS
  1
ACDBPLACEHOLDER
  2
AcDbPlaceHolder
  3
ObjectDBX Classes
 90
        0
280
     0
281
     0
  0
CLASS
  1
LAYOUT
  2
AcDbLayout
  3
ObjectDBX Classes
 90
        0
280
     0
281
     0
  0
ENDSEC
  0
SECTION
  2
TABLES
  0
TABLE
  2
VPORT
  5
6E
102
{ACAD_XDICTIONARY
360
1EF5
102
}
330
0
100
AcDbSymbolTable
 70
     1
  0
VPORT
  5
1D8F
330
6E
100
AcDbSymbolTableRecord
100
AcDbViewportTableRecord
  2
*Active
 70
     0
 10
0.0
 20
0.0
 11
1.0
 21
1.0
 12
589.9106616557
 22
224.9909238026
 13
0.0
 23
0.0
 14
10.0
 24
10.0
 15
10.0
 25
10.0
 16
0.0
 26
0.0
 36
1.0
 17
0.0
 27
0.0
 37
0.0
 40
556.870764212
 41
1.4710526316
 42
50.0
 43
0.0
 44
0.0
 50
0.0
 51
0.0
 71
     0
 72
   100
 73
     1
 74
     3
 75
     0
 76
     0
 77
     0
 78
     0
281
     0
 65
     1
110
0.0
120
0.0
130
0.0
111
1.0
121
0.0
131
0.0
112
0.0
122
1.0
132
0.0
 79
     0
146
0.0
1001
ACAD_NAV_VCDISPLAY
1070
     3
  0
ENDTAB
  0
TABLE
  2
LTYPE
  5
69
330
0
100
AcDbSymbolTable
 70
     5
  0
LTYPE
  5
6A
330
69
100
AcDbSymbolTableRecord
100
AcDbLinetypeTableRecord
  2
BYBLOCK
 70
     0
  3

 72
    65
 73
     0
 40
0.0
  0
LTYPE
  5
6B
330
69
100
AcDbSymbolTableRecord
100
AcDbLinetypeTableRecord
  2
BYLAYER
 70
     0
  3

 72
    65
 73
     0
 40
0.0
  0
LTYPE
  5
8
330
69
100
AcDbSymbolTableRecord
100
AcDbLinetypeTableRecord
  2
CONTINUOUS
 70
     0
  3
Solid line
 72
    65
 73
     0
 40
0.0
  0
LTYPE
  5
27C
330
69
100
AcDbSymbolTableRecord
100
AcDbLinetypeTableRecord
  2
sekkei(A2)
 70
     0
  3
center(A2)  ____ _ ____ _ ____ _ ____ _ ____ _ 
 72
    65
 73
     4
 40
14.2875
 49
9.525
 74
     0
 49
-1.5875
 74
     0
 49
1.5875
 74
     0
 49
-1.5875
 74
     0
  0
LTYPE
  5
2B4
330
69
100
AcDbSymbolTableRecord
100
AcDbLinetypeTableRecord
  2
HIDDEN2
 70
     0
  3
Hidden (.5x) _ _ _ _ _ _ _ _ _ _ _ _ _ _ _ _ _
 72
    65
 73
     2
 40
4.7625
 49
3.175
 74
     0
 49
-1.5875
 74
     0
  0
LTYPE
  5
48F
330
69
100
AcDbSymbolTableRecord
100
AcDbLinetypeTableRecord
  2
sekkei_H
 70
     0
  3
Hidden-S _ _ _ _ _ _ _ _ _ _ _ _ _ _ _ _ _
 72
    65
 73
     2
 40
2.38125
 49
1.5875
 74
     0
 49
-0.79375
 74
     0
  0
LTYPE
  5
24CA
330
69
100
AcDbSymbolTableRecord
100
AcDbLinetypeTableRecord
  2
CENS
 70
     0
  3
(一点鎖線１)---- - ---- - ---- - ---- - ---- - 
 72
    65
 73
     4
 40
13.0
 49
10.0
 74
     0
 49
-1.0
 74
     0
 49
1.0
 74
     0
 49
-1.0
 74
     0
  0
ENDTAB
  0
TABLE
  2
LAYER
  5
66
102
{ACAD_XDICTIONARY
360
1DF2
102
}
330
0
100
AcDbSymbolTable
 70
     9
  0
LAYER
  5
5E
102
{ACAD_XDICTIONARY
360
1EDE
102
}
330
66
100
AcDbSymbolTableRecord
100
AcDbLayerTableRecord
  2
0
 70
     0
 62
     7
  6
CONTINUOUS
370
    -3
390
5
  0
LAYER
  5
3E
102
{ACAD_XDICTIONARY
360
1EE0
102
}
330
66
100
AcDbSymbolTableRecord
100
AcDbLayerTableRecord
  2
CENTER
 70
     0
 62
     3
  6
sekkei(A2)
370
    -3
390
5
  0
LAYER
  5
135
330
66
100
AcDbSymbolTableRecord
100
AcDbLayerTableRecord
  2
DEFPOINTS
 70
     0
 62
     7
  6
CONTINUOUS
290
     0
370
    -3
390
5
  0
LAYER
  5
2B5
102
{ACAD_XDICTIONARY
360
1EE6
102
}
330
66
100
AcDbSymbolTableRecord
100
AcDbLayerTableRecord
  2
HIDS
 70
     0
 62
     1
  6
HIDDEN2
370
    -3
390
5
  0
LAYER
  5
2BA
102
{ACAD_XDICTIONARY
360
1EE8
102
}
330
66
100
AcDbSymbolTableRecord
100
AcDbLayerTableRecord
  2
HOJO
 70
     0
 62
     4
  6
CONTINUOUS
370
    -3
390
5
  0
LAYER
  5
1DEF
102
{ACAD_XDICTIONARY
360
1DF0
102
}
330
66
100
AcDbSymbolTableRecord
100
AcDbLayerTableRecord
  2
TITLE_C
 70
     0
 62
     4
  6
CONTINUOUS
370
    -3
390
5
1001
AcAecLayerStandard
1000

1000

  0
ENDTAB
  0
TABLE
  2
STYLE
  5
67
330
0
100
AcDbSymbolTable
 70
     1
  0
STYLE
  5
16
330
67
100
AcDbSymbolTableRecord
100
AcDbTextStyleTableRecord
  2
STANDARD
 70
     0
 40
0.0
 41
1.0
 50
0.0
 71
     0
 42
2.0
  3
simplex.shx
  4
extfont.shx
  0
ENDTAB
  0
TABLE
  2
VIEW
  5
6C
330
0
100
AcDbSymbolTable
 70
     0
  0
ENDTAB
  0
TABLE
  2
UCS
  5
6D
330
0
100
AcDbSymbolTable
 70
     0
  0
ENDTAB
  0
TABLE
  2
APPID
  5
70
330
0
100
AcDbSymbolTable
 70
    10
  0
APPID
  5
71
330
70
100
AcDbSymbolTableRecord
100
AcDbRegAppTableRecord
  2
ACAD
 70
     0
  0
APPID
  5
1DF1
330
70
100
AcDbSymbolTableRecord
100
AcDbRegAppTableRecord
  2
AcAecLayerStandard
 70
     0
  0
APPID
  5
1E08
330
70
100
AcDbSymbolTableRecord
100
AcDbRegAppTableRecord
  2
ACAD_EXEMPT_FROM_CAD_STANDARDS
 70
     0
  0
APPID
  5
1F39
330
70
100
AcDbSymbolTableRecord
100
AcDbRegAppTableRecord
  2
ACAD_MLEADERVER
 70
     0
  0
APPID
  5
25C8
330
70
100
AcDbSymbolTableRecord
100
AcDbRegAppTableRecord
  2
AcadAnnoAV
 70
     0
  0
APPID
  5
25EE
330
70
100
AcDbSymbolTableRecord
100
AcDbRegAppTableRecord
  2
ACAUTHENVIRON
 70
     0
  0
APPID
  5
25F2
330
70
100
AcDbSymbolTableRecord
100
AcDbRegAppTableRecord
  2
AcDbDynamicBlockTrueName
 70
     0
  0
APPID
  5
25F3
330
70
100
AcDbSymbolTableRecord
100
AcDbRegAppTableRecord
  2
AcDbDynamicBlockGUID
 70
     0
  0
APPID
  5
25F5
330
70
100
AcDbSymbolTableRecord
100
AcDbRegAppTableRecord
  2
AcDbBlockRepETag
 70
     0
  0
APPID
  5
31F5
330
70
100
AcDbSymbolTableRecord
100
AcDbRegAppTableRecord
  2
ACAD_NAV_VCDISPLAY
 70
     0
  0
ENDTAB
  0
TABLE
  2
DIMSTYLE
  5
72
330
0
100
AcDbSymbolTable
 70
     1
100
AcDbDimStyleTable
 71
     1
340
73
  0
DIMSTYLE
105
73
330
72
100
AcDbSymbolTableRecord
100
AcDbDimStyleTableRecord
  2
STANDARD
 70
     0
 40
3.0
 41
1.8
 42
0.625
 43
3.75
 44
0.8
 73
     0
 74
     0
 77
     1
 78
     8
140
1.8
141
2.5
143
0.0394
147
0.75
171
     4
172
     1
179
     2
271
     2
272
     2
273
     8
274
     4
277
     6
340
16
  0
ENDTAB
  0
TABLE
  2
BLOCK_RECORD
  5
1
330
0
100
AcDbSymbolTable
 70
    64
  0
BLOCK_RECORD
  5
2
330
1
100
AcDbSymbolTableRecord
100
AcDbBlockTableRecord
  2
*MODEL_SPACE
340
60
  0
BLOCK_RECORD
  5
3F25
330
1
100
AcDbSymbolTableRecord
100
AcDbBlockTableRecord
  2
*Paper_Space
340
3F26
  0
BLOCK_RECORD
  5
4AC
330
1
100
AcDbSymbolTableRecord
100
AcDbBlockTableRecord
  2
黒丸矢印1
340
0
  0
BLOCK_RECORD
  5
2E56
102
{ACAD_XDICTIONARY
360
363D
102
}
330
1
100
AcDbSymbolTableRecord
100
AcDbBlockTableRecord
  2
F2F-18L_0002
340
0
310
28000000200000002000000001002000000000000010000001000000010000000000000000000000000000FF000000FF000000FF000000FF000000FF000000FF000000FF000000FF000000FF000000FF000000FF000000FF000000FF000000FF000000FF000000FF000000FF000000FF000000FF000000FF000000FF000000
310
FF000000FF000000FF000000FF000000FF000000FF000000FF000000FF000000FF000000FF000000FF000000FF000000FF000000FF000000FF000000FF000000FF000000FF000000FF000000FF000000FF000000FF000000FF000000FF000000FF000000FF000000FF000000FF000000FF000000FF000000FF000000FF0000
310
00FF000000FF000000FF000000FF000000FF000000FF000000FF000000FF000000FF000000FF000000FF000000FF000000FF000000FF000000FF000000FF000000FF000000FF000000FF000000FF000000FF000000FF000000FF000000FF000000FF000000FF000000FF000000FF000000FF000000FF000000FF000000FF00
310
0000FF000000FF000000FF000000FF000000FF000000FF000000FF000000FF000000FF000000FF000000FF000000FF000000FF000000FF000000FF000000FF000000FF000000FF000000FF000000FF000000FF000000FF000000FF000000FF000000FF000000FF000000FF000000FF000000FF000000FF000000FF000000FF
310
000000FF000000FF000000FF000000FF000000FF000000FF000000FF000000FF000000FF000000FF000000FF000000FF000000FF000000FF000000FF000000FF000000FF000000FF000000FF000000FF000000FF000000FF000000FF000000FF000000FF000000FF000000FF000000FF000000FF000000FF000000FF000000
310
FF000000FF000000FF000000FF000000FF000000FF000000FF000000FF000000FF000000FF000000FF000000FF000000FF000000FF000000FF000000FF000000FF000000FF000000FF000000FF00FF00FF000000FF000000FF000000FF000000FF000000FF000000FF000000FF000000FF000000FF000000FF000000FF0000
310
00FF000000FF000000FF000000FF000000FF000000FF000000FF000000FF000000FF000000FF000000FF000000FF000000FF000000FF000000FF000000FF000000FF000000FFFFFFFFFFFFFFFFFF00FF00FFFFFFFFFF000000FF000000FF000000FF000000FF000000FF000000FF000000FF000000FF000000FF000000FF00
310
0000FF000000FF000000FF000000FF000000FF000000FF000000FF000000FF000000FF000000FF000000FF000000FF000000FF000000FF000000FF000000FF000000FF000000FFFFFFFFFFFFFFFFFF00FF00FFFFFFFFFF000000FF000000FF000000FF000000FF000000FF000000FF000000FF000000FF000000FF000000FF
310
000000FF000000FF000000FF000000FF000000FF000000FF000000FF000000FF000000FF000000FF000000FF000000FF000000FF000000FF000000FF000000FF000000FF000000FFFFFFFFFFFFFFFFFF00FF00FFFFFFFFFF000000FF000000FF000000FF000000FF000000FF000000FF000000FF000000FF000000FF000000
310
FF000000FF000000FF000000FF000000FF000000FF000000FF000000FF000000FF000000FF000000FF000000FF000000FF000000FF000000FF000000FF000000FF000000FF000000FFFFFFFFFFFFFFFFFF00FF00FFFFFFFFFF000000FF000000FF000000FF000000FF000000FF000000FF000000FF000000FF000000FF0000
310
00FF000000FF000000FF000000FF000000FF000000FF000000FF000000FF000000FF000000FF000000FF000000FF000000FF000000FF000000FF0000FFFF00FF00FFFFFFFFFFFFFFFFFFFFFFFFFFFFFFFFFFFFFFFFFFFFFFFFFFFFFFFFFFFFFFFFFFFFFFFFFFFFFFFFFFFFFFFFFFFFFFFFFF0000FFFF00FF00FF0000FFFF00
310
0000FF000000FF000000FF000000FF000000FF000000FF000000FF000000FF000000FF000000FF000000FF000000FF000000FF000000FF000000FF0000FFFF00FF00FFFFFFFFFF000000FFFFFFFFFF000000FF00FF00FF000000FF000000FF000000FF000000FF000000FFFFFFFFFF000000FF0000FFFF00FF00FF0000FFFF
310
FFFFFFFFFFFFFFFFFFFFFFFFFFFFFFFFFFFFFFFFFFFFFFFFFFFFFFFFFFFFFFFFFFFFFFFFFFFFFFFFFFFFFFFFFFFFFFFF000000FF000000FF000000FF0000FFFF00FF00FFFFFFFFFF000000FFFFFFFFFF000000FF00FF00FF000000FF000000FF000000FF000000FF000000FFFFFFFFFF000000FF0000FFFF00FF00FF0000FF
310
FF000000FF000000FF000000FF000000FF000000FF000000FF000000FF000000FF000000FF000000FF000000FFFFFFFFFF000000FF000000FF000000FF0000FFFF00FF00FFFFFFFFFF000000FFFFFFFFFF000000FF00FF00FF000000FF000000FF000000FF000000FF000000FFFFFFFFFF000000FF0000FFFF00FF00FF0000
310
FFFFFFFFFFFFFFFFFFFFFFFFFFFFFFFFFFFFFFFFFFFFFFFFFFFFFFFFFFFFFFFFFFFFFFFFFFFFFFFFFFFFFFFFFFFFFFFFFFFF000000FF000000FF000000FF0000FFFF00FF00FFFFFFFFFF000000FFFFFFFFFF000000FF00FF00FF000000FF000000FF000000FF000000FF000000FFFFFFFFFF000000FF0000FFFF00FF00FF00
310
00FFFF000000FF000000FF000000FF000000FF000000FF000000FF000000FF000000FF000000FF000000FF000000FFFFFFFFFF000000FF000000FFFFFFFFFF0000FFFF00FF00FFFFFFFFFF000000FFFFFFFFFF000000FF00FF00FF000000FF000000FF000000FF000000FF000000FFFFFFFFFF000000FF0000FFFF00FF00FF
310
0000FFFF000000FF000000FF000000FF000000FF000000FF000000FF000000FF000000FF000000FF000000FF000000FFFFFFFFFF000000FF000000FFFFFFFFFF0000FFFF0000FFFFFFFFFFFFFFFFFFFFFFFFFFFF000000FF00FF00FF000000FF000000FF000000FF000000FF000000FFFFFFFFFFFFFFFFFF0000FFFF0000FF
310
FF0000FFFF000000FF000000FF000000FF000000FF000000FF000000FF000000FF000000FF000000FF000000FF000000FFFFFFFFFF000000FF000000FFFFFFFFFF0000FFFF00FF00FFFFFFFFFFFFFFFFFFFFFFFFFF000000FF00FF00FF000000FF000000FF000000FF000000FF000000FFFFFFFFFFFFFFFFFF0000FFFF00FF
310
00FF0000FFFF000000FF000000FF000000FF000000FF000000FF000000FF000000FF000000FF000000FF000000FF000000FFFFFFFFFF000000FF000000FFFFFFFFFF0000FFFF00FF00FFFFFFFFFFFFFFFFFFFFFFFFFF000000FF00FF00FF000000FF000000FF000000FF000000FF000000FFFFFFFFFFFFFFFFFF0000FFFF00
310
FF00FF0000FFFF000000FF000000FF000000FF000000FF000000FF000000FF000000FF000000FF000000FF000000FF000000FFFFFFFFFF000000FF000000FFFFFFFFFF0000FFFF0000FFFFFFFFFFFFFFFFFFFFFFFFFFFF000000FF00FF00FF000000FF000000FF000000FF000000FF000000FFFFFFFFFFFFFFFFFF0000FFFF
310
0000FFFF0000FFFF000000FF000000FF000000FF000000FF000000FF000000FF000000FF000000FF000000FF000000FF000000FFFFFFFFFF000000FF000000FFFFFFFFFF0000FFFF0000FFFFFFFFFFFF000000FFFFFFFFFF000000FF00FF00FF000000FF000000FF000000FF000000FF000000FFFFFFFFFF000000FF0000FF
310
FF00FF00FF0000FFFF000000FF000000FF000000FF000000FF000000FF000000FF000000FF000000FF000000FF000000FF000000FFFFFFFFFF000000FF000000FF000000FF0000FFFF0000FFFFFFFFFFFF000000FFFFFFFFFF000000FF00FF00FF000000FF000000FF000000FF000000FF000000FFFFFFFFFF000000FF0000
310
FFFF00FF00FF0000FFFF000000FF000000FF000000FF000000FF000000FF000000FF000000FF000000FF000000FF000000FF000000FFFFFFFFFF000000FF000000FF000000FF0000FFFF0000FFFFFFFFFFFF000000FFFFFFFFFF000000FF00FF00FF000000FF000000FF000000FF000000FF000000FFFFFFFFFF000000FF00
310
00FFFF00FF00FF0000FFFFFFFFFFFFFFFFFFFFFFFFFFFFFFFFFFFFFFFFFFFFFFFFFFFFFFFFFFFFFFFFFFFFFFFFFFFFFFFFFFFFFFFFFFFFFFFFFFFF000000FF000000FF000000FF0000FFFF0000FFFF0000FFFFFFFFFFFFFFFFFFFFFFFFFFFF00FF00FFFFFFFFFFFFFFFFFFFFFFFFFFFFFFFFFFFFFFFFFFFFFFFFFFFFFFFFFF
310
0000FFFF00FF00FF0000FFFF000000FF000000FF000000FF000000FF000000FF000000FF000000FF000000FF000000FF000000FF000000FFFFFFFFFF000000FF000000FF000000FF0000FFFF00FF00FF0000FFFF000000FFFFFFFFFF000000FF00FF00FF000000FF000000FF000000FF000000FF000000FFFFFFFFFF000000
310
FF0000FFFF00FF00FF0000FFFFFFFFFFFFFFFFFFFFFFFFFFFFFFFFFFFFFFFFFFFFFFFFFFFFFFFFFFFFFFFFFFFFFFFFFFFFFFFFFFFFFFFFFFFFFFFFFFFF000000FF000000FF000000FF0000FFFF00FF00FF0000FFFFFFFFFFFFFFFFFFFFFFFFFFFF00FF00FFFFFFFFFFFFFFFFFFFFFFFFFFFFFFFFFFFFFFFFFFFFFFFFFFFFFF
310
FFFF0000FFFF00FF00FF0000FFFF000000FF000000FF000000FF000000FF000000FF000000FF000000FF000000FF000000FF000000FF000000FF000000FF000000FF000000FF000000FF000000FF000000FF000000FF000000FF000000FF000000FF00FF00FF000000FF000000FF000000FF000000FF000000FF000000FF00
310
0000FF000000FF000000FF000000FF000000FF000000FF000000FF000000FF000000FF000000FF000000FF000000FF000000FF000000FF000000FF000000FF000000FF000000FF000000FF000000FF000000FF000000FF000000FF000000FF000000FF000000FF000000FF000000FF000000FF000000FF000000FF000000FF
310
000000FF000000FF000000FF000000FF000000FF000000FF000000FF000000FF000000FF000000FF000000FF000000FF000000FF000000FF000000FF000000FF000000FF000000FF000000FF000000FF000000FF000000FF000000FF000000FF000000FF000000FF000000FF000000FF000000FF000000FF000000FF000000
310
FF000000FF000000FF000000FF000000FF000000FF000000FF000000FF000000FF000000FF000000FF000000FF000000FF000000FF000000FF000000FF000000FF000000FF000000FF000000FF000000FF000000FF000000FF000000FF000000FF000000FF000000FF000000FF000000FF000000FF000000FF000000FF0000
310
00FF000000FF000000FF000000FF000000FF000000FF000000FF000000FF000000FF000000FF000000FF000000FF000000FF000000FF000000FF000000FF000000FF000000FF000000FF000000FF000000FF000000FF000000FF000000FF000000FF000000FF000000FF000000FF000000FF000000FF000000FF000000FF00
310
0000FF000000FF000000FF000000FF000000FF000000FF000000FF000000FF000000FF000000FF000000FF000000FF000000FF000000FF000000FF000000FF000000FF000000FF000000FF000000FF000000FF000000FF000000FF000000FF000000FF000000FF000000FF000000FF000000FF000000FF000000FF000000FF
310
000000FF000000FF000000FF000000FF000000FF000000FF000000FF000000FF000000FF000000FF000000FF000000FF000000FF000000FF000000FF000000FF000000FF000000FF
102
{BLKREFS
331
3C41
102
}
1001
AcDbDynamicBlockGUID
1000
{7097DAF0-5513-4448-BFC9-D35888DB2EB3}
1001
ACAD
1000
DesignCenter Data
1002
{
1070
     1
1070
     4
1002
}
  0
BLOCK_RECORD
  5
2F9E
330
1
100
AcDbSymbolTableRecord
100
AcDbBlockTableRecord
  2
ファンカバ－_F2S-15_M
340
0
310
28000000200000002000000001002000000000000010000001000000010000000000000000000000000000FF000000FF000000FF000000FF000000FF000000FF000000FF000000FF000000FF000000FF000000FF000000FF000000FF000000FF000000FF000000FF000000FF000000FF000000FF000000FF000000FF000000
310
FF000000FF000000FF000000FF000000FF000000FF000000FF000000FF000000FF000000FF000000FF000000FF000000FF000000FF000000FF000000FF000000FF000000FF0000FFFF0000FFFF0000FFFF0000FFFF0000FFFF0000FFFF0000FFFF0000FFFF0000FFFF0000FFFF0000FFFF0000FFFF0000FFFF0000FFFF0000
310
FFFF0000FFFF0000FFFF0000FFFF000000FF000000FF000000FF000000FF000000FF000000FF000000FF000000FF000000FF000000FF000000FF000000FF000000FF0000FFFF0000FFFF000000FF000000FF000000FF000000FF000000FF000000FF000000FF000000FF000000FF000000FF000000FF000000FF000000FF00
310
0000FF000000FF000000FF0000FFFF0000FFFF000000FF000000FF000000FF000000FF000000FF000000FF000000FF000000FF000000FF000000FF000000FF0000FFFF000000FF000000FF000000FF000000FF000000FF000000FF000000FF000000FF000000FF000000FF000000FF000000FF000000FF000000FF000000FF
310
000000FF000000FF000000FF000000FF000000FF0000FFFF000000FF000000FF000000FF000000FF000000FF000000FF000000FF000000FF000000FF0000FFFF000000FF000000FF000000FF000000FF000000FF000000FF000000FF000000FF000000FF000000FF000000FF000000FF000000FF000000FF000000FF000000
310
FF000000FF000000FF000000FF000000FF000000FF000000FF0000FFFF000000FF000000FF000000FF000000FF000000FF000000FF000000FF0000FFFF000000FF000000FF000000FF000000FF000000FF000000FF000000FF000000FF000000FF000000FF000000FF000000FF000000FF000000FF000000FF000000FF0000
310
00FF000000FF000000FF000000FF000000FF000000FF000000FF000000FF0000FFFF000000FF000000FF000000FF000000FF000000FF0000FFFF000000FF000000FF000000FF000000FF000000FF000000FF000000FF000000FF000000FF000000FF000000FF000000FF000000FF000000FF000000FF000000FF000000FF00
310
0000FF000000FF000000FF000000FF000000FF000000FF000000FF000000FF000000FF0000FFFF000000FF000000FF000000FF0000FFFF0000FFFF000000FF000000FF000000FF000000FF000000FF000000FF000000FF000000FF000000FF000000FF000000FF000000FF000000FF000000FF000000FF000000FF000000FF
310
000000FF000000FF000000FF000000FF000000FF000000FF000000FF000000FF000000FF0000FFFF0000FFFF000000FF000000FF0000FFFF000000FF000000FF000000FF000000FF000000FF000000FF000000FF000000FF000000FF000000FF000000FF000000FF000000FF000000FF000000FF000000FF000000FF000000
310
FF000000FF000000FF000000FF000000FF000000FF000000FF000000FF000000FF000000FF000000FF0000FFFF000000FF000000FF0000FFFF000000FF000000FF000000FF000000FF000000FF000000FF000000FF000000FF000000FF000000FF000000FF000000FF000000FF000000FF000000FF000000FF000000FF0000
310
00FF000000FF000000FF000000FF000000FF000000FF000000FF000000FF000000FF000000FF000000FF0000FFFF000000FF000000FF0000FFFF000000FF000000FF000000FF000000FF000000FF000000FF000000FF000000FF000000FF000000FF000000FF000000FF000000FF000000FF000000FF000000FF000000FF00
310
0000FF000000FF000000FF000000FF000000FF000000FF000000FF000000FF000000FF000000FF000000FF0000FFFF000000FF000000FF0000FFFF000000FF000000FF000000FF000000FF000000FF000000FF000000FF000000FF000000FF000000FF000000FF000000FF000000FF000000FF000000FF000000FF000000FF
310
000000FF000000FF000000FF000000FF000000FF000000FF000000FF000000FF000000FF000000FF000000FF0000FFFF000000FF000000FF0000FFFF000000FF000000FF000000FF000000FF000000FF000000FF000000FF000000FF000000FF000000FF000000FF000000FF000000FF000000FF000000FF000000FF000000
310
FF000000FF000000FF000000FF000000FF000000FF000000FF000000FF000000FF000000FF000000FF000000FF0000FFFF000000FF000000FF0000FFFF000000FF000000FF000000FF000000FF000000FF000000FF000000FF000000FF000000FF000000FF000000FF000000FF000000FF000000FF000000FF000000FF0000
310
00FF000000FF000000FF000000FF000000FF000000FF000000FF000000FF000000FF000000FF000000FF000000FF0000FFFF000000FF000000FF0000FFFF000000FF000000FF000000FF000000FF000000FF000000FF000000FF000000FF000000FF000000FF000000FF000000FF000000FF000000FF000000FF000000FF00
310
0000FF000000FF000000FF000000FF000000FF000000FF000000FF000000FF000000FF000000FF000000FF000000FF0000FFFF000000FF000000FF0000FFFF000000FF000000FF000000FF000000FF000000FF000000FF000000FF000000FF000000FF000000FF000000FF000000FF000000FF000000FF000000FF000000FF
310
000000FF000000FF000000FF000000FF000000FF000000FF000000FF000000FF000000FF000000FF000000FF000000FF0000FFFF000000FF000000FF0000FFFF000000FF000000FF000000FF000000FF000000FF000000FF000000FF000000FF000000FF000000FF000000FF000000FF000000FF000000FF000000FF000000
310
FF000000FF000000FF000000FF000000FF000000FF000000FF000000FF000000FF000000FF000000FF000000FF000000FF0000FFFF000000FF000000FF0000FFFF000000FF000000FF000000FF000000FF000000FF000000FF000000FF000000FF000000FF000000FF000000FF000000FF000000FF000000FF000000FF0000
310
00FF000000FF000000FF000000FF000000FF000000FF000000FF000000FF000000FF000000FF000000FF000000FF000000FF0000FFFF000000FF000000FF0000FFFF000000FF000000FF000000FF000000FF000000FF000000FF000000FF000000FF000000FF000000FF000000FF000000FF000000FF000000FF000000FF00
310
0000FF000000FF000000FF000000FF000000FF000000FF000000FF000000FF000000FF000000FF000000FF000000FF000000FF0000FFFF000000FF000000FF0000FFFF000000FF000000FF000000FF000000FF000000FF000000FF000000FF000000FF000000FF000000FF000000FF000000FF000000FF000000FF000000FF
310
000000FF000000FF000000FF000000FF000000FF000000FF000000FF000000FF000000FF000000FF000000FF000000FF000000FF0000FFFF000000FF000000FF0000FFFF000000FF000000FF000000FF000000FF000000FF000000FF000000FF000000FF000000FF000000FF000000FF000000FF000000FF000000FF000000
310
FF000000FF000000FF000000FF000000FF000000FF000000FF000000FF000000FF000000FF000000FF000000FF000000FF000000FF0000FFFF000000FF000000FF0000FFFF000000FF000000FF000000FF000000FF000000FF000000FF000000FF000000FF000000FF000000FF000000FF000000FF000000FF000000FF0000
310
00FF000000FF000000FF000000FF000000FF000000FF000000FF000000FF000000FF000000FF000000FF000000FF000000FF000000FF0000FFFF000000FF000000FF0000FFFF000000FF000000FF000000FF000000FF000000FF000000FF000000FF000000FF000000FF000000FF000000FF000000FF000000FF000000FF00
310
0000FF000000FF000000FF000000FF000000FF000000FF000000FF000000FF000000FF000000FF000000FF000000FF000000FF000000FF0000FFFF000000FF000000FF0000FFFF000000FF000000FF000000FF000000FF000000FF000000FF000000FF000000FF000000FF000000FF000000FF000000FF000000FF000000FF
310
000000FF000000FF000000FF000000FF000000FF000000FF000000FF000000FF000000FF000000FF000000FF000000FF000000FF000000FF0000FFFF000000FF000000FF0000FFFF0000FFFF000000FF000000FF000000FF000000FF000000FF000000FF000000FF000000FF000000FF000000FF000000FF000000FF000000
310
FF000000FF000000FF000000FF000000FF000000FF000000FF000000FF000000FF000000FF000000FF000000FF000000FF000000FF0000FFFF0000FFFF000000FF000000FF000000FF0000FFFF000000FF000000FF000000FF000000FF000000FF000000FF000000FF000000FF000000FF000000FF000000FF000000FF0000
310
00FF000000FF000000FF000000FF000000FF000000FF000000FF000000FF000000FF000000FF000000FF000000FF000000FF000000FF0000FFFF000000FF000000FF000000FF000000FF000000FF0000FFFF000000FF000000FF000000FF000000FF000000FF000000FF000000FF000000FF000000FF000000FF000000FF00
310
0000FF000000FF000000FF000000FF000000FF000000FF000000FF000000FF000000FF000000FF000000FF000000FF000000FF0000FFFF000000FF000000FF000000FF000000FF000000FF000000FF000000FF0000FFFF000000FF000000FF000000FF000000FF000000FF000000FF000000FF000000FF000000FF000000FF
310
000000FF000000FF000000FF000000FF000000FF000000FF000000FF000000FF000000FF000000FF000000FF000000FF0000FFFF000000FF000000FF000000FF000000FF000000FF000000FF000000FF000000FF000000FF0000FFFF000000FF000000FF000000FF000000FF000000FF000000FF000000FF000000FF000000
310
FF000000FF000000FF000000FF000000FF000000FF000000FF000000FF000000FF000000FF000000FF000000FF0000FFFF000000FF000000FF000000FF000000FF000000FF000000FF000000FF000000FF000000FF000000FF000000FF0000FFFF0000FFFF000000FF000000FF000000FF000000FF000000FF000000FF0000
310
00FF000000FF000000FF000000FF000000FF000000FF000000FF000000FF000000FF000000FF0000FFFF0000FFFF000000FF000000FF000000FF000000FF000000FF000000FF000000FF000000FF000000FF000000FF000000FF000000FF000000FF0000FFFF0000FFFF0000FFFF0000FFFF0000FFFF0000FFFF0000FFFF00
310
00FFFF0000FFFF0000FFFF0000FFFF0000FFFF0000FFFF0000FFFF0000FFFF0000FFFF0000FFFF0000FFFF000000FF000000FF000000FF000000FF000000FF000000FF000000FF000000FF000000FF000000FF000000FF000000FF000000FF000000FF000000FF000000FF000000FF000000FF000000FF000000FF000000FF
310
000000FF000000FF000000FF000000FF000000FF000000FF000000FF000000FF000000FF000000FF000000FF000000FF000000FF000000FF000000FF000000FF000000FF000000FF
  0
BLOCK_RECORD
  5
31A1
102
{ACAD_XDICTIONARY
360
31A2
102
}
330
1
100
AcDbSymbolTableRecord
100
AcDbBlockTableRecord
  2
ファンカバ－ブレーキ_F2S-15_0005-01
340
0
102
{BLKREFS
331
3261
102
}
1001
AcDbDynamicBlockGUID
1000
{B0675341-5482-4694-AEF2-5E7B5E546ED3}
  0
BLOCK_RECORD
  5
31BC
102
{ACAD_XDICTIONARY
360
31BD
102
}
330
1
100
AcDbSymbolTableRecord
100
AcDbBlockTableRecord
  2
ファンカバ－ブレーキ_F2S-15_0006-01
340
0
102
{BLKREFS
331
3262
102
}
1001
AcDbDynamicBlockGUID
1000
{48AA324A-DAA9-47EA-B68A-4A24DADE6D3F}
  0
BLOCK_RECORD
  5
31D7
102
{ACAD_XDICTIONARY
360
31D8
102
}
330
1
100
AcDbSymbolTableRecord
100
AcDbBlockTableRecord
  2
ファンカバ－ブレーキ_F2S-15_0007-01
340
0
102
{BLKREFS
331
3263
102
}
1001
AcDbDynamicBlockGUID
1000
{884C2A03-AA9A-488E-9DFD-FE8016EF97C0}
  0
BLOCK_RECORD
  5
3264
330
1
100
AcDbSymbolTableRecord
100
AcDbBlockTableRecord
  2
*D19
340
0
  0
BLOCK_RECORD
  5
3270
330
1
100
AcDbSymbolTableRecord
100
AcDbBlockTableRecord
  2
*D20
340
0
  0
BLOCK_RECORD
  5
327C
330
1
100
AcDbSymbolTableRecord
100
AcDbBlockTableRecord
  2
*D21
340
0
  0
BLOCK_RECORD
  5
3288
330
1
100
AcDbSymbolTableRecord
100
AcDbBlockTableRecord
  2
*D22
340
0
  0
BLOCK_RECORD
  5
3294
330
1
100
AcDbSymbolTableRecord
100
AcDbBlockTableRecord
  2
*D23
340
0
  0
BLOCK_RECORD
  5
32A0
330
1
100
AcDbSymbolTableRecord
100
AcDbBlockTableRecord
  2
*D24
340
0
  0
BLOCK_RECORD
  5
32AC
330
1
100
AcDbSymbolTableRecord
100
AcDbBlockTableRecord
  2
*D25
340
0
  0
BLOCK_RECORD
  5
32C6
330
1
100
AcDbSymbolTableRecord
100
AcDbBlockTableRecord
  2
*D26
340
0
  0
BLOCK_RECORD
  5
32D2
330
1
100
AcDbSymbolTableRecord
100
AcDbBlockTableRecord
  2
*D27
340
0
  0
BLOCK_RECORD
  5
32DE
330
1
100
AcDbSymbolTableRecord
100
AcDbBlockTableRecord
  2
*D28
340
0
  0
BLOCK_RECORD
  5
32EC
330
1
100
AcDbSymbolTableRecord
100
AcDbBlockTableRecord
  2
*D29
340
0
  0
BLOCK_RECORD
  5
32F8
330
1
100
AcDbSymbolTableRecord
100
AcDbBlockTableRecord
  2
*D30
340
0
  0
BLOCK_RECORD
  5
3304
330
1
100
AcDbSymbolTableRecord
100
AcDbBlockTableRecord
  2
*D31
340
0
  0
BLOCK_RECORD
  5
3311
330
1
100
AcDbSymbolTableRecord
100
AcDbBlockTableRecord
  2
*D32
340
0
  0
BLOCK_RECORD
  5
331D
330
1
100
AcDbSymbolTableRecord
100
AcDbBlockTableRecord
  2
*D33
340
0
  0
BLOCK_RECORD
  5
3329
330
1
100
AcDbSymbolTableRecord
100
AcDbBlockTableRecord
  2
*D34
340
0
  0
BLOCK_RECORD
  5
3335
330
1
100
AcDbSymbolTableRecord
100
AcDbBlockTableRecord
  2
*D35
340
0
  0
BLOCK_RECORD
  5
3341
330
1
100
AcDbSymbolTableRecord
100
AcDbBlockTableRecord
  2
*D36
340
0
  0
BLOCK_RECORD
  5
334D
330
1
100
AcDbSymbolTableRecord
100
AcDbBlockTableRecord
  2
*D37
340
0
  0
BLOCK_RECORD
  5
3359
330
1
100
AcDbSymbolTableRecord
100
AcDbBlockTableRecord
  2
*D38
340
0
  0
BLOCK_RECORD
  5
3365
330
1
100
AcDbSymbolTableRecord
100
AcDbBlockTableRecord
  2
*D39
340
0
  0
BLOCK_RECORD
  5
3371
330
1
100
AcDbSymbolTableRecord
100
AcDbBlockTableRecord
  2
*D40
340
0
  0
BLOCK_RECORD
  5
337D
330
1
100
AcDbSymbolTableRecord
100
AcDbBlockTableRecord
  2
*D41
340
0
  0
BLOCK_RECORD
  5
3389
330
1
100
AcDbSymbolTableRecord
100
AcDbBlockTableRecord
  2
*D42
340
0
  0
BLOCK_RECORD
  5
3395
330
1
100
AcDbSymbolTableRecord
100
AcDbBlockTableRecord
  2
*D43
340
0
  0
BLOCK_RECORD
  5
33A2
330
1
100
AcDbSymbolTableRecord
100
AcDbBlockTableRecord
  2
*D44
340
0
  0
BLOCK_RECORD
  5
33B0
330
1
100
AcDbSymbolTableRecord
100
AcDbBlockTableRecord
  2
*D45
340
0
  0
BLOCK_RECORD
  5
3AB9
330
1
100
AcDbSymbolTableRecord
100
AcDbBlockTableRecord
  2
A$Cdecd00d5
340
0
102
{BLKREFS
331
3B9A
102
}
  0
BLOCK_RECORD
  5
3B9B
102
{ACAD_XDICTIONARY
360
3B9C
102
}
330
1
100
AcDbSymbolTableRecord
100
AcDbBlockTableRecord
  2
A$C0221c00d
340
0
102
{BLKREFS
331
3C39
102
}
  0
BLOCK_RECORD
  5
3C42
102
{ACAD_XDICTIONARY
360
3C43
102
}
330
1
100
AcDbSymbolTableRecord
100
AcDbBlockTableRecord
  2
A$Cd9f2b5d0
340
0
102
{BLKREFS
331
3CBA
102
}
  0
BLOCK_RECORD
  5
3CCF
330
1
100
AcDbSymbolTableRecord
100
AcDbBlockTableRecord
  2
*D58
340
0
  0
ENDTAB
  0
ENDSEC
  0
SECTION
  2
BLOCKS
  0
BLOCK
  5
5D
330
2
100
AcDbEntity
  8
0
100
AcDbBlockBegin
  2
*MODEL_SPACE
 70
     0
 10
0.0
 20
0.0
 30
0.0
  3
*MODEL_SPACE
  1

  0
ENDBLK
  5
5F
330
2
100
AcDbEntity
  8
0
100
AcDbBlockEnd
  0
BLOCK
  5
3F27
330
3F25
100
AcDbEntity
 67
     1
  8
0
100
AcDbBlockBegin
  2
*Paper_Space
 70
     0
 10
0.0
 20
0.0
 30
0.0
  3
*Paper_Space
  1

  0
ENDBLK
  5
3F28
330
3F25
100
AcDbEntity
 67
     1
  8
0
100
AcDbBlockEnd
  0
BLOCK
  5
4B0
330
4AC
100
AcDbEntity
  8
0
100
AcDbBlockBegin
  2
黒丸矢印1
 70
     0
 10
0.0
 20
0.0
 30
0.0
  3
黒丸矢印1
  1

  0
HATCH
  5
4AD
330
4AC
100
AcDbEntity
  8
0
100
AcDbHatch
 10
0.0
 20
0.0
 30
0.0
210
0.0
220
0.0
230
1.0
  2
SOLID
 70
     1
 71
     1
 91
        1
 92
        7
 72
     1
 73
     1
 93
        2
 10
-0.25
 20
0.0
 42
1.0
 10
0.25
 20
0.0
 42
1.0
 97
        1
330
4AE
 75
     0
 76
     1
 47
0.0031599728
 98
        1
 10
-0.0919668375711354
 20
0.0618998464179867
  0
CIRCLE
  5
4AE
102
{ACAD_REACTORS
330
4AD
102
}
330
4AC
100
AcDbEntity
  8
0
100
AcDbCircle
 10
0.0
 20
0.0
 30
0.0
 40
0.25
  0
LINE
  5
4AF
330
4AC
100
AcDbEntity
  8
0
100
AcDbLine
 10
0.0
 20
0.0
 30
0.0
 11
-1.0
 21
0.0
 31
0.0
  0
ENDBLK
  5
4B1
330
4AC
100
AcDbEntity
  8
0
100
AcDbBlockEnd
  0
BLOCK
  5
2E59
330
2E56
100
AcDbEntity
  8
0
100
AcDbBlockBegin
  2
F2F-18L_0002
 70
     0
 10
0.0
 20
0.0
 30
0.0
  3
F2F-18L_0002
  1

  0
LINE
  5
35D6
330
2E56
100
AcDbEntity
  8
CENTER
100
AcDbLine
 10
-2.3795523411
 20
0.0
 30
0.0
 11
2.3795523411
 21
0.0
 31
0.0
  0
LINE
  5
35D7
330
2E56
100
AcDbEntity
  8
0
100
AcDbLine
 10
70.6902166045
 20
-45.0
 30
0.0
 11
144.8703
 21
-45.0
 31
0.0
  0
ARC
  5
35D8
330
2E56
100
AcDbEntity
  8
0
100
AcDbCircle
 10
70.6902166045
 20
-47.0
 30
0.0
 40
2.0
100
AcDbArc
 50
90.0
 51
179.0
  0
LINE
  5
35D9
330
2E56
100
AcDbEntity
  8
0
100
AcDbLine
 10
72.3170047144
 20
45.0
 30
0.0
 11
144.8703
 21
45.0
 31
0.0
  0
LINE
  5
35DA
330
2E56
100
AcDbEntity
  8
0
100
AcDbLine
 10
-43.6518568834
 20
-48.0
 30
0.0
 11
-44.4897
 21
0.0
 31
0.0
  0
LINE
  5
35DB
330
2E56
100
AcDbEntity
  8
0
100
AcDbLine
 10
68.6724568834
 20
-48.0
 30
0.0
 11
68.969802253
 21
-30.9650951871
 31
0.0
  0
LINE
  5
35DC
330
2E56
100
AcDbEntity
  8
0
100
AcDbLine
 10
-43.8787727275
 20
35.0
 30
0.0
 11
68.8993727275
 21
35.0
 31
0.0
  0
LINE
  5
35DE
330
2E56
100
AcDbEntity
  8
0
100
AcDbLine
 10
-43.8787727275
 20
35.0
 30
0.0
 11
-44.4897
 21
0.0
 31
0.0
  0
LINE
  5
35DF
330
2E56
100
AcDbEntity
  8
0
100
AcDbLine
 10
68.8993727275
 20
35.0
 30
0.0
 11
68.969802253
 21
30.9650951871
 31
0.0
  0
LINE
  5
35E0
330
2E56
100
AcDbEntity
  8
0
100
AcDbLine
 10
-43.6518568834
 20
-48.0
 30
0.0
 11
68.6724568834
 21
-48.0
 31
0.0
  0
LINE
  5
35E1
330
2E56
100
AcDbEntity
  8
0
100
AcDbLine
 10
144.8703
 20
-29.0
 30
0.0
 11
61.9694976433
 21
-29.0
 31
0.0
  0
ARC
  5
35E2
330
2E56
100
AcDbEntity
  8
0
100
AcDbCircle
 10
70.9694976433
 20
-31.0
 30
0.0
 40
2.0
100
AcDbArc
 50
90.0
 51
179.0
  0
LINE
  5
35E3
330
2E56
100
AcDbEntity
  8
0
100
AcDbLine
 10
144.8703
 20
29.0
 30
0.0
 11
61.9694976433
 21
29.0
 31
0.0
  0
ARC
  5
35E4
330
2E56
100
AcDbEntity
  8
0
100
AcDbCircle
 10
70.9694976433
 20
31.0
 30
0.0
 40
2.0
100
AcDbArc
 50
181.0
 51
270.0
  0
ARC
  5
35E5
330
2E56
100
AcDbEntity
  8
0
100
AcDbCircle
 10
61.9694976433
 20
-31.0
 30
0.0
 40
2.0
100
AcDbArc
 50
90.0
 51
179.0
  0
ARC
  5
35E6
330
2E56
100
AcDbEntity
  8
0
100
AcDbCircle
 10
61.9694976433
 20
31.0
 30
0.0
 40
2.0
100
AcDbArc
 50
181.0
 51
270.0
  0
LINE
  5
35E7
330
2E56
100
AcDbEntity
  8
0
100
AcDbLine
 10
-33.7876061247
 20
5.0
 30
0.0
 11
-13.4554737513
 21
5.0
 31
0.0
  0
LINE
  5
35E8
330
2E56
100
AcDbEntity
  8
0
100
AcDbLine
 10
-25.6592533815
 20
48.0
 30
0.0
 11
-25.6592533815
 21
7.5376024159
 31
0.0
  0
LINE
  5
35E9
330
2E56
100
AcDbEntity
  8
0
100
AcDbLine
 10
-13.4554737513
 20
5.0
 30
0.0
 11
-13.4554737513
 21
48.0
 31
0.0
  0
ARC
  5
35EA
330
2E56
100
AcDbEntity
  8
0
100
AcDbCircle
 10
-25.6592533815
 20
-7.4623975841
 30
0.0
 40
15.0
100
AcDbArc
 50
69.4077044077
 51
90.0
  0
LINE
  5
35EB
330
2E56
100
AcDbEntity
  8
0
100
AcDbLine
 10
-18.731210389
 20
5.958397423
 30
0.0
 11
-20.3835167438
 21
6.5792049929
 31
0.0
  0
ARC
  5
35EC
330
2E56
100
AcDbEntity
  8
0
100
AcDbCircle
 10
-13.4554737513
 20
20.0
 30
0.0
 40
15.0
100
AcDbArc
 50
249.4077044077
 51
270.0
  0
ARC
  5
35ED
330
2E56
100
AcDbEntity
  8
0
100
AcDbCircle
 10
-33.7876061247
 20
12.0
 30
0.0
 40
7.0
100
AcDbArc
 50
270.0
 51
300.4144326901
  0
ARC
  5
35EE
330
2E56
100
AcDbEntity
  8
0
100
AcDbCircle
 10
-25.6592533815
 20
0.5376024159
 30
0.0
 40
7.0
100
AcDbArc
 50
90.0
 51
120.4144326901
  0
LINE
  5
35EF
330
2E56
100
AcDbEntity
  8
0
100
AcDbLine
 10
-29.203010476
 20
6.5743056267
 30
0.0
 11
-30.2438490302
 21
5.9632967892
 31
0.0
  0
LINE
  5
35F0
330
2E56
100
AcDbEntity
  8
0
100
AcDbLine
 10
38.4096242935
 20
5.0
 30
0.0
 11
38.4096242935
 21
48.0
 31
0.0
  0
LINE
  5
35F1
330
2E56
100
AcDbEntity
  8
0
100
AcDbLine
 10
50.6134039236
 20
48.0
 30
0.0
 11
50.6134039236
 21
7.5376024159
 31
0.0
  0
ARC
  5
35F2
330
2E56
100
AcDbEntity
  8
0
100
AcDbCircle
 10
50.6134039236
 20
0.5376024159
 30
0.0
 40
7.0
100
AcDbArc
 50
59.5855673099
 51
90.0
  0
LINE
  5
35F3
330
2E56
100
AcDbEntity
  8
0
100
AcDbLine
 10
58.7417566669
 20
5.0
 30
0.0
 11
38.4096242935
 21
5.0
 31
0.0
  0
ARC
  5
35F4
330
2E56
100
AcDbEntity
  8
0
100
AcDbCircle
 10
58.7417566669
 20
12.0
 30
0.0
 40
7.0
100
AcDbArc
 50
239.5855673099
 51
270.0
  0
LINE
  5
35F5
330
2E56
100
AcDbEntity
  8
0
100
AcDbLine
 10
54.1571610181
 20
6.5743056267
 30
0.0
 11
55.1979995724
 21
5.9632967892
 31
0.0
  0
ARC
  5
35F6
330
2E56
100
AcDbEntity
  8
0
100
AcDbCircle
 10
50.6134039236
 20
-7.4623975841
 30
0.0
 40
15.0
100
AcDbArc
 50
90.0
 51
110.5922955923
  0
ARC
  5
35F7
330
2E56
100
AcDbEntity
  8
0
100
AcDbCircle
 10
38.4096242935
 20
20.0
 30
0.0
 40
15.0
100
AcDbArc
 50
270.0
 51
290.5922955923
  0
LINE
  5
35F8
330
2E56
100
AcDbEntity
  8
0
100
AcDbLine
 10
43.6853609311
 20
5.958397423
 30
0.0
 11
45.337667286
 21
6.5792049929
 31
0.0
  0
LINE
  5
35F9
330
2E56
100
AcDbEntity
  8
0
100
AcDbLine
 10
38.4096242935
 20
-5.0
 30
0.0
 11
38.4096242935
 21
-47.5001713375
 31
0.0
  0
LINE
  5
35FA
330
2E56
100
AcDbEntity
  8
0
100
AcDbLine
 10
50.6134039236
 20
-47.5001713375
 30
0.0
 11
50.6134039236
 21
-7.5376024159
 31
0.0
  0
ARC
  5
35FB
330
2E56
100
AcDbEntity
  8
0
100
AcDbCircle
 10
38.4096242935
 20
-20.0
 30
0.0
 40
15.0
100
AcDbArc
 50
69.4077044077
 51
90.0
  0
LINE
  5
35FC
330
2E56
100
AcDbEntity
  8
0
100
AcDbLine
 10
58.7417566669
 20
-5.0
 30
0.0
 11
38.4096242935
 21
-5.0
 31
0.0
  0
ARC
  5
35FD
330
2E56
100
AcDbEntity
  8
0
100
AcDbCircle
 10
50.6134039236
 20
-0.5376024159
 30
0.0
 40
7.0
100
AcDbArc
 50
270.0
 51
300.4144326901
  0
ARC
  5
35FE
330
2E56
100
AcDbEntity
  8
0
100
AcDbCircle
 10
50.6134039236
 20
7.4623975841
 30
0.0
 40
15.0
100
AcDbArc
 50
249.4077044077
 51
270.0
  0
LINE
  5
35FF
330
2E56
100
AcDbEntity
  8
0
100
AcDbLine
 10
43.6853609311
 20
-5.958397423
 30
0.0
 11
45.337667286
 21
-6.5792049929
 31
0.0
  0
LINE
  5
3600
330
2E56
100
AcDbEntity
  8
0
100
AcDbLine
 10
54.1571610181
 20
-6.5743056267
 30
0.0
 11
55.1979995724
 21
-5.9632967892
 31
0.0
  0
ARC
  5
3601
330
2E56
100
AcDbEntity
  8
0
100
AcDbCircle
 10
58.7417566669
 20
-12.0
 30
0.0
 40
7.0
100
AcDbArc
 50
90.0
 51
120.4144326901
  0
LINE
  5
3602
330
2E56
100
AcDbEntity
  8
0
100
AcDbLine
 10
-13.4554737513
 20
-5.0
 30
0.0
 11
-13.4554737513
 21
-48.0
 31
0.0
  0
LINE
  5
3603
330
2E56
100
AcDbEntity
  8
0
100
AcDbLine
 10
-25.6592533815
 20
-48.0
 30
0.0
 11
-25.6592533815
 21
-7.5376024159
 31
0.0
  0
ARC
  5
3604
330
2E56
100
AcDbEntity
  8
0
100
AcDbCircle
 10
-25.6592533815
 20
-0.5376024159
 30
0.0
 40
7.0
100
AcDbArc
 50
239.5855673099
 51
270.0
  0
LINE
  5
3605
330
2E56
100
AcDbEntity
  8
0
100
AcDbLine
 10
-33.7876061247
 20
-5.0
 30
0.0
 11
-13.4554737513
 21
-5.0
 31
0.0
  0
ARC
  5
3606
330
2E56
100
AcDbEntity
  8
0
100
AcDbCircle
 10
-33.7876061247
 20
-12.0
 30
0.0
 40
7.0
100
AcDbArc
 50
59.5855673099
 51
90.0
  0
LINE
  5
3607
330
2E56
100
AcDbEntity
  8
0
100
AcDbLine
 10
-29.203010476
 20
-6.5743056267
 30
0.0
 11
-30.2438490302
 21
-5.9632967892
 31
0.0
  0
ARC
  5
3608
330
2E56
100
AcDbEntity
  8
0
100
AcDbCircle
 10
-25.6592533815
 20
7.4623975841
 30
0.0
 40
15.0
100
AcDbArc
 50
270.0
 51
290.5922955923
  0
ARC
  5
3609
330
2E56
100
AcDbEntity
  8
0
100
AcDbCircle
 10
-13.4554737513
 20
-20.0
 30
0.0
 40
15.0
100
AcDbArc
 50
90.0
 51
110.5922955923
  0
LINE
  5
360A
330
2E56
100
AcDbEntity
  8
0
100
AcDbLine
 10
-18.731210389
 20
-5.958397423
 30
0.0
 11
-20.3835167438
 21
-6.5792049929
 31
0.0
  0
LINE
  5
360B
330
2E56
100
AcDbEntity
  8
0
100
AcDbLine
 10
144.8703
 20
-45.0
 30
0.0
 11
144.8703
 21
-6.8718909966
 31
0.0
  0
LINE
  5
360D
330
2E56
100
AcDbEntity
  8
0
100
AcDbLine
 10
70.1064890231
 20
34.9869115258
 30
0.0
 11
70.3176900644
 21
43.0523538966
 31
0.0
  0
ARC
  5
360E
330
2E56
100
AcDbEntity
  8
0
100
AcDbCircle
 10
69.6066603606
 20
35.0
 30
0.0
 40
0.5
100
AcDbArc
 50
270.0
 51
358.5
  0
ARC
  5
360F
330
2E56
100
AcDbEntity
  8
0
100
AcDbCircle
 10
72.3170047144
 20
43.0
 30
0.0
 40
2.0
100
AcDbArc
 50
90.0
 51
178.5
  0
LINE
  5
3610
330
2E56
100
AcDbEntity
  8
0
100
AcDbLine
 10
69.6066603606
 20
34.5
 30
0.0
 11
68.90810026
 21
34.5
 31
0.0
  0
LINE
  5
3611
330
2E56
100
AcDbEntity
  8
0
100
AcDbLine
 10
-43.6518568834
 20
48.0
 30
0.0
 11
-43.8787727275
 21
35.0
 31
0.0
  0
LINE
  5
3612
330
2E56
100
AcDbEntity
  8
0
  6
Continuous
100
AcDbLine
 10
-43.6518568834
 20
48.0
 30
0.0
 11
68.6724568834
 21
48.0
 31
0.0
  0
LINE
  5
3613
330
2E56
100
AcDbEntity
  8
0
100
AcDbLine
 10
68.6724568834
 20
48.0
 30
0.0
 11
68.8993727275
 21
35.0
 31
0.0
  0
LINE
  5
3614
330
2E56
100
AcDbEntity
  8
HIDS
100
AcDbLine
 10
-30.5
 20
-10.0
 30
0.0
 11
-30.5
 21
-48.0
 31
0.0
  0
LINE
  5
3615
330
2E56
100
AcDbEntity
  8
HIDS
100
AcDbLine
 10
-40.5
 20
-10.0
 30
0.0
 11
-40.5
 21
-48.0
 31
0.0
  0
LINE
  5
3616
330
2E56
100
AcDbEntity
  8
HIDS
100
AcDbLine
 10
-31.200012
 20
35.0
 30
0.0
 11
-31.200012
 21
-48.0
 31
0.0
  0
LINE
  5
3617
330
2E56
100
AcDbEntity
  8
HIDS
100
AcDbLine
 10
-39.799988
 20
35.0
 30
0.0
 11
-39.799988
 21
-48.0
 31
0.0
  0
LINE
  5
3618
330
2E56
100
AcDbEntity
  8
CENTER
100
AcDbLine
 10
-35.5
 20
53.248291
 30
0.0
 11
-35.5
 21
-52.821869
 31
0.0
  0
LINE
  5
3619
330
2E56
100
AcDbEntity
  8
CENTER
100
AcDbLine
 10
0.0
 20
55.9414731563
 30
0.0
 11
0.0
 21
-55.9414731563
 31
0.0
  0
LINE
  5
361A
330
2E56
100
AcDbEntity
  8
HIDS
  6
sekkei_H
100
AcDbLine
 10
-30.25
 20
35.0
 30
0.0
 11
-30.25
 21
48.0
 31
0.0
  0
LINE
  5
361B
330
2E56
100
AcDbEntity
  8
HIDS
  6
sekkei_H
100
AcDbLine
 10
-40.75
 20
35.0
 30
0.0
 11
-40.75
 21
48.0
 31
0.0
  0
LINE
  5
361C
330
2E56
100
AcDbEntity
  8
HIDS
100
AcDbLine
 10
-40.5
 20
10.0
 30
0.0
 11
-30.5
 21
10.0
 31
0.0
  0
LINE
  5
361D
330
2E56
100
AcDbEntity
  8
HIDS
100
AcDbLine
 10
-40.5
 20
-10.0
 30
0.0
 11
-30.5
 21
-10.0
 31
0.0
  0
LINE
  5
361E
330
2E56
100
AcDbEntity
  8
HIDS
100
AcDbLine
 10
-40.5
 20
35.0
 30
0.0
 11
-40.5
 21
10.0
 31
0.0
  0
LINE
  5
361F
330
2E56
100
AcDbEntity
  8
HIDS
100
AcDbLine
 10
-30.5
 20
35.0
 30
0.0
 11
-30.5
 21
10.0
 31
0.0
  0
LINE
  5
3620
330
2E56
100
AcDbEntity
  8
HIDS
100
AcDbLine
 10
65.5
 20
-10.0
 30
0.0
 11
65.5
 21
-48.0
 31
0.0
  0
LINE
  5
3621
330
2E56
100
AcDbEntity
  8
HIDS
100
AcDbLine
 10
55.5
 20
-10.0
 30
0.0
 11
55.5
 21
-48.0
 31
0.0
  0
LINE
  5
3622
330
2E56
100
AcDbEntity
  8
HIDS
100
AcDbLine
 10
56.200012
 20
35.0
 30
0.0
 11
56.200012
 21
-48.0
 31
0.0
  0
LINE
  5
3623
330
2E56
100
AcDbEntity
  8
HIDS
100
AcDbLine
 10
64.799988
 20
35.0
 30
0.0
 11
64.799988
 21
-48.0
 31
0.0
  0
LINE
  5
3624
330
2E56
100
AcDbEntity
  8
CENTER
100
AcDbLine
 10
60.5
 20
53.248291
 30
0.0
 11
60.5
 21
-52.821869
 31
0.0
  0
LINE
  5
3625
330
2E56
100
AcDbEntity
  8
HIDS
  6
sekkei_H
100
AcDbLine
 10
65.75
 20
35.0
 30
0.0
 11
65.75
 21
48.0
 31
0.0
  0
LINE
  5
3626
330
2E56
100
AcDbEntity
  8
HIDS
  6
sekkei_H
100
AcDbLine
 10
55.25
 20
35.0
 30
0.0
 11
55.25
 21
48.0
 31
0.0
  0
LINE
  5
3627
330
2E56
100
AcDbEntity
  8
HIDS
100
AcDbLine
 10
55.5
 20
35.0
 30
0.0
 11
55.5
 21
10.0
 31
0.0
  0
LINE
  5
3628
330
2E56
100
AcDbEntity
  8
HIDS
100
AcDbLine
 10
65.5
 20
35.0
 30
0.0
 11
65.5
 21
10.0
 31
0.0
  0
LINE
  5
3629
330
2E56
100
AcDbEntity
  8
HIDS
100
AcDbLine
 10
55.5
 20
-10.0
 30
0.0
 11
65.5
 21
-10.0
 31
0.0
  0
LINE
  5
362A
330
2E56
100
AcDbEntity
  8
HIDS
100
AcDbLine
 10
55.5
 20
10.0
 30
0.0
 11
65.5
 21
10.0
 31
0.0
  0
LINE
  5
362B
330
2E56
100
AcDbEntity
  8
0
100
AcDbLine
 10
-9.31134
 20
-49.0
 30
0.0
 11
9.31134
 21
-49.0
 31
0.0
  0
LINE
  5
362C
330
2E56
100
AcDbEntity
  8
0
100
AcDbLine
 10
-11.5
 20
-79.0
 30
0.0
 11
9.0
 21
-79.0
 31
0.0
  0
LINE
  5
362D
330
2E56
100
AcDbEntity
  8
0
100
AcDbLine
 10
-8.485291
 20
-79.0
 30
0.0
 11
-8.485291
 21
-55.0
 31
0.0
  0
LINE
  5
362E
330
2E56
100
AcDbEntity
  8
0
100
AcDbLine
 10
-11.5
 20
-79.0
 30
0.0
 11
-11.5
 21
-52.0
 31
0.0
  0
LINE
  5
362F
330
2E56
100
AcDbEntity
  8
0
100
AcDbLine
 10
-10.0
 20
-48.0
 30
0.0
 11
-10.0
 21
-48.222565
 31
0.0
  0
ARC
  5
3630
330
2E56
100
AcDbEntity
  8
0
100
AcDbCircle
 10
-9.31134
 20
-48.5
 30
0.0
 40
0.5
100
AcDbArc
 50
210.0
 51
270.0
  0
ARC
  5
3631
330
2E56
100
AcDbEntity
  8
0
100
AcDbCircle
 10
-8.099976
 20
-47.598083
 30
0.0
 40
2.0
100
AcDbArc
 50
198.19487
 51
210.0
  0
LINE
  5
3632
330
2E56
100
AcDbEntity
  8
0
100
AcDbLine
 10
-9.744324
 20
-48.75
 30
0.0
 11
-9.832031
 21
-48.598083
 31
0.0
  0
ARC
  5
3633
330
2E56
100
AcDbEntity
  8
0
100
AcDbCircle
 10
-17.485291
 20
-55.0
 30
0.0
 40
9.000010000000003
100
AcDbArc
 50
0.0
 51
19.471197
  0
LINE
  5
3634
330
2E56
100
AcDbEntity
  8
0
100
AcDbLine
 10
-9.0
 20
-49.0
 30
0.0
 11
-9.0
 21
-52.0
 31
0.0
  0
LINE
  5
3635
330
2E56
100
AcDbEntity
  8
0
100
AcDbLine
 10
-11.5
 20
-52.0
 30
0.0
 11
-9.0
 21
-52.0
 31
0.0
  0
LINE
  5
3636
330
2E56
100
AcDbEntity
  8
0
100
AcDbLine
 10
9.0
 20
-49.0
 30
0.0
 11
9.0
 21
-79.0
 31
0.0
  0
LINE
  5
3637
330
2E56
100
AcDbEntity
  8
0
100
AcDbLine
 10
10.0
 20
-48.0
 30
0.0
 11
10.0
 21
-48.222565
 31
0.0
  0
ARC
  5
3638
330
2E56
100
AcDbEntity
  8
0
100
AcDbCircle
 10
9.31134
 20
-48.5
 30
0.0
 40
0.5
100
AcDbArc
 50
270.0
 51
330.0
  0
ARC
  5
3639
330
2E56
100
AcDbEntity
  8
0
100
AcDbCircle
 10
8.099976
 20
-47.598083
 30
0.0
 40
2.0
100
AcDbArc
 50
330.0
 51
341.805128
  0
LINE
  5
363A
330
2E56
100
AcDbEntity
  8
0
100
AcDbLine
 10
9.744324
 20
-48.75
 30
0.0
 11
9.832031
 21
-48.598083
 31
0.0
  0
LINE
  5
363B
330
2E56
100
AcDbEntity
  8
CENTER
100
AcDbLine
 10
0.0
 20
-83.131256
 30
0.0
 11
0.0
 21
-55.9414731563
 31
0.0
  0
LINE
  5
363C
330
2E56
100
AcDbEntity
  8
0
100
AcDbLine
 10
144.8703
 20
6.8718909966
 30
0.0
 11
144.8703
 21
45.0
 31
0.0
  0
ENDBLK
  5
2EC1
330
2E56
100
AcDbEntity
  8
0
100
AcDbBlockEnd
  0
BLOCK
  5
2F9F
330
2F9E
100
AcDbEntity
  8
0
100
AcDbBlockBegin
  2
ファンカバ－_F2S-15_M
 70
     0
 10
0.0
 20
0.0
 30
0.0
  3
ファンカバ－_F2S-15_M
  1

  0
LINE
  5
2FA0
330
2F9E
100
AcDbEntity
  8
HIDS
100
AcDbLine
 10
26.100494
 20
-47.0
 30
0.0
 11
-26.100494
 21
-47.0
 31
0.0
  0
LINE
  5
2FA1
330
2F9E
100
AcDbEntity
  8
HIDS
100
AcDbLine
 10
26.100494
 20
47.0
 30
0.0
 11
-26.100494
 21
47.0
 31
0.0
  0
LINE
  5
2FA2
330
2F9E
100
AcDbEntity
  8
HIDS
100
AcDbLine
 10
-44.949738
 20
31.050247
 30
0.0
 11
-31.050262
 21
44.949753
 31
0.0
  0
LINE
  5
2FA3
330
2F9E
100
AcDbEntity
  8
HIDS
100
AcDbLine
 10
-47.0
 20
-26.100502
 30
0.0
 11
-47.0
 21
26.10051
 31
0.0
  0
LINE
  5
2FA4
330
2F9E
100
AcDbEntity
  8
HIDS
100
AcDbLine
 10
-31.050262
 20
-44.949745
 30
0.0
 11
-44.949738
 21
-31.050255
 31
0.0
  0
ARC
  5
2FA5
330
2F9E
100
AcDbEntity
  8
HIDS
100
AcDbCircle
 10
-26.100494
 20
-40.0
 30
0.0
 40
7.0
100
AcDbArc
 50
225.0
 51
270.0
  0
ARC
  5
2FA6
330
2F9E
100
AcDbEntity
  8
HIDS
100
AcDbCircle
 10
-40.0
 20
-26.100502
 30
0.0
 40
7.0
100
AcDbArc
 50
180.0
 51
225.0
  0
ARC
  5
2FA7
330
2F9E
100
AcDbEntity
  8
HIDS
100
AcDbCircle
 10
-40.0
 20
26.10051
 30
0.0
 40
7.0
100
AcDbArc
 50
135.0
 51
180.0
  0
ARC
  5
2FA8
330
2F9E
100
AcDbEntity
  8
HIDS
100
AcDbCircle
 10
-26.100494
 20
40.0
 30
0.0
 40
7.0
100
AcDbArc
 50
90.0
 51
135.0
  0
LINE
  5
2FA9
330
2F9E
100
AcDbEntity
  8
HIDS
100
AcDbLine
 10
31.050262
 20
44.949753
 30
0.0
 11
44.949738
 21
31.050247
 31
0.0
  0
LINE
  5
2FAA
330
2F9E
100
AcDbEntity
  8
HIDS
100
AcDbLine
 10
47.0
 20
26.10051
 30
0.0
 11
47.0
 21
-26.100502
 31
0.0
  0
LINE
  5
2FAB
330
2F9E
100
AcDbEntity
  8
HIDS
100
AcDbLine
 10
44.949738
 20
-31.050255
 30
0.0
 11
31.050262
 21
-44.949745
 31
0.0
  0
ARC
  5
2FAC
330
2F9E
100
AcDbEntity
  8
HIDS
100
AcDbCircle
 10
26.100494
 20
-40.0
 30
0.0
 40
7.0
100
AcDbArc
 50
270.0
 51
315.0
  0
ARC
  5
2FAD
330
2F9E
100
AcDbEntity
  8
HIDS
100
AcDbCircle
 10
40.0
 20
-26.100502
 30
0.0
 40
7.0
100
AcDbArc
 50
315.0
 51
0.0
  0
ARC
  5
2FAE
330
2F9E
100
AcDbEntity
  8
HIDS
100
AcDbCircle
 10
40.0
 20
26.10051
 30
0.0
 40
7.0
100
AcDbArc
 50
0.0
 51
45.0
  0
ARC
  5
2FAF
330
2F9E
100
AcDbEntity
  8
HIDS
100
AcDbCircle
 10
26.100494
 20
40.0
 30
0.0
 40
7.0
100
AcDbArc
 50
45.0
 51
90.0
  0
ENDBLK
  5
2FB0
330
2F9E
100
AcDbEntity
  8
0
100
AcDbBlockEnd
  0
BLOCK
  5
31A3
330
31A1
100
AcDbEntity
  8
0
100
AcDbBlockBegin
  2
ファンカバ－ブレーキ_F2S-15_0005-01
 70
     0
 10
0.0
 20
0.0
 30
0.0
  3
ファンカバ－ブレーキ_F2S-15_0005-01
  1

  0
LINE
  5
31A4
330
31A1
100
AcDbEntity
  8
0
100
AcDbLine
 10
-57.0
 20
42.0
 30
0.0
 11
-57.0
 21
-42.0
 31
0.0
  0
LINE
  5
31A5
330
31A1
100
AcDbEntity
  8
0
100
AcDbLine
 10
-9.5
 20
-47.0
 30
0.0
 11
-9.5
 21
47.0
 31
0.0
  0
LINE
  5
31A6
330
31A1
100
AcDbEntity
  8
0
100
AcDbLine
 10
0.0
 20
-45.0
 30
0.0
 11
0.0
 21
45.0
 31
0.0
  0
LINE
  5
31A7
330
31A1
100
AcDbEntity
  8
0
100
AcDbLine
 10
0.0
 20
-34.409302
 30
0.0
 11
-9.5
 21
-34.409302
 31
0.0
  0
LINE
  5
31A8
330
31A1
100
AcDbEntity
  8
0
100
AcDbLine
 10
-9.5
 20
-45.0
 30
0.0
 11
0.0
 21
-45.0
 31
0.0
  0
LINE
  5
31A9
330
31A1
100
AcDbEntity
  8
0
100
AcDbLine
 10
-52.0
 20
-47.0
 30
0.0
 11
-9.5
 21
-47.0
 31
0.0
  0
LINE
  5
31AA
330
31A1
100
AcDbEntity
  8
0
100
AcDbLine
 10
-9.5
 20
-29.0
 30
0.0
 11
-53.474998
 21
-29.0
 31
0.0
  0
ARC
  5
31AB
330
31A1
100
AcDbEntity
  8
0
100
AcDbCircle
 10
-52.0
 20
-42.0
 30
0.0
 40
5.0
100
AcDbArc
 50
180.0
 51
270.0
  0
LINE
  5
31AC
330
31A1
100
AcDbEntity
  8
0
100
AcDbLine
 10
0.0
 20
34.409302
 30
0.0
 11
-9.5
 21
34.409302
 31
0.0
  0
LINE
  5
31AD
330
31A1
100
AcDbEntity
  8
0
100
AcDbLine
 10
-9.5
 20
29.0
 30
0.0
 11
-53.474998
 21
29.0
 31
0.0
  0
LINE
  5
31AE
330
31A1
100
AcDbEntity
  8
0
100
AcDbLine
 10
-6.5
 20
46.5
 30
0.0
 11
0.5
 21
46.5
 31
0.0
  0
LINE
  5
31AF
330
31A1
100
AcDbEntity
  8
0
100
AcDbLine
 10
-9.5
 20
45.0
 30
0.0
 11
0.0
 21
45.0
 31
0.0
  0
LINE
  5
31B0
330
31A1
100
AcDbEntity
  8
0
100
AcDbLine
 10
-52.0
 20
47.0
 30
0.0
 11
-9.5
 21
47.0
 31
0.0
  0
ARC
  5
31B1
330
31A1
100
AcDbEntity
  8
0
100
AcDbCircle
 10
-52.0
 20
42.0
 30
0.0
 40
5.0
100
AcDbArc
 50
90.0
 51
180.0
  0
LINE
  5
31B2
330
31A1
100
AcDbEntity
  8
0
100
AcDbLine
 10
-6.5
 20
46.5
 30
0.0
 11
-6.5
 21
45.0
 31
0.0
  0
LINE
  5
31B3
330
31A1
100
AcDbEntity
  8
0
100
AcDbLine
 10
-0.299995
 20
58.875
 30
0.0
 11
-0.299995
 21
46.5
 31
0.0
  0
LINE
  5
31B4
330
31A1
100
AcDbEntity
  8
0
100
AcDbLine
 10
-5.699997
 20
58.0625
 30
0.0
 11
-5.699997
 21
46.5
 31
0.0
  0
LINE
  5
31B5
330
31A1
100
AcDbEntity
  8
0
100
AcDbLine
 10
-3.900001
 20
60.125
 30
0.0
 11
-3.900001
 21
46.5
 31
0.0
  0
LINE
  5
31B6
330
31A1
100
AcDbEntity
  8
0
100
AcDbLine
 10
-2.099998
 20
59.5
 30
0.0
 11
-2.099998
 21
46.5
 31
0.0
  0
LINE
  5
31B7
330
31A1
100
AcDbEntity
  8
0
100
AcDbLine
 10
0.5
 20
46.5
 30
0.0
 11
0.5
 21
45.0
 31
0.0
  0
LINE
  5
31B8
330
31A1
100
AcDbEntity
  8
HOJO
100
AcDbLine
 10
-0.299995
 20
58.875
 30
0.0
 11
-2.098991
 21
58.427292
 31
0.0
  0
LINE
  5
31B9
330
31A1
100
AcDbEntity
  8
HOJO
100
AcDbLine
 10
-5.699997
 20
58.0625
 30
0.0
 11
-3.900001
 21
58.6875
 31
0.0
  0
LINE
  5
31BA
330
31A1
100
AcDbEntity
  8
HOJO
100
AcDbLine
 10
-3.900001
 20
60.125
 30
0.0
 11
-2.099998
 21
59.5
 31
0.0
  0
ENDBLK
  5
31BB
330
31A1
100
AcDbEntity
  8
0
100
AcDbBlockEnd
  0
BLOCK
  5
31BE
330
31BC
100
AcDbEntity
  8
0
100
AcDbBlockBegin
  2
ファンカバ－ブレーキ_F2S-15_0006-01
 70
     0
 10
0.0
 20
0.0
 30
0.0
  3
ファンカバ－ブレーキ_F2S-15_0006-01
  1

  0
LINE
  5
31BF
330
31BC
100
AcDbEntity
  8
0
100
AcDbLine
 10
56.999939
 20
42.0
 30
0.0
 11
56.999939
 21
-42.0
 31
0.0
  0
LINE
  5
31C0
330
31BC
100
AcDbEntity
  8
0
100
AcDbLine
 10
9.5
 20
-47.0
 30
0.0
 11
9.5
 21
47.0
 31
0.0
  0
LINE
  5
31C1
330
31BC
100
AcDbEntity
  8
0
100
AcDbLine
 10
0.0
 20
-45.0
 30
0.0
 11
0.0
 21
45.0
 31
0.0
  0
LINE
  5
31C2
330
31BC
100
AcDbEntity
  8
0
100
AcDbLine
 10
51.999939
 20
-47.0
 30
0.0
 11
9.5
 21
-47.0
 31
0.0
  0
LINE
  5
31C3
330
31BC
100
AcDbEntity
  8
0
100
AcDbLine
 10
9.5
 20
29.0
 30
0.0
 11
53.474976
 21
29.0
 31
0.0
  0
LINE
  5
31C4
330
31BC
100
AcDbEntity
  8
0
100
AcDbLine
 10
9.5
 20
-29.0
 30
0.0
 11
53.474976
 21
-29.0
 31
0.0
  0
LINE
  5
31C5
330
31BC
100
AcDbEntity
  8
0
100
AcDbLine
 10
9.5
 20
-45.0
 30
0.0
 11
0.0
 21
-45.0
 31
0.0
  0
LINE
  5
31C6
330
31BC
100
AcDbEntity
  8
0
100
AcDbLine
 10
0.0
 20
-34.409302
 30
0.0
 11
9.5
 21
-34.409302
 31
0.0
  0
LINE
  5
31C7
330
31BC
100
AcDbEntity
  8
0
100
AcDbLine
 10
0.0
 20
34.409302
 30
0.0
 11
9.5
 21
34.409302
 31
0.0
  0
ARC
  5
31C8
330
31BC
100
AcDbEntity
  8
0
100
AcDbCircle
 10
51.999939
 20
-42.0
 30
0.0
 40
5.0
100
AcDbArc
 50
270.0
 51
0.0
  0
LINE
  5
31C9
330
31BC
100
AcDbEntity
  8
0
100
AcDbLine
 10
51.999939
 20
47.0
 30
0.0
 11
9.5
 21
47.0
 31
0.0
  0
LINE
  5
31CA
330
31BC
100
AcDbEntity
  8
0
100
AcDbLine
 10
0.299988
 20
58.875
 30
0.0
 11
0.299988
 21
46.5
 31
0.0
  0
LINE
  5
31CB
330
31BC
100
AcDbEntity
  8
0
100
AcDbLine
 10
5.699951
 20
58.0625
 30
0.0
 11
5.699951
 21
46.5
 31
0.0
  0
LINE
  5
31CC
330
31BC
100
AcDbEntity
  8
0
100
AcDbLine
 10
3.899964
 20
60.125
 30
0.0
 11
3.899964
 21
46.5
 31
0.0
  0
LINE
  5
31CD
330
31BC
100
AcDbEntity
  8
0
100
AcDbLine
 10
2.099976
 20
59.5
 30
0.0
 11
2.099976
 21
46.5
 31
0.0
  0
LINE
  5
31CE
330
31BC
100
AcDbEntity
  8
0
100
AcDbLine
 10
6.5
 20
46.5
 30
0.0
 11
-0.5
 21
46.5
 31
0.0
  0
LINE
  5
31CF
330
31BC
100
AcDbEntity
  8
0
100
AcDbLine
 10
9.5
 20
45.0
 30
0.0
 11
0.0
 21
45.0
 31
0.0
  0
LINE
  5
31D0
330
31BC
100
AcDbEntity
  8
0
100
AcDbLine
 10
-0.5
 20
46.5
 30
0.0
 11
-0.5
 21
45.0
 31
0.0
  0
LINE
  5
31D1
330
31BC
100
AcDbEntity
  8
0
100
AcDbLine
 10
6.5
 20
46.5
 30
0.0
 11
6.5
 21
45.0
 31
0.0
  0
LINE
  5
31D2
330
31BC
100
AcDbEntity
  8
HOJO
100
AcDbLine
 10
0.299988
 20
58.875
 30
0.0
 11
2.098938
 21
58.427292
 31
0.0
  0
LINE
  5
31D3
330
31BC
100
AcDbEntity
  8
HOJO
100
AcDbLine
 10
5.699951
 20
58.0625
 30
0.0
 11
3.899964
 21
58.6875
 31
0.0
  0
LINE
  5
31D4
330
31BC
100
AcDbEntity
  8
HOJO
100
AcDbLine
 10
3.899964
 20
60.125
 30
0.0
 11
2.099976
 21
59.5
 31
0.0
  0
ARC
  5
31D5
330
31BC
100
AcDbEntity
  8
0
100
AcDbCircle
 10
51.999939
 20
42.0
 30
0.0
 40
5.0
100
AcDbArc
 50
0.0
 51
90.0
  0
ENDBLK
  5
31D6
330
31BC
100
AcDbEntity
  8
0
100
AcDbBlockEnd
  0
BLOCK
  5
31D9
330
31D7
100
AcDbEntity
  8
0
100
AcDbBlockBegin
  2
ファンカバ－ブレーキ_F2S-15_0007-01
 70
     0
 10
0.0
 20
0.0
 30
0.0
  3
ファンカバ－ブレーキ_F2S-15_0007-01
  1

  0
LINE
  5
31DA
330
31D7
100
AcDbEntity
  8
0
100
AcDbLine
 10
0.0
 20
-6.866027
 30
0.0
 11
0.0
 21
-45.0
 31
0.0
  0
LINE
  5
31DB
330
31D7
100
AcDbEntity
  8
0
100
AcDbLine
 10
56.999939
 20
-42.0
 30
0.0
 11
56.999939
 21
42.0
 31
0.0
  0
LINE
  5
31DC
330
31D7
100
AcDbEntity
  8
0
100
AcDbLine
 10
9.5
 20
47.0
 30
0.0
 11
9.5
 21
-47.0
 31
0.0
  0
LINE
  5
31DD
330
31D7
100
AcDbEntity
  8
0
100
AcDbLine
 10
51.999939
 20
-47.0
 30
0.0
 11
9.5
 21
-47.0
 31
0.0
  0
LINE
  5
31DE
330
31D7
100
AcDbEntity
  8
0
100
AcDbLine
 10
9.5
 20
-29.0
 30
0.0
 11
53.474976
 21
-29.0
 31
0.0
  0
LINE
  5
31DF
330
31D7
100
AcDbEntity
  8
0
100
AcDbLine
 10
9.5
 20
-45.0
 30
0.0
 11
0.0
 21
-45.0
 31
0.0
  0
LINE
  5
31E0
330
31D7
100
AcDbEntity
  8
0
100
AcDbLine
 10
0.0
 20
-29.0
 30
0.0
 11
9.5
 21
-29.0
 31
0.0
  0
ARC
  5
31E1
330
31D7
100
AcDbEntity
  8
0
100
AcDbCircle
 10
51.999939
 20
-42.0
 30
0.0
 40
5.0
100
AcDbArc
 50
270.0
 51
0.0
  0
LINE
  5
31E2
330
31D7
100
AcDbEntity
  8
0
100
AcDbLine
 10
51.999939
 20
47.0
 30
0.0
 11
9.5
 21
47.0
 31
0.0
  0
LINE
  5
31E3
330
31D7
100
AcDbEntity
  8
0
100
AcDbLine
 10
9.5
 20
29.0
 30
0.0
 11
53.474976
 21
29.0
 31
0.0
  0
LINE
  5
31E4
330
31D7
100
AcDbEntity
  8
0
100
AcDbLine
 10
0.0
 20
45.0
 30
0.0
 11
0.0
 21
6.866028
 31
0.0
  0
LINE
  5
31E5
330
31D7
100
AcDbEntity
  8
0
100
AcDbLine
 10
4.0
 20
3.5
 30
0.0
 11
4.0
 21
-3.5
 31
0.0
  0
LINE
  5
31E6
330
31D7
100
AcDbEntity
  8
0
100
AcDbLine
 10
2.0
 20
3.5
 30
0.0
 11
2.0
 21
-3.5
 31
0.0
  0
LINE
  5
31E7
330
31D7
100
AcDbEntity
  8
0
100
AcDbLine
 10
-0.5
 20
-6.0
 30
0.0
 11
-0.5
 21
6.0
 31
0.0
  0
LINE
  5
31E8
330
31D7
100
AcDbEntity
  8
0
100
AcDbLine
 10
6.5
 20
-6.0
 30
0.0
 11
6.5
 21
6.0
 31
0.0
  0
LINE
  5
31E9
330
31D7
100
AcDbEntity
  8
0
100
AcDbLine
 10
0.5
 20
-7.0
 30
0.0
 11
5.5
 21
-7.0
 31
0.0
  0
ARC
  5
31EA
330
31D7
100
AcDbEntity
  8
0
100
AcDbCircle
 10
0.5
 20
-6.0
 30
0.0
 40
1.0
100
AcDbArc
 50
180.0
 51
270.0
  0
ARC
  5
31EB
330
31D7
100
AcDbEntity
  8
0
100
AcDbCircle
 10
3.0
 20
-3.5
 30
0.0
 40
1.0
100
AcDbArc
 50
180.0
 51
0.0
  0
ARC
  5
31EC
330
31D7
100
AcDbEntity
  8
0
100
AcDbCircle
 10
5.5
 20
-6.0
 30
0.0
 40
1.0
100
AcDbArc
 50
270.0
 51
0.0
  0
ARC
  5
31ED
330
31D7
100
AcDbEntity
  8
0
100
AcDbCircle
 10
3.0
 20
3.5
 30
0.0
 40
1.0
100
AcDbArc
 50
0.0
 51
180.0
  0
LINE
  5
31EE
330
31D7
100
AcDbEntity
  8
0
100
AcDbLine
 10
5.5
 20
7.0
 30
0.0
 11
0.5
 21
7.0
 31
0.0
  0
ARC
  5
31EF
330
31D7
100
AcDbEntity
  8
0
100
AcDbCircle
 10
0.5
 20
6.0
 30
0.0
 40
1.0
100
AcDbArc
 50
90.0
 51
180.0
  0
ARC
  5
31F0
330
31D7
100
AcDbEntity
  8
0
100
AcDbCircle
 10
5.5
 20
6.0
 30
0.0
 40
1.0
100
AcDbArc
 50
0.0
 51
90.0
  0
LINE
  5
31F1
330
31D7
100
AcDbEntity
  8
0
100
AcDbLine
 10
0.0
 20
29.0
 30
0.0
 11
9.5
 21
29.0
 31
0.0
  0
LINE
  5
31F2
330
31D7
100
AcDbEntity
  8
0
100
AcDbLine
 10
9.5
 20
45.0
 30
0.0
 11
0.0
 21
45.0
 31
0.0
  0
ARC
  5
31F3
330
31D7
100
AcDbEntity
  8
0
100
AcDbCircle
 10
51.999939
 20
42.000031
 30
0.0
 40
5.0
100
AcDbArc
 50
0.0
 51
90.0
  0
ENDBLK
  5
31F4
330
31D7
100
AcDbEntity
  8
0
100
AcDbBlockEnd
  0
BLOCK
  5
3265
330
3264
100
AcDbEntity
  8
0
100
AcDbBlockBegin
  2
*D19
 70
     1
 10
0.0
 20
0.0
 30
0.0
  3
*D19
  1

  0
POINT
  5
33C2
330
3264
100
AcDbEntity
  8
DEFPOINTS
 62
     0
100
AcDbPoint
 10
416.6479672013
 20
102.6660693765
 30
0.0
  0
POINT
  5
33C3
330
3264
100
AcDbEntity
  8
DEFPOINTS
 62
     0
100
AcDbPoint
 10
464.6479672013
 20
108.788916493
 30
0.0
  0
POINT
  5
33C4
330
3264
100
AcDbEntity
  8
DEFPOINTS
 62
     0
100
AcDbPoint
 10
464.6479672013
 20
51.8670157747
 30
0.0
  0
ENDBLK
  5
3266
330
3264
100
AcDbEntity
  8
0
100
AcDbBlockEnd
  0
BLOCK
  5
3271
330
3270
100
AcDbEntity
  8
0
100
AcDbBlockBegin
  2
*D20
 70
     1
 10
0.0
 20
0.0
 30
0.0
  3
*D20
  1

  0
POINT
  5
33CB
330
3270
100
AcDbEntity
  8
DEFPOINTS
 62
     0
100
AcDbPoint
 10
426.6479672013
 20
112.9510733765
 30
0.0
  0
POINT
  5
33CC
330
3270
100
AcDbEntity
  8
DEFPOINTS
 62
     0
100
AcDbPoint
 10
464.6479672013
 20
108.788916493
 30
0.0
  0
POINT
  5
33CD
330
3270
100
AcDbEntity
  8
DEFPOINTS
 62
     0
100
AcDbPoint
 10
464.6479672013
 20
69.8438570078
 30
0.0
  0
ENDBLK
  5
3272
330
3270
100
AcDbEntity
  8
0
100
AcDbBlockEnd
  0
BLOCK
  5
327D
330
327C
100
AcDbEntity
  8
0
100
AcDbBlockBegin
  2
*D21
 70
     1
 10
0.0
 20
0.0
 30
0.0
  3
*D21
  1

  0
POINT
  5
33D4
330
327C
100
AcDbEntity
  8
DEFPOINTS
 62
     0
100
AcDbPoint
 10
416.6479672013
 20
211.2360773765
 30
0.0
  0
POINT
  5
33D5
330
327C
100
AcDbEntity
  8
DEFPOINTS
 62
     0
100
AcDbPoint
 10
495.6479672013
 20
165.9510733765
 30
0.0
  0
POINT
  5
33D6
330
327C
100
AcDbEntity
  8
DEFPOINTS
 62
     0
100
AcDbPoint
 10
495.6479672013
 20
276.9187709341
 30
0.0
  0
ENDBLK
  5
327E
330
327C
100
AcDbEntity
  8
0
100
AcDbBlockEnd
  0
BLOCK
  5
3289
330
3288
100
AcDbEntity
  8
0
100
AcDbBlockBegin
  2
*D22
 70
     1
 10
0.0
 20
0.0
 30
0.0
  3
*D22
  1

  0
POINT
  5
33DD
330
3288
100
AcDbEntity
  8
DEFPOINTS
 62
     0
100
AcDbPoint
 10
495.6479672013
 20
165.9510733765
 30
0.0
  0
POINT
  5
33DE
330
3288
100
AcDbEntity
  8
DEFPOINTS
 62
     0
100
AcDbPoint
 10
368.6479672013
 20
205.1132302599
 30
0.0
  0
POINT
  5
33DF
330
3288
100
AcDbEntity
  8
DEFPOINTS
 62
     0
100
AcDbPoint
 10
368.6479672013
 20
295.2637274492
 30
0.0
  0
ENDBLK
  5
328A
330
3288
100
AcDbEntity
  8
0
100
AcDbBlockEnd
  0
BLOCK
  5
3295
330
3294
100
AcDbEntity
  8
0
100
AcDbBlockBegin
  2
*D23
 70
     1
 10
0.0
 20
0.0
 30
0.0
  3
*D23
  1

  0
POINT
  5
33E6
330
3294
100
AcDbEntity
  8
DEFPOINTS
 62
     0
100
AcDbPoint
 10
368.6479672013
 20
108.788916493
 30
0.0
  0
POINT
  5
33E7
330
3294
100
AcDbEntity
  8
DEFPOINTS
 62
     0
100
AcDbPoint
 10
464.6479672013
 20
108.788916493
 30
0.0
  0
POINT
  5
33E8
330
3294
100
AcDbEntity
  8
DEFPOINTS
 62
     0
100
AcDbPoint
 10
464.6479672013
 20
33.9217202861
 30
0.0
  0
ENDBLK
  5
3296
330
3294
100
AcDbEntity
  8
0
100
AcDbBlockEnd
  0
BLOCK
  5
32A1
330
32A0
100
AcDbEntity
  8
0
100
AcDbBlockBegin
  2
*D24
 70
     1
 10
0.0
 20
0.0
 30
0.0
  3
*D24
  1

  0
POINT
  5
33EF
330
32A0
100
AcDbEntity
  8
DEFPOINTS
 62
     0
100
AcDbPoint
 10
381.6479672013
 20
108.562000649
 30
0.0
  0
POINT
  5
33F0
330
32A0
100
AcDbEntity
  8
DEFPOINTS
 62
     0
100
AcDbPoint
 10
406.6479672013
 20
112.9510733765
 30
0.0
  0
POINT
  5
33F1
330
32A0
100
AcDbEntity
  8
DEFPOINTS
 62
     0
100
AcDbPoint
 10
406.6479672013
 20
87.7738860357
 30
0.0
  0
ENDBLK
  5
32A2
330
32A0
100
AcDbEntity
  8
0
100
AcDbBlockEnd
  0
BLOCK
  5
32AD
330
32AC
100
AcDbEntity
  8
0
100
AcDbBlockBegin
  2
*D25
 70
     1
 10
0.0
 20
0.0
 30
0.0
  3
*D25
  1

  0
POINT
  5
33FA
330
32AC
100
AcDbEntity
  8
DEFPOINTS
 62
     0
100
AcDbPoint
 10
381.6479672013
 20
108.562000649
 30
0.0
  0
POINT
  5
33FB
330
32AC
100
AcDbEntity
  8
DEFPOINTS
 62
     0
100
AcDbPoint
 10
368.6479672013
 20
108.788916493
 30
0.0
  0
POINT
  5
33FC
330
32AC
100
AcDbEntity
  8
DEFPOINTS
 62
     0
100
AcDbPoint
 10
368.6479672013
 20
87.7738860357
 30
0.0
  0
ENDBLK
  5
32AE
330
32AC
100
AcDbEntity
  8
0
100
AcDbBlockEnd
  0
BLOCK
  5
32C7
330
32C6
100
AcDbEntity
  8
0
100
AcDbBlockBegin
  2
*D26
 70
     1
 10
0.0
 20
0.0
 30
0.0
  3
*D26
  1

  0
POINT
  5
340C
330
32C6
100
AcDbEntity
  8
DEFPOINTS
 62
     0
100
AcDbPoint
 10
406.6479672013
 20
112.9510733765
 30
0.0
  0
POINT
  5
340D
330
32C6
100
AcDbEntity
  8
DEFPOINTS
 62
     0
100
AcDbPoint
 10
368.6479672013
 20
108.788916493
 30
0.0
  0
POINT
  5
340E
330
32C6
100
AcDbEntity
  8
DEFPOINTS
 62
     0
100
AcDbPoint
 10
368.6479672013
 20
69.8438570078
 30
0.0
  0
ENDBLK
  5
32C8
330
32C6
100
AcDbEntity
  8
0
100
AcDbBlockEnd
  0
BLOCK
  5
32D3
330
32D2
100
AcDbEntity
  8
0
100
AcDbBlockBegin
  2
*D27
 70
     1
 10
0.0
 20
0.0
 30
0.0
  3
*D27
  1

  0
POINT
  5
3415
330
32D2
100
AcDbEntity
  8
DEFPOINTS
 62
     0
100
AcDbPoint
 10
416.6479672013
 20
102.6660693765
 30
0.0
  0
POINT
  5
3416
330
32D2
100
AcDbEntity
  8
DEFPOINTS
 62
     0
100
AcDbPoint
 10
368.6479672013
 20
108.788916493
 30
0.0
  0
POINT
  5
3417
330
32D2
100
AcDbEntity
  8
DEFPOINTS
 62
     0
100
AcDbPoint
 10
368.6479672013
 20
51.8670157747
 30
0.0
  0
ENDBLK
  5
32D4
330
32D2
100
AcDbEntity
  8
0
100
AcDbBlockEnd
  0
BLOCK
  5
32DF
330
32DE
100
AcDbEntity
  8
0
100
AcDbBlockBegin
  2
*D28
 70
     1
 10
0.0
 20
0.0
 30
0.0
  3
*D28
  1

  0
POINT
  5
3420
330
32DE
100
AcDbEntity
  8
DEFPOINTS
 62
     0
100
AcDbPoint
 10
368.6479672013
 20
123.2010733765
 30
0.0
  0
POINT
  5
3421
330
32DE
100
AcDbEntity
  8
DEFPOINTS
 62
     0
100
AcDbPoint
 10
368.6479672013
 20
112.7010733765
 30
0.0
  0
POINT
  5
3422
330
32DE
100
AcDbEntity
  8
DEFPOINTS
 62
     0
100
AcDbPoint
 10
348.9996181398
 20
112.7010733765
 30
0.0
  0
ENDBLK
  5
32E0
330
32DE
100
AcDbEntity
  8
0
100
AcDbBlockEnd
  0
BLOCK
  5
32ED
330
32EC
100
AcDbEntity
  8
0
100
AcDbBlockBegin
  2
*D29
 70
     1
 10
0.0
 20
0.0
 30
0.0
  3
*D29
  1

  0
POINT
  5
3429
330
32EC
100
AcDbEntity
  8
DEFPOINTS
 62
     0
100
AcDbPoint
 10
465.6479672013
 20
166.2624133765
 30
0.0
  0
POINT
  5
342A
330
32EC
100
AcDbEntity
  8
DEFPOINTS
 62
     0
100
AcDbPoint
 10
495.6479672013
 20
165.9510733765
 30
0.0
  0
POINT
  5
342B
330
32EC
100
AcDbEntity
  8
DEFPOINTS
 62
     0
100
AcDbPoint
 10
495.6479672013
 20
258.9251114421
 30
0.0
  0
ENDBLK
  5
32EE
330
32EC
100
AcDbEntity
  8
0
100
AcDbBlockEnd
  0
BLOCK
  5
32F9
330
32F8
100
AcDbEntity
  8
0
100
AcDbBlockBegin
  2
*D30
 70
     1
 10
0.0
 20
0.0
 30
0.0
  3
*D30
  1

  0
POINT
  5
3432
330
32F8
100
AcDbEntity
  8
DEFPOINTS
 62
     0
100
AcDbPoint
 10
468.6479672013
 20
156.9510733765
 30
0.0
  0
POINT
  5
3433
330
32F8
100
AcDbEntity
  8
DEFPOINTS
 62
     0
100
AcDbPoint
 10
495.6479672013
 20
165.9510733765
 30
0.0
  0
POINT
  5
3434
330
32F8
100
AcDbEntity
  8
DEFPOINTS
 62
     0
100
AcDbPoint
 10
495.6479672013
 20
241.003173773
 30
0.0
  0
ENDBLK
  5
32FA
330
32F8
100
AcDbEntity
  8
0
100
AcDbBlockEnd
  0
BLOCK
  5
3305
330
3304
100
AcDbEntity
  8
0
100
AcDbBlockBegin
  2
*D31
 70
     1
 10
0.0
 20
0.0
 30
0.0
  3
*D31
  1

  0
POINT
  5
343C
330
3304
100
AcDbEntity
  8
DEFPOINTS
 62
     0
100
AcDbPoint
 10
495.6479672013
 20
147.9510733765
 30
0.0
  0
POINT
  5
343D
330
3304
100
AcDbEntity
  8
DEFPOINTS
 62
     0
100
AcDbPoint
 10
495.6479672013
 20
165.9510733765
 30
0.0
  0
POINT
  5
343E
330
3304
100
AcDbEntity
  8
DEFPOINTS
 62
     0
100
AcDbPoint
 10
511.6682710396
 20
165.9510733765
 30
0.0
  0
ENDBLK
  5
3306
330
3304
100
AcDbEntity
  8
0
100
AcDbBlockEnd
  0
BLOCK
  5
3312
330
3311
100
AcDbEntity
  8
0
100
AcDbBlockBegin
  2
*D32
 70
     1
 10
0.0
 20
0.0
 30
0.0
  3
*D32
  1

  0
POINT
  5
3445
330
3311
100
AcDbEntity
  8
DEFPOINTS
 62
     0
100
AcDbPoint
 10
675.0993702926
 20
190.6332368765
 30
0.0
  0
POINT
  5
3446
330
3311
100
AcDbEntity
  8
DEFPOINTS
 62
     0
100
AcDbPoint
 10
639.5993702926
 20
203.9297113765
 30
0.0
  0
POINT
  5
3447
330
3311
100
AcDbEntity
  8
DEFPOINTS
 62
     0
100
AcDbPoint
 10
639.5993702926
 20
241.003173773
 30
0.0
  0
ENDBLK
  5
3313
330
3311
100
AcDbEntity
  8
0
100
AcDbBlockEnd
  0
BLOCK
  5
331E
330
331D
100
AcDbEntity
  8
0
100
AcDbBlockBegin
  2
*D33
 70
     1
 10
0.0
 20
0.0
 30
0.0
  3
*D33
  1

  0
POINT
  5
344E
330
331D
100
AcDbEntity
  8
DEFPOINTS
 62
     0
100
AcDbPoint
 10
675.0993702926
 20
190.6332368765
 30
0.0
  0
POINT
  5
344F
330
331D
100
AcDbEntity
  8
DEFPOINTS
 62
     0
100
AcDbPoint
 10
735.5993702926
 20
203.9297113765
 30
0.0
  0
POINT
  5
3450
330
331D
100
AcDbEntity
  8
DEFPOINTS
 62
     0
100
AcDbPoint
 10
735.5993702926
 20
241.003173773
 30
0.0
  0
ENDBLK
  5
331F
330
331D
100
AcDbEntity
  8
0
100
AcDbBlockEnd
  0
BLOCK
  5
332A
330
3329
100
AcDbEntity
  8
0
100
AcDbBlockBegin
  2
*D34
 70
     1
 10
0.0
 20
0.0
 30
0.0
  3
*D34
  1

  0
POINT
  5
3457
330
3329
100
AcDbEntity
  8
DEFPOINTS
 62
     0
100
AcDbPoint
 10
675.0993702926
 20
190.6332368765
 30
0.0
  0
POINT
  5
3458
330
3329
100
AcDbEntity
  8
DEFPOINTS
 62
     0
100
AcDbPoint
 10
744.5993702926
 20
196.9510733765
 30
0.0
  0
POINT
  5
3459
330
3329
100
AcDbEntity
  8
DEFPOINTS
 62
     0
100
AcDbPoint
 10
744.5993702926
 20
258.9251114421
 30
0.0
  0
ENDBLK
  5
332B
330
3329
100
AcDbEntity
  8
0
100
AcDbBlockEnd
  0
BLOCK
  5
3336
330
3335
100
AcDbEntity
  8
0
100
AcDbBlockBegin
  2
*D35
 70
     1
 10
0.0
 20
0.0
 30
0.0
  3
*D35
  1

  0
POINT
  5
3460
330
3335
100
AcDbEntity
  8
DEFPOINTS
 62
     0
100
AcDbPoint
 10
744.5993702926
 20
196.9510733765
 30
0.0
  0
POINT
  5
3461
330
3335
100
AcDbEntity
  8
DEFPOINTS
 62
     0
100
AcDbPoint
 10
630.5993702926
 20
196.9510733765
 30
0.0
  0
POINT
  5
3462
330
3335
100
AcDbEntity
  8
DEFPOINTS
 62
     0
100
AcDbPoint
 10
630.5993702926
 20
276.9187709341
 30
0.0
  0
ENDBLK
  5
3337
330
3335
100
AcDbEntity
  8
0
100
AcDbBlockEnd
  0
BLOCK
  5
3342
330
3341
100
AcDbEntity
  8
0
100
AcDbBlockBegin
  2
*D36
 70
     1
 10
0.0
 20
0.0
 30
0.0
  3
*D36
  1

  0
POINT
  5
3469
330
3341
100
AcDbEntity
  8
DEFPOINTS
 62
     0
100
AcDbPoint
 10
630.5993702926
 20
196.9510733765
 30
0.0
  0
POINT
  5
346A
330
3341
100
AcDbEntity
  8
DEFPOINTS
 62
     0
100
AcDbPoint
 10
876.9593092926
 20
198.9510733765
 30
0.0
  0
POINT
  5
346B
330
3341
100
AcDbEntity
  8
DEFPOINTS
 62
     0
100
AcDbPoint
 10
876.9593092926
 20
295.2637274492
 30
0.0
  0
ENDBLK
  5
3343
330
3341
100
AcDbEntity
  8
0
100
AcDbBlockEnd
  0
BLOCK
  5
334E
330
334D
100
AcDbEntity
  8
0
100
AcDbBlockBegin
  2
*D37
 70
     1
 10
0.0
 20
0.0
 30
0.0
  3
*D37
  1

  0
POINT
  5
3472
330
334D
100
AcDbEntity
  8
DEFPOINTS
 62
     0
100
AcDbPoint
 10
675.0993702926
 20
190.6332368765
 30
0.0
  0
POINT
  5
3473
330
334D
100
AcDbEntity
  8
DEFPOINTS
 62
     0
100
AcDbPoint
 10
630.5993702926
 20
196.9510733765
 30
0.0
  0
POINT
  5
3474
330
334D
100
AcDbEntity
  8
DEFPOINTS
 62
     0
100
AcDbPoint
 10
630.5993702926
 20
258.9251114421
 30
0.0
  0
ENDBLK
  5
334F
330
334D
100
AcDbEntity
  8
0
100
AcDbBlockEnd
  0
BLOCK
  5
335A
330
3359
100
AcDbEntity
  8
0
100
AcDbBlockBegin
  2
*D38
 70
     1
 10
0.0
 20
0.0
 30
0.0
  3
*D38
  1

  0
POINT
  5
347B
330
3359
100
AcDbEntity
  8
DEFPOINTS
 62
     0
100
AcDbPoint
 10
623.9321952926
 20
156.9510733765
 30
0.0
  0
POINT
  5
347C
330
3359
100
AcDbEntity
  8
DEFPOINTS
 62
     0
100
AcDbPoint
 10
631.6207322926
 20
117.9510733765
 30
0.0
  0
POINT
  5
347D
330
3359
100
AcDbEntity
  8
DEFPOINTS
 62
     0
100
AcDbPoint
 10
597.9400591957
 20
117.9510733765
 30
0.0
  0
ENDBLK
  5
335B
330
3359
100
AcDbEntity
  8
0
100
AcDbBlockEnd
  0
BLOCK
  5
3366
330
3365
100
AcDbEntity
  8
0
100
AcDbBlockBegin
  2
*D39
 70
     1
 10
0.0
 20
0.0
 30
0.0
  3
*D39
  1

  0
POINT
  5
3484
330
3365
100
AcDbEntity
  8
DEFPOINTS
 62
     0
100
AcDbPoint
 10
623.9321952926
 20
156.9510733765
 30
0.0
  0
POINT
  5
3485
330
3365
100
AcDbEntity
  8
DEFPOINTS
 62
     0
100
AcDbPoint
 10
631.6207322926
 20
195.9510733765
 30
0.0
  0
POINT
  5
3486
330
3365
100
AcDbEntity
  8
DEFPOINTS
 62
     0
100
AcDbPoint
 10
597.9400591957
 20
195.9510733765
 30
0.0
  0
ENDBLK
  5
3367
330
3365
100
AcDbEntity
  8
0
100
AcDbBlockEnd
  0
BLOCK
  5
3372
330
3371
100
AcDbEntity
  8
0
100
AcDbBlockBegin
  2
*D40
 70
     1
 10
0.0
 20
0.0
 30
0.0
  3
*D40
  1

  0
POINT
  5
348D
330
3371
100
AcDbEntity
  8
DEFPOINTS
 62
     0
100
AcDbPoint
 10
639.5993702926
 20
107.9510733765
 30
0.0
  0
POINT
  5
348E
330
3371
100
AcDbEntity
  8
DEFPOINTS
 62
     0
100
AcDbPoint
 10
639.5993702926
 20
205.9510733765
 30
0.0
  0
POINT
  5
348F
330
3371
100
AcDbEntity
  8
DEFPOINTS
 62
     0
100
AcDbPoint
 10
562.201692656
 20
205.9510733765
 30
0.0
  0
ENDBLK
  5
3373
330
3371
100
AcDbEntity
  8
0
100
AcDbBlockEnd
  0
BLOCK
  5
337E
330
337D
100
AcDbEntity
  8
0
100
AcDbBlockBegin
  2
*D41
 70
     1
 10
0.0
 20
0.0
 30
0.0
  3
*D41
  1

  0
POINT
  5
3496
330
337D
100
AcDbEntity
  8
DEFPOINTS
 62
     0
100
AcDbPoint
 10
623.9321952926
 20
156.9510733765
 30
0.0
  0
POINT
  5
3497
330
337D
100
AcDbEntity
  8
DEFPOINTS
 62
     0
100
AcDbPoint
 10
639.5993702926
 20
107.9510733765
 30
0.0
  0
POINT
  5
3498
330
337D
100
AcDbEntity
  8
DEFPOINTS
 62
     0
100
AcDbPoint
 10
580.281100328
 20
107.9510733765
 30
0.0
  0
ENDBLK
  5
337F
330
337D
100
AcDbEntity
  8
0
100
AcDbBlockEnd
  0
BLOCK
  5
338A
330
3389
100
AcDbEntity
  8
0
100
AcDbBlockBegin
  2
*D42
 70
     1
 10
0.0
 20
0.0
 30
0.0
  3
*D42
  1

  0
POINT
  5
349F
330
3389
100
AcDbEntity
  8
DEFPOINTS
 62
     0
100
AcDbPoint
 10
623.9321952926
 20
156.9510733765
 30
0.0
  0
POINT
  5
34A0
330
3389
100
AcDbEntity
  8
DEFPOINTS
 62
     0
100
AcDbPoint
 10
639.5993702926
 20
205.9510733765
 30
0.0
  0
POINT
  5
34A1
330
3389
100
AcDbEntity
  8
DEFPOINTS
 62
     0
100
AcDbPoint
 10
580.281100328
 20
205.9510733765
 30
0.0
  0
ENDBLK
  5
338B
330
3389
100
AcDbEntity
  8
0
100
AcDbBlockEnd
  0
BLOCK
  5
3396
330
3395
100
AcDbEntity
  8
0
100
AcDbBlockBegin
  2
*D43
 70
     1
 10
0.0
 20
0.0
 30
0.0
  3
*D43
  1

  0
POINT
  5
34A9
330
3395
100
AcDbEntity
  8
DEFPOINTS
 62
     0
100
AcDbPoint
 10
663.5993702926
 20
159.9510733765
 30
0.0
  0
POINT
  5
34AA
330
3395
100
AcDbEntity
  8
DEFPOINTS
 62
     0
100
AcDbPoint
 10
684.0993702926
 20
156.9510733765
 30
0.0
  0
POINT
  5
34AB
330
3395
100
AcDbEntity
  8
DEFPOINTS
 62
     0
100
AcDbPoint
 10
684.0993702926
 20
222.7995229704
 30
0.0
  0
ENDBLK
  5
3397
330
3395
100
AcDbEntity
  8
0
100
AcDbBlockEnd
  0
BLOCK
  5
33A3
330
33A2
100
AcDbEntity
  8
0
100
AcDbBlockBegin
  2
*D44
 70
     1
 10
0.0
 20
0.0
 30
0.0
  3
*D44
  1

  0
POINT
  5
34B4
330
33A2
100
AcDbEntity
  8
DEFPOINTS
 62
     0
100
AcDbPoint
 10
663.5993702926
 20
153.9510733765
 30
0.0
  0
POINT
  5
34B5
330
33A2
100
AcDbEntity
  8
DEFPOINTS
 62
     0
100
AcDbPoint
 10
663.5993702926
 20
159.9510733765
 30
0.0
  0
POINT
  5
34B6
330
33A2
100
AcDbEntity
  8
DEFPOINTS
 62
     0
100
AcDbPoint
 10
615.5990180634
 20
159.9510733765
 30
0.0
  0
ENDBLK
  5
33A4
330
33A2
100
AcDbEntity
  8
0
100
AcDbBlockEnd
  0
BLOCK
  5
33B1
330
33B0
100
AcDbEntity
  8
0
100
AcDbBlockBegin
  2
*D45
 70
     1
 10
0.0
 20
0.0
 30
0.0
  3
*D45
  1

  0
POINT
  5
34BD
330
33B0
100
AcDbEntity
  8
DEFPOINTS
 62
     0
100
AcDbPoint
 10
871.9696092926
 20
203.9510733765
 30
0.0
  0
POINT
  5
34BE
330
33B0
100
AcDbEntity
  8
DEFPOINTS
 62
     0
100
AcDbPoint
 10
871.9696092926
 20
109.9510733765
 30
0.0
  0
POINT
  5
34BF
330
33B0
100
AcDbEntity
  8
DEFPOINTS
 62
     0
100
AcDbPoint
 10
903.5850348931
 20
109.9510733765
 30
0.0
  0
ENDBLK
  5
33B2
330
33B0
100
AcDbEntity
  8
0
100
AcDbBlockEnd
  0
BLOCK
  5
3ABA
330
3AB9
100
AcDbEntity
  8
0
100
AcDbBlockBegin
  2
A$Cdecd00d5
 70
     0
 10
0.0
 20
0.0
 30
0.0
  3
A$Cdecd00d5
  1

  0
LINE
  5
3ABB
330
3AB9
100
AcDbEntity
  8
CENTER
100
AcDbLine
 10
144.87027
 20
-11.3178365
 30
0.0
 11
144.87027
 21
-78.6821635
 31
0.0
  0
LINE
  5
3ABC
330
3AB9
100
AcDbEntity
  8
CENTER
100
AcDbLine
 10
143.1223153445
 20
-45.0
 30
0.0
 11
146.6182246555
 21
-45.0
 31
0.0
  0
CIRCLE
  5
3ABD
330
3AB9
100
AcDbEntity
  8
0
  6
Continuous
100
AcDbCircle
 10
144.87027
 20
-45.0
 30
0.0
 40
25.548
  0
CIRCLE
  5
3ABE
330
3AB9
100
AcDbEntity
  8
0
  6
Continuous
100
AcDbCircle
 10
144.87027
 20
-45.0
 30
0.0
 40
23.0
  0
CIRCLE
  5
3ABF
330
3AB9
100
AcDbEntity
  8
0
  6
Continuous
100
AcDbCircle
 10
144.87027
 20
-45.0
 30
0.0
 40
17.5
  0
CIRCLE
  5
3AC0
330
3AB9
100
AcDbEntity
  8
0
  6
Continuous
100
AcDbCircle
 10
144.87027
 20
-45.0
 30
0.0
 40
19.5
  0
LINE
  5
3AC1
330
3AB9
100
AcDbEntity
  8
0
100
AcDbLine
 10
189.36
 20
-5.0
 30
0.0
 11
189.36
 21
-85.0
 31
0.0
  0
ARC
  5
3AC2
330
3AB9
100
AcDbEntity
  8
0
100
AcDbCircle
 10
187.36
 20
-10.0
 30
0.0
 40
2.0
100
AcDbArc
 50
270.0
 51
0.0
  0
ARC
  5
3AC3
330
3AB9
100
AcDbEntity
  8
0
100
AcDbCircle
 10
187.36
 20
-23.0
 30
0.0
 40
2.0
100
AcDbArc
 50
0.0
 51
90.0
  0
ARC
  5
3AC4
330
3AB9
100
AcDbEntity
  8
0
100
AcDbCircle
 10
187.36
 20
-67.0
 30
0.0
 40
2.0
100
AcDbArc
 50
270.0
 51
0.0
  0
ARC
  5
3AC5
330
3AB9
100
AcDbEntity
  8
0
100
AcDbCircle
 10
187.36
 20
-80.0
 30
0.0
 40
2.0
100
AcDbArc
 50
0.0
 51
90.0
  0
ARC
  5
3AC6
330
3AB9
100
AcDbEntity
  8
0
100
AcDbCircle
 10
187.36
 20
-23.4473398675
 30
0.0
 40
2.0
100
AcDbArc
 50
314.8143643905
 51
0.0
  0
LINE
  5
3AC7
330
3AB9
100
AcDbEntity
  8
0
100
AcDbLine
 10
180.36
 20
4.0
 30
0.0
 11
84.36
 21
4.0
 31
0.0
  0
LINE
  5
3AC8
330
3AB9
100
AcDbEntity
  8
0
100
AcDbLine
 10
180.36
 20
-94.0
 30
0.0
 11
84.36
 21
-94.0
 31
0.0
  0
ARC
  5
3AC9
330
3AB9
100
AcDbEntity
  8
0
100
AcDbCircle
 10
180.36
 20
-5.0
 30
0.0
 40
9.0
100
AcDbArc
 50
0.0
 51
130.947188455
  0
ARC
  5
3ACA
330
3AB9
100
AcDbEntity
  8
0
100
AcDbCircle
 10
180.36
 20
-85.0
 30
0.0
 40
9.0
100
AcDbArc
 50
229.052811545
 51
0.0
  0
LINE
  5
3ACB
330
3AB9
100
AcDbEntity
  8
0
100
AcDbLine
 10
73.8790356544
 20
0.0
 30
0.0
 11
0.0
 21
0.0
 31
0.0
  0
LINE
  5
3ACC
330
3AB9
100
AcDbEntity
  8
0
100
AcDbLine
 10
73.8790356544
 20
-90.0
 30
0.0
 11
0.0
 21
-90.0
 31
0.0
  0
ARC
  5
3ACD
330
3AB9
100
AcDbEntity
  8
0
100
AcDbCircle
 10
150.86
 20
-28.5
 30
0.0
 40
34.0
100
AcDbArc
 50
60.5450656692
 51
67.0804578484
  0
ARC
  5
3ACE
330
3AB9
100
AcDbEntity
  8
0
100
AcDbCircle
 10
158.2593242935
 20
-11.0
 30
0.0
 40
15.0
100
AcDbArc
 50
67.0804578484
 51
90.0
  0
ARC
  5
3ACF
330
3AB9
100
AcDbEntity
  8
0
100
AcDbCircle
 10
170.5295533815
 20
6.329709585
 30
0.0
 40
6.0
100
AcDbArc
 50
240.5450656692
 51
310.947188455
  0
ARC
  5
3AD0
330
3AB9
100
AcDbEntity
  8
0
100
AcDbCircle
 10
170.5295533815
 20
-96.329709585
 30
0.0
 40
6.0
100
AcDbArc
 50
49.052811545
 51
119.4549343308
  0
ARC
  5
3AD1
330
3AB9
100
AcDbEntity
  8
0
100
AcDbCircle
 10
150.86
 20
-61.5
 30
0.0
 40
34.0
100
AcDbArc
 50
292.9195421516
 51
299.4549343308
  0
ARC
  5
3AD2
330
3AB9
100
AcDbEntity
  8
0
100
AcDbCircle
 10
158.2593242935
 20
-79.0
 30
0.0
 40
15.0
100
AcDbArc
 50
270.0
 51
292.9195421516
  0
ARC
  5
3AD3
330
3AB9
100
AcDbEntity
  8
0
100
AcDbCircle
 10
94.1904466185
 20
6.329709585
 30
0.0
 40
6.0
100
AcDbArc
 50
229.052811545
 51
299.4549343308
  0
ARC
  5
3AD4
330
3AB9
100
AcDbEntity
  8
0
100
AcDbCircle
 10
113.86
 20
-28.5
 30
0.0
 40
34.0
100
AcDbArc
 50
112.9195421516
 51
119.4549343308
  0
ARC
  5
3AD5
330
3AB9
100
AcDbEntity
  8
0
100
AcDbCircle
 10
106.4606757065
 20
-11.0
 30
0.0
 40
15.0
100
AcDbArc
 50
90.0
 51
112.9195421516
  0
LINE
  5
3AD6
330
3AB9
100
AcDbEntity
  8
0
100
AcDbLine
 10
184.86
 20
-29.5827253982
 30
0.0
 11
184.86
 21
-60.4172746018
 31
0.0
  0
ARC
  5
3AD7
330
3AB9
100
AcDbEntity
  8
0
100
AcDbCircle
 10
186.86
 20
-29.5827253982
 30
0.0
 40
2.0
100
AcDbArc
 50
134.8143643905
 51
180.0
  0
LINE
  5
3AD8
330
3AB9
100
AcDbEntity
  8
0
100
AcDbLine
 10
185.4503758372
 20
-28.1639372816
 30
0.0
 11
188.7696241628
 21
-24.8661279841
 31
0.0
  0
LINE
  5
3AD9
330
3AB9
100
AcDbEntity
  8
0
100
AcDbLine
 10
0.0
 20
0.0
 30
0.0
 11
0.0
 21
-90.0
 31
0.0
  0
LINE
  5
3ADA
330
3AB9
100
AcDbEntity
  8
0
100
AcDbLine
 10
73.0
 20
-10.5906989318
 30
0.0
 11
73.36
 21
-10.5906989318
 31
0.0
  0
ARC
  5
3ADB
330
3AB9
100
AcDbEntity
  8
0
100
AcDbCircle
 10
94.1904466185
 20
-96.329709585
 30
0.0
 40
6.0
100
AcDbArc
 50
60.5450656692
 51
130.947188455
  0
ARC
  5
3ADC
330
3AB9
100
AcDbEntity
  8
0
100
AcDbCircle
 10
113.86
 20
-61.5
 30
0.0
 40
34.0
100
AcDbArc
 50
240.5450656692
 51
247.0804578484
  0
ARC
  5
3ADD
330
3AB9
100
AcDbEntity
  8
0
100
AcDbCircle
 10
106.4606757065
 20
-79.0
 30
0.0
 40
15.0
100
AcDbArc
 50
247.0804578484
 51
270.0
  0
ARC
  5
3ADE
330
3AB9
100
AcDbEntity
  8
0
100
AcDbCircle
 10
73.8790356544
 20
-92.0
 30
0.0
 40
2.0
100
AcDbArc
 50
62.9562954612
 51
90.0
  0
LINE
  5
3ADF
330
3AB9
100
AcDbEntity
  8
0
100
AcDbLine
 10
74.7883756879
 20
-90.2186800671
 30
0.0
 11
80.2679698491
 21
-93.0159396981
 31
0.0
  0
ARC
  5
3AE0
330
3AB9
100
AcDbEntity
  8
0
100
AcDbCircle
 10
73.8790356544
 20
2.0
 30
0.0
 40
2.0
100
AcDbArc
 50
270.0
 51
297.0437045388
  0
LINE
  5
3AE1
330
3AB9
100
AcDbEntity
  8
0
100
AcDbLine
 10
74.7883756879
 20
0.2186800671
 30
0.0
 11
80.2679698491
 21
3.0159396981
 31
0.0
  0
ARC
  5
3AE2
330
3AB9
100
AcDbEntity
  8
0
100
AcDbCircle
 10
187.36
 20
-66.5526601325
 30
0.0
 40
2.0
100
AcDbArc
 50
0.0
 51
45.1856356095
  0
ARC
  5
3AE3
330
3AB9
100
AcDbEntity
  8
0
100
AcDbCircle
 10
186.86
 20
-60.4172746018
 30
0.0
 40
2.0
100
AcDbArc
 50
180.0
 51
225.1856356095
  0
LINE
  5
3AE4
330
3AB9
100
AcDbEntity
  8
0
100
AcDbLine
 10
185.4503758372
 20
-61.8360627184
 30
0.0
 11
188.7696241628
 21
-65.1338720159
 31
0.0
  0
ARC
  5
3AE5
330
3AB9
100
AcDbEntity
  8
0
100
AcDbCircle
 10
73.962
 20
-8.5906989318
 30
0.0
 40
2.0
100
AcDbArc
 50
270.0
 51
0.0
  0
ARC
  5
3AE6
330
3AB9
100
AcDbEntity
  8
0
100
AcDbCircle
 10
72.5
 20
-12.5906989318
 30
0.0
 40
2.0
100
AcDbArc
 50
0.0
 51
90.0
  0
ARC
  5
3AE7
330
3AB9
100
AcDbEntity
  8
0
100
AcDbCircle
 10
73.962
 20
-81.4093010682
 30
0.0
 40
2.0
100
AcDbArc
 50
0.0
 51
90.0
  0
ARC
  5
3AE8
330
3AB9
100
AcDbEntity
  8
0
100
AcDbCircle
 10
72.5
 20
-77.4093010682
 30
0.0
 40
2.0
100
AcDbArc
 50
270.0
 51
0.0
  0
LINE
  5
3AE9
330
3AB9
100
AcDbEntity
  8
0
100
AcDbLine
 10
74.5
 20
-12.5906989318
 30
0.0
 11
74.5
 21
-77.4093010682
 31
0.0
  0
ARC
  5
3AEA
330
3AB9
100
AcDbEntity
  8
0
100
AcDbCircle
 10
84.36
 20
-85.0
 30
0.0
 40
9.0
100
AcDbArc
 50
242.9562954612
 51
310.947188455
  0
LINE
  5
3AEB
330
3AB9
100
AcDbEntity
  8
0
100
AcDbLine
 10
0.0
 20
-10.5906989318
 30
0.0
 11
73.962
 21
-10.5906989318
 31
0.0
  0
LINE
  5
3AEC
330
3AB9
100
AcDbEntity
  8
0
100
AcDbLine
 10
0.0
 20
-79.4093010682
 30
0.0
 11
74.0
 21
-79.4093010682
 31
0.0
  0
LINE
  5
3AED
330
3AB9
100
AcDbEntity
  8
CENTER
100
AcDbLine
 10
188.348908
 20
-6.0
 30
0.0
 11
172.391632
 21
-6.0
 31
0.0
  0
LINE
  5
3AEE
330
3AB9
100
AcDbEntity
  8
CENTER
100
AcDbLine
 10
180.37027
 20
1.978638
 30
0.0
 11
180.37027
 21
-13.978638
 31
0.0
  0
LINE
  5
3AEF
330
3AB9
100
AcDbEntity
  8
CENTER
100
AcDbLine
 10
92.348908
 20
-6.0
 30
0.0
 11
76.391632
 21
-6.0
 31
0.0
  0
LINE
  5
3AF0
330
3AB9
100
AcDbEntity
  8
CENTER
100
AcDbLine
 10
84.37027
 20
1.978638
 30
0.0
 11
84.37027
 21
-13.978638
 31
0.0
  0
LINE
  5
3AF1
330
3AB9
100
AcDbEntity
  8
CENTER
100
AcDbLine
 10
92.348908
 20
-84.0
 30
0.0
 11
76.391632
 21
-84.0
 31
0.0
  0
LINE
  5
3AF2
330
3AB9
100
AcDbEntity
  8
CENTER
100
AcDbLine
 10
84.37027
 20
-76.021362
 30
0.0
 11
84.37027
 21
-91.978638
 31
0.0
  0
LINE
  5
3AF3
330
3AB9
100
AcDbEntity
  8
CENTER
100
AcDbLine
 10
188.348908
 20
-84.0
 30
0.0
 11
172.391632
 21
-84.0
 31
0.0
  0
LINE
  5
3AF4
330
3AB9
100
AcDbEntity
  8
CENTER
100
AcDbLine
 10
180.37027
 20
-76.021362
 30
0.0
 11
180.37027
 21
-91.978638
 31
0.0
  0
LINE
  5
3AF5
330
3AB9
100
AcDbEntity
  8
CENTER
100
AcDbLine
 10
74.797928
 20
-16.5
 30
0.0
 11
85.942612
 21
-16.5
 31
0.0
  0
LINE
  5
3AF6
330
3AB9
100
AcDbEntity
  8
CENTER
100
AcDbLine
 10
80.37027
 20
-22.072342
 30
0.0
 11
80.37027
 21
-10.927658
 31
0.0
  0
LINE
  5
3AF7
330
3AB9
100
AcDbEntity
  8
CENTER
100
AcDbLine
 10
74.797928
 20
-73.5
 30
0.0
 11
85.942612
 21
-73.5
 31
0.0
  0
LINE
  5
3AF8
330
3AB9
100
AcDbEntity
  8
CENTER
100
AcDbLine
 10
80.37027
 20
-79.072342
 30
0.0
 11
80.37027
 21
-67.927658
 31
0.0
  0
LINE
  5
3AF9
330
3AB9
100
AcDbEntity
  8
CENTER
100
AcDbLine
 10
178.797928
 20
-73.5
 30
0.0
 11
189.942612
 21
-73.5
 31
0.0
  0
LINE
  5
3AFA
330
3AB9
100
AcDbEntity
  8
CENTER
100
AcDbLine
 10
184.37027
 20
-79.072342
 30
0.0
 11
184.37027
 21
-67.927658
 31
0.0
  0
LINE
  5
3AFB
330
3AB9
100
AcDbEntity
  8
CENTER
100
AcDbLine
 10
184.37027
 20
-22.072342
 30
0.0
 11
184.37027
 21
-10.927658
 31
0.0
  0
LINE
  5
3AFC
330
3AB9
100
AcDbEntity
  8
CENTER
100
AcDbLine
 10
178.797928
 20
-16.5
 30
0.0
 11
189.942612
 21
-16.5
 31
0.0
  0
LINE
  5
3AFD
330
3AB9
100
AcDbEntity
  8
0
  6
Continuous
100
AcDbLine
 10
77.981186
 20
-69.0
 30
0.0
 11
80.370285
 21
-69.0
 31
0.0
  0
LINE
  5
3AFE
330
3AB9
100
AcDbEntity
  8
0
100
AcDbLine
 10
80.48027
 20
-29.3284271247
 30
0.0
 11
80.48027
 21
-60.6715728753
 31
0.0
  0
LINE
  5
3AFF
330
3AB9
100
AcDbEntity
  8
0
100
AcDbLine
 10
75.98027
 20
-66.8284271247
 30
0.0
 11
75.98027
 21
-85.0
 31
0.0
  0
ARC
  5
3B00
330
3AB9
100
AcDbEntity
  8
0
100
AcDbCircle
 10
78.48027
 20
-60.6715728753
 30
0.0
 40
2.0
100
AcDbArc
 50
315.0
 51
0.0
  0
ARC
  5
3B01
330
3AB9
100
AcDbEntity
  8
0
100
AcDbCircle
 10
77.98027
 20
-66.8284271247
 30
0.0
 40
2.0
100
AcDbArc
 50
135.0
 51
180.0
  0
LINE
  5
3B02
330
3AB9
100
AcDbEntity
  8
0
100
AcDbLine
 10
76.5660564376
 20
-65.4142135624
 30
0.0
 11
79.8944835624
 21
-62.0857864376
 31
0.0
  0
ARC
  5
3B03
330
3AB9
100
AcDbEntity
  8
0
100
AcDbCircle
 10
80.37027
 20
-73.5
 30
0.0
 40
4.5
100
AcDbArc
 50
270.0
 51
90.0
  0
LINE
  5
3B04
330
3AB9
100
AcDbEntity
  8
0
100
AcDbLine
 10
80.37027
 20
-69.0
 30
0.0
 11
77.98027
 21
-69.0
 31
0.0
  0
ARC
  5
3B05
330
3AB9
100
AcDbEntity
  8
0
100
AcDbCircle
 10
77.98027
 20
-67.0
 30
0.0
 40
2.0
100
AcDbArc
 50
180.0
 51
270.0
  0
ARC
  5
3B06
330
3AB9
100
AcDbEntity
  8
0
100
AcDbCircle
 10
77.98027
 20
-80.0
 30
0.0
 40
2.0
100
AcDbArc
 50
90.0
 51
180.0
  0
LINE
  5
3B07
330
3AB9
100
AcDbEntity
  8
0
100
AcDbLine
 10
80.37027
 20
-78.0
 30
0.0
 11
77.98027
 21
-78.0
 31
0.0
  0
ARC
  5
3B08
330
3AB9
100
AcDbEntity
  8
0
100
AcDbCircle
 10
77.98027
 20
-10.0
 30
0.0
 40
2.0
100
AcDbArc
 50
180.0
 51
270.0
  0
LINE
  5
3B09
330
3AB9
100
AcDbEntity
  8
0
100
AcDbLine
 10
75.98027
 20
-23.1715728753
 30
0.0
 11
75.98027
 21
-5.0
 31
0.0
  0
ARC
  5
3B0A
330
3AB9
100
AcDbEntity
  8
0
100
AcDbCircle
 10
77.98027
 20
-23.0
 30
0.0
 40
2.0
100
AcDbArc
 50
90.0
 51
180.0
  0
ARC
  5
3B0B
330
3AB9
100
AcDbEntity
  8
0
100
AcDbCircle
 10
80.37027
 20
-16.5
 30
0.0
 40
4.5
100
AcDbArc
 50
270.0
 51
90.0
  0
LINE
  5
3B0C
330
3AB9
100
AcDbEntity
  8
0
100
AcDbLine
 10
80.37027
 20
-12.0
 30
0.0
 11
77.98027
 21
-12.0
 31
0.0
  0
LINE
  5
3B0D
330
3AB9
100
AcDbEntity
  8
0
100
AcDbLine
 10
80.37027
 20
-21.0
 30
0.0
 11
77.98027
 21
-21.0
 31
0.0
  0
ARC
  5
3B0E
330
3AB9
100
AcDbEntity
  8
0
100
AcDbCircle
 10
78.48027
 20
-29.3284271247
 30
0.0
 40
2.0
100
AcDbArc
 50
0.0
 51
45.0
  0
LINE
  5
3B0F
330
3AB9
100
AcDbEntity
  8
0
100
AcDbLine
 10
76.5660564376
 20
-24.5857864376
 30
0.0
 11
79.8944835624
 21
-27.9142135624
 31
0.0
  0
ARC
  5
3B10
330
3AB9
100
AcDbEntity
  8
0
100
AcDbCircle
 10
77.98027
 20
-23.1715728753
 30
0.0
 40
2.0
100
AcDbArc
 50
180.0
 51
225.0
  0
ARC
  5
3B11
330
3AB9
100
AcDbEntity
  8
0
100
AcDbCircle
 10
184.37027
 20
-73.5
 30
0.0
 40
4.5
100
AcDbArc
 50
90.0
 51
270.0
  0
LINE
  5
3B12
330
3AB9
100
AcDbEntity
  8
0
100
AcDbLine
 10
184.37027
 20
-78.0
 30
0.0
 11
187.36
 21
-78.0
 31
0.0
  0
LINE
  5
3B13
330
3AB9
100
AcDbEntity
  8
0
100
AcDbLine
 10
184.37027
 20
-69.0
 30
0.0
 11
187.36
 21
-69.0
 31
0.0
  0
ARC
  5
3B14
330
3AB9
100
AcDbEntity
  8
0
100
AcDbCircle
 10
184.37027
 20
-16.5
 30
0.0
 40
4.5
100
AcDbArc
 50
90.0
 51
270.0
  0
LINE
  5
3B15
330
3AB9
100
AcDbEntity
  8
0
100
AcDbLine
 10
184.37027
 20
-21.0
 30
0.0
 11
187.36
 21
-21.0
 31
0.0
  0
LINE
  5
3B16
330
3AB9
100
AcDbEntity
  8
0
100
AcDbLine
 10
184.37027
 20
-12.0
 30
0.0
 11
187.36
 21
-12.0
 31
0.0
  0
CIRCLE
  5
3B17
330
3AB9
100
AcDbEntity
  8
0
  6
Continuous
100
AcDbCircle
 10
84.370285
 20
-6.0
 30
0.0
 40
5.25
  0
CIRCLE
  5
3B18
330
3AB9
100
AcDbEntity
  8
0
  6
Continuous
100
AcDbCircle
 10
84.370285
 20
-83.999962
 30
0.0
 40
5.25
  0
CIRCLE
  5
3B19
330
3AB9
100
AcDbEntity
  8
0
  6
Continuous
100
AcDbCircle
 10
180.37027
 20
-83.999962
 30
0.0
 40
5.25
  0
CIRCLE
  5
3B1A
330
3AB9
100
AcDbEntity
  8
0
  6
Continuous
100
AcDbCircle
 10
180.37027
 20
-6.0
 30
0.0
 40
5.25
  0
CIRCLE
  5
3B1B
330
3AB9
100
AcDbEntity
  8
0
100
AcDbCircle
 10
184.37027
 20
-16.5
 30
0.0
 40
3.799999999999998
  0
CIRCLE
  5
3B1C
330
3AB9
100
AcDbEntity
  8
0
100
AcDbCircle
 10
184.37027
 20
-16.5
 30
0.0
 40
3.5
  0
LINE
  5
3B1D
330
3AB9
100
AcDbEntity
  8
0
100
AcDbLine
 10
186.170288
 20
-16.5
 30
0.0
 11
185.30426
 21
-15.0
 31
0.0
  0
LINE
  5
3B1E
330
3AB9
100
AcDbEntity
  8
0
100
AcDbLine
 10
182.570282
 20
-16.5
 30
0.0
 11
183.43631
 21
-15.0
 31
0.0
  0
LINE
  5
3B1F
330
3AB9
100
AcDbEntity
  8
0
100
AcDbLine
 10
186.170288
 20
-16.5
 30
0.0
 11
185.30426
 21
-18.0
 31
0.0
  0
LINE
  5
3B20
330
3AB9
100
AcDbEntity
  8
0
100
AcDbLine
 10
182.570282
 20
-16.5
 30
0.0
 11
183.43631
 21
-18.0
 31
0.0
  0
LINE
  5
3B21
330
3AB9
100
AcDbEntity
  8
0
100
AcDbLine
 10
185.30426
 20
-18.0
 30
0.0
 11
183.43631
 21
-18.0
 31
0.0
  0
LINE
  5
3B22
330
3AB9
100
AcDbEntity
  8
0
100
AcDbLine
 10
185.30426
 20
-15.0
 30
0.0
 11
183.43631
 21
-15.0
 31
0.0
  0
CIRCLE
  5
3B23
330
3AB9
100
AcDbEntity
  8
0
100
AcDbCircle
 10
184.37027
 20
-73.5
 30
0.0
 40
3.799999999999998
  0
CIRCLE
  5
3B24
330
3AB9
100
AcDbEntity
  8
0
100
AcDbCircle
 10
184.37027
 20
-73.5
 30
0.0
 40
3.5
  0
LINE
  5
3B25
330
3AB9
100
AcDbEntity
  8
0
100
AcDbLine
 10
186.170288
 20
-73.5
 30
0.0
 11
185.30426
 21
-72.0
 31
0.0
  0
LINE
  5
3B26
330
3AB9
100
AcDbEntity
  8
0
100
AcDbLine
 10
182.570282
 20
-73.5
 30
0.0
 11
183.43631
 21
-72.0
 31
0.0
  0
LINE
  5
3B27
330
3AB9
100
AcDbEntity
  8
0
100
AcDbLine
 10
186.170288
 20
-73.5
 30
0.0
 11
185.30426
 21
-75.0
 31
0.0
  0
LINE
  5
3B28
330
3AB9
100
AcDbEntity
  8
0
100
AcDbLine
 10
182.570282
 20
-73.5
 30
0.0
 11
183.43631
 21
-75.0
 31
0.0
  0
LINE
  5
3B29
330
3AB9
100
AcDbEntity
  8
0
100
AcDbLine
 10
185.30426
 20
-75.0
 30
0.0
 11
183.43631
 21
-75.0
 31
0.0
  0
LINE
  5
3B2A
330
3AB9
100
AcDbEntity
  8
0
100
AcDbLine
 10
185.30426
 20
-72.0
 30
0.0
 11
183.43631
 21
-72.0
 31
0.0
  0
CIRCLE
  5
3B2B
330
3AB9
100
AcDbEntity
  8
0
100
AcDbCircle
 10
80.37027
 20
-73.5
 30
0.0
 40
3.799999999999998
  0
CIRCLE
  5
3B2C
330
3AB9
100
AcDbEntity
  8
0
100
AcDbCircle
 10
80.37027
 20
-73.5
 30
0.0
 40
3.5
  0
LINE
  5
3B2D
330
3AB9
100
AcDbEntity
  8
0
100
AcDbLine
 10
82.170288
 20
-73.5
 30
0.0
 11
81.30426
 21
-72.0
 31
0.0
  0
LINE
  5
3B2E
330
3AB9
100
AcDbEntity
  8
0
100
AcDbLine
 10
78.570282
 20
-73.5
 30
0.0
 11
79.43631
 21
-72.0
 31
0.0
  0
LINE
  5
3B2F
330
3AB9
100
AcDbEntity
  8
0
100
AcDbLine
 10
82.170288
 20
-73.5
 30
0.0
 11
81.30426
 21
-75.0
 31
0.0
  0
LINE
  5
3B30
330
3AB9
100
AcDbEntity
  8
0
100
AcDbLine
 10
78.570282
 20
-73.5
 30
0.0
 11
79.43631
 21
-75.0
 31
0.0
  0
LINE
  5
3B31
330
3AB9
100
AcDbEntity
  8
0
100
AcDbLine
 10
81.30426
 20
-75.0
 30
0.0
 11
79.43631
 21
-75.0
 31
0.0
  0
LINE
  5
3B32
330
3AB9
100
AcDbEntity
  8
0
100
AcDbLine
 10
81.30426
 20
-72.0
 30
0.0
 11
79.43631
 21
-72.0
 31
0.0
  0
CIRCLE
  5
3B33
330
3AB9
100
AcDbEntity
  8
0
100
AcDbCircle
 10
80.37027
 20
-16.5
 30
0.0
 40
3.799999999999998
  0
CIRCLE
  5
3B34
330
3AB9
100
AcDbEntity
  8
0
100
AcDbCircle
 10
80.37027
 20
-16.5
 30
0.0
 40
3.5
  0
LINE
  5
3B35
330
3AB9
100
AcDbEntity
  8
0
100
AcDbLine
 10
82.170288
 20
-16.5
 30
0.0
 11
81.30426
 21
-15.0
 31
0.0
  0
LINE
  5
3B36
330
3AB9
100
AcDbEntity
  8
0
100
AcDbLine
 10
78.570282
 20
-16.5
 30
0.0
 11
79.43631
 21
-15.0
 31
0.0
  0
LINE
  5
3B37
330
3AB9
100
AcDbEntity
  8
0
100
AcDbLine
 10
82.170288
 20
-16.5
 30
0.0
 11
81.30426
 21
-18.0
 31
0.0
  0
LINE
  5
3B38
330
3AB9
100
AcDbEntity
  8
0
100
AcDbLine
 10
78.570282
 20
-16.5
 30
0.0
 11
79.43631
 21
-18.0
 31
0.0
  0
LINE
  5
3B39
330
3AB9
100
AcDbEntity
  8
0
100
AcDbLine
 10
81.30426
 20
-18.0
 30
0.0
 11
79.43631
 21
-18.0
 31
0.0
  0
LINE
  5
3B3A
330
3AB9
100
AcDbEntity
  8
0
100
AcDbLine
 10
81.30426
 20
-15.0
 30
0.0
 11
79.43631
 21
-15.0
 31
0.0
  0
CIRCLE
  5
3B3B
330
3AB9
100
AcDbEntity
  8
HOJO
100
AcDbCircle
 10
180.37027
 20
-6.0
 30
0.0
 40
5.0
  0
CIRCLE
  5
3B3C
330
3AB9
100
AcDbEntity
  8
HOJO
100
AcDbCircle
 10
84.37027
 20
-6.0
 30
0.0
 40
5.0
  0
CIRCLE
  5
3B3D
330
3AB9
100
AcDbEntity
  8
HOJO
100
AcDbCircle
 10
180.37027
 20
-84.0
 30
0.0
 40
5.0
  0
CIRCLE
  5
3B3E
330
3AB9
100
AcDbEntity
  8
HOJO
100
AcDbCircle
 10
84.37027
 20
-84.0
 30
0.0
 40
5.0
  0
CIRCLE
  5
3B3F
330
3AB9
100
AcDbEntity
  8
0
100
AcDbCircle
 10
180.37027
 20
-6.0
 30
0.0
 40
4.2
  0
CIRCLE
  5
3B40
330
3AB9
100
AcDbEntity
  8
0
100
AcDbCircle
 10
84.37027
 20
-6.0
 30
0.0
 40
4.2
  0
CIRCLE
  5
3B41
330
3AB9
100
AcDbEntity
  8
0
100
AcDbCircle
 10
180.37027
 20
-84.0
 30
0.0
 40
4.2
  0
CIRCLE
  5
3B42
330
3AB9
100
AcDbEntity
  8
0
100
AcDbCircle
 10
84.37027
 20
-84.0
 30
0.0
 40
4.2
  0
LINE
  5
3B43
330
3AB9
100
AcDbEntity
  8
0
100
AcDbLine
 10
179.87027
 20
-63.0
 30
0.0
 11
179.87027
 21
-26.679504
 31
0.0
  0
LINE
  5
3B44
330
3AB9
100
AcDbEntity
  8
0
100
AcDbLine
 10
84.87027
 20
-63.0
 30
0.0
 11
84.87027
 21
-26.679504
 31
0.0
  0
LINE
  5
3B45
330
3AB9
100
AcDbEntity
  8
0
100
AcDbLine
 10
109.87027
 20
-88.0
 30
0.0
 11
154.87027
 21
-88.0
 31
0.0
  0
LINE
  5
3B46
330
3AB9
100
AcDbEntity
  8
0
100
AcDbLine
 10
99.262009
 20
-82.53714
 30
0.0
 11
101.262009
 21
-81.850922
 31
0.0
  0
ARC
  5
3B47
330
3AB9
100
AcDbEntity
  8
0
100
AcDbCircle
 10
99.37027
 20
-82.5
 30
0.0
 40
2.0
100
AcDbArc
 50
0.0
 51
37.874985
  0
ARC
  5
3B48
330
3AB9
100
AcDbEntity
  8
0
100
AcDbCircle
 10
97.37027
 20
-83.186218
 30
0.0
 40
2.0
100
AcDbArc
 50
0.0
 51
37.874985
  0
ARC
  5
3B49
330
3AB9
100
AcDbEntity
  8
0
100
AcDbCircle
 10
109.87027
 20
-63.0
 30
0.0
 40
25.0
100
AcDbArc
 50
248.311188
 51
270.0
  0
LINE
  5
3B4A
330
3AB9
100
AcDbEntity
  8
0
100
AcDbLine
 10
99.37027
 20
-83.186218
 30
0.0
 11
99.37027
 21
-84.371704
 31
0.0
  0
ARC
  5
3B4B
330
3AB9
100
AcDbEntity
  8
0
100
AcDbCircle
 10
101.37027
 20
-84.371704
 30
0.0
 40
2.0
100
AcDbArc
 50
180.0
 51
248.311188
  0
LINE
  5
3B4C
330
3AB9
100
AcDbEntity
  8
0
100
AcDbLine
 10
101.37027
 20
-82.5
 30
0.0
 11
101.37027
 21
-85.062408
 31
0.0
  0
ARC
  5
3B4D
330
3AB9
100
AcDbEntity
  8
0
100
AcDbCircle
 10
103.37027
 20
-85.062408
 30
0.0
 40
2.0
100
AcDbArc
 50
180.0
 51
253.584045
  0
ARC
  5
3B4E
330
3AB9
100
AcDbEntity
  8
0
100
AcDbCircle
 10
109.87027
 20
-63.0
 30
0.0
 40
25.0
100
AcDbArc
 50
180.0
 51
190.015411
  0
ARC
  5
3B4F
330
3AB9
100
AcDbEntity
  8
0
100
AcDbCircle
 10
86.957398
 20
-65.0
 30
0.0
 40
2.0
100
AcDbArc
 50
184.988541
 51
270.0
  0
ARC
  5
3B50
330
3AB9
100
AcDbEntity
  8
0
100
AcDbCircle
 10
87.220764
 20
-67.0
 30
0.0
 40
2.0
100
AcDbArc
 50
190.015411
 51
270.0
  0
LINE
  5
3B51
330
3AB9
100
AcDbEntity
  8
0
100
AcDbLine
 10
89.47081
 20
-69.772125
 30
0.0
 11
98.948975
 21
-81.958328
 31
0.0
  0
LINE
  5
3B52
330
3AB9
100
AcDbEntity
  8
0
100
AcDbLine
 10
90.448975
 20
-67.772125
 30
0.0
 11
100.948975
 21
-81.272125
 31
0.0
  0
LINE
  5
3B53
330
3AB9
100
AcDbEntity
  8
0
100
AcDbLine
 10
88.87027
 20
-67.0
 30
0.0
 11
86.957398
 21
-67.0
 31
0.0
  0
LINE
  5
3B54
330
3AB9
100
AcDbEntity
  8
0
100
AcDbLine
 10
87.220764
 20
-69.0
 30
0.0
 11
87.892105
 21
-69.0
 31
0.0
  0
ARC
  5
3B55
330
3AB9
100
AcDbEntity
  8
0
100
AcDbCircle
 10
88.87027
 20
-69.0
 30
0.0
 40
2.0
100
AcDbArc
 50
37.874985
 51
90.0
  0
ARC
  5
3B56
330
3AB9
100
AcDbEntity
  8
0
100
AcDbCircle
 10
87.892105
 20
-71.0
 30
0.0
 40
2.0
100
AcDbArc
 50
37.874985
 51
90.0
  0
LINE
  5
3B57
330
3AB9
100
AcDbEntity
  8
0
100
AcDbLine
 10
88.770798
 20
-69.203369
 30
0.0
 11
89.748978
 21
-67.203369
 31
0.0
  0
LINE
  5
3B58
330
3AB9
100
AcDbEntity
  8
0
100
AcDbLine
 10
165.478516
 20
-82.53714
 30
0.0
 11
163.478516
 21
-81.850922
 31
0.0
  0
ARC
  5
3B59
330
3AB9
100
AcDbEntity
  8
0
100
AcDbCircle
 10
167.37027
 20
-83.186218
 30
0.0
 40
2.0
100
AcDbArc
 50
142.125015
 51
180.0
  0
ARC
  5
3B5A
330
3AB9
100
AcDbEntity
  8
0
100
AcDbCircle
 10
165.37027
 20
-82.5
 30
0.0
 40
2.0
100
AcDbArc
 50
142.125015
 51
180.0
  0
ARC
  5
3B5B
330
3AB9
100
AcDbEntity
  8
0
100
AcDbCircle
 10
161.37027
 20
-85.062408
 30
0.0
 40
2.0
100
AcDbArc
 50
286.415962
 51
0.0
  0
ARC
  5
3B5C
330
3AB9
100
AcDbEntity
  8
0
100
AcDbCircle
 10
154.87027
 20
-63.0
 30
0.0
 40
25.0
100
AcDbArc
 50
270.0
 51
291.688812
  0
LINE
  5
3B5D
330
3AB9
100
AcDbEntity
  8
0
100
AcDbLine
 10
163.37027
 20
-82.5
 30
0.0
 11
163.37027
 21
-85.062408
 31
0.0
  0
ARC
  5
3B5E
330
3AB9
100
AcDbEntity
  8
0
100
AcDbCircle
 10
163.37027
 20
-84.371704
 30
0.0
 40
2.0
100
AcDbArc
 50
291.688805
 51
0.0
  0
LINE
  5
3B5F
330
3AB9
100
AcDbEntity
  8
0
100
AcDbLine
 10
165.37027
 20
-83.186218
 30
0.0
 11
165.37027
 21
-84.371704
 31
0.0
  0
ARC
  5
3B60
330
3AB9
100
AcDbEntity
  8
0
100
AcDbCircle
 10
154.87027
 20
-63.0
 30
0.0
 40
25.0
100
AcDbArc
 50
349.98459
 51
0.0
  0
LINE
  5
3B61
330
3AB9
100
AcDbEntity
  8
0
100
AcDbLine
 10
175.87027
 20
-67.0
 30
0.0
 11
177.783142
 21
-67.0
 31
0.0
  0
LINE
  5
3B62
330
3AB9
100
AcDbEntity
  8
0
100
AcDbLine
 10
177.519776
 20
-69.0
 30
0.0
 11
176.84845
 21
-69.0
 31
0.0
  0
LINE
  5
3B63
330
3AB9
100
AcDbEntity
  8
0
100
AcDbLine
 10
175.269745
 20
-69.772125
 30
0.0
 11
165.791565
 21
-81.958328
 31
0.0
  0
LINE
  5
3B64
330
3AB9
100
AcDbEntity
  8
0
100
AcDbLine
 10
174.291565
 20
-67.772125
 30
0.0
 11
163.791565
 21
-81.272125
 31
0.0
  0
ARC
  5
3B65
330
3AB9
100
AcDbEntity
  8
0
100
AcDbCircle
 10
175.87027
 20
-69.0
 30
0.0
 40
2.0
100
AcDbArc
 50
90.0
 51
142.125015
  0
ARC
  5
3B66
330
3AB9
100
AcDbEntity
  8
0
100
AcDbCircle
 10
176.84845
 20
-71.0
 30
0.0
 40
2.0
100
AcDbArc
 50
90.0
 51
142.125015
  0
LINE
  5
3B67
330
3AB9
100
AcDbEntity
  8
0
100
AcDbLine
 10
175.969727
 20
-69.203369
 30
0.0
 11
174.991577
 21
-67.203369
 31
0.0
  0
ARC
  5
3B68
330
3AB9
100
AcDbEntity
  8
0
100
AcDbCircle
 10
177.783142
 20
-65.0
 30
0.0
 40
2.0
100
AcDbArc
 50
270.0
 51
355.011444
  0
ARC
  5
3B69
330
3AB9
100
AcDbEntity
  8
0
100
AcDbCircle
 10
177.519776
 20
-67.0
 30
0.0
 40
2.0
100
AcDbArc
 50
270.0
 51
349.984589
  0
LINE
  5
3B6A
330
3AB9
100
AcDbEntity
  8
0
100
AcDbLine
 10
154.87027
 20
-2.0
 30
0.0
 11
109.87027
 21
-2.0
 31
0.0
  0
LINE
  5
3B6B
330
3AB9
100
AcDbEntity
  8
0
100
AcDbLine
 10
89.47081
 20
-20.227875
 30
0.0
 11
98.948975
 21
-8.041656
 31
0.0
  0
LINE
  5
3B6C
330
3AB9
100
AcDbEntity
  8
0
100
AcDbLine
 10
90.448975
 20
-22.227875
 30
0.0
 11
100.948975
 21
-8.727875
 31
0.0
  0
ARC
  5
3B6D
330
3AB9
100
AcDbEntity
  8
0
100
AcDbCircle
 10
86.957398
 20
-25.0
 30
0.0
 40
2.0
100
AcDbArc
 50
90.0
 51
175.011459
  0
ARC
  5
3B6E
330
3AB9
100
AcDbEntity
  8
0
100
AcDbCircle
 10
87.220764
 20
-23.0
 30
0.0
 40
2.0
100
AcDbArc
 50
90.0
 51
169.984589
  0
ARC
  5
3B6F
330
3AB9
100
AcDbEntity
  8
0
100
AcDbCircle
 10
109.87027
 20
-27.0
 30
0.0
 40
25.0
100
AcDbArc
 50
169.984589
 51
180.0
  0
ARC
  5
3B70
330
3AB9
100
AcDbEntity
  8
0
100
AcDbCircle
 10
88.87027
 20
-21.0
 30
0.0
 40
2.0
100
AcDbArc
 50
270.0
 51
322.125031
  0
LINE
  5
3B71
330
3AB9
100
AcDbEntity
  8
0
100
AcDbLine
 10
88.770798
 20
-20.796631
 30
0.0
 11
89.748978
 21
-22.796631
 31
0.0
  0
LINE
  5
3B72
330
3AB9
100
AcDbEntity
  8
0
100
AcDbLine
 10
88.87027
 20
-23.0
 30
0.0
 11
86.957398
 21
-23.0
 31
0.0
  0
LINE
  5
3B73
330
3AB9
100
AcDbEntity
  8
0
100
AcDbLine
 10
87.220764
 20
-21.0
 30
0.0
 11
87.892105
 21
-21.0
 31
0.0
  0
ARC
  5
3B74
330
3AB9
100
AcDbEntity
  8
0
100
AcDbCircle
 10
87.892105
 20
-19.0
 30
0.0
 40
2.0
100
AcDbArc
 50
270.0
 51
322.125031
  0
ARC
  5
3B75
330
3AB9
100
AcDbEntity
  8
0
100
AcDbCircle
 10
99.37027
 20
-7.5
 30
0.0
 40
2.0
100
AcDbArc
 50
322.125015
 51
0.0
  0
LINE
  5
3B76
330
3AB9
100
AcDbEntity
  8
0
100
AcDbLine
 10
99.262009
 20
-7.46286
 30
0.0
 11
101.262009
 21
-8.149078
 31
0.0
  0
ARC
  5
3B77
330
3AB9
100
AcDbEntity
  8
0
100
AcDbCircle
 10
109.87027
 20
-27.0
 30
0.0
 40
25.0
100
AcDbArc
 50
90.0
 51
111.688805
  0
ARC
  5
3B78
330
3AB9
100
AcDbEntity
  8
0
100
AcDbCircle
 10
101.37027
 20
-5.628296
 30
0.0
 40
2.0
100
AcDbArc
 50
111.688805
 51
180.0
  0
LINE
  5
3B79
330
3AB9
100
AcDbEntity
  8
0
100
AcDbLine
 10
99.37027
 20
-6.813782
 30
0.0
 11
99.37027
 21
-5.628296
 31
0.0
  0
ARC
  5
3B7A
330
3AB9
100
AcDbEntity
  8
0
100
AcDbCircle
 10
97.37027
 20
-6.813782
 30
0.0
 40
2.0
100
AcDbArc
 50
322.125015
 51
0.0
  0
LINE
  5
3B7B
330
3AB9
100
AcDbEntity
  8
0
100
AcDbLine
 10
101.37027
 20
-7.5
 30
0.0
 11
101.37027
 21
-4.937592
 31
0.0
  0
ARC
  5
3B7C
330
3AB9
100
AcDbEntity
  8
0
100
AcDbCircle
 10
103.37027
 20
-4.937592
 30
0.0
 40
2.0
100
AcDbArc
 50
106.415962
 51
180.0
  0
LINE
  5
3B7D
330
3AB9
100
AcDbEntity
  8
0
100
AcDbLine
 10
175.269745
 20
-20.227875
 30
0.0
 11
165.791565
 21
-8.041656
 31
0.0
  0
LINE
  5
3B7E
330
3AB9
100
AcDbEntity
  8
0
100
AcDbLine
 10
174.291565
 20
-22.227875
 30
0.0
 11
163.791565
 21
-8.727875
 31
0.0
  0
LINE
  5
3B7F
330
3AB9
100
AcDbEntity
  8
0
100
AcDbLine
 10
177.519776
 20
-21.0
 30
0.0
 11
176.84845
 21
-21.0
 31
0.0
  0
LINE
  5
3B80
330
3AB9
100
AcDbEntity
  8
0
100
AcDbLine
 10
175.87027
 20
-23.0
 30
0.0
 11
177.783142
 21
-23.0
 31
0.0
  0
ARC
  5
3B81
330
3AB9
100
AcDbEntity
  8
0
100
AcDbCircle
 10
175.87027
 20
-21.0
 30
0.0
 40
2.0
100
AcDbArc
 50
217.874985
 51
270.0
  0
LINE
  5
3B82
330
3AB9
100
AcDbEntity
  8
0
100
AcDbLine
 10
175.969727
 20
-20.796631
 30
0.0
 11
174.991577
 21
-22.796631
 31
0.0
  0
ARC
  5
3B83
330
3AB9
100
AcDbEntity
  8
0
100
AcDbCircle
 10
176.84845
 20
-19.0
 30
0.0
 40
2.0
100
AcDbArc
 50
217.874985
 51
270.0
  0
ARC
  5
3B84
330
3AB9
100
AcDbEntity
  8
0
100
AcDbCircle
 10
177.519776
 20
-23.0
 30
0.0
 40
2.0
100
AcDbArc
 50
10.01541
 51
90.0
  0
ARC
  5
3B85
330
3AB9
100
AcDbEntity
  8
0
100
AcDbCircle
 10
177.783142
 20
-25.0
 30
0.0
 40
2.0
100
AcDbArc
 50
4.988542
 51
90.0
  0
ARC
  5
3B86
330
3AB9
100
AcDbEntity
  8
0
100
AcDbCircle
 10
154.87027
 20
-27.0
 30
0.0
 40
25.0
100
AcDbArc
 50
0.0
 51
10.01541
  0
ARC
  5
3B87
330
3AB9
100
AcDbEntity
  8
0
100
AcDbCircle
 10
161.37027
 20
-4.937592
 30
0.0
 40
2.0
100
AcDbArc
 50
0.0
 51
73.584038
  0
ARC
  5
3B88
330
3AB9
100
AcDbEntity
  8
0
100
AcDbCircle
 10
154.87027
 20
-27.0
 30
0.0
 40
25.0
100
AcDbArc
 50
68.311195
 51
90.0
  0
ARC
  5
3B89
330
3AB9
100
AcDbEntity
  8
0
100
AcDbCircle
 10
163.37027
 20
-5.628296
 30
0.0
 40
2.0
100
AcDbArc
 50
0.0
 51
68.311195
  0
LINE
  5
3B8A
330
3AB9
100
AcDbEntity
  8
0
100
AcDbLine
 10
163.37027
 20
-7.5
 30
0.0
 11
163.37027
 21
-4.937592
 31
0.0
  0
LINE
  5
3B8B
330
3AB9
100
AcDbEntity
  8
0
100
AcDbLine
 10
165.37027
 20
-6.813782
 30
0.0
 11
165.37027
 21
-5.628296
 31
0.0
  0
LINE
  5
3B8C
330
3AB9
100
AcDbEntity
  8
0
100
AcDbLine
 10
165.478516
 20
-7.46286
 30
0.0
 11
163.478516
 21
-8.149078
 31
0.0
  0
ARC
  5
3B8D
330
3AB9
100
AcDbEntity
  8
0
100
AcDbCircle
 10
165.37027
 20
-7.5
 30
0.0
 40
2.0
100
AcDbArc
 50
180.0
 51
217.874985
  0
ARC
  5
3B8E
330
3AB9
100
AcDbEntity
  8
0
100
AcDbCircle
 10
167.37027
 20
-6.813782
 30
0.0
 40
2.0
100
AcDbArc
 50
180.0
 51
217.874985
  0
ARC
  5
3B8F
330
3AB9
100
AcDbEntity
  8
0
100
AcDbCircle
 10
85.1284230626
 20
-85.2224888727
 30
0.0
 40
9.150858197714477
100
AcDbArc
 50
178.6068050225
 51
240.5119553746
  0
ARC
  5
3B90
330
3AB9
100
AcDbEntity
  8
0
100
AcDbCircle
 10
84.36
 20
-5.0
 30
0.0
 40
9.0
100
AcDbArc
 50
49.052811545
 51
117.0437045388
  0
ARC
  5
3B91
330
3AB9
100
AcDbEntity
  8
0
100
AcDbCircle
 10
85.1284230626
 20
-4.7775111273
 30
0.0
 40
9.150858197714477
100
AcDbArc
 50
119.4880446254
 51
181.3931949775
  0
ENDBLK
  5
3B92
330
3AB9
100
AcDbEntity
  8
0
100
AcDbBlockEnd
  0
BLOCK
  5
3B9E
330
3B9B
100
AcDbEntity
  8
0
100
AcDbBlockBegin
  2
A$C0221c00d
 70
     0
 10
0.0
 20
0.0
 30
0.0
  3
A$C0221c00d
  1

  0
LINE
  5
3B9F
330
3B9B
100
AcDbEntity
  8
0
100
AcDbLine
 10
0.0
 20
-34.4093010682
 30
0.0
 11
-75.3703
 21
-34.4093010682
 31
0.0
  0
LINE
  5
3BA0
330
3B9B
100
AcDbEntity
  8
0
100
AcDbLine
 10
0.0
 20
34.4093010682
 30
0.0
 11
-75.3703
 21
34.4093010682
 31
0.0
  0
LINE
  5
3BA1
330
3B9B
100
AcDbEntity
  8
0
100
AcDbLine
 10
-73.8893356544
 20
45.0
 30
0.0
 11
0.0
 21
45.0
 31
0.0
  0
ARC
  5
3BA2
330
3B9B
100
AcDbEntity
  8
0
100
AcDbCircle
 10
-73.8893356544
 20
47.0
 30
0.0
 40
2.0
100
AcDbArc
 50
242.9562954612
 51
270.0
  0
ARC
  5
3BA3
330
3B9B
100
AcDbEntity
  8
0
100
AcDbCircle
 10
-180.3703
 20
-40.0
 30
0.0
 40
9.0
100
AcDbArc
 50
180.0
 51
310.947188455
  0
LINE
  5
3BA4
330
3B9B
100
AcDbEntity
  8
0
100
AcDbLine
 10
-180.3703
 20
-49.0
 30
0.0
 11
-84.3703
 21
-49.0
 31
0.0
  0
LINE
  5
3BA5
330
3B9B
100
AcDbEntity
  8
0
100
AcDbLine
 10
-189.3703
 20
40.0
 30
0.0
 11
-189.3703
 21
-40.0
 31
0.0
  0
LINE
  5
3BA6
330
3B9B
100
AcDbEntity
  8
0
100
AcDbLine
 10
-75.3703
 20
40.0
 30
0.0
 11
-75.3703
 21
21.8284421707
 31
0.0
  0
ARC
  5
3BA7
330
3B9B
100
AcDbEntity
  8
0
100
AcDbCircle
 10
-150.8703
 20
-16.5
 30
0.0
 40
34.0
100
AcDbArc
 50
240.5450656692
 51
247.0804578484
  0
ARC
  5
3BA8
330
3B9B
100
AcDbEntity
  8
0
100
AcDbCircle
 10
-158.2696242935
 20
-34.0
 30
0.0
 40
15.0
100
AcDbArc
 50
247.0804578484
 51
270.0
  0
ARC
  5
3BA9
330
3B9B
100
AcDbEntity
  8
0
100
AcDbCircle
 10
-170.5398533815
 20
-51.329709585
 30
0.0
 40
6.0
100
AcDbArc
 50
60.5450656692
 51
130.947188455
  0
ARC
  5
3BAA
330
3B9B
100
AcDbEntity
  8
0
100
AcDbCircle
 10
-106.4709757065
 20
-34.0
 30
0.0
 40
15.0
100
AcDbArc
 50
270.0
 51
292.9195421516
  0
ARC
  5
3BAB
330
3B9B
100
AcDbEntity
  8
0
100
AcDbCircle
 10
-94.2007466185
 20
-51.329709585
 30
0.0
 40
6.0
100
AcDbArc
 50
49.052811545
 51
119.4549343308
  0
ARC
  5
3BAC
330
3B9B
100
AcDbEntity
  8
0
100
AcDbCircle
 10
-113.8703
 20
-16.5
 30
0.0
 40
34.0
100
AcDbArc
 50
292.9195421516
 51
299.4549343308
  0
LINE
  5
3BAD
330
3B9B
100
AcDbEntity
  8
0
100
AcDbLine
 10
-180.3703
 20
49.0
 30
0.0
 11
-84.3703
 21
49.0
 31
0.0
  0
ARC
  5
3BAE
330
3B9B
100
AcDbEntity
  8
0
100
AcDbCircle
 10
-158.2696242935
 20
34.0
 30
0.0
 40
15.0
100
AcDbArc
 50
90.0
 51
112.9195421516
  0
ARC
  5
3BAF
330
3B9B
100
AcDbEntity
  8
0
100
AcDbCircle
 10
-180.3703
 20
40.0
 30
0.0
 40
9.0
100
AcDbArc
 50
49.052811545
 51
180.0
  0
ARC
  5
3BB0
330
3B9B
100
AcDbEntity
  8
0
100
AcDbCircle
 10
-170.5398533815
 20
51.329709585
 30
0.0
 40
6.0
100
AcDbArc
 50
229.052811545
 51
299.4549343308
  0
ARC
  5
3BB1
330
3B9B
100
AcDbEntity
  8
0
100
AcDbCircle
 10
-150.8703
 20
16.5
 30
0.0
 40
34.0
100
AcDbArc
 50
112.9195421516
 51
119.4549343308
  0
ARC
  5
3BB2
330
3B9B
100
AcDbEntity
  8
0
100
AcDbCircle
 10
-84.3703
 20
40.0
 30
0.0
 40
9.0
100
AcDbArc
 50
0.0
 51
130.947188455
  0
ARC
  5
3BB3
330
3B9B
100
AcDbEntity
  8
0
100
AcDbCircle
 10
-106.4709757065
 20
34.0
 30
0.0
 40
15.0
100
AcDbArc
 50
67.0804578484
 51
90.0
  0
ARC
  5
3BB4
330
3B9B
100
AcDbEntity
  8
0
100
AcDbCircle
 10
-113.8703
 20
16.5
 30
0.0
 40
34.0
100
AcDbArc
 50
60.5450656692
 51
67.0804578484
  0
ARC
  5
3BB5
330
3B9B
100
AcDbEntity
  8
0
100
AcDbCircle
 10
-94.2007466185
 20
51.329709585
 30
0.0
 40
6.0
100
AcDbArc
 50
240.5450656692
 51
310.947188455
  0
LINE
  5
3BB6
330
3B9B
100
AcDbEntity
  8
0
100
AcDbLine
 10
-75.3703
 20
-40.0
 30
0.0
 11
-75.3703
 21
-21.8284421707
 31
0.0
  0
LINE
  5
3BB7
330
3B9B
100
AcDbEntity
  8
0
100
AcDbLine
 10
-73.8893356544
 20
-45.0
 30
0.0
 11
0.0
 21
-45.0
 31
0.0
  0
LINE
  5
3BB8
330
3B9B
100
AcDbEntity
  8
0
100
AcDbLine
 10
-184.8701844159
 20
15.6715578293
 30
0.0
 11
-184.8701844159
 21
-15.6715578293
 31
0.0
  0
ARC
  5
3BB9
330
3B9B
100
AcDbEntity
  8
0
100
AcDbCircle
 10
-186.8701844159
 20
-15.6715578293
 30
0.0
 40
2.0
100
AcDbArc
 50
314.9992641783
 51
0.0
  0
LINE
  5
3BBA
330
3B9B
100
AcDbEntity
  8
0
100
AcDbLine
 10
-188.7844954002
 20
-20.4142104464
 30
0.0
 11
-185.4559890157
 21
-17.0857895536
 31
0.0
  0
ARC
  5
3BBB
330
3B9B
100
AcDbEntity
  8
0
100
AcDbCircle
 10
-187.3703
 20
-21.8284421707
 30
0.0
 40
2.0
100
AcDbArc
 50
134.9992641783
 51
180.0
  0
ARC
  5
3BBC
330
3B9B
100
AcDbEntity
  8
0
100
AcDbCircle
 10
-186.8701844159
 20
15.6715578293
 30
0.0
 40
2.0
100
AcDbArc
 50
0.0
 51
45.0007358217
  0
LINE
  5
3BBD
330
3B9B
100
AcDbEntity
  8
0
100
AcDbLine
 10
-188.7844954002
 20
20.4142104464
 30
0.0
 11
-185.4559890157
 21
17.0857895536
 31
0.0
  0
ARC
  5
3BBE
330
3B9B
100
AcDbEntity
  8
0
100
AcDbCircle
 10
-187.3703
 20
21.8284421707
 30
0.0
 40
2.0
100
AcDbArc
 50
180.0
 51
225.0007358217
  0
LINE
  5
3BBF
330
3B9B
100
AcDbEntity
  8
0
100
AcDbLine
 10
-79.8704155841
 20
15.6715578293
 30
0.0
 11
-79.8704155841
 21
-15.6715578293
 31
0.0
  0
ARC
  5
3BC0
330
3B9B
100
AcDbEntity
  8
0
100
AcDbCircle
 10
-77.8704155841
 20
-15.6715578293
 30
0.0
 40
2.0
100
AcDbArc
 50
180.0
 51
225.0007358217
  0
LINE
  5
3BC1
330
3B9B
100
AcDbEntity
  8
0
100
AcDbLine
 10
-75.9561045998
 20
-20.4142104464
 30
0.0
 11
-79.2846109843
 21
-17.0857895536
 31
0.0
  0
ARC
  5
3BC2
330
3B9B
100
AcDbEntity
  8
0
100
AcDbCircle
 10
-77.3703
 20
-21.8284421707
 30
0.0
 40
2.0
100
AcDbArc
 50
0.0
 51
45.0007358217
  0
ARC
  5
3BC3
330
3B9B
100
AcDbEntity
  8
0
100
AcDbCircle
 10
-77.8704155841
 20
15.6715578293
 30
0.0
 40
2.0
100
AcDbArc
 50
134.9992641783
 51
180.0
  0
LINE
  5
3BC4
330
3B9B
100
AcDbEntity
  8
0
100
AcDbLine
 10
-75.9561045998
 20
20.4142104464
 30
0.0
 11
-79.2846109843
 21
17.0857895536
 31
0.0
  0
ARC
  5
3BC5
330
3B9B
100
AcDbEntity
  8
0
100
AcDbCircle
 10
-77.3703
 20
21.8284421707
 30
0.0
 40
2.0
100
AcDbArc
 50
314.9992641783
 51
0.0
  0
ARC
  5
3BC6
330
3B9B
100
AcDbEntity
  8
0
100
AcDbCircle
 10
-84.3703
 20
-40.0
 30
0.0
 40
9.0
100
AcDbArc
 50
229.052811545
 51
0.0
  0
LINE
  5
3BC7
330
3B9B
100
AcDbEntity
  8
0
100
AcDbLine
 10
-74.7986756879
 20
45.2186800671
 30
0.0
 11
-80.2782698491
 21
48.0159396981
 31
0.0
  0
ARC
  5
3BC8
330
3B9B
100
AcDbEntity
  8
0
100
AcDbCircle
 10
-73.8893356544
 20
-47.0
 30
0.0
 40
2.0
100
AcDbArc
 50
90.0
 51
117.0437045388
  0
LINE
  5
3BC9
330
3B9B
100
AcDbEntity
  8
0
100
AcDbLine
 10
-74.7986756879
 20
-45.2186800671
 30
0.0
 11
-80.2782698491
 21
-48.0159396981
 31
0.0
  0
CIRCLE
  5
3BCA
330
3B9B
100
AcDbEntity
  8
0
  6
Continuous
100
AcDbCircle
 10
-144.8703
 20
0.0
 30
0.0
 40
25.548
  0
CIRCLE
  5
3BCB
330
3B9B
100
AcDbEntity
  8
0
  6
Continuous
100
AcDbCircle
 10
-144.8703
 20
0.0
 30
0.0
 40
23.0
  0
CIRCLE
  5
3BCC
330
3B9B
100
AcDbEntity
  8
0
  6
Continuous
100
AcDbCircle
 10
-144.8703
 20
0.0
 30
0.0
 40
17.5
  0
CIRCLE
  5
3BCD
330
3B9B
100
AcDbEntity
  8
0
  6
Continuous
100
AcDbCircle
 10
-144.8703
 20
0.0
 30
0.0
 40
19.5
  0
CIRCLE
  5
3BCE
330
3B9B
100
AcDbEntity
  8
0
100
AcDbCircle
 10
-84.3703
 20
39.0
 30
0.0
 40
4.2
  0
CIRCLE
  5
3BCF
330
3B9B
100
AcDbEntity
  8
0
100
AcDbCircle
 10
-180.3703
 20
39.0
 30
0.0
 40
4.2
  0
CIRCLE
  5
3BD0
330
3B9B
100
AcDbEntity
  8
0
100
AcDbCircle
 10
-84.3703
 20
-39.0
 30
0.0
 40
4.2
  0
CIRCLE
  5
3BD1
330
3B9B
100
AcDbEntity
  8
0
100
AcDbCircle
 10
-180.3703
 20
-39.0
 30
0.0
 40
4.2
  0
CIRCLE
  5
3BD2
330
3B9B
100
AcDbEntity
  8
HOJO
100
AcDbCircle
 10
-84.3703
 20
39.0
 30
0.0
 40
5.0
  0
CIRCLE
  5
3BD3
330
3B9B
100
AcDbEntity
  8
HOJO
100
AcDbCircle
 10
-180.3703
 20
39.0
 30
0.0
 40
5.0
  0
CIRCLE
  5
3BD4
330
3B9B
100
AcDbEntity
  8
HOJO
100
AcDbCircle
 10
-180.3703
 20
-39.0
 30
0.0
 40
5.0
  0
CIRCLE
  5
3BD5
330
3B9B
100
AcDbEntity
  8
HOJO
100
AcDbCircle
 10
-84.3703
 20
-39.0
 30
0.0
 40
5.0
  0
LINE
  5
3BD6
330
3B9B
100
AcDbEntity
  8
CENTER
100
AcDbLine
 10
-172.391662
 20
39.0
 30
0.0
 11
-188.348938
 21
39.0
 31
0.0
  0
LINE
  5
3BD7
330
3B9B
100
AcDbEntity
  8
CENTER
100
AcDbLine
 10
-180.3703
 20
46.978638
 30
0.0
 11
-180.3703
 21
31.021362
 31
0.0
  0
LINE
  5
3BD8
330
3B9B
100
AcDbEntity
  8
CENTER
100
AcDbLine
 10
-76.391662
 20
39.0
 30
0.0
 11
-92.348938
 21
39.0
 31
0.0
  0
LINE
  5
3BD9
330
3B9B
100
AcDbEntity
  8
CENTER
100
AcDbLine
 10
-84.3703
 20
46.978638
 30
0.0
 11
-84.3703
 21
31.021362
 31
0.0
  0
LINE
  5
3BDA
330
3B9B
100
AcDbEntity
  8
CENTER
100
AcDbLine
 10
-76.391662
 20
-39.0
 30
0.0
 11
-92.348938
 21
-39.0
 31
0.0
  0
LINE
  5
3BDB
330
3B9B
100
AcDbEntity
  8
CENTER
100
AcDbLine
 10
-84.3703
 20
-31.021362
 30
0.0
 11
-84.3703
 21
-46.978638
 31
0.0
  0
LINE
  5
3BDC
330
3B9B
100
AcDbEntity
  8
CENTER
100
AcDbLine
 10
-172.391662
 20
-39.0
 30
0.0
 11
-188.348938
 21
-39.0
 31
0.0
  0
LINE
  5
3BDD
330
3B9B
100
AcDbEntity
  8
CENTER
100
AcDbLine
 10
-180.3703
 20
-31.021362
 30
0.0
 11
-180.3703
 21
-46.978638
 31
0.0
  0
LINE
  5
3BDE
330
3B9B
100
AcDbEntity
  8
CENTER
100
AcDbLine
 10
-144.8703
 20
33.6821635
 30
0.0
 11
-144.8703
 21
-33.6821635
 31
0.0
  0
LINE
  5
3BDF
330
3B9B
100
AcDbEntity
  8
CENTER
100
AcDbLine
 10
-146.8674436841
 20
0.0
 30
0.0
 11
-142.8731563159
 21
0.0
 31
0.0
  0
LINE
  5
3BE0
330
3B9B
100
AcDbEntity
  8
0
100
AcDbLine
 10
-150.3703
 20
3.0
 30
0.0
 11
-150.3703
 21
-3.0
 31
0.0
  0
LINE
  5
3BE1
330
3B9B
100
AcDbEntity
  8
0
100
AcDbLine
 10
-156.3703
 20
3.0
 30
0.0
 11
-156.3703
 21
-3.0
 31
0.0
  0
ARC
  5
3BE2
330
3B9B
100
AcDbEntity
  8
0
100
AcDbCircle
 10
-144.8703
 20
0.0
 30
0.0
 40
9.0
100
AcDbArc
 50
199.471222
 51
160.528778
  0
ARC
  5
3BE3
330
3B9B
100
AcDbEntity
  8
0
100
AcDbCircle
 10
-144.8703
 20
0.0
 30
0.0
 40
10.0
100
AcDbArc
 50
197.457596
 51
162.542404
  0
LINE
  5
3BE4
330
3B9B
100
AcDbEntity
  8
0
100
AcDbLine
 10
-150.3703
 20
-3.0
 30
0.0
 11
-156.3703
 21
-3.0
 31
0.0
  0
LINE
  5
3BE5
330
3B9B
100
AcDbEntity
  8
0
100
AcDbLine
 10
-150.3703
 20
3.0
 30
0.0
 11
-156.3703
 21
3.0
 31
0.0
  0
LINE
  5
3BE6
330
3B9B
100
AcDbEntity
  8
0
100
AcDbLine
 10
-179.8703
 20
-18.0
 30
0.0
 11
-179.8703
 21
18.320496
 31
0.0
  0
LINE
  5
3BE7
330
3B9B
100
AcDbEntity
  8
0
100
AcDbLine
 10
-84.8703
 20
-18.0
 30
0.0
 11
-84.8703
 21
18.320496
 31
0.0
  0
ARC
  5
3BE8
330
3B9B
100
AcDbEntity
  8
0
100
AcDbCircle
 10
-87.220825
 20
-22.0
 30
0.0
 40
2.0
100
AcDbArc
 50
270.0
 51
349.98459
  0
ARC
  5
3BE9
330
3B9B
100
AcDbEntity
  8
0
100
AcDbCircle
 10
-86.957397
 20
-20.0
 30
0.0
 40
2.0
100
AcDbArc
 50
270.0
 51
355.011458
  0
LINE
  5
3BEA
330
3B9B
100
AcDbEntity
  8
0
100
AcDbLine
 10
-109.8703
 20
-43.0
 30
0.0
 11
-154.8703
 21
-43.0
 31
0.0
  0
ARC
  5
3BEB
330
3B9B
100
AcDbEntity
  8
0
100
AcDbCircle
 10
-161.3703
 20
-40.062408
 30
0.0
 40
2.0
100
AcDbArc
 50
180.0
 51
253.584045
  0
ARC
  5
3BEC
330
3B9B
100
AcDbEntity
  8
0
100
AcDbCircle
 10
-163.3703
 20
-39.371704
 30
0.0
 40
2.0
100
AcDbArc
 50
180.0
 51
248.311188
  0
ARC
  5
3BED
330
3B9B
100
AcDbEntity
  8
0
100
AcDbCircle
 10
-154.8703
 20
-18.0
 30
0.0
 40
25.0
100
AcDbArc
 50
248.311188
 51
270.0
  0
ARC
  5
3BEE
330
3B9B
100
AcDbEntity
  8
0
100
AcDbCircle
 10
-154.8703
 20
-18.0
 30
0.0
 40
25.0
100
AcDbArc
 50
180.0
 51
190.015411
  0
LINE
  5
3BEF
330
3B9B
100
AcDbEntity
  8
0
100
AcDbLine
 10
-165.478576
 20
-37.53714
 30
0.0
 11
-163.478576
 21
-36.850922
 31
0.0
  0
LINE
  5
3BF0
330
3B9B
100
AcDbEntity
  8
0
100
AcDbLine
 10
-174.291626
 20
-22.772125
 30
0.0
 11
-163.791626
 21
-36.272125
 31
0.0
  0
LINE
  5
3BF1
330
3B9B
100
AcDbEntity
  8
0
100
AcDbLine
 10
-175.269775
 20
-24.772125
 30
0.0
 11
-165.791626
 21
-36.958328
 31
0.0
  0
ARC
  5
3BF2
330
3B9B
100
AcDbEntity
  8
0
100
AcDbCircle
 10
-167.3703
 20
-38.186218
 30
0.0
 40
2.0
100
AcDbArc
 50
0.0
 51
37.874985
  0
LINE
  5
3BF3
330
3B9B
100
AcDbEntity
  8
0
100
AcDbLine
 10
-165.3703
 20
-38.186218
 30
0.0
 11
-165.3703
 21
-39.371704
 31
0.0
  0
ARC
  5
3BF4
330
3B9B
100
AcDbEntity
  8
0
100
AcDbCircle
 10
-175.8703
 20
-24.0
 30
0.0
 40
2.0
100
AcDbArc
 50
37.874985
 51
90.0
  0
LINE
  5
3BF5
330
3B9B
100
AcDbEntity
  8
0
100
AcDbLine
 10
-175.969787
 20
-24.203369
 30
0.0
 11
-174.991577
 21
-22.203369
 31
0.0
  0
ARC
  5
3BF6
330
3B9B
100
AcDbEntity
  8
0
100
AcDbCircle
 10
-176.848449
 20
-26.0
 30
0.0
 40
2.0
100
AcDbArc
 50
37.874985
 51
90.0
  0
ARC
  5
3BF7
330
3B9B
100
AcDbEntity
  8
0
100
AcDbCircle
 10
-177.519775
 20
-22.0
 30
0.0
 40
2.0
100
AcDbArc
 50
190.015411
 51
270.0
  0
ARC
  5
3BF8
330
3B9B
100
AcDbEntity
  8
0
100
AcDbCircle
 10
-177.783203
 20
-20.0
 30
0.0
 40
2.0
100
AcDbArc
 50
184.988541
 51
270.0
  0
LINE
  5
3BF9
330
3B9B
100
AcDbEntity
  8
0
100
AcDbLine
 10
-175.8703
 20
-22.0
 30
0.0
 11
-177.783203
 21
-22.0
 31
0.0
  0
LINE
  5
3BFA
330
3B9B
100
AcDbEntity
  8
0
100
AcDbLine
 10
-177.519775
 20
-24.0
 30
0.0
 11
-176.848449
 21
-24.0
 31
0.0
  0
ARC
  5
3BFB
330
3B9B
100
AcDbEntity
  8
0
100
AcDbCircle
 10
-165.3703
 20
-37.5
 30
0.0
 40
2.0
100
AcDbArc
 50
0.0
 51
37.874985
  0
LINE
  5
3BFC
330
3B9B
100
AcDbEntity
  8
0
100
AcDbLine
 10
-163.3703
 20
-37.5
 30
0.0
 11
-163.3703
 21
-40.062408
 31
0.0
  0
ARC
  5
3BFD
330
3B9B
100
AcDbEntity
  8
0
100
AcDbCircle
 10
-103.3703
 20
-40.062408
 30
0.0
 40
2.0
100
AcDbArc
 50
286.415962
 51
0.0
  0
ARC
  5
3BFE
330
3B9B
100
AcDbEntity
  8
0
100
AcDbCircle
 10
-101.3703
 20
-39.371704
 30
0.0
 40
2.0
100
AcDbArc
 50
291.688805
 51
0.0
  0
ARC
  5
3BFF
330
3B9B
100
AcDbEntity
  8
0
100
AcDbCircle
 10
-109.8703
 20
-18.0
 30
0.0
 40
25.0
100
AcDbArc
 50
270.0
 51
291.688812
  0
ARC
  5
3C00
330
3B9B
100
AcDbEntity
  8
0
100
AcDbCircle
 10
-99.3703
 20
-37.5
 30
0.0
 40
2.0
100
AcDbArc
 50
142.125015
 51
180.0
  0
LINE
  5
3C01
330
3B9B
100
AcDbEntity
  8
0
100
AcDbLine
 10
-99.262024
 20
-37.53714
 30
0.0
 11
-101.262024
 21
-36.850922
 31
0.0
  0
LINE
  5
3C02
330
3B9B
100
AcDbEntity
  8
0
100
AcDbLine
 10
-101.3703
 20
-37.5
 30
0.0
 11
-101.3703
 21
-40.062408
 31
0.0
  0
LINE
  5
3C03
330
3B9B
100
AcDbEntity
  8
0
100
AcDbLine
 10
-90.448974
 20
-22.772125
 30
0.0
 11
-100.948974
 21
-36.272125
 31
0.0
  0
LINE
  5
3C04
330
3B9B
100
AcDbEntity
  8
0
100
AcDbLine
 10
-89.470825
 20
-24.772125
 30
0.0
 11
-98.948974
 21
-36.958328
 31
0.0
  0
ARC
  5
3C05
330
3B9B
100
AcDbEntity
  8
0
100
AcDbCircle
 10
-97.3703
 20
-38.186218
 30
0.0
 40
2.0
100
AcDbArc
 50
142.125015
 51
180.0
  0
LINE
  5
3C06
330
3B9B
100
AcDbEntity
  8
0
100
AcDbLine
 10
-99.3703
 20
-38.186218
 30
0.0
 11
-99.3703
 21
-39.371704
 31
0.0
  0
ARC
  5
3C07
330
3B9B
100
AcDbEntity
  8
0
100
AcDbCircle
 10
-88.8703
 20
-24.0
 30
0.0
 40
2.0
100
AcDbArc
 50
90.0
 51
142.125015
  0
LINE
  5
3C08
330
3B9B
100
AcDbEntity
  8
0
100
AcDbLine
 10
-88.770813
 20
-24.203369
 30
0.0
 11
-89.749023
 21
-22.203369
 31
0.0
  0
ARC
  5
3C09
330
3B9B
100
AcDbEntity
  8
0
100
AcDbCircle
 10
-87.892151
 20
-26.0
 30
0.0
 40
2.0
100
AcDbArc
 50
90.0
 51
142.125015
  0
LINE
  5
3C0A
330
3B9B
100
AcDbEntity
  8
0
100
AcDbLine
 10
-88.8703
 20
-22.0
 30
0.0
 11
-86.957397
 21
-22.0
 31
0.0
  0
LINE
  5
3C0B
330
3B9B
100
AcDbEntity
  8
0
100
AcDbLine
 10
-87.220825
 20
-24.0
 30
0.0
 11
-87.892151
 21
-24.0
 31
0.0
  0
ARC
  5
3C0C
330
3B9B
100
AcDbEntity
  8
0
100
AcDbCircle
 10
-109.8703
 20
-18.0
 30
0.0
 40
25.0
100
AcDbArc
 50
349.98459
 51
0.0
  0
ARC
  5
3C0D
330
3B9B
100
AcDbEntity
  8
0
100
AcDbCircle
 10
-87.220825
 20
22.0
 30
0.0
 40
2.0
100
AcDbArc
 50
10.01541
 51
90.0
  0
ARC
  5
3C0E
330
3B9B
100
AcDbEntity
  8
0
100
AcDbCircle
 10
-86.957397
 20
20.0
 30
0.0
 40
2.0
100
AcDbArc
 50
4.988542
 51
90.0
  0
LINE
  5
3C0F
330
3B9B
100
AcDbEntity
  8
0
100
AcDbLine
 10
-154.8703
 20
43.0
 30
0.0
 11
-109.8703
 21
43.0
 31
0.0
  0
ARC
  5
3C10
330
3B9B
100
AcDbEntity
  8
0
100
AcDbCircle
 10
-176.848449
 20
26.0
 30
0.0
 40
2.0
100
AcDbArc
 50
270.0
 51
322.125031
  0
LINE
  5
3C11
330
3B9B
100
AcDbEntity
  8
0
100
AcDbLine
 10
-174.291626
 20
22.772125
 30
0.0
 11
-163.791626
 21
36.272125
 31
0.0
  0
ARC
  5
3C12
330
3B9B
100
AcDbEntity
  8
0
100
AcDbCircle
 10
-175.8703
 20
24.0
 30
0.0
 40
2.0
100
AcDbArc
 50
270.0
 51
322.125031
  0
LINE
  5
3C13
330
3B9B
100
AcDbEntity
  8
0
100
AcDbLine
 10
-175.969787
 20
24.203369
 30
0.0
 11
-174.991577
 21
22.203369
 31
0.0
  0
ARC
  5
3C14
330
3B9B
100
AcDbEntity
  8
0
100
AcDbCircle
 10
-177.519775
 20
22.0
 30
0.0
 40
2.0
100
AcDbArc
 50
90.0
 51
169.984589
  0
ARC
  5
3C15
330
3B9B
100
AcDbEntity
  8
0
100
AcDbCircle
 10
-177.783203
 20
20.0
 30
0.0
 40
2.0
100
AcDbArc
 50
90.0
 51
175.011459
  0
LINE
  5
3C16
330
3B9B
100
AcDbEntity
  8
0
100
AcDbLine
 10
-175.8703
 20
22.0
 30
0.0
 11
-177.783203
 21
22.0
 31
0.0
  0
LINE
  5
3C17
330
3B9B
100
AcDbEntity
  8
0
100
AcDbLine
 10
-177.519775
 20
24.0
 30
0.0
 11
-176.848449
 21
24.0
 31
0.0
  0
ARC
  5
3C18
330
3B9B
100
AcDbEntity
  8
0
100
AcDbCircle
 10
-154.8703
 20
18.0
 30
0.0
 40
25.0
100
AcDbArc
 50
169.984589
 51
180.0
  0
ARC
  5
3C19
330
3B9B
100
AcDbEntity
  8
0
100
AcDbCircle
 10
-163.3703
 20
39.371704
 30
0.0
 40
2.0
100
AcDbArc
 50
111.688805
 51
180.0
  0
LINE
  5
3C1A
330
3B9B
100
AcDbEntity
  8
0
100
AcDbLine
 10
-165.478576
 20
37.53714
 30
0.0
 11
-163.478576
 21
36.850922
 31
0.0
  0
LINE
  5
3C1B
330
3B9B
100
AcDbEntity
  8
0
100
AcDbLine
 10
-175.269775
 20
24.772125
 30
0.0
 11
-165.791626
 21
36.958344
 31
0.0
  0
ARC
  5
3C1C
330
3B9B
100
AcDbEntity
  8
0
100
AcDbCircle
 10
-167.3703
 20
38.186218
 30
0.0
 40
2.0
100
AcDbArc
 50
322.125015
 51
0.0
  0
LINE
  5
3C1D
330
3B9B
100
AcDbEntity
  8
0
100
AcDbLine
 10
-165.3703
 20
38.186218
 30
0.0
 11
-165.3703
 21
39.371704
 31
0.0
  0
ARC
  5
3C1E
330
3B9B
100
AcDbEntity
  8
0
100
AcDbCircle
 10
-154.8703
 20
18.0
 30
0.0
 40
25.0
100
AcDbArc
 50
90.0
 51
111.688805
  0
ARC
  5
3C1F
330
3B9B
100
AcDbEntity
  8
0
100
AcDbCircle
 10
-165.3703
 20
37.5
 30
0.0
 40
2.0
100
AcDbArc
 50
322.125015
 51
0.0
  0
ARC
  5
3C20
330
3B9B
100
AcDbEntity
  8
0
100
AcDbCircle
 10
-161.3703
 20
40.062408
 30
0.0
 40
2.0
100
AcDbArc
 50
106.415962
 51
180.0
  0
LINE
  5
3C21
330
3B9B
100
AcDbEntity
  8
0
100
AcDbLine
 10
-163.3703
 20
37.5
 30
0.0
 11
-163.3703
 21
40.062408
 31
0.0
  0
ARC
  5
3C22
330
3B9B
100
AcDbEntity
  8
0
100
AcDbCircle
 10
-87.892151
 20
26.0
 30
0.0
 40
2.0
100
AcDbArc
 50
217.874985
 51
270.0
  0
LINE
  5
3C23
330
3B9B
100
AcDbEntity
  8
0
100
AcDbLine
 10
-90.448974
 20
22.772125
 30
0.0
 11
-100.948974
 21
36.272125
 31
0.0
  0
ARC
  5
3C24
330
3B9B
100
AcDbEntity
  8
0
100
AcDbCircle
 10
-88.8703
 20
24.0
 30
0.0
 40
2.0
100
AcDbArc
 50
217.874985
 51
270.0
  0
LINE
  5
3C25
330
3B9B
100
AcDbEntity
  8
0
100
AcDbLine
 10
-88.770813
 20
24.203369
 30
0.0
 11
-89.749023
 21
22.203369
 31
0.0
  0
LINE
  5
3C26
330
3B9B
100
AcDbEntity
  8
0
100
AcDbLine
 10
-88.8703
 20
22.0
 30
0.0
 11
-86.957397
 21
22.0
 31
0.0
  0
LINE
  5
3C27
330
3B9B
100
AcDbEntity
  8
0
100
AcDbLine
 10
-87.220825
 20
24.0
 30
0.0
 11
-87.892151
 21
24.0
 31
0.0
  0
ARC
  5
3C28
330
3B9B
100
AcDbEntity
  8
0
100
AcDbCircle
 10
-99.3703
 20
37.5
 30
0.0
 40
2.0
100
AcDbArc
 50
180.0
 51
217.874985
  0
ARC
  5
3C29
330
3B9B
100
AcDbEntity
  8
0
100
AcDbCircle
 10
-103.3703
 20
40.062408
 30
0.0
 40
2.0
100
AcDbArc
 50
0.0
 51
73.584038
  0
LINE
  5
3C2A
330
3B9B
100
AcDbEntity
  8
0
100
AcDbLine
 10
-99.262024
 20
37.53714
 30
0.0
 11
-101.262024
 21
36.850922
 31
0.0
  0
ARC
  5
3C2B
330
3B9B
100
AcDbEntity
  8
0
100
AcDbCircle
 10
-109.8703
 20
18.0
 30
0.0
 40
25.0
100
AcDbArc
 50
68.311195
 51
90.0
  0
LINE
  5
3C2C
330
3B9B
100
AcDbEntity
  8
0
100
AcDbLine
 10
-101.3703
 20
37.5
 30
0.0
 11
-101.3703
 21
40.062408
 31
0.0
  0
LINE
  5
3C2D
330
3B9B
100
AcDbEntity
  8
0
100
AcDbLine
 10
-89.470825
 20
24.772125
 30
0.0
 11
-98.948974
 21
36.958344
 31
0.0
  0
ARC
  5
3C2E
330
3B9B
100
AcDbEntity
  8
0
100
AcDbCircle
 10
-101.3703
 20
39.371704
 30
0.0
 40
2.0
100
AcDbArc
 50
0.0
 51
68.311195
  0
ARC
  5
3C2F
330
3B9B
100
AcDbEntity
  8
0
100
AcDbCircle
 10
-97.3703
 20
38.186218
 30
0.0
 40
2.0
100
AcDbArc
 50
180.0
 51
217.874985
  0
LINE
  5
3C30
330
3B9B
100
AcDbEntity
  8
0
100
AcDbLine
 10
-99.3703
 20
38.186218
 30
0.0
 11
-99.3703
 21
39.371704
 31
0.0
  0
ARC
  5
3C31
330
3B9B
100
AcDbEntity
  8
0
100
AcDbCircle
 10
-109.8703
 20
18.0
 30
0.0
 40
25.0
100
AcDbArc
 50
0.0
 51
10.01541
  0
LINE
  5
3C32
330
3B9B
100
AcDbEntity
  8
0
100
AcDbLine
 10
0.0
 20
45.0
 30
0.0
 11
0.0
 21
-45.0
 31
0.0
  0
ENDBLK
  5
3C33
330
3B9B
100
AcDbEntity
  8
0
100
AcDbBlockEnd
  0
BLOCK
  5
3C45
330
3C42
100
AcDbEntity
  8
0
100
AcDbBlockBegin
  2
A$Cd9f2b5d0
 70
     0
 10
0.0
 20
0.0
 30
0.0
  3
A$Cd9f2b5d0
  1

  0
LINE
  5
3C46
330
3C42
100
AcDbEntity
  8
0
  6
Continuous
100
AcDbLine
 10
48.0
 20
-48.1621568834
 30
0.0
 11
48.0
 21
48.1621568834
 31
0.0
  0
LINE
  5
3C47
330
3C42
100
AcDbEntity
  8
0
  6
Continuous
100
AcDbLine
 10
-35.0
 20
-48.3890727275
 30
0.0
 11
-35.0
 21
48.3890727275
 31
0.0
  0
LINE
  5
3C48
330
3C42
100
AcDbEntity
  8
0
100
AcDbLine
 10
-48.0
 20
48.1621568834
 30
0.0
 11
0.0
 21
49.0
 31
0.0
  0
LINE
  5
3C49
330
3C42
100
AcDbEntity
  8
0
100
AcDbLine
 10
-48.0
 20
-48.1621568834
 30
0.0
 11
0.0
 21
-49.0
 31
0.0
  0
LINE
  5
3C4A
330
3C42
100
AcDbEntity
  8
0
100
AcDbLine
 10
48.0
 20
-48.1621568834
 30
0.0
 11
0.0
 21
-49.0
 31
0.0
  0
LINE
  5
3C4B
330
3C42
100
AcDbEntity
  8
0
100
AcDbLine
 10
48.0
 20
48.1621568834
 30
0.0
 11
0.0
 21
49.0
 31
0.0
  0
LINE
  5
3C4C
330
3C42
100
AcDbEntity
  8
0
  6
Continuous
100
AcDbLine
 10
5.0
 20
18.283996
 30
0.0
 11
5.0
 21
-18.284058
 31
0.0
  0
LINE
  5
3C4D
330
3C42
100
AcDbEntity
  8
0
  6
Continuous
100
AcDbLine
 10
-5.0
 20
-18.510987
 30
0.0
 11
-5.0
 21
18.510925
 31
0.0
  0
LINE
  5
3C4E
330
3C42
100
AcDbEntity
  8
0
  6
Continuous
100
AcDbLine
 10
6.965088
 20
20.283691
 30
0.0
 11
48.0
 21
21.0
 31
0.0
  0
LINE
  5
3C4F
330
3C42
100
AcDbEntity
  8
0
  6
Continuous
100
AcDbLine
 10
9.720978
 20
15.831787
 30
0.0
 11
48.0
 21
16.5
 31
0.0
  0
LINE
  5
3C50
330
3C42
100
AcDbEntity
  8
0
  6
Continuous
100
AcDbLine
 10
-6.965088
 20
20.51062
 30
0.0
 11
-48.0
 21
21.2269291946
 31
0.0
  0
LINE
  5
3C51
330
3C42
100
AcDbEntity
  8
0
  6
Continuous
100
AcDbLine
 10
-9.721008
 20
16.058716
 30
0.0
 11
-48.0
 21
16.7269351563
 31
0.0
  0
LINE
  5
3C52
330
3C42
100
AcDbEntity
  8
0
  6
Continuous
100
AcDbLine
 10
-6.965088
 20
-20.510681
 30
0.0
 11
-48.0
 21
-21.2269009084
 31
0.0
  0
LINE
  5
3C53
330
3C42
100
AcDbEntity
  8
0
  6
Continuous
100
AcDbLine
 10
-9.721008
 20
-16.058777
 30
0.0
 11
-48.0
 21
-16.7269037864
 31
0.0
  0
LINE
  5
3C54
330
3C42
100
AcDbEntity
  8
0
  6
Continuous
100
AcDbLine
 10
6.965088
 20
-20.283753
 30
0.0
 11
48.0
 21
-21.0
 31
0.0
  0
LINE
  5
3C55
330
3C42
100
AcDbEntity
  8
0
  6
Continuous
100
AcDbLine
 10
9.720978
 20
-15.831848
 30
0.0
 11
48.0
 21
-16.5
 31
0.0
  0
LINE
  5
3C56
330
3C42
100
AcDbEntity
  8
0
  6
Continuous
100
AcDbLine
 10
7.75589
 20
-13.832154
 30
0.0
 11
7.75589
 21
13.832092
 31
0.0
  0
LINE
  5
3C57
330
3C42
100
AcDbEntity
  8
0
  6
Continuous
100
AcDbLine
 10
-7.75589
 20
14.059021
 30
0.0
 11
-7.75589
 21
-14.059082
 31
0.0
  0
LINE
  5
3C58
330
3C42
100
AcDbEntity
  8
0
  6
Continuous
100
AcDbLine
 10
-5.44107
 20
19.763794
 30
0.0
 11
-8.19696
 21
15.311951
 31
0.0
  0
LINE
  5
3C59
330
3C42
100
AcDbEntity
  8
0
  6
Continuous
100
AcDbLine
 10
-8.19696
 20
-15.311951
 30
0.0
 11
-5.44107
 21
-19.763855
 31
0.0
  0
LINE
  5
3C5A
330
3C42
100
AcDbEntity
  8
0
  6
Continuous
100
AcDbLine
 10
8.196961
 20
-15.085083
 30
0.0
 11
5.441071
 21
-19.536926
 31
0.0
  0
LINE
  5
3C5B
330
3C42
100
AcDbEntity
  8
0
  6
Continuous
100
AcDbLine
 10
8.196961
 20
15.085022
 30
0.0
 11
5.441071
 21
19.536926
 31
0.0
  0
ARC
  5
3C5C
330
3C42
100
AcDbEntity
  8
0
  6
Continuous
100
AcDbCircle
 10
-7.0
 20
18.510925
 30
0.0
 40
2.0
100
AcDbArc
 50
0.0
 51
89.0
  0
ARC
  5
3C5D
330
3C42
100
AcDbEntity
  8
0
  6
Continuous
100
AcDbCircle
 10
-7.0
 20
-18.510987
 30
0.0
 40
2.0
100
AcDbArc
 50
271.0
 51
0.0
  0
ARC
  5
3C5E
330
3C42
100
AcDbEntity
  8
0
  6
Continuous
100
AcDbCircle
 10
7.0
 20
-18.284058
 30
0.0
 40
2.0
100
AcDbArc
 50
180.0
 51
269.0
  0
ARC
  5
3C5F
330
3C42
100
AcDbEntity
  8
0
  6
Continuous
100
AcDbCircle
 10
7.0
 20
18.283996
 30
0.0
 40
2.0
100
AcDbArc
 50
91.0
 51
180.0
  0
ARC
  5
3C60
330
3C42
100
AcDbEntity
  8
0
  6
Continuous
100
AcDbCircle
 10
9.75589
 20
13.832092
 30
0.0
 40
2.0
100
AcDbArc
 50
91.0
 51
180.0
  0
ARC
  5
3C61
330
3C42
100
AcDbEntity
  8
0
  6
Continuous
100
AcDbCircle
 10
9.75589
 20
-13.832154
 30
0.0
 40
2.0
100
AcDbArc
 50
180.0
 51
268.999999
  0
ARC
  5
3C62
330
3C42
100
AcDbEntity
  8
0
  6
Continuous
100
AcDbCircle
 10
-9.75589
 20
-14.059082
 30
0.0
 40
2.0
100
AcDbArc
 50
271.0
 51
0.0
  0
ARC
  5
3C63
330
3C42
100
AcDbEntity
  8
0
  6
Continuous
100
AcDbCircle
 10
-9.75589
 20
14.059021
 30
0.0
 40
2.0
100
AcDbArc
 50
0.0
 51
89.0
  0
LINE
  5
3C64
330
3C42
100
AcDbEntity
  8
HIDS
100
AcDbLine
 10
-26.052368
 20
-44.545258
 30
0.0
 11
0.0
 21
-45.0
 31
0.0
  0
LINE
  5
3C65
330
3C42
100
AcDbEntity
  8
HIDS
100
AcDbLine
 10
-26.052368
 20
44.545258
 30
0.0
 11
0.0
 21
45.0
 31
0.0
  0
LINE
  5
3C66
330
3C42
100
AcDbEntity
  8
CENTER
100
AcDbLine
 10
-51.450775
 20
-39.0
 30
0.0
 11
53.6875
 21
-39.0
 31
0.0
  0
LINE
  5
3C67
330
3C42
100
AcDbEntity
  8
CENTER
100
AcDbLine
 10
-51.450775
 20
39.0
 30
0.0
 11
53.6875
 21
39.0
 31
0.0
  0
LINE
  5
3C68
330
3C42
100
AcDbEntity
  8
HOJO
100
AcDbLine
 10
-35.0
 20
-34.0
 30
0.0
 11
-10.0
 21
-34.0
 31
0.0
  0
LINE
  5
3C69
330
3C42
100
AcDbEntity
  8
HOJO
100
AcDbLine
 10
-35.0
 20
-44.0
 30
0.0
 11
-10.0
 21
-44.0
 31
0.0
  0
LINE
  5
3C6A
330
3C42
100
AcDbEntity
  8
HIDS
100
AcDbLine
 10
-35.0
 20
44.0
 30
0.0
 11
-10.0
 21
44.0
 31
0.0
  0
LINE
  5
3C6B
330
3C42
100
AcDbEntity
  8
HIDS
100
AcDbLine
 10
-35.0
 20
34.0
 30
0.0
 11
-10.0
 21
34.0
 31
0.0
  0
LINE
  5
3C6C
330
3C42
100
AcDbEntity
  8
0
100
AcDbLine
 10
-42.000031
 20
32.299973
 30
0.0
 11
-41.9999799214
 21
24.700043
 31
0.0
  0
LINE
  5
3C6D
330
3C42
100
AcDbEntity
  8
0
100
AcDbLine
 10
-41.0
 20
33.0
 30
0.0
 11
-41.0
 21
24.0
 31
0.0
  0
LINE
  5
3C6E
330
3C42
100
AcDbEntity
  8
0
100
AcDbLine
 10
-46.000031
 20
32.0
 30
0.0
 11
-46.000031
 21
25.0
 31
0.0
  0
ARC
  5
3C6F
330
3C42
100
AcDbEntity
  8
HIDS
100
AcDbCircle
 10
0.0
 20
0.0
 30
0.0
 40
45.0
100
AcDbArc
 50
132.843643
 51
227.156357
  0
LINE
  5
3C70
330
3C42
100
AcDbEntity
  8
0
100
AcDbLine
 10
-48.0
 20
-48.1621568834
 30
0.0
 11
-48.0
 21
48.1621568834
 31
0.0
  0
ARC
  5
3C71
330
3C42
100
AcDbEntity
  8
HIDS
100
AcDbCircle
 10
-34.0
 20
-36.660606
 30
0.0
 40
5.0
100
AcDbArc
 50
0.0
 51
47.156357
  0
LINE
  5
3C72
330
3C42
100
AcDbEntity
  8
0
100
AcDbLine
 10
-35.0
 20
-44.25
 30
0.0
 11
-48.0
 21
-44.25
 31
0.0
  0
ARC
  5
3C73
330
3C42
100
AcDbEntity
  8
HIDS
100
AcDbCircle
 10
-26.0
 20
-41.545708
 30
0.0
 40
3.0
100
AcDbArc
 50
180.0
 51
269.0
  0
LINE
  5
3C74
330
3C42
100
AcDbEntity
  8
HIDS
100
AcDbLine
 10
-29.0
 20
-41.545708
 30
0.0
 11
-29.0
 21
-36.660606
 31
0.0
  0
LINE
  5
3C75
330
3C42
100
AcDbEntity
  8
CENTER
100
AcDbLine
 10
-39.101624
 20
-28.5
 30
0.0
 11
-49.121002
 21
-28.5
 31
0.0
  0
LINE
  5
3C76
330
3C42
100
AcDbEntity
  8
0
100
AcDbLine
 10
-35.0
 20
-33.75
 30
0.0
 11
-48.0
 21
-33.75
 31
0.0
  0
LINE
  5
3C77
330
3C42
100
AcDbEntity
  8
0
100
AcDbLine
 10
-42.0000151088
 20
-29.9355380818
 30
0.0
 11
-41.9999799214
 21
-24.700043
 31
0.0
  0
LINE
  5
3C78
330
3C42
100
AcDbEntity
  8
0
100
AcDbLine
 10
-41.0
 20
-29.7964629511
 30
0.0
 11
-41.0
 21
-24.0
 31
0.0
  0
LINE
  5
3C79
330
3C42
100
AcDbEntity
  8
0
100
AcDbLine
 10
-46.000031
 20
-30.1579598673
 30
0.0
 11
-46.000031
 21
-25.0
 31
0.0
  0
ARC
  5
3C7A
330
3C42
100
AcDbEntity
  8
HIDS
100
AcDbCircle
 10
-26.0
 20
41.545715
 30
0.0
 40
3.0
100
AcDbArc
 50
91.0
 51
180.0
  0
LINE
  5
3C7B
330
3C42
100
AcDbEntity
  8
CENTER
100
AcDbLine
 10
-39.101624
 20
28.5
 30
0.0
 11
-49.121002
 21
28.5
 31
0.0
  0
LINE
  5
3C7C
330
3C42
100
AcDbEntity
  8
HIDS
  6
sekkei_H
100
AcDbLine
 10
-35.0
 20
33.75
 30
0.0
 11
-48.0
 21
33.75
 31
0.0
  0
LINE
  5
3C7D
330
3C42
100
AcDbEntity
  8
0
100
AcDbLine
 10
-42.000031
 20
32.299973
 30
0.0
 11
-41.0
 21
32.299973
 31
0.0
  0
LINE
  5
3C7E
330
3C42
100
AcDbEntity
  8
0
100
AcDbLine
 10
-46.000031
 20
32.0
 30
0.0
 11
-42.000031
 21
32.000015
 31
0.0
  0
LINE
  5
3C7F
330
3C42
100
AcDbEntity
  8
0
100
AcDbLine
 10
-41.0
 20
33.0
 30
0.0
 11
-48.0
 21
33.183304
 31
0.0
  0
ARC
  5
3C80
330
3C42
100
AcDbEntity
  8
HIDS
100
AcDbCircle
 10
-34.0
 20
36.660599
 30
0.0
 40
5.0
100
AcDbArc
 50
312.843643
 51
0.0
  0
LINE
  5
3C81
330
3C42
100
AcDbEntity
  8
HIDS
100
AcDbLine
 10
-29.0
 20
41.545715
 30
0.0
 11
-29.0
 21
36.660599
 31
0.0
  0
LINE
  5
3C82
330
3C42
100
AcDbEntity
  8
HIDS
  6
sekkei_H
100
AcDbLine
 10
-35.0
 20
44.25
 30
0.0
 11
-48.0
 21
44.25
 31
0.0
  0
ARC
  5
3C83
330
3C42
100
AcDbEntity
  8
HIDS
100
AcDbCircle
 10
0.0
 20
0.0
 30
0.0
 40
45.0
100
AcDbArc
 50
312.843643
 51
47.156357
  0
ARC
  5
3C84
330
3C42
100
AcDbEntity
  8
HIDS
100
AcDbCircle
 10
34.0
 20
-36.660606
 30
0.0
 40
5.0
100
AcDbArc
 50
132.843643
 51
180.0
  0
LINE
  5
3C85
330
3C42
100
AcDbEntity
  8
HOJO
100
AcDbLine
 10
10.0
 20
-34.0
 30
0.0
 11
10.0
 21
-44.0
 31
0.0
  0
LINE
  5
3C86
330
3C42
100
AcDbEntity
  8
HOJO
100
AcDbLine
 10
-10.0
 20
-34.0
 30
0.0
 11
-10.0
 21
-44.0
 31
0.0
  0
LINE
  5
3C87
330
3C42
100
AcDbEntity
  8
HOJO
100
AcDbLine
 10
48.0
 20
-44.0
 30
0.0
 11
10.0
 21
-44.0
 31
0.0
  0
LINE
  5
3C88
330
3C42
100
AcDbEntity
  8
HIDS
100
AcDbLine
 10
26.052368
 20
-44.545258
 30
0.0
 11
0.0
 21
-45.0
 31
0.0
  0
ARC
  5
3C89
330
3C42
100
AcDbEntity
  8
HIDS
100
AcDbCircle
 10
26.0
 20
-41.545708
 30
0.0
 40
3.0
100
AcDbArc
 50
271.0
 51
0.0
  0
LINE
  5
3C8A
330
3C42
100
AcDbEntity
  8
HIDS
100
AcDbLine
 10
29.0
 20
-41.545708
 30
0.0
 11
29.0
 21
-36.660606
 31
0.0
  0
LINE
  5
3C8B
330
3C42
100
AcDbEntity
  8
HOJO
100
AcDbLine
 10
48.0
 20
-34.0
 30
0.0
 11
10.0
 21
-34.0
 31
0.0
  0
LINE
  5
3C8C
330
3C42
100
AcDbEntity
  8
HIDS
100
AcDbLine
 10
48.0
 20
44.0
 30
0.0
 11
10.0
 21
44.0
 31
0.0
  0
LINE
  5
3C8D
330
3C42
100
AcDbEntity
  8
HIDS
100
AcDbLine
 10
48.0
 20
34.0
 30
0.0
 11
10.0
 21
34.0
 31
0.0
  0
LINE
  5
3C8E
330
3C42
100
AcDbEntity
  8
HIDS
100
AcDbLine
 10
26.052368
 20
44.545258
 30
0.0
 11
0.0
 21
45.0
 31
0.0
  0
LINE
  5
3C8F
330
3C42
100
AcDbEntity
  8
HIDS
100
AcDbLine
 10
-10.0
 20
34.0
 30
0.0
 11
-10.0
 21
44.0
 31
0.0
  0
ARC
  5
3C90
330
3C42
100
AcDbEntity
  8
HIDS
100
AcDbCircle
 10
26.0
 20
41.545715
 30
0.0
 40
3.0
100
AcDbArc
 50
0.0
 51
89.0
  0
LINE
  5
3C91
330
3C42
100
AcDbEntity
  8
HIDS
100
AcDbLine
 10
10.0
 20
34.0
 30
0.0
 11
10.0
 21
44.0
 31
0.0
  0
ARC
  5
3C92
330
3C42
100
AcDbEntity
  8
HIDS
100
AcDbCircle
 10
34.0
 20
36.660599
 30
0.0
 40
5.0
100
AcDbArc
 50
180.0
 51
227.156357
  0
LINE
  5
3C93
330
3C42
100
AcDbEntity
  8
HIDS
100
AcDbLine
 10
29.0
 20
41.545715
 30
0.0
 11
29.0
 21
36.660599
 31
0.0
  0
LINE
  5
3C94
330
3C42
100
AcDbEntity
  8
0
100
AcDbLine
 10
-41.0
 20
24.0
 30
0.0
 11
-48.0
 21
23.816711
 31
0.0
  0
LINE
  5
3C95
330
3C42
100
AcDbEntity
  8
0
100
AcDbLine
 10
-46.000031
 20
25.0
 30
0.0
 11
-42.000031
 21
25.0
 31
0.0
  0
LINE
  5
3C96
330
3C42
100
AcDbEntity
  8
0
100
AcDbLine
 10
-42.000031
 20
24.700043
 30
0.0
 11
-41.0
 21
24.700043
 31
0.0
  0
LWPOLYLINE
  5
3C97
330
3C42
100
AcDbEntity
  8
HOJO
100
AcDbPolyline
 90
       19
 70
     0
 43
0.0
 10
-48.0
 20
-30.0474634747
 10
-44.281891
 20
-30.2528854747
 10
-40.200165
 20
-29.6852274747
 10
-35.767029
 20
-30.0906924747
 10
-31.279846
 20
-29.4419414747
 10
-26.68454
 20
-30.0095994747
 10
-20.92688
 20
-29.2256944747
 10
-14.871887
 20
-30.1988234747
 10
-9.465637
 20
-29.3338184747
 10
-4.491882
 20
-29.8744444747
 10
1.238739
 20
-29.2256944747
 10
7.401886
 20
-29.9825684747
 10
12.591888
 20
-29.3338184747
 10
17.998138
 20
-29.8744444747
 10
23.188141
 20
-29.1175704747
 10
28.378113
 20
-29.9825684747
 10
34.649384
 20
-29.1175704747
 10
40.920624
 20
-29.8744444747
 10
48.0
 20
-28.5703524747
  0
LINE
  5
3C98
330
3C42
100
AcDbEntity
  8
0
100
AcDbLine
 10
-46.000031
 20
-25.0
 30
0.0
 11
-42.000031
 21
-25.0
 31
0.0
  0
LINE
  5
3C99
330
3C42
100
AcDbEntity
  8
0
100
AcDbLine
 10
-42.000031
 20
-24.700043
 30
0.0
 11
-41.0
 21
-24.700043
 31
0.0
  0
LINE
  5
3C9A
330
3C42
100
AcDbEntity
  8
0
100
AcDbLine
 10
-41.0
 20
-24.0
 30
0.0
 11
-48.0
 21
-23.816711
 31
0.0
  0
LINE
  5
3C9B
330
3C42
100
AcDbEntity
  8
CENTER
100
AcDbLine
 10
0.0
 20
-54.285004
 30
0.0
 11
0.0
 21
-29.3659291763
 31
0.0
  0
LINE
  5
3C9C
330
3C42
100
AcDbEntity
  8
0
100
AcDbLine
 10
49.0
 20
-9.31131
 30
0.0
 11
49.0
 21
9.31134
 31
0.0
  0
ARC
  5
3C9D
330
3C42
100
AcDbEntity
  8
0
100
AcDbCircle
 10
55.0
 20
0.0
 30
0.0
 40
3.0
100
AcDbArc
 50
90.0
 51
270.0
  0
LINE
  5
3C9E
330
3C42
100
AcDbEntity
  8
0
100
AcDbLine
 10
79.0
 20
9.0
 30
0.0
 11
79.0
 21
-9.0
 31
0.0
  0
LINE
  5
3C9F
330
3C42
100
AcDbEntity
  8
0
100
AcDbLine
 10
79.0
 20
-3.0
 30
0.0
 11
55.0
 21
-3.0
 31
0.0
  0
LINE
  5
3CA0
330
3C42
100
AcDbEntity
  8
0
100
AcDbLine
 10
79.0
 20
-9.0
 30
0.0
 11
49.0
 21
-9.0
 31
0.0
  0
LINE
  5
3CA1
330
3C42
100
AcDbEntity
  8
0
100
AcDbLine
 10
48.0
 20
-10.0
 30
0.0
 11
48.222565
 21
-10.0
 31
0.0
  0
ARC
  5
3CA2
330
3C42
100
AcDbEntity
  8
0
100
AcDbCircle
 10
48.5
 20
-9.31131
 30
0.0
 40
0.5
100
AcDbArc
 50
300.0
 51
0.0
  0
ARC
  5
3CA3
330
3C42
100
AcDbEntity
  8
0
100
AcDbCircle
 10
47.598083
 20
-8.100006
 30
0.0
 40
2.0
100
AcDbArc
 50
288.19487
 51
300.0
  0
LINE
  5
3CA4
330
3C42
100
AcDbEntity
  8
0
100
AcDbLine
 10
48.75
 20
-9.744324
 30
0.0
 11
48.598083
 21
-9.832062
 31
0.0
  0
LINE
  5
3CA5
330
3C42
100
AcDbEntity
  8
0
100
AcDbLine
 10
79.0
 20
3.0
 30
0.0
 11
55.0
 21
3.0
 31
0.0
  0
LINE
  5
3CA6
330
3C42
100
AcDbEntity
  8
0
100
AcDbLine
 10
79.0
 20
9.0
 30
0.0
 11
49.0
 21
9.0
 31
0.0
  0
LINE
  5
3CA7
330
3C42
100
AcDbEntity
  8
0
100
AcDbLine
 10
48.0
 20
10.0
 30
0.0
 11
48.222565
 21
10.0
 31
0.0
  0
ARC
  5
3CA8
330
3C42
100
AcDbEntity
  8
0
100
AcDbCircle
 10
48.5
 20
9.31134
 30
0.0
 40
0.5
100
AcDbArc
 50
0.0
 51
60.0
  0
ARC
  5
3CA9
330
3C42
100
AcDbEntity
  8
0
100
AcDbCircle
 10
47.598083
 20
8.100006
 30
0.0
 40
2.0
100
AcDbArc
 50
60.0
 51
71.80513
  0
LINE
  5
3CAA
330
3C42
100
AcDbEntity
  8
0
100
AcDbLine
 10
48.75
 20
9.744324
 30
0.0
 11
48.598083
 21
9.832062
 31
0.0
  0
LINE
  5
3CAB
330
3C42
100
AcDbEntity
  8
CENTER
100
AcDbLine
 10
82.638275
 20
0.0
 30
0.0
 11
64.3129516055
 21
0.0
 31
0.0
  0
LINE
  5
3CAC
330
3C42
100
AcDbEntity
  8
CENTER
100
AcDbLine
 10
0.0
 20
-3.3116801459
 30
0.0
 11
0.0
 21
3.3116801459
 31
0.0
  0
LINE
  5
3CAD
330
3C42
100
AcDbEntity
  8
CENTER
100
AcDbLine
 10
-3.3116801459
 20
0.0
 30
0.0
 11
3.3116801459
 21
0.0
 31
0.0
  0
LINE
  5
3CAE
330
3C42
100
AcDbEntity
  8
0
100
AcDbLine
 10
48.0
 20
-43.2
 30
0.0
 11
-35.0
 21
-43.2
 31
0.0
  0
LINE
  5
3CAF
330
3C42
100
AcDbEntity
  8
0
100
AcDbLine
 10
48.0
 20
-34.8
 30
0.0
 11
-35.0
 21
-34.8
 31
0.0
  0
LINE
  5
3CB0
330
3C42
100
AcDbEntity
  8
HIDS
100
AcDbLine
 10
48.0
 20
34.8
 30
0.0
 11
-35.0
 21
34.8
 31
0.0
  0
LINE
  5
3CB1
330
3C42
100
AcDbEntity
  8
HIDS
100
AcDbLine
 10
48.0
 20
43.2
 30
0.0
 11
-35.0
 21
43.2
 31
0.0
  0
ENDBLK
  5
3CB2
330
3C42
100
AcDbEntity
  8
0
100
AcDbBlockEnd
  0
BLOCK
  5
3CD0
330
3CCF
100
AcDbEntity
  8
0
100
AcDbBlockBegin
  2
*D58
 70
     1
 10
0.0
 20
0.0
 30
0.0
  3
*D58
  1

  0
POINT
  5
3CE5
330
3CCF
100
AcDbEntity
  8
DEFPOINTS
 62
     0
100
AcDbPoint
 10
416.6479672013
 20
122.1510733765
 30
0.0
  0
POINT
  5
3CE6
330
3CCF
100
AcDbEntity
  8
DEFPOINTS
 62
     0
100
AcDbPoint
 10
416.6479672013
 20
113.7510733765
 30
0.0
  0
POINT
  5
3CE7
330
3CCF
100
AcDbEntity
  8
DEFPOINTS
 62
     0
100
AcDbPoint
 10
415.1321926861
 20
113.7510733765
 30
0.0
  0
ENDBLK
  5
3CD1
330
3CCF
100
AcDbEntity
  8
0
100
AcDbBlockEnd
  0
ENDSEC
  0
SECTION
  2
ENTITIES
  0
TEXT
  5
1E05
330
2
100
AcDbEntity
  8
TITLE_C
100
AcDbText
 10
35.1458379164
 20
-24.4369080409
 30
0.0
 40
7.0
  1
F2F18L010～240-CSMR60WNX
100
AcDbText
  0
TEXT
  5
1E06
330
2
100
AcDbEntity
  8
TITLE_C
100
AcDbText
 10
35.1458379164
 20
-0.4369080409
 30
0.0
 40
7.0
  1
F2F18L010～240-CTMR90WN
100
AcDbText
  0
TEXT
  5
1E07
330
2
100
AcDbEntity
  8
TITLE_C
100
AcDbText
 10
35.1458379164
 20
-12.4369080409
 30
0.0
 40
7.0
  1
F2F18L010～240-CSMR60NN
100
AcDbText
  0
TEXT
  5
209A
330
2
100
AcDbEntity
  8
TITLE_C
100
AcDbText
 10
35.1243783039
 20
11.3200269201
 30
0.0
 40
7.0
  1
F2F18L010～240-CTMR90NNX
100
AcDbText
  0
LINE
  5
24DE
330
2
100
AcDbEntity
  8
0
  6
CENS
 62
     3
100
AcDbLine
 10
803.9696702926
 20
206.3568703318
 30
0.0
 11
803.9696702926
 21
195.6350440975
 31
0.0
  0
ARC
  5
24DF
330
2
100
AcDbEntity
  8
0
100
AcDbCircle
 10
803.9696702926
 20
196.5510733765
 30
0.0
 40
9.000000000010642
100
AcDbArc
 50
77.3231615211
 51
102.6768384789
  0
ARC
  5
24E0
330
2
100
AcDbEntity
  8
0
100
AcDbCircle
 10
802.3457267385
 20
203.7706860623
 30
0.0
 40
1.59999999999961
100
AcDbArc
 50
102.6768384789
 51
165.0
  0
LINE
  5
24E1
330
2
100
AcDbEntity
  8
0
100
AcDbLine
 10
800.4696702926
 20
202.9510733765
 30
0.0
 11
800.8002454164
 21
204.1847965345
 31
0.0
  0
ARC
  5
24E2
330
2
100
AcDbEntity
  8
0
100
AcDbCircle
 10
805.5936138466
 20
203.7706860623
 30
0.0
 40
1.59999999999961
100
AcDbArc
 50
15.0
 51
77.3231615211
  0
LINE
  5
24E3
330
2
100
AcDbEntity
  8
0
100
AcDbLine
 10
807.1390951687
 20
204.1847965345
 30
0.0
 11
807.4696702926
 21
202.9510733765
 31
0.0
  0
LINE
  5
24E4
330
2
100
AcDbEntity
  8
0
100
AcDbLine
 10
800.1696702926
 20
202.9510733765
 30
0.0
 11
807.7696702926
 21
202.9510733765
 31
0.0
  0
LINE
  5
24E5
330
2
100
AcDbEntity
  8
0
100
AcDbLine
 10
800.1696702926
 20
202.9510733765
 30
0.0
 11
800.1696702926
 21
201.9510733765
 31
0.0
  0
LINE
  5
24E6
330
2
100
AcDbEntity
  8
0
100
AcDbLine
 10
803.8965896527
 20
201.9510733765
 30
0.0
 11
803.6286404603
 21
202.9510733765
 31
0.0
  0
LINE
  5
24E7
330
2
100
AcDbEntity
  8
0
100
AcDbLine
 10
804.3107001249
 20
201.9510733765
 30
0.0
 11
804.0427509324
 21
202.9510733765
 31
0.0
  0
LINE
  5
24E8
330
2
100
AcDbEntity
  8
0
100
AcDbLine
 10
807.7696702926
 20
202.9510733765
 30
0.0
 11
807.7696702926
 21
201.9510733765
 31
0.0
  0
LINE
  5
2514
330
2
100
AcDbEntity
  8
CENTER
100
AcDbLine
 10
799.1779107545
 20
405.9407731456
 30
0.0
 11
808.7614298307
 21
405.9407731456
 31
0.0
  0
CIRCLE
  5
2515
330
2
100
AcDbEntity
  8
0
100
AcDbCircle
 10
803.9696702926
 20
405.9407731456
 30
0.0
 40
3.799999999999998
  0
CIRCLE
  5
2516
330
2
100
AcDbEntity
  8
0
100
AcDbCircle
 10
803.9696702926
 20
405.9407731456
 30
0.0
 40
3.499999999999146
  0
LINE
  5
2517
330
2
100
AcDbEntity
  8
CENTER
100
AcDbLine
 10
803.9696702926
 20
410.7325326837
 30
0.0
 11
803.9696702926
 21
401.1490136075
 31
0.0
  0
ARC
  5
2518
330
2
100
AcDbEntity
  8
0
100
AcDbCircle
 10
805.7833066562
 20
407.7544095093
 30
0.0
 40
1.336363636363619
100
AcDbArc
 50
180.0
 51
270.0
  0
ARC
  5
2519
330
2
100
AcDbEntity
  8
0
100
AcDbCircle
 10
802.1560339289
 20
407.7544095093
 30
0.0
 40
1.336363636363619
100
AcDbArc
 50
270.0
 51
0.0
  0
ARC
  5
251A
330
2
100
AcDbEntity
  8
0
100
AcDbCircle
 10
805.7833066562
 20
404.127136782
 30
0.0
 40
1.336363636363619
100
AcDbArc
 50
90.0
 51
180.0
  0
LINE
  5
251B
330
2
100
AcDbEntity
  8
0
100
AcDbLine
 10
801.8696702926
 20
406.4180458729
 30
0.0
 11
802.1560339289
 21
406.4180458729
 31
0.0
  0
LINE
  5
251C
330
2
100
AcDbEntity
  8
0
100
AcDbLine
 10
801.8696702926
 20
405.9407731456
 30
0.0
 11
801.8696702926
 21
406.4180458729
 31
0.0
  0
LINE
  5
251D
330
2
100
AcDbEntity
  8
0
100
AcDbLine
 10
804.0427509324
 20
402.1414759448
 30
0.0
 11
804.0427509324
 21
402.4415361974
 31
0.0
  0
LINE
  5
251E
330
2
100
AcDbEntity
  8
0
100
AcDbLine
 10
803.6286404603
 20
402.1561068917
 30
0.0
 11
803.6286404603
 21
402.4574272464
 31
0.0
  0
LINE
  5
251F
330
2
100
AcDbEntity
  8
0
100
AcDbLine
 10
804.4469430198
 20
404.127136782
 30
0.0
 11
804.4469430198
 21
403.8407731456
 31
0.0
  0
LINE
  5
2520
330
2
100
AcDbEntity
  8
0
100
AcDbLine
 10
804.4469430198
 20
403.8407731456
 30
0.0
 11
803.9696702926
 21
403.8407731456
 31
0.0
  0
LINE
  5
2521
330
2
100
AcDbEntity
  8
0
100
AcDbLine
 10
803.9696702926
 20
403.8407731456
 30
0.0
 11
803.4923975653
 21
403.8407731456
 31
0.0
  0
LINE
  5
2522
330
2
100
AcDbEntity
  8
0
100
AcDbLine
 10
803.4923975653
 20
403.8407731456
 30
0.0
 11
803.4923975653
 21
404.127136782
 31
0.0
  0
LINE
  5
2523
330
2
100
AcDbEntity
  8
0
100
AcDbLine
 10
802.1560339289
 20
405.4635004184
 30
0.0
 11
801.8696702926
 21
405.4635004184
 31
0.0
  0
ARC
  5
2524
330
2
100
AcDbEntity
  8
0
100
AcDbCircle
 10
802.1560339289
 20
404.127136782
 30
0.0
 40
1.336363636363619
100
AcDbArc
 50
0.0
 51
90.0
  0
LINE
  5
2525
330
2
100
AcDbEntity
  8
0
100
AcDbLine
 10
801.8696702926
 20
405.4635004184
 30
0.0
 11
801.8696702926
 21
405.9407731456
 31
0.0
  0
LINE
  5
2526
330
2
100
AcDbEntity
  8
0
100
AcDbLine
 10
805.7833066562
 20
406.4180458729
 30
0.0
 11
806.0696702926
 21
406.4180458729
 31
0.0
  0
LINE
  5
2527
330
2
100
AcDbEntity
  8
0
100
AcDbLine
 10
806.0696702926
 20
406.4180458729
 30
0.0
 11
806.0696702926
 21
405.9407731456
 31
0.0
  0
LINE
  5
2528
330
2
100
AcDbEntity
  8
0
100
AcDbLine
 10
806.0696702926
 20
405.4635004184
 30
0.0
 11
805.7833066562
 21
405.4635004184
 31
0.0
  0
LINE
  5
2529
330
2
100
AcDbEntity
  8
0
100
AcDbLine
 10
806.0696702926
 20
405.9407731456
 30
0.0
 11
806.0696702926
 21
405.4635004184
 31
0.0
  0
LINE
  5
252A
330
2
100
AcDbEntity
  8
0
100
AcDbLine
 10
803.9696702926
 20
408.0407731456
 30
0.0
 11
804.4469430198
 21
408.0407731456
 31
0.0
  0
LINE
  5
252B
330
2
100
AcDbEntity
  8
0
100
AcDbLine
 10
804.4469430198
 20
408.0407731456
 30
0.0
 11
804.4469430198
 21
407.7544095093
 31
0.0
  0
LINE
  5
252C
330
2
100
AcDbEntity
  8
0
100
AcDbLine
 10
803.4923975653
 20
408.0407731456
 30
0.0
 11
803.9696702926
 21
408.0407731456
 31
0.0
  0
LINE
  5
252D
330
2
100
AcDbEntity
  8
0
100
AcDbLine
 10
803.4923975653
 20
407.7544095093
 30
0.0
 11
803.4923975653
 21
408.0407731456
 31
0.0
  0
LINE
  5
252E
330
2
100
AcDbEntity
  8
0
100
AcDbLine
 10
803.9696702926
 20
416.6457370396
 30
0.0
 11
803.9696702926
 21
413.0510110396
 31
0.0
  0
LINE
  5
252F
330
2
100
AcDbEntity
  8
0
100
AcDbLine
 10
805.5423342926
 20
419.6316370396
 30
0.0
 11
802.3220882926
 21
419.6316370396
 31
0.0
  0
LINE
  5
2530
330
2
100
AcDbEntity
  8
0
100
AcDbLine
 10
808.1634882926
 20
416.6457370396
 30
0.0
 11
799.6260742926
 21
416.6457370396
 31
0.0
  0
LINE
  5
2531
330
2
100
AcDbEntity
  8
0
100
AcDbLine
 10
806.8154662926
 20
418.1457370396
 30
0.0
 11
801.1416682926
 21
418.1457370396
 31
0.0
  0
CIRCLE
  5
2532
330
2
100
AcDbEntity
  8
0
100
AcDbCircle
 10
803.9696702926
 20
405.9407731456
 30
0.0
 40
4.0
  0
CIRCLE
  5
2533
330
2
100
AcDbEntity
  8
0
100
AcDbCircle
 10
803.9696702926
 20
416.6457370396
 30
0.0
 40
4.926010018386079
  0
LINE
  5
2543
330
2
100
AcDbEntity
  8
0
  6
CENS
 62
     3
100
AcDbLine
 10
106.2110825535
 20
206.3568703318
 30
0.0
 11
106.2110825535
 21
195.6350440975
 31
0.0
  0
ARC
  5
2544
330
2
100
AcDbEntity
  8
0
100
AcDbCircle
 10
106.2110825535
 20
196.5510733765
 30
0.0
 40
9.000000000010642
100
AcDbArc
 50
77.3231615211
 51
102.6768384789
  0
ARC
  5
2545
330
2
100
AcDbEntity
  8
0
100
AcDbCircle
 10
104.5871389994
 20
203.7706860623
 30
0.0
 40
1.59999999999961
100
AcDbArc
 50
102.6768384789
 51
165.0
  0
LINE
  5
2546
330
2
100
AcDbEntity
  8
0
100
AcDbLine
 10
102.7110825535
 20
202.9510733765
 30
0.0
 11
103.0416576774
 21
204.1847965345
 31
0.0
  0
ARC
  5
2547
330
2
100
AcDbEntity
  8
0
100
AcDbCircle
 10
107.8350261076
 20
203.7706860623
 30
0.0
 40
1.59999999999961
100
AcDbArc
 50
15.0
 51
77.3231615211
  0
LINE
  5
2548
330
2
100
AcDbEntity
  8
0
100
AcDbLine
 10
109.3805074297
 20
204.1847965345
 30
0.0
 11
109.7110825535
 21
202.9510733765
 31
0.0
  0
LINE
  5
2549
330
2
100
AcDbEntity
  8
0
100
AcDbLine
 10
102.4110825535
 20
202.9510733765
 30
0.0
 11
110.0110825535
 21
202.9510733765
 31
0.0
  0
LINE
  5
254A
330
2
100
AcDbEntity
  8
0
100
AcDbLine
 10
102.4110825535
 20
202.9510733765
 30
0.0
 11
102.4110825535
 21
201.9510733765
 31
0.0
  0
LINE
  5
254B
330
2
100
AcDbEntity
  8
0
100
AcDbLine
 10
110.0110825535
 20
202.9510733765
 30
0.0
 11
110.0110825535
 21
201.9510733765
 31
0.0
  0
ARC
  5
255E
330
2
100
AcDbEntity
  8
HIDS
100
AcDbCircle
 10
430.6479672013
 20
196.5510733765
 30
0.0
 40
9.000000000010642
100
AcDbArc
 50
77.3231615211
 51
102.6768384789
  0
ARC
  5
255F
330
2
100
AcDbEntity
  8
HIDS
100
AcDbCircle
 10
429.0240236472
 20
203.7706860623
 30
0.0
 40
1.59999999999961
100
AcDbArc
 50
102.6768384789
 51
141.9411893058
  0
ARC
  5
2560
330
2
100
AcDbEntity
  8
HIDS
  6
sekkei_H
100
AcDbCircle
 10
429.0240236472
 20
203.7706860623
 30
0.0
 40
1.59999999999961
100
AcDbArc
 50
141.9411893058
 51
165.0
  0
LINE
  5
2561
330
2
100
AcDbEntity
  8
HIDS
  6
sekkei_H
100
AcDbLine
 10
427.1479672013
 20
202.9510733765
 30
0.0
 11
427.4785423252
 21
204.1847965345
 31
0.0
  0
ARC
  5
2562
330
2
100
AcDbEntity
  8
HIDS
  6
sekkei_H
100
AcDbCircle
 10
432.2719107554
 20
203.7706860623
 30
0.0
 40
1.59999999999961
100
AcDbArc
 50
15.0
 51
33.5557012948
  0
ARC
  5
2563
330
2
100
AcDbEntity
  8
HIDS
100
AcDbCircle
 10
432.2719107554
 20
203.7706860623
 30
0.0
 40
1.59999999999961
100
AcDbArc
 50
33.5557012948
 51
77.3231615211
  0
LINE
  5
2564
330
2
100
AcDbEntity
  8
HIDS
  6
sekkei_H
100
AcDbLine
 10
433.8173920774
 20
204.1847965345
 30
0.0
 11
434.1479672013
 21
202.9510733765
 31
0.0
  0
LINE
  5
2565
330
2
100
AcDbEntity
  8
HIDS
  6
sekkei_H
100
AcDbLine
 10
426.8479672013
 20
202.9510733765
 30
0.0
 11
434.4479672013
 21
202.9510733765
 31
0.0
  0
LINE
  5
2566
330
2
100
AcDbEntity
  8
HIDS
  6
sekkei_H
100
AcDbLine
 10
426.8479672013
 20
202.9510733765
 30
0.0
 11
426.8479672013
 21
201.7730331922
 31
0.0
  0
LINE
  5
2567
330
2
100
AcDbEntity
  8
HIDS
  6
sekkei_H
100
AcDbLine
 10
434.4479672013
 20
202.9510733765
 30
0.0
 11
434.4479672013
 21
201.6403758
 31
0.0
  0
LINE
  5
322F
330
2
100
AcDbEntity
  8
CENTER
100
AcDbLine
 10
360.8394772766
 20
156.9510733765
 30
0.0
 11
499.2862422013
 21
156.9510733765
 31
0.0
  0
LINE
  5
3230
330
2
100
AcDbEntity
  8
CENTER
100
AcDbLine
 10
416.6479672013
 20
102.6660693765
 30
0.0
 11
416.6479672013
 21
211.2360773765
 31
0.0
  0
LINE
  5
3231
330
2
100
AcDbEntity
  8
CENTER
100
AcDbLine
 10
285.4816515535
 20
156.9510733765
 30
0.0
 11
25.2222735535
 21
156.9510733765
 31
0.0
  0
LINE
  5
3232
330
2
100
AcDbEntity
  8
CENTER
100
AcDbLine
 10
886.8796432926
 20
419.9407731456
 30
0.0
 11
627.0410202926
 21
419.9407731456
 31
0.0
  0
LINE
  5
3245
330
2
100
AcDbEntity
  8
CENTER
100
AcDbLine
 10
235.0813525535
 20
190.6332368765
 30
0.0
 11
235.0813525535
 21
123.2689098765
 31
0.0
  0
LINE
  5
324D
330
2
100
AcDbEntity
  8
CENTER
100
AcDbLine
 10
623.9321952926
 20
156.9510733765
 30
0.0
 11
886.8796432926
 21
156.9510733765
 31
0.0
  0
INSERT
  5
3261
330
2
100
AcDbEntity
  8
0
100
AcDbBlockReference
  2
ファンカバ－ブレーキ_F2S-15_0005-01
 10
90.2110825535
 20
156.9510733765
 30
0.0
  0
INSERT
  5
3262
330
2
100
AcDbEntity
  8
0
100
AcDbBlockReference
  2
ファンカバ－ブレーキ_F2S-15_0006-01
 10
819.9696702926
 20
156.9510733765
 30
0.0
  0
INSERT
  5
3263
330
2
100
AcDbEntity
  8
0
100
AcDbBlockReference
  2
ファンカバ－ブレーキ_F2S-15_0007-01
 10
819.9696702926
 20
419.9407731456
 30
0.0
  0
LINE
  5
3579
330
2
100
AcDbEntity
  8
0
  6
CENS
 62
     3
100
AcDbLine
 10
430.6479672013
 20
206.3568703318
 30
0.0
 11
430.6479672013
 21
195.6350440975
 31
0.0
  0
TEXT
  5
3790
330
2
100
AcDbEntity
  8
TITLE_C
100
AcDbText
 10
35.061129782
 20
-60.0818670349
 30
0.0
 40
7.0
  1
F2F18L010～240-CSMR90WNX
100
AcDbText
  0
TEXT
  5
3791
330
2
100
AcDbEntity
  8
TITLE_C
100
AcDbText
 10
35.061129782
 20
-36.0818670349
 30
0.0
 40
7.0
  1
F2F18L010～240-CTMR60WN
100
AcDbText
  0
TEXT
  5
3792
330
2
100
AcDbEntity
  8
TITLE_C
100
AcDbText
 10
35.061129782
 20
-48.0818670349
 30
0.0
 40
7.0
  1
F2F18L010～240-CSMR90NN
100
AcDbText
  0
TEXT
  5
37A7
330
2
100
AcDbEntity
  8
TITLE_C
100
AcDbText
 10
35.1369371714
 20
-72.3078323234
 30
0.0
 40
7.0
  1
F2F18L010～240-CSMR90WN
100
AcDbText
  0
INSERT
  5
3B9A
330
2
100
AcDbEntity
  8
0
100
AcDbBlockReference
  2
A$Cdecd00d5
 10
90.2110825535
 20
201.9510733765
 30
0.0
  0
INSERT
  5
3C39
330
2
100
AcDbEntity
  8
0
100
AcDbBlockReference
  2
A$C0221c00d
 10
819.9696702926
 20
156.9510733765
 30
0.0
  0
INSERT
  5
3C41
330
2
100
AcDbEntity
  8
0
100
AcDbBlockReference
  2
F2F-18L_0002
 10
675.0993702926
 20
419.9407731456
 30
0.0
  0
INSERT
  5
3CBA
330
2
100
AcDbEntity
  8
0
100
AcDbBlockReference
  2
A$Cd9f2b5d0
 10
416.6479672013
 20
156.9510733765
 30
0.0
  0
ENDSEC
  0
SECTION
  2
OBJECTS
  0
DICTIONARY
  5
7
330
0
100
AcDbDictionary
281
     1
  3
ACAD_CIP_PREVIOUS_PRODUCT_INFO
350
2709
  3
ACAD_COLOR
350
1DBE
  3
ACAD_DETAILVIEWSTYLE
350
2705
  3
ACAD_GROUP
350
75
  3
ACAD_LAYOUT
350
61
  3
ACAD_MATERIAL
350
1D91
  3
ACAD_MLEADERSTYLE
350
1DE3
  3
ACAD_MLINESTYLE
350
76
  3
ACAD_PLOTSETTINGS
350
77
  3
ACAD_PLOTSTYLENAME
350
6
  3
ACAD_SCALELIST
350
1DC1
  3
ACAD_SECTIONVIEWSTYLE
350
2703
  3
ACAD_TABLESTYLE
350
1DBF
  3
ACAD_VISUALSTYLE
350
1DAA
  3
AcadDim
350
480
  3
ACDB_RECOMPOSE_DATA
350
3F2C
  3
AcDbVariableDictionary
350
102
  3
DWGPROPS
350
3F2D
  0
DICTIONARY
  5
1EF5
330
6E
100
AcDbDictionary
280
     1
281
     1
  0
DICTIONARY
  5
1DF2
330
66
100
AcDbDictionary
280
     1
281
     1
  3
ACAD_LAYERSTATES
360
1DF3
  0
DICTIONARY
  5
1EDE
330
5E
100
AcDbDictionary
280
     1
281
     1
  3
ADSK_XREC_LAYER_RECONCILED
360
1EDF
  0
DICTIONARY
  5
1EE0
330
3E
100
AcDbDictionary
280
     1
281
     1
  3
ADSK_XREC_LAYER_RECONCILED
360
1EE1
  0
DICTIONARY
  5
1EE6
330
2B5
100
AcDbDictionary
280
     1
281
     1
  3
ADSK_XREC_LAYER_RECONCILED
360
1EE7
  0
DICTIONARY
  5
1EE8
330
2BA
100
AcDbDictionary
280
     1
281
     1
  3
ADSK_XREC_LAYER_RECONCILED
360
1EE9
  0
DICTIONARY
  5
1DF0
330
1DEF
100
AcDbDictionary
280
     1
281
     1
  3
ADSK_XREC_LAYER_RECONCILED
360
1EEE
  0
DICTIONARY
  5
363D
330
2E56
100
AcDbDictionary
280
     1
281
     1
  3
ACAD_SORTENTS
360
363E
  0
DICTIONARY
  5
31A2
330
31A1
100
AcDbDictionary
280
     1
281
     1
  0
DICTIONARY
  5
31BD
330
31BC
100
AcDbDictionary
280
     1
281
     1
  0
DICTIONARY
  5
31D8
330
31D7
100
AcDbDictionary
280
     1
281
     1
  0
DICTIONARY
  5
3B9C
330
3B9B
100
AcDbDictionary
280
     1
281
     1
  3
ACAD_SORTENTS
360
3B9D
  0
DICTIONARY
  5
3C43
330
3C42
100
AcDbDictionary
280
     1
281
     1
  3
ACAD_SORTENTS
360
3C44
  0
XRECORD
  5
2709
102
{ACAD_REACTORS
330
7
102
}
330
7
100
AcDbXrecord
280
     1
300
ACD
300
2020
300
87224ACD_2020_0F
  0
DICTIONARY
  5
1DBE
102
{ACAD_REACTORS
330
7
102
}
330
7
100
AcDbDictionary
281
     1
  0
DICTIONARY
  5
2705
102
{ACAD_REACTORS
330
7
102
}
330
7
100
AcDbDictionary
281
     1
  3
Imperial24
350
2706
  0
DICTIONARY
  5
75
102
{ACAD_REACTORS
330
7
102
}
330
7
100
AcDbDictionary
281
     1
  0
DICTIONARY
  5
61
102
{ACAD_REACTORS
330
7
102
}
330
7
100
AcDbDictionary
281
     1
  3
Model
350
60
  3
レイアウト1
350
3F26
  0
DICTIONARY
  5
1D91
102
{ACAD_REACTORS
330
7
102
}
330
7
100
AcDbDictionary
281
     1
  3
ByBlock
350
1D9A
  3
ByLayer
350
1D92
  3
Global
350
1DA2
  0
DICTIONARY
  5
1DE3
102
{ACAD_REACTORS
330
7
102
}
330
7
100
AcDbDictionary
281
     1
  3
Standard
350
1DE4
  0
DICTIONARY
  5
76
102
{ACAD_REACTORS
330
7
102
}
330
7
100
AcDbDictionary
281
     1
  3
STANDARD
350
78
  0
DICTIONARY
  5
77
102
{ACAD_REACTORS
330
7
102
}
330
7
100
AcDbDictionary
281
     1
  0
ACDBDICTIONARYWDFLT
  5
6
102
{ACAD_REACTORS
330
7
102
}
330
7
100
AcDbDictionary
281
     1
  3
Normal
350
5
100
AcDbDictionaryWithDefault
340
5
  0
DICTIONARY
  5
1DC1
102
{ACAD_REACTORS
330
7
102
}
330
7
100
AcDbDictionary
281
     1
  3
A0
350
1DC2
  3
A1
350
1DC3
  3
A2
350
1DC4
  3
A3
350
1DC5
  3
A4
350
1DC6
  3
A5
350
1DC7
  3
A6
350
1DC8
  3
A7
350
1DC9
  3
A8
350
1DCA
  3
A9
350
1DCB
  3
B0
350
1DCC
  3
B1
350
1DCD
  3
B2
350
1DCE
  3
B3
350
1DCF
  3
B4
350
1DD0
  3
B5
350
1DD1
  3
B6
350
1DD2
  3
B7
350
1DD3
  3
B8
350
1DD4
  3
B9
350
1DD5
  3
C0
350
1DD6
  3
C1
350
1DD7
  3
C2
350
1DD8
  3
C3
350
1DD9
  3
C4
350
1DDA
  3
C5
350
1DDB
  3
C6
350
1DDC
  3
C7
350
1DDD
  3
C8
350
1DDE
  3
C9
350
1DDF
  3
D0
350
1DE0
  3
D1
350
1DE1
  3
D2
350
1DE2
  0
DICTIONARY
  5
2703
102
{ACAD_REACTORS
330
7
102
}
330
7
100
AcDbDictionary
281
     1
  3
Imperial24
350
2704
  0
DICTIONARY
  5
1DBF
102
{ACAD_REACTORS
330
7
102
}
330
7
100
AcDbDictionary
281
     1
  3
Standard
350
1DC0
  0
DICTIONARY
  5
1DAA
102
{ACAD_REACTORS
330
7
102
}
330
7
100
AcDbDictionary
281
     1
  3
2dWireframe
350
1DB0
  3
3D Hidden
350
1DB2
  3
3dWireframe
350
1DB1
  3
Basic
350
1DAF
  3
Brighten
350
1DB6
  3
ColorChange
350
1DBA
  3
Conceptual
350
1DB3
  3
Dim
350
1DB5
  3
EdgeColorOff
350
1DBD
  3
Facepattern
350
1DB9
  3
Flat
350
1DAB
  3
FlatWithEdges
350
1DAC
  3
Gouraud
350
1DAD
  3
GouraudWithEdges
350
1DAE
  3
Hidden
350
26FD
  3
JitterOff
350
1DBB
  3
Linepattern
350
1DB8
  3
OverhangOff
350
1DBC
  3
Realistic
350
1DB4
  3
Shaded
350
2702
  3
Shaded with edges
350
2701
  3
Shades of Gray
350
26FE
  3
Sketchy
350
26FF
  3
Thicken
350
1DB7
  3
Wireframe
350
26FC
  3
X-Ray
350
2700
  0
XRECORD
  5
480
102
{ACAD_REACTORS
330
7
102
}
330
7
100
AcDbXrecord
280
     1
 90
   990106
  3

 60
     0
 61
     0
 62
     1
 63
     3
 64
     1
 65
     0
 66
     0
 67
     3
 68
     1
 69
     0
 70
     0
 71
     0
 72
     0
 40
0.0
170
     2
340
0
  0
XRECORD
  5
3F2C
102
{ACAD_REACTORS
330
7
102
}
330
7
100
AcDbXrecord
280
     1
 90
        1
330
1DC0
  0
DICTIONARY
  5
102
102
{ACAD_REACTORS
330
7
102
}
330
7
100
AcDbDictionary
281
     1
  3
CANNOSCALE
350
1F4B
  3
CMLEADERSTYLE
350
1F4A
  3
CTABLESTYLE
350
1F49
  3
CVIEWDETAILSTYLE
350
3515
  3
CVIEWSECTIONSTYLE
350
3516
  3
DIMASSOC
350
103
  3
INDEXCTL
350
1F4D
  3
LAYEREVAL
350
3786
  3
LAYERNOTIFY
350
3787
  3
LIGHTINGUNITS
350
3785
  3
MSLTSCALE
350
3784
  3
SORTENTS
350
1F4C
  3
XCLIPFRAME
350
3F2A
  0
XRECORD
  5
3F2D
102
{ACAD_REACTORS
330
7
102
}
330
7
100
AcDbXrecord
280
     1
  1
DWGPROPS COOKIE
  2

  3

  4

  6

  7

  8
ykitaga
  9

300
=
301
=
302
=
303
=
304
=
305
=
306
=
307
=
308
=
309
=
 40
0.3840153935
 41
2453557.747268519
 42
2460164.365289352
  1

 90
        0
  0
DICTIONARY
  5
1DF3
102
{ACAD_REACTORS
330
1DF2
102
}
330
1DF2
100
AcDbDictionary
281
     1
  0
XRECORD
  5
1EDF
102
{ACAD_REACTORS
330
1EDE
102
}
330
1EDE
100
AcDbXrecord
280
     1
290
     1
  0
XRECORD
  5
1EE1
102
{ACAD_REACTORS
330
1EE0
102
}
330
1EE0
100
AcDbXrecord
280
     1
290
     1
  0
XRECORD
  5
1EE7
102
{ACAD_REACTORS
330
1EE6
102
}
330
1EE6
100
AcDbXrecord
280
     1
290
     1
  0
XRECORD
  5
1EE9
102
{ACAD_REACTORS
330
1EE8
102
}
330
1EE8
100
AcDbXrecord
280
     1
290
     1
  0
XRECORD
  5
1EEE
102
{ACAD_REACTORS
330
1DF0
102
}
330
1DF0
100
AcDbXrecord
280
     1
290
     1
  0
SORTENTSTABLE
  5
363E
102
{ACAD_REACTORS
330
363D
102
}
330
363D
100
AcDbSortentsTable
330
2E56
  0
SORTENTSTABLE
  5
3B9D
102
{ACAD_REACTORS
330
3B9C
102
}
330
3B9C
100
AcDbSortentsTable
330
3B9B
  0
SORTENTSTABLE
  5
3C44
102
{ACAD_REACTORS
330
3C43
102
}
330
3C43
100
AcDbSortentsTable
330
3C42
  0
ACDBDETAILVIEWSTYLE
  5
2706
102
{ACAD_XDICTIONARY
360
3F7A
102
}
102
{ACAD_REACTORS
330
2705
102
}
330
2705
100
AcDbModelDocViewStyle
 70
     0
  3
Imperial24
290
     0
100
AcDbDetailViewStyle
 70
     0
 71
     0
 90
        3
 71
     1
340
16
 40
0.24
340
0
 40
0.24
300

 40
0.36
280
     3
 71
     2
340
8
 90
       25
 71
     3
340
16
 40
0.24
 90
        1
 40
0.75
 90
        1
300
%<\AcVar ViewType \f "%tc1">% %<\AcVar ViewDetailId>%\PSCALE %<\AcVar ViewScale \f "%sn">%
 71
     4
340
8
 90
       25
340
8
 90
       25
280
     0
  0
LAYOUT
  5
60
102
{ACAD_XDICTIONARY
360
3F2E
102
}
102
{ACAD_REACTORS
330
61
102
}
330
61
100
AcDbPlotSettings
  1

  2
Canon LBP-1420
  4
A4
  6

 40
5.873749733
 41
5.8737478256
 42
5.8737487793
 43
5.8737487793
 44
209.9733276367
 45
296.925994873
 46
0.0
 47
5.37
 48
0.0
 49
0.0
140
0.0
141
0.0
142
1.0
143
0.088099941
 70
 11956
 72
     1
 73
     1
 74
     1
  7
Sekkei.ctb
 75
     0
147
11.3507453947
148
-88.9740150773
149
-101.3630682339
100
AcDbLayout
  1
Model
 70
     1
 71
     0
 10
0.0
 20
0.0
 11
12.0
 21
9.0
 12
0.0
 22
0.0
 32
0.0
 14
0.0
 24
0.0
 34
0.0
 15
0.0
 25
0.0
 35
0.0
146
0.0
 13
0.0
 23
0.0
 33
0.0
 16
1.0
 26
0.0
 36
0.0
 17
0.0
 27
1.0
 37
0.0
 76
     0
330
2
331
1D8F
  0
LAYOUT
  5
3F26
102
{ACAD_XDICTIONARY
360
3F8C
102
}
102
{ACAD_REACTORS
330
61
102
}
330
61
100
AcDbPlotSettings
  1

  2
LBP8610
  4

  6

 40
0.0
 41
0.0
 42
0.0
 43
0.0
 44
0.0
 45
0.0
 46
0.0
 47
0.0
 48
0.0
 49
0.0
140
0.0
141
0.0
142
1.0
143
1.0
 70
   688
 72
     0
 73
     0
 74
     5
  7

 75
    16
147
1.0
148
0.0
149
0.0
100
AcDbLayout
  1
レイアウト1
 70
     1
 71
     1
 10
0.0
 20
0.0
 11
12.0
 21
9.0
 12
0.0
 22
0.0
 32
0.0
 14
0.0
 24
0.0
 34
0.0
 15
0.0
 25
0.0
 35
0.0
146
0.0
 13
0.0
 23
0.0
 33
0.0
 16
1.0
 26
0.0
 36
0.0
 17
0.0
 27
1.0
 37
0.0
 76
     0
330
3F25
  0
MATERIAL
  5
1D9A
102
{ACAD_XDICTIONARY
360
1D9B
102
}
102
{ACAD_REACTORS
330
1D91
102
}
330
1D91
100
AcDbMaterial
  1
ByBlock
 72
     0
 43
0.0208333333
 43
0.0
 43
0.0
 43
0.0
 43
0.0
 43
0.0208333333
 43
0.0
 43
0.0
 43
0.0
 43
0.0
 43
1.0
 43
0.0
 43
0.0
 43
0.0
 43
0.0
 43
1.0
 77
     0
 47
0.0208333333
 47
0.0
 47
0.0
 47
0.0
 47
0.0
 47
0.0208333333
 47
0.0
 47
0.0
 47
0.0
 47
0.0
 47
1.0
 47
0.0
 47
0.0
 47
0.0
 47
0.0
 47
1.0
171
     0
 49
0.0208333333
 49
0.0
 49
0.0
 49
0.0
 49
0.0
 49
0.0208333333
 49
0.0
 49
0.0
 49
0.0
 49
0.0
 49
1.0
 49
0.0
 49
0.0
 49
0.0
 49
0.0
 49
1.0
175
     0
142
0.0208333333
142
0.0
142
0.0
142
0.0
142
0.0
142
0.0208333333
142
0.0
142
0.0
142
0.0
142
0.0
142
1.0
142
0.0
142
0.0
142
0.0
142
0.0
142
1.0
179
     0
144
0.0208333333
144
0.0
144
0.0
144
0.0
144
0.0
144
0.0208333333
144
0.0
144
0.0
144
0.0
144
0.0
144
1.0
144
0.0
144
0.0
144
0.0
144
0.0
144
1.0
147
0.0208333333
147
0.0
147
0.0
147
0.0
147
0.0
147
0.0208333333
147
0.0
147
0.0
147
0.0
147
0.0
147
1.0
147
0.0
147
0.0
147
0.0
147
0.0
147
1.0
  0
MATERIAL
  5
1D92
102
{ACAD_XDICTIONARY
360
1D93
102
}
102
{ACAD_REACTORS
330
1D91
102
}
330
1D91
100
AcDbMaterial
  1
ByLayer
 72
     0
 43
0.0208333333
 43
0.0
 43
0.0
 43
0.0
 43
0.0
 43
0.0208333333
 43
0.0
 43
0.0
 43
0.0
 43
0.0
 43
1.0
 43
0.0
 43
0.0
 43
0.0
 43
0.0
 43
1.0
 77
     0
 47
0.0208333333
 47
0.0
 47
0.0
 47
0.0
 47
0.0
 47
0.0208333333
 47
0.0
 47
0.0
 47
0.0
 47
0.0
 47
1.0
 47
0.0
 47
0.0
 47
0.0
 47
0.0
 47
1.0
171
     0
 49
0.0208333333
 49
0.0
 49
0.0
 49
0.0
 49
0.0
 49
0.0208333333
 49
0.0
 49
0.0
 49
0.0
 49
0.0
 49
1.0
 49
0.0
 49
0.0
 49
0.0
 49
0.0
 49
1.0
175
     0
142
0.0208333333
142
0.0
142
0.0
142
0.0
142
0.0
142
0.0208333333
142
0.0
142
0.0
142
0.0
142
0.0
142
1.0
142
0.0
142
0.0
142
0.0
142
0.0
142
1.0
179
     0
144
0.0208333333
144
0.0
144
0.0
144
0.0
144
0.0
144
0.0208333333
144
0.0
144
0.0
144
0.0
144
0.0
144
1.0
144
0.0
144
0.0
144
0.0
144
0.0
144
1.0
147
0.0208333333
147
0.0
147
0.0
147
0.0
147
0.0
147
0.0208333333
147
0.0
147
0.0
147
0.0
147
0.0
147
1.0
147
0.0
147
0.0
147
0.0
147
0.0
147
1.0
  0
MATERIAL
  5
1DA2
102
{ACAD_XDICTIONARY
360
1DA3
102
}
102
{ACAD_REACTORS
330
1D91
102
}
330
1D91
100
AcDbMaterial
  1
Global
 72
     0
 43
0.0208333333
 43
0.0
 43
0.0
 43
0.0
 43
0.0
 43
0.0208333333
 43
0.0
 43
0.0
 43
0.0
 43
0.0
 43
1.0
 43
0.0
 43
0.0
 43
0.0
 43
0.0
 43
1.0
 77
     0
 47
0.0208333333
 47
0.0
 47
0.0
 47
0.0
 47
0.0
 47
0.0208333333
 47
0.0
 47
0.0
 47
0.0
 47
0.0
 47
1.0
 47
0.0
 47
0.0
 47
0.0
 47
0.0
 47
1.0
171
     0
 49
0.0208333333
 49
0.0
 49
0.0
 49
0.0
 49
0.0
 49
0.0208333333
 49
0.0
 49
0.0
 49
0.0
 49
0.0
 49
1.0
 49
0.0
 49
0.0
 49
0.0
 49
0.0
 49
1.0
175
     0
142
0.0208333333
142
0.0
142
0.0
142
0.0
142
0.0
142
0.0208333333
142
0.0
142
0.0
142
0.0
142
0.0
142
1.0
142
0.0
142
0.0
142
0.0
142
0.0
142
1.0
179
     0
144
0.0208333333
144
0.0
144
0.0
144
0.0
144
0.0
144
0.0208333333
144
0.0
144
0.0
144
0.0
144
0.0
144
1.0
144
0.0
144
0.0
144
0.0
144
0.0
144
1.0
147
0.0208333333
147
0.0
147
0.0
147
0.0
147
0.0
147
0.0208333333
147
0.0
147
0.0
147
0.0
147
0.0
147
1.0
147
0.0
147
0.0
147
0.0
147
0.0
147
1.0
  0
MLEADERSTYLE
  5
1DE4
102
{ACAD_REACTORS
330
1DE3
102
}
330
1DE3
100
AcDbMLeaderStyle
170
     2
171
     1
172
     0
 90
        2
 40
0.0
 41
0.0
173
     1
 91
-1056964608
340
6A
 92
       -2
290
     1
 42
0.09
291
     1
 43
0.36
  3
Standard
 44
0.18
300

342
16
174
     1
178
     6
175
     1
176
     0
 93
-1056964608
 45
0.18
292
     0
297
     0
 46
0.18
 94
-1056964608
 47
1.0
 49
1.0
140
1.0
293
     1
141
0.0
294
     1
177
     0
142
1.0
295
     0
296
     0
143
0.125
1001
ACAD_MLEADERVER
1070
     2
  0
MLINESTYLE
  5
78
102
{ACAD_REACTORS
330
76
102
}
330
76
100
AcDbMlineStyle
  2
STANDARD
 70
     0
  3

 62
     0
 51
90.0
 52
90.0
 71
     2
 49
0.5
 62
   256
  6
BYLAYER
 49
-0.5
 62
   256
  6
BYLAYER
  0
ACDBPLACEHOLDER
  5
5
102
{ACAD_REACTORS
330
6
102
}
330
6
  0
SCALE
  5
1DC2
102
{ACAD_REACTORS
330
1DC1
102
}
330
1DC1
100
AcDbScale
 70
     0
300
1:1
140
1.0
141
1.0
290
     1
  0
SCALE
  5
1DC3
102
{ACAD_REACTORS
330
1DC1
102
}
330
1DC1
100
AcDbScale
 70
     0
300
1:2
140
1.0
141
2.0
290
     0
  0
SCALE
  5
1DC4
102
{ACAD_REACTORS
330
1DC1
102
}
330
1DC1
100
AcDbScale
 70
     0
300
1:4
140
1.0
141
4.0
290
     0
  0
SCALE
  5
1DC5
102
{ACAD_REACTORS
330
1DC1
102
}
330
1DC1
100
AcDbScale
 70
     0
300
1:5
140
1.0
141
5.0
290
     0
  0
SCALE
  5
1DC6
102
{ACAD_REACTORS
330
1DC1
102
}
330
1DC1
100
AcDbScale
 70
     0
300
1:8
140
1.0
141
8.0
290
     0
  0
SCALE
  5
1DC7
102
{ACAD_REACTORS
330
1DC1
102
}
330
1DC1
100
AcDbScale
 70
     0
300
1:10
140
1.0
141
10.0
290
     0
  0
SCALE
  5
1DC8
102
{ACAD_REACTORS
330
1DC1
102
}
330
1DC1
100
AcDbScale
 70
     0
300
1:16
140
1.0
141
16.0
290
     0
  0
SCALE
  5
1DC9
102
{ACAD_REACTORS
330
1DC1
102
}
330
1DC1
100
AcDbScale
 70
     0
300
1:20
140
1.0
141
20.0
290
     0
  0
SCALE
  5
1DCA
102
{ACAD_REACTORS
330
1DC1
102
}
330
1DC1
100
AcDbScale
 70
     0
300
1:30
140
1.0
141
30.0
290
     0
  0
SCALE
  5
1DCB
102
{ACAD_REACTORS
330
1DC1
102
}
330
1DC1
100
AcDbScale
 70
     0
300
1:40
140
1.0
141
40.0
290
     0
  0
SCALE
  5
1DCC
102
{ACAD_REACTORS
330
1DC1
102
}
330
1DC1
100
AcDbScale
 70
     0
300
1:50
140
1.0
141
50.0
290
     0
  0
SCALE
  5
1DCD
102
{ACAD_REACTORS
330
1DC1
102
}
330
1DC1
100
AcDbScale
 70
     0
300
1:100
140
1.0
141
100.0
290
     0
  0
SCALE
  5
1DCE
102
{ACAD_REACTORS
330
1DC1
102
}
330
1DC1
100
AcDbScale
 70
     0
300
2:1
140
2.0
141
1.0
290
     0
  0
SCALE
  5
1DCF
102
{ACAD_REACTORS
330
1DC1
102
}
330
1DC1
100
AcDbScale
 70
     0
300
4:1
140
4.0
141
1.0
290
     0
  0
SCALE
  5
1DD0
102
{ACAD_REACTORS
330
1DC1
102
}
330
1DC1
100
AcDbScale
 70
     0
300
8:1
140
8.0
141
1.0
290
     0
  0
SCALE
  5
1DD1
102
{ACAD_REACTORS
330
1DC1
102
}
330
1DC1
100
AcDbScale
 70
     0
300
10:1
140
10.0
141
1.0
290
     0
  0
SCALE
  5
1DD2
102
{ACAD_REACTORS
330
1DC1
102
}
330
1DC1
100
AcDbScale
 70
     0
300
100:1
140
100.0
141
1.0
290
     0
  0
SCALE
  5
1DD3
102
{ACAD_REACTORS
330
1DC1
102
}
330
1DC1
100
AcDbScale
 70
     0
300
1/128" = 1'-0"
140
0.0078125
141
12.0
290
     0
  0
SCALE
  5
1DD4
102
{ACAD_REACTORS
330
1DC1
102
}
330
1DC1
100
AcDbScale
 70
     0
300
1/64" = 1'-0"
140
0.015625
141
12.0
290
     0
  0
SCALE
  5
1DD5
102
{ACAD_REACTORS
330
1DC1
102
}
330
1DC1
100
AcDbScale
 70
     0
300
1/32" = 1'-0"
140
0.03125
141
12.0
290
     0
  0
SCALE
  5
1DD6
102
{ACAD_REACTORS
330
1DC1
102
}
330
1DC1
100
AcDbScale
 70
     0
300
1/16" = 1'-0"
140
0.0625
141
12.0
290
     0
  0
SCALE
  5
1DD7
102
{ACAD_REACTORS
330
1DC1
102
}
330
1DC1
100
AcDbScale
 70
     0
300
3/32" = 1'-0"
140
0.09375
141
12.0
290
     0
  0
SCALE
  5
1DD8
102
{ACAD_REACTORS
330
1DC1
102
}
330
1DC1
100
AcDbScale
 70
     0
300
1/8" = 1'-0"
140
0.125
141
12.0
290
     0
  0
SCALE
  5
1DD9
102
{ACAD_REACTORS
330
1DC1
102
}
330
1DC1
100
AcDbScale
 70
     0
300
3/16" = 1'-0"
140
0.1875
141
12.0
290
     0
  0
SCALE
  5
1DDA
102
{ACAD_REACTORS
330
1DC1
102
}
330
1DC1
100
AcDbScale
 70
     0
300
1/4" = 1'-0"
140
0.25
141
12.0
290
     0
  0
SCALE
  5
1DDB
102
{ACAD_REACTORS
330
1DC1
102
}
330
1DC1
100
AcDbScale
 70
     0
300
3/8" = 1'-0"
140
0.375
141
12.0
290
     0
  0
SCALE
  5
1DDC
102
{ACAD_REACTORS
330
1DC1
102
}
330
1DC1
100
AcDbScale
 70
     0
300
1/2" = 1'-0"
140
0.5
141
12.0
290
     0
  0
SCALE
  5
1DDD
102
{ACAD_REACTORS
330
1DC1
102
}
330
1DC1
100
AcDbScale
 70
     0
300
3/4" = 1'-0"
140
0.75
141
12.0
290
     0
  0
SCALE
  5
1DDE
102
{ACAD_REACTORS
330
1DC1
102
}
330
1DC1
100
AcDbScale
 70
     0
300
1" = 1'-0"
140
1.0
141
12.0
290
     0
  0
SCALE
  5
1DDF
102
{ACAD_REACTORS
330
1DC1
102
}
330
1DC1
100
AcDbScale
 70
     0
300
1-1/2" = 1'-0"
140
1.5
141
12.0
290
     0
  0
SCALE
  5
1DE0
102
{ACAD_REACTORS
330
1DC1
102
}
330
1DC1
100
AcDbScale
 70
     0
300
3" = 1'-0"
140
3.0
141
12.0
290
     0
  0
SCALE
  5
1DE1
102
{ACAD_REACTORS
330
1DC1
102
}
330
1DC1
100
AcDbScale
 70
     0
300
6" = 1'-0"
140
6.0
141
12.0
290
     0
  0
SCALE
  5
1DE2
102
{ACAD_REACTORS
330
1DC1
102
}
330
1DC1
100
AcDbScale
 70
     0
300
1'-0" = 1'-0"
140
12.0
141
12.0
290
     0
  0
ACDBSECTIONVIEWSTYLE
  5
2704
102
{ACAD_XDICTIONARY
360
3F78
102
}
102
{ACAD_REACTORS
330
2703
102
}
330
2703
100
AcDbModelDocViewStyle
 70
     0
  3
Imperial24
290
     0
100
AcDbSectionViewStyle
 70
     0
 71
     0
 90
       78
 71
     1
340
16
 40
0.24
340
0
340
0
 40
0.24
300
I, O, Q, S, X, Z
 40
0.48
 90
        3
 40
0.18
 90
        1
 71
     2
340
8
 90
       25
340
8
 90
       50
 40
0.24
 40
0.0
 40
0.24
 71
     3
340
16
 40
0.24
 90
        1
 40
0.75
 90
        1
300
%<\AcVar ViewType \f "%tc1">% %<\AcVar ViewSectionStartId>%-%<\AcVar ViewSectionEndId>%\PSCALE %<\AcVar ViewScale \f "%sn">%
 71
     4
300
ANSI31
 40
1.0
 90
        0
290
     0
290
     0
 90
        6
 40
0.0
 40
1.5707963268
 40
0.2617993878
 40
1.308996939
 40
-0.2617993878
 40
1.8325957146
  0
TABLESTYLE
  5
1DC0
102
{ACAD_XDICTIONARY
360
1EEF
102
}
102
{ACAD_REACTORS
330
1DBF
102
}
330
1DBF
100
AcDbTableStyle
  3
Standard
 70
     0
 71
     0
 40
0.06
 41
0.06
280
     0
281
     0
  7
STANDARD
140
0.18
170
     2
 62
     0
 63
     7
283
     0
274
    -2
284
     1
 64
     0
275
    -2
285
     1
 65
     0
276
    -2
286
     1
 66
     0
277
    -2
287
     1
 67
     0
278
    -2
288
     1
 68
     0
279
    -2
289
     1
 69
     0
  7
STANDARD
140
0.25
170
     5
 62
     0
 63
     7
283
     0
274
    -2
284
     1
 64
     0
275
    -2
285
     1
 65
     0
276
    -2
286
     1
 66
     0
277
    -2
287
     1
 67
     0
278
    -2
288
     1
 68
     0
279
    -2
289
     1
 69
     0
  7
STANDARD
140
0.18
170
     5
 62
     0
 63
     7
283
     0
274
    -2
284
     1
 64
     0
275
    -2
285
     1
 65
     0
276
    -2
286
     1
 66
     0
277
    -2
287
     1
 67
     0
278
    -2
288
     1
 68
     0
279
    -2
289
     1
 69
     0
  0
VISUALSTYLE
  5
1DB0
102
{ACAD_XDICTIONARY
360
3F3D
102
}
102
{ACAD_REACTORS
330
1DAA
102
}
330
1DAA
100
AcDbVisualStyle
  2

 70
     4
 71
     0
 72
     2
 73
     0
 90
        0
 40
-0.6
 41
-30.0
 62
     5
 63
     7
 74
     1
 91
        4
 64
     7
 65
   257
 75
     1
175
     1
 42
1.0
 92
        0
 66
   257
 43
1.0
 76
     1
 77
     6
 78
     2
 67
     7
 79
     5
170
     0
171
     0
290
     0
174
     0
 93
        1
 44
0.0
173
     0
291
     0
 45
0.0
1001
ACAD
1000
AcDbSavedByObjectVersion
1070
     0
  0
VISUALSTYLE
  5
1DB2
102
{ACAD_XDICTIONARY
360
3F41
102
}
102
{ACAD_REACTORS
330
1DAA
102
}
330
1DAA
100
AcDbVisualStyle
  2

 70
     6
 71
     1
 72
     2
 73
     2
 90
        0
 40
-0.6
 41
-30.0
 62
     5
 63
     7
 74
     2
 91
        2
 64
     7
 65
   257
 75
     2
175
     1
 42
179.0
 92
        0
 66
   257
 43
1.0
 76
     1
 77
     6
 78
     2
 67
     7
 79
     3
170
     0
171
     0
290
     0
174
     0
 93
        1
 44
0.0
173
     0
291
     0
 45
0.0
1001
ACAD
1000
AcDbSavedByObjectVersion
1070
     0
  0
VISUALSTYLE
  5
1DB1
102
{ACAD_XDICTIONARY
360
3F3F
102
}
102
{ACAD_REACTORS
330
1DAA
102
}
330
1DAA
100
AcDbVisualStyle
  2

 70
     5
 71
     0
 72
     2
 73
     0
 90
        0
 40
-0.6
 41
-30.0
 62
     5
 63
     7
 74
     1
 91
        4
 64
     7
 65
   257
 75
     1
175
     1
 42
1.0
 92
        0
 66
   257
 43
1.0
 76
     1
 77
     6
 78
     2
 67
     7
 79
     5
170
     0
171
     0
290
     0
174
     0
 93
        1
 44
0.0
173
     0
291
     0
 45
0.0
1001
ACAD
1000
AcDbSavedByObjectVersion
1070
     0
  0
VISUALSTYLE
  5
1DAF
102
{ACAD_XDICTIONARY
360
3F3B
102
}
102
{ACAD_REACTORS
330
1DAA
102
}
330
1DAA
100
AcDbVisualStyle
  2

 70
     7
 71
     1
 72
     0
 73
     1
 90
        0
 40
-0.6
 41
-30.0
 62
     5
 63
     7
 74
     0
 91
        4
 64
     7
 65
   257
 75
     1
175
     1
 42
1.0
 92
        8
 66
     7
 43
1.0
 76
     1
 77
     6
 78
     2
 67
     7
 79
     5
170
     0
171
     0
290
     0
174
     0
 93
        1
 44
0.0
173
     0
291
     1
 45
0.0
1001
ACAD
1000
AcDbSavedByObjectVersion
1070
     0
  0
VISUALSTYLE
  5
1DB6
102
{ACAD_XDICTIONARY
360
3F49
102
}
102
{ACAD_REACTORS
330
1DAA
102
}
330
1DAA
100
AcDbVisualStyle
  2

 70
    12
 71
     2
 72
     2
 73
     0
 90
        0
 40
-0.6
 41
-30.0
 62
     5
 63
     7
 74
     1
 91
        4
 64
     7
 65
   257
 75
     1
175
     1
 42
1.0
 92
        8
 66
     7
 43
1.0
 76
     1
 77
     6
 78
     2
 67
     7
 79
     5
170
     0
171
     0
290
     0
174
     0
 93
        1
 44
50.0
173
     0
291
     1
 45
0.0
1001
ACAD
1000
AcDbSavedByObjectVersion
1070
     0
  0
VISUALSTYLE
  5
1DBA
102
{ACAD_XDICTIONARY
360
3F51
102
}
102
{ACAD_REACTORS
330
1DAA
102
}
330
1DAA
100
AcDbVisualStyle
  2

 70
    16
 71
     2
 72
     2
 73
     3
 90
        0
 40
-0.6
 41
-30.0
 62
     5
 63
     8
 74
     1
 91
        4
 64
     7
 65
   257
 75
     1
175
     1
 42
1.0
 92
        8
 66
     8
 43
1.0
 76
     1
 77
     6
 78
     2
 67
     7
 79
     5
170
     0
171
     0
290
     0
174
     0
 93
        1
 44
0.0
173
     0
291
     1
 45
0.0
1001
ACAD
1000
AcDbSavedByObjectVersion
1070
     0
  0
VISUALSTYLE
  5
1DB3
102
{ACAD_XDICTIONARY
360
3F43
102
}
102
{ACAD_REACTORS
330
1DAA
102
}
330
1DAA
100
AcDbVisualStyle
  2

 70
     9
 71
     3
 72
     2
 73
     0
 90
        0
 40
-0.6
 41
-30.0
 62
     5
 63
     7
 74
     2
 91
        2
 64
     7
 65
   257
 75
     1
175
     1
 42
179.0
 92
        8
 66
     7
 43
1.0
 76
     1
 77
     6
 78
     2
 67
     7
 79
     3
170
     0
171
     0
290
     0
174
     0
 93
        1
 44
0.0
173
     0
291
     0
 45
0.0
1001
ACAD
1000
AcDbSavedByObjectVersion
1070
     0
  0
VISUALSTYLE
  5
1DB5
102
{ACAD_XDICTIONARY
360
3F47
102
}
102
{ACAD_REACTORS
330
1DAA
102
}
330
1DAA
100
AcDbVisualStyle
  2

 70
    11
 71
     2
 72
     2
 73
     0
 90
        0
 40
-0.6
 41
-30.0
 62
     5
 63
     7
 74
     1
 91
        4
 64
     7
 65
   257
 75
     1
175
     1
 42
1.0
 92
        8
 66
     7
 43
1.0
 76
     1
 77
     6
 78
     2
 67
     7
 79
     5
170
     0
171
     0
290
     0
174
     0
 93
        1
 44
-50.0
173
     0
291
     1
 45
0.0
1001
ACAD
1000
AcDbSavedByObjectVersion
1070
     0
  0
VISUALSTYLE
  5
1DBD
102
{ACAD_XDICTIONARY
360
3F57
102
}
102
{ACAD_REACTORS
330
1DAA
102
}
330
1DAA
100
AcDbVisualStyle
  2

 70
    22
 71
     2
 72
     2
 73
     0
 90
        0
 40
-0.6
 41
-30.0
 62
     5
 63
     7
 74
     1
 91
        4
 64
     7
 65
   257
 75
     1
175
     1
 42
1.0
 92
        8
 66
     7
 43
1.0
 76
     1
 77
     6
 78
     2
 67
     7
 79
     5
170
     0
171
     0
290
     0
174
     0
 93
        1
 44
0.0
173
     0
291
     1
 45
0.0
1001
ACAD
1000
AcDbSavedByObjectVersion
1070
     0
  0
VISUALSTYLE
  5
1DB9
102
{ACAD_XDICTIONARY
360
3F4F
102
}
102
{ACAD_REACTORS
330
1DAA
102
}
330
1DAA
100
AcDbVisualStyle
  2

 70
    15
 71
     2
 72
     2
 73
     0
 90
        0
 40
-0.6
 41
-30.0
 62
     5
 63
     7
 74
     1
 91
        4
 64
     7
 65
   257
 75
     1
175
     1
 42
1.0
 92
        8
 66
     7
 43
1.0
 76
     1
 77
     6
 78
     2
 67
     7
 79
     5
170
     0
171
     0
290
     0
174
     0
 93
        1
 44
0.0
173
     0
291
     1
 45
0.0
1001
ACAD
1000
AcDbSavedByObjectVersion
1070
     0
  0
VISUALSTYLE
  5
1DAB
102
{ACAD_XDICTIONARY
360
3F33
102
}
102
{ACAD_REACTORS
330
1DAA
102
}
330
1DAA
100
AcDbVisualStyle
  2

 70
     0
 71
     2
 72
     1
 73
     1
 90
        2
 40
-0.6
 41
30.0
 62
     5
 63
     7
 74
     0
 91
        4
 64
     7
 65
   257
 75
     1
175
     1
 42
1.0
 92
        8
 66
     7
 43
1.0
 76
     1
 77
     6
 78
     2
 67
     7
 79
     5
170
     0
171
     0
290
     0
174
     0
 93
       13
 44
0.0
173
     0
291
     1
 45
0.0
1001
ACAD
1000
AcDbSavedByObjectVersion
1070
     0
  0
VISUALSTYLE
  5
1DAC
102
{ACAD_XDICTIONARY
360
3F35
102
}
102
{ACAD_REACTORS
330
1DAA
102
}
330
1DAA
100
AcDbVisualStyle
  2

 70
     1
 71
     2
 72
     1
 73
     1
 90
        2
 40
-0.6
 41
30.0
 62
     5
 63
     7
 74
     1
 91
        4
 64
     7
 65
   257
 75
     1
175
     1
 42
1.0
 92
        0
 66
   257
 43
1.0
 76
     1
 77
     6
 78
     2
 67
     7
 79
     5
170
     0
171
     0
290
     0
174
     0
 93
       13
 44
0.0
173
     0
291
     1
 45
0.0
1001
ACAD
1000
AcDbSavedByObjectVersion
1070
     0
  0
VISUALSTYLE
  5
1DAD
102
{ACAD_XDICTIONARY
360
3F37
102
}
102
{ACAD_REACTORS
330
1DAA
102
}
330
1DAA
100
AcDbVisualStyle
  2

 70
     2
 71
     2
 72
     2
 73
     1
 90
        2
 40
-0.6
 41
30.0
 62
     5
 63
     7
 74
     0
 91
        4
 64
     7
 65
   257
 75
     1
175
     1
 42
1.0
 92
        0
 66
     7
 43
1.0
 76
     1
 77
     6
 78
     2
 67
     7
 79
     5
170
     0
171
     0
290
     0
174
     0
 93
       13
 44
0.0
173
     0
291
     1
 45
0.0
1001
ACAD
1000
AcDbSavedByObjectVersion
1070
     0
  0
VISUALSTYLE
  5
1DAE
102
{ACAD_XDICTIONARY
360
3F39
102
}
102
{ACAD_REACTORS
330
1DAA
102
}
330
1DAA
100
AcDbVisualStyle
  2

 70
     3
 71
     2
 72
     2
 73
     1
 90
        2
 40
-0.6
 41
30.0
 62
     5
 63
     7
 74
     1
 91
        4
 64
     7
 65
   257
 75
     1
175
     1
 42
1.0
 92
        0
 66
   257
 43
1.0
 76
     1
 77
     6
 78
     2
 67
     7
 79
     5
170
     0
171
     0
290
     0
174
     0
 93
       13
 44
0.0
173
     0
291
     1
 45
0.0
1001
ACAD
1000
AcDbSavedByObjectVersion
1070
     0
  0
VISUALSTYLE
  5
26FD
102
{ACAD_XDICTIONARY
360
3F6C
102
}
102
{ACAD_REACTORS
330
1DAA
102
}
330
1DAA
100
AcDbVisualStyle
  2

 70
     6
 71
     1
 72
     2
 73
     2
 90
        0
 40
-0.6
 41
-30.0
 62
     5
 63
     7
 74
     2
 91
        2
 64
     7
 65
   257
 75
     2
175
     1
 42
40.0
 92
        0
 66
   257
 43
1.0
 76
     1
 77
     6
 78
     2
 67
     7
 79
     3
170
     0
171
     0
290
     0
174
     0
 93
        1
 44
0.0
173
     0
291
     0
 45
0.0
1001
ACAD
1000
AcDbSavedByObjectVersion
1070
     0
  0
VISUALSTYLE
  5
1DBB
102
{ACAD_XDICTIONARY
360
3F53
102
}
102
{ACAD_REACTORS
330
1DAA
102
}
330
1DAA
100
AcDbVisualStyle
  2

 70
    20
 71
     2
 72
     2
 73
     0
 90
        0
 40
-0.6
 41
-30.0
 62
     5
 63
     7
 74
     1
 91
        4
 64
     7
 65
   257
 75
     1
175
     1
 42
1.0
 92
       10
 66
     7
 43
1.0
 76
     1
 77
     6
 78
     2
 67
     7
 79
     5
170
     0
171
     0
290
     0
174
     0
 93
        1
 44
0.0
173
     0
291
     1
 45
0.0
1001
ACAD
1000
AcDbSavedByObjectVersion
1070
     0
  0
VISUALSTYLE
  5
1DB8
102
{ACAD_XDICTIONARY
360
3F4D
102
}
102
{ACAD_REACTORS
330
1DAA
102
}
330
1DAA
100
AcDbVisualStyle
  2

 70
    14
 71
     2
 72
     2
 73
     0
 90
        0
 40
-0.6
 41
-30.0
 62
     5
 63
     7
 74
     1
 91
        4
 64
     7
 65
   257
 75
     7
175
     7
 42
1.0
 92
        8
 66
     7
 43
1.0
 76
     1
 77
     6
 78
     2
 67
     7
 79
     5
170
     0
171
     0
290
     0
174
     0
 93
        1
 44
0.0
173
     0
291
     1
 45
0.0
1001
ACAD
1000
AcDbSavedByObjectVersion
1070
     0
  0
VISUALSTYLE
  5
1DBC
102
{ACAD_XDICTIONARY
360
3F55
102
}
102
{ACAD_REACTORS
330
1DAA
102
}
330
1DAA
100
AcDbVisualStyle
  2

 70
    21
 71
     2
 72
     2
 73
     0
 90
        0
 40
-0.6
 41
-30.0
 62
     5
 63
     7
 74
     1
 91
        4
 64
     7
 65
   257
 75
     1
175
     1
 42
1.0
 92
        9
 66
     7
 43
1.0
 76
     1
 77
     6
 78
     2
 67
     7
 79
     5
170
     0
171
     0
290
     0
174
     0
 93
        1
 44
0.0
173
     0
291
     1
 45
0.0
1001
ACAD
1000
AcDbSavedByObjectVersion
1070
     0
  0
VISUALSTYLE
  5
1DB4
102
{ACAD_XDICTIONARY
360
3F45
102
}
102
{ACAD_REACTORS
330
1DAA
102
}
330
1DAA
100
AcDbVisualStyle
  2

 70
     8
 71
     2
 72
     2
 73
     0
 90
        0
 40
-0.6
 41
-30.0
 62
     5
 63
     7
 74
     1
 91
        0
 64
     7
 65
   257
 75
     1
175
     1
 42
1.0
 92
        8
 66
     8
 43
1.0
 76
     1
 77
     6
 78
     2
 67
     7
 79
     5
170
     0
171
     0
290
     0
174
     0
 93
       13
 44
0.0
173
     0
291
     0
 45
0.0
1001
ACAD
1000
AcDbSavedByObjectVersion
1070
     0
  0
VISUALSTYLE
  5
2702
102
{ACAD_XDICTIONARY
360
3F76
102
}
102
{ACAD_REACTORS
330
1DAA
102
}
330
1DAA
100
AcDbVisualStyle
  2

 70
    27
 71
     2
 72
     2
 73
     1
 90
        2
 40
-0.6
 41
30.0
 62
     5
 63
     7
 74
     0
 91
        4
 64
     7
 65
   257
 75
     1
175
     1
 42
1.0
 92
        8
 66
   257
 43
1.0
 76
     1
 77
     6
 78
     2
 67
     8
 79
     3
170
     0
171
     0
290
     0
174
     0
 93
        5
 44
0.0
173
     0
291
     0
 45
0.0
1001
ACAD
1000
AcDbSavedByObjectVersion
1070
     0
  0
VISUALSTYLE
  5
2701
102
{ACAD_XDICTIONARY
360
3F74
102
}
102
{ACAD_REACTORS
330
1DAA
102
}
330
1DAA
100
AcDbVisualStyle
  2

 70
    26
 71
     2
 72
     2
 73
     1
 90
        2
 40
-0.6
 41
30.0
 62
     5
 63
     7
 74
     1
 91
        2
 64
     7
 65
   257
 75
     2
175
     1
 42
1.0
 92
        8
 66
   257
 43
1.0
 76
     1
 77
     6
 78
     2
 67
     7
 79
     3
170
     0
171
     0
290
     0
174
     0
 93
        5
 44
0.0
173
     0
291
     0
 45
0.0
1001
ACAD
1000
AcDbSavedByObjectVersion
1070
     0
  0
VISUALSTYLE
  5
26FE
102
{ACAD_XDICTIONARY
360
3F6E
102
}
102
{ACAD_REACTORS
330
1DAA
102
}
330
1DAA
100
AcDbVisualStyle
  2

 70
    23
 71
     2
 72
     2
 73
     3
 90
        0
 40
-0.6
 41
-30.0
 62
     5
 63
     7
 74
     2
 91
        2
 64
     7
 65
     7
 75
     1
175
     1
 42
40.0
 92
        8
 66
     7
 43
1.0
 76
     1
 77
     6
 78
     2
 67
     7
 79
     3
170
     0
171
     0
290
     0
174
     0
 93
        1
 44
0.0
173
     0
291
     0
 45
0.0
1001
ACAD
1000
AcDbSavedByObjectVersion
1070
     0
  0
VISUALSTYLE
  5
26FF
102
{ACAD_XDICTIONARY
360
3F70
102
}
102
{ACAD_REACTORS
330
1DAA
102
}
330
1DAA
100
AcDbVisualStyle
  2

 70
    24
 71
     1
 72
     2
 73
     2
 90
        0
 40
-0.6
 41
-30.0
 62
     5
 63
     7
 74
     2
 91
        2
 64
     7
 65
     7
 75
     1
175
     1
 42
40.0
 92
       11
 66
     7
 43
1.0
 76
     1
 77
     6
 78
     2
 67
     7
 79
     6
170
     0
171
     0
290
     0
174
     0
 93
        1
 44
0.0
173
     0
291
     0
 45
0.0
1001
ACAD
1000
AcDbSavedByObjectVersion
1070
     0
  0
VISUALSTYLE
  5
1DB7
102
{ACAD_XDICTIONARY
360
3F4B
102
}
102
{ACAD_REACTORS
330
1DAA
102
}
330
1DAA
100
AcDbVisualStyle
  2

 70
    13
 71
     2
 72
     2
 73
     0
 90
        0
 40
-0.6
 41
-30.0
 62
     5
 63
     7
 74
     1
 91
        4
 64
     7
 65
   257
 75
     1
175
     1
 42
1.0
 92
       12
 66
     7
 43
1.0
 76
     1
 77
     6
 78
     2
 67
     7
 79
     5
170
     0
171
     0
290
     0
174
     0
 93
        1
 44
0.0
173
     0
291
     1
 45
0.0
1001
ACAD
1000
AcDbSavedByObjectVersion
1070
     0
  0
VISUALSTYLE
  5
26FC
102
{ACAD_XDICTIONARY
360
3F6A
102
}
102
{ACAD_REACTORS
330
1DAA
102
}
330
1DAA
100
AcDbVisualStyle
  2

 70
     5
 71
     0
 72
     2
 73
     0
 90
        0
 40
-0.6
 41
-30.0
 62
     5
 63
     7
 74
     1
 91
        4
 64
     7
 65
   257
 75
     1
175
     1
 42
1.0
 92
        0
 66
   257
 43
1.0
 76
     1
 77
     6
 78
     2
 67
     7
 79
     3
170
     0
171
     0
290
     0
174
     0
 93
        1
 44
0.0
173
     0
291
     0
 45
0.0
1001
ACAD
1000
AcDbSavedByObjectVersion
1070
     0
  0
VISUALSTYLE
  5
2700
102
{ACAD_XDICTIONARY
360
3F72
102
}
102
{ACAD_REACTORS
330
1DAA
102
}
330
1DAA
100
AcDbVisualStyle
  2

 70
    25
 71
     2
 72
     2
 73
     1
 90
        1
 40
0.5
 41
-30.0
 62
     5
 63
     7
 74
     1
 91
        0
 64
     7
 65
   257
 75
     1
175
     1
 42
1.0
 92
        8
 66
     7
 43
1.0
 76
     1
 77
     6
 78
     2
 67
     7
 79
     3
170
     0
171
     0
290
     0
174
     0
 93
       13
 44
0.0
173
     0
291
     0
 45
0.0
1001
ACAD
1000
AcDbSavedByObjectVersion
1070
     0
  0
DICTIONARYVAR
  5
1F4B
102
{ACAD_REACTORS
330
102
102
}
330
102
100
DictionaryVariables
280
     0
  1
1:1
  0
DICTIONARYVAR
  5
1F4A
102
{ACAD_REACTORS
330
102
102
}
330
102
100
DictionaryVariables
280
     0
  1
STANDARD
  0
DICTIONARYVAR
  5
1F49
102
{ACAD_REACTORS
330
102
102
}
330
102
100
DictionaryVariables
280
     0
  1
STANDARD
  0
DICTIONARYVAR
  5
3515
102
{ACAD_REACTORS
330
102
102
}
330
102
100
DictionaryVariables
280
     0
  1
Imperial24
  0
DICTIONARYVAR
  5
3516
102
{ACAD_REACTORS
330
102
102
}
330
102
100
DictionaryVariables
280
     0
  1
Imperial24
  0
DICTIONARYVAR
  5
103
102
{ACAD_REACTORS
330
102
102
}
330
102
100
DictionaryVariables
280
     0
  1
1
  0
DICTIONARYVAR
  5
1F4D
102
{ACAD_REACTORS
330
102
102
}
330
102
100
DictionaryVariables
280
     0
  1
0
  0
DICTIONARYVAR
  5
3786
102
{ACAD_REACTORS
330
102
102
}
330
102
100
DictionaryVariables
280
     0
  1
1
  0
DICTIONARYVAR
  5
3787
102
{ACAD_REACTORS
330
102
102
}
330
102
100
DictionaryVariables
280
     0
  1
15
  0
DICTIONARYVAR
  5
3785
102
{ACAD_REACTORS
330
102
102
}
330
102
100
DictionaryVariables
280
     0
  1
0
  0
DICTIONARYVAR
  5
3784
102
{ACAD_REACTORS
330
102
102
}
330
102
100
DictionaryVariables
280
     0
  1
0
  0
DICTIONARYVAR
  5
1F4C
102
{ACAD_REACTORS
330
102
102
}
330
102
100
DictionaryVariables
280
     0
  1
127
  0
DICTIONARYVAR
  5
3F2A
102
{ACAD_REACTORS
330
102
102
}
330
102
100
DictionaryVariables
280
     0
  1
2
  0
DICTIONARY
  5
3F7A
330
2706
100
AcDbDictionary
280
     1
281
     1
  3
ACAD_XREC_ROUNDTRIP
360
3F7B
  0
DICTIONARY
  5
3F2E
330
60
100
AcDbDictionary
280
     1
281
     1
  3
ACAD_XREC_ROUNDTRIP
360
3F2F
  0
DICTIONARY
  5
3F8C
330
3F26
100
AcDbDictionary
280
     1
281
     1
  3
ACAD_XREC_ROUNDTRIP
360
3F8D
  0
DICTIONARY
  5
1D9B
330
1D9A
100
AcDbDictionary
280
     1
281
     1
  3
ACAD_XREC_ROUNDTRIP
360
3F31
  3
BUMPTILE
360
1D9D
  3
DIFFUSETILE
360
1D9C
  3
OPACITYTILE
360
1DA0
  3
REFLECTIONTILE
360
1D9F
  3
REFRACTIONTILE
360
1DA1
  3
SPECULARTILE
360
1D9E
  0
DICTIONARY
  5
1D93
330
1D92
100
AcDbDictionary
280
     1
281
     1
  3
ACAD_XREC_ROUNDTRIP
360
3F30
  3
BUMPTILE
360
1D95
  3
DIFFUSETILE
360
1D94
  3
OPACITYTILE
360
1D98
  3
REFLECTIONTILE
360
1D97
  3
REFRACTIONTILE
360
1D99
  3
SPECULARTILE
360
1D96
  0
DICTIONARY
  5
1DA3
330
1DA2
100
AcDbDictionary
280
     1
281
     1
  3
ACAD_XREC_ROUNDTRIP
360
3F32
  3
BUMPTILE
360
1DA5
  3
DIFFUSETILE
360
1DA4
  3
OPACITYTILE
360
1DA8
  3
REFLECTIONTILE
360
1DA7
  3
REFRACTIONTILE
360
1DA9
  3
SPECULARTILE
360
1DA6
  0
DICTIONARY
  5
3F78
330
2704
100
AcDbDictionary
280
     1
281
     1
  3
ACAD_XREC_ROUNDTRIP
360
3F79
  0
DICTIONARY
  5
1EEF
330
1DC0
100
AcDbDictionary
280
     1
281
     1
  3
ACAD_ROUNDTRIP_2008_TABLESTYLE_CELLSTYLEMAP
360
3F2B
  3
ACAD_XREC_ROUNDTRIP
360
3F59
  0
DICTIONARY
  5
3F3D
330
1DB0
100
AcDbDictionary
280
     1
281
     1
  3
ACAD_XREC_ROUNDTRIP
360
3F3E
  0
DICTIONARY
  5
3F41
330
1DB2
100
AcDbDictionary
280
     1
281
     1
  3
ACAD_XREC_ROUNDTRIP
360
3F42
  0
DICTIONARY
  5
3F3F
330
1DB1
100
AcDbDictionary
280
     1
281
     1
  3
ACAD_XREC_ROUNDTRIP
360
3F40
  0
DICTIONARY
  5
3F3B
330
1DAF
100
AcDbDictionary
280
     1
281
     1
  3
ACAD_XREC_ROUNDTRIP
360
3F3C
  0
DICTIONARY
  5
3F49
330
1DB6
100
AcDbDictionary
280
     1
281
     1
  3
ACAD_XREC_ROUNDTRIP
360
3F4A
  0
DICTIONARY
  5
3F51
330
1DBA
100
AcDbDictionary
280
     1
281
     1
  3
ACAD_XREC_ROUNDTRIP
360
3F52
  0
DICTIONARY
  5
3F43
330
1DB3
100
AcDbDictionary
280
     1
281
     1
  3
ACAD_XREC_ROUNDTRIP
360
3F44
  0
DICTIONARY
  5
3F47
330
1DB5
100
AcDbDictionary
280
     1
281
     1
  3
ACAD_XREC_ROUNDTRIP
360
3F48
  0
DICTIONARY
  5
3F57
330
1DBD
100
AcDbDictionary
280
     1
281
     1
  3
ACAD_XREC_ROUNDTRIP
360
3F58
  0
DICTIONARY
  5
3F4F
330
1DB9
100
AcDbDictionary
280
     1
281
     1
  3
ACAD_XREC_ROUNDTRIP
360
3F50
  0
DICTIONARY
  5
3F33
330
1DAB
100
AcDbDictionary
280
     1
281
     1
  3
ACAD_XREC_ROUNDTRIP
360
3F34
  0
DICTIONARY
  5
3F35
330
1DAC
100
AcDbDictionary
280
     1
281
     1
  3
ACAD_XREC_ROUNDTRIP
360
3F36
  0
DICTIONARY
  5
3F37
330
1DAD
100
AcDbDictionary
280
     1
281
     1
  3
ACAD_XREC_ROUNDTRIP
360
3F38
  0
DICTIONARY
  5
3F39
330
1DAE
100
AcDbDictionary
280
     1
281
     1
  3
ACAD_XREC_ROUNDTRIP
360
3F3A
  0
DICTIONARY
  5
3F6C
330
26FD
100
AcDbDictionary
280
     1
281
     1
  3
ACAD_XREC_ROUNDTRIP
360
3F6D
  0
DICTIONARY
  5
3F53
330
1DBB
100
AcDbDictionary
280
     1
281
     1
  3
ACAD_XREC_ROUNDTRIP
360
3F54
  0
DICTIONARY
  5
3F4D
330
1DB8
100
AcDbDictionary
280
     1
281
     1
  3
ACAD_XREC_ROUNDTRIP
360
3F4E
  0
DICTIONARY
  5
3F55
330
1DBC
100
AcDbDictionary
280
     1
281
     1
  3
ACAD_XREC_ROUNDTRIP
360
3F56
  0
DICTIONARY
  5
3F45
330
1DB4
100
AcDbDictionary
280
     1
281
     1
  3
ACAD_XREC_ROUNDTRIP
360
3F46
  0
DICTIONARY
  5
3F76
330
2702
100
AcDbDictionary
280
     1
281
     1
  3
ACAD_XREC_ROUNDTRIP
360
3F77
  0
DICTIONARY
  5
3F74
330
2701
100
AcDbDictionary
280
     1
281
     1
  3
ACAD_XREC_ROUNDTRIP
360
3F75
  0
DICTIONARY
  5
3F6E
330
26FE
100
AcDbDictionary
280
     1
281
     1
  3
ACAD_XREC_ROUNDTRIP
360
3F6F
  0
DICTIONARY
  5
3F70
330
26FF
100
AcDbDictionary
280
     1
281
     1
  3
ACAD_XREC_ROUNDTRIP
360
3F71
  0
DICTIONARY
  5
3F4B
330
1DB7
100
AcDbDictionary
280
     1
281
     1
  3
ACAD_XREC_ROUNDTRIP
360
3F4C
  0
DICTIONARY
  5
3F6A
330
26FC
100
AcDbDictionary
280
     1
281
     1
  3
ACAD_XREC_ROUNDTRIP
360
3F6B
  0
DICTIONARY
  5
3F72
330
2700
100
AcDbDictionary
280
     1
281
     1
  3
ACAD_XREC_ROUNDTRIP
360
3F73
  0
XRECORD
  5
3F7B
102
{ACAD_REACTORS
330
3F7A
102
}
330
3F7A
100
AcDbXrecord
280
     1
102
DISPLAYNAME
  1
Imperial24
102
FLAGS
 90
        0
  0
XRECORD
  5
3F2F
102
{ACAD_REACTORS
330
3F2E
102
}
330
3F2E
100
AcDbXrecord
280
     1
102
SHADEPLOT
 70
     0
102
SHADEPLOTRESLEVEL
 70
     2
102
SHADEPLOTCUSTOMDPI
 70
   300
  0
XRECORD
  5
3F8D
102
{ACAD_REACTORS
330
3F8C
102
}
330
3F8C
100
AcDbXrecord
280
     1
102
SHADEPLOT
 70
     0
102
SHADEPLOTRESLEVEL
 70
     2
102
SHADEPLOTCUSTOMDPI
 70
   300
  0
XRECORD
  5
3F31
102
{ACAD_REACTORS
330
1D9B
102
}
330
1D9B
100
AcDbXrecord
280
     1
102
MATERIAL
148
0.0
149
0.0
149
0.0
 93
        0
 94
      127
282
     0
 72
     0
 77
     0
171
     0
175
     0
179
     0
273
     0
  0
XRECORD
  5
1D9D
102
{ACAD_REACTORS
330
1D9B
102
}
330
1D9B
100
AcDbXrecord
280
     1
270
     1
271
     1
  0
XRECORD
  5
1D9C
102
{ACAD_REACTORS
330
1D9B
102
}
330
1D9B
100
AcDbXrecord
280
     1
270
     1
271
     1
  0
XRECORD
  5
1DA0
102
{ACAD_REACTORS
330
1D9B
102
}
330
1D9B
100
AcDbXrecord
280
     1
270
     1
271
     1
  0
XRECORD
  5
1D9F
102
{ACAD_REACTORS
330
1D9B
102
}
330
1D9B
100
AcDbXrecord
280
     1
270
     1
271
     1
  0
XRECORD
  5
1DA1
102
{ACAD_REACTORS
330
1D9B
102
}
330
1D9B
100
AcDbXrecord
280
     1
270
     1
271
     1
  0
XRECORD
  5
1D9E
102
{ACAD_REACTORS
330
1D9B
102
}
330
1D9B
100
AcDbXrecord
280
     1
270
     1
271
     1
  0
XRECORD
  5
3F30
102
{ACAD_REACTORS
330
1D93
102
}
330
1D93
100
AcDbXrecord
280
     1
102
MATERIAL
148
0.0
149
0.0
149
0.0
 93
        0
 94
      127
282
     0
 72
     0
 77
     0
171
     0
175
     0
179
     0
273
     0
  0
XRECORD
  5
1D95
102
{ACAD_REACTORS
330
1D93
102
}
330
1D93
100
AcDbXrecord
280
     1
270
     1
271
     1
  0
XRECORD
  5
1D94
102
{ACAD_REACTORS
330
1D93
102
}
330
1D93
100
AcDbXrecord
280
     1
270
     1
271
     1
  0
XRECORD
  5
1D98
102
{ACAD_REACTORS
330
1D93
102
}
330
1D93
100
AcDbXrecord
280
     1
270
     1
271
     1
  0
XRECORD
  5
1D97
102
{ACAD_REACTORS
330
1D93
102
}
330
1D93
100
AcDbXrecord
280
     1
270
     1
271
     1
  0
XRECORD
  5
1D99
102
{ACAD_REACTORS
330
1D93
102
}
330
1D93
100
AcDbXrecord
280
     1
270
     1
271
     1
  0
XRECORD
  5
1D96
102
{ACAD_REACTORS
330
1D93
102
}
330
1D93
100
AcDbXrecord
280
     1
270
     1
271
     1
  0
XRECORD
  5
3F32
102
{ACAD_REACTORS
330
1DA3
102
}
330
1DA3
100
AcDbXrecord
280
     1
102
MATERIAL
148
0.0
149
0.0
149
0.0
 93
        0
 94
      127
282
     0
 72
     0
 77
     0
171
     0
175
     0
179
     0
273
     0
  0
XRECORD
  5
1DA5
102
{ACAD_REACTORS
330
1DA3
102
}
330
1DA3
100
AcDbXrecord
280
     1
270
     1
271
     1
  0
XRECORD
  5
1DA4
102
{ACAD_REACTORS
330
1DA3
102
}
330
1DA3
100
AcDbXrecord
280
     1
270
     1
271
     1
  0
XRECORD
  5
1DA8
102
{ACAD_REACTORS
330
1DA3
102
}
330
1DA3
100
AcDbXrecord
280
     1
270
     1
271
     1
  0
XRECORD
  5
1DA7
102
{ACAD_REACTORS
330
1DA3
102
}
330
1DA3
100
AcDbXrecord
280
     1
270
     1
271
     1
  0
XRECORD
  5
1DA9
102
{ACAD_REACTORS
330
1DA3
102
}
330
1DA3
100
AcDbXrecord
280
     1
270
     1
271
     1
  0
XRECORD
  5
1DA6
102
{ACAD_REACTORS
330
1DA3
102
}
330
1DA3
100
AcDbXrecord
280
     1
270
     1
271
     1
  0
XRECORD
  5
3F79
102
{ACAD_REACTORS
330
3F78
102
}
330
3F78
100
AcDbXrecord
280
     1
102
DISPLAYNAME
  1
Imperial24
102
FLAGS
 90
        0
  0
CELLSTYLEMAP
  5
3F2B
102
{ACAD_REACTORS
330
1EEF
102
}
330
1EEF
100
AcDbCellStyleMap
 90
        3
300
CELLSTYLE
  1
TABLEFORMAT_BEGIN
 90
        5
170
     1
 91
        0
 92
    32768
 62
   257
 93
        1
300
CONTENTFORMAT
  1
CONTENTFORMAT_BEGIN
 90
        0
 91
        0
 92
      512
 93
        0
300

 40
0.0
140
1.0
 94
        5
 62
     0
340
16
144
0.25
309
CONTENTFORMAT_END
171
     1
301
MARGIN
  1
CELLMARGIN_BEGIN
 40
0.06
 40
0.06
 40
0.06
 40
0.06
 40
0.18
 40
0.18
309
CELLMARGIN_END
 94
        6
 95
        1
302
GRIDFORMAT
  1
GRIDFORMAT_BEGIN
 90
        0
 91
        1
 62
     0
 92
       -2
340
0
 93
        0
 40
0.045
309
GRIDFORMAT_END
 95
        2
302
GRIDFORMAT
  1
GRIDFORMAT_BEGIN
 90
        0
 91
        1
 62
     0
 92
       -2
340
0
 93
        0
 40
0.045
309
GRIDFORMAT_END
 95
        4
302
GRIDFORMAT
  1
GRIDFORMAT_BEGIN
 90
        0
 91
        1
 62
     0
 92
       -2
340
0
 93
        0
 40
0.045
309
GRIDFORMAT_END
 95
        8
302
GRIDFORMAT
  1
GRIDFORMAT_BEGIN
 90
        0
 91
        1
 62
     0
 92
       -2
340
0
 93
        0
 40
0.045
309
GRIDFORMAT_END
 95
       16
302
GRIDFORMAT
  1
GRIDFORMAT_BEGIN
 90
        0
 91
        1
 62
     0
 92
       -2
340
0
 93
        0
 40
0.045
309
GRIDFORMAT_END
 95
       32
302
GRIDFORMAT
  1
GRIDFORMAT_BEGIN
 90
        0
 91
        1
 62
     0
 92
       -2
340
0
 93
        0
 40
0.045
309
GRIDFORMAT_END
309
TABLEFORMAT_END
  1
CELLSTYLE_BEGIN
 90
        1
 91
        1
300
_TITLE
309
CELLSTYLE_END
300
CELLSTYLE
  1
TABLEFORMAT_BEGIN
 90
        5
170
     1
 91
        0
 92
        0
 62
   257
 93
        1
300
CONTENTFORMAT
  1
CONTENTFORMAT_BEGIN
 90
        0
 91
        0
 92
      512
 93
        0
300

 40
0.0
140
1.0
 94
        5
 62
     0
340
16
144
0.18
309
CONTENTFORMAT_END
171
     1
301
MARGIN
  1
CELLMARGIN_BEGIN
 40
0.06
 40
0.06
 40
0.06
 40
0.06
 40
0.18
 40
0.18
309
CELLMARGIN_END
 94
        6
 95
        1
302
GRIDFORMAT
  1
GRIDFORMAT_BEGIN
 90
        0
 91
        1
 62
     0
 92
       -2
340
0
 93
        0
 40
0.045
309
GRIDFORMAT_END
 95
        2
302
GRIDFORMAT
  1
GRIDFORMAT_BEGIN
 90
        0
 91
        1
 62
     0
 92
       -2
340
0
 93
        0
 40
0.045
309
GRIDFORMAT_END
 95
        4
302
GRIDFORMAT
  1
GRIDFORMAT_BEGIN
 90
        0
 91
        1
 62
     0
 92
       -2
340
0
 93
        0
 40
0.045
309
GRIDFORMAT_END
 95
        8
302
GRIDFORMAT
  1
GRIDFORMAT_BEGIN
 90
        0
 91
        1
 62
     0
 92
       -2
340
0
 93
        0
 40
0.045
309
GRIDFORMAT_END
 95
       16
302
GRIDFORMAT
  1
GRIDFORMAT_BEGIN
 90
        0
 91
        1
 62
     0
 92
       -2
340
0
 93
        0
 40
0.045
309
GRIDFORMAT_END
 95
       32
302
GRIDFORMAT
  1
GRIDFORMAT_BEGIN
 90
        0
 91
        1
 62
     0
 92
       -2
340
0
 93
        0
 40
0.045
309
GRIDFORMAT_END
309
TABLEFORMAT_END
  1
CELLSTYLE_BEGIN
 90
        2
 91
        1
300
_HEADER
309
CELLSTYLE_END
300
CELLSTYLE
  1
TABLEFORMAT_BEGIN
 90
        5
170
     1
 91
        0
 92
        0
 62
   257
 93
        1
300
CONTENTFORMAT
  1
CONTENTFORMAT_BEGIN
 90
        0
 91
        0
 92
      512
 93
        0
300

 40
0.0
140
1.0
 94
        2
 62
     0
340
16
144
0.18
309
CONTENTFORMAT_END
171
     1
301
MARGIN
  1
CELLMARGIN_BEGIN
 40
0.06
 40
0.06
 40
0.06
 40
0.06
 40
0.18
 40
0.18
309
CELLMARGIN_END
 94
        6
 95
        1
302
GRIDFORMAT
  1
GRIDFORMAT_BEGIN
 90
        0
 91
        1
 62
     0
 92
       -2
340
0
 93
        0
 40
0.045
309
GRIDFORMAT_END
 95
        2
302
GRIDFORMAT
  1
GRIDFORMAT_BEGIN
 90
        0
 91
        1
 62
     0
 92
       -2
340
0
 93
        0
 40
0.045
309
GRIDFORMAT_END
 95
        4
302
GRIDFORMAT
  1
GRIDFORMAT_BEGIN
 90
        0
 91
        1
 62
     0
 92
       -2
340
0
 93
        0
 40
0.045
309
GRIDFORMAT_END
 95
        8
302
GRIDFORMAT
  1
GRIDFORMAT_BEGIN
 90
        0
 91
        1
 62
     0
 92
       -2
340
0
 93
        0
 40
0.045
309
GRIDFORMAT_END
 95
       16
302
GRIDFORMAT
  1
GRIDFORMAT_BEGIN
 90
        0
 91
        1
 62
     0
 92
       -2
340
0
 93
        0
 40
0.045
309
GRIDFORMAT_END
 95
       32
302
GRIDFORMAT
  1
GRIDFORMAT_BEGIN
 90
        0
 91
        1
 62
     0
 92
       -2
340
0
 93
        0
 40
0.045
309
GRIDFORMAT_END
309
TABLEFORMAT_END
  1
CELLSTYLE_BEGIN
 90
        3
 91
        2
300
_DATA
309
CELLSTYLE_END
  0
XRECORD
  5
3F59
102
{ACAD_REACTORS
330
1EEF
102
}
330
1EEF
100
AcDbXrecord
280
     1
102
ACAD_ROUNDTRIP_PRE2007_TABLESTYLE
 90
      512
 91
        0
  1

 92
      512
 93
        0
  2

 94
      512
 95
        0
  3

  0
XRECORD
  5
3F3E
102
{ACAD_REACTORS
330
3F3D
102
}
330
3F3D
100
AcDbXrecord
280
     1
102
RTVSPost2010Prop28
280
     1
102
RTVSPost2010PropOp28
 70
     1
102
RTVSPost2010Prop29
280
     1
102
RTVSPost2010PropOp29
 70
     1
102
RTVSPost2010Prop30
280
     0
102
RTVSPost2010PropOp30
 70
     1
102
RTVSPost2010Prop31
280
     0
102
RTVSPost2010PropOp31
 70
     1
102
RTVSPost2010Prop32
280
     0
102
RTVSPost2010PropOp32
 70
     1
102
RTVSPost2010Prop33
280
     0
102
RTVSPost2010PropOp33
 70
     1
102
RTVSPost2010Prop34
280
     0
102
RTVSPost2010PropOp34
 70
     1
102
RTVSPost2010Prop35
280
     0
102
RTVSPost2010PropOp35
 70
     1
102
RTVSPost2010Prop36
280
     0
102
RTVSPost2010PropOp36
 70
     1
102
RTVSPost2010Prop37
 90
       50
102
RTVSPost2010PropOp37
 70
     1
102
RTVSPost2010Prop38
140
0.0
102
RTVSPost2010PropOp38
 70
     1
102
RTVSPost2010Prop39
140
1.0
102
RTVSPost2010PropOp39
 70
     1
102
RTVSPost2010Prop40
 90
        0
102
RTVSPost2010PropOp40
 70
     1
102
RTVSPost2010Prop41ColorIndex
 90
       18
102
RTVSPost2010Prop41ColorRGB
 90
        0
102
RTVSPost2010PropOp41
 70
     1
102
RTVSPost2010Prop42
 90
       50
102
RTVSPost2010PropOp42
 70
     1
102
RTVSPost2010Prop43
 90
        3
102
RTVSPost2010PropOp43
 70
     1
102
RTVSPost2010Prop44ColorIndex
 90
        5
102
RTVSPost2010Prop44ColorRGB
 90
      255
102
RTVSPost2010PropOp44
 70
     1
102
RTVSPost2010Prop45
280
     0
102
RTVSPost2010PropOp45
 70
     1
102
RTVSPost2010Prop46
 90
       50
102
RTVSPost2010PropOp46
 70
     1
102
RTVSPost2010Prop47
 90
       50
102
RTVSPost2010PropOp47
 70
     1
102
RTVSPost2010Prop48
 90
       50
102
RTVSPost2010PropOp48
 70
     1
102
RTVSPost2010Prop49
280
     0
102
RTVSPost2010PropOp49
 70
     1
102
RTVSPost2010Prop50
 90
       50
102
RTVSPost2010PropOp50
 70
     1
102
RTVSPost2010Prop51ColorIndex
 90
      256
102
RTVSPost2010Prop51ColorRGB
 90
-16777216
102
RTVSPost2010PropOp51
 70
     0
102
RTVSPost2010Prop52
140
1.0
102
RTVSPost2010PropOp52
 70
     0
102
RTVSPost2010Prop53
 90
        2
102
RTVSPost2010PropOp53
 70
     1
102
RTVSPost2010Prop54
  1
strokes_ogs.tif
102
RTVSPost2010PropOp54
 70
     1
102
RTVSPost2010Prop55
280
     0
102
RTVSPost2010PropOp55
 70
     1
102
RTVSPost2010Prop56
140
1.0
102
RTVSPost2010PropOp56
 70
     1
102
RTVSPost2010Prop57
140
1.0
102
RTVSPost2010PropOp57
 70
     1
102
RTVSPropertyOp0
 70
     1
102
RTVSPropertyOp1
 70
     1
102
RTVSPropertyOp2
 70
     1
102
RTVSPropertyOp3
 70
     1
102
RTVSPropertyOp4
 70
     1
102
RTVSPropertyOp5
 70
     1
102
RTVSPropertyOp6
 70
     1
102
RTVSPropertyOp7
 70
     1
102
RTVSPropertyOp8
 70
     1
102
RTVSPropertyOp9
 70
     1
102
RTVSPropertyOp10
 70
     1
102
RTVSPropertyOp11
 70
     1
102
RTVSPropertyOp12
 70
     1
102
RTVSPropertyOp13
 70
     1
102
RTVSPropertyOp14
 70
     1
102
RTVSPropertyOp15
 70
     1
102
RTVSPropertyOp16
 70
     1
102
RTVSPropertyOp17
 70
     1
102
RTVSPropertyOp18
 70
     1
102
RTVSPropertyOp19
 70
     1
102
RTVSPropertyOp20
 70
     1
102
RTVSPropertyOp21
 70
     1
102
RTVSPropertyOp22
 70
     1
102
RTVSPropertyOp23
 70
     1
102
RTVSPropertyOp24
 70
     1
102
RTVSPropertyOp25
 70
     1
102
RTVSPropertyOp26
 70
     1
102
RTVSPropertyOp27
 70
     1
102
RTVSPropertyOp28
 70
     1
102
RTVSPropertyOp29
 70
     1
102
RTVSPropertyOp30
 70
     1
102
RTVSPropertyOp31
 70
     1
102
RTVSPropertyOp32
 70
     1
102
RTVSPropertyOp33
 70
     1
102
RTVSPropertyOp34
 70
     1
102
RTVSPropertyOp35
 70
     1
102
RTVSPropertyOp36
 70
     1
102
RTVSPropertyOp37
 70
     1
102
RTVSPropertyOp38
 70
     1
102
RTVSPropertyOp39
 70
     1
102
RTVSPropertyOp40
 70
     1
102
RTVSPropertyOp41
 70
     1
102
RTVSPropertyOp42
 70
     1
102
RTVSPropertyOp43
 70
     1
102
RTVSPropertyOp44
 70
     1
102
RTVSPropertyOp45
 70
     1
102
RTVSPropertyOp46
 70
     1
102
RTVSPropertyOp47
 70
     1
102
RTVSPropertyOp48
 70
     1
102
RTVSPropertyOp49
 70
     1
102
RTVSPropertyOp50
 70
     1
102
RTVSPropertyOp51
 70
     0
102
RTVSPropertyOp52
 70
     0
102
RTVSPropertyOp53
 70
     1
102
RTVSPropertyOp54
 70
     1
102
RTVSPropertyOp55
 70
     1
102
RTVSPropertyOp56
 70
     1
102
RTVSPropertyOp57
 70
     1
102
RTVSPropertyOp58
 70
     1
102
RTVSPropertyOp59
 70
     1
102
RTVSPropertyOp60
 70
     1
102
RTVSPropertyOp61
 70
     1
102
RTVSPropertyOp62
 70
     1
  0
XRECORD
  5
3F42
102
{ACAD_REACTORS
330
3F41
102
}
330
3F41
100
AcDbXrecord
280
     1
102
RTVSPost2010Prop28
280
     0
102
RTVSPost2010PropOp28
 70
     1
102
RTVSPost2010Prop29
280
     1
102
RTVSPost2010PropOp29
 70
     1
102
RTVSPost2010Prop30
280
     1
102
RTVSPost2010PropOp30
 70
     1
102
RTVSPost2010Prop31
280
     0
102
RTVSPost2010PropOp31
 70
     1
102
RTVSPost2010Prop32
280
     0
102
RTVSPost2010PropOp32
 70
     1
102
RTVSPost2010Prop33
280
     0
102
RTVSPost2010PropOp33
 70
     1
102
RTVSPost2010Prop34
280
     0
102
RTVSPost2010PropOp34
 70
     1
102
RTVSPost2010Prop35
280
     0
102
RTVSPost2010PropOp35
 70
     1
102
RTVSPost2010Prop36
280
     0
102
RTVSPost2010PropOp36
 70
     1
102
RTVSPost2010Prop37
 90
       50
102
RTVSPost2010PropOp37
 70
     1
102
RTVSPost2010Prop38
140
0.0
102
RTVSPost2010PropOp38
 70
     1
102
RTVSPost2010Prop39
140
1.0
102
RTVSPost2010PropOp39
 70
     1
102
RTVSPost2010Prop40
 90
        0
102
RTVSPost2010PropOp40
 70
     1
102
RTVSPost2010Prop41ColorIndex
 90
       18
102
RTVSPost2010Prop41ColorRGB
 90
        0
102
RTVSPost2010PropOp41
 70
     1
102
RTVSPost2010Prop42
 90
       50
102
RTVSPost2010PropOp42
 70
     1
102
RTVSPost2010Prop43
 90
        3
102
RTVSPost2010PropOp43
 70
     1
102
RTVSPost2010Prop44ColorIndex
 90
        5
102
RTVSPost2010Prop44ColorRGB
 90
      255
102
RTVSPost2010PropOp44
 70
     1
102
RTVSPost2010Prop45
280
     0
102
RTVSPost2010PropOp45
 70
     1
102
RTVSPost2010Prop46
 90
       50
102
RTVSPost2010PropOp46
 70
     1
102
RTVSPost2010Prop47
 90
       50
102
RTVSPost2010PropOp47
 70
     1
102
RTVSPost2010Prop48
 90
       50
102
RTVSPost2010PropOp48
 70
     1
102
RTVSPost2010Prop49
280
     0
102
RTVSPost2010PropOp49
 70
     1
102
RTVSPost2010Prop50
 90
       50
102
RTVSPost2010PropOp50
 70
     1
102
RTVSPost2010Prop51ColorIndex
 90
      256
102
RTVSPost2010Prop51ColorRGB
 90
-16777216
102
RTVSPost2010PropOp51
 70
     0
102
RTVSPost2010Prop52
140
1.0
102
RTVSPost2010PropOp52
 70
     0
102
RTVSPost2010Prop53
 90
        2
102
RTVSPost2010PropOp53
 70
     1
102
RTVSPost2010Prop54
  1
strokes_ogs.tif
102
RTVSPost2010PropOp54
 70
     1
102
RTVSPost2010Prop55
280
     0
102
RTVSPost2010PropOp55
 70
     1
102
RTVSPost2010Prop56
140
1.0
102
RTVSPost2010PropOp56
 70
     1
102
RTVSPost2010Prop57
140
1.0
102
RTVSPost2010PropOp57
 70
     1
102
RTVSPropertyOp0
 70
     1
102
RTVSPropertyOp1
 70
     1
102
RTVSPropertyOp2
 70
     1
102
RTVSPropertyOp3
 70
     1
102
RTVSPropertyOp4
 70
     1
102
RTVSPropertyOp5
 70
     1
102
RTVSPropertyOp6
 70
     1
102
RTVSPropertyOp7
 70
     1
102
RTVSPropertyOp8
 70
     1
102
RTVSPropertyOp9
 70
     1
102
RTVSPropertyOp10
 70
     1
102
RTVSPropertyOp11
 70
     1
102
RTVSPropertyOp12
 70
     1
102
RTVSPropertyOp13
 70
     1
102
RTVSPropertyOp14
 70
     1
102
RTVSPropertyOp15
 70
     1
102
RTVSPropertyOp16
 70
     1
102
RTVSPropertyOp17
 70
     1
102
RTVSPropertyOp18
 70
     1
102
RTVSPropertyOp19
 70
     1
102
RTVSPropertyOp20
 70
     1
102
RTVSPropertyOp21
 70
     1
102
RTVSPropertyOp22
 70
     1
102
RTVSPropertyOp23
 70
     1
102
RTVSPropertyOp24
 70
     1
102
RTVSPropertyOp25
 70
     1
102
RTVSPropertyOp26
 70
     1
102
RTVSPropertyOp27
 70
     1
102
RTVSPropertyOp28
 70
     1
102
RTVSPropertyOp29
 70
     1
102
RTVSPropertyOp30
 70
     1
102
RTVSPropertyOp31
 70
     1
102
RTVSPropertyOp32
 70
     1
102
RTVSPropertyOp33
 70
     1
102
RTVSPropertyOp34
 70
     1
102
RTVSPropertyOp35
 70
     1
102
RTVSPropertyOp36
 70
     1
102
RTVSPropertyOp37
 70
     1
102
RTVSPropertyOp38
 70
     1
102
RTVSPropertyOp39
 70
     1
102
RTVSPropertyOp40
 70
     1
102
RTVSPropertyOp41
 70
     1
102
RTVSPropertyOp42
 70
     1
102
RTVSPropertyOp43
 70
     1
102
RTVSPropertyOp44
 70
     1
102
RTVSPropertyOp45
 70
     1
102
RTVSPropertyOp46
 70
     1
102
RTVSPropertyOp47
 70
     1
102
RTVSPropertyOp48
 70
     1
102
RTVSPropertyOp49
 70
     1
102
RTVSPropertyOp50
 70
     1
102
RTVSPropertyOp51
 70
     0
102
RTVSPropertyOp52
 70
     0
102
RTVSPropertyOp53
 70
     1
102
RTVSPropertyOp54
 70
     1
102
RTVSPropertyOp55
 70
     1
102
RTVSPropertyOp56
 70
     1
102
RTVSPropertyOp57
 70
     1
102
RTVSPropertyOp58
 70
     1
102
RTVSPropertyOp59
 70
     1
102
RTVSPropertyOp60
 70
     1
102
RTVSPropertyOp61
 70
     1
102
RTVSPropertyOp62
 70
     1
  0
XRECORD
  5
3F40
102
{ACAD_REACTORS
330
3F3F
102
}
330
3F3F
100
AcDbXrecord
280
     1
102
RTVSPost2010Prop28
280
     0
102
RTVSPost2010PropOp28
 70
     1
102
RTVSPost2010Prop29
280
     1
102
RTVSPost2010PropOp29
 70
     1
102
RTVSPost2010Prop30
280
     1
102
RTVSPost2010PropOp30
 70
     1
102
RTVSPost2010Prop31
280
     0
102
RTVSPost2010PropOp31
 70
     1
102
RTVSPost2010Prop32
280
     0
102
RTVSPost2010PropOp32
 70
     1
102
RTVSPost2010Prop33
280
     0
102
RTVSPost2010PropOp33
 70
     1
102
RTVSPost2010Prop34
280
     0
102
RTVSPost2010PropOp34
 70
     1
102
RTVSPost2010Prop35
280
     0
102
RTVSPost2010PropOp35
 70
     1
102
RTVSPost2010Prop36
280
     0
102
RTVSPost2010PropOp36
 70
     1
102
RTVSPost2010Prop37
 90
       50
102
RTVSPost2010PropOp37
 70
     1
102
RTVSPost2010Prop38
140
0.0
102
RTVSPost2010PropOp38
 70
     1
102
RTVSPost2010Prop39
140
1.0
102
RTVSPost2010PropOp39
 70
     1
102
RTVSPost2010Prop40
 90
        0
102
RTVSPost2010PropOp40
 70
     1
102
RTVSPost2010Prop41ColorIndex
 90
       18
102
RTVSPost2010Prop41ColorRGB
 90
        0
102
RTVSPost2010PropOp41
 70
     1
102
RTVSPost2010Prop42
 90
       50
102
RTVSPost2010PropOp42
 70
     1
102
RTVSPost2010Prop43
 90
        3
102
RTVSPost2010PropOp43
 70
     1
102
RTVSPost2010Prop44ColorIndex
 90
        5
102
RTVSPost2010Prop44ColorRGB
 90
      255
102
RTVSPost2010PropOp44
 70
     1
102
RTVSPost2010Prop45
280
     0
102
RTVSPost2010PropOp45
 70
     1
102
RTVSPost2010Prop46
 90
       50
102
RTVSPost2010PropOp46
 70
     1
102
RTVSPost2010Prop47
 90
       50
102
RTVSPost2010PropOp47
 70
     1
102
RTVSPost2010Prop48
 90
       50
102
RTVSPost2010PropOp48
 70
     1
102
RTVSPost2010Prop49
280
     0
102
RTVSPost2010PropOp49
 70
     1
102
RTVSPost2010Prop50
 90
       50
102
RTVSPost2010PropOp50
 70
     1
102
RTVSPost2010Prop51ColorIndex
 90
      256
102
RTVSPost2010Prop51ColorRGB
 90
-16777216
102
RTVSPost2010PropOp51
 70
     0
102
RTVSPost2010Prop52
140
1.0
102
RTVSPost2010PropOp52
 70
     0
102
RTVSPost2010Prop53
 90
        2
102
RTVSPost2010PropOp53
 70
     1
102
RTVSPost2010Prop54
  1
strokes_ogs.tif
102
RTVSPost2010PropOp54
 70
     1
102
RTVSPost2010Prop55
280
     0
102
RTVSPost2010PropOp55
 70
     1
102
RTVSPost2010Prop56
140
1.0
102
RTVSPost2010PropOp56
 70
     1
102
RTVSPost2010Prop57
140
1.0
102
RTVSPost2010PropOp57
 70
     1
102
RTVSPropertyOp0
 70
     1
102
RTVSPropertyOp1
 70
     1
102
RTVSPropertyOp2
 70
     1
102
RTVSPropertyOp3
 70
     1
102
RTVSPropertyOp4
 70
     1
102
RTVSPropertyOp5
 70
     1
102
RTVSPropertyOp6
 70
     1
102
RTVSPropertyOp7
 70
     1
102
RTVSPropertyOp8
 70
     1
102
RTVSPropertyOp9
 70
     1
102
RTVSPropertyOp10
 70
     1
102
RTVSPropertyOp11
 70
     1
102
RTVSPropertyOp12
 70
     1
102
RTVSPropertyOp13
 70
     1
102
RTVSPropertyOp14
 70
     1
102
RTVSPropertyOp15
 70
     1
102
RTVSPropertyOp16
 70
     1
102
RTVSPropertyOp17
 70
     1
102
RTVSPropertyOp18
 70
     1
102
RTVSPropertyOp19
 70
     1
102
RTVSPropertyOp20
 70
     1
102
RTVSPropertyOp21
 70
     1
102
RTVSPropertyOp22
 70
     1
102
RTVSPropertyOp23
 70
     1
102
RTVSPropertyOp24
 70
     1
102
RTVSPropertyOp25
 70
     1
102
RTVSPropertyOp26
 70
     1
102
RTVSPropertyOp27
 70
     1
102
RTVSPropertyOp28
 70
     1
102
RTVSPropertyOp29
 70
     1
102
RTVSPropertyOp30
 70
     1
102
RTVSPropertyOp31
 70
     1
102
RTVSPropertyOp32
 70
     1
102
RTVSPropertyOp33
 70
     1
102
RTVSPropertyOp34
 70
     1
102
RTVSPropertyOp35
 70
     1
102
RTVSPropertyOp36
 70
     1
102
RTVSPropertyOp37
 70
     1
102
RTVSPropertyOp38
 70
     1
102
RTVSPropertyOp39
 70
     1
102
RTVSPropertyOp40
 70
     1
102
RTVSPropertyOp41
 70
     1
102
RTVSPropertyOp42
 70
     1
102
RTVSPropertyOp43
 70
     1
102
RTVSPropertyOp44
 70
     1
102
RTVSPropertyOp45
 70
     1
102
RTVSPropertyOp46
 70
     1
102
RTVSPropertyOp47
 70
     1
102
RTVSPropertyOp48
 70
     1
102
RTVSPropertyOp49
 70
     1
102
RTVSPropertyOp50
 70
     1
102
RTVSPropertyOp51
 70
     0
102
RTVSPropertyOp52
 70
     0
102
RTVSPropertyOp53
 70
     1
102
RTVSPropertyOp54
 70
     1
102
RTVSPropertyOp55
 70
     1
102
RTVSPropertyOp56
 70
     1
102
RTVSPropertyOp57
 70
     1
102
RTVSPropertyOp58
 70
     1
102
RTVSPropertyOp59
 70
     1
102
RTVSPropertyOp60
 70
     1
102
RTVSPropertyOp61
 70
     1
102
RTVSPropertyOp62
 70
     1
  0
XRECORD
  5
3F3C
102
{ACAD_REACTORS
330
3F3B
102
}
330
3F3B
100
AcDbXrecord
280
     1
102
RTVSPost2010Prop28
280
     0
102
RTVSPost2010PropOp28
 70
     1
102
RTVSPost2010Prop29
280
     1
102
RTVSPost2010PropOp29
 70
     1
102
RTVSPost2010Prop30
280
     1
102
RTVSPost2010PropOp30
 70
     1
102
RTVSPost2010Prop31
280
     0
102
RTVSPost2010PropOp31
 70
     1
102
RTVSPost2010Prop32
280
     0
102
RTVSPost2010PropOp32
 70
     1
102
RTVSPost2010Prop33
280
     0
102
RTVSPost2010PropOp33
 70
     1
102
RTVSPost2010Prop34
280
     0
102
RTVSPost2010PropOp34
 70
     1
102
RTVSPost2010Prop35
280
     0
102
RTVSPost2010PropOp35
 70
     1
102
RTVSPost2010Prop36
280
     0
102
RTVSPost2010PropOp36
 70
     1
102
RTVSPost2010Prop37
 90
       50
102
RTVSPost2010PropOp37
 70
     1
102
RTVSPost2010Prop38
140
0.0
102
RTVSPost2010PropOp38
 70
     1
102
RTVSPost2010Prop39
140
1.0
102
RTVSPost2010PropOp39
 70
     1
102
RTVSPost2010Prop40
 90
        0
102
RTVSPost2010PropOp40
 70
     1
102
RTVSPost2010Prop41ColorIndex
 90
       18
102
RTVSPost2010Prop41ColorRGB
 90
        0
102
RTVSPost2010PropOp41
 70
     1
102
RTVSPost2010Prop42
 90
       50
102
RTVSPost2010PropOp42
 70
     1
102
RTVSPost2010Prop43
 90
        3
102
RTVSPost2010PropOp43
 70
     1
102
RTVSPost2010Prop44ColorIndex
 90
        5
102
RTVSPost2010Prop44ColorRGB
 90
      255
102
RTVSPost2010PropOp44
 70
     1
102
RTVSPost2010Prop45
280
     0
102
RTVSPost2010PropOp45
 70
     1
102
RTVSPost2010Prop46
 90
       50
102
RTVSPost2010PropOp46
 70
     1
102
RTVSPost2010Prop47
 90
       50
102
RTVSPost2010PropOp47
 70
     1
102
RTVSPost2010Prop48
 90
       50
102
RTVSPost2010PropOp48
 70
     1
102
RTVSPost2010Prop49
280
     0
102
RTVSPost2010PropOp49
 70
     1
102
RTVSPost2010Prop50
 90
       50
102
RTVSPost2010PropOp50
 70
     1
102
RTVSPost2010Prop51ColorIndex
 90
      256
102
RTVSPost2010Prop51ColorRGB
 90
-16777216
102
RTVSPost2010PropOp51
 70
     0
102
RTVSPost2010Prop52
140
1.0
102
RTVSPost2010PropOp52
 70
     0
102
RTVSPost2010Prop53
 90
        2
102
RTVSPost2010PropOp53
 70
     1
102
RTVSPost2010Prop54
  1
strokes_ogs.tif
102
RTVSPost2010PropOp54
 70
     1
102
RTVSPost2010Prop55
280
     0
102
RTVSPost2010PropOp55
 70
     1
102
RTVSPost2010Prop56
140
1.0
102
RTVSPost2010PropOp56
 70
     1
102
RTVSPost2010Prop57
140
1.0
102
RTVSPost2010PropOp57
 70
     1
102
RTVSPropertyOp0
 70
     1
102
RTVSPropertyOp1
 70
     1
102
RTVSPropertyOp2
 70
     1
102
RTVSPropertyOp3
 70
     1
102
RTVSPropertyOp4
 70
     1
102
RTVSPropertyOp5
 70
     1
102
RTVSPropertyOp6
 70
     1
102
RTVSPropertyOp7
 70
     1
102
RTVSPropertyOp8
 70
     1
102
RTVSPropertyOp9
 70
     1
102
RTVSPropertyOp10
 70
     1
102
RTVSPropertyOp11
 70
     1
102
RTVSPropertyOp12
 70
     1
102
RTVSPropertyOp13
 70
     1
102
RTVSPropertyOp14
 70
     1
102
RTVSPropertyOp15
 70
     1
102
RTVSPropertyOp16
 70
     1
102
RTVSPropertyOp17
 70
     1
102
RTVSPropertyOp18
 70
     1
102
RTVSPropertyOp19
 70
     1
102
RTVSPropertyOp20
 70
     1
102
RTVSPropertyOp21
 70
     1
102
RTVSPropertyOp22
 70
     1
102
RTVSPropertyOp23
 70
     1
102
RTVSPropertyOp24
 70
     1
102
RTVSPropertyOp25
 70
     1
102
RTVSPropertyOp26
 70
     1
102
RTVSPropertyOp27
 70
     1
102
RTVSPropertyOp28
 70
     1
102
RTVSPropertyOp29
 70
     1
102
RTVSPropertyOp30
 70
     1
102
RTVSPropertyOp31
 70
     1
102
RTVSPropertyOp32
 70
     1
102
RTVSPropertyOp33
 70
     1
102
RTVSPropertyOp34
 70
     1
102
RTVSPropertyOp35
 70
     1
102
RTVSPropertyOp36
 70
     1
102
RTVSPropertyOp37
 70
     1
102
RTVSPropertyOp38
 70
     1
102
RTVSPropertyOp39
 70
     1
102
RTVSPropertyOp40
 70
     1
102
RTVSPropertyOp41
 70
     1
102
RTVSPropertyOp42
 70
     1
102
RTVSPropertyOp43
 70
     1
102
RTVSPropertyOp44
 70
     1
102
RTVSPropertyOp45
 70
     1
102
RTVSPropertyOp46
 70
     1
102
RTVSPropertyOp47
 70
     1
102
RTVSPropertyOp48
 70
     1
102
RTVSPropertyOp49
 70
     1
102
RTVSPropertyOp50
 70
     1
102
RTVSPropertyOp51
 70
     0
102
RTVSPropertyOp52
 70
     0
102
RTVSPropertyOp53
 70
     1
102
RTVSPropertyOp54
 70
     1
102
RTVSPropertyOp55
 70
     1
102
RTVSPropertyOp56
 70
     1
102
RTVSPropertyOp57
 70
     1
102
RTVSPropertyOp58
 70
     1
102
RTVSPropertyOp59
 70
     1
102
RTVSPropertyOp60
 70
     1
102
RTVSPropertyOp61
 70
     1
102
RTVSPropertyOp62
 70
     1
  0
XRECORD
  5
3F4A
102
{ACAD_REACTORS
330
3F49
102
}
330
3F49
100
AcDbXrecord
280
     1
102
RTVSPost2010Prop28
280
     0
102
RTVSPost2010PropOp28
 70
     1
102
RTVSPost2010Prop29
280
     1
102
RTVSPost2010PropOp29
 70
     1
102
RTVSPost2010Prop30
280
     1
102
RTVSPost2010PropOp30
 70
     1
102
RTVSPost2010Prop31
280
     0
102
RTVSPost2010PropOp31
 70
     1
102
RTVSPost2010Prop32
280
     0
102
RTVSPost2010PropOp32
 70
     1
102
RTVSPost2010Prop33
280
     0
102
RTVSPost2010PropOp33
 70
     1
102
RTVSPost2010Prop34
280
     0
102
RTVSPost2010PropOp34
 70
     1
102
RTVSPost2010Prop35
280
     0
102
RTVSPost2010PropOp35
 70
     1
102
RTVSPost2010Prop36
280
     0
102
RTVSPost2010PropOp36
 70
     1
102
RTVSPost2010Prop37
 90
       50
102
RTVSPost2010PropOp37
 70
     1
102
RTVSPost2010Prop38
140
0.0
102
RTVSPost2010PropOp38
 70
     1
102
RTVSPost2010Prop39
140
1.0
102
RTVSPost2010PropOp39
 70
     1
102
RTVSPost2010Prop40
 90
        0
102
RTVSPost2010PropOp40
 70
     1
102
RTVSPost2010Prop41ColorIndex
 90
       18
102
RTVSPost2010Prop41ColorRGB
 90
        0
102
RTVSPost2010PropOp41
 70
     1
102
RTVSPost2010Prop42
 90
       50
102
RTVSPost2010PropOp42
 70
     1
102
RTVSPost2010Prop43
 90
        3
102
RTVSPost2010PropOp43
 70
     1
102
RTVSPost2010Prop44ColorIndex
 90
        5
102
RTVSPost2010Prop44ColorRGB
 90
      255
102
RTVSPost2010PropOp44
 70
     1
102
RTVSPost2010Prop45
280
     0
102
RTVSPost2010PropOp45
 70
     1
102
RTVSPost2010Prop46
 90
       50
102
RTVSPost2010PropOp46
 70
     1
102
RTVSPost2010Prop47
 90
       50
102
RTVSPost2010PropOp47
 70
     1
102
RTVSPost2010Prop48
 90
       50
102
RTVSPost2010PropOp48
 70
     1
102
RTVSPost2010Prop49
280
     0
102
RTVSPost2010PropOp49
 70
     1
102
RTVSPost2010Prop50
 90
       50
102
RTVSPost2010PropOp50
 70
     1
102
RTVSPost2010Prop51ColorIndex
 90
      256
102
RTVSPost2010Prop51ColorRGB
 90
-16777216
102
RTVSPost2010PropOp51
 70
     0
102
RTVSPost2010Prop52
140
1.0
102
RTVSPost2010PropOp52
 70
     0
102
RTVSPost2010Prop53
 90
        2
102
RTVSPost2010PropOp53
 70
     1
102
RTVSPost2010Prop54
  1
strokes_ogs.tif
102
RTVSPost2010PropOp54
 70
     1
102
RTVSPost2010Prop55
280
     0
102
RTVSPost2010PropOp55
 70
     1
102
RTVSPost2010Prop56
140
1.0
102
RTVSPost2010PropOp56
 70
     1
102
RTVSPost2010Prop57
140
1.0
102
RTVSPost2010PropOp57
 70
     1
102
RTVSPropertyOp0
 70
     1
102
RTVSPropertyOp1
 70
     1
102
RTVSPropertyOp2
 70
     1
102
RTVSPropertyOp3
 70
     1
102
RTVSPropertyOp4
 70
     1
102
RTVSPropertyOp5
 70
     1
102
RTVSPropertyOp6
 70
     1
102
RTVSPropertyOp7
 70
     1
102
RTVSPropertyOp8
 70
     1
102
RTVSPropertyOp9
 70
     1
102
RTVSPropertyOp10
 70
     1
102
RTVSPropertyOp11
 70
     1
102
RTVSPropertyOp12
 70
     1
102
RTVSPropertyOp13
 70
     1
102
RTVSPropertyOp14
 70
     1
102
RTVSPropertyOp15
 70
     1
102
RTVSPropertyOp16
 70
     1
102
RTVSPropertyOp17
 70
     1
102
RTVSPropertyOp18
 70
     1
102
RTVSPropertyOp19
 70
     1
102
RTVSPropertyOp20
 70
     1
102
RTVSPropertyOp21
 70
     1
102
RTVSPropertyOp22
 70
     1
102
RTVSPropertyOp23
 70
     1
102
RTVSPropertyOp24
 70
     1
102
RTVSPropertyOp25
 70
     1
102
RTVSPropertyOp26
 70
     1
102
RTVSPropertyOp27
 70
     1
102
RTVSPropertyOp28
 70
     1
102
RTVSPropertyOp29
 70
     1
102
RTVSPropertyOp30
 70
     1
102
RTVSPropertyOp31
 70
     1
102
RTVSPropertyOp32
 70
     1
102
RTVSPropertyOp33
 70
     1
102
RTVSPropertyOp34
 70
     1
102
RTVSPropertyOp35
 70
     1
102
RTVSPropertyOp36
 70
     1
102
RTVSPropertyOp37
 70
     1
102
RTVSPropertyOp38
 70
     1
102
RTVSPropertyOp39
 70
     1
102
RTVSPropertyOp40
 70
     1
102
RTVSPropertyOp41
 70
     1
102
RTVSPropertyOp42
 70
     1
102
RTVSPropertyOp43
 70
     1
102
RTVSPropertyOp44
 70
     1
102
RTVSPropertyOp45
 70
     1
102
RTVSPropertyOp46
 70
     1
102
RTVSPropertyOp47
 70
     1
102
RTVSPropertyOp48
 70
     1
102
RTVSPropertyOp49
 70
     1
102
RTVSPropertyOp50
 70
     1
102
RTVSPropertyOp51
 70
     0
102
RTVSPropertyOp52
 70
     0
102
RTVSPropertyOp53
 70
     1
102
RTVSPropertyOp54
 70
     1
102
RTVSPropertyOp55
 70
     1
102
RTVSPropertyOp56
 70
     1
102
RTVSPropertyOp57
 70
     1
102
RTVSPropertyOp58
 70
     1
102
RTVSPropertyOp59
 70
     1
102
RTVSPropertyOp60
 70
     1
102
RTVSPropertyOp61
 70
     1
102
RTVSPropertyOp62
 70
     1
  0
XRECORD
  5
3F52
102
{ACAD_REACTORS
330
3F51
102
}
330
3F51
100
AcDbXrecord
280
     1
102
RTVSPost2010Prop28
280
     0
102
RTVSPost2010PropOp28
 70
     1
102
RTVSPost2010Prop29
280
     1
102
RTVSPost2010PropOp29
 70
     1
102
RTVSPost2010Prop30
280
     1
102
RTVSPost2010PropOp30
 70
     1
102
RTVSPost2010Prop31
280
     0
102
RTVSPost2010PropOp31
 70
     1
102
RTVSPost2010Prop32
280
     0
102
RTVSPost2010PropOp32
 70
     1
102
RTVSPost2010Prop33
280
     0
102
RTVSPost2010PropOp33
 70
     1
102
RTVSPost2010Prop34
280
     0
102
RTVSPost2010PropOp34
 70
     1
102
RTVSPost2010Prop35
280
     0
102
RTVSPost2010PropOp35
 70
     1
102
RTVSPost2010Prop36
280
     0
102
RTVSPost2010PropOp36
 70
     1
102
RTVSPost2010Prop37
 90
       50
102
RTVSPost2010PropOp37
 70
     1
102
RTVSPost2010Prop38
140
0.0
102
RTVSPost2010PropOp38
 70
     1
102
RTVSPost2010Prop39
140
1.0
102
RTVSPost2010PropOp39
 70
     1
102
RTVSPost2010Prop40
 90
        0
102
RTVSPost2010PropOp40
 70
     1
102
RTVSPost2010Prop41ColorIndex
 90
       18
102
RTVSPost2010Prop41ColorRGB
 90
        0
102
RTVSPost2010PropOp41
 70
     1
102
RTVSPost2010Prop42
 90
       50
102
RTVSPost2010PropOp42
 70
     1
102
RTVSPost2010Prop43
 90
        3
102
RTVSPost2010PropOp43
 70
     1
102
RTVSPost2010Prop44ColorIndex
 90
        5
102
RTVSPost2010Prop44ColorRGB
 90
      255
102
RTVSPost2010PropOp44
 70
     1
102
RTVSPost2010Prop45
280
     0
102
RTVSPost2010PropOp45
 70
     1
102
RTVSPost2010Prop46
 90
       50
102
RTVSPost2010PropOp46
 70
     1
102
RTVSPost2010Prop47
 90
       50
102
RTVSPost2010PropOp47
 70
     1
102
RTVSPost2010Prop48
 90
       50
102
RTVSPost2010PropOp48
 70
     1
102
RTVSPost2010Prop49
280
     0
102
RTVSPost2010PropOp49
 70
     1
102
RTVSPost2010Prop50
 90
       50
102
RTVSPost2010PropOp50
 70
     1
102
RTVSPost2010Prop51ColorIndex
 90
      256
102
RTVSPost2010Prop51ColorRGB
 90
-16777216
102
RTVSPost2010PropOp51
 70
     0
102
RTVSPost2010Prop52
140
1.0
102
RTVSPost2010PropOp52
 70
     0
102
RTVSPost2010Prop53
 90
        2
102
RTVSPost2010PropOp53
 70
     1
102
RTVSPost2010Prop54
  1
strokes_ogs.tif
102
RTVSPost2010PropOp54
 70
     1
102
RTVSPost2010Prop55
280
     0
102
RTVSPost2010PropOp55
 70
     1
102
RTVSPost2010Prop56
140
1.0
102
RTVSPost2010PropOp56
 70
     1
102
RTVSPost2010Prop57
140
1.0
102
RTVSPost2010PropOp57
 70
     1
102
RTVSPropertyOp0
 70
     1
102
RTVSPropertyOp1
 70
     1
102
RTVSPropertyOp2
 70
     1
102
RTVSPropertyOp3
 70
     1
102
RTVSPropertyOp4
 70
     1
102
RTVSPropertyOp5
 70
     1
102
RTVSPropertyOp6
 70
     1
102
RTVSPropertyOp7
 70
     1
102
RTVSPropertyOp8
 70
     1
102
RTVSPropertyOp9
 70
     1
102
RTVSPropertyOp10
 70
     1
102
RTVSPropertyOp11
 70
     1
102
RTVSPropertyOp12
 70
     1
102
RTVSPropertyOp13
 70
     1
102
RTVSPropertyOp14
 70
     1
102
RTVSPropertyOp15
 70
     1
102
RTVSPropertyOp16
 70
     1
102
RTVSPropertyOp17
 70
     1
102
RTVSPropertyOp18
 70
     1
102
RTVSPropertyOp19
 70
     1
102
RTVSPropertyOp20
 70
     1
102
RTVSPropertyOp21
 70
     1
102
RTVSPropertyOp22
 70
     1
102
RTVSPropertyOp23
 70
     1
102
RTVSPropertyOp24
 70
     1
102
RTVSPropertyOp25
 70
     1
102
RTVSPropertyOp26
 70
     1
102
RTVSPropertyOp27
 70
     1
102
RTVSPropertyOp28
 70
     1
102
RTVSPropertyOp29
 70
     1
102
RTVSPropertyOp30
 70
     1
102
RTVSPropertyOp31
 70
     1
102
RTVSPropertyOp32
 70
     1
102
RTVSPropertyOp33
 70
     1
102
RTVSPropertyOp34
 70
     1
102
RTVSPropertyOp35
 70
     1
102
RTVSPropertyOp36
 70
     1
102
RTVSPropertyOp37
 70
     1
102
RTVSPropertyOp38
 70
     1
102
RTVSPropertyOp39
 70
     1
102
RTVSPropertyOp40
 70
     1
102
RTVSPropertyOp41
 70
     1
102
RTVSPropertyOp42
 70
     1
102
RTVSPropertyOp43
 70
     1
102
RTVSPropertyOp44
 70
     1
102
RTVSPropertyOp45
 70
     1
102
RTVSPropertyOp46
 70
     1
102
RTVSPropertyOp47
 70
     1
102
RTVSPropertyOp48
 70
     1
102
RTVSPropertyOp49
 70
     1
102
RTVSPropertyOp50
 70
     1
102
RTVSPropertyOp51
 70
     0
102
RTVSPropertyOp52
 70
     0
102
RTVSPropertyOp53
 70
     1
102
RTVSPropertyOp54
 70
     1
102
RTVSPropertyOp55
 70
     1
102
RTVSPropertyOp56
 70
     1
102
RTVSPropertyOp57
 70
     1
102
RTVSPropertyOp58
 70
     1
102
RTVSPropertyOp59
 70
     1
102
RTVSPropertyOp60
 70
     1
102
RTVSPropertyOp61
 70
     1
102
RTVSPropertyOp62
 70
     1
  0
XRECORD
  5
3F44
102
{ACAD_REACTORS
330
3F43
102
}
330
3F43
100
AcDbXrecord
280
     1
102
RTVSPost2010Prop28
280
     0
102
RTVSPost2010PropOp28
 70
     1
102
RTVSPost2010Prop29
280
     1
102
RTVSPost2010PropOp29
 70
     1
102
RTVSPost2010Prop30
280
     1
102
RTVSPost2010PropOp30
 70
     1
102
RTVSPost2010Prop31
280
     0
102
RTVSPost2010PropOp31
 70
     1
102
RTVSPost2010Prop32
280
     0
102
RTVSPost2010PropOp32
 70
     1
102
RTVSPost2010Prop33
280
     0
102
RTVSPost2010PropOp33
 70
     1
102
RTVSPost2010Prop34
280
     0
102
RTVSPost2010PropOp34
 70
     1
102
RTVSPost2010Prop35
280
     0
102
RTVSPost2010PropOp35
 70
     1
102
RTVSPost2010Prop36
280
     0
102
RTVSPost2010PropOp36
 70
     1
102
RTVSPost2010Prop37
 90
       50
102
RTVSPost2010PropOp37
 70
     1
102
RTVSPost2010Prop38
140
0.0
102
RTVSPost2010PropOp38
 70
     1
102
RTVSPost2010Prop39
140
1.0
102
RTVSPost2010PropOp39
 70
     1
102
RTVSPost2010Prop40
 90
        0
102
RTVSPost2010PropOp40
 70
     1
102
RTVSPost2010Prop41ColorIndex
 90
       18
102
RTVSPost2010Prop41ColorRGB
 90
        0
102
RTVSPost2010PropOp41
 70
     1
102
RTVSPost2010Prop42
 90
       50
102
RTVSPost2010PropOp42
 70
     1
102
RTVSPost2010Prop43
 90
        3
102
RTVSPost2010PropOp43
 70
     1
102
RTVSPost2010Prop44ColorIndex
 90
        5
102
RTVSPost2010Prop44ColorRGB
 90
      255
102
RTVSPost2010PropOp44
 70
     1
102
RTVSPost2010Prop45
280
     0
102
RTVSPost2010PropOp45
 70
     1
102
RTVSPost2010Prop46
 90
       50
102
RTVSPost2010PropOp46
 70
     1
102
RTVSPost2010Prop47
 90
       50
102
RTVSPost2010PropOp47
 70
     1
102
RTVSPost2010Prop48
 90
       50
102
RTVSPost2010PropOp48
 70
     1
102
RTVSPost2010Prop49
280
     0
102
RTVSPost2010PropOp49
 70
     1
102
RTVSPost2010Prop50
 90
       50
102
RTVSPost2010PropOp50
 70
     1
102
RTVSPost2010Prop51ColorIndex
 90
      256
102
RTVSPost2010Prop51ColorRGB
 90
-16777216
102
RTVSPost2010PropOp51
 70
     0
102
RTVSPost2010Prop52
140
1.0
102
RTVSPost2010PropOp52
 70
     0
102
RTVSPost2010Prop53
 90
        2
102
RTVSPost2010PropOp53
 70
     1
102
RTVSPost2010Prop54
  1
strokes_ogs.tif
102
RTVSPost2010PropOp54
 70
     1
102
RTVSPost2010Prop55
280
     0
102
RTVSPost2010PropOp55
 70
     1
102
RTVSPost2010Prop56
140
1.0
102
RTVSPost2010PropOp56
 70
     1
102
RTVSPost2010Prop57
140
1.0
102
RTVSPost2010PropOp57
 70
     1
102
RTVSPropertyOp0
 70
     1
102
RTVSPropertyOp1
 70
     1
102
RTVSPropertyOp2
 70
     1
102
RTVSPropertyOp3
 70
     1
102
RTVSPropertyOp4
 70
     1
102
RTVSPropertyOp5
 70
     1
102
RTVSPropertyOp6
 70
     1
102
RTVSPropertyOp7
 70
     1
102
RTVSPropertyOp8
 70
     1
102
RTVSPropertyOp9
 70
     1
102
RTVSPropertyOp10
 70
     1
102
RTVSPropertyOp11
 70
     1
102
RTVSPropertyOp12
 70
     1
102
RTVSPropertyOp13
 70
     1
102
RTVSPropertyOp14
 70
     1
102
RTVSPropertyOp15
 70
     1
102
RTVSPropertyOp16
 70
     1
102
RTVSPropertyOp17
 70
     1
102
RTVSPropertyOp18
 70
     1
102
RTVSPropertyOp19
 70
     1
102
RTVSPropertyOp20
 70
     1
102
RTVSPropertyOp21
 70
     1
102
RTVSPropertyOp22
 70
     1
102
RTVSPropertyOp23
 70
     1
102
RTVSPropertyOp24
 70
     1
102
RTVSPropertyOp25
 70
     1
102
RTVSPropertyOp26
 70
     1
102
RTVSPropertyOp27
 70
     1
102
RTVSPropertyOp28
 70
     1
102
RTVSPropertyOp29
 70
     1
102
RTVSPropertyOp30
 70
     1
102
RTVSPropertyOp31
 70
     1
102
RTVSPropertyOp32
 70
     1
102
RTVSPropertyOp33
 70
     1
102
RTVSPropertyOp34
 70
     1
102
RTVSPropertyOp35
 70
     1
102
RTVSPropertyOp36
 70
     1
102
RTVSPropertyOp37
 70
     1
102
RTVSPropertyOp38
 70
     1
102
RTVSPropertyOp39
 70
     1
102
RTVSPropertyOp40
 70
     1
102
RTVSPropertyOp41
 70
     1
102
RTVSPropertyOp42
 70
     1
102
RTVSPropertyOp43
 70
     1
102
RTVSPropertyOp44
 70
     1
102
RTVSPropertyOp45
 70
     1
102
RTVSPropertyOp46
 70
     1
102
RTVSPropertyOp47
 70
     1
102
RTVSPropertyOp48
 70
     1
102
RTVSPropertyOp49
 70
     1
102
RTVSPropertyOp50
 70
     1
102
RTVSPropertyOp51
 70
     0
102
RTVSPropertyOp52
 70
     0
102
RTVSPropertyOp53
 70
     1
102
RTVSPropertyOp54
 70
     1
102
RTVSPropertyOp55
 70
     1
102
RTVSPropertyOp56
 70
     1
102
RTVSPropertyOp57
 70
     1
102
RTVSPropertyOp58
 70
     1
102
RTVSPropertyOp59
 70
     1
102
RTVSPropertyOp60
 70
     1
102
RTVSPropertyOp61
 70
     1
102
RTVSPropertyOp62
 70
     1
  0
XRECORD
  5
3F48
102
{ACAD_REACTORS
330
3F47
102
}
330
3F47
100
AcDbXrecord
280
     1
102
RTVSPost2010Prop28
280
     0
102
RTVSPost2010PropOp28
 70
     1
102
RTVSPost2010Prop29
280
     1
102
RTVSPost2010PropOp29
 70
     1
102
RTVSPost2010Prop30
280
     1
102
RTVSPost2010PropOp30
 70
     1
102
RTVSPost2010Prop31
280
     0
102
RTVSPost2010PropOp31
 70
     1
102
RTVSPost2010Prop32
280
     0
102
RTVSPost2010PropOp32
 70
     1
102
RTVSPost2010Prop33
280
     0
102
RTVSPost2010PropOp33
 70
     1
102
RTVSPost2010Prop34
280
     0
102
RTVSPost2010PropOp34
 70
     1
102
RTVSPost2010Prop35
280
     0
102
RTVSPost2010PropOp35
 70
     1
102
RTVSPost2010Prop36
280
     0
102
RTVSPost2010PropOp36
 70
     1
102
RTVSPost2010Prop37
 90
       50
102
RTVSPost2010PropOp37
 70
     1
102
RTVSPost2010Prop38
140
0.0
102
RTVSPost2010PropOp38
 70
     1
102
RTVSPost2010Prop39
140
1.0
102
RTVSPost2010PropOp39
 70
     1
102
RTVSPost2010Prop40
 90
        0
102
RTVSPost2010PropOp40
 70
     1
102
RTVSPost2010Prop41ColorIndex
 90
       18
102
RTVSPost2010Prop41ColorRGB
 90
        0
102
RTVSPost2010PropOp41
 70
     1
102
RTVSPost2010Prop42
 90
       50
102
RTVSPost2010PropOp42
 70
     1
102
RTVSPost2010Prop43
 90
        3
102
RTVSPost2010PropOp43
 70
     1
102
RTVSPost2010Prop44ColorIndex
 90
        5
102
RTVSPost2010Prop44ColorRGB
 90
      255
102
RTVSPost2010PropOp44
 70
     1
102
RTVSPost2010Prop45
280
     0
102
RTVSPost2010PropOp45
 70
     1
102
RTVSPost2010Prop46
 90
       50
102
RTVSPost2010PropOp46
 70
     1
102
RTVSPost2010Prop47
 90
       50
102
RTVSPost2010PropOp47
 70
     1
102
RTVSPost2010Prop48
 90
       50
102
RTVSPost2010PropOp48
 70
     1
102
RTVSPost2010Prop49
280
     0
102
RTVSPost2010PropOp49
 70
     1
102
RTVSPost2010Prop50
 90
       50
102
RTVSPost2010PropOp50
 70
     1
102
RTVSPost2010Prop51ColorIndex
 90
      256
102
RTVSPost2010Prop51ColorRGB
 90
-16777216
102
RTVSPost2010PropOp51
 70
     0
102
RTVSPost2010Prop52
140
1.0
102
RTVSPost2010PropOp52
 70
     0
102
RTVSPost2010Prop53
 90
        2
102
RTVSPost2010PropOp53
 70
     1
102
RTVSPost2010Prop54
  1
strokes_ogs.tif
102
RTVSPost2010PropOp54
 70
     1
102
RTVSPost2010Prop55
280
     0
102
RTVSPost2010PropOp55
 70
     1
102
RTVSPost2010Prop56
140
1.0
102
RTVSPost2010PropOp56
 70
     1
102
RTVSPost2010Prop57
140
1.0
102
RTVSPost2010PropOp57
 70
     1
102
RTVSPropertyOp0
 70
     1
102
RTVSPropertyOp1
 70
     1
102
RTVSPropertyOp2
 70
     1
102
RTVSPropertyOp3
 70
     1
102
RTVSPropertyOp4
 70
     1
102
RTVSPropertyOp5
 70
     1
102
RTVSPropertyOp6
 70
     1
102
RTVSPropertyOp7
 70
     1
102
RTVSPropertyOp8
 70
     1
102
RTVSPropertyOp9
 70
     1
102
RTVSPropertyOp10
 70
     1
102
RTVSPropertyOp11
 70
     1
102
RTVSPropertyOp12
 70
     1
102
RTVSPropertyOp13
 70
     1
102
RTVSPropertyOp14
 70
     1
102
RTVSPropertyOp15
 70
     1
102
RTVSPropertyOp16
 70
     1
102
RTVSPropertyOp17
 70
     1
102
RTVSPropertyOp18
 70
     1
102
RTVSPropertyOp19
 70
     1
102
RTVSPropertyOp20
 70
     1
102
RTVSPropertyOp21
 70
     1
102
RTVSPropertyOp22
 70
     1
102
RTVSPropertyOp23
 70
     1
102
RTVSPropertyOp24
 70
     1
102
RTVSPropertyOp25
 70
     1
102
RTVSPropertyOp26
 70
     1
102
RTVSPropertyOp27
 70
     1
102
RTVSPropertyOp28
 70
     1
102
RTVSPropertyOp29
 70
     1
102
RTVSPropertyOp30
 70
     1
102
RTVSPropertyOp31
 70
     1
102
RTVSPropertyOp32
 70
     1
102
RTVSPropertyOp33
 70
     1
102
RTVSPropertyOp34
 70
     1
102
RTVSPropertyOp35
 70
     1
102
RTVSPropertyOp36
 70
     1
102
RTVSPropertyOp37
 70
     1
102
RTVSPropertyOp38
 70
     1
102
RTVSPropertyOp39
 70
     1
102
RTVSPropertyOp40
 70
     1
102
RTVSPropertyOp41
 70
     1
102
RTVSPropertyOp42
 70
     1
102
RTVSPropertyOp43
 70
     1
102
RTVSPropertyOp44
 70
     1
102
RTVSPropertyOp45
 70
     1
102
RTVSPropertyOp46
 70
     1
102
RTVSPropertyOp47
 70
     1
102
RTVSPropertyOp48
 70
     1
102
RTVSPropertyOp49
 70
     1
102
RTVSPropertyOp50
 70
     1
102
RTVSPropertyOp51
 70
     0
102
RTVSPropertyOp52
 70
     0
102
RTVSPropertyOp53
 70
     1
102
RTVSPropertyOp54
 70
     1
102
RTVSPropertyOp55
 70
     1
102
RTVSPropertyOp56
 70
     1
102
RTVSPropertyOp57
 70
     1
102
RTVSPropertyOp58
 70
     1
102
RTVSPropertyOp59
 70
     1
102
RTVSPropertyOp60
 70
     1
102
RTVSPropertyOp61
 70
     1
102
RTVSPropertyOp62
 70
     1
  0
XRECORD
  5
3F58
102
{ACAD_REACTORS
330
3F57
102
}
330
3F57
100
AcDbXrecord
280
     1
102
RTVSPost2010Prop28
280
     0
102
RTVSPost2010PropOp28
 70
     1
102
RTVSPost2010Prop29
280
     1
102
RTVSPost2010PropOp29
 70
     1
102
RTVSPost2010Prop30
280
     1
102
RTVSPost2010PropOp30
 70
     1
102
RTVSPost2010Prop31
280
     0
102
RTVSPost2010PropOp31
 70
     1
102
RTVSPost2010Prop32
280
     0
102
RTVSPost2010PropOp32
 70
     1
102
RTVSPost2010Prop33
280
     0
102
RTVSPost2010PropOp33
 70
     1
102
RTVSPost2010Prop34
280
     0
102
RTVSPost2010PropOp34
 70
     1
102
RTVSPost2010Prop35
280
     0
102
RTVSPost2010PropOp35
 70
     1
102
RTVSPost2010Prop36
280
     0
102
RTVSPost2010PropOp36
 70
     1
102
RTVSPost2010Prop37
 90
       50
102
RTVSPost2010PropOp37
 70
     1
102
RTVSPost2010Prop38
140
0.0
102
RTVSPost2010PropOp38
 70
     1
102
RTVSPost2010Prop39
140
1.0
102
RTVSPost2010PropOp39
 70
     1
102
RTVSPost2010Prop40
 90
        0
102
RTVSPost2010PropOp40
 70
     1
102
RTVSPost2010Prop41ColorIndex
 90
       18
102
RTVSPost2010Prop41ColorRGB
 90
        0
102
RTVSPost2010PropOp41
 70
     1
102
RTVSPost2010Prop42
 90
       50
102
RTVSPost2010PropOp42
 70
     1
102
RTVSPost2010Prop43
 90
        3
102
RTVSPost2010PropOp43
 70
     1
102
RTVSPost2010Prop44ColorIndex
 90
        5
102
RTVSPost2010Prop44ColorRGB
 90
      255
102
RTVSPost2010PropOp44
 70
     1
102
RTVSPost2010Prop45
280
     0
102
RTVSPost2010PropOp45
 70
     1
102
RTVSPost2010Prop46
 90
       50
102
RTVSPost2010PropOp46
 70
     1
102
RTVSPost2010Prop47
 90
       50
102
RTVSPost2010PropOp47
 70
     1
102
RTVSPost2010Prop48
 90
       50
102
RTVSPost2010PropOp48
 70
     1
102
RTVSPost2010Prop49
280
     0
102
RTVSPost2010PropOp49
 70
     1
102
RTVSPost2010Prop50
 90
       50
102
RTVSPost2010PropOp50
 70
     1
102
RTVSPost2010Prop51ColorIndex
 90
      256
102
RTVSPost2010Prop51ColorRGB
 90
-16777216
102
RTVSPost2010PropOp51
 70
     0
102
RTVSPost2010Prop52
140
1.0
102
RTVSPost2010PropOp52
 70
     0
102
RTVSPost2010Prop53
 90
        2
102
RTVSPost2010PropOp53
 70
     1
102
RTVSPost2010Prop54
  1
strokes_ogs.tif
102
RTVSPost2010PropOp54
 70
     1
102
RTVSPost2010Prop55
280
     0
102
RTVSPost2010PropOp55
 70
     1
102
RTVSPost2010Prop56
140
1.0
102
RTVSPost2010PropOp56
 70
     1
102
RTVSPost2010Prop57
140
1.0
102
RTVSPost2010PropOp57
 70
     1
102
RTVSPropertyOp0
 70
     0
102
RTVSPropertyOp1
 70
     0
102
RTVSPropertyOp2
 70
     0
102
RTVSPropertyOp3
 70
     0
102
RTVSPropertyOp4
 70
     0
102
RTVSPropertyOp5
 70
     0
102
RTVSPropertyOp6
 70
     0
102
RTVSPropertyOp7
 70
     0
102
RTVSPropertyOp8
 70
     0
102
RTVSPropertyOp9
 70
     0
102
RTVSPropertyOp10
 70
     0
102
RTVSPropertyOp11
 70
     0
102
RTVSPropertyOp12
 70
     0
102
RTVSPropertyOp13
 70
     0
102
RTVSPropertyOp14
 70
     2
102
RTVSPropertyOp15
 70
     0
102
RTVSPropertyOp16
 70
     0
102
RTVSPropertyOp17
 70
     0
102
RTVSPropertyOp18
 70
     0
102
RTVSPropertyOp19
 70
     0
102
RTVSPropertyOp20
 70
     0
102
RTVSPropertyOp21
 70
     0
102
RTVSPropertyOp22
 70
     0
102
RTVSPropertyOp23
 70
     0
102
RTVSPropertyOp24
 70
     0
102
RTVSPropertyOp25
 70
     0
102
RTVSPropertyOp26
 70
     0
102
RTVSPropertyOp27
 70
     0
102
RTVSPropertyOp28
 70
     1
102
RTVSPropertyOp29
 70
     1
102
RTVSPropertyOp30
 70
     1
102
RTVSPropertyOp31
 70
     1
102
RTVSPropertyOp32
 70
     1
102
RTVSPropertyOp33
 70
     1
102
RTVSPropertyOp34
 70
     1
102
RTVSPropertyOp35
 70
     1
102
RTVSPropertyOp36
 70
     1
102
RTVSPropertyOp37
 70
     1
102
RTVSPropertyOp38
 70
     1
102
RTVSPropertyOp39
 70
     1
102
RTVSPropertyOp40
 70
     1
102
RTVSPropertyOp41
 70
     1
102
RTVSPropertyOp42
 70
     1
102
RTVSPropertyOp43
 70
     1
102
RTVSPropertyOp44
 70
     1
102
RTVSPropertyOp45
 70
     1
102
RTVSPropertyOp46
 70
     1
102
RTVSPropertyOp47
 70
     1
102
RTVSPropertyOp48
 70
     1
102
RTVSPropertyOp49
 70
     1
102
RTVSPropertyOp50
 70
     1
102
RTVSPropertyOp51
 70
     0
102
RTVSPropertyOp52
 70
     0
102
RTVSPropertyOp53
 70
     1
102
RTVSPropertyOp54
 70
     1
102
RTVSPropertyOp55
 70
     1
102
RTVSPropertyOp56
 70
     1
102
RTVSPropertyOp57
 70
     1
102
RTVSPropertyOp58
 70
     1
102
RTVSPropertyOp59
 70
     1
102
RTVSPropertyOp60
 70
     1
102
RTVSPropertyOp61
 70
     1
102
RTVSPropertyOp62
 70
     1
  0
XRECORD
  5
3F50
102
{ACAD_REACTORS
330
3F4F
102
}
330
3F4F
100
AcDbXrecord
280
     1
102
RTVSPost2010Prop28
280
     0
102
RTVSPost2010PropOp28
 70
     1
102
RTVSPost2010Prop29
280
     1
102
RTVSPost2010PropOp29
 70
     1
102
RTVSPost2010Prop30
280
     1
102
RTVSPost2010PropOp30
 70
     1
102
RTVSPost2010Prop31
280
     0
102
RTVSPost2010PropOp31
 70
     1
102
RTVSPost2010Prop32
280
     0
102
RTVSPost2010PropOp32
 70
     1
102
RTVSPost2010Prop33
280
     0
102
RTVSPost2010PropOp33
 70
     1
102
RTVSPost2010Prop34
280
     0
102
RTVSPost2010PropOp34
 70
     1
102
RTVSPost2010Prop35
280
     0
102
RTVSPost2010PropOp35
 70
     1
102
RTVSPost2010Prop36
280
     0
102
RTVSPost2010PropOp36
 70
     1
102
RTVSPost2010Prop37
 90
       50
102
RTVSPost2010PropOp37
 70
     1
102
RTVSPost2010Prop38
140
0.0
102
RTVSPost2010PropOp38
 70
     1
102
RTVSPost2010Prop39
140
1.0
102
RTVSPost2010PropOp39
 70
     1
102
RTVSPost2010Prop40
 90
        0
102
RTVSPost2010PropOp40
 70
     1
102
RTVSPost2010Prop41ColorIndex
 90
       18
102
RTVSPost2010Prop41ColorRGB
 90
        0
102
RTVSPost2010PropOp41
 70
     1
102
RTVSPost2010Prop42
 90
       50
102
RTVSPost2010PropOp42
 70
     1
102
RTVSPost2010Prop43
 90
        3
102
RTVSPost2010PropOp43
 70
     1
102
RTVSPost2010Prop44ColorIndex
 90
        5
102
RTVSPost2010Prop44ColorRGB
 90
      255
102
RTVSPost2010PropOp44
 70
     1
102
RTVSPost2010Prop45
280
     0
102
RTVSPost2010PropOp45
 70
     1
102
RTVSPost2010Prop46
 90
       50
102
RTVSPost2010PropOp46
 70
     1
102
RTVSPost2010Prop47
 90
       50
102
RTVSPost2010PropOp47
 70
     1
102
RTVSPost2010Prop48
 90
       50
102
RTVSPost2010PropOp48
 70
     1
102
RTVSPost2010Prop49
280
     0
102
RTVSPost2010PropOp49
 70
     1
102
RTVSPost2010Prop50
 90
       50
102
RTVSPost2010PropOp50
 70
     1
102
RTVSPost2010Prop51ColorIndex
 90
      256
102
RTVSPost2010Prop51ColorRGB
 90
-16777216
102
RTVSPost2010PropOp51
 70
     0
102
RTVSPost2010Prop52
140
1.0
102
RTVSPost2010PropOp52
 70
     0
102
RTVSPost2010Prop53
 90
        2
102
RTVSPost2010PropOp53
 70
     1
102
RTVSPost2010Prop54
  1
strokes_ogs.tif
102
RTVSPost2010PropOp54
 70
     1
102
RTVSPost2010Prop55
280
     0
102
RTVSPost2010PropOp55
 70
     1
102
RTVSPost2010Prop56
140
1.0
102
RTVSPost2010PropOp56
 70
     1
102
RTVSPost2010Prop57
140
1.0
102
RTVSPost2010PropOp57
 70
     1
102
RTVSPropertyOp0
 70
     1
102
RTVSPropertyOp1
 70
     1
102
RTVSPropertyOp2
 70
     1
102
RTVSPropertyOp3
 70
     1
102
RTVSPropertyOp4
 70
     1
102
RTVSPropertyOp5
 70
     1
102
RTVSPropertyOp6
 70
     1
102
RTVSPropertyOp7
 70
     1
102
RTVSPropertyOp8
 70
     1
102
RTVSPropertyOp9
 70
     1
102
RTVSPropertyOp10
 70
     1
102
RTVSPropertyOp11
 70
     1
102
RTVSPropertyOp12
 70
     1
102
RTVSPropertyOp13
 70
     1
102
RTVSPropertyOp14
 70
     1
102
RTVSPropertyOp15
 70
     1
102
RTVSPropertyOp16
 70
     1
102
RTVSPropertyOp17
 70
     1
102
RTVSPropertyOp18
 70
     1
102
RTVSPropertyOp19
 70
     1
102
RTVSPropertyOp20
 70
     1
102
RTVSPropertyOp21
 70
     1
102
RTVSPropertyOp22
 70
     1
102
RTVSPropertyOp23
 70
     1
102
RTVSPropertyOp24
 70
     1
102
RTVSPropertyOp25
 70
     1
102
RTVSPropertyOp26
 70
     1
102
RTVSPropertyOp27
 70
     1
102
RTVSPropertyOp28
 70
     1
102
RTVSPropertyOp29
 70
     1
102
RTVSPropertyOp30
 70
     1
102
RTVSPropertyOp31
 70
     1
102
RTVSPropertyOp32
 70
     1
102
RTVSPropertyOp33
 70
     1
102
RTVSPropertyOp34
 70
     1
102
RTVSPropertyOp35
 70
     1
102
RTVSPropertyOp36
 70
     1
102
RTVSPropertyOp37
 70
     1
102
RTVSPropertyOp38
 70
     1
102
RTVSPropertyOp39
 70
     1
102
RTVSPropertyOp40
 70
     1
102
RTVSPropertyOp41
 70
     1
102
RTVSPropertyOp42
 70
     1
102
RTVSPropertyOp43
 70
     1
102
RTVSPropertyOp44
 70
     1
102
RTVSPropertyOp45
 70
     1
102
RTVSPropertyOp46
 70
     1
102
RTVSPropertyOp47
 70
     1
102
RTVSPropertyOp48
 70
     1
102
RTVSPropertyOp49
 70
     1
102
RTVSPropertyOp50
 70
     1
102
RTVSPropertyOp51
 70
     0
102
RTVSPropertyOp52
 70
     0
102
RTVSPropertyOp53
 70
     1
102
RTVSPropertyOp54
 70
     1
102
RTVSPropertyOp55
 70
     1
102
RTVSPropertyOp56
 70
     1
102
RTVSPropertyOp57
 70
     1
102
RTVSPropertyOp58
 70
     1
102
RTVSPropertyOp59
 70
     1
102
RTVSPropertyOp60
 70
     1
102
RTVSPropertyOp61
 70
     1
102
RTVSPropertyOp62
 70
     1
  0
XRECORD
  5
3F34
102
{ACAD_REACTORS
330
3F33
102
}
330
3F33
100
AcDbXrecord
280
     1
102
RTVSPost2010Prop28
280
     0
102
RTVSPost2010PropOp28
 70
     1
102
RTVSPost2010Prop29
280
     1
102
RTVSPost2010PropOp29
 70
     1
102
RTVSPost2010Prop30
280
     1
102
RTVSPost2010PropOp30
 70
     1
102
RTVSPost2010Prop31
280
     0
102
RTVSPost2010PropOp31
 70
     1
102
RTVSPost2010Prop32
280
     0
102
RTVSPost2010PropOp32
 70
     1
102
RTVSPost2010Prop33
280
     0
102
RTVSPost2010PropOp33
 70
     1
102
RTVSPost2010Prop34
280
     0
102
RTVSPost2010PropOp34
 70
     1
102
RTVSPost2010Prop35
280
     0
102
RTVSPost2010PropOp35
 70
     1
102
RTVSPost2010Prop36
280
     0
102
RTVSPost2010PropOp36
 70
     1
102
RTVSPost2010Prop37
 90
       50
102
RTVSPost2010PropOp37
 70
     1
102
RTVSPost2010Prop38
140
0.0
102
RTVSPost2010PropOp38
 70
     1
102
RTVSPost2010Prop39
140
1.0
102
RTVSPost2010PropOp39
 70
     1
102
RTVSPost2010Prop40
 90
        0
102
RTVSPost2010PropOp40
 70
     1
102
RTVSPost2010Prop41ColorIndex
 90
       18
102
RTVSPost2010Prop41ColorRGB
 90
        0
102
RTVSPost2010PropOp41
 70
     1
102
RTVSPost2010Prop42
 90
       50
102
RTVSPost2010PropOp42
 70
     1
102
RTVSPost2010Prop43
 90
        3
102
RTVSPost2010PropOp43
 70
     1
102
RTVSPost2010Prop44ColorIndex
 90
        5
102
RTVSPost2010Prop44ColorRGB
 90
      255
102
RTVSPost2010PropOp44
 70
     1
102
RTVSPost2010Prop45
280
     0
102
RTVSPost2010PropOp45
 70
     1
102
RTVSPost2010Prop46
 90
       50
102
RTVSPost2010PropOp46
 70
     1
102
RTVSPost2010Prop47
 90
       50
102
RTVSPost2010PropOp47
 70
     1
102
RTVSPost2010Prop48
 90
       50
102
RTVSPost2010PropOp48
 70
     1
102
RTVSPost2010Prop49
280
     0
102
RTVSPost2010PropOp49
 70
     1
102
RTVSPost2010Prop50
 90
       50
102
RTVSPost2010PropOp50
 70
     1
102
RTVSPost2010Prop51ColorIndex
 90
      256
102
RTVSPost2010Prop51ColorRGB
 90
-16777216
102
RTVSPost2010PropOp51
 70
     0
102
RTVSPost2010Prop52
140
1.0
102
RTVSPost2010PropOp52
 70
     0
102
RTVSPost2010Prop53
 90
        2
102
RTVSPost2010PropOp53
 70
     1
102
RTVSPost2010Prop54
  1
strokes_ogs.tif
102
RTVSPost2010PropOp54
 70
     1
102
RTVSPost2010Prop55
280
     0
102
RTVSPost2010PropOp55
 70
     1
102
RTVSPost2010Prop56
140
1.0
102
RTVSPost2010PropOp56
 70
     1
102
RTVSPost2010Prop57
140
1.0
102
RTVSPost2010PropOp57
 70
     1
102
RTVSPropertyOp0
 70
     1
102
RTVSPropertyOp1
 70
     1
102
RTVSPropertyOp2
 70
     1
102
RTVSPropertyOp3
 70
     1
102
RTVSPropertyOp4
 70
     1
102
RTVSPropertyOp5
 70
     1
102
RTVSPropertyOp6
 70
     1
102
RTVSPropertyOp7
 70
     1
102
RTVSPropertyOp8
 70
     1
102
RTVSPropertyOp9
 70
     1
102
RTVSPropertyOp10
 70
     1
102
RTVSPropertyOp11
 70
     1
102
RTVSPropertyOp12
 70
     1
102
RTVSPropertyOp13
 70
     1
102
RTVSPropertyOp14
 70
     1
102
RTVSPropertyOp15
 70
     1
102
RTVSPropertyOp16
 70
     1
102
RTVSPropertyOp17
 70
     1
102
RTVSPropertyOp18
 70
     1
102
RTVSPropertyOp19
 70
     1
102
RTVSPropertyOp20
 70
     1
102
RTVSPropertyOp21
 70
     1
102
RTVSPropertyOp22
 70
     1
102
RTVSPropertyOp23
 70
     1
102
RTVSPropertyOp24
 70
     1
102
RTVSPropertyOp25
 70
     1
102
RTVSPropertyOp26
 70
     1
102
RTVSPropertyOp27
 70
     1
102
RTVSPropertyOp28
 70
     1
102
RTVSPropertyOp29
 70
     1
102
RTVSPropertyOp30
 70
     1
102
RTVSPropertyOp31
 70
     1
102
RTVSPropertyOp32
 70
     1
102
RTVSPropertyOp33
 70
     1
102
RTVSPropertyOp34
 70
     1
102
RTVSPropertyOp35
 70
     1
102
RTVSPropertyOp36
 70
     1
102
RTVSPropertyOp37
 70
     1
102
RTVSPropertyOp38
 70
     1
102
RTVSPropertyOp39
 70
     1
102
RTVSPropertyOp40
 70
     1
102
RTVSPropertyOp41
 70
     1
102
RTVSPropertyOp42
 70
     1
102
RTVSPropertyOp43
 70
     1
102
RTVSPropertyOp44
 70
     1
102
RTVSPropertyOp45
 70
     1
102
RTVSPropertyOp46
 70
     1
102
RTVSPropertyOp47
 70
     1
102
RTVSPropertyOp48
 70
     1
102
RTVSPropertyOp49
 70
     1
102
RTVSPropertyOp50
 70
     1
102
RTVSPropertyOp51
 70
     0
102
RTVSPropertyOp52
 70
     0
102
RTVSPropertyOp53
 70
     1
102
RTVSPropertyOp54
 70
     1
102
RTVSPropertyOp55
 70
     1
102
RTVSPropertyOp56
 70
     1
102
RTVSPropertyOp57
 70
     1
102
RTVSPropertyOp58
 70
     1
102
RTVSPropertyOp59
 70
     1
102
RTVSPropertyOp60
 70
     1
102
RTVSPropertyOp61
 70
     1
102
RTVSPropertyOp62
 70
     1
  0
XRECORD
  5
3F36
102
{ACAD_REACTORS
330
3F35
102
}
330
3F35
100
AcDbXrecord
280
     1
102
RTVSPost2010Prop28
280
     0
102
RTVSPost2010PropOp28
 70
     1
102
RTVSPost2010Prop29
280
     1
102
RTVSPost2010PropOp29
 70
     1
102
RTVSPost2010Prop30
280
     1
102
RTVSPost2010PropOp30
 70
     1
102
RTVSPost2010Prop31
280
     0
102
RTVSPost2010PropOp31
 70
     1
102
RTVSPost2010Prop32
280
     0
102
RTVSPost2010PropOp32
 70
     1
102
RTVSPost2010Prop33
280
     0
102
RTVSPost2010PropOp33
 70
     1
102
RTVSPost2010Prop34
280
     0
102
RTVSPost2010PropOp34
 70
     1
102
RTVSPost2010Prop35
280
     0
102
RTVSPost2010PropOp35
 70
     1
102
RTVSPost2010Prop36
280
     0
102
RTVSPost2010PropOp36
 70
     1
102
RTVSPost2010Prop37
 90
       50
102
RTVSPost2010PropOp37
 70
     1
102
RTVSPost2010Prop38
140
0.0
102
RTVSPost2010PropOp38
 70
     1
102
RTVSPost2010Prop39
140
1.0
102
RTVSPost2010PropOp39
 70
     1
102
RTVSPost2010Prop40
 90
        0
102
RTVSPost2010PropOp40
 70
     1
102
RTVSPost2010Prop41ColorIndex
 90
       18
102
RTVSPost2010Prop41ColorRGB
 90
        0
102
RTVSPost2010PropOp41
 70
     1
102
RTVSPost2010Prop42
 90
       50
102
RTVSPost2010PropOp42
 70
     1
102
RTVSPost2010Prop43
 90
        3
102
RTVSPost2010PropOp43
 70
     1
102
RTVSPost2010Prop44ColorIndex
 90
        5
102
RTVSPost2010Prop44ColorRGB
 90
      255
102
RTVSPost2010PropOp44
 70
     1
102
RTVSPost2010Prop45
280
     0
102
RTVSPost2010PropOp45
 70
     1
102
RTVSPost2010Prop46
 90
       50
102
RTVSPost2010PropOp46
 70
     1
102
RTVSPost2010Prop47
 90
       50
102
RTVSPost2010PropOp47
 70
     1
102
RTVSPost2010Prop48
 90
       50
102
RTVSPost2010PropOp48
 70
     1
102
RTVSPost2010Prop49
280
     0
102
RTVSPost2010PropOp49
 70
     1
102
RTVSPost2010Prop50
 90
       50
102
RTVSPost2010PropOp50
 70
     1
102
RTVSPost2010Prop51ColorIndex
 90
      256
102
RTVSPost2010Prop51ColorRGB
 90
-16777216
102
RTVSPost2010PropOp51
 70
     0
102
RTVSPost2010Prop52
140
1.0
102
RTVSPost2010PropOp52
 70
     0
102
RTVSPost2010Prop53
 90
        2
102
RTVSPost2010PropOp53
 70
     1
102
RTVSPost2010Prop54
  1
strokes_ogs.tif
102
RTVSPost2010PropOp54
 70
     1
102
RTVSPost2010Prop55
280
     0
102
RTVSPost2010PropOp55
 70
     1
102
RTVSPost2010Prop56
140
1.0
102
RTVSPost2010PropOp56
 70
     1
102
RTVSPost2010Prop57
140
1.0
102
RTVSPost2010PropOp57
 70
     1
102
RTVSPropertyOp0
 70
     1
102
RTVSPropertyOp1
 70
     1
102
RTVSPropertyOp2
 70
     1
102
RTVSPropertyOp3
 70
     1
102
RTVSPropertyOp4
 70
     1
102
RTVSPropertyOp5
 70
     1
102
RTVSPropertyOp6
 70
     1
102
RTVSPropertyOp7
 70
     1
102
RTVSPropertyOp8
 70
     1
102
RTVSPropertyOp9
 70
     1
102
RTVSPropertyOp10
 70
     1
102
RTVSPropertyOp11
 70
     1
102
RTVSPropertyOp12
 70
     1
102
RTVSPropertyOp13
 70
     1
102
RTVSPropertyOp14
 70
     1
102
RTVSPropertyOp15
 70
     1
102
RTVSPropertyOp16
 70
     1
102
RTVSPropertyOp17
 70
     1
102
RTVSPropertyOp18
 70
     1
102
RTVSPropertyOp19
 70
     1
102
RTVSPropertyOp20
 70
     1
102
RTVSPropertyOp21
 70
     1
102
RTVSPropertyOp22
 70
     1
102
RTVSPropertyOp23
 70
     1
102
RTVSPropertyOp24
 70
     1
102
RTVSPropertyOp25
 70
     1
102
RTVSPropertyOp26
 70
     1
102
RTVSPropertyOp27
 70
     1
102
RTVSPropertyOp28
 70
     1
102
RTVSPropertyOp29
 70
     1
102
RTVSPropertyOp30
 70
     1
102
RTVSPropertyOp31
 70
     1
102
RTVSPropertyOp32
 70
     1
102
RTVSPropertyOp33
 70
     1
102
RTVSPropertyOp34
 70
     1
102
RTVSPropertyOp35
 70
     1
102
RTVSPropertyOp36
 70
     1
102
RTVSPropertyOp37
 70
     1
102
RTVSPropertyOp38
 70
     1
102
RTVSPropertyOp39
 70
     1
102
RTVSPropertyOp40
 70
     1
102
RTVSPropertyOp41
 70
     1
102
RTVSPropertyOp42
 70
     1
102
RTVSPropertyOp43
 70
     1
102
RTVSPropertyOp44
 70
     1
102
RTVSPropertyOp45
 70
     1
102
RTVSPropertyOp46
 70
     1
102
RTVSPropertyOp47
 70
     1
102
RTVSPropertyOp48
 70
     1
102
RTVSPropertyOp49
 70
     1
102
RTVSPropertyOp50
 70
     1
102
RTVSPropertyOp51
 70
     0
102
RTVSPropertyOp52
 70
     0
102
RTVSPropertyOp53
 70
     1
102
RTVSPropertyOp54
 70
     1
102
RTVSPropertyOp55
 70
     1
102
RTVSPropertyOp56
 70
     1
102
RTVSPropertyOp57
 70
     1
102
RTVSPropertyOp58
 70
     1
102
RTVSPropertyOp59
 70
     1
102
RTVSPropertyOp60
 70
     1
102
RTVSPropertyOp61
 70
     1
102
RTVSPropertyOp62
 70
     1
  0
XRECORD
  5
3F38
102
{ACAD_REACTORS
330
3F37
102
}
330
3F37
100
AcDbXrecord
280
     1
102
RTVSPost2010Prop28
280
     0
102
RTVSPost2010PropOp28
 70
     1
102
RTVSPost2010Prop29
280
     1
102
RTVSPost2010PropOp29
 70
     1
102
RTVSPost2010Prop30
280
     1
102
RTVSPost2010PropOp30
 70
     1
102
RTVSPost2010Prop31
280
     0
102
RTVSPost2010PropOp31
 70
     1
102
RTVSPost2010Prop32
280
     0
102
RTVSPost2010PropOp32
 70
     1
102
RTVSPost2010Prop33
280
     0
102
RTVSPost2010PropOp33
 70
     1
102
RTVSPost2010Prop34
280
     0
102
RTVSPost2010PropOp34
 70
     1
102
RTVSPost2010Prop35
280
     0
102
RTVSPost2010PropOp35
 70
     1
102
RTVSPost2010Prop36
280
     0
102
RTVSPost2010PropOp36
 70
     1
102
RTVSPost2010Prop37
 90
       50
102
RTVSPost2010PropOp37
 70
     1
102
RTVSPost2010Prop38
140
0.0
102
RTVSPost2010PropOp38
 70
     1
102
RTVSPost2010Prop39
140
1.0
102
RTVSPost2010PropOp39
 70
     1
102
RTVSPost2010Prop40
 90
        0
102
RTVSPost2010PropOp40
 70
     1
102
RTVSPost2010Prop41ColorIndex
 90
       18
102
RTVSPost2010Prop41ColorRGB
 90
        0
102
RTVSPost2010PropOp41
 70
     1
102
RTVSPost2010Prop42
 90
       50
102
RTVSPost2010PropOp42
 70
     1
102
RTVSPost2010Prop43
 90
        3
102
RTVSPost2010PropOp43
 70
     1
102
RTVSPost2010Prop44ColorIndex
 90
        5
102
RTVSPost2010Prop44ColorRGB
 90
      255
102
RTVSPost2010PropOp44
 70
     1
102
RTVSPost2010Prop45
280
     0
102
RTVSPost2010PropOp45
 70
     1
102
RTVSPost2010Prop46
 90
       50
102
RTVSPost2010PropOp46
 70
     1
102
RTVSPost2010Prop47
 90
       50
102
RTVSPost2010PropOp47
 70
     1
102
RTVSPost2010Prop48
 90
       50
102
RTVSPost2010PropOp48
 70
     1
102
RTVSPost2010Prop49
280
     0
102
RTVSPost2010PropOp49
 70
     1
102
RTVSPost2010Prop50
 90
       50
102
RTVSPost2010PropOp50
 70
     1
102
RTVSPost2010Prop51ColorIndex
 90
      256
102
RTVSPost2010Prop51ColorRGB
 90
-16777216
102
RTVSPost2010PropOp51
 70
     0
102
RTVSPost2010Prop52
140
1.0
102
RTVSPost2010PropOp52
 70
     0
102
RTVSPost2010Prop53
 90
        2
102
RTVSPost2010PropOp53
 70
     1
102
RTVSPost2010Prop54
  1
strokes_ogs.tif
102
RTVSPost2010PropOp54
 70
     1
102
RTVSPost2010Prop55
280
     0
102
RTVSPost2010PropOp55
 70
     1
102
RTVSPost2010Prop56
140
1.0
102
RTVSPost2010PropOp56
 70
     1
102
RTVSPost2010Prop57
140
1.0
102
RTVSPost2010PropOp57
 70
     1
102
RTVSPropertyOp0
 70
     1
102
RTVSPropertyOp1
 70
     1
102
RTVSPropertyOp2
 70
     1
102
RTVSPropertyOp3
 70
     1
102
RTVSPropertyOp4
 70
     1
102
RTVSPropertyOp5
 70
     1
102
RTVSPropertyOp6
 70
     1
102
RTVSPropertyOp7
 70
     1
102
RTVSPropertyOp8
 70
     1
102
RTVSPropertyOp9
 70
     1
102
RTVSPropertyOp10
 70
     1
102
RTVSPropertyOp11
 70
     1
102
RTVSPropertyOp12
 70
     1
102
RTVSPropertyOp13
 70
     1
102
RTVSPropertyOp14
 70
     1
102
RTVSPropertyOp15
 70
     1
102
RTVSPropertyOp16
 70
     1
102
RTVSPropertyOp17
 70
     1
102
RTVSPropertyOp18
 70
     1
102
RTVSPropertyOp19
 70
     1
102
RTVSPropertyOp20
 70
     1
102
RTVSPropertyOp21
 70
     1
102
RTVSPropertyOp22
 70
     1
102
RTVSPropertyOp23
 70
     1
102
RTVSPropertyOp24
 70
     1
102
RTVSPropertyOp25
 70
     1
102
RTVSPropertyOp26
 70
     1
102
RTVSPropertyOp27
 70
     1
102
RTVSPropertyOp28
 70
     1
102
RTVSPropertyOp29
 70
     1
102
RTVSPropertyOp30
 70
     1
102
RTVSPropertyOp31
 70
     1
102
RTVSPropertyOp32
 70
     1
102
RTVSPropertyOp33
 70
     1
102
RTVSPropertyOp34
 70
     1
102
RTVSPropertyOp35
 70
     1
102
RTVSPropertyOp36
 70
     1
102
RTVSPropertyOp37
 70
     1
102
RTVSPropertyOp38
 70
     1
102
RTVSPropertyOp39
 70
     1
102
RTVSPropertyOp40
 70
     1
102
RTVSPropertyOp41
 70
     1
102
RTVSPropertyOp42
 70
     1
102
RTVSPropertyOp43
 70
     1
102
RTVSPropertyOp44
 70
     1
102
RTVSPropertyOp45
 70
     1
102
RTVSPropertyOp46
 70
     1
102
RTVSPropertyOp47
 70
     1
102
RTVSPropertyOp48
 70
     1
102
RTVSPropertyOp49
 70
     1
102
RTVSPropertyOp50
 70
     1
102
RTVSPropertyOp51
 70
     0
102
RTVSPropertyOp52
 70
     0
102
RTVSPropertyOp53
 70
     1
102
RTVSPropertyOp54
 70
     1
102
RTVSPropertyOp55
 70
     1
102
RTVSPropertyOp56
 70
     1
102
RTVSPropertyOp57
 70
     1
102
RTVSPropertyOp58
 70
     1
102
RTVSPropertyOp59
 70
     1
102
RTVSPropertyOp60
 70
     1
102
RTVSPropertyOp61
 70
     1
102
RTVSPropertyOp62
 70
     1
  0
XRECORD
  5
3F3A
102
{ACAD_REACTORS
330
3F39
102
}
330
3F39
100
AcDbXrecord
280
     1
102
RTVSPost2010Prop28
280
     0
102
RTVSPost2010PropOp28
 70
     1
102
RTVSPost2010Prop29
280
     1
102
RTVSPost2010PropOp29
 70
     1
102
RTVSPost2010Prop30
280
     1
102
RTVSPost2010PropOp30
 70
     1
102
RTVSPost2010Prop31
280
     0
102
RTVSPost2010PropOp31
 70
     1
102
RTVSPost2010Prop32
280
     0
102
RTVSPost2010PropOp32
 70
     1
102
RTVSPost2010Prop33
280
     0
102
RTVSPost2010PropOp33
 70
     1
102
RTVSPost2010Prop34
280
     0
102
RTVSPost2010PropOp34
 70
     1
102
RTVSPost2010Prop35
280
     0
102
RTVSPost2010PropOp35
 70
     1
102
RTVSPost2010Prop36
280
     0
102
RTVSPost2010PropOp36
 70
     1
102
RTVSPost2010Prop37
 90
       50
102
RTVSPost2010PropOp37
 70
     1
102
RTVSPost2010Prop38
140
0.0
102
RTVSPost2010PropOp38
 70
     1
102
RTVSPost2010Prop39
140
1.0
102
RTVSPost2010PropOp39
 70
     1
102
RTVSPost2010Prop40
 90
        0
102
RTVSPost2010PropOp40
 70
     1
102
RTVSPost2010Prop41ColorIndex
 90
       18
102
RTVSPost2010Prop41ColorRGB
 90
        0
102
RTVSPost2010PropOp41
 70
     1
102
RTVSPost2010Prop42
 90
       50
102
RTVSPost2010PropOp42
 70
     1
102
RTVSPost2010Prop43
 90
        3
102
RTVSPost2010PropOp43
 70
     1
102
RTVSPost2010Prop44ColorIndex
 90
        5
102
RTVSPost2010Prop44ColorRGB
 90
      255
102
RTVSPost2010PropOp44
 70
     1
102
RTVSPost2010Prop45
280
     0
102
RTVSPost2010PropOp45
 70
     1
102
RTVSPost2010Prop46
 90
       50
102
RTVSPost2010PropOp46
 70
     1
102
RTVSPost2010Prop47
 90
       50
102
RTVSPost2010PropOp47
 70
     1
102
RTVSPost2010Prop48
 90
       50
102
RTVSPost2010PropOp48
 70
     1
102
RTVSPost2010Prop49
280
     0
102
RTVSPost2010PropOp49
 70
     1
102
RTVSPost2010Prop50
 90
       50
102
RTVSPost2010PropOp50
 70
     1
102
RTVSPost2010Prop51ColorIndex
 90
      256
102
RTVSPost2010Prop51ColorRGB
 90
-16777216
102
RTVSPost2010PropOp51
 70
     0
102
RTVSPost2010Prop52
140
1.0
102
RTVSPost2010PropOp52
 70
     0
102
RTVSPost2010Prop53
 90
        2
102
RTVSPost2010PropOp53
 70
     1
102
RTVSPost2010Prop54
  1
strokes_ogs.tif
102
RTVSPost2010PropOp54
 70
     1
102
RTVSPost2010Prop55
280
     0
102
RTVSPost2010PropOp55
 70
     1
102
RTVSPost2010Prop56
140
1.0
102
RTVSPost2010PropOp56
 70
     1
102
RTVSPost2010Prop57
140
1.0
102
RTVSPost2010PropOp57
 70
     1
102
RTVSPropertyOp0
 70
     1
102
RTVSPropertyOp1
 70
     1
102
RTVSPropertyOp2
 70
     1
102
RTVSPropertyOp3
 70
     1
102
RTVSPropertyOp4
 70
     1
102
RTVSPropertyOp5
 70
     1
102
RTVSPropertyOp6
 70
     1
102
RTVSPropertyOp7
 70
     1
102
RTVSPropertyOp8
 70
     1
102
RTVSPropertyOp9
 70
     1
102
RTVSPropertyOp10
 70
     1
102
RTVSPropertyOp11
 70
     1
102
RTVSPropertyOp12
 70
     1
102
RTVSPropertyOp13
 70
     1
102
RTVSPropertyOp14
 70
     1
102
RTVSPropertyOp15
 70
     1
102
RTVSPropertyOp16
 70
     1
102
RTVSPropertyOp17
 70
     1
102
RTVSPropertyOp18
 70
     1
102
RTVSPropertyOp19
 70
     1
102
RTVSPropertyOp20
 70
     1
102
RTVSPropertyOp21
 70
     1
102
RTVSPropertyOp22
 70
     1
102
RTVSPropertyOp23
 70
     1
102
RTVSPropertyOp24
 70
     1
102
RTVSPropertyOp25
 70
     1
102
RTVSPropertyOp26
 70
     1
102
RTVSPropertyOp27
 70
     1
102
RTVSPropertyOp28
 70
     1
102
RTVSPropertyOp29
 70
     1
102
RTVSPropertyOp30
 70
     1
102
RTVSPropertyOp31
 70
     1
102
RTVSPropertyOp32
 70
     1
102
RTVSPropertyOp33
 70
     1
102
RTVSPropertyOp34
 70
     1
102
RTVSPropertyOp35
 70
     1
102
RTVSPropertyOp36
 70
     1
102
RTVSPropertyOp37
 70
     1
102
RTVSPropertyOp38
 70
     1
102
RTVSPropertyOp39
 70
     1
102
RTVSPropertyOp40
 70
     1
102
RTVSPropertyOp41
 70
     1
102
RTVSPropertyOp42
 70
     1
102
RTVSPropertyOp43
 70
     1
102
RTVSPropertyOp44
 70
     1
102
RTVSPropertyOp45
 70
     1
102
RTVSPropertyOp46
 70
     1
102
RTVSPropertyOp47
 70
     1
102
RTVSPropertyOp48
 70
     1
102
RTVSPropertyOp49
 70
     1
102
RTVSPropertyOp50
 70
     1
102
RTVSPropertyOp51
 70
     0
102
RTVSPropertyOp52
 70
     0
102
RTVSPropertyOp53
 70
     1
102
RTVSPropertyOp54
 70
     1
102
RTVSPropertyOp55
 70
     1
102
RTVSPropertyOp56
 70
     1
102
RTVSPropertyOp57
 70
     1
102
RTVSPropertyOp58
 70
     1
102
RTVSPropertyOp59
 70
     1
102
RTVSPropertyOp60
 70
     1
102
RTVSPropertyOp61
 70
     1
102
RTVSPropertyOp62
 70
     1
  0
XRECORD
  5
3F6D
102
{ACAD_REACTORS
330
3F6C
102
}
330
3F6C
100
AcDbXrecord
280
     1
102
RTVSPost2010Prop28
280
     0
102
RTVSPost2010PropOp28
 70
     1
102
RTVSPost2010Prop29
280
     1
102
RTVSPost2010PropOp29
 70
     1
102
RTVSPost2010Prop30
280
     1
102
RTVSPost2010PropOp30
 70
     1
102
RTVSPost2010Prop31
280
     0
102
RTVSPost2010PropOp31
 70
     1
102
RTVSPost2010Prop32
280
     0
102
RTVSPost2010PropOp32
 70
     1
102
RTVSPost2010Prop33
280
     0
102
RTVSPost2010PropOp33
 70
     1
102
RTVSPost2010Prop34
280
     0
102
RTVSPost2010PropOp34
 70
     1
102
RTVSPost2010Prop35
280
     0
102
RTVSPost2010PropOp35
 70
     1
102
RTVSPost2010Prop36
280
     0
102
RTVSPost2010PropOp36
 70
     1
102
RTVSPost2010Prop37
 90
       50
102
RTVSPost2010PropOp37
 70
     1
102
RTVSPost2010Prop38
140
0.0
102
RTVSPost2010PropOp38
 70
     1
102
RTVSPost2010Prop39
140
1.0
102
RTVSPost2010PropOp39
 70
     1
102
RTVSPost2010Prop40
 90
        0
102
RTVSPost2010PropOp40
 70
     1
102
RTVSPost2010Prop41ColorIndex
 90
       18
102
RTVSPost2010Prop41ColorRGB
 90
        0
102
RTVSPost2010PropOp41
 70
     1
102
RTVSPost2010Prop42
 90
       50
102
RTVSPost2010PropOp42
 70
     1
102
RTVSPost2010Prop43
 90
        3
102
RTVSPost2010PropOp43
 70
     1
102
RTVSPost2010Prop44ColorIndex
 90
        5
102
RTVSPost2010Prop44ColorRGB
 90
      255
102
RTVSPost2010PropOp44
 70
     1
102
RTVSPost2010Prop45
280
     0
102
RTVSPost2010PropOp45
 70
     1
102
RTVSPost2010Prop46
 90
       50
102
RTVSPost2010PropOp46
 70
     1
102
RTVSPost2010Prop47
 90
       50
102
RTVSPost2010PropOp47
 70
     1
102
RTVSPost2010Prop48
 90
       50
102
RTVSPost2010PropOp48
 70
     1
102
RTVSPost2010Prop49
280
     0
102
RTVSPost2010PropOp49
 70
     1
102
RTVSPost2010Prop50
 90
       50
102
RTVSPost2010PropOp50
 70
     1
102
RTVSPost2010Prop51ColorIndex
 90
      256
102
RTVSPost2010Prop51ColorRGB
 90
-16777216
102
RTVSPost2010PropOp51
 70
     0
102
RTVSPost2010Prop52
140
1.0
102
RTVSPost2010PropOp52
 70
     0
102
RTVSPost2010Prop53
 90
        2
102
RTVSPost2010PropOp53
 70
     1
102
RTVSPost2010Prop54
  1
strokes_ogs.tif
102
RTVSPost2010PropOp54
 70
     1
102
RTVSPost2010Prop55
280
     0
102
RTVSPost2010PropOp55
 70
     1
102
RTVSPost2010Prop56
140
1.0
102
RTVSPost2010PropOp56
 70
     1
102
RTVSPost2010Prop57
140
1.0
102
RTVSPost2010PropOp57
 70
     1
102
RTVSPropertyOp0
 70
     1
102
RTVSPropertyOp1
 70
     1
102
RTVSPropertyOp2
 70
     1
102
RTVSPropertyOp3
 70
     1
102
RTVSPropertyOp4
 70
     1
102
RTVSPropertyOp5
 70
     1
102
RTVSPropertyOp6
 70
     1
102
RTVSPropertyOp7
 70
     1
102
RTVSPropertyOp8
 70
     1
102
RTVSPropertyOp9
 70
     1
102
RTVSPropertyOp10
 70
     1
102
RTVSPropertyOp11
 70
     1
102
RTVSPropertyOp12
 70
     1
102
RTVSPropertyOp13
 70
     1
102
RTVSPropertyOp14
 70
     1
102
RTVSPropertyOp15
 70
     1
102
RTVSPropertyOp16
 70
     1
102
RTVSPropertyOp17
 70
     1
102
RTVSPropertyOp18
 70
     1
102
RTVSPropertyOp19
 70
     1
102
RTVSPropertyOp20
 70
     1
102
RTVSPropertyOp21
 70
     1
102
RTVSPropertyOp22
 70
     1
102
RTVSPropertyOp23
 70
     1
102
RTVSPropertyOp24
 70
     1
102
RTVSPropertyOp25
 70
     1
102
RTVSPropertyOp26
 70
     1
102
RTVSPropertyOp27
 70
     1
102
RTVSPropertyOp28
 70
     1
102
RTVSPropertyOp29
 70
     1
102
RTVSPropertyOp30
 70
     1
102
RTVSPropertyOp31
 70
     1
102
RTVSPropertyOp32
 70
     1
102
RTVSPropertyOp33
 70
     1
102
RTVSPropertyOp34
 70
     1
102
RTVSPropertyOp35
 70
     1
102
RTVSPropertyOp36
 70
     1
102
RTVSPropertyOp37
 70
     1
102
RTVSPropertyOp38
 70
     1
102
RTVSPropertyOp39
 70
     1
102
RTVSPropertyOp40
 70
     1
102
RTVSPropertyOp41
 70
     1
102
RTVSPropertyOp42
 70
     1
102
RTVSPropertyOp43
 70
     1
102
RTVSPropertyOp44
 70
     1
102
RTVSPropertyOp45
 70
     1
102
RTVSPropertyOp46
 70
     1
102
RTVSPropertyOp47
 70
     1
102
RTVSPropertyOp48
 70
     1
102
RTVSPropertyOp49
 70
     1
102
RTVSPropertyOp50
 70
     1
102
RTVSPropertyOp51
 70
     0
102
RTVSPropertyOp52
 70
     0
102
RTVSPropertyOp53
 70
     1
102
RTVSPropertyOp54
 70
     1
102
RTVSPropertyOp55
 70
     1
102
RTVSPropertyOp56
 70
     1
102
RTVSPropertyOp57
 70
     1
102
RTVSPropertyOp58
 70
     1
102
RTVSPropertyOp59
 70
     1
102
RTVSPropertyOp60
 70
     1
102
RTVSPropertyOp61
 70
     1
102
RTVSPropertyOp62
 70
     1
  0
XRECORD
  5
3F54
102
{ACAD_REACTORS
330
3F53
102
}
330
3F53
100
AcDbXrecord
280
     1
102
RTVSPost2010Prop28
280
     0
102
RTVSPost2010PropOp28
 70
     1
102
RTVSPost2010Prop29
280
     1
102
RTVSPost2010PropOp29
 70
     1
102
RTVSPost2010Prop30
280
     1
102
RTVSPost2010PropOp30
 70
     1
102
RTVSPost2010Prop31
280
     0
102
RTVSPost2010PropOp31
 70
     1
102
RTVSPost2010Prop32
280
     0
102
RTVSPost2010PropOp32
 70
     1
102
RTVSPost2010Prop33
280
     0
102
RTVSPost2010PropOp33
 70
     1
102
RTVSPost2010Prop34
280
     0
102
RTVSPost2010PropOp34
 70
     1
102
RTVSPost2010Prop35
280
     0
102
RTVSPost2010PropOp35
 70
     1
102
RTVSPost2010Prop36
280
     0
102
RTVSPost2010PropOp36
 70
     1
102
RTVSPost2010Prop37
 90
       50
102
RTVSPost2010PropOp37
 70
     1
102
RTVSPost2010Prop38
140
0.0
102
RTVSPost2010PropOp38
 70
     1
102
RTVSPost2010Prop39
140
1.0
102
RTVSPost2010PropOp39
 70
     1
102
RTVSPost2010Prop40
 90
        0
102
RTVSPost2010PropOp40
 70
     1
102
RTVSPost2010Prop41ColorIndex
 90
       18
102
RTVSPost2010Prop41ColorRGB
 90
        0
102
RTVSPost2010PropOp41
 70
     1
102
RTVSPost2010Prop42
 90
       50
102
RTVSPost2010PropOp42
 70
     1
102
RTVSPost2010Prop43
 90
        3
102
RTVSPost2010PropOp43
 70
     1
102
RTVSPost2010Prop44ColorIndex
 90
        5
102
RTVSPost2010Prop44ColorRGB
 90
      255
102
RTVSPost2010PropOp44
 70
     1
102
RTVSPost2010Prop45
280
     0
102
RTVSPost2010PropOp45
 70
     1
102
RTVSPost2010Prop46
 90
       50
102
RTVSPost2010PropOp46
 70
     1
102
RTVSPost2010Prop47
 90
       50
102
RTVSPost2010PropOp47
 70
     1
102
RTVSPost2010Prop48
 90
       50
102
RTVSPost2010PropOp48
 70
     1
102
RTVSPost2010Prop49
280
     0
102
RTVSPost2010PropOp49
 70
     1
102
RTVSPost2010Prop50
 90
       50
102
RTVSPost2010PropOp50
 70
     1
102
RTVSPost2010Prop51ColorIndex
 90
      256
102
RTVSPost2010Prop51ColorRGB
 90
-16777216
102
RTVSPost2010PropOp51
 70
     0
102
RTVSPost2010Prop52
140
1.0
102
RTVSPost2010PropOp52
 70
     0
102
RTVSPost2010Prop53
 90
        2
102
RTVSPost2010PropOp53
 70
     1
102
RTVSPost2010Prop54
  1
strokes_ogs.tif
102
RTVSPost2010PropOp54
 70
     1
102
RTVSPost2010Prop55
280
     0
102
RTVSPost2010PropOp55
 70
     1
102
RTVSPost2010Prop56
140
1.0
102
RTVSPost2010PropOp56
 70
     1
102
RTVSPost2010Prop57
140
1.0
102
RTVSPost2010PropOp57
 70
     1
102
RTVSPropertyOp0
 70
     0
102
RTVSPropertyOp1
 70
     0
102
RTVSPropertyOp2
 70
     0
102
RTVSPropertyOp3
 70
     0
102
RTVSPropertyOp4
 70
     0
102
RTVSPropertyOp5
 70
     0
102
RTVSPropertyOp6
 70
     0
102
RTVSPropertyOp7
 70
     0
102
RTVSPropertyOp8
 70
     0
102
RTVSPropertyOp9
 70
     0
102
RTVSPropertyOp10
 70
     0
102
RTVSPropertyOp11
 70
     0
102
RTVSPropertyOp12
 70
     0
102
RTVSPropertyOp13
 70
     0
102
RTVSPropertyOp14
 70
     2
102
RTVSPropertyOp15
 70
     0
102
RTVSPropertyOp16
 70
     0
102
RTVSPropertyOp17
 70
     0
102
RTVSPropertyOp18
 70
     0
102
RTVSPropertyOp19
 70
     0
102
RTVSPropertyOp20
 70
     0
102
RTVSPropertyOp21
 70
     0
102
RTVSPropertyOp22
 70
     0
102
RTVSPropertyOp23
 70
     0
102
RTVSPropertyOp24
 70
     0
102
RTVSPropertyOp25
 70
     0
102
RTVSPropertyOp26
 70
     0
102
RTVSPropertyOp27
 70
     0
102
RTVSPropertyOp28
 70
     1
102
RTVSPropertyOp29
 70
     1
102
RTVSPropertyOp30
 70
     1
102
RTVSPropertyOp31
 70
     1
102
RTVSPropertyOp32
 70
     1
102
RTVSPropertyOp33
 70
     1
102
RTVSPropertyOp34
 70
     1
102
RTVSPropertyOp35
 70
     1
102
RTVSPropertyOp36
 70
     1
102
RTVSPropertyOp37
 70
     1
102
RTVSPropertyOp38
 70
     1
102
RTVSPropertyOp39
 70
     1
102
RTVSPropertyOp40
 70
     1
102
RTVSPropertyOp41
 70
     1
102
RTVSPropertyOp42
 70
     1
102
RTVSPropertyOp43
 70
     1
102
RTVSPropertyOp44
 70
     1
102
RTVSPropertyOp45
 70
     1
102
RTVSPropertyOp46
 70
     1
102
RTVSPropertyOp47
 70
     1
102
RTVSPropertyOp48
 70
     1
102
RTVSPropertyOp49
 70
     1
102
RTVSPropertyOp50
 70
     1
102
RTVSPropertyOp51
 70
     0
102
RTVSPropertyOp52
 70
     0
102
RTVSPropertyOp53
 70
     1
102
RTVSPropertyOp54
 70
     1
102
RTVSPropertyOp55
 70
     1
102
RTVSPropertyOp56
 70
     1
102
RTVSPropertyOp57
 70
     1
102
RTVSPropertyOp58
 70
     1
102
RTVSPropertyOp59
 70
     1
102
RTVSPropertyOp60
 70
     1
102
RTVSPropertyOp61
 70
     1
102
RTVSPropertyOp62
 70
     1
  0
XRECORD
  5
3F4E
102
{ACAD_REACTORS
330
3F4D
102
}
330
3F4D
100
AcDbXrecord
280
     1
102
RTVSPost2010Prop28
280
     0
102
RTVSPost2010PropOp28
 70
     1
102
RTVSPost2010Prop29
280
     1
102
RTVSPost2010PropOp29
 70
     1
102
RTVSPost2010Prop30
280
     1
102
RTVSPost2010PropOp30
 70
     1
102
RTVSPost2010Prop31
280
     0
102
RTVSPost2010PropOp31
 70
     1
102
RTVSPost2010Prop32
280
     0
102
RTVSPost2010PropOp32
 70
     1
102
RTVSPost2010Prop33
280
     0
102
RTVSPost2010PropOp33
 70
     1
102
RTVSPost2010Prop34
280
     0
102
RTVSPost2010PropOp34
 70
     1
102
RTVSPost2010Prop35
280
     0
102
RTVSPost2010PropOp35
 70
     1
102
RTVSPost2010Prop36
280
     0
102
RTVSPost2010PropOp36
 70
     1
102
RTVSPost2010Prop37
 90
       50
102
RTVSPost2010PropOp37
 70
     1
102
RTVSPost2010Prop38
140
0.0
102
RTVSPost2010PropOp38
 70
     1
102
RTVSPost2010Prop39
140
1.0
102
RTVSPost2010PropOp39
 70
     1
102
RTVSPost2010Prop40
 90
        0
102
RTVSPost2010PropOp40
 70
     1
102
RTVSPost2010Prop41ColorIndex
 90
       18
102
RTVSPost2010Prop41ColorRGB
 90
        0
102
RTVSPost2010PropOp41
 70
     1
102
RTVSPost2010Prop42
 90
       50
102
RTVSPost2010PropOp42
 70
     1
102
RTVSPost2010Prop43
 90
        3
102
RTVSPost2010PropOp43
 70
     1
102
RTVSPost2010Prop44ColorIndex
 90
        5
102
RTVSPost2010Prop44ColorRGB
 90
      255
102
RTVSPost2010PropOp44
 70
     1
102
RTVSPost2010Prop45
280
     0
102
RTVSPost2010PropOp45
 70
     1
102
RTVSPost2010Prop46
 90
       50
102
RTVSPost2010PropOp46
 70
     1
102
RTVSPost2010Prop47
 90
       50
102
RTVSPost2010PropOp47
 70
     1
102
RTVSPost2010Prop48
 90
       50
102
RTVSPost2010PropOp48
 70
     1
102
RTVSPost2010Prop49
280
     0
102
RTVSPost2010PropOp49
 70
     1
102
RTVSPost2010Prop50
 90
       50
102
RTVSPost2010PropOp50
 70
     1
102
RTVSPost2010Prop51ColorIndex
 90
      256
102
RTVSPost2010Prop51ColorRGB
 90
-16777216
102
RTVSPost2010PropOp51
 70
     0
102
RTVSPost2010Prop52
140
1.0
102
RTVSPost2010PropOp52
 70
     0
102
RTVSPost2010Prop53
 90
        2
102
RTVSPost2010PropOp53
 70
     1
102
RTVSPost2010Prop54
  1
strokes_ogs.tif
102
RTVSPost2010PropOp54
 70
     1
102
RTVSPost2010Prop55
280
     0
102
RTVSPost2010PropOp55
 70
     1
102
RTVSPost2010Prop56
140
1.0
102
RTVSPost2010PropOp56
 70
     1
102
RTVSPost2010Prop57
140
1.0
102
RTVSPost2010PropOp57
 70
     1
102
RTVSPropertyOp0
 70
     1
102
RTVSPropertyOp1
 70
     1
102
RTVSPropertyOp2
 70
     1
102
RTVSPropertyOp3
 70
     1
102
RTVSPropertyOp4
 70
     1
102
RTVSPropertyOp5
 70
     1
102
RTVSPropertyOp6
 70
     1
102
RTVSPropertyOp7
 70
     1
102
RTVSPropertyOp8
 70
     1
102
RTVSPropertyOp9
 70
     1
102
RTVSPropertyOp10
 70
     1
102
RTVSPropertyOp11
 70
     1
102
RTVSPropertyOp12
 70
     1
102
RTVSPropertyOp13
 70
     1
102
RTVSPropertyOp14
 70
     1
102
RTVSPropertyOp15
 70
     1
102
RTVSPropertyOp16
 70
     1
102
RTVSPropertyOp17
 70
     1
102
RTVSPropertyOp18
 70
     1
102
RTVSPropertyOp19
 70
     1
102
RTVSPropertyOp20
 70
     1
102
RTVSPropertyOp21
 70
     1
102
RTVSPropertyOp22
 70
     1
102
RTVSPropertyOp23
 70
     1
102
RTVSPropertyOp24
 70
     1
102
RTVSPropertyOp25
 70
     1
102
RTVSPropertyOp26
 70
     1
102
RTVSPropertyOp27
 70
     1
102
RTVSPropertyOp28
 70
     1
102
RTVSPropertyOp29
 70
     1
102
RTVSPropertyOp30
 70
     1
102
RTVSPropertyOp31
 70
     1
102
RTVSPropertyOp32
 70
     1
102
RTVSPropertyOp33
 70
     1
102
RTVSPropertyOp34
 70
     1
102
RTVSPropertyOp35
 70
     1
102
RTVSPropertyOp36
 70
     1
102
RTVSPropertyOp37
 70
     1
102
RTVSPropertyOp38
 70
     1
102
RTVSPropertyOp39
 70
     1
102
RTVSPropertyOp40
 70
     1
102
RTVSPropertyOp41
 70
     1
102
RTVSPropertyOp42
 70
     1
102
RTVSPropertyOp43
 70
     1
102
RTVSPropertyOp44
 70
     1
102
RTVSPropertyOp45
 70
     1
102
RTVSPropertyOp46
 70
     1
102
RTVSPropertyOp47
 70
     1
102
RTVSPropertyOp48
 70
     1
102
RTVSPropertyOp49
 70
     1
102
RTVSPropertyOp50
 70
     1
102
RTVSPropertyOp51
 70
     0
102
RTVSPropertyOp52
 70
     0
102
RTVSPropertyOp53
 70
     1
102
RTVSPropertyOp54
 70
     1
102
RTVSPropertyOp55
 70
     1
102
RTVSPropertyOp56
 70
     1
102
RTVSPropertyOp57
 70
     1
102
RTVSPropertyOp58
 70
     1
102
RTVSPropertyOp59
 70
     1
102
RTVSPropertyOp60
 70
     1
102
RTVSPropertyOp61
 70
     1
102
RTVSPropertyOp62
 70
     1
  0
XRECORD
  5
3F56
102
{ACAD_REACTORS
330
3F55
102
}
330
3F55
100
AcDbXrecord
280
     1
102
RTVSPost2010Prop28
280
     0
102
RTVSPost2010PropOp28
 70
     1
102
RTVSPost2010Prop29
280
     1
102
RTVSPost2010PropOp29
 70
     1
102
RTVSPost2010Prop30
280
     1
102
RTVSPost2010PropOp30
 70
     1
102
RTVSPost2010Prop31
280
     0
102
RTVSPost2010PropOp31
 70
     1
102
RTVSPost2010Prop32
280
     0
102
RTVSPost2010PropOp32
 70
     1
102
RTVSPost2010Prop33
280
     0
102
RTVSPost2010PropOp33
 70
     1
102
RTVSPost2010Prop34
280
     0
102
RTVSPost2010PropOp34
 70
     1
102
RTVSPost2010Prop35
280
     0
102
RTVSPost2010PropOp35
 70
     1
102
RTVSPost2010Prop36
280
     0
102
RTVSPost2010PropOp36
 70
     1
102
RTVSPost2010Prop37
 90
       50
102
RTVSPost2010PropOp37
 70
     1
102
RTVSPost2010Prop38
140
0.0
102
RTVSPost2010PropOp38
 70
     1
102
RTVSPost2010Prop39
140
1.0
102
RTVSPost2010PropOp39
 70
     1
102
RTVSPost2010Prop40
 90
        0
102
RTVSPost2010PropOp40
 70
     1
102
RTVSPost2010Prop41ColorIndex
 90
       18
102
RTVSPost2010Prop41ColorRGB
 90
        0
102
RTVSPost2010PropOp41
 70
     1
102
RTVSPost2010Prop42
 90
       50
102
RTVSPost2010PropOp42
 70
     1
102
RTVSPost2010Prop43
 90
        3
102
RTVSPost2010PropOp43
 70
     1
102
RTVSPost2010Prop44ColorIndex
 90
        5
102
RTVSPost2010Prop44ColorRGB
 90
      255
102
RTVSPost2010PropOp44
 70
     1
102
RTVSPost2010Prop45
280
     0
102
RTVSPost2010PropOp45
 70
     1
102
RTVSPost2010Prop46
 90
       50
102
RTVSPost2010PropOp46
 70
     1
102
RTVSPost2010Prop47
 90
       50
102
RTVSPost2010PropOp47
 70
     1
102
RTVSPost2010Prop48
 90
       50
102
RTVSPost2010PropOp48
 70
     1
102
RTVSPost2010Prop49
280
     0
102
RTVSPost2010PropOp49
 70
     1
102
RTVSPost2010Prop50
 90
       50
102
RTVSPost2010PropOp50
 70
     1
102
RTVSPost2010Prop51ColorIndex
 90
      256
102
RTVSPost2010Prop51ColorRGB
 90
-16777216
102
RTVSPost2010PropOp51
 70
     0
102
RTVSPost2010Prop52
140
1.0
102
RTVSPost2010PropOp52
 70
     0
102
RTVSPost2010Prop53
 90
        2
102
RTVSPost2010PropOp53
 70
     1
102
RTVSPost2010Prop54
  1
strokes_ogs.tif
102
RTVSPost2010PropOp54
 70
     1
102
RTVSPost2010Prop55
280
     0
102
RTVSPost2010PropOp55
 70
     1
102
RTVSPost2010Prop56
140
1.0
102
RTVSPost2010PropOp56
 70
     1
102
RTVSPost2010Prop57
140
1.0
102
RTVSPost2010PropOp57
 70
     1
102
RTVSPropertyOp0
 70
     0
102
RTVSPropertyOp1
 70
     0
102
RTVSPropertyOp2
 70
     0
102
RTVSPropertyOp3
 70
     0
102
RTVSPropertyOp4
 70
     0
102
RTVSPropertyOp5
 70
     0
102
RTVSPropertyOp6
 70
     0
102
RTVSPropertyOp7
 70
     0
102
RTVSPropertyOp8
 70
     0
102
RTVSPropertyOp9
 70
     0
102
RTVSPropertyOp10
 70
     0
102
RTVSPropertyOp11
 70
     0
102
RTVSPropertyOp12
 70
     0
102
RTVSPropertyOp13
 70
     0
102
RTVSPropertyOp14
 70
     2
102
RTVSPropertyOp15
 70
     0
102
RTVSPropertyOp16
 70
     0
102
RTVSPropertyOp17
 70
     0
102
RTVSPropertyOp18
 70
     0
102
RTVSPropertyOp19
 70
     0
102
RTVSPropertyOp20
 70
     0
102
RTVSPropertyOp21
 70
     0
102
RTVSPropertyOp22
 70
     0
102
RTVSPropertyOp23
 70
     0
102
RTVSPropertyOp24
 70
     0
102
RTVSPropertyOp25
 70
     0
102
RTVSPropertyOp26
 70
     0
102
RTVSPropertyOp27
 70
     0
102
RTVSPropertyOp28
 70
     1
102
RTVSPropertyOp29
 70
     1
102
RTVSPropertyOp30
 70
     1
102
RTVSPropertyOp31
 70
     1
102
RTVSPropertyOp32
 70
     1
102
RTVSPropertyOp33
 70
     1
102
RTVSPropertyOp34
 70
     1
102
RTVSPropertyOp35
 70
     1
102
RTVSPropertyOp36
 70
     1
102
RTVSPropertyOp37
 70
     1
102
RTVSPropertyOp38
 70
     1
102
RTVSPropertyOp39
 70
     1
102
RTVSPropertyOp40
 70
     1
102
RTVSPropertyOp41
 70
     1
102
RTVSPropertyOp42
 70
     1
102
RTVSPropertyOp43
 70
     1
102
RTVSPropertyOp44
 70
     1
102
RTVSPropertyOp45
 70
     1
102
RTVSPropertyOp46
 70
     1
102
RTVSPropertyOp47
 70
     1
102
RTVSPropertyOp48
 70
     1
102
RTVSPropertyOp49
 70
     1
102
RTVSPropertyOp50
 70
     1
102
RTVSPropertyOp51
 70
     0
102
RTVSPropertyOp52
 70
     0
102
RTVSPropertyOp53
 70
     1
102
RTVSPropertyOp54
 70
     1
102
RTVSPropertyOp55
 70
     1
102
RTVSPropertyOp56
 70
     1
102
RTVSPropertyOp57
 70
     1
102
RTVSPropertyOp58
 70
     1
102
RTVSPropertyOp59
 70
     1
102
RTVSPropertyOp60
 70
     1
102
RTVSPropertyOp61
 70
     1
102
RTVSPropertyOp62
 70
     1
  0
XRECORD
  5
3F46
102
{ACAD_REACTORS
330
3F45
102
}
330
3F45
100
AcDbXrecord
280
     1
102
RTVSPost2010Prop28
280
     0
102
RTVSPost2010PropOp28
 70
     1
102
RTVSPost2010Prop29
280
     1
102
RTVSPost2010PropOp29
 70
     1
102
RTVSPost2010Prop30
280
     1
102
RTVSPost2010PropOp30
 70
     1
102
RTVSPost2010Prop31
280
     0
102
RTVSPost2010PropOp31
 70
     1
102
RTVSPost2010Prop32
280
     0
102
RTVSPost2010PropOp32
 70
     1
102
RTVSPost2010Prop33
280
     0
102
RTVSPost2010PropOp33
 70
     1
102
RTVSPost2010Prop34
280
     0
102
RTVSPost2010PropOp34
 70
     1
102
RTVSPost2010Prop35
280
     0
102
RTVSPost2010PropOp35
 70
     1
102
RTVSPost2010Prop36
280
     0
102
RTVSPost2010PropOp36
 70
     1
102
RTVSPost2010Prop37
 90
       50
102
RTVSPost2010PropOp37
 70
     1
102
RTVSPost2010Prop38
140
0.0
102
RTVSPost2010PropOp38
 70
     1
102
RTVSPost2010Prop39
140
1.0
102
RTVSPost2010PropOp39
 70
     1
102
RTVSPost2010Prop40
 90
        0
102
RTVSPost2010PropOp40
 70
     1
102
RTVSPost2010Prop41ColorIndex
 90
       18
102
RTVSPost2010Prop41ColorRGB
 90
        0
102
RTVSPost2010PropOp41
 70
     1
102
RTVSPost2010Prop42
 90
       50
102
RTVSPost2010PropOp42
 70
     1
102
RTVSPost2010Prop43
 90
        3
102
RTVSPost2010PropOp43
 70
     1
102
RTVSPost2010Prop44ColorIndex
 90
        5
102
RTVSPost2010Prop44ColorRGB
 90
      255
102
RTVSPost2010PropOp44
 70
     1
102
RTVSPost2010Prop45
280
     0
102
RTVSPost2010PropOp45
 70
     1
102
RTVSPost2010Prop46
 90
       50
102
RTVSPost2010PropOp46
 70
     1
102
RTVSPost2010Prop47
 90
       50
102
RTVSPost2010PropOp47
 70
     1
102
RTVSPost2010Prop48
 90
       50
102
RTVSPost2010PropOp48
 70
     1
102
RTVSPost2010Prop49
280
     0
102
RTVSPost2010PropOp49
 70
     1
102
RTVSPost2010Prop50
 90
       50
102
RTVSPost2010PropOp50
 70
     1
102
RTVSPost2010Prop51ColorIndex
 90
      256
102
RTVSPost2010Prop51ColorRGB
 90
-16777216
102
RTVSPost2010PropOp51
 70
     0
102
RTVSPost2010Prop52
140
1.0
102
RTVSPost2010PropOp52
 70
     0
102
RTVSPost2010Prop53
 90
        2
102
RTVSPost2010PropOp53
 70
     1
102
RTVSPost2010Prop54
  1
strokes_ogs.tif
102
RTVSPost2010PropOp54
 70
     1
102
RTVSPost2010Prop55
280
     0
102
RTVSPost2010PropOp55
 70
     1
102
RTVSPost2010Prop56
140
1.0
102
RTVSPost2010PropOp56
 70
     1
102
RTVSPost2010Prop57
140
1.0
102
RTVSPost2010PropOp57
 70
     1
102
RTVSPropertyOp0
 70
     1
102
RTVSPropertyOp1
 70
     1
102
RTVSPropertyOp2
 70
     1
102
RTVSPropertyOp3
 70
     1
102
RTVSPropertyOp4
 70
     1
102
RTVSPropertyOp5
 70
     1
102
RTVSPropertyOp6
 70
     1
102
RTVSPropertyOp7
 70
     1
102
RTVSPropertyOp8
 70
     1
102
RTVSPropertyOp9
 70
     1
102
RTVSPropertyOp10
 70
     1
102
RTVSPropertyOp11
 70
     1
102
RTVSPropertyOp12
 70
     1
102
RTVSPropertyOp13
 70
     1
102
RTVSPropertyOp14
 70
     1
102
RTVSPropertyOp15
 70
     1
102
RTVSPropertyOp16
 70
     1
102
RTVSPropertyOp17
 70
     1
102
RTVSPropertyOp18
 70
     1
102
RTVSPropertyOp19
 70
     1
102
RTVSPropertyOp20
 70
     1
102
RTVSPropertyOp21
 70
     1
102
RTVSPropertyOp22
 70
     1
102
RTVSPropertyOp23
 70
     1
102
RTVSPropertyOp24
 70
     1
102
RTVSPropertyOp25
 70
     1
102
RTVSPropertyOp26
 70
     1
102
RTVSPropertyOp27
 70
     1
102
RTVSPropertyOp28
 70
     1
102
RTVSPropertyOp29
 70
     1
102
RTVSPropertyOp30
 70
     1
102
RTVSPropertyOp31
 70
     1
102
RTVSPropertyOp32
 70
     1
102
RTVSPropertyOp33
 70
     1
102
RTVSPropertyOp34
 70
     1
102
RTVSPropertyOp35
 70
     1
102
RTVSPropertyOp36
 70
     1
102
RTVSPropertyOp37
 70
     1
102
RTVSPropertyOp38
 70
     1
102
RTVSPropertyOp39
 70
     1
102
RTVSPropertyOp40
 70
     1
102
RTVSPropertyOp41
 70
     1
102
RTVSPropertyOp42
 70
     1
102
RTVSPropertyOp43
 70
     1
102
RTVSPropertyOp44
 70
     1
102
RTVSPropertyOp45
 70
     1
102
RTVSPropertyOp46
 70
     1
102
RTVSPropertyOp47
 70
     1
102
RTVSPropertyOp48
 70
     1
102
RTVSPropertyOp49
 70
     1
102
RTVSPropertyOp50
 70
     1
102
RTVSPropertyOp51
 70
     0
102
RTVSPropertyOp52
 70
     0
102
RTVSPropertyOp53
 70
     1
102
RTVSPropertyOp54
 70
     1
102
RTVSPropertyOp55
 70
     1
102
RTVSPropertyOp56
 70
     1
102
RTVSPropertyOp57
 70
     1
102
RTVSPropertyOp58
 70
     1
102
RTVSPropertyOp59
 70
     1
102
RTVSPropertyOp60
 70
     1
102
RTVSPropertyOp61
 70
     1
102
RTVSPropertyOp62
 70
     1
  0
XRECORD
  5
3F77
102
{ACAD_REACTORS
330
3F76
102
}
330
3F76
100
AcDbXrecord
280
     1
102
RTVSPost2010Prop28
280
     0
102
RTVSPost2010PropOp28
 70
     1
102
RTVSPost2010Prop29
280
     1
102
RTVSPost2010PropOp29
 70
     1
102
RTVSPost2010Prop30
280
     1
102
RTVSPost2010PropOp30
 70
     1
102
RTVSPost2010Prop31
280
     0
102
RTVSPost2010PropOp31
 70
     1
102
RTVSPost2010Prop32
280
     0
102
RTVSPost2010PropOp32
 70
     1
102
RTVSPost2010Prop33
280
     0
102
RTVSPost2010PropOp33
 70
     1
102
RTVSPost2010Prop34
280
     0
102
RTVSPost2010PropOp34
 70
     1
102
RTVSPost2010Prop35
280
     0
102
RTVSPost2010PropOp35
 70
     1
102
RTVSPost2010Prop36
280
     0
102
RTVSPost2010PropOp36
 70
     1
102
RTVSPost2010Prop37
 90
       50
102
RTVSPost2010PropOp37
 70
     1
102
RTVSPost2010Prop38
140
0.0
102
RTVSPost2010PropOp38
 70
     1
102
RTVSPost2010Prop39
140
1.0
102
RTVSPost2010PropOp39
 70
     1
102
RTVSPost2010Prop40
 90
        0
102
RTVSPost2010PropOp40
 70
     1
102
RTVSPost2010Prop41ColorIndex
 90
       18
102
RTVSPost2010Prop41ColorRGB
 90
        0
102
RTVSPost2010PropOp41
 70
     1
102
RTVSPost2010Prop42
 90
       50
102
RTVSPost2010PropOp42
 70
     1
102
RTVSPost2010Prop43
 90
        3
102
RTVSPost2010PropOp43
 70
     1
102
RTVSPost2010Prop44ColorIndex
 90
        5
102
RTVSPost2010Prop44ColorRGB
 90
      255
102
RTVSPost2010PropOp44
 70
     1
102
RTVSPost2010Prop45
280
     0
102
RTVSPost2010PropOp45
 70
     1
102
RTVSPost2010Prop46
 90
       50
102
RTVSPost2010PropOp46
 70
     1
102
RTVSPost2010Prop47
 90
       50
102
RTVSPost2010PropOp47
 70
     1
102
RTVSPost2010Prop48
 90
       50
102
RTVSPost2010PropOp48
 70
     1
102
RTVSPost2010Prop49
280
     0
102
RTVSPost2010PropOp49
 70
     1
102
RTVSPost2010Prop50
 90
       50
102
RTVSPost2010PropOp50
 70
     1
102
RTVSPost2010Prop51ColorIndex
 90
      256
102
RTVSPost2010Prop51ColorRGB
 90
-16777216
102
RTVSPost2010PropOp51
 70
     0
102
RTVSPost2010Prop52
140
1.0
102
RTVSPost2010PropOp52
 70
     0
102
RTVSPost2010Prop53
 90
        2
102
RTVSPost2010PropOp53
 70
     1
102
RTVSPost2010Prop54
  1
strokes_ogs.tif
102
RTVSPost2010PropOp54
 70
     1
102
RTVSPost2010Prop55
280
     0
102
RTVSPost2010PropOp55
 70
     1
102
RTVSPost2010Prop56
140
1.0
102
RTVSPost2010PropOp56
 70
     1
102
RTVSPost2010Prop57
140
1.0
102
RTVSPost2010PropOp57
 70
     1
102
RTVSPropertyOp0
 70
     1
102
RTVSPropertyOp1
 70
     1
102
RTVSPropertyOp2
 70
     1
102
RTVSPropertyOp3
 70
     1
102
RTVSPropertyOp4
 70
     1
102
RTVSPropertyOp5
 70
     1
102
RTVSPropertyOp6
 70
     1
102
RTVSPropertyOp7
 70
     1
102
RTVSPropertyOp8
 70
     1
102
RTVSPropertyOp9
 70
     1
102
RTVSPropertyOp10
 70
     1
102
RTVSPropertyOp11
 70
     1
102
RTVSPropertyOp12
 70
     1
102
RTVSPropertyOp13
 70
     1
102
RTVSPropertyOp14
 70
     1
102
RTVSPropertyOp15
 70
     1
102
RTVSPropertyOp16
 70
     1
102
RTVSPropertyOp17
 70
     1
102
RTVSPropertyOp18
 70
     1
102
RTVSPropertyOp19
 70
     1
102
RTVSPropertyOp20
 70
     1
102
RTVSPropertyOp21
 70
     1
102
RTVSPropertyOp22
 70
     1
102
RTVSPropertyOp23
 70
     1
102
RTVSPropertyOp24
 70
     1
102
RTVSPropertyOp25
 70
     1
102
RTVSPropertyOp26
 70
     1
102
RTVSPropertyOp27
 70
     1
102
RTVSPropertyOp28
 70
     1
102
RTVSPropertyOp29
 70
     1
102
RTVSPropertyOp30
 70
     1
102
RTVSPropertyOp31
 70
     1
102
RTVSPropertyOp32
 70
     1
102
RTVSPropertyOp33
 70
     1
102
RTVSPropertyOp34
 70
     1
102
RTVSPropertyOp35
 70
     1
102
RTVSPropertyOp36
 70
     1
102
RTVSPropertyOp37
 70
     1
102
RTVSPropertyOp38
 70
     1
102
RTVSPropertyOp39
 70
     1
102
RTVSPropertyOp40
 70
     1
102
RTVSPropertyOp41
 70
     1
102
RTVSPropertyOp42
 70
     1
102
RTVSPropertyOp43
 70
     1
102
RTVSPropertyOp44
 70
     1
102
RTVSPropertyOp45
 70
     1
102
RTVSPropertyOp46
 70
     1
102
RTVSPropertyOp47
 70
     1
102
RTVSPropertyOp48
 70
     1
102
RTVSPropertyOp49
 70
     1
102
RTVSPropertyOp50
 70
     1
102
RTVSPropertyOp51
 70
     0
102
RTVSPropertyOp52
 70
     0
102
RTVSPropertyOp53
 70
     1
102
RTVSPropertyOp54
 70
     1
102
RTVSPropertyOp55
 70
     1
102
RTVSPropertyOp56
 70
     1
102
RTVSPropertyOp57
 70
     1
102
RTVSPropertyOp58
 70
     1
102
RTVSPropertyOp59
 70
     1
102
RTVSPropertyOp60
 70
     1
102
RTVSPropertyOp61
 70
     1
102
RTVSPropertyOp62
 70
     1
  0
XRECORD
  5
3F75
102
{ACAD_REACTORS
330
3F74
102
}
330
3F74
100
AcDbXrecord
280
     1
102
RTVSPost2010Prop28
280
     0
102
RTVSPost2010PropOp28
 70
     1
102
RTVSPost2010Prop29
280
     1
102
RTVSPost2010PropOp29
 70
     1
102
RTVSPost2010Prop30
280
     1
102
RTVSPost2010PropOp30
 70
     1
102
RTVSPost2010Prop31
280
     0
102
RTVSPost2010PropOp31
 70
     1
102
RTVSPost2010Prop32
280
     0
102
RTVSPost2010PropOp32
 70
     1
102
RTVSPost2010Prop33
280
     0
102
RTVSPost2010PropOp33
 70
     1
102
RTVSPost2010Prop34
280
     0
102
RTVSPost2010PropOp34
 70
     1
102
RTVSPost2010Prop35
280
     0
102
RTVSPost2010PropOp35
 70
     1
102
RTVSPost2010Prop36
280
     0
102
RTVSPost2010PropOp36
 70
     1
102
RTVSPost2010Prop37
 90
       50
102
RTVSPost2010PropOp37
 70
     1
102
RTVSPost2010Prop38
140
0.0
102
RTVSPost2010PropOp38
 70
     1
102
RTVSPost2010Prop39
140
1.0
102
RTVSPost2010PropOp39
 70
     1
102
RTVSPost2010Prop40
 90
        0
102
RTVSPost2010PropOp40
 70
     1
102
RTVSPost2010Prop41ColorIndex
 90
       18
102
RTVSPost2010Prop41ColorRGB
 90
        0
102
RTVSPost2010PropOp41
 70
     1
102
RTVSPost2010Prop42
 90
       50
102
RTVSPost2010PropOp42
 70
     1
102
RTVSPost2010Prop43
 90
        3
102
RTVSPost2010PropOp43
 70
     1
102
RTVSPost2010Prop44ColorIndex
 90
        5
102
RTVSPost2010Prop44ColorRGB
 90
      255
102
RTVSPost2010PropOp44
 70
     1
102
RTVSPost2010Prop45
280
     0
102
RTVSPost2010PropOp45
 70
     1
102
RTVSPost2010Prop46
 90
       50
102
RTVSPost2010PropOp46
 70
     1
102
RTVSPost2010Prop47
 90
       50
102
RTVSPost2010PropOp47
 70
     1
102
RTVSPost2010Prop48
 90
       50
102
RTVSPost2010PropOp48
 70
     1
102
RTVSPost2010Prop49
280
     0
102
RTVSPost2010PropOp49
 70
     1
102
RTVSPost2010Prop50
 90
       50
102
RTVSPost2010PropOp50
 70
     1
102
RTVSPost2010Prop51ColorIndex
 90
      256
102
RTVSPost2010Prop51ColorRGB
 90
-16777216
102
RTVSPost2010PropOp51
 70
     0
102
RTVSPost2010Prop52
140
1.0
102
RTVSPost2010PropOp52
 70
     0
102
RTVSPost2010Prop53
 90
        2
102
RTVSPost2010PropOp53
 70
     1
102
RTVSPost2010Prop54
  1
strokes_ogs.tif
102
RTVSPost2010PropOp54
 70
     1
102
RTVSPost2010Prop55
280
     0
102
RTVSPost2010PropOp55
 70
     1
102
RTVSPost2010Prop56
140
1.0
102
RTVSPost2010PropOp56
 70
     1
102
RTVSPost2010Prop57
140
1.0
102
RTVSPost2010PropOp57
 70
     1
102
RTVSPropertyOp0
 70
     1
102
RTVSPropertyOp1
 70
     1
102
RTVSPropertyOp2
 70
     1
102
RTVSPropertyOp3
 70
     1
102
RTVSPropertyOp4
 70
     1
102
RTVSPropertyOp5
 70
     1
102
RTVSPropertyOp6
 70
     1
102
RTVSPropertyOp7
 70
     1
102
RTVSPropertyOp8
 70
     1
102
RTVSPropertyOp9
 70
     1
102
RTVSPropertyOp10
 70
     1
102
RTVSPropertyOp11
 70
     1
102
RTVSPropertyOp12
 70
     1
102
RTVSPropertyOp13
 70
     1
102
RTVSPropertyOp14
 70
     1
102
RTVSPropertyOp15
 70
     1
102
RTVSPropertyOp16
 70
     1
102
RTVSPropertyOp17
 70
     1
102
RTVSPropertyOp18
 70
     1
102
RTVSPropertyOp19
 70
     1
102
RTVSPropertyOp20
 70
     1
102
RTVSPropertyOp21
 70
     1
102
RTVSPropertyOp22
 70
     1
102
RTVSPropertyOp23
 70
     1
102
RTVSPropertyOp24
 70
     1
102
RTVSPropertyOp25
 70
     1
102
RTVSPropertyOp26
 70
     1
102
RTVSPropertyOp27
 70
     1
102
RTVSPropertyOp28
 70
     1
102
RTVSPropertyOp29
 70
     1
102
RTVSPropertyOp30
 70
     1
102
RTVSPropertyOp31
 70
     1
102
RTVSPropertyOp32
 70
     1
102
RTVSPropertyOp33
 70
     1
102
RTVSPropertyOp34
 70
     1
102
RTVSPropertyOp35
 70
     1
102
RTVSPropertyOp36
 70
     1
102
RTVSPropertyOp37
 70
     1
102
RTVSPropertyOp38
 70
     1
102
RTVSPropertyOp39
 70
     1
102
RTVSPropertyOp40
 70
     1
102
RTVSPropertyOp41
 70
     1
102
RTVSPropertyOp42
 70
     1
102
RTVSPropertyOp43
 70
     1
102
RTVSPropertyOp44
 70
     1
102
RTVSPropertyOp45
 70
     1
102
RTVSPropertyOp46
 70
     1
102
RTVSPropertyOp47
 70
     1
102
RTVSPropertyOp48
 70
     1
102
RTVSPropertyOp49
 70
     1
102
RTVSPropertyOp50
 70
     1
102
RTVSPropertyOp51
 70
     0
102
RTVSPropertyOp52
 70
     0
102
RTVSPropertyOp53
 70
     1
102
RTVSPropertyOp54
 70
     1
102
RTVSPropertyOp55
 70
     1
102
RTVSPropertyOp56
 70
     1
102
RTVSPropertyOp57
 70
     1
102
RTVSPropertyOp58
 70
     1
102
RTVSPropertyOp59
 70
     1
102
RTVSPropertyOp60
 70
     1
102
RTVSPropertyOp61
 70
     1
102
RTVSPropertyOp62
 70
     1
  0
XRECORD
  5
3F6F
102
{ACAD_REACTORS
330
3F6E
102
}
330
3F6E
100
AcDbXrecord
280
     1
102
RTVSPost2010Prop28
280
     0
102
RTVSPost2010PropOp28
 70
     1
102
RTVSPost2010Prop29
280
     1
102
RTVSPost2010PropOp29
 70
     1
102
RTVSPost2010Prop30
280
     1
102
RTVSPost2010PropOp30
 70
     1
102
RTVSPost2010Prop31
280
     0
102
RTVSPost2010PropOp31
 70
     1
102
RTVSPost2010Prop32
280
     0
102
RTVSPost2010PropOp32
 70
     1
102
RTVSPost2010Prop33
280
     0
102
RTVSPost2010PropOp33
 70
     1
102
RTVSPost2010Prop34
280
     0
102
RTVSPost2010PropOp34
 70
     1
102
RTVSPost2010Prop35
280
     0
102
RTVSPost2010PropOp35
 70
     1
102
RTVSPost2010Prop36
280
     0
102
RTVSPost2010PropOp36
 70
     1
102
RTVSPost2010Prop37
 90
       50
102
RTVSPost2010PropOp37
 70
     1
102
RTVSPost2010Prop38
140
0.0
102
RTVSPost2010PropOp38
 70
     1
102
RTVSPost2010Prop39
140
1.0
102
RTVSPost2010PropOp39
 70
     1
102
RTVSPost2010Prop40
 90
        0
102
RTVSPost2010PropOp40
 70
     1
102
RTVSPost2010Prop41ColorIndex
 90
       18
102
RTVSPost2010Prop41ColorRGB
 90
        0
102
RTVSPost2010PropOp41
 70
     1
102
RTVSPost2010Prop42
 90
       50
102
RTVSPost2010PropOp42
 70
     1
102
RTVSPost2010Prop43
 90
        3
102
RTVSPost2010PropOp43
 70
     1
102
RTVSPost2010Prop44ColorIndex
 90
        5
102
RTVSPost2010Prop44ColorRGB
 90
      255
102
RTVSPost2010PropOp44
 70
     1
102
RTVSPost2010Prop45
280
     0
102
RTVSPost2010PropOp45
 70
     1
102
RTVSPost2010Prop46
 90
       50
102
RTVSPost2010PropOp46
 70
     1
102
RTVSPost2010Prop47
 90
       50
102
RTVSPost2010PropOp47
 70
     1
102
RTVSPost2010Prop48
 90
       50
102
RTVSPost2010PropOp48
 70
     1
102
RTVSPost2010Prop49
280
     0
102
RTVSPost2010PropOp49
 70
     1
102
RTVSPost2010Prop50
 90
       50
102
RTVSPost2010PropOp50
 70
     1
102
RTVSPost2010Prop51ColorIndex
 90
      256
102
RTVSPost2010Prop51ColorRGB
 90
-16777216
102
RTVSPost2010PropOp51
 70
     0
102
RTVSPost2010Prop52
140
1.0
102
RTVSPost2010PropOp52
 70
     0
102
RTVSPost2010Prop53
 90
        2
102
RTVSPost2010PropOp53
 70
     1
102
RTVSPost2010Prop54
  1
strokes_ogs.tif
102
RTVSPost2010PropOp54
 70
     1
102
RTVSPost2010Prop55
280
     0
102
RTVSPost2010PropOp55
 70
     1
102
RTVSPost2010Prop56
140
1.0
102
RTVSPost2010PropOp56
 70
     1
102
RTVSPost2010Prop57
140
1.0
102
RTVSPost2010PropOp57
 70
     1
102
RTVSPropertyOp0
 70
     1
102
RTVSPropertyOp1
 70
     1
102
RTVSPropertyOp2
 70
     1
102
RTVSPropertyOp3
 70
     1
102
RTVSPropertyOp4
 70
     1
102
RTVSPropertyOp5
 70
     1
102
RTVSPropertyOp6
 70
     1
102
RTVSPropertyOp7
 70
     1
102
RTVSPropertyOp8
 70
     1
102
RTVSPropertyOp9
 70
     1
102
RTVSPropertyOp10
 70
     1
102
RTVSPropertyOp11
 70
     1
102
RTVSPropertyOp12
 70
     1
102
RTVSPropertyOp13
 70
     1
102
RTVSPropertyOp14
 70
     1
102
RTVSPropertyOp15
 70
     1
102
RTVSPropertyOp16
 70
     1
102
RTVSPropertyOp17
 70
     1
102
RTVSPropertyOp18
 70
     1
102
RTVSPropertyOp19
 70
     1
102
RTVSPropertyOp20
 70
     1
102
RTVSPropertyOp21
 70
     1
102
RTVSPropertyOp22
 70
     1
102
RTVSPropertyOp23
 70
     1
102
RTVSPropertyOp24
 70
     1
102
RTVSPropertyOp25
 70
     1
102
RTVSPropertyOp26
 70
     1
102
RTVSPropertyOp27
 70
     1
102
RTVSPropertyOp28
 70
     1
102
RTVSPropertyOp29
 70
     1
102
RTVSPropertyOp30
 70
     1
102
RTVSPropertyOp31
 70
     1
102
RTVSPropertyOp32
 70
     1
102
RTVSPropertyOp33
 70
     1
102
RTVSPropertyOp34
 70
     1
102
RTVSPropertyOp35
 70
     1
102
RTVSPropertyOp36
 70
     1
102
RTVSPropertyOp37
 70
     1
102
RTVSPropertyOp38
 70
     1
102
RTVSPropertyOp39
 70
     1
102
RTVSPropertyOp40
 70
     1
102
RTVSPropertyOp41
 70
     1
102
RTVSPropertyOp42
 70
     1
102
RTVSPropertyOp43
 70
     1
102
RTVSPropertyOp44
 70
     1
102
RTVSPropertyOp45
 70
     1
102
RTVSPropertyOp46
 70
     1
102
RTVSPropertyOp47
 70
     1
102
RTVSPropertyOp48
 70
     1
102
RTVSPropertyOp49
 70
     1
102
RTVSPropertyOp50
 70
     1
102
RTVSPropertyOp51
 70
     0
102
RTVSPropertyOp52
 70
     0
102
RTVSPropertyOp53
 70
     1
102
RTVSPropertyOp54
 70
     1
102
RTVSPropertyOp55
 70
     1
102
RTVSPropertyOp56
 70
     1
102
RTVSPropertyOp57
 70
     1
102
RTVSPropertyOp58
 70
     1
102
RTVSPropertyOp59
 70
     1
102
RTVSPropertyOp60
 70
     1
102
RTVSPropertyOp61
 70
     1
102
RTVSPropertyOp62
 70
     1
  0
XRECORD
  5
3F71
102
{ACAD_REACTORS
330
3F70
102
}
330
3F70
100
AcDbXrecord
280
     1
102
RTVSPost2010Prop28
280
     0
102
RTVSPost2010PropOp28
 70
     1
102
RTVSPost2010Prop29
280
     1
102
RTVSPost2010PropOp29
 70
     1
102
RTVSPost2010Prop30
280
     1
102
RTVSPost2010PropOp30
 70
     1
102
RTVSPost2010Prop31
280
     0
102
RTVSPost2010PropOp31
 70
     1
102
RTVSPost2010Prop32
280
     0
102
RTVSPost2010PropOp32
 70
     1
102
RTVSPost2010Prop33
280
     0
102
RTVSPost2010PropOp33
 70
     1
102
RTVSPost2010Prop34
280
     0
102
RTVSPost2010PropOp34
 70
     1
102
RTVSPost2010Prop35
280
     0
102
RTVSPost2010PropOp35
 70
     1
102
RTVSPost2010Prop36
280
     0
102
RTVSPost2010PropOp36
 70
     1
102
RTVSPost2010Prop37
 90
       50
102
RTVSPost2010PropOp37
 70
     1
102
RTVSPost2010Prop38
140
0.0
102
RTVSPost2010PropOp38
 70
     1
102
RTVSPost2010Prop39
140
1.0
102
RTVSPost2010PropOp39
 70
     1
102
RTVSPost2010Prop40
 90
        0
102
RTVSPost2010PropOp40
 70
     1
102
RTVSPost2010Prop41ColorIndex
 90
       18
102
RTVSPost2010Prop41ColorRGB
 90
        0
102
RTVSPost2010PropOp41
 70
     1
102
RTVSPost2010Prop42
 90
       50
102
RTVSPost2010PropOp42
 70
     1
102
RTVSPost2010Prop43
 90
        3
102
RTVSPost2010PropOp43
 70
     1
102
RTVSPost2010Prop44ColorIndex
 90
        5
102
RTVSPost2010Prop44ColorRGB
 90
      255
102
RTVSPost2010PropOp44
 70
     1
102
RTVSPost2010Prop45
280
     0
102
RTVSPost2010PropOp45
 70
     1
102
RTVSPost2010Prop46
 90
       50
102
RTVSPost2010PropOp46
 70
     1
102
RTVSPost2010Prop47
 90
       50
102
RTVSPost2010PropOp47
 70
     1
102
RTVSPost2010Prop48
 90
       50
102
RTVSPost2010PropOp48
 70
     1
102
RTVSPost2010Prop49
280
     0
102
RTVSPost2010PropOp49
 70
     1
102
RTVSPost2010Prop50
 90
       50
102
RTVSPost2010PropOp50
 70
     1
102
RTVSPost2010Prop51ColorIndex
 90
      256
102
RTVSPost2010Prop51ColorRGB
 90
-16777216
102
RTVSPost2010PropOp51
 70
     0
102
RTVSPost2010Prop52
140
1.0
102
RTVSPost2010PropOp52
 70
     0
102
RTVSPost2010Prop53
 90
        2
102
RTVSPost2010PropOp53
 70
     1
102
RTVSPost2010Prop54
  1
strokes_ogs.tif
102
RTVSPost2010PropOp54
 70
     1
102
RTVSPost2010Prop55
280
     0
102
RTVSPost2010PropOp55
 70
     1
102
RTVSPost2010Prop56
140
1.0
102
RTVSPost2010PropOp56
 70
     1
102
RTVSPost2010Prop57
140
1.0
102
RTVSPost2010PropOp57
 70
     1
102
RTVSPropertyOp0
 70
     1
102
RTVSPropertyOp1
 70
     1
102
RTVSPropertyOp2
 70
     1
102
RTVSPropertyOp3
 70
     1
102
RTVSPropertyOp4
 70
     1
102
RTVSPropertyOp5
 70
     1
102
RTVSPropertyOp6
 70
     1
102
RTVSPropertyOp7
 70
     1
102
RTVSPropertyOp8
 70
     1
102
RTVSPropertyOp9
 70
     1
102
RTVSPropertyOp10
 70
     1
102
RTVSPropertyOp11
 70
     1
102
RTVSPropertyOp12
 70
     1
102
RTVSPropertyOp13
 70
     1
102
RTVSPropertyOp14
 70
     1
102
RTVSPropertyOp15
 70
     1
102
RTVSPropertyOp16
 70
     1
102
RTVSPropertyOp17
 70
     1
102
RTVSPropertyOp18
 70
     1
102
RTVSPropertyOp19
 70
     1
102
RTVSPropertyOp20
 70
     1
102
RTVSPropertyOp21
 70
     1
102
RTVSPropertyOp22
 70
     1
102
RTVSPropertyOp23
 70
     1
102
RTVSPropertyOp24
 70
     1
102
RTVSPropertyOp25
 70
     1
102
RTVSPropertyOp26
 70
     1
102
RTVSPropertyOp27
 70
     1
102
RTVSPropertyOp28
 70
     1
102
RTVSPropertyOp29
 70
     1
102
RTVSPropertyOp30
 70
     1
102
RTVSPropertyOp31
 70
     1
102
RTVSPropertyOp32
 70
     1
102
RTVSPropertyOp33
 70
     1
102
RTVSPropertyOp34
 70
     1
102
RTVSPropertyOp35
 70
     1
102
RTVSPropertyOp36
 70
     1
102
RTVSPropertyOp37
 70
     1
102
RTVSPropertyOp38
 70
     1
102
RTVSPropertyOp39
 70
     1
102
RTVSPropertyOp40
 70
     1
102
RTVSPropertyOp41
 70
     1
102
RTVSPropertyOp42
 70
     1
102
RTVSPropertyOp43
 70
     1
102
RTVSPropertyOp44
 70
     1
102
RTVSPropertyOp45
 70
     1
102
RTVSPropertyOp46
 70
     1
102
RTVSPropertyOp47
 70
     1
102
RTVSPropertyOp48
 70
     1
102
RTVSPropertyOp49
 70
     1
102
RTVSPropertyOp50
 70
     1
102
RTVSPropertyOp51
 70
     0
102
RTVSPropertyOp52
 70
     0
102
RTVSPropertyOp53
 70
     1
102
RTVSPropertyOp54
 70
     1
102
RTVSPropertyOp55
 70
     1
102
RTVSPropertyOp56
 70
     1
102
RTVSPropertyOp57
 70
     1
102
RTVSPropertyOp58
 70
     1
102
RTVSPropertyOp59
 70
     1
102
RTVSPropertyOp60
 70
     1
102
RTVSPropertyOp61
 70
     1
102
RTVSPropertyOp62
 70
     1
  0
XRECORD
  5
3F4C
102
{ACAD_REACTORS
330
3F4B
102
}
330
3F4B
100
AcDbXrecord
280
     1
102
RTVSPost2010Prop28
280
     0
102
RTVSPost2010PropOp28
 70
     1
102
RTVSPost2010Prop29
280
     1
102
RTVSPost2010PropOp29
 70
     1
102
RTVSPost2010Prop30
280
     1
102
RTVSPost2010PropOp30
 70
     1
102
RTVSPost2010Prop31
280
     0
102
RTVSPost2010PropOp31
 70
     1
102
RTVSPost2010Prop32
280
     0
102
RTVSPost2010PropOp32
 70
     1
102
RTVSPost2010Prop33
280
     0
102
RTVSPost2010PropOp33
 70
     1
102
RTVSPost2010Prop34
280
     0
102
RTVSPost2010PropOp34
 70
     1
102
RTVSPost2010Prop35
280
     0
102
RTVSPost2010PropOp35
 70
     1
102
RTVSPost2010Prop36
280
     0
102
RTVSPost2010PropOp36
 70
     1
102
RTVSPost2010Prop37
 90
       50
102
RTVSPost2010PropOp37
 70
     1
102
RTVSPost2010Prop38
140
0.0
102
RTVSPost2010PropOp38
 70
     1
102
RTVSPost2010Prop39
140
1.0
102
RTVSPost2010PropOp39
 70
     1
102
RTVSPost2010Prop40
 90
        0
102
RTVSPost2010PropOp40
 70
     1
102
RTVSPost2010Prop41ColorIndex
 90
       18
102
RTVSPost2010Prop41ColorRGB
 90
        0
102
RTVSPost2010PropOp41
 70
     1
102
RTVSPost2010Prop42
 90
       50
102
RTVSPost2010PropOp42
 70
     1
102
RTVSPost2010Prop43
 90
        3
102
RTVSPost2010PropOp43
 70
     1
102
RTVSPost2010Prop44ColorIndex
 90
        5
102
RTVSPost2010Prop44ColorRGB
 90
      255
102
RTVSPost2010PropOp44
 70
     1
102
RTVSPost2010Prop45
280
     0
102
RTVSPost2010PropOp45
 70
     1
102
RTVSPost2010Prop46
 90
       50
102
RTVSPost2010PropOp46
 70
     1
102
RTVSPost2010Prop47
 90
       50
102
RTVSPost2010PropOp47
 70
     1
102
RTVSPost2010Prop48
 90
       50
102
RTVSPost2010PropOp48
 70
     1
102
RTVSPost2010Prop49
280
     0
102
RTVSPost2010PropOp49
 70
     1
102
RTVSPost2010Prop50
 90
       50
102
RTVSPost2010PropOp50
 70
     1
102
RTVSPost2010Prop51ColorIndex
 90
      256
102
RTVSPost2010Prop51ColorRGB
 90
-16777216
102
RTVSPost2010PropOp51
 70
     0
102
RTVSPost2010Prop52
140
1.0
102
RTVSPost2010PropOp52
 70
     0
102
RTVSPost2010Prop53
 90
        2
102
RTVSPost2010PropOp53
 70
     1
102
RTVSPost2010Prop54
  1
strokes_ogs.tif
102
RTVSPost2010PropOp54
 70
     1
102
RTVSPost2010Prop55
280
     0
102
RTVSPost2010PropOp55
 70
     1
102
RTVSPost2010Prop56
140
1.0
102
RTVSPost2010PropOp56
 70
     1
102
RTVSPost2010Prop57
140
1.0
102
RTVSPost2010PropOp57
 70
     1
102
RTVSPropertyOp0
 70
     1
102
RTVSPropertyOp1
 70
     1
102
RTVSPropertyOp2
 70
     1
102
RTVSPropertyOp3
 70
     1
102
RTVSPropertyOp4
 70
     1
102
RTVSPropertyOp5
 70
     1
102
RTVSPropertyOp6
 70
     1
102
RTVSPropertyOp7
 70
     1
102
RTVSPropertyOp8
 70
     1
102
RTVSPropertyOp9
 70
     1
102
RTVSPropertyOp10
 70
     1
102
RTVSPropertyOp11
 70
     1
102
RTVSPropertyOp12
 70
     1
102
RTVSPropertyOp13
 70
     1
102
RTVSPropertyOp14
 70
     1
102
RTVSPropertyOp15
 70
     1
102
RTVSPropertyOp16
 70
     1
102
RTVSPropertyOp17
 70
     1
102
RTVSPropertyOp18
 70
     1
102
RTVSPropertyOp19
 70
     1
102
RTVSPropertyOp20
 70
     1
102
RTVSPropertyOp21
 70
     1
102
RTVSPropertyOp22
 70
     1
102
RTVSPropertyOp23
 70
     1
102
RTVSPropertyOp24
 70
     1
102
RTVSPropertyOp25
 70
     1
102
RTVSPropertyOp26
 70
     1
102
RTVSPropertyOp27
 70
     1
102
RTVSPropertyOp28
 70
     1
102
RTVSPropertyOp29
 70
     1
102
RTVSPropertyOp30
 70
     1
102
RTVSPropertyOp31
 70
     1
102
RTVSPropertyOp32
 70
     1
102
RTVSPropertyOp33
 70
     1
102
RTVSPropertyOp34
 70
     1
102
RTVSPropertyOp35
 70
     1
102
RTVSPropertyOp36
 70
     1
102
RTVSPropertyOp37
 70
     1
102
RTVSPropertyOp38
 70
     1
102
RTVSPropertyOp39
 70
     1
102
RTVSPropertyOp40
 70
     1
102
RTVSPropertyOp41
 70
     1
102
RTVSPropertyOp42
 70
     1
102
RTVSPropertyOp43
 70
     1
102
RTVSPropertyOp44
 70
     1
102
RTVSPropertyOp45
 70
     1
102
RTVSPropertyOp46
 70
     1
102
RTVSPropertyOp47
 70
     1
102
RTVSPropertyOp48
 70
     1
102
RTVSPropertyOp49
 70
     1
102
RTVSPropertyOp50
 70
     1
102
RTVSPropertyOp51
 70
     0
102
RTVSPropertyOp52
 70
     0
102
RTVSPropertyOp53
 70
     1
102
RTVSPropertyOp54
 70
     1
102
RTVSPropertyOp55
 70
     1
102
RTVSPropertyOp56
 70
     1
102
RTVSPropertyOp57
 70
     1
102
RTVSPropertyOp58
 70
     1
102
RTVSPropertyOp59
 70
     1
102
RTVSPropertyOp60
 70
     1
102
RTVSPropertyOp61
 70
     1
102
RTVSPropertyOp62
 70
     1
  0
XRECORD
  5
3F6B
102
{ACAD_REACTORS
330
3F6A
102
}
330
3F6A
100
AcDbXrecord
280
     1
102
RTVSPost2010Prop28
280
     0
102
RTVSPost2010PropOp28
 70
     1
102
RTVSPost2010Prop29
280
     1
102
RTVSPost2010PropOp29
 70
     1
102
RTVSPost2010Prop30
280
     1
102
RTVSPost2010PropOp30
 70
     1
102
RTVSPost2010Prop31
280
     0
102
RTVSPost2010PropOp31
 70
     1
102
RTVSPost2010Prop32
280
     0
102
RTVSPost2010PropOp32
 70
     1
102
RTVSPost2010Prop33
280
     0
102
RTVSPost2010PropOp33
 70
     1
102
RTVSPost2010Prop34
280
     0
102
RTVSPost2010PropOp34
 70
     1
102
RTVSPost2010Prop35
280
     0
102
RTVSPost2010PropOp35
 70
     1
102
RTVSPost2010Prop36
280
     0
102
RTVSPost2010PropOp36
 70
     1
102
RTVSPost2010Prop37
 90
       50
102
RTVSPost2010PropOp37
 70
     1
102
RTVSPost2010Prop38
140
0.0
102
RTVSPost2010PropOp38
 70
     1
102
RTVSPost2010Prop39
140
1.0
102
RTVSPost2010PropOp39
 70
     1
102
RTVSPost2010Prop40
 90
        0
102
RTVSPost2010PropOp40
 70
     1
102
RTVSPost2010Prop41ColorIndex
 90
       18
102
RTVSPost2010Prop41ColorRGB
 90
        0
102
RTVSPost2010PropOp41
 70
     1
102
RTVSPost2010Prop42
 90
       50
102
RTVSPost2010PropOp42
 70
     1
102
RTVSPost2010Prop43
 90
        3
102
RTVSPost2010PropOp43
 70
     1
102
RTVSPost2010Prop44ColorIndex
 90
        5
102
RTVSPost2010Prop44ColorRGB
 90
      255
102
RTVSPost2010PropOp44
 70
     1
102
RTVSPost2010Prop45
280
     0
102
RTVSPost2010PropOp45
 70
     1
102
RTVSPost2010Prop46
 90
       50
102
RTVSPost2010PropOp46
 70
     1
102
RTVSPost2010Prop47
 90
       50
102
RTVSPost2010PropOp47
 70
     1
102
RTVSPost2010Prop48
 90
       50
102
RTVSPost2010PropOp48
 70
     1
102
RTVSPost2010Prop49
280
     0
102
RTVSPost2010PropOp49
 70
     1
102
RTVSPost2010Prop50
 90
       50
102
RTVSPost2010PropOp50
 70
     1
102
RTVSPost2010Prop51ColorIndex
 90
      256
102
RTVSPost2010Prop51ColorRGB
 90
-16777216
102
RTVSPost2010PropOp51
 70
     0
102
RTVSPost2010Prop52
140
1.0
102
RTVSPost2010PropOp52
 70
     0
102
RTVSPost2010Prop53
 90
        2
102
RTVSPost2010PropOp53
 70
     1
102
RTVSPost2010Prop54
  1
strokes_ogs.tif
102
RTVSPost2010PropOp54
 70
     1
102
RTVSPost2010Prop55
280
     0
102
RTVSPost2010PropOp55
 70
     1
102
RTVSPost2010Prop56
140
1.0
102
RTVSPost2010PropOp56
 70
     1
102
RTVSPost2010Prop57
140
1.0
102
RTVSPost2010PropOp57
 70
     1
102
RTVSPropertyOp0
 70
     1
102
RTVSPropertyOp1
 70
     1
102
RTVSPropertyOp2
 70
     1
102
RTVSPropertyOp3
 70
     1
102
RTVSPropertyOp4
 70
     1
102
RTVSPropertyOp5
 70
     1
102
RTVSPropertyOp6
 70
     1
102
RTVSPropertyOp7
 70
     1
102
RTVSPropertyOp8
 70
     1
102
RTVSPropertyOp9
 70
     1
102
RTVSPropertyOp10
 70
     1
102
RTVSPropertyOp11
 70
     1
102
RTVSPropertyOp12
 70
     1
102
RTVSPropertyOp13
 70
     1
102
RTVSPropertyOp14
 70
     1
102
RTVSPropertyOp15
 70
     1
102
RTVSPropertyOp16
 70
     1
102
RTVSPropertyOp17
 70
     1
102
RTVSPropertyOp18
 70
     1
102
RTVSPropertyOp19
 70
     1
102
RTVSPropertyOp20
 70
     1
102
RTVSPropertyOp21
 70
     1
102
RTVSPropertyOp22
 70
     1
102
RTVSPropertyOp23
 70
     1
102
RTVSPropertyOp24
 70
     1
102
RTVSPropertyOp25
 70
     1
102
RTVSPropertyOp26
 70
     1
102
RTVSPropertyOp27
 70
     1
102
RTVSPropertyOp28
 70
     1
102
RTVSPropertyOp29
 70
     1
102
RTVSPropertyOp30
 70
     1
102
RTVSPropertyOp31
 70
     1
102
RTVSPropertyOp32
 70
     1
102
RTVSPropertyOp33
 70
     1
102
RTVSPropertyOp34
 70
     1
102
RTVSPropertyOp35
 70
     1
102
RTVSPropertyOp36
 70
     1
102
RTVSPropertyOp37
 70
     1
102
RTVSPropertyOp38
 70
     1
102
RTVSPropertyOp39
 70
     1
102
RTVSPropertyOp40
 70
     1
102
RTVSPropertyOp41
 70
     1
102
RTVSPropertyOp42
 70
     1
102
RTVSPropertyOp43
 70
     1
102
RTVSPropertyOp44
 70
     1
102
RTVSPropertyOp45
 70
     1
102
RTVSPropertyOp46
 70
     1
102
RTVSPropertyOp47
 70
     1
102
RTVSPropertyOp48
 70
     1
102
RTVSPropertyOp49
 70
     1
102
RTVSPropertyOp50
 70
     1
102
RTVSPropertyOp51
 70
     0
102
RTVSPropertyOp52
 70
     0
102
RTVSPropertyOp53
 70
     1
102
RTVSPropertyOp54
 70
     1
102
RTVSPropertyOp55
 70
     1
102
RTVSPropertyOp56
 70
     1
102
RTVSPropertyOp57
 70
     1
102
RTVSPropertyOp58
 70
     1
102
RTVSPropertyOp59
 70
     1
102
RTVSPropertyOp60
 70
     1
102
RTVSPropertyOp61
 70
     1
102
RTVSPropertyOp62
 70
     1
  0
XRECORD
  5
3F73
102
{ACAD_REACTORS
330
3F72
102
}
330
3F72
100
AcDbXrecord
280
     1
102
RTVSPost2010Prop28
280
     0
102
RTVSPost2010PropOp28
 70
     1
102
RTVSPost2010Prop29
280
     1
102
RTVSPost2010PropOp29
 70
     1
102
RTVSPost2010Prop30
280
     1
102
RTVSPost2010PropOp30
 70
     1
102
RTVSPost2010Prop31
280
     0
102
RTVSPost2010PropOp31
 70
     1
102
RTVSPost2010Prop32
280
     0
102
RTVSPost2010PropOp32
 70
     1
102
RTVSPost2010Prop33
280
     0
102
RTVSPost2010PropOp33
 70
     1
102
RTVSPost2010Prop34
280
     0
102
RTVSPost2010PropOp34
 70
     1
102
RTVSPost2010Prop35
280
     0
102
RTVSPost2010PropOp35
 70
     1
102
RTVSPost2010Prop36
280
     0
102
RTVSPost2010PropOp36
 70
     1
102
RTVSPost2010Prop37
 90
       50
102
RTVSPost2010PropOp37
 70
     1
102
RTVSPost2010Prop38
140
0.0
102
RTVSPost2010PropOp38
 70
     1
102
RTVSPost2010Prop39
140
1.0
102
RTVSPost2010PropOp39
 70
     1
102
RTVSPost2010Prop40
 90
        0
102
RTVSPost2010PropOp40
 70
     1
102
RTVSPost2010Prop41ColorIndex
 90
       18
102
RTVSPost2010Prop41ColorRGB
 90
        0
102
RTVSPost2010PropOp41
 70
     1
102
RTVSPost2010Prop42
 90
       50
102
RTVSPost2010PropOp42
 70
     1
102
RTVSPost2010Prop43
 90
        3
102
RTVSPost2010PropOp43
 70
     1
102
RTVSPost2010Prop44ColorIndex
 90
        5
102
RTVSPost2010Prop44ColorRGB
 90
      255
102
RTVSPost2010PropOp44
 70
     1
102
RTVSPost2010Prop45
280
     0
102
RTVSPost2010PropOp45
 70
     1
102
RTVSPost2010Prop46
 90
       50
102
RTVSPost2010PropOp46
 70
     1
102
RTVSPost2010Prop47
 90
       50
102
RTVSPost2010PropOp47
 70
     1
102
RTVSPost2010Prop48
 90
       50
102
RTVSPost2010PropOp48
 70
     1
102
RTVSPost2010Prop49
280
     0
102
RTVSPost2010PropOp49
 70
     1
102
RTVSPost2010Prop50
 90
       50
102
RTVSPost2010PropOp50
 70
     1
102
RTVSPost2010Prop51ColorIndex
 90
      256
102
RTVSPost2010Prop51ColorRGB
 90
-16777216
102
RTVSPost2010PropOp51
 70
     0
102
RTVSPost2010Prop52
140
1.0
102
RTVSPost2010PropOp52
 70
     0
102
RTVSPost2010Prop53
 90
        2
102
RTVSPost2010PropOp53
 70
     1
102
RTVSPost2010Prop54
  1
strokes_ogs.tif
102
RTVSPost2010PropOp54
 70
     1
102
RTVSPost2010Prop55
280
     0
102
RTVSPost2010PropOp55
 70
     1
102
RTVSPost2010Prop56
140
1.0
102
RTVSPost2010PropOp56
 70
     1
102
RTVSPost2010Prop57
140
1.0
102
RTVSPost2010PropOp57
 70
     1
102
RTVSPropertyOp0
 70
     1
102
RTVSPropertyOp1
 70
     1
102
RTVSPropertyOp2
 70
     1
102
RTVSPropertyOp3
 70
     1
102
RTVSPropertyOp4
 70
     1
102
RTVSPropertyOp5
 70
     1
102
RTVSPropertyOp6
 70
     1
102
RTVSPropertyOp7
 70
     1
102
RTVSPropertyOp8
 70
     1
102
RTVSPropertyOp9
 70
     1
102
RTVSPropertyOp10
 70
     1
102
RTVSPropertyOp11
 70
     1
102
RTVSPropertyOp12
 70
     1
102
RTVSPropertyOp13
 70
     1
102
RTVSPropertyOp14
 70
     1
102
RTVSPropertyOp15
 70
     1
102
RTVSPropertyOp16
 70
     1
102
RTVSPropertyOp17
 70
     1
102
RTVSPropertyOp18
 70
     1
102
RTVSPropertyOp19
 70
     1
102
RTVSPropertyOp20
 70
     1
102
RTVSPropertyOp21
 70
     1
102
RTVSPropertyOp22
 70
     1
102
RTVSPropertyOp23
 70
     1
102
RTVSPropertyOp24
 70
     1
102
RTVSPropertyOp25
 70
     1
102
RTVSPropertyOp26
 70
     1
102
RTVSPropertyOp27
 70
     1
102
RTVSPropertyOp28
 70
     1
102
RTVSPropertyOp29
 70
     1
102
RTVSPropertyOp30
 70
     1
102
RTVSPropertyOp31
 70
     1
102
RTVSPropertyOp32
 70
     1
102
RTVSPropertyOp33
 70
     1
102
RTVSPropertyOp34
 70
     1
102
RTVSPropertyOp35
 70
     1
102
RTVSPropertyOp36
 70
     1
102
RTVSPropertyOp37
 70
     1
102
RTVSPropertyOp38
 70
     1
102
RTVSPropertyOp39
 70
     1
102
RTVSPropertyOp40
 70
     1
102
RTVSPropertyOp41
 70
     1
102
RTVSPropertyOp42
 70
     1
102
RTVSPropertyOp43
 70
     1
102
RTVSPropertyOp44
 70
     1
102
RTVSPropertyOp45
 70
     1
102
RTVSPropertyOp46
 70
     1
102
RTVSPropertyOp47
 70
     1
102
RTVSPropertyOp48
 70
     1
102
RTVSPropertyOp49
 70
     1
102
RTVSPropertyOp50
 70
     1
102
RTVSPropertyOp51
 70
     0
102
RTVSPropertyOp52
 70
     0
102
RTVSPropertyOp53
 70
     1
102
RTVSPropertyOp54
 70
     1
102
RTVSPropertyOp55
 70
     1
102
RTVSPropertyOp56
 70
     1
102
RTVSPropertyOp57
 70
     1
102
RTVSPropertyOp58
 70
     1
102
RTVSPropertyOp59
 70
     1
102
RTVSPropertyOp60
 70
     1
102
RTVSPropertyOp61
 70
     1
102
RTVSPropertyOp62
 70
     1
  0
ENDSEC
  0
EOF
