  0
SECTION
  2
HEADER
  9
$ACADVER
  1
AC1015
  9
$ACADMAINTVER
 70
    20
  9
$DWGCODEPAGE
  3
ANSI_932
  9
$INSBASE
 10
0.0
 20
0.0
 30
0.0
  9
$EXTMIN
 10
46.6093665786
 20
-20.0333149513
 30
0.0
  9
$EXTMAX
 10
779.7073389657
 20
439.9188897453
 30
0.0
  9
$LIMMIN
 10
0.0
 20
0.0
  9
$LIMMAX
 10
297.0
 20
210.0
  9
$ORTHOMODE
 70
     0
  9
$REGENMODE
 70
     1
  9
$FILLMODE
 70
     1
  9
$QTEXTMODE
 70
     0
  9
$MIRRTEXT
 70
     0
  9
$LTSCALE
 40
2.0
  9
$ATTMODE
 70
     1
  9
$TEXTSIZE
 40
2.0
  9
$TRACEWID
 40
1.0
  9
$TEXTSTYLE
  7
STANDARD
  9
$CLAYER
  8
0
  9
$CELTYPE
  6
BYLAYER
  9
$CECOLOR
 62
   256
  9
$CELTSCALE
 40
1.0
  9
$DISPSILH
 70
     0
  9
$DIMSCALE
 40
2.0
  9
$DIMASZ
 40
1.8
  9
$DIMEXO
 40
0.625
  9
$DIMDLI
 40
3.75
  9
$DIMRND
 40
0.0
  9
$DIMDLE
 40
0.0
  9
$DIMEXE
 40
0.8
  9
$DIMTP
 40
0.0
  9
$DIMTM
 40
0.0
  9
$DIMTXT
 40
1.8
  9
$DIMCEN
 40
2.5
  9
$DIMTSZ
 40
0.0
  9
$DIMTOL
 70
     0
  9
$DIMLIM
 70
     0
  9
$DIMTIH
 70
     0
  9
$DIMTOH
 70
     0
  9
$DIMSE1
 70
     0
  9
$DIMSE2
 70
     0
  9
$DIMTAD
 70
     1
  9
$DIMZIN
 70
     8
  9
$DIMBLK
  1

  9
$DIMASO
 70
     1
  9
$DIMSHO
 70
     1
  9
$DIMPOST
  1

  9
$DIMAPOST
  1

  9
$DIMALT
 70
     0
  9
$DIMALTD
 70
     4
  9
$DIMALTF
 40
0.0394
  9
$DIMLFAC
 40
1.0
  9
$DIMTOFL
 70
     1
  9
$DIMTVP
 40
0.0
  9
$DIMTIX
 70
     0
  9
$DIMSOXD
 70
     0
  9
$DIMSAH
 70
     0
  9
$DIMBLK1
  1

  9
$DIMBLK2
  1

  9
$DIMSTYLE
  2
STANDARD
  9
$DIMCLRD
 70
     0
  9
$DIMCLRE
 70
     0
  9
$DIMCLRT
 70
     0
  9
$DIMTFAC
 40
1.0
  9
$DIMGAP
 40
0.75
  9
$DIMJUST
 70
     0
  9
$DIMSD1
 70
     0
  9
$DIMSD2
 70
     0
  9
$DIMTOLJ
 70
     1
  9
$DIMTZIN
 70
     0
  9
$DIMALTZ
 70
     0
  9
$DIMALTTZ
 70
     0
  9
$DIMUPT
 70
     0
  9
$DIMDEC
 70
     2
  9
$DIMTDEC
 70
     2
  9
$DIMALTU
 70
     8
  9
$DIMALTTD
 70
     4
  9
$DIMTXSTY
  7
STANDARD
  9
$DIMAUNIT
 70
     0
  9
$DIMADEC
 70
     2
  9
$DIMALTRND
 40
0.0
  9
$DIMAZIN
 70
     0
  9
$DIMDSEP
 70
    46
  9
$DIMATFIT
 70
     3
  9
$DIMFRAC
 70
     0
  9
$DIMLDRBLK
  1

  9
$DIMLUNIT
 70
     6
  9
$DIMLWD
 70
    -2
  9
$DIMLWE
 70
    -2
  9
$DIMTMOVE
 70
     0
  9
$LUNITS
 70
     2
  9
$LUPREC
 70
     3
  9
$SKETCHINC
 40
1.0
  9
$FILLETRAD
 40
10.0
  9
$AUNITS
 70
     0
  9
$AUPREC
 70
     2
  9
$MENU
  1
.
  9
$ELEVATION
 40
0.0
  9
$PELEVATION
 40
0.0
  9
$THICKNESS
 40
0.0
  9
$LIMCHECK
 70
     0
  9
$CHAMFERA
 40
0.0
  9
$CHAMFERB
 40
0.0
  9
$CHAMFERC
 40
20.0
  9
$CHAMFERD
 40
0.0
  9
$SKPOLY
 70
     0
  9
$TDCREATE
 40
2453557.747662037
  9
$TDUCREATE
 40
2453557.372662211
  9
$TDUPDATE
 40
2460164.366296297
  9
$TDUUPDATE
 40
2460163.991296297
  9
$TDINDWG
 40
0.4574088079
  9
$TDUSRTIMER
 40
0.4574084491
  9
$USRTIMER
 70
     1
  9
$ANGBASE
 50
0.0
  9
$ANGDIR
 70
     0
  9
$PDMODE
 70
     0
  9
$PDSIZE
 40
-10.0
  9
$PLINEWID
 40
0.0
  9
$SPLFRAME
 70
     0
  9
$SPLINETYPE
 70
     6
  9
$SPLINESEGS
 70
     8
  9
$HANDSEED
  5
4C42
  9
$SURFTAB1
 70
     6
  9
$SURFTAB2
 70
     6
  9
$SURFTYPE
 70
     6
  9
$SURFU
 70
     6
  9
$SURFV
 70
     6
  9
$UCSBASE
  2

  9
$UCSNAME
  2

  9
$UCSORG
 10
0.0
 20
0.0
 30
0.0
  9
$UCSXDIR
 10
1.0
 20
0.0
 30
0.0
  9
$UCSYDIR
 10
0.0
 20
1.0
 30
0.0
  9
$UCSORTHOREF
  2

  9
$UCSORTHOVIEW
 70
     0
  9
$UCSORGTOP
 10
0.0
 20
0.0
 30
0.0
  9
$UCSORGBOTTOM
 10
0.0
 20
0.0
 30
0.0
  9
$UCSORGLEFT
 10
0.0
 20
0.0
 30
0.0
  9
$UCSORGRIGHT
 10
0.0
 20
0.0
 30
0.0
  9
$UCSORGFRONT
 10
0.0
 20
0.0
 30
0.0
  9
$UCSORGBACK
 10
0.0
 20
0.0
 30
0.0
  9
$PUCSBASE
  2

  9
$PUCSNAME
  2

  9
$PUCSORG
 10
0.0
 20
0.0
 30
0.0
  9
$PUCSXDIR
 10
1.0
 20
0.0
 30
0.0
  9
$PUCSYDIR
 10
0.0
 20
1.0
 30
0.0
  9
$PUCSORTHOREF
  2

  9
$PUCSORTHOVIEW
 70
     0
  9
$PUCSORGTOP
 10
0.0
 20
0.0
 30
0.0
  9
$PUCSORGBOTTOM
 10
0.0
 20
0.0
 30
0.0
  9
$PUCSORGLEFT
 10
0.0
 20
0.0
 30
0.0
  9
$PUCSORGRIGHT
 10
0.0
 20
0.0
 30
0.0
  9
$PUCSORGFRONT
 10
0.0
 20
0.0
 30
0.0
  9
$PUCSORGBACK
 10
0.0
 20
0.0
 30
0.0
  9
$USERI1
 70
     0
  9
$USERI2
 70
     0
  9
$USERI3
 70
     0
  9
$USERI4
 70
     0
  9
$USERI5
 70
     0
  9
$USERR1
 40
0.0
  9
$USERR2
 40
0.0
  9
$USERR3
 40
0.0
  9
$USERR4
 40
0.0
  9
$USERR5
 40
0.0
  9
$WORLDVIEW
 70
     1
  9
$SHADEDGE
 70
     3
  9
$SHADEDIF
 70
    70
  9
$TILEMODE
 70
     1
  9
$MAXACTVP
 70
    48
  9
$PINSBASE
 10
0.0
 20
0.0
 30
0.0
  9
$PLIMCHECK
 70
     0
  9
$PEXTMIN
 10
0.0
 20
0.0
 30
0.0
  9
$PEXTMAX
 10
0.0
 20
0.0
 30
0.0
  9
$PLIMMIN
 10
0.0
 20
0.0
  9
$PLIMMAX
 10
12.0
 20
9.0
  9
$UNITMODE
 70
     0
  9
$VISRETAIN
 70
     1
  9
$PLINEGEN
 70
     0
  9
$PSLTSCALE
 70
     1
  9
$TREEDEPTH
 70
  3020
  9
$CMLSTYLE
  2
STANDARD
  9
$CMLJUST
 70
     0
  9
$CMLSCALE
 40
1.0
  9
$PROXYGRAPHICS
 70
     1
  9
$MEASUREMENT
 70
     0
  9
$CELWEIGHT
370
    -1
  9
$ENDCAPS
280
     0
  9
$JOINSTYLE
280
     0
  9
$LWDISPLAY
290
     0
  9
$INSUNITS
 70
     0
  9
$HYPERLINKBASE
  1

  9
$STYLESHEET
  1
SEKKEI.CTB
  9
$XEDIT
290
     1
  9
$CEPSNTYPE
380
     0
  9
$PSTYLEMODE
290
     1
  9
$FINGERPRINTGUID
  2
{6385560B-F4B1-4644-A7C2-A3E32AC3D232}
  9
$VERSIONGUID
  2
{247C5CEA-43B9-FB45-B5E5-6383CCD69191}
  9
$EXTNAMES
290
     1
  9
$PSVPSCALE
 40
0.0
  9
$OLESTARTUP
290
     0
  0
ENDSEC
  0
SECTION
  2
CLASSES
  0
CLASS
  1
DICTIONARYVAR
  2
AcDbDictionaryVar
  3
ObjectDBX Classes
 90
        0
280
     0
281
     0
  0
CLASS
  1
ACDBDICTIONARYWDFLT
  2
AcDbDictionaryWithDefault
  3
ObjectDBX Classes
 90
        0
280
     0
281
     0
  0
CLASS
  1
MATERIAL
  2
AcDbMaterial
  3
ObjectDBX Classes
 90
     1153
280
     0
281
     0
  0
CLASS
  1
VISUALSTYLE
  2
AcDbVisualStyle
  3
ObjectDBX Classes
 90
     4095
280
     0
281
     0
  0
CLASS
  1
TABLESTYLE
  2
AcDbTableStyle
  3
ObjectDBX Classes
 90
     4095
280
     0
281
     0
  0
CLASS
  1
SCALE
  2
AcDbScale
  3
ObjectDBX Classes
 90
     1153
280
     0
281
     0
  0
CLASS
  1
MLEADERSTYLE
  2
AcDbMLeaderStyle
  3
ACDB_MLEADERSTYLE_CLASS
 90
     4095
280
     0
281
     0
  0
CLASS
  1
CELLSTYLEMAP
  2
AcDbCellStyleMap
  3
ObjectDBX Classes
 90
     1152
280
     0
281
     0
  0
CLASS
  1
SORTENTSTABLE
  2
AcDbSortentsTable
  3
ObjectDBX Classes
 90
        0
280
     0
281
     0
  0
CLASS
  1
ACAD_EVALUATION_GRAPH
  2
AcDbEvalGraph
  3
ObjectDBX Classes
 90
    33921
280
     0
281
     0
  0
CLASS
  1
ACAECUSTOBJ
  2
AcAeEditorObj
  3
AcAeEditorObj
 90
    33792
280
     0
281
     0
  0
CLASS
  1
ACDB_DYNAMICBLOCKPURGEPREVENTER_VERSION
  2
AcDbDynamicBlockPurgePreventer
  3
ObjectDBX Classes
 90
    33921
280
     0
281
     0
  0
CLASS
  1
ACDBSECTIONVIEWSTYLE
  2
AcDbSectionViewStyle
  3
ObjectDBX Classes
 90
     1025
280
     0
281
     0
  0
CLASS
  1
ACDBDETAILVIEWSTYLE
  2
AcDbDetailViewStyle
  3
ObjectDBX Classes
 90
     1025
280
     0
281
     0
  0
CLASS
  1
ACDBPLACEHOLDER
  2
AcDbPlaceHolder
  3
ObjectDBX Classes
 90
        0
280
     0
281
     0
  0
CLASS
  1
LAYOUT
  2
AcDbLayout
  3
ObjectDBX Classes
 90
        0
280
     0
281
     0
  0
ENDSEC
  0
SECTION
  2
TABLES
  0
TABLE
  2
VPORT
  5
6E
102
{ACAD_XDICTIONARY
360
299B
102
}
330
0
100
AcDbSymbolTable
 70
     1
  0
VPORT
  5
2766
330
6E
100
AcDbSymbolTableRecord
100
AcDbViewportTableRecord
  2
*Active
 70
     0
 10
0.0
 20
0.0
 11
1.0
 21
1.0
 12
517.4381722308
 22
229.4115832063
 13
0.0
 23
0.0
 14
10.0
 24
10.0
 15
10.0
 25
10.0
 16
0.0
 26
0.0
 36
1.0
 17
0.0
 27
0.0
 37
0.0
 40
467.2356281468
 41
1.4710526316
 42
50.0
 43
0.0
 44
0.0
 50
0.0
 51
0.0
 71
     0
 72
   100
 73
     1
 74
     3
 75
     0
 76
     0
 77
     0
 78
     0
281
     0
 65
     1
110
0.0
120
0.0
130
0.0
111
1.0
121
0.0
131
0.0
112
0.0
122
1.0
132
0.0
 79
     0
146
0.0
1001
ACAD_NAV_VCDISPLAY
1070
     3
  0
ENDTAB
  0
TABLE
  2
LTYPE
  5
69
330
0
100
AcDbSymbolTable
 70
     5
  0
LTYPE
  5
6A
330
69
100
AcDbSymbolTableRecord
100
AcDbLinetypeTableRecord
  2
BYBLOCK
 70
     0
  3

 72
    65
 73
     0
 40
0.0
  0
LTYPE
  5
6B
330
69
100
AcDbSymbolTableRecord
100
AcDbLinetypeTableRecord
  2
BYLAYER
 70
     0
  3

 72
    65
 73
     0
 40
0.0
  0
LTYPE
  5
8
330
69
100
AcDbSymbolTableRecord
100
AcDbLinetypeTableRecord
  2
CONTINUOUS
 70
     0
  3
Solid line
 72
    65
 73
     0
 40
0.0
  0
LTYPE
  5
27C
330
69
100
AcDbSymbolTableRecord
100
AcDbLinetypeTableRecord
  2
sekkei(A2)
 70
     0
  3
center(A2)  ____ _ ____ _ ____ _ ____ _ ____ _ 
 72
    65
 73
     4
 40
14.2875
 49
9.525
 74
     0
 49
-1.5875
 74
     0
 49
1.5875
 74
     0
 49
-1.5875
 74
     0
  0
LTYPE
  5
2B4
330
69
100
AcDbSymbolTableRecord
100
AcDbLinetypeTableRecord
  2
HIDDEN2
 70
     0
  3
Hidden (.5x) _ _ _ _ _ _ _ _ _ _ _ _ _ _ _ _ _
 72
    65
 73
     2
 40
4.7625
 49
3.175
 74
     0
 49
-1.5875
 74
     0
  0
LTYPE
  5
3110
330
69
100
AcDbSymbolTableRecord
100
AcDbLinetypeTableRecord
  2
CENS
 70
     0
  3
(一点鎖線１)---- - ---- - ---- - ---- - ---- - 
 72
    65
 73
     4
 40
13.0
 49
10.0
 74
     0
 49
-1.0
 74
     0
 49
1.0
 74
     0
 49
-1.0
 74
     0
  0
LTYPE
  5
3192
330
69
100
AcDbSymbolTableRecord
100
AcDbLinetypeTableRecord
  2
sekkei_H
 70
     0
  3
Hidden-S _ _ _ _ _ _ _ _ _ _ _ _ _ _ _ _ _
 72
    65
 73
     2
 40
2.38125
 49
1.5875
 74
     0
 49
-0.79375
 74
     0
  0
ENDTAB
  0
TABLE
  2
LAYER
  5
66
102
{ACAD_XDICTIONARY
360
27C1
102
}
330
0
100
AcDbSymbolTable
 70
     9
  0
LAYER
  5
5E
102
{ACAD_XDICTIONARY
360
2984
102
}
330
66
100
AcDbSymbolTableRecord
100
AcDbLayerTableRecord
  2
0
 70
     0
 62
     7
  6
CONTINUOUS
370
    -3
390
5
  0
LAYER
  5
3E
102
{ACAD_XDICTIONARY
360
2986
102
}
330
66
100
AcDbSymbolTableRecord
100
AcDbLayerTableRecord
  2
CENTER
 70
     0
 62
     3
  6
sekkei(A2)
370
    -3
390
5
  0
LAYER
  5
135
330
66
100
AcDbSymbolTableRecord
100
AcDbLayerTableRecord
  2
DEFPOINTS
 70
     0
 62
     7
  6
CONTINUOUS
290
     0
370
    -3
390
5
  0
LAYER
  5
2B5
102
{ACAD_XDICTIONARY
360
298C
102
}
330
66
100
AcDbSymbolTableRecord
100
AcDbLayerTableRecord
  2
HIDS
 70
     0
 62
     1
  6
HIDDEN2
370
    -3
390
5
  0
LAYER
  5
2BA
102
{ACAD_XDICTIONARY
360
298E
102
}
330
66
100
AcDbSymbolTableRecord
100
AcDbLayerTableRecord
  2
HOJO
 70
     0
 62
     4
  6
CONTINUOUS
370
    -3
390
5
  0
LAYER
  5
27BE
102
{ACAD_XDICTIONARY
360
27BF
102
}
330
66
100
AcDbSymbolTableRecord
100
AcDbLayerTableRecord
  2
TITLE_C
 70
     0
 62
     4
  6
CONTINUOUS
370
    -3
390
5
1001
AcAecLayerStandard
1000

1000

  0
ENDTAB
  0
TABLE
  2
STYLE
  5
67
330
0
100
AcDbSymbolTable
 70
     1
  0
STYLE
  5
16
330
67
100
AcDbSymbolTableRecord
100
AcDbTextStyleTableRecord
  2
STANDARD
 70
     0
 40
0.0
 41
1.0
 50
0.0
 71
     0
 42
2.0
  3
simplex.shx
  4
extfont.shx
  0
ENDTAB
  0
TABLE
  2
VIEW
  5
6C
330
0
100
AcDbSymbolTable
 70
     0
  0
ENDTAB
  0
TABLE
  2
UCS
  5
6D
330
0
100
AcDbSymbolTable
 70
     0
  0
ENDTAB
  0
TABLE
  2
APPID
  5
70
330
0
100
AcDbSymbolTable
 70
    11
  0
APPID
  5
71
330
70
100
AcDbSymbolTableRecord
100
AcDbRegAppTableRecord
  2
ACAD
 70
     0
  0
APPID
  5
27C0
330
70
100
AcDbSymbolTableRecord
100
AcDbRegAppTableRecord
  2
AcAecLayerStandard
 70
     0
  0
APPID
  5
27E3
330
70
100
AcDbSymbolTableRecord
100
AcDbRegAppTableRecord
  2
ACAD_EXEMPT_FROM_CAD_STANDARDS
 70
     0
  0
APPID
  5
29E9
330
70
100
AcDbSymbolTableRecord
100
AcDbRegAppTableRecord
  2
ACAD_MLEADERVER
 70
     0
  0
APPID
  5
3219
330
70
100
AcDbSymbolTableRecord
100
AcDbRegAppTableRecord
  2
AcadAnnoAV
 70
     0
  0
APPID
  5
323F
330
70
100
AcDbSymbolTableRecord
100
AcDbRegAppTableRecord
  2
ACAUTHENVIRON
 70
     0
  0
APPID
  5
3243
330
70
100
AcDbSymbolTableRecord
100
AcDbRegAppTableRecord
  2
AcDbDynamicBlockTrueName
 70
     0
  0
APPID
  5
3244
330
70
100
AcDbSymbolTableRecord
100
AcDbRegAppTableRecord
  2
AcDbDynamicBlockGUID
 70
     0
  0
APPID
  5
3246
330
70
100
AcDbSymbolTableRecord
100
AcDbRegAppTableRecord
  2
AcDbBlockRepETag
 70
     0
  0
APPID
  5
3C30
330
70
100
AcDbSymbolTableRecord
100
AcDbRegAppTableRecord
  2
ACAD_NAV_VCDISPLAY
 70
     0
  0
APPID
  5
4824
330
70
100
AcDbSymbolTableRecord
100
AcDbRegAppTableRecord
  2
ACAD_DSTYLE_DIMRADIAL_EXTENSION
 70
     0
  0
ENDTAB
  0
TABLE
  2
DIMSTYLE
  5
72
330
0
100
AcDbSymbolTable
 70
     1
100
AcDbDimStyleTable
 71
     1
340
73
  0
DIMSTYLE
105
73
330
72
100
AcDbSymbolTableRecord
100
AcDbDimStyleTableRecord
  2
STANDARD
 70
     0
 40
2.0
 41
1.8
 42
0.625
 43
3.75
 44
0.8
 73
     0
 74
     0
 77
     1
 78
     8
140
1.8
141
2.5
143
0.0394
147
0.75
171
     4
172
     1
179
     2
271
     2
272
     2
273
     8
274
     4
277
     6
340
16
  0
ENDTAB
  0
TABLE
  2
BLOCK_RECORD
  5
1
330
0
100
AcDbSymbolTable
 70
    67
  0
BLOCK_RECORD
  5
2
330
1
100
AcDbSymbolTableRecord
100
AcDbBlockTableRecord
  2
*MODEL_SPACE
340
60
  0
BLOCK_RECORD
  5
4BD1
330
1
100
AcDbSymbolTableRecord
100
AcDbBlockTableRecord
  2
*Paper_Space
340
4BD2
  0
BLOCK_RECORD
  5
4AC
330
1
100
AcDbSymbolTableRecord
100
AcDbBlockTableRecord
  2
黒丸矢印1
340
0
  0
BLOCK_RECORD
  5
39FF
102
{ACAD_XDICTIONARY
360
4045
102
}
330
1
100
AcDbSymbolTableRecord
100
AcDbBlockTableRecord
  2
F2F-18L_0002
340
0
310
28000000200000002000000001002000000000000010000001000000010000000000000000000000000000FF000000FF000000FF000000FF000000FF000000FF000000FF000000FF000000FF000000FF000000FF000000FF000000FF000000FF000000FF000000FF000000FF000000FF000000FF000000FF000000FF000000
310
FF000000FF000000FF000000FF000000FF000000FF000000FF000000FF000000FF000000FF000000FF000000FF000000FF000000FF000000FF000000FF000000FF000000FF000000FF000000FF000000FF000000FF000000FF000000FF000000FF000000FF000000FF000000FF000000FF000000FF000000FF000000FF0000
310
00FF000000FF000000FF000000FF000000FF000000FF000000FF000000FF000000FF000000FF000000FF000000FF000000FF000000FF000000FF000000FF000000FF000000FF000000FF000000FF000000FF000000FF000000FF000000FF000000FF000000FF000000FF000000FF000000FF000000FF000000FF000000FF00
310
0000FF000000FF000000FF000000FF000000FF000000FF000000FF000000FF000000FF000000FF000000FF000000FF000000FF000000FF000000FF000000FF000000FF000000FF000000FF000000FF000000FF000000FF000000FF000000FF000000FF000000FF000000FF000000FF000000FF000000FF000000FF000000FF
310
000000FF000000FF000000FF000000FF000000FF000000FF000000FF000000FF000000FF000000FF000000FF000000FF000000FF000000FF000000FF000000FF000000FF000000FF000000FF000000FF000000FF000000FF000000FF000000FF000000FF000000FF000000FF000000FF000000FF000000FF000000FF000000
310
FF000000FF000000FF000000FF000000FF000000FF000000FF000000FF000000FF000000FF000000FF000000FF000000FF000000FF000000FF000000FF000000FF000000FF000000FF000000FF00FF00FF000000FF000000FF000000FF000000FF000000FF000000FF000000FF000000FF000000FF000000FF000000FF0000
310
00FF000000FF000000FF000000FF000000FF000000FF000000FF000000FF000000FF000000FF000000FF000000FF000000FF000000FF000000FF000000FF000000FF000000FFFFFFFFFFFFFFFFFF00FF00FFFFFFFFFF000000FF000000FF000000FF000000FF000000FF000000FF000000FF000000FF000000FF000000FF00
310
0000FF000000FF000000FF000000FF000000FF000000FF000000FF000000FF000000FF000000FF000000FF000000FF000000FF000000FF000000FF000000FF000000FF000000FFFFFFFFFFFFFFFFFF00FF00FFFFFFFFFF000000FF000000FF000000FF000000FF000000FF000000FF000000FF000000FF000000FF000000FF
310
000000FF000000FF000000FF000000FF000000FF000000FF000000FF000000FF000000FF000000FF000000FF000000FF000000FF000000FF000000FF000000FF000000FF000000FFFFFFFFFFFFFFFFFF00FF00FFFFFFFFFF000000FF000000FF000000FF000000FF000000FF000000FF000000FF000000FF000000FF000000
310
FF000000FF000000FF000000FF000000FF000000FF000000FF000000FF000000FF000000FF000000FF000000FF000000FF000000FF000000FF000000FF000000FF000000FF000000FFFFFFFFFFFFFFFFFF00FF00FFFFFFFFFF000000FF000000FF000000FF000000FF000000FF000000FF000000FF000000FF000000FF0000
310
00FF000000FF000000FF000000FF000000FF000000FF000000FF000000FF000000FF000000FF000000FF000000FF000000FF000000FF000000FF0000FFFF00FF00FFFFFFFFFFFFFFFFFFFFFFFFFFFFFFFFFFFFFFFFFFFFFFFFFFFFFFFFFFFFFFFFFFFFFFFFFFFFFFFFFFFFFFFFFFFFFFFFFF0000FFFF00FF00FF0000FFFF00
310
0000FF000000FF000000FF000000FF000000FF000000FF000000FF000000FF000000FF000000FF000000FF000000FF000000FF000000FF000000FF0000FFFF00FF00FFFFFFFFFF000000FFFFFFFFFF000000FF00FF00FF000000FF000000FF000000FF000000FF000000FFFFFFFFFF000000FF0000FFFF00FF00FF0000FFFF
310
FFFFFFFFFFFFFFFFFFFFFFFFFFFFFFFFFFFFFFFFFFFFFFFFFFFFFFFFFFFFFFFFFFFFFFFFFFFFFFFFFFFFFFFFFFFFFFFF000000FF000000FF000000FF0000FFFF00FF00FFFFFFFFFF000000FFFFFFFFFF000000FF00FF00FF000000FF000000FF000000FF000000FF000000FFFFFFFFFF000000FF0000FFFF00FF00FF0000FF
310
FF000000FF000000FF000000FF000000FF000000FF000000FF000000FF000000FF000000FF000000FF000000FFFFFFFFFF000000FF000000FF000000FF0000FFFF00FF00FFFFFFFFFF000000FFFFFFFFFF000000FF00FF00FF000000FF000000FF000000FF000000FF000000FFFFFFFFFF000000FF0000FFFF00FF00FF0000
310
FFFFFFFFFFFFFFFFFFFFFFFFFFFFFFFFFFFFFFFFFFFFFFFFFFFFFFFFFFFFFFFFFFFFFFFFFFFFFFFFFFFFFFFFFFFFFFFFFFFF000000FF000000FF000000FF0000FFFF00FF00FFFFFFFFFF000000FFFFFFFFFF000000FF00FF00FF000000FF000000FF000000FF000000FF000000FFFFFFFFFF000000FF0000FFFF00FF00FF00
310
00FFFF000000FF000000FF000000FF000000FF000000FF000000FF000000FF000000FF000000FF000000FF000000FFFFFFFFFF000000FF000000FFFFFFFFFF0000FFFF00FF00FFFFFFFFFF000000FFFFFFFFFF000000FF00FF00FF000000FF000000FF000000FF000000FF000000FFFFFFFFFF000000FF0000FFFF00FF00FF
310
0000FFFF000000FF000000FF000000FF000000FF000000FF000000FF000000FF000000FF000000FF000000FF000000FFFFFFFFFF000000FF000000FFFFFFFFFF0000FFFF0000FFFFFFFFFFFFFFFFFFFFFFFFFFFF000000FF00FF00FF000000FF000000FF000000FF000000FF000000FFFFFFFFFFFFFFFFFF0000FFFF0000FF
310
FF0000FFFF000000FF000000FF000000FF000000FF000000FF000000FF000000FF000000FF000000FF000000FF000000FFFFFFFFFF000000FF000000FFFFFFFFFF0000FFFF00FF00FFFFFFFFFFFFFFFFFFFFFFFFFF000000FF00FF00FF000000FF000000FF000000FF000000FF000000FFFFFFFFFFFFFFFFFF0000FFFF00FF
310
00FF0000FFFF000000FF000000FF000000FF000000FF000000FF000000FF000000FF000000FF000000FF000000FF000000FFFFFFFFFF000000FF000000FFFFFFFFFF0000FFFF00FF00FFFFFFFFFFFFFFFFFFFFFFFFFF000000FF00FF00FF000000FF000000FF000000FF000000FF000000FFFFFFFFFFFFFFFFFF0000FFFF00
310
FF00FF0000FFFF000000FF000000FF000000FF000000FF000000FF000000FF000000FF000000FF000000FF000000FF000000FFFFFFFFFF000000FF000000FFFFFFFFFF0000FFFF0000FFFFFFFFFFFFFFFFFFFFFFFFFFFF000000FF00FF00FF000000FF000000FF000000FF000000FF000000FFFFFFFFFFFFFFFFFF0000FFFF
310
0000FFFF0000FFFF000000FF000000FF000000FF000000FF000000FF000000FF000000FF000000FF000000FF000000FF000000FFFFFFFFFF000000FF000000FFFFFFFFFF0000FFFF0000FFFFFFFFFFFF000000FFFFFFFFFF000000FF00FF00FF000000FF000000FF000000FF000000FF000000FFFFFFFFFF000000FF0000FF
310
FF00FF00FF0000FFFF000000FF000000FF000000FF000000FF000000FF000000FF000000FF000000FF000000FF000000FF000000FFFFFFFFFF000000FF000000FF000000FF0000FFFF0000FFFFFFFFFFFF000000FFFFFFFFFF000000FF00FF00FF000000FF000000FF000000FF000000FF000000FFFFFFFFFF000000FF0000
310
FFFF00FF00FF0000FFFF000000FF000000FF000000FF000000FF000000FF000000FF000000FF000000FF000000FF000000FF000000FFFFFFFFFF000000FF000000FF000000FF0000FFFF0000FFFFFFFFFFFF000000FFFFFFFFFF000000FF00FF00FF000000FF000000FF000000FF000000FF000000FFFFFFFFFF000000FF00
310
00FFFF00FF00FF0000FFFFFFFFFFFFFFFFFFFFFFFFFFFFFFFFFFFFFFFFFFFFFFFFFFFFFFFFFFFFFFFFFFFFFFFFFFFFFFFFFFFFFFFFFFFFFFFFFFFF000000FF000000FF000000FF0000FFFF0000FFFF0000FFFFFFFFFFFFFFFFFFFFFFFFFFFF00FF00FFFFFFFFFFFFFFFFFFFFFFFFFFFFFFFFFFFFFFFFFFFFFFFFFFFFFFFFFF
310
0000FFFF00FF00FF0000FFFF000000FF000000FF000000FF000000FF000000FF000000FF000000FF000000FF000000FF000000FF000000FFFFFFFFFF000000FF000000FF000000FF0000FFFF00FF00FF0000FFFF000000FFFFFFFFFF000000FF00FF00FF000000FF000000FF000000FF000000FF000000FFFFFFFFFF000000
310
FF0000FFFF00FF00FF0000FFFFFFFFFFFFFFFFFFFFFFFFFFFFFFFFFFFFFFFFFFFFFFFFFFFFFFFFFFFFFFFFFFFFFFFFFFFFFFFFFFFFFFFFFFFFFFFFFFFF000000FF000000FF000000FF0000FFFF00FF00FF0000FFFFFFFFFFFFFFFFFFFFFFFFFFFF00FF00FFFFFFFFFFFFFFFFFFFFFFFFFFFFFFFFFFFFFFFFFFFFFFFFFFFFFF
310
FFFF0000FFFF00FF00FF0000FFFF000000FF000000FF000000FF000000FF000000FF000000FF000000FF000000FF000000FF000000FF000000FF000000FF000000FF000000FF000000FF000000FF000000FF000000FF000000FF000000FF000000FF00FF00FF000000FF000000FF000000FF000000FF000000FF000000FF00
310
0000FF000000FF000000FF000000FF000000FF000000FF000000FF000000FF000000FF000000FF000000FF000000FF000000FF000000FF000000FF000000FF000000FF000000FF000000FF000000FF000000FF000000FF000000FF000000FF000000FF000000FF000000FF000000FF000000FF000000FF000000FF000000FF
310
000000FF000000FF000000FF000000FF000000FF000000FF000000FF000000FF000000FF000000FF000000FF000000FF000000FF000000FF000000FF000000FF000000FF000000FF000000FF000000FF000000FF000000FF000000FF000000FF000000FF000000FF000000FF000000FF000000FF000000FF000000FF000000
310
FF000000FF000000FF000000FF000000FF000000FF000000FF000000FF000000FF000000FF000000FF000000FF000000FF000000FF000000FF000000FF000000FF000000FF000000FF000000FF000000FF000000FF000000FF000000FF000000FF000000FF000000FF000000FF000000FF000000FF000000FF000000FF0000
310
00FF000000FF000000FF000000FF000000FF000000FF000000FF000000FF000000FF000000FF000000FF000000FF000000FF000000FF000000FF000000FF000000FF000000FF000000FF000000FF000000FF000000FF000000FF000000FF000000FF000000FF000000FF000000FF000000FF000000FF000000FF000000FF00
310
0000FF000000FF000000FF000000FF000000FF000000FF000000FF000000FF000000FF000000FF000000FF000000FF000000FF000000FF000000FF000000FF000000FF000000FF000000FF000000FF000000FF000000FF000000FF000000FF000000FF000000FF000000FF000000FF000000FF000000FF000000FF000000FF
310
000000FF000000FF000000FF000000FF000000FF000000FF000000FF000000FF000000FF000000FF000000FF000000FF000000FF000000FF000000FF000000FF000000FF000000FF
102
{BLKREFS
331
48CB
102
}
1001
AcDbDynamicBlockGUID
1000
{F343372D-322C-46BE-A233-62F6CF11E69E}
1001
ACAD
1000
DesignCenter Data
1002
{
1070
     1
1070
     4
1002
}
  0
BLOCK_RECORD
  5
3BDF
330
1
100
AcDbSymbolTableRecord
100
AcDbBlockTableRecord
  2
ファンカバ－ブレーキ_F2S-15_M_0001
340
0
310
28000000200000002000000001002000000000000010000001000000010000000000000000000000000000FF000000FF000000FF000000FF000000FF000000FF000000FF000000FF000000FF000000FF000000FF000000FF000000FF000000FF000000FF000000FF000000FF000000FF000000FF000000FF000000FF000000
310
FF000000FF000000FF000000FF000000FF000000FF000000FF000000FF000000FF000000FF000000FF000000FF000000FF000000FF000000FF000000FF000000FF000000FF000000FF000000FF000000FF000000FF000000FF000000FF000000FFFFFFFFFFFFFFFFFFFFFFFFFFFFFFFFFFFFFFFFFF000000FF000000FF0000
310
00FF000000FF000000FF000000FF000000FF000000FF000000FF000000FF000000FF000000FF000000FF000000FF000000FF000000FF000000FF000000FF000000FF000000FF000000FF000000FF000000FF000000FF000000FF000000FFFFFFFFFF000000FF000000FF000000FF000000FFFFFFFFFF000000FF000000FF00
310
0000FF000000FF000000FF000000FF000000FF000000FF000000FF000000FF000000FF000000FF000000FF000000FF000000FF000000FF000000FF000000FF000000FF000000FF000000FF000000FF000000FF000000FF000000FF000000FFFFFFFFFF000000FF000000FF000000FF000000FFFFFFFFFF000000FF000000FF
310
000000FF000000FF000000FF000000FF000000FF000000FF000000FF000000FF000000FF000000FF000000FF000000FF000000FF000000FF000000FF000000FF000000FF000000FF000000FF000000FF000000FF000000FF000000FF000000FFFFFFFFFFFFFFFFFFFFFFFFFFFFFFFFFFFFFFFFFFFFFFFFFF000000FF000000
310
FF000000FF000000FF000000FF000000FF000000FF000000FF000000FF000000FF000000FF000000FF000000FF000000FF000000FF000000FF000000FF000000FF000000FF000000FF000000FF000000FF000000FF000000FF000000FF000000FFFFFFFFFF000000FF000000FF000000FF000000FFFFFFFFFF000000FF0000
310
00FF000000FF000000FF000000FF000000FF000000FF000000FF000000FF000000FF000000FF000000FF000000FF000000FF000000FF000000FF000000FF000000FF000000FF000000FF000000FF000000FF000000FF000000FF000000FF000000FFFFFFFFFF000000FF000000FF000000FF000000FFFFFFFFFF000000FF00
310
0000FF000000FF000000FF000000FF000000FF000000FF000000FF000000FF000000FF000000FF000000FF000000FF000000FF000000FF000000FF000000FF000000FF000000FF000000FF000000FF000000FF000000FF000000FF000000FF000000FFFFFFFFFF000000FF000000FF000000FF000000FFFFFFFFFF000000FF
310
000000FF000000FF000000FF000000FF000000FF000000FF000000FF000000FF000000FF000000FF000000FF000000FF000000FF000000FF000000FF000000FF000000FF000000FF000000FF000000FF000000FF000000FF000000FF000000FF000000FFFFFFFFFF000000FF000000FF000000FF000000FFFFFFFFFF000000
310
FF000000FF000000FF000000FF000000FF000000FF000000FF000000FF000000FF000000FF000000FF000000FF000000FF000000FF000000FF000000FF000000FF000000FF000000FF000000FF000000FF000000FF000000FF000000FF000000FF000000FFFFFFFFFF000000FF000000FF000000FF000000FFFFFFFFFF0000
310
00FF000000FF000000FF000000FF000000FF000000FF000000FF000000FF000000FF000000FF000000FF000000FF000000FF000000FF000000FF000000FF000000FF000000FF000000FF000000FF000000FF000000FF000000FF000000FF000000FF000000FFFFFFFFFF000000FF000000FF000000FF000000FFFFFFFFFF00
310
0000FF000000FF000000FF000000FF000000FF000000FF000000FF000000FF000000FF000000FF000000FF000000FF000000FF000000FF000000FF000000FF000000FF000000FF000000FF000000FF000000FF000000FF000000FF000000FF000000FF000000FFFFFFFFFF000000FF000000FF000000FF000000FFFFFFFFFF
310
000000FF000000FF000000FF000000FF000000FF000000FF000000FF000000FF000000FF000000FF000000FF000000FF000000FF000000FF000000FF000000FF000000FF000000FF000000FF000000FF000000FF000000FF000000FF000000FF000000FF000000FFFFFFFFFF000000FF000000FF000000FF000000FFFFFFFF
310
FF000000FF000000FF000000FF000000FF000000FF000000FF000000FF000000FF000000FF000000FF000000FF000000FF000000FF000000FF000000FF000000FF000000FF000000FF000000FF000000FF000000FF000000FF000000FF000000FF000000FF000000FFFFFFFFFF000000FF000000FF000000FF000000FFFFFF
310
FFFF000000FF000000FF000000FF000000FF000000FF000000FF000000FF000000FF000000FF000000FF000000FF000000FF000000FF000000FF000000FF000000FF000000FF000000FF000000FF000000FF000000FF000000FF000000FF000000FF000000FF000000FFFFFFFFFF000000FF000000FF000000FF000000FFFF
310
FFFFFF000000FF000000FF000000FF000000FF000000FF000000FF000000FF000000FF000000FF000000FF000000FF000000FF000000FF000000FF000000FF000000FF000000FF000000FF000000FF000000FF000000FF000000FF000000FF000000FF000000FF000000FFFFFFFFFF000000FF000000FF000000FF000000FF
310
FFFFFFFF000000FF000000FF000000FF000000FF000000FF000000FF000000FF000000FF000000FF000000FF000000FF000000FF000000FF000000FF000000FF000000FF000000FF000000FF000000FF000000FF000000FF000000FF000000FF000000FF000000FF000000FFFFFFFFFF000000FF000000FF000000FF000000
310
FFFFFFFFFF000000FF000000FF000000FF000000FF000000FF000000FF000000FF000000FF000000FF000000FF000000FF000000FF000000FF000000FF000000FF000000FF000000FF000000FF000000FF000000FF000000FF000000FF000000FF000000FF000000FF000000FFFFFFFFFF000000FF000000FF000000FF0000
310
00FFFFFFFFFF000000FF000000FF000000FF000000FF000000FF000000FF000000FF000000FF000000FF000000FF000000FF000000FF000000FF000000FF000000FF000000FF000000FF000000FF000000FF000000FF000000FF000000FF000000FF000000FF000000FF000000FFFFFFFFFF000000FF000000FF000000FF00
310
0000FFFFFFFFFF000000FF000000FF000000FF000000FF000000FF000000FF000000FF000000FF000000FF000000FF000000FF000000FF000000FF000000FF000000FF000000FF000000FF000000FF000000FF000000FF000000FF000000FF000000FF000000FF000000FF000000FFFFFFFFFF000000FF000000FF000000FF
310
000000FFFFFFFFFF000000FF000000FF000000FF000000FF000000FF000000FF000000FF000000FF000000FF000000FF000000FF000000FF000000FF000000FF000000FF000000FF000000FF000000FF000000FF000000FF000000FF000000FF000000FF000000FF000000FF000000FFFFFFFFFF000000FF000000FF000000
310
FF000000FFFFFFFFFF000000FF000000FF000000FF000000FF000000FF000000FF000000FF000000FF000000FF000000FF000000FF000000FF000000FF000000FF000000FF000000FF000000FF000000FF000000FF000000FF000000FF000000FF000000FF000000FF000000FF000000FFFFFFFFFF000000FF000000FF0000
310
00FF000000FFFFFFFFFF000000FF000000FF000000FF000000FF000000FF000000FF000000FF000000FF000000FF000000FF000000FF000000FF000000FF000000FF000000FF000000FF000000FF000000FF000000FF000000FF000000FF000000FF000000FF000000FF000000FF000000FFFFFFFFFF000000FF000000FF00
310
0000FF000000FFFFFFFFFF000000FF000000FF000000FF000000FF000000FF000000FF000000FF000000FF000000FF000000FF000000FF000000FF000000FF000000FF000000FF000000FF000000FF000000FF000000FF000000FF000000FF000000FF000000FF000000FF000000FF000000FFFFFFFFFFFFFFFFFFFFFFFFFF
310
FFFFFFFFFFFFFFFFFFFFFFFF000000FF000000FF000000FF000000FF000000FF000000FF000000FF000000FF000000FF000000FF000000FF000000FF000000FF000000FF000000FF000000FF000000FF000000FF000000FF000000FF000000FF000000FF000000FF000000FF000000FF000000FFFFFFFFFF000000FF000000
310
FF000000FF000000FFFFFFFFFF000000FF000000FF000000FF000000FF000000FF000000FF000000FF000000FF000000FF000000FF000000FF000000FF000000FF000000FF000000FF000000FF000000FF000000FF000000FF000000FF000000FF000000FF000000FF000000FF000000FF000000FFFFFFFFFFFFFFFFFF0000
310
00FF000000FF000000FFFFFFFFFF000000FF000000FF000000FF000000FF000000FF000000FF000000FF000000FF000000FF000000FF000000FF000000FF000000FF000000FF000000FF000000FF000000FF000000FF000000FF000000FF000000FF000000FF000000FF000000FF000000FF000000FF000000FFFFFFFFFFFF
310
FFFFFFFFFFFFFFFFFFFFFFFFFFFFFF000000FF000000FF000000FF000000FF000000FF000000FF000000FF000000FF000000FF000000FF000000FF000000FF000000FF000000FF000000FF000000FF000000FF000000FF000000FF000000FF000000FF000000FF000000FF000000FF000000FF000000FF000000FF000000FF
310
000000FF000000FFFFFFFFFFFFFFFFFF000000FF000000FF000000FF000000FF000000FF000000FF000000FF000000FF000000FF000000FF000000FF000000FF000000FF000000FF000000FF000000FF000000FF000000FF000000FF000000FF000000FF000000FF000000FF000000FF000000FF000000FF000000FF000000
310
FF000000FF000000FFFFFFFFFFFFFFFFFF000000FF000000FF000000FF000000FF000000FF000000FF000000FF000000FF000000FF000000FF000000FF000000FF000000FF000000FF000000FF000000FF000000FF000000FF000000FF000000FF000000FF000000FF000000FF000000FF000000FF000000FF000000FF0000
310
00FF000000FF000000FFFFFFFFFFFFFFFFFF000000FF000000FF000000FF000000FF000000FF000000FF000000FF000000FF000000FF000000FF000000FF000000FF000000FF000000FF000000FF000000FF000000FF000000FF000000FF000000FF000000FF000000FF000000FF000000FF000000FF000000FF000000FF00
310
0000FF000000FF000000FFFFFFFFFF000000FF000000FF000000FF000000FF000000FF000000FF000000FF000000FF000000FF000000FF000000FF000000FF000000FF000000FF000000FF000000FF000000FF000000FF000000FF000000FF000000FF000000FF000000FF000000FF000000FF000000FF000000FF000000FF
310
000000FF000000FF000000FF000000FF000000FF000000FF000000FF000000FF000000FF000000FF000000FF000000FF000000FF000000FF000000FF000000FF000000FF000000FF
102
{BLKREFS
331
3C9B
102
}
  0
BLOCK_RECORD
  5
3BF9
330
1
100
AcDbSymbolTableRecord
100
AcDbBlockTableRecord
  2
ファンカバ－ブレーキ_F2S-15_M_0002
340
0
310
28000000200000002000000001002000000000000010000001000000010000000000000000000000000000FF000000FF000000FF000000FF000000FF000000FF000000FF000000FF000000FF000000FF000000FF000000FF000000FF000000FF000000FF000000FF000000FF000000FF000000FF000000FF000000FF000000
310
FF000000FF000000FF000000FF000000FF000000FF000000FF000000FF000000FF000000FF000000FF000000FF000000FF000000FF000000FF000000FF000000FF000000FF000000FF000000FF000000FF000000FF000000FF000000FFFFFFFFFFFFFFFFFFFFFFFFFFFFFFFFFFFFFFFFFF000000FF000000FF000000FF0000
310
00FF000000FF000000FF000000FF000000FF000000FF000000FF000000FF000000FF000000FF000000FF000000FF000000FF000000FF000000FF000000FF000000FF000000FF000000FF000000FF000000FF000000FF000000FF000000FFFFFFFFFF000000FF000000FF000000FF000000FFFFFFFFFF000000FF000000FF00
310
0000FF000000FF000000FF000000FF000000FF000000FF000000FF000000FF000000FF000000FF000000FF000000FF000000FF000000FF000000FF000000FF000000FF000000FF000000FF000000FF000000FF000000FF000000FF000000FFFFFFFFFF000000FF000000FF000000FF000000FFFFFFFFFF000000FF000000FF
310
000000FF000000FF000000FF000000FF000000FF000000FF000000FF000000FF000000FF000000FF000000FF000000FF000000FF000000FF000000FF000000FF000000FF000000FF000000FF000000FF000000FF000000FF000000FF000000FFFFFFFFFFFFFFFFFFFFFFFFFFFFFFFFFFFFFFFFFFFFFFFFFF000000FF000000
310
FF000000FF000000FF000000FF000000FF000000FF000000FF000000FF000000FF000000FF000000FF000000FF000000FF000000FF000000FF000000FF000000FF000000FF000000FF000000FF000000FF000000FF000000FF000000FF000000FFFFFFFFFF000000FF000000FF000000FF000000FFFFFFFFFF000000FF0000
310
00FF000000FF000000FF000000FF000000FF000000FF000000FF000000FF000000FF000000FF000000FF000000FF000000FF000000FF000000FF000000FF000000FF000000FF000000FF000000FF000000FF000000FF000000FF000000FF000000FFFFFFFFFF000000FF000000FF000000FF000000FFFFFFFFFF000000FF00
310
0000FF000000FF000000FF000000FF000000FF000000FF000000FF000000FF000000FF000000FF000000FF000000FF000000FF000000FF000000FF000000FF000000FF000000FF000000FF000000FF000000FF000000FF000000FF000000FF000000FFFFFFFFFF000000FF000000FF000000FF000000FFFFFFFFFF000000FF
310
000000FF000000FF000000FF000000FF000000FF000000FF000000FF000000FF000000FF000000FF000000FF000000FF000000FF000000FF000000FF000000FF000000FF000000FF000000FF000000FF000000FF000000FF000000FF000000FF000000FFFFFFFFFF000000FF000000FF000000FF000000FFFFFFFFFF000000
310
FF000000FF000000FF000000FF000000FF000000FF000000FF000000FF000000FF000000FF000000FF000000FF000000FF000000FF000000FF000000FF000000FF000000FF000000FF000000FF000000FF000000FF000000FF000000FF000000FF000000FFFFFFFFFF000000FF000000FF000000FF000000FFFFFFFFFF0000
310
00FF000000FF000000FF000000FF000000FF000000FF000000FF000000FF000000FF000000FF000000FF000000FF000000FF000000FF000000FF000000FF000000FF000000FF000000FF000000FF000000FF000000FF000000FF000000FF000000FF000000FFFFFFFFFF000000FF000000FF000000FF000000FFFFFFFFFF00
310
0000FF000000FF000000FF000000FF000000FF000000FF000000FF000000FF000000FF000000FF000000FF000000FF000000FF000000FF000000FF000000FF000000FF000000FF000000FF000000FF000000FF000000FF000000FF000000FF000000FF000000FFFFFFFFFF000000FF000000FF000000FF000000FFFFFFFFFF
310
000000FF000000FF000000FF000000FF000000FF000000FF000000FF000000FF000000FF000000FF000000FF000000FF000000FF000000FF000000FF000000FF000000FF000000FF000000FF000000FF000000FF000000FF000000FF000000FF000000FF000000FFFFFFFFFF000000FF000000FF000000FF000000FFFFFFFF
310
FF000000FF000000FF000000FF000000FF000000FF000000FF000000FF000000FF000000FF000000FF000000FF000000FF000000FF000000FF000000FF000000FF000000FF000000FF000000FF000000FF000000FF000000FF000000FF000000FF000000FF000000FFFFFFFFFF000000FF000000FF000000FF000000FFFFFF
310
FFFF000000FF000000FF000000FF000000FF000000FF000000FF000000FF000000FF000000FF000000FF000000FF000000FF000000FF000000FF000000FF000000FF000000FF000000FF000000FF000000FF000000FF000000FF000000FF000000FF000000FF000000FFFFFFFFFF000000FF000000FF000000FF000000FFFF
310
FFFFFF000000FF000000FF000000FF000000FF000000FF000000FF000000FF000000FF000000FF000000FF000000FF000000FF000000FF000000FF000000FF000000FF000000FF000000FF000000FF000000FF000000FF000000FF000000FF000000FF000000FF000000FFFFFFFFFF000000FF000000FF000000FF000000FF
310
FFFFFFFF000000FF000000FF000000FF000000FF000000FF000000FF000000FF000000FF000000FF000000FF000000FF000000FF000000FF000000FF000000FF000000FF000000FF000000FF000000FF000000FF000000FF000000FF000000FF000000FF000000FF000000FFFFFFFFFF000000FF000000FF000000FF000000
310
FFFFFFFFFF000000FF000000FF000000FF000000FF000000FF000000FF000000FF000000FF000000FF000000FF000000FF000000FF000000FF000000FF000000FF000000FF000000FF000000FF000000FF000000FF000000FF000000FF000000FF000000FF000000FF000000FFFFFFFFFF000000FF000000FF000000FF0000
310
00FFFFFFFFFF000000FF000000FF000000FF000000FF000000FF000000FF000000FF000000FF000000FF000000FF000000FF000000FF000000FF000000FF000000FF000000FF000000FF000000FF000000FF000000FF000000FF000000FF000000FF000000FF000000FF000000FFFFFFFFFF000000FF000000FF000000FF00
310
0000FFFFFFFFFF000000FF000000FF000000FF000000FF000000FF000000FF000000FF000000FF000000FF000000FF000000FF000000FF000000FF000000FF000000FF000000FF000000FF000000FF000000FF000000FF000000FF000000FF000000FF000000FF000000FF000000FFFFFFFFFF000000FF000000FF000000FF
310
000000FFFFFFFFFF000000FF000000FF000000FF000000FF000000FF000000FF000000FF000000FF000000FF000000FF000000FF000000FF000000FF000000FF000000FF000000FF000000FF000000FF000000FF000000FF000000FF000000FF000000FF000000FF000000FF000000FFFFFFFFFF000000FF000000FF000000
310
FF000000FFFFFFFFFF000000FF000000FF000000FF000000FF000000FF000000FF000000FF000000FF000000FF000000FF000000FF000000FF000000FF000000FF000000FF000000FF000000FF000000FF000000FF000000FF000000FF000000FF000000FF000000FF000000FF000000FFFFFFFFFF000000FF000000FF0000
310
00FF000000FFFFFFFFFF000000FF000000FF000000FF000000FF000000FF000000FF000000FF000000FF000000FF000000FF000000FF000000FF000000FF000000FF000000FF000000FF000000FF000000FF000000FF000000FF000000FF000000FF000000FF000000FF000000FF000000FFFFFFFFFF000000FF000000FF00
310
0000FF000000FFFFFFFFFF000000FF000000FF000000FF000000FF000000FF000000FF000000FF000000FF000000FF000000FF000000FF000000FF000000FF000000FF000000FF000000FF000000FF000000FF000000FF000000FF000000FF000000FF000000FF000000FF000000FF000000FFFFFFFFFFFFFFFFFFFFFFFFFF
310
FFFFFFFFFFFFFFFFFFFFFFFF000000FF000000FF000000FF000000FF000000FF000000FF000000FF000000FF000000FF000000FF000000FF000000FF000000FF000000FF000000FF000000FF000000FF000000FF000000FF000000FF000000FF000000FF000000FF000000FF000000FF000000FFFFFFFFFF000000FF000000
310
FF000000FF000000FFFFFFFFFF000000FF000000FF000000FF000000FF000000FF000000FF000000FF000000FF000000FF000000FF000000FF000000FF000000FF000000FF000000FF000000FF000000FF000000FF000000FF000000FF000000FF000000FF000000FF000000FF000000FF000000FFFFFFFFFF000000FF0000
310
00FF000000FFFFFFFFFFFFFFFFFF000000FF000000FF000000FF000000FF000000FF000000FF000000FF000000FF000000FF000000FF000000FF000000FF000000FF000000FF000000FF000000FF000000FF000000FF000000FF000000FF000000FF000000FF000000FF000000FF000000FF000000FFFFFFFFFFFFFFFFFFFF
310
FFFFFFFFFFFFFFFFFFFFFF000000FF000000FF000000FF000000FF000000FF000000FF000000FF000000FF000000FF000000FF000000FF000000FF000000FF000000FF000000FF000000FF000000FF000000FF000000FF000000FF000000FF000000FF000000FF000000FF000000FF000000FF000000FFFFFFFFFFFFFFFFFF
310
000000FF000000FF000000FF000000FF000000FF000000FF000000FF000000FF000000FF000000FF000000FF000000FF000000FF000000FF000000FF000000FF000000FF000000FF000000FF000000FF000000FF000000FF000000FF000000FF000000FF000000FF000000FF000000FF000000FF000000FFFFFFFFFFFFFFFF
310
FF000000FF000000FF000000FF000000FF000000FF000000FF000000FF000000FF000000FF000000FF000000FF000000FF000000FF000000FF000000FF000000FF000000FF000000FF000000FF000000FF000000FF000000FF000000FF000000FF000000FF000000FF000000FF000000FF000000FF000000FFFFFF00FFFFFF
310
FFFF000000FF000000FF000000FF000000FF000000FF000000FF000000FF000000FF000000FF000000FF000000FF000000FF000000FF000000FF000000FF000000FF000000FF000000FF000000FF000000FF000000FF000000FF000000FF000000FF000000FF000000FF000000FF000000FF000000FF000000FF000000FFFF
310
FFFFFF000000FF000000FF000000FF000000FF000000FF000000FF000000FF000000FF000000FF000000FF000000FF000000FF000000FF000000FF000000FF000000FF000000FF000000FF000000FF000000FF000000FF000000FF000000FF000000FF000000FF000000FF000000FF000000FF000000FF000000FF000000FF
310
000000FF000000FF000000FF000000FF000000FF000000FF000000FF000000FF000000FF000000FF000000FF000000FF000000FF000000FF000000FF000000FF000000FF000000FF
102
{BLKREFS
331
3C9E
102
}
  0
BLOCK_RECORD
  5
3C13
330
1
100
AcDbSymbolTableRecord
100
AcDbBlockTableRecord
  2
ファンカバ－ブレーキ_F2S-15_M_0003
340
0
310
28000000200000002000000001002000000000000010000001000000010000000000000000000000000000FF000000FF000000FF000000FF000000FF000000FF000000FF000000FF000000FF000000FF000000FF000000FF000000FF000000FF000000FF000000FF000000FF000000FF000000FF000000FF000000FF000000
310
FF000000FF000000FF000000FF000000FF000000FF000000FF000000FF000000FF000000FF000000FF000000FF000000FF000000FF000000FF000000FF000000FF000000FF000000FF000000FF000000FF000000FF000000FFFFFFFFFFFFFFFFFFFFFFFFFFFFFFFFFFFFFFFFFFFFFFFFFFFFFFFFFF000000FF000000FF0000
310
00FF000000FF000000FF000000FF000000FF000000FF000000FF000000FF000000FF000000FF000000FF000000FF000000FF000000FF000000FF000000FF000000FF000000FF000000FF000000FF000000FF000000FF000000FFFFFFFFFF000000FF000000FF000000FF000000FF000000FFFFFFFFFFFFFFFFFF000000FF00
310
0000FF000000FF000000FF000000FF000000FF000000FF000000FF000000FF000000FF000000FF000000FF000000FF000000FF000000FF000000FF000000FF000000FF000000FF000000FF000000FF000000FF000000FF000000FFFFFFFFFF000000FF000000FF000000FF000000FF000000FF000000FFFFFFFFFF000000FF
310
000000FF000000FF000000FF000000FF000000FF000000FF000000FF000000FF000000FF000000FF000000FF000000FF000000FF000000FF000000FF000000FF000000FF000000FF000000FF000000FF000000FF000000FF000000FFFFFFFFFF000000FF000000FF000000FF000000FF000000FF000000FFFFFFFFFF000000
310
FF000000FF000000FF000000FF000000FF000000FF000000FF000000FF000000FF000000FF000000FF000000FF000000FF000000FF000000FF000000FF000000FF000000FF000000FF000000FF000000FF000000FF000000FF000000FFFFFFFFFF000000FF000000FF000000FF000000FF000000FF000000FFFFFFFFFF0000
310
00FF000000FF000000FF000000FF000000FF000000FF000000FF000000FF000000FF000000FF000000FF000000FF000000FF000000FF000000FF000000FF000000FF000000FF000000FF000000FF000000FF000000FF000000FF000000FFFFFFFFFFFFFFFFFFFFFFFFFFFFFFFFFFFFFFFFFFFFFFFFFFFFFFFFFFFFFFFFFF00
310
0000FF000000FF000000FF000000FF000000FF000000FF000000FF000000FF000000FF000000FF000000FF000000FF000000FF000000FF000000FF000000FF000000FF000000FF000000FF000000FF000000FF000000FF000000FF000000FFFFFFFFFF000000FF000000FF000000FF000000FF000000FF000000FFFFFFFFFF
310
000000FF000000FF000000FF000000FF000000FF000000FF000000FF000000FF000000FF000000FF000000FF000000FF000000FF000000FF000000FF000000FF000000FF000000FF000000FF000000FF000000FF000000FF000000FF000000FFFFFFFFFF000000FF000000FF000000FF000000FF000000FF000000FFFFFFFF
310
FF000000FF000000FF000000FF000000FF000000FF000000FF000000FF000000FF000000FF000000FF000000FF000000FF000000FF000000FF000000FF000000FF000000FF000000FF000000FF000000FF000000FF000000FF000000FF000000FFFFFFFFFF000000FF000000FF000000FF000000FF000000FF000000FFFFFF
310
FFFF000000FF000000FF000000FF000000FF000000FF000000FF000000FF000000FF000000FF000000FF000000FF000000FF000000FF000000FF000000FF000000FF000000FF000000FF000000FF000000FF000000FF000000FF000000FF000000FFFFFFFFFF000000FF000000FF000000FF000000FF000000FF000000FFFF
310
FFFFFF000000FF000000FF000000FF000000FF000000FF000000FF000000FF000000FF000000FF000000FF000000FF000000FF000000FF000000FF000000FF000000FF000000FF000000FF000000FF000000FF000000FF000000FF000000FF000000FFFFFFFFFF000000FF000000FF000000FF000000FF000000FF000000FF
310
FFFFFFFF000000FF000000FF000000FF000000FF000000FF000000FF000000FF000000FF000000FF000000FF000000FF000000FF000000FF000000FF000000FF000000FF000000FF000000FF000000FF000000FF000000FF000000FF000000FF000000FFFFFFFFFF000000FF000000FF000000FF000000FF000000FF000000
310
FFFFFFFFFF000000FF000000FF000000FF000000FF000000FF000000FF000000FF000000FF000000FF000000FF000000FF000000FF000000FF000000FF000000FF000000FF000000FF000000FF000000FF000000FF000000FF000000FF000000FF000000FFFFFFFFFFFFFFFFFFFFFFFFFF000000FF000000FF000000FF0000
310
00FFFFFFFFFF000000FF000000FF000000FF000000FF000000FF000000FF000000FF000000FF000000FF000000FF000000FF000000FF000000FF000000FF000000FF000000FF000000FF000000FF000000FF000000FF000000FF000000FF000000FF000000FFFFFFFFFFFFFFFFFFFFFFFFFF000000FF000000FF000000FF00
310
0000FFFFFFFFFF000000FF000000FF000000FF000000FF000000FF000000FF000000FF000000FF000000FF000000FF000000FF000000FF000000FF000000FF000000FF000000FF000000FF000000FF000000FF000000FF000000FF000000FF000000FF000000FFFFFFFFFFFFFFFFFFFFFFFFFF000000FF000000FF000000FF
310
000000FFFFFFFFFF000000FF000000FF000000FF000000FF000000FF000000FF000000FF000000FF000000FF000000FF000000FF000000FF000000FF000000FF000000FF000000FF000000FF000000FF000000FF000000FF000000FF000000FF000000FF000000FFFFFFFFFFFFFFFFFFFFFFFFFF000000FF000000FF000000
310
FF000000FFFFFFFFFF000000FF000000FF000000FF000000FF000000FF000000FF000000FF000000FF000000FF000000FF000000FF000000FF000000FF000000FF000000FF000000FF000000FF000000FF000000FF000000FF000000FF000000FF000000FF000000FFFFFFFFFFFFFFFFFFFFFFFFFF000000FF000000FF0000
310
00FF000000FFFFFFFFFF000000FF000000FF000000FF000000FF000000FF000000FF000000FF000000FF000000FF000000FF000000FF000000FF000000FF000000FF000000FF000000FF000000FF000000FF000000FF000000FF000000FF000000FF000000FF000000FFFFFFFFFFFFFFFFFFFFFFFFFF000000FF000000FF00
310
0000FF000000FFFFFFFFFF000000FF000000FF000000FF000000FF000000FF000000FF000000FF000000FF000000FF000000FF000000FF000000FF000000FF000000FF000000FF000000FF000000FF000000FF000000FF000000FF000000FF000000FF000000FF000000FFFFFFFFFF000000FF000000FF000000FF000000FF
310
000000FF000000FFFFFFFFFF000000FF000000FF000000FF000000FF000000FF000000FF000000FF000000FF000000FF000000FF000000FF000000FF000000FF000000FF000000FF000000FF000000FF000000FF000000FF000000FF000000FF000000FF000000FF000000FFFFFFFFFF000000FF000000FF000000FF000000
310
FF000000FF000000FFFFFFFFFF000000FF000000FF000000FF000000FF000000FF000000FF000000FF000000FF000000FF000000FF000000FF000000FF000000FF000000FF000000FF000000FF000000FF000000FF000000FF000000FF000000FF000000FF000000FF000000FFFFFFFFFF000000FF000000FF000000FF0000
310
00FF000000FF000000FFFFFFFFFF000000FF000000FF000000FF000000FF000000FF000000FF000000FF000000FF000000FF000000FF000000FF000000FF000000FF000000FF000000FF000000FF000000FF000000FF000000FF000000FF000000FF000000FF000000FF000000FFFFFFFFFF000000FF000000FF000000FF00
310
0000FF000000FF000000FFFFFFFFFF000000FF000000FF000000FF000000FF000000FF000000FF000000FF000000FF000000FF000000FF000000FF000000FF000000FF000000FF000000FF000000FF000000FF000000FF000000FF000000FF000000FF000000FF000000FF000000FFFFFFFFFF000000FF000000FF000000FF
310
000000FF000000FF000000FFFFFFFFFF000000FF000000FF000000FF000000FF000000FF000000FF000000FF000000FF000000FF000000FF000000FF000000FF000000FF000000FF000000FF000000FF000000FF000000FF000000FF000000FF000000FF000000FF000000FF000000FFFFFFFFFF000000FF000000FF000000
310
FF000000FF000000FF000000FFFFFFFFFF000000FF000000FF000000FF000000FF000000FF000000FF000000FF000000FF000000FF000000FF000000FF000000FF000000FF000000FF000000FF000000FF000000FF000000FF000000FF000000FF000000FF000000FF000000FF000000FFFFFFFFFFFFFFFFFFFFFFFFFFFFFF
310
FFFFFFFFFFFFFFFFFFFFFFFFFFFFFFFFFFFF000000FF000000FF000000FF000000FF000000FF000000FF000000FF000000FF000000FF000000FF000000FF000000FF000000FF000000FF000000FF000000FF000000FF000000FF000000FF000000FF000000FF000000FF000000FF000000FFFFFFFFFF000000FF000000FF00
310
0000FF000000FF000000FF000000FFFFFFFFFF000000FF000000FF000000FF000000FF000000FF000000FF000000FF000000FF000000FF000000FF000000FF000000FF000000FF000000FF000000FF000000FF000000FF000000FF000000FF000000FF000000FF000000FF000000FF000000FFFFFFFFFF000000FF000000FF
310
000000FF000000FF000000FF000000FFFFFFFFFF000000FF000000FF000000FF000000FF000000FF000000FF000000FF000000FF000000FF000000FF000000FF000000FF000000FF000000FF000000FF000000FF000000FF000000FF000000FF000000FF000000FF000000FF000000FF000000FFFFFFFFFF000000FF000000
310
FF000000FF000000FF000000FF000000FFFFFFFFFF000000FF000000FF000000FF000000FF000000FF000000FF000000FF000000FF000000FF000000FF000000FF000000FF000000FF000000FF000000FF000000FF000000FF000000FF000000FF000000FF000000FF000000FF000000FF000000FFFFFFFFFF000000FF0000
310
00FF000000FF000000FF000000FFFFFFFFFFFFFFFFFF000000FF000000FF000000FF000000FF000000FF000000FF000000FF000000FF000000FF000000FF000000FF000000FF000000FF000000FF000000FF000000FF000000FF000000FF000000FF000000FF000000FF000000FF000000FF000000FFFFFFFFFFFFFFFFFFFF
310
FFFFFFFFFFFFFFFFFFFFFFFFFFFFFFFFFFFFFF000000FF000000FF000000FF000000FF000000FF000000FF000000FF000000FF000000FF000000FF000000FF000000FF000000FF000000FF000000FF000000FF000000FF000000FF000000FF000000FF000000FF000000FF000000FF000000FF000000FF000000FF000000FF
310
000000FF000000FF000000FF000000FF000000FF000000FF000000FF000000FF000000FF000000FF000000FF000000FF000000FF000000FF000000FF000000FF000000FF000000FF
102
{BLKREFS
331
3CA0
102
}
  0
BLOCK_RECORD
  5
3CA1
330
1
100
AcDbSymbolTableRecord
100
AcDbBlockTableRecord
  2
*D26
340
0
  0
BLOCK_RECORD
  5
3CAD
330
1
100
AcDbSymbolTableRecord
100
AcDbBlockTableRecord
  2
*D27
340
0
  0
BLOCK_RECORD
  5
3CB9
330
1
100
AcDbSymbolTableRecord
100
AcDbBlockTableRecord
  2
*D28
340
0
  0
BLOCK_RECORD
  5
3CC7
330
1
100
AcDbSymbolTableRecord
100
AcDbBlockTableRecord
  2
*D29
340
0
  0
BLOCK_RECORD
  5
3CD3
330
1
100
AcDbSymbolTableRecord
100
AcDbBlockTableRecord
  2
*D30
340
0
  0
BLOCK_RECORD
  5
3CDF
330
1
100
AcDbSymbolTableRecord
100
AcDbBlockTableRecord
  2
*D31
340
0
  0
BLOCK_RECORD
  5
3CF9
330
1
100
AcDbSymbolTableRecord
100
AcDbBlockTableRecord
  2
*D32
340
0
  0
BLOCK_RECORD
  5
3D05
330
1
100
AcDbSymbolTableRecord
100
AcDbBlockTableRecord
  2
*D33
340
0
  0
BLOCK_RECORD
  5
3D11
330
1
100
AcDbSymbolTableRecord
100
AcDbBlockTableRecord
  2
*D34
340
0
  0
BLOCK_RECORD
  5
3D1D
330
1
100
AcDbSymbolTableRecord
100
AcDbBlockTableRecord
  2
*D35
340
0
  0
BLOCK_RECORD
  5
3D29
330
1
100
AcDbSymbolTableRecord
100
AcDbBlockTableRecord
  2
*D36
340
0
  0
BLOCK_RECORD
  5
3D35
330
1
100
AcDbSymbolTableRecord
100
AcDbBlockTableRecord
  2
*D37
340
0
  0
BLOCK_RECORD
  5
3D42
330
1
100
AcDbSymbolTableRecord
100
AcDbBlockTableRecord
  2
*D38
340
0
  0
BLOCK_RECORD
  5
3D4E
330
1
100
AcDbSymbolTableRecord
100
AcDbBlockTableRecord
  2
*D39
340
0
  0
BLOCK_RECORD
  5
3D5A
330
1
100
AcDbSymbolTableRecord
100
AcDbBlockTableRecord
  2
*D40
340
0
  0
BLOCK_RECORD
  5
3D66
330
1
100
AcDbSymbolTableRecord
100
AcDbBlockTableRecord
  2
*D41
340
0
  0
BLOCK_RECORD
  5
3D72
330
1
100
AcDbSymbolTableRecord
100
AcDbBlockTableRecord
  2
*D42
340
0
  0
BLOCK_RECORD
  5
3D7E
330
1
100
AcDbSymbolTableRecord
100
AcDbBlockTableRecord
  2
*D43
340
0
  0
BLOCK_RECORD
  5
3D8A
330
1
100
AcDbSymbolTableRecord
100
AcDbBlockTableRecord
  2
*D44
340
0
  0
BLOCK_RECORD
  5
3D96
330
1
100
AcDbSymbolTableRecord
100
AcDbBlockTableRecord
  2
*D45
340
0
  0
BLOCK_RECORD
  5
3DA2
330
1
100
AcDbSymbolTableRecord
100
AcDbBlockTableRecord
  2
*D46
340
0
  0
BLOCK_RECORD
  5
3DAE
330
1
100
AcDbSymbolTableRecord
100
AcDbBlockTableRecord
  2
*D47
340
0
  0
BLOCK_RECORD
  5
3DBA
330
1
100
AcDbSymbolTableRecord
100
AcDbBlockTableRecord
  2
*D48
340
0
  0
BLOCK_RECORD
  5
3DC6
330
1
100
AcDbSymbolTableRecord
100
AcDbBlockTableRecord
  2
*D49
340
0
  0
BLOCK_RECORD
  5
3DD2
330
1
100
AcDbSymbolTableRecord
100
AcDbBlockTableRecord
  2
*D50
340
0
  0
BLOCK_RECORD
  5
3DDE
330
1
100
AcDbSymbolTableRecord
100
AcDbBlockTableRecord
  2
*D51
340
0
  0
BLOCK_RECORD
  5
3DEB
330
1
100
AcDbSymbolTableRecord
100
AcDbBlockTableRecord
  2
*D52
340
0
  0
BLOCK_RECORD
  5
473A
330
1
100
AcDbSymbolTableRecord
100
AcDbBlockTableRecord
  2
A$Cdecd00d5
340
0
102
{BLKREFS
331
4823
102
}
  0
BLOCK_RECORD
  5
4825
102
{ACAD_XDICTIONARY
360
4826
102
}
330
1
100
AcDbSymbolTableRecord
100
AcDbBlockTableRecord
  2
A$C0221c00d
340
0
102
{BLKREFS
331
48C3
102
}
  0
BLOCK_RECORD
  5
48CC
102
{ACAD_XDICTIONARY
360
48CD
102
}
330
1
100
AcDbSymbolTableRecord
100
AcDbBlockTableRecord
  2
A$Cd9f2b5d0
340
0
102
{BLKREFS
331
4944
102
}
  0
BLOCK_RECORD
  5
4959
330
1
100
AcDbSymbolTableRecord
100
AcDbBlockTableRecord
  2
*D63
340
0
  0
ENDTAB
  0
ENDSEC
  0
SECTION
  2
BLOCKS
  0
BLOCK
  5
5D
330
2
100
AcDbEntity
  8
0
100
AcDbBlockBegin
  2
*MODEL_SPACE
 70
     0
 10
0.0
 20
0.0
 30
0.0
  3
*MODEL_SPACE
  1

  0
ENDBLK
  5
5F
330
2
100
AcDbEntity
  8
0
100
AcDbBlockEnd
  0
BLOCK
  5
4BD3
330
4BD1
100
AcDbEntity
 67
     1
  8
0
100
AcDbBlockBegin
  2
*Paper_Space
 70
     0
 10
0.0
 20
0.0
 30
0.0
  3
*Paper_Space
  1

  0
ENDBLK
  5
4BD4
330
4BD1
100
AcDbEntity
 67
     1
  8
0
100
AcDbBlockEnd
  0
BLOCK
  5
4B0
330
4AC
100
AcDbEntity
  8
0
100
AcDbBlockBegin
  2
黒丸矢印1
 70
     0
 10
0.0
 20
0.0
 30
0.0
  3
黒丸矢印1
  1

  0
HATCH
  5
4AD
330
4AC
100
AcDbEntity
  8
0
100
AcDbHatch
 10
0.0
 20
0.0
 30
0.0
210
0.0
220
0.0
230
1.0
  2
SOLID
 70
     1
 71
     1
 91
        1
 92
        7
 72
     1
 73
     1
 93
        2
 10
-0.25
 20
0.0
 42
1.0
 10
0.25
 20
0.0
 42
1.0
 97
        1
330
4AE
 75
     0
 76
     1
 47
0.0031599728
 98
        1
 10
-0.0919668375711354
 20
0.0618998464179867
  0
CIRCLE
  5
4AE
102
{ACAD_REACTORS
330
4AD
102
}
330
4AC
100
AcDbEntity
  8
0
100
AcDbCircle
 10
0.0
 20
0.0
 30
0.0
 40
0.25
  0
LINE
  5
4AF
330
4AC
100
AcDbEntity
  8
0
100
AcDbLine
 10
0.0
 20
0.0
 30
0.0
 11
-1.0
 21
0.0
 31
0.0
  0
ENDBLK
  5
4B1
330
4AC
100
AcDbEntity
  8
0
100
AcDbBlockEnd
  0
BLOCK
  5
3A02
330
39FF
100
AcDbEntity
  8
0
100
AcDbBlockBegin
  2
F2F-18L_0002
 70
     0
 10
0.0
 20
0.0
 30
0.0
  3
F2F-18L_0002
  1

  0
LINE
  5
3FDE
330
39FF
100
AcDbEntity
  8
CENTER
100
AcDbLine
 10
-2.3795523411
 20
0.0
 30
0.0
 11
2.3795523411
 21
0.0
 31
0.0
  0
LINE
  5
3FDF
330
39FF
100
AcDbEntity
  8
0
100
AcDbLine
 10
70.6902166045
 20
-45.0
 30
0.0
 11
144.8703
 21
-45.0
 31
0.0
  0
ARC
  5
3FE0
330
39FF
100
AcDbEntity
  8
0
100
AcDbCircle
 10
70.6902166045
 20
-47.0
 30
0.0
 40
2.0
100
AcDbArc
 50
90.0
 51
179.0
  0
LINE
  5
3FE1
330
39FF
100
AcDbEntity
  8
0
100
AcDbLine
 10
72.3170047144
 20
45.0
 30
0.0
 11
144.8703
 21
45.0
 31
0.0
  0
LINE
  5
3FE2
330
39FF
100
AcDbEntity
  8
0
100
AcDbLine
 10
-43.6518568834
 20
-48.0
 30
0.0
 11
-44.4897
 21
0.0
 31
0.0
  0
LINE
  5
3FE3
330
39FF
100
AcDbEntity
  8
0
100
AcDbLine
 10
68.6724568834
 20
-48.0
 30
0.0
 11
68.969802253
 21
-30.9650951871
 31
0.0
  0
LINE
  5
3FE4
330
39FF
100
AcDbEntity
  8
0
100
AcDbLine
 10
-43.8787727275
 20
35.0
 30
0.0
 11
68.8993727275
 21
35.0
 31
0.0
  0
LINE
  5
3FE6
330
39FF
100
AcDbEntity
  8
0
100
AcDbLine
 10
-43.8787727275
 20
35.0
 30
0.0
 11
-44.4897
 21
0.0
 31
0.0
  0
LINE
  5
3FE7
330
39FF
100
AcDbEntity
  8
0
100
AcDbLine
 10
68.8993727275
 20
35.0
 30
0.0
 11
68.969802253
 21
30.9650951871
 31
0.0
  0
LINE
  5
3FE8
330
39FF
100
AcDbEntity
  8
0
100
AcDbLine
 10
-43.6518568834
 20
-48.0
 30
0.0
 11
68.6724568834
 21
-48.0
 31
0.0
  0
LINE
  5
3FE9
330
39FF
100
AcDbEntity
  8
0
100
AcDbLine
 10
144.8703
 20
-29.0
 30
0.0
 11
61.9694976433
 21
-29.0
 31
0.0
  0
ARC
  5
3FEA
330
39FF
100
AcDbEntity
  8
0
100
AcDbCircle
 10
70.9694976433
 20
-31.0
 30
0.0
 40
2.0
100
AcDbArc
 50
90.0
 51
179.0
  0
LINE
  5
3FEB
330
39FF
100
AcDbEntity
  8
0
100
AcDbLine
 10
144.8703
 20
29.0
 30
0.0
 11
61.9694976433
 21
29.0
 31
0.0
  0
ARC
  5
3FEC
330
39FF
100
AcDbEntity
  8
0
100
AcDbCircle
 10
70.9694976433
 20
31.0
 30
0.0
 40
2.0
100
AcDbArc
 50
181.0
 51
270.0
  0
ARC
  5
3FED
330
39FF
100
AcDbEntity
  8
0
100
AcDbCircle
 10
61.9694976433
 20
-31.0
 30
0.0
 40
2.0
100
AcDbArc
 50
90.0
 51
179.0
  0
ARC
  5
3FEE
330
39FF
100
AcDbEntity
  8
0
100
AcDbCircle
 10
61.9694976433
 20
31.0
 30
0.0
 40
2.0
100
AcDbArc
 50
181.0
 51
270.0
  0
LINE
  5
3FEF
330
39FF
100
AcDbEntity
  8
0
100
AcDbLine
 10
-33.7876061247
 20
5.0
 30
0.0
 11
-13.4554737513
 21
5.0
 31
0.0
  0
LINE
  5
3FF0
330
39FF
100
AcDbEntity
  8
0
100
AcDbLine
 10
-25.6592533815
 20
48.0
 30
0.0
 11
-25.6592533815
 21
7.5376024159
 31
0.0
  0
LINE
  5
3FF1
330
39FF
100
AcDbEntity
  8
0
100
AcDbLine
 10
-13.4554737513
 20
5.0
 30
0.0
 11
-13.4554737513
 21
48.0
 31
0.0
  0
ARC
  5
3FF2
330
39FF
100
AcDbEntity
  8
0
100
AcDbCircle
 10
-25.6592533815
 20
-7.4623975841
 30
0.0
 40
15.0
100
AcDbArc
 50
69.4077044077
 51
90.0
  0
LINE
  5
3FF3
330
39FF
100
AcDbEntity
  8
0
100
AcDbLine
 10
-18.731210389
 20
5.958397423
 30
0.0
 11
-20.3835167438
 21
6.5792049929
 31
0.0
  0
ARC
  5
3FF4
330
39FF
100
AcDbEntity
  8
0
100
AcDbCircle
 10
-13.4554737513
 20
20.0
 30
0.0
 40
15.0
100
AcDbArc
 50
249.4077044077
 51
270.0
  0
ARC
  5
3FF5
330
39FF
100
AcDbEntity
  8
0
100
AcDbCircle
 10
-33.7876061247
 20
12.0
 30
0.0
 40
7.0
100
AcDbArc
 50
270.0
 51
300.4144326901
  0
ARC
  5
3FF6
330
39FF
100
AcDbEntity
  8
0
100
AcDbCircle
 10
-25.6592533815
 20
0.5376024159
 30
0.0
 40
7.0
100
AcDbArc
 50
90.0
 51
120.4144326901
  0
LINE
  5
3FF7
330
39FF
100
AcDbEntity
  8
0
100
AcDbLine
 10
-29.203010476
 20
6.5743056267
 30
0.0
 11
-30.2438490302
 21
5.9632967892
 31
0.0
  0
LINE
  5
3FF8
330
39FF
100
AcDbEntity
  8
0
100
AcDbLine
 10
38.4096242935
 20
5.0
 30
0.0
 11
38.4096242935
 21
48.0
 31
0.0
  0
LINE
  5
3FF9
330
39FF
100
AcDbEntity
  8
0
100
AcDbLine
 10
50.6134039236
 20
48.0
 30
0.0
 11
50.6134039236
 21
7.5376024159
 31
0.0
  0
ARC
  5
3FFA
330
39FF
100
AcDbEntity
  8
0
100
AcDbCircle
 10
50.6134039236
 20
0.5376024159
 30
0.0
 40
7.0
100
AcDbArc
 50
59.5855673099
 51
90.0
  0
LINE
  5
3FFB
330
39FF
100
AcDbEntity
  8
0
100
AcDbLine
 10
58.7417566669
 20
5.0
 30
0.0
 11
38.4096242935
 21
5.0
 31
0.0
  0
ARC
  5
3FFC
330
39FF
100
AcDbEntity
  8
0
100
AcDbCircle
 10
58.7417566669
 20
12.0
 30
0.0
 40
7.0
100
AcDbArc
 50
239.5855673099
 51
270.0
  0
LINE
  5
3FFD
330
39FF
100
AcDbEntity
  8
0
100
AcDbLine
 10
54.1571610181
 20
6.5743056267
 30
0.0
 11
55.1979995724
 21
5.9632967892
 31
0.0
  0
ARC
  5
3FFE
330
39FF
100
AcDbEntity
  8
0
100
AcDbCircle
 10
50.6134039236
 20
-7.4623975841
 30
0.0
 40
15.0
100
AcDbArc
 50
90.0
 51
110.5922955923
  0
ARC
  5
3FFF
330
39FF
100
AcDbEntity
  8
0
100
AcDbCircle
 10
38.4096242935
 20
20.0
 30
0.0
 40
15.0
100
AcDbArc
 50
270.0
 51
290.5922955923
  0
LINE
  5
4000
330
39FF
100
AcDbEntity
  8
0
100
AcDbLine
 10
43.6853609311
 20
5.958397423
 30
0.0
 11
45.337667286
 21
6.5792049929
 31
0.0
  0
LINE
  5
4001
330
39FF
100
AcDbEntity
  8
0
100
AcDbLine
 10
38.4096242935
 20
-5.0
 30
0.0
 11
38.4096242935
 21
-47.5001713375
 31
0.0
  0
LINE
  5
4002
330
39FF
100
AcDbEntity
  8
0
100
AcDbLine
 10
50.6134039236
 20
-47.5001713375
 30
0.0
 11
50.6134039236
 21
-7.5376024159
 31
0.0
  0
ARC
  5
4003
330
39FF
100
AcDbEntity
  8
0
100
AcDbCircle
 10
38.4096242935
 20
-20.0
 30
0.0
 40
15.0
100
AcDbArc
 50
69.4077044077
 51
90.0
  0
LINE
  5
4004
330
39FF
100
AcDbEntity
  8
0
100
AcDbLine
 10
58.7417566669
 20
-5.0
 30
0.0
 11
38.4096242935
 21
-5.0
 31
0.0
  0
ARC
  5
4005
330
39FF
100
AcDbEntity
  8
0
100
AcDbCircle
 10
50.6134039236
 20
-0.5376024159
 30
0.0
 40
7.0
100
AcDbArc
 50
270.0
 51
300.4144326901
  0
ARC
  5
4006
330
39FF
100
AcDbEntity
  8
0
100
AcDbCircle
 10
50.6134039236
 20
7.4623975841
 30
0.0
 40
15.0
100
AcDbArc
 50
249.4077044077
 51
270.0
  0
LINE
  5
4007
330
39FF
100
AcDbEntity
  8
0
100
AcDbLine
 10
43.6853609311
 20
-5.958397423
 30
0.0
 11
45.337667286
 21
-6.5792049929
 31
0.0
  0
LINE
  5
4008
330
39FF
100
AcDbEntity
  8
0
100
AcDbLine
 10
54.1571610181
 20
-6.5743056267
 30
0.0
 11
55.1979995724
 21
-5.9632967892
 31
0.0
  0
ARC
  5
4009
330
39FF
100
AcDbEntity
  8
0
100
AcDbCircle
 10
58.7417566669
 20
-12.0
 30
0.0
 40
7.0
100
AcDbArc
 50
90.0
 51
120.4144326901
  0
LINE
  5
400A
330
39FF
100
AcDbEntity
  8
0
100
AcDbLine
 10
-13.4554737513
 20
-5.0
 30
0.0
 11
-13.4554737513
 21
-48.0
 31
0.0
  0
LINE
  5
400B
330
39FF
100
AcDbEntity
  8
0
100
AcDbLine
 10
-25.6592533815
 20
-48.0
 30
0.0
 11
-25.6592533815
 21
-7.5376024159
 31
0.0
  0
ARC
  5
400C
330
39FF
100
AcDbEntity
  8
0
100
AcDbCircle
 10
-25.6592533815
 20
-0.5376024159
 30
0.0
 40
7.0
100
AcDbArc
 50
239.5855673099
 51
270.0
  0
LINE
  5
400D
330
39FF
100
AcDbEntity
  8
0
100
AcDbLine
 10
-33.7876061247
 20
-5.0
 30
0.0
 11
-13.4554737513
 21
-5.0
 31
0.0
  0
ARC
  5
400E
330
39FF
100
AcDbEntity
  8
0
100
AcDbCircle
 10
-33.7876061247
 20
-12.0
 30
0.0
 40
7.0
100
AcDbArc
 50
59.5855673099
 51
90.0
  0
LINE
  5
400F
330
39FF
100
AcDbEntity
  8
0
100
AcDbLine
 10
-29.203010476
 20
-6.5743056267
 30
0.0
 11
-30.2438490302
 21
-5.9632967892
 31
0.0
  0
ARC
  5
4010
330
39FF
100
AcDbEntity
  8
0
100
AcDbCircle
 10
-25.6592533815
 20
7.4623975841
 30
0.0
 40
15.0
100
AcDbArc
 50
270.0
 51
290.5922955923
  0
ARC
  5
4011
330
39FF
100
AcDbEntity
  8
0
100
AcDbCircle
 10
-13.4554737513
 20
-20.0
 30
0.0
 40
15.0
100
AcDbArc
 50
90.0
 51
110.5922955923
  0
LINE
  5
4012
330
39FF
100
AcDbEntity
  8
0
100
AcDbLine
 10
-18.731210389
 20
-5.958397423
 30
0.0
 11
-20.3835167438
 21
-6.5792049929
 31
0.0
  0
LINE
  5
4013
330
39FF
100
AcDbEntity
  8
0
100
AcDbLine
 10
144.8703
 20
-45.0
 30
0.0
 11
144.8703
 21
-6.8718909966
 31
0.0
  0
LINE
  5
4015
330
39FF
100
AcDbEntity
  8
0
100
AcDbLine
 10
70.1064890231
 20
34.9869115258
 30
0.0
 11
70.3176900644
 21
43.0523538966
 31
0.0
  0
ARC
  5
4016
330
39FF
100
AcDbEntity
  8
0
100
AcDbCircle
 10
69.6066603606
 20
35.0
 30
0.0
 40
0.5
100
AcDbArc
 50
270.0
 51
358.5
  0
ARC
  5
4017
330
39FF
100
AcDbEntity
  8
0
100
AcDbCircle
 10
72.3170047144
 20
43.0
 30
0.0
 40
2.0
100
AcDbArc
 50
90.0
 51
178.5
  0
LINE
  5
4018
330
39FF
100
AcDbEntity
  8
0
100
AcDbLine
 10
69.6066603606
 20
34.5
 30
0.0
 11
68.90810026
 21
34.5
 31
0.0
  0
LINE
  5
4019
330
39FF
100
AcDbEntity
  8
0
100
AcDbLine
 10
-43.6518568834
 20
48.0
 30
0.0
 11
-43.8787727275
 21
35.0
 31
0.0
  0
LINE
  5
401A
330
39FF
100
AcDbEntity
  8
0
  6
Continuous
100
AcDbLine
 10
-43.6518568834
 20
48.0
 30
0.0
 11
68.6724568834
 21
48.0
 31
0.0
  0
LINE
  5
401B
330
39FF
100
AcDbEntity
  8
0
100
AcDbLine
 10
68.6724568834
 20
48.0
 30
0.0
 11
68.8993727275
 21
35.0
 31
0.0
  0
LINE
  5
401C
330
39FF
100
AcDbEntity
  8
HIDS
100
AcDbLine
 10
-30.5
 20
-10.0
 30
0.0
 11
-30.5
 21
-48.0
 31
0.0
  0
LINE
  5
401D
330
39FF
100
AcDbEntity
  8
HIDS
100
AcDbLine
 10
-40.5
 20
-10.0
 30
0.0
 11
-40.5
 21
-48.0
 31
0.0
  0
LINE
  5
401E
330
39FF
100
AcDbEntity
  8
HIDS
100
AcDbLine
 10
-31.200012
 20
35.0
 30
0.0
 11
-31.200012
 21
-48.0
 31
0.0
  0
LINE
  5
401F
330
39FF
100
AcDbEntity
  8
HIDS
100
AcDbLine
 10
-39.799988
 20
35.0
 30
0.0
 11
-39.799988
 21
-48.0
 31
0.0
  0
LINE
  5
4020
330
39FF
100
AcDbEntity
  8
CENTER
100
AcDbLine
 10
-35.5
 20
53.248291
 30
0.0
 11
-35.5
 21
-52.821869
 31
0.0
  0
LINE
  5
4021
330
39FF
100
AcDbEntity
  8
CENTER
100
AcDbLine
 10
0.0
 20
55.9414731563
 30
0.0
 11
0.0
 21
-55.9414731563
 31
0.0
  0
LINE
  5
4022
330
39FF
100
AcDbEntity
  8
HIDS
  6
sekkei_H
100
AcDbLine
 10
-30.25
 20
35.0
 30
0.0
 11
-30.25
 21
48.0
 31
0.0
  0
LINE
  5
4023
330
39FF
100
AcDbEntity
  8
HIDS
  6
sekkei_H
100
AcDbLine
 10
-40.75
 20
35.0
 30
0.0
 11
-40.75
 21
48.0
 31
0.0
  0
LINE
  5
4024
330
39FF
100
AcDbEntity
  8
HIDS
100
AcDbLine
 10
-40.5
 20
10.0
 30
0.0
 11
-30.5
 21
10.0
 31
0.0
  0
LINE
  5
4025
330
39FF
100
AcDbEntity
  8
HIDS
100
AcDbLine
 10
-40.5
 20
-10.0
 30
0.0
 11
-30.5
 21
-10.0
 31
0.0
  0
LINE
  5
4026
330
39FF
100
AcDbEntity
  8
HIDS
100
AcDbLine
 10
-40.5
 20
35.0
 30
0.0
 11
-40.5
 21
10.0
 31
0.0
  0
LINE
  5
4027
330
39FF
100
AcDbEntity
  8
HIDS
100
AcDbLine
 10
-30.5
 20
35.0
 30
0.0
 11
-30.5
 21
10.0
 31
0.0
  0
LINE
  5
4028
330
39FF
100
AcDbEntity
  8
HIDS
100
AcDbLine
 10
65.5
 20
-10.0
 30
0.0
 11
65.5
 21
-48.0
 31
0.0
  0
LINE
  5
4029
330
39FF
100
AcDbEntity
  8
HIDS
100
AcDbLine
 10
55.5
 20
-10.0
 30
0.0
 11
55.5
 21
-48.0
 31
0.0
  0
LINE
  5
402A
330
39FF
100
AcDbEntity
  8
HIDS
100
AcDbLine
 10
56.200012
 20
35.0
 30
0.0
 11
56.200012
 21
-48.0
 31
0.0
  0
LINE
  5
402B
330
39FF
100
AcDbEntity
  8
HIDS
100
AcDbLine
 10
64.799988
 20
35.0
 30
0.0
 11
64.799988
 21
-48.0
 31
0.0
  0
LINE
  5
402C
330
39FF
100
AcDbEntity
  8
CENTER
100
AcDbLine
 10
60.5
 20
53.248291
 30
0.0
 11
60.5
 21
-52.821869
 31
0.0
  0
LINE
  5
402D
330
39FF
100
AcDbEntity
  8
HIDS
  6
sekkei_H
100
AcDbLine
 10
65.75
 20
35.0
 30
0.0
 11
65.75
 21
48.0
 31
0.0
  0
LINE
  5
402E
330
39FF
100
AcDbEntity
  8
HIDS
  6
sekkei_H
100
AcDbLine
 10
55.25
 20
35.0
 30
0.0
 11
55.25
 21
48.0
 31
0.0
  0
LINE
  5
402F
330
39FF
100
AcDbEntity
  8
HIDS
100
AcDbLine
 10
55.5
 20
35.0
 30
0.0
 11
55.5
 21
10.0
 31
0.0
  0
LINE
  5
4030
330
39FF
100
AcDbEntity
  8
HIDS
100
AcDbLine
 10
65.5
 20
35.0
 30
0.0
 11
65.5
 21
10.0
 31
0.0
  0
LINE
  5
4031
330
39FF
100
AcDbEntity
  8
HIDS
100
AcDbLine
 10
55.5
 20
-10.0
 30
0.0
 11
65.5
 21
-10.0
 31
0.0
  0
LINE
  5
4032
330
39FF
100
AcDbEntity
  8
HIDS
100
AcDbLine
 10
55.5
 20
10.0
 30
0.0
 11
65.5
 21
10.0
 31
0.0
  0
LINE
  5
4033
330
39FF
100
AcDbEntity
  8
0
100
AcDbLine
 10
-9.31134
 20
-49.0
 30
0.0
 11
9.31134
 21
-49.0
 31
0.0
  0
LINE
  5
4034
330
39FF
100
AcDbEntity
  8
0
100
AcDbLine
 10
-11.5
 20
-79.0
 30
0.0
 11
9.0
 21
-79.0
 31
0.0
  0
LINE
  5
4035
330
39FF
100
AcDbEntity
  8
0
100
AcDbLine
 10
-8.485291
 20
-79.0
 30
0.0
 11
-8.485291
 21
-55.0
 31
0.0
  0
LINE
  5
4036
330
39FF
100
AcDbEntity
  8
0
100
AcDbLine
 10
-11.5
 20
-79.0
 30
0.0
 11
-11.5
 21
-52.0
 31
0.0
  0
LINE
  5
4037
330
39FF
100
AcDbEntity
  8
0
100
AcDbLine
 10
-10.0
 20
-48.0
 30
0.0
 11
-10.0
 21
-48.222565
 31
0.0
  0
ARC
  5
4038
330
39FF
100
AcDbEntity
  8
0
100
AcDbCircle
 10
-9.31134
 20
-48.5
 30
0.0
 40
0.5
100
AcDbArc
 50
210.0
 51
270.0
  0
ARC
  5
4039
330
39FF
100
AcDbEntity
  8
0
100
AcDbCircle
 10
-8.099976
 20
-47.598083
 30
0.0
 40
2.0
100
AcDbArc
 50
198.19487
 51
210.0
  0
LINE
  5
403A
330
39FF
100
AcDbEntity
  8
0
100
AcDbLine
 10
-9.744324
 20
-48.75
 30
0.0
 11
-9.832031
 21
-48.598083
 31
0.0
  0
ARC
  5
403B
330
39FF
100
AcDbEntity
  8
0
100
AcDbCircle
 10
-17.485291
 20
-55.0
 30
0.0
 40
9.000010000000003
100
AcDbArc
 50
0.0
 51
19.471197
  0
LINE
  5
403C
330
39FF
100
AcDbEntity
  8
0
100
AcDbLine
 10
-9.0
 20
-49.0
 30
0.0
 11
-9.0
 21
-52.0
 31
0.0
  0
LINE
  5
403D
330
39FF
100
AcDbEntity
  8
0
100
AcDbLine
 10
-11.5
 20
-52.0
 30
0.0
 11
-9.0
 21
-52.0
 31
0.0
  0
LINE
  5
403E
330
39FF
100
AcDbEntity
  8
0
100
AcDbLine
 10
9.0
 20
-49.0
 30
0.0
 11
9.0
 21
-79.0
 31
0.0
  0
LINE
  5
403F
330
39FF
100
AcDbEntity
  8
0
100
AcDbLine
 10
10.0
 20
-48.0
 30
0.0
 11
10.0
 21
-48.222565
 31
0.0
  0
ARC
  5
4040
330
39FF
100
AcDbEntity
  8
0
100
AcDbCircle
 10
9.31134
 20
-48.5
 30
0.0
 40
0.5
100
AcDbArc
 50
270.0
 51
330.0
  0
ARC
  5
4041
330
39FF
100
AcDbEntity
  8
0
100
AcDbCircle
 10
8.099976
 20
-47.598083
 30
0.0
 40
2.0
100
AcDbArc
 50
330.0
 51
341.805128
  0
LINE
  5
4042
330
39FF
100
AcDbEntity
  8
0
100
AcDbLine
 10
9.744324
 20
-48.75
 30
0.0
 11
9.832031
 21
-48.598083
 31
0.0
  0
LINE
  5
4043
330
39FF
100
AcDbEntity
  8
CENTER
100
AcDbLine
 10
0.0
 20
-83.131256
 30
0.0
 11
0.0
 21
-55.9414731563
 31
0.0
  0
LINE
  5
4044
330
39FF
100
AcDbEntity
  8
0
100
AcDbLine
 10
144.8703
 20
6.8718909966
 30
0.0
 11
144.8703
 21
45.0
 31
0.0
  0
ENDBLK
  5
3A6A
330
39FF
100
AcDbEntity
  8
0
100
AcDbBlockEnd
  0
BLOCK
  5
3BE0
330
3BDF
100
AcDbEntity
  8
0
100
AcDbBlockBegin
  2
ファンカバ－ブレーキ_F2S-15_M_0001
 70
     0
 10
0.0
 20
0.0
 30
0.0
  3
ファンカバ－ブレーキ_F2S-15_M_0001
  1

  0
LINE
  5
3BE1
330
3BDF
100
AcDbEntity
  8
0
100
AcDbLine
 10
-20.0
 20
-42.0
 30
0.0
 11
-20.0
 21
42.0
 31
0.0
  0
LINE
  5
3BE2
330
3BDF
100
AcDbEntity
  8
0
100
AcDbLine
 10
0.0
 20
-45.0
 30
0.0
 11
0.0
 21
45.0
 31
0.0
  0
LINE
  5
3BE3
330
3BDF
100
AcDbEntity
  8
0
100
AcDbLine
 10
-20.5
 20
35.0
 30
0.0
 11
-20.5
 21
-35.0
 31
0.0
  0
LINE
  5
3BE4
330
3BDF
100
AcDbEntity
  8
0
100
AcDbLine
 10
0.0
 20
-34.409302
 30
0.0
 11
-18.25
 21
-34.409302
 31
0.0
  0
LINE
  5
3BE5
330
3BDF
100
AcDbEntity
  8
0
100
AcDbLine
 10
-15.958526
 20
-45.0
 30
0.0
 11
0.0
 21
-45.0
 31
0.0
  0
LINE
  5
3BE6
330
3BDF
100
AcDbEntity
  8
0
100
AcDbLine
 10
-19.422653
 20
-43.0
 30
0.0
 11
-20.0
 21
-42.0
 31
0.0
  0
ARC
  5
3BE7
330
3BDF
100
AcDbEntity
  8
0
100
AcDbCircle
 10
-15.958526
 20
-41.0
 30
0.0
 40
4.0
100
AcDbArc
 50
209.999603
 51
270.0
  0
LINE
  5
3BE8
330
3BDF
100
AcDbEntity
  8
0
100
AcDbLine
 10
-20.5
 20
-35.0
 30
0.0
 11
-20.0
 21
-35.5
 31
0.0
  0
LINE
  5
3BE9
330
3BDF
100
AcDbEntity
  8
0
100
AcDbLine
 10
0.0
 20
34.409302
 30
0.0
 11
-18.25
 21
34.409302
 31
0.0
  0
LINE
  5
3BEA
330
3BDF
100
AcDbEntity
  8
0
100
AcDbLine
 10
-20.5
 20
35.0
 30
0.0
 11
-20.0
 21
35.499985
 31
0.0
  0
LINE
  5
3BEB
330
3BDF
100
AcDbEntity
  8
0
100
AcDbLine
 10
-15.958526
 20
45.0
 30
0.0
 11
0.0
 21
45.0
 31
0.0
  0
ARC
  5
3BEC
330
3BDF
100
AcDbEntity
  8
0
100
AcDbCircle
 10
-15.958526
 20
41.000015
 30
0.0
 40
4.0
100
AcDbArc
 50
90.0
 51
150.000397
  0
LINE
  5
3BED
330
3BDF
100
AcDbEntity
  8
0
100
AcDbLine
 10
-19.422653
 20
42.999985
 30
0.0
 11
-20.0
 21
42.0
 31
0.0
  0
LINE
  5
3BEE
330
3BDF
100
AcDbEntity
  8
0
100
AcDbLine
 10
-0.299995
 20
58.875
 30
0.0
 11
-0.299995
 21
46.5
 31
0.0
  0
LINE
  5
3BEF
330
3BDF
100
AcDbEntity
  8
0
100
AcDbLine
 10
-5.699997
 20
58.0625
 30
0.0
 11
-5.699997
 21
46.5
 31
0.0
  0
LINE
  5
3BF0
330
3BDF
100
AcDbEntity
  8
0
100
AcDbLine
 10
-3.900001
 20
60.125
 30
0.0
 11
-3.900001
 21
46.5
 31
0.0
  0
LINE
  5
3BF1
330
3BDF
100
AcDbEntity
  8
0
100
AcDbLine
 10
-2.099998
 20
59.5
 30
0.0
 11
-2.099998
 21
46.5
 31
0.0
  0
LINE
  5
3BF2
330
3BDF
100
AcDbEntity
  8
0
100
AcDbLine
 10
-6.5
 20
46.5
 30
0.0
 11
0.5
 21
46.5
 31
0.0
  0
LINE
  5
3BF3
330
3BDF
100
AcDbEntity
  8
0
100
AcDbLine
 10
-6.5
 20
46.5
 30
0.0
 11
-6.5
 21
45.0
 31
0.0
  0
LINE
  5
3BF4
330
3BDF
100
AcDbEntity
  8
0
100
AcDbLine
 10
0.5
 20
46.5
 30
0.0
 11
0.5
 21
45.0
 31
0.0
  0
LINE
  5
3BF5
330
3BDF
100
AcDbEntity
  8
HOJO
100
AcDbLine
 10
-3.900001
 20
60.125
 30
0.0
 11
-2.099998
 21
59.5
 31
0.0
  0
LINE
  5
3BF6
330
3BDF
100
AcDbEntity
  8
HOJO
100
AcDbLine
 10
-5.699997
 20
58.0625
 30
0.0
 11
-3.900001
 21
58.6875
 31
0.0
  0
LINE
  5
3BF7
330
3BDF
100
AcDbEntity
  8
HOJO
100
AcDbLine
 10
-0.299995
 20
58.875
 30
0.0
 11
-2.098991
 21
58.427292
 31
0.0
  0
ENDBLK
  5
3BF8
330
3BDF
100
AcDbEntity
  8
0
100
AcDbBlockEnd
  0
BLOCK
  5
3BFA
330
3BF9
100
AcDbEntity
  8
0
100
AcDbBlockBegin
  2
ファンカバ－ブレーキ_F2S-15_M_0002
 70
     0
 10
0.0
 20
0.0
 30
0.0
  3
ファンカバ－ブレーキ_F2S-15_M_0002
  1

  0
LINE
  5
3BFB
330
3BF9
100
AcDbEntity
  8
0
100
AcDbLine
 10
20.0
 20
-42.0
 30
0.0
 11
20.0
 21
42.0
 31
0.0
  0
LINE
  5
3BFC
330
3BF9
100
AcDbEntity
  8
0
100
AcDbLine
 10
0.0
 20
-45.0
 30
0.0
 11
0.0
 21
45.0
 31
0.0
  0
LINE
  5
3BFD
330
3BF9
100
AcDbEntity
  8
0
100
AcDbLine
 10
0.0
 20
34.409302
 30
0.0
 11
18.25
 21
34.409302
 31
0.0
  0
LINE
  5
3BFE
330
3BF9
100
AcDbEntity
  8
0
100
AcDbLine
 10
0.0
 20
-34.409302
 30
0.0
 11
18.25
 21
-34.409302
 31
0.0
  0
LINE
  5
3BFF
330
3BF9
100
AcDbEntity
  8
0
100
AcDbLine
 10
15.958496
 20
-45.0
 30
0.0
 11
0.0
 21
-45.0
 31
0.0
  0
LINE
  5
3C00
330
3BF9
100
AcDbEntity
  8
0
100
AcDbLine
 10
20.5
 20
35.0
 30
0.0
 11
20.5
 21
-35.0
 31
0.0
  0
LINE
  5
3C01
330
3BF9
100
AcDbEntity
  8
0
100
AcDbLine
 10
19.422608
 20
-43.0
 30
0.0
 11
20.0
 21
-42.0
 31
0.0
  0
ARC
  5
3C02
330
3BF9
100
AcDbEntity
  8
0
100
AcDbCircle
 10
15.958496
 20
-41.0
 30
0.0
 40
4.0
100
AcDbArc
 50
270.0
 51
330.000397
  0
LINE
  5
3C03
330
3BF9
100
AcDbEntity
  8
0
100
AcDbLine
 10
20.5
 20
-35.0
 30
0.0
 11
20.0
 21
-35.5
 31
0.0
  0
LINE
  5
3C04
330
3BF9
100
AcDbEntity
  8
0
100
AcDbLine
 10
20.5
 20
35.0
 30
0.0
 11
20.0
 21
35.499985
 31
0.0
  0
LINE
  5
3C05
330
3BF9
100
AcDbEntity
  8
0
100
AcDbLine
 10
15.958496
 20
45.0
 30
0.0
 11
0.0
 21
45.0
 31
0.0
  0
LINE
  5
3C06
330
3BF9
100
AcDbEntity
  8
HOJO
100
AcDbLine
 10
0.299988
 20
58.875
 30
0.0
 11
2.098938
 21
58.427292
 31
0.0
  0
LINE
  5
3C07
330
3BF9
100
AcDbEntity
  8
0
100
AcDbLine
 10
6.5
 20
46.5
 30
0.0
 11
-0.5
 21
46.5
 31
0.0
  0
LINE
  5
3C08
330
3BF9
100
AcDbEntity
  8
0
100
AcDbLine
 10
0.299988
 20
58.875
 30
0.0
 11
0.299988
 21
46.5
 31
0.0
  0
LINE
  5
3C09
330
3BF9
100
AcDbEntity
  8
0
100
AcDbLine
 10
-0.5
 20
46.5
 30
0.0
 11
-0.5
 21
45.0
 31
0.0
  0
LINE
  5
3C0A
330
3BF9
100
AcDbEntity
  8
0
100
AcDbLine
 10
5.699951
 20
58.0625
 30
0.0
 11
5.699951
 21
46.5
 31
0.0
  0
LINE
  5
3C0B
330
3BF9
100
AcDbEntity
  8
0
100
AcDbLine
 10
3.899964
 20
60.125
 30
0.0
 11
3.899964
 21
46.5
 31
0.0
  0
LINE
  5
3C0C
330
3BF9
100
AcDbEntity
  8
0
100
AcDbLine
 10
2.099976
 20
59.5
 30
0.0
 11
2.099976
 21
46.5
 31
0.0
  0
LINE
  5
3C0D
330
3BF9
100
AcDbEntity
  8
0
100
AcDbLine
 10
6.5
 20
46.5
 30
0.0
 11
6.5
 21
45.0
 31
0.0
  0
ARC
  5
3C0E
330
3BF9
100
AcDbEntity
  8
0
100
AcDbCircle
 10
15.958496
 20
41.000015
 30
0.0
 40
4.0
100
AcDbArc
 50
29.999599
 51
90.0
  0
LINE
  5
3C0F
330
3BF9
100
AcDbEntity
  8
0
100
AcDbLine
 10
19.422608
 20
42.999985
 30
0.0
 11
20.0
 21
42.0
 31
0.0
  0
LINE
  5
3C10
330
3BF9
100
AcDbEntity
  8
HOJO
100
AcDbLine
 10
5.699951
 20
58.0625
 30
0.0
 11
3.899964
 21
58.6875
 31
0.0
  0
LINE
  5
3C11
330
3BF9
100
AcDbEntity
  8
HOJO
100
AcDbLine
 10
3.899964
 20
60.125
 30
0.0
 11
2.099976
 21
59.5
 31
0.0
  0
ENDBLK
  5
3C12
330
3BF9
100
AcDbEntity
  8
0
100
AcDbBlockEnd
  0
BLOCK
  5
3C14
330
3C13
100
AcDbEntity
  8
0
100
AcDbBlockBegin
  2
ファンカバ－ブレーキ_F2S-15_M_0003
 70
     0
 10
0.0
 20
0.0
 30
0.0
  3
ファンカバ－ブレーキ_F2S-15_M_0003
  1

  0
LINE
  5
3C15
330
3C13
100
AcDbEntity
  8
0
100
AcDbLine
 10
20.0
 20
-42.0
 30
0.0
 11
20.0
 21
42.0
 31
0.0
  0
LINE
  5
3C16
330
3C13
100
AcDbEntity
  8
0
100
AcDbLine
 10
20.5
 20
35.0
 30
0.0
 11
20.5
 21
-35.0
 31
0.0
  0
LINE
  5
3C17
330
3C13
100
AcDbEntity
  8
0
100
AcDbLine
 10
0.0
 20
-6.866027
 30
0.0
 11
0.0
 21
-45.0
 31
0.0
  0
LINE
  5
3C18
330
3C13
100
AcDbEntity
  8
0
100
AcDbLine
 10
15.958496
 20
-45.0
 30
0.0
 11
0.0
 21
-45.0
 31
0.0
  0
LINE
  5
3C19
330
3C13
100
AcDbEntity
  8
0
100
AcDbLine
 10
0.0
 20
-29.0
 30
0.0
 11
18.25
 21
-29.0
 31
0.0
  0
ARC
  5
3C1A
330
3C13
100
AcDbEntity
  8
0
100
AcDbCircle
 10
15.958496
 20
-41.0
 30
0.0
 40
4.0
100
AcDbArc
 50
270.0
 51
330.000397
  0
LINE
  5
3C1B
330
3C13
100
AcDbEntity
  8
0
100
AcDbLine
 10
19.422608
 20
-43.0
 30
0.0
 11
20.0
 21
-42.0
 31
0.0
  0
LINE
  5
3C1C
330
3C13
100
AcDbEntity
  8
0
100
AcDbLine
 10
20.5
 20
-35.0
 30
0.0
 11
20.0
 21
-35.5
 31
0.0
  0
LINE
  5
3C1D
330
3C13
100
AcDbEntity
  8
0
100
AcDbLine
 10
15.958496
 20
45.0
 30
0.0
 11
0.0
 21
45.0
 31
0.0
  0
LINE
  5
3C1E
330
3C13
100
AcDbEntity
  8
0
100
AcDbLine
 10
0.0
 20
29.0
 30
0.0
 11
18.25
 21
29.0
 31
0.0
  0
LINE
  5
3C1F
330
3C13
100
AcDbEntity
  8
0
100
AcDbLine
 10
0.5
 20
-7.0
 30
0.0
 11
5.5
 21
-7.0
 31
0.0
  0
LINE
  5
3C20
330
3C13
100
AcDbEntity
  8
0
100
AcDbLine
 10
5.5
 20
7.0
 30
0.0
 11
0.5
 21
7.0
 31
0.0
  0
LINE
  5
3C21
330
3C13
100
AcDbEntity
  8
0
100
AcDbLine
 10
0.0
 20
45.0
 30
0.0
 11
0.0
 21
6.866028
 31
0.0
  0
LINE
  5
3C22
330
3C13
100
AcDbEntity
  8
0
100
AcDbLine
 10
-0.5
 20
-6.0
 30
0.0
 11
-0.5
 21
6.0
 31
0.0
  0
ARC
  5
3C23
330
3C13
100
AcDbEntity
  8
0
100
AcDbCircle
 10
0.5
 20
-6.0
 30
0.0
 40
1.0
100
AcDbArc
 50
180.0
 51
270.0
  0
ARC
  5
3C24
330
3C13
100
AcDbEntity
  8
0
100
AcDbCircle
 10
0.5
 20
6.0
 30
0.0
 40
1.0
100
AcDbArc
 50
90.0
 51
180.0
  0
LINE
  5
3C25
330
3C13
100
AcDbEntity
  8
0
100
AcDbLine
 10
4.0
 20
3.5
 30
0.0
 11
4.0
 21
-3.5
 31
0.0
  0
LINE
  5
3C26
330
3C13
100
AcDbEntity
  8
0
100
AcDbLine
 10
2.0
 20
3.5
 30
0.0
 11
2.0
 21
-3.5
 31
0.0
  0
LINE
  5
3C27
330
3C13
100
AcDbEntity
  8
0
100
AcDbLine
 10
6.5
 20
-6.0
 30
0.0
 11
6.5
 21
6.0
 31
0.0
  0
ARC
  5
3C28
330
3C13
100
AcDbEntity
  8
0
100
AcDbCircle
 10
3.0
 20
-3.5
 30
0.0
 40
1.0
100
AcDbArc
 50
180.0
 51
0.0
  0
ARC
  5
3C29
330
3C13
100
AcDbEntity
  8
0
100
AcDbCircle
 10
5.5
 20
-6.0
 30
0.0
 40
1.0
100
AcDbArc
 50
270.0
 51
0.0
  0
ARC
  5
3C2A
330
3C13
100
AcDbEntity
  8
0
100
AcDbCircle
 10
3.0
 20
3.5
 30
0.0
 40
1.0
100
AcDbArc
 50
0.0
 51
180.0
  0
ARC
  5
3C2B
330
3C13
100
AcDbEntity
  8
0
100
AcDbCircle
 10
5.5
 20
6.0
 30
0.0
 40
1.0
100
AcDbArc
 50
0.0
 51
90.0
  0
LINE
  5
3C2C
330
3C13
100
AcDbEntity
  8
0
100
AcDbLine
 10
20.5
 20
35.0
 30
0.0
 11
20.0
 21
35.49997
 31
0.0
  0
ARC
  5
3C2D
330
3C13
100
AcDbEntity
  8
0
100
AcDbCircle
 10
15.958496
 20
41.0
 30
0.0
 40
4.0
100
AcDbArc
 50
29.999599
 51
90.0
  0
LINE
  5
3C2E
330
3C13
100
AcDbEntity
  8
0
100
AcDbLine
 10
19.422608
 20
43.0
 30
0.0
 11
20.0
 21
42.0
 31
0.0
  0
ENDBLK
  5
3C2F
330
3C13
100
AcDbEntity
  8
0
100
AcDbBlockEnd
  0
BLOCK
  5
3CA2
330
3CA1
100
AcDbEntity
  8
0
100
AcDbBlockBegin
  2
*D26
 70
     1
 10
0.0
 20
0.0
 30
0.0
  3
*D26
  1

  0
POINT
  5
3DFD
330
3CA1
100
AcDbEntity
  8
DEFPOINTS
 62
     0
100
AcDbPoint
 10
544.1852235402
 20
153.6907853628
 30
0.0
  0
POINT
  5
3DFE
330
3CA1
100
AcDbEntity
  8
DEFPOINTS
 62
     0
100
AcDbPoint
 10
551.8737605402
 20
114.6907853628
 30
0.0
  0
POINT
  5
3DFF
330
3CA1
100
AcDbEntity
  8
DEFPOINTS
 62
     0
100
AcDbPoint
 10
527.2670223696
 20
114.6907853628
 30
0.0
  0
ENDBLK
  5
3CA3
330
3CA1
100
AcDbEntity
  8
0
100
AcDbBlockEnd
  0
BLOCK
  5
3CAE
330
3CAD
100
AcDbEntity
  8
0
100
AcDbBlockBegin
  2
*D27
 70
     1
 10
0.0
 20
0.0
 30
0.0
  3
*D27
  1

  0
POINT
  5
3E06
330
3CAD
100
AcDbEntity
  8
DEFPOINTS
 62
     0
100
AcDbPoint
 10
544.1852235402
 20
153.6907853628
 30
0.0
  0
POINT
  5
3E07
330
3CAD
100
AcDbEntity
  8
DEFPOINTS
 62
     0
100
AcDbPoint
 10
559.8523985402
 20
104.6907853628
 30
0.0
  0
POINT
  5
3E08
330
3CAD
100
AcDbEntity
  8
DEFPOINTS
 62
     0
100
AcDbPoint
 10
515.3640079854
 20
104.6907853628
 30
0.0
  0
ENDBLK
  5
3CAF
330
3CAD
100
AcDbEntity
  8
0
100
AcDbBlockEnd
  0
BLOCK
  5
3CBA
330
3CB9
100
AcDbEntity
  8
0
100
AcDbBlockBegin
  2
*D28
 70
     1
 10
0.0
 20
0.0
 30
0.0
  3
*D28
  1

  0
POINT
  5
3E11
330
3CB9
100
AcDbEntity
  8
DEFPOINTS
 62
     0
100
AcDbPoint
 10
583.8523985402
 20
150.6907853628
 30
0.0
  0
POINT
  5
3E12
330
3CB9
100
AcDbEntity
  8
DEFPOINTS
 62
     0
100
AcDbPoint
 10
583.8523985402
 20
156.6907853628
 30
0.0
  0
POINT
  5
3E13
330
3CB9
100
AcDbEntity
  8
DEFPOINTS
 62
     0
100
AcDbPoint
 10
539.2774438291
 20
156.6907853628
 30
0.0
  0
ENDBLK
  5
3CBB
330
3CB9
100
AcDbEntity
  8
0
100
AcDbBlockEnd
  0
BLOCK
  5
3CC8
330
3CC7
100
AcDbEntity
  8
0
100
AcDbBlockBegin
  2
*D29
 70
     1
 10
0.0
 20
0.0
 30
0.0
  3
*D29
  1

  0
POINT
  5
3E1A
330
3CC7
100
AcDbEntity
  8
DEFPOINTS
 62
     0
100
AcDbPoint
 10
544.1852235402
 20
153.6907853628
 30
0.0
  0
POINT
  5
3E1B
330
3CC7
100
AcDbEntity
  8
DEFPOINTS
 62
     0
100
AcDbPoint
 10
551.8737605402
 20
192.6907853628
 30
0.0
  0
POINT
  5
3E1C
330
3CC7
100
AcDbEntity
  8
DEFPOINTS
 62
     0
100
AcDbPoint
 10
527.2670223696
 20
192.6907853628
 30
0.0
  0
ENDBLK
  5
3CC9
330
3CC7
100
AcDbEntity
  8
0
100
AcDbBlockEnd
  0
BLOCK
  5
3CD4
330
3CD3
100
AcDbEntity
  8
0
100
AcDbBlockBegin
  2
*D30
 70
     1
 10
0.0
 20
0.0
 30
0.0
  3
*D30
  1

  0
POINT
  5
3E23
330
3CD3
100
AcDbEntity
  8
DEFPOINTS
 62
     0
100
AcDbPoint
 10
544.1852235402
 20
153.6907853628
 30
0.0
  0
POINT
  5
3E24
330
3CD3
100
AcDbEntity
  8
DEFPOINTS
 62
     0
100
AcDbPoint
 10
559.8523985402
 20
202.6907853628
 30
0.0
  0
POINT
  5
3E25
330
3CD3
100
AcDbEntity
  8
DEFPOINTS
 62
     0
100
AcDbPoint
 10
515.3640079854
 20
202.6907853628
 30
0.0
  0
ENDBLK
  5
3CD5
330
3CD3
100
AcDbEntity
  8
0
100
AcDbBlockEnd
  0
BLOCK
  5
3CE0
330
3CDF
100
AcDbEntity
  8
0
100
AcDbBlockBegin
  2
*D31
 70
     1
 10
0.0
 20
0.0
 30
0.0
  3
*D31
  1

  0
POINT
  5
3E2C
330
3CDF
100
AcDbEntity
  8
DEFPOINTS
 62
     0
100
AcDbPoint
 10
559.8523985402
 20
104.6907853628
 30
0.0
  0
POINT
  5
3E2D
330
3CDF
100
AcDbEntity
  8
DEFPOINTS
 62
     0
100
AcDbPoint
 10
559.8523985402
 20
202.6907853628
 30
0.0
  0
POINT
  5
3E2E
330
3CDF
100
AcDbEntity
  8
DEFPOINTS
 62
     0
100
AcDbPoint
 10
503.3021770104
 20
202.6907853628
 30
0.0
  0
ENDBLK
  5
3CE1
330
3CDF
100
AcDbEntity
  8
0
100
AcDbBlockEnd
  0
BLOCK
  5
3CFA
330
3CF9
100
AcDbEntity
  8
0
100
AcDbBlockBegin
  2
*D32
 70
     1
 10
0.0
 20
0.0
 30
0.0
  3
*D32
  1

  0
POINT
  5
3E40
330
3CF9
100
AcDbEntity
  8
DEFPOINTS
 62
     0
100
AcDbPoint
 10
334.5855891067
 20
119.9407853628
 30
0.0
  0
POINT
  5
3E41
330
3CF9
100
AcDbEntity
  8
DEFPOINTS
 62
     0
100
AcDbPoint
 10
334.5855891067
 20
109.4407853628
 30
0.0
  0
POINT
  5
3E42
330
3CF9
100
AcDbEntity
  8
DEFPOINTS
 62
     0
100
AcDbPoint
 10
322.4372400452
 20
109.4407853628
 30
0.0
  0
ENDBLK
  5
3CFB
330
3CF9
100
AcDbEntity
  8
0
100
AcDbBlockEnd
  0
BLOCK
  5
3D06
330
3D05
100
AcDbEntity
  8
0
100
AcDbBlockBegin
  2
*D33
 70
     1
 10
0.0
 20
0.0
 30
0.0
  3
*D33
  1

  0
POINT
  5
3E49
330
3D05
100
AcDbEntity
  8
DEFPOINTS
 62
     0
100
AcDbPoint
 10
372.5855891067
 20
109.6907853628
 30
0.0
  0
POINT
  5
3E4A
330
3D05
100
AcDbEntity
  8
DEFPOINTS
 62
     0
100
AcDbPoint
 10
334.5855891067
 20
105.5286284793
 30
0.0
  0
POINT
  5
3E4B
330
3D05
100
AcDbEntity
  8
DEFPOINTS
 62
     0
100
AcDbPoint
 10
334.5855891067
 20
78.4108786311
 30
0.0
  0
ENDBLK
  5
3D07
330
3D05
100
AcDbEntity
  8
0
100
AcDbBlockEnd
  0
BLOCK
  5
3D12
330
3D11
100
AcDbEntity
  8
0
100
AcDbBlockBegin
  2
*D34
 70
     1
 10
0.0
 20
0.0
 30
0.0
  3
*D34
  1

  0
POINT
  5
3E52
330
3D11
100
AcDbEntity
  8
DEFPOINTS
 62
     0
100
AcDbPoint
 10
347.5855891067
 20
105.3017126353
 30
0.0
  0
POINT
  5
3E53
330
3D11
100
AcDbEntity
  8
DEFPOINTS
 62
     0
100
AcDbPoint
 10
372.5855891067
 20
109.6907853628
 30
0.0
  0
POINT
  5
3E54
330
3D11
100
AcDbEntity
  8
DEFPOINTS
 62
     0
100
AcDbPoint
 10
372.5855891067
 20
90.2185357268
 30
0.0
  0
ENDBLK
  5
3D13
330
3D11
100
AcDbEntity
  8
0
100
AcDbBlockEnd
  0
BLOCK
  5
3D1E
330
3D1D
100
AcDbEntity
  8
0
100
AcDbBlockBegin
  2
*D35
 70
     1
 10
0.0
 20
0.0
 30
0.0
  3
*D35
  1

  0
POINT
  5
3E5B
330
3D1D
100
AcDbEntity
  8
DEFPOINTS
 62
     0
100
AcDbPoint
 10
382.5855891067
 20
99.4057813628
 30
0.0
  0
POINT
  5
3E5C
330
3D1D
100
AcDbEntity
  8
DEFPOINTS
 62
     0
100
AcDbPoint
 10
334.5855891067
 20
105.5286284793
 30
0.0
  0
POINT
  5
3E5D
330
3D1D
100
AcDbEntity
  8
DEFPOINTS
 62
     0
100
AcDbPoint
 10
334.5855891067
 20
66.2781198452
 30
0.0
  0
ENDBLK
  5
3D1F
330
3D1D
100
AcDbEntity
  8
0
100
AcDbBlockEnd
  0
BLOCK
  5
3D2A
330
3D29
100
AcDbEntity
  8
0
100
AcDbBlockBegin
  2
*D36
 70
     1
 10
0.0
 20
0.0
 30
0.0
  3
*D36
  1

  0
POINT
  5
3E64
330
3D29
100
AcDbEntity
  8
DEFPOINTS
 62
     0
100
AcDbPoint
 10
334.5855891067
 20
105.5286284793
 30
0.0
  0
POINT
  5
3E65
330
3D29
100
AcDbEntity
  8
DEFPOINTS
 62
     0
100
AcDbPoint
 10
430.5855891067
 20
105.5286284793
 30
0.0
  0
POINT
  5
3E66
330
3D29
100
AcDbEntity
  8
DEFPOINTS
 62
     0
100
AcDbPoint
 10
430.5855891067
 20
54.316052634
 30
0.0
  0
ENDBLK
  5
3D2B
330
3D29
100
AcDbEntity
  8
0
100
AcDbBlockEnd
  0
BLOCK
  5
3D36
330
3D35
100
AcDbEntity
  8
0
100
AcDbBlockBegin
  2
*D37
 70
     1
 10
0.0
 20
0.0
 30
0.0
  3
*D37
  1

  0
POINT
  5
3E6E
330
3D35
100
AcDbEntity
  8
DEFPOINTS
 62
     0
100
AcDbPoint
 10
347.5855891067
 20
105.3017126353
 30
0.0
  0
POINT
  5
3E6F
330
3D35
100
AcDbEntity
  8
DEFPOINTS
 62
     0
100
AcDbPoint
 10
334.5855891067
 20
105.5286284793
 30
0.0
  0
POINT
  5
3E70
330
3D35
100
AcDbEntity
  8
DEFPOINTS
 62
     0
100
AcDbPoint
 10
334.5855891067
 20
90.2185357268
 30
0.0
  0
ENDBLK
  5
3D37
330
3D35
100
AcDbEntity
  8
0
100
AcDbBlockEnd
  0
BLOCK
  5
3D43
330
3D42
100
AcDbEntity
  8
0
100
AcDbBlockBegin
  2
*D38
 70
     1
 10
0.0
 20
0.0
 30
0.0
  3
*D38
  1

  0
POINT
  5
3E77
330
3D42
100
AcDbEntity
  8
DEFPOINTS
 62
     0
100
AcDbPoint
 10
392.5855891067
 20
109.6907853628
 30
0.0
  0
POINT
  5
3E78
330
3D42
100
AcDbEntity
  8
DEFPOINTS
 62
     0
100
AcDbPoint
 10
430.5855891067
 20
105.5286284793
 30
0.0
  0
POINT
  5
3E79
330
3D42
100
AcDbEntity
  8
DEFPOINTS
 62
     0
100
AcDbPoint
 10
430.5855891067
 20
78.4108786311
 30
0.0
  0
ENDBLK
  5
3D44
330
3D42
100
AcDbEntity
  8
0
100
AcDbBlockEnd
  0
BLOCK
  5
3D4F
330
3D4E
100
AcDbEntity
  8
0
100
AcDbBlockBegin
  2
*D39
 70
     1
 10
0.0
 20
0.0
 30
0.0
  3
*D39
  1

  0
POINT
  5
3E80
330
3D4E
100
AcDbEntity
  8
DEFPOINTS
 62
     0
100
AcDbPoint
 10
382.5855891067
 20
99.4057813628
 30
0.0
  0
POINT
  5
3E81
330
3D4E
100
AcDbEntity
  8
DEFPOINTS
 62
     0
100
AcDbPoint
 10
430.5855891067
 20
105.5286284793
 30
0.0
  0
POINT
  5
3E82
330
3D4E
100
AcDbEntity
  8
DEFPOINTS
 62
     0
100
AcDbPoint
 10
430.5855891067
 20
66.2781198452
 30
0.0
  0
ENDBLK
  5
3D50
330
3D4E
100
AcDbEntity
  8
0
100
AcDbBlockEnd
  0
BLOCK
  5
3D5B
330
3D5A
100
AcDbEntity
  8
0
100
AcDbBlockBegin
  2
*D40
 70
     1
 10
0.0
 20
0.0
 30
0.0
  3
*D40
  1

  0
POINT
  5
3E89
330
3D5A
100
AcDbEntity
  8
DEFPOINTS
 62
     0
100
AcDbPoint
 10
334.5855891067
 20
201.8529422462
 30
0.0
  0
POINT
  5
3E8A
330
3D5A
100
AcDbEntity
  8
DEFPOINTS
 62
     0
100
AcDbPoint
 10
461.5855891067
 20
162.6907853628
 30
0.0
  0
POINT
  5
3E8B
330
3D5A
100
AcDbEntity
  8
DEFPOINTS
 62
     0
100
AcDbPoint
 10
461.5855891067
 20
261.6905284513
 30
0.0
  0
ENDBLK
  5
3D5C
330
3D5A
100
AcDbEntity
  8
0
100
AcDbBlockEnd
  0
BLOCK
  5
3D67
330
3D66
100
AcDbEntity
  8
0
100
AcDbBlockBegin
  2
*D41
 70
     1
 10
0.0
 20
0.0
 30
0.0
  3
*D41
  1

  0
POINT
  5
3E92
330
3D66
100
AcDbEntity
  8
DEFPOINTS
 62
     0
100
AcDbPoint
 10
382.5855891067
 20
207.9757893628
 30
0.0
  0
POINT
  5
3E93
330
3D66
100
AcDbEntity
  8
DEFPOINTS
 62
     0
100
AcDbPoint
 10
461.5855891067
 20
162.6907853628
 30
0.0
  0
POINT
  5
3E94
330
3D66
100
AcDbEntity
  8
DEFPOINTS
 62
     0
100
AcDbPoint
 10
461.5855891067
 20
249.9704043476
 30
0.0
  0
ENDBLK
  5
3D68
330
3D66
100
AcDbEntity
  8
0
100
AcDbBlockEnd
  0
BLOCK
  5
3D73
330
3D72
100
AcDbEntity
  8
0
100
AcDbBlockBegin
  2
*D42
 70
     1
 10
0.0
 20
0.0
 30
0.0
  3
*D42
  1

  0
POINT
  5
3E9B
330
3D72
100
AcDbEntity
  8
DEFPOINTS
 62
     0
100
AcDbPoint
 10
431.5855891067
 20
163.0021253628
 30
0.0
  0
POINT
  5
3E9C
330
3D72
100
AcDbEntity
  8
DEFPOINTS
 62
     0
100
AcDbPoint
 10
461.5855891067
 20
162.6907853628
 30
0.0
  0
POINT
  5
3E9D
330
3D72
100
AcDbEntity
  8
DEFPOINTS
 62
     0
100
AcDbPoint
 10
461.5855891067
 20
237.9215459521
 30
0.0
  0
ENDBLK
  5
3D74
330
3D72
100
AcDbEntity
  8
0
100
AcDbBlockEnd
  0
BLOCK
  5
3D7F
330
3D7E
100
AcDbEntity
  8
0
100
AcDbBlockBegin
  2
*D43
 70
     1
 10
0.0
 20
0.0
 30
0.0
  3
*D43
  1

  0
POINT
  5
3EA4
330
3D7E
100
AcDbEntity
  8
DEFPOINTS
 62
     0
100
AcDbPoint
 10
434.5855891067
 20
153.6907853628
 30
0.0
  0
POINT
  5
3EA5
330
3D7E
100
AcDbEntity
  8
DEFPOINTS
 62
     0
100
AcDbPoint
 10
461.5855891067
 20
162.6907853628
 30
0.0
  0
POINT
  5
3EA6
330
3D7E
100
AcDbEntity
  8
DEFPOINTS
 62
     0
100
AcDbPoint
 10
461.5855891067
 20
226.1782795226
 30
0.0
  0
ENDBLK
  5
3D80
330
3D7E
100
AcDbEntity
  8
0
100
AcDbBlockEnd
  0
BLOCK
  5
3D8B
330
3D8A
100
AcDbEntity
  8
0
100
AcDbBlockBegin
  2
*D44
 70
     1
 10
0.0
 20
0.0
 30
0.0
  3
*D44
  1

  0
POINT
  5
3EAD
330
3D8A
100
AcDbEntity
  8
DEFPOINTS
 62
     0
100
AcDbPoint
 10
461.5855891067
 20
144.6907853628
 30
0.0
  0
POINT
  5
3EAE
330
3D8A
100
AcDbEntity
  8
DEFPOINTS
 62
     0
100
AcDbPoint
 10
461.5855891067
 20
162.6907853628
 30
0.0
  0
POINT
  5
3EAF
330
3D8A
100
AcDbEntity
  8
DEFPOINTS
 62
     0
100
AcDbPoint
 10
477.6058929451
 20
162.6907853628
 30
0.0
  0
ENDBLK
  5
3D8C
330
3D8A
100
AcDbEntity
  8
0
100
AcDbBlockEnd
  0
BLOCK
  5
3D97
330
3D96
100
AcDbEntity
  8
0
100
AcDbBlockBegin
  2
*D45
 70
     1
 10
0.0
 20
0.0
 30
0.0
  3
*D45
  1

  0
POINT
  5
3EB6
330
3D96
100
AcDbEntity
  8
DEFPOINTS
 62
     0
100
AcDbPoint
 10
756.1811945402
 20
198.6907853628
 30
0.0
  0
POINT
  5
3EB7
330
3D96
100
AcDbEntity
  8
DEFPOINTS
 62
     0
100
AcDbPoint
 10
756.1811945402
 20
108.6907853628
 30
0.0
  0
POINT
  5
3EB8
330
3D96
100
AcDbEntity
  8
DEFPOINTS
 62
     0
100
AcDbPoint
 10
778.1073389657
 20
108.6907853628
 30
0.0
  0
ENDBLK
  5
3D98
330
3D96
100
AcDbEntity
  8
0
100
AcDbBlockEnd
  0
BLOCK
  5
3DA3
330
3DA2
100
AcDbEntity
  8
0
100
AcDbBlockBegin
  2
*D46
 70
     1
 10
0.0
 20
0.0
 30
0.0
  3
*D46
  1

  0
POINT
  5
3EBF
330
3DA2
100
AcDbEntity
  8
DEFPOINTS
 62
     0
100
AcDbPoint
 10
550.8523985402
 20
193.6907853628
 30
0.0
  0
POINT
  5
3EC0
330
3DA2
100
AcDbEntity
  8
DEFPOINTS
 62
     0
100
AcDbPoint
 10
760.7226985402
 20
188.6907853628
 30
0.0
  0
POINT
  5
3EC1
330
3DA2
100
AcDbEntity
  8
DEFPOINTS
 62
     0
100
AcDbPoint
 10
760.7226985402
 20
261.6905284513
 30
0.0
  0
ENDBLK
  5
3DA4
330
3DA2
100
AcDbEntity
  8
0
100
AcDbBlockEnd
  0
BLOCK
  5
3DAF
330
3DAE
100
AcDbEntity
  8
0
100
AcDbBlockBegin
  2
*D47
 70
     1
 10
0.0
 20
0.0
 30
0.0
  3
*D47
  1

  0
POINT
  5
3EC8
330
3DAE
100
AcDbEntity
  8
DEFPOINTS
 62
     0
100
AcDbPoint
 10
595.3523985402
 20
187.3729488628
 30
0.0
  0
POINT
  5
3EC9
330
3DAE
100
AcDbEntity
  8
DEFPOINTS
 62
     0
100
AcDbPoint
 10
550.8523985402
 20
193.6907853628
 30
0.0
  0
POINT
  5
3ECA
330
3DAE
100
AcDbEntity
  8
DEFPOINTS
 62
     0
100
AcDbPoint
 10
550.8523985402
 20
237.8498208664
 30
0.0
  0
ENDBLK
  5
3DB0
330
3DAE
100
AcDbEntity
  8
0
100
AcDbBlockEnd
  0
BLOCK
  5
3DBB
330
3DBA
100
AcDbEntity
  8
0
100
AcDbBlockBegin
  2
*D48
 70
     1
 10
0.0
 20
0.0
 30
0.0
  3
*D48
  1

  0
POINT
  5
3ED1
330
3DBA
100
AcDbEntity
  8
DEFPOINTS
 62
     0
100
AcDbPoint
 10
595.3523985402
 20
187.3729488628
 30
0.0
  0
POINT
  5
3ED2
330
3DBA
100
AcDbEntity
  8
DEFPOINTS
 62
     0
100
AcDbPoint
 10
664.8523985402
 20
193.6907853628
 30
0.0
  0
POINT
  5
3ED3
330
3DBA
100
AcDbEntity
  8
DEFPOINTS
 62
     0
100
AcDbPoint
 10
664.8523985402
 20
237.8498208664
 30
0.0
  0
ENDBLK
  5
3DBC
330
3DBA
100
AcDbEntity
  8
0
100
AcDbBlockEnd
  0
BLOCK
  5
3DC7
330
3DC6
100
AcDbEntity
  8
0
100
AcDbBlockBegin
  2
*D49
 70
     1
 10
0.0
 20
0.0
 30
0.0
  3
*D49
  1

  0
POINT
  5
3EDA
330
3DC6
100
AcDbEntity
  8
DEFPOINTS
 62
     0
100
AcDbPoint
 10
664.8523985402
 20
193.6907853628
 30
0.0
  0
POINT
  5
3EDB
330
3DC6
100
AcDbEntity
  8
DEFPOINTS
 62
     0
100
AcDbPoint
 10
550.8523985402
 20
193.6907853628
 30
0.0
  0
POINT
  5
3EDC
330
3DC6
100
AcDbEntity
  8
DEFPOINTS
 62
     0
100
AcDbPoint
 10
550.8523985402
 20
249.9704043476
 30
0.0
  0
ENDBLK
  5
3DC8
330
3DC6
100
AcDbEntity
  8
0
100
AcDbBlockEnd
  0
BLOCK
  5
3DD3
330
3DD2
100
AcDbEntity
  8
0
100
AcDbBlockBegin
  2
*D50
 70
     1
 10
0.0
 20
0.0
 30
0.0
  3
*D50
  1

  0
POINT
  5
3EE3
330
3DD2
100
AcDbEntity
  8
DEFPOINTS
 62
     0
100
AcDbPoint
 10
595.3523985402
 20
187.3729488628
 30
0.0
  0
POINT
  5
3EE4
330
3DD2
100
AcDbEntity
  8
DEFPOINTS
 62
     0
100
AcDbPoint
 10
655.8523985402
 20
200.6694233628
 30
0.0
  0
POINT
  5
3EE5
330
3DD2
100
AcDbEntity
  8
DEFPOINTS
 62
     0
100
AcDbPoint
 10
655.8523985402
 20
225.800962471
 30
0.0
  0
ENDBLK
  5
3DD4
330
3DD2
100
AcDbEntity
  8
0
100
AcDbBlockEnd
  0
BLOCK
  5
3DDF
330
3DDE
100
AcDbEntity
  8
0
100
AcDbBlockBegin
  2
*D51
 70
     1
 10
0.0
 20
0.0
 30
0.0
  3
*D51
  1

  0
POINT
  5
3EED
330
3DDE
100
AcDbEntity
  8
DEFPOINTS
 62
     0
100
AcDbPoint
 10
583.8523985402
 20
156.6907853628
 30
0.0
  0
POINT
  5
3EEE
330
3DDE
100
AcDbEntity
  8
DEFPOINTS
 62
     0
100
AcDbPoint
 10
604.3523985402
 20
153.6907853628
 30
0.0
  0
POINT
  5
3EEF
330
3DDE
100
AcDbEntity
  8
DEFPOINTS
 62
     0
100
AcDbPoint
 10
604.3523985402
 20
214.0576960415
 30
0.0
  0
ENDBLK
  5
3DE0
330
3DDE
100
AcDbEntity
  8
0
100
AcDbBlockEnd
  0
BLOCK
  5
3DEC
330
3DEB
100
AcDbEntity
  8
0
100
AcDbBlockBegin
  2
*D52
 70
     1
 10
0.0
 20
0.0
 30
0.0
  3
*D52
  1

  0
POINT
  5
3EF6
330
3DEB
100
AcDbEntity
  8
DEFPOINTS
 62
     0
100
AcDbPoint
 10
595.3523985402
 20
187.3729488628
 30
0.0
  0
POINT
  5
3EF7
330
3DEB
100
AcDbEntity
  8
DEFPOINTS
 62
     0
100
AcDbPoint
 10
559.8523985402
 20
200.6694233628
 30
0.0
  0
POINT
  5
3EF8
330
3DEB
100
AcDbEntity
  8
DEFPOINTS
 62
     0
100
AcDbPoint
 10
559.8523985402
 20
225.800962471
 30
0.0
  0
ENDBLK
  5
3DED
330
3DEB
100
AcDbEntity
  8
0
100
AcDbBlockEnd
  0
BLOCK
  5
473B
330
473A
100
AcDbEntity
  8
0
100
AcDbBlockBegin
  2
A$Cdecd00d5
 70
     0
 10
0.0
 20
0.0
 30
0.0
  3
A$Cdecd00d5
  1

  0
LINE
  5
473C
330
473A
100
AcDbEntity
  8
CENTER
100
AcDbLine
 10
144.87027
 20
-11.3178365
 30
0.0
 11
144.87027
 21
-78.6821635
 31
0.0
  0
LINE
  5
473D
330
473A
100
AcDbEntity
  8
CENTER
100
AcDbLine
 10
143.1223153445
 20
-45.0
 30
0.0
 11
146.6182246555
 21
-45.0
 31
0.0
  0
CIRCLE
  5
473E
330
473A
100
AcDbEntity
  8
0
  6
Continuous
100
AcDbCircle
 10
144.87027
 20
-45.0
 30
0.0
 40
25.548
  0
CIRCLE
  5
473F
330
473A
100
AcDbEntity
  8
0
  6
Continuous
100
AcDbCircle
 10
144.87027
 20
-45.0
 30
0.0
 40
23.0
  0
CIRCLE
  5
4740
330
473A
100
AcDbEntity
  8
0
  6
Continuous
100
AcDbCircle
 10
144.87027
 20
-45.0
 30
0.0
 40
17.5
  0
CIRCLE
  5
4741
330
473A
100
AcDbEntity
  8
0
  6
Continuous
100
AcDbCircle
 10
144.87027
 20
-45.0
 30
0.0
 40
19.5
  0
LINE
  5
4742
330
473A
100
AcDbEntity
  8
0
100
AcDbLine
 10
189.36
 20
-5.0
 30
0.0
 11
189.36
 21
-85.0
 31
0.0
  0
ARC
  5
4743
330
473A
100
AcDbEntity
  8
0
100
AcDbCircle
 10
187.36
 20
-10.0
 30
0.0
 40
2.0
100
AcDbArc
 50
270.0
 51
0.0
  0
ARC
  5
4744
330
473A
100
AcDbEntity
  8
0
100
AcDbCircle
 10
187.36
 20
-23.0
 30
0.0
 40
2.0
100
AcDbArc
 50
0.0
 51
90.0
  0
ARC
  5
4745
330
473A
100
AcDbEntity
  8
0
100
AcDbCircle
 10
187.36
 20
-67.0
 30
0.0
 40
2.0
100
AcDbArc
 50
270.0
 51
0.0
  0
ARC
  5
4746
330
473A
100
AcDbEntity
  8
0
100
AcDbCircle
 10
187.36
 20
-80.0
 30
0.0
 40
2.0
100
AcDbArc
 50
0.0
 51
90.0
  0
ARC
  5
4747
330
473A
100
AcDbEntity
  8
0
100
AcDbCircle
 10
187.36
 20
-23.4473398675
 30
0.0
 40
2.0
100
AcDbArc
 50
314.8143643905
 51
0.0
  0
LINE
  5
4748
330
473A
100
AcDbEntity
  8
0
100
AcDbLine
 10
180.36
 20
4.0
 30
0.0
 11
84.36
 21
4.0
 31
0.0
  0
LINE
  5
4749
330
473A
100
AcDbEntity
  8
0
100
AcDbLine
 10
180.36
 20
-94.0
 30
0.0
 11
84.36
 21
-94.0
 31
0.0
  0
ARC
  5
474A
330
473A
100
AcDbEntity
  8
0
100
AcDbCircle
 10
180.36
 20
-5.0
 30
0.0
 40
9.0
100
AcDbArc
 50
0.0
 51
130.947188455
  0
ARC
  5
474B
330
473A
100
AcDbEntity
  8
0
100
AcDbCircle
 10
180.36
 20
-85.0
 30
0.0
 40
9.0
100
AcDbArc
 50
229.052811545
 51
0.0
  0
LINE
  5
474C
330
473A
100
AcDbEntity
  8
0
100
AcDbLine
 10
73.8790356544
 20
0.0
 30
0.0
 11
0.0
 21
0.0
 31
0.0
  0
LINE
  5
474D
330
473A
100
AcDbEntity
  8
0
100
AcDbLine
 10
73.8790356544
 20
-90.0
 30
0.0
 11
0.0
 21
-90.0
 31
0.0
  0
ARC
  5
474E
330
473A
100
AcDbEntity
  8
0
100
AcDbCircle
 10
150.86
 20
-28.5
 30
0.0
 40
34.0
100
AcDbArc
 50
60.5450656692
 51
67.0804578484
  0
ARC
  5
474F
330
473A
100
AcDbEntity
  8
0
100
AcDbCircle
 10
158.2593242935
 20
-11.0
 30
0.0
 40
15.0
100
AcDbArc
 50
67.0804578484
 51
90.0
  0
ARC
  5
4750
330
473A
100
AcDbEntity
  8
0
100
AcDbCircle
 10
170.5295533815
 20
6.329709585
 30
0.0
 40
6.0
100
AcDbArc
 50
240.5450656692
 51
310.947188455
  0
ARC
  5
4751
330
473A
100
AcDbEntity
  8
0
100
AcDbCircle
 10
170.5295533815
 20
-96.329709585
 30
0.0
 40
6.0
100
AcDbArc
 50
49.052811545
 51
119.4549343308
  0
ARC
  5
4752
330
473A
100
AcDbEntity
  8
0
100
AcDbCircle
 10
150.86
 20
-61.5
 30
0.0
 40
34.0
100
AcDbArc
 50
292.9195421516
 51
299.4549343308
  0
ARC
  5
4753
330
473A
100
AcDbEntity
  8
0
100
AcDbCircle
 10
158.2593242935
 20
-79.0
 30
0.0
 40
15.0
100
AcDbArc
 50
270.0
 51
292.9195421516
  0
ARC
  5
4754
330
473A
100
AcDbEntity
  8
0
100
AcDbCircle
 10
94.1904466185
 20
6.329709585
 30
0.0
 40
6.0
100
AcDbArc
 50
229.052811545
 51
299.4549343308
  0
ARC
  5
4755
330
473A
100
AcDbEntity
  8
0
100
AcDbCircle
 10
113.86
 20
-28.5
 30
0.0
 40
34.0
100
AcDbArc
 50
112.9195421516
 51
119.4549343308
  0
ARC
  5
4756
330
473A
100
AcDbEntity
  8
0
100
AcDbCircle
 10
106.4606757065
 20
-11.0
 30
0.0
 40
15.0
100
AcDbArc
 50
90.0
 51
112.9195421516
  0
LINE
  5
4757
330
473A
100
AcDbEntity
  8
0
100
AcDbLine
 10
184.86
 20
-29.5827253982
 30
0.0
 11
184.86
 21
-60.4172746018
 31
0.0
  0
ARC
  5
4758
330
473A
100
AcDbEntity
  8
0
100
AcDbCircle
 10
186.86
 20
-29.5827253982
 30
0.0
 40
2.0
100
AcDbArc
 50
134.8143643905
 51
180.0
  0
LINE
  5
4759
330
473A
100
AcDbEntity
  8
0
100
AcDbLine
 10
185.4503758372
 20
-28.1639372816
 30
0.0
 11
188.7696241628
 21
-24.8661279841
 31
0.0
  0
LINE
  5
475A
330
473A
100
AcDbEntity
  8
0
100
AcDbLine
 10
0.0
 20
0.0
 30
0.0
 11
0.0
 21
-90.0
 31
0.0
  0
LINE
  5
475B
330
473A
100
AcDbEntity
  8
0
100
AcDbLine
 10
73.0
 20
-10.5906989318
 30
0.0
 11
73.36
 21
-10.5906989318
 31
0.0
  0
ARC
  5
475C
330
473A
100
AcDbEntity
  8
0
100
AcDbCircle
 10
94.1904466185
 20
-96.329709585
 30
0.0
 40
6.0
100
AcDbArc
 50
60.5450656692
 51
130.947188455
  0
ARC
  5
475D
330
473A
100
AcDbEntity
  8
0
100
AcDbCircle
 10
113.86
 20
-61.5
 30
0.0
 40
34.0
100
AcDbArc
 50
240.5450656692
 51
247.0804578484
  0
ARC
  5
475E
330
473A
100
AcDbEntity
  8
0
100
AcDbCircle
 10
106.4606757065
 20
-79.0
 30
0.0
 40
15.0
100
AcDbArc
 50
247.0804578484
 51
270.0
  0
ARC
  5
475F
330
473A
100
AcDbEntity
  8
0
100
AcDbCircle
 10
73.8790356544
 20
-92.0
 30
0.0
 40
2.0
100
AcDbArc
 50
62.9562954612
 51
90.0
  0
LINE
  5
4760
330
473A
100
AcDbEntity
  8
0
100
AcDbLine
 10
74.7883756879
 20
-90.2186800671
 30
0.0
 11
80.2679698491
 21
-93.0159396981
 31
0.0
  0
ARC
  5
4761
330
473A
100
AcDbEntity
  8
0
100
AcDbCircle
 10
73.8790356544
 20
2.0
 30
0.0
 40
2.0
100
AcDbArc
 50
270.0
 51
297.0437045388
  0
LINE
  5
4762
330
473A
100
AcDbEntity
  8
0
100
AcDbLine
 10
74.7883756879
 20
0.2186800671
 30
0.0
 11
80.2679698491
 21
3.0159396981
 31
0.0
  0
ARC
  5
4763
330
473A
100
AcDbEntity
  8
0
100
AcDbCircle
 10
187.36
 20
-66.5526601325
 30
0.0
 40
2.0
100
AcDbArc
 50
0.0
 51
45.1856356095
  0
ARC
  5
4764
330
473A
100
AcDbEntity
  8
0
100
AcDbCircle
 10
186.86
 20
-60.4172746018
 30
0.0
 40
2.0
100
AcDbArc
 50
180.0
 51
225.1856356095
  0
LINE
  5
4765
330
473A
100
AcDbEntity
  8
0
100
AcDbLine
 10
185.4503758372
 20
-61.8360627184
 30
0.0
 11
188.7696241628
 21
-65.1338720159
 31
0.0
  0
ARC
  5
4766
330
473A
100
AcDbEntity
  8
0
100
AcDbCircle
 10
73.962
 20
-8.5906989318
 30
0.0
 40
2.0
100
AcDbArc
 50
270.0
 51
0.0
  0
ARC
  5
4767
330
473A
100
AcDbEntity
  8
0
100
AcDbCircle
 10
72.5
 20
-12.5906989318
 30
0.0
 40
2.0
100
AcDbArc
 50
0.0
 51
90.0
  0
ARC
  5
4768
330
473A
100
AcDbEntity
  8
0
100
AcDbCircle
 10
73.962
 20
-81.4093010682
 30
0.0
 40
2.0
100
AcDbArc
 50
0.0
 51
90.0
  0
ARC
  5
4769
330
473A
100
AcDbEntity
  8
0
100
AcDbCircle
 10
72.5
 20
-77.4093010682
 30
0.0
 40
2.0
100
AcDbArc
 50
270.0
 51
0.0
  0
LINE
  5
476A
330
473A
100
AcDbEntity
  8
0
100
AcDbLine
 10
74.5
 20
-12.5906989318
 30
0.0
 11
74.5
 21
-77.4093010682
 31
0.0
  0
ARC
  5
476B
330
473A
100
AcDbEntity
  8
0
100
AcDbCircle
 10
84.36
 20
-85.0
 30
0.0
 40
9.0
100
AcDbArc
 50
242.9562954612
 51
310.947188455
  0
LINE
  5
476C
330
473A
100
AcDbEntity
  8
0
100
AcDbLine
 10
0.0
 20
-10.5906989318
 30
0.0
 11
73.962
 21
-10.5906989318
 31
0.0
  0
LINE
  5
476D
330
473A
100
AcDbEntity
  8
0
100
AcDbLine
 10
0.0
 20
-79.4093010682
 30
0.0
 11
74.0
 21
-79.4093010682
 31
0.0
  0
LINE
  5
476E
330
473A
100
AcDbEntity
  8
CENTER
100
AcDbLine
 10
188.348908
 20
-6.0
 30
0.0
 11
172.391632
 21
-6.0
 31
0.0
  0
LINE
  5
476F
330
473A
100
AcDbEntity
  8
CENTER
100
AcDbLine
 10
180.37027
 20
1.978638
 30
0.0
 11
180.37027
 21
-13.978638
 31
0.0
  0
LINE
  5
4770
330
473A
100
AcDbEntity
  8
CENTER
100
AcDbLine
 10
92.348908
 20
-6.0
 30
0.0
 11
76.391632
 21
-6.0
 31
0.0
  0
LINE
  5
4771
330
473A
100
AcDbEntity
  8
CENTER
100
AcDbLine
 10
84.37027
 20
1.978638
 30
0.0
 11
84.37027
 21
-13.978638
 31
0.0
  0
LINE
  5
4772
330
473A
100
AcDbEntity
  8
CENTER
100
AcDbLine
 10
92.348908
 20
-84.0
 30
0.0
 11
76.391632
 21
-84.0
 31
0.0
  0
LINE
  5
4773
330
473A
100
AcDbEntity
  8
CENTER
100
AcDbLine
 10
84.37027
 20
-76.021362
 30
0.0
 11
84.37027
 21
-91.978638
 31
0.0
  0
LINE
  5
4774
330
473A
100
AcDbEntity
  8
CENTER
100
AcDbLine
 10
188.348908
 20
-84.0
 30
0.0
 11
172.391632
 21
-84.0
 31
0.0
  0
LINE
  5
4775
330
473A
100
AcDbEntity
  8
CENTER
100
AcDbLine
 10
180.37027
 20
-76.021362
 30
0.0
 11
180.37027
 21
-91.978638
 31
0.0
  0
LINE
  5
4776
330
473A
100
AcDbEntity
  8
CENTER
100
AcDbLine
 10
74.797928
 20
-16.5
 30
0.0
 11
85.942612
 21
-16.5
 31
0.0
  0
LINE
  5
4777
330
473A
100
AcDbEntity
  8
CENTER
100
AcDbLine
 10
80.37027
 20
-22.072342
 30
0.0
 11
80.37027
 21
-10.927658
 31
0.0
  0
LINE
  5
4778
330
473A
100
AcDbEntity
  8
CENTER
100
AcDbLine
 10
74.797928
 20
-73.5
 30
0.0
 11
85.942612
 21
-73.5
 31
0.0
  0
LINE
  5
4779
330
473A
100
AcDbEntity
  8
CENTER
100
AcDbLine
 10
80.37027
 20
-79.072342
 30
0.0
 11
80.37027
 21
-67.927658
 31
0.0
  0
LINE
  5
477A
330
473A
100
AcDbEntity
  8
CENTER
100
AcDbLine
 10
178.797928
 20
-73.5
 30
0.0
 11
189.942612
 21
-73.5
 31
0.0
  0
LINE
  5
477B
330
473A
100
AcDbEntity
  8
CENTER
100
AcDbLine
 10
184.37027
 20
-79.072342
 30
0.0
 11
184.37027
 21
-67.927658
 31
0.0
  0
LINE
  5
477C
330
473A
100
AcDbEntity
  8
CENTER
100
AcDbLine
 10
184.37027
 20
-22.072342
 30
0.0
 11
184.37027
 21
-10.927658
 31
0.0
  0
LINE
  5
477D
330
473A
100
AcDbEntity
  8
CENTER
100
AcDbLine
 10
178.797928
 20
-16.5
 30
0.0
 11
189.942612
 21
-16.5
 31
0.0
  0
LINE
  5
477E
330
473A
100
AcDbEntity
  8
0
  6
Continuous
100
AcDbLine
 10
77.981186
 20
-69.0
 30
0.0
 11
80.370285
 21
-69.0
 31
0.0
  0
LINE
  5
477F
330
473A
100
AcDbEntity
  8
0
100
AcDbLine
 10
80.48027
 20
-29.3284271247
 30
0.0
 11
80.48027
 21
-60.6715728753
 31
0.0
  0
LINE
  5
4780
330
473A
100
AcDbEntity
  8
0
100
AcDbLine
 10
75.98027
 20
-66.8284271247
 30
0.0
 11
75.98027
 21
-85.0
 31
0.0
  0
ARC
  5
4781
330
473A
100
AcDbEntity
  8
0
100
AcDbCircle
 10
78.48027
 20
-60.6715728753
 30
0.0
 40
2.0
100
AcDbArc
 50
315.0
 51
0.0
  0
ARC
  5
4782
330
473A
100
AcDbEntity
  8
0
100
AcDbCircle
 10
77.98027
 20
-66.8284271247
 30
0.0
 40
2.0
100
AcDbArc
 50
135.0
 51
180.0
  0
LINE
  5
4783
330
473A
100
AcDbEntity
  8
0
100
AcDbLine
 10
76.5660564376
 20
-65.4142135624
 30
0.0
 11
79.8944835624
 21
-62.0857864376
 31
0.0
  0
ARC
  5
4784
330
473A
100
AcDbEntity
  8
0
100
AcDbCircle
 10
80.37027
 20
-73.5
 30
0.0
 40
4.5
100
AcDbArc
 50
270.0
 51
90.0
  0
LINE
  5
4785
330
473A
100
AcDbEntity
  8
0
100
AcDbLine
 10
80.37027
 20
-69.0
 30
0.0
 11
77.98027
 21
-69.0
 31
0.0
  0
ARC
  5
4786
330
473A
100
AcDbEntity
  8
0
100
AcDbCircle
 10
77.98027
 20
-67.0
 30
0.0
 40
2.0
100
AcDbArc
 50
180.0
 51
270.0
  0
ARC
  5
4787
330
473A
100
AcDbEntity
  8
0
100
AcDbCircle
 10
77.98027
 20
-80.0
 30
0.0
 40
2.0
100
AcDbArc
 50
90.0
 51
180.0
  0
LINE
  5
4788
330
473A
100
AcDbEntity
  8
0
100
AcDbLine
 10
80.37027
 20
-78.0
 30
0.0
 11
77.98027
 21
-78.0
 31
0.0
  0
ARC
  5
4789
330
473A
100
AcDbEntity
  8
0
100
AcDbCircle
 10
77.98027
 20
-10.0
 30
0.0
 40
2.0
100
AcDbArc
 50
180.0
 51
270.0
  0
LINE
  5
478A
330
473A
100
AcDbEntity
  8
0
100
AcDbLine
 10
75.98027
 20
-23.1715728753
 30
0.0
 11
75.98027
 21
-5.0
 31
0.0
  0
ARC
  5
478B
330
473A
100
AcDbEntity
  8
0
100
AcDbCircle
 10
77.98027
 20
-23.0
 30
0.0
 40
2.0
100
AcDbArc
 50
90.0
 51
180.0
  0
ARC
  5
478C
330
473A
100
AcDbEntity
  8
0
100
AcDbCircle
 10
80.37027
 20
-16.5
 30
0.0
 40
4.5
100
AcDbArc
 50
270.0
 51
90.0
  0
LINE
  5
478D
330
473A
100
AcDbEntity
  8
0
100
AcDbLine
 10
80.37027
 20
-12.0
 30
0.0
 11
77.98027
 21
-12.0
 31
0.0
  0
LINE
  5
478E
330
473A
100
AcDbEntity
  8
0
100
AcDbLine
 10
80.37027
 20
-21.0
 30
0.0
 11
77.98027
 21
-21.0
 31
0.0
  0
ARC
  5
478F
330
473A
100
AcDbEntity
  8
0
100
AcDbCircle
 10
78.48027
 20
-29.3284271247
 30
0.0
 40
2.0
100
AcDbArc
 50
0.0
 51
45.0
  0
LINE
  5
4790
330
473A
100
AcDbEntity
  8
0
100
AcDbLine
 10
76.5660564376
 20
-24.5857864376
 30
0.0
 11
79.8944835624
 21
-27.9142135624
 31
0.0
  0
ARC
  5
4791
330
473A
100
AcDbEntity
  8
0
100
AcDbCircle
 10
77.98027
 20
-23.1715728753
 30
0.0
 40
2.0
100
AcDbArc
 50
180.0
 51
225.0
  0
ARC
  5
4792
330
473A
100
AcDbEntity
  8
0
100
AcDbCircle
 10
184.37027
 20
-73.5
 30
0.0
 40
4.5
100
AcDbArc
 50
90.0
 51
270.0
  0
LINE
  5
4793
330
473A
100
AcDbEntity
  8
0
100
AcDbLine
 10
184.37027
 20
-78.0
 30
0.0
 11
187.36
 21
-78.0
 31
0.0
  0
LINE
  5
4794
330
473A
100
AcDbEntity
  8
0
100
AcDbLine
 10
184.37027
 20
-69.0
 30
0.0
 11
187.36
 21
-69.0
 31
0.0
  0
ARC
  5
4795
330
473A
100
AcDbEntity
  8
0
100
AcDbCircle
 10
184.37027
 20
-16.5
 30
0.0
 40
4.5
100
AcDbArc
 50
90.0
 51
270.0
  0
LINE
  5
4796
330
473A
100
AcDbEntity
  8
0
100
AcDbLine
 10
184.37027
 20
-21.0
 30
0.0
 11
187.36
 21
-21.0
 31
0.0
  0
LINE
  5
4797
330
473A
100
AcDbEntity
  8
0
100
AcDbLine
 10
184.37027
 20
-12.0
 30
0.0
 11
187.36
 21
-12.0
 31
0.0
  0
CIRCLE
  5
4798
330
473A
100
AcDbEntity
  8
0
  6
Continuous
100
AcDbCircle
 10
84.370285
 20
-6.0
 30
0.0
 40
5.25
  0
CIRCLE
  5
4799
330
473A
100
AcDbEntity
  8
0
  6
Continuous
100
AcDbCircle
 10
84.370285
 20
-83.999962
 30
0.0
 40
5.25
  0
CIRCLE
  5
479A
330
473A
100
AcDbEntity
  8
0
  6
Continuous
100
AcDbCircle
 10
180.37027
 20
-83.999962
 30
0.0
 40
5.25
  0
CIRCLE
  5
479B
330
473A
100
AcDbEntity
  8
0
  6
Continuous
100
AcDbCircle
 10
180.37027
 20
-6.0
 30
0.0
 40
5.25
  0
CIRCLE
  5
479C
330
473A
100
AcDbEntity
  8
0
100
AcDbCircle
 10
184.37027
 20
-16.5
 30
0.0
 40
3.799999999999998
  0
CIRCLE
  5
479D
330
473A
100
AcDbEntity
  8
0
100
AcDbCircle
 10
184.37027
 20
-16.5
 30
0.0
 40
3.5
  0
LINE
  5
479E
330
473A
100
AcDbEntity
  8
0
100
AcDbLine
 10
186.170288
 20
-16.5
 30
0.0
 11
185.30426
 21
-15.0
 31
0.0
  0
LINE
  5
479F
330
473A
100
AcDbEntity
  8
0
100
AcDbLine
 10
182.570282
 20
-16.5
 30
0.0
 11
183.43631
 21
-15.0
 31
0.0
  0
LINE
  5
47A0
330
473A
100
AcDbEntity
  8
0
100
AcDbLine
 10
186.170288
 20
-16.5
 30
0.0
 11
185.30426
 21
-18.0
 31
0.0
  0
LINE
  5
47A1
330
473A
100
AcDbEntity
  8
0
100
AcDbLine
 10
182.570282
 20
-16.5
 30
0.0
 11
183.43631
 21
-18.0
 31
0.0
  0
LINE
  5
47A2
330
473A
100
AcDbEntity
  8
0
100
AcDbLine
 10
185.30426
 20
-18.0
 30
0.0
 11
183.43631
 21
-18.0
 31
0.0
  0
LINE
  5
47A3
330
473A
100
AcDbEntity
  8
0
100
AcDbLine
 10
185.30426
 20
-15.0
 30
0.0
 11
183.43631
 21
-15.0
 31
0.0
  0
CIRCLE
  5
47A4
330
473A
100
AcDbEntity
  8
0
100
AcDbCircle
 10
184.37027
 20
-73.5
 30
0.0
 40
3.799999999999998
  0
CIRCLE
  5
47A5
330
473A
100
AcDbEntity
  8
0
100
AcDbCircle
 10
184.37027
 20
-73.5
 30
0.0
 40
3.5
  0
LINE
  5
47A6
330
473A
100
AcDbEntity
  8
0
100
AcDbLine
 10
186.170288
 20
-73.5
 30
0.0
 11
185.30426
 21
-72.0
 31
0.0
  0
LINE
  5
47A7
330
473A
100
AcDbEntity
  8
0
100
AcDbLine
 10
182.570282
 20
-73.5
 30
0.0
 11
183.43631
 21
-72.0
 31
0.0
  0
LINE
  5
47A8
330
473A
100
AcDbEntity
  8
0
100
AcDbLine
 10
186.170288
 20
-73.5
 30
0.0
 11
185.30426
 21
-75.0
 31
0.0
  0
LINE
  5
47A9
330
473A
100
AcDbEntity
  8
0
100
AcDbLine
 10
182.570282
 20
-73.5
 30
0.0
 11
183.43631
 21
-75.0
 31
0.0
  0
LINE
  5
47AA
330
473A
100
AcDbEntity
  8
0
100
AcDbLine
 10
185.30426
 20
-75.0
 30
0.0
 11
183.43631
 21
-75.0
 31
0.0
  0
LINE
  5
47AB
330
473A
100
AcDbEntity
  8
0
100
AcDbLine
 10
185.30426
 20
-72.0
 30
0.0
 11
183.43631
 21
-72.0
 31
0.0
  0
CIRCLE
  5
47AC
330
473A
100
AcDbEntity
  8
0
100
AcDbCircle
 10
80.37027
 20
-73.5
 30
0.0
 40
3.799999999999998
  0
CIRCLE
  5
47AD
330
473A
100
AcDbEntity
  8
0
100
AcDbCircle
 10
80.37027
 20
-73.5
 30
0.0
 40
3.5
  0
LINE
  5
47AE
330
473A
100
AcDbEntity
  8
0
100
AcDbLine
 10
82.170288
 20
-73.5
 30
0.0
 11
81.30426
 21
-72.0
 31
0.0
  0
LINE
  5
47AF
330
473A
100
AcDbEntity
  8
0
100
AcDbLine
 10
78.570282
 20
-73.5
 30
0.0
 11
79.43631
 21
-72.0
 31
0.0
  0
LINE
  5
47B0
330
473A
100
AcDbEntity
  8
0
100
AcDbLine
 10
82.170288
 20
-73.5
 30
0.0
 11
81.30426
 21
-75.0
 31
0.0
  0
LINE
  5
47B1
330
473A
100
AcDbEntity
  8
0
100
AcDbLine
 10
78.570282
 20
-73.5
 30
0.0
 11
79.43631
 21
-75.0
 31
0.0
  0
LINE
  5
47B2
330
473A
100
AcDbEntity
  8
0
100
AcDbLine
 10
81.30426
 20
-75.0
 30
0.0
 11
79.43631
 21
-75.0
 31
0.0
  0
LINE
  5
47B3
330
473A
100
AcDbEntity
  8
0
100
AcDbLine
 10
81.30426
 20
-72.0
 30
0.0
 11
79.43631
 21
-72.0
 31
0.0
  0
CIRCLE
  5
47B4
330
473A
100
AcDbEntity
  8
0
100
AcDbCircle
 10
80.37027
 20
-16.5
 30
0.0
 40
3.799999999999998
  0
CIRCLE
  5
47B5
330
473A
100
AcDbEntity
  8
0
100
AcDbCircle
 10
80.37027
 20
-16.5
 30
0.0
 40
3.5
  0
LINE
  5
47B6
330
473A
100
AcDbEntity
  8
0
100
AcDbLine
 10
82.170288
 20
-16.5
 30
0.0
 11
81.30426
 21
-15.0
 31
0.0
  0
LINE
  5
47B7
330
473A
100
AcDbEntity
  8
0
100
AcDbLine
 10
78.570282
 20
-16.5
 30
0.0
 11
79.43631
 21
-15.0
 31
0.0
  0
LINE
  5
47B8
330
473A
100
AcDbEntity
  8
0
100
AcDbLine
 10
82.170288
 20
-16.5
 30
0.0
 11
81.30426
 21
-18.0
 31
0.0
  0
LINE
  5
47B9
330
473A
100
AcDbEntity
  8
0
100
AcDbLine
 10
78.570282
 20
-16.5
 30
0.0
 11
79.43631
 21
-18.0
 31
0.0
  0
LINE
  5
47BA
330
473A
100
AcDbEntity
  8
0
100
AcDbLine
 10
81.30426
 20
-18.0
 30
0.0
 11
79.43631
 21
-18.0
 31
0.0
  0
LINE
  5
47BB
330
473A
100
AcDbEntity
  8
0
100
AcDbLine
 10
81.30426
 20
-15.0
 30
0.0
 11
79.43631
 21
-15.0
 31
0.0
  0
CIRCLE
  5
47BC
330
473A
100
AcDbEntity
  8
HOJO
100
AcDbCircle
 10
180.37027
 20
-6.0
 30
0.0
 40
5.0
  0
CIRCLE
  5
47BD
330
473A
100
AcDbEntity
  8
HOJO
100
AcDbCircle
 10
84.37027
 20
-6.0
 30
0.0
 40
5.0
  0
CIRCLE
  5
47BE
330
473A
100
AcDbEntity
  8
HOJO
100
AcDbCircle
 10
180.37027
 20
-84.0
 30
0.0
 40
5.0
  0
CIRCLE
  5
47BF
330
473A
100
AcDbEntity
  8
HOJO
100
AcDbCircle
 10
84.37027
 20
-84.0
 30
0.0
 40
5.0
  0
CIRCLE
  5
47C0
330
473A
100
AcDbEntity
  8
0
100
AcDbCircle
 10
180.37027
 20
-6.0
 30
0.0
 40
4.2
  0
CIRCLE
  5
47C1
330
473A
100
AcDbEntity
  8
0
100
AcDbCircle
 10
84.37027
 20
-6.0
 30
0.0
 40
4.2
  0
CIRCLE
  5
47C2
330
473A
100
AcDbEntity
  8
0
100
AcDbCircle
 10
180.37027
 20
-84.0
 30
0.0
 40
4.2
  0
CIRCLE
  5
47C3
330
473A
100
AcDbEntity
  8
0
100
AcDbCircle
 10
84.37027
 20
-84.0
 30
0.0
 40
4.2
  0
LINE
  5
47C4
330
473A
100
AcDbEntity
  8
0
100
AcDbLine
 10
179.87027
 20
-63.0
 30
0.0
 11
179.87027
 21
-26.679504
 31
0.0
  0
LINE
  5
47C5
330
473A
100
AcDbEntity
  8
0
100
AcDbLine
 10
84.87027
 20
-63.0
 30
0.0
 11
84.87027
 21
-26.679504
 31
0.0
  0
LINE
  5
47C6
330
473A
100
AcDbEntity
  8
0
100
AcDbLine
 10
109.87027
 20
-88.0
 30
0.0
 11
154.87027
 21
-88.0
 31
0.0
  0
LINE
  5
47C7
330
473A
100
AcDbEntity
  8
0
100
AcDbLine
 10
99.262009
 20
-82.53714
 30
0.0
 11
101.262009
 21
-81.850922
 31
0.0
  0
ARC
  5
47C8
330
473A
100
AcDbEntity
  8
0
100
AcDbCircle
 10
99.37027
 20
-82.5
 30
0.0
 40
2.0
100
AcDbArc
 50
0.0
 51
37.874985
  0
ARC
  5
47C9
330
473A
100
AcDbEntity
  8
0
100
AcDbCircle
 10
97.37027
 20
-83.186218
 30
0.0
 40
2.0
100
AcDbArc
 50
0.0
 51
37.874985
  0
ARC
  5
47CA
330
473A
100
AcDbEntity
  8
0
100
AcDbCircle
 10
109.87027
 20
-63.0
 30
0.0
 40
25.0
100
AcDbArc
 50
248.311188
 51
270.0
  0
LINE
  5
47CB
330
473A
100
AcDbEntity
  8
0
100
AcDbLine
 10
99.37027
 20
-83.186218
 30
0.0
 11
99.37027
 21
-84.371704
 31
0.0
  0
ARC
  5
47CC
330
473A
100
AcDbEntity
  8
0
100
AcDbCircle
 10
101.37027
 20
-84.371704
 30
0.0
 40
2.0
100
AcDbArc
 50
180.0
 51
248.311188
  0
LINE
  5
47CD
330
473A
100
AcDbEntity
  8
0
100
AcDbLine
 10
101.37027
 20
-82.5
 30
0.0
 11
101.37027
 21
-85.062408
 31
0.0
  0
ARC
  5
47CE
330
473A
100
AcDbEntity
  8
0
100
AcDbCircle
 10
103.37027
 20
-85.062408
 30
0.0
 40
2.0
100
AcDbArc
 50
180.0
 51
253.584045
  0
ARC
  5
47CF
330
473A
100
AcDbEntity
  8
0
100
AcDbCircle
 10
109.87027
 20
-63.0
 30
0.0
 40
25.0
100
AcDbArc
 50
180.0
 51
190.015411
  0
ARC
  5
47D0
330
473A
100
AcDbEntity
  8
0
100
AcDbCircle
 10
86.957398
 20
-65.0
 30
0.0
 40
2.0
100
AcDbArc
 50
184.988541
 51
270.0
  0
ARC
  5
47D1
330
473A
100
AcDbEntity
  8
0
100
AcDbCircle
 10
87.220764
 20
-67.0
 30
0.0
 40
2.0
100
AcDbArc
 50
190.015411
 51
270.0
  0
LINE
  5
47D2
330
473A
100
AcDbEntity
  8
0
100
AcDbLine
 10
89.47081
 20
-69.772125
 30
0.0
 11
98.948975
 21
-81.958328
 31
0.0
  0
LINE
  5
47D3
330
473A
100
AcDbEntity
  8
0
100
AcDbLine
 10
90.448975
 20
-67.772125
 30
0.0
 11
100.948975
 21
-81.272125
 31
0.0
  0
LINE
  5
47D4
330
473A
100
AcDbEntity
  8
0
100
AcDbLine
 10
88.87027
 20
-67.0
 30
0.0
 11
86.957398
 21
-67.0
 31
0.0
  0
LINE
  5
47D5
330
473A
100
AcDbEntity
  8
0
100
AcDbLine
 10
87.220764
 20
-69.0
 30
0.0
 11
87.892105
 21
-69.0
 31
0.0
  0
ARC
  5
47D6
330
473A
100
AcDbEntity
  8
0
100
AcDbCircle
 10
88.87027
 20
-69.0
 30
0.0
 40
2.0
100
AcDbArc
 50
37.874985
 51
90.0
  0
ARC
  5
47D7
330
473A
100
AcDbEntity
  8
0
100
AcDbCircle
 10
87.892105
 20
-71.0
 30
0.0
 40
2.0
100
AcDbArc
 50
37.874985
 51
90.0
  0
LINE
  5
47D8
330
473A
100
AcDbEntity
  8
0
100
AcDbLine
 10
88.770798
 20
-69.203369
 30
0.0
 11
89.748978
 21
-67.203369
 31
0.0
  0
LINE
  5
47D9
330
473A
100
AcDbEntity
  8
0
100
AcDbLine
 10
165.478516
 20
-82.53714
 30
0.0
 11
163.478516
 21
-81.850922
 31
0.0
  0
ARC
  5
47DA
330
473A
100
AcDbEntity
  8
0
100
AcDbCircle
 10
167.37027
 20
-83.186218
 30
0.0
 40
2.0
100
AcDbArc
 50
142.125015
 51
180.0
  0
ARC
  5
47DB
330
473A
100
AcDbEntity
  8
0
100
AcDbCircle
 10
165.37027
 20
-82.5
 30
0.0
 40
2.0
100
AcDbArc
 50
142.125015
 51
180.0
  0
ARC
  5
47DC
330
473A
100
AcDbEntity
  8
0
100
AcDbCircle
 10
161.37027
 20
-85.062408
 30
0.0
 40
2.0
100
AcDbArc
 50
286.415962
 51
0.0
  0
ARC
  5
47DD
330
473A
100
AcDbEntity
  8
0
100
AcDbCircle
 10
154.87027
 20
-63.0
 30
0.0
 40
25.0
100
AcDbArc
 50
270.0
 51
291.688812
  0
LINE
  5
47DE
330
473A
100
AcDbEntity
  8
0
100
AcDbLine
 10
163.37027
 20
-82.5
 30
0.0
 11
163.37027
 21
-85.062408
 31
0.0
  0
ARC
  5
47DF
330
473A
100
AcDbEntity
  8
0
100
AcDbCircle
 10
163.37027
 20
-84.371704
 30
0.0
 40
2.0
100
AcDbArc
 50
291.688805
 51
0.0
  0
LINE
  5
47E0
330
473A
100
AcDbEntity
  8
0
100
AcDbLine
 10
165.37027
 20
-83.186218
 30
0.0
 11
165.37027
 21
-84.371704
 31
0.0
  0
ARC
  5
47E1
330
473A
100
AcDbEntity
  8
0
100
AcDbCircle
 10
154.87027
 20
-63.0
 30
0.0
 40
25.0
100
AcDbArc
 50
349.98459
 51
0.0
  0
LINE
  5
47E2
330
473A
100
AcDbEntity
  8
0
100
AcDbLine
 10
175.87027
 20
-67.0
 30
0.0
 11
177.783142
 21
-67.0
 31
0.0
  0
LINE
  5
47E3
330
473A
100
AcDbEntity
  8
0
100
AcDbLine
 10
177.519776
 20
-69.0
 30
0.0
 11
176.84845
 21
-69.0
 31
0.0
  0
LINE
  5
47E4
330
473A
100
AcDbEntity
  8
0
100
AcDbLine
 10
175.269745
 20
-69.772125
 30
0.0
 11
165.791565
 21
-81.958328
 31
0.0
  0
LINE
  5
47E5
330
473A
100
AcDbEntity
  8
0
100
AcDbLine
 10
174.291565
 20
-67.772125
 30
0.0
 11
163.791565
 21
-81.272125
 31
0.0
  0
ARC
  5
47E6
330
473A
100
AcDbEntity
  8
0
100
AcDbCircle
 10
175.87027
 20
-69.0
 30
0.0
 40
2.0
100
AcDbArc
 50
90.0
 51
142.125015
  0
ARC
  5
47E7
330
473A
100
AcDbEntity
  8
0
100
AcDbCircle
 10
176.84845
 20
-71.0
 30
0.0
 40
2.0
100
AcDbArc
 50
90.0
 51
142.125015
  0
LINE
  5
47E8
330
473A
100
AcDbEntity
  8
0
100
AcDbLine
 10
175.969727
 20
-69.203369
 30
0.0
 11
174.991577
 21
-67.203369
 31
0.0
  0
ARC
  5
47E9
330
473A
100
AcDbEntity
  8
0
100
AcDbCircle
 10
177.783142
 20
-65.0
 30
0.0
 40
2.0
100
AcDbArc
 50
270.0
 51
355.011444
  0
ARC
  5
47EA
330
473A
100
AcDbEntity
  8
0
100
AcDbCircle
 10
177.519776
 20
-67.0
 30
0.0
 40
2.0
100
AcDbArc
 50
270.0
 51
349.984589
  0
LINE
  5
47EB
330
473A
100
AcDbEntity
  8
0
100
AcDbLine
 10
154.87027
 20
-2.0
 30
0.0
 11
109.87027
 21
-2.0
 31
0.0
  0
LINE
  5
47EC
330
473A
100
AcDbEntity
  8
0
100
AcDbLine
 10
89.47081
 20
-20.227875
 30
0.0
 11
98.948975
 21
-8.041656
 31
0.0
  0
LINE
  5
47ED
330
473A
100
AcDbEntity
  8
0
100
AcDbLine
 10
90.448975
 20
-22.227875
 30
0.0
 11
100.948975
 21
-8.727875
 31
0.0
  0
ARC
  5
47EE
330
473A
100
AcDbEntity
  8
0
100
AcDbCircle
 10
86.957398
 20
-25.0
 30
0.0
 40
2.0
100
AcDbArc
 50
90.0
 51
175.011459
  0
ARC
  5
47EF
330
473A
100
AcDbEntity
  8
0
100
AcDbCircle
 10
87.220764
 20
-23.0
 30
0.0
 40
2.0
100
AcDbArc
 50
90.0
 51
169.984589
  0
ARC
  5
47F0
330
473A
100
AcDbEntity
  8
0
100
AcDbCircle
 10
109.87027
 20
-27.0
 30
0.0
 40
25.0
100
AcDbArc
 50
169.984589
 51
180.0
  0
ARC
  5
47F1
330
473A
100
AcDbEntity
  8
0
100
AcDbCircle
 10
88.87027
 20
-21.0
 30
0.0
 40
2.0
100
AcDbArc
 50
270.0
 51
322.125031
  0
LINE
  5
47F2
330
473A
100
AcDbEntity
  8
0
100
AcDbLine
 10
88.770798
 20
-20.796631
 30
0.0
 11
89.748978
 21
-22.796631
 31
0.0
  0
LINE
  5
47F3
330
473A
100
AcDbEntity
  8
0
100
AcDbLine
 10
88.87027
 20
-23.0
 30
0.0
 11
86.957398
 21
-23.0
 31
0.0
  0
LINE
  5
47F4
330
473A
100
AcDbEntity
  8
0
100
AcDbLine
 10
87.220764
 20
-21.0
 30
0.0
 11
87.892105
 21
-21.0
 31
0.0
  0
ARC
  5
47F5
330
473A
100
AcDbEntity
  8
0
100
AcDbCircle
 10
87.892105
 20
-19.0
 30
0.0
 40
2.0
100
AcDbArc
 50
270.0
 51
322.125031
  0
ARC
  5
47F6
330
473A
100
AcDbEntity
  8
0
100
AcDbCircle
 10
99.37027
 20
-7.5
 30
0.0
 40
2.0
100
AcDbArc
 50
322.125015
 51
0.0
  0
LINE
  5
47F7
330
473A
100
AcDbEntity
  8
0
100
AcDbLine
 10
99.262009
 20
-7.46286
 30
0.0
 11
101.262009
 21
-8.149078
 31
0.0
  0
ARC
  5
47F8
330
473A
100
AcDbEntity
  8
0
100
AcDbCircle
 10
109.87027
 20
-27.0
 30
0.0
 40
25.0
100
AcDbArc
 50
90.0
 51
111.688805
  0
ARC
  5
47F9
330
473A
100
AcDbEntity
  8
0
100
AcDbCircle
 10
101.37027
 20
-5.628296
 30
0.0
 40
2.0
100
AcDbArc
 50
111.688805
 51
180.0
  0
LINE
  5
47FA
330
473A
100
AcDbEntity
  8
0
100
AcDbLine
 10
99.37027
 20
-6.813782
 30
0.0
 11
99.37027
 21
-5.628296
 31
0.0
  0
ARC
  5
47FB
330
473A
100
AcDbEntity
  8
0
100
AcDbCircle
 10
97.37027
 20
-6.813782
 30
0.0
 40
2.0
100
AcDbArc
 50
322.125015
 51
0.0
  0
LINE
  5
47FC
330
473A
100
AcDbEntity
  8
0
100
AcDbLine
 10
101.37027
 20
-7.5
 30
0.0
 11
101.37027
 21
-4.937592
 31
0.0
  0
ARC
  5
47FD
330
473A
100
AcDbEntity
  8
0
100
AcDbCircle
 10
103.37027
 20
-4.937592
 30
0.0
 40
2.0
100
AcDbArc
 50
106.415962
 51
180.0
  0
LINE
  5
47FE
330
473A
100
AcDbEntity
  8
0
100
AcDbLine
 10
175.269745
 20
-20.227875
 30
0.0
 11
165.791565
 21
-8.041656
 31
0.0
  0
LINE
  5
47FF
330
473A
100
AcDbEntity
  8
0
100
AcDbLine
 10
174.291565
 20
-22.227875
 30
0.0
 11
163.791565
 21
-8.727875
 31
0.0
  0
LINE
  5
4800
330
473A
100
AcDbEntity
  8
0
100
AcDbLine
 10
177.519776
 20
-21.0
 30
0.0
 11
176.84845
 21
-21.0
 31
0.0
  0
LINE
  5
4801
330
473A
100
AcDbEntity
  8
0
100
AcDbLine
 10
175.87027
 20
-23.0
 30
0.0
 11
177.783142
 21
-23.0
 31
0.0
  0
ARC
  5
4802
330
473A
100
AcDbEntity
  8
0
100
AcDbCircle
 10
175.87027
 20
-21.0
 30
0.0
 40
2.0
100
AcDbArc
 50
217.874985
 51
270.0
  0
LINE
  5
4803
330
473A
100
AcDbEntity
  8
0
100
AcDbLine
 10
175.969727
 20
-20.796631
 30
0.0
 11
174.991577
 21
-22.796631
 31
0.0
  0
ARC
  5
4804
330
473A
100
AcDbEntity
  8
0
100
AcDbCircle
 10
176.84845
 20
-19.0
 30
0.0
 40
2.0
100
AcDbArc
 50
217.874985
 51
270.0
  0
ARC
  5
4805
330
473A
100
AcDbEntity
  8
0
100
AcDbCircle
 10
177.519776
 20
-23.0
 30
0.0
 40
2.0
100
AcDbArc
 50
10.01541
 51
90.0
  0
ARC
  5
4806
330
473A
100
AcDbEntity
  8
0
100
AcDbCircle
 10
177.783142
 20
-25.0
 30
0.0
 40
2.0
100
AcDbArc
 50
4.988542
 51
90.0
  0
ARC
  5
4807
330
473A
100
AcDbEntity
  8
0
100
AcDbCircle
 10
154.87027
 20
-27.0
 30
0.0
 40
25.0
100
AcDbArc
 50
0.0
 51
10.01541
  0
ARC
  5
4808
330
473A
100
AcDbEntity
  8
0
100
AcDbCircle
 10
161.37027
 20
-4.937592
 30
0.0
 40
2.0
100
AcDbArc
 50
0.0
 51
73.584038
  0
ARC
  5
4809
330
473A
100
AcDbEntity
  8
0
100
AcDbCircle
 10
154.87027
 20
-27.0
 30
0.0
 40
25.0
100
AcDbArc
 50
68.311195
 51
90.0
  0
ARC
  5
480A
330
473A
100
AcDbEntity
  8
0
100
AcDbCircle
 10
163.37027
 20
-5.628296
 30
0.0
 40
2.0
100
AcDbArc
 50
0.0
 51
68.311195
  0
LINE
  5
480B
330
473A
100
AcDbEntity
  8
0
100
AcDbLine
 10
163.37027
 20
-7.5
 30
0.0
 11
163.37027
 21
-4.937592
 31
0.0
  0
LINE
  5
480C
330
473A
100
AcDbEntity
  8
0
100
AcDbLine
 10
165.37027
 20
-6.813782
 30
0.0
 11
165.37027
 21
-5.628296
 31
0.0
  0
LINE
  5
480D
330
473A
100
AcDbEntity
  8
0
100
AcDbLine
 10
165.478516
 20
-7.46286
 30
0.0
 11
163.478516
 21
-8.149078
 31
0.0
  0
ARC
  5
480E
330
473A
100
AcDbEntity
  8
0
100
AcDbCircle
 10
165.37027
 20
-7.5
 30
0.0
 40
2.0
100
AcDbArc
 50
180.0
 51
217.874985
  0
ARC
  5
480F
330
473A
100
AcDbEntity
  8
0
100
AcDbCircle
 10
167.37027
 20
-6.813782
 30
0.0
 40
2.0
100
AcDbArc
 50
180.0
 51
217.874985
  0
ARC
  5
4810
330
473A
100
AcDbEntity
  8
0
100
AcDbCircle
 10
85.1284230626
 20
-85.2224888727
 30
0.0
 40
9.150858197714477
100
AcDbArc
 50
178.6068050225
 51
240.5119553746
  0
ARC
  5
4811
330
473A
100
AcDbEntity
  8
0
100
AcDbCircle
 10
84.36
 20
-5.0
 30
0.0
 40
9.0
100
AcDbArc
 50
49.052811545
 51
117.0437045388
  0
ARC
  5
4812
330
473A
100
AcDbEntity
  8
0
100
AcDbCircle
 10
85.1284230626
 20
-4.7775111273
 30
0.0
 40
9.150858197714477
100
AcDbArc
 50
119.4880446254
 51
181.3931949775
  0
ENDBLK
  5
4813
330
473A
100
AcDbEntity
  8
0
100
AcDbBlockEnd
  0
BLOCK
  5
4828
330
4825
100
AcDbEntity
  8
0
100
AcDbBlockBegin
  2
A$C0221c00d
 70
     0
 10
0.0
 20
0.0
 30
0.0
  3
A$C0221c00d
  1

  0
LINE
  5
4829
330
4825
100
AcDbEntity
  8
0
100
AcDbLine
 10
0.0
 20
-34.4093010682
 30
0.0
 11
-75.3703
 21
-34.4093010682
 31
0.0
  0
LINE
  5
482A
330
4825
100
AcDbEntity
  8
0
100
AcDbLine
 10
0.0
 20
34.4093010682
 30
0.0
 11
-75.3703
 21
34.4093010682
 31
0.0
  0
LINE
  5
482B
330
4825
100
AcDbEntity
  8
0
100
AcDbLine
 10
-73.8893356544
 20
45.0
 30
0.0
 11
0.0
 21
45.0
 31
0.0
  0
ARC
  5
482C
330
4825
100
AcDbEntity
  8
0
100
AcDbCircle
 10
-73.8893356544
 20
47.0
 30
0.0
 40
2.0
100
AcDbArc
 50
242.9562954612
 51
270.0
  0
ARC
  5
482D
330
4825
100
AcDbEntity
  8
0
100
AcDbCircle
 10
-180.3703
 20
-40.0
 30
0.0
 40
9.0
100
AcDbArc
 50
180.0
 51
310.947188455
  0
LINE
  5
482E
330
4825
100
AcDbEntity
  8
0
100
AcDbLine
 10
-180.3703
 20
-49.0
 30
0.0
 11
-84.3703
 21
-49.0
 31
0.0
  0
LINE
  5
482F
330
4825
100
AcDbEntity
  8
0
100
AcDbLine
 10
-189.3703
 20
40.0
 30
0.0
 11
-189.3703
 21
-40.0
 31
0.0
  0
LINE
  5
4830
330
4825
100
AcDbEntity
  8
0
100
AcDbLine
 10
-75.3703
 20
40.0
 30
0.0
 11
-75.3703
 21
21.8284421707
 31
0.0
  0
ARC
  5
4831
330
4825
100
AcDbEntity
  8
0
100
AcDbCircle
 10
-150.8703
 20
-16.5
 30
0.0
 40
34.0
100
AcDbArc
 50
240.5450656692
 51
247.0804578484
  0
ARC
  5
4832
330
4825
100
AcDbEntity
  8
0
100
AcDbCircle
 10
-158.2696242935
 20
-34.0
 30
0.0
 40
15.0
100
AcDbArc
 50
247.0804578484
 51
270.0
  0
ARC
  5
4833
330
4825
100
AcDbEntity
  8
0
100
AcDbCircle
 10
-170.5398533815
 20
-51.329709585
 30
0.0
 40
6.0
100
AcDbArc
 50
60.5450656692
 51
130.947188455
  0
ARC
  5
4834
330
4825
100
AcDbEntity
  8
0
100
AcDbCircle
 10
-106.4709757065
 20
-34.0
 30
0.0
 40
15.0
100
AcDbArc
 50
270.0
 51
292.9195421516
  0
ARC
  5
4835
330
4825
100
AcDbEntity
  8
0
100
AcDbCircle
 10
-94.2007466185
 20
-51.329709585
 30
0.0
 40
6.0
100
AcDbArc
 50
49.052811545
 51
119.4549343308
  0
ARC
  5
4836
330
4825
100
AcDbEntity
  8
0
100
AcDbCircle
 10
-113.8703
 20
-16.5
 30
0.0
 40
34.0
100
AcDbArc
 50
292.9195421516
 51
299.4549343308
  0
LINE
  5
4837
330
4825
100
AcDbEntity
  8
0
100
AcDbLine
 10
-180.3703
 20
49.0
 30
0.0
 11
-84.3703
 21
49.0
 31
0.0
  0
ARC
  5
4838
330
4825
100
AcDbEntity
  8
0
100
AcDbCircle
 10
-158.2696242935
 20
34.0
 30
0.0
 40
15.0
100
AcDbArc
 50
90.0
 51
112.9195421516
  0
ARC
  5
4839
330
4825
100
AcDbEntity
  8
0
100
AcDbCircle
 10
-180.3703
 20
40.0
 30
0.0
 40
9.0
100
AcDbArc
 50
49.052811545
 51
180.0
  0
ARC
  5
483A
330
4825
100
AcDbEntity
  8
0
100
AcDbCircle
 10
-170.5398533815
 20
51.329709585
 30
0.0
 40
6.0
100
AcDbArc
 50
229.052811545
 51
299.4549343308
  0
ARC
  5
483B
330
4825
100
AcDbEntity
  8
0
100
AcDbCircle
 10
-150.8703
 20
16.5
 30
0.0
 40
34.0
100
AcDbArc
 50
112.9195421516
 51
119.4549343308
  0
ARC
  5
483C
330
4825
100
AcDbEntity
  8
0
100
AcDbCircle
 10
-84.3703
 20
40.0
 30
0.0
 40
9.0
100
AcDbArc
 50
0.0
 51
130.947188455
  0
ARC
  5
483D
330
4825
100
AcDbEntity
  8
0
100
AcDbCircle
 10
-106.4709757065
 20
34.0
 30
0.0
 40
15.0
100
AcDbArc
 50
67.0804578484
 51
90.0
  0
ARC
  5
483E
330
4825
100
AcDbEntity
  8
0
100
AcDbCircle
 10
-113.8703
 20
16.5
 30
0.0
 40
34.0
100
AcDbArc
 50
60.5450656692
 51
67.0804578484
  0
ARC
  5
483F
330
4825
100
AcDbEntity
  8
0
100
AcDbCircle
 10
-94.2007466185
 20
51.329709585
 30
0.0
 40
6.0
100
AcDbArc
 50
240.5450656692
 51
310.947188455
  0
LINE
  5
4840
330
4825
100
AcDbEntity
  8
0
100
AcDbLine
 10
-75.3703
 20
-40.0
 30
0.0
 11
-75.3703
 21
-21.8284421707
 31
0.0
  0
LINE
  5
4841
330
4825
100
AcDbEntity
  8
0
100
AcDbLine
 10
-73.8893356544
 20
-45.0
 30
0.0
 11
0.0
 21
-45.0
 31
0.0
  0
LINE
  5
4842
330
4825
100
AcDbEntity
  8
0
100
AcDbLine
 10
-184.8701844159
 20
15.6715578293
 30
0.0
 11
-184.8701844159
 21
-15.6715578293
 31
0.0
  0
ARC
  5
4843
330
4825
100
AcDbEntity
  8
0
100
AcDbCircle
 10
-186.8701844159
 20
-15.6715578293
 30
0.0
 40
2.0
100
AcDbArc
 50
314.9992641783
 51
0.0
  0
LINE
  5
4844
330
4825
100
AcDbEntity
  8
0
100
AcDbLine
 10
-188.7844954002
 20
-20.4142104464
 30
0.0
 11
-185.4559890157
 21
-17.0857895536
 31
0.0
  0
ARC
  5
4845
330
4825
100
AcDbEntity
  8
0
100
AcDbCircle
 10
-187.3703
 20
-21.8284421707
 30
0.0
 40
2.0
100
AcDbArc
 50
134.9992641783
 51
180.0
  0
ARC
  5
4846
330
4825
100
AcDbEntity
  8
0
100
AcDbCircle
 10
-186.8701844159
 20
15.6715578293
 30
0.0
 40
2.0
100
AcDbArc
 50
0.0
 51
45.0007358217
  0
LINE
  5
4847
330
4825
100
AcDbEntity
  8
0
100
AcDbLine
 10
-188.7844954002
 20
20.4142104464
 30
0.0
 11
-185.4559890157
 21
17.0857895536
 31
0.0
  0
ARC
  5
4848
330
4825
100
AcDbEntity
  8
0
100
AcDbCircle
 10
-187.3703
 20
21.8284421707
 30
0.0
 40
2.0
100
AcDbArc
 50
180.0
 51
225.0007358217
  0
LINE
  5
4849
330
4825
100
AcDbEntity
  8
0
100
AcDbLine
 10
-79.8704155841
 20
15.6715578293
 30
0.0
 11
-79.8704155841
 21
-15.6715578293
 31
0.0
  0
ARC
  5
484A
330
4825
100
AcDbEntity
  8
0
100
AcDbCircle
 10
-77.8704155841
 20
-15.6715578293
 30
0.0
 40
2.0
100
AcDbArc
 50
180.0
 51
225.0007358217
  0
LINE
  5
484B
330
4825
100
AcDbEntity
  8
0
100
AcDbLine
 10
-75.9561045998
 20
-20.4142104464
 30
0.0
 11
-79.2846109843
 21
-17.0857895536
 31
0.0
  0
ARC
  5
484C
330
4825
100
AcDbEntity
  8
0
100
AcDbCircle
 10
-77.3703
 20
-21.8284421707
 30
0.0
 40
2.0
100
AcDbArc
 50
0.0
 51
45.0007358217
  0
ARC
  5
484D
330
4825
100
AcDbEntity
  8
0
100
AcDbCircle
 10
-77.8704155841
 20
15.6715578293
 30
0.0
 40
2.0
100
AcDbArc
 50
134.9992641783
 51
180.0
  0
LINE
  5
484E
330
4825
100
AcDbEntity
  8
0
100
AcDbLine
 10
-75.9561045998
 20
20.4142104464
 30
0.0
 11
-79.2846109843
 21
17.0857895536
 31
0.0
  0
ARC
  5
484F
330
4825
100
AcDbEntity
  8
0
100
AcDbCircle
 10
-77.3703
 20
21.8284421707
 30
0.0
 40
2.0
100
AcDbArc
 50
314.9992641783
 51
0.0
  0
ARC
  5
4850
330
4825
100
AcDbEntity
  8
0
100
AcDbCircle
 10
-84.3703
 20
-40.0
 30
0.0
 40
9.0
100
AcDbArc
 50
229.052811545
 51
0.0
  0
LINE
  5
4851
330
4825
100
AcDbEntity
  8
0
100
AcDbLine
 10
-74.7986756879
 20
45.2186800671
 30
0.0
 11
-80.2782698491
 21
48.0159396981
 31
0.0
  0
ARC
  5
4852
330
4825
100
AcDbEntity
  8
0
100
AcDbCircle
 10
-73.8893356544
 20
-47.0
 30
0.0
 40
2.0
100
AcDbArc
 50
90.0
 51
117.0437045388
  0
LINE
  5
4853
330
4825
100
AcDbEntity
  8
0
100
AcDbLine
 10
-74.7986756879
 20
-45.2186800671
 30
0.0
 11
-80.2782698491
 21
-48.0159396981
 31
0.0
  0
CIRCLE
  5
4854
330
4825
100
AcDbEntity
  8
0
  6
Continuous
100
AcDbCircle
 10
-144.8703
 20
0.0
 30
0.0
 40
25.548
  0
CIRCLE
  5
4855
330
4825
100
AcDbEntity
  8
0
  6
Continuous
100
AcDbCircle
 10
-144.8703
 20
0.0
 30
0.0
 40
23.0
  0
CIRCLE
  5
4856
330
4825
100
AcDbEntity
  8
0
  6
Continuous
100
AcDbCircle
 10
-144.8703
 20
0.0
 30
0.0
 40
17.5
  0
CIRCLE
  5
4857
330
4825
100
AcDbEntity
  8
0
  6
Continuous
100
AcDbCircle
 10
-144.8703
 20
0.0
 30
0.0
 40
19.5
  0
CIRCLE
  5
4858
330
4825
100
AcDbEntity
  8
0
100
AcDbCircle
 10
-84.3703
 20
39.0
 30
0.0
 40
4.2
  0
CIRCLE
  5
4859
330
4825
100
AcDbEntity
  8
0
100
AcDbCircle
 10
-180.3703
 20
39.0
 30
0.0
 40
4.2
  0
CIRCLE
  5
485A
330
4825
100
AcDbEntity
  8
0
100
AcDbCircle
 10
-84.3703
 20
-39.0
 30
0.0
 40
4.2
  0
CIRCLE
  5
485B
330
4825
100
AcDbEntity
  8
0
100
AcDbCircle
 10
-180.3703
 20
-39.0
 30
0.0
 40
4.2
  0
CIRCLE
  5
485C
330
4825
100
AcDbEntity
  8
HOJO
100
AcDbCircle
 10
-84.3703
 20
39.0
 30
0.0
 40
5.0
  0
CIRCLE
  5
485D
330
4825
100
AcDbEntity
  8
HOJO
100
AcDbCircle
 10
-180.3703
 20
39.0
 30
0.0
 40
5.0
  0
CIRCLE
  5
485E
330
4825
100
AcDbEntity
  8
HOJO
100
AcDbCircle
 10
-180.3703
 20
-39.0
 30
0.0
 40
5.0
  0
CIRCLE
  5
485F
330
4825
100
AcDbEntity
  8
HOJO
100
AcDbCircle
 10
-84.3703
 20
-39.0
 30
0.0
 40
5.0
  0
LINE
  5
4860
330
4825
100
AcDbEntity
  8
CENTER
100
AcDbLine
 10
-172.391662
 20
39.0
 30
0.0
 11
-188.348938
 21
39.0
 31
0.0
  0
LINE
  5
4861
330
4825
100
AcDbEntity
  8
CENTER
100
AcDbLine
 10
-180.3703
 20
46.978638
 30
0.0
 11
-180.3703
 21
31.021362
 31
0.0
  0
LINE
  5
4862
330
4825
100
AcDbEntity
  8
CENTER
100
AcDbLine
 10
-76.391662
 20
39.0
 30
0.0
 11
-92.348938
 21
39.0
 31
0.0
  0
LINE
  5
4863
330
4825
100
AcDbEntity
  8
CENTER
100
AcDbLine
 10
-84.3703
 20
46.978638
 30
0.0
 11
-84.3703
 21
31.021362
 31
0.0
  0
LINE
  5
4864
330
4825
100
AcDbEntity
  8
CENTER
100
AcDbLine
 10
-76.391662
 20
-39.0
 30
0.0
 11
-92.348938
 21
-39.0
 31
0.0
  0
LINE
  5
4865
330
4825
100
AcDbEntity
  8
CENTER
100
AcDbLine
 10
-84.3703
 20
-31.021362
 30
0.0
 11
-84.3703
 21
-46.978638
 31
0.0
  0
LINE
  5
4866
330
4825
100
AcDbEntity
  8
CENTER
100
AcDbLine
 10
-172.391662
 20
-39.0
 30
0.0
 11
-188.348938
 21
-39.0
 31
0.0
  0
LINE
  5
4867
330
4825
100
AcDbEntity
  8
CENTER
100
AcDbLine
 10
-180.3703
 20
-31.021362
 30
0.0
 11
-180.3703
 21
-46.978638
 31
0.0
  0
LINE
  5
4868
330
4825
100
AcDbEntity
  8
CENTER
100
AcDbLine
 10
-144.8703
 20
33.6821635
 30
0.0
 11
-144.8703
 21
-33.6821635
 31
0.0
  0
LINE
  5
4869
330
4825
100
AcDbEntity
  8
CENTER
100
AcDbLine
 10
-146.8674436841
 20
0.0
 30
0.0
 11
-142.8731563159
 21
0.0
 31
0.0
  0
LINE
  5
486A
330
4825
100
AcDbEntity
  8
0
100
AcDbLine
 10
-150.3703
 20
3.0
 30
0.0
 11
-150.3703
 21
-3.0
 31
0.0
  0
LINE
  5
486B
330
4825
100
AcDbEntity
  8
0
100
AcDbLine
 10
-156.3703
 20
3.0
 30
0.0
 11
-156.3703
 21
-3.0
 31
0.0
  0
ARC
  5
486C
330
4825
100
AcDbEntity
  8
0
100
AcDbCircle
 10
-144.8703
 20
0.0
 30
0.0
 40
9.0
100
AcDbArc
 50
199.471222
 51
160.528778
  0
ARC
  5
486D
330
4825
100
AcDbEntity
  8
0
100
AcDbCircle
 10
-144.8703
 20
0.0
 30
0.0
 40
10.0
100
AcDbArc
 50
197.457596
 51
162.542404
  0
LINE
  5
486E
330
4825
100
AcDbEntity
  8
0
100
AcDbLine
 10
-150.3703
 20
-3.0
 30
0.0
 11
-156.3703
 21
-3.0
 31
0.0
  0
LINE
  5
486F
330
4825
100
AcDbEntity
  8
0
100
AcDbLine
 10
-150.3703
 20
3.0
 30
0.0
 11
-156.3703
 21
3.0
 31
0.0
  0
LINE
  5
4870
330
4825
100
AcDbEntity
  8
0
100
AcDbLine
 10
-179.8703
 20
-18.0
 30
0.0
 11
-179.8703
 21
18.320496
 31
0.0
  0
LINE
  5
4871
330
4825
100
AcDbEntity
  8
0
100
AcDbLine
 10
-84.8703
 20
-18.0
 30
0.0
 11
-84.8703
 21
18.320496
 31
0.0
  0
ARC
  5
4872
330
4825
100
AcDbEntity
  8
0
100
AcDbCircle
 10
-87.220825
 20
-22.0
 30
0.0
 40
2.0
100
AcDbArc
 50
270.0
 51
349.98459
  0
ARC
  5
4873
330
4825
100
AcDbEntity
  8
0
100
AcDbCircle
 10
-86.957397
 20
-20.0
 30
0.0
 40
2.0
100
AcDbArc
 50
270.0
 51
355.011458
  0
LINE
  5
4874
330
4825
100
AcDbEntity
  8
0
100
AcDbLine
 10
-109.8703
 20
-43.0
 30
0.0
 11
-154.8703
 21
-43.0
 31
0.0
  0
ARC
  5
4875
330
4825
100
AcDbEntity
  8
0
100
AcDbCircle
 10
-161.3703
 20
-40.062408
 30
0.0
 40
2.0
100
AcDbArc
 50
180.0
 51
253.584045
  0
ARC
  5
4876
330
4825
100
AcDbEntity
  8
0
100
AcDbCircle
 10
-163.3703
 20
-39.371704
 30
0.0
 40
2.0
100
AcDbArc
 50
180.0
 51
248.311188
  0
ARC
  5
4877
330
4825
100
AcDbEntity
  8
0
100
AcDbCircle
 10
-154.8703
 20
-18.0
 30
0.0
 40
25.0
100
AcDbArc
 50
248.311188
 51
270.0
  0
ARC
  5
4878
330
4825
100
AcDbEntity
  8
0
100
AcDbCircle
 10
-154.8703
 20
-18.0
 30
0.0
 40
25.0
100
AcDbArc
 50
180.0
 51
190.015411
  0
LINE
  5
4879
330
4825
100
AcDbEntity
  8
0
100
AcDbLine
 10
-165.478576
 20
-37.53714
 30
0.0
 11
-163.478576
 21
-36.850922
 31
0.0
  0
LINE
  5
487A
330
4825
100
AcDbEntity
  8
0
100
AcDbLine
 10
-174.291626
 20
-22.772125
 30
0.0
 11
-163.791626
 21
-36.272125
 31
0.0
  0
LINE
  5
487B
330
4825
100
AcDbEntity
  8
0
100
AcDbLine
 10
-175.269775
 20
-24.772125
 30
0.0
 11
-165.791626
 21
-36.958328
 31
0.0
  0
ARC
  5
487C
330
4825
100
AcDbEntity
  8
0
100
AcDbCircle
 10
-167.3703
 20
-38.186218
 30
0.0
 40
2.0
100
AcDbArc
 50
0.0
 51
37.874985
  0
LINE
  5
487D
330
4825
100
AcDbEntity
  8
0
100
AcDbLine
 10
-165.3703
 20
-38.186218
 30
0.0
 11
-165.3703
 21
-39.371704
 31
0.0
  0
ARC
  5
487E
330
4825
100
AcDbEntity
  8
0
100
AcDbCircle
 10
-175.8703
 20
-24.0
 30
0.0
 40
2.0
100
AcDbArc
 50
37.874985
 51
90.0
  0
LINE
  5
487F
330
4825
100
AcDbEntity
  8
0
100
AcDbLine
 10
-175.969787
 20
-24.203369
 30
0.0
 11
-174.991577
 21
-22.203369
 31
0.0
  0
ARC
  5
4880
330
4825
100
AcDbEntity
  8
0
100
AcDbCircle
 10
-176.848449
 20
-26.0
 30
0.0
 40
2.0
100
AcDbArc
 50
37.874985
 51
90.0
  0
ARC
  5
4881
330
4825
100
AcDbEntity
  8
0
100
AcDbCircle
 10
-177.519775
 20
-22.0
 30
0.0
 40
2.0
100
AcDbArc
 50
190.015411
 51
270.0
  0
ARC
  5
4882
330
4825
100
AcDbEntity
  8
0
100
AcDbCircle
 10
-177.783203
 20
-20.0
 30
0.0
 40
2.0
100
AcDbArc
 50
184.988541
 51
270.0
  0
LINE
  5
4883
330
4825
100
AcDbEntity
  8
0
100
AcDbLine
 10
-175.8703
 20
-22.0
 30
0.0
 11
-177.783203
 21
-22.0
 31
0.0
  0
LINE
  5
4884
330
4825
100
AcDbEntity
  8
0
100
AcDbLine
 10
-177.519775
 20
-24.0
 30
0.0
 11
-176.848449
 21
-24.0
 31
0.0
  0
ARC
  5
4885
330
4825
100
AcDbEntity
  8
0
100
AcDbCircle
 10
-165.3703
 20
-37.5
 30
0.0
 40
2.0
100
AcDbArc
 50
0.0
 51
37.874985
  0
LINE
  5
4886
330
4825
100
AcDbEntity
  8
0
100
AcDbLine
 10
-163.3703
 20
-37.5
 30
0.0
 11
-163.3703
 21
-40.062408
 31
0.0
  0
ARC
  5
4887
330
4825
100
AcDbEntity
  8
0
100
AcDbCircle
 10
-103.3703
 20
-40.062408
 30
0.0
 40
2.0
100
AcDbArc
 50
286.415962
 51
0.0
  0
ARC
  5
4888
330
4825
100
AcDbEntity
  8
0
100
AcDbCircle
 10
-101.3703
 20
-39.371704
 30
0.0
 40
2.0
100
AcDbArc
 50
291.688805
 51
0.0
  0
ARC
  5
4889
330
4825
100
AcDbEntity
  8
0
100
AcDbCircle
 10
-109.8703
 20
-18.0
 30
0.0
 40
25.0
100
AcDbArc
 50
270.0
 51
291.688812
  0
ARC
  5
488A
330
4825
100
AcDbEntity
  8
0
100
AcDbCircle
 10
-99.3703
 20
-37.5
 30
0.0
 40
2.0
100
AcDbArc
 50
142.125015
 51
180.0
  0
LINE
  5
488B
330
4825
100
AcDbEntity
  8
0
100
AcDbLine
 10
-99.262024
 20
-37.53714
 30
0.0
 11
-101.262024
 21
-36.850922
 31
0.0
  0
LINE
  5
488C
330
4825
100
AcDbEntity
  8
0
100
AcDbLine
 10
-101.3703
 20
-37.5
 30
0.0
 11
-101.3703
 21
-40.062408
 31
0.0
  0
LINE
  5
488D
330
4825
100
AcDbEntity
  8
0
100
AcDbLine
 10
-90.448974
 20
-22.772125
 30
0.0
 11
-100.948974
 21
-36.272125
 31
0.0
  0
LINE
  5
488E
330
4825
100
AcDbEntity
  8
0
100
AcDbLine
 10
-89.470825
 20
-24.772125
 30
0.0
 11
-98.948974
 21
-36.958328
 31
0.0
  0
ARC
  5
488F
330
4825
100
AcDbEntity
  8
0
100
AcDbCircle
 10
-97.3703
 20
-38.186218
 30
0.0
 40
2.0
100
AcDbArc
 50
142.125015
 51
180.0
  0
LINE
  5
4890
330
4825
100
AcDbEntity
  8
0
100
AcDbLine
 10
-99.3703
 20
-38.186218
 30
0.0
 11
-99.3703
 21
-39.371704
 31
0.0
  0
ARC
  5
4891
330
4825
100
AcDbEntity
  8
0
100
AcDbCircle
 10
-88.8703
 20
-24.0
 30
0.0
 40
2.0
100
AcDbArc
 50
90.0
 51
142.125015
  0
LINE
  5
4892
330
4825
100
AcDbEntity
  8
0
100
AcDbLine
 10
-88.770813
 20
-24.203369
 30
0.0
 11
-89.749023
 21
-22.203369
 31
0.0
  0
ARC
  5
4893
330
4825
100
AcDbEntity
  8
0
100
AcDbCircle
 10
-87.892151
 20
-26.0
 30
0.0
 40
2.0
100
AcDbArc
 50
90.0
 51
142.125015
  0
LINE
  5
4894
330
4825
100
AcDbEntity
  8
0
100
AcDbLine
 10
-88.8703
 20
-22.0
 30
0.0
 11
-86.957397
 21
-22.0
 31
0.0
  0
LINE
  5
4895
330
4825
100
AcDbEntity
  8
0
100
AcDbLine
 10
-87.220825
 20
-24.0
 30
0.0
 11
-87.892151
 21
-24.0
 31
0.0
  0
ARC
  5
4896
330
4825
100
AcDbEntity
  8
0
100
AcDbCircle
 10
-109.8703
 20
-18.0
 30
0.0
 40
25.0
100
AcDbArc
 50
349.98459
 51
0.0
  0
ARC
  5
4897
330
4825
100
AcDbEntity
  8
0
100
AcDbCircle
 10
-87.220825
 20
22.0
 30
0.0
 40
2.0
100
AcDbArc
 50
10.01541
 51
90.0
  0
ARC
  5
4898
330
4825
100
AcDbEntity
  8
0
100
AcDbCircle
 10
-86.957397
 20
20.0
 30
0.0
 40
2.0
100
AcDbArc
 50
4.988542
 51
90.0
  0
LINE
  5
4899
330
4825
100
AcDbEntity
  8
0
100
AcDbLine
 10
-154.8703
 20
43.0
 30
0.0
 11
-109.8703
 21
43.0
 31
0.0
  0
ARC
  5
489A
330
4825
100
AcDbEntity
  8
0
100
AcDbCircle
 10
-176.848449
 20
26.0
 30
0.0
 40
2.0
100
AcDbArc
 50
270.0
 51
322.125031
  0
LINE
  5
489B
330
4825
100
AcDbEntity
  8
0
100
AcDbLine
 10
-174.291626
 20
22.772125
 30
0.0
 11
-163.791626
 21
36.272125
 31
0.0
  0
ARC
  5
489C
330
4825
100
AcDbEntity
  8
0
100
AcDbCircle
 10
-175.8703
 20
24.0
 30
0.0
 40
2.0
100
AcDbArc
 50
270.0
 51
322.125031
  0
LINE
  5
489D
330
4825
100
AcDbEntity
  8
0
100
AcDbLine
 10
-175.969787
 20
24.203369
 30
0.0
 11
-174.991577
 21
22.203369
 31
0.0
  0
ARC
  5
489E
330
4825
100
AcDbEntity
  8
0
100
AcDbCircle
 10
-177.519775
 20
22.0
 30
0.0
 40
2.0
100
AcDbArc
 50
90.0
 51
169.984589
  0
ARC
  5
489F
330
4825
100
AcDbEntity
  8
0
100
AcDbCircle
 10
-177.783203
 20
20.0
 30
0.0
 40
2.0
100
AcDbArc
 50
90.0
 51
175.011459
  0
LINE
  5
48A0
330
4825
100
AcDbEntity
  8
0
100
AcDbLine
 10
-175.8703
 20
22.0
 30
0.0
 11
-177.783203
 21
22.0
 31
0.0
  0
LINE
  5
48A1
330
4825
100
AcDbEntity
  8
0
100
AcDbLine
 10
-177.519775
 20
24.0
 30
0.0
 11
-176.848449
 21
24.0
 31
0.0
  0
ARC
  5
48A2
330
4825
100
AcDbEntity
  8
0
100
AcDbCircle
 10
-154.8703
 20
18.0
 30
0.0
 40
25.0
100
AcDbArc
 50
169.984589
 51
180.0
  0
ARC
  5
48A3
330
4825
100
AcDbEntity
  8
0
100
AcDbCircle
 10
-163.3703
 20
39.371704
 30
0.0
 40
2.0
100
AcDbArc
 50
111.688805
 51
180.0
  0
LINE
  5
48A4
330
4825
100
AcDbEntity
  8
0
100
AcDbLine
 10
-165.478576
 20
37.53714
 30
0.0
 11
-163.478576
 21
36.850922
 31
0.0
  0
LINE
  5
48A5
330
4825
100
AcDbEntity
  8
0
100
AcDbLine
 10
-175.269775
 20
24.772125
 30
0.0
 11
-165.791626
 21
36.958344
 31
0.0
  0
ARC
  5
48A6
330
4825
100
AcDbEntity
  8
0
100
AcDbCircle
 10
-167.3703
 20
38.186218
 30
0.0
 40
2.0
100
AcDbArc
 50
322.125015
 51
0.0
  0
LINE
  5
48A7
330
4825
100
AcDbEntity
  8
0
100
AcDbLine
 10
-165.3703
 20
38.186218
 30
0.0
 11
-165.3703
 21
39.371704
 31
0.0
  0
ARC
  5
48A8
330
4825
100
AcDbEntity
  8
0
100
AcDbCircle
 10
-154.8703
 20
18.0
 30
0.0
 40
25.0
100
AcDbArc
 50
90.0
 51
111.688805
  0
ARC
  5
48A9
330
4825
100
AcDbEntity
  8
0
100
AcDbCircle
 10
-165.3703
 20
37.5
 30
0.0
 40
2.0
100
AcDbArc
 50
322.125015
 51
0.0
  0
ARC
  5
48AA
330
4825
100
AcDbEntity
  8
0
100
AcDbCircle
 10
-161.3703
 20
40.062408
 30
0.0
 40
2.0
100
AcDbArc
 50
106.415962
 51
180.0
  0
LINE
  5
48AB
330
4825
100
AcDbEntity
  8
0
100
AcDbLine
 10
-163.3703
 20
37.5
 30
0.0
 11
-163.3703
 21
40.062408
 31
0.0
  0
ARC
  5
48AC
330
4825
100
AcDbEntity
  8
0
100
AcDbCircle
 10
-87.892151
 20
26.0
 30
0.0
 40
2.0
100
AcDbArc
 50
217.874985
 51
270.0
  0
LINE
  5
48AD
330
4825
100
AcDbEntity
  8
0
100
AcDbLine
 10
-90.448974
 20
22.772125
 30
0.0
 11
-100.948974
 21
36.272125
 31
0.0
  0
ARC
  5
48AE
330
4825
100
AcDbEntity
  8
0
100
AcDbCircle
 10
-88.8703
 20
24.0
 30
0.0
 40
2.0
100
AcDbArc
 50
217.874985
 51
270.0
  0
LINE
  5
48AF
330
4825
100
AcDbEntity
  8
0
100
AcDbLine
 10
-88.770813
 20
24.203369
 30
0.0
 11
-89.749023
 21
22.203369
 31
0.0
  0
LINE
  5
48B0
330
4825
100
AcDbEntity
  8
0
100
AcDbLine
 10
-88.8703
 20
22.0
 30
0.0
 11
-86.957397
 21
22.0
 31
0.0
  0
LINE
  5
48B1
330
4825
100
AcDbEntity
  8
0
100
AcDbLine
 10
-87.220825
 20
24.0
 30
0.0
 11
-87.892151
 21
24.0
 31
0.0
  0
ARC
  5
48B2
330
4825
100
AcDbEntity
  8
0
100
AcDbCircle
 10
-99.3703
 20
37.5
 30
0.0
 40
2.0
100
AcDbArc
 50
180.0
 51
217.874985
  0
ARC
  5
48B3
330
4825
100
AcDbEntity
  8
0
100
AcDbCircle
 10
-103.3703
 20
40.062408
 30
0.0
 40
2.0
100
AcDbArc
 50
0.0
 51
73.584038
  0
LINE
  5
48B4
330
4825
100
AcDbEntity
  8
0
100
AcDbLine
 10
-99.262024
 20
37.53714
 30
0.0
 11
-101.262024
 21
36.850922
 31
0.0
  0
ARC
  5
48B5
330
4825
100
AcDbEntity
  8
0
100
AcDbCircle
 10
-109.8703
 20
18.0
 30
0.0
 40
25.0
100
AcDbArc
 50
68.311195
 51
90.0
  0
LINE
  5
48B6
330
4825
100
AcDbEntity
  8
0
100
AcDbLine
 10
-101.3703
 20
37.5
 30
0.0
 11
-101.3703
 21
40.062408
 31
0.0
  0
LINE
  5
48B7
330
4825
100
AcDbEntity
  8
0
100
AcDbLine
 10
-89.470825
 20
24.772125
 30
0.0
 11
-98.948974
 21
36.958344
 31
0.0
  0
ARC
  5
48B8
330
4825
100
AcDbEntity
  8
0
100
AcDbCircle
 10
-101.3703
 20
39.371704
 30
0.0
 40
2.0
100
AcDbArc
 50
0.0
 51
68.311195
  0
ARC
  5
48B9
330
4825
100
AcDbEntity
  8
0
100
AcDbCircle
 10
-97.3703
 20
38.186218
 30
0.0
 40
2.0
100
AcDbArc
 50
180.0
 51
217.874985
  0
LINE
  5
48BA
330
4825
100
AcDbEntity
  8
0
100
AcDbLine
 10
-99.3703
 20
38.186218
 30
0.0
 11
-99.3703
 21
39.371704
 31
0.0
  0
ARC
  5
48BB
330
4825
100
AcDbEntity
  8
0
100
AcDbCircle
 10
-109.8703
 20
18.0
 30
0.0
 40
25.0
100
AcDbArc
 50
0.0
 51
10.01541
  0
LINE
  5
48BC
330
4825
100
AcDbEntity
  8
0
100
AcDbLine
 10
0.0
 20
45.0
 30
0.0
 11
0.0
 21
-45.0
 31
0.0
  0
ENDBLK
  5
48BD
330
4825
100
AcDbEntity
  8
0
100
AcDbBlockEnd
  0
BLOCK
  5
48CF
330
48CC
100
AcDbEntity
  8
0
100
AcDbBlockBegin
  2
A$Cd9f2b5d0
 70
     0
 10
0.0
 20
0.0
 30
0.0
  3
A$Cd9f2b5d0
  1

  0
LINE
  5
48D0
330
48CC
100
AcDbEntity
  8
0
  6
Continuous
100
AcDbLine
 10
48.0
 20
-48.1621568834
 30
0.0
 11
48.0
 21
48.1621568834
 31
0.0
  0
LINE
  5
48D1
330
48CC
100
AcDbEntity
  8
0
  6
Continuous
100
AcDbLine
 10
-35.0
 20
-48.3890727275
 30
0.0
 11
-35.0
 21
48.3890727275
 31
0.0
  0
LINE
  5
48D2
330
48CC
100
AcDbEntity
  8
0
100
AcDbLine
 10
-48.0
 20
48.1621568834
 30
0.0
 11
0.0
 21
49.0
 31
0.0
  0
LINE
  5
48D3
330
48CC
100
AcDbEntity
  8
0
100
AcDbLine
 10
-48.0
 20
-48.1621568834
 30
0.0
 11
0.0
 21
-49.0
 31
0.0
  0
LINE
  5
48D4
330
48CC
100
AcDbEntity
  8
0
100
AcDbLine
 10
48.0
 20
-48.1621568834
 30
0.0
 11
0.0
 21
-49.0
 31
0.0
  0
LINE
  5
48D5
330
48CC
100
AcDbEntity
  8
0
100
AcDbLine
 10
48.0
 20
48.1621568834
 30
0.0
 11
0.0
 21
49.0
 31
0.0
  0
LINE
  5
48D6
330
48CC
100
AcDbEntity
  8
0
  6
Continuous
100
AcDbLine
 10
5.0
 20
18.283996
 30
0.0
 11
5.0
 21
-18.284058
 31
0.0
  0
LINE
  5
48D7
330
48CC
100
AcDbEntity
  8
0
  6
Continuous
100
AcDbLine
 10
-5.0
 20
-18.510987
 30
0.0
 11
-5.0
 21
18.510925
 31
0.0
  0
LINE
  5
48D8
330
48CC
100
AcDbEntity
  8
0
  6
Continuous
100
AcDbLine
 10
6.965088
 20
20.283691
 30
0.0
 11
48.0
 21
21.0
 31
0.0
  0
LINE
  5
48D9
330
48CC
100
AcDbEntity
  8
0
  6
Continuous
100
AcDbLine
 10
9.720978
 20
15.831787
 30
0.0
 11
48.0
 21
16.5
 31
0.0
  0
LINE
  5
48DA
330
48CC
100
AcDbEntity
  8
0
  6
Continuous
100
AcDbLine
 10
-6.965088
 20
20.51062
 30
0.0
 11
-48.0
 21
21.2269291946
 31
0.0
  0
LINE
  5
48DB
330
48CC
100
AcDbEntity
  8
0
  6
Continuous
100
AcDbLine
 10
-9.721008
 20
16.058716
 30
0.0
 11
-48.0
 21
16.7269351563
 31
0.0
  0
LINE
  5
48DC
330
48CC
100
AcDbEntity
  8
0
  6
Continuous
100
AcDbLine
 10
-6.965088
 20
-20.510681
 30
0.0
 11
-48.0
 21
-21.2269009084
 31
0.0
  0
LINE
  5
48DD
330
48CC
100
AcDbEntity
  8
0
  6
Continuous
100
AcDbLine
 10
-9.721008
 20
-16.058777
 30
0.0
 11
-48.0
 21
-16.7269037864
 31
0.0
  0
LINE
  5
48DE
330
48CC
100
AcDbEntity
  8
0
  6
Continuous
100
AcDbLine
 10
6.965088
 20
-20.283753
 30
0.0
 11
48.0
 21
-21.0
 31
0.0
  0
LINE
  5
48DF
330
48CC
100
AcDbEntity
  8
0
  6
Continuous
100
AcDbLine
 10
9.720978
 20
-15.831848
 30
0.0
 11
48.0
 21
-16.5
 31
0.0
  0
LINE
  5
48E0
330
48CC
100
AcDbEntity
  8
0
  6
Continuous
100
AcDbLine
 10
7.75589
 20
-13.832154
 30
0.0
 11
7.75589
 21
13.832092
 31
0.0
  0
LINE
  5
48E1
330
48CC
100
AcDbEntity
  8
0
  6
Continuous
100
AcDbLine
 10
-7.75589
 20
14.059021
 30
0.0
 11
-7.75589
 21
-14.059082
 31
0.0
  0
LINE
  5
48E2
330
48CC
100
AcDbEntity
  8
0
  6
Continuous
100
AcDbLine
 10
-5.44107
 20
19.763794
 30
0.0
 11
-8.19696
 21
15.311951
 31
0.0
  0
LINE
  5
48E3
330
48CC
100
AcDbEntity
  8
0
  6
Continuous
100
AcDbLine
 10
-8.19696
 20
-15.311951
 30
0.0
 11
-5.44107
 21
-19.763855
 31
0.0
  0
LINE
  5
48E4
330
48CC
100
AcDbEntity
  8
0
  6
Continuous
100
AcDbLine
 10
8.196961
 20
-15.085083
 30
0.0
 11
5.441071
 21
-19.536926
 31
0.0
  0
LINE
  5
48E5
330
48CC
100
AcDbEntity
  8
0
  6
Continuous
100
AcDbLine
 10
8.196961
 20
15.085022
 30
0.0
 11
5.441071
 21
19.536926
 31
0.0
  0
ARC
  5
48E6
330
48CC
100
AcDbEntity
  8
0
  6
Continuous
100
AcDbCircle
 10
-7.0
 20
18.510925
 30
0.0
 40
2.0
100
AcDbArc
 50
0.0
 51
89.0
  0
ARC
  5
48E7
330
48CC
100
AcDbEntity
  8
0
  6
Continuous
100
AcDbCircle
 10
-7.0
 20
-18.510987
 30
0.0
 40
2.0
100
AcDbArc
 50
271.0
 51
0.0
  0
ARC
  5
48E8
330
48CC
100
AcDbEntity
  8
0
  6
Continuous
100
AcDbCircle
 10
7.0
 20
-18.284058
 30
0.0
 40
2.0
100
AcDbArc
 50
180.0
 51
269.0
  0
ARC
  5
48E9
330
48CC
100
AcDbEntity
  8
0
  6
Continuous
100
AcDbCircle
 10
7.0
 20
18.283996
 30
0.0
 40
2.0
100
AcDbArc
 50
91.0
 51
180.0
  0
ARC
  5
48EA
330
48CC
100
AcDbEntity
  8
0
  6
Continuous
100
AcDbCircle
 10
9.75589
 20
13.832092
 30
0.0
 40
2.0
100
AcDbArc
 50
91.0
 51
180.0
  0
ARC
  5
48EB
330
48CC
100
AcDbEntity
  8
0
  6
Continuous
100
AcDbCircle
 10
9.75589
 20
-13.832154
 30
0.0
 40
2.0
100
AcDbArc
 50
180.0
 51
268.999999
  0
ARC
  5
48EC
330
48CC
100
AcDbEntity
  8
0
  6
Continuous
100
AcDbCircle
 10
-9.75589
 20
-14.059082
 30
0.0
 40
2.0
100
AcDbArc
 50
271.0
 51
0.0
  0
ARC
  5
48ED
330
48CC
100
AcDbEntity
  8
0
  6
Continuous
100
AcDbCircle
 10
-9.75589
 20
14.059021
 30
0.0
 40
2.0
100
AcDbArc
 50
0.0
 51
89.0
  0
LINE
  5
48EE
330
48CC
100
AcDbEntity
  8
HIDS
100
AcDbLine
 10
-26.052368
 20
-44.545258
 30
0.0
 11
0.0
 21
-45.0
 31
0.0
  0
LINE
  5
48EF
330
48CC
100
AcDbEntity
  8
HIDS
100
AcDbLine
 10
-26.052368
 20
44.545258
 30
0.0
 11
0.0
 21
45.0
 31
0.0
  0
LINE
  5
48F0
330
48CC
100
AcDbEntity
  8
CENTER
100
AcDbLine
 10
-51.450775
 20
-39.0
 30
0.0
 11
53.6875
 21
-39.0
 31
0.0
  0
LINE
  5
48F1
330
48CC
100
AcDbEntity
  8
CENTER
100
AcDbLine
 10
-51.450775
 20
39.0
 30
0.0
 11
53.6875
 21
39.0
 31
0.0
  0
LINE
  5
48F2
330
48CC
100
AcDbEntity
  8
HOJO
100
AcDbLine
 10
-35.0
 20
-34.0
 30
0.0
 11
-10.0
 21
-34.0
 31
0.0
  0
LINE
  5
48F3
330
48CC
100
AcDbEntity
  8
HOJO
100
AcDbLine
 10
-35.0
 20
-44.0
 30
0.0
 11
-10.0
 21
-44.0
 31
0.0
  0
LINE
  5
48F4
330
48CC
100
AcDbEntity
  8
HIDS
100
AcDbLine
 10
-35.0
 20
44.0
 30
0.0
 11
-10.0
 21
44.0
 31
0.0
  0
LINE
  5
48F5
330
48CC
100
AcDbEntity
  8
HIDS
100
AcDbLine
 10
-35.0
 20
34.0
 30
0.0
 11
-10.0
 21
34.0
 31
0.0
  0
LINE
  5
48F6
330
48CC
100
AcDbEntity
  8
0
100
AcDbLine
 10
-42.000031
 20
32.299973
 30
0.0
 11
-41.9999799214
 21
24.700043
 31
0.0
  0
LINE
  5
48F7
330
48CC
100
AcDbEntity
  8
0
100
AcDbLine
 10
-41.0
 20
33.0
 30
0.0
 11
-41.0
 21
24.0
 31
0.0
  0
LINE
  5
48F8
330
48CC
100
AcDbEntity
  8
0
100
AcDbLine
 10
-46.000031
 20
32.0
 30
0.0
 11
-46.000031
 21
25.0
 31
0.0
  0
ARC
  5
48F9
330
48CC
100
AcDbEntity
  8
HIDS
100
AcDbCircle
 10
0.0
 20
0.0
 30
0.0
 40
45.0
100
AcDbArc
 50
132.843643
 51
227.156357
  0
LINE
  5
48FA
330
48CC
100
AcDbEntity
  8
0
100
AcDbLine
 10
-48.0
 20
-48.1621568834
 30
0.0
 11
-48.0
 21
48.1621568834
 31
0.0
  0
ARC
  5
48FB
330
48CC
100
AcDbEntity
  8
HIDS
100
AcDbCircle
 10
-34.0
 20
-36.660606
 30
0.0
 40
5.0
100
AcDbArc
 50
0.0
 51
47.156357
  0
LINE
  5
48FC
330
48CC
100
AcDbEntity
  8
0
100
AcDbLine
 10
-35.0
 20
-44.25
 30
0.0
 11
-48.0
 21
-44.25
 31
0.0
  0
ARC
  5
48FD
330
48CC
100
AcDbEntity
  8
HIDS
100
AcDbCircle
 10
-26.0
 20
-41.545708
 30
0.0
 40
3.0
100
AcDbArc
 50
180.0
 51
269.0
  0
LINE
  5
48FE
330
48CC
100
AcDbEntity
  8
HIDS
100
AcDbLine
 10
-29.0
 20
-41.545708
 30
0.0
 11
-29.0
 21
-36.660606
 31
0.0
  0
LINE
  5
48FF
330
48CC
100
AcDbEntity
  8
CENTER
100
AcDbLine
 10
-39.101624
 20
-28.5
 30
0.0
 11
-49.121002
 21
-28.5
 31
0.0
  0
LINE
  5
4900
330
48CC
100
AcDbEntity
  8
0
100
AcDbLine
 10
-35.0
 20
-33.75
 30
0.0
 11
-48.0
 21
-33.75
 31
0.0
  0
LINE
  5
4901
330
48CC
100
AcDbEntity
  8
0
100
AcDbLine
 10
-42.0000151088
 20
-29.9355380818
 30
0.0
 11
-41.9999799214
 21
-24.700043
 31
0.0
  0
LINE
  5
4902
330
48CC
100
AcDbEntity
  8
0
100
AcDbLine
 10
-41.0
 20
-29.7964629511
 30
0.0
 11
-41.0
 21
-24.0
 31
0.0
  0
LINE
  5
4903
330
48CC
100
AcDbEntity
  8
0
100
AcDbLine
 10
-46.000031
 20
-30.1579598673
 30
0.0
 11
-46.000031
 21
-25.0
 31
0.0
  0
ARC
  5
4904
330
48CC
100
AcDbEntity
  8
HIDS
100
AcDbCircle
 10
-26.0
 20
41.545715
 30
0.0
 40
3.0
100
AcDbArc
 50
91.0
 51
180.0
  0
LINE
  5
4905
330
48CC
100
AcDbEntity
  8
CENTER
100
AcDbLine
 10
-39.101624
 20
28.5
 30
0.0
 11
-49.121002
 21
28.5
 31
0.0
  0
LINE
  5
4906
330
48CC
100
AcDbEntity
  8
HIDS
  6
sekkei_H
100
AcDbLine
 10
-35.0
 20
33.75
 30
0.0
 11
-48.0
 21
33.75
 31
0.0
  0
LINE
  5
4907
330
48CC
100
AcDbEntity
  8
0
100
AcDbLine
 10
-42.000031
 20
32.299973
 30
0.0
 11
-41.0
 21
32.299973
 31
0.0
  0
LINE
  5
4908
330
48CC
100
AcDbEntity
  8
0
100
AcDbLine
 10
-46.000031
 20
32.0
 30
0.0
 11
-42.000031
 21
32.000015
 31
0.0
  0
LINE
  5
4909
330
48CC
100
AcDbEntity
  8
0
100
AcDbLine
 10
-41.0
 20
33.0
 30
0.0
 11
-48.0
 21
33.183304
 31
0.0
  0
ARC
  5
490A
330
48CC
100
AcDbEntity
  8
HIDS
100
AcDbCircle
 10
-34.0
 20
36.660599
 30
0.0
 40
5.0
100
AcDbArc
 50
312.843643
 51
0.0
  0
LINE
  5
490B
330
48CC
100
AcDbEntity
  8
HIDS
100
AcDbLine
 10
-29.0
 20
41.545715
 30
0.0
 11
-29.0
 21
36.660599
 31
0.0
  0
LINE
  5
490C
330
48CC
100
AcDbEntity
  8
HIDS
  6
sekkei_H
100
AcDbLine
 10
-35.0
 20
44.25
 30
0.0
 11
-48.0
 21
44.25
 31
0.0
  0
ARC
  5
490D
330
48CC
100
AcDbEntity
  8
HIDS
100
AcDbCircle
 10
0.0
 20
0.0
 30
0.0
 40
45.0
100
AcDbArc
 50
312.843643
 51
47.156357
  0
ARC
  5
490E
330
48CC
100
AcDbEntity
  8
HIDS
100
AcDbCircle
 10
34.0
 20
-36.660606
 30
0.0
 40
5.0
100
AcDbArc
 50
132.843643
 51
180.0
  0
LINE
  5
490F
330
48CC
100
AcDbEntity
  8
HOJO
100
AcDbLine
 10
10.0
 20
-34.0
 30
0.0
 11
10.0
 21
-44.0
 31
0.0
  0
LINE
  5
4910
330
48CC
100
AcDbEntity
  8
HOJO
100
AcDbLine
 10
-10.0
 20
-34.0
 30
0.0
 11
-10.0
 21
-44.0
 31
0.0
  0
LINE
  5
4911
330
48CC
100
AcDbEntity
  8
HOJO
100
AcDbLine
 10
48.0
 20
-44.0
 30
0.0
 11
10.0
 21
-44.0
 31
0.0
  0
LINE
  5
4912
330
48CC
100
AcDbEntity
  8
HIDS
100
AcDbLine
 10
26.052368
 20
-44.545258
 30
0.0
 11
0.0
 21
-45.0
 31
0.0
  0
ARC
  5
4913
330
48CC
100
AcDbEntity
  8
HIDS
100
AcDbCircle
 10
26.0
 20
-41.545708
 30
0.0
 40
3.0
100
AcDbArc
 50
271.0
 51
0.0
  0
LINE
  5
4914
330
48CC
100
AcDbEntity
  8
HIDS
100
AcDbLine
 10
29.0
 20
-41.545708
 30
0.0
 11
29.0
 21
-36.660606
 31
0.0
  0
LINE
  5
4915
330
48CC
100
AcDbEntity
  8
HOJO
100
AcDbLine
 10
48.0
 20
-34.0
 30
0.0
 11
10.0
 21
-34.0
 31
0.0
  0
LINE
  5
4916
330
48CC
100
AcDbEntity
  8
HIDS
100
AcDbLine
 10
48.0
 20
44.0
 30
0.0
 11
10.0
 21
44.0
 31
0.0
  0
LINE
  5
4917
330
48CC
100
AcDbEntity
  8
HIDS
100
AcDbLine
 10
48.0
 20
34.0
 30
0.0
 11
10.0
 21
34.0
 31
0.0
  0
LINE
  5
4918
330
48CC
100
AcDbEntity
  8
HIDS
100
AcDbLine
 10
26.052368
 20
44.545258
 30
0.0
 11
0.0
 21
45.0
 31
0.0
  0
LINE
  5
4919
330
48CC
100
AcDbEntity
  8
HIDS
100
AcDbLine
 10
-10.0
 20
34.0
 30
0.0
 11
-10.0
 21
44.0
 31
0.0
  0
ARC
  5
491A
330
48CC
100
AcDbEntity
  8
HIDS
100
AcDbCircle
 10
26.0
 20
41.545715
 30
0.0
 40
3.0
100
AcDbArc
 50
0.0
 51
89.0
  0
LINE
  5
491B
330
48CC
100
AcDbEntity
  8
HIDS
100
AcDbLine
 10
10.0
 20
34.0
 30
0.0
 11
10.0
 21
44.0
 31
0.0
  0
ARC
  5
491C
330
48CC
100
AcDbEntity
  8
HIDS
100
AcDbCircle
 10
34.0
 20
36.660599
 30
0.0
 40
5.0
100
AcDbArc
 50
180.0
 51
227.156357
  0
LINE
  5
491D
330
48CC
100
AcDbEntity
  8
HIDS
100
AcDbLine
 10
29.0
 20
41.545715
 30
0.0
 11
29.0
 21
36.660599
 31
0.0
  0
LINE
  5
491E
330
48CC
100
AcDbEntity
  8
0
100
AcDbLine
 10
-41.0
 20
24.0
 30
0.0
 11
-48.0
 21
23.816711
 31
0.0
  0
LINE
  5
491F
330
48CC
100
AcDbEntity
  8
0
100
AcDbLine
 10
-46.000031
 20
25.0
 30
0.0
 11
-42.000031
 21
25.0
 31
0.0
  0
LINE
  5
4920
330
48CC
100
AcDbEntity
  8
0
100
AcDbLine
 10
-42.000031
 20
24.700043
 30
0.0
 11
-41.0
 21
24.700043
 31
0.0
  0
LWPOLYLINE
  5
4921
330
48CC
100
AcDbEntity
  8
HOJO
100
AcDbPolyline
 90
       19
 70
     0
 43
0.0
 10
-48.0
 20
-30.0474634747
 10
-44.281891
 20
-30.2528854747
 10
-40.200165
 20
-29.6852274747
 10
-35.767029
 20
-30.0906924747
 10
-31.279846
 20
-29.4419414747
 10
-26.68454
 20
-30.0095994747
 10
-20.92688
 20
-29.2256944747
 10
-14.871887
 20
-30.1988234747
 10
-9.465637
 20
-29.3338184747
 10
-4.491882
 20
-29.8744444747
 10
1.238739
 20
-29.2256944747
 10
7.401886
 20
-29.9825684747
 10
12.591888
 20
-29.3338184747
 10
17.998138
 20
-29.8744444747
 10
23.188141
 20
-29.1175704747
 10
28.378113
 20
-29.9825684747
 10
34.649384
 20
-29.1175704747
 10
40.920624
 20
-29.8744444747
 10
48.0
 20
-28.5703524747
  0
LINE
  5
4922
330
48CC
100
AcDbEntity
  8
0
100
AcDbLine
 10
-46.000031
 20
-25.0
 30
0.0
 11
-42.000031
 21
-25.0
 31
0.0
  0
LINE
  5
4923
330
48CC
100
AcDbEntity
  8
0
100
AcDbLine
 10
-42.000031
 20
-24.700043
 30
0.0
 11
-41.0
 21
-24.700043
 31
0.0
  0
LINE
  5
4924
330
48CC
100
AcDbEntity
  8
0
100
AcDbLine
 10
-41.0
 20
-24.0
 30
0.0
 11
-48.0
 21
-23.816711
 31
0.0
  0
LINE
  5
4925
330
48CC
100
AcDbEntity
  8
CENTER
100
AcDbLine
 10
0.0
 20
-54.285004
 30
0.0
 11
0.0
 21
-29.3659291763
 31
0.0
  0
LINE
  5
4926
330
48CC
100
AcDbEntity
  8
0
100
AcDbLine
 10
49.0
 20
-9.31131
 30
0.0
 11
49.0
 21
9.31134
 31
0.0
  0
ARC
  5
4927
330
48CC
100
AcDbEntity
  8
0
100
AcDbCircle
 10
55.0
 20
0.0
 30
0.0
 40
3.0
100
AcDbArc
 50
90.0
 51
270.0
  0
LINE
  5
4928
330
48CC
100
AcDbEntity
  8
0
100
AcDbLine
 10
79.0
 20
9.0
 30
0.0
 11
79.0
 21
-9.0
 31
0.0
  0
LINE
  5
4929
330
48CC
100
AcDbEntity
  8
0
100
AcDbLine
 10
79.0
 20
-3.0
 30
0.0
 11
55.0
 21
-3.0
 31
0.0
  0
LINE
  5
492A
330
48CC
100
AcDbEntity
  8
0
100
AcDbLine
 10
79.0
 20
-9.0
 30
0.0
 11
49.0
 21
-9.0
 31
0.0
  0
LINE
  5
492B
330
48CC
100
AcDbEntity
  8
0
100
AcDbLine
 10
48.0
 20
-10.0
 30
0.0
 11
48.222565
 21
-10.0
 31
0.0
  0
ARC
  5
492C
330
48CC
100
AcDbEntity
  8
0
100
AcDbCircle
 10
48.5
 20
-9.31131
 30
0.0
 40
0.5
100
AcDbArc
 50
300.0
 51
0.0
  0
ARC
  5
492D
330
48CC
100
AcDbEntity
  8
0
100
AcDbCircle
 10
47.598083
 20
-8.100006
 30
0.0
 40
2.0
100
AcDbArc
 50
288.19487
 51
300.0
  0
LINE
  5
492E
330
48CC
100
AcDbEntity
  8
0
100
AcDbLine
 10
48.75
 20
-9.744324
 30
0.0
 11
48.598083
 21
-9.832062
 31
0.0
  0
LINE
  5
492F
330
48CC
100
AcDbEntity
  8
0
100
AcDbLine
 10
79.0
 20
3.0
 30
0.0
 11
55.0
 21
3.0
 31
0.0
  0
LINE
  5
4930
330
48CC
100
AcDbEntity
  8
0
100
AcDbLine
 10
79.0
 20
9.0
 30
0.0
 11
49.0
 21
9.0
 31
0.0
  0
LINE
  5
4931
330
48CC
100
AcDbEntity
  8
0
100
AcDbLine
 10
48.0
 20
10.0
 30
0.0
 11
48.222565
 21
10.0
 31
0.0
  0
ARC
  5
4932
330
48CC
100
AcDbEntity
  8
0
100
AcDbCircle
 10
48.5
 20
9.31134
 30
0.0
 40
0.5
100
AcDbArc
 50
0.0
 51
60.0
  0
ARC
  5
4933
330
48CC
100
AcDbEntity
  8
0
100
AcDbCircle
 10
47.598083
 20
8.100006
 30
0.0
 40
2.0
100
AcDbArc
 50
60.0
 51
71.80513
  0
LINE
  5
4934
330
48CC
100
AcDbEntity
  8
0
100
AcDbLine
 10
48.75
 20
9.744324
 30
0.0
 11
48.598083
 21
9.832062
 31
0.0
  0
LINE
  5
4935
330
48CC
100
AcDbEntity
  8
CENTER
100
AcDbLine
 10
82.638275
 20
0.0
 30
0.0
 11
64.3129516055
 21
0.0
 31
0.0
  0
LINE
  5
4936
330
48CC
100
AcDbEntity
  8
CENTER
100
AcDbLine
 10
0.0
 20
-3.3116801459
 30
0.0
 11
0.0
 21
3.3116801459
 31
0.0
  0
LINE
  5
4937
330
48CC
100
AcDbEntity
  8
CENTER
100
AcDbLine
 10
-3.3116801459
 20
0.0
 30
0.0
 11
3.3116801459
 21
0.0
 31
0.0
  0
LINE
  5
4938
330
48CC
100
AcDbEntity
  8
0
100
AcDbLine
 10
48.0
 20
-43.2
 30
0.0
 11
-35.0
 21
-43.2
 31
0.0
  0
LINE
  5
4939
330
48CC
100
AcDbEntity
  8
0
100
AcDbLine
 10
48.0
 20
-34.8
 30
0.0
 11
-35.0
 21
-34.8
 31
0.0
  0
LINE
  5
493A
330
48CC
100
AcDbEntity
  8
HIDS
100
AcDbLine
 10
48.0
 20
34.8
 30
0.0
 11
-35.0
 21
34.8
 31
0.0
  0
LINE
  5
493B
330
48CC
100
AcDbEntity
  8
HIDS
100
AcDbLine
 10
48.0
 20
43.2
 30
0.0
 11
-35.0
 21
43.2
 31
0.0
  0
ENDBLK
  5
493C
330
48CC
100
AcDbEntity
  8
0
100
AcDbBlockEnd
  0
BLOCK
  5
495A
330
4959
100
AcDbEntity
  8
0
100
AcDbBlockBegin
  2
*D63
 70
     1
 10
0.0
 20
0.0
 30
0.0
  3
*D63
  1

  0
POINT
  5
496F
330
4959
100
AcDbEntity
  8
DEFPOINTS
 62
     0
100
AcDbPoint
 10
382.5855891067
 20
118.8907853628
 30
0.0
  0
POINT
  5
4970
330
4959
100
AcDbEntity
  8
DEFPOINTS
 62
     0
100
AcDbPoint
 10
382.5855891067
 20
110.4907853628
 30
0.0
  0
POINT
  5
4971
330
4959
100
AcDbEntity
  8
DEFPOINTS
 62
     0
100
AcDbPoint
 10
381.0698145915
 20
110.4907853628
 30
0.0
  0
ENDBLK
  5
495B
330
4959
100
AcDbEntity
  8
0
100
AcDbBlockEnd
  0
ENDSEC
  0
SECTION
  2
ENTITIES
  0
TEXT
  5
27DC
330
2
100
AcDbEntity
  8
TITLE_C
100
AcDbText
 10
169.9796477317
 20
34.0749012752
 30
0.0
 40
5.0
  1
F2F18L010～240-CSMR40NN
100
AcDbText
  0
TEXT
  5
27DE
330
2
100
AcDbEntity
  8
TITLE_C
100
AcDbText
 10
53.5713127028
 20
26.1243070542
 30
0.0
 40
5.0
  1
F2F18L010～240-CTMR40NNX
100
AcDbText
  0
TEXT
  5
27DF
330
2
100
AcDbEntity
  8
TITLE_C
100
AcDbText
 10
53.5713127028
 20
17.1243070542
 30
0.0
 40
5.0
  1
F2F18L010～240-CTMR40WN
100
AcDbText
  0
TEXT
  5
27E0
330
2
100
AcDbEntity
  8
TITLE_C
100
AcDbText
 10
53.5713127028
 20
-10.2719919824
 30
0.0
 40
5.0
  1
F2F18L010～240-CTMR60WN
100
AcDbText
  0
TEXT
  5
27E1
330
2
100
AcDbEntity
  8
TITLE_C
100
AcDbText
 10
53.5713127028
 20
-1.2719919824
 30
0.0
 40
5.0
  1
F2F18L010～240-CTMR60NNX
100
AcDbText
  0
LINE
  5
3124
330
2
100
AcDbEntity
  8
0
  6
CENS
 62
     3
100
AcDbLine
 10
724.2226985402
 20
203.0965823181
 30
0.0
 11
724.2226985402
 21
192.3747560838
 31
0.0
  0
ARC
  5
3125
330
2
100
AcDbEntity
  8
0
100
AcDbCircle
 10
724.2226985402
 20
193.2907853628
 30
0.0
 40
9.000000000010642
100
AcDbArc
 50
77.3231615211
 51
102.6768384789
  0
ARC
  5
3126
330
2
100
AcDbEntity
  8
0
100
AcDbCircle
 10
722.5987549861
 20
200.5103980486
 30
0.0
 40
1.59999999999961
100
AcDbArc
 50
102.6768384789
 51
165.0
  0
LINE
  5
3127
330
2
100
AcDbEntity
  8
0
100
AcDbLine
 10
720.7226985402
 20
199.6907853628
 30
0.0
 11
721.0532736641
 21
200.9245085208
 31
0.0
  0
ARC
  5
3128
330
2
100
AcDbEntity
  8
0
100
AcDbCircle
 10
725.8466420943
 20
200.5103980486
 30
0.0
 40
1.59999999999961
100
AcDbArc
 50
15.0
 51
77.3231615211
  0
LINE
  5
3129
330
2
100
AcDbEntity
  8
0
100
AcDbLine
 10
727.3921234163
 20
200.9245085208
 30
0.0
 11
727.7226985402
 21
199.6907853628
 31
0.0
  0
LINE
  5
312A
330
2
100
AcDbEntity
  8
0
100
AcDbLine
 10
720.4226985402
 20
199.6907853628
 30
0.0
 11
728.0226985402
 21
199.6907853628
 31
0.0
  0
LINE
  5
312B
330
2
100
AcDbEntity
  8
0
100
AcDbLine
 10
720.4226985402
 20
199.6907853628
 30
0.0
 11
720.4226985402
 21
198.6907853628
 31
0.0
  0
LINE
  5
312C
330
2
100
AcDbEntity
  8
0
100
AcDbLine
 10
724.1496179003
 20
198.6907853628
 30
0.0
 11
723.8816687079
 21
199.6907853628
 31
0.0
  0
LINE
  5
312D
330
2
100
AcDbEntity
  8
0
100
AcDbLine
 10
724.5637283725
 20
198.6907853628
 30
0.0
 11
724.2957791801
 21
199.6907853628
 31
0.0
  0
LINE
  5
312E
330
2
100
AcDbEntity
  8
0
100
AcDbLine
 10
728.0226985402
 20
199.6907853628
 30
0.0
 11
728.0226985402
 21
198.6907853628
 31
0.0
  0
LINE
  5
315A
330
2
100
AcDbEntity
  8
CENTER
100
AcDbLine
 10
719.4309390021
 20
369.977416589
 30
0.0
 11
729.0144580783
 21
369.977416589
 31
0.0
  0
CIRCLE
  5
315B
330
2
100
AcDbEntity
  8
0
100
AcDbCircle
 10
724.2226985402
 20
369.977416589
 30
0.0
 40
3.799999999999998
  0
CIRCLE
  5
315C
330
2
100
AcDbEntity
  8
0
100
AcDbCircle
 10
724.2226985402
 20
369.977416589
 30
0.0
 40
3.499999999999146
  0
LINE
  5
315D
330
2
100
AcDbEntity
  8
CENTER
100
AcDbLine
 10
724.2226985402
 20
374.7691761271
 30
0.0
 11
724.2226985402
 21
365.1856570509
 31
0.0
  0
ARC
  5
315E
330
2
100
AcDbEntity
  8
0
100
AcDbCircle
 10
726.0363349038
 20
371.7910529527
 30
0.0
 40
1.336363636363619
100
AcDbArc
 50
180.0
 51
270.0
  0
ARC
  5
315F
330
2
100
AcDbEntity
  8
0
100
AcDbCircle
 10
722.4090621766
 20
371.7910529527
 30
0.0
 40
1.336363636363619
100
AcDbArc
 50
270.0
 51
0.0
  0
ARC
  5
3160
330
2
100
AcDbEntity
  8
0
100
AcDbCircle
 10
726.0363349038
 20
368.1637802254
 30
0.0
 40
1.336363636363619
100
AcDbArc
 50
90.0
 51
180.0
  0
LINE
  5
3161
330
2
100
AcDbEntity
  8
0
100
AcDbLine
 10
722.1226985402
 20
370.4546893163
 30
0.0
 11
722.4090621766
 21
370.4546893163
 31
0.0
  0
LINE
  5
3162
330
2
100
AcDbEntity
  8
0
100
AcDbLine
 10
722.1226985402
 20
369.977416589
 30
0.0
 11
722.1226985402
 21
370.4546893163
 31
0.0
  0
LINE
  5
3163
330
2
100
AcDbEntity
  8
0
100
AcDbLine
 10
724.2957791801
 20
366.1781193882
 30
0.0
 11
724.2957791801
 21
366.4781796408
 31
0.0
  0
LINE
  5
3164
330
2
100
AcDbEntity
  8
0
100
AcDbLine
 10
723.8816687079
 20
366.1927503351
 30
0.0
 11
723.8816687079
 21
366.4940706898
 31
0.0
  0
LINE
  5
3165
330
2
100
AcDbEntity
  8
0
100
AcDbLine
 10
724.6999712675
 20
368.1637802254
 30
0.0
 11
724.6999712675
 21
367.877416589
 31
0.0
  0
LINE
  5
3166
330
2
100
AcDbEntity
  8
0
100
AcDbLine
 10
724.6999712675
 20
367.877416589
 30
0.0
 11
724.2226985402
 21
367.877416589
 31
0.0
  0
LINE
  5
3167
330
2
100
AcDbEntity
  8
0
100
AcDbLine
 10
724.2226985402
 20
367.877416589
 30
0.0
 11
723.7454258129
 21
367.877416589
 31
0.0
  0
LINE
  5
3168
330
2
100
AcDbEntity
  8
0
100
AcDbLine
 10
723.7454258129
 20
367.877416589
 30
0.0
 11
723.7454258129
 21
368.1637802254
 31
0.0
  0
LINE
  5
3169
330
2
100
AcDbEntity
  8
0
100
AcDbLine
 10
722.4090621766
 20
369.5001438618
 30
0.0
 11
722.1226985402
 21
369.5001438618
 31
0.0
  0
ARC
  5
316A
330
2
100
AcDbEntity
  8
0
100
AcDbCircle
 10
722.4090621766
 20
368.1637802254
 30
0.0
 40
1.336363636363619
100
AcDbArc
 50
0.0
 51
90.0
  0
LINE
  5
316B
330
2
100
AcDbEntity
  8
0
100
AcDbLine
 10
722.1226985402
 20
369.5001438618
 30
0.0
 11
722.1226985402
 21
369.977416589
 31
0.0
  0
LINE
  5
316C
330
2
100
AcDbEntity
  8
0
100
AcDbLine
 10
726.0363349038
 20
370.4546893163
 30
0.0
 11
726.3226985402
 21
370.4546893163
 31
0.0
  0
LINE
  5
316D
330
2
100
AcDbEntity
  8
0
100
AcDbLine
 10
726.3226985402
 20
370.4546893163
 30
0.0
 11
726.3226985402
 21
369.977416589
 31
0.0
  0
LINE
  5
316E
330
2
100
AcDbEntity
  8
0
100
AcDbLine
 10
726.3226985402
 20
369.5001438618
 30
0.0
 11
726.0363349038
 21
369.5001438618
 31
0.0
  0
LINE
  5
316F
330
2
100
AcDbEntity
  8
0
100
AcDbLine
 10
726.3226985402
 20
369.977416589
 30
0.0
 11
726.3226985402
 21
369.5001438618
 31
0.0
  0
LINE
  5
3170
330
2
100
AcDbEntity
  8
0
100
AcDbLine
 10
724.2226985402
 20
372.077416589
 30
0.0
 11
724.6999712675
 21
372.077416589
 31
0.0
  0
LINE
  5
3171
330
2
100
AcDbEntity
  8
0
100
AcDbLine
 10
724.6999712675
 20
372.077416589
 30
0.0
 11
724.6999712675
 21
371.7910529527
 31
0.0
  0
LINE
  5
3172
330
2
100
AcDbEntity
  8
0
100
AcDbLine
 10
723.7454258129
 20
372.077416589
 30
0.0
 11
724.2226985402
 21
372.077416589
 31
0.0
  0
LINE
  5
3173
330
2
100
AcDbEntity
  8
0
100
AcDbLine
 10
723.7454258129
 20
371.7910529527
 30
0.0
 11
723.7454258129
 21
372.077416589
 31
0.0
  0
LINE
  5
3174
330
2
100
AcDbEntity
  8
0
100
AcDbLine
 10
724.2226985402
 20
380.682380483
 30
0.0
 11
724.2226985402
 21
377.087654483
 31
0.0
  0
LINE
  5
3175
330
2
100
AcDbEntity
  8
0
100
AcDbLine
 10
725.7953625402
 20
383.668280483
 30
0.0
 11
722.5751165402
 21
383.668280483
 31
0.0
  0
LINE
  5
3176
330
2
100
AcDbEntity
  8
0
100
AcDbLine
 10
728.4165165402
 20
380.682380483
 30
0.0
 11
719.8791025402
 21
380.682380483
 31
0.0
  0
LINE
  5
3177
330
2
100
AcDbEntity
  8
0
100
AcDbLine
 10
727.0684945402
 20
382.182380483
 30
0.0
 11
721.3946965402
 21
382.182380483
 31
0.0
  0
CIRCLE
  5
3178
330
2
100
AcDbEntity
  8
0
100
AcDbCircle
 10
724.2226985402
 20
369.977416589
 30
0.0
 40
4.0
  0
CIRCLE
  5
3179
330
2
100
AcDbEntity
  8
0
100
AcDbCircle
 10
724.2226985402
 20
380.682380483
 30
0.0
 40
4.926010018386079
  0
LINE
  5
3189
330
2
100
AcDbEntity
  8
0
  6
CENS
 62
     3
100
AcDbLine
 10
91.6298965468
 20
203.0965823181
 30
0.0
 11
91.6298965468
 21
192.3747560838
 31
0.0
  0
ARC
  5
318A
330
2
100
AcDbEntity
  8
0
100
AcDbCircle
 10
91.6298965468
 20
193.2907853628
 30
0.0
 40
9.000000000010642
100
AcDbArc
 50
77.3231615211
 51
102.6768384789
  0
ARC
  5
318B
330
2
100
AcDbEntity
  8
0
100
AcDbCircle
 10
90.0059529928
 20
200.5103980486
 30
0.0
 40
1.59999999999961
100
AcDbArc
 50
102.6768384789
 51
165.0
  0
LINE
  5
318C
330
2
100
AcDbEntity
  8
0
100
AcDbLine
 10
88.1298965468
 20
199.6907853628
 30
0.0
 11
88.4604716707
 21
200.9245085208
 31
0.0
  0
ARC
  5
318D
330
2
100
AcDbEntity
  8
0
100
AcDbCircle
 10
93.2538401009
 20
200.5103980486
 30
0.0
 40
1.59999999999961
100
AcDbArc
 50
15.0
 51
77.3231615211
  0
LINE
  5
318E
330
2
100
AcDbEntity
  8
0
100
AcDbLine
 10
94.799321423
 20
200.9245085208
 30
0.0
 11
95.1298965468
 21
199.6907853628
 31
0.0
  0
LINE
  5
318F
330
2
100
AcDbEntity
  8
0
100
AcDbLine
 10
87.8298965468
 20
199.6907853628
 30
0.0
 11
95.4298965468
 21
199.6907853628
 31
0.0
  0
LINE
  5
3190
330
2
100
AcDbEntity
  8
0
100
AcDbLine
 10
87.8298965468
 20
199.6907853628
 30
0.0
 11
87.8298965468
 21
198.6907853628
 31
0.0
  0
LINE
  5
3191
330
2
100
AcDbEntity
  8
0
100
AcDbLine
 10
95.4298965468
 20
199.6907853628
 30
0.0
 11
95.4298965468
 21
198.6907853628
 31
0.0
  0
ARC
  5
31A5
330
2
100
AcDbEntity
  8
HIDS
100
AcDbCircle
 10
396.5855891067
 20
193.2907853628
 30
0.0
 40
9.000000000010642
100
AcDbArc
 50
77.3231615211
 51
102.6768384789
  0
ARC
  5
31A6
330
2
100
AcDbEntity
  8
HIDS
100
AcDbCircle
 10
394.9616455527
 20
200.5103980486
 30
0.0
 40
1.59999999999961
100
AcDbArc
 50
102.6768384789
 51
141.9411893058
  0
ARC
  5
31A7
330
2
100
AcDbEntity
  8
HIDS
  6
sekkei_H
100
AcDbCircle
 10
394.9616455527
 20
200.5103980486
 30
0.0
 40
1.59999999999961
100
AcDbArc
 50
141.9411893058
 51
165.0
  0
LINE
  5
31A8
330
2
100
AcDbEntity
  8
HIDS
  6
sekkei_H
100
AcDbLine
 10
393.0855891067
 20
199.6907853628
 30
0.0
 11
393.4161642306
 21
200.9245085208
 31
0.0
  0
ARC
  5
31A9
330
2
100
AcDbEntity
  8
HIDS
  6
sekkei_H
100
AcDbCircle
 10
398.2095326608
 20
200.5103980486
 30
0.0
 40
1.59999999999961
100
AcDbArc
 50
15.0
 51
33.5557012948
  0
ARC
  5
31AA
330
2
100
AcDbEntity
  8
HIDS
100
AcDbCircle
 10
398.2095326608
 20
200.5103980486
 30
0.0
 40
1.59999999999961
100
AcDbArc
 50
33.5557012948
 51
77.3231615211
  0
LINE
  5
31AB
330
2
100
AcDbEntity
  8
HIDS
  6
sekkei_H
100
AcDbLine
 10
399.7550139829
 20
200.9245085208
 30
0.0
 11
400.0855891067
 21
199.6907853628
 31
0.0
  0
LINE
  5
31AC
330
2
100
AcDbEntity
  8
HIDS
  6
sekkei_H
100
AcDbLine
 10
392.7855891067
 20
199.6907853628
 30
0.0
 11
400.3855891067
 21
199.6907853628
 31
0.0
  0
LINE
  5
31AD
330
2
100
AcDbEntity
  8
HIDS
  6
sekkei_H
100
AcDbLine
 10
392.7855891067
 20
199.6907853628
 30
0.0
 11
392.7855891067
 21
198.5127451785
 31
0.0
  0
LINE
  5
31AE
330
2
100
AcDbEntity
  8
HIDS
  6
sekkei_H
100
AcDbLine
 10
400.3855891067
 20
199.6907853628
 30
0.0
 11
400.3855891067
 21
198.3800877863
 31
0.0
  0
TEXT
  5
33CE
330
2
100
AcDbEntity
  8
TITLE_C
100
AcDbText
 10
53.5713127028
 20
34.0953247589
 30
0.0
 40
5.0
  1
F2F18L010～240-CTMR40NN
100
AcDbText
  0
TEXT
  5
33D0
330
2
100
AcDbEntity
  8
TITLE_C
100
AcDbText
 10
53.5713127028
 20
7.5361469007
 30
0.0
 40
5.0
  1
F2F18L010～240-CTMR60NN
100
AcDbText
  0
TEXT
  5
341D
330
2
100
AcDbEntity
  8
TITLE_C
100
AcDbText
 10
53.5713127028
 20
-20.0333149513
 30
0.0
 40
5.0
  1
F2F18L010～240-CTMR90NN
100
AcDbText
  0
LINE
  5
3C6B
330
2
100
AcDbEntity
  8
CENTER
100
AcDbLine
 10
270.9004655468
 20
153.6907853628
 30
0.0
 11
46.6093665786
 21
153.6907853628
 31
0.0
  0
LINE
  5
3C6E
330
2
100
AcDbEntity
  8
CENTER
100
AcDbLine
 10
769.2432285084
 20
383.977416589
 30
0.0
 11
547.2940485402
 21
383.977416589
 31
0.0
  0
LINE
  5
3C6F
330
2
100
AcDbEntity
  8
CENTER
100
AcDbLine
 10
544.1852235402
 20
153.6907853628
 30
0.0
 11
769.2432285084
 21
153.6907853628
 31
0.0
  0
LINE
  5
3C98
330
2
100
AcDbEntity
  8
CENTER
100
AcDbLine
 10
382.5855891067
 20
99.4057813628
 30
0.0
 11
382.5855891067
 21
207.9757893628
 31
0.0
  0
LINE
  5
3C99
330
2
100
AcDbEntity
  8
CENTER
100
AcDbLine
 10
318.2726375012
 20
153.6907853628
 30
0.0
 11
467.4516677565
 21
153.6907853628
 31
0.0
  0
INSERT
  5
3C9B
330
2
100
AcDbEntity
  8
0
100
AcDbBlockReference
  2
ファンカバ－ブレーキ_F2S-15_M_0001
 10
75.6298965468
 20
153.6907853628
 30
0.0
  0
INSERT
  5
3C9E
330
2
100
AcDbEntity
  8
0
100
AcDbBlockReference
  2
ファンカバ－ブレーキ_F2S-15_M_0002
 10
740.2226985402
 20
153.6907853628
 30
0.0
  0
INSERT
  5
3CA0
330
2
100
AcDbEntity
  8
0
100
AcDbBlockReference
  2
ファンカバ－ブレーキ_F2S-15_M_0003
 10
740.2226985402
 20
383.977416589
 30
0.0
  0
LINE
  5
3F6D
330
2
100
AcDbEntity
  8
0
  6
CENS
 62
     3
100
AcDbLine
 10
396.5855891067
 20
203.0965823181
 30
0.0
 11
396.5855891067
 21
192.3747560838
 31
0.0
  0
TEXT
  5
42D6
330
2
100
AcDbEntity
  8
TITLE_C
100
AcDbText
 10
169.9582003911
 20
25.5760597419
 30
0.0
 40
5.0
  1
F2F18L010～240-CSMR40WNX
100
AcDbText
  0
TEXT
  5
42D7
330
2
100
AcDbEntity
  8
TITLE_C
100
AcDbText
 10
169.9582003911
 20
16.5760597419
 30
0.0
 40
5.0
  1
F2F18L010～240-CSMR40WN
100
AcDbText
  0
INSERT
  5
4823
330
2
100
AcDbEntity
  8
0
100
AcDbBlockReference
  2
A$Cdecd00d5
 10
75.6298965468
 20
198.6907853628
 30
0.0
  0
INSERT
  5
48C3
330
2
100
AcDbEntity
  8
0
100
AcDbBlockReference
  2
A$C0221c00d
 10
740.2226985402
 20
153.6907853628
 30
0.0
  0
INSERT
  5
48CB
330
2
100
AcDbEntity
  8
0
100
AcDbBlockReference
  2
F2F-18L_0002
 10
595.3523985402
 20
383.977416589
 30
0.0
  0
INSERT
  5
4944
330
2
100
AcDbEntity
  8
0
100
AcDbBlockReference
  2
A$Cd9f2b5d0
 10
382.5855891067
 20
153.6907853628
 30
0.0
  0
ENDSEC
  0
SECTION
  2
OBJECTS
  0
DICTIONARY
  5
7
330
0
100
AcDbDictionary
281
     1
  3
ACAD_CIP_PREVIOUS_PRODUCT_INFO
350
3837
  3
ACAD_COLOR
350
2795
  3
ACAD_DETAILVIEWSTYLE
350
3833
  3
ACAD_GROUP
350
75
  3
ACAD_LAYOUT
350
61
  3
ACAD_MATERIAL
350
2768
  3
ACAD_MLEADERSTYLE
350
27BA
  3
ACAD_MLINESTYLE
350
76
  3
ACAD_PLOTSETTINGS
350
77
  3
ACAD_PLOTSTYLENAME
350
6
  3
ACAD_SCALELIST
350
2798
  3
ACAD_SECTIONVIEWSTYLE
350
3831
  3
ACAD_TABLESTYLE
350
2796
  3
ACAD_VISUALSTYLE
350
2781
  3
AcadDim
350
480
  3
ACDB_RECOMPOSE_DATA
350
4BD8
  3
AcDbVariableDictionary
350
102
  3
DWGPROPS
350
4BD9
  0
DICTIONARY
  5
299B
330
6E
100
AcDbDictionary
280
     1
281
     1
  0
DICTIONARY
  5
27C1
330
66
100
AcDbDictionary
280
     1
281
     1
  3
ACAD_LAYERSTATES
360
27C2
  0
DICTIONARY
  5
2984
330
5E
100
AcDbDictionary
280
     1
281
     1
  3
ADSK_XREC_LAYER_RECONCILED
360
2985
  0
DICTIONARY
  5
2986
330
3E
100
AcDbDictionary
280
     1
281
     1
  3
ADSK_XREC_LAYER_RECONCILED
360
2987
  0
DICTIONARY
  5
298C
330
2B5
100
AcDbDictionary
280
     1
281
     1
  3
ADSK_XREC_LAYER_RECONCILED
360
298D
  0
DICTIONARY
  5
298E
330
2BA
100
AcDbDictionary
280
     1
281
     1
  3
ADSK_XREC_LAYER_RECONCILED
360
298F
  0
DICTIONARY
  5
27BF
330
27BE
100
AcDbDictionary
280
     1
281
     1
  3
ADSK_XREC_LAYER_RECONCILED
360
2994
  0
DICTIONARY
  5
4045
330
39FF
100
AcDbDictionary
280
     1
281
     1
  3
ACAD_SORTENTS
360
4046
  0
DICTIONARY
  5
4826
330
4825
100
AcDbDictionary
280
     1
281
     1
  3
ACAD_SORTENTS
360
4827
  0
DICTIONARY
  5
48CD
330
48CC
100
AcDbDictionary
280
     1
281
     1
  3
ACAD_SORTENTS
360
48CE
  0
XRECORD
  5
3837
102
{ACAD_REACTORS
330
7
102
}
330
7
100
AcDbXrecord
280
     1
300
ACD
300
2020
300
87224ACD_2020_0F
  0
DICTIONARY
  5
2795
102
{ACAD_REACTORS
330
7
102
}
330
7
100
AcDbDictionary
281
     1
  0
DICTIONARY
  5
3833
102
{ACAD_REACTORS
330
7
102
}
330
7
100
AcDbDictionary
281
     1
  3
Imperial24
350
3834
  0
DICTIONARY
  5
75
102
{ACAD_REACTORS
330
7
102
}
330
7
100
AcDbDictionary
281
     1
  0
DICTIONARY
  5
61
102
{ACAD_REACTORS
330
7
102
}
330
7
100
AcDbDictionary
281
     1
  3
Model
350
60
  3
レイアウト1
350
4BD2
  0
DICTIONARY
  5
2768
102
{ACAD_REACTORS
330
7
102
}
330
7
100
AcDbDictionary
281
     1
  3
ByBlock
350
2771
  3
ByLayer
350
2769
  3
Global
350
2779
  0
DICTIONARY
  5
27BA
102
{ACAD_REACTORS
330
7
102
}
330
7
100
AcDbDictionary
281
     1
  3
Standard
350
27BB
  0
DICTIONARY
  5
76
102
{ACAD_REACTORS
330
7
102
}
330
7
100
AcDbDictionary
281
     1
  3
STANDARD
350
78
  0
DICTIONARY
  5
77
102
{ACAD_REACTORS
330
7
102
}
330
7
100
AcDbDictionary
281
     1
  0
ACDBDICTIONARYWDFLT
  5
6
102
{ACAD_REACTORS
330
7
102
}
330
7
100
AcDbDictionary
281
     1
  3
Normal
350
5
100
AcDbDictionaryWithDefault
340
5
  0
DICTIONARY
  5
2798
102
{ACAD_REACTORS
330
7
102
}
330
7
100
AcDbDictionary
281
     1
  3
A0
350
2799
  3
A1
350
279A
  3
A2
350
279B
  3
A3
350
279C
  3
A4
350
279D
  3
A5
350
279E
  3
A6
350
279F
  3
A7
350
27A0
  3
A8
350
27A1
  3
A9
350
27A2
  3
B0
350
27A3
  3
B1
350
27A4
  3
B2
350
27A5
  3
B3
350
27A6
  3
B4
350
27A7
  3
B5
350
27A8
  3
B6
350
27A9
  3
B7
350
27AA
  3
B8
350
27AB
  3
B9
350
27AC
  3
C0
350
27AD
  3
C1
350
27AE
  3
C2
350
27AF
  3
C3
350
27B0
  3
C4
350
27B1
  3
C5
350
27B2
  3
C6
350
27B3
  3
C7
350
27B4
  3
C8
350
27B5
  3
C9
350
27B6
  3
D0
350
27B7
  3
D1
350
27B8
  3
D2
350
27B9
  0
DICTIONARY
  5
3831
102
{ACAD_REACTORS
330
7
102
}
330
7
100
AcDbDictionary
281
     1
  3
Imperial24
350
3832
  0
DICTIONARY
  5
2796
102
{ACAD_REACTORS
330
7
102
}
330
7
100
AcDbDictionary
281
     1
  3
Standard
350
2797
  0
DICTIONARY
  5
2781
102
{ACAD_REACTORS
330
7
102
}
330
7
100
AcDbDictionary
281
     1
  3
2dWireframe
350
2787
  3
3D Hidden
350
2789
  3
3dWireframe
350
2788
  3
Basic
350
2786
  3
Brighten
350
278D
  3
ColorChange
350
2791
  3
Conceptual
350
278A
  3
Dim
350
278C
  3
EdgeColorOff
350
2794
  3
Facepattern
350
2790
  3
Flat
350
2782
  3
FlatWithEdges
350
2783
  3
Gouraud
350
2784
  3
GouraudWithEdges
350
2785
  3
Hidden
350
382B
  3
JitterOff
350
2792
  3
Linepattern
350
278F
  3
OverhangOff
350
2793
  3
Realistic
350
278B
  3
Shaded
350
3830
  3
Shaded with edges
350
382F
  3
Shades of Gray
350
382C
  3
Sketchy
350
382D
  3
Thicken
350
278E
  3
Wireframe
350
382A
  3
X-Ray
350
382E
  0
XRECORD
  5
480
102
{ACAD_REACTORS
330
7
102
}
330
7
100
AcDbXrecord
280
     1
 90
   990106
  3

 60
     0
 61
     0
 62
     1
 63
     3
 64
     1
 65
     0
 66
     0
 67
     3
 68
     1
 69
     0
 70
     0
 71
     0
 72
     0
 40
0.0
170
     2
340
0
  0
XRECORD
  5
4BD8
102
{ACAD_REACTORS
330
7
102
}
330
7
100
AcDbXrecord
280
     1
 90
        1
330
2797
  0
DICTIONARY
  5
102
102
{ACAD_REACTORS
330
7
102
}
330
7
100
AcDbDictionary
281
     1
  3
CANNOSCALE
350
2A0A
  3
CMLEADERSTYLE
350
2A09
  3
CTABLESTYLE
350
2A08
  3
CVIEWDETAILSTYLE
350
3F62
  3
CVIEWSECTIONSTYLE
350
3F63
  3
DIMASSOC
350
103
  3
INDEXCTL
350
2A0C
  3
LAYEREVAL
350
42CA
  3
LAYERNOTIFY
350
42CB
  3
LIGHTINGUNITS
350
42C9
  3
MSLTSCALE
350
42C8
  3
SORTENTS
350
2A0B
  3
XCLIPFRAME
350
4BD6
  0
XRECORD
  5
4BD9
102
{ACAD_REACTORS
330
7
102
}
330
7
100
AcDbXrecord
280
     1
  1
DWGPROPS COOKIE
  2

  3

  4

  6

  7

  8
ykitaga
  9

300
=
301
=
302
=
303
=
304
=
305
=
306
=
307
=
308
=
309
=
 40
0.4573972338
 41
2453557.747662037
 42
2460164.366296297
  1

 90
        0
  0
DICTIONARY
  5
27C2
102
{ACAD_REACTORS
330
27C1
102
}
330
27C1
100
AcDbDictionary
281
     1
  0
XRECORD
  5
2985
102
{ACAD_REACTORS
330
2984
102
}
330
2984
100
AcDbXrecord
280
     1
290
     1
  0
XRECORD
  5
2987
102
{ACAD_REACTORS
330
2986
102
}
330
2986
100
AcDbXrecord
280
     1
290
     1
  0
XRECORD
  5
298D
102
{ACAD_REACTORS
330
298C
102
}
330
298C
100
AcDbXrecord
280
     1
290
     1
  0
XRECORD
  5
298F
102
{ACAD_REACTORS
330
298E
102
}
330
298E
100
AcDbXrecord
280
     1
290
     1
  0
XRECORD
  5
2994
102
{ACAD_REACTORS
330
27BF
102
}
330
27BF
100
AcDbXrecord
280
     1
290
     1
  0
SORTENTSTABLE
  5
4046
102
{ACAD_REACTORS
330
4045
102
}
330
4045
100
AcDbSortentsTable
330
39FF
  0
SORTENTSTABLE
  5
4827
102
{ACAD_REACTORS
330
4826
102
}
330
4826
100
AcDbSortentsTable
330
4825
  0
SORTENTSTABLE
  5
48CE
102
{ACAD_REACTORS
330
48CD
102
}
330
48CD
100
AcDbSortentsTable
330
48CC
  0
ACDBDETAILVIEWSTYLE
  5
3834
102
{ACAD_XDICTIONARY
360
4C36
102
}
102
{ACAD_REACTORS
330
3833
102
}
330
3833
100
AcDbModelDocViewStyle
 70
     0
  3
Imperial24
290
     0
100
AcDbDetailViewStyle
 70
     0
 71
     0
 90
        3
 71
     1
340
16
 40
0.24
340
0
 40
0.24
300

 40
0.36
280
     3
 71
     2
340
8
 90
       25
 71
     3
340
16
 40
0.24
 90
        1
 40
0.75
 90
        1
300
%<\AcVar ViewType \f "%tc1">% %<\AcVar ViewDetailId>%\PSCALE %<\AcVar ViewScale \f "%sn">%
 71
     4
340
8
 90
       25
340
8
 90
       25
280
     0
  0
LAYOUT
  5
60
102
{ACAD_XDICTIONARY
360
4BDA
102
}
102
{ACAD_REACTORS
330
61
102
}
330
61
100
AcDbPlotSettings
  1

  2
Canon LBP-1420
  4
A4
  6

 40
5.873749733
 41
5.8737478256
 42
5.8737487793
 43
5.8737487793
 44
209.9733276367
 45
296.925994873
 46
0.0
 47
5.37
 48
0.0
 49
0.0
140
0.0
141
0.0
142
1.0
143
0.088099941
 70
 11956
 72
     1
 73
     1
 74
     1
  7
Sekkei.ctb
 75
     0
147
11.3507453947
148
-88.9740150773
149
-101.3630682339
100
AcDbLayout
  1
Model
 70
     1
 71
     0
 10
0.0
 20
0.0
 11
12.0
 21
9.0
 12
0.0
 22
0.0
 32
0.0
 14
0.0
 24
0.0
 34
0.0
 15
0.0
 25
0.0
 35
0.0
146
0.0
 13
0.0
 23
0.0
 33
0.0
 16
1.0
 26
0.0
 36
0.0
 17
0.0
 27
1.0
 37
0.0
 76
     0
330
2
331
2766
  0
LAYOUT
  5
4BD2
102
{ACAD_XDICTIONARY
360
4C40
102
}
102
{ACAD_REACTORS
330
61
102
}
330
61
100
AcDbPlotSettings
  1

  2
LBP8610
  4

  6

 40
0.0
 41
0.0
 42
0.0
 43
0.0
 44
0.0
 45
0.0
 46
0.0
 47
0.0
 48
0.0
 49
0.0
140
0.0
141
0.0
142
1.0
143
1.0
 70
   688
 72
     0
 73
     0
 74
     5
  7

 75
    16
147
1.0
148
0.0
149
0.0
100
AcDbLayout
  1
レイアウト1
 70
     1
 71
     1
 10
0.0
 20
0.0
 11
12.0
 21
9.0
 12
0.0
 22
0.0
 32
0.0
 14
0.0
 24
0.0
 34
0.0
 15
0.0
 25
0.0
 35
0.0
146
0.0
 13
0.0
 23
0.0
 33
0.0
 16
1.0
 26
0.0
 36
0.0
 17
0.0
 27
1.0
 37
0.0
 76
     0
330
4BD1
  0
MATERIAL
  5
2771
102
{ACAD_XDICTIONARY
360
2772
102
}
102
{ACAD_REACTORS
330
2768
102
}
330
2768
100
AcDbMaterial
  1
ByBlock
 72
     0
 43
0.0208333333
 43
0.0
 43
0.0
 43
0.0
 43
0.0
 43
0.0208333333
 43
0.0
 43
0.0
 43
0.0
 43
0.0
 43
1.0
 43
0.0
 43
0.0
 43
0.0
 43
0.0
 43
1.0
 77
     0
 47
0.0208333333
 47
0.0
 47
0.0
 47
0.0
 47
0.0
 47
0.0208333333
 47
0.0
 47
0.0
 47
0.0
 47
0.0
 47
1.0
 47
0.0
 47
0.0
 47
0.0
 47
0.0
 47
1.0
171
     0
 49
0.0208333333
 49
0.0
 49
0.0
 49
0.0
 49
0.0
 49
0.0208333333
 49
0.0
 49
0.0
 49
0.0
 49
0.0
 49
1.0
 49
0.0
 49
0.0
 49
0.0
 49
0.0
 49
1.0
175
     0
142
0.0208333333
142
0.0
142
0.0
142
0.0
142
0.0
142
0.0208333333
142
0.0
142
0.0
142
0.0
142
0.0
142
1.0
142
0.0
142
0.0
142
0.0
142
0.0
142
1.0
179
     0
144
0.0208333333
144
0.0
144
0.0
144
0.0
144
0.0
144
0.0208333333
144
0.0
144
0.0
144
0.0
144
0.0
144
1.0
144
0.0
144
0.0
144
0.0
144
0.0
144
1.0
147
0.0208333333
147
0.0
147
0.0
147
0.0
147
0.0
147
0.0208333333
147
0.0
147
0.0
147
0.0
147
0.0
147
1.0
147
0.0
147
0.0
147
0.0
147
0.0
147
1.0
  0
MATERIAL
  5
2769
102
{ACAD_XDICTIONARY
360
276A
102
}
102
{ACAD_REACTORS
330
2768
102
}
330
2768
100
AcDbMaterial
  1
ByLayer
 72
     0
 43
0.0208333333
 43
0.0
 43
0.0
 43
0.0
 43
0.0
 43
0.0208333333
 43
0.0
 43
0.0
 43
0.0
 43
0.0
 43
1.0
 43
0.0
 43
0.0
 43
0.0
 43
0.0
 43
1.0
 77
     0
 47
0.0208333333
 47
0.0
 47
0.0
 47
0.0
 47
0.0
 47
0.0208333333
 47
0.0
 47
0.0
 47
0.0
 47
0.0
 47
1.0
 47
0.0
 47
0.0
 47
0.0
 47
0.0
 47
1.0
171
     0
 49
0.0208333333
 49
0.0
 49
0.0
 49
0.0
 49
0.0
 49
0.0208333333
 49
0.0
 49
0.0
 49
0.0
 49
0.0
 49
1.0
 49
0.0
 49
0.0
 49
0.0
 49
0.0
 49
1.0
175
     0
142
0.0208333333
142
0.0
142
0.0
142
0.0
142
0.0
142
0.0208333333
142
0.0
142
0.0
142
0.0
142
0.0
142
1.0
142
0.0
142
0.0
142
0.0
142
0.0
142
1.0
179
     0
144
0.0208333333
144
0.0
144
0.0
144
0.0
144
0.0
144
0.0208333333
144
0.0
144
0.0
144
0.0
144
0.0
144
1.0
144
0.0
144
0.0
144
0.0
144
0.0
144
1.0
147
0.0208333333
147
0.0
147
0.0
147
0.0
147
0.0
147
0.0208333333
147
0.0
147
0.0
147
0.0
147
0.0
147
1.0
147
0.0
147
0.0
147
0.0
147
0.0
147
1.0
  0
MATERIAL
  5
2779
102
{ACAD_XDICTIONARY
360
277A
102
}
102
{ACAD_REACTORS
330
2768
102
}
330
2768
100
AcDbMaterial
  1
Global
 72
     0
 43
0.0208333333
 43
0.0
 43
0.0
 43
0.0
 43
0.0
 43
0.0208333333
 43
0.0
 43
0.0
 43
0.0
 43
0.0
 43
1.0
 43
0.0
 43
0.0
 43
0.0
 43
0.0
 43
1.0
 77
     0
 47
0.0208333333
 47
0.0
 47
0.0
 47
0.0
 47
0.0
 47
0.0208333333
 47
0.0
 47
0.0
 47
0.0
 47
0.0
 47
1.0
 47
0.0
 47
0.0
 47
0.0
 47
0.0
 47
1.0
171
     0
 49
0.0208333333
 49
0.0
 49
0.0
 49
0.0
 49
0.0
 49
0.0208333333
 49
0.0
 49
0.0
 49
0.0
 49
0.0
 49
1.0
 49
0.0
 49
0.0
 49
0.0
 49
0.0
 49
1.0
175
     0
142
0.0208333333
142
0.0
142
0.0
142
0.0
142
0.0
142
0.0208333333
142
0.0
142
0.0
142
0.0
142
0.0
142
1.0
142
0.0
142
0.0
142
0.0
142
0.0
142
1.0
179
     0
144
0.0208333333
144
0.0
144
0.0
144
0.0
144
0.0
144
0.0208333333
144
0.0
144
0.0
144
0.0
144
0.0
144
1.0
144
0.0
144
0.0
144
0.0
144
0.0
144
1.0
147
0.0208333333
147
0.0
147
0.0
147
0.0
147
0.0
147
0.0208333333
147
0.0
147
0.0
147
0.0
147
0.0
147
1.0
147
0.0
147
0.0
147
0.0
147
0.0
147
1.0
  0
MLEADERSTYLE
  5
27BB
102
{ACAD_REACTORS
330
27BA
102
}
330
27BA
100
AcDbMLeaderStyle
170
     2
171
     1
172
     0
 90
        2
 40
0.0
 41
0.0
173
     1
 91
-1056964608
340
6A
 92
       -2
290
     1
 42
0.09
291
     1
 43
0.36
  3
Standard
 44
0.18
300

342
16
174
     1
178
     6
175
     1
176
     0
 93
-1056964608
 45
0.18
292
     0
297
     0
 46
0.18
 94
-1056964608
 47
1.0
 49
1.0
140
1.0
293
     1
141
0.0
294
     1
177
     0
142
1.0
295
     0
296
     0
143
0.125
1001
ACAD_MLEADERVER
1070
     2
  0
MLINESTYLE
  5
78
102
{ACAD_REACTORS
330
76
102
}
330
76
100
AcDbMlineStyle
  2
STANDARD
 70
     0
  3

 62
     0
 51
90.0
 52
90.0
 71
     2
 49
0.5
 62
   256
  6
BYLAYER
 49
-0.5
 62
   256
  6
BYLAYER
  0
ACDBPLACEHOLDER
  5
5
102
{ACAD_REACTORS
330
6
102
}
330
6
  0
SCALE
  5
2799
102
{ACAD_REACTORS
330
2798
102
}
330
2798
100
AcDbScale
 70
     0
300
1:1
140
1.0
141
1.0
290
     1
  0
SCALE
  5
279A
102
{ACAD_REACTORS
330
2798
102
}
330
2798
100
AcDbScale
 70
     0
300
1:2
140
1.0
141
2.0
290
     0
  0
SCALE
  5
279B
102
{ACAD_REACTORS
330
2798
102
}
330
2798
100
AcDbScale
 70
     0
300
1:4
140
1.0
141
4.0
290
     0
  0
SCALE
  5
279C
102
{ACAD_REACTORS
330
2798
102
}
330
2798
100
AcDbScale
 70
     0
300
1:5
140
1.0
141
5.0
290
     0
  0
SCALE
  5
279D
102
{ACAD_REACTORS
330
2798
102
}
330
2798
100
AcDbScale
 70
     0
300
1:8
140
1.0
141
8.0
290
     0
  0
SCALE
  5
279E
102
{ACAD_REACTORS
330
2798
102
}
330
2798
100
AcDbScale
 70
     0
300
1:10
140
1.0
141
10.0
290
     0
  0
SCALE
  5
279F
102
{ACAD_REACTORS
330
2798
102
}
330
2798
100
AcDbScale
 70
     0
300
1:16
140
1.0
141
16.0
290
     0
  0
SCALE
  5
27A0
102
{ACAD_REACTORS
330
2798
102
}
330
2798
100
AcDbScale
 70
     0
300
1:20
140
1.0
141
20.0
290
     0
  0
SCALE
  5
27A1
102
{ACAD_REACTORS
330
2798
102
}
330
2798
100
AcDbScale
 70
     0
300
1:30
140
1.0
141
30.0
290
     0
  0
SCALE
  5
27A2
102
{ACAD_REACTORS
330
2798
102
}
330
2798
100
AcDbScale
 70
     0
300
1:40
140
1.0
141
40.0
290
     0
  0
SCALE
  5
27A3
102
{ACAD_REACTORS
330
2798
102
}
330
2798
100
AcDbScale
 70
     0
300
1:50
140
1.0
141
50.0
290
     0
  0
SCALE
  5
27A4
102
{ACAD_REACTORS
330
2798
102
}
330
2798
100
AcDbScale
 70
     0
300
1:100
140
1.0
141
100.0
290
     0
  0
SCALE
  5
27A5
102
{ACAD_REACTORS
330
2798
102
}
330
2798
100
AcDbScale
 70
     0
300
2:1
140
2.0
141
1.0
290
     0
  0
SCALE
  5
27A6
102
{ACAD_REACTORS
330
2798
102
}
330
2798
100
AcDbScale
 70
     0
300
4:1
140
4.0
141
1.0
290
     0
  0
SCALE
  5
27A7
102
{ACAD_REACTORS
330
2798
102
}
330
2798
100
AcDbScale
 70
     0
300
8:1
140
8.0
141
1.0
290
     0
  0
SCALE
  5
27A8
102
{ACAD_REACTORS
330
2798
102
}
330
2798
100
AcDbScale
 70
     0
300
10:1
140
10.0
141
1.0
290
     0
  0
SCALE
  5
27A9
102
{ACAD_REACTORS
330
2798
102
}
330
2798
100
AcDbScale
 70
     0
300
100:1
140
100.0
141
1.0
290
     0
  0
SCALE
  5
27AA
102
{ACAD_REACTORS
330
2798
102
}
330
2798
100
AcDbScale
 70
     0
300
1/128" = 1'-0"
140
0.0078125
141
12.0
290
     0
  0
SCALE
  5
27AB
102
{ACAD_REACTORS
330
2798
102
}
330
2798
100
AcDbScale
 70
     0
300
1/64" = 1'-0"
140
0.015625
141
12.0
290
     0
  0
SCALE
  5
27AC
102
{ACAD_REACTORS
330
2798
102
}
330
2798
100
AcDbScale
 70
     0
300
1/32" = 1'-0"
140
0.03125
141
12.0
290
     0
  0
SCALE
  5
27AD
102
{ACAD_REACTORS
330
2798
102
}
330
2798
100
AcDbScale
 70
     0
300
1/16" = 1'-0"
140
0.0625
141
12.0
290
     0
  0
SCALE
  5
27AE
102
{ACAD_REACTORS
330
2798
102
}
330
2798
100
AcDbScale
 70
     0
300
3/32" = 1'-0"
140
0.09375
141
12.0
290
     0
  0
SCALE
  5
27AF
102
{ACAD_REACTORS
330
2798
102
}
330
2798
100
AcDbScale
 70
     0
300
1/8" = 1'-0"
140
0.125
141
12.0
290
     0
  0
SCALE
  5
27B0
102
{ACAD_REACTORS
330
2798
102
}
330
2798
100
AcDbScale
 70
     0
300
3/16" = 1'-0"
140
0.1875
141
12.0
290
     0
  0
SCALE
  5
27B1
102
{ACAD_REACTORS
330
2798
102
}
330
2798
100
AcDbScale
 70
     0
300
1/4" = 1'-0"
140
0.25
141
12.0
290
     0
  0
SCALE
  5
27B2
102
{ACAD_REACTORS
330
2798
102
}
330
2798
100
AcDbScale
 70
     0
300
3/8" = 1'-0"
140
0.375
141
12.0
290
     0
  0
SCALE
  5
27B3
102
{ACAD_REACTORS
330
2798
102
}
330
2798
100
AcDbScale
 70
     0
300
1/2" = 1'-0"
140
0.5
141
12.0
290
     0
  0
SCALE
  5
27B4
102
{ACAD_REACTORS
330
2798
102
}
330
2798
100
AcDbScale
 70
     0
300
3/4" = 1'-0"
140
0.75
141
12.0
290
     0
  0
SCALE
  5
27B5
102
{ACAD_REACTORS
330
2798
102
}
330
2798
100
AcDbScale
 70
     0
300
1" = 1'-0"
140
1.0
141
12.0
290
     0
  0
SCALE
  5
27B6
102
{ACAD_REACTORS
330
2798
102
}
330
2798
100
AcDbScale
 70
     0
300
1-1/2" = 1'-0"
140
1.5
141
12.0
290
     0
  0
SCALE
  5
27B7
102
{ACAD_REACTORS
330
2798
102
}
330
2798
100
AcDbScale
 70
     0
300
3" = 1'-0"
140
3.0
141
12.0
290
     0
  0
SCALE
  5
27B8
102
{ACAD_REACTORS
330
2798
102
}
330
2798
100
AcDbScale
 70
     0
300
6" = 1'-0"
140
6.0
141
12.0
290
     0
  0
SCALE
  5
27B9
102
{ACAD_REACTORS
330
2798
102
}
330
2798
100
AcDbScale
 70
     0
300
1'-0" = 1'-0"
140
12.0
141
12.0
290
     0
  0
ACDBSECTIONVIEWSTYLE
  5
3832
102
{ACAD_XDICTIONARY
360
4C34
102
}
102
{ACAD_REACTORS
330
3831
102
}
330
3831
100
AcDbModelDocViewStyle
 70
     0
  3
Imperial24
290
     0
100
AcDbSectionViewStyle
 70
     0
 71
     0
 90
       78
 71
     1
340
16
 40
0.24
340
0
340
0
 40
0.24
300
I, O, Q, S, X, Z
 40
0.48
 90
        3
 40
0.18
 90
        1
 71
     2
340
8
 90
       25
340
8
 90
       50
 40
0.24
 40
0.0
 40
0.24
 71
     3
340
16
 40
0.24
 90
        1
 40
0.75
 90
        1
300
%<\AcVar ViewType \f "%tc1">% %<\AcVar ViewSectionStartId>%-%<\AcVar ViewSectionEndId>%\PSCALE %<\AcVar ViewScale \f "%sn">%
 71
     4
300
ANSI31
 40
1.0
 90
        0
290
     0
290
     0
 90
        6
 40
0.0
 40
1.5707963268
 40
0.2617993878
 40
1.308996939
 40
-0.2617993878
 40
1.8325957146
  0
TABLESTYLE
  5
2797
102
{ACAD_XDICTIONARY
360
2995
102
}
102
{ACAD_REACTORS
330
2796
102
}
330
2796
100
AcDbTableStyle
  3
Standard
 70
     0
 71
     0
 40
0.06
 41
0.06
280
     0
281
     0
  7
STANDARD
140
0.18
170
     2
 62
     0
 63
     7
283
     0
274
    -2
284
     1
 64
     0
275
    -2
285
     1
 65
     0
276
    -2
286
     1
 66
     0
277
    -2
287
     1
 67
     0
278
    -2
288
     1
 68
     0
279
    -2
289
     1
 69
     0
  7
STANDARD
140
0.25
170
     5
 62
     0
 63
     7
283
     0
274
    -2
284
     1
 64
     0
275
    -2
285
     1
 65
     0
276
    -2
286
     1
 66
     0
277
    -2
287
     1
 67
     0
278
    -2
288
     1
 68
     0
279
    -2
289
     1
 69
     0
  7
STANDARD
140
0.18
170
     5
 62
     0
 63
     7
283
     0
274
    -2
284
     1
 64
     0
275
    -2
285
     1
 65
     0
276
    -2
286
     1
 66
     0
277
    -2
287
     1
 67
     0
278
    -2
288
     1
 68
     0
279
    -2
289
     1
 69
     0
  0
VISUALSTYLE
  5
2787
102
{ACAD_XDICTIONARY
360
4BE9
102
}
102
{ACAD_REACTORS
330
2781
102
}
330
2781
100
AcDbVisualStyle
  2

 70
     4
 71
     0
 72
     2
 73
     0
 90
        0
 40
-0.6
 41
-30.0
 62
     5
 63
     7
 74
     1
 91
        4
 64
     7
 65
   257
 75
     1
175
     1
 42
1.0
 92
        0
 66
   257
 43
1.0
 76
     1
 77
     6
 78
     2
 67
     7
 79
     5
170
     0
171
     0
290
     0
174
     0
 93
        1
 44
0.0
173
     0
291
     0
 45
0.0
1001
ACAD
1000
AcDbSavedByObjectVersion
1070
     0
  0
VISUALSTYLE
  5
2789
102
{ACAD_XDICTIONARY
360
4BED
102
}
102
{ACAD_REACTORS
330
2781
102
}
330
2781
100
AcDbVisualStyle
  2

 70
     6
 71
     1
 72
     2
 73
     2
 90
        0
 40
-0.6
 41
-30.0
 62
     5
 63
     7
 74
     2
 91
        2
 64
     7
 65
   257
 75
     2
175
     1
 42
179.0
 92
        0
 66
   257
 43
1.0
 76
     1
 77
     6
 78
     2
 67
     7
 79
     3
170
     0
171
     0
290
     0
174
     0
 93
        1
 44
0.0
173
     0
291
     0
 45
0.0
1001
ACAD
1000
AcDbSavedByObjectVersion
1070
     0
  0
VISUALSTYLE
  5
2788
102
{ACAD_XDICTIONARY
360
4BEB
102
}
102
{ACAD_REACTORS
330
2781
102
}
330
2781
100
AcDbVisualStyle
  2

 70
     5
 71
     0
 72
     2
 73
     0
 90
        0
 40
-0.6
 41
-30.0
 62
     5
 63
     7
 74
     1
 91
        4
 64
     7
 65
   257
 75
     1
175
     1
 42
1.0
 92
        0
 66
   257
 43
1.0
 76
     1
 77
     6
 78
     2
 67
     7
 79
     5
170
     0
171
     0
290
     0
174
     0
 93
        1
 44
0.0
173
     0
291
     0
 45
0.0
1001
ACAD
1000
AcDbSavedByObjectVersion
1070
     0
  0
VISUALSTYLE
  5
2786
102
{ACAD_XDICTIONARY
360
4BE7
102
}
102
{ACAD_REACTORS
330
2781
102
}
330
2781
100
AcDbVisualStyle
  2

 70
     7
 71
     1
 72
     0
 73
     1
 90
        0
 40
-0.6
 41
-30.0
 62
     5
 63
     7
 74
     0
 91
        4
 64
     7
 65
   257
 75
     1
175
     1
 42
1.0
 92
        8
 66
     7
 43
1.0
 76
     1
 77
     6
 78
     2
 67
     7
 79
     5
170
     0
171
     0
290
     0
174
     0
 93
        1
 44
0.0
173
     0
291
     1
 45
0.0
1001
ACAD
1000
AcDbSavedByObjectVersion
1070
     0
  0
VISUALSTYLE
  5
278D
102
{ACAD_XDICTIONARY
360
4BF5
102
}
102
{ACAD_REACTORS
330
2781
102
}
330
2781
100
AcDbVisualStyle
  2

 70
    12
 71
     2
 72
     2
 73
     0
 90
        0
 40
-0.6
 41
-30.0
 62
     5
 63
     7
 74
     1
 91
        4
 64
     7
 65
   257
 75
     1
175
     1
 42
1.0
 92
        8
 66
     7
 43
1.0
 76
     1
 77
     6
 78
     2
 67
     7
 79
     5
170
     0
171
     0
290
     0
174
     0
 93
        1
 44
50.0
173
     0
291
     1
 45
0.0
1001
ACAD
1000
AcDbSavedByObjectVersion
1070
     0
  0
VISUALSTYLE
  5
2791
102
{ACAD_XDICTIONARY
360
4BFD
102
}
102
{ACAD_REACTORS
330
2781
102
}
330
2781
100
AcDbVisualStyle
  2

 70
    16
 71
     2
 72
     2
 73
     3
 90
        0
 40
-0.6
 41
-30.0
 62
     5
 63
     8
 74
     1
 91
        4
 64
     7
 65
   257
 75
     1
175
     1
 42
1.0
 92
        8
 66
     8
 43
1.0
 76
     1
 77
     6
 78
     2
 67
     7
 79
     5
170
     0
171
     0
290
     0
174
     0
 93
        1
 44
0.0
173
     0
291
     1
 45
0.0
1001
ACAD
1000
AcDbSavedByObjectVersion
1070
     0
  0
VISUALSTYLE
  5
278A
102
{ACAD_XDICTIONARY
360
4BEF
102
}
102
{ACAD_REACTORS
330
2781
102
}
330
2781
100
AcDbVisualStyle
  2

 70
     9
 71
     3
 72
     2
 73
     0
 90
        0
 40
-0.6
 41
-30.0
 62
     5
 63
     7
 74
     2
 91
        2
 64
     7
 65
   257
 75
     1
175
     1
 42
179.0
 92
        8
 66
     7
 43
1.0
 76
     1
 77
     6
 78
     2
 67
     7
 79
     3
170
     0
171
     0
290
     0
174
     0
 93
        1
 44
0.0
173
     0
291
     0
 45
0.0
1001
ACAD
1000
AcDbSavedByObjectVersion
1070
     0
  0
VISUALSTYLE
  5
278C
102
{ACAD_XDICTIONARY
360
4BF3
102
}
102
{ACAD_REACTORS
330
2781
102
}
330
2781
100
AcDbVisualStyle
  2

 70
    11
 71
     2
 72
     2
 73
     0
 90
        0
 40
-0.6
 41
-30.0
 62
     5
 63
     7
 74
     1
 91
        4
 64
     7
 65
   257
 75
     1
175
     1
 42
1.0
 92
        8
 66
     7
 43
1.0
 76
     1
 77
     6
 78
     2
 67
     7
 79
     5
170
     0
171
     0
290
     0
174
     0
 93
        1
 44
-50.0
173
     0
291
     1
 45
0.0
1001
ACAD
1000
AcDbSavedByObjectVersion
1070
     0
  0
VISUALSTYLE
  5
2794
102
{ACAD_XDICTIONARY
360
4C03
102
}
102
{ACAD_REACTORS
330
2781
102
}
330
2781
100
AcDbVisualStyle
  2

 70
    22
 71
     2
 72
     2
 73
     0
 90
        0
 40
-0.6
 41
-30.0
 62
     5
 63
     7
 74
     1
 91
        4
 64
     7
 65
   257
 75
     1
175
     1
 42
1.0
 92
        8
 66
     7
 43
1.0
 76
     1
 77
     6
 78
     2
 67
     7
 79
     5
170
     0
171
     0
290
     0
174
     0
 93
        1
 44
0.0
173
     0
291
     1
 45
0.0
1001
ACAD
1000
AcDbSavedByObjectVersion
1070
     0
  0
VISUALSTYLE
  5
2790
102
{ACAD_XDICTIONARY
360
4BFB
102
}
102
{ACAD_REACTORS
330
2781
102
}
330
2781
100
AcDbVisualStyle
  2

 70
    15
 71
     2
 72
     2
 73
     0
 90
        0
 40
-0.6
 41
-30.0
 62
     5
 63
     7
 74
     1
 91
        4
 64
     7
 65
   257
 75
     1
175
     1
 42
1.0
 92
        8
 66
     7
 43
1.0
 76
     1
 77
     6
 78
     2
 67
     7
 79
     5
170
     0
171
     0
290
     0
174
     0
 93
        1
 44
0.0
173
     0
291
     1
 45
0.0
1001
ACAD
1000
AcDbSavedByObjectVersion
1070
     0
  0
VISUALSTYLE
  5
2782
102
{ACAD_XDICTIONARY
360
4BDF
102
}
102
{ACAD_REACTORS
330
2781
102
}
330
2781
100
AcDbVisualStyle
  2

 70
     0
 71
     2
 72
     1
 73
     1
 90
        2
 40
-0.6
 41
30.0
 62
     5
 63
     7
 74
     0
 91
        4
 64
     7
 65
   257
 75
     1
175
     1
 42
1.0
 92
        8
 66
     7
 43
1.0
 76
     1
 77
     6
 78
     2
 67
     7
 79
     5
170
     0
171
     0
290
     0
174
     0
 93
       13
 44
0.0
173
     0
291
     1
 45
0.0
1001
ACAD
1000
AcDbSavedByObjectVersion
1070
     0
  0
VISUALSTYLE
  5
2783
102
{ACAD_XDICTIONARY
360
4BE1
102
}
102
{ACAD_REACTORS
330
2781
102
}
330
2781
100
AcDbVisualStyle
  2

 70
     1
 71
     2
 72
     1
 73
     1
 90
        2
 40
-0.6
 41
30.0
 62
     5
 63
     7
 74
     1
 91
        4
 64
     7
 65
   257
 75
     1
175
     1
 42
1.0
 92
        0
 66
   257
 43
1.0
 76
     1
 77
     6
 78
     2
 67
     7
 79
     5
170
     0
171
     0
290
     0
174
     0
 93
       13
 44
0.0
173
     0
291
     1
 45
0.0
1001
ACAD
1000
AcDbSavedByObjectVersion
1070
     0
  0
VISUALSTYLE
  5
2784
102
{ACAD_XDICTIONARY
360
4BE3
102
}
102
{ACAD_REACTORS
330
2781
102
}
330
2781
100
AcDbVisualStyle
  2

 70
     2
 71
     2
 72
     2
 73
     1
 90
        2
 40
-0.6
 41
30.0
 62
     5
 63
     7
 74
     0
 91
        4
 64
     7
 65
   257
 75
     1
175
     1
 42
1.0
 92
        0
 66
     7
 43
1.0
 76
     1
 77
     6
 78
     2
 67
     7
 79
     5
170
     0
171
     0
290
     0
174
     0
 93
       13
 44
0.0
173
     0
291
     1
 45
0.0
1001
ACAD
1000
AcDbSavedByObjectVersion
1070
     0
  0
VISUALSTYLE
  5
2785
102
{ACAD_XDICTIONARY
360
4BE5
102
}
102
{ACAD_REACTORS
330
2781
102
}
330
2781
100
AcDbVisualStyle
  2

 70
     3
 71
     2
 72
     2
 73
     1
 90
        2
 40
-0.6
 41
30.0
 62
     5
 63
     7
 74
     1
 91
        4
 64
     7
 65
   257
 75
     1
175
     1
 42
1.0
 92
        0
 66
   257
 43
1.0
 76
     1
 77
     6
 78
     2
 67
     7
 79
     5
170
     0
171
     0
290
     0
174
     0
 93
       13
 44
0.0
173
     0
291
     1
 45
0.0
1001
ACAD
1000
AcDbSavedByObjectVersion
1070
     0
  0
VISUALSTYLE
  5
382B
102
{ACAD_XDICTIONARY
360
4C28
102
}
102
{ACAD_REACTORS
330
2781
102
}
330
2781
100
AcDbVisualStyle
  2

 70
     6
 71
     1
 72
     2
 73
     2
 90
        0
 40
-0.6
 41
-30.0
 62
     5
 63
     7
 74
     2
 91
        2
 64
     7
 65
   257
 75
     2
175
     1
 42
40.0
 92
        0
 66
   257
 43
1.0
 76
     1
 77
     6
 78
     2
 67
     7
 79
     3
170
     0
171
     0
290
     0
174
     0
 93
        1
 44
0.0
173
     0
291
     0
 45
0.0
1001
ACAD
1000
AcDbSavedByObjectVersion
1070
     0
  0
VISUALSTYLE
  5
2792
102
{ACAD_XDICTIONARY
360
4BFF
102
}
102
{ACAD_REACTORS
330
2781
102
}
330
2781
100
AcDbVisualStyle
  2

 70
    20
 71
     2
 72
     2
 73
     0
 90
        0
 40
-0.6
 41
-30.0
 62
     5
 63
     7
 74
     1
 91
        4
 64
     7
 65
   257
 75
     1
175
     1
 42
1.0
 92
       10
 66
     7
 43
1.0
 76
     1
 77
     6
 78
     2
 67
     7
 79
     5
170
     0
171
     0
290
     0
174
     0
 93
        1
 44
0.0
173
     0
291
     1
 45
0.0
1001
ACAD
1000
AcDbSavedByObjectVersion
1070
     0
  0
VISUALSTYLE
  5
278F
102
{ACAD_XDICTIONARY
360
4BF9
102
}
102
{ACAD_REACTORS
330
2781
102
}
330
2781
100
AcDbVisualStyle
  2

 70
    14
 71
     2
 72
     2
 73
     0
 90
        0
 40
-0.6
 41
-30.0
 62
     5
 63
     7
 74
     1
 91
        4
 64
     7
 65
   257
 75
     7
175
     7
 42
1.0
 92
        8
 66
     7
 43
1.0
 76
     1
 77
     6
 78
     2
 67
     7
 79
     5
170
     0
171
     0
290
     0
174
     0
 93
        1
 44
0.0
173
     0
291
     1
 45
0.0
1001
ACAD
1000
AcDbSavedByObjectVersion
1070
     0
  0
VISUALSTYLE
  5
2793
102
{ACAD_XDICTIONARY
360
4C01
102
}
102
{ACAD_REACTORS
330
2781
102
}
330
2781
100
AcDbVisualStyle
  2

 70
    21
 71
     2
 72
     2
 73
     0
 90
        0
 40
-0.6
 41
-30.0
 62
     5
 63
     7
 74
     1
 91
        4
 64
     7
 65
   257
 75
     1
175
     1
 42
1.0
 92
        9
 66
     7
 43
1.0
 76
     1
 77
     6
 78
     2
 67
     7
 79
     5
170
     0
171
     0
290
     0
174
     0
 93
        1
 44
0.0
173
     0
291
     1
 45
0.0
1001
ACAD
1000
AcDbSavedByObjectVersion
1070
     0
  0
VISUALSTYLE
  5
278B
102
{ACAD_XDICTIONARY
360
4BF1
102
}
102
{ACAD_REACTORS
330
2781
102
}
330
2781
100
AcDbVisualStyle
  2

 70
     8
 71
     2
 72
     2
 73
     0
 90
        0
 40
-0.6
 41
-30.0
 62
     5
 63
     7
 74
     1
 91
        0
 64
     7
 65
   257
 75
     1
175
     1
 42
1.0
 92
        8
 66
     8
 43
1.0
 76
     1
 77
     6
 78
     2
 67
     7
 79
     5
170
     0
171
     0
290
     0
174
     0
 93
       13
 44
0.0
173
     0
291
     0
 45
0.0
1001
ACAD
1000
AcDbSavedByObjectVersion
1070
     0
  0
VISUALSTYLE
  5
3830
102
{ACAD_XDICTIONARY
360
4C32
102
}
102
{ACAD_REACTORS
330
2781
102
}
330
2781
100
AcDbVisualStyle
  2

 70
    27
 71
     2
 72
     2
 73
     1
 90
        2
 40
-0.6
 41
30.0
 62
     5
 63
     7
 74
     0
 91
        4
 64
     7
 65
   257
 75
     1
175
     1
 42
1.0
 92
        8
 66
   257
 43
1.0
 76
     1
 77
     6
 78
     2
 67
     8
 79
     3
170
     0
171
     0
290
     0
174
     0
 93
        5
 44
0.0
173
     0
291
     0
 45
0.0
1001
ACAD
1000
AcDbSavedByObjectVersion
1070
     0
  0
VISUALSTYLE
  5
382F
102
{ACAD_XDICTIONARY
360
4C30
102
}
102
{ACAD_REACTORS
330
2781
102
}
330
2781
100
AcDbVisualStyle
  2

 70
    26
 71
     2
 72
     2
 73
     1
 90
        2
 40
-0.6
 41
30.0
 62
     5
 63
     7
 74
     1
 91
        2
 64
     7
 65
   257
 75
     2
175
     1
 42
1.0
 92
        8
 66
   257
 43
1.0
 76
     1
 77
     6
 78
     2
 67
     7
 79
     3
170
     0
171
     0
290
     0
174
     0
 93
        5
 44
0.0
173
     0
291
     0
 45
0.0
1001
ACAD
1000
AcDbSavedByObjectVersion
1070
     0
  0
VISUALSTYLE
  5
382C
102
{ACAD_XDICTIONARY
360
4C2A
102
}
102
{ACAD_REACTORS
330
2781
102
}
330
2781
100
AcDbVisualStyle
  2

 70
    23
 71
     2
 72
     2
 73
     3
 90
        0
 40
-0.6
 41
-30.0
 62
     5
 63
     7
 74
     2
 91
        2
 64
     7
 65
     7
 75
     1
175
     1
 42
40.0
 92
        8
 66
     7
 43
1.0
 76
     1
 77
     6
 78
     2
 67
     7
 79
     3
170
     0
171
     0
290
     0
174
     0
 93
        1
 44
0.0
173
     0
291
     0
 45
0.0
1001
ACAD
1000
AcDbSavedByObjectVersion
1070
     0
  0
VISUALSTYLE
  5
382D
102
{ACAD_XDICTIONARY
360
4C2C
102
}
102
{ACAD_REACTORS
330
2781
102
}
330
2781
100
AcDbVisualStyle
  2

 70
    24
 71
     1
 72
     2
 73
     2
 90
        0
 40
-0.6
 41
-30.0
 62
     5
 63
     7
 74
     2
 91
        2
 64
     7
 65
     7
 75
     1
175
     1
 42
40.0
 92
       11
 66
     7
 43
1.0
 76
     1
 77
     6
 78
     2
 67
     7
 79
     6
170
     0
171
     0
290
     0
174
     0
 93
        1
 44
0.0
173
     0
291
     0
 45
0.0
1001
ACAD
1000
AcDbSavedByObjectVersion
1070
     0
  0
VISUALSTYLE
  5
278E
102
{ACAD_XDICTIONARY
360
4BF7
102
}
102
{ACAD_REACTORS
330
2781
102
}
330
2781
100
AcDbVisualStyle
  2

 70
    13
 71
     2
 72
     2
 73
     0
 90
        0
 40
-0.6
 41
-30.0
 62
     5
 63
     7
 74
     1
 91
        4
 64
     7
 65
   257
 75
     1
175
     1
 42
1.0
 92
       12
 66
     7
 43
1.0
 76
     1
 77
     6
 78
     2
 67
     7
 79
     5
170
     0
171
     0
290
     0
174
     0
 93
        1
 44
0.0
173
     0
291
     1
 45
0.0
1001
ACAD
1000
AcDbSavedByObjectVersion
1070
     0
  0
VISUALSTYLE
  5
382A
102
{ACAD_XDICTIONARY
360
4C26
102
}
102
{ACAD_REACTORS
330
2781
102
}
330
2781
100
AcDbVisualStyle
  2

 70
     5
 71
     0
 72
     2
 73
     0
 90
        0
 40
-0.6
 41
-30.0
 62
     5
 63
     7
 74
     1
 91
        4
 64
     7
 65
   257
 75
     1
175
     1
 42
1.0
 92
        0
 66
   257
 43
1.0
 76
     1
 77
     6
 78
     2
 67
     7
 79
     3
170
     0
171
     0
290
     0
174
     0
 93
        1
 44
0.0
173
     0
291
     0
 45
0.0
1001
ACAD
1000
AcDbSavedByObjectVersion
1070
     0
  0
VISUALSTYLE
  5
382E
102
{ACAD_XDICTIONARY
360
4C2E
102
}
102
{ACAD_REACTORS
330
2781
102
}
330
2781
100
AcDbVisualStyle
  2

 70
    25
 71
     2
 72
     2
 73
     1
 90
        1
 40
0.5
 41
-30.0
 62
     5
 63
     7
 74
     1
 91
        0
 64
     7
 65
   257
 75
     1
175
     1
 42
1.0
 92
        8
 66
     7
 43
1.0
 76
     1
 77
     6
 78
     2
 67
     7
 79
     3
170
     0
171
     0
290
     0
174
     0
 93
       13
 44
0.0
173
     0
291
     0
 45
0.0
1001
ACAD
1000
AcDbSavedByObjectVersion
1070
     0
  0
DICTIONARYVAR
  5
2A0A
102
{ACAD_REACTORS
330
102
102
}
330
102
100
DictionaryVariables
280
     0
  1
1:1
  0
DICTIONARYVAR
  5
2A09
102
{ACAD_REACTORS
330
102
102
}
330
102
100
DictionaryVariables
280
     0
  1
STANDARD
  0
DICTIONARYVAR
  5
2A08
102
{ACAD_REACTORS
330
102
102
}
330
102
100
DictionaryVariables
280
     0
  1
STANDARD
  0
DICTIONARYVAR
  5
3F62
102
{ACAD_REACTORS
330
102
102
}
330
102
100
DictionaryVariables
280
     0
  1
Imperial24
  0
DICTIONARYVAR
  5
3F63
102
{ACAD_REACTORS
330
102
102
}
330
102
100
DictionaryVariables
280
     0
  1
Imperial24
  0
DICTIONARYVAR
  5
103
102
{ACAD_REACTORS
330
102
102
}
330
102
100
DictionaryVariables
280
     0
  1
1
  0
DICTIONARYVAR
  5
2A0C
102
{ACAD_REACTORS
330
102
102
}
330
102
100
DictionaryVariables
280
     0
  1
0
  0
DICTIONARYVAR
  5
42CA
102
{ACAD_REACTORS
330
102
102
}
330
102
100
DictionaryVariables
280
     0
  1
1
  0
DICTIONARYVAR
  5
42CB
102
{ACAD_REACTORS
330
102
102
}
330
102
100
DictionaryVariables
280
     0
  1
15
  0
DICTIONARYVAR
  5
42C9
102
{ACAD_REACTORS
330
102
102
}
330
102
100
DictionaryVariables
280
     0
  1
0
  0
DICTIONARYVAR
  5
42C8
102
{ACAD_REACTORS
330
102
102
}
330
102
100
DictionaryVariables
280
     0
  1
0
  0
DICTIONARYVAR
  5
2A0B
102
{ACAD_REACTORS
330
102
102
}
330
102
100
DictionaryVariables
280
     0
  1
127
  0
DICTIONARYVAR
  5
4BD6
102
{ACAD_REACTORS
330
102
102
}
330
102
100
DictionaryVariables
280
     0
  1
2
  0
DICTIONARY
  5
4C36
330
3834
100
AcDbDictionary
280
     1
281
     1
  3
ACAD_XREC_ROUNDTRIP
360
4C37
  0
DICTIONARY
  5
4BDA
330
60
100
AcDbDictionary
280
     1
281
     1
  3
ACAD_XREC_ROUNDTRIP
360
4BDB
  0
DICTIONARY
  5
4C40
330
4BD2
100
AcDbDictionary
280
     1
281
     1
  3
ACAD_XREC_ROUNDTRIP
360
4C41
  0
DICTIONARY
  5
2772
330
2771
100
AcDbDictionary
280
     1
281
     1
  3
ACAD_XREC_ROUNDTRIP
360
4BDD
  3
BUMPTILE
360
2774
  3
DIFFUSETILE
360
2773
  3
OPACITYTILE
360
2777
  3
REFLECTIONTILE
360
2776
  3
REFRACTIONTILE
360
2778
  3
SPECULARTILE
360
2775
  0
DICTIONARY
  5
276A
330
2769
100
AcDbDictionary
280
     1
281
     1
  3
ACAD_XREC_ROUNDTRIP
360
4BDC
  3
BUMPTILE
360
276C
  3
DIFFUSETILE
360
276B
  3
OPACITYTILE
360
276F
  3
REFLECTIONTILE
360
276E
  3
REFRACTIONTILE
360
2770
  3
SPECULARTILE
360
276D
  0
DICTIONARY
  5
277A
330
2779
100
AcDbDictionary
280
     1
281
     1
  3
ACAD_XREC_ROUNDTRIP
360
4BDE
  3
BUMPTILE
360
277C
  3
DIFFUSETILE
360
277B
  3
OPACITYTILE
360
277F
  3
REFLECTIONTILE
360
277E
  3
REFRACTIONTILE
360
2780
  3
SPECULARTILE
360
277D
  0
DICTIONARY
  5
4C34
330
3832
100
AcDbDictionary
280
     1
281
     1
  3
ACAD_XREC_ROUNDTRIP
360
4C35
  0
DICTIONARY
  5
2995
330
2797
100
AcDbDictionary
280
     1
281
     1
  3
ACAD_ROUNDTRIP_2008_TABLESTYLE_CELLSTYLEMAP
360
4BD7
  3
ACAD_XREC_ROUNDTRIP
360
4C05
  0
DICTIONARY
  5
4BE9
330
2787
100
AcDbDictionary
280
     1
281
     1
  3
ACAD_XREC_ROUNDTRIP
360
4BEA
  0
DICTIONARY
  5
4BED
330
2789
100
AcDbDictionary
280
     1
281
     1
  3
ACAD_XREC_ROUNDTRIP
360
4BEE
  0
DICTIONARY
  5
4BEB
330
2788
100
AcDbDictionary
280
     1
281
     1
  3
ACAD_XREC_ROUNDTRIP
360
4BEC
  0
DICTIONARY
  5
4BE7
330
2786
100
AcDbDictionary
280
     1
281
     1
  3
ACAD_XREC_ROUNDTRIP
360
4BE8
  0
DICTIONARY
  5
4BF5
330
278D
100
AcDbDictionary
280
     1
281
     1
  3
ACAD_XREC_ROUNDTRIP
360
4BF6
  0
DICTIONARY
  5
4BFD
330
2791
100
AcDbDictionary
280
     1
281
     1
  3
ACAD_XREC_ROUNDTRIP
360
4BFE
  0
DICTIONARY
  5
4BEF
330
278A
100
AcDbDictionary
280
     1
281
     1
  3
ACAD_XREC_ROUNDTRIP
360
4BF0
  0
DICTIONARY
  5
4BF3
330
278C
100
AcDbDictionary
280
     1
281
     1
  3
ACAD_XREC_ROUNDTRIP
360
4BF4
  0
DICTIONARY
  5
4C03
330
2794
100
AcDbDictionary
280
     1
281
     1
  3
ACAD_XREC_ROUNDTRIP
360
4C04
  0
DICTIONARY
  5
4BFB
330
2790
100
AcDbDictionary
280
     1
281
     1
  3
ACAD_XREC_ROUNDTRIP
360
4BFC
  0
DICTIONARY
  5
4BDF
330
2782
100
AcDbDictionary
280
     1
281
     1
  3
ACAD_XREC_ROUNDTRIP
360
4BE0
  0
DICTIONARY
  5
4BE1
330
2783
100
AcDbDictionary
280
     1
281
     1
  3
ACAD_XREC_ROUNDTRIP
360
4BE2
  0
DICTIONARY
  5
4BE3
330
2784
100
AcDbDictionary
280
     1
281
     1
  3
ACAD_XREC_ROUNDTRIP
360
4BE4
  0
DICTIONARY
  5
4BE5
330
2785
100
AcDbDictionary
280
     1
281
     1
  3
ACAD_XREC_ROUNDTRIP
360
4BE6
  0
DICTIONARY
  5
4C28
330
382B
100
AcDbDictionary
280
     1
281
     1
  3
ACAD_XREC_ROUNDTRIP
360
4C29
  0
DICTIONARY
  5
4BFF
330
2792
100
AcDbDictionary
280
     1
281
     1
  3
ACAD_XREC_ROUNDTRIP
360
4C00
  0
DICTIONARY
  5
4BF9
330
278F
100
AcDbDictionary
280
     1
281
     1
  3
ACAD_XREC_ROUNDTRIP
360
4BFA
  0
DICTIONARY
  5
4C01
330
2793
100
AcDbDictionary
280
     1
281
     1
  3
ACAD_XREC_ROUNDTRIP
360
4C02
  0
DICTIONARY
  5
4BF1
330
278B
100
AcDbDictionary
280
     1
281
     1
  3
ACAD_XREC_ROUNDTRIP
360
4BF2
  0
DICTIONARY
  5
4C32
330
3830
100
AcDbDictionary
280
     1
281
     1
  3
ACAD_XREC_ROUNDTRIP
360
4C33
  0
DICTIONARY
  5
4C30
330
382F
100
AcDbDictionary
280
     1
281
     1
  3
ACAD_XREC_ROUNDTRIP
360
4C31
  0
DICTIONARY
  5
4C2A
330
382C
100
AcDbDictionary
280
     1
281
     1
  3
ACAD_XREC_ROUNDTRIP
360
4C2B
  0
DICTIONARY
  5
4C2C
330
382D
100
AcDbDictionary
280
     1
281
     1
  3
ACAD_XREC_ROUNDTRIP
360
4C2D
  0
DICTIONARY
  5
4BF7
330
278E
100
AcDbDictionary
280
     1
281
     1
  3
ACAD_XREC_ROUNDTRIP
360
4BF8
  0
DICTIONARY
  5
4C26
330
382A
100
AcDbDictionary
280
     1
281
     1
  3
ACAD_XREC_ROUNDTRIP
360
4C27
  0
DICTIONARY
  5
4C2E
330
382E
100
AcDbDictionary
280
     1
281
     1
  3
ACAD_XREC_ROUNDTRIP
360
4C2F
  0
XRECORD
  5
4C37
102
{ACAD_REACTORS
330
4C36
102
}
330
4C36
100
AcDbXrecord
280
     1
102
DISPLAYNAME
  1
Imperial24
102
FLAGS
 90
        0
  0
XRECORD
  5
4BDB
102
{ACAD_REACTORS
330
4BDA
102
}
330
4BDA
100
AcDbXrecord
280
     1
102
SHADEPLOT
 70
     0
102
SHADEPLOTRESLEVEL
 70
     2
102
SHADEPLOTCUSTOMDPI
 70
   300
  0
XRECORD
  5
4C41
102
{ACAD_REACTORS
330
4C40
102
}
330
4C40
100
AcDbXrecord
280
     1
102
SHADEPLOT
 70
     0
102
SHADEPLOTRESLEVEL
 70
     2
102
SHADEPLOTCUSTOMDPI
 70
   300
  0
XRECORD
  5
4BDD
102
{ACAD_REACTORS
330
2772
102
}
330
2772
100
AcDbXrecord
280
     1
102
MATERIAL
148
0.0
149
0.0
149
0.0
 93
        0
 94
      127
282
     0
 72
     0
 77
     0
171
     0
175
     0
179
     0
273
     0
  0
XRECORD
  5
2774
102
{ACAD_REACTORS
330
2772
102
}
330
2772
100
AcDbXrecord
280
     1
270
     1
271
     1
  0
XRECORD
  5
2773
102
{ACAD_REACTORS
330
2772
102
}
330
2772
100
AcDbXrecord
280
     1
270
     1
271
     1
  0
XRECORD
  5
2777
102
{ACAD_REACTORS
330
2772
102
}
330
2772
100
AcDbXrecord
280
     1
270
     1
271
     1
  0
XRECORD
  5
2776
102
{ACAD_REACTORS
330
2772
102
}
330
2772
100
AcDbXrecord
280
     1
270
     1
271
     1
  0
XRECORD
  5
2778
102
{ACAD_REACTORS
330
2772
102
}
330
2772
100
AcDbXrecord
280
     1
270
     1
271
     1
  0
XRECORD
  5
2775
102
{ACAD_REACTORS
330
2772
102
}
330
2772
100
AcDbXrecord
280
     1
270
     1
271
     1
  0
XRECORD
  5
4BDC
102
{ACAD_REACTORS
330
276A
102
}
330
276A
100
AcDbXrecord
280
     1
102
MATERIAL
148
0.0
149
0.0
149
0.0
 93
        0
 94
      127
282
     0
 72
     0
 77
     0
171
     0
175
     0
179
     0
273
     0
  0
XRECORD
  5
276C
102
{ACAD_REACTORS
330
276A
102
}
330
276A
100
AcDbXrecord
280
     1
270
     1
271
     1
  0
XRECORD
  5
276B
102
{ACAD_REACTORS
330
276A
102
}
330
276A
100
AcDbXrecord
280
     1
270
     1
271
     1
  0
XRECORD
  5
276F
102
{ACAD_REACTORS
330
276A
102
}
330
276A
100
AcDbXrecord
280
     1
270
     1
271
     1
  0
XRECORD
  5
276E
102
{ACAD_REACTORS
330
276A
102
}
330
276A
100
AcDbXrecord
280
     1
270
     1
271
     1
  0
XRECORD
  5
2770
102
{ACAD_REACTORS
330
276A
102
}
330
276A
100
AcDbXrecord
280
     1
270
     1
271
     1
  0
XRECORD
  5
276D
102
{ACAD_REACTORS
330
276A
102
}
330
276A
100
AcDbXrecord
280
     1
270
     1
271
     1
  0
XRECORD
  5
4BDE
102
{ACAD_REACTORS
330
277A
102
}
330
277A
100
AcDbXrecord
280
     1
102
MATERIAL
148
0.0
149
0.0
149
0.0
 93
        0
 94
      127
282
     0
 72
     0
 77
     0
171
     0
175
     0
179
     0
273
     0
  0
XRECORD
  5
277C
102
{ACAD_REACTORS
330
277A
102
}
330
277A
100
AcDbXrecord
280
     1
270
     1
271
     1
  0
XRECORD
  5
277B
102
{ACAD_REACTORS
330
277A
102
}
330
277A
100
AcDbXrecord
280
     1
270
     1
271
     1
  0
XRECORD
  5
277F
102
{ACAD_REACTORS
330
277A
102
}
330
277A
100
AcDbXrecord
280
     1
270
     1
271
     1
  0
XRECORD
  5
277E
102
{ACAD_REACTORS
330
277A
102
}
330
277A
100
AcDbXrecord
280
     1
270
     1
271
     1
  0
XRECORD
  5
2780
102
{ACAD_REACTORS
330
277A
102
}
330
277A
100
AcDbXrecord
280
     1
270
     1
271
     1
  0
XRECORD
  5
277D
102
{ACAD_REACTORS
330
277A
102
}
330
277A
100
AcDbXrecord
280
     1
270
     1
271
     1
  0
XRECORD
  5
4C35
102
{ACAD_REACTORS
330
4C34
102
}
330
4C34
100
AcDbXrecord
280
     1
102
DISPLAYNAME
  1
Imperial24
102
FLAGS
 90
        0
  0
CELLSTYLEMAP
  5
4BD7
102
{ACAD_REACTORS
330
2995
102
}
330
2995
100
AcDbCellStyleMap
 90
        3
300
CELLSTYLE
  1
TABLEFORMAT_BEGIN
 90
        5
170
     1
 91
        0
 92
    32768
 62
   257
 93
        1
300
CONTENTFORMAT
  1
CONTENTFORMAT_BEGIN
 90
        0
 91
        0
 92
      512
 93
        0
300

 40
0.0
140
1.0
 94
        5
 62
     0
340
16
144
0.25
309
CONTENTFORMAT_END
171
     1
301
MARGIN
  1
CELLMARGIN_BEGIN
 40
0.06
 40
0.06
 40
0.06
 40
0.06
 40
0.18
 40
0.18
309
CELLMARGIN_END
 94
        6
 95
        1
302
GRIDFORMAT
  1
GRIDFORMAT_BEGIN
 90
        0
 91
        1
 62
     0
 92
       -2
340
0
 93
        0
 40
0.045
309
GRIDFORMAT_END
 95
        2
302
GRIDFORMAT
  1
GRIDFORMAT_BEGIN
 90
        0
 91
        1
 62
     0
 92
       -2
340
0
 93
        0
 40
0.045
309
GRIDFORMAT_END
 95
        4
302
GRIDFORMAT
  1
GRIDFORMAT_BEGIN
 90
        0
 91
        1
 62
     0
 92
       -2
340
0
 93
        0
 40
0.045
309
GRIDFORMAT_END
 95
        8
302
GRIDFORMAT
  1
GRIDFORMAT_BEGIN
 90
        0
 91
        1
 62
     0
 92
       -2
340
0
 93
        0
 40
0.045
309
GRIDFORMAT_END
 95
       16
302
GRIDFORMAT
  1
GRIDFORMAT_BEGIN
 90
        0
 91
        1
 62
     0
 92
       -2
340
0
 93
        0
 40
0.045
309
GRIDFORMAT_END
 95
       32
302
GRIDFORMAT
  1
GRIDFORMAT_BEGIN
 90
        0
 91
        1
 62
     0
 92
       -2
340
0
 93
        0
 40
0.045
309
GRIDFORMAT_END
309
TABLEFORMAT_END
  1
CELLSTYLE_BEGIN
 90
        1
 91
        1
300
_TITLE
309
CELLSTYLE_END
300
CELLSTYLE
  1
TABLEFORMAT_BEGIN
 90
        5
170
     1
 91
        0
 92
        0
 62
   257
 93
        1
300
CONTENTFORMAT
  1
CONTENTFORMAT_BEGIN
 90
        0
 91
        0
 92
      512
 93
        0
300

 40
0.0
140
1.0
 94
        5
 62
     0
340
16
144
0.18
309
CONTENTFORMAT_END
171
     1
301
MARGIN
  1
CELLMARGIN_BEGIN
 40
0.06
 40
0.06
 40
0.06
 40
0.06
 40
0.18
 40
0.18
309
CELLMARGIN_END
 94
        6
 95
        1
302
GRIDFORMAT
  1
GRIDFORMAT_BEGIN
 90
        0
 91
        1
 62
     0
 92
       -2
340
0
 93
        0
 40
0.045
309
GRIDFORMAT_END
 95
        2
302
GRIDFORMAT
  1
GRIDFORMAT_BEGIN
 90
        0
 91
        1
 62
     0
 92
       -2
340
0
 93
        0
 40
0.045
309
GRIDFORMAT_END
 95
        4
302
GRIDFORMAT
  1
GRIDFORMAT_BEGIN
 90
        0
 91
        1
 62
     0
 92
       -2
340
0
 93
        0
 40
0.045
309
GRIDFORMAT_END
 95
        8
302
GRIDFORMAT
  1
GRIDFORMAT_BEGIN
 90
        0
 91
        1
 62
     0
 92
       -2
340
0
 93
        0
 40
0.045
309
GRIDFORMAT_END
 95
       16
302
GRIDFORMAT
  1
GRIDFORMAT_BEGIN
 90
        0
 91
        1
 62
     0
 92
       -2
340
0
 93
        0
 40
0.045
309
GRIDFORMAT_END
 95
       32
302
GRIDFORMAT
  1
GRIDFORMAT_BEGIN
 90
        0
 91
        1
 62
     0
 92
       -2
340
0
 93
        0
 40
0.045
309
GRIDFORMAT_END
309
TABLEFORMAT_END
  1
CELLSTYLE_BEGIN
 90
        2
 91
        1
300
_HEADER
309
CELLSTYLE_END
300
CELLSTYLE
  1
TABLEFORMAT_BEGIN
 90
        5
170
     1
 91
        0
 92
        0
 62
   257
 93
        1
300
CONTENTFORMAT
  1
CONTENTFORMAT_BEGIN
 90
        0
 91
        0
 92
      512
 93
        0
300

 40
0.0
140
1.0
 94
        2
 62
     0
340
16
144
0.18
309
CONTENTFORMAT_END
171
     1
301
MARGIN
  1
CELLMARGIN_BEGIN
 40
0.06
 40
0.06
 40
0.06
 40
0.06
 40
0.18
 40
0.18
309
CELLMARGIN_END
 94
        6
 95
        1
302
GRIDFORMAT
  1
GRIDFORMAT_BEGIN
 90
        0
 91
        1
 62
     0
 92
       -2
340
0
 93
        0
 40
0.045
309
GRIDFORMAT_END
 95
        2
302
GRIDFORMAT
  1
GRIDFORMAT_BEGIN
 90
        0
 91
        1
 62
     0
 92
       -2
340
0
 93
        0
 40
0.045
309
GRIDFORMAT_END
 95
        4
302
GRIDFORMAT
  1
GRIDFORMAT_BEGIN
 90
        0
 91
        1
 62
     0
 92
       -2
340
0
 93
        0
 40
0.045
309
GRIDFORMAT_END
 95
        8
302
GRIDFORMAT
  1
GRIDFORMAT_BEGIN
 90
        0
 91
        1
 62
     0
 92
       -2
340
0
 93
        0
 40
0.045
309
GRIDFORMAT_END
 95
       16
302
GRIDFORMAT
  1
GRIDFORMAT_BEGIN
 90
        0
 91
        1
 62
     0
 92
       -2
340
0
 93
        0
 40
0.045
309
GRIDFORMAT_END
 95
       32
302
GRIDFORMAT
  1
GRIDFORMAT_BEGIN
 90
        0
 91
        1
 62
     0
 92
       -2
340
0
 93
        0
 40
0.045
309
GRIDFORMAT_END
309
TABLEFORMAT_END
  1
CELLSTYLE_BEGIN
 90
        3
 91
        2
300
_DATA
309
CELLSTYLE_END
  0
XRECORD
  5
4C05
102
{ACAD_REACTORS
330
2995
102
}
330
2995
100
AcDbXrecord
280
     1
102
ACAD_ROUNDTRIP_PRE2007_TABLESTYLE
 90
      512
 91
        0
  1

 92
      512
 93
        0
  2

 94
      512
 95
        0
  3

  0
XRECORD
  5
4BEA
102
{ACAD_REACTORS
330
4BE9
102
}
330
4BE9
100
AcDbXrecord
280
     1
102
RTVSPost2010Prop28
280
     1
102
RTVSPost2010PropOp28
 70
     1
102
RTVSPost2010Prop29
280
     1
102
RTVSPost2010PropOp29
 70
     1
102
RTVSPost2010Prop30
280
     0
102
RTVSPost2010PropOp30
 70
     1
102
RTVSPost2010Prop31
280
     0
102
RTVSPost2010PropOp31
 70
     1
102
RTVSPost2010Prop32
280
     0
102
RTVSPost2010PropOp32
 70
     1
102
RTVSPost2010Prop33
280
     0
102
RTVSPost2010PropOp33
 70
     1
102
RTVSPost2010Prop34
280
     0
102
RTVSPost2010PropOp34
 70
     1
102
RTVSPost2010Prop35
280
     0
102
RTVSPost2010PropOp35
 70
     1
102
RTVSPost2010Prop36
280
     0
102
RTVSPost2010PropOp36
 70
     1
102
RTVSPost2010Prop37
 90
       50
102
RTVSPost2010PropOp37
 70
     1
102
RTVSPost2010Prop38
140
0.0
102
RTVSPost2010PropOp38
 70
     1
102
RTVSPost2010Prop39
140
1.0
102
RTVSPost2010PropOp39
 70
     1
102
RTVSPost2010Prop40
 90
        0
102
RTVSPost2010PropOp40
 70
     1
102
RTVSPost2010Prop41ColorIndex
 90
       18
102
RTVSPost2010Prop41ColorRGB
 90
        0
102
RTVSPost2010PropOp41
 70
     1
102
RTVSPost2010Prop42
 90
       50
102
RTVSPost2010PropOp42
 70
     1
102
RTVSPost2010Prop43
 90
        3
102
RTVSPost2010PropOp43
 70
     1
102
RTVSPost2010Prop44ColorIndex
 90
        5
102
RTVSPost2010Prop44ColorRGB
 90
      255
102
RTVSPost2010PropOp44
 70
     1
102
RTVSPost2010Prop45
280
     0
102
RTVSPost2010PropOp45
 70
     1
102
RTVSPost2010Prop46
 90
       50
102
RTVSPost2010PropOp46
 70
     1
102
RTVSPost2010Prop47
 90
       50
102
RTVSPost2010PropOp47
 70
     1
102
RTVSPost2010Prop48
 90
       50
102
RTVSPost2010PropOp48
 70
     1
102
RTVSPost2010Prop49
280
     0
102
RTVSPost2010PropOp49
 70
     1
102
RTVSPost2010Prop50
 90
       50
102
RTVSPost2010PropOp50
 70
     1
102
RTVSPost2010Prop51ColorIndex
 90
      256
102
RTVSPost2010Prop51ColorRGB
 90
-16777216
102
RTVSPost2010PropOp51
 70
     0
102
RTVSPost2010Prop52
140
1.0
102
RTVSPost2010PropOp52
 70
     0
102
RTVSPost2010Prop53
 90
        2
102
RTVSPost2010PropOp53
 70
     1
102
RTVSPost2010Prop54
  1
strokes_ogs.tif
102
RTVSPost2010PropOp54
 70
     1
102
RTVSPost2010Prop55
280
     0
102
RTVSPost2010PropOp55
 70
     1
102
RTVSPost2010Prop56
140
1.0
102
RTVSPost2010PropOp56
 70
     1
102
RTVSPost2010Prop57
140
1.0
102
RTVSPost2010PropOp57
 70
     1
102
RTVSPropertyOp0
 70
     1
102
RTVSPropertyOp1
 70
     1
102
RTVSPropertyOp2
 70
     1
102
RTVSPropertyOp3
 70
     1
102
RTVSPropertyOp4
 70
     1
102
RTVSPropertyOp5
 70
     1
102
RTVSPropertyOp6
 70
     1
102
RTVSPropertyOp7
 70
     1
102
RTVSPropertyOp8
 70
     1
102
RTVSPropertyOp9
 70
     1
102
RTVSPropertyOp10
 70
     1
102
RTVSPropertyOp11
 70
     1
102
RTVSPropertyOp12
 70
     1
102
RTVSPropertyOp13
 70
     1
102
RTVSPropertyOp14
 70
     1
102
RTVSPropertyOp15
 70
     1
102
RTVSPropertyOp16
 70
     1
102
RTVSPropertyOp17
 70
     1
102
RTVSPropertyOp18
 70
     1
102
RTVSPropertyOp19
 70
     1
102
RTVSPropertyOp20
 70
     1
102
RTVSPropertyOp21
 70
     1
102
RTVSPropertyOp22
 70
     1
102
RTVSPropertyOp23
 70
     1
102
RTVSPropertyOp24
 70
     1
102
RTVSPropertyOp25
 70
     1
102
RTVSPropertyOp26
 70
     1
102
RTVSPropertyOp27
 70
     1
102
RTVSPropertyOp28
 70
     1
102
RTVSPropertyOp29
 70
     1
102
RTVSPropertyOp30
 70
     1
102
RTVSPropertyOp31
 70
     1
102
RTVSPropertyOp32
 70
     1
102
RTVSPropertyOp33
 70
     1
102
RTVSPropertyOp34
 70
     1
102
RTVSPropertyOp35
 70
     1
102
RTVSPropertyOp36
 70
     1
102
RTVSPropertyOp37
 70
     1
102
RTVSPropertyOp38
 70
     1
102
RTVSPropertyOp39
 70
     1
102
RTVSPropertyOp40
 70
     1
102
RTVSPropertyOp41
 70
     1
102
RTVSPropertyOp42
 70
     1
102
RTVSPropertyOp43
 70
     1
102
RTVSPropertyOp44
 70
     1
102
RTVSPropertyOp45
 70
     1
102
RTVSPropertyOp46
 70
     1
102
RTVSPropertyOp47
 70
     1
102
RTVSPropertyOp48
 70
     1
102
RTVSPropertyOp49
 70
     1
102
RTVSPropertyOp50
 70
     1
102
RTVSPropertyOp51
 70
     0
102
RTVSPropertyOp52
 70
     0
102
RTVSPropertyOp53
 70
     1
102
RTVSPropertyOp54
 70
     1
102
RTVSPropertyOp55
 70
     1
102
RTVSPropertyOp56
 70
     1
102
RTVSPropertyOp57
 70
     1
102
RTVSPropertyOp58
 70
     1
102
RTVSPropertyOp59
 70
     1
102
RTVSPropertyOp60
 70
     1
102
RTVSPropertyOp61
 70
     1
102
RTVSPropertyOp62
 70
     1
  0
XRECORD
  5
4BEE
102
{ACAD_REACTORS
330
4BED
102
}
330
4BED
100
AcDbXrecord
280
     1
102
RTVSPost2010Prop28
280
     0
102
RTVSPost2010PropOp28
 70
     1
102
RTVSPost2010Prop29
280
     1
102
RTVSPost2010PropOp29
 70
     1
102
RTVSPost2010Prop30
280
     1
102
RTVSPost2010PropOp30
 70
     1
102
RTVSPost2010Prop31
280
     0
102
RTVSPost2010PropOp31
 70
     1
102
RTVSPost2010Prop32
280
     0
102
RTVSPost2010PropOp32
 70
     1
102
RTVSPost2010Prop33
280
     0
102
RTVSPost2010PropOp33
 70
     1
102
RTVSPost2010Prop34
280
     0
102
RTVSPost2010PropOp34
 70
     1
102
RTVSPost2010Prop35
280
     0
102
RTVSPost2010PropOp35
 70
     1
102
RTVSPost2010Prop36
280
     0
102
RTVSPost2010PropOp36
 70
     1
102
RTVSPost2010Prop37
 90
       50
102
RTVSPost2010PropOp37
 70
     1
102
RTVSPost2010Prop38
140
0.0
102
RTVSPost2010PropOp38
 70
     1
102
RTVSPost2010Prop39
140
1.0
102
RTVSPost2010PropOp39
 70
     1
102
RTVSPost2010Prop40
 90
        0
102
RTVSPost2010PropOp40
 70
     1
102
RTVSPost2010Prop41ColorIndex
 90
       18
102
RTVSPost2010Prop41ColorRGB
 90
        0
102
RTVSPost2010PropOp41
 70
     1
102
RTVSPost2010Prop42
 90
       50
102
RTVSPost2010PropOp42
 70
     1
102
RTVSPost2010Prop43
 90
        3
102
RTVSPost2010PropOp43
 70
     1
102
RTVSPost2010Prop44ColorIndex
 90
        5
102
RTVSPost2010Prop44ColorRGB
 90
      255
102
RTVSPost2010PropOp44
 70
     1
102
RTVSPost2010Prop45
280
     0
102
RTVSPost2010PropOp45
 70
     1
102
RTVSPost2010Prop46
 90
       50
102
RTVSPost2010PropOp46
 70
     1
102
RTVSPost2010Prop47
 90
       50
102
RTVSPost2010PropOp47
 70
     1
102
RTVSPost2010Prop48
 90
       50
102
RTVSPost2010PropOp48
 70
     1
102
RTVSPost2010Prop49
280
     0
102
RTVSPost2010PropOp49
 70
     1
102
RTVSPost2010Prop50
 90
       50
102
RTVSPost2010PropOp50
 70
     1
102
RTVSPost2010Prop51ColorIndex
 90
      256
102
RTVSPost2010Prop51ColorRGB
 90
-16777216
102
RTVSPost2010PropOp51
 70
     0
102
RTVSPost2010Prop52
140
1.0
102
RTVSPost2010PropOp52
 70
     0
102
RTVSPost2010Prop53
 90
        2
102
RTVSPost2010PropOp53
 70
     1
102
RTVSPost2010Prop54
  1
strokes_ogs.tif
102
RTVSPost2010PropOp54
 70
     1
102
RTVSPost2010Prop55
280
     0
102
RTVSPost2010PropOp55
 70
     1
102
RTVSPost2010Prop56
140
1.0
102
RTVSPost2010PropOp56
 70
     1
102
RTVSPost2010Prop57
140
1.0
102
RTVSPost2010PropOp57
 70
     1
102
RTVSPropertyOp0
 70
     1
102
RTVSPropertyOp1
 70
     1
102
RTVSPropertyOp2
 70
     1
102
RTVSPropertyOp3
 70
     1
102
RTVSPropertyOp4
 70
     1
102
RTVSPropertyOp5
 70
     1
102
RTVSPropertyOp6
 70
     1
102
RTVSPropertyOp7
 70
     1
102
RTVSPropertyOp8
 70
     1
102
RTVSPropertyOp9
 70
     1
102
RTVSPropertyOp10
 70
     1
102
RTVSPropertyOp11
 70
     1
102
RTVSPropertyOp12
 70
     1
102
RTVSPropertyOp13
 70
     1
102
RTVSPropertyOp14
 70
     1
102
RTVSPropertyOp15
 70
     1
102
RTVSPropertyOp16
 70
     1
102
RTVSPropertyOp17
 70
     1
102
RTVSPropertyOp18
 70
     1
102
RTVSPropertyOp19
 70
     1
102
RTVSPropertyOp20
 70
     1
102
RTVSPropertyOp21
 70
     1
102
RTVSPropertyOp22
 70
     1
102
RTVSPropertyOp23
 70
     1
102
RTVSPropertyOp24
 70
     1
102
RTVSPropertyOp25
 70
     1
102
RTVSPropertyOp26
 70
     1
102
RTVSPropertyOp27
 70
     1
102
RTVSPropertyOp28
 70
     1
102
RTVSPropertyOp29
 70
     1
102
RTVSPropertyOp30
 70
     1
102
RTVSPropertyOp31
 70
     1
102
RTVSPropertyOp32
 70
     1
102
RTVSPropertyOp33
 70
     1
102
RTVSPropertyOp34
 70
     1
102
RTVSPropertyOp35
 70
     1
102
RTVSPropertyOp36
 70
     1
102
RTVSPropertyOp37
 70
     1
102
RTVSPropertyOp38
 70
     1
102
RTVSPropertyOp39
 70
     1
102
RTVSPropertyOp40
 70
     1
102
RTVSPropertyOp41
 70
     1
102
RTVSPropertyOp42
 70
     1
102
RTVSPropertyOp43
 70
     1
102
RTVSPropertyOp44
 70
     1
102
RTVSPropertyOp45
 70
     1
102
RTVSPropertyOp46
 70
     1
102
RTVSPropertyOp47
 70
     1
102
RTVSPropertyOp48
 70
     1
102
RTVSPropertyOp49
 70
     1
102
RTVSPropertyOp50
 70
     1
102
RTVSPropertyOp51
 70
     0
102
RTVSPropertyOp52
 70
     0
102
RTVSPropertyOp53
 70
     1
102
RTVSPropertyOp54
 70
     1
102
RTVSPropertyOp55
 70
     1
102
RTVSPropertyOp56
 70
     1
102
RTVSPropertyOp57
 70
     1
102
RTVSPropertyOp58
 70
     1
102
RTVSPropertyOp59
 70
     1
102
RTVSPropertyOp60
 70
     1
102
RTVSPropertyOp61
 70
     1
102
RTVSPropertyOp62
 70
     1
  0
XRECORD
  5
4BEC
102
{ACAD_REACTORS
330
4BEB
102
}
330
4BEB
100
AcDbXrecord
280
     1
102
RTVSPost2010Prop28
280
     0
102
RTVSPost2010PropOp28
 70
     1
102
RTVSPost2010Prop29
280
     1
102
RTVSPost2010PropOp29
 70
     1
102
RTVSPost2010Prop30
280
     1
102
RTVSPost2010PropOp30
 70
     1
102
RTVSPost2010Prop31
280
     0
102
RTVSPost2010PropOp31
 70
     1
102
RTVSPost2010Prop32
280
     0
102
RTVSPost2010PropOp32
 70
     1
102
RTVSPost2010Prop33
280
     0
102
RTVSPost2010PropOp33
 70
     1
102
RTVSPost2010Prop34
280
     0
102
RTVSPost2010PropOp34
 70
     1
102
RTVSPost2010Prop35
280
     0
102
RTVSPost2010PropOp35
 70
     1
102
RTVSPost2010Prop36
280
     0
102
RTVSPost2010PropOp36
 70
     1
102
RTVSPost2010Prop37
 90
       50
102
RTVSPost2010PropOp37
 70
     1
102
RTVSPost2010Prop38
140
0.0
102
RTVSPost2010PropOp38
 70
     1
102
RTVSPost2010Prop39
140
1.0
102
RTVSPost2010PropOp39
 70
     1
102
RTVSPost2010Prop40
 90
        0
102
RTVSPost2010PropOp40
 70
     1
102
RTVSPost2010Prop41ColorIndex
 90
       18
102
RTVSPost2010Prop41ColorRGB
 90
        0
102
RTVSPost2010PropOp41
 70
     1
102
RTVSPost2010Prop42
 90
       50
102
RTVSPost2010PropOp42
 70
     1
102
RTVSPost2010Prop43
 90
        3
102
RTVSPost2010PropOp43
 70
     1
102
RTVSPost2010Prop44ColorIndex
 90
        5
102
RTVSPost2010Prop44ColorRGB
 90
      255
102
RTVSPost2010PropOp44
 70
     1
102
RTVSPost2010Prop45
280
     0
102
RTVSPost2010PropOp45
 70
     1
102
RTVSPost2010Prop46
 90
       50
102
RTVSPost2010PropOp46
 70
     1
102
RTVSPost2010Prop47
 90
       50
102
RTVSPost2010PropOp47
 70
     1
102
RTVSPost2010Prop48
 90
       50
102
RTVSPost2010PropOp48
 70
     1
102
RTVSPost2010Prop49
280
     0
102
RTVSPost2010PropOp49
 70
     1
102
RTVSPost2010Prop50
 90
       50
102
RTVSPost2010PropOp50
 70
     1
102
RTVSPost2010Prop51ColorIndex
 90
      256
102
RTVSPost2010Prop51ColorRGB
 90
-16777216
102
RTVSPost2010PropOp51
 70
     0
102
RTVSPost2010Prop52
140
1.0
102
RTVSPost2010PropOp52
 70
     0
102
RTVSPost2010Prop53
 90
        2
102
RTVSPost2010PropOp53
 70
     1
102
RTVSPost2010Prop54
  1
strokes_ogs.tif
102
RTVSPost2010PropOp54
 70
     1
102
RTVSPost2010Prop55
280
     0
102
RTVSPost2010PropOp55
 70
     1
102
RTVSPost2010Prop56
140
1.0
102
RTVSPost2010PropOp56
 70
     1
102
RTVSPost2010Prop57
140
1.0
102
RTVSPost2010PropOp57
 70
     1
102
RTVSPropertyOp0
 70
     1
102
RTVSPropertyOp1
 70
     1
102
RTVSPropertyOp2
 70
     1
102
RTVSPropertyOp3
 70
     1
102
RTVSPropertyOp4
 70
     1
102
RTVSPropertyOp5
 70
     1
102
RTVSPropertyOp6
 70
     1
102
RTVSPropertyOp7
 70
     1
102
RTVSPropertyOp8
 70
     1
102
RTVSPropertyOp9
 70
     1
102
RTVSPropertyOp10
 70
     1
102
RTVSPropertyOp11
 70
     1
102
RTVSPropertyOp12
 70
     1
102
RTVSPropertyOp13
 70
     1
102
RTVSPropertyOp14
 70
     1
102
RTVSPropertyOp15
 70
     1
102
RTVSPropertyOp16
 70
     1
102
RTVSPropertyOp17
 70
     1
102
RTVSPropertyOp18
 70
     1
102
RTVSPropertyOp19
 70
     1
102
RTVSPropertyOp20
 70
     1
102
RTVSPropertyOp21
 70
     1
102
RTVSPropertyOp22
 70
     1
102
RTVSPropertyOp23
 70
     1
102
RTVSPropertyOp24
 70
     1
102
RTVSPropertyOp25
 70
     1
102
RTVSPropertyOp26
 70
     1
102
RTVSPropertyOp27
 70
     1
102
RTVSPropertyOp28
 70
     1
102
RTVSPropertyOp29
 70
     1
102
RTVSPropertyOp30
 70
     1
102
RTVSPropertyOp31
 70
     1
102
RTVSPropertyOp32
 70
     1
102
RTVSPropertyOp33
 70
     1
102
RTVSPropertyOp34
 70
     1
102
RTVSPropertyOp35
 70
     1
102
RTVSPropertyOp36
 70
     1
102
RTVSPropertyOp37
 70
     1
102
RTVSPropertyOp38
 70
     1
102
RTVSPropertyOp39
 70
     1
102
RTVSPropertyOp40
 70
     1
102
RTVSPropertyOp41
 70
     1
102
RTVSPropertyOp42
 70
     1
102
RTVSPropertyOp43
 70
     1
102
RTVSPropertyOp44
 70
     1
102
RTVSPropertyOp45
 70
     1
102
RTVSPropertyOp46
 70
     1
102
RTVSPropertyOp47
 70
     1
102
RTVSPropertyOp48
 70
     1
102
RTVSPropertyOp49
 70
     1
102
RTVSPropertyOp50
 70
     1
102
RTVSPropertyOp51
 70
     0
102
RTVSPropertyOp52
 70
     0
102
RTVSPropertyOp53
 70
     1
102
RTVSPropertyOp54
 70
     1
102
RTVSPropertyOp55
 70
     1
102
RTVSPropertyOp56
 70
     1
102
RTVSPropertyOp57
 70
     1
102
RTVSPropertyOp58
 70
     1
102
RTVSPropertyOp59
 70
     1
102
RTVSPropertyOp60
 70
     1
102
RTVSPropertyOp61
 70
     1
102
RTVSPropertyOp62
 70
     1
  0
XRECORD
  5
4BE8
102
{ACAD_REACTORS
330
4BE7
102
}
330
4BE7
100
AcDbXrecord
280
     1
102
RTVSPost2010Prop28
280
     0
102
RTVSPost2010PropOp28
 70
     1
102
RTVSPost2010Prop29
280
     1
102
RTVSPost2010PropOp29
 70
     1
102
RTVSPost2010Prop30
280
     1
102
RTVSPost2010PropOp30
 70
     1
102
RTVSPost2010Prop31
280
     0
102
RTVSPost2010PropOp31
 70
     1
102
RTVSPost2010Prop32
280
     0
102
RTVSPost2010PropOp32
 70
     1
102
RTVSPost2010Prop33
280
     0
102
RTVSPost2010PropOp33
 70
     1
102
RTVSPost2010Prop34
280
     0
102
RTVSPost2010PropOp34
 70
     1
102
RTVSPost2010Prop35
280
     0
102
RTVSPost2010PropOp35
 70
     1
102
RTVSPost2010Prop36
280
     0
102
RTVSPost2010PropOp36
 70
     1
102
RTVSPost2010Prop37
 90
       50
102
RTVSPost2010PropOp37
 70
     1
102
RTVSPost2010Prop38
140
0.0
102
RTVSPost2010PropOp38
 70
     1
102
RTVSPost2010Prop39
140
1.0
102
RTVSPost2010PropOp39
 70
     1
102
RTVSPost2010Prop40
 90
        0
102
RTVSPost2010PropOp40
 70
     1
102
RTVSPost2010Prop41ColorIndex
 90
       18
102
RTVSPost2010Prop41ColorRGB
 90
        0
102
RTVSPost2010PropOp41
 70
     1
102
RTVSPost2010Prop42
 90
       50
102
RTVSPost2010PropOp42
 70
     1
102
RTVSPost2010Prop43
 90
        3
102
RTVSPost2010PropOp43
 70
     1
102
RTVSPost2010Prop44ColorIndex
 90
        5
102
RTVSPost2010Prop44ColorRGB
 90
      255
102
RTVSPost2010PropOp44
 70
     1
102
RTVSPost2010Prop45
280
     0
102
RTVSPost2010PropOp45
 70
     1
102
RTVSPost2010Prop46
 90
       50
102
RTVSPost2010PropOp46
 70
     1
102
RTVSPost2010Prop47
 90
       50
102
RTVSPost2010PropOp47
 70
     1
102
RTVSPost2010Prop48
 90
       50
102
RTVSPost2010PropOp48
 70
     1
102
RTVSPost2010Prop49
280
     0
102
RTVSPost2010PropOp49
 70
     1
102
RTVSPost2010Prop50
 90
       50
102
RTVSPost2010PropOp50
 70
     1
102
RTVSPost2010Prop51ColorIndex
 90
      256
102
RTVSPost2010Prop51ColorRGB
 90
-16777216
102
RTVSPost2010PropOp51
 70
     0
102
RTVSPost2010Prop52
140
1.0
102
RTVSPost2010PropOp52
 70
     0
102
RTVSPost2010Prop53
 90
        2
102
RTVSPost2010PropOp53
 70
     1
102
RTVSPost2010Prop54
  1
strokes_ogs.tif
102
RTVSPost2010PropOp54
 70
     1
102
RTVSPost2010Prop55
280
     0
102
RTVSPost2010PropOp55
 70
     1
102
RTVSPost2010Prop56
140
1.0
102
RTVSPost2010PropOp56
 70
     1
102
RTVSPost2010Prop57
140
1.0
102
RTVSPost2010PropOp57
 70
     1
102
RTVSPropertyOp0
 70
     1
102
RTVSPropertyOp1
 70
     1
102
RTVSPropertyOp2
 70
     1
102
RTVSPropertyOp3
 70
     1
102
RTVSPropertyOp4
 70
     1
102
RTVSPropertyOp5
 70
     1
102
RTVSPropertyOp6
 70
     1
102
RTVSPropertyOp7
 70
     1
102
RTVSPropertyOp8
 70
     1
102
RTVSPropertyOp9
 70
     1
102
RTVSPropertyOp10
 70
     1
102
RTVSPropertyOp11
 70
     1
102
RTVSPropertyOp12
 70
     1
102
RTVSPropertyOp13
 70
     1
102
RTVSPropertyOp14
 70
     1
102
RTVSPropertyOp15
 70
     1
102
RTVSPropertyOp16
 70
     1
102
RTVSPropertyOp17
 70
     1
102
RTVSPropertyOp18
 70
     1
102
RTVSPropertyOp19
 70
     1
102
RTVSPropertyOp20
 70
     1
102
RTVSPropertyOp21
 70
     1
102
RTVSPropertyOp22
 70
     1
102
RTVSPropertyOp23
 70
     1
102
RTVSPropertyOp24
 70
     1
102
RTVSPropertyOp25
 70
     1
102
RTVSPropertyOp26
 70
     1
102
RTVSPropertyOp27
 70
     1
102
RTVSPropertyOp28
 70
     1
102
RTVSPropertyOp29
 70
     1
102
RTVSPropertyOp30
 70
     1
102
RTVSPropertyOp31
 70
     1
102
RTVSPropertyOp32
 70
     1
102
RTVSPropertyOp33
 70
     1
102
RTVSPropertyOp34
 70
     1
102
RTVSPropertyOp35
 70
     1
102
RTVSPropertyOp36
 70
     1
102
RTVSPropertyOp37
 70
     1
102
RTVSPropertyOp38
 70
     1
102
RTVSPropertyOp39
 70
     1
102
RTVSPropertyOp40
 70
     1
102
RTVSPropertyOp41
 70
     1
102
RTVSPropertyOp42
 70
     1
102
RTVSPropertyOp43
 70
     1
102
RTVSPropertyOp44
 70
     1
102
RTVSPropertyOp45
 70
     1
102
RTVSPropertyOp46
 70
     1
102
RTVSPropertyOp47
 70
     1
102
RTVSPropertyOp48
 70
     1
102
RTVSPropertyOp49
 70
     1
102
RTVSPropertyOp50
 70
     1
102
RTVSPropertyOp51
 70
     0
102
RTVSPropertyOp52
 70
     0
102
RTVSPropertyOp53
 70
     1
102
RTVSPropertyOp54
 70
     1
102
RTVSPropertyOp55
 70
     1
102
RTVSPropertyOp56
 70
     1
102
RTVSPropertyOp57
 70
     1
102
RTVSPropertyOp58
 70
     1
102
RTVSPropertyOp59
 70
     1
102
RTVSPropertyOp60
 70
     1
102
RTVSPropertyOp61
 70
     1
102
RTVSPropertyOp62
 70
     1
  0
XRECORD
  5
4BF6
102
{ACAD_REACTORS
330
4BF5
102
}
330
4BF5
100
AcDbXrecord
280
     1
102
RTVSPost2010Prop28
280
     0
102
RTVSPost2010PropOp28
 70
     1
102
RTVSPost2010Prop29
280
     1
102
RTVSPost2010PropOp29
 70
     1
102
RTVSPost2010Prop30
280
     1
102
RTVSPost2010PropOp30
 70
     1
102
RTVSPost2010Prop31
280
     0
102
RTVSPost2010PropOp31
 70
     1
102
RTVSPost2010Prop32
280
     0
102
RTVSPost2010PropOp32
 70
     1
102
RTVSPost2010Prop33
280
     0
102
RTVSPost2010PropOp33
 70
     1
102
RTVSPost2010Prop34
280
     0
102
RTVSPost2010PropOp34
 70
     1
102
RTVSPost2010Prop35
280
     0
102
RTVSPost2010PropOp35
 70
     1
102
RTVSPost2010Prop36
280
     0
102
RTVSPost2010PropOp36
 70
     1
102
RTVSPost2010Prop37
 90
       50
102
RTVSPost2010PropOp37
 70
     1
102
RTVSPost2010Prop38
140
0.0
102
RTVSPost2010PropOp38
 70
     1
102
RTVSPost2010Prop39
140
1.0
102
RTVSPost2010PropOp39
 70
     1
102
RTVSPost2010Prop40
 90
        0
102
RTVSPost2010PropOp40
 70
     1
102
RTVSPost2010Prop41ColorIndex
 90
       18
102
RTVSPost2010Prop41ColorRGB
 90
        0
102
RTVSPost2010PropOp41
 70
     1
102
RTVSPost2010Prop42
 90
       50
102
RTVSPost2010PropOp42
 70
     1
102
RTVSPost2010Prop43
 90
        3
102
RTVSPost2010PropOp43
 70
     1
102
RTVSPost2010Prop44ColorIndex
 90
        5
102
RTVSPost2010Prop44ColorRGB
 90
      255
102
RTVSPost2010PropOp44
 70
     1
102
RTVSPost2010Prop45
280
     0
102
RTVSPost2010PropOp45
 70
     1
102
RTVSPost2010Prop46
 90
       50
102
RTVSPost2010PropOp46
 70
     1
102
RTVSPost2010Prop47
 90
       50
102
RTVSPost2010PropOp47
 70
     1
102
RTVSPost2010Prop48
 90
       50
102
RTVSPost2010PropOp48
 70
     1
102
RTVSPost2010Prop49
280
     0
102
RTVSPost2010PropOp49
 70
     1
102
RTVSPost2010Prop50
 90
       50
102
RTVSPost2010PropOp50
 70
     1
102
RTVSPost2010Prop51ColorIndex
 90
      256
102
RTVSPost2010Prop51ColorRGB
 90
-16777216
102
RTVSPost2010PropOp51
 70
     0
102
RTVSPost2010Prop52
140
1.0
102
RTVSPost2010PropOp52
 70
     0
102
RTVSPost2010Prop53
 90
        2
102
RTVSPost2010PropOp53
 70
     1
102
RTVSPost2010Prop54
  1
strokes_ogs.tif
102
RTVSPost2010PropOp54
 70
     1
102
RTVSPost2010Prop55
280
     0
102
RTVSPost2010PropOp55
 70
     1
102
RTVSPost2010Prop56
140
1.0
102
RTVSPost2010PropOp56
 70
     1
102
RTVSPost2010Prop57
140
1.0
102
RTVSPost2010PropOp57
 70
     1
102
RTVSPropertyOp0
 70
     1
102
RTVSPropertyOp1
 70
     1
102
RTVSPropertyOp2
 70
     1
102
RTVSPropertyOp3
 70
     1
102
RTVSPropertyOp4
 70
     1
102
RTVSPropertyOp5
 70
     1
102
RTVSPropertyOp6
 70
     1
102
RTVSPropertyOp7
 70
     1
102
RTVSPropertyOp8
 70
     1
102
RTVSPropertyOp9
 70
     1
102
RTVSPropertyOp10
 70
     1
102
RTVSPropertyOp11
 70
     1
102
RTVSPropertyOp12
 70
     1
102
RTVSPropertyOp13
 70
     1
102
RTVSPropertyOp14
 70
     1
102
RTVSPropertyOp15
 70
     1
102
RTVSPropertyOp16
 70
     1
102
RTVSPropertyOp17
 70
     1
102
RTVSPropertyOp18
 70
     1
102
RTVSPropertyOp19
 70
     1
102
RTVSPropertyOp20
 70
     1
102
RTVSPropertyOp21
 70
     1
102
RTVSPropertyOp22
 70
     1
102
RTVSPropertyOp23
 70
     1
102
RTVSPropertyOp24
 70
     1
102
RTVSPropertyOp25
 70
     1
102
RTVSPropertyOp26
 70
     1
102
RTVSPropertyOp27
 70
     1
102
RTVSPropertyOp28
 70
     1
102
RTVSPropertyOp29
 70
     1
102
RTVSPropertyOp30
 70
     1
102
RTVSPropertyOp31
 70
     1
102
RTVSPropertyOp32
 70
     1
102
RTVSPropertyOp33
 70
     1
102
RTVSPropertyOp34
 70
     1
102
RTVSPropertyOp35
 70
     1
102
RTVSPropertyOp36
 70
     1
102
RTVSPropertyOp37
 70
     1
102
RTVSPropertyOp38
 70
     1
102
RTVSPropertyOp39
 70
     1
102
RTVSPropertyOp40
 70
     1
102
RTVSPropertyOp41
 70
     1
102
RTVSPropertyOp42
 70
     1
102
RTVSPropertyOp43
 70
     1
102
RTVSPropertyOp44
 70
     1
102
RTVSPropertyOp45
 70
     1
102
RTVSPropertyOp46
 70
     1
102
RTVSPropertyOp47
 70
     1
102
RTVSPropertyOp48
 70
     1
102
RTVSPropertyOp49
 70
     1
102
RTVSPropertyOp50
 70
     1
102
RTVSPropertyOp51
 70
     0
102
RTVSPropertyOp52
 70
     0
102
RTVSPropertyOp53
 70
     1
102
RTVSPropertyOp54
 70
     1
102
RTVSPropertyOp55
 70
     1
102
RTVSPropertyOp56
 70
     1
102
RTVSPropertyOp57
 70
     1
102
RTVSPropertyOp58
 70
     1
102
RTVSPropertyOp59
 70
     1
102
RTVSPropertyOp60
 70
     1
102
RTVSPropertyOp61
 70
     1
102
RTVSPropertyOp62
 70
     1
  0
XRECORD
  5
4BFE
102
{ACAD_REACTORS
330
4BFD
102
}
330
4BFD
100
AcDbXrecord
280
     1
102
RTVSPost2010Prop28
280
     0
102
RTVSPost2010PropOp28
 70
     1
102
RTVSPost2010Prop29
280
     1
102
RTVSPost2010PropOp29
 70
     1
102
RTVSPost2010Prop30
280
     1
102
RTVSPost2010PropOp30
 70
     1
102
RTVSPost2010Prop31
280
     0
102
RTVSPost2010PropOp31
 70
     1
102
RTVSPost2010Prop32
280
     0
102
RTVSPost2010PropOp32
 70
     1
102
RTVSPost2010Prop33
280
     0
102
RTVSPost2010PropOp33
 70
     1
102
RTVSPost2010Prop34
280
     0
102
RTVSPost2010PropOp34
 70
     1
102
RTVSPost2010Prop35
280
     0
102
RTVSPost2010PropOp35
 70
     1
102
RTVSPost2010Prop36
280
     0
102
RTVSPost2010PropOp36
 70
     1
102
RTVSPost2010Prop37
 90
       50
102
RTVSPost2010PropOp37
 70
     1
102
RTVSPost2010Prop38
140
0.0
102
RTVSPost2010PropOp38
 70
     1
102
RTVSPost2010Prop39
140
1.0
102
RTVSPost2010PropOp39
 70
     1
102
RTVSPost2010Prop40
 90
        0
102
RTVSPost2010PropOp40
 70
     1
102
RTVSPost2010Prop41ColorIndex
 90
       18
102
RTVSPost2010Prop41ColorRGB
 90
        0
102
RTVSPost2010PropOp41
 70
     1
102
RTVSPost2010Prop42
 90
       50
102
RTVSPost2010PropOp42
 70
     1
102
RTVSPost2010Prop43
 90
        3
102
RTVSPost2010PropOp43
 70
     1
102
RTVSPost2010Prop44ColorIndex
 90
        5
102
RTVSPost2010Prop44ColorRGB
 90
      255
102
RTVSPost2010PropOp44
 70
     1
102
RTVSPost2010Prop45
280
     0
102
RTVSPost2010PropOp45
 70
     1
102
RTVSPost2010Prop46
 90
       50
102
RTVSPost2010PropOp46
 70
     1
102
RTVSPost2010Prop47
 90
       50
102
RTVSPost2010PropOp47
 70
     1
102
RTVSPost2010Prop48
 90
       50
102
RTVSPost2010PropOp48
 70
     1
102
RTVSPost2010Prop49
280
     0
102
RTVSPost2010PropOp49
 70
     1
102
RTVSPost2010Prop50
 90
       50
102
RTVSPost2010PropOp50
 70
     1
102
RTVSPost2010Prop51ColorIndex
 90
      256
102
RTVSPost2010Prop51ColorRGB
 90
-16777216
102
RTVSPost2010PropOp51
 70
     0
102
RTVSPost2010Prop52
140
1.0
102
RTVSPost2010PropOp52
 70
     0
102
RTVSPost2010Prop53
 90
        2
102
RTVSPost2010PropOp53
 70
     1
102
RTVSPost2010Prop54
  1
strokes_ogs.tif
102
RTVSPost2010PropOp54
 70
     1
102
RTVSPost2010Prop55
280
     0
102
RTVSPost2010PropOp55
 70
     1
102
RTVSPost2010Prop56
140
1.0
102
RTVSPost2010PropOp56
 70
     1
102
RTVSPost2010Prop57
140
1.0
102
RTVSPost2010PropOp57
 70
     1
102
RTVSPropertyOp0
 70
     1
102
RTVSPropertyOp1
 70
     1
102
RTVSPropertyOp2
 70
     1
102
RTVSPropertyOp3
 70
     1
102
RTVSPropertyOp4
 70
     1
102
RTVSPropertyOp5
 70
     1
102
RTVSPropertyOp6
 70
     1
102
RTVSPropertyOp7
 70
     1
102
RTVSPropertyOp8
 70
     1
102
RTVSPropertyOp9
 70
     1
102
RTVSPropertyOp10
 70
     1
102
RTVSPropertyOp11
 70
     1
102
RTVSPropertyOp12
 70
     1
102
RTVSPropertyOp13
 70
     1
102
RTVSPropertyOp14
 70
     1
102
RTVSPropertyOp15
 70
     1
102
RTVSPropertyOp16
 70
     1
102
RTVSPropertyOp17
 70
     1
102
RTVSPropertyOp18
 70
     1
102
RTVSPropertyOp19
 70
     1
102
RTVSPropertyOp20
 70
     1
102
RTVSPropertyOp21
 70
     1
102
RTVSPropertyOp22
 70
     1
102
RTVSPropertyOp23
 70
     1
102
RTVSPropertyOp24
 70
     1
102
RTVSPropertyOp25
 70
     1
102
RTVSPropertyOp26
 70
     1
102
RTVSPropertyOp27
 70
     1
102
RTVSPropertyOp28
 70
     1
102
RTVSPropertyOp29
 70
     1
102
RTVSPropertyOp30
 70
     1
102
RTVSPropertyOp31
 70
     1
102
RTVSPropertyOp32
 70
     1
102
RTVSPropertyOp33
 70
     1
102
RTVSPropertyOp34
 70
     1
102
RTVSPropertyOp35
 70
     1
102
RTVSPropertyOp36
 70
     1
102
RTVSPropertyOp37
 70
     1
102
RTVSPropertyOp38
 70
     1
102
RTVSPropertyOp39
 70
     1
102
RTVSPropertyOp40
 70
     1
102
RTVSPropertyOp41
 70
     1
102
RTVSPropertyOp42
 70
     1
102
RTVSPropertyOp43
 70
     1
102
RTVSPropertyOp44
 70
     1
102
RTVSPropertyOp45
 70
     1
102
RTVSPropertyOp46
 70
     1
102
RTVSPropertyOp47
 70
     1
102
RTVSPropertyOp48
 70
     1
102
RTVSPropertyOp49
 70
     1
102
RTVSPropertyOp50
 70
     1
102
RTVSPropertyOp51
 70
     0
102
RTVSPropertyOp52
 70
     0
102
RTVSPropertyOp53
 70
     1
102
RTVSPropertyOp54
 70
     1
102
RTVSPropertyOp55
 70
     1
102
RTVSPropertyOp56
 70
     1
102
RTVSPropertyOp57
 70
     1
102
RTVSPropertyOp58
 70
     1
102
RTVSPropertyOp59
 70
     1
102
RTVSPropertyOp60
 70
     1
102
RTVSPropertyOp61
 70
     1
102
RTVSPropertyOp62
 70
     1
  0
XRECORD
  5
4BF0
102
{ACAD_REACTORS
330
4BEF
102
}
330
4BEF
100
AcDbXrecord
280
     1
102
RTVSPost2010Prop28
280
     0
102
RTVSPost2010PropOp28
 70
     1
102
RTVSPost2010Prop29
280
     1
102
RTVSPost2010PropOp29
 70
     1
102
RTVSPost2010Prop30
280
     1
102
RTVSPost2010PropOp30
 70
     1
102
RTVSPost2010Prop31
280
     0
102
RTVSPost2010PropOp31
 70
     1
102
RTVSPost2010Prop32
280
     0
102
RTVSPost2010PropOp32
 70
     1
102
RTVSPost2010Prop33
280
     0
102
RTVSPost2010PropOp33
 70
     1
102
RTVSPost2010Prop34
280
     0
102
RTVSPost2010PropOp34
 70
     1
102
RTVSPost2010Prop35
280
     0
102
RTVSPost2010PropOp35
 70
     1
102
RTVSPost2010Prop36
280
     0
102
RTVSPost2010PropOp36
 70
     1
102
RTVSPost2010Prop37
 90
       50
102
RTVSPost2010PropOp37
 70
     1
102
RTVSPost2010Prop38
140
0.0
102
RTVSPost2010PropOp38
 70
     1
102
RTVSPost2010Prop39
140
1.0
102
RTVSPost2010PropOp39
 70
     1
102
RTVSPost2010Prop40
 90
        0
102
RTVSPost2010PropOp40
 70
     1
102
RTVSPost2010Prop41ColorIndex
 90
       18
102
RTVSPost2010Prop41ColorRGB
 90
        0
102
RTVSPost2010PropOp41
 70
     1
102
RTVSPost2010Prop42
 90
       50
102
RTVSPost2010PropOp42
 70
     1
102
RTVSPost2010Prop43
 90
        3
102
RTVSPost2010PropOp43
 70
     1
102
RTVSPost2010Prop44ColorIndex
 90
        5
102
RTVSPost2010Prop44ColorRGB
 90
      255
102
RTVSPost2010PropOp44
 70
     1
102
RTVSPost2010Prop45
280
     0
102
RTVSPost2010PropOp45
 70
     1
102
RTVSPost2010Prop46
 90
       50
102
RTVSPost2010PropOp46
 70
     1
102
RTVSPost2010Prop47
 90
       50
102
RTVSPost2010PropOp47
 70
     1
102
RTVSPost2010Prop48
 90
       50
102
RTVSPost2010PropOp48
 70
     1
102
RTVSPost2010Prop49
280
     0
102
RTVSPost2010PropOp49
 70
     1
102
RTVSPost2010Prop50
 90
       50
102
RTVSPost2010PropOp50
 70
     1
102
RTVSPost2010Prop51ColorIndex
 90
      256
102
RTVSPost2010Prop51ColorRGB
 90
-16777216
102
RTVSPost2010PropOp51
 70
     0
102
RTVSPost2010Prop52
140
1.0
102
RTVSPost2010PropOp52
 70
     0
102
RTVSPost2010Prop53
 90
        2
102
RTVSPost2010PropOp53
 70
     1
102
RTVSPost2010Prop54
  1
strokes_ogs.tif
102
RTVSPost2010PropOp54
 70
     1
102
RTVSPost2010Prop55
280
     0
102
RTVSPost2010PropOp55
 70
     1
102
RTVSPost2010Prop56
140
1.0
102
RTVSPost2010PropOp56
 70
     1
102
RTVSPost2010Prop57
140
1.0
102
RTVSPost2010PropOp57
 70
     1
102
RTVSPropertyOp0
 70
     1
102
RTVSPropertyOp1
 70
     1
102
RTVSPropertyOp2
 70
     1
102
RTVSPropertyOp3
 70
     1
102
RTVSPropertyOp4
 70
     1
102
RTVSPropertyOp5
 70
     1
102
RTVSPropertyOp6
 70
     1
102
RTVSPropertyOp7
 70
     1
102
RTVSPropertyOp8
 70
     1
102
RTVSPropertyOp9
 70
     1
102
RTVSPropertyOp10
 70
     1
102
RTVSPropertyOp11
 70
     1
102
RTVSPropertyOp12
 70
     1
102
RTVSPropertyOp13
 70
     1
102
RTVSPropertyOp14
 70
     1
102
RTVSPropertyOp15
 70
     1
102
RTVSPropertyOp16
 70
     1
102
RTVSPropertyOp17
 70
     1
102
RTVSPropertyOp18
 70
     1
102
RTVSPropertyOp19
 70
     1
102
RTVSPropertyOp20
 70
     1
102
RTVSPropertyOp21
 70
     1
102
RTVSPropertyOp22
 70
     1
102
RTVSPropertyOp23
 70
     1
102
RTVSPropertyOp24
 70
     1
102
RTVSPropertyOp25
 70
     1
102
RTVSPropertyOp26
 70
     1
102
RTVSPropertyOp27
 70
     1
102
RTVSPropertyOp28
 70
     1
102
RTVSPropertyOp29
 70
     1
102
RTVSPropertyOp30
 70
     1
102
RTVSPropertyOp31
 70
     1
102
RTVSPropertyOp32
 70
     1
102
RTVSPropertyOp33
 70
     1
102
RTVSPropertyOp34
 70
     1
102
RTVSPropertyOp35
 70
     1
102
RTVSPropertyOp36
 70
     1
102
RTVSPropertyOp37
 70
     1
102
RTVSPropertyOp38
 70
     1
102
RTVSPropertyOp39
 70
     1
102
RTVSPropertyOp40
 70
     1
102
RTVSPropertyOp41
 70
     1
102
RTVSPropertyOp42
 70
     1
102
RTVSPropertyOp43
 70
     1
102
RTVSPropertyOp44
 70
     1
102
RTVSPropertyOp45
 70
     1
102
RTVSPropertyOp46
 70
     1
102
RTVSPropertyOp47
 70
     1
102
RTVSPropertyOp48
 70
     1
102
RTVSPropertyOp49
 70
     1
102
RTVSPropertyOp50
 70
     1
102
RTVSPropertyOp51
 70
     0
102
RTVSPropertyOp52
 70
     0
102
RTVSPropertyOp53
 70
     1
102
RTVSPropertyOp54
 70
     1
102
RTVSPropertyOp55
 70
     1
102
RTVSPropertyOp56
 70
     1
102
RTVSPropertyOp57
 70
     1
102
RTVSPropertyOp58
 70
     1
102
RTVSPropertyOp59
 70
     1
102
RTVSPropertyOp60
 70
     1
102
RTVSPropertyOp61
 70
     1
102
RTVSPropertyOp62
 70
     1
  0
XRECORD
  5
4BF4
102
{ACAD_REACTORS
330
4BF3
102
}
330
4BF3
100
AcDbXrecord
280
     1
102
RTVSPost2010Prop28
280
     0
102
RTVSPost2010PropOp28
 70
     1
102
RTVSPost2010Prop29
280
     1
102
RTVSPost2010PropOp29
 70
     1
102
RTVSPost2010Prop30
280
     1
102
RTVSPost2010PropOp30
 70
     1
102
RTVSPost2010Prop31
280
     0
102
RTVSPost2010PropOp31
 70
     1
102
RTVSPost2010Prop32
280
     0
102
RTVSPost2010PropOp32
 70
     1
102
RTVSPost2010Prop33
280
     0
102
RTVSPost2010PropOp33
 70
     1
102
RTVSPost2010Prop34
280
     0
102
RTVSPost2010PropOp34
 70
     1
102
RTVSPost2010Prop35
280
     0
102
RTVSPost2010PropOp35
 70
     1
102
RTVSPost2010Prop36
280
     0
102
RTVSPost2010PropOp36
 70
     1
102
RTVSPost2010Prop37
 90
       50
102
RTVSPost2010PropOp37
 70
     1
102
RTVSPost2010Prop38
140
0.0
102
RTVSPost2010PropOp38
 70
     1
102
RTVSPost2010Prop39
140
1.0
102
RTVSPost2010PropOp39
 70
     1
102
RTVSPost2010Prop40
 90
        0
102
RTVSPost2010PropOp40
 70
     1
102
RTVSPost2010Prop41ColorIndex
 90
       18
102
RTVSPost2010Prop41ColorRGB
 90
        0
102
RTVSPost2010PropOp41
 70
     1
102
RTVSPost2010Prop42
 90
       50
102
RTVSPost2010PropOp42
 70
     1
102
RTVSPost2010Prop43
 90
        3
102
RTVSPost2010PropOp43
 70
     1
102
RTVSPost2010Prop44ColorIndex
 90
        5
102
RTVSPost2010Prop44ColorRGB
 90
      255
102
RTVSPost2010PropOp44
 70
     1
102
RTVSPost2010Prop45
280
     0
102
RTVSPost2010PropOp45
 70
     1
102
RTVSPost2010Prop46
 90
       50
102
RTVSPost2010PropOp46
 70
     1
102
RTVSPost2010Prop47
 90
       50
102
RTVSPost2010PropOp47
 70
     1
102
RTVSPost2010Prop48
 90
       50
102
RTVSPost2010PropOp48
 70
     1
102
RTVSPost2010Prop49
280
     0
102
RTVSPost2010PropOp49
 70
     1
102
RTVSPost2010Prop50
 90
       50
102
RTVSPost2010PropOp50
 70
     1
102
RTVSPost2010Prop51ColorIndex
 90
      256
102
RTVSPost2010Prop51ColorRGB
 90
-16777216
102
RTVSPost2010PropOp51
 70
     0
102
RTVSPost2010Prop52
140
1.0
102
RTVSPost2010PropOp52
 70
     0
102
RTVSPost2010Prop53
 90
        2
102
RTVSPost2010PropOp53
 70
     1
102
RTVSPost2010Prop54
  1
strokes_ogs.tif
102
RTVSPost2010PropOp54
 70
     1
102
RTVSPost2010Prop55
280
     0
102
RTVSPost2010PropOp55
 70
     1
102
RTVSPost2010Prop56
140
1.0
102
RTVSPost2010PropOp56
 70
     1
102
RTVSPost2010Prop57
140
1.0
102
RTVSPost2010PropOp57
 70
     1
102
RTVSPropertyOp0
 70
     1
102
RTVSPropertyOp1
 70
     1
102
RTVSPropertyOp2
 70
     1
102
RTVSPropertyOp3
 70
     1
102
RTVSPropertyOp4
 70
     1
102
RTVSPropertyOp5
 70
     1
102
RTVSPropertyOp6
 70
     1
102
RTVSPropertyOp7
 70
     1
102
RTVSPropertyOp8
 70
     1
102
RTVSPropertyOp9
 70
     1
102
RTVSPropertyOp10
 70
     1
102
RTVSPropertyOp11
 70
     1
102
RTVSPropertyOp12
 70
     1
102
RTVSPropertyOp13
 70
     1
102
RTVSPropertyOp14
 70
     1
102
RTVSPropertyOp15
 70
     1
102
RTVSPropertyOp16
 70
     1
102
RTVSPropertyOp17
 70
     1
102
RTVSPropertyOp18
 70
     1
102
RTVSPropertyOp19
 70
     1
102
RTVSPropertyOp20
 70
     1
102
RTVSPropertyOp21
 70
     1
102
RTVSPropertyOp22
 70
     1
102
RTVSPropertyOp23
 70
     1
102
RTVSPropertyOp24
 70
     1
102
RTVSPropertyOp25
 70
     1
102
RTVSPropertyOp26
 70
     1
102
RTVSPropertyOp27
 70
     1
102
RTVSPropertyOp28
 70
     1
102
RTVSPropertyOp29
 70
     1
102
RTVSPropertyOp30
 70
     1
102
RTVSPropertyOp31
 70
     1
102
RTVSPropertyOp32
 70
     1
102
RTVSPropertyOp33
 70
     1
102
RTVSPropertyOp34
 70
     1
102
RTVSPropertyOp35
 70
     1
102
RTVSPropertyOp36
 70
     1
102
RTVSPropertyOp37
 70
     1
102
RTVSPropertyOp38
 70
     1
102
RTVSPropertyOp39
 70
     1
102
RTVSPropertyOp40
 70
     1
102
RTVSPropertyOp41
 70
     1
102
RTVSPropertyOp42
 70
     1
102
RTVSPropertyOp43
 70
     1
102
RTVSPropertyOp44
 70
     1
102
RTVSPropertyOp45
 70
     1
102
RTVSPropertyOp46
 70
     1
102
RTVSPropertyOp47
 70
     1
102
RTVSPropertyOp48
 70
     1
102
RTVSPropertyOp49
 70
     1
102
RTVSPropertyOp50
 70
     1
102
RTVSPropertyOp51
 70
     0
102
RTVSPropertyOp52
 70
     0
102
RTVSPropertyOp53
 70
     1
102
RTVSPropertyOp54
 70
     1
102
RTVSPropertyOp55
 70
     1
102
RTVSPropertyOp56
 70
     1
102
RTVSPropertyOp57
 70
     1
102
RTVSPropertyOp58
 70
     1
102
RTVSPropertyOp59
 70
     1
102
RTVSPropertyOp60
 70
     1
102
RTVSPropertyOp61
 70
     1
102
RTVSPropertyOp62
 70
     1
  0
XRECORD
  5
4C04
102
{ACAD_REACTORS
330
4C03
102
}
330
4C03
100
AcDbXrecord
280
     1
102
RTVSPost2010Prop28
280
     0
102
RTVSPost2010PropOp28
 70
     1
102
RTVSPost2010Prop29
280
     1
102
RTVSPost2010PropOp29
 70
     1
102
RTVSPost2010Prop30
280
     1
102
RTVSPost2010PropOp30
 70
     1
102
RTVSPost2010Prop31
280
     0
102
RTVSPost2010PropOp31
 70
     1
102
RTVSPost2010Prop32
280
     0
102
RTVSPost2010PropOp32
 70
     1
102
RTVSPost2010Prop33
280
     0
102
RTVSPost2010PropOp33
 70
     1
102
RTVSPost2010Prop34
280
     0
102
RTVSPost2010PropOp34
 70
     1
102
RTVSPost2010Prop35
280
     0
102
RTVSPost2010PropOp35
 70
     1
102
RTVSPost2010Prop36
280
     0
102
RTVSPost2010PropOp36
 70
     1
102
RTVSPost2010Prop37
 90
       50
102
RTVSPost2010PropOp37
 70
     1
102
RTVSPost2010Prop38
140
0.0
102
RTVSPost2010PropOp38
 70
     1
102
RTVSPost2010Prop39
140
1.0
102
RTVSPost2010PropOp39
 70
     1
102
RTVSPost2010Prop40
 90
        0
102
RTVSPost2010PropOp40
 70
     1
102
RTVSPost2010Prop41ColorIndex
 90
       18
102
RTVSPost2010Prop41ColorRGB
 90
        0
102
RTVSPost2010PropOp41
 70
     1
102
RTVSPost2010Prop42
 90
       50
102
RTVSPost2010PropOp42
 70
     1
102
RTVSPost2010Prop43
 90
        3
102
RTVSPost2010PropOp43
 70
     1
102
RTVSPost2010Prop44ColorIndex
 90
        5
102
RTVSPost2010Prop44ColorRGB
 90
      255
102
RTVSPost2010PropOp44
 70
     1
102
RTVSPost2010Prop45
280
     0
102
RTVSPost2010PropOp45
 70
     1
102
RTVSPost2010Prop46
 90
       50
102
RTVSPost2010PropOp46
 70
     1
102
RTVSPost2010Prop47
 90
       50
102
RTVSPost2010PropOp47
 70
     1
102
RTVSPost2010Prop48
 90
       50
102
RTVSPost2010PropOp48
 70
     1
102
RTVSPost2010Prop49
280
     0
102
RTVSPost2010PropOp49
 70
     1
102
RTVSPost2010Prop50
 90
       50
102
RTVSPost2010PropOp50
 70
     1
102
RTVSPost2010Prop51ColorIndex
 90
      256
102
RTVSPost2010Prop51ColorRGB
 90
-16777216
102
RTVSPost2010PropOp51
 70
     0
102
RTVSPost2010Prop52
140
1.0
102
RTVSPost2010PropOp52
 70
     0
102
RTVSPost2010Prop53
 90
        2
102
RTVSPost2010PropOp53
 70
     1
102
RTVSPost2010Prop54
  1
strokes_ogs.tif
102
RTVSPost2010PropOp54
 70
     1
102
RTVSPost2010Prop55
280
     0
102
RTVSPost2010PropOp55
 70
     1
102
RTVSPost2010Prop56
140
1.0
102
RTVSPost2010PropOp56
 70
     1
102
RTVSPost2010Prop57
140
1.0
102
RTVSPost2010PropOp57
 70
     1
102
RTVSPropertyOp0
 70
     0
102
RTVSPropertyOp1
 70
     0
102
RTVSPropertyOp2
 70
     0
102
RTVSPropertyOp3
 70
     0
102
RTVSPropertyOp4
 70
     0
102
RTVSPropertyOp5
 70
     0
102
RTVSPropertyOp6
 70
     0
102
RTVSPropertyOp7
 70
     0
102
RTVSPropertyOp8
 70
     0
102
RTVSPropertyOp9
 70
     0
102
RTVSPropertyOp10
 70
     0
102
RTVSPropertyOp11
 70
     0
102
RTVSPropertyOp12
 70
     0
102
RTVSPropertyOp13
 70
     0
102
RTVSPropertyOp14
 70
     2
102
RTVSPropertyOp15
 70
     0
102
RTVSPropertyOp16
 70
     0
102
RTVSPropertyOp17
 70
     0
102
RTVSPropertyOp18
 70
     0
102
RTVSPropertyOp19
 70
     0
102
RTVSPropertyOp20
 70
     0
102
RTVSPropertyOp21
 70
     0
102
RTVSPropertyOp22
 70
     0
102
RTVSPropertyOp23
 70
     0
102
RTVSPropertyOp24
 70
     0
102
RTVSPropertyOp25
 70
     0
102
RTVSPropertyOp26
 70
     0
102
RTVSPropertyOp27
 70
     0
102
RTVSPropertyOp28
 70
     1
102
RTVSPropertyOp29
 70
     1
102
RTVSPropertyOp30
 70
     1
102
RTVSPropertyOp31
 70
     1
102
RTVSPropertyOp32
 70
     1
102
RTVSPropertyOp33
 70
     1
102
RTVSPropertyOp34
 70
     1
102
RTVSPropertyOp35
 70
     1
102
RTVSPropertyOp36
 70
     1
102
RTVSPropertyOp37
 70
     1
102
RTVSPropertyOp38
 70
     1
102
RTVSPropertyOp39
 70
     1
102
RTVSPropertyOp40
 70
     1
102
RTVSPropertyOp41
 70
     1
102
RTVSPropertyOp42
 70
     1
102
RTVSPropertyOp43
 70
     1
102
RTVSPropertyOp44
 70
     1
102
RTVSPropertyOp45
 70
     1
102
RTVSPropertyOp46
 70
     1
102
RTVSPropertyOp47
 70
     1
102
RTVSPropertyOp48
 70
     1
102
RTVSPropertyOp49
 70
     1
102
RTVSPropertyOp50
 70
     1
102
RTVSPropertyOp51
 70
     0
102
RTVSPropertyOp52
 70
     0
102
RTVSPropertyOp53
 70
     1
102
RTVSPropertyOp54
 70
     1
102
RTVSPropertyOp55
 70
     1
102
RTVSPropertyOp56
 70
     1
102
RTVSPropertyOp57
 70
     1
102
RTVSPropertyOp58
 70
     1
102
RTVSPropertyOp59
 70
     1
102
RTVSPropertyOp60
 70
     1
102
RTVSPropertyOp61
 70
     1
102
RTVSPropertyOp62
 70
     1
  0
XRECORD
  5
4BFC
102
{ACAD_REACTORS
330
4BFB
102
}
330
4BFB
100
AcDbXrecord
280
     1
102
RTVSPost2010Prop28
280
     0
102
RTVSPost2010PropOp28
 70
     1
102
RTVSPost2010Prop29
280
     1
102
RTVSPost2010PropOp29
 70
     1
102
RTVSPost2010Prop30
280
     1
102
RTVSPost2010PropOp30
 70
     1
102
RTVSPost2010Prop31
280
     0
102
RTVSPost2010PropOp31
 70
     1
102
RTVSPost2010Prop32
280
     0
102
RTVSPost2010PropOp32
 70
     1
102
RTVSPost2010Prop33
280
     0
102
RTVSPost2010PropOp33
 70
     1
102
RTVSPost2010Prop34
280
     0
102
RTVSPost2010PropOp34
 70
     1
102
RTVSPost2010Prop35
280
     0
102
RTVSPost2010PropOp35
 70
     1
102
RTVSPost2010Prop36
280
     0
102
RTVSPost2010PropOp36
 70
     1
102
RTVSPost2010Prop37
 90
       50
102
RTVSPost2010PropOp37
 70
     1
102
RTVSPost2010Prop38
140
0.0
102
RTVSPost2010PropOp38
 70
     1
102
RTVSPost2010Prop39
140
1.0
102
RTVSPost2010PropOp39
 70
     1
102
RTVSPost2010Prop40
 90
        0
102
RTVSPost2010PropOp40
 70
     1
102
RTVSPost2010Prop41ColorIndex
 90
       18
102
RTVSPost2010Prop41ColorRGB
 90
        0
102
RTVSPost2010PropOp41
 70
     1
102
RTVSPost2010Prop42
 90
       50
102
RTVSPost2010PropOp42
 70
     1
102
RTVSPost2010Prop43
 90
        3
102
RTVSPost2010PropOp43
 70
     1
102
RTVSPost2010Prop44ColorIndex
 90
        5
102
RTVSPost2010Prop44ColorRGB
 90
      255
102
RTVSPost2010PropOp44
 70
     1
102
RTVSPost2010Prop45
280
     0
102
RTVSPost2010PropOp45
 70
     1
102
RTVSPost2010Prop46
 90
       50
102
RTVSPost2010PropOp46
 70
     1
102
RTVSPost2010Prop47
 90
       50
102
RTVSPost2010PropOp47
 70
     1
102
RTVSPost2010Prop48
 90
       50
102
RTVSPost2010PropOp48
 70
     1
102
RTVSPost2010Prop49
280
     0
102
RTVSPost2010PropOp49
 70
     1
102
RTVSPost2010Prop50
 90
       50
102
RTVSPost2010PropOp50
 70
     1
102
RTVSPost2010Prop51ColorIndex
 90
      256
102
RTVSPost2010Prop51ColorRGB
 90
-16777216
102
RTVSPost2010PropOp51
 70
     0
102
RTVSPost2010Prop52
140
1.0
102
RTVSPost2010PropOp52
 70
     0
102
RTVSPost2010Prop53
 90
        2
102
RTVSPost2010PropOp53
 70
     1
102
RTVSPost2010Prop54
  1
strokes_ogs.tif
102
RTVSPost2010PropOp54
 70
     1
102
RTVSPost2010Prop55
280
     0
102
RTVSPost2010PropOp55
 70
     1
102
RTVSPost2010Prop56
140
1.0
102
RTVSPost2010PropOp56
 70
     1
102
RTVSPost2010Prop57
140
1.0
102
RTVSPost2010PropOp57
 70
     1
102
RTVSPropertyOp0
 70
     1
102
RTVSPropertyOp1
 70
     1
102
RTVSPropertyOp2
 70
     1
102
RTVSPropertyOp3
 70
     1
102
RTVSPropertyOp4
 70
     1
102
RTVSPropertyOp5
 70
     1
102
RTVSPropertyOp6
 70
     1
102
RTVSPropertyOp7
 70
     1
102
RTVSPropertyOp8
 70
     1
102
RTVSPropertyOp9
 70
     1
102
RTVSPropertyOp10
 70
     1
102
RTVSPropertyOp11
 70
     1
102
RTVSPropertyOp12
 70
     1
102
RTVSPropertyOp13
 70
     1
102
RTVSPropertyOp14
 70
     1
102
RTVSPropertyOp15
 70
     1
102
RTVSPropertyOp16
 70
     1
102
RTVSPropertyOp17
 70
     1
102
RTVSPropertyOp18
 70
     1
102
RTVSPropertyOp19
 70
     1
102
RTVSPropertyOp20
 70
     1
102
RTVSPropertyOp21
 70
     1
102
RTVSPropertyOp22
 70
     1
102
RTVSPropertyOp23
 70
     1
102
RTVSPropertyOp24
 70
     1
102
RTVSPropertyOp25
 70
     1
102
RTVSPropertyOp26
 70
     1
102
RTVSPropertyOp27
 70
     1
102
RTVSPropertyOp28
 70
     1
102
RTVSPropertyOp29
 70
     1
102
RTVSPropertyOp30
 70
     1
102
RTVSPropertyOp31
 70
     1
102
RTVSPropertyOp32
 70
     1
102
RTVSPropertyOp33
 70
     1
102
RTVSPropertyOp34
 70
     1
102
RTVSPropertyOp35
 70
     1
102
RTVSPropertyOp36
 70
     1
102
RTVSPropertyOp37
 70
     1
102
RTVSPropertyOp38
 70
     1
102
RTVSPropertyOp39
 70
     1
102
RTVSPropertyOp40
 70
     1
102
RTVSPropertyOp41
 70
     1
102
RTVSPropertyOp42
 70
     1
102
RTVSPropertyOp43
 70
     1
102
RTVSPropertyOp44
 70
     1
102
RTVSPropertyOp45
 70
     1
102
RTVSPropertyOp46
 70
     1
102
RTVSPropertyOp47
 70
     1
102
RTVSPropertyOp48
 70
     1
102
RTVSPropertyOp49
 70
     1
102
RTVSPropertyOp50
 70
     1
102
RTVSPropertyOp51
 70
     0
102
RTVSPropertyOp52
 70
     0
102
RTVSPropertyOp53
 70
     1
102
RTVSPropertyOp54
 70
     1
102
RTVSPropertyOp55
 70
     1
102
RTVSPropertyOp56
 70
     1
102
RTVSPropertyOp57
 70
     1
102
RTVSPropertyOp58
 70
     1
102
RTVSPropertyOp59
 70
     1
102
RTVSPropertyOp60
 70
     1
102
RTVSPropertyOp61
 70
     1
102
RTVSPropertyOp62
 70
     1
  0
XRECORD
  5
4BE0
102
{ACAD_REACTORS
330
4BDF
102
}
330
4BDF
100
AcDbXrecord
280
     1
102
RTVSPost2010Prop28
280
     0
102
RTVSPost2010PropOp28
 70
     1
102
RTVSPost2010Prop29
280
     1
102
RTVSPost2010PropOp29
 70
     1
102
RTVSPost2010Prop30
280
     1
102
RTVSPost2010PropOp30
 70
     1
102
RTVSPost2010Prop31
280
     0
102
RTVSPost2010PropOp31
 70
     1
102
RTVSPost2010Prop32
280
     0
102
RTVSPost2010PropOp32
 70
     1
102
RTVSPost2010Prop33
280
     0
102
RTVSPost2010PropOp33
 70
     1
102
RTVSPost2010Prop34
280
     0
102
RTVSPost2010PropOp34
 70
     1
102
RTVSPost2010Prop35
280
     0
102
RTVSPost2010PropOp35
 70
     1
102
RTVSPost2010Prop36
280
     0
102
RTVSPost2010PropOp36
 70
     1
102
RTVSPost2010Prop37
 90
       50
102
RTVSPost2010PropOp37
 70
     1
102
RTVSPost2010Prop38
140
0.0
102
RTVSPost2010PropOp38
 70
     1
102
RTVSPost2010Prop39
140
1.0
102
RTVSPost2010PropOp39
 70
     1
102
RTVSPost2010Prop40
 90
        0
102
RTVSPost2010PropOp40
 70
     1
102
RTVSPost2010Prop41ColorIndex
 90
       18
102
RTVSPost2010Prop41ColorRGB
 90
        0
102
RTVSPost2010PropOp41
 70
     1
102
RTVSPost2010Prop42
 90
       50
102
RTVSPost2010PropOp42
 70
     1
102
RTVSPost2010Prop43
 90
        3
102
RTVSPost2010PropOp43
 70
     1
102
RTVSPost2010Prop44ColorIndex
 90
        5
102
RTVSPost2010Prop44ColorRGB
 90
      255
102
RTVSPost2010PropOp44
 70
     1
102
RTVSPost2010Prop45
280
     0
102
RTVSPost2010PropOp45
 70
     1
102
RTVSPost2010Prop46
 90
       50
102
RTVSPost2010PropOp46
 70
     1
102
RTVSPost2010Prop47
 90
       50
102
RTVSPost2010PropOp47
 70
     1
102
RTVSPost2010Prop48
 90
       50
102
RTVSPost2010PropOp48
 70
     1
102
RTVSPost2010Prop49
280
     0
102
RTVSPost2010PropOp49
 70
     1
102
RTVSPost2010Prop50
 90
       50
102
RTVSPost2010PropOp50
 70
     1
102
RTVSPost2010Prop51ColorIndex
 90
      256
102
RTVSPost2010Prop51ColorRGB
 90
-16777216
102
RTVSPost2010PropOp51
 70
     0
102
RTVSPost2010Prop52
140
1.0
102
RTVSPost2010PropOp52
 70
     0
102
RTVSPost2010Prop53
 90
        2
102
RTVSPost2010PropOp53
 70
     1
102
RTVSPost2010Prop54
  1
strokes_ogs.tif
102
RTVSPost2010PropOp54
 70
     1
102
RTVSPost2010Prop55
280
     0
102
RTVSPost2010PropOp55
 70
     1
102
RTVSPost2010Prop56
140
1.0
102
RTVSPost2010PropOp56
 70
     1
102
RTVSPost2010Prop57
140
1.0
102
RTVSPost2010PropOp57
 70
     1
102
RTVSPropertyOp0
 70
     1
102
RTVSPropertyOp1
 70
     1
102
RTVSPropertyOp2
 70
     1
102
RTVSPropertyOp3
 70
     1
102
RTVSPropertyOp4
 70
     1
102
RTVSPropertyOp5
 70
     1
102
RTVSPropertyOp6
 70
     1
102
RTVSPropertyOp7
 70
     1
102
RTVSPropertyOp8
 70
     1
102
RTVSPropertyOp9
 70
     1
102
RTVSPropertyOp10
 70
     1
102
RTVSPropertyOp11
 70
     1
102
RTVSPropertyOp12
 70
     1
102
RTVSPropertyOp13
 70
     1
102
RTVSPropertyOp14
 70
     1
102
RTVSPropertyOp15
 70
     1
102
RTVSPropertyOp16
 70
     1
102
RTVSPropertyOp17
 70
     1
102
RTVSPropertyOp18
 70
     1
102
RTVSPropertyOp19
 70
     1
102
RTVSPropertyOp20
 70
     1
102
RTVSPropertyOp21
 70
     1
102
RTVSPropertyOp22
 70
     1
102
RTVSPropertyOp23
 70
     1
102
RTVSPropertyOp24
 70
     1
102
RTVSPropertyOp25
 70
     1
102
RTVSPropertyOp26
 70
     1
102
RTVSPropertyOp27
 70
     1
102
RTVSPropertyOp28
 70
     1
102
RTVSPropertyOp29
 70
     1
102
RTVSPropertyOp30
 70
     1
102
RTVSPropertyOp31
 70
     1
102
RTVSPropertyOp32
 70
     1
102
RTVSPropertyOp33
 70
     1
102
RTVSPropertyOp34
 70
     1
102
RTVSPropertyOp35
 70
     1
102
RTVSPropertyOp36
 70
     1
102
RTVSPropertyOp37
 70
     1
102
RTVSPropertyOp38
 70
     1
102
RTVSPropertyOp39
 70
     1
102
RTVSPropertyOp40
 70
     1
102
RTVSPropertyOp41
 70
     1
102
RTVSPropertyOp42
 70
     1
102
RTVSPropertyOp43
 70
     1
102
RTVSPropertyOp44
 70
     1
102
RTVSPropertyOp45
 70
     1
102
RTVSPropertyOp46
 70
     1
102
RTVSPropertyOp47
 70
     1
102
RTVSPropertyOp48
 70
     1
102
RTVSPropertyOp49
 70
     1
102
RTVSPropertyOp50
 70
     1
102
RTVSPropertyOp51
 70
     0
102
RTVSPropertyOp52
 70
     0
102
RTVSPropertyOp53
 70
     1
102
RTVSPropertyOp54
 70
     1
102
RTVSPropertyOp55
 70
     1
102
RTVSPropertyOp56
 70
     1
102
RTVSPropertyOp57
 70
     1
102
RTVSPropertyOp58
 70
     1
102
RTVSPropertyOp59
 70
     1
102
RTVSPropertyOp60
 70
     1
102
RTVSPropertyOp61
 70
     1
102
RTVSPropertyOp62
 70
     1
  0
XRECORD
  5
4BE2
102
{ACAD_REACTORS
330
4BE1
102
}
330
4BE1
100
AcDbXrecord
280
     1
102
RTVSPost2010Prop28
280
     0
102
RTVSPost2010PropOp28
 70
     1
102
RTVSPost2010Prop29
280
     1
102
RTVSPost2010PropOp29
 70
     1
102
RTVSPost2010Prop30
280
     1
102
RTVSPost2010PropOp30
 70
     1
102
RTVSPost2010Prop31
280
     0
102
RTVSPost2010PropOp31
 70
     1
102
RTVSPost2010Prop32
280
     0
102
RTVSPost2010PropOp32
 70
     1
102
RTVSPost2010Prop33
280
     0
102
RTVSPost2010PropOp33
 70
     1
102
RTVSPost2010Prop34
280
     0
102
RTVSPost2010PropOp34
 70
     1
102
RTVSPost2010Prop35
280
     0
102
RTVSPost2010PropOp35
 70
     1
102
RTVSPost2010Prop36
280
     0
102
RTVSPost2010PropOp36
 70
     1
102
RTVSPost2010Prop37
 90
       50
102
RTVSPost2010PropOp37
 70
     1
102
RTVSPost2010Prop38
140
0.0
102
RTVSPost2010PropOp38
 70
     1
102
RTVSPost2010Prop39
140
1.0
102
RTVSPost2010PropOp39
 70
     1
102
RTVSPost2010Prop40
 90
        0
102
RTVSPost2010PropOp40
 70
     1
102
RTVSPost2010Prop41ColorIndex
 90
       18
102
RTVSPost2010Prop41ColorRGB
 90
        0
102
RTVSPost2010PropOp41
 70
     1
102
RTVSPost2010Prop42
 90
       50
102
RTVSPost2010PropOp42
 70
     1
102
RTVSPost2010Prop43
 90
        3
102
RTVSPost2010PropOp43
 70
     1
102
RTVSPost2010Prop44ColorIndex
 90
        5
102
RTVSPost2010Prop44ColorRGB
 90
      255
102
RTVSPost2010PropOp44
 70
     1
102
RTVSPost2010Prop45
280
     0
102
RTVSPost2010PropOp45
 70
     1
102
RTVSPost2010Prop46
 90
       50
102
RTVSPost2010PropOp46
 70
     1
102
RTVSPost2010Prop47
 90
       50
102
RTVSPost2010PropOp47
 70
     1
102
RTVSPost2010Prop48
 90
       50
102
RTVSPost2010PropOp48
 70
     1
102
RTVSPost2010Prop49
280
     0
102
RTVSPost2010PropOp49
 70
     1
102
RTVSPost2010Prop50
 90
       50
102
RTVSPost2010PropOp50
 70
     1
102
RTVSPost2010Prop51ColorIndex
 90
      256
102
RTVSPost2010Prop51ColorRGB
 90
-16777216
102
RTVSPost2010PropOp51
 70
     0
102
RTVSPost2010Prop52
140
1.0
102
RTVSPost2010PropOp52
 70
     0
102
RTVSPost2010Prop53
 90
        2
102
RTVSPost2010PropOp53
 70
     1
102
RTVSPost2010Prop54
  1
strokes_ogs.tif
102
RTVSPost2010PropOp54
 70
     1
102
RTVSPost2010Prop55
280
     0
102
RTVSPost2010PropOp55
 70
     1
102
RTVSPost2010Prop56
140
1.0
102
RTVSPost2010PropOp56
 70
     1
102
RTVSPost2010Prop57
140
1.0
102
RTVSPost2010PropOp57
 70
     1
102
RTVSPropertyOp0
 70
     1
102
RTVSPropertyOp1
 70
     1
102
RTVSPropertyOp2
 70
     1
102
RTVSPropertyOp3
 70
     1
102
RTVSPropertyOp4
 70
     1
102
RTVSPropertyOp5
 70
     1
102
RTVSPropertyOp6
 70
     1
102
RTVSPropertyOp7
 70
     1
102
RTVSPropertyOp8
 70
     1
102
RTVSPropertyOp9
 70
     1
102
RTVSPropertyOp10
 70
     1
102
RTVSPropertyOp11
 70
     1
102
RTVSPropertyOp12
 70
     1
102
RTVSPropertyOp13
 70
     1
102
RTVSPropertyOp14
 70
     1
102
RTVSPropertyOp15
 70
     1
102
RTVSPropertyOp16
 70
     1
102
RTVSPropertyOp17
 70
     1
102
RTVSPropertyOp18
 70
     1
102
RTVSPropertyOp19
 70
     1
102
RTVSPropertyOp20
 70
     1
102
RTVSPropertyOp21
 70
     1
102
RTVSPropertyOp22
 70
     1
102
RTVSPropertyOp23
 70
     1
102
RTVSPropertyOp24
 70
     1
102
RTVSPropertyOp25
 70
     1
102
RTVSPropertyOp26
 70
     1
102
RTVSPropertyOp27
 70
     1
102
RTVSPropertyOp28
 70
     1
102
RTVSPropertyOp29
 70
     1
102
RTVSPropertyOp30
 70
     1
102
RTVSPropertyOp31
 70
     1
102
RTVSPropertyOp32
 70
     1
102
RTVSPropertyOp33
 70
     1
102
RTVSPropertyOp34
 70
     1
102
RTVSPropertyOp35
 70
     1
102
RTVSPropertyOp36
 70
     1
102
RTVSPropertyOp37
 70
     1
102
RTVSPropertyOp38
 70
     1
102
RTVSPropertyOp39
 70
     1
102
RTVSPropertyOp40
 70
     1
102
RTVSPropertyOp41
 70
     1
102
RTVSPropertyOp42
 70
     1
102
RTVSPropertyOp43
 70
     1
102
RTVSPropertyOp44
 70
     1
102
RTVSPropertyOp45
 70
     1
102
RTVSPropertyOp46
 70
     1
102
RTVSPropertyOp47
 70
     1
102
RTVSPropertyOp48
 70
     1
102
RTVSPropertyOp49
 70
     1
102
RTVSPropertyOp50
 70
     1
102
RTVSPropertyOp51
 70
     0
102
RTVSPropertyOp52
 70
     0
102
RTVSPropertyOp53
 70
     1
102
RTVSPropertyOp54
 70
     1
102
RTVSPropertyOp55
 70
     1
102
RTVSPropertyOp56
 70
     1
102
RTVSPropertyOp57
 70
     1
102
RTVSPropertyOp58
 70
     1
102
RTVSPropertyOp59
 70
     1
102
RTVSPropertyOp60
 70
     1
102
RTVSPropertyOp61
 70
     1
102
RTVSPropertyOp62
 70
     1
  0
XRECORD
  5
4BE4
102
{ACAD_REACTORS
330
4BE3
102
}
330
4BE3
100
AcDbXrecord
280
     1
102
RTVSPost2010Prop28
280
     0
102
RTVSPost2010PropOp28
 70
     1
102
RTVSPost2010Prop29
280
     1
102
RTVSPost2010PropOp29
 70
     1
102
RTVSPost2010Prop30
280
     1
102
RTVSPost2010PropOp30
 70
     1
102
RTVSPost2010Prop31
280
     0
102
RTVSPost2010PropOp31
 70
     1
102
RTVSPost2010Prop32
280
     0
102
RTVSPost2010PropOp32
 70
     1
102
RTVSPost2010Prop33
280
     0
102
RTVSPost2010PropOp33
 70
     1
102
RTVSPost2010Prop34
280
     0
102
RTVSPost2010PropOp34
 70
     1
102
RTVSPost2010Prop35
280
     0
102
RTVSPost2010PropOp35
 70
     1
102
RTVSPost2010Prop36
280
     0
102
RTVSPost2010PropOp36
 70
     1
102
RTVSPost2010Prop37
 90
       50
102
RTVSPost2010PropOp37
 70
     1
102
RTVSPost2010Prop38
140
0.0
102
RTVSPost2010PropOp38
 70
     1
102
RTVSPost2010Prop39
140
1.0
102
RTVSPost2010PropOp39
 70
     1
102
RTVSPost2010Prop40
 90
        0
102
RTVSPost2010PropOp40
 70
     1
102
RTVSPost2010Prop41ColorIndex
 90
       18
102
RTVSPost2010Prop41ColorRGB
 90
        0
102
RTVSPost2010PropOp41
 70
     1
102
RTVSPost2010Prop42
 90
       50
102
RTVSPost2010PropOp42
 70
     1
102
RTVSPost2010Prop43
 90
        3
102
RTVSPost2010PropOp43
 70
     1
102
RTVSPost2010Prop44ColorIndex
 90
        5
102
RTVSPost2010Prop44ColorRGB
 90
      255
102
RTVSPost2010PropOp44
 70
     1
102
RTVSPost2010Prop45
280
     0
102
RTVSPost2010PropOp45
 70
     1
102
RTVSPost2010Prop46
 90
       50
102
RTVSPost2010PropOp46
 70
     1
102
RTVSPost2010Prop47
 90
       50
102
RTVSPost2010PropOp47
 70
     1
102
RTVSPost2010Prop48
 90
       50
102
RTVSPost2010PropOp48
 70
     1
102
RTVSPost2010Prop49
280
     0
102
RTVSPost2010PropOp49
 70
     1
102
RTVSPost2010Prop50
 90
       50
102
RTVSPost2010PropOp50
 70
     1
102
RTVSPost2010Prop51ColorIndex
 90
      256
102
RTVSPost2010Prop51ColorRGB
 90
-16777216
102
RTVSPost2010PropOp51
 70
     0
102
RTVSPost2010Prop52
140
1.0
102
RTVSPost2010PropOp52
 70
     0
102
RTVSPost2010Prop53
 90
        2
102
RTVSPost2010PropOp53
 70
     1
102
RTVSPost2010Prop54
  1
strokes_ogs.tif
102
RTVSPost2010PropOp54
 70
     1
102
RTVSPost2010Prop55
280
     0
102
RTVSPost2010PropOp55
 70
     1
102
RTVSPost2010Prop56
140
1.0
102
RTVSPost2010PropOp56
 70
     1
102
RTVSPost2010Prop57
140
1.0
102
RTVSPost2010PropOp57
 70
     1
102
RTVSPropertyOp0
 70
     1
102
RTVSPropertyOp1
 70
     1
102
RTVSPropertyOp2
 70
     1
102
RTVSPropertyOp3
 70
     1
102
RTVSPropertyOp4
 70
     1
102
RTVSPropertyOp5
 70
     1
102
RTVSPropertyOp6
 70
     1
102
RTVSPropertyOp7
 70
     1
102
RTVSPropertyOp8
 70
     1
102
RTVSPropertyOp9
 70
     1
102
RTVSPropertyOp10
 70
     1
102
RTVSPropertyOp11
 70
     1
102
RTVSPropertyOp12
 70
     1
102
RTVSPropertyOp13
 70
     1
102
RTVSPropertyOp14
 70
     1
102
RTVSPropertyOp15
 70
     1
102
RTVSPropertyOp16
 70
     1
102
RTVSPropertyOp17
 70
     1
102
RTVSPropertyOp18
 70
     1
102
RTVSPropertyOp19
 70
     1
102
RTVSPropertyOp20
 70
     1
102
RTVSPropertyOp21
 70
     1
102
RTVSPropertyOp22
 70
     1
102
RTVSPropertyOp23
 70
     1
102
RTVSPropertyOp24
 70
     1
102
RTVSPropertyOp25
 70
     1
102
RTVSPropertyOp26
 70
     1
102
RTVSPropertyOp27
 70
     1
102
RTVSPropertyOp28
 70
     1
102
RTVSPropertyOp29
 70
     1
102
RTVSPropertyOp30
 70
     1
102
RTVSPropertyOp31
 70
     1
102
RTVSPropertyOp32
 70
     1
102
RTVSPropertyOp33
 70
     1
102
RTVSPropertyOp34
 70
     1
102
RTVSPropertyOp35
 70
     1
102
RTVSPropertyOp36
 70
     1
102
RTVSPropertyOp37
 70
     1
102
RTVSPropertyOp38
 70
     1
102
RTVSPropertyOp39
 70
     1
102
RTVSPropertyOp40
 70
     1
102
RTVSPropertyOp41
 70
     1
102
RTVSPropertyOp42
 70
     1
102
RTVSPropertyOp43
 70
     1
102
RTVSPropertyOp44
 70
     1
102
RTVSPropertyOp45
 70
     1
102
RTVSPropertyOp46
 70
     1
102
RTVSPropertyOp47
 70
     1
102
RTVSPropertyOp48
 70
     1
102
RTVSPropertyOp49
 70
     1
102
RTVSPropertyOp50
 70
     1
102
RTVSPropertyOp51
 70
     0
102
RTVSPropertyOp52
 70
     0
102
RTVSPropertyOp53
 70
     1
102
RTVSPropertyOp54
 70
     1
102
RTVSPropertyOp55
 70
     1
102
RTVSPropertyOp56
 70
     1
102
RTVSPropertyOp57
 70
     1
102
RTVSPropertyOp58
 70
     1
102
RTVSPropertyOp59
 70
     1
102
RTVSPropertyOp60
 70
     1
102
RTVSPropertyOp61
 70
     1
102
RTVSPropertyOp62
 70
     1
  0
XRECORD
  5
4BE6
102
{ACAD_REACTORS
330
4BE5
102
}
330
4BE5
100
AcDbXrecord
280
     1
102
RTVSPost2010Prop28
280
     0
102
RTVSPost2010PropOp28
 70
     1
102
RTVSPost2010Prop29
280
     1
102
RTVSPost2010PropOp29
 70
     1
102
RTVSPost2010Prop30
280
     1
102
RTVSPost2010PropOp30
 70
     1
102
RTVSPost2010Prop31
280
     0
102
RTVSPost2010PropOp31
 70
     1
102
RTVSPost2010Prop32
280
     0
102
RTVSPost2010PropOp32
 70
     1
102
RTVSPost2010Prop33
280
     0
102
RTVSPost2010PropOp33
 70
     1
102
RTVSPost2010Prop34
280
     0
102
RTVSPost2010PropOp34
 70
     1
102
RTVSPost2010Prop35
280
     0
102
RTVSPost2010PropOp35
 70
     1
102
RTVSPost2010Prop36
280
     0
102
RTVSPost2010PropOp36
 70
     1
102
RTVSPost2010Prop37
 90
       50
102
RTVSPost2010PropOp37
 70
     1
102
RTVSPost2010Prop38
140
0.0
102
RTVSPost2010PropOp38
 70
     1
102
RTVSPost2010Prop39
140
1.0
102
RTVSPost2010PropOp39
 70
     1
102
RTVSPost2010Prop40
 90
        0
102
RTVSPost2010PropOp40
 70
     1
102
RTVSPost2010Prop41ColorIndex
 90
       18
102
RTVSPost2010Prop41ColorRGB
 90
        0
102
RTVSPost2010PropOp41
 70
     1
102
RTVSPost2010Prop42
 90
       50
102
RTVSPost2010PropOp42
 70
     1
102
RTVSPost2010Prop43
 90
        3
102
RTVSPost2010PropOp43
 70
     1
102
RTVSPost2010Prop44ColorIndex
 90
        5
102
RTVSPost2010Prop44ColorRGB
 90
      255
102
RTVSPost2010PropOp44
 70
     1
102
RTVSPost2010Prop45
280
     0
102
RTVSPost2010PropOp45
 70
     1
102
RTVSPost2010Prop46
 90
       50
102
RTVSPost2010PropOp46
 70
     1
102
RTVSPost2010Prop47
 90
       50
102
RTVSPost2010PropOp47
 70
     1
102
RTVSPost2010Prop48
 90
       50
102
RTVSPost2010PropOp48
 70
     1
102
RTVSPost2010Prop49
280
     0
102
RTVSPost2010PropOp49
 70
     1
102
RTVSPost2010Prop50
 90
       50
102
RTVSPost2010PropOp50
 70
     1
102
RTVSPost2010Prop51ColorIndex
 90
      256
102
RTVSPost2010Prop51ColorRGB
 90
-16777216
102
RTVSPost2010PropOp51
 70
     0
102
RTVSPost2010Prop52
140
1.0
102
RTVSPost2010PropOp52
 70
     0
102
RTVSPost2010Prop53
 90
        2
102
RTVSPost2010PropOp53
 70
     1
102
RTVSPost2010Prop54
  1
strokes_ogs.tif
102
RTVSPost2010PropOp54
 70
     1
102
RTVSPost2010Prop55
280
     0
102
RTVSPost2010PropOp55
 70
     1
102
RTVSPost2010Prop56
140
1.0
102
RTVSPost2010PropOp56
 70
     1
102
RTVSPost2010Prop57
140
1.0
102
RTVSPost2010PropOp57
 70
     1
102
RTVSPropertyOp0
 70
     1
102
RTVSPropertyOp1
 70
     1
102
RTVSPropertyOp2
 70
     1
102
RTVSPropertyOp3
 70
     1
102
RTVSPropertyOp4
 70
     1
102
RTVSPropertyOp5
 70
     1
102
RTVSPropertyOp6
 70
     1
102
RTVSPropertyOp7
 70
     1
102
RTVSPropertyOp8
 70
     1
102
RTVSPropertyOp9
 70
     1
102
RTVSPropertyOp10
 70
     1
102
RTVSPropertyOp11
 70
     1
102
RTVSPropertyOp12
 70
     1
102
RTVSPropertyOp13
 70
     1
102
RTVSPropertyOp14
 70
     1
102
RTVSPropertyOp15
 70
     1
102
RTVSPropertyOp16
 70
     1
102
RTVSPropertyOp17
 70
     1
102
RTVSPropertyOp18
 70
     1
102
RTVSPropertyOp19
 70
     1
102
RTVSPropertyOp20
 70
     1
102
RTVSPropertyOp21
 70
     1
102
RTVSPropertyOp22
 70
     1
102
RTVSPropertyOp23
 70
     1
102
RTVSPropertyOp24
 70
     1
102
RTVSPropertyOp25
 70
     1
102
RTVSPropertyOp26
 70
     1
102
RTVSPropertyOp27
 70
     1
102
RTVSPropertyOp28
 70
     1
102
RTVSPropertyOp29
 70
     1
102
RTVSPropertyOp30
 70
     1
102
RTVSPropertyOp31
 70
     1
102
RTVSPropertyOp32
 70
     1
102
RTVSPropertyOp33
 70
     1
102
RTVSPropertyOp34
 70
     1
102
RTVSPropertyOp35
 70
     1
102
RTVSPropertyOp36
 70
     1
102
RTVSPropertyOp37
 70
     1
102
RTVSPropertyOp38
 70
     1
102
RTVSPropertyOp39
 70
     1
102
RTVSPropertyOp40
 70
     1
102
RTVSPropertyOp41
 70
     1
102
RTVSPropertyOp42
 70
     1
102
RTVSPropertyOp43
 70
     1
102
RTVSPropertyOp44
 70
     1
102
RTVSPropertyOp45
 70
     1
102
RTVSPropertyOp46
 70
     1
102
RTVSPropertyOp47
 70
     1
102
RTVSPropertyOp48
 70
     1
102
RTVSPropertyOp49
 70
     1
102
RTVSPropertyOp50
 70
     1
102
RTVSPropertyOp51
 70
     0
102
RTVSPropertyOp52
 70
     0
102
RTVSPropertyOp53
 70
     1
102
RTVSPropertyOp54
 70
     1
102
RTVSPropertyOp55
 70
     1
102
RTVSPropertyOp56
 70
     1
102
RTVSPropertyOp57
 70
     1
102
RTVSPropertyOp58
 70
     1
102
RTVSPropertyOp59
 70
     1
102
RTVSPropertyOp60
 70
     1
102
RTVSPropertyOp61
 70
     1
102
RTVSPropertyOp62
 70
     1
  0
XRECORD
  5
4C29
102
{ACAD_REACTORS
330
4C28
102
}
330
4C28
100
AcDbXrecord
280
     1
102
RTVSPost2010Prop28
280
     0
102
RTVSPost2010PropOp28
 70
     1
102
RTVSPost2010Prop29
280
     1
102
RTVSPost2010PropOp29
 70
     1
102
RTVSPost2010Prop30
280
     1
102
RTVSPost2010PropOp30
 70
     1
102
RTVSPost2010Prop31
280
     0
102
RTVSPost2010PropOp31
 70
     1
102
RTVSPost2010Prop32
280
     0
102
RTVSPost2010PropOp32
 70
     1
102
RTVSPost2010Prop33
280
     0
102
RTVSPost2010PropOp33
 70
     1
102
RTVSPost2010Prop34
280
     0
102
RTVSPost2010PropOp34
 70
     1
102
RTVSPost2010Prop35
280
     0
102
RTVSPost2010PropOp35
 70
     1
102
RTVSPost2010Prop36
280
     0
102
RTVSPost2010PropOp36
 70
     1
102
RTVSPost2010Prop37
 90
       50
102
RTVSPost2010PropOp37
 70
     1
102
RTVSPost2010Prop38
140
0.0
102
RTVSPost2010PropOp38
 70
     1
102
RTVSPost2010Prop39
140
1.0
102
RTVSPost2010PropOp39
 70
     1
102
RTVSPost2010Prop40
 90
        0
102
RTVSPost2010PropOp40
 70
     1
102
RTVSPost2010Prop41ColorIndex
 90
       18
102
RTVSPost2010Prop41ColorRGB
 90
        0
102
RTVSPost2010PropOp41
 70
     1
102
RTVSPost2010Prop42
 90
       50
102
RTVSPost2010PropOp42
 70
     1
102
RTVSPost2010Prop43
 90
        3
102
RTVSPost2010PropOp43
 70
     1
102
RTVSPost2010Prop44ColorIndex
 90
        5
102
RTVSPost2010Prop44ColorRGB
 90
      255
102
RTVSPost2010PropOp44
 70
     1
102
RTVSPost2010Prop45
280
     0
102
RTVSPost2010PropOp45
 70
     1
102
RTVSPost2010Prop46
 90
       50
102
RTVSPost2010PropOp46
 70
     1
102
RTVSPost2010Prop47
 90
       50
102
RTVSPost2010PropOp47
 70
     1
102
RTVSPost2010Prop48
 90
       50
102
RTVSPost2010PropOp48
 70
     1
102
RTVSPost2010Prop49
280
     0
102
RTVSPost2010PropOp49
 70
     1
102
RTVSPost2010Prop50
 90
       50
102
RTVSPost2010PropOp50
 70
     1
102
RTVSPost2010Prop51ColorIndex
 90
      256
102
RTVSPost2010Prop51ColorRGB
 90
-16777216
102
RTVSPost2010PropOp51
 70
     0
102
RTVSPost2010Prop52
140
1.0
102
RTVSPost2010PropOp52
 70
     0
102
RTVSPost2010Prop53
 90
        2
102
RTVSPost2010PropOp53
 70
     1
102
RTVSPost2010Prop54
  1
strokes_ogs.tif
102
RTVSPost2010PropOp54
 70
     1
102
RTVSPost2010Prop55
280
     0
102
RTVSPost2010PropOp55
 70
     1
102
RTVSPost2010Prop56
140
1.0
102
RTVSPost2010PropOp56
 70
     1
102
RTVSPost2010Prop57
140
1.0
102
RTVSPost2010PropOp57
 70
     1
102
RTVSPropertyOp0
 70
     1
102
RTVSPropertyOp1
 70
     1
102
RTVSPropertyOp2
 70
     1
102
RTVSPropertyOp3
 70
     1
102
RTVSPropertyOp4
 70
     1
102
RTVSPropertyOp5
 70
     1
102
RTVSPropertyOp6
 70
     1
102
RTVSPropertyOp7
 70
     1
102
RTVSPropertyOp8
 70
     1
102
RTVSPropertyOp9
 70
     1
102
RTVSPropertyOp10
 70
     1
102
RTVSPropertyOp11
 70
     1
102
RTVSPropertyOp12
 70
     1
102
RTVSPropertyOp13
 70
     1
102
RTVSPropertyOp14
 70
     1
102
RTVSPropertyOp15
 70
     1
102
RTVSPropertyOp16
 70
     1
102
RTVSPropertyOp17
 70
     1
102
RTVSPropertyOp18
 70
     1
102
RTVSPropertyOp19
 70
     1
102
RTVSPropertyOp20
 70
     1
102
RTVSPropertyOp21
 70
     1
102
RTVSPropertyOp22
 70
     1
102
RTVSPropertyOp23
 70
     1
102
RTVSPropertyOp24
 70
     1
102
RTVSPropertyOp25
 70
     1
102
RTVSPropertyOp26
 70
     1
102
RTVSPropertyOp27
 70
     1
102
RTVSPropertyOp28
 70
     1
102
RTVSPropertyOp29
 70
     1
102
RTVSPropertyOp30
 70
     1
102
RTVSPropertyOp31
 70
     1
102
RTVSPropertyOp32
 70
     1
102
RTVSPropertyOp33
 70
     1
102
RTVSPropertyOp34
 70
     1
102
RTVSPropertyOp35
 70
     1
102
RTVSPropertyOp36
 70
     1
102
RTVSPropertyOp37
 70
     1
102
RTVSPropertyOp38
 70
     1
102
RTVSPropertyOp39
 70
     1
102
RTVSPropertyOp40
 70
     1
102
RTVSPropertyOp41
 70
     1
102
RTVSPropertyOp42
 70
     1
102
RTVSPropertyOp43
 70
     1
102
RTVSPropertyOp44
 70
     1
102
RTVSPropertyOp45
 70
     1
102
RTVSPropertyOp46
 70
     1
102
RTVSPropertyOp47
 70
     1
102
RTVSPropertyOp48
 70
     1
102
RTVSPropertyOp49
 70
     1
102
RTVSPropertyOp50
 70
     1
102
RTVSPropertyOp51
 70
     0
102
RTVSPropertyOp52
 70
     0
102
RTVSPropertyOp53
 70
     1
102
RTVSPropertyOp54
 70
     1
102
RTVSPropertyOp55
 70
     1
102
RTVSPropertyOp56
 70
     1
102
RTVSPropertyOp57
 70
     1
102
RTVSPropertyOp58
 70
     1
102
RTVSPropertyOp59
 70
     1
102
RTVSPropertyOp60
 70
     1
102
RTVSPropertyOp61
 70
     1
102
RTVSPropertyOp62
 70
     1
  0
XRECORD
  5
4C00
102
{ACAD_REACTORS
330
4BFF
102
}
330
4BFF
100
AcDbXrecord
280
     1
102
RTVSPost2010Prop28
280
     0
102
RTVSPost2010PropOp28
 70
     1
102
RTVSPost2010Prop29
280
     1
102
RTVSPost2010PropOp29
 70
     1
102
RTVSPost2010Prop30
280
     1
102
RTVSPost2010PropOp30
 70
     1
102
RTVSPost2010Prop31
280
     0
102
RTVSPost2010PropOp31
 70
     1
102
RTVSPost2010Prop32
280
     0
102
RTVSPost2010PropOp32
 70
     1
102
RTVSPost2010Prop33
280
     0
102
RTVSPost2010PropOp33
 70
     1
102
RTVSPost2010Prop34
280
     0
102
RTVSPost2010PropOp34
 70
     1
102
RTVSPost2010Prop35
280
     0
102
RTVSPost2010PropOp35
 70
     1
102
RTVSPost2010Prop36
280
     0
102
RTVSPost2010PropOp36
 70
     1
102
RTVSPost2010Prop37
 90
       50
102
RTVSPost2010PropOp37
 70
     1
102
RTVSPost2010Prop38
140
0.0
102
RTVSPost2010PropOp38
 70
     1
102
RTVSPost2010Prop39
140
1.0
102
RTVSPost2010PropOp39
 70
     1
102
RTVSPost2010Prop40
 90
        0
102
RTVSPost2010PropOp40
 70
     1
102
RTVSPost2010Prop41ColorIndex
 90
       18
102
RTVSPost2010Prop41ColorRGB
 90
        0
102
RTVSPost2010PropOp41
 70
     1
102
RTVSPost2010Prop42
 90
       50
102
RTVSPost2010PropOp42
 70
     1
102
RTVSPost2010Prop43
 90
        3
102
RTVSPost2010PropOp43
 70
     1
102
RTVSPost2010Prop44ColorIndex
 90
        5
102
RTVSPost2010Prop44ColorRGB
 90
      255
102
RTVSPost2010PropOp44
 70
     1
102
RTVSPost2010Prop45
280
     0
102
RTVSPost2010PropOp45
 70
     1
102
RTVSPost2010Prop46
 90
       50
102
RTVSPost2010PropOp46
 70
     1
102
RTVSPost2010Prop47
 90
       50
102
RTVSPost2010PropOp47
 70
     1
102
RTVSPost2010Prop48
 90
       50
102
RTVSPost2010PropOp48
 70
     1
102
RTVSPost2010Prop49
280
     0
102
RTVSPost2010PropOp49
 70
     1
102
RTVSPost2010Prop50
 90
       50
102
RTVSPost2010PropOp50
 70
     1
102
RTVSPost2010Prop51ColorIndex
 90
      256
102
RTVSPost2010Prop51ColorRGB
 90
-16777216
102
RTVSPost2010PropOp51
 70
     0
102
RTVSPost2010Prop52
140
1.0
102
RTVSPost2010PropOp52
 70
     0
102
RTVSPost2010Prop53
 90
        2
102
RTVSPost2010PropOp53
 70
     1
102
RTVSPost2010Prop54
  1
strokes_ogs.tif
102
RTVSPost2010PropOp54
 70
     1
102
RTVSPost2010Prop55
280
     0
102
RTVSPost2010PropOp55
 70
     1
102
RTVSPost2010Prop56
140
1.0
102
RTVSPost2010PropOp56
 70
     1
102
RTVSPost2010Prop57
140
1.0
102
RTVSPost2010PropOp57
 70
     1
102
RTVSPropertyOp0
 70
     0
102
RTVSPropertyOp1
 70
     0
102
RTVSPropertyOp2
 70
     0
102
RTVSPropertyOp3
 70
     0
102
RTVSPropertyOp4
 70
     0
102
RTVSPropertyOp5
 70
     0
102
RTVSPropertyOp6
 70
     0
102
RTVSPropertyOp7
 70
     0
102
RTVSPropertyOp8
 70
     0
102
RTVSPropertyOp9
 70
     0
102
RTVSPropertyOp10
 70
     0
102
RTVSPropertyOp11
 70
     0
102
RTVSPropertyOp12
 70
     0
102
RTVSPropertyOp13
 70
     0
102
RTVSPropertyOp14
 70
     2
102
RTVSPropertyOp15
 70
     0
102
RTVSPropertyOp16
 70
     0
102
RTVSPropertyOp17
 70
     0
102
RTVSPropertyOp18
 70
     0
102
RTVSPropertyOp19
 70
     0
102
RTVSPropertyOp20
 70
     0
102
RTVSPropertyOp21
 70
     0
102
RTVSPropertyOp22
 70
     0
102
RTVSPropertyOp23
 70
     0
102
RTVSPropertyOp24
 70
     0
102
RTVSPropertyOp25
 70
     0
102
RTVSPropertyOp26
 70
     0
102
RTVSPropertyOp27
 70
     0
102
RTVSPropertyOp28
 70
     1
102
RTVSPropertyOp29
 70
     1
102
RTVSPropertyOp30
 70
     1
102
RTVSPropertyOp31
 70
     1
102
RTVSPropertyOp32
 70
     1
102
RTVSPropertyOp33
 70
     1
102
RTVSPropertyOp34
 70
     1
102
RTVSPropertyOp35
 70
     1
102
RTVSPropertyOp36
 70
     1
102
RTVSPropertyOp37
 70
     1
102
RTVSPropertyOp38
 70
     1
102
RTVSPropertyOp39
 70
     1
102
RTVSPropertyOp40
 70
     1
102
RTVSPropertyOp41
 70
     1
102
RTVSPropertyOp42
 70
     1
102
RTVSPropertyOp43
 70
     1
102
RTVSPropertyOp44
 70
     1
102
RTVSPropertyOp45
 70
     1
102
RTVSPropertyOp46
 70
     1
102
RTVSPropertyOp47
 70
     1
102
RTVSPropertyOp48
 70
     1
102
RTVSPropertyOp49
 70
     1
102
RTVSPropertyOp50
 70
     1
102
RTVSPropertyOp51
 70
     0
102
RTVSPropertyOp52
 70
     0
102
RTVSPropertyOp53
 70
     1
102
RTVSPropertyOp54
 70
     1
102
RTVSPropertyOp55
 70
     1
102
RTVSPropertyOp56
 70
     1
102
RTVSPropertyOp57
 70
     1
102
RTVSPropertyOp58
 70
     1
102
RTVSPropertyOp59
 70
     1
102
RTVSPropertyOp60
 70
     1
102
RTVSPropertyOp61
 70
     1
102
RTVSPropertyOp62
 70
     1
  0
XRECORD
  5
4BFA
102
{ACAD_REACTORS
330
4BF9
102
}
330
4BF9
100
AcDbXrecord
280
     1
102
RTVSPost2010Prop28
280
     0
102
RTVSPost2010PropOp28
 70
     1
102
RTVSPost2010Prop29
280
     1
102
RTVSPost2010PropOp29
 70
     1
102
RTVSPost2010Prop30
280
     1
102
RTVSPost2010PropOp30
 70
     1
102
RTVSPost2010Prop31
280
     0
102
RTVSPost2010PropOp31
 70
     1
102
RTVSPost2010Prop32
280
     0
102
RTVSPost2010PropOp32
 70
     1
102
RTVSPost2010Prop33
280
     0
102
RTVSPost2010PropOp33
 70
     1
102
RTVSPost2010Prop34
280
     0
102
RTVSPost2010PropOp34
 70
     1
102
RTVSPost2010Prop35
280
     0
102
RTVSPost2010PropOp35
 70
     1
102
RTVSPost2010Prop36
280
     0
102
RTVSPost2010PropOp36
 70
     1
102
RTVSPost2010Prop37
 90
       50
102
RTVSPost2010PropOp37
 70
     1
102
RTVSPost2010Prop38
140
0.0
102
RTVSPost2010PropOp38
 70
     1
102
RTVSPost2010Prop39
140
1.0
102
RTVSPost2010PropOp39
 70
     1
102
RTVSPost2010Prop40
 90
        0
102
RTVSPost2010PropOp40
 70
     1
102
RTVSPost2010Prop41ColorIndex
 90
       18
102
RTVSPost2010Prop41ColorRGB
 90
        0
102
RTVSPost2010PropOp41
 70
     1
102
RTVSPost2010Prop42
 90
       50
102
RTVSPost2010PropOp42
 70
     1
102
RTVSPost2010Prop43
 90
        3
102
RTVSPost2010PropOp43
 70
     1
102
RTVSPost2010Prop44ColorIndex
 90
        5
102
RTVSPost2010Prop44ColorRGB
 90
      255
102
RTVSPost2010PropOp44
 70
     1
102
RTVSPost2010Prop45
280
     0
102
RTVSPost2010PropOp45
 70
     1
102
RTVSPost2010Prop46
 90
       50
102
RTVSPost2010PropOp46
 70
     1
102
RTVSPost2010Prop47
 90
       50
102
RTVSPost2010PropOp47
 70
     1
102
RTVSPost2010Prop48
 90
       50
102
RTVSPost2010PropOp48
 70
     1
102
RTVSPost2010Prop49
280
     0
102
RTVSPost2010PropOp49
 70
     1
102
RTVSPost2010Prop50
 90
       50
102
RTVSPost2010PropOp50
 70
     1
102
RTVSPost2010Prop51ColorIndex
 90
      256
102
RTVSPost2010Prop51ColorRGB
 90
-16777216
102
RTVSPost2010PropOp51
 70
     0
102
RTVSPost2010Prop52
140
1.0
102
RTVSPost2010PropOp52
 70
     0
102
RTVSPost2010Prop53
 90
        2
102
RTVSPost2010PropOp53
 70
     1
102
RTVSPost2010Prop54
  1
strokes_ogs.tif
102
RTVSPost2010PropOp54
 70
     1
102
RTVSPost2010Prop55
280
     0
102
RTVSPost2010PropOp55
 70
     1
102
RTVSPost2010Prop56
140
1.0
102
RTVSPost2010PropOp56
 70
     1
102
RTVSPost2010Prop57
140
1.0
102
RTVSPost2010PropOp57
 70
     1
102
RTVSPropertyOp0
 70
     1
102
RTVSPropertyOp1
 70
     1
102
RTVSPropertyOp2
 70
     1
102
RTVSPropertyOp3
 70
     1
102
RTVSPropertyOp4
 70
     1
102
RTVSPropertyOp5
 70
     1
102
RTVSPropertyOp6
 70
     1
102
RTVSPropertyOp7
 70
     1
102
RTVSPropertyOp8
 70
     1
102
RTVSPropertyOp9
 70
     1
102
RTVSPropertyOp10
 70
     1
102
RTVSPropertyOp11
 70
     1
102
RTVSPropertyOp12
 70
     1
102
RTVSPropertyOp13
 70
     1
102
RTVSPropertyOp14
 70
     1
102
RTVSPropertyOp15
 70
     1
102
RTVSPropertyOp16
 70
     1
102
RTVSPropertyOp17
 70
     1
102
RTVSPropertyOp18
 70
     1
102
RTVSPropertyOp19
 70
     1
102
RTVSPropertyOp20
 70
     1
102
RTVSPropertyOp21
 70
     1
102
RTVSPropertyOp22
 70
     1
102
RTVSPropertyOp23
 70
     1
102
RTVSPropertyOp24
 70
     1
102
RTVSPropertyOp25
 70
     1
102
RTVSPropertyOp26
 70
     1
102
RTVSPropertyOp27
 70
     1
102
RTVSPropertyOp28
 70
     1
102
RTVSPropertyOp29
 70
     1
102
RTVSPropertyOp30
 70
     1
102
RTVSPropertyOp31
 70
     1
102
RTVSPropertyOp32
 70
     1
102
RTVSPropertyOp33
 70
     1
102
RTVSPropertyOp34
 70
     1
102
RTVSPropertyOp35
 70
     1
102
RTVSPropertyOp36
 70
     1
102
RTVSPropertyOp37
 70
     1
102
RTVSPropertyOp38
 70
     1
102
RTVSPropertyOp39
 70
     1
102
RTVSPropertyOp40
 70
     1
102
RTVSPropertyOp41
 70
     1
102
RTVSPropertyOp42
 70
     1
102
RTVSPropertyOp43
 70
     1
102
RTVSPropertyOp44
 70
     1
102
RTVSPropertyOp45
 70
     1
102
RTVSPropertyOp46
 70
     1
102
RTVSPropertyOp47
 70
     1
102
RTVSPropertyOp48
 70
     1
102
RTVSPropertyOp49
 70
     1
102
RTVSPropertyOp50
 70
     1
102
RTVSPropertyOp51
 70
     0
102
RTVSPropertyOp52
 70
     0
102
RTVSPropertyOp53
 70
     1
102
RTVSPropertyOp54
 70
     1
102
RTVSPropertyOp55
 70
     1
102
RTVSPropertyOp56
 70
     1
102
RTVSPropertyOp57
 70
     1
102
RTVSPropertyOp58
 70
     1
102
RTVSPropertyOp59
 70
     1
102
RTVSPropertyOp60
 70
     1
102
RTVSPropertyOp61
 70
     1
102
RTVSPropertyOp62
 70
     1
  0
XRECORD
  5
4C02
102
{ACAD_REACTORS
330
4C01
102
}
330
4C01
100
AcDbXrecord
280
     1
102
RTVSPost2010Prop28
280
     0
102
RTVSPost2010PropOp28
 70
     1
102
RTVSPost2010Prop29
280
     1
102
RTVSPost2010PropOp29
 70
     1
102
RTVSPost2010Prop30
280
     1
102
RTVSPost2010PropOp30
 70
     1
102
RTVSPost2010Prop31
280
     0
102
RTVSPost2010PropOp31
 70
     1
102
RTVSPost2010Prop32
280
     0
102
RTVSPost2010PropOp32
 70
     1
102
RTVSPost2010Prop33
280
     0
102
RTVSPost2010PropOp33
 70
     1
102
RTVSPost2010Prop34
280
     0
102
RTVSPost2010PropOp34
 70
     1
102
RTVSPost2010Prop35
280
     0
102
RTVSPost2010PropOp35
 70
     1
102
RTVSPost2010Prop36
280
     0
102
RTVSPost2010PropOp36
 70
     1
102
RTVSPost2010Prop37
 90
       50
102
RTVSPost2010PropOp37
 70
     1
102
RTVSPost2010Prop38
140
0.0
102
RTVSPost2010PropOp38
 70
     1
102
RTVSPost2010Prop39
140
1.0
102
RTVSPost2010PropOp39
 70
     1
102
RTVSPost2010Prop40
 90
        0
102
RTVSPost2010PropOp40
 70
     1
102
RTVSPost2010Prop41ColorIndex
 90
       18
102
RTVSPost2010Prop41ColorRGB
 90
        0
102
RTVSPost2010PropOp41
 70
     1
102
RTVSPost2010Prop42
 90
       50
102
RTVSPost2010PropOp42
 70
     1
102
RTVSPost2010Prop43
 90
        3
102
RTVSPost2010PropOp43
 70
     1
102
RTVSPost2010Prop44ColorIndex
 90
        5
102
RTVSPost2010Prop44ColorRGB
 90
      255
102
RTVSPost2010PropOp44
 70
     1
102
RTVSPost2010Prop45
280
     0
102
RTVSPost2010PropOp45
 70
     1
102
RTVSPost2010Prop46
 90
       50
102
RTVSPost2010PropOp46
 70
     1
102
RTVSPost2010Prop47
 90
       50
102
RTVSPost2010PropOp47
 70
     1
102
RTVSPost2010Prop48
 90
       50
102
RTVSPost2010PropOp48
 70
     1
102
RTVSPost2010Prop49
280
     0
102
RTVSPost2010PropOp49
 70
     1
102
RTVSPost2010Prop50
 90
       50
102
RTVSPost2010PropOp50
 70
     1
102
RTVSPost2010Prop51ColorIndex
 90
      256
102
RTVSPost2010Prop51ColorRGB
 90
-16777216
102
RTVSPost2010PropOp51
 70
     0
102
RTVSPost2010Prop52
140
1.0
102
RTVSPost2010PropOp52
 70
     0
102
RTVSPost2010Prop53
 90
        2
102
RTVSPost2010PropOp53
 70
     1
102
RTVSPost2010Prop54
  1
strokes_ogs.tif
102
RTVSPost2010PropOp54
 70
     1
102
RTVSPost2010Prop55
280
     0
102
RTVSPost2010PropOp55
 70
     1
102
RTVSPost2010Prop56
140
1.0
102
RTVSPost2010PropOp56
 70
     1
102
RTVSPost2010Prop57
140
1.0
102
RTVSPost2010PropOp57
 70
     1
102
RTVSPropertyOp0
 70
     0
102
RTVSPropertyOp1
 70
     0
102
RTVSPropertyOp2
 70
     0
102
RTVSPropertyOp3
 70
     0
102
RTVSPropertyOp4
 70
     0
102
RTVSPropertyOp5
 70
     0
102
RTVSPropertyOp6
 70
     0
102
RTVSPropertyOp7
 70
     0
102
RTVSPropertyOp8
 70
     0
102
RTVSPropertyOp9
 70
     0
102
RTVSPropertyOp10
 70
     0
102
RTVSPropertyOp11
 70
     0
102
RTVSPropertyOp12
 70
     0
102
RTVSPropertyOp13
 70
     0
102
RTVSPropertyOp14
 70
     2
102
RTVSPropertyOp15
 70
     0
102
RTVSPropertyOp16
 70
     0
102
RTVSPropertyOp17
 70
     0
102
RTVSPropertyOp18
 70
     0
102
RTVSPropertyOp19
 70
     0
102
RTVSPropertyOp20
 70
     0
102
RTVSPropertyOp21
 70
     0
102
RTVSPropertyOp22
 70
     0
102
RTVSPropertyOp23
 70
     0
102
RTVSPropertyOp24
 70
     0
102
RTVSPropertyOp25
 70
     0
102
RTVSPropertyOp26
 70
     0
102
RTVSPropertyOp27
 70
     0
102
RTVSPropertyOp28
 70
     1
102
RTVSPropertyOp29
 70
     1
102
RTVSPropertyOp30
 70
     1
102
RTVSPropertyOp31
 70
     1
102
RTVSPropertyOp32
 70
     1
102
RTVSPropertyOp33
 70
     1
102
RTVSPropertyOp34
 70
     1
102
RTVSPropertyOp35
 70
     1
102
RTVSPropertyOp36
 70
     1
102
RTVSPropertyOp37
 70
     1
102
RTVSPropertyOp38
 70
     1
102
RTVSPropertyOp39
 70
     1
102
RTVSPropertyOp40
 70
     1
102
RTVSPropertyOp41
 70
     1
102
RTVSPropertyOp42
 70
     1
102
RTVSPropertyOp43
 70
     1
102
RTVSPropertyOp44
 70
     1
102
RTVSPropertyOp45
 70
     1
102
RTVSPropertyOp46
 70
     1
102
RTVSPropertyOp47
 70
     1
102
RTVSPropertyOp48
 70
     1
102
RTVSPropertyOp49
 70
     1
102
RTVSPropertyOp50
 70
     1
102
RTVSPropertyOp51
 70
     0
102
RTVSPropertyOp52
 70
     0
102
RTVSPropertyOp53
 70
     1
102
RTVSPropertyOp54
 70
     1
102
RTVSPropertyOp55
 70
     1
102
RTVSPropertyOp56
 70
     1
102
RTVSPropertyOp57
 70
     1
102
RTVSPropertyOp58
 70
     1
102
RTVSPropertyOp59
 70
     1
102
RTVSPropertyOp60
 70
     1
102
RTVSPropertyOp61
 70
     1
102
RTVSPropertyOp62
 70
     1
  0
XRECORD
  5
4BF2
102
{ACAD_REACTORS
330
4BF1
102
}
330
4BF1
100
AcDbXrecord
280
     1
102
RTVSPost2010Prop28
280
     0
102
RTVSPost2010PropOp28
 70
     1
102
RTVSPost2010Prop29
280
     1
102
RTVSPost2010PropOp29
 70
     1
102
RTVSPost2010Prop30
280
     1
102
RTVSPost2010PropOp30
 70
     1
102
RTVSPost2010Prop31
280
     0
102
RTVSPost2010PropOp31
 70
     1
102
RTVSPost2010Prop32
280
     0
102
RTVSPost2010PropOp32
 70
     1
102
RTVSPost2010Prop33
280
     0
102
RTVSPost2010PropOp33
 70
     1
102
RTVSPost2010Prop34
280
     0
102
RTVSPost2010PropOp34
 70
     1
102
RTVSPost2010Prop35
280
     0
102
RTVSPost2010PropOp35
 70
     1
102
RTVSPost2010Prop36
280
     0
102
RTVSPost2010PropOp36
 70
     1
102
RTVSPost2010Prop37
 90
       50
102
RTVSPost2010PropOp37
 70
     1
102
RTVSPost2010Prop38
140
0.0
102
RTVSPost2010PropOp38
 70
     1
102
RTVSPost2010Prop39
140
1.0
102
RTVSPost2010PropOp39
 70
     1
102
RTVSPost2010Prop40
 90
        0
102
RTVSPost2010PropOp40
 70
     1
102
RTVSPost2010Prop41ColorIndex
 90
       18
102
RTVSPost2010Prop41ColorRGB
 90
        0
102
RTVSPost2010PropOp41
 70
     1
102
RTVSPost2010Prop42
 90
       50
102
RTVSPost2010PropOp42
 70
     1
102
RTVSPost2010Prop43
 90
        3
102
RTVSPost2010PropOp43
 70
     1
102
RTVSPost2010Prop44ColorIndex
 90
        5
102
RTVSPost2010Prop44ColorRGB
 90
      255
102
RTVSPost2010PropOp44
 70
     1
102
RTVSPost2010Prop45
280
     0
102
RTVSPost2010PropOp45
 70
     1
102
RTVSPost2010Prop46
 90
       50
102
RTVSPost2010PropOp46
 70
     1
102
RTVSPost2010Prop47
 90
       50
102
RTVSPost2010PropOp47
 70
     1
102
RTVSPost2010Prop48
 90
       50
102
RTVSPost2010PropOp48
 70
     1
102
RTVSPost2010Prop49
280
     0
102
RTVSPost2010PropOp49
 70
     1
102
RTVSPost2010Prop50
 90
       50
102
RTVSPost2010PropOp50
 70
     1
102
RTVSPost2010Prop51ColorIndex
 90
      256
102
RTVSPost2010Prop51ColorRGB
 90
-16777216
102
RTVSPost2010PropOp51
 70
     0
102
RTVSPost2010Prop52
140
1.0
102
RTVSPost2010PropOp52
 70
     0
102
RTVSPost2010Prop53
 90
        2
102
RTVSPost2010PropOp53
 70
     1
102
RTVSPost2010Prop54
  1
strokes_ogs.tif
102
RTVSPost2010PropOp54
 70
     1
102
RTVSPost2010Prop55
280
     0
102
RTVSPost2010PropOp55
 70
     1
102
RTVSPost2010Prop56
140
1.0
102
RTVSPost2010PropOp56
 70
     1
102
RTVSPost2010Prop57
140
1.0
102
RTVSPost2010PropOp57
 70
     1
102
RTVSPropertyOp0
 70
     1
102
RTVSPropertyOp1
 70
     1
102
RTVSPropertyOp2
 70
     1
102
RTVSPropertyOp3
 70
     1
102
RTVSPropertyOp4
 70
     1
102
RTVSPropertyOp5
 70
     1
102
RTVSPropertyOp6
 70
     1
102
RTVSPropertyOp7
 70
     1
102
RTVSPropertyOp8
 70
     1
102
RTVSPropertyOp9
 70
     1
102
RTVSPropertyOp10
 70
     1
102
RTVSPropertyOp11
 70
     1
102
RTVSPropertyOp12
 70
     1
102
RTVSPropertyOp13
 70
     1
102
RTVSPropertyOp14
 70
     1
102
RTVSPropertyOp15
 70
     1
102
RTVSPropertyOp16
 70
     1
102
RTVSPropertyOp17
 70
     1
102
RTVSPropertyOp18
 70
     1
102
RTVSPropertyOp19
 70
     1
102
RTVSPropertyOp20
 70
     1
102
RTVSPropertyOp21
 70
     1
102
RTVSPropertyOp22
 70
     1
102
RTVSPropertyOp23
 70
     1
102
RTVSPropertyOp24
 70
     1
102
RTVSPropertyOp25
 70
     1
102
RTVSPropertyOp26
 70
     1
102
RTVSPropertyOp27
 70
     1
102
RTVSPropertyOp28
 70
     1
102
RTVSPropertyOp29
 70
     1
102
RTVSPropertyOp30
 70
     1
102
RTVSPropertyOp31
 70
     1
102
RTVSPropertyOp32
 70
     1
102
RTVSPropertyOp33
 70
     1
102
RTVSPropertyOp34
 70
     1
102
RTVSPropertyOp35
 70
     1
102
RTVSPropertyOp36
 70
     1
102
RTVSPropertyOp37
 70
     1
102
RTVSPropertyOp38
 70
     1
102
RTVSPropertyOp39
 70
     1
102
RTVSPropertyOp40
 70
     1
102
RTVSPropertyOp41
 70
     1
102
RTVSPropertyOp42
 70
     1
102
RTVSPropertyOp43
 70
     1
102
RTVSPropertyOp44
 70
     1
102
RTVSPropertyOp45
 70
     1
102
RTVSPropertyOp46
 70
     1
102
RTVSPropertyOp47
 70
     1
102
RTVSPropertyOp48
 70
     1
102
RTVSPropertyOp49
 70
     1
102
RTVSPropertyOp50
 70
     1
102
RTVSPropertyOp51
 70
     0
102
RTVSPropertyOp52
 70
     0
102
RTVSPropertyOp53
 70
     1
102
RTVSPropertyOp54
 70
     1
102
RTVSPropertyOp55
 70
     1
102
RTVSPropertyOp56
 70
     1
102
RTVSPropertyOp57
 70
     1
102
RTVSPropertyOp58
 70
     1
102
RTVSPropertyOp59
 70
     1
102
RTVSPropertyOp60
 70
     1
102
RTVSPropertyOp61
 70
     1
102
RTVSPropertyOp62
 70
     1
  0
XRECORD
  5
4C33
102
{ACAD_REACTORS
330
4C32
102
}
330
4C32
100
AcDbXrecord
280
     1
102
RTVSPost2010Prop28
280
     0
102
RTVSPost2010PropOp28
 70
     1
102
RTVSPost2010Prop29
280
     1
102
RTVSPost2010PropOp29
 70
     1
102
RTVSPost2010Prop30
280
     1
102
RTVSPost2010PropOp30
 70
     1
102
RTVSPost2010Prop31
280
     0
102
RTVSPost2010PropOp31
 70
     1
102
RTVSPost2010Prop32
280
     0
102
RTVSPost2010PropOp32
 70
     1
102
RTVSPost2010Prop33
280
     0
102
RTVSPost2010PropOp33
 70
     1
102
RTVSPost2010Prop34
280
     0
102
RTVSPost2010PropOp34
 70
     1
102
RTVSPost2010Prop35
280
     0
102
RTVSPost2010PropOp35
 70
     1
102
RTVSPost2010Prop36
280
     0
102
RTVSPost2010PropOp36
 70
     1
102
RTVSPost2010Prop37
 90
       50
102
RTVSPost2010PropOp37
 70
     1
102
RTVSPost2010Prop38
140
0.0
102
RTVSPost2010PropOp38
 70
     1
102
RTVSPost2010Prop39
140
1.0
102
RTVSPost2010PropOp39
 70
     1
102
RTVSPost2010Prop40
 90
        0
102
RTVSPost2010PropOp40
 70
     1
102
RTVSPost2010Prop41ColorIndex
 90
       18
102
RTVSPost2010Prop41ColorRGB
 90
        0
102
RTVSPost2010PropOp41
 70
     1
102
RTVSPost2010Prop42
 90
       50
102
RTVSPost2010PropOp42
 70
     1
102
RTVSPost2010Prop43
 90
        3
102
RTVSPost2010PropOp43
 70
     1
102
RTVSPost2010Prop44ColorIndex
 90
        5
102
RTVSPost2010Prop44ColorRGB
 90
      255
102
RTVSPost2010PropOp44
 70
     1
102
RTVSPost2010Prop45
280
     0
102
RTVSPost2010PropOp45
 70
     1
102
RTVSPost2010Prop46
 90
       50
102
RTVSPost2010PropOp46
 70
     1
102
RTVSPost2010Prop47
 90
       50
102
RTVSPost2010PropOp47
 70
     1
102
RTVSPost2010Prop48
 90
       50
102
RTVSPost2010PropOp48
 70
     1
102
RTVSPost2010Prop49
280
     0
102
RTVSPost2010PropOp49
 70
     1
102
RTVSPost2010Prop50
 90
       50
102
RTVSPost2010PropOp50
 70
     1
102
RTVSPost2010Prop51ColorIndex
 90
      256
102
RTVSPost2010Prop51ColorRGB
 90
-16777216
102
RTVSPost2010PropOp51
 70
     0
102
RTVSPost2010Prop52
140
1.0
102
RTVSPost2010PropOp52
 70
     0
102
RTVSPost2010Prop53
 90
        2
102
RTVSPost2010PropOp53
 70
     1
102
RTVSPost2010Prop54
  1
strokes_ogs.tif
102
RTVSPost2010PropOp54
 70
     1
102
RTVSPost2010Prop55
280
     0
102
RTVSPost2010PropOp55
 70
     1
102
RTVSPost2010Prop56
140
1.0
102
RTVSPost2010PropOp56
 70
     1
102
RTVSPost2010Prop57
140
1.0
102
RTVSPost2010PropOp57
 70
     1
102
RTVSPropertyOp0
 70
     1
102
RTVSPropertyOp1
 70
     1
102
RTVSPropertyOp2
 70
     1
102
RTVSPropertyOp3
 70
     1
102
RTVSPropertyOp4
 70
     1
102
RTVSPropertyOp5
 70
     1
102
RTVSPropertyOp6
 70
     1
102
RTVSPropertyOp7
 70
     1
102
RTVSPropertyOp8
 70
     1
102
RTVSPropertyOp9
 70
     1
102
RTVSPropertyOp10
 70
     1
102
RTVSPropertyOp11
 70
     1
102
RTVSPropertyOp12
 70
     1
102
RTVSPropertyOp13
 70
     1
102
RTVSPropertyOp14
 70
     1
102
RTVSPropertyOp15
 70
     1
102
RTVSPropertyOp16
 70
     1
102
RTVSPropertyOp17
 70
     1
102
RTVSPropertyOp18
 70
     1
102
RTVSPropertyOp19
 70
     1
102
RTVSPropertyOp20
 70
     1
102
RTVSPropertyOp21
 70
     1
102
RTVSPropertyOp22
 70
     1
102
RTVSPropertyOp23
 70
     1
102
RTVSPropertyOp24
 70
     1
102
RTVSPropertyOp25
 70
     1
102
RTVSPropertyOp26
 70
     1
102
RTVSPropertyOp27
 70
     1
102
RTVSPropertyOp28
 70
     1
102
RTVSPropertyOp29
 70
     1
102
RTVSPropertyOp30
 70
     1
102
RTVSPropertyOp31
 70
     1
102
RTVSPropertyOp32
 70
     1
102
RTVSPropertyOp33
 70
     1
102
RTVSPropertyOp34
 70
     1
102
RTVSPropertyOp35
 70
     1
102
RTVSPropertyOp36
 70
     1
102
RTVSPropertyOp37
 70
     1
102
RTVSPropertyOp38
 70
     1
102
RTVSPropertyOp39
 70
     1
102
RTVSPropertyOp40
 70
     1
102
RTVSPropertyOp41
 70
     1
102
RTVSPropertyOp42
 70
     1
102
RTVSPropertyOp43
 70
     1
102
RTVSPropertyOp44
 70
     1
102
RTVSPropertyOp45
 70
     1
102
RTVSPropertyOp46
 70
     1
102
RTVSPropertyOp47
 70
     1
102
RTVSPropertyOp48
 70
     1
102
RTVSPropertyOp49
 70
     1
102
RTVSPropertyOp50
 70
     1
102
RTVSPropertyOp51
 70
     0
102
RTVSPropertyOp52
 70
     0
102
RTVSPropertyOp53
 70
     1
102
RTVSPropertyOp54
 70
     1
102
RTVSPropertyOp55
 70
     1
102
RTVSPropertyOp56
 70
     1
102
RTVSPropertyOp57
 70
     1
102
RTVSPropertyOp58
 70
     1
102
RTVSPropertyOp59
 70
     1
102
RTVSPropertyOp60
 70
     1
102
RTVSPropertyOp61
 70
     1
102
RTVSPropertyOp62
 70
     1
  0
XRECORD
  5
4C31
102
{ACAD_REACTORS
330
4C30
102
}
330
4C30
100
AcDbXrecord
280
     1
102
RTVSPost2010Prop28
280
     0
102
RTVSPost2010PropOp28
 70
     1
102
RTVSPost2010Prop29
280
     1
102
RTVSPost2010PropOp29
 70
     1
102
RTVSPost2010Prop30
280
     1
102
RTVSPost2010PropOp30
 70
     1
102
RTVSPost2010Prop31
280
     0
102
RTVSPost2010PropOp31
 70
     1
102
RTVSPost2010Prop32
280
     0
102
RTVSPost2010PropOp32
 70
     1
102
RTVSPost2010Prop33
280
     0
102
RTVSPost2010PropOp33
 70
     1
102
RTVSPost2010Prop34
280
     0
102
RTVSPost2010PropOp34
 70
     1
102
RTVSPost2010Prop35
280
     0
102
RTVSPost2010PropOp35
 70
     1
102
RTVSPost2010Prop36
280
     0
102
RTVSPost2010PropOp36
 70
     1
102
RTVSPost2010Prop37
 90
       50
102
RTVSPost2010PropOp37
 70
     1
102
RTVSPost2010Prop38
140
0.0
102
RTVSPost2010PropOp38
 70
     1
102
RTVSPost2010Prop39
140
1.0
102
RTVSPost2010PropOp39
 70
     1
102
RTVSPost2010Prop40
 90
        0
102
RTVSPost2010PropOp40
 70
     1
102
RTVSPost2010Prop41ColorIndex
 90
       18
102
RTVSPost2010Prop41ColorRGB
 90
        0
102
RTVSPost2010PropOp41
 70
     1
102
RTVSPost2010Prop42
 90
       50
102
RTVSPost2010PropOp42
 70
     1
102
RTVSPost2010Prop43
 90
        3
102
RTVSPost2010PropOp43
 70
     1
102
RTVSPost2010Prop44ColorIndex
 90
        5
102
RTVSPost2010Prop44ColorRGB
 90
      255
102
RTVSPost2010PropOp44
 70
     1
102
RTVSPost2010Prop45
280
     0
102
RTVSPost2010PropOp45
 70
     1
102
RTVSPost2010Prop46
 90
       50
102
RTVSPost2010PropOp46
 70
     1
102
RTVSPost2010Prop47
 90
       50
102
RTVSPost2010PropOp47
 70
     1
102
RTVSPost2010Prop48
 90
       50
102
RTVSPost2010PropOp48
 70
     1
102
RTVSPost2010Prop49
280
     0
102
RTVSPost2010PropOp49
 70
     1
102
RTVSPost2010Prop50
 90
       50
102
RTVSPost2010PropOp50
 70
     1
102
RTVSPost2010Prop51ColorIndex
 90
      256
102
RTVSPost2010Prop51ColorRGB
 90
-16777216
102
RTVSPost2010PropOp51
 70
     0
102
RTVSPost2010Prop52
140
1.0
102
RTVSPost2010PropOp52
 70
     0
102
RTVSPost2010Prop53
 90
        2
102
RTVSPost2010PropOp53
 70
     1
102
RTVSPost2010Prop54
  1
strokes_ogs.tif
102
RTVSPost2010PropOp54
 70
     1
102
RTVSPost2010Prop55
280
     0
102
RTVSPost2010PropOp55
 70
     1
102
RTVSPost2010Prop56
140
1.0
102
RTVSPost2010PropOp56
 70
     1
102
RTVSPost2010Prop57
140
1.0
102
RTVSPost2010PropOp57
 70
     1
102
RTVSPropertyOp0
 70
     1
102
RTVSPropertyOp1
 70
     1
102
RTVSPropertyOp2
 70
     1
102
RTVSPropertyOp3
 70
     1
102
RTVSPropertyOp4
 70
     1
102
RTVSPropertyOp5
 70
     1
102
RTVSPropertyOp6
 70
     1
102
RTVSPropertyOp7
 70
     1
102
RTVSPropertyOp8
 70
     1
102
RTVSPropertyOp9
 70
     1
102
RTVSPropertyOp10
 70
     1
102
RTVSPropertyOp11
 70
     1
102
RTVSPropertyOp12
 70
     1
102
RTVSPropertyOp13
 70
     1
102
RTVSPropertyOp14
 70
     1
102
RTVSPropertyOp15
 70
     1
102
RTVSPropertyOp16
 70
     1
102
RTVSPropertyOp17
 70
     1
102
RTVSPropertyOp18
 70
     1
102
RTVSPropertyOp19
 70
     1
102
RTVSPropertyOp20
 70
     1
102
RTVSPropertyOp21
 70
     1
102
RTVSPropertyOp22
 70
     1
102
RTVSPropertyOp23
 70
     1
102
RTVSPropertyOp24
 70
     1
102
RTVSPropertyOp25
 70
     1
102
RTVSPropertyOp26
 70
     1
102
RTVSPropertyOp27
 70
     1
102
RTVSPropertyOp28
 70
     1
102
RTVSPropertyOp29
 70
     1
102
RTVSPropertyOp30
 70
     1
102
RTVSPropertyOp31
 70
     1
102
RTVSPropertyOp32
 70
     1
102
RTVSPropertyOp33
 70
     1
102
RTVSPropertyOp34
 70
     1
102
RTVSPropertyOp35
 70
     1
102
RTVSPropertyOp36
 70
     1
102
RTVSPropertyOp37
 70
     1
102
RTVSPropertyOp38
 70
     1
102
RTVSPropertyOp39
 70
     1
102
RTVSPropertyOp40
 70
     1
102
RTVSPropertyOp41
 70
     1
102
RTVSPropertyOp42
 70
     1
102
RTVSPropertyOp43
 70
     1
102
RTVSPropertyOp44
 70
     1
102
RTVSPropertyOp45
 70
     1
102
RTVSPropertyOp46
 70
     1
102
RTVSPropertyOp47
 70
     1
102
RTVSPropertyOp48
 70
     1
102
RTVSPropertyOp49
 70
     1
102
RTVSPropertyOp50
 70
     1
102
RTVSPropertyOp51
 70
     0
102
RTVSPropertyOp52
 70
     0
102
RTVSPropertyOp53
 70
     1
102
RTVSPropertyOp54
 70
     1
102
RTVSPropertyOp55
 70
     1
102
RTVSPropertyOp56
 70
     1
102
RTVSPropertyOp57
 70
     1
102
RTVSPropertyOp58
 70
     1
102
RTVSPropertyOp59
 70
     1
102
RTVSPropertyOp60
 70
     1
102
RTVSPropertyOp61
 70
     1
102
RTVSPropertyOp62
 70
     1
  0
XRECORD
  5
4C2B
102
{ACAD_REACTORS
330
4C2A
102
}
330
4C2A
100
AcDbXrecord
280
     1
102
RTVSPost2010Prop28
280
     0
102
RTVSPost2010PropOp28
 70
     1
102
RTVSPost2010Prop29
280
     1
102
RTVSPost2010PropOp29
 70
     1
102
RTVSPost2010Prop30
280
     1
102
RTVSPost2010PropOp30
 70
     1
102
RTVSPost2010Prop31
280
     0
102
RTVSPost2010PropOp31
 70
     1
102
RTVSPost2010Prop32
280
     0
102
RTVSPost2010PropOp32
 70
     1
102
RTVSPost2010Prop33
280
     0
102
RTVSPost2010PropOp33
 70
     1
102
RTVSPost2010Prop34
280
     0
102
RTVSPost2010PropOp34
 70
     1
102
RTVSPost2010Prop35
280
     0
102
RTVSPost2010PropOp35
 70
     1
102
RTVSPost2010Prop36
280
     0
102
RTVSPost2010PropOp36
 70
     1
102
RTVSPost2010Prop37
 90
       50
102
RTVSPost2010PropOp37
 70
     1
102
RTVSPost2010Prop38
140
0.0
102
RTVSPost2010PropOp38
 70
     1
102
RTVSPost2010Prop39
140
1.0
102
RTVSPost2010PropOp39
 70
     1
102
RTVSPost2010Prop40
 90
        0
102
RTVSPost2010PropOp40
 70
     1
102
RTVSPost2010Prop41ColorIndex
 90
       18
102
RTVSPost2010Prop41ColorRGB
 90
        0
102
RTVSPost2010PropOp41
 70
     1
102
RTVSPost2010Prop42
 90
       50
102
RTVSPost2010PropOp42
 70
     1
102
RTVSPost2010Prop43
 90
        3
102
RTVSPost2010PropOp43
 70
     1
102
RTVSPost2010Prop44ColorIndex
 90
        5
102
RTVSPost2010Prop44ColorRGB
 90
      255
102
RTVSPost2010PropOp44
 70
     1
102
RTVSPost2010Prop45
280
     0
102
RTVSPost2010PropOp45
 70
     1
102
RTVSPost2010Prop46
 90
       50
102
RTVSPost2010PropOp46
 70
     1
102
RTVSPost2010Prop47
 90
       50
102
RTVSPost2010PropOp47
 70
     1
102
RTVSPost2010Prop48
 90
       50
102
RTVSPost2010PropOp48
 70
     1
102
RTVSPost2010Prop49
280
     0
102
RTVSPost2010PropOp49
 70
     1
102
RTVSPost2010Prop50
 90
       50
102
RTVSPost2010PropOp50
 70
     1
102
RTVSPost2010Prop51ColorIndex
 90
      256
102
RTVSPost2010Prop51ColorRGB
 90
-16777216
102
RTVSPost2010PropOp51
 70
     0
102
RTVSPost2010Prop52
140
1.0
102
RTVSPost2010PropOp52
 70
     0
102
RTVSPost2010Prop53
 90
        2
102
RTVSPost2010PropOp53
 70
     1
102
RTVSPost2010Prop54
  1
strokes_ogs.tif
102
RTVSPost2010PropOp54
 70
     1
102
RTVSPost2010Prop55
280
     0
102
RTVSPost2010PropOp55
 70
     1
102
RTVSPost2010Prop56
140
1.0
102
RTVSPost2010PropOp56
 70
     1
102
RTVSPost2010Prop57
140
1.0
102
RTVSPost2010PropOp57
 70
     1
102
RTVSPropertyOp0
 70
     1
102
RTVSPropertyOp1
 70
     1
102
RTVSPropertyOp2
 70
     1
102
RTVSPropertyOp3
 70
     1
102
RTVSPropertyOp4
 70
     1
102
RTVSPropertyOp5
 70
     1
102
RTVSPropertyOp6
 70
     1
102
RTVSPropertyOp7
 70
     1
102
RTVSPropertyOp8
 70
     1
102
RTVSPropertyOp9
 70
     1
102
RTVSPropertyOp10
 70
     1
102
RTVSPropertyOp11
 70
     1
102
RTVSPropertyOp12
 70
     1
102
RTVSPropertyOp13
 70
     1
102
RTVSPropertyOp14
 70
     1
102
RTVSPropertyOp15
 70
     1
102
RTVSPropertyOp16
 70
     1
102
RTVSPropertyOp17
 70
     1
102
RTVSPropertyOp18
 70
     1
102
RTVSPropertyOp19
 70
     1
102
RTVSPropertyOp20
 70
     1
102
RTVSPropertyOp21
 70
     1
102
RTVSPropertyOp22
 70
     1
102
RTVSPropertyOp23
 70
     1
102
RTVSPropertyOp24
 70
     1
102
RTVSPropertyOp25
 70
     1
102
RTVSPropertyOp26
 70
     1
102
RTVSPropertyOp27
 70
     1
102
RTVSPropertyOp28
 70
     1
102
RTVSPropertyOp29
 70
     1
102
RTVSPropertyOp30
 70
     1
102
RTVSPropertyOp31
 70
     1
102
RTVSPropertyOp32
 70
     1
102
RTVSPropertyOp33
 70
     1
102
RTVSPropertyOp34
 70
     1
102
RTVSPropertyOp35
 70
     1
102
RTVSPropertyOp36
 70
     1
102
RTVSPropertyOp37
 70
     1
102
RTVSPropertyOp38
 70
     1
102
RTVSPropertyOp39
 70
     1
102
RTVSPropertyOp40
 70
     1
102
RTVSPropertyOp41
 70
     1
102
RTVSPropertyOp42
 70
     1
102
RTVSPropertyOp43
 70
     1
102
RTVSPropertyOp44
 70
     1
102
RTVSPropertyOp45
 70
     1
102
RTVSPropertyOp46
 70
     1
102
RTVSPropertyOp47
 70
     1
102
RTVSPropertyOp48
 70
     1
102
RTVSPropertyOp49
 70
     1
102
RTVSPropertyOp50
 70
     1
102
RTVSPropertyOp51
 70
     0
102
RTVSPropertyOp52
 70
     0
102
RTVSPropertyOp53
 70
     1
102
RTVSPropertyOp54
 70
     1
102
RTVSPropertyOp55
 70
     1
102
RTVSPropertyOp56
 70
     1
102
RTVSPropertyOp57
 70
     1
102
RTVSPropertyOp58
 70
     1
102
RTVSPropertyOp59
 70
     1
102
RTVSPropertyOp60
 70
     1
102
RTVSPropertyOp61
 70
     1
102
RTVSPropertyOp62
 70
     1
  0
XRECORD
  5
4C2D
102
{ACAD_REACTORS
330
4C2C
102
}
330
4C2C
100
AcDbXrecord
280
     1
102
RTVSPost2010Prop28
280
     0
102
RTVSPost2010PropOp28
 70
     1
102
RTVSPost2010Prop29
280
     1
102
RTVSPost2010PropOp29
 70
     1
102
RTVSPost2010Prop30
280
     1
102
RTVSPost2010PropOp30
 70
     1
102
RTVSPost2010Prop31
280
     0
102
RTVSPost2010PropOp31
 70
     1
102
RTVSPost2010Prop32
280
     0
102
RTVSPost2010PropOp32
 70
     1
102
RTVSPost2010Prop33
280
     0
102
RTVSPost2010PropOp33
 70
     1
102
RTVSPost2010Prop34
280
     0
102
RTVSPost2010PropOp34
 70
     1
102
RTVSPost2010Prop35
280
     0
102
RTVSPost2010PropOp35
 70
     1
102
RTVSPost2010Prop36
280
     0
102
RTVSPost2010PropOp36
 70
     1
102
RTVSPost2010Prop37
 90
       50
102
RTVSPost2010PropOp37
 70
     1
102
RTVSPost2010Prop38
140
0.0
102
RTVSPost2010PropOp38
 70
     1
102
RTVSPost2010Prop39
140
1.0
102
RTVSPost2010PropOp39
 70
     1
102
RTVSPost2010Prop40
 90
        0
102
RTVSPost2010PropOp40
 70
     1
102
RTVSPost2010Prop41ColorIndex
 90
       18
102
RTVSPost2010Prop41ColorRGB
 90
        0
102
RTVSPost2010PropOp41
 70
     1
102
RTVSPost2010Prop42
 90
       50
102
RTVSPost2010PropOp42
 70
     1
102
RTVSPost2010Prop43
 90
        3
102
RTVSPost2010PropOp43
 70
     1
102
RTVSPost2010Prop44ColorIndex
 90
        5
102
RTVSPost2010Prop44ColorRGB
 90
      255
102
RTVSPost2010PropOp44
 70
     1
102
RTVSPost2010Prop45
280
     0
102
RTVSPost2010PropOp45
 70
     1
102
RTVSPost2010Prop46
 90
       50
102
RTVSPost2010PropOp46
 70
     1
102
RTVSPost2010Prop47
 90
       50
102
RTVSPost2010PropOp47
 70
     1
102
RTVSPost2010Prop48
 90
       50
102
RTVSPost2010PropOp48
 70
     1
102
RTVSPost2010Prop49
280
     0
102
RTVSPost2010PropOp49
 70
     1
102
RTVSPost2010Prop50
 90
       50
102
RTVSPost2010PropOp50
 70
     1
102
RTVSPost2010Prop51ColorIndex
 90
      256
102
RTVSPost2010Prop51ColorRGB
 90
-16777216
102
RTVSPost2010PropOp51
 70
     0
102
RTVSPost2010Prop52
140
1.0
102
RTVSPost2010PropOp52
 70
     0
102
RTVSPost2010Prop53
 90
        2
102
RTVSPost2010PropOp53
 70
     1
102
RTVSPost2010Prop54
  1
strokes_ogs.tif
102
RTVSPost2010PropOp54
 70
     1
102
RTVSPost2010Prop55
280
     0
102
RTVSPost2010PropOp55
 70
     1
102
RTVSPost2010Prop56
140
1.0
102
RTVSPost2010PropOp56
 70
     1
102
RTVSPost2010Prop57
140
1.0
102
RTVSPost2010PropOp57
 70
     1
102
RTVSPropertyOp0
 70
     1
102
RTVSPropertyOp1
 70
     1
102
RTVSPropertyOp2
 70
     1
102
RTVSPropertyOp3
 70
     1
102
RTVSPropertyOp4
 70
     1
102
RTVSPropertyOp5
 70
     1
102
RTVSPropertyOp6
 70
     1
102
RTVSPropertyOp7
 70
     1
102
RTVSPropertyOp8
 70
     1
102
RTVSPropertyOp9
 70
     1
102
RTVSPropertyOp10
 70
     1
102
RTVSPropertyOp11
 70
     1
102
RTVSPropertyOp12
 70
     1
102
RTVSPropertyOp13
 70
     1
102
RTVSPropertyOp14
 70
     1
102
RTVSPropertyOp15
 70
     1
102
RTVSPropertyOp16
 70
     1
102
RTVSPropertyOp17
 70
     1
102
RTVSPropertyOp18
 70
     1
102
RTVSPropertyOp19
 70
     1
102
RTVSPropertyOp20
 70
     1
102
RTVSPropertyOp21
 70
     1
102
RTVSPropertyOp22
 70
     1
102
RTVSPropertyOp23
 70
     1
102
RTVSPropertyOp24
 70
     1
102
RTVSPropertyOp25
 70
     1
102
RTVSPropertyOp26
 70
     1
102
RTVSPropertyOp27
 70
     1
102
RTVSPropertyOp28
 70
     1
102
RTVSPropertyOp29
 70
     1
102
RTVSPropertyOp30
 70
     1
102
RTVSPropertyOp31
 70
     1
102
RTVSPropertyOp32
 70
     1
102
RTVSPropertyOp33
 70
     1
102
RTVSPropertyOp34
 70
     1
102
RTVSPropertyOp35
 70
     1
102
RTVSPropertyOp36
 70
     1
102
RTVSPropertyOp37
 70
     1
102
RTVSPropertyOp38
 70
     1
102
RTVSPropertyOp39
 70
     1
102
RTVSPropertyOp40
 70
     1
102
RTVSPropertyOp41
 70
     1
102
RTVSPropertyOp42
 70
     1
102
RTVSPropertyOp43
 70
     1
102
RTVSPropertyOp44
 70
     1
102
RTVSPropertyOp45
 70
     1
102
RTVSPropertyOp46
 70
     1
102
RTVSPropertyOp47
 70
     1
102
RTVSPropertyOp48
 70
     1
102
RTVSPropertyOp49
 70
     1
102
RTVSPropertyOp50
 70
     1
102
RTVSPropertyOp51
 70
     0
102
RTVSPropertyOp52
 70
     0
102
RTVSPropertyOp53
 70
     1
102
RTVSPropertyOp54
 70
     1
102
RTVSPropertyOp55
 70
     1
102
RTVSPropertyOp56
 70
     1
102
RTVSPropertyOp57
 70
     1
102
RTVSPropertyOp58
 70
     1
102
RTVSPropertyOp59
 70
     1
102
RTVSPropertyOp60
 70
     1
102
RTVSPropertyOp61
 70
     1
102
RTVSPropertyOp62
 70
     1
  0
XRECORD
  5
4BF8
102
{ACAD_REACTORS
330
4BF7
102
}
330
4BF7
100
AcDbXrecord
280
     1
102
RTVSPost2010Prop28
280
     0
102
RTVSPost2010PropOp28
 70
     1
102
RTVSPost2010Prop29
280
     1
102
RTVSPost2010PropOp29
 70
     1
102
RTVSPost2010Prop30
280
     1
102
RTVSPost2010PropOp30
 70
     1
102
RTVSPost2010Prop31
280
     0
102
RTVSPost2010PropOp31
 70
     1
102
RTVSPost2010Prop32
280
     0
102
RTVSPost2010PropOp32
 70
     1
102
RTVSPost2010Prop33
280
     0
102
RTVSPost2010PropOp33
 70
     1
102
RTVSPost2010Prop34
280
     0
102
RTVSPost2010PropOp34
 70
     1
102
RTVSPost2010Prop35
280
     0
102
RTVSPost2010PropOp35
 70
     1
102
RTVSPost2010Prop36
280
     0
102
RTVSPost2010PropOp36
 70
     1
102
RTVSPost2010Prop37
 90
       50
102
RTVSPost2010PropOp37
 70
     1
102
RTVSPost2010Prop38
140
0.0
102
RTVSPost2010PropOp38
 70
     1
102
RTVSPost2010Prop39
140
1.0
102
RTVSPost2010PropOp39
 70
     1
102
RTVSPost2010Prop40
 90
        0
102
RTVSPost2010PropOp40
 70
     1
102
RTVSPost2010Prop41ColorIndex
 90
       18
102
RTVSPost2010Prop41ColorRGB
 90
        0
102
RTVSPost2010PropOp41
 70
     1
102
RTVSPost2010Prop42
 90
       50
102
RTVSPost2010PropOp42
 70
     1
102
RTVSPost2010Prop43
 90
        3
102
RTVSPost2010PropOp43
 70
     1
102
RTVSPost2010Prop44ColorIndex
 90
        5
102
RTVSPost2010Prop44ColorRGB
 90
      255
102
RTVSPost2010PropOp44
 70
     1
102
RTVSPost2010Prop45
280
     0
102
RTVSPost2010PropOp45
 70
     1
102
RTVSPost2010Prop46
 90
       50
102
RTVSPost2010PropOp46
 70
     1
102
RTVSPost2010Prop47
 90
       50
102
RTVSPost2010PropOp47
 70
     1
102
RTVSPost2010Prop48
 90
       50
102
RTVSPost2010PropOp48
 70
     1
102
RTVSPost2010Prop49
280
     0
102
RTVSPost2010PropOp49
 70
     1
102
RTVSPost2010Prop50
 90
       50
102
RTVSPost2010PropOp50
 70
     1
102
RTVSPost2010Prop51ColorIndex
 90
      256
102
RTVSPost2010Prop51ColorRGB
 90
-16777216
102
RTVSPost2010PropOp51
 70
     0
102
RTVSPost2010Prop52
140
1.0
102
RTVSPost2010PropOp52
 70
     0
102
RTVSPost2010Prop53
 90
        2
102
RTVSPost2010PropOp53
 70
     1
102
RTVSPost2010Prop54
  1
strokes_ogs.tif
102
RTVSPost2010PropOp54
 70
     1
102
RTVSPost2010Prop55
280
     0
102
RTVSPost2010PropOp55
 70
     1
102
RTVSPost2010Prop56
140
1.0
102
RTVSPost2010PropOp56
 70
     1
102
RTVSPost2010Prop57
140
1.0
102
RTVSPost2010PropOp57
 70
     1
102
RTVSPropertyOp0
 70
     1
102
RTVSPropertyOp1
 70
     1
102
RTVSPropertyOp2
 70
     1
102
RTVSPropertyOp3
 70
     1
102
RTVSPropertyOp4
 70
     1
102
RTVSPropertyOp5
 70
     1
102
RTVSPropertyOp6
 70
     1
102
RTVSPropertyOp7
 70
     1
102
RTVSPropertyOp8
 70
     1
102
RTVSPropertyOp9
 70
     1
102
RTVSPropertyOp10
 70
     1
102
RTVSPropertyOp11
 70
     1
102
RTVSPropertyOp12
 70
     1
102
RTVSPropertyOp13
 70
     1
102
RTVSPropertyOp14
 70
     1
102
RTVSPropertyOp15
 70
     1
102
RTVSPropertyOp16
 70
     1
102
RTVSPropertyOp17
 70
     1
102
RTVSPropertyOp18
 70
     1
102
RTVSPropertyOp19
 70
     1
102
RTVSPropertyOp20
 70
     1
102
RTVSPropertyOp21
 70
     1
102
RTVSPropertyOp22
 70
     1
102
RTVSPropertyOp23
 70
     1
102
RTVSPropertyOp24
 70
     1
102
RTVSPropertyOp25
 70
     1
102
RTVSPropertyOp26
 70
     1
102
RTVSPropertyOp27
 70
     1
102
RTVSPropertyOp28
 70
     1
102
RTVSPropertyOp29
 70
     1
102
RTVSPropertyOp30
 70
     1
102
RTVSPropertyOp31
 70
     1
102
RTVSPropertyOp32
 70
     1
102
RTVSPropertyOp33
 70
     1
102
RTVSPropertyOp34
 70
     1
102
RTVSPropertyOp35
 70
     1
102
RTVSPropertyOp36
 70
     1
102
RTVSPropertyOp37
 70
     1
102
RTVSPropertyOp38
 70
     1
102
RTVSPropertyOp39
 70
     1
102
RTVSPropertyOp40
 70
     1
102
RTVSPropertyOp41
 70
     1
102
RTVSPropertyOp42
 70
     1
102
RTVSPropertyOp43
 70
     1
102
RTVSPropertyOp44
 70
     1
102
RTVSPropertyOp45
 70
     1
102
RTVSPropertyOp46
 70
     1
102
RTVSPropertyOp47
 70
     1
102
RTVSPropertyOp48
 70
     1
102
RTVSPropertyOp49
 70
     1
102
RTVSPropertyOp50
 70
     1
102
RTVSPropertyOp51
 70
     0
102
RTVSPropertyOp52
 70
     0
102
RTVSPropertyOp53
 70
     1
102
RTVSPropertyOp54
 70
     1
102
RTVSPropertyOp55
 70
     1
102
RTVSPropertyOp56
 70
     1
102
RTVSPropertyOp57
 70
     1
102
RTVSPropertyOp58
 70
     1
102
RTVSPropertyOp59
 70
     1
102
RTVSPropertyOp60
 70
     1
102
RTVSPropertyOp61
 70
     1
102
RTVSPropertyOp62
 70
     1
  0
XRECORD
  5
4C27
102
{ACAD_REACTORS
330
4C26
102
}
330
4C26
100
AcDbXrecord
280
     1
102
RTVSPost2010Prop28
280
     0
102
RTVSPost2010PropOp28
 70
     1
102
RTVSPost2010Prop29
280
     1
102
RTVSPost2010PropOp29
 70
     1
102
RTVSPost2010Prop30
280
     1
102
RTVSPost2010PropOp30
 70
     1
102
RTVSPost2010Prop31
280
     0
102
RTVSPost2010PropOp31
 70
     1
102
RTVSPost2010Prop32
280
     0
102
RTVSPost2010PropOp32
 70
     1
102
RTVSPost2010Prop33
280
     0
102
RTVSPost2010PropOp33
 70
     1
102
RTVSPost2010Prop34
280
     0
102
RTVSPost2010PropOp34
 70
     1
102
RTVSPost2010Prop35
280
     0
102
RTVSPost2010PropOp35
 70
     1
102
RTVSPost2010Prop36
280
     0
102
RTVSPost2010PropOp36
 70
     1
102
RTVSPost2010Prop37
 90
       50
102
RTVSPost2010PropOp37
 70
     1
102
RTVSPost2010Prop38
140
0.0
102
RTVSPost2010PropOp38
 70
     1
102
RTVSPost2010Prop39
140
1.0
102
RTVSPost2010PropOp39
 70
     1
102
RTVSPost2010Prop40
 90
        0
102
RTVSPost2010PropOp40
 70
     1
102
RTVSPost2010Prop41ColorIndex
 90
       18
102
RTVSPost2010Prop41ColorRGB
 90
        0
102
RTVSPost2010PropOp41
 70
     1
102
RTVSPost2010Prop42
 90
       50
102
RTVSPost2010PropOp42
 70
     1
102
RTVSPost2010Prop43
 90
        3
102
RTVSPost2010PropOp43
 70
     1
102
RTVSPost2010Prop44ColorIndex
 90
        5
102
RTVSPost2010Prop44ColorRGB
 90
      255
102
RTVSPost2010PropOp44
 70
     1
102
RTVSPost2010Prop45
280
     0
102
RTVSPost2010PropOp45
 70
     1
102
RTVSPost2010Prop46
 90
       50
102
RTVSPost2010PropOp46
 70
     1
102
RTVSPost2010Prop47
 90
       50
102
RTVSPost2010PropOp47
 70
     1
102
RTVSPost2010Prop48
 90
       50
102
RTVSPost2010PropOp48
 70
     1
102
RTVSPost2010Prop49
280
     0
102
RTVSPost2010PropOp49
 70
     1
102
RTVSPost2010Prop50
 90
       50
102
RTVSPost2010PropOp50
 70
     1
102
RTVSPost2010Prop51ColorIndex
 90
      256
102
RTVSPost2010Prop51ColorRGB
 90
-16777216
102
RTVSPost2010PropOp51
 70
     0
102
RTVSPost2010Prop52
140
1.0
102
RTVSPost2010PropOp52
 70
     0
102
RTVSPost2010Prop53
 90
        2
102
RTVSPost2010PropOp53
 70
     1
102
RTVSPost2010Prop54
  1
strokes_ogs.tif
102
RTVSPost2010PropOp54
 70
     1
102
RTVSPost2010Prop55
280
     0
102
RTVSPost2010PropOp55
 70
     1
102
RTVSPost2010Prop56
140
1.0
102
RTVSPost2010PropOp56
 70
     1
102
RTVSPost2010Prop57
140
1.0
102
RTVSPost2010PropOp57
 70
     1
102
RTVSPropertyOp0
 70
     1
102
RTVSPropertyOp1
 70
     1
102
RTVSPropertyOp2
 70
     1
102
RTVSPropertyOp3
 70
     1
102
RTVSPropertyOp4
 70
     1
102
RTVSPropertyOp5
 70
     1
102
RTVSPropertyOp6
 70
     1
102
RTVSPropertyOp7
 70
     1
102
RTVSPropertyOp8
 70
     1
102
RTVSPropertyOp9
 70
     1
102
RTVSPropertyOp10
 70
     1
102
RTVSPropertyOp11
 70
     1
102
RTVSPropertyOp12
 70
     1
102
RTVSPropertyOp13
 70
     1
102
RTVSPropertyOp14
 70
     1
102
RTVSPropertyOp15
 70
     1
102
RTVSPropertyOp16
 70
     1
102
RTVSPropertyOp17
 70
     1
102
RTVSPropertyOp18
 70
     1
102
RTVSPropertyOp19
 70
     1
102
RTVSPropertyOp20
 70
     1
102
RTVSPropertyOp21
 70
     1
102
RTVSPropertyOp22
 70
     1
102
RTVSPropertyOp23
 70
     1
102
RTVSPropertyOp24
 70
     1
102
RTVSPropertyOp25
 70
     1
102
RTVSPropertyOp26
 70
     1
102
RTVSPropertyOp27
 70
     1
102
RTVSPropertyOp28
 70
     1
102
RTVSPropertyOp29
 70
     1
102
RTVSPropertyOp30
 70
     1
102
RTVSPropertyOp31
 70
     1
102
RTVSPropertyOp32
 70
     1
102
RTVSPropertyOp33
 70
     1
102
RTVSPropertyOp34
 70
     1
102
RTVSPropertyOp35
 70
     1
102
RTVSPropertyOp36
 70
     1
102
RTVSPropertyOp37
 70
     1
102
RTVSPropertyOp38
 70
     1
102
RTVSPropertyOp39
 70
     1
102
RTVSPropertyOp40
 70
     1
102
RTVSPropertyOp41
 70
     1
102
RTVSPropertyOp42
 70
     1
102
RTVSPropertyOp43
 70
     1
102
RTVSPropertyOp44
 70
     1
102
RTVSPropertyOp45
 70
     1
102
RTVSPropertyOp46
 70
     1
102
RTVSPropertyOp47
 70
     1
102
RTVSPropertyOp48
 70
     1
102
RTVSPropertyOp49
 70
     1
102
RTVSPropertyOp50
 70
     1
102
RTVSPropertyOp51
 70
     0
102
RTVSPropertyOp52
 70
     0
102
RTVSPropertyOp53
 70
     1
102
RTVSPropertyOp54
 70
     1
102
RTVSPropertyOp55
 70
     1
102
RTVSPropertyOp56
 70
     1
102
RTVSPropertyOp57
 70
     1
102
RTVSPropertyOp58
 70
     1
102
RTVSPropertyOp59
 70
     1
102
RTVSPropertyOp60
 70
     1
102
RTVSPropertyOp61
 70
     1
102
RTVSPropertyOp62
 70
     1
  0
XRECORD
  5
4C2F
102
{ACAD_REACTORS
330
4C2E
102
}
330
4C2E
100
AcDbXrecord
280
     1
102
RTVSPost2010Prop28
280
     0
102
RTVSPost2010PropOp28
 70
     1
102
RTVSPost2010Prop29
280
     1
102
RTVSPost2010PropOp29
 70
     1
102
RTVSPost2010Prop30
280
     1
102
RTVSPost2010PropOp30
 70
     1
102
RTVSPost2010Prop31
280
     0
102
RTVSPost2010PropOp31
 70
     1
102
RTVSPost2010Prop32
280
     0
102
RTVSPost2010PropOp32
 70
     1
102
RTVSPost2010Prop33
280
     0
102
RTVSPost2010PropOp33
 70
     1
102
RTVSPost2010Prop34
280
     0
102
RTVSPost2010PropOp34
 70
     1
102
RTVSPost2010Prop35
280
     0
102
RTVSPost2010PropOp35
 70
     1
102
RTVSPost2010Prop36
280
     0
102
RTVSPost2010PropOp36
 70
     1
102
RTVSPost2010Prop37
 90
       50
102
RTVSPost2010PropOp37
 70
     1
102
RTVSPost2010Prop38
140
0.0
102
RTVSPost2010PropOp38
 70
     1
102
RTVSPost2010Prop39
140
1.0
102
RTVSPost2010PropOp39
 70
     1
102
RTVSPost2010Prop40
 90
        0
102
RTVSPost2010PropOp40
 70
     1
102
RTVSPost2010Prop41ColorIndex
 90
       18
102
RTVSPost2010Prop41ColorRGB
 90
        0
102
RTVSPost2010PropOp41
 70
     1
102
RTVSPost2010Prop42
 90
       50
102
RTVSPost2010PropOp42
 70
     1
102
RTVSPost2010Prop43
 90
        3
102
RTVSPost2010PropOp43
 70
     1
102
RTVSPost2010Prop44ColorIndex
 90
        5
102
RTVSPost2010Prop44ColorRGB
 90
      255
102
RTVSPost2010PropOp44
 70
     1
102
RTVSPost2010Prop45
280
     0
102
RTVSPost2010PropOp45
 70
     1
102
RTVSPost2010Prop46
 90
       50
102
RTVSPost2010PropOp46
 70
     1
102
RTVSPost2010Prop47
 90
       50
102
RTVSPost2010PropOp47
 70
     1
102
RTVSPost2010Prop48
 90
       50
102
RTVSPost2010PropOp48
 70
     1
102
RTVSPost2010Prop49
280
     0
102
RTVSPost2010PropOp49
 70
     1
102
RTVSPost2010Prop50
 90
       50
102
RTVSPost2010PropOp50
 70
     1
102
RTVSPost2010Prop51ColorIndex
 90
      256
102
RTVSPost2010Prop51ColorRGB
 90
-16777216
102
RTVSPost2010PropOp51
 70
     0
102
RTVSPost2010Prop52
140
1.0
102
RTVSPost2010PropOp52
 70
     0
102
RTVSPost2010Prop53
 90
        2
102
RTVSPost2010PropOp53
 70
     1
102
RTVSPost2010Prop54
  1
strokes_ogs.tif
102
RTVSPost2010PropOp54
 70
     1
102
RTVSPost2010Prop55
280
     0
102
RTVSPost2010PropOp55
 70
     1
102
RTVSPost2010Prop56
140
1.0
102
RTVSPost2010PropOp56
 70
     1
102
RTVSPost2010Prop57
140
1.0
102
RTVSPost2010PropOp57
 70
     1
102
RTVSPropertyOp0
 70
     1
102
RTVSPropertyOp1
 70
     1
102
RTVSPropertyOp2
 70
     1
102
RTVSPropertyOp3
 70
     1
102
RTVSPropertyOp4
 70
     1
102
RTVSPropertyOp5
 70
     1
102
RTVSPropertyOp6
 70
     1
102
RTVSPropertyOp7
 70
     1
102
RTVSPropertyOp8
 70
     1
102
RTVSPropertyOp9
 70
     1
102
RTVSPropertyOp10
 70
     1
102
RTVSPropertyOp11
 70
     1
102
RTVSPropertyOp12
 70
     1
102
RTVSPropertyOp13
 70
     1
102
RTVSPropertyOp14
 70
     1
102
RTVSPropertyOp15
 70
     1
102
RTVSPropertyOp16
 70
     1
102
RTVSPropertyOp17
 70
     1
102
RTVSPropertyOp18
 70
     1
102
RTVSPropertyOp19
 70
     1
102
RTVSPropertyOp20
 70
     1
102
RTVSPropertyOp21
 70
     1
102
RTVSPropertyOp22
 70
     1
102
RTVSPropertyOp23
 70
     1
102
RTVSPropertyOp24
 70
     1
102
RTVSPropertyOp25
 70
     1
102
RTVSPropertyOp26
 70
     1
102
RTVSPropertyOp27
 70
     1
102
RTVSPropertyOp28
 70
     1
102
RTVSPropertyOp29
 70
     1
102
RTVSPropertyOp30
 70
     1
102
RTVSPropertyOp31
 70
     1
102
RTVSPropertyOp32
 70
     1
102
RTVSPropertyOp33
 70
     1
102
RTVSPropertyOp34
 70
     1
102
RTVSPropertyOp35
 70
     1
102
RTVSPropertyOp36
 70
     1
102
RTVSPropertyOp37
 70
     1
102
RTVSPropertyOp38
 70
     1
102
RTVSPropertyOp39
 70
     1
102
RTVSPropertyOp40
 70
     1
102
RTVSPropertyOp41
 70
     1
102
RTVSPropertyOp42
 70
     1
102
RTVSPropertyOp43
 70
     1
102
RTVSPropertyOp44
 70
     1
102
RTVSPropertyOp45
 70
     1
102
RTVSPropertyOp46
 70
     1
102
RTVSPropertyOp47
 70
     1
102
RTVSPropertyOp48
 70
     1
102
RTVSPropertyOp49
 70
     1
102
RTVSPropertyOp50
 70
     1
102
RTVSPropertyOp51
 70
     0
102
RTVSPropertyOp52
 70
     0
102
RTVSPropertyOp53
 70
     1
102
RTVSPropertyOp54
 70
     1
102
RTVSPropertyOp55
 70
     1
102
RTVSPropertyOp56
 70
     1
102
RTVSPropertyOp57
 70
     1
102
RTVSPropertyOp58
 70
     1
102
RTVSPropertyOp59
 70
     1
102
RTVSPropertyOp60
 70
     1
102
RTVSPropertyOp61
 70
     1
102
RTVSPropertyOp62
 70
     1
  0
ENDSEC
  0
EOF
