  0
SECTION
  2
HEADER
  9
$ACADVER
  1
AC1015
  9
$ACADMAINTVER
 70
    20
  9
$DWGCODEPAGE
  3
ANSI_932
  9
$INSBASE
 10
0.0
 20
0.0
 30
0.0
  9
$EXTMIN
 10
37.6511107474
 20
-77.1730897789
 30
0.0
  9
$EXTMAX
 10
921.9970985894
 20
500.1868380854
 30
0.0
  9
$LIMMIN
 10
0.0
 20
0.0
  9
$LIMMAX
 10
297.0
 20
210.0
  9
$ORTHOMODE
 70
     0
  9
$REGENMODE
 70
     1
  9
$FILLMODE
 70
     1
  9
$QTEXTMODE
 70
     0
  9
$MIRRTEXT
 70
     0
  9
$LTSCALE
 40
3.0
  9
$ATTMODE
 70
     1
  9
$TEXTSIZE
 40
2.0
  9
$TRACEWID
 40
1.0
  9
$TEXTSTYLE
  7
STANDARD
  9
$CLAYER
  8
0
  9
$CELTYPE
  6
BYLAYER
  9
$CECOLOR
 62
   256
  9
$CELTSCALE
 40
1.0
  9
$DISPSILH
 70
     0
  9
$DIMSCALE
 40
3.0
  9
$DIMASZ
 40
1.8
  9
$DIMEXO
 40
0.625
  9
$DIMDLI
 40
3.75
  9
$DIMRND
 40
0.0
  9
$DIMDLE
 40
0.0
  9
$DIMEXE
 40
0.8
  9
$DIMTP
 40
0.0
  9
$DIMTM
 40
0.0
  9
$DIMTXT
 40
1.8
  9
$DIMCEN
 40
2.5
  9
$DIMTSZ
 40
0.0
  9
$DIMTOL
 70
     0
  9
$DIMLIM
 70
     0
  9
$DIMTIH
 70
     0
  9
$DIMTOH
 70
     0
  9
$DIMSE1
 70
     0
  9
$DIMSE2
 70
     0
  9
$DIMTAD
 70
     1
  9
$DIMZIN
 70
     8
  9
$DIMBLK
  1

  9
$DIMASO
 70
     1
  9
$DIMSHO
 70
     1
  9
$DIMPOST
  1

  9
$DIMAPOST
  1

  9
$DIMALT
 70
     0
  9
$DIMALTD
 70
     4
  9
$DIMALTF
 40
0.0394
  9
$DIMLFAC
 40
1.0
  9
$DIMTOFL
 70
     1
  9
$DIMTVP
 40
0.0
  9
$DIMTIX
 70
     0
  9
$DIMSOXD
 70
     0
  9
$DIMSAH
 70
     0
  9
$DIMBLK1
  1

  9
$DIMBLK2
  1

  9
$DIMSTYLE
  2
STANDARD
  9
$DIMCLRD
 70
     0
  9
$DIMCLRE
 70
     0
  9
$DIMCLRT
 70
     0
  9
$DIMTFAC
 40
1.0
  9
$DIMGAP
 40
0.75
  9
$DIMJUST
 70
     0
  9
$DIMSD1
 70
     0
  9
$DIMSD2
 70
     0
  9
$DIMTOLJ
 70
     1
  9
$DIMTZIN
 70
     0
  9
$DIMALTZ
 70
     0
  9
$DIMALTTZ
 70
     0
  9
$DIMUPT
 70
     0
  9
$DIMDEC
 70
     2
  9
$DIMTDEC
 70
     2
  9
$DIMALTU
 70
     8
  9
$DIMALTTD
 70
     4
  9
$DIMTXSTY
  7
STANDARD
  9
$DIMAUNIT
 70
     0
  9
$DIMADEC
 70
     2
  9
$DIMALTRND
 40
0.0
  9
$DIMAZIN
 70
     0
  9
$DIMDSEP
 70
    46
  9
$DIMATFIT
 70
     3
  9
$DIMFRAC
 70
     0
  9
$DIMLDRBLK
  1

  9
$DIMLUNIT
 70
     6
  9
$DIMLWD
 70
    -2
  9
$DIMLWE
 70
    -2
  9
$DIMTMOVE
 70
     0
  9
$LUNITS
 70
     2
  9
$LUPREC
 70
     3
  9
$SKETCHINC
 40
1.0
  9
$FILLETRAD
 40
10.0
  9
$AUNITS
 70
     0
  9
$AUPREC
 70
     2
  9
$MENU
  1
.
  9
$ELEVATION
 40
0.0
  9
$PELEVATION
 40
0.0
  9
$THICKNESS
 40
0.0
  9
$LIMCHECK
 70
     0
  9
$CHAMFERA
 40
0.0
  9
$CHAMFERB
 40
0.0
  9
$CHAMFERC
 40
20.0
  9
$CHAMFERD
 40
0.0
  9
$SKPOLY
 70
     0
  9
$TDCREATE
 40
2453557.746342593
  9
$TDUCREATE
 40
2453557.371344942
  9
$TDUPDATE
 40
2460164.367384259
  9
$TDUUPDATE
 40
2460163.992384259
  9
$TDINDWG
 40
0.3463156713
  9
$TDUSRTIMER
 40
0.3463154861
  9
$USRTIMER
 70
     1
  9
$ANGBASE
 50
0.0
  9
$ANGDIR
 70
     0
  9
$PDMODE
 70
     0
  9
$PDSIZE
 40
-10.0
  9
$PLINEWID
 40
0.0
  9
$SPLFRAME
 70
     0
  9
$SPLINETYPE
 70
     6
  9
$SPLINESEGS
 70
     8
  9
$HANDSEED
  5
3908
  9
$SURFTAB1
 70
     6
  9
$SURFTAB2
 70
     6
  9
$SURFTYPE
 70
     6
  9
$SURFU
 70
     6
  9
$SURFV
 70
     6
  9
$UCSBASE
  2

  9
$UCSNAME
  2

  9
$UCSORG
 10
0.0
 20
0.0
 30
0.0
  9
$UCSXDIR
 10
1.0
 20
0.0
 30
0.0
  9
$UCSYDIR
 10
0.0
 20
1.0
 30
0.0
  9
$UCSORTHOREF
  2

  9
$UCSORTHOVIEW
 70
     0
  9
$UCSORGTOP
 10
0.0
 20
0.0
 30
0.0
  9
$UCSORGBOTTOM
 10
0.0
 20
0.0
 30
0.0
  9
$UCSORGLEFT
 10
0.0
 20
0.0
 30
0.0
  9
$UCSORGRIGHT
 10
0.0
 20
0.0
 30
0.0
  9
$UCSORGFRONT
 10
0.0
 20
0.0
 30
0.0
  9
$UCSORGBACK
 10
0.0
 20
0.0
 30
0.0
  9
$PUCSBASE
  2

  9
$PUCSNAME
  2

  9
$PUCSORG
 10
0.0
 20
0.0
 30
0.0
  9
$PUCSXDIR
 10
1.0
 20
0.0
 30
0.0
  9
$PUCSYDIR
 10
0.0
 20
1.0
 30
0.0
  9
$PUCSORTHOREF
  2

  9
$PUCSORTHOVIEW
 70
     0
  9
$PUCSORGTOP
 10
0.0
 20
0.0
 30
0.0
  9
$PUCSORGBOTTOM
 10
0.0
 20
0.0
 30
0.0
  9
$PUCSORGLEFT
 10
0.0
 20
0.0
 30
0.0
  9
$PUCSORGRIGHT
 10
0.0
 20
0.0
 30
0.0
  9
$PUCSORGFRONT
 10
0.0
 20
0.0
 30
0.0
  9
$PUCSORGBACK
 10
0.0
 20
0.0
 30
0.0
  9
$USERI1
 70
     0
  9
$USERI2
 70
     0
  9
$USERI3
 70
     0
  9
$USERI4
 70
     0
  9
$USERI5
 70
     0
  9
$USERR1
 40
0.0
  9
$USERR2
 40
0.0
  9
$USERR3
 40
0.0
  9
$USERR4
 40
0.0
  9
$USERR5
 40
0.0
  9
$WORLDVIEW
 70
     1
  9
$SHADEDGE
 70
     3
  9
$SHADEDIF
 70
    70
  9
$TILEMODE
 70
     1
  9
$MAXACTVP
 70
    48
  9
$PINSBASE
 10
0.0
 20
0.0
 30
0.0
  9
$PLIMCHECK
 70
     0
  9
$PEXTMIN
 10
0.0
 20
0.0
 30
0.0
  9
$PEXTMAX
 10
0.0
 20
0.0
 30
0.0
  9
$PLIMMIN
 10
0.0
 20
0.0
  9
$PLIMMAX
 10
12.0
 20
9.0
  9
$UNITMODE
 70
     0
  9
$VISRETAIN
 70
     1
  9
$PLINEGEN
 70
     0
  9
$PSLTSCALE
 70
     1
  9
$TREEDEPTH
 70
  3020
  9
$CMLSTYLE
  2
STANDARD
  9
$CMLJUST
 70
     0
  9
$CMLSCALE
 40
1.0
  9
$PROXYGRAPHICS
 70
     1
  9
$MEASUREMENT
 70
     0
  9
$CELWEIGHT
370
    -1
  9
$ENDCAPS
280
     0
  9
$JOINSTYLE
280
     0
  9
$LWDISPLAY
290
     0
  9
$INSUNITS
 70
     0
  9
$HYPERLINKBASE
  1

  9
$STYLESHEET
  1
SEKKEI.CTB
  9
$XEDIT
290
     1
  9
$CEPSNTYPE
380
     0
  9
$PSTYLEMODE
290
     1
  9
$FINGERPRINTGUID
  2
{6385560B-F4B1-4644-A7C2-A3E32AC3D232}
  9
$VERSIONGUID
  2
{0E22B036-8D17-CD44-8F28-9F5100494F94}
  9
$EXTNAMES
290
     1
  9
$PSVPSCALE
 40
0.0
  9
$OLESTARTUP
290
     0
  0
ENDSEC
  0
SECTION
  2
CLASSES
  0
CLASS
  1
DICTIONARYVAR
  2
AcDbDictionaryVar
  3
ObjectDBX Classes
 90
        0
280
     0
281
     0
  0
CLASS
  1
ACDBDICTIONARYWDFLT
  2
AcDbDictionaryWithDefault
  3
ObjectDBX Classes
 90
        0
280
     0
281
     0
  0
CLASS
  1
MATERIAL
  2
AcDbMaterial
  3
ObjectDBX Classes
 90
     1153
280
     0
281
     0
  0
CLASS
  1
VISUALSTYLE
  2
AcDbVisualStyle
  3
ObjectDBX Classes
 90
     4095
280
     0
281
     0
  0
CLASS
  1
TABLESTYLE
  2
AcDbTableStyle
  3
ObjectDBX Classes
 90
     4095
280
     0
281
     0
  0
CLASS
  1
SCALE
  2
AcDbScale
  3
ObjectDBX Classes
 90
     1153
280
     0
281
     0
  0
CLASS
  1
MLEADERSTYLE
  2
AcDbMLeaderStyle
  3
ACDB_MLEADERSTYLE_CLASS
 90
     4095
280
     0
281
     0
  0
CLASS
  1
CELLSTYLEMAP
  2
AcDbCellStyleMap
  3
ObjectDBX Classes
 90
     1152
280
     0
281
     0
  0
CLASS
  1
SORTENTSTABLE
  2
AcDbSortentsTable
  3
ObjectDBX Classes
 90
        0
280
     0
281
     0
  0
CLASS
  1
ACAD_EVALUATION_GRAPH
  2
AcDbEvalGraph
  3
ObjectDBX Classes
 90
    33921
280
     0
281
     0
  0
CLASS
  1
ACAECUSTOBJ
  2
AcAeEditorObj
  3
AcAeEditorObj
 90
    33792
280
     0
281
     0
  0
CLASS
  1
ACDB_DYNAMICBLOCKPURGEPREVENTER_VERSION
  2
AcDbDynamicBlockPurgePreventer
  3
ObjectDBX Classes
 90
    33921
280
     0
281
     0
  0
CLASS
  1
ACDBSECTIONVIEWSTYLE
  2
AcDbSectionViewStyle
  3
ObjectDBX Classes
 90
     1025
280
     0
281
     0
  0
CLASS
  1
ACDBDETAILVIEWSTYLE
  2
AcDbDetailViewStyle
  3
ObjectDBX Classes
 90
     1025
280
     0
281
     0
  0
CLASS
  1
ACDBPLACEHOLDER
  2
AcDbPlaceHolder
  3
ObjectDBX Classes
 90
        0
280
     0
281
     0
  0
CLASS
  1
LAYOUT
  2
AcDbLayout
  3
ObjectDBX Classes
 90
        0
280
     0
281
     0
  0
ENDSEC
  0
SECTION
  2
TABLES
  0
TABLE
  2
VPORT
  5
6E
102
{ACAD_XDICTIONARY
360
1DAF
102
}
330
0
100
AcDbSymbolTable
 70
     1
  0
VPORT
  5
1C73
330
6E
100
AcDbSymbolTableRecord
100
AcDbViewportTableRecord
  2
*Active
 70
     0
 10
0.0
 20
0.0
 11
1.0
 21
1.0
 12
610.7331168044
 22
235.9452884695
 13
0.0
 23
0.0
 14
10.0
 24
10.0
 15
10.0
 25
10.0
 16
0.0
 26
0.0
 36
1.0
 17
0.0
 27
0.0
 37
0.0
 40
586.5025231055
 41
1.4710526316
 42
50.0
 43
0.0
 44
0.0
 50
0.0
 51
0.0
 71
     0
 72
   100
 73
     1
 74
     3
 75
     0
 76
     0
 77
     0
 78
     0
281
     0
 65
     1
110
0.0
120
0.0
130
0.0
111
1.0
121
0.0
131
0.0
112
0.0
122
1.0
132
0.0
 79
     0
146
0.0
1001
ACAD_NAV_VCDISPLAY
1070
     3
  0
ENDTAB
  0
TABLE
  2
LTYPE
  5
69
330
0
100
AcDbSymbolTable
 70
     5
  0
LTYPE
  5
6A
330
69
100
AcDbSymbolTableRecord
100
AcDbLinetypeTableRecord
  2
BYBLOCK
 70
     0
  3

 72
    65
 73
     0
 40
0.0
  0
LTYPE
  5
6B
330
69
100
AcDbSymbolTableRecord
100
AcDbLinetypeTableRecord
  2
BYLAYER
 70
     0
  3

 72
    65
 73
     0
 40
0.0
  0
LTYPE
  5
8
330
69
100
AcDbSymbolTableRecord
100
AcDbLinetypeTableRecord
  2
CONTINUOUS
 70
     0
  3
Solid line
 72
    65
 73
     0
 40
0.0
  0
LTYPE
  5
27C
330
69
100
AcDbSymbolTableRecord
100
AcDbLinetypeTableRecord
  2
sekkei(A2)
 70
     0
  3
center(A2)  ____ _ ____ _ ____ _ ____ _ ____ _ 
 72
    65
 73
     4
 40
14.2875
 49
9.525
 74
     0
 49
-1.5875
 74
     0
 49
1.5875
 74
     0
 49
-1.5875
 74
     0
  0
LTYPE
  5
2B4
330
69
100
AcDbSymbolTableRecord
100
AcDbLinetypeTableRecord
  2
HIDDEN2
 70
     0
  3
Hidden (.5x) _ _ _ _ _ _ _ _ _ _ _ _ _ _ _ _ _
 72
    65
 73
     2
 40
4.7625
 49
3.175
 74
     0
 49
-1.5875
 74
     0
  0
LTYPE
  5
48F
330
69
100
AcDbSymbolTableRecord
100
AcDbLinetypeTableRecord
  2
sekkei_H
 70
     0
  3
Hidden-S _ _ _ _ _ _ _ _ _ _ _ _ _ _ _ _ _
 72
    65
 73
     2
 40
2.38125
 49
1.5875
 74
     0
 49
-0.79375
 74
     0
  0
LTYPE
  5
2401
330
69
100
AcDbSymbolTableRecord
100
AcDbLinetypeTableRecord
  2
CENS
 70
     0
  3
(一点鎖線１)---- - ---- - ---- - ---- - ---- - 
 72
    65
 73
     4
 40
13.0
 49
10.0
 74
     0
 49
-1.0
 74
     0
 49
1.0
 74
     0
 49
-1.0
 74
     0
  0
ENDTAB
  0
TABLE
  2
LAYER
  5
66
102
{ACAD_XDICTIONARY
360
1CCE
102
}
330
0
100
AcDbSymbolTable
 70
     9
  0
LAYER
  5
5E
102
{ACAD_XDICTIONARY
360
1D98
102
}
330
66
100
AcDbSymbolTableRecord
100
AcDbLayerTableRecord
  2
0
 70
     0
 62
     7
  6
CONTINUOUS
370
    -3
390
5
  0
LAYER
  5
3E
102
{ACAD_XDICTIONARY
360
1D9A
102
}
330
66
100
AcDbSymbolTableRecord
100
AcDbLayerTableRecord
  2
CENTER
 70
     0
 62
     3
  6
sekkei(A2)
370
    -3
390
5
  0
LAYER
  5
135
330
66
100
AcDbSymbolTableRecord
100
AcDbLayerTableRecord
  2
DEFPOINTS
 70
     0
 62
     7
  6
CONTINUOUS
290
     0
370
    -3
390
5
  0
LAYER
  5
2B5
102
{ACAD_XDICTIONARY
360
1DA0
102
}
330
66
100
AcDbSymbolTableRecord
100
AcDbLayerTableRecord
  2
HIDS
 70
     0
 62
     1
  6
HIDDEN2
370
    -3
390
5
  0
LAYER
  5
2BA
102
{ACAD_XDICTIONARY
360
1DA2
102
}
330
66
100
AcDbSymbolTableRecord
100
AcDbLayerTableRecord
  2
HOJO
 70
     0
 62
     4
  6
CONTINUOUS
370
    -3
390
5
  0
LAYER
  5
1CCB
102
{ACAD_XDICTIONARY
360
1CCC
102
}
330
66
100
AcDbSymbolTableRecord
100
AcDbLayerTableRecord
  2
TITLE_C
 70
     0
 62
     4
  6
CONTINUOUS
370
    -3
390
5
1001
AcAecLayerStandard
1000

1000

  0
ENDTAB
  0
TABLE
  2
STYLE
  5
67
330
0
100
AcDbSymbolTable
 70
     1
  0
STYLE
  5
16
330
67
100
AcDbSymbolTableRecord
100
AcDbTextStyleTableRecord
  2
STANDARD
 70
     0
 40
0.0
 41
1.0
 50
0.0
 71
     0
 42
2.0
  3
simplex.shx
  4
extfont.shx
  0
ENDTAB
  0
TABLE
  2
VIEW
  5
6C
330
0
100
AcDbSymbolTable
 70
     0
  0
ENDTAB
  0
TABLE
  2
UCS
  5
6D
330
0
100
AcDbSymbolTable
 70
     0
  0
ENDTAB
  0
TABLE
  2
APPID
  5
70
330
0
100
AcDbSymbolTable
 70
    10
  0
APPID
  5
71
330
70
100
AcDbSymbolTableRecord
100
AcDbRegAppTableRecord
  2
ACAD
 70
     0
  0
APPID
  5
1CCD
330
70
100
AcDbSymbolTableRecord
100
AcDbRegAppTableRecord
  2
AcAecLayerStandard
 70
     0
  0
APPID
  5
1CE4
330
70
100
AcDbSymbolTableRecord
100
AcDbRegAppTableRecord
  2
ACAD_EXEMPT_FROM_CAD_STANDARDS
 70
     0
  0
APPID
  5
1DF4
330
70
100
AcDbSymbolTableRecord
100
AcDbRegAppTableRecord
  2
ACAD_MLEADERVER
 70
     0
  0
APPID
  5
24F7
330
70
100
AcDbSymbolTableRecord
100
AcDbRegAppTableRecord
  2
AcadAnnoAV
 70
     0
  0
APPID
  5
251D
330
70
100
AcDbSymbolTableRecord
100
AcDbRegAppTableRecord
  2
ACAUTHENVIRON
 70
     0
  0
APPID
  5
2521
330
70
100
AcDbSymbolTableRecord
100
AcDbRegAppTableRecord
  2
AcDbDynamicBlockTrueName
 70
     0
  0
APPID
  5
2522
330
70
100
AcDbSymbolTableRecord
100
AcDbRegAppTableRecord
  2
AcDbDynamicBlockGUID
 70
     0
  0
APPID
  5
2524
330
70
100
AcDbSymbolTableRecord
100
AcDbRegAppTableRecord
  2
AcDbBlockRepETag
 70
     0
  0
APPID
  5
2A74
330
70
100
AcDbSymbolTableRecord
100
AcDbRegAppTableRecord
  2
ACAD_NAV_VCDISPLAY
 70
     0
  0
ENDTAB
  0
TABLE
  2
DIMSTYLE
  5
72
330
0
100
AcDbSymbolTable
 70
     1
100
AcDbDimStyleTable
 71
     1
340
73
  0
DIMSTYLE
105
73
330
72
100
AcDbSymbolTableRecord
100
AcDbDimStyleTableRecord
  2
STANDARD
 70
     0
 40
3.0
 41
1.8
 42
0.625
 43
3.75
 44
0.8
 73
     0
 74
     0
 77
     1
 78
     8
140
1.8
141
2.5
143
0.0394
147
0.75
171
     4
172
     1
179
     2
271
     2
272
     2
273
     8
274
     4
277
     6
340
16
  0
ENDTAB
  0
TABLE
  2
BLOCK_RECORD
  5
1
330
0
100
AcDbSymbolTable
 70
   102
  0
BLOCK_RECORD
  5
2
330
1
100
AcDbSymbolTableRecord
100
AcDbBlockTableRecord
  2
*MODEL_SPACE
340
60
  0
BLOCK_RECORD
  5
389F
330
1
100
AcDbSymbolTableRecord
100
AcDbBlockTableRecord
  2
*Paper_Space
340
38A0
  0
BLOCK_RECORD
  5
4AC
330
1
100
AcDbSymbolTableRecord
100
AcDbBlockTableRecord
  2
黒丸矢印1
340
0
  0
BLOCK_RECORD
  5
2771
330
1
100
AcDbSymbolTableRecord
100
AcDbBlockTableRecord
  2
ファンカバ－_F2S-15_M
340
0
310
28000000200000002000000001002000000000000010000001000000010000000000000000000000000000FF000000FF000000FF000000FF000000FF000000FF000000FF000000FF000000FF000000FF000000FF000000FF000000FF000000FF000000FF000000FF000000FF000000FF000000FF000000FF000000FF000000
310
FF000000FF000000FF000000FF000000FF000000FF000000FF000000FF000000FF000000FF000000FF000000FF000000FF000000FF000000FF000000FF000000FF000000FF0000FFFF0000FFFF0000FFFF0000FFFF0000FFFF0000FFFF0000FFFF0000FFFF0000FFFF0000FFFF0000FFFF0000FFFF0000FFFF0000FFFF0000
310
FFFF0000FFFF0000FFFF0000FFFF000000FF000000FF000000FF000000FF000000FF000000FF000000FF000000FF000000FF000000FF000000FF000000FF000000FF0000FFFF0000FFFF000000FF000000FF000000FF000000FF000000FF000000FF000000FF000000FF000000FF000000FF000000FF000000FF000000FF00
310
0000FF000000FF000000FF0000FFFF0000FFFF000000FF000000FF000000FF000000FF000000FF000000FF000000FF000000FF000000FF000000FF000000FF0000FFFF000000FF000000FF000000FF000000FF000000FF000000FF000000FF000000FF000000FF000000FF000000FF000000FF000000FF000000FF000000FF
310
000000FF000000FF000000FF000000FF000000FF0000FFFF000000FF000000FF000000FF000000FF000000FF000000FF000000FF000000FF000000FF0000FFFF000000FF000000FF000000FF000000FF000000FF000000FF000000FF000000FF000000FF000000FF000000FF000000FF000000FF000000FF000000FF000000
310
FF000000FF000000FF000000FF000000FF000000FF000000FF0000FFFF000000FF000000FF000000FF000000FF000000FF000000FF000000FF0000FFFF000000FF000000FF000000FF000000FF000000FF000000FF000000FF000000FF000000FF000000FF000000FF000000FF000000FF000000FF000000FF000000FF0000
310
00FF000000FF000000FF000000FF000000FF000000FF000000FF000000FF0000FFFF000000FF000000FF000000FF000000FF000000FF0000FFFF000000FF000000FF000000FF000000FF000000FF000000FF000000FF000000FF000000FF000000FF000000FF000000FF000000FF000000FF000000FF000000FF000000FF00
310
0000FF000000FF000000FF000000FF000000FF000000FF000000FF000000FF000000FF0000FFFF000000FF000000FF000000FF0000FFFF0000FFFF000000FF000000FF000000FF000000FF000000FF000000FF000000FF000000FF000000FF000000FF000000FF000000FF000000FF000000FF000000FF000000FF000000FF
310
000000FF000000FF000000FF000000FF000000FF000000FF000000FF000000FF000000FF0000FFFF0000FFFF000000FF000000FF0000FFFF000000FF000000FF000000FF000000FF000000FF000000FF000000FF000000FF000000FF000000FF000000FF000000FF000000FF000000FF000000FF000000FF000000FF000000
310
FF000000FF000000FF000000FF000000FF000000FF000000FF000000FF000000FF000000FF000000FF0000FFFF000000FF000000FF0000FFFF000000FF000000FF000000FF000000FF000000FF000000FF000000FF000000FF000000FF000000FF000000FF000000FF000000FF000000FF000000FF000000FF000000FF0000
310
00FF000000FF000000FF000000FF000000FF000000FF000000FF000000FF000000FF000000FF000000FF0000FFFF000000FF000000FF0000FFFF000000FF000000FF000000FF000000FF000000FF000000FF000000FF000000FF000000FF000000FF000000FF000000FF000000FF000000FF000000FF000000FF000000FF00
310
0000FF000000FF000000FF000000FF000000FF000000FF000000FF000000FF000000FF000000FF000000FF0000FFFF000000FF000000FF0000FFFF000000FF000000FF000000FF000000FF000000FF000000FF000000FF000000FF000000FF000000FF000000FF000000FF000000FF000000FF000000FF000000FF000000FF
310
000000FF000000FF000000FF000000FF000000FF000000FF000000FF000000FF000000FF000000FF000000FF0000FFFF000000FF000000FF0000FFFF000000FF000000FF000000FF000000FF000000FF000000FF000000FF000000FF000000FF000000FF000000FF000000FF000000FF000000FF000000FF000000FF000000
310
FF000000FF000000FF000000FF000000FF000000FF000000FF000000FF000000FF000000FF000000FF000000FF0000FFFF000000FF000000FF0000FFFF000000FF000000FF000000FF000000FF000000FF000000FF000000FF000000FF000000FF000000FF000000FF000000FF000000FF000000FF000000FF000000FF0000
310
00FF000000FF000000FF000000FF000000FF000000FF000000FF000000FF000000FF000000FF000000FF000000FF0000FFFF000000FF000000FF0000FFFF000000FF000000FF000000FF000000FF000000FF000000FF000000FF000000FF000000FF000000FF000000FF000000FF000000FF000000FF000000FF000000FF00
310
0000FF000000FF000000FF000000FF000000FF000000FF000000FF000000FF000000FF000000FF000000FF000000FF0000FFFF000000FF000000FF0000FFFF000000FF000000FF000000FF000000FF000000FF000000FF000000FF000000FF000000FF000000FF000000FF000000FF000000FF000000FF000000FF000000FF
310
000000FF000000FF000000FF000000FF000000FF000000FF000000FF000000FF000000FF000000FF000000FF000000FF0000FFFF000000FF000000FF0000FFFF000000FF000000FF000000FF000000FF000000FF000000FF000000FF000000FF000000FF000000FF000000FF000000FF000000FF000000FF000000FF000000
310
FF000000FF000000FF000000FF000000FF000000FF000000FF000000FF000000FF000000FF000000FF000000FF000000FF0000FFFF000000FF000000FF0000FFFF000000FF000000FF000000FF000000FF000000FF000000FF000000FF000000FF000000FF000000FF000000FF000000FF000000FF000000FF000000FF0000
310
00FF000000FF000000FF000000FF000000FF000000FF000000FF000000FF000000FF000000FF000000FF000000FF000000FF0000FFFF000000FF000000FF0000FFFF000000FF000000FF000000FF000000FF000000FF000000FF000000FF000000FF000000FF000000FF000000FF000000FF000000FF000000FF000000FF00
310
0000FF000000FF000000FF000000FF000000FF000000FF000000FF000000FF000000FF000000FF000000FF000000FF000000FF0000FFFF000000FF000000FF0000FFFF000000FF000000FF000000FF000000FF000000FF000000FF000000FF000000FF000000FF000000FF000000FF000000FF000000FF000000FF000000FF
310
000000FF000000FF000000FF000000FF000000FF000000FF000000FF000000FF000000FF000000FF000000FF000000FF000000FF0000FFFF000000FF000000FF0000FFFF000000FF000000FF000000FF000000FF000000FF000000FF000000FF000000FF000000FF000000FF000000FF000000FF000000FF000000FF000000
310
FF000000FF000000FF000000FF000000FF000000FF000000FF000000FF000000FF000000FF000000FF000000FF000000FF000000FF0000FFFF000000FF000000FF0000FFFF000000FF000000FF000000FF000000FF000000FF000000FF000000FF000000FF000000FF000000FF000000FF000000FF000000FF000000FF0000
310
00FF000000FF000000FF000000FF000000FF000000FF000000FF000000FF000000FF000000FF000000FF000000FF000000FF000000FF0000FFFF000000FF000000FF0000FFFF000000FF000000FF000000FF000000FF000000FF000000FF000000FF000000FF000000FF000000FF000000FF000000FF000000FF000000FF00
310
0000FF000000FF000000FF000000FF000000FF000000FF000000FF000000FF000000FF000000FF000000FF000000FF000000FF000000FF0000FFFF000000FF000000FF0000FFFF000000FF000000FF000000FF000000FF000000FF000000FF000000FF000000FF000000FF000000FF000000FF000000FF000000FF000000FF
310
000000FF000000FF000000FF000000FF000000FF000000FF000000FF000000FF000000FF000000FF000000FF000000FF000000FF000000FF0000FFFF000000FF000000FF0000FFFF0000FFFF000000FF000000FF000000FF000000FF000000FF000000FF000000FF000000FF000000FF000000FF000000FF000000FF000000
310
FF000000FF000000FF000000FF000000FF000000FF000000FF000000FF000000FF000000FF000000FF000000FF000000FF000000FF0000FFFF0000FFFF000000FF000000FF000000FF0000FFFF000000FF000000FF000000FF000000FF000000FF000000FF000000FF000000FF000000FF000000FF000000FF000000FF0000
310
00FF000000FF000000FF000000FF000000FF000000FF000000FF000000FF000000FF000000FF000000FF000000FF000000FF000000FF0000FFFF000000FF000000FF000000FF000000FF000000FF0000FFFF000000FF000000FF000000FF000000FF000000FF000000FF000000FF000000FF000000FF000000FF000000FF00
310
0000FF000000FF000000FF000000FF000000FF000000FF000000FF000000FF000000FF000000FF000000FF000000FF000000FF0000FFFF000000FF000000FF000000FF000000FF000000FF000000FF000000FF0000FFFF000000FF000000FF000000FF000000FF000000FF000000FF000000FF000000FF000000FF000000FF
310
000000FF000000FF000000FF000000FF000000FF000000FF000000FF000000FF000000FF000000FF000000FF000000FF0000FFFF000000FF000000FF000000FF000000FF000000FF000000FF000000FF000000FF000000FF0000FFFF000000FF000000FF000000FF000000FF000000FF000000FF000000FF000000FF000000
310
FF000000FF000000FF000000FF000000FF000000FF000000FF000000FF000000FF000000FF000000FF000000FF0000FFFF000000FF000000FF000000FF000000FF000000FF000000FF000000FF000000FF000000FF000000FF000000FF0000FFFF0000FFFF000000FF000000FF000000FF000000FF000000FF000000FF0000
310
00FF000000FF000000FF000000FF000000FF000000FF000000FF000000FF000000FF000000FF0000FFFF0000FFFF000000FF000000FF000000FF000000FF000000FF000000FF000000FF000000FF000000FF000000FF000000FF000000FF000000FF0000FFFF0000FFFF0000FFFF0000FFFF0000FFFF0000FFFF0000FFFF00
310
00FFFF0000FFFF0000FFFF0000FFFF0000FFFF0000FFFF0000FFFF0000FFFF0000FFFF0000FFFF0000FFFF000000FF000000FF000000FF000000FF000000FF000000FF000000FF000000FF000000FF000000FF000000FF000000FF000000FF000000FF000000FF000000FF000000FF000000FF000000FF000000FF000000FF
310
000000FF000000FF000000FF000000FF000000FF000000FF000000FF000000FF000000FF000000FF000000FF000000FF000000FF000000FF000000FF000000FF000000FF000000FF
  0
BLOCK_RECORD
  5
2897
102
{ACAD_XDICTIONARY
360
2898
102
}
330
1
100
AcDbSymbolTableRecord
100
AcDbBlockTableRecord
  2
ファンカバ－ブレーキ_F2S-15_0005-01
340
0
102
{BLKREFS
331
2AB4
102
}
1001
AcDbDynamicBlockGUID
1000
{B0675341-5482-4694-AEF2-5E7B5E546ED3}
  0
BLOCK_RECORD
  5
28B2
102
{ACAD_XDICTIONARY
360
28B3
102
}
330
1
100
AcDbSymbolTableRecord
100
AcDbBlockTableRecord
  2
ファンカバ－ブレーキ_F2S-15_0007-01
340
0
102
{BLKREFS
331
2AB5
102
}
1001
AcDbDynamicBlockGUID
1000
{884C2A03-AA9A-488E-9DFD-FE8016EF97C0}
  0
BLOCK_RECORD
  5
28D0
102
{ACAD_XDICTIONARY
360
28D1
102
}
330
1
100
AcDbSymbolTableRecord
100
AcDbBlockTableRecord
  2
ファンカバ－ブレーキ_F2S-15_0006-01
340
0
102
{BLKREFS
331
2AE6
102
}
1001
AcDbDynamicBlockGUID
1000
{48AA324A-DAA9-47EA-B68A-4A24DADE6D3F}
  0
BLOCK_RECORD
  5
2AE7
330
1
100
AcDbSymbolTableRecord
100
AcDbBlockTableRecord
  2
*D52
340
0
  0
BLOCK_RECORD
  5
2AF3
330
1
100
AcDbSymbolTableRecord
100
AcDbBlockTableRecord
  2
*D53
340
0
  0
BLOCK_RECORD
  5
2AFF
330
1
100
AcDbSymbolTableRecord
100
AcDbBlockTableRecord
  2
*D54
340
0
  0
BLOCK_RECORD
  5
2B0B
330
1
100
AcDbSymbolTableRecord
100
AcDbBlockTableRecord
  2
*D55
340
0
  0
BLOCK_RECORD
  5
2B17
330
1
100
AcDbSymbolTableRecord
100
AcDbBlockTableRecord
  2
*D56
340
0
  0
BLOCK_RECORD
  5
2B23
330
1
100
AcDbSymbolTableRecord
100
AcDbBlockTableRecord
  2
*D57
340
0
  0
BLOCK_RECORD
  5
2B2F
330
1
100
AcDbSymbolTableRecord
100
AcDbBlockTableRecord
  2
*D58
340
0
  0
BLOCK_RECORD
  5
2B3B
330
1
100
AcDbSymbolTableRecord
100
AcDbBlockTableRecord
  2
*D59
340
0
  0
BLOCK_RECORD
  5
2B49
330
1
100
AcDbSymbolTableRecord
100
AcDbBlockTableRecord
  2
*D60
340
0
  0
BLOCK_RECORD
  5
2B63
330
1
100
AcDbSymbolTableRecord
100
AcDbBlockTableRecord
  2
*D61
340
0
  0
BLOCK_RECORD
  5
2B6F
330
1
100
AcDbSymbolTableRecord
100
AcDbBlockTableRecord
  2
*D62
340
0
  0
BLOCK_RECORD
  5
2B7B
330
1
100
AcDbSymbolTableRecord
100
AcDbBlockTableRecord
  2
*D63
340
0
  0
BLOCK_RECORD
  5
2B87
330
1
100
AcDbSymbolTableRecord
100
AcDbBlockTableRecord
  2
*D64
340
0
  0
BLOCK_RECORD
  5
2B94
330
1
100
AcDbSymbolTableRecord
100
AcDbBlockTableRecord
  2
*D65
340
0
  0
BLOCK_RECORD
  5
2BA0
330
1
100
AcDbSymbolTableRecord
100
AcDbBlockTableRecord
  2
*D66
340
0
  0
BLOCK_RECORD
  5
2BAC
330
1
100
AcDbSymbolTableRecord
100
AcDbBlockTableRecord
  2
*D67
340
0
  0
BLOCK_RECORD
  5
2BB8
330
1
100
AcDbSymbolTableRecord
100
AcDbBlockTableRecord
  2
*D68
340
0
  0
BLOCK_RECORD
  5
2BC5
330
1
100
AcDbSymbolTableRecord
100
AcDbBlockTableRecord
  2
*D69
340
0
  0
BLOCK_RECORD
  5
2BD1
330
1
100
AcDbSymbolTableRecord
100
AcDbBlockTableRecord
  2
*D70
340
0
  0
BLOCK_RECORD
  5
2BDD
330
1
100
AcDbSymbolTableRecord
100
AcDbBlockTableRecord
  2
*D71
340
0
  0
BLOCK_RECORD
  5
2BE9
330
1
100
AcDbSymbolTableRecord
100
AcDbBlockTableRecord
  2
*D72
340
0
  0
BLOCK_RECORD
  5
2BF5
330
1
100
AcDbSymbolTableRecord
100
AcDbBlockTableRecord
  2
*D73
340
0
  0
BLOCK_RECORD
  5
2C01
330
1
100
AcDbSymbolTableRecord
100
AcDbBlockTableRecord
  2
*D74
340
0
  0
BLOCK_RECORD
  5
2C0D
330
1
100
AcDbSymbolTableRecord
100
AcDbBlockTableRecord
  2
*D75
340
0
  0
BLOCK_RECORD
  5
2C19
330
1
100
AcDbSymbolTableRecord
100
AcDbBlockTableRecord
  2
*D76
340
0
  0
BLOCK_RECORD
  5
2C25
330
1
100
AcDbSymbolTableRecord
100
AcDbBlockTableRecord
  2
*D77
340
0
  0
BLOCK_RECORD
  5
2C31
330
1
100
AcDbSymbolTableRecord
100
AcDbBlockTableRecord
  2
*D78
340
0
  0
BLOCK_RECORD
  5
2C3D
330
1
100
AcDbSymbolTableRecord
100
AcDbBlockTableRecord
  2
*D79
340
0
  0
BLOCK_RECORD
  5
2C49
330
1
100
AcDbSymbolTableRecord
100
AcDbBlockTableRecord
  2
*D80
340
0
  0
BLOCK_RECORD
  5
2C57
330
1
100
AcDbSymbolTableRecord
100
AcDbBlockTableRecord
  2
*D81
340
0
  0
BLOCK_RECORD
  5
2C64
330
1
100
AcDbSymbolTableRecord
100
AcDbBlockTableRecord
  2
*D82
340
0
  0
BLOCK_RECORD
  5
33AB
102
{ACAD_XDICTIONARY
360
33AC
102
}
330
1
100
AcDbSymbolTableRecord
100
AcDbBlockTableRecord
  2
A$C97379603
340
0
102
{BLKREFS
331
3492
102
}
  0
BLOCK_RECORD
  5
3493
102
{ACAD_XDICTIONARY
360
3494
102
}
330
1
100
AcDbSymbolTableRecord
100
AcDbBlockTableRecord
  2
A$C0221c00d
340
0
102
{BLKREFS
331
3531
102
}
  0
BLOCK_RECORD
  5
3532
102
{ACAD_XDICTIONARY
360
3533
102
}
330
1
100
AcDbSymbolTableRecord
100
AcDbBlockTableRecord
  2
A$C326328fc
340
0
102
{BLKREFS
331
35B0
102
}
  0
BLOCK_RECORD
  5
35B1
102
{ACAD_XDICTIONARY
360
35B2
102
}
330
1
100
AcDbSymbolTableRecord
100
AcDbBlockTableRecord
  2
A$Cae477ae8
340
0
102
{BLKREFS
331
3634
102
}
  0
BLOCK_RECORD
  5
3649
330
1
100
AcDbSymbolTableRecord
100
AcDbBlockTableRecord
  2
*D96
340
0
  0
ENDTAB
  0
ENDSEC
  0
SECTION
  2
BLOCKS
  0
BLOCK
  5
5D
330
2
100
AcDbEntity
  8
0
100
AcDbBlockBegin
  2
*MODEL_SPACE
 70
     0
 10
0.0
 20
0.0
 30
0.0
  3
*MODEL_SPACE
  1

  0
ENDBLK
  5
5F
330
2
100
AcDbEntity
  8
0
100
AcDbBlockEnd
  0
BLOCK
  5
38A1
330
389F
100
AcDbEntity
 67
     1
  8
0
100
AcDbBlockBegin
  2
*Paper_Space
 70
     0
 10
0.0
 20
0.0
 30
0.0
  3
*Paper_Space
  1

  0
ENDBLK
  5
38A2
330
389F
100
AcDbEntity
 67
     1
  8
0
100
AcDbBlockEnd
  0
BLOCK
  5
4B0
330
4AC
100
AcDbEntity
  8
0
100
AcDbBlockBegin
  2
黒丸矢印1
 70
     0
 10
0.0
 20
0.0
 30
0.0
  3
黒丸矢印1
  1

  0
HATCH
  5
4AD
330
4AC
100
AcDbEntity
  8
0
100
AcDbHatch
 10
0.0
 20
0.0
 30
0.0
210
0.0
220
0.0
230
1.0
  2
SOLID
 70
     1
 71
     1
 91
        1
 92
        7
 72
     1
 73
     1
 93
        2
 10
-0.25
 20
0.0
 42
1.0
 10
0.25
 20
0.0
 42
1.0
 97
        1
330
4AE
 75
     0
 76
     1
 47
0.0031599728
 98
        1
 10
-0.0919668375711354
 20
0.0618998464179867
  0
CIRCLE
  5
4AE
102
{ACAD_REACTORS
330
4AD
102
}
330
4AC
100
AcDbEntity
  8
0
100
AcDbCircle
 10
0.0
 20
0.0
 30
0.0
 40
0.25
  0
LINE
  5
4AF
330
4AC
100
AcDbEntity
  8
0
100
AcDbLine
 10
0.0
 20
0.0
 30
0.0
 11
-1.0
 21
0.0
 31
0.0
  0
ENDBLK
  5
4B1
330
4AC
100
AcDbEntity
  8
0
100
AcDbBlockEnd
  0
BLOCK
  5
2772
330
2771
100
AcDbEntity
  8
0
100
AcDbBlockBegin
  2
ファンカバ－_F2S-15_M
 70
     0
 10
0.0
 20
0.0
 30
0.0
  3
ファンカバ－_F2S-15_M
  1

  0
LINE
  5
2773
330
2771
100
AcDbEntity
  8
HIDS
100
AcDbLine
 10
26.100494
 20
-47.0
 30
0.0
 11
-26.100494
 21
-47.0
 31
0.0
  0
LINE
  5
2774
330
2771
100
AcDbEntity
  8
HIDS
100
AcDbLine
 10
26.100494
 20
47.0
 30
0.0
 11
-26.100494
 21
47.0
 31
0.0
  0
LINE
  5
2775
330
2771
100
AcDbEntity
  8
HIDS
100
AcDbLine
 10
-44.949738
 20
31.050247
 30
0.0
 11
-31.050262
 21
44.949753
 31
0.0
  0
LINE
  5
2776
330
2771
100
AcDbEntity
  8
HIDS
100
AcDbLine
 10
-47.0
 20
-26.100502
 30
0.0
 11
-47.0
 21
26.10051
 31
0.0
  0
LINE
  5
2777
330
2771
100
AcDbEntity
  8
HIDS
100
AcDbLine
 10
-31.050262
 20
-44.949745
 30
0.0
 11
-44.949738
 21
-31.050255
 31
0.0
  0
ARC
  5
2778
330
2771
100
AcDbEntity
  8
HIDS
100
AcDbCircle
 10
-26.100494
 20
-40.0
 30
0.0
 40
7.0
100
AcDbArc
 50
225.0
 51
270.0
  0
ARC
  5
2779
330
2771
100
AcDbEntity
  8
HIDS
100
AcDbCircle
 10
-40.0
 20
-26.100502
 30
0.0
 40
7.0
100
AcDbArc
 50
180.0
 51
225.0
  0
ARC
  5
277A
330
2771
100
AcDbEntity
  8
HIDS
100
AcDbCircle
 10
-40.0
 20
26.10051
 30
0.0
 40
7.0
100
AcDbArc
 50
135.0
 51
180.0
  0
ARC
  5
277B
330
2771
100
AcDbEntity
  8
HIDS
100
AcDbCircle
 10
-26.100494
 20
40.0
 30
0.0
 40
7.0
100
AcDbArc
 50
90.0
 51
135.0
  0
LINE
  5
277C
330
2771
100
AcDbEntity
  8
HIDS
100
AcDbLine
 10
31.050262
 20
44.949753
 30
0.0
 11
44.949738
 21
31.050247
 31
0.0
  0
LINE
  5
277D
330
2771
100
AcDbEntity
  8
HIDS
100
AcDbLine
 10
47.0
 20
26.10051
 30
0.0
 11
47.0
 21
-26.100502
 31
0.0
  0
LINE
  5
277E
330
2771
100
AcDbEntity
  8
HIDS
100
AcDbLine
 10
44.949738
 20
-31.050255
 30
0.0
 11
31.050262
 21
-44.949745
 31
0.0
  0
ARC
  5
277F
330
2771
100
AcDbEntity
  8
HIDS
100
AcDbCircle
 10
26.100494
 20
-40.0
 30
0.0
 40
7.0
100
AcDbArc
 50
270.0
 51
315.0
  0
ARC
  5
2780
330
2771
100
AcDbEntity
  8
HIDS
100
AcDbCircle
 10
40.0
 20
-26.100502
 30
0.0
 40
7.0
100
AcDbArc
 50
315.0
 51
0.0
  0
ARC
  5
2781
330
2771
100
AcDbEntity
  8
HIDS
100
AcDbCircle
 10
40.0
 20
26.10051
 30
0.0
 40
7.0
100
AcDbArc
 50
0.0
 51
45.0
  0
ARC
  5
2782
330
2771
100
AcDbEntity
  8
HIDS
100
AcDbCircle
 10
26.100494
 20
40.0
 30
0.0
 40
7.0
100
AcDbArc
 50
45.0
 51
90.0
  0
ENDBLK
  5
2783
330
2771
100
AcDbEntity
  8
0
100
AcDbBlockEnd
  0
BLOCK
  5
2899
330
2897
100
AcDbEntity
  8
0
100
AcDbBlockBegin
  2
ファンカバ－ブレーキ_F2S-15_0005-01
 70
     0
 10
0.0
 20
0.0
 30
0.0
  3
ファンカバ－ブレーキ_F2S-15_0005-01
  1

  0
LINE
  5
289A
330
2897
100
AcDbEntity
  8
0
100
AcDbLine
 10
-57.0
 20
42.0
 30
0.0
 11
-57.0
 21
-42.0
 31
0.0
  0
LINE
  5
289B
330
2897
100
AcDbEntity
  8
0
100
AcDbLine
 10
-9.5
 20
-47.0
 30
0.0
 11
-9.5
 21
47.0
 31
0.0
  0
LINE
  5
289C
330
2897
100
AcDbEntity
  8
0
100
AcDbLine
 10
0.0
 20
-45.0
 30
0.0
 11
0.0
 21
45.0
 31
0.0
  0
LINE
  5
289D
330
2897
100
AcDbEntity
  8
0
100
AcDbLine
 10
0.0
 20
-34.409302
 30
0.0
 11
-9.5
 21
-34.409302
 31
0.0
  0
LINE
  5
289E
330
2897
100
AcDbEntity
  8
0
100
AcDbLine
 10
-9.5
 20
-45.0
 30
0.0
 11
0.0
 21
-45.0
 31
0.0
  0
LINE
  5
289F
330
2897
100
AcDbEntity
  8
0
100
AcDbLine
 10
-52.0
 20
-47.0
 30
0.0
 11
-9.5
 21
-47.0
 31
0.0
  0
LINE
  5
28A0
330
2897
100
AcDbEntity
  8
0
100
AcDbLine
 10
-9.5
 20
-29.0
 30
0.0
 11
-53.474998
 21
-29.0
 31
0.0
  0
ARC
  5
28A1
330
2897
100
AcDbEntity
  8
0
100
AcDbCircle
 10
-52.0
 20
-42.0
 30
0.0
 40
5.0
100
AcDbArc
 50
180.0
 51
270.0
  0
LINE
  5
28A2
330
2897
100
AcDbEntity
  8
0
100
AcDbLine
 10
0.0
 20
34.409302
 30
0.0
 11
-9.5
 21
34.409302
 31
0.0
  0
LINE
  5
28A3
330
2897
100
AcDbEntity
  8
0
100
AcDbLine
 10
-9.5
 20
29.0
 30
0.0
 11
-53.474998
 21
29.0
 31
0.0
  0
LINE
  5
28A4
330
2897
100
AcDbEntity
  8
0
100
AcDbLine
 10
-6.5
 20
46.5
 30
0.0
 11
0.5
 21
46.5
 31
0.0
  0
LINE
  5
28A5
330
2897
100
AcDbEntity
  8
0
100
AcDbLine
 10
-9.5
 20
45.0
 30
0.0
 11
0.0
 21
45.0
 31
0.0
  0
LINE
  5
28A6
330
2897
100
AcDbEntity
  8
0
100
AcDbLine
 10
-52.0
 20
47.0
 30
0.0
 11
-9.5
 21
47.0
 31
0.0
  0
ARC
  5
28A7
330
2897
100
AcDbEntity
  8
0
100
AcDbCircle
 10
-52.0
 20
42.0
 30
0.0
 40
5.0
100
AcDbArc
 50
90.0
 51
180.0
  0
LINE
  5
28A8
330
2897
100
AcDbEntity
  8
0
100
AcDbLine
 10
-6.5
 20
46.5
 30
0.0
 11
-6.5
 21
45.0
 31
0.0
  0
LINE
  5
28A9
330
2897
100
AcDbEntity
  8
0
100
AcDbLine
 10
-0.299995
 20
58.875
 30
0.0
 11
-0.299995
 21
46.5
 31
0.0
  0
LINE
  5
28AA
330
2897
100
AcDbEntity
  8
0
100
AcDbLine
 10
-5.699997
 20
58.0625
 30
0.0
 11
-5.699997
 21
46.5
 31
0.0
  0
LINE
  5
28AB
330
2897
100
AcDbEntity
  8
0
100
AcDbLine
 10
-3.900001
 20
60.125
 30
0.0
 11
-3.900001
 21
46.5
 31
0.0
  0
LINE
  5
28AC
330
2897
100
AcDbEntity
  8
0
100
AcDbLine
 10
-2.099998
 20
59.5
 30
0.0
 11
-2.099998
 21
46.5
 31
0.0
  0
LINE
  5
28AD
330
2897
100
AcDbEntity
  8
0
100
AcDbLine
 10
0.5
 20
46.5
 30
0.0
 11
0.5
 21
45.0
 31
0.0
  0
LINE
  5
28AE
330
2897
100
AcDbEntity
  8
HOJO
100
AcDbLine
 10
-0.299995
 20
58.875
 30
0.0
 11
-2.098991
 21
58.427292
 31
0.0
  0
LINE
  5
28AF
330
2897
100
AcDbEntity
  8
HOJO
100
AcDbLine
 10
-5.699997
 20
58.0625
 30
0.0
 11
-3.900001
 21
58.6875
 31
0.0
  0
LINE
  5
28B0
330
2897
100
AcDbEntity
  8
HOJO
100
AcDbLine
 10
-3.900001
 20
60.125
 30
0.0
 11
-2.099998
 21
59.5
 31
0.0
  0
ENDBLK
  5
28B1
330
2897
100
AcDbEntity
  8
0
100
AcDbBlockEnd
  0
BLOCK
  5
28B4
330
28B2
100
AcDbEntity
  8
0
100
AcDbBlockBegin
  2
ファンカバ－ブレーキ_F2S-15_0007-01
 70
     0
 10
0.0
 20
0.0
 30
0.0
  3
ファンカバ－ブレーキ_F2S-15_0007-01
  1

  0
LINE
  5
28B5
330
28B2
100
AcDbEntity
  8
0
100
AcDbLine
 10
0.0
 20
-6.866027
 30
0.0
 11
0.0
 21
-45.0
 31
0.0
  0
LINE
  5
28B6
330
28B2
100
AcDbEntity
  8
0
100
AcDbLine
 10
56.999939
 20
-42.0
 30
0.0
 11
56.999939
 21
42.0
 31
0.0
  0
LINE
  5
28B7
330
28B2
100
AcDbEntity
  8
0
100
AcDbLine
 10
9.5
 20
47.0
 30
0.0
 11
9.5
 21
-47.0
 31
0.0
  0
LINE
  5
28B8
330
28B2
100
AcDbEntity
  8
0
100
AcDbLine
 10
51.999939
 20
-47.0
 30
0.0
 11
9.5
 21
-47.0
 31
0.0
  0
LINE
  5
28B9
330
28B2
100
AcDbEntity
  8
0
100
AcDbLine
 10
9.5
 20
-29.0
 30
0.0
 11
53.474976
 21
-29.0
 31
0.0
  0
LINE
  5
28BA
330
28B2
100
AcDbEntity
  8
0
100
AcDbLine
 10
9.5
 20
-45.0
 30
0.0
 11
0.0
 21
-45.0
 31
0.0
  0
LINE
  5
28BB
330
28B2
100
AcDbEntity
  8
0
100
AcDbLine
 10
0.0
 20
-29.0
 30
0.0
 11
9.5
 21
-29.0
 31
0.0
  0
ARC
  5
28BC
330
28B2
100
AcDbEntity
  8
0
100
AcDbCircle
 10
51.999939
 20
-42.0
 30
0.0
 40
5.0
100
AcDbArc
 50
270.0
 51
0.0
  0
LINE
  5
28BD
330
28B2
100
AcDbEntity
  8
0
100
AcDbLine
 10
51.999939
 20
47.0
 30
0.0
 11
9.5
 21
47.0
 31
0.0
  0
LINE
  5
28BE
330
28B2
100
AcDbEntity
  8
0
100
AcDbLine
 10
9.5
 20
29.0
 30
0.0
 11
53.474976
 21
29.0
 31
0.0
  0
LINE
  5
28BF
330
28B2
100
AcDbEntity
  8
0
100
AcDbLine
 10
0.0
 20
45.0
 30
0.0
 11
0.0
 21
6.866028
 31
0.0
  0
LINE
  5
28C0
330
28B2
100
AcDbEntity
  8
0
100
AcDbLine
 10
4.0
 20
3.5
 30
0.0
 11
4.0
 21
-3.5
 31
0.0
  0
LINE
  5
28C1
330
28B2
100
AcDbEntity
  8
0
100
AcDbLine
 10
2.0
 20
3.5
 30
0.0
 11
2.0
 21
-3.5
 31
0.0
  0
LINE
  5
28C2
330
28B2
100
AcDbEntity
  8
0
100
AcDbLine
 10
-0.5
 20
-6.0
 30
0.0
 11
-0.5
 21
6.0
 31
0.0
  0
LINE
  5
28C3
330
28B2
100
AcDbEntity
  8
0
100
AcDbLine
 10
6.5
 20
-6.0
 30
0.0
 11
6.5
 21
6.0
 31
0.0
  0
LINE
  5
28C4
330
28B2
100
AcDbEntity
  8
0
100
AcDbLine
 10
0.5
 20
-7.0
 30
0.0
 11
5.5
 21
-7.0
 31
0.0
  0
ARC
  5
28C5
330
28B2
100
AcDbEntity
  8
0
100
AcDbCircle
 10
0.5
 20
-6.0
 30
0.0
 40
1.0
100
AcDbArc
 50
180.0
 51
270.0
  0
ARC
  5
28C6
330
28B2
100
AcDbEntity
  8
0
100
AcDbCircle
 10
3.0
 20
-3.5
 30
0.0
 40
1.0
100
AcDbArc
 50
180.0
 51
0.0
  0
ARC
  5
28C7
330
28B2
100
AcDbEntity
  8
0
100
AcDbCircle
 10
5.5
 20
-6.0
 30
0.0
 40
1.0
100
AcDbArc
 50
270.0
 51
0.0
  0
ARC
  5
28C8
330
28B2
100
AcDbEntity
  8
0
100
AcDbCircle
 10
3.0
 20
3.5
 30
0.0
 40
1.0
100
AcDbArc
 50
0.0
 51
180.0
  0
LINE
  5
28C9
330
28B2
100
AcDbEntity
  8
0
100
AcDbLine
 10
5.5
 20
7.0
 30
0.0
 11
0.5
 21
7.0
 31
0.0
  0
ARC
  5
28CA
330
28B2
100
AcDbEntity
  8
0
100
AcDbCircle
 10
0.5
 20
6.0
 30
0.0
 40
1.0
100
AcDbArc
 50
90.0
 51
180.0
  0
ARC
  5
28CB
330
28B2
100
AcDbEntity
  8
0
100
AcDbCircle
 10
5.5
 20
6.0
 30
0.0
 40
1.0
100
AcDbArc
 50
0.0
 51
90.0
  0
LINE
  5
28CC
330
28B2
100
AcDbEntity
  8
0
100
AcDbLine
 10
0.0
 20
29.0
 30
0.0
 11
9.5
 21
29.0
 31
0.0
  0
LINE
  5
28CD
330
28B2
100
AcDbEntity
  8
0
100
AcDbLine
 10
9.5
 20
45.0
 30
0.0
 11
0.0
 21
45.0
 31
0.0
  0
ARC
  5
28CE
330
28B2
100
AcDbEntity
  8
0
100
AcDbCircle
 10
51.999939
 20
42.000031
 30
0.0
 40
5.0
100
AcDbArc
 50
0.0
 51
90.0
  0
ENDBLK
  5
28CF
330
28B2
100
AcDbEntity
  8
0
100
AcDbBlockEnd
  0
BLOCK
  5
28D2
330
28D0
100
AcDbEntity
  8
0
100
AcDbBlockBegin
  2
ファンカバ－ブレーキ_F2S-15_0006-01
 70
     0
 10
0.0
 20
0.0
 30
0.0
  3
ファンカバ－ブレーキ_F2S-15_0006-01
  1

  0
LINE
  5
28D3
330
28D0
100
AcDbEntity
  8
0
100
AcDbLine
 10
56.999939
 20
42.0
 30
0.0
 11
56.999939
 21
-42.0
 31
0.0
  0
LINE
  5
28D4
330
28D0
100
AcDbEntity
  8
0
100
AcDbLine
 10
9.5
 20
-47.0
 30
0.0
 11
9.5
 21
47.0
 31
0.0
  0
LINE
  5
28D5
330
28D0
100
AcDbEntity
  8
0
100
AcDbLine
 10
0.0
 20
-45.0
 30
0.0
 11
0.0
 21
45.0
 31
0.0
  0
LINE
  5
28D6
330
28D0
100
AcDbEntity
  8
0
100
AcDbLine
 10
51.999939
 20
-47.0
 30
0.0
 11
9.5
 21
-47.0
 31
0.0
  0
LINE
  5
28D7
330
28D0
100
AcDbEntity
  8
0
100
AcDbLine
 10
9.5
 20
29.0
 30
0.0
 11
53.474976
 21
29.0
 31
0.0
  0
LINE
  5
28D8
330
28D0
100
AcDbEntity
  8
0
100
AcDbLine
 10
9.5
 20
-29.0
 30
0.0
 11
53.474976
 21
-29.0
 31
0.0
  0
LINE
  5
28D9
330
28D0
100
AcDbEntity
  8
0
100
AcDbLine
 10
9.5
 20
-45.0
 30
0.0
 11
0.0
 21
-45.0
 31
0.0
  0
LINE
  5
28DA
330
28D0
100
AcDbEntity
  8
0
100
AcDbLine
 10
0.0
 20
-34.409302
 30
0.0
 11
9.5
 21
-34.409302
 31
0.0
  0
LINE
  5
28DB
330
28D0
100
AcDbEntity
  8
0
100
AcDbLine
 10
0.0
 20
34.409302
 30
0.0
 11
9.5
 21
34.409302
 31
0.0
  0
ARC
  5
28DC
330
28D0
100
AcDbEntity
  8
0
100
AcDbCircle
 10
51.999939
 20
-42.0
 30
0.0
 40
5.0
100
AcDbArc
 50
270.0
 51
0.0
  0
LINE
  5
28DD
330
28D0
100
AcDbEntity
  8
0
100
AcDbLine
 10
51.999939
 20
47.0
 30
0.0
 11
9.5
 21
47.0
 31
0.0
  0
LINE
  5
28DE
330
28D0
100
AcDbEntity
  8
0
100
AcDbLine
 10
0.299988
 20
58.875
 30
0.0
 11
0.299988
 21
46.5
 31
0.0
  0
LINE
  5
28DF
330
28D0
100
AcDbEntity
  8
0
100
AcDbLine
 10
5.699951
 20
58.0625
 30
0.0
 11
5.699951
 21
46.5
 31
0.0
  0
LINE
  5
28E0
330
28D0
100
AcDbEntity
  8
0
100
AcDbLine
 10
3.899964
 20
60.125
 30
0.0
 11
3.899964
 21
46.5
 31
0.0
  0
LINE
  5
28E1
330
28D0
100
AcDbEntity
  8
0
100
AcDbLine
 10
2.099976
 20
59.5
 30
0.0
 11
2.099976
 21
46.5
 31
0.0
  0
LINE
  5
28E2
330
28D0
100
AcDbEntity
  8
0
100
AcDbLine
 10
6.5
 20
46.5
 30
0.0
 11
-0.5
 21
46.5
 31
0.0
  0
LINE
  5
28E3
330
28D0
100
AcDbEntity
  8
0
100
AcDbLine
 10
9.5
 20
45.0
 30
0.0
 11
0.0
 21
45.0
 31
0.0
  0
LINE
  5
28E4
330
28D0
100
AcDbEntity
  8
0
100
AcDbLine
 10
-0.5
 20
46.5
 30
0.0
 11
-0.5
 21
45.0
 31
0.0
  0
LINE
  5
28E5
330
28D0
100
AcDbEntity
  8
0
100
AcDbLine
 10
6.5
 20
46.5
 30
0.0
 11
6.5
 21
45.0
 31
0.0
  0
LINE
  5
28E6
330
28D0
100
AcDbEntity
  8
HOJO
100
AcDbLine
 10
0.299988
 20
58.875
 30
0.0
 11
2.098938
 21
58.427292
 31
0.0
  0
LINE
  5
28E7
330
28D0
100
AcDbEntity
  8
HOJO
100
AcDbLine
 10
5.699951
 20
58.0625
 30
0.0
 11
3.899964
 21
58.6875
 31
0.0
  0
LINE
  5
28E8
330
28D0
100
AcDbEntity
  8
HOJO
100
AcDbLine
 10
3.899964
 20
60.125
 30
0.0
 11
2.099976
 21
59.5
 31
0.0
  0
ARC
  5
28E9
330
28D0
100
AcDbEntity
  8
0
100
AcDbCircle
 10
51.999939
 20
42.0
 30
0.0
 40
5.0
100
AcDbArc
 50
0.0
 51
90.0
  0
ENDBLK
  5
28EA
330
28D0
100
AcDbEntity
  8
0
100
AcDbBlockEnd
  0
BLOCK
  5
2AE8
330
2AE7
100
AcDbEntity
  8
0
100
AcDbBlockBegin
  2
*D52
 70
     1
 10
0.0
 20
0.0
 30
0.0
  3
*D52
  1

  0
POINT
  5
2C76
330
2AE7
100
AcDbEntity
  8
DEFPOINTS
 62
     0
100
AcDbPoint
 10
520.4791139867
 20
167.0821469169
 30
0.0
  0
POINT
  5
2C77
330
2AE7
100
AcDbEntity
  8
DEFPOINTS
 62
     0
100
AcDbPoint
 10
362.4791139867
 20
167.0821469169
 30
0.0
  0
POINT
  5
2C78
330
2AE7
100
AcDbEntity
  8
DEFPOINTS
 62
     0
100
AcDbPoint
 10
362.4791139867
 20
296.3948009896
 30
0.0
  0
ENDBLK
  5
2AE9
330
2AE7
100
AcDbEntity
  8
0
100
AcDbBlockEnd
  0
BLOCK
  5
2AF4
330
2AF3
100
AcDbEntity
  8
0
100
AcDbBlockBegin
  2
*D53
 70
     1
 10
0.0
 20
0.0
 30
0.0
  3
*D53
  1

  0
POINT
  5
2C7F
330
2AF3
100
AcDbEntity
  8
DEFPOINTS
 62
     0
100
AcDbPoint
 10
393.4791139867
 20
109.9199900335
 30
0.0
  0
POINT
  5
2C80
330
2AF3
100
AcDbEntity
  8
DEFPOINTS
 62
     0
100
AcDbPoint
 10
489.4791139867
 20
109.9199900335
 30
0.0
  0
POINT
  5
2C81
330
2AF3
100
AcDbEntity
  8
DEFPOINTS
 62
     0
100
AcDbPoint
 10
489.4791139867
 20
35.0527938266
 30
0.0
  0
ENDBLK
  5
2AF5
330
2AF3
100
AcDbEntity
  8
0
100
AcDbBlockEnd
  0
BLOCK
  5
2B00
330
2AFF
100
AcDbEntity
  8
0
100
AcDbBlockBegin
  2
*D54
 70
     1
 10
0.0
 20
0.0
 30
0.0
  3
*D54
  1

  0
POINT
  5
2C88
330
2AFF
100
AcDbEntity
  8
DEFPOINTS
 62
     0
100
AcDbPoint
 10
441.4791139867
 20
212.3671509169
 30
0.0
  0
POINT
  5
2C89
330
2AFF
100
AcDbEntity
  8
DEFPOINTS
 62
     0
100
AcDbPoint
 10
520.4791139867
 20
167.0821469169
 30
0.0
  0
POINT
  5
2C8A
330
2AFF
100
AcDbEntity
  8
DEFPOINTS
 62
     0
100
AcDbPoint
 10
520.4791139867
 20
278.0498444745
 30
0.0
  0
ENDBLK
  5
2B01
330
2AFF
100
AcDbEntity
  8
0
100
AcDbBlockEnd
  0
BLOCK
  5
2B0C
330
2B0B
100
AcDbEntity
  8
0
100
AcDbBlockBegin
  2
*D55
 70
     1
 10
0.0
 20
0.0
 30
0.0
  3
*D55
  1

  0
POINT
  5
2C91
330
2B0B
100
AcDbEntity
  8
DEFPOINTS
 62
     0
100
AcDbPoint
 10
441.4791139867
 20
103.7971429169
 30
0.0
  0
POINT
  5
2C92
330
2B0B
100
AcDbEntity
  8
DEFPOINTS
 62
     0
100
AcDbPoint
 10
489.4791139867
 20
109.9199900335
 30
0.0
  0
POINT
  5
2C93
330
2B0B
100
AcDbEntity
  8
DEFPOINTS
 62
     0
100
AcDbPoint
 10
489.4791139867
 20
52.9980893151
 30
0.0
  0
ENDBLK
  5
2B0D
330
2B0B
100
AcDbEntity
  8
0
100
AcDbBlockEnd
  0
BLOCK
  5
2B18
330
2B17
100
AcDbEntity
  8
0
100
AcDbBlockBegin
  2
*D56
 70
     1
 10
0.0
 20
0.0
 30
0.0
  3
*D56
  1

  0
POINT
  5
2C9A
330
2B17
100
AcDbEntity
  8
DEFPOINTS
 62
     0
100
AcDbPoint
 10
451.4791139867
 20
114.0821469169
 30
0.0
  0
POINT
  5
2C9B
330
2B17
100
AcDbEntity
  8
DEFPOINTS
 62
     0
100
AcDbPoint
 10
489.4791139867
 20
109.9199900335
 30
0.0
  0
POINT
  5
2C9C
330
2B17
100
AcDbEntity
  8
DEFPOINTS
 62
     0
100
AcDbPoint
 10
489.4791139867
 20
70.9749305483
 30
0.0
  0
ENDBLK
  5
2B19
330
2B17
100
AcDbEntity
  8
0
100
AcDbBlockEnd
  0
BLOCK
  5
2B24
330
2B23
100
AcDbEntity
  8
0
100
AcDbBlockBegin
  2
*D57
 70
     1
 10
0.0
 20
0.0
 30
0.0
  3
*D57
  1

  0
POINT
  5
2CA3
330
2B23
100
AcDbEntity
  8
DEFPOINTS
 62
     0
100
AcDbPoint
 10
431.4791139867
 20
114.0821469169
 30
0.0
  0
POINT
  5
2CA4
330
2B23
100
AcDbEntity
  8
DEFPOINTS
 62
     0
100
AcDbPoint
 10
393.4791139867
 20
109.9199900335
 30
0.0
  0
POINT
  5
2CA5
330
2B23
100
AcDbEntity
  8
DEFPOINTS
 62
     0
100
AcDbPoint
 10
393.4791139867
 20
70.9749305483
 30
0.0
  0
ENDBLK
  5
2B25
330
2B23
100
AcDbEntity
  8
0
100
AcDbBlockEnd
  0
BLOCK
  5
2B30
330
2B2F
100
AcDbEntity
  8
0
100
AcDbBlockBegin
  2
*D58
 70
     1
 10
0.0
 20
0.0
 30
0.0
  3
*D58
  1

  0
POINT
  5
2CAC
330
2B2F
100
AcDbEntity
  8
DEFPOINTS
 62
     0
100
AcDbPoint
 10
441.4791139867
 20
103.7971429169
 30
0.0
  0
POINT
  5
2CAD
330
2B2F
100
AcDbEntity
  8
DEFPOINTS
 62
     0
100
AcDbPoint
 10
393.4791139867
 20
109.9199900335
 30
0.0
  0
POINT
  5
2CAE
330
2B2F
100
AcDbEntity
  8
DEFPOINTS
 62
     0
100
AcDbPoint
 10
393.4791139867
 20
52.9980893151
 30
0.0
  0
ENDBLK
  5
2B31
330
2B2F
100
AcDbEntity
  8
0
100
AcDbBlockEnd
  0
BLOCK
  5
2B3C
330
2B3B
100
AcDbEntity
  8
0
100
AcDbBlockBegin
  2
*D59
 70
     1
 10
0.0
 20
0.0
 30
0.0
  3
*D59
  1

  0
POINT
  5
2CB7
330
2B3B
100
AcDbEntity
  8
DEFPOINTS
 62
     0
100
AcDbPoint
 10
406.4791139867
 20
109.6930741894
 30
0.0
  0
POINT
  5
2CB8
330
2B3B
100
AcDbEntity
  8
DEFPOINTS
 62
     0
100
AcDbPoint
 10
393.4791139867
 20
109.9199900335
 30
0.0
  0
POINT
  5
2CB9
330
2B3B
100
AcDbEntity
  8
DEFPOINTS
 62
     0
100
AcDbPoint
 10
393.4791139867
 20
88.9049595762
 30
0.0
  0
ENDBLK
  5
2B3D
330
2B3B
100
AcDbEntity
  8
0
100
AcDbBlockEnd
  0
BLOCK
  5
2B4A
330
2B49
100
AcDbEntity
  8
0
100
AcDbBlockBegin
  2
*D60
 70
     1
 10
0.0
 20
0.0
 30
0.0
  3
*D60
  1

  0
POINT
  5
2CC2
330
2B49
100
AcDbEntity
  8
DEFPOINTS
 62
     0
100
AcDbPoint
 10
393.4791139867
 20
124.3321469169
 30
0.0
  0
POINT
  5
2CC3
330
2B49
100
AcDbEntity
  8
DEFPOINTS
 62
     0
100
AcDbPoint
 10
393.4791139867
 20
113.8321469169
 30
0.0
  0
POINT
  5
2CC4
330
2B49
100
AcDbEntity
  8
DEFPOINTS
 62
     0
100
AcDbPoint
 10
373.8307649252
 20
113.8321469169
 30
0.0
  0
ENDBLK
  5
2B4B
330
2B49
100
AcDbEntity
  8
0
100
AcDbBlockEnd
  0
BLOCK
  5
2B64
330
2B63
100
AcDbEntity
  8
0
100
AcDbBlockBegin
  2
*D61
 70
     1
 10
0.0
 20
0.0
 30
0.0
  3
*D61
  1

  0
POINT
  5
2CD4
330
2B63
100
AcDbEntity
  8
DEFPOINTS
 62
     0
100
AcDbPoint
 10
406.4791139867
 20
109.6930741894
 30
0.0
  0
POINT
  5
2CD5
330
2B63
100
AcDbEntity
  8
DEFPOINTS
 62
     0
100
AcDbPoint
 10
431.4791139867
 20
114.0821469169
 30
0.0
  0
POINT
  5
2CD6
330
2B63
100
AcDbEntity
  8
DEFPOINTS
 62
     0
100
AcDbPoint
 10
431.4791139867
 20
88.9049595762
 30
0.0
  0
ENDBLK
  5
2B65
330
2B63
100
AcDbEntity
  8
0
100
AcDbBlockEnd
  0
BLOCK
  5
2B70
330
2B6F
100
AcDbEntity
  8
0
100
AcDbBlockBegin
  2
*D62
 70
     1
 10
0.0
 20
0.0
 30
0.0
  3
*D62
  1

  0
POINT
  5
2CDD
330
2B6F
100
AcDbEntity
  8
DEFPOINTS
 62
     0
100
AcDbPoint
 10
493.4791139867
 20
158.0821469169
 30
0.0
  0
POINT
  5
2CDE
330
2B6F
100
AcDbEntity
  8
DEFPOINTS
 62
     0
100
AcDbPoint
 10
520.4791139867
 20
167.0821469169
 30
0.0
  0
POINT
  5
2CDF
330
2B6F
100
AcDbEntity
  8
DEFPOINTS
 62
     0
100
AcDbPoint
 10
520.4791139867
 20
242.1342473135
 30
0.0
  0
ENDBLK
  5
2B71
330
2B6F
100
AcDbEntity
  8
0
100
AcDbBlockEnd
  0
BLOCK
  5
2B7C
330
2B7B
100
AcDbEntity
  8
0
100
AcDbBlockBegin
  2
*D63
 70
     1
 10
0.0
 20
0.0
 30
0.0
  3
*D63
  1

  0
POINT
  5
2CE6
330
2B7B
100
AcDbEntity
  8
DEFPOINTS
 62
     0
100
AcDbPoint
 10
490.4791139867
 20
167.3934869169
 30
0.0
  0
POINT
  5
2CE7
330
2B7B
100
AcDbEntity
  8
DEFPOINTS
 62
     0
100
AcDbPoint
 10
520.4791139867
 20
167.0821469169
 30
0.0
  0
POINT
  5
2CE8
330
2B7B
100
AcDbEntity
  8
DEFPOINTS
 62
     0
100
AcDbPoint
 10
520.4791139867
 20
260.0561849826
 30
0.0
  0
ENDBLK
  5
2B7D
330
2B7B
100
AcDbEntity
  8
0
100
AcDbBlockEnd
  0
BLOCK
  5
2B88
330
2B87
100
AcDbEntity
  8
0
100
AcDbBlockBegin
  2
*D64
 70
     1
 10
0.0
 20
0.0
 30
0.0
  3
*D64
  1

  0
POINT
  5
2CF0
330
2B87
100
AcDbEntity
  8
DEFPOINTS
 62
     0
100
AcDbPoint
 10
520.4791139867
 20
149.0821469169
 30
0.0
  0
POINT
  5
2CF1
330
2B87
100
AcDbEntity
  8
DEFPOINTS
 62
     0
100
AcDbPoint
 10
520.4791139867
 20
167.0821469169
 30
0.0
  0
POINT
  5
2CF2
330
2B87
100
AcDbEntity
  8
DEFPOINTS
 62
     0
100
AcDbPoint
 10
536.499417825
 20
167.0821469169
 30
0.0
  0
ENDBLK
  5
2B89
330
2B87
100
AcDbEntity
  8
0
100
AcDbBlockEnd
  0
BLOCK
  5
2B95
330
2B94
100
AcDbEntity
  8
0
100
AcDbBlockBegin
  2
*D65
 70
     1
 10
0.0
 20
0.0
 30
0.0
  3
*D65
  1

  0
POINT
  5
2CF9
330
2B94
100
AcDbEntity
  8
DEFPOINTS
 62
     0
100
AcDbPoint
 10
441.4791139867
 20
212.3671509169
 30
0.0
  0
POINT
  5
2CFA
330
2B94
100
AcDbEntity
  8
DEFPOINTS
 62
     0
100
AcDbPoint
 10
362.4791139867
 20
167.0821469169
 30
0.0
  0
POINT
  5
2CFB
330
2B94
100
AcDbEntity
  8
DEFPOINTS
 62
     0
100
AcDbPoint
 10
362.4791139867
 20
278.0498444745
 30
0.0
  0
ENDBLK
  5
2B96
330
2B94
100
AcDbEntity
  8
0
100
AcDbBlockEnd
  0
BLOCK
  5
2BA1
330
2BA0
100
AcDbEntity
  8
0
100
AcDbBlockBegin
  2
*D66
 70
     1
 10
0.0
 20
0.0
 30
0.0
  3
*D66
  1

  0
POINT
  5
2D02
330
2BA0
100
AcDbEntity
  8
DEFPOINTS
 62
     0
100
AcDbPoint
 10
389.4791139867
 20
158.0821469169
 30
0.0
  0
POINT
  5
2D03
330
2BA0
100
AcDbEntity
  8
DEFPOINTS
 62
     0
100
AcDbPoint
 10
362.4791139867
 20
167.0821469169
 30
0.0
  0
POINT
  5
2D04
330
2BA0
100
AcDbEntity
  8
DEFPOINTS
 62
     0
100
AcDbPoint
 10
362.4791139867
 20
242.1342473135
 30
0.0
  0
ENDBLK
  5
2BA2
330
2BA0
100
AcDbEntity
  8
0
100
AcDbBlockEnd
  0
BLOCK
  5
2BAD
330
2BAC
100
AcDbEntity
  8
0
100
AcDbBlockBegin
  2
*D67
 70
     1
 10
0.0
 20
0.0
 30
0.0
  3
*D67
  1

  0
POINT
  5
2D0B
330
2BAC
100
AcDbEntity
  8
DEFPOINTS
 62
     0
100
AcDbPoint
 10
392.4791139867
 20
167.3934869169
 30
0.0
  0
POINT
  5
2D0C
330
2BAC
100
AcDbEntity
  8
DEFPOINTS
 62
     0
100
AcDbPoint
 10
362.4791139867
 20
167.0821469169
 30
0.0
  0
POINT
  5
2D0D
330
2BAC
100
AcDbEntity
  8
DEFPOINTS
 62
     0
100
AcDbPoint
 10
362.4791139867
 20
260.0561849826
 30
0.0
  0
ENDBLK
  5
2BAE
330
2BAC
100
AcDbEntity
  8
0
100
AcDbBlockEnd
  0
BLOCK
  5
2BB9
330
2BB8
100
AcDbEntity
  8
0
100
AcDbBlockBegin
  2
*D68
 70
     1
 10
0.0
 20
0.0
 30
0.0
  3
*D68
  1

  0
POINT
  5
2D15
330
2BB8
100
AcDbEntity
  8
DEFPOINTS
 62
     0
100
AcDbPoint
 10
362.4791139867
 20
149.0821469169
 30
0.0
  0
POINT
  5
2D16
330
2BB8
100
AcDbEntity
  8
DEFPOINTS
 62
     0
100
AcDbPoint
 10
362.4791139867
 20
167.0821469169
 30
0.0
  0
POINT
  5
2D17
330
2BB8
100
AcDbEntity
  8
DEFPOINTS
 62
     0
100
AcDbPoint
 10
346.4588101484
 20
167.0821469169
 30
0.0
  0
ENDBLK
  5
2BBA
330
2BB8
100
AcDbEntity
  8
0
100
AcDbBlockEnd
  0
BLOCK
  5
2BC6
330
2BC5
100
AcDbEntity
  8
0
100
AcDbBlockBegin
  2
*D69
 70
     1
 10
0.0
 20
0.0
 30
0.0
  3
*D69
  1

  0
POINT
  5
2D1E
330
2BC5
100
AcDbEntity
  8
DEFPOINTS
 62
     0
100
AcDbPoint
 10
691.1114339889
 20
191.7643104169
 30
0.0
  0
POINT
  5
2D1F
330
2BC5
100
AcDbEntity
  8
DEFPOINTS
 62
     0
100
AcDbPoint
 10
655.6114339889
 20
205.0607849169
 30
0.0
  0
POINT
  5
2D20
330
2BC5
100
AcDbEntity
  8
DEFPOINTS
 62
     0
100
AcDbPoint
 10
655.6114339889
 20
242.1342473135
 30
0.0
  0
ENDBLK
  5
2BC7
330
2BC5
100
AcDbEntity
  8
0
100
AcDbBlockEnd
  0
BLOCK
  5
2BD2
330
2BD1
100
AcDbEntity
  8
0
100
AcDbBlockBegin
  2
*D70
 70
     1
 10
0.0
 20
0.0
 30
0.0
  3
*D70
  1

  0
POINT
  5
2D27
330
2BD1
100
AcDbEntity
  8
DEFPOINTS
 62
     0
100
AcDbPoint
 10
691.1114339889
 20
191.7643104169
 30
0.0
  0
POINT
  5
2D28
330
2BD1
100
AcDbEntity
  8
DEFPOINTS
 62
     0
100
AcDbPoint
 10
751.6114339889
 20
205.0607849169
 30
0.0
  0
POINT
  5
2D29
330
2BD1
100
AcDbEntity
  8
DEFPOINTS
 62
     0
100
AcDbPoint
 10
751.6114339889
 20
242.1342473135
 30
0.0
  0
ENDBLK
  5
2BD3
330
2BD1
100
AcDbEntity
  8
0
100
AcDbBlockEnd
  0
BLOCK
  5
2BDE
330
2BDD
100
AcDbEntity
  8
0
100
AcDbBlockBegin
  2
*D71
 70
     1
 10
0.0
 20
0.0
 30
0.0
  3
*D71
  1

  0
POINT
  5
2D30
330
2BDD
100
AcDbEntity
  8
DEFPOINTS
 62
     0
100
AcDbPoint
 10
691.1114339889
 20
191.7643104169
 30
0.0
  0
POINT
  5
2D31
330
2BDD
100
AcDbEntity
  8
DEFPOINTS
 62
     0
100
AcDbPoint
 10
646.6114339889
 20
198.0821469169
 30
0.0
  0
POINT
  5
2D32
330
2BDD
100
AcDbEntity
  8
DEFPOINTS
 62
     0
100
AcDbPoint
 10
646.6114339889
 20
260.0561849826
 30
0.0
  0
ENDBLK
  5
2BDF
330
2BDD
100
AcDbEntity
  8
0
100
AcDbBlockEnd
  0
BLOCK
  5
2BEA
330
2BE9
100
AcDbEntity
  8
0
100
AcDbBlockBegin
  2
*D72
 70
     1
 10
0.0
 20
0.0
 30
0.0
  3
*D72
  1

  0
POINT
  5
2D39
330
2BE9
100
AcDbEntity
  8
DEFPOINTS
 62
     0
100
AcDbPoint
 10
646.6114339889
 20
198.0821469169
 30
0.0
  0
POINT
  5
2D3A
330
2BE9
100
AcDbEntity
  8
DEFPOINTS
 62
     0
100
AcDbPoint
 10
892.9816729889
 20
200.0821469169
 30
0.0
  0
POINT
  5
2D3B
330
2BE9
100
AcDbEntity
  8
DEFPOINTS
 62
     0
100
AcDbPoint
 10
892.9816729889
 20
296.3948009896
 30
0.0
  0
ENDBLK
  5
2BEB
330
2BE9
100
AcDbEntity
  8
0
100
AcDbBlockEnd
  0
BLOCK
  5
2BF6
330
2BF5
100
AcDbEntity
  8
0
100
AcDbBlockBegin
  2
*D73
 70
     1
 10
0.0
 20
0.0
 30
0.0
  3
*D73
  1

  0
POINT
  5
2D42
330
2BF5
100
AcDbEntity
  8
DEFPOINTS
 62
     0
100
AcDbPoint
 10
760.6114339889
 20
198.0821469169
 30
0.0
  0
POINT
  5
2D43
330
2BF5
100
AcDbEntity
  8
DEFPOINTS
 62
     0
100
AcDbPoint
 10
646.6114339889
 20
198.0821469169
 30
0.0
  0
POINT
  5
2D44
330
2BF5
100
AcDbEntity
  8
DEFPOINTS
 62
     0
100
AcDbPoint
 10
646.6114339889
 20
278.0498444745
 30
0.0
  0
ENDBLK
  5
2BF7
330
2BF5
100
AcDbEntity
  8
0
100
AcDbBlockEnd
  0
BLOCK
  5
2C02
330
2C01
100
AcDbEntity
  8
0
100
AcDbBlockBegin
  2
*D74
 70
     1
 10
0.0
 20
0.0
 30
0.0
  3
*D74
  1

  0
POINT
  5
2D4B
330
2C01
100
AcDbEntity
  8
DEFPOINTS
 62
     0
100
AcDbPoint
 10
691.1114339889
 20
191.7643104169
 30
0.0
  0
POINT
  5
2D4C
330
2C01
100
AcDbEntity
  8
DEFPOINTS
 62
     0
100
AcDbPoint
 10
760.6114339889
 20
198.0821469169
 30
0.0
  0
POINT
  5
2D4D
330
2C01
100
AcDbEntity
  8
DEFPOINTS
 62
     0
100
AcDbPoint
 10
760.6114339889
 20
260.0561849826
 30
0.0
  0
ENDBLK
  5
2C03
330
2C01
100
AcDbEntity
  8
0
100
AcDbBlockEnd
  0
BLOCK
  5
2C0E
330
2C0D
100
AcDbEntity
  8
0
100
AcDbBlockBegin
  2
*D75
 70
     1
 10
0.0
 20
0.0
 30
0.0
  3
*D75
  1

  0
POINT
  5
2D54
330
2C0D
100
AcDbEntity
  8
DEFPOINTS
 62
     0
100
AcDbPoint
 10
639.9442589889
 20
158.0821469169
 30
0.0
  0
POINT
  5
2D55
330
2C0D
100
AcDbEntity
  8
DEFPOINTS
 62
     0
100
AcDbPoint
 10
647.6327959889
 20
197.0821469169
 30
0.0
  0
POINT
  5
2D56
330
2C0D
100
AcDbEntity
  8
DEFPOINTS
 62
     0
100
AcDbPoint
 10
613.952122892
 20
197.0821469169
 30
0.0
  0
ENDBLK
  5
2C0F
330
2C0D
100
AcDbEntity
  8
0
100
AcDbBlockEnd
  0
BLOCK
  5
2C1A
330
2C19
100
AcDbEntity
  8
0
100
AcDbBlockBegin
  2
*D76
 70
     1
 10
0.0
 20
0.0
 30
0.0
  3
*D76
  1

  0
POINT
  5
2D5D
330
2C19
100
AcDbEntity
  8
DEFPOINTS
 62
     0
100
AcDbPoint
 10
639.9442589889
 20
158.0821469169
 30
0.0
  0
POINT
  5
2D5E
330
2C19
100
AcDbEntity
  8
DEFPOINTS
 62
     0
100
AcDbPoint
 10
647.6327959889
 20
119.0821469169
 30
0.0
  0
POINT
  5
2D5F
330
2C19
100
AcDbEntity
  8
DEFPOINTS
 62
     0
100
AcDbPoint
 10
613.952122892
 20
119.0821469169
 30
0.0
  0
ENDBLK
  5
2C1B
330
2C19
100
AcDbEntity
  8
0
100
AcDbBlockEnd
  0
BLOCK
  5
2C26
330
2C25
100
AcDbEntity
  8
0
100
AcDbBlockBegin
  2
*D77
 70
     1
 10
0.0
 20
0.0
 30
0.0
  3
*D77
  1

  0
POINT
  5
2D66
330
2C25
100
AcDbEntity
  8
DEFPOINTS
 62
     0
100
AcDbPoint
 10
655.6114339889
 20
109.0821469169
 30
0.0
  0
POINT
  5
2D67
330
2C25
100
AcDbEntity
  8
DEFPOINTS
 62
     0
100
AcDbPoint
 10
655.6114339889
 20
207.0821469169
 30
0.0
  0
POINT
  5
2D68
330
2C25
100
AcDbEntity
  8
DEFPOINTS
 62
     0
100
AcDbPoint
 10
578.2137563523
 20
207.0821469169
 30
0.0
  0
ENDBLK
  5
2C27
330
2C25
100
AcDbEntity
  8
0
100
AcDbBlockEnd
  0
BLOCK
  5
2C32
330
2C31
100
AcDbEntity
  8
0
100
AcDbBlockBegin
  2
*D78
 70
     1
 10
0.0
 20
0.0
 30
0.0
  3
*D78
  1

  0
POINT
  5
2D6F
330
2C31
100
AcDbEntity
  8
DEFPOINTS
 62
     0
100
AcDbPoint
 10
639.9442589889
 20
158.0821469169
 30
0.0
  0
POINT
  5
2D70
330
2C31
100
AcDbEntity
  8
DEFPOINTS
 62
     0
100
AcDbPoint
 10
655.6114339889
 20
109.0821469169
 30
0.0
  0
POINT
  5
2D71
330
2C31
100
AcDbEntity
  8
DEFPOINTS
 62
     0
100
AcDbPoint
 10
596.2931640243
 20
109.0821469169
 30
0.0
  0
ENDBLK
  5
2C33
330
2C31
100
AcDbEntity
  8
0
100
AcDbBlockEnd
  0
BLOCK
  5
2C3E
330
2C3D
100
AcDbEntity
  8
0
100
AcDbBlockBegin
  2
*D79
 70
     1
 10
0.0
 20
0.0
 30
0.0
  3
*D79
  1

  0
POINT
  5
2D78
330
2C3D
100
AcDbEntity
  8
DEFPOINTS
 62
     0
100
AcDbPoint
 10
639.9442589889
 20
158.0821469169
 30
0.0
  0
POINT
  5
2D79
330
2C3D
100
AcDbEntity
  8
DEFPOINTS
 62
     0
100
AcDbPoint
 10
655.6114339889
 20
207.0821469169
 30
0.0
  0
POINT
  5
2D7A
330
2C3D
100
AcDbEntity
  8
DEFPOINTS
 62
     0
100
AcDbPoint
 10
596.2931640243
 20
207.0821469169
 30
0.0
  0
ENDBLK
  5
2C3F
330
2C3D
100
AcDbEntity
  8
0
100
AcDbBlockEnd
  0
BLOCK
  5
2C4A
330
2C49
100
AcDbEntity
  8
0
100
AcDbBlockBegin
  2
*D80
 70
     1
 10
0.0
 20
0.0
 30
0.0
  3
*D80
  1

  0
POINT
  5
2D83
330
2C49
100
AcDbEntity
  8
DEFPOINTS
 62
     0
100
AcDbPoint
 10
679.6114339889
 20
155.0821469169
 30
0.0
  0
POINT
  5
2D84
330
2C49
100
AcDbEntity
  8
DEFPOINTS
 62
     0
100
AcDbPoint
 10
679.6114339889
 20
161.0821469169
 30
0.0
  0
POINT
  5
2D85
330
2C49
100
AcDbEntity
  8
DEFPOINTS
 62
     0
100
AcDbPoint
 10
631.6110817597
 20
161.0821469169
 30
0.0
  0
ENDBLK
  5
2C4B
330
2C49
100
AcDbEntity
  8
0
100
AcDbBlockEnd
  0
BLOCK
  5
2C58
330
2C57
100
AcDbEntity
  8
0
100
AcDbBlockBegin
  2
*D81
 70
     1
 10
0.0
 20
0.0
 30
0.0
  3
*D81
  1

  0
POINT
  5
2D8D
330
2C57
100
AcDbEntity
  8
DEFPOINTS
 62
     0
100
AcDbPoint
 10
679.6114339889
 20
161.0821469169
 30
0.0
  0
POINT
  5
2D8E
330
2C57
100
AcDbEntity
  8
DEFPOINTS
 62
     0
100
AcDbPoint
 10
700.1114339889
 20
158.0821469169
 30
0.0
  0
POINT
  5
2D8F
330
2C57
100
AcDbEntity
  8
DEFPOINTS
 62
     0
100
AcDbPoint
 10
700.1114339889
 20
223.9305965108
 30
0.0
  0
ENDBLK
  5
2C59
330
2C57
100
AcDbEntity
  8
0
100
AcDbBlockEnd
  0
BLOCK
  5
2C65
330
2C64
100
AcDbEntity
  8
0
100
AcDbBlockBegin
  2
*D82
 70
     1
 10
0.0
 20
0.0
 30
0.0
  3
*D82
  1

  0
POINT
  5
2D96
330
2C64
100
AcDbEntity
  8
DEFPOINTS
 62
     0
100
AcDbPoint
 10
887.9816729889
 20
205.0821469169
 30
0.0
  0
POINT
  5
2D97
330
2C64
100
AcDbEntity
  8
DEFPOINTS
 62
     0
100
AcDbPoint
 10
887.9816729889
 20
111.0821469169
 30
0.0
  0
POINT
  5
2D98
330
2C64
100
AcDbEntity
  8
DEFPOINTS
 62
     0
100
AcDbPoint
 10
919.5970985894
 20
111.0821469169
 30
0.0
  0
ENDBLK
  5
2C66
330
2C64
100
AcDbEntity
  8
0
100
AcDbBlockEnd
  0
BLOCK
  5
33AE
330
33AB
100
AcDbEntity
  8
0
100
AcDbBlockBegin
  2
A$C97379603
 70
     0
 10
0.0
 20
0.0
 30
0.0
  3
A$C97379603
  1

  0
LINE
  5
33AF
330
33AB
100
AcDbEntity
  8
CENTER
100
AcDbLine
 10
144.87027
 20
33.6821635
 30
0.0
 11
144.87027
 21
-33.6821635
 31
0.0
  0
LINE
  5
33B0
330
33AB
100
AcDbEntity
  8
CENTER
100
AcDbLine
 10
143.1223153445
 20
0.0
 30
0.0
 11
146.6182246555
 21
0.0
 31
0.0
  0
LINE
  5
33B1
330
33AB
100
AcDbEntity
  8
0
100
AcDbLine
 10
150.37027
 20
3.0
 30
0.0
 11
150.37027
 21
-3.0
 31
0.0
  0
LINE
  5
33B2
330
33AB
100
AcDbEntity
  8
0
100
AcDbLine
 10
156.37027
 20
3.0
 30
0.0
 11
156.37027
 21
-3.0
 31
0.0
  0
ARC
  5
33B3
330
33AB
100
AcDbEntity
  8
0
100
AcDbCircle
 10
144.87027
 20
0.0
 30
0.0
 40
9.0
100
AcDbArc
 50
19.471222
 51
340.528778
  0
ARC
  5
33B4
330
33AB
100
AcDbEntity
  8
0
100
AcDbCircle
 10
144.87027
 20
0.0
 30
0.0
 40
10.0
100
AcDbArc
 50
17.457603
 51
342.542389
  0
LINE
  5
33B5
330
33AB
100
AcDbEntity
  8
0
100
AcDbLine
 10
156.37027
 20
-3.0
 30
0.0
 11
150.37027
 21
-3.0
 31
0.0
  0
LINE
  5
33B6
330
33AB
100
AcDbEntity
  8
0
100
AcDbLine
 10
156.37027
 20
3.0
 30
0.0
 11
150.37027
 21
3.0
 31
0.0
  0
CIRCLE
  5
33B7
330
33AB
100
AcDbEntity
  8
0
  6
Continuous
100
AcDbCircle
 10
144.87027
 20
0.0
 30
0.0
 40
25.548
  0
CIRCLE
  5
33B8
330
33AB
100
AcDbEntity
  8
0
  6
Continuous
100
AcDbCircle
 10
144.87027
 20
0.0
 30
0.0
 40
23.0
  0
CIRCLE
  5
33B9
330
33AB
100
AcDbEntity
  8
0
  6
Continuous
100
AcDbCircle
 10
144.87027
 20
0.0
 30
0.0
 40
17.5
  0
CIRCLE
  5
33BA
330
33AB
100
AcDbEntity
  8
0
  6
Continuous
100
AcDbCircle
 10
144.87027
 20
0.0
 30
0.0
 40
19.5
  0
LINE
  5
33BB
330
33AB
100
AcDbEntity
  8
0
100
AcDbLine
 10
189.36
 20
40.0
 30
0.0
 11
189.36
 21
-40.0
 31
0.0
  0
ARC
  5
33BC
330
33AB
100
AcDbEntity
  8
0
100
AcDbCircle
 10
187.36
 20
35.0
 30
0.0
 40
2.0
100
AcDbArc
 50
270.0
 51
0.0
  0
ARC
  5
33BD
330
33AB
100
AcDbEntity
  8
0
100
AcDbCircle
 10
187.36
 20
22.0
 30
0.0
 40
2.0
100
AcDbArc
 50
0.0
 51
90.0
  0
ARC
  5
33BE
330
33AB
100
AcDbEntity
  8
0
100
AcDbCircle
 10
187.36
 20
-22.0
 30
0.0
 40
2.0
100
AcDbArc
 50
270.0
 51
0.0
  0
ARC
  5
33BF
330
33AB
100
AcDbEntity
  8
0
100
AcDbCircle
 10
187.36
 20
-35.0
 30
0.0
 40
2.0
100
AcDbArc
 50
0.0
 51
90.0
  0
ARC
  5
33C0
330
33AB
100
AcDbEntity
  8
0
100
AcDbCircle
 10
187.36
 20
21.5526601325
 30
0.0
 40
2.0
100
AcDbArc
 50
314.8143643905
 51
0.0
  0
LINE
  5
33C1
330
33AB
100
AcDbEntity
  8
0
100
AcDbLine
 10
180.36
 20
49.0
 30
0.0
 11
84.36
 21
49.0
 31
0.0
  0
LINE
  5
33C2
330
33AB
100
AcDbEntity
  8
0
100
AcDbLine
 10
180.36
 20
-49.0
 30
0.0
 11
84.36
 21
-49.0
 31
0.0
  0
ARC
  5
33C3
330
33AB
100
AcDbEntity
  8
0
100
AcDbCircle
 10
180.36
 20
40.0
 30
0.0
 40
9.0
100
AcDbArc
 50
0.0
 51
130.947188455
  0
ARC
  5
33C4
330
33AB
100
AcDbEntity
  8
0
100
AcDbCircle
 10
180.36
 20
-40.0
 30
0.0
 40
9.0
100
AcDbArc
 50
229.052811545
 51
0.0
  0
LINE
  5
33C5
330
33AB
100
AcDbEntity
  8
0
100
AcDbLine
 10
73.8790356544
 20
45.0
 30
0.0
 11
0.0
 21
45.0
 31
0.0
  0
LINE
  5
33C6
330
33AB
100
AcDbEntity
  8
0
100
AcDbLine
 10
73.8790356544
 20
-45.0
 30
0.0
 11
0.0
 21
-45.0
 31
0.0
  0
ARC
  5
33C7
330
33AB
100
AcDbEntity
  8
0
100
AcDbCircle
 10
150.86
 20
16.5
 30
0.0
 40
34.0
100
AcDbArc
 50
60.5450656692
 51
67.0804578484
  0
ARC
  5
33C8
330
33AB
100
AcDbEntity
  8
0
100
AcDbCircle
 10
158.2593242935
 20
34.0
 30
0.0
 40
15.0
100
AcDbArc
 50
67.0804578484
 51
90.0
  0
ARC
  5
33C9
330
33AB
100
AcDbEntity
  8
0
100
AcDbCircle
 10
170.5295533815
 20
51.329709585
 30
0.0
 40
6.0
100
AcDbArc
 50
240.5450656692
 51
310.947188455
  0
ARC
  5
33CA
330
33AB
100
AcDbEntity
  8
0
100
AcDbCircle
 10
170.5295533815
 20
-51.329709585
 30
0.0
 40
6.0
100
AcDbArc
 50
49.052811545
 51
119.4549343308
  0
ARC
  5
33CB
330
33AB
100
AcDbEntity
  8
0
100
AcDbCircle
 10
150.86
 20
-16.5
 30
0.0
 40
34.0
100
AcDbArc
 50
292.9195421516
 51
299.4549343308
  0
ARC
  5
33CC
330
33AB
100
AcDbEntity
  8
0
100
AcDbCircle
 10
158.2593242935
 20
-34.0
 30
0.0
 40
15.0
100
AcDbArc
 50
270.0
 51
292.9195421516
  0
ARC
  5
33CD
330
33AB
100
AcDbEntity
  8
0
100
AcDbCircle
 10
94.1904466185
 20
51.329709585
 30
0.0
 40
6.0
100
AcDbArc
 50
229.052811545
 51
299.4549343308
  0
ARC
  5
33CE
330
33AB
100
AcDbEntity
  8
0
100
AcDbCircle
 10
113.86
 20
16.5
 30
0.0
 40
34.0
100
AcDbArc
 50
112.9195421516
 51
119.4549343308
  0
ARC
  5
33CF
330
33AB
100
AcDbEntity
  8
0
100
AcDbCircle
 10
106.4606757065
 20
34.0
 30
0.0
 40
15.0
100
AcDbArc
 50
90.0
 51
112.9195421516
  0
LINE
  5
33D0
330
33AB
100
AcDbEntity
  8
0
100
AcDbLine
 10
184.86
 20
15.4172746018
 30
0.0
 11
184.86
 21
-15.4172746018
 31
0.0
  0
ARC
  5
33D1
330
33AB
100
AcDbEntity
  8
0
100
AcDbCircle
 10
186.86
 20
15.4172746018
 30
0.0
 40
2.0
100
AcDbArc
 50
134.8143643905
 51
180.0
  0
LINE
  5
33D2
330
33AB
100
AcDbEntity
  8
0
100
AcDbLine
 10
185.4503758372
 20
16.8360627184
 30
0.0
 11
188.7696241628
 21
20.1338720159
 31
0.0
  0
LINE
  5
33D3
330
33AB
100
AcDbEntity
  8
0
100
AcDbLine
 10
0.0
 20
45.0
 30
0.0
 11
0.0
 21
-45.0
 31
0.0
  0
LINE
  5
33D4
330
33AB
100
AcDbEntity
  8
0
100
AcDbLine
 10
73.0
 20
34.4093010682
 30
0.0
 11
73.36
 21
34.4093010682
 31
0.0
  0
ARC
  5
33D5
330
33AB
100
AcDbEntity
  8
0
100
AcDbCircle
 10
94.1904466185
 20
-51.329709585
 30
0.0
 40
6.0
100
AcDbArc
 50
60.5450656692
 51
130.947188455
  0
ARC
  5
33D6
330
33AB
100
AcDbEntity
  8
0
100
AcDbCircle
 10
113.86
 20
-16.5
 30
0.0
 40
34.0
100
AcDbArc
 50
240.5450656692
 51
247.0804578484
  0
ARC
  5
33D7
330
33AB
100
AcDbEntity
  8
0
100
AcDbCircle
 10
106.4606757065
 20
-34.0
 30
0.0
 40
15.0
100
AcDbArc
 50
247.0804578484
 51
270.0
  0
ARC
  5
33D8
330
33AB
100
AcDbEntity
  8
0
100
AcDbCircle
 10
73.8790356544
 20
-47.0
 30
0.0
 40
2.0
100
AcDbArc
 50
62.9562954612
 51
90.0
  0
LINE
  5
33D9
330
33AB
100
AcDbEntity
  8
0
100
AcDbLine
 10
74.7883756879
 20
-45.2186800671
 30
0.0
 11
80.2679698491
 21
-48.0159396981
 31
0.0
  0
ARC
  5
33DA
330
33AB
100
AcDbEntity
  8
0
100
AcDbCircle
 10
73.8790356544
 20
47.0
 30
0.0
 40
2.0
100
AcDbArc
 50
270.0
 51
297.0437045388
  0
LINE
  5
33DB
330
33AB
100
AcDbEntity
  8
0
100
AcDbLine
 10
74.7883756879
 20
45.2186800671
 30
0.0
 11
80.2679698491
 21
48.0159396981
 31
0.0
  0
ARC
  5
33DC
330
33AB
100
AcDbEntity
  8
0
100
AcDbCircle
 10
187.36
 20
-21.5526601325
 30
0.0
 40
2.0
100
AcDbArc
 50
0.0
 51
45.1856356095
  0
ARC
  5
33DD
330
33AB
100
AcDbEntity
  8
0
100
AcDbCircle
 10
186.86
 20
-15.4172746018
 30
0.0
 40
2.0
100
AcDbArc
 50
180.0
 51
225.1856356095
  0
LINE
  5
33DE
330
33AB
100
AcDbEntity
  8
0
100
AcDbLine
 10
185.4503758372
 20
-16.8360627184
 30
0.0
 11
188.7696241628
 21
-20.1338720159
 31
0.0
  0
ARC
  5
33DF
330
33AB
100
AcDbEntity
  8
0
100
AcDbCircle
 10
73.962
 20
36.4093010682
 30
0.0
 40
2.0
100
AcDbArc
 50
270.0
 51
0.0
  0
ARC
  5
33E0
330
33AB
100
AcDbEntity
  8
0
100
AcDbCircle
 10
72.5
 20
32.4093010682
 30
0.0
 40
2.0
100
AcDbArc
 50
0.0
 51
90.0
  0
ARC
  5
33E1
330
33AB
100
AcDbEntity
  8
0
100
AcDbCircle
 10
73.962
 20
-36.4093010682
 30
0.0
 40
2.0
100
AcDbArc
 50
0.0
 51
90.0
  0
ARC
  5
33E2
330
33AB
100
AcDbEntity
  8
0
100
AcDbCircle
 10
72.5
 20
-32.4093010682
 30
0.0
 40
2.0
100
AcDbArc
 50
270.0
 51
0.0
  0
LINE
  5
33E3
330
33AB
100
AcDbEntity
  8
0
100
AcDbLine
 10
74.5
 20
32.4093010682
 30
0.0
 11
74.5
 21
-32.4093010682
 31
0.0
  0
ARC
  5
33E4
330
33AB
100
AcDbEntity
  8
0
100
AcDbCircle
 10
84.36
 20
-40.0
 30
0.0
 40
9.0
100
AcDbArc
 50
242.9562954612
 51
310.947188455
  0
LINE
  5
33E5
330
33AB
100
AcDbEntity
  8
0
100
AcDbLine
 10
0.0
 20
34.4093010682
 30
0.0
 11
73.962
 21
34.4093010682
 31
0.0
  0
LINE
  5
33E6
330
33AB
100
AcDbEntity
  8
0
100
AcDbLine
 10
0.0
 20
-34.4093010682
 30
0.0
 11
74.0
 21
-34.4093010682
 31
0.0
  0
LINE
  5
33E7
330
33AB
100
AcDbEntity
  8
CENTER
100
AcDbLine
 10
188.348908
 20
39.0
 30
0.0
 11
172.391632
 21
39.0
 31
0.0
  0
LINE
  5
33E8
330
33AB
100
AcDbEntity
  8
CENTER
100
AcDbLine
 10
180.37027
 20
46.978638
 30
0.0
 11
180.37027
 21
31.021362
 31
0.0
  0
LINE
  5
33E9
330
33AB
100
AcDbEntity
  8
CENTER
100
AcDbLine
 10
92.348908
 20
39.0
 30
0.0
 11
76.391632
 21
39.0
 31
0.0
  0
LINE
  5
33EA
330
33AB
100
AcDbEntity
  8
CENTER
100
AcDbLine
 10
84.37027
 20
46.978638
 30
0.0
 11
84.37027
 21
31.021362
 31
0.0
  0
LINE
  5
33EB
330
33AB
100
AcDbEntity
  8
CENTER
100
AcDbLine
 10
92.348908
 20
-39.0
 30
0.0
 11
76.391632
 21
-39.0
 31
0.0
  0
LINE
  5
33EC
330
33AB
100
AcDbEntity
  8
CENTER
100
AcDbLine
 10
84.37027
 20
-31.021362
 30
0.0
 11
84.37027
 21
-46.978638
 31
0.0
  0
LINE
  5
33ED
330
33AB
100
AcDbEntity
  8
CENTER
100
AcDbLine
 10
188.348908
 20
-39.0
 30
0.0
 11
172.391632
 21
-39.0
 31
0.0
  0
LINE
  5
33EE
330
33AB
100
AcDbEntity
  8
CENTER
100
AcDbLine
 10
180.37027
 20
-31.021362
 30
0.0
 11
180.37027
 21
-46.978638
 31
0.0
  0
LINE
  5
33EF
330
33AB
100
AcDbEntity
  8
CENTER
100
AcDbLine
 10
74.797928
 20
28.5
 30
0.0
 11
85.942612
 21
28.5
 31
0.0
  0
LINE
  5
33F0
330
33AB
100
AcDbEntity
  8
CENTER
100
AcDbLine
 10
80.37027
 20
22.927658
 30
0.0
 11
80.37027
 21
34.072342
 31
0.0
  0
LINE
  5
33F1
330
33AB
100
AcDbEntity
  8
CENTER
100
AcDbLine
 10
74.797928
 20
-28.5
 30
0.0
 11
85.942612
 21
-28.5
 31
0.0
  0
LINE
  5
33F2
330
33AB
100
AcDbEntity
  8
CENTER
100
AcDbLine
 10
80.37027
 20
-34.072342
 30
0.0
 11
80.37027
 21
-22.927658
 31
0.0
  0
LINE
  5
33F3
330
33AB
100
AcDbEntity
  8
CENTER
100
AcDbLine
 10
178.797928
 20
-28.5
 30
0.0
 11
189.942612
 21
-28.5
 31
0.0
  0
LINE
  5
33F4
330
33AB
100
AcDbEntity
  8
CENTER
100
AcDbLine
 10
184.37027
 20
-34.072342
 30
0.0
 11
184.37027
 21
-22.927658
 31
0.0
  0
LINE
  5
33F5
330
33AB
100
AcDbEntity
  8
CENTER
100
AcDbLine
 10
184.37027
 20
22.927658
 30
0.0
 11
184.37027
 21
34.072342
 31
0.0
  0
LINE
  5
33F6
330
33AB
100
AcDbEntity
  8
CENTER
100
AcDbLine
 10
178.797928
 20
28.5
 30
0.0
 11
189.942612
 21
28.5
 31
0.0
  0
LINE
  5
33F7
330
33AB
100
AcDbEntity
  8
0
  6
Continuous
100
AcDbLine
 10
77.981186
 20
-24.0
 30
0.0
 11
80.370285
 21
-24.0
 31
0.0
  0
LINE
  5
33F8
330
33AB
100
AcDbEntity
  8
0
100
AcDbLine
 10
80.48027
 20
15.6715728753
 30
0.0
 11
80.48027
 21
-15.6715728753
 31
0.0
  0
LINE
  5
33F9
330
33AB
100
AcDbEntity
  8
0
100
AcDbLine
 10
75.98027
 20
-21.8284271247
 30
0.0
 11
75.98027
 21
-40.0
 31
0.0
  0
ARC
  5
33FA
330
33AB
100
AcDbEntity
  8
0
100
AcDbCircle
 10
78.48027
 20
-15.6715728753
 30
0.0
 40
2.0
100
AcDbArc
 50
315.0
 51
0.0
  0
ARC
  5
33FB
330
33AB
100
AcDbEntity
  8
0
100
AcDbCircle
 10
77.98027
 20
-21.8284271247
 30
0.0
 40
2.0
100
AcDbArc
 50
135.0
 51
180.0
  0
LINE
  5
33FC
330
33AB
100
AcDbEntity
  8
0
100
AcDbLine
 10
76.5660564376
 20
-20.4142135624
 30
0.0
 11
79.8944835624
 21
-17.0857864376
 31
0.0
  0
ARC
  5
33FD
330
33AB
100
AcDbEntity
  8
0
100
AcDbCircle
 10
80.37027
 20
-28.5
 30
0.0
 40
4.5
100
AcDbArc
 50
270.0
 51
90.0
  0
LINE
  5
33FE
330
33AB
100
AcDbEntity
  8
0
100
AcDbLine
 10
80.37027
 20
-24.0
 30
0.0
 11
77.98027
 21
-24.0
 31
0.0
  0
ARC
  5
33FF
330
33AB
100
AcDbEntity
  8
0
100
AcDbCircle
 10
77.98027
 20
-22.0
 30
0.0
 40
2.0
100
AcDbArc
 50
180.0
 51
270.0
  0
ARC
  5
3400
330
33AB
100
AcDbEntity
  8
0
100
AcDbCircle
 10
77.98027
 20
-35.0
 30
0.0
 40
2.0
100
AcDbArc
 50
90.0
 51
180.0
  0
LINE
  5
3401
330
33AB
100
AcDbEntity
  8
0
100
AcDbLine
 10
80.37027
 20
-33.0
 30
0.0
 11
77.98027
 21
-33.0
 31
0.0
  0
ARC
  5
3402
330
33AB
100
AcDbEntity
  8
0
100
AcDbCircle
 10
77.98027
 20
35.0
 30
0.0
 40
2.0
100
AcDbArc
 50
180.0
 51
270.0
  0
LINE
  5
3403
330
33AB
100
AcDbEntity
  8
0
100
AcDbLine
 10
75.98027
 20
21.8284271247
 30
0.0
 11
75.98027
 21
40.0
 31
0.0
  0
ARC
  5
3404
330
33AB
100
AcDbEntity
  8
0
100
AcDbCircle
 10
77.98027
 20
22.0
 30
0.0
 40
2.0
100
AcDbArc
 50
90.0
 51
180.0
  0
ARC
  5
3405
330
33AB
100
AcDbEntity
  8
0
100
AcDbCircle
 10
80.37027
 20
28.5
 30
0.0
 40
4.5
100
AcDbArc
 50
270.0
 51
90.0
  0
LINE
  5
3406
330
33AB
100
AcDbEntity
  8
0
100
AcDbLine
 10
80.37027
 20
33.0
 30
0.0
 11
77.98027
 21
33.0
 31
0.0
  0
LINE
  5
3407
330
33AB
100
AcDbEntity
  8
0
100
AcDbLine
 10
80.37027
 20
24.0
 30
0.0
 11
77.98027
 21
24.0
 31
0.0
  0
ARC
  5
3408
330
33AB
100
AcDbEntity
  8
0
100
AcDbCircle
 10
78.48027
 20
15.6715728753
 30
0.0
 40
2.0
100
AcDbArc
 50
0.0
 51
45.0
  0
LINE
  5
3409
330
33AB
100
AcDbEntity
  8
0
100
AcDbLine
 10
76.5660564376
 20
20.4142135624
 30
0.0
 11
79.8944835624
 21
17.0857864376
 31
0.0
  0
ARC
  5
340A
330
33AB
100
AcDbEntity
  8
0
100
AcDbCircle
 10
77.98027
 20
21.8284271247
 30
0.0
 40
2.0
100
AcDbArc
 50
180.0
 51
225.0
  0
ARC
  5
340B
330
33AB
100
AcDbEntity
  8
0
100
AcDbCircle
 10
184.37027
 20
-28.5
 30
0.0
 40
4.5
100
AcDbArc
 50
90.0
 51
270.0
  0
LINE
  5
340C
330
33AB
100
AcDbEntity
  8
0
100
AcDbLine
 10
184.37027
 20
-33.0
 30
0.0
 11
187.36
 21
-33.0
 31
0.0
  0
LINE
  5
340D
330
33AB
100
AcDbEntity
  8
0
100
AcDbLine
 10
184.37027
 20
-24.0
 30
0.0
 11
187.36
 21
-24.0
 31
0.0
  0
ARC
  5
340E
330
33AB
100
AcDbEntity
  8
0
100
AcDbCircle
 10
184.37027
 20
28.5
 30
0.0
 40
4.5
100
AcDbArc
 50
90.0
 51
270.0
  0
LINE
  5
340F
330
33AB
100
AcDbEntity
  8
0
100
AcDbLine
 10
184.37027
 20
24.0
 30
0.0
 11
187.36
 21
24.0
 31
0.0
  0
LINE
  5
3410
330
33AB
100
AcDbEntity
  8
0
100
AcDbLine
 10
184.37027
 20
33.0
 30
0.0
 11
187.36
 21
33.0
 31
0.0
  0
CIRCLE
  5
3411
330
33AB
100
AcDbEntity
  8
0
  6
Continuous
100
AcDbCircle
 10
84.370285
 20
39.0
 30
0.0
 40
5.25
  0
CIRCLE
  5
3412
330
33AB
100
AcDbEntity
  8
0
  6
Continuous
100
AcDbCircle
 10
84.370285
 20
-38.999962
 30
0.0
 40
5.25
  0
CIRCLE
  5
3413
330
33AB
100
AcDbEntity
  8
0
  6
Continuous
100
AcDbCircle
 10
180.37027
 20
-38.999962
 30
0.0
 40
5.25
  0
CIRCLE
  5
3414
330
33AB
100
AcDbEntity
  8
0
  6
Continuous
100
AcDbCircle
 10
180.37027
 20
39.0
 30
0.0
 40
5.25
  0
CIRCLE
  5
3415
330
33AB
100
AcDbEntity
  8
0
100
AcDbCircle
 10
184.37027
 20
28.5
 30
0.0
 40
3.799999999999998
  0
CIRCLE
  5
3416
330
33AB
100
AcDbEntity
  8
0
100
AcDbCircle
 10
184.37027
 20
28.5
 30
0.0
 40
3.5
  0
LINE
  5
3417
330
33AB
100
AcDbEntity
  8
0
100
AcDbLine
 10
186.170288
 20
28.5
 30
0.0
 11
185.30426
 21
30.0
 31
0.0
  0
LINE
  5
3418
330
33AB
100
AcDbEntity
  8
0
100
AcDbLine
 10
182.570282
 20
28.5
 30
0.0
 11
183.43631
 21
30.0
 31
0.0
  0
LINE
  5
3419
330
33AB
100
AcDbEntity
  8
0
100
AcDbLine
 10
186.170288
 20
28.5
 30
0.0
 11
185.30426
 21
27.0
 31
0.0
  0
LINE
  5
341A
330
33AB
100
AcDbEntity
  8
0
100
AcDbLine
 10
182.570282
 20
28.5
 30
0.0
 11
183.43631
 21
27.0
 31
0.0
  0
LINE
  5
341B
330
33AB
100
AcDbEntity
  8
0
100
AcDbLine
 10
185.30426
 20
27.0
 30
0.0
 11
183.43631
 21
27.0
 31
0.0
  0
LINE
  5
341C
330
33AB
100
AcDbEntity
  8
0
100
AcDbLine
 10
185.30426
 20
30.0
 30
0.0
 11
183.43631
 21
30.0
 31
0.0
  0
CIRCLE
  5
341D
330
33AB
100
AcDbEntity
  8
0
100
AcDbCircle
 10
184.37027
 20
-28.5
 30
0.0
 40
3.799999999999998
  0
CIRCLE
  5
341E
330
33AB
100
AcDbEntity
  8
0
100
AcDbCircle
 10
184.37027
 20
-28.5
 30
0.0
 40
3.5
  0
LINE
  5
341F
330
33AB
100
AcDbEntity
  8
0
100
AcDbLine
 10
186.170288
 20
-28.5
 30
0.0
 11
185.30426
 21
-27.0
 31
0.0
  0
LINE
  5
3420
330
33AB
100
AcDbEntity
  8
0
100
AcDbLine
 10
182.570282
 20
-28.5
 30
0.0
 11
183.43631
 21
-27.0
 31
0.0
  0
LINE
  5
3421
330
33AB
100
AcDbEntity
  8
0
100
AcDbLine
 10
186.170288
 20
-28.5
 30
0.0
 11
185.30426
 21
-30.0
 31
0.0
  0
LINE
  5
3422
330
33AB
100
AcDbEntity
  8
0
100
AcDbLine
 10
182.570282
 20
-28.5
 30
0.0
 11
183.43631
 21
-30.0
 31
0.0
  0
LINE
  5
3423
330
33AB
100
AcDbEntity
  8
0
100
AcDbLine
 10
185.30426
 20
-30.0
 30
0.0
 11
183.43631
 21
-30.0
 31
0.0
  0
LINE
  5
3424
330
33AB
100
AcDbEntity
  8
0
100
AcDbLine
 10
185.30426
 20
-27.0
 30
0.0
 11
183.43631
 21
-27.0
 31
0.0
  0
CIRCLE
  5
3425
330
33AB
100
AcDbEntity
  8
0
100
AcDbCircle
 10
80.37027
 20
-28.5
 30
0.0
 40
3.799999999999998
  0
CIRCLE
  5
3426
330
33AB
100
AcDbEntity
  8
0
100
AcDbCircle
 10
80.37027
 20
-28.5
 30
0.0
 40
3.5
  0
LINE
  5
3427
330
33AB
100
AcDbEntity
  8
0
100
AcDbLine
 10
82.170288
 20
-28.5
 30
0.0
 11
81.30426
 21
-27.0
 31
0.0
  0
LINE
  5
3428
330
33AB
100
AcDbEntity
  8
0
100
AcDbLine
 10
78.570282
 20
-28.5
 30
0.0
 11
79.43631
 21
-27.0
 31
0.0
  0
LINE
  5
3429
330
33AB
100
AcDbEntity
  8
0
100
AcDbLine
 10
82.170288
 20
-28.5
 30
0.0
 11
81.30426
 21
-30.0
 31
0.0
  0
LINE
  5
342A
330
33AB
100
AcDbEntity
  8
0
100
AcDbLine
 10
78.570282
 20
-28.5
 30
0.0
 11
79.43631
 21
-30.0
 31
0.0
  0
LINE
  5
342B
330
33AB
100
AcDbEntity
  8
0
100
AcDbLine
 10
81.30426
 20
-30.0
 30
0.0
 11
79.43631
 21
-30.0
 31
0.0
  0
LINE
  5
342C
330
33AB
100
AcDbEntity
  8
0
100
AcDbLine
 10
81.30426
 20
-27.0
 30
0.0
 11
79.43631
 21
-27.0
 31
0.0
  0
CIRCLE
  5
342D
330
33AB
100
AcDbEntity
  8
0
100
AcDbCircle
 10
80.37027
 20
28.5
 30
0.0
 40
3.799999999999998
  0
CIRCLE
  5
342E
330
33AB
100
AcDbEntity
  8
0
100
AcDbCircle
 10
80.37027
 20
28.5
 30
0.0
 40
3.5
  0
LINE
  5
342F
330
33AB
100
AcDbEntity
  8
0
100
AcDbLine
 10
82.170288
 20
28.5
 30
0.0
 11
81.30426
 21
30.0
 31
0.0
  0
LINE
  5
3430
330
33AB
100
AcDbEntity
  8
0
100
AcDbLine
 10
78.570282
 20
28.5
 30
0.0
 11
79.43631
 21
30.0
 31
0.0
  0
LINE
  5
3431
330
33AB
100
AcDbEntity
  8
0
100
AcDbLine
 10
82.170288
 20
28.5
 30
0.0
 11
81.30426
 21
27.0
 31
0.0
  0
LINE
  5
3432
330
33AB
100
AcDbEntity
  8
0
100
AcDbLine
 10
78.570282
 20
28.5
 30
0.0
 11
79.43631
 21
27.0
 31
0.0
  0
LINE
  5
3433
330
33AB
100
AcDbEntity
  8
0
100
AcDbLine
 10
81.30426
 20
27.0
 30
0.0
 11
79.43631
 21
27.0
 31
0.0
  0
LINE
  5
3434
330
33AB
100
AcDbEntity
  8
0
100
AcDbLine
 10
81.30426
 20
30.0
 30
0.0
 11
79.43631
 21
30.0
 31
0.0
  0
CIRCLE
  5
3435
330
33AB
100
AcDbEntity
  8
HOJO
100
AcDbCircle
 10
180.37027
 20
39.0
 30
0.0
 40
5.0
  0
CIRCLE
  5
3436
330
33AB
100
AcDbEntity
  8
HOJO
100
AcDbCircle
 10
84.37027
 20
39.0
 30
0.0
 40
5.0
  0
CIRCLE
  5
3437
330
33AB
100
AcDbEntity
  8
HOJO
100
AcDbCircle
 10
180.37027
 20
-39.0
 30
0.0
 40
5.0
  0
CIRCLE
  5
3438
330
33AB
100
AcDbEntity
  8
HOJO
100
AcDbCircle
 10
84.37027
 20
-39.0
 30
0.0
 40
5.0
  0
CIRCLE
  5
3439
330
33AB
100
AcDbEntity
  8
0
100
AcDbCircle
 10
180.37027
 20
39.0
 30
0.0
 40
4.2
  0
CIRCLE
  5
343A
330
33AB
100
AcDbEntity
  8
0
100
AcDbCircle
 10
84.37027
 20
39.0
 30
0.0
 40
4.2
  0
CIRCLE
  5
343B
330
33AB
100
AcDbEntity
  8
0
100
AcDbCircle
 10
180.37027
 20
-39.0
 30
0.0
 40
4.2
  0
CIRCLE
  5
343C
330
33AB
100
AcDbEntity
  8
0
100
AcDbCircle
 10
84.37027
 20
-39.0
 30
0.0
 40
4.2
  0
LINE
  5
343D
330
33AB
100
AcDbEntity
  8
0
100
AcDbLine
 10
179.87027
 20
-18.0
 30
0.0
 11
179.87027
 21
18.320496
 31
0.0
  0
LINE
  5
343E
330
33AB
100
AcDbEntity
  8
0
100
AcDbLine
 10
84.87027
 20
-18.0
 30
0.0
 11
84.87027
 21
18.320496
 31
0.0
  0
LINE
  5
343F
330
33AB
100
AcDbEntity
  8
0
100
AcDbLine
 10
109.87027
 20
-43.0
 30
0.0
 11
154.87027
 21
-43.0
 31
0.0
  0
LINE
  5
3440
330
33AB
100
AcDbEntity
  8
0
100
AcDbLine
 10
99.262009
 20
-37.53714
 30
0.0
 11
101.262009
 21
-36.850922
 31
0.0
  0
ARC
  5
3441
330
33AB
100
AcDbEntity
  8
0
100
AcDbCircle
 10
99.37027
 20
-37.5
 30
0.0
 40
2.0
100
AcDbArc
 50
0.0
 51
37.874985
  0
ARC
  5
3442
330
33AB
100
AcDbEntity
  8
0
100
AcDbCircle
 10
97.37027
 20
-38.186218
 30
0.0
 40
2.0
100
AcDbArc
 50
0.0
 51
37.874985
  0
ARC
  5
3443
330
33AB
100
AcDbEntity
  8
0
100
AcDbCircle
 10
109.87027
 20
-18.0
 30
0.0
 40
25.0
100
AcDbArc
 50
248.311188
 51
270.0
  0
LINE
  5
3444
330
33AB
100
AcDbEntity
  8
0
100
AcDbLine
 10
99.37027
 20
-38.186218
 30
0.0
 11
99.37027
 21
-39.371704
 31
0.0
  0
ARC
  5
3445
330
33AB
100
AcDbEntity
  8
0
100
AcDbCircle
 10
101.37027
 20
-39.371704
 30
0.0
 40
2.0
100
AcDbArc
 50
180.0
 51
248.311188
  0
LINE
  5
3446
330
33AB
100
AcDbEntity
  8
0
100
AcDbLine
 10
101.37027
 20
-37.5
 30
0.0
 11
101.37027
 21
-40.062408
 31
0.0
  0
ARC
  5
3447
330
33AB
100
AcDbEntity
  8
0
100
AcDbCircle
 10
103.37027
 20
-40.062408
 30
0.0
 40
2.0
100
AcDbArc
 50
180.0
 51
253.584045
  0
ARC
  5
3448
330
33AB
100
AcDbEntity
  8
0
100
AcDbCircle
 10
109.87027
 20
-18.0
 30
0.0
 40
25.0
100
AcDbArc
 50
180.0
 51
190.015411
  0
ARC
  5
3449
330
33AB
100
AcDbEntity
  8
0
100
AcDbCircle
 10
86.957398
 20
-20.0
 30
0.0
 40
2.0
100
AcDbArc
 50
184.988541
 51
270.0
  0
ARC
  5
344A
330
33AB
100
AcDbEntity
  8
0
100
AcDbCircle
 10
87.220764
 20
-22.0
 30
0.0
 40
2.0
100
AcDbArc
 50
190.015411
 51
270.0
  0
LINE
  5
344B
330
33AB
100
AcDbEntity
  8
0
100
AcDbLine
 10
89.47081
 20
-24.772125
 30
0.0
 11
98.948975
 21
-36.958328
 31
0.0
  0
LINE
  5
344C
330
33AB
100
AcDbEntity
  8
0
100
AcDbLine
 10
90.448975
 20
-22.772125
 30
0.0
 11
100.948975
 21
-36.272125
 31
0.0
  0
LINE
  5
344D
330
33AB
100
AcDbEntity
  8
0
100
AcDbLine
 10
88.87027
 20
-22.0
 30
0.0
 11
86.957398
 21
-22.0
 31
0.0
  0
LINE
  5
344E
330
33AB
100
AcDbEntity
  8
0
100
AcDbLine
 10
87.220764
 20
-24.0
 30
0.0
 11
87.892105
 21
-24.0
 31
0.0
  0
ARC
  5
344F
330
33AB
100
AcDbEntity
  8
0
100
AcDbCircle
 10
88.87027
 20
-24.0
 30
0.0
 40
2.0
100
AcDbArc
 50
37.874985
 51
90.0
  0
ARC
  5
3450
330
33AB
100
AcDbEntity
  8
0
100
AcDbCircle
 10
87.892105
 20
-26.0
 30
0.0
 40
2.0
100
AcDbArc
 50
37.874985
 51
90.0
  0
LINE
  5
3451
330
33AB
100
AcDbEntity
  8
0
100
AcDbLine
 10
88.770798
 20
-24.203369
 30
0.0
 11
89.748978
 21
-22.203369
 31
0.0
  0
LINE
  5
3452
330
33AB
100
AcDbEntity
  8
0
100
AcDbLine
 10
165.478516
 20
-37.53714
 30
0.0
 11
163.478516
 21
-36.850922
 31
0.0
  0
ARC
  5
3453
330
33AB
100
AcDbEntity
  8
0
100
AcDbCircle
 10
167.37027
 20
-38.186218
 30
0.0
 40
2.0
100
AcDbArc
 50
142.125015
 51
180.0
  0
ARC
  5
3454
330
33AB
100
AcDbEntity
  8
0
100
AcDbCircle
 10
165.37027
 20
-37.5
 30
0.0
 40
2.0
100
AcDbArc
 50
142.125015
 51
180.0
  0
ARC
  5
3455
330
33AB
100
AcDbEntity
  8
0
100
AcDbCircle
 10
161.37027
 20
-40.062408
 30
0.0
 40
2.0
100
AcDbArc
 50
286.415962
 51
0.0
  0
ARC
  5
3456
330
33AB
100
AcDbEntity
  8
0
100
AcDbCircle
 10
154.87027
 20
-18.0
 30
0.0
 40
25.0
100
AcDbArc
 50
270.0
 51
291.688812
  0
LINE
  5
3457
330
33AB
100
AcDbEntity
  8
0
100
AcDbLine
 10
163.37027
 20
-37.5
 30
0.0
 11
163.37027
 21
-40.062408
 31
0.0
  0
ARC
  5
3458
330
33AB
100
AcDbEntity
  8
0
100
AcDbCircle
 10
163.37027
 20
-39.371704
 30
0.0
 40
2.0
100
AcDbArc
 50
291.688805
 51
0.0
  0
LINE
  5
3459
330
33AB
100
AcDbEntity
  8
0
100
AcDbLine
 10
165.37027
 20
-38.186218
 30
0.0
 11
165.37027
 21
-39.371704
 31
0.0
  0
ARC
  5
345A
330
33AB
100
AcDbEntity
  8
0
100
AcDbCircle
 10
154.87027
 20
-18.0
 30
0.0
 40
25.0
100
AcDbArc
 50
349.98459
 51
0.0
  0
LINE
  5
345B
330
33AB
100
AcDbEntity
  8
0
100
AcDbLine
 10
175.87027
 20
-22.0
 30
0.0
 11
177.783142
 21
-22.0
 31
0.0
  0
LINE
  5
345C
330
33AB
100
AcDbEntity
  8
0
100
AcDbLine
 10
177.519776
 20
-24.0
 30
0.0
 11
176.84845
 21
-24.0
 31
0.0
  0
LINE
  5
345D
330
33AB
100
AcDbEntity
  8
0
100
AcDbLine
 10
175.269745
 20
-24.772125
 30
0.0
 11
165.791565
 21
-36.958328
 31
0.0
  0
LINE
  5
345E
330
33AB
100
AcDbEntity
  8
0
100
AcDbLine
 10
174.291565
 20
-22.772125
 30
0.0
 11
163.791565
 21
-36.272125
 31
0.0
  0
ARC
  5
345F
330
33AB
100
AcDbEntity
  8
0
100
AcDbCircle
 10
175.87027
 20
-24.0
 30
0.0
 40
2.0
100
AcDbArc
 50
90.0
 51
142.125015
  0
ARC
  5
3460
330
33AB
100
AcDbEntity
  8
0
100
AcDbCircle
 10
176.84845
 20
-26.0
 30
0.0
 40
2.0
100
AcDbArc
 50
90.0
 51
142.125015
  0
LINE
  5
3461
330
33AB
100
AcDbEntity
  8
0
100
AcDbLine
 10
175.969727
 20
-24.203369
 30
0.0
 11
174.991577
 21
-22.203369
 31
0.0
  0
ARC
  5
3462
330
33AB
100
AcDbEntity
  8
0
100
AcDbCircle
 10
177.783142
 20
-20.0
 30
0.0
 40
2.0
100
AcDbArc
 50
270.0
 51
355.011444
  0
ARC
  5
3463
330
33AB
100
AcDbEntity
  8
0
100
AcDbCircle
 10
177.519776
 20
-22.0
 30
0.0
 40
2.0
100
AcDbArc
 50
270.0
 51
349.984589
  0
LINE
  5
3464
330
33AB
100
AcDbEntity
  8
0
100
AcDbLine
 10
154.87027
 20
43.0
 30
0.0
 11
109.87027
 21
43.0
 31
0.0
  0
LINE
  5
3465
330
33AB
100
AcDbEntity
  8
0
100
AcDbLine
 10
89.47081
 20
24.772125
 30
0.0
 11
98.948975
 21
36.958344
 31
0.0
  0
LINE
  5
3466
330
33AB
100
AcDbEntity
  8
0
100
AcDbLine
 10
90.448975
 20
22.772125
 30
0.0
 11
100.948975
 21
36.272125
 31
0.0
  0
ARC
  5
3467
330
33AB
100
AcDbEntity
  8
0
100
AcDbCircle
 10
86.957398
 20
20.0
 30
0.0
 40
2.0
100
AcDbArc
 50
90.0
 51
175.011459
  0
ARC
  5
3468
330
33AB
100
AcDbEntity
  8
0
100
AcDbCircle
 10
87.220764
 20
22.0
 30
0.0
 40
2.0
100
AcDbArc
 50
90.0
 51
169.984589
  0
ARC
  5
3469
330
33AB
100
AcDbEntity
  8
0
100
AcDbCircle
 10
109.87027
 20
18.0
 30
0.0
 40
25.0
100
AcDbArc
 50
169.984589
 51
180.0
  0
ARC
  5
346A
330
33AB
100
AcDbEntity
  8
0
100
AcDbCircle
 10
88.87027
 20
24.0
 30
0.0
 40
2.0
100
AcDbArc
 50
270.0
 51
322.125031
  0
LINE
  5
346B
330
33AB
100
AcDbEntity
  8
0
100
AcDbLine
 10
88.770798
 20
24.203369
 30
0.0
 11
89.748978
 21
22.203369
 31
0.0
  0
LINE
  5
346C
330
33AB
100
AcDbEntity
  8
0
100
AcDbLine
 10
88.87027
 20
22.0
 30
0.0
 11
86.957398
 21
22.0
 31
0.0
  0
LINE
  5
346D
330
33AB
100
AcDbEntity
  8
0
100
AcDbLine
 10
87.220764
 20
24.0
 30
0.0
 11
87.892105
 21
24.0
 31
0.0
  0
ARC
  5
346E
330
33AB
100
AcDbEntity
  8
0
100
AcDbCircle
 10
87.892105
 20
26.0
 30
0.0
 40
2.0
100
AcDbArc
 50
270.0
 51
322.125031
  0
ARC
  5
346F
330
33AB
100
AcDbEntity
  8
0
100
AcDbCircle
 10
99.37027
 20
37.5
 30
0.0
 40
2.0
100
AcDbArc
 50
322.125015
 51
0.0
  0
LINE
  5
3470
330
33AB
100
AcDbEntity
  8
0
100
AcDbLine
 10
99.262009
 20
37.53714
 30
0.0
 11
101.262009
 21
36.850922
 31
0.0
  0
ARC
  5
3471
330
33AB
100
AcDbEntity
  8
0
100
AcDbCircle
 10
109.87027
 20
18.0
 30
0.0
 40
25.0
100
AcDbArc
 50
90.0
 51
111.688805
  0
ARC
  5
3472
330
33AB
100
AcDbEntity
  8
0
100
AcDbCircle
 10
101.37027
 20
39.371704
 30
0.0
 40
2.0
100
AcDbArc
 50
111.688805
 51
180.0
  0
LINE
  5
3473
330
33AB
100
AcDbEntity
  8
0
100
AcDbLine
 10
99.37027
 20
38.186218
 30
0.0
 11
99.37027
 21
39.371704
 31
0.0
  0
ARC
  5
3474
330
33AB
100
AcDbEntity
  8
0
100
AcDbCircle
 10
97.37027
 20
38.186218
 30
0.0
 40
2.0
100
AcDbArc
 50
322.125015
 51
0.0
  0
LINE
  5
3475
330
33AB
100
AcDbEntity
  8
0
100
AcDbLine
 10
101.37027
 20
37.5
 30
0.0
 11
101.37027
 21
40.062408
 31
0.0
  0
ARC
  5
3476
330
33AB
100
AcDbEntity
  8
0
100
AcDbCircle
 10
103.37027
 20
40.062408
 30
0.0
 40
2.0
100
AcDbArc
 50
106.415962
 51
180.0
  0
LINE
  5
3477
330
33AB
100
AcDbEntity
  8
0
100
AcDbLine
 10
175.269745
 20
24.772125
 30
0.0
 11
165.791565
 21
36.958344
 31
0.0
  0
LINE
  5
3478
330
33AB
100
AcDbEntity
  8
0
100
AcDbLine
 10
174.291565
 20
22.772125
 30
0.0
 11
163.791565
 21
36.272125
 31
0.0
  0
LINE
  5
3479
330
33AB
100
AcDbEntity
  8
0
100
AcDbLine
 10
177.519776
 20
24.0
 30
0.0
 11
176.84845
 21
24.0
 31
0.0
  0
LINE
  5
347A
330
33AB
100
AcDbEntity
  8
0
100
AcDbLine
 10
175.87027
 20
22.0
 30
0.0
 11
177.783142
 21
22.0
 31
0.0
  0
ARC
  5
347B
330
33AB
100
AcDbEntity
  8
0
100
AcDbCircle
 10
175.87027
 20
24.0
 30
0.0
 40
2.0
100
AcDbArc
 50
217.874985
 51
270.0
  0
LINE
  5
347C
330
33AB
100
AcDbEntity
  8
0
100
AcDbLine
 10
175.969727
 20
24.203369
 30
0.0
 11
174.991577
 21
22.203369
 31
0.0
  0
ARC
  5
347D
330
33AB
100
AcDbEntity
  8
0
100
AcDbCircle
 10
176.84845
 20
26.0
 30
0.0
 40
2.0
100
AcDbArc
 50
217.874985
 51
270.0
  0
ARC
  5
347E
330
33AB
100
AcDbEntity
  8
0
100
AcDbCircle
 10
177.519776
 20
22.0
 30
0.0
 40
2.0
100
AcDbArc
 50
10.01541
 51
90.0
  0
ARC
  5
347F
330
33AB
100
AcDbEntity
  8
0
100
AcDbCircle
 10
177.783142
 20
20.0
 30
0.0
 40
2.0
100
AcDbArc
 50
4.988542
 51
90.0
  0
ARC
  5
3480
330
33AB
100
AcDbEntity
  8
0
100
AcDbCircle
 10
154.87027
 20
18.0
 30
0.0
 40
25.0
100
AcDbArc
 50
0.0
 51
10.01541
  0
ARC
  5
3481
330
33AB
100
AcDbEntity
  8
0
100
AcDbCircle
 10
161.37027
 20
40.062408
 30
0.0
 40
2.0
100
AcDbArc
 50
0.0
 51
73.584038
  0
ARC
  5
3482
330
33AB
100
AcDbEntity
  8
0
100
AcDbCircle
 10
154.87027
 20
18.0
 30
0.0
 40
25.0
100
AcDbArc
 50
68.311195
 51
90.0
  0
ARC
  5
3483
330
33AB
100
AcDbEntity
  8
0
100
AcDbCircle
 10
163.37027
 20
39.371704
 30
0.0
 40
2.0
100
AcDbArc
 50
0.0
 51
68.311195
  0
LINE
  5
3484
330
33AB
100
AcDbEntity
  8
0
100
AcDbLine
 10
163.37027
 20
37.5
 30
0.0
 11
163.37027
 21
40.062408
 31
0.0
  0
LINE
  5
3485
330
33AB
100
AcDbEntity
  8
0
100
AcDbLine
 10
165.37027
 20
38.186218
 30
0.0
 11
165.37027
 21
39.371704
 31
0.0
  0
LINE
  5
3486
330
33AB
100
AcDbEntity
  8
0
100
AcDbLine
 10
165.478516
 20
37.53714
 30
0.0
 11
163.478516
 21
36.850922
 31
0.0
  0
ARC
  5
3487
330
33AB
100
AcDbEntity
  8
0
100
AcDbCircle
 10
165.37027
 20
37.5
 30
0.0
 40
2.0
100
AcDbArc
 50
180.0
 51
217.874985
  0
ARC
  5
3488
330
33AB
100
AcDbEntity
  8
0
100
AcDbCircle
 10
167.37027
 20
38.186218
 30
0.0
 40
2.0
100
AcDbArc
 50
180.0
 51
217.874985
  0
ARC
  5
3489
330
33AB
100
AcDbEntity
  8
0
100
AcDbCircle
 10
85.1284230626
 20
-40.2224888727
 30
0.0
 40
9.150858197714477
100
AcDbArc
 50
178.6068050225
 51
240.5119553746
  0
ARC
  5
348A
330
33AB
100
AcDbEntity
  8
0
100
AcDbCircle
 10
84.36
 20
40.0
 30
0.0
 40
9.0
100
AcDbArc
 50
49.052811545
 51
117.0437045388
  0
ARC
  5
348B
330
33AB
100
AcDbEntity
  8
0
100
AcDbCircle
 10
85.1284230626
 20
40.2224888727
 30
0.0
 40
9.150858197714477
100
AcDbArc
 50
119.4880446254
 51
181.3931949775
  0
ENDBLK
  5
348C
330
33AB
100
AcDbEntity
  8
0
100
AcDbBlockEnd
  0
BLOCK
  5
3496
330
3493
100
AcDbEntity
  8
0
100
AcDbBlockBegin
  2
A$C0221c00d
 70
     0
 10
0.0
 20
0.0
 30
0.0
  3
A$C0221c00d
  1

  0
LINE
  5
3497
330
3493
100
AcDbEntity
  8
0
100
AcDbLine
 10
0.0
 20
-34.4093010682
 30
0.0
 11
-75.3703
 21
-34.4093010682
 31
0.0
  0
LINE
  5
3498
330
3493
100
AcDbEntity
  8
0
100
AcDbLine
 10
0.0
 20
34.4093010682
 30
0.0
 11
-75.3703
 21
34.4093010682
 31
0.0
  0
LINE
  5
3499
330
3493
100
AcDbEntity
  8
0
100
AcDbLine
 10
-73.8893356544
 20
45.0
 30
0.0
 11
0.0
 21
45.0
 31
0.0
  0
ARC
  5
349A
330
3493
100
AcDbEntity
  8
0
100
AcDbCircle
 10
-73.8893356544
 20
47.0
 30
0.0
 40
2.0
100
AcDbArc
 50
242.9562954612
 51
270.0
  0
ARC
  5
349B
330
3493
100
AcDbEntity
  8
0
100
AcDbCircle
 10
-180.3703
 20
-40.0
 30
0.0
 40
9.0
100
AcDbArc
 50
180.0
 51
310.947188455
  0
LINE
  5
349C
330
3493
100
AcDbEntity
  8
0
100
AcDbLine
 10
-180.3703
 20
-49.0
 30
0.0
 11
-84.3703
 21
-49.0
 31
0.0
  0
LINE
  5
349D
330
3493
100
AcDbEntity
  8
0
100
AcDbLine
 10
-189.3703
 20
40.0
 30
0.0
 11
-189.3703
 21
-40.0
 31
0.0
  0
LINE
  5
349E
330
3493
100
AcDbEntity
  8
0
100
AcDbLine
 10
-75.3703
 20
40.0
 30
0.0
 11
-75.3703
 21
21.8284421707
 31
0.0
  0
ARC
  5
349F
330
3493
100
AcDbEntity
  8
0
100
AcDbCircle
 10
-150.8703
 20
-16.5
 30
0.0
 40
34.0
100
AcDbArc
 50
240.5450656692
 51
247.0804578484
  0
ARC
  5
34A0
330
3493
100
AcDbEntity
  8
0
100
AcDbCircle
 10
-158.2696242935
 20
-34.0
 30
0.0
 40
15.0
100
AcDbArc
 50
247.0804578484
 51
270.0
  0
ARC
  5
34A1
330
3493
100
AcDbEntity
  8
0
100
AcDbCircle
 10
-170.5398533815
 20
-51.329709585
 30
0.0
 40
6.0
100
AcDbArc
 50
60.5450656692
 51
130.947188455
  0
ARC
  5
34A2
330
3493
100
AcDbEntity
  8
0
100
AcDbCircle
 10
-106.4709757065
 20
-34.0
 30
0.0
 40
15.0
100
AcDbArc
 50
270.0
 51
292.9195421516
  0
ARC
  5
34A3
330
3493
100
AcDbEntity
  8
0
100
AcDbCircle
 10
-94.2007466185
 20
-51.329709585
 30
0.0
 40
6.0
100
AcDbArc
 50
49.052811545
 51
119.4549343308
  0
ARC
  5
34A4
330
3493
100
AcDbEntity
  8
0
100
AcDbCircle
 10
-113.8703
 20
-16.5
 30
0.0
 40
34.0
100
AcDbArc
 50
292.9195421516
 51
299.4549343308
  0
LINE
  5
34A5
330
3493
100
AcDbEntity
  8
0
100
AcDbLine
 10
-180.3703
 20
49.0
 30
0.0
 11
-84.3703
 21
49.0
 31
0.0
  0
ARC
  5
34A6
330
3493
100
AcDbEntity
  8
0
100
AcDbCircle
 10
-158.2696242935
 20
34.0
 30
0.0
 40
15.0
100
AcDbArc
 50
90.0
 51
112.9195421516
  0
ARC
  5
34A7
330
3493
100
AcDbEntity
  8
0
100
AcDbCircle
 10
-180.3703
 20
40.0
 30
0.0
 40
9.0
100
AcDbArc
 50
49.052811545
 51
180.0
  0
ARC
  5
34A8
330
3493
100
AcDbEntity
  8
0
100
AcDbCircle
 10
-170.5398533815
 20
51.329709585
 30
0.0
 40
6.0
100
AcDbArc
 50
229.052811545
 51
299.4549343308
  0
ARC
  5
34A9
330
3493
100
AcDbEntity
  8
0
100
AcDbCircle
 10
-150.8703
 20
16.5
 30
0.0
 40
34.0
100
AcDbArc
 50
112.9195421516
 51
119.4549343308
  0
ARC
  5
34AA
330
3493
100
AcDbEntity
  8
0
100
AcDbCircle
 10
-84.3703
 20
40.0
 30
0.0
 40
9.0
100
AcDbArc
 50
0.0
 51
130.947188455
  0
ARC
  5
34AB
330
3493
100
AcDbEntity
  8
0
100
AcDbCircle
 10
-106.4709757065
 20
34.0
 30
0.0
 40
15.0
100
AcDbArc
 50
67.0804578484
 51
90.0
  0
ARC
  5
34AC
330
3493
100
AcDbEntity
  8
0
100
AcDbCircle
 10
-113.8703
 20
16.5
 30
0.0
 40
34.0
100
AcDbArc
 50
60.5450656692
 51
67.0804578484
  0
ARC
  5
34AD
330
3493
100
AcDbEntity
  8
0
100
AcDbCircle
 10
-94.2007466185
 20
51.329709585
 30
0.0
 40
6.0
100
AcDbArc
 50
240.5450656692
 51
310.947188455
  0
LINE
  5
34AE
330
3493
100
AcDbEntity
  8
0
100
AcDbLine
 10
-75.3703
 20
-40.0
 30
0.0
 11
-75.3703
 21
-21.8284421707
 31
0.0
  0
LINE
  5
34AF
330
3493
100
AcDbEntity
  8
0
100
AcDbLine
 10
-73.8893356544
 20
-45.0
 30
0.0
 11
0.0
 21
-45.0
 31
0.0
  0
LINE
  5
34B0
330
3493
100
AcDbEntity
  8
0
100
AcDbLine
 10
-184.8701844159
 20
15.6715578293
 30
0.0
 11
-184.8701844159
 21
-15.6715578293
 31
0.0
  0
ARC
  5
34B1
330
3493
100
AcDbEntity
  8
0
100
AcDbCircle
 10
-186.8701844159
 20
-15.6715578293
 30
0.0
 40
2.0
100
AcDbArc
 50
314.9992641783
 51
0.0
  0
LINE
  5
34B2
330
3493
100
AcDbEntity
  8
0
100
AcDbLine
 10
-188.7844954002
 20
-20.4142104464
 30
0.0
 11
-185.4559890157
 21
-17.0857895536
 31
0.0
  0
ARC
  5
34B3
330
3493
100
AcDbEntity
  8
0
100
AcDbCircle
 10
-187.3703
 20
-21.8284421707
 30
0.0
 40
2.0
100
AcDbArc
 50
134.9992641783
 51
180.0
  0
ARC
  5
34B4
330
3493
100
AcDbEntity
  8
0
100
AcDbCircle
 10
-186.8701844159
 20
15.6715578293
 30
0.0
 40
2.0
100
AcDbArc
 50
0.0
 51
45.0007358217
  0
LINE
  5
34B5
330
3493
100
AcDbEntity
  8
0
100
AcDbLine
 10
-188.7844954002
 20
20.4142104464
 30
0.0
 11
-185.4559890157
 21
17.0857895536
 31
0.0
  0
ARC
  5
34B6
330
3493
100
AcDbEntity
  8
0
100
AcDbCircle
 10
-187.3703
 20
21.8284421707
 30
0.0
 40
2.0
100
AcDbArc
 50
180.0
 51
225.0007358217
  0
LINE
  5
34B7
330
3493
100
AcDbEntity
  8
0
100
AcDbLine
 10
-79.8704155841
 20
15.6715578293
 30
0.0
 11
-79.8704155841
 21
-15.6715578293
 31
0.0
  0
ARC
  5
34B8
330
3493
100
AcDbEntity
  8
0
100
AcDbCircle
 10
-77.8704155841
 20
-15.6715578293
 30
0.0
 40
2.0
100
AcDbArc
 50
180.0
 51
225.0007358217
  0
LINE
  5
34B9
330
3493
100
AcDbEntity
  8
0
100
AcDbLine
 10
-75.9561045998
 20
-20.4142104464
 30
0.0
 11
-79.2846109843
 21
-17.0857895536
 31
0.0
  0
ARC
  5
34BA
330
3493
100
AcDbEntity
  8
0
100
AcDbCircle
 10
-77.3703
 20
-21.8284421707
 30
0.0
 40
2.0
100
AcDbArc
 50
0.0
 51
45.0007358217
  0
ARC
  5
34BB
330
3493
100
AcDbEntity
  8
0
100
AcDbCircle
 10
-77.8704155841
 20
15.6715578293
 30
0.0
 40
2.0
100
AcDbArc
 50
134.9992641783
 51
180.0
  0
LINE
  5
34BC
330
3493
100
AcDbEntity
  8
0
100
AcDbLine
 10
-75.9561045998
 20
20.4142104464
 30
0.0
 11
-79.2846109843
 21
17.0857895536
 31
0.0
  0
ARC
  5
34BD
330
3493
100
AcDbEntity
  8
0
100
AcDbCircle
 10
-77.3703
 20
21.8284421707
 30
0.0
 40
2.0
100
AcDbArc
 50
314.9992641783
 51
0.0
  0
ARC
  5
34BE
330
3493
100
AcDbEntity
  8
0
100
AcDbCircle
 10
-84.3703
 20
-40.0
 30
0.0
 40
9.0
100
AcDbArc
 50
229.052811545
 51
0.0
  0
LINE
  5
34BF
330
3493
100
AcDbEntity
  8
0
100
AcDbLine
 10
-74.7986756879
 20
45.2186800671
 30
0.0
 11
-80.2782698491
 21
48.0159396981
 31
0.0
  0
ARC
  5
34C0
330
3493
100
AcDbEntity
  8
0
100
AcDbCircle
 10
-73.8893356544
 20
-47.0
 30
0.0
 40
2.0
100
AcDbArc
 50
90.0
 51
117.0437045388
  0
LINE
  5
34C1
330
3493
100
AcDbEntity
  8
0
100
AcDbLine
 10
-74.7986756879
 20
-45.2186800671
 30
0.0
 11
-80.2782698491
 21
-48.0159396981
 31
0.0
  0
CIRCLE
  5
34C2
330
3493
100
AcDbEntity
  8
0
  6
Continuous
100
AcDbCircle
 10
-144.8703
 20
0.0
 30
0.0
 40
25.548
  0
CIRCLE
  5
34C3
330
3493
100
AcDbEntity
  8
0
  6
Continuous
100
AcDbCircle
 10
-144.8703
 20
0.0
 30
0.0
 40
23.0
  0
CIRCLE
  5
34C4
330
3493
100
AcDbEntity
  8
0
  6
Continuous
100
AcDbCircle
 10
-144.8703
 20
0.0
 30
0.0
 40
17.5
  0
CIRCLE
  5
34C5
330
3493
100
AcDbEntity
  8
0
  6
Continuous
100
AcDbCircle
 10
-144.8703
 20
0.0
 30
0.0
 40
19.5
  0
CIRCLE
  5
34C6
330
3493
100
AcDbEntity
  8
0
100
AcDbCircle
 10
-84.3703
 20
39.0
 30
0.0
 40
4.2
  0
CIRCLE
  5
34C7
330
3493
100
AcDbEntity
  8
0
100
AcDbCircle
 10
-180.3703
 20
39.0
 30
0.0
 40
4.2
  0
CIRCLE
  5
34C8
330
3493
100
AcDbEntity
  8
0
100
AcDbCircle
 10
-84.3703
 20
-39.0
 30
0.0
 40
4.2
  0
CIRCLE
  5
34C9
330
3493
100
AcDbEntity
  8
0
100
AcDbCircle
 10
-180.3703
 20
-39.0
 30
0.0
 40
4.2
  0
CIRCLE
  5
34CA
330
3493
100
AcDbEntity
  8
HOJO
100
AcDbCircle
 10
-84.3703
 20
39.0
 30
0.0
 40
5.0
  0
CIRCLE
  5
34CB
330
3493
100
AcDbEntity
  8
HOJO
100
AcDbCircle
 10
-180.3703
 20
39.0
 30
0.0
 40
5.0
  0
CIRCLE
  5
34CC
330
3493
100
AcDbEntity
  8
HOJO
100
AcDbCircle
 10
-180.3703
 20
-39.0
 30
0.0
 40
5.0
  0
CIRCLE
  5
34CD
330
3493
100
AcDbEntity
  8
HOJO
100
AcDbCircle
 10
-84.3703
 20
-39.0
 30
0.0
 40
5.0
  0
LINE
  5
34CE
330
3493
100
AcDbEntity
  8
CENTER
100
AcDbLine
 10
-172.391662
 20
39.0
 30
0.0
 11
-188.348938
 21
39.0
 31
0.0
  0
LINE
  5
34CF
330
3493
100
AcDbEntity
  8
CENTER
100
AcDbLine
 10
-180.3703
 20
46.978638
 30
0.0
 11
-180.3703
 21
31.021362
 31
0.0
  0
LINE
  5
34D0
330
3493
100
AcDbEntity
  8
CENTER
100
AcDbLine
 10
-76.391662
 20
39.0
 30
0.0
 11
-92.348938
 21
39.0
 31
0.0
  0
LINE
  5
34D1
330
3493
100
AcDbEntity
  8
CENTER
100
AcDbLine
 10
-84.3703
 20
46.978638
 30
0.0
 11
-84.3703
 21
31.021362
 31
0.0
  0
LINE
  5
34D2
330
3493
100
AcDbEntity
  8
CENTER
100
AcDbLine
 10
-76.391662
 20
-39.0
 30
0.0
 11
-92.348938
 21
-39.0
 31
0.0
  0
LINE
  5
34D3
330
3493
100
AcDbEntity
  8
CENTER
100
AcDbLine
 10
-84.3703
 20
-31.021362
 30
0.0
 11
-84.3703
 21
-46.978638
 31
0.0
  0
LINE
  5
34D4
330
3493
100
AcDbEntity
  8
CENTER
100
AcDbLine
 10
-172.391662
 20
-39.0
 30
0.0
 11
-188.348938
 21
-39.0
 31
0.0
  0
LINE
  5
34D5
330
3493
100
AcDbEntity
  8
CENTER
100
AcDbLine
 10
-180.3703
 20
-31.021362
 30
0.0
 11
-180.3703
 21
-46.978638
 31
0.0
  0
LINE
  5
34D6
330
3493
100
AcDbEntity
  8
CENTER
100
AcDbLine
 10
-144.8703
 20
33.6821635
 30
0.0
 11
-144.8703
 21
-33.6821635
 31
0.0
  0
LINE
  5
34D7
330
3493
100
AcDbEntity
  8
CENTER
100
AcDbLine
 10
-146.8674436841
 20
0.0
 30
0.0
 11
-142.8731563159
 21
0.0
 31
0.0
  0
LINE
  5
34D8
330
3493
100
AcDbEntity
  8
0
100
AcDbLine
 10
-150.3703
 20
3.0
 30
0.0
 11
-150.3703
 21
-3.0
 31
0.0
  0
LINE
  5
34D9
330
3493
100
AcDbEntity
  8
0
100
AcDbLine
 10
-156.3703
 20
3.0
 30
0.0
 11
-156.3703
 21
-3.0
 31
0.0
  0
ARC
  5
34DA
330
3493
100
AcDbEntity
  8
0
100
AcDbCircle
 10
-144.8703
 20
0.0
 30
0.0
 40
9.0
100
AcDbArc
 50
199.471222
 51
160.528778
  0
ARC
  5
34DB
330
3493
100
AcDbEntity
  8
0
100
AcDbCircle
 10
-144.8703
 20
0.0
 30
0.0
 40
10.0
100
AcDbArc
 50
197.457596
 51
162.542404
  0
LINE
  5
34DC
330
3493
100
AcDbEntity
  8
0
100
AcDbLine
 10
-150.3703
 20
-3.0
 30
0.0
 11
-156.3703
 21
-3.0
 31
0.0
  0
LINE
  5
34DD
330
3493
100
AcDbEntity
  8
0
100
AcDbLine
 10
-150.3703
 20
3.0
 30
0.0
 11
-156.3703
 21
3.0
 31
0.0
  0
LINE
  5
34DE
330
3493
100
AcDbEntity
  8
0
100
AcDbLine
 10
-179.8703
 20
-18.0
 30
0.0
 11
-179.8703
 21
18.320496
 31
0.0
  0
LINE
  5
34DF
330
3493
100
AcDbEntity
  8
0
100
AcDbLine
 10
-84.8703
 20
-18.0
 30
0.0
 11
-84.8703
 21
18.320496
 31
0.0
  0
ARC
  5
34E0
330
3493
100
AcDbEntity
  8
0
100
AcDbCircle
 10
-87.220825
 20
-22.0
 30
0.0
 40
2.0
100
AcDbArc
 50
270.0
 51
349.98459
  0
ARC
  5
34E1
330
3493
100
AcDbEntity
  8
0
100
AcDbCircle
 10
-86.957397
 20
-20.0
 30
0.0
 40
2.0
100
AcDbArc
 50
270.0
 51
355.011458
  0
LINE
  5
34E2
330
3493
100
AcDbEntity
  8
0
100
AcDbLine
 10
-109.8703
 20
-43.0
 30
0.0
 11
-154.8703
 21
-43.0
 31
0.0
  0
ARC
  5
34E3
330
3493
100
AcDbEntity
  8
0
100
AcDbCircle
 10
-161.3703
 20
-40.062408
 30
0.0
 40
2.0
100
AcDbArc
 50
180.0
 51
253.584045
  0
ARC
  5
34E4
330
3493
100
AcDbEntity
  8
0
100
AcDbCircle
 10
-163.3703
 20
-39.371704
 30
0.0
 40
2.0
100
AcDbArc
 50
180.0
 51
248.311188
  0
ARC
  5
34E5
330
3493
100
AcDbEntity
  8
0
100
AcDbCircle
 10
-154.8703
 20
-18.0
 30
0.0
 40
25.0
100
AcDbArc
 50
248.311188
 51
270.0
  0
ARC
  5
34E6
330
3493
100
AcDbEntity
  8
0
100
AcDbCircle
 10
-154.8703
 20
-18.0
 30
0.0
 40
25.0
100
AcDbArc
 50
180.0
 51
190.015411
  0
LINE
  5
34E7
330
3493
100
AcDbEntity
  8
0
100
AcDbLine
 10
-165.478576
 20
-37.53714
 30
0.0
 11
-163.478576
 21
-36.850922
 31
0.0
  0
LINE
  5
34E8
330
3493
100
AcDbEntity
  8
0
100
AcDbLine
 10
-174.291626
 20
-22.772125
 30
0.0
 11
-163.791626
 21
-36.272125
 31
0.0
  0
LINE
  5
34E9
330
3493
100
AcDbEntity
  8
0
100
AcDbLine
 10
-175.269775
 20
-24.772125
 30
0.0
 11
-165.791626
 21
-36.958328
 31
0.0
  0
ARC
  5
34EA
330
3493
100
AcDbEntity
  8
0
100
AcDbCircle
 10
-167.3703
 20
-38.186218
 30
0.0
 40
2.0
100
AcDbArc
 50
0.0
 51
37.874985
  0
LINE
  5
34EB
330
3493
100
AcDbEntity
  8
0
100
AcDbLine
 10
-165.3703
 20
-38.186218
 30
0.0
 11
-165.3703
 21
-39.371704
 31
0.0
  0
ARC
  5
34EC
330
3493
100
AcDbEntity
  8
0
100
AcDbCircle
 10
-175.8703
 20
-24.0
 30
0.0
 40
2.0
100
AcDbArc
 50
37.874985
 51
90.0
  0
LINE
  5
34ED
330
3493
100
AcDbEntity
  8
0
100
AcDbLine
 10
-175.969787
 20
-24.203369
 30
0.0
 11
-174.991577
 21
-22.203369
 31
0.0
  0
ARC
  5
34EE
330
3493
100
AcDbEntity
  8
0
100
AcDbCircle
 10
-176.848449
 20
-26.0
 30
0.0
 40
2.0
100
AcDbArc
 50
37.874985
 51
90.0
  0
ARC
  5
34EF
330
3493
100
AcDbEntity
  8
0
100
AcDbCircle
 10
-177.519775
 20
-22.0
 30
0.0
 40
2.0
100
AcDbArc
 50
190.015411
 51
270.0
  0
ARC
  5
34F0
330
3493
100
AcDbEntity
  8
0
100
AcDbCircle
 10
-177.783203
 20
-20.0
 30
0.0
 40
2.0
100
AcDbArc
 50
184.988541
 51
270.0
  0
LINE
  5
34F1
330
3493
100
AcDbEntity
  8
0
100
AcDbLine
 10
-175.8703
 20
-22.0
 30
0.0
 11
-177.783203
 21
-22.0
 31
0.0
  0
LINE
  5
34F2
330
3493
100
AcDbEntity
  8
0
100
AcDbLine
 10
-177.519775
 20
-24.0
 30
0.0
 11
-176.848449
 21
-24.0
 31
0.0
  0
ARC
  5
34F3
330
3493
100
AcDbEntity
  8
0
100
AcDbCircle
 10
-165.3703
 20
-37.5
 30
0.0
 40
2.0
100
AcDbArc
 50
0.0
 51
37.874985
  0
LINE
  5
34F4
330
3493
100
AcDbEntity
  8
0
100
AcDbLine
 10
-163.3703
 20
-37.5
 30
0.0
 11
-163.3703
 21
-40.062408
 31
0.0
  0
ARC
  5
34F5
330
3493
100
AcDbEntity
  8
0
100
AcDbCircle
 10
-103.3703
 20
-40.062408
 30
0.0
 40
2.0
100
AcDbArc
 50
286.415962
 51
0.0
  0
ARC
  5
34F6
330
3493
100
AcDbEntity
  8
0
100
AcDbCircle
 10
-101.3703
 20
-39.371704
 30
0.0
 40
2.0
100
AcDbArc
 50
291.688805
 51
0.0
  0
ARC
  5
34F7
330
3493
100
AcDbEntity
  8
0
100
AcDbCircle
 10
-109.8703
 20
-18.0
 30
0.0
 40
25.0
100
AcDbArc
 50
270.0
 51
291.688812
  0
ARC
  5
34F8
330
3493
100
AcDbEntity
  8
0
100
AcDbCircle
 10
-99.3703
 20
-37.5
 30
0.0
 40
2.0
100
AcDbArc
 50
142.125015
 51
180.0
  0
LINE
  5
34F9
330
3493
100
AcDbEntity
  8
0
100
AcDbLine
 10
-99.262024
 20
-37.53714
 30
0.0
 11
-101.262024
 21
-36.850922
 31
0.0
  0
LINE
  5
34FA
330
3493
100
AcDbEntity
  8
0
100
AcDbLine
 10
-101.3703
 20
-37.5
 30
0.0
 11
-101.3703
 21
-40.062408
 31
0.0
  0
LINE
  5
34FB
330
3493
100
AcDbEntity
  8
0
100
AcDbLine
 10
-90.448974
 20
-22.772125
 30
0.0
 11
-100.948974
 21
-36.272125
 31
0.0
  0
LINE
  5
34FC
330
3493
100
AcDbEntity
  8
0
100
AcDbLine
 10
-89.470825
 20
-24.772125
 30
0.0
 11
-98.948974
 21
-36.958328
 31
0.0
  0
ARC
  5
34FD
330
3493
100
AcDbEntity
  8
0
100
AcDbCircle
 10
-97.3703
 20
-38.186218
 30
0.0
 40
2.0
100
AcDbArc
 50
142.125015
 51
180.0
  0
LINE
  5
34FE
330
3493
100
AcDbEntity
  8
0
100
AcDbLine
 10
-99.3703
 20
-38.186218
 30
0.0
 11
-99.3703
 21
-39.371704
 31
0.0
  0
ARC
  5
34FF
330
3493
100
AcDbEntity
  8
0
100
AcDbCircle
 10
-88.8703
 20
-24.0
 30
0.0
 40
2.0
100
AcDbArc
 50
90.0
 51
142.125015
  0
LINE
  5
3500
330
3493
100
AcDbEntity
  8
0
100
AcDbLine
 10
-88.770813
 20
-24.203369
 30
0.0
 11
-89.749023
 21
-22.203369
 31
0.0
  0
ARC
  5
3501
330
3493
100
AcDbEntity
  8
0
100
AcDbCircle
 10
-87.892151
 20
-26.0
 30
0.0
 40
2.0
100
AcDbArc
 50
90.0
 51
142.125015
  0
LINE
  5
3502
330
3493
100
AcDbEntity
  8
0
100
AcDbLine
 10
-88.8703
 20
-22.0
 30
0.0
 11
-86.957397
 21
-22.0
 31
0.0
  0
LINE
  5
3503
330
3493
100
AcDbEntity
  8
0
100
AcDbLine
 10
-87.220825
 20
-24.0
 30
0.0
 11
-87.892151
 21
-24.0
 31
0.0
  0
ARC
  5
3504
330
3493
100
AcDbEntity
  8
0
100
AcDbCircle
 10
-109.8703
 20
-18.0
 30
0.0
 40
25.0
100
AcDbArc
 50
349.98459
 51
0.0
  0
ARC
  5
3505
330
3493
100
AcDbEntity
  8
0
100
AcDbCircle
 10
-87.220825
 20
22.0
 30
0.0
 40
2.0
100
AcDbArc
 50
10.01541
 51
90.0
  0
ARC
  5
3506
330
3493
100
AcDbEntity
  8
0
100
AcDbCircle
 10
-86.957397
 20
20.0
 30
0.0
 40
2.0
100
AcDbArc
 50
4.988542
 51
90.0
  0
LINE
  5
3507
330
3493
100
AcDbEntity
  8
0
100
AcDbLine
 10
-154.8703
 20
43.0
 30
0.0
 11
-109.8703
 21
43.0
 31
0.0
  0
ARC
  5
3508
330
3493
100
AcDbEntity
  8
0
100
AcDbCircle
 10
-176.848449
 20
26.0
 30
0.0
 40
2.0
100
AcDbArc
 50
270.0
 51
322.125031
  0
LINE
  5
3509
330
3493
100
AcDbEntity
  8
0
100
AcDbLine
 10
-174.291626
 20
22.772125
 30
0.0
 11
-163.791626
 21
36.272125
 31
0.0
  0
ARC
  5
350A
330
3493
100
AcDbEntity
  8
0
100
AcDbCircle
 10
-175.8703
 20
24.0
 30
0.0
 40
2.0
100
AcDbArc
 50
270.0
 51
322.125031
  0
LINE
  5
350B
330
3493
100
AcDbEntity
  8
0
100
AcDbLine
 10
-175.969787
 20
24.203369
 30
0.0
 11
-174.991577
 21
22.203369
 31
0.0
  0
ARC
  5
350C
330
3493
100
AcDbEntity
  8
0
100
AcDbCircle
 10
-177.519775
 20
22.0
 30
0.0
 40
2.0
100
AcDbArc
 50
90.0
 51
169.984589
  0
ARC
  5
350D
330
3493
100
AcDbEntity
  8
0
100
AcDbCircle
 10
-177.783203
 20
20.0
 30
0.0
 40
2.0
100
AcDbArc
 50
90.0
 51
175.011459
  0
LINE
  5
350E
330
3493
100
AcDbEntity
  8
0
100
AcDbLine
 10
-175.8703
 20
22.0
 30
0.0
 11
-177.783203
 21
22.0
 31
0.0
  0
LINE
  5
350F
330
3493
100
AcDbEntity
  8
0
100
AcDbLine
 10
-177.519775
 20
24.0
 30
0.0
 11
-176.848449
 21
24.0
 31
0.0
  0
ARC
  5
3510
330
3493
100
AcDbEntity
  8
0
100
AcDbCircle
 10
-154.8703
 20
18.0
 30
0.0
 40
25.0
100
AcDbArc
 50
169.984589
 51
180.0
  0
ARC
  5
3511
330
3493
100
AcDbEntity
  8
0
100
AcDbCircle
 10
-163.3703
 20
39.371704
 30
0.0
 40
2.0
100
AcDbArc
 50
111.688805
 51
180.0
  0
LINE
  5
3512
330
3493
100
AcDbEntity
  8
0
100
AcDbLine
 10
-165.478576
 20
37.53714
 30
0.0
 11
-163.478576
 21
36.850922
 31
0.0
  0
LINE
  5
3513
330
3493
100
AcDbEntity
  8
0
100
AcDbLine
 10
-175.269775
 20
24.772125
 30
0.0
 11
-165.791626
 21
36.958344
 31
0.0
  0
ARC
  5
3514
330
3493
100
AcDbEntity
  8
0
100
AcDbCircle
 10
-167.3703
 20
38.186218
 30
0.0
 40
2.0
100
AcDbArc
 50
322.125015
 51
0.0
  0
LINE
  5
3515
330
3493
100
AcDbEntity
  8
0
100
AcDbLine
 10
-165.3703
 20
38.186218
 30
0.0
 11
-165.3703
 21
39.371704
 31
0.0
  0
ARC
  5
3516
330
3493
100
AcDbEntity
  8
0
100
AcDbCircle
 10
-154.8703
 20
18.0
 30
0.0
 40
25.0
100
AcDbArc
 50
90.0
 51
111.688805
  0
ARC
  5
3517
330
3493
100
AcDbEntity
  8
0
100
AcDbCircle
 10
-165.3703
 20
37.5
 30
0.0
 40
2.0
100
AcDbArc
 50
322.125015
 51
0.0
  0
ARC
  5
3518
330
3493
100
AcDbEntity
  8
0
100
AcDbCircle
 10
-161.3703
 20
40.062408
 30
0.0
 40
2.0
100
AcDbArc
 50
106.415962
 51
180.0
  0
LINE
  5
3519
330
3493
100
AcDbEntity
  8
0
100
AcDbLine
 10
-163.3703
 20
37.5
 30
0.0
 11
-163.3703
 21
40.062408
 31
0.0
  0
ARC
  5
351A
330
3493
100
AcDbEntity
  8
0
100
AcDbCircle
 10
-87.892151
 20
26.0
 30
0.0
 40
2.0
100
AcDbArc
 50
217.874985
 51
270.0
  0
LINE
  5
351B
330
3493
100
AcDbEntity
  8
0
100
AcDbLine
 10
-90.448974
 20
22.772125
 30
0.0
 11
-100.948974
 21
36.272125
 31
0.0
  0
ARC
  5
351C
330
3493
100
AcDbEntity
  8
0
100
AcDbCircle
 10
-88.8703
 20
24.0
 30
0.0
 40
2.0
100
AcDbArc
 50
217.874985
 51
270.0
  0
LINE
  5
351D
330
3493
100
AcDbEntity
  8
0
100
AcDbLine
 10
-88.770813
 20
24.203369
 30
0.0
 11
-89.749023
 21
22.203369
 31
0.0
  0
LINE
  5
351E
330
3493
100
AcDbEntity
  8
0
100
AcDbLine
 10
-88.8703
 20
22.0
 30
0.0
 11
-86.957397
 21
22.0
 31
0.0
  0
LINE
  5
351F
330
3493
100
AcDbEntity
  8
0
100
AcDbLine
 10
-87.220825
 20
24.0
 30
0.0
 11
-87.892151
 21
24.0
 31
0.0
  0
ARC
  5
3520
330
3493
100
AcDbEntity
  8
0
100
AcDbCircle
 10
-99.3703
 20
37.5
 30
0.0
 40
2.0
100
AcDbArc
 50
180.0
 51
217.874985
  0
ARC
  5
3521
330
3493
100
AcDbEntity
  8
0
100
AcDbCircle
 10
-103.3703
 20
40.062408
 30
0.0
 40
2.0
100
AcDbArc
 50
0.0
 51
73.584038
  0
LINE
  5
3522
330
3493
100
AcDbEntity
  8
0
100
AcDbLine
 10
-99.262024
 20
37.53714
 30
0.0
 11
-101.262024
 21
36.850922
 31
0.0
  0
ARC
  5
3523
330
3493
100
AcDbEntity
  8
0
100
AcDbCircle
 10
-109.8703
 20
18.0
 30
0.0
 40
25.0
100
AcDbArc
 50
68.311195
 51
90.0
  0
LINE
  5
3524
330
3493
100
AcDbEntity
  8
0
100
AcDbLine
 10
-101.3703
 20
37.5
 30
0.0
 11
-101.3703
 21
40.062408
 31
0.0
  0
LINE
  5
3525
330
3493
100
AcDbEntity
  8
0
100
AcDbLine
 10
-89.470825
 20
24.772125
 30
0.0
 11
-98.948974
 21
36.958344
 31
0.0
  0
ARC
  5
3526
330
3493
100
AcDbEntity
  8
0
100
AcDbCircle
 10
-101.3703
 20
39.371704
 30
0.0
 40
2.0
100
AcDbArc
 50
0.0
 51
68.311195
  0
ARC
  5
3527
330
3493
100
AcDbEntity
  8
0
100
AcDbCircle
 10
-97.3703
 20
38.186218
 30
0.0
 40
2.0
100
AcDbArc
 50
180.0
 51
217.874985
  0
LINE
  5
3528
330
3493
100
AcDbEntity
  8
0
100
AcDbLine
 10
-99.3703
 20
38.186218
 30
0.0
 11
-99.3703
 21
39.371704
 31
0.0
  0
ARC
  5
3529
330
3493
100
AcDbEntity
  8
0
100
AcDbCircle
 10
-109.8703
 20
18.0
 30
0.0
 40
25.0
100
AcDbArc
 50
0.0
 51
10.01541
  0
LINE
  5
352A
330
3493
100
AcDbEntity
  8
0
100
AcDbLine
 10
0.0
 20
45.0
 30
0.0
 11
0.0
 21
-45.0
 31
0.0
  0
ENDBLK
  5
352B
330
3493
100
AcDbEntity
  8
0
100
AcDbBlockEnd
  0
BLOCK
  5
3535
330
3532
100
AcDbEntity
  8
0
100
AcDbBlockBegin
  2
A$C326328fc
 70
     0
 10
0.0
 20
0.0
 30
0.0
  3
A$C326328fc
  1

  0
LINE
  5
3536
330
3532
100
AcDbEntity
  8
CENTER
100
AcDbLine
 10
-147.2498523411
 20
-45.0
 30
0.0
 11
-142.4907476589
 21
-45.0
 31
0.0
  0
LINE
  5
3537
330
3532
100
AcDbEntity
  8
0
100
AcDbLine
 10
-74.1800833955
 20
-90.0
 30
0.0
 11
0.0
 21
-90.0
 31
0.0
  0
ARC
  5
3538
330
3532
100
AcDbEntity
  8
0
100
AcDbCircle
 10
-74.1800833955
 20
-92.0
 30
0.0
 40
2.0
100
AcDbArc
 50
90.0
 51
179.0
  0
LINE
  5
3539
330
3532
100
AcDbEntity
  8
0
100
AcDbLine
 10
-72.5532952856
 20
0.0
 30
0.0
 11
0.0
 21
0.0
 31
0.0
  0
LINE
  5
353A
330
3532
100
AcDbEntity
  8
0
100
AcDbLine
 10
-188.5221568834
 20
-93.0
 30
0.0
 11
-189.36
 21
-45.0
 31
0.0
  0
LINE
  5
353B
330
3532
100
AcDbEntity
  8
0
100
AcDbLine
 10
-76.1978431166
 20
-93.0
 30
0.0
 11
-75.900497747
 21
-75.9650951871
 31
0.0
  0
LINE
  5
353C
330
3532
100
AcDbEntity
  8
0
100
AcDbLine
 10
-188.7490727275
 20
-10.0
 30
0.0
 11
-75.9709272725
 21
-10.0
 31
0.0
  0
LINE
  5
353D
330
3532
100
AcDbEntity
  8
0
100
AcDbLine
 10
-188.7490727275
 20
-10.0
 30
0.0
 11
-189.36
 21
-45.0
 31
0.0
  0
LINE
  5
353E
330
3532
100
AcDbEntity
  8
0
100
AcDbLine
 10
-75.9709272725
 20
-10.0
 30
0.0
 11
-75.900497747
 21
-14.0349048129
 31
0.0
  0
LINE
  5
353F
330
3532
100
AcDbEntity
  8
0
100
AcDbLine
 10
-188.5221568834
 20
-93.0
 30
0.0
 11
-76.1978431166
 21
-93.0
 31
0.0
  0
LINE
  5
3540
330
3532
100
AcDbEntity
  8
0
100
AcDbLine
 10
0.0
 20
-74.0
 30
0.0
 11
-82.9008023567
 21
-74.0
 31
0.0
  0
ARC
  5
3541
330
3532
100
AcDbEntity
  8
0
100
AcDbCircle
 10
-73.9008023567
 20
-76.0
 30
0.0
 40
2.0
100
AcDbArc
 50
90.0
 51
179.0
  0
LINE
  5
3542
330
3532
100
AcDbEntity
  8
0
100
AcDbLine
 10
0.0
 20
-16.0
 30
0.0
 11
-82.9008023567
 21
-16.0
 31
0.0
  0
ARC
  5
3543
330
3532
100
AcDbEntity
  8
0
100
AcDbCircle
 10
-73.9008023567
 20
-14.0
 30
0.0
 40
2.0
100
AcDbArc
 50
181.0
 51
270.0
  0
ARC
  5
3544
330
3532
100
AcDbEntity
  8
0
100
AcDbCircle
 10
-82.9008023567
 20
-76.0
 30
0.0
 40
2.0
100
AcDbArc
 50
90.0
 51
179.0
  0
ARC
  5
3545
330
3532
100
AcDbEntity
  8
0
100
AcDbCircle
 10
-82.9008023567
 20
-14.0
 30
0.0
 40
2.0
100
AcDbArc
 50
181.0
 51
270.0
  0
LINE
  5
3546
330
3532
100
AcDbEntity
  8
0
100
AcDbLine
 10
-178.6579061247
 20
-40.0
 30
0.0
 11
-158.3257737513
 21
-40.0
 31
0.0
  0
LINE
  5
3547
330
3532
100
AcDbEntity
  8
0
100
AcDbLine
 10
-170.5295533815
 20
3.0
 30
0.0
 11
-170.5295533815
 21
-37.4623975841
 31
0.0
  0
LINE
  5
3548
330
3532
100
AcDbEntity
  8
0
100
AcDbLine
 10
-158.3257737513
 20
-40.0
 30
0.0
 11
-158.3257737513
 21
3.0
 31
0.0
  0
ARC
  5
3549
330
3532
100
AcDbEntity
  8
0
100
AcDbCircle
 10
-170.5295533815
 20
-52.4623975841
 30
0.0
 40
15.0
100
AcDbArc
 50
69.4077044077
 51
90.0
  0
LINE
  5
354A
330
3532
100
AcDbEntity
  8
0
100
AcDbLine
 10
-163.601510389
 20
-39.041602577
 30
0.0
 11
-165.2538167438
 21
-38.4207950071
 31
0.0
  0
ARC
  5
354B
330
3532
100
AcDbEntity
  8
0
100
AcDbCircle
 10
-158.3257737513
 20
-25.0
 30
0.0
 40
15.0
100
AcDbArc
 50
249.4077044077
 51
270.0
  0
ARC
  5
354C
330
3532
100
AcDbEntity
  8
0
100
AcDbCircle
 10
-178.6579061247
 20
-33.0
 30
0.0
 40
7.0
100
AcDbArc
 50
270.0
 51
300.4144326901
  0
ARC
  5
354D
330
3532
100
AcDbEntity
  8
0
100
AcDbCircle
 10
-170.5295533815
 20
-44.4623975841
 30
0.0
 40
7.0
100
AcDbArc
 50
90.0
 51
120.4144326901
  0
LINE
  5
354E
330
3532
100
AcDbEntity
  8
0
100
AcDbLine
 10
-174.073310476
 20
-38.4256943733
 30
0.0
 11
-175.1141490302
 21
-39.0367032108
 31
0.0
  0
LINE
  5
354F
330
3532
100
AcDbEntity
  8
0
100
AcDbLine
 10
-106.4606757065
 20
-40.0
 30
0.0
 11
-106.4606757065
 21
3.0
 31
0.0
  0
LINE
  5
3550
330
3532
100
AcDbEntity
  8
0
100
AcDbLine
 10
-94.2568960764
 20
3.0
 30
0.0
 11
-94.2568960764
 21
-37.4623975841
 31
0.0
  0
ARC
  5
3551
330
3532
100
AcDbEntity
  8
0
100
AcDbCircle
 10
-94.2568960764
 20
-44.4623975841
 30
0.0
 40
7.0
100
AcDbArc
 50
59.5855673099
 51
90.0
  0
LINE
  5
3552
330
3532
100
AcDbEntity
  8
0
100
AcDbLine
 10
-86.1285433331
 20
-40.0
 30
0.0
 11
-106.4606757065
 21
-40.0
 31
0.0
  0
ARC
  5
3553
330
3532
100
AcDbEntity
  8
0
100
AcDbCircle
 10
-86.1285433331
 20
-33.0
 30
0.0
 40
7.0
100
AcDbArc
 50
239.5855673099
 51
270.0
  0
LINE
  5
3554
330
3532
100
AcDbEntity
  8
0
100
AcDbLine
 10
-90.7131389819
 20
-38.4256943733
 30
0.0
 11
-89.6723004276
 21
-39.0367032108
 31
0.0
  0
ARC
  5
3555
330
3532
100
AcDbEntity
  8
0
100
AcDbCircle
 10
-94.2568960764
 20
-52.4623975841
 30
0.0
 40
15.0
100
AcDbArc
 50
90.0
 51
110.5922955923
  0
ARC
  5
3556
330
3532
100
AcDbEntity
  8
0
100
AcDbCircle
 10
-106.4606757065
 20
-25.0
 30
0.0
 40
15.0
100
AcDbArc
 50
270.0
 51
290.5922955923
  0
LINE
  5
3557
330
3532
100
AcDbEntity
  8
0
100
AcDbLine
 10
-101.1849390689
 20
-39.041602577
 30
0.0
 11
-99.532632714
 21
-38.4207950071
 31
0.0
  0
LINE
  5
3558
330
3532
100
AcDbEntity
  8
0
100
AcDbLine
 10
-106.4606757065
 20
-50.0
 30
0.0
 11
-106.4606757065
 21
-92.5001713375
 31
0.0
  0
LINE
  5
3559
330
3532
100
AcDbEntity
  8
0
100
AcDbLine
 10
-94.2568960764
 20
-92.5001713375
 30
0.0
 11
-94.2568960764
 21
-52.5376024159
 31
0.0
  0
ARC
  5
355A
330
3532
100
AcDbEntity
  8
0
100
AcDbCircle
 10
-106.4606757065
 20
-65.0
 30
0.0
 40
15.0
100
AcDbArc
 50
69.4077044077
 51
90.0
  0
LINE
  5
355B
330
3532
100
AcDbEntity
  8
0
100
AcDbLine
 10
-86.1285433331
 20
-50.0
 30
0.0
 11
-106.4606757065
 21
-50.0
 31
0.0
  0
ARC
  5
355C
330
3532
100
AcDbEntity
  8
0
100
AcDbCircle
 10
-94.2568960764
 20
-45.5376024159
 30
0.0
 40
7.0
100
AcDbArc
 50
270.0
 51
300.4144326901
  0
ARC
  5
355D
330
3532
100
AcDbEntity
  8
0
100
AcDbCircle
 10
-94.2568960764
 20
-37.5376024159
 30
0.0
 40
15.0
100
AcDbArc
 50
249.4077044077
 51
270.0
  0
LINE
  5
355E
330
3532
100
AcDbEntity
  8
0
100
AcDbLine
 10
-101.1849390689
 20
-50.958397423
 30
0.0
 11
-99.532632714
 21
-51.5792049929
 31
0.0
  0
LINE
  5
355F
330
3532
100
AcDbEntity
  8
0
100
AcDbLine
 10
-90.7131389819
 20
-51.5743056267
 30
0.0
 11
-89.6723004276
 21
-50.9632967892
 31
0.0
  0
ARC
  5
3560
330
3532
100
AcDbEntity
  8
0
100
AcDbCircle
 10
-86.1285433331
 20
-57.0
 30
0.0
 40
7.0
100
AcDbArc
 50
90.0
 51
120.4144326901
  0
LINE
  5
3561
330
3532
100
AcDbEntity
  8
0
100
AcDbLine
 10
-158.3257737513
 20
-50.0
 30
0.0
 11
-158.3257737513
 21
-93.0
 31
0.0
  0
LINE
  5
3562
330
3532
100
AcDbEntity
  8
0
100
AcDbLine
 10
-170.5295533815
 20
-93.0
 30
0.0
 11
-170.5295533815
 21
-52.5376024159
 31
0.0
  0
ARC
  5
3563
330
3532
100
AcDbEntity
  8
0
100
AcDbCircle
 10
-170.5295533815
 20
-45.5376024159
 30
0.0
 40
7.0
100
AcDbArc
 50
239.5855673099
 51
270.0
  0
LINE
  5
3564
330
3532
100
AcDbEntity
  8
0
100
AcDbLine
 10
-178.6579061247
 20
-50.0
 30
0.0
 11
-158.3257737513
 21
-50.0
 31
0.0
  0
ARC
  5
3565
330
3532
100
AcDbEntity
  8
0
100
AcDbCircle
 10
-178.6579061247
 20
-57.0
 30
0.0
 40
7.0
100
AcDbArc
 50
59.5855673099
 51
90.0
  0
LINE
  5
3566
330
3532
100
AcDbEntity
  8
0
100
AcDbLine
 10
-174.073310476
 20
-51.5743056267
 30
0.0
 11
-175.1141490302
 21
-50.9632967892
 31
0.0
  0
ARC
  5
3567
330
3532
100
AcDbEntity
  8
0
100
AcDbCircle
 10
-170.5295533815
 20
-37.5376024159
 30
0.0
 40
15.0
100
AcDbArc
 50
270.0
 51
290.5922955923
  0
ARC
  5
3568
330
3532
100
AcDbEntity
  8
0
100
AcDbCircle
 10
-158.3257737513
 20
-65.0
 30
0.0
 40
15.0
100
AcDbArc
 50
90.0
 51
110.5922955923
  0
LINE
  5
3569
330
3532
100
AcDbEntity
  8
0
100
AcDbLine
 10
-163.601510389
 20
-50.958397423
 30
0.0
 11
-165.2538167438
 21
-51.5792049929
 31
0.0
  0
LINE
  5
356A
330
3532
100
AcDbEntity
  8
0
100
AcDbLine
 10
0.0
 20
-90.0
 30
0.0
 11
0.0
 21
-51.8718909966
 31
0.0
  0
LINE
  5
356B
330
3532
100
AcDbEntity
  8
0
100
AcDbLine
 10
-74.7638109769
 20
-10.0130884742
 30
0.0
 11
-74.5526099356
 21
-1.9476461034
 31
0.0
  0
ARC
  5
356C
330
3532
100
AcDbEntity
  8
0
100
AcDbCircle
 10
-75.2636396394
 20
-10.0
 30
0.0
 40
0.5
100
AcDbArc
 50
270.0
 51
358.5
  0
ARC
  5
356D
330
3532
100
AcDbEntity
  8
0
100
AcDbCircle
 10
-72.5532952856
 20
-2.0
 30
0.0
 40
2.0
100
AcDbArc
 50
90.0
 51
178.5
  0
LINE
  5
356E
330
3532
100
AcDbEntity
  8
0
100
AcDbLine
 10
-75.2636396394
 20
-10.5
 30
0.0
 11
-75.96219974
 21
-10.5
 31
0.0
  0
LINE
  5
356F
330
3532
100
AcDbEntity
  8
0
100
AcDbLine
 10
-188.5221568834
 20
3.0
 30
0.0
 11
-188.7490727275
 21
-10.0
 31
0.0
  0
LINE
  5
3570
330
3532
100
AcDbEntity
  8
0
  6
Continuous
100
AcDbLine
 10
-188.5221568834
 20
3.0
 30
0.0
 11
-76.1978431166
 21
3.0
 31
0.0
  0
LINE
  5
3571
330
3532
100
AcDbEntity
  8
0
100
AcDbLine
 10
-76.1978431166
 20
3.0
 30
0.0
 11
-75.9709272725
 21
-10.0
 31
0.0
  0
LINE
  5
3572
330
3532
100
AcDbEntity
  8
HIDS
100
AcDbLine
 10
-175.3703
 20
-55.0
 30
0.0
 11
-175.3703
 21
-93.0
 31
0.0
  0
LINE
  5
3573
330
3532
100
AcDbEntity
  8
HIDS
100
AcDbLine
 10
-185.3703
 20
-55.0
 30
0.0
 11
-185.3703
 21
-93.0
 31
0.0
  0
LINE
  5
3574
330
3532
100
AcDbEntity
  8
HIDS
100
AcDbLine
 10
-176.1703
 20
-10.0
 30
0.0
 11
-176.1703
 21
-93.0
 31
0.0
  0
LINE
  5
3575
330
3532
100
AcDbEntity
  8
HIDS
100
AcDbLine
 10
-184.5703
 20
-10.0
 30
0.0
 11
-184.5703
 21
-93.0
 31
0.0
  0
LINE
  5
3576
330
3532
100
AcDbEntity
  8
CENTER
100
AcDbLine
 10
-180.3703
 20
8.248291
 30
0.0
 11
-180.3703
 21
-97.821869
 31
0.0
  0
LINE
  5
3577
330
3532
100
AcDbEntity
  8
CENTER
100
AcDbLine
 10
-144.8703
 20
39.8660786498
 30
0.0
 11
-144.8703
 21
-129.8660786498
 31
0.0
  0
LINE
  5
3578
330
3532
100
AcDbEntity
  8
HIDS
  6
sekkei_H
100
AcDbLine
 10
-175.1203
 20
-10.0
 30
0.0
 11
-175.1203
 21
3.0
 31
0.0
  0
LINE
  5
3579
330
3532
100
AcDbEntity
  8
HIDS
  6
sekkei_H
100
AcDbLine
 10
-185.6203
 20
-10.0
 30
0.0
 11
-185.6203
 21
3.0
 31
0.0
  0
LINE
  5
357A
330
3532
100
AcDbEntity
  8
HIDS
100
AcDbLine
 10
-185.3703
 20
-35.0
 30
0.0
 11
-175.3703
 21
-35.0
 31
0.0
  0
LINE
  5
357B
330
3532
100
AcDbEntity
  8
HIDS
100
AcDbLine
 10
-185.3703
 20
-55.0
 30
0.0
 11
-175.3703
 21
-55.0
 31
0.0
  0
LINE
  5
357C
330
3532
100
AcDbEntity
  8
HIDS
100
AcDbLine
 10
-185.3703
 20
-10.0
 30
0.0
 11
-185.3703
 21
-35.0
 31
0.0
  0
LINE
  5
357D
330
3532
100
AcDbEntity
  8
HIDS
100
AcDbLine
 10
-175.3703
 20
-10.0
 30
0.0
 11
-175.3703
 21
-35.0
 31
0.0
  0
LINE
  5
357E
330
3532
100
AcDbEntity
  8
HIDS
100
AcDbLine
 10
-79.3703
 20
-55.0
 30
0.0
 11
-79.3703
 21
-93.0
 31
0.0
  0
LINE
  5
357F
330
3532
100
AcDbEntity
  8
HIDS
100
AcDbLine
 10
-89.3703
 20
-55.0
 30
0.0
 11
-89.3703
 21
-93.0
 31
0.0
  0
LINE
  5
3580
330
3532
100
AcDbEntity
  8
CENTER
100
AcDbLine
 10
-84.3703
 20
8.248291
 30
0.0
 11
-84.3703
 21
-97.821869
 31
0.0
  0
LINE
  5
3581
330
3532
100
AcDbEntity
  8
HIDS
  6
sekkei_H
100
AcDbLine
 10
-79.1203
 20
-10.0
 30
0.0
 11
-79.1203
 21
3.0
 31
0.0
  0
LINE
  5
3582
330
3532
100
AcDbEntity
  8
HIDS
  6
sekkei_H
100
AcDbLine
 10
-89.6203
 20
-10.0
 30
0.0
 11
-89.6203
 21
3.0
 31
0.0
  0
LINE
  5
3583
330
3532
100
AcDbEntity
  8
HIDS
100
AcDbLine
 10
-89.3703
 20
-10.0
 30
0.0
 11
-89.3703
 21
-35.0
 31
0.0
  0
LINE
  5
3584
330
3532
100
AcDbEntity
  8
HIDS
100
AcDbLine
 10
-79.3703
 20
-10.0
 30
0.0
 11
-79.3703
 21
-35.0
 31
0.0
  0
LINE
  5
3585
330
3532
100
AcDbEntity
  8
HIDS
100
AcDbLine
 10
-89.3703
 20
-55.0
 30
0.0
 11
-79.3703
 21
-55.0
 31
0.0
  0
LINE
  5
3586
330
3532
100
AcDbEntity
  8
HIDS
100
AcDbLine
 10
-89.3703
 20
-35.0
 30
0.0
 11
-79.3703
 21
-35.0
 31
0.0
  0
LINE
  5
3587
330
3532
100
AcDbEntity
  8
0
100
AcDbLine
 10
-154.18164
 20
-94.0
 30
0.0
 11
-135.55896
 21
-94.0
 31
0.0
  0
LINE
  5
3588
330
3532
100
AcDbEntity
  8
0
100
AcDbLine
 10
-156.3703
 20
-124.0
 30
0.0
 11
-135.8703
 21
-124.0
 31
0.0
  0
LINE
  5
3589
330
3532
100
AcDbEntity
  8
0
100
AcDbLine
 10
-153.355591
 20
-124.0
 30
0.0
 11
-153.355591
 21
-100.0
 31
0.0
  0
LINE
  5
358A
330
3532
100
AcDbEntity
  8
0
100
AcDbLine
 10
-156.3703
 20
-124.0
 30
0.0
 11
-156.3703
 21
-97.0
 31
0.0
  0
LINE
  5
358B
330
3532
100
AcDbEntity
  8
0
100
AcDbLine
 10
-154.8703
 20
-93.0
 30
0.0
 11
-154.8703
 21
-93.222565
 31
0.0
  0
ARC
  5
358C
330
3532
100
AcDbEntity
  8
0
100
AcDbCircle
 10
-154.18164
 20
-93.5
 30
0.0
 40
0.5
100
AcDbArc
 50
210.0
 51
270.0
  0
ARC
  5
358D
330
3532
100
AcDbEntity
  8
0
100
AcDbCircle
 10
-152.970276
 20
-92.598083
 30
0.0
 40
2.0
100
AcDbArc
 50
198.19487
 51
210.0
  0
LINE
  5
358E
330
3532
100
AcDbEntity
  8
0
100
AcDbLine
 10
-154.614624
 20
-93.75
 30
0.0
 11
-154.702331
 21
-93.598083
 31
0.0
  0
ARC
  5
358F
330
3532
100
AcDbEntity
  8
0
100
AcDbCircle
 10
-162.355591
 20
-100.0
 30
0.0
 40
9.000010000000003
100
AcDbArc
 50
0.0
 51
19.471197
  0
LINE
  5
3590
330
3532
100
AcDbEntity
  8
0
100
AcDbLine
 10
-153.8703
 20
-94.0
 30
0.0
 11
-153.8703
 21
-97.0
 31
0.0
  0
LINE
  5
3591
330
3532
100
AcDbEntity
  8
0
100
AcDbLine
 10
-156.3703
 20
-97.0
 30
0.0
 11
-153.8703
 21
-97.0
 31
0.0
  0
LINE
  5
3592
330
3532
100
AcDbEntity
  8
0
100
AcDbLine
 10
-135.8703
 20
-94.0
 30
0.0
 11
-135.8703
 21
-124.0
 31
0.0
  0
LINE
  5
3593
330
3532
100
AcDbEntity
  8
0
100
AcDbLine
 10
-134.8703
 20
-93.0
 30
0.0
 11
-134.8703
 21
-93.222565
 31
0.0
  0
ARC
  5
3594
330
3532
100
AcDbEntity
  8
0
100
AcDbCircle
 10
-135.55896
 20
-93.5
 30
0.0
 40
0.5
100
AcDbArc
 50
270.0
 51
330.0
  0
ARC
  5
3595
330
3532
100
AcDbEntity
  8
0
100
AcDbCircle
 10
-136.770324
 20
-92.598083
 30
0.0
 40
2.0
100
AcDbArc
 50
330.0
 51
341.805128
  0
LINE
  5
3596
330
3532
100
AcDbEntity
  8
0
100
AcDbLine
 10
-135.125976
 20
-93.75
 30
0.0
 11
-135.038269
 21
-93.598083
 31
0.0
  0
LINE
  5
3597
330
3532
100
AcDbEntity
  8
0
100
AcDbLine
 10
-154.18164
 20
4.0
 30
0.0
 11
-135.55896
 21
4.0
 31
0.0
  0
LINE
  5
3598
330
3532
100
AcDbEntity
  8
0
100
AcDbLine
 10
-156.3703
 20
34.0
 30
0.0
 11
-135.8703
 21
34.0
 31
0.0
  0
LINE
  5
3599
330
3532
100
AcDbEntity
  8
0
100
AcDbLine
 10
-153.355591
 20
34.0
 30
0.0
 11
-153.355591
 21
10.0
 31
0.0
  0
LINE
  5
359A
330
3532
100
AcDbEntity
  8
0
100
AcDbLine
 10
-156.3703
 20
34.0
 30
0.0
 11
-156.3703
 21
7.0
 31
0.0
  0
LINE
  5
359B
330
3532
100
AcDbEntity
  8
0
100
AcDbLine
 10
-154.8703
 20
3.0
 30
0.0
 11
-154.8703
 21
3.222565
 31
0.0
  0
ARC
  5
359C
330
3532
100
AcDbEntity
  8
0
100
AcDbCircle
 10
-154.18164
 20
3.5
 30
0.0
 40
0.5
100
AcDbArc
 50
90.0
 51
150.0
  0
ARC
  5
359D
330
3532
100
AcDbEntity
  8
0
100
AcDbCircle
 10
-152.970276
 20
2.598083
 30
0.0
 40
2.0
100
AcDbArc
 50
150.0
 51
161.80513
  0
LINE
  5
359E
330
3532
100
AcDbEntity
  8
0
100
AcDbLine
 10
-154.614624
 20
3.75
 30
0.0
 11
-154.702331
 21
3.598083
 31
0.0
  0
ARC
  5
359F
330
3532
100
AcDbEntity
  8
0
100
AcDbCircle
 10
-162.355591
 20
10.0
 30
0.0
 40
9.000010000000003
100
AcDbArc
 50
340.528803
 51
0.0
  0
LINE
  5
35A0
330
3532
100
AcDbEntity
  8
0
100
AcDbLine
 10
-153.8703
 20
4.0
 30
0.0
 11
-153.8703
 21
7.0
 31
0.0
  0
LINE
  5
35A1
330
3532
100
AcDbEntity
  8
0
100
AcDbLine
 10
-156.3703
 20
7.0
 30
0.0
 11
-153.8703
 21
7.0
 31
0.0
  0
LINE
  5
35A2
330
3532
100
AcDbEntity
  8
0
100
AcDbLine
 10
-135.8703
 20
4.0
 30
0.0
 11
-135.8703
 21
34.0
 31
0.0
  0
LINE
  5
35A3
330
3532
100
AcDbEntity
  8
0
100
AcDbLine
 10
-134.8703
 20
3.0
 30
0.0
 11
-134.8703
 21
3.222565
 31
0.0
  0
ARC
  5
35A4
330
3532
100
AcDbEntity
  8
0
100
AcDbCircle
 10
-135.55896
 20
3.5
 30
0.0
 40
0.5
100
AcDbArc
 50
30.0
 51
90.0
  0
ARC
  5
35A5
330
3532
100
AcDbEntity
  8
0
100
AcDbCircle
 10
-136.770324
 20
2.598083
 30
0.0
 40
2.0
100
AcDbArc
 50
18.194872
 51
30.0
  0
LINE
  5
35A6
330
3532
100
AcDbEntity
  8
0
100
AcDbLine
 10
-135.125976
 20
3.75
 30
0.0
 11
-135.038269
 21
3.598083
 31
0.0
  0
LINE
  5
35A7
330
3532
100
AcDbEntity
  8
0
100
AcDbLine
 10
0.0
 20
-38.1281090034
 30
0.0
 11
0.0
 21
0.0
 31
0.0
  0
LINE
  5
35A8
330
3532
100
AcDbEntity
  8
HIDS
100
AcDbLine
 10
-80.1703
 20
-10.0
 30
0.0
 11
-80.1703
 21
-93.0
 31
0.0
  0
LINE
  5
35A9
330
3532
100
AcDbEntity
  8
HIDS
100
AcDbLine
 10
-88.5703
 20
-10.0
 30
0.0
 11
-88.5703
 21
-93.0
 31
0.0
  0
ENDBLK
  5
35AA
330
3532
100
AcDbEntity
  8
0
100
AcDbBlockEnd
  0
BLOCK
  5
35B4
330
35B1
100
AcDbEntity
  8
0
100
AcDbBlockBegin
  2
A$Cae477ae8
 70
     0
 10
0.0
 20
0.0
 30
0.0
  3
A$Cae477ae8
  1

  0
LINE
  5
35B5
330
35B1
100
AcDbEntity
  8
0
  6
Continuous
100
AcDbLine
 10
48.0
 20
-48.1621568834
 30
0.0
 11
48.0
 21
48.1621568834
 31
0.0
  0
LINE
  5
35B6
330
35B1
100
AcDbEntity
  8
0
  6
Continuous
100
AcDbLine
 10
-35.0
 20
-48.3890727275
 30
0.0
 11
-35.0
 21
48.3890727275
 31
0.0
  0
LINE
  5
35B7
330
35B1
100
AcDbEntity
  8
0
100
AcDbLine
 10
-48.0
 20
48.1621568834
 30
0.0
 11
0.0
 21
49.0
 31
0.0
  0
LINE
  5
35B8
330
35B1
100
AcDbEntity
  8
0
100
AcDbLine
 10
-48.0
 20
-48.1621568834
 30
0.0
 11
0.0
 21
-49.0
 31
0.0
  0
LINE
  5
35B9
330
35B1
100
AcDbEntity
  8
0
100
AcDbLine
 10
48.0
 20
-48.1621568834
 30
0.0
 11
0.0
 21
-49.0
 31
0.0
  0
LINE
  5
35BA
330
35B1
100
AcDbEntity
  8
0
100
AcDbLine
 10
48.0
 20
48.1621568834
 30
0.0
 11
0.0
 21
49.0
 31
0.0
  0
LINE
  5
35BB
330
35B1
100
AcDbEntity
  8
0
  6
Continuous
100
AcDbLine
 10
5.0
 20
18.283996
 30
0.0
 11
5.0
 21
-18.284058
 31
0.0
  0
LINE
  5
35BC
330
35B1
100
AcDbEntity
  8
0
  6
Continuous
100
AcDbLine
 10
-5.0
 20
-18.510987
 30
0.0
 11
-5.0
 21
18.510925
 31
0.0
  0
LINE
  5
35BD
330
35B1
100
AcDbEntity
  8
0
  6
Continuous
100
AcDbLine
 10
6.965088
 20
20.283691
 30
0.0
 11
48.0
 21
21.0
 31
0.0
  0
LINE
  5
35BE
330
35B1
100
AcDbEntity
  8
0
  6
Continuous
100
AcDbLine
 10
9.720978
 20
15.831787
 30
0.0
 11
48.0
 21
16.5
 31
0.0
  0
LINE
  5
35BF
330
35B1
100
AcDbEntity
  8
0
  6
Continuous
100
AcDbLine
 10
-6.965088
 20
20.51062
 30
0.0
 11
-48.0
 21
21.2269291946
 31
0.0
  0
LINE
  5
35C0
330
35B1
100
AcDbEntity
  8
0
  6
Continuous
100
AcDbLine
 10
-9.721008
 20
16.058716
 30
0.0
 11
-48.0
 21
16.7269351563
 31
0.0
  0
LINE
  5
35C1
330
35B1
100
AcDbEntity
  8
0
  6
Continuous
100
AcDbLine
 10
-6.965088
 20
-20.510681
 30
0.0
 11
-48.0
 21
-21.2269009084
 31
0.0
  0
LINE
  5
35C2
330
35B1
100
AcDbEntity
  8
0
  6
Continuous
100
AcDbLine
 10
-9.721008
 20
-16.058777
 30
0.0
 11
-48.0
 21
-16.7269037864
 31
0.0
  0
LINE
  5
35C3
330
35B1
100
AcDbEntity
  8
0
  6
Continuous
100
AcDbLine
 10
6.965088
 20
-20.283753
 30
0.0
 11
48.0
 21
-21.0
 31
0.0
  0
LINE
  5
35C4
330
35B1
100
AcDbEntity
  8
0
  6
Continuous
100
AcDbLine
 10
9.720978
 20
-15.831848
 30
0.0
 11
48.0
 21
-16.5
 31
0.0
  0
LINE
  5
35C5
330
35B1
100
AcDbEntity
  8
0
  6
Continuous
100
AcDbLine
 10
7.75589
 20
-13.832154
 30
0.0
 11
7.75589
 21
13.832092
 31
0.0
  0
LINE
  5
35C6
330
35B1
100
AcDbEntity
  8
0
  6
Continuous
100
AcDbLine
 10
-7.75589
 20
14.059021
 30
0.0
 11
-7.75589
 21
-14.059082
 31
0.0
  0
LINE
  5
35C7
330
35B1
100
AcDbEntity
  8
0
  6
Continuous
100
AcDbLine
 10
-5.44107
 20
19.763794
 30
0.0
 11
-8.19696
 21
15.311951
 31
0.0
  0
LINE
  5
35C8
330
35B1
100
AcDbEntity
  8
0
  6
Continuous
100
AcDbLine
 10
-8.19696
 20
-15.311951
 30
0.0
 11
-5.44107
 21
-19.763855
 31
0.0
  0
LINE
  5
35C9
330
35B1
100
AcDbEntity
  8
0
  6
Continuous
100
AcDbLine
 10
8.196961
 20
-15.085083
 30
0.0
 11
5.441071
 21
-19.536926
 31
0.0
  0
LINE
  5
35CA
330
35B1
100
AcDbEntity
  8
0
  6
Continuous
100
AcDbLine
 10
8.196961
 20
15.085022
 30
0.0
 11
5.441071
 21
19.536926
 31
0.0
  0
ARC
  5
35CB
330
35B1
100
AcDbEntity
  8
0
  6
Continuous
100
AcDbCircle
 10
-7.0
 20
18.510925
 30
0.0
 40
2.0
100
AcDbArc
 50
0.0
 51
89.0
  0
ARC
  5
35CC
330
35B1
100
AcDbEntity
  8
0
  6
Continuous
100
AcDbCircle
 10
-7.0
 20
-18.510987
 30
0.0
 40
2.0
100
AcDbArc
 50
271.0
 51
0.0
  0
ARC
  5
35CD
330
35B1
100
AcDbEntity
  8
0
  6
Continuous
100
AcDbCircle
 10
7.0
 20
-18.284058
 30
0.0
 40
2.0
100
AcDbArc
 50
180.0
 51
269.0
  0
ARC
  5
35CE
330
35B1
100
AcDbEntity
  8
0
  6
Continuous
100
AcDbCircle
 10
7.0
 20
18.283996
 30
0.0
 40
2.0
100
AcDbArc
 50
91.0
 51
180.0
  0
ARC
  5
35CF
330
35B1
100
AcDbEntity
  8
0
  6
Continuous
100
AcDbCircle
 10
9.75589
 20
13.832092
 30
0.0
 40
2.0
100
AcDbArc
 50
91.0
 51
180.0
  0
ARC
  5
35D0
330
35B1
100
AcDbEntity
  8
0
  6
Continuous
100
AcDbCircle
 10
9.75589
 20
-13.832154
 30
0.0
 40
2.0
100
AcDbArc
 50
180.0
 51
268.999999
  0
ARC
  5
35D1
330
35B1
100
AcDbEntity
  8
0
  6
Continuous
100
AcDbCircle
 10
-9.75589
 20
-14.059082
 30
0.0
 40
2.0
100
AcDbArc
 50
271.0
 51
0.0
  0
ARC
  5
35D2
330
35B1
100
AcDbEntity
  8
0
  6
Continuous
100
AcDbCircle
 10
-9.75589
 20
14.059021
 30
0.0
 40
2.0
100
AcDbArc
 50
0.0
 51
89.0
  0
LINE
  5
35D3
330
35B1
100
AcDbEntity
  8
HIDS
100
AcDbLine
 10
-26.052368
 20
-44.545258
 30
0.0
 11
0.0
 21
-45.0
 31
0.0
  0
LINE
  5
35D4
330
35B1
100
AcDbEntity
  8
HIDS
100
AcDbLine
 10
-26.052368
 20
44.545258
 30
0.0
 11
0.0
 21
45.0
 31
0.0
  0
LINE
  5
35D5
330
35B1
100
AcDbEntity
  8
CENTER
100
AcDbLine
 10
-51.450775
 20
-39.0
 30
0.0
 11
53.6875
 21
-39.0
 31
0.0
  0
LINE
  5
35D6
330
35B1
100
AcDbEntity
  8
CENTER
100
AcDbLine
 10
-51.450775
 20
39.0
 30
0.0
 11
53.6875
 21
39.0
 31
0.0
  0
LINE
  5
35D7
330
35B1
100
AcDbEntity
  8
HOJO
100
AcDbLine
 10
-35.0
 20
-34.0
 30
0.0
 11
-10.0
 21
-34.0
 31
0.0
  0
LINE
  5
35D8
330
35B1
100
AcDbEntity
  8
HOJO
100
AcDbLine
 10
-35.0
 20
-44.0
 30
0.0
 11
-10.0
 21
-44.0
 31
0.0
  0
LINE
  5
35D9
330
35B1
100
AcDbEntity
  8
HIDS
100
AcDbLine
 10
-35.0
 20
44.0
 30
0.0
 11
-10.0
 21
44.0
 31
0.0
  0
LINE
  5
35DA
330
35B1
100
AcDbEntity
  8
HIDS
100
AcDbLine
 10
-35.0
 20
34.0
 30
0.0
 11
-10.0
 21
34.0
 31
0.0
  0
LINE
  5
35DB
330
35B1
100
AcDbEntity
  8
0
100
AcDbLine
 10
-42.000031
 20
32.299973
 30
0.0
 11
-41.9999799214
 21
24.700043
 31
0.0
  0
LINE
  5
35DC
330
35B1
100
AcDbEntity
  8
0
100
AcDbLine
 10
-41.0
 20
33.0
 30
0.0
 11
-41.0
 21
24.0
 31
0.0
  0
LINE
  5
35DD
330
35B1
100
AcDbEntity
  8
0
100
AcDbLine
 10
-46.000031
 20
32.0
 30
0.0
 11
-46.000031
 21
25.0
 31
0.0
  0
ARC
  5
35DE
330
35B1
100
AcDbEntity
  8
HIDS
100
AcDbCircle
 10
0.0
 20
0.0
 30
0.0
 40
45.0
100
AcDbArc
 50
132.843643
 51
227.156357
  0
LINE
  5
35DF
330
35B1
100
AcDbEntity
  8
0
100
AcDbLine
 10
-48.0
 20
-48.1621568834
 30
0.0
 11
-48.0
 21
48.1621568834
 31
0.0
  0
ARC
  5
35E0
330
35B1
100
AcDbEntity
  8
HIDS
100
AcDbCircle
 10
-34.0
 20
-36.660606
 30
0.0
 40
5.0
100
AcDbArc
 50
0.0
 51
47.156357
  0
LINE
  5
35E1
330
35B1
100
AcDbEntity
  8
0
100
AcDbLine
 10
-35.0
 20
-44.25
 30
0.0
 11
-48.0
 21
-44.25
 31
0.0
  0
ARC
  5
35E2
330
35B1
100
AcDbEntity
  8
HIDS
100
AcDbCircle
 10
-26.0
 20
-41.545708
 30
0.0
 40
3.0
100
AcDbArc
 50
180.0
 51
269.0
  0
LINE
  5
35E3
330
35B1
100
AcDbEntity
  8
HIDS
100
AcDbLine
 10
-29.0
 20
-41.545708
 30
0.0
 11
-29.0
 21
-36.660606
 31
0.0
  0
LINE
  5
35E4
330
35B1
100
AcDbEntity
  8
CENTER
100
AcDbLine
 10
-39.101624
 20
-28.5
 30
0.0
 11
-49.121002
 21
-28.5
 31
0.0
  0
LINE
  5
35E5
330
35B1
100
AcDbEntity
  8
0
100
AcDbLine
 10
-35.0
 20
-33.75
 30
0.0
 11
-48.0
 21
-33.75
 31
0.0
  0
LINE
  5
35E6
330
35B1
100
AcDbEntity
  8
0
100
AcDbLine
 10
-42.0000151088
 20
-29.9355380818
 30
0.0
 11
-41.9999799214
 21
-24.700043
 31
0.0
  0
LINE
  5
35E7
330
35B1
100
AcDbEntity
  8
0
100
AcDbLine
 10
-41.0
 20
-29.7964629511
 30
0.0
 11
-41.0
 21
-24.0
 31
0.0
  0
LINE
  5
35E8
330
35B1
100
AcDbEntity
  8
0
100
AcDbLine
 10
-46.000031
 20
-30.1579598673
 30
0.0
 11
-46.000031
 21
-25.0
 31
0.0
  0
ARC
  5
35E9
330
35B1
100
AcDbEntity
  8
HIDS
100
AcDbCircle
 10
-26.0
 20
41.545715
 30
0.0
 40
3.0
100
AcDbArc
 50
91.0
 51
180.0
  0
LINE
  5
35EA
330
35B1
100
AcDbEntity
  8
CENTER
100
AcDbLine
 10
-39.101624
 20
28.5
 30
0.0
 11
-49.121002
 21
28.5
 31
0.0
  0
LINE
  5
35EB
330
35B1
100
AcDbEntity
  8
HIDS
  6
sekkei_H
100
AcDbLine
 10
-35.0
 20
33.75
 30
0.0
 11
-48.0
 21
33.75
 31
0.0
  0
LINE
  5
35EC
330
35B1
100
AcDbEntity
  8
0
100
AcDbLine
 10
-42.000031
 20
32.299973
 30
0.0
 11
-41.0
 21
32.299973
 31
0.0
  0
LINE
  5
35ED
330
35B1
100
AcDbEntity
  8
0
100
AcDbLine
 10
-46.000031
 20
32.0
 30
0.0
 11
-42.000031
 21
32.000015
 31
0.0
  0
LINE
  5
35EE
330
35B1
100
AcDbEntity
  8
0
100
AcDbLine
 10
-41.0
 20
33.0
 30
0.0
 11
-48.0
 21
33.183304
 31
0.0
  0
ARC
  5
35EF
330
35B1
100
AcDbEntity
  8
HIDS
100
AcDbCircle
 10
-34.0
 20
36.660599
 30
0.0
 40
5.0
100
AcDbArc
 50
312.843643
 51
0.0
  0
LINE
  5
35F0
330
35B1
100
AcDbEntity
  8
HIDS
100
AcDbLine
 10
-29.0
 20
41.545715
 30
0.0
 11
-29.0
 21
36.660599
 31
0.0
  0
LINE
  5
35F1
330
35B1
100
AcDbEntity
  8
HIDS
  6
sekkei_H
100
AcDbLine
 10
-35.0
 20
44.25
 30
0.0
 11
-48.0
 21
44.25
 31
0.0
  0
ARC
  5
35F2
330
35B1
100
AcDbEntity
  8
HIDS
100
AcDbCircle
 10
0.0
 20
0.0
 30
0.0
 40
45.0
100
AcDbArc
 50
312.843643
 51
47.156357
  0
ARC
  5
35F3
330
35B1
100
AcDbEntity
  8
HIDS
100
AcDbCircle
 10
34.0
 20
-36.660606
 30
0.0
 40
5.0
100
AcDbArc
 50
132.843643
 51
180.0
  0
LINE
  5
35F4
330
35B1
100
AcDbEntity
  8
HOJO
100
AcDbLine
 10
10.0
 20
-34.0
 30
0.0
 11
10.0
 21
-44.0
 31
0.0
  0
LINE
  5
35F5
330
35B1
100
AcDbEntity
  8
HOJO
100
AcDbLine
 10
-10.0
 20
-34.0
 30
0.0
 11
-10.0
 21
-44.0
 31
0.0
  0
LINE
  5
35F6
330
35B1
100
AcDbEntity
  8
HOJO
100
AcDbLine
 10
48.0
 20
-44.0
 30
0.0
 11
10.0
 21
-44.0
 31
0.0
  0
LINE
  5
35F7
330
35B1
100
AcDbEntity
  8
HIDS
100
AcDbLine
 10
26.052368
 20
-44.545258
 30
0.0
 11
0.0
 21
-45.0
 31
0.0
  0
ARC
  5
35F8
330
35B1
100
AcDbEntity
  8
HIDS
100
AcDbCircle
 10
26.0
 20
-41.545708
 30
0.0
 40
3.0
100
AcDbArc
 50
271.0
 51
0.0
  0
LINE
  5
35F9
330
35B1
100
AcDbEntity
  8
HIDS
100
AcDbLine
 10
29.0
 20
-41.545708
 30
0.0
 11
29.0
 21
-36.660606
 31
0.0
  0
LINE
  5
35FA
330
35B1
100
AcDbEntity
  8
HOJO
100
AcDbLine
 10
48.0
 20
-34.0
 30
0.0
 11
10.0
 21
-34.0
 31
0.0
  0
LINE
  5
35FB
330
35B1
100
AcDbEntity
  8
HIDS
100
AcDbLine
 10
48.0
 20
44.0
 30
0.0
 11
10.0
 21
44.0
 31
0.0
  0
LINE
  5
35FC
330
35B1
100
AcDbEntity
  8
HIDS
100
AcDbLine
 10
48.0
 20
34.0
 30
0.0
 11
10.0
 21
34.0
 31
0.0
  0
LINE
  5
35FD
330
35B1
100
AcDbEntity
  8
HIDS
100
AcDbLine
 10
26.052368
 20
44.545258
 30
0.0
 11
0.0
 21
45.0
 31
0.0
  0
LINE
  5
35FE
330
35B1
100
AcDbEntity
  8
HIDS
100
AcDbLine
 10
-10.0
 20
34.0
 30
0.0
 11
-10.0
 21
44.0
 31
0.0
  0
ARC
  5
35FF
330
35B1
100
AcDbEntity
  8
HIDS
100
AcDbCircle
 10
26.0
 20
41.545715
 30
0.0
 40
3.0
100
AcDbArc
 50
0.0
 51
89.0
  0
LINE
  5
3600
330
35B1
100
AcDbEntity
  8
HIDS
100
AcDbLine
 10
10.0
 20
34.0
 30
0.0
 11
10.0
 21
44.0
 31
0.0
  0
ARC
  5
3601
330
35B1
100
AcDbEntity
  8
HIDS
100
AcDbCircle
 10
34.0
 20
36.660599
 30
0.0
 40
5.0
100
AcDbArc
 50
180.0
 51
227.156357
  0
LINE
  5
3602
330
35B1
100
AcDbEntity
  8
HIDS
100
AcDbLine
 10
29.0
 20
41.545715
 30
0.0
 11
29.0
 21
36.660599
 31
0.0
  0
LINE
  5
3603
330
35B1
100
AcDbEntity
  8
0
100
AcDbLine
 10
-41.0
 20
24.0
 30
0.0
 11
-48.0
 21
23.816711
 31
0.0
  0
LINE
  5
3604
330
35B1
100
AcDbEntity
  8
0
100
AcDbLine
 10
-46.000031
 20
25.0
 30
0.0
 11
-42.000031
 21
25.0
 31
0.0
  0
LINE
  5
3605
330
35B1
100
AcDbEntity
  8
0
100
AcDbLine
 10
-42.000031
 20
24.700043
 30
0.0
 11
-41.0
 21
24.700043
 31
0.0
  0
LWPOLYLINE
  5
3606
330
35B1
100
AcDbEntity
  8
HOJO
100
AcDbPolyline
 90
       19
 70
     0
 43
0.0
 10
-48.0
 20
-30.0474634747
 10
-44.281891
 20
-30.2528854747
 10
-40.200165
 20
-29.6852274747
 10
-35.767029
 20
-30.0906924747
 10
-31.279846
 20
-29.4419414747
 10
-26.68454
 20
-30.0095994747
 10
-20.92688
 20
-29.2256944747
 10
-14.871887
 20
-30.1988234747
 10
-9.465637
 20
-29.3338184747
 10
-4.491882
 20
-29.8744444747
 10
1.238739
 20
-29.2256944747
 10
7.401886
 20
-29.9825684747
 10
12.591888
 20
-29.3338184747
 10
17.998138
 20
-29.8744444747
 10
23.188141
 20
-29.1175704747
 10
28.378113
 20
-29.9825684747
 10
34.649384
 20
-29.1175704747
 10
40.920624
 20
-29.8744444747
 10
48.0
 20
-28.5703524747
  0
LINE
  5
3607
330
35B1
100
AcDbEntity
  8
0
100
AcDbLine
 10
-46.000031
 20
-25.0
 30
0.0
 11
-42.000031
 21
-25.0
 31
0.0
  0
LINE
  5
3608
330
35B1
100
AcDbEntity
  8
0
100
AcDbLine
 10
-42.000031
 20
-24.700043
 30
0.0
 11
-41.0
 21
-24.700043
 31
0.0
  0
LINE
  5
3609
330
35B1
100
AcDbEntity
  8
0
100
AcDbLine
 10
-41.0
 20
-24.0
 30
0.0
 11
-48.0
 21
-23.816711
 31
0.0
  0
LINE
  5
360A
330
35B1
100
AcDbEntity
  8
CENTER
100
AcDbLine
 10
0.0
 20
-2.9329564864
 30
0.0
 11
0.0
 21
2.9329564864
 31
0.0
  0
LINE
  5
360B
330
35B1
100
AcDbEntity
  8
0
100
AcDbLine
 10
49.0
 20
-9.31131
 30
0.0
 11
49.0
 21
9.31134
 31
0.0
  0
ARC
  5
360C
330
35B1
100
AcDbEntity
  8
0
100
AcDbCircle
 10
55.0
 20
0.0
 30
0.0
 40
3.0
100
AcDbArc
 50
90.0
 51
270.0
  0
LINE
  5
360D
330
35B1
100
AcDbEntity
  8
0
100
AcDbLine
 10
79.0
 20
9.0
 30
0.0
 11
79.0
 21
-9.0
 31
0.0
  0
LINE
  5
360E
330
35B1
100
AcDbEntity
  8
0
100
AcDbLine
 10
79.0
 20
-3.0
 30
0.0
 11
55.0
 21
-3.0
 31
0.0
  0
LINE
  5
360F
330
35B1
100
AcDbEntity
  8
0
100
AcDbLine
 10
79.0
 20
-9.0
 30
0.0
 11
49.0
 21
-9.0
 31
0.0
  0
LINE
  5
3610
330
35B1
100
AcDbEntity
  8
0
100
AcDbLine
 10
48.0
 20
-10.0
 30
0.0
 11
48.222565
 21
-10.0
 31
0.0
  0
ARC
  5
3611
330
35B1
100
AcDbEntity
  8
0
100
AcDbCircle
 10
48.5
 20
-9.31131
 30
0.0
 40
0.5
100
AcDbArc
 50
300.0
 51
0.0
  0
ARC
  5
3612
330
35B1
100
AcDbEntity
  8
0
100
AcDbCircle
 10
47.598083
 20
-8.100006
 30
0.0
 40
2.0
100
AcDbArc
 50
288.19487
 51
300.0
  0
LINE
  5
3613
330
35B1
100
AcDbEntity
  8
0
100
AcDbLine
 10
48.75
 20
-9.744324
 30
0.0
 11
48.598083
 21
-9.832062
 31
0.0
  0
LINE
  5
3614
330
35B1
100
AcDbEntity
  8
0
100
AcDbLine
 10
79.0
 20
3.0
 30
0.0
 11
55.0
 21
3.0
 31
0.0
  0
LINE
  5
3615
330
35B1
100
AcDbEntity
  8
0
100
AcDbLine
 10
79.0
 20
9.0
 30
0.0
 11
49.0
 21
9.0
 31
0.0
  0
LINE
  5
3616
330
35B1
100
AcDbEntity
  8
0
100
AcDbLine
 10
48.0
 20
10.0
 30
0.0
 11
48.222565
 21
10.0
 31
0.0
  0
ARC
  5
3617
330
35B1
100
AcDbEntity
  8
0
100
AcDbCircle
 10
48.5
 20
9.31134
 30
0.0
 40
0.5
100
AcDbArc
 50
0.0
 51
60.0
  0
ARC
  5
3618
330
35B1
100
AcDbEntity
  8
0
100
AcDbCircle
 10
47.598083
 20
8.100006
 30
0.0
 40
2.0
100
AcDbArc
 50
60.0
 51
71.80513
  0
LINE
  5
3619
330
35B1
100
AcDbEntity
  8
0
100
AcDbLine
 10
48.75
 20
9.744324
 30
0.0
 11
48.598083
 21
9.832062
 31
0.0
  0
LINE
  5
361A
330
35B1
100
AcDbEntity
  8
0
100
AcDbLine
 10
-49.0
 20
-9.31131
 30
0.0
 11
-49.0
 21
9.31134
 31
0.0
  0
ARC
  5
361B
330
35B1
100
AcDbEntity
  8
0
100
AcDbCircle
 10
-55.0
 20
0.0
 30
0.0
 40
3.0
100
AcDbArc
 50
270.0
 51
90.0
  0
LINE
  5
361C
330
35B1
100
AcDbEntity
  8
0
100
AcDbLine
 10
-79.0
 20
9.0
 30
0.0
 11
-79.0
 21
-9.0
 31
0.0
  0
LINE
  5
361D
330
35B1
100
AcDbEntity
  8
0
100
AcDbLine
 10
-79.0
 20
-3.0
 30
0.0
 11
-55.0
 21
-3.0
 31
0.0
  0
LINE
  5
361E
330
35B1
100
AcDbEntity
  8
0
100
AcDbLine
 10
-79.0
 20
-9.0
 30
0.0
 11
-49.0
 21
-9.0
 31
0.0
  0
LINE
  5
361F
330
35B1
100
AcDbEntity
  8
0
100
AcDbLine
 10
-48.0
 20
-10.0
 30
0.0
 11
-48.222565
 21
-10.0
 31
0.0
  0
ARC
  5
3620
330
35B1
100
AcDbEntity
  8
0
100
AcDbCircle
 10
-48.5
 20
-9.31131
 30
0.0
 40
0.5
100
AcDbArc
 50
180.0
 51
240.0
  0
ARC
  5
3621
330
35B1
100
AcDbEntity
  8
0
100
AcDbCircle
 10
-47.598083
 20
-8.100006
 30
0.0
 40
2.0
100
AcDbArc
 50
240.0
 51
251.80513
  0
LINE
  5
3622
330
35B1
100
AcDbEntity
  8
0
100
AcDbLine
 10
-48.75
 20
-9.744324
 30
0.0
 11
-48.598083
 21
-9.832062
 31
0.0
  0
LINE
  5
3623
330
35B1
100
AcDbEntity
  8
0
100
AcDbLine
 10
-79.0
 20
3.0
 30
0.0
 11
-55.0
 21
3.0
 31
0.0
  0
LINE
  5
3624
330
35B1
100
AcDbEntity
  8
0
100
AcDbLine
 10
-79.0
 20
9.0
 30
0.0
 11
-49.0
 21
9.0
 31
0.0
  0
LINE
  5
3625
330
35B1
100
AcDbEntity
  8
0
100
AcDbLine
 10
-48.0
 20
10.0
 30
0.0
 11
-48.222565
 21
10.0
 31
0.0
  0
ARC
  5
3626
330
35B1
100
AcDbEntity
  8
0
100
AcDbCircle
 10
-48.5
 20
9.31134
 30
0.0
 40
0.5
100
AcDbArc
 50
120.0
 51
180.0
  0
ARC
  5
3627
330
35B1
100
AcDbEntity
  8
0
100
AcDbCircle
 10
-47.598083
 20
8.100006
 30
0.0
 40
2.0
100
AcDbArc
 50
108.19487
 51
120.0
  0
LINE
  5
3628
330
35B1
100
AcDbEntity
  8
0
100
AcDbLine
 10
-48.75
 20
9.744324
 30
0.0
 11
-48.598083
 21
9.832062
 31
0.0
  0
LINE
  5
3629
330
35B1
100
AcDbEntity
  8
CENTER
100
AcDbLine
 10
-2.9329564864
 20
0.0
 30
0.0
 11
2.9329564864
 21
0.0
 31
0.0
  0
LINE
  5
362A
330
35B1
100
AcDbEntity
  8
0
100
AcDbLine
 10
48.0
 20
-43.2
 30
0.0
 11
-35.0
 21
-43.2
 31
0.0
  0
LINE
  5
362B
330
35B1
100
AcDbEntity
  8
0
100
AcDbLine
 10
48.0
 20
-34.8
 30
0.0
 11
-35.0
 21
-34.8
 31
0.0
  0
LINE
  5
362C
330
35B1
100
AcDbEntity
  8
HIDS
100
AcDbLine
 10
48.0
 20
34.8
 30
0.0
 11
-35.0
 21
34.8
 31
0.0
  0
LINE
  5
362D
330
35B1
100
AcDbEntity
  8
HIDS
100
AcDbLine
 10
48.0
 20
43.2
 30
0.0
 11
-35.0
 21
43.2
 31
0.0
  0
ENDBLK
  5
362E
330
35B1
100
AcDbEntity
  8
0
100
AcDbBlockEnd
  0
BLOCK
  5
364A
330
3649
100
AcDbEntity
  8
0
100
AcDbBlockBegin
  2
*D96
 70
     1
 10
0.0
 20
0.0
 30
0.0
  3
*D96
  1

  0
POINT
  5
365F
330
3649
100
AcDbEntity
  8
DEFPOINTS
 62
     0
100
AcDbPoint
 10
441.4791139867
 20
123.2821469169
 30
0.0
  0
POINT
  5
3660
330
3649
100
AcDbEntity
  8
DEFPOINTS
 62
     0
100
AcDbPoint
 10
441.4791139867
 20
114.8821469169
 30
0.0
  0
POINT
  5
3661
330
3649
100
AcDbEntity
  8
DEFPOINTS
 62
     0
100
AcDbPoint
 10
439.9633394715
 20
114.8821469169
 30
0.0
  0
ENDBLK
  5
364B
330
3649
100
AcDbEntity
  8
0
100
AcDbBlockEnd
  0
ENDSEC
  0
SECTION
  2
ENTITIES
  0
TEXT
  5
1EAC
330
2
100
AcDbEntity
  8
TITLE_C
100
AcDbText
 10
47.5335327332
 20
6.6518639632
 30
0.0
 40
7.0
  1
F2F18T010～240-CTMR90NNX
100
AcDbText
  0
TEXT
  5
1EAD
330
2
100
AcDbEntity
  8
TITLE_C
100
AcDbText
 10
47.5335327332
 20
-17.3481360368
 30
0.0
 40
7.0
  1
F2F18T010～240-CSMR60NN
100
AcDbText
  0
TEXT
  5
1EAF
330
2
100
AcDbEntity
  8
TITLE_C
100
AcDbText
 10
47.5335327332
 20
-5.3481360368
 30
0.0
 40
7.0
  1
F2F18T010～240-CTMR90WN
100
AcDbText
  0
TEXT
  5
1EB0
330
2
100
AcDbEntity
  8
TITLE_C
100
AcDbText
 10
47.5335327332
 20
-29.3481360368
 30
0.0
 40
7.0
  1
F2F18T010～240-CSMR60WNX
100
AcDbText
  0
LINE
  5
2415
330
2
100
AcDbEntity
  8
0
  6
CENS
 62
     3
100
AcDbLine
 10
819.9817339889
 20
207.4879438723
 30
0.0
 11
819.9817339889
 21
196.7661176379
 31
0.0
  0
ARC
  5
2416
330
2
100
AcDbEntity
  8
0
100
AcDbCircle
 10
819.9817339889
 20
197.6821469169
 30
0.0
 40
9.000000000010642
100
AcDbArc
 50
77.3231615211
 51
102.6768384789
  0
ARC
  5
2417
330
2
100
AcDbEntity
  8
0
100
AcDbCircle
 10
818.3577904348
 20
204.9017596028
 30
0.0
 40
1.59999999999961
100
AcDbArc
 50
102.6768384789
 51
165.0
  0
LINE
  5
2418
330
2
100
AcDbEntity
  8
0
100
AcDbLine
 10
816.4817339889
 20
204.0821469169
 30
0.0
 11
816.8123091127
 21
205.3158700749
 31
0.0
  0
ARC
  5
2419
330
2
100
AcDbEntity
  8
0
100
AcDbCircle
 10
821.605677543
 20
204.9017596028
 30
0.0
 40
1.59999999999961
100
AcDbArc
 50
15.0
 51
77.3231615211
  0
LINE
  5
241A
330
2
100
AcDbEntity
  8
0
100
AcDbLine
 10
823.151158865
 20
205.3158700749
 30
0.0
 11
823.4817339889
 21
204.0821469169
 31
0.0
  0
LINE
  5
241B
330
2
100
AcDbEntity
  8
0
100
AcDbLine
 10
816.1817339889
 20
204.0821469169
 30
0.0
 11
823.7817339889
 21
204.0821469169
 31
0.0
  0
LINE
  5
241C
330
2
100
AcDbEntity
  8
0
100
AcDbLine
 10
816.1817339889
 20
204.0821469169
 30
0.0
 11
816.1817339889
 21
203.0821469169
 31
0.0
  0
LINE
  5
241D
330
2
100
AcDbEntity
  8
0
100
AcDbLine
 10
819.908653349
 20
203.0821469169
 30
0.0
 11
819.6407041566
 21
204.0821469169
 31
0.0
  0
LINE
  5
241E
330
2
100
AcDbEntity
  8
0
100
AcDbLine
 10
820.3227638212
 20
203.0821469169
 30
0.0
 11
820.0548146287
 21
204.0821469169
 31
0.0
  0
LINE
  5
241F
330
2
100
AcDbEntity
  8
0
100
AcDbLine
 10
823.7817339889
 20
204.0821469169
 30
0.0
 11
823.7817339889
 21
203.0821469169
 31
0.0
  0
LINE
  5
244B
330
2
100
AcDbEntity
  8
CENTER
100
AcDbLine
 10
815.1899744508
 20
401.3207594356
 30
0.0
 11
824.773493527
 21
401.3207594356
 31
0.0
  0
CIRCLE
  5
244C
330
2
100
AcDbEntity
  8
0
100
AcDbCircle
 10
819.9817339889
 20
401.3207594356
 30
0.0
 40
3.799999999999998
  0
CIRCLE
  5
244D
330
2
100
AcDbEntity
  8
0
100
AcDbCircle
 10
819.9817339889
 20
401.3207594356
 30
0.0
 40
3.499999999999146
  0
LINE
  5
244E
330
2
100
AcDbEntity
  8
CENTER
100
AcDbLine
 10
819.9817339889
 20
406.1125189737
 30
0.0
 11
819.9817339889
 21
396.5289998975
 31
0.0
  0
ARC
  5
244F
330
2
100
AcDbEntity
  8
0
100
AcDbCircle
 10
821.7953703525
 20
403.1343957993
 30
0.0
 40
1.336363636363619
100
AcDbArc
 50
180.0
 51
270.0
  0
ARC
  5
2450
330
2
100
AcDbEntity
  8
0
100
AcDbCircle
 10
818.1680976252
 20
403.1343957993
 30
0.0
 40
1.336363636363619
100
AcDbArc
 50
270.0
 51
0.0
  0
ARC
  5
2451
330
2
100
AcDbEntity
  8
0
100
AcDbCircle
 10
821.7953703525
 20
399.507123072
 30
0.0
 40
1.336363636363619
100
AcDbArc
 50
90.0
 51
180.0
  0
LINE
  5
2452
330
2
100
AcDbEntity
  8
0
100
AcDbLine
 10
817.8817339889
 20
401.7980321629
 30
0.0
 11
818.1680976252
 21
401.7980321629
 31
0.0
  0
LINE
  5
2453
330
2
100
AcDbEntity
  8
0
100
AcDbLine
 10
817.8817339889
 20
401.3207594356
 30
0.0
 11
817.8817339889
 21
401.7980321629
 31
0.0
  0
LINE
  5
2454
330
2
100
AcDbEntity
  8
0
100
AcDbLine
 10
820.0548146287
 20
397.5214622348
 30
0.0
 11
820.0548146287
 21
397.8215224874
 31
0.0
  0
LINE
  5
2455
330
2
100
AcDbEntity
  8
0
100
AcDbLine
 10
819.6407041566
 20
397.5360931817
 30
0.0
 11
819.6407041566
 21
397.8374135364
 31
0.0
  0
LINE
  5
2456
330
2
100
AcDbEntity
  8
0
100
AcDbLine
 10
820.4590067162
 20
399.507123072
 30
0.0
 11
820.4590067162
 21
399.2207594356
 31
0.0
  0
LINE
  5
2457
330
2
100
AcDbEntity
  8
0
100
AcDbLine
 10
820.4590067162
 20
399.2207594356
 30
0.0
 11
819.9817339889
 21
399.2207594356
 31
0.0
  0
LINE
  5
2458
330
2
100
AcDbEntity
  8
0
100
AcDbLine
 10
819.9817339889
 20
399.2207594356
 30
0.0
 11
819.5044612616
 21
399.2207594356
 31
0.0
  0
LINE
  5
2459
330
2
100
AcDbEntity
  8
0
100
AcDbLine
 10
819.5044612616
 20
399.2207594356
 30
0.0
 11
819.5044612616
 21
399.507123072
 31
0.0
  0
LINE
  5
245A
330
2
100
AcDbEntity
  8
0
100
AcDbLine
 10
818.1680976252
 20
400.8434867084
 30
0.0
 11
817.8817339889
 21
400.8434867084
 31
0.0
  0
ARC
  5
245B
330
2
100
AcDbEntity
  8
0
100
AcDbCircle
 10
818.1680976252
 20
399.507123072
 30
0.0
 40
1.336363636363619
100
AcDbArc
 50
0.0
 51
90.0
  0
LINE
  5
245C
330
2
100
AcDbEntity
  8
0
100
AcDbLine
 10
817.8817339889
 20
400.8434867084
 30
0.0
 11
817.8817339889
 21
401.3207594356
 31
0.0
  0
LINE
  5
245D
330
2
100
AcDbEntity
  8
0
100
AcDbLine
 10
821.7953703525
 20
401.7980321629
 30
0.0
 11
822.0817339889
 21
401.7980321629
 31
0.0
  0
LINE
  5
245E
330
2
100
AcDbEntity
  8
0
100
AcDbLine
 10
822.0817339889
 20
401.7980321629
 30
0.0
 11
822.0817339889
 21
401.3207594356
 31
0.0
  0
LINE
  5
245F
330
2
100
AcDbEntity
  8
0
100
AcDbLine
 10
822.0817339889
 20
400.8434867084
 30
0.0
 11
821.7953703525
 21
400.8434867084
 31
0.0
  0
LINE
  5
2460
330
2
100
AcDbEntity
  8
0
100
AcDbLine
 10
822.0817339889
 20
401.3207594356
 30
0.0
 11
822.0817339889
 21
400.8434867084
 31
0.0
  0
LINE
  5
2461
330
2
100
AcDbEntity
  8
0
100
AcDbLine
 10
819.9817339889
 20
403.4207594356
 30
0.0
 11
820.4590067162
 21
403.4207594356
 31
0.0
  0
LINE
  5
2462
330
2
100
AcDbEntity
  8
0
100
AcDbLine
 10
820.4590067162
 20
403.4207594356
 30
0.0
 11
820.4590067162
 21
403.1343957993
 31
0.0
  0
LINE
  5
2463
330
2
100
AcDbEntity
  8
0
100
AcDbLine
 10
819.5044612616
 20
403.4207594356
 30
0.0
 11
819.9817339889
 21
403.4207594356
 31
0.0
  0
LINE
  5
2464
330
2
100
AcDbEntity
  8
0
100
AcDbLine
 10
819.5044612616
 20
403.1343957993
 30
0.0
 11
819.5044612616
 21
403.4207594356
 31
0.0
  0
LINE
  5
2465
330
2
100
AcDbEntity
  8
0
100
AcDbLine
 10
819.9817339889
 20
412.0257233296
 30
0.0
 11
819.9817339889
 21
408.4309973296
 31
0.0
  0
LINE
  5
2466
330
2
100
AcDbEntity
  8
0
100
AcDbLine
 10
821.5543979889
 20
415.0116233296
 30
0.0
 11
818.3341519889
 21
415.0116233296
 31
0.0
  0
LINE
  5
2467
330
2
100
AcDbEntity
  8
0
100
AcDbLine
 10
824.1755519889
 20
412.0257233296
 30
0.0
 11
815.6381379889
 21
412.0257233296
 31
0.0
  0
LINE
  5
2468
330
2
100
AcDbEntity
  8
0
100
AcDbLine
 10
822.8275299889
 20
413.5257233296
 30
0.0
 11
817.1537319889
 21
413.5257233296
 31
0.0
  0
CIRCLE
  5
2469
330
2
100
AcDbEntity
  8
0
100
AcDbCircle
 10
819.9817339889
 20
401.3207594356
 30
0.0
 40
4.0
  0
CIRCLE
  5
246A
330
2
100
AcDbEntity
  8
0
100
AcDbCircle
 10
819.9817339889
 20
412.0257233296
 30
0.0
 40
4.926010018386079
  0
LINE
  5
247A
330
2
100
AcDbEntity
  8
0
  6
CENS
 62
     3
100
AcDbLine
 10
118.6399197474
 20
207.4879438723
 30
0.0
 11
118.6399197474
 21
196.7661176379
 31
0.0
  0
ARC
  5
247B
330
2
100
AcDbEntity
  8
0
100
AcDbCircle
 10
118.6399197474
 20
197.6821469169
 30
0.0
 40
9.000000000010642
100
AcDbArc
 50
77.3231615211
 51
102.6768384789
  0
ARC
  5
247C
330
2
100
AcDbEntity
  8
0
100
AcDbCircle
 10
117.0159761934
 20
204.9017596028
 30
0.0
 40
1.59999999999961
100
AcDbArc
 50
102.6768384789
 51
165.0
  0
LINE
  5
247D
330
2
100
AcDbEntity
  8
0
100
AcDbLine
 10
115.1399197474
 20
204.0821469169
 30
0.0
 11
115.4704948713
 21
205.3158700749
 31
0.0
  0
ARC
  5
247E
330
2
100
AcDbEntity
  8
0
100
AcDbCircle
 10
120.2638633015
 20
204.9017596028
 30
0.0
 40
1.59999999999961
100
AcDbArc
 50
15.0
 51
77.3231615211
  0
LINE
  5
247F
330
2
100
AcDbEntity
  8
0
100
AcDbLine
 10
121.8093446236
 20
205.3158700749
 30
0.0
 11
122.1399197474
 21
204.0821469169
 31
0.0
  0
LINE
  5
2480
330
2
100
AcDbEntity
  8
0
100
AcDbLine
 10
114.8399197474
 20
204.0821469169
 30
0.0
 11
122.4399197474
 21
204.0821469169
 31
0.0
  0
LINE
  5
2481
330
2
100
AcDbEntity
  8
0
100
AcDbLine
 10
114.8399197474
 20
204.0821469169
 30
0.0
 11
114.8399197474
 21
203.0821469169
 31
0.0
  0
LINE
  5
2482
330
2
100
AcDbEntity
  8
0
100
AcDbLine
 10
122.4399197474
 20
204.0821469169
 30
0.0
 11
122.4399197474
 21
203.0821469169
 31
0.0
  0
ARC
  5
2495
330
2
100
AcDbEntity
  8
HIDS
100
AcDbCircle
 10
455.4791139867
 20
197.6821469169
 30
0.0
 40
9.000000000010642
100
AcDbArc
 50
77.3231615211
 51
102.6768384789
  0
ARC
  5
2496
330
2
100
AcDbEntity
  8
HIDS
100
AcDbCircle
 10
453.8551704326
 20
204.9017596028
 30
0.0
 40
1.59999999999961
100
AcDbArc
 50
102.6768384789
 51
141.9411893058
  0
ARC
  5
2497
330
2
100
AcDbEntity
  8
HIDS
  6
sekkei_H
100
AcDbCircle
 10
453.8551704326
 20
204.9017596028
 30
0.0
 40
1.59999999999961
100
AcDbArc
 50
141.9411893058
 51
165.0
  0
LINE
  5
2498
330
2
100
AcDbEntity
  8
HIDS
  6
sekkei_H
100
AcDbLine
 10
451.9791139867
 20
204.0821469169
 30
0.0
 11
452.3096891106
 21
205.3158700749
 31
0.0
  0
ARC
  5
2499
330
2
100
AcDbEntity
  8
HIDS
  6
sekkei_H
100
AcDbCircle
 10
457.1030575408
 20
204.9017596028
 30
0.0
 40
1.59999999999961
100
AcDbArc
 50
15.0
 51
33.5557012948
  0
ARC
  5
249A
330
2
100
AcDbEntity
  8
HIDS
100
AcDbCircle
 10
457.1030575408
 20
204.9017596028
 30
0.0
 40
1.59999999999961
100
AcDbArc
 50
33.5557012948
 51
77.3231615211
  0
LINE
  5
249B
330
2
100
AcDbEntity
  8
HIDS
  6
sekkei_H
100
AcDbLine
 10
458.6485388628
 20
205.3158700749
 30
0.0
 11
458.9791139867
 21
204.0821469169
 31
0.0
  0
LINE
  5
249C
330
2
100
AcDbEntity
  8
HIDS
  6
sekkei_H
100
AcDbLine
 10
451.6791139867
 20
204.0821469169
 30
0.0
 11
459.2791139867
 21
204.0821469169
 31
0.0
  0
LINE
  5
249D
330
2
100
AcDbEntity
  8
HIDS
  6
sekkei_H
100
AcDbLine
 10
451.6791139867
 20
204.0821469169
 30
0.0
 11
451.6791139867
 21
202.9041067326
 31
0.0
  0
LINE
  5
249E
330
2
100
AcDbEntity
  8
HIDS
  6
sekkei_H
100
AcDbLine
 10
459.2791139867
 20
204.0821469169
 30
0.0
 11
459.2791139867
 21
202.7714493404
 31
0.0
  0
LINE
  5
2AB0
330
2
100
AcDbEntity
  8
CENTER
100
AcDbLine
 10
902.8917069889
 20
415.3207594356
 30
0.0
 11
639.9442589889
 21
415.3207594356
 31
0.0
  0
LINE
  5
2AB1
330
2
100
AcDbEntity
  8
CENTER
100
AcDbLine
 10
297.9104887474
 20
158.0821469169
 30
0.0
 11
37.6511107474
 21
158.0821469169
 31
0.0
  0
INSERT
  5
2AB4
330
2
100
AcDbEntity
  8
0
100
AcDbBlockReference
  2
ファンカバ－ブレーキ_F2S-15_0005-01
 10
102.6399197474
 20
158.0821469169
 30
0.0
  0
INSERT
  5
2AB5
330
2
100
AcDbEntity
  8
0
100
AcDbBlockReference
  2
ファンカバ－ブレーキ_F2S-15_0007-01
 10
835.9817339889
 20
415.3207594356
 30
0.0
  0
LINE
  5
2AB6
330
2
100
AcDbEntity
  8
CENTER
100
AcDbLine
 10
358.4267759867
 20
158.0821469169
 30
0.0
 11
524.5314519867
 21
158.0821469169
 31
0.0
  0
LINE
  5
2AB7
330
2
100
AcDbEntity
  8
CENTER
100
AcDbLine
 10
441.4791139867
 20
103.7971429169
 30
0.0
 11
441.4791139867
 21
212.3671509169
 31
0.0
  0
LINE
  5
2AD2
330
2
100
AcDbEntity
  8
CENTER
100
AcDbLine
 10
639.9442589889
 20
158.0821469169
 30
0.0
 11
902.8917069889
 21
158.0821469169
 31
0.0
  0
INSERT
  5
2AE6
330
2
100
AcDbEntity
  8
0
100
AcDbBlockReference
  2
ファンカバ－ブレーキ_F2S-15_0006-01
 10
835.9817339889
 20
158.0821469169
 30
0.0
  0
LINE
  5
2DF9
330
2
100
AcDbEntity
  8
0
  6
CENS
 62
     3
100
AcDbLine
 10
455.4791139867
 20
207.4879438723
 30
0.0
 11
455.4791139867
 21
196.7661176379
 31
0.0
  0
TEXT
  5
302C
330
2
100
AcDbEntity
  8
TITLE_C
100
AcDbText
 10
47.5343992262
 20
-41.2317351269
 30
0.0
 40
7.0
  1
F2F18T010～240-CSMR60WN
100
AcDbText
  0
TEXT
  5
302D
330
2
100
AcDbEntity
  8
TITLE_C
100
AcDbText
 10
47.5343992262
 20
-53.2317351269
 30
0.0
 40
7.0
  1
F2F18T010～240-CSMR90NN
100
AcDbText
  0
TEXT
  5
3035
330
2
100
AcDbEntity
  8
TITLE_C
100
AcDbText
 10
47.5430264828
 20
-65.1730897789
 30
0.0
 40
7.0
  1
F2F18T010～240-CSMR90WNX
100
AcDbText
  0
TEXT
  5
3036
330
2
100
AcDbEntity
  8
TITLE_C
100
AcDbText
 10
47.5430264828
 20
-77.1730897789
 30
0.0
 40
7.0
  1
F2F18T010～240-CSMR90WN
100
AcDbText
  0
INSERT
  5
3492
330
2
100
AcDbEntity
  8
0
100
AcDbBlockReference
  2
A$C97379603
 10
102.6399197474
 20
158.0821469169
 30
0.0
  0
INSERT
  5
3531
330
2
100
AcDbEntity
  8
0
100
AcDbBlockReference
  2
A$C0221c00d
 10
835.9817339889
 20
158.0821469169
 30
0.0
  0
INSERT
  5
35B0
330
2
100
AcDbEntity
  8
0
100
AcDbBlockReference
  2
A$C326328fc
 10
835.9817339889
 20
460.3207594356
 30
0.0
  0
INSERT
  5
3634
330
2
100
AcDbEntity
  8
0
100
AcDbBlockReference
  2
A$Cae477ae8
 10
441.4791139867
 20
158.0821469169
 30
0.0
  0
ENDSEC
  0
SECTION
  2
OBJECTS
  0
DICTIONARY
  5
7
330
0
100
AcDbDictionary
281
     1
  3
ACAD_CIP_PREVIOUS_PRODUCT_INFO
350
2610
  3
ACAD_COLOR
350
1CA2
  3
ACAD_DETAILVIEWSTYLE
350
260C
  3
ACAD_GROUP
350
75
  3
ACAD_LAYOUT
350
61
  3
ACAD_MATERIAL
350
1C75
  3
ACAD_MLEADERSTYLE
350
1CC7
  3
ACAD_MLINESTYLE
350
76
  3
ACAD_PLOTSETTINGS
350
77
  3
ACAD_PLOTSTYLENAME
350
6
  3
ACAD_SCALELIST
350
1CA5
  3
ACAD_SECTIONVIEWSTYLE
350
260A
  3
ACAD_TABLESTYLE
350
1CA3
  3
ACAD_VISUALSTYLE
350
1C8E
  3
AcadDim
350
480
  3
ACDB_RECOMPOSE_DATA
350
38A6
  3
AcDbVariableDictionary
350
102
  3
DWGPROPS
350
38A7
  0
DICTIONARY
  5
1DAF
330
6E
100
AcDbDictionary
280
     1
281
     1
  0
DICTIONARY
  5
1CCE
330
66
100
AcDbDictionary
280
     1
281
     1
  3
ACAD_LAYERSTATES
360
1CCF
  0
DICTIONARY
  5
1D98
330
5E
100
AcDbDictionary
280
     1
281
     1
  3
ADSK_XREC_LAYER_RECONCILED
360
1D99
  0
DICTIONARY
  5
1D9A
330
3E
100
AcDbDictionary
280
     1
281
     1
  3
ADSK_XREC_LAYER_RECONCILED
360
1D9B
  0
DICTIONARY
  5
1DA0
330
2B5
100
AcDbDictionary
280
     1
281
     1
  3
ADSK_XREC_LAYER_RECONCILED
360
1DA1
  0
DICTIONARY
  5
1DA2
330
2BA
100
AcDbDictionary
280
     1
281
     1
  3
ADSK_XREC_LAYER_RECONCILED
360
1DA3
  0
DICTIONARY
  5
1CCC
330
1CCB
100
AcDbDictionary
280
     1
281
     1
  3
ADSK_XREC_LAYER_RECONCILED
360
1DA8
  0
DICTIONARY
  5
2898
330
2897
100
AcDbDictionary
280
     1
281
     1
  0
DICTIONARY
  5
28B3
330
28B2
100
AcDbDictionary
280
     1
281
     1
  0
DICTIONARY
  5
28D1
330
28D0
100
AcDbDictionary
280
     1
281
     1
  0
DICTIONARY
  5
33AC
330
33AB
100
AcDbDictionary
280
     1
281
     1
  3
ACAD_SORTENTS
360
33AD
  0
DICTIONARY
  5
3494
330
3493
100
AcDbDictionary
280
     1
281
     1
  3
ACAD_SORTENTS
360
3495
  0
DICTIONARY
  5
3533
330
3532
100
AcDbDictionary
280
     1
281
     1
  3
ACAD_SORTENTS
360
3534
  0
DICTIONARY
  5
35B2
330
35B1
100
AcDbDictionary
280
     1
281
     1
  3
ACAD_SORTENTS
360
35B3
  0
XRECORD
  5
2610
102
{ACAD_REACTORS
330
7
102
}
330
7
100
AcDbXrecord
280
     1
300
ACD
300
2020
300
87224ACD_2020_0F
  0
DICTIONARY
  5
1CA2
102
{ACAD_REACTORS
330
7
102
}
330
7
100
AcDbDictionary
281
     1
  0
DICTIONARY
  5
260C
102
{ACAD_REACTORS
330
7
102
}
330
7
100
AcDbDictionary
281
     1
  3
Imperial24
350
260D
  0
DICTIONARY
  5
75
102
{ACAD_REACTORS
330
7
102
}
330
7
100
AcDbDictionary
281
     1
  0
DICTIONARY
  5
61
102
{ACAD_REACTORS
330
7
102
}
330
7
100
AcDbDictionary
281
     1
  3
Model
350
60
  3
レイアウト1
350
38A0
  0
DICTIONARY
  5
1C75
102
{ACAD_REACTORS
330
7
102
}
330
7
100
AcDbDictionary
281
     1
  3
ByBlock
350
1C7E
  3
ByLayer
350
1C76
  3
Global
350
1C86
  0
DICTIONARY
  5
1CC7
102
{ACAD_REACTORS
330
7
102
}
330
7
100
AcDbDictionary
281
     1
  3
Standard
350
1CC8
  0
DICTIONARY
  5
76
102
{ACAD_REACTORS
330
7
102
}
330
7
100
AcDbDictionary
281
     1
  3
STANDARD
350
78
  0
DICTIONARY
  5
77
102
{ACAD_REACTORS
330
7
102
}
330
7
100
AcDbDictionary
281
     1
  0
ACDBDICTIONARYWDFLT
  5
6
102
{ACAD_REACTORS
330
7
102
}
330
7
100
AcDbDictionary
281
     1
  3
Normal
350
5
100
AcDbDictionaryWithDefault
340
5
  0
DICTIONARY
  5
1CA5
102
{ACAD_REACTORS
330
7
102
}
330
7
100
AcDbDictionary
281
     1
  3
A0
350
1CA6
  3
A1
350
1CA7
  3
A2
350
1CA8
  3
A3
350
1CA9
  3
A4
350
1CAA
  3
A5
350
1CAB
  3
A6
350
1CAC
  3
A7
350
1CAD
  3
A8
350
1CAE
  3
A9
350
1CAF
  3
B0
350
1CB0
  3
B1
350
1CB1
  3
B2
350
1CB2
  3
B3
350
1CB3
  3
B4
350
1CB4
  3
B5
350
1CB5
  3
B6
350
1CB6
  3
B7
350
1CB7
  3
B8
350
1CB8
  3
B9
350
1CB9
  3
C0
350
1CBA
  3
C1
350
1CBB
  3
C2
350
1CBC
  3
C3
350
1CBD
  3
C4
350
1CBE
  3
C5
350
1CBF
  3
C6
350
1CC0
  3
C7
350
1CC1
  3
C8
350
1CC2
  3
C9
350
1CC3
  3
D0
350
1CC4
  3
D1
350
1CC5
  3
D2
350
1CC6
  0
DICTIONARY
  5
260A
102
{ACAD_REACTORS
330
7
102
}
330
7
100
AcDbDictionary
281
     1
  3
Imperial24
350
260B
  0
DICTIONARY
  5
1CA3
102
{ACAD_REACTORS
330
7
102
}
330
7
100
AcDbDictionary
281
     1
  3
Standard
350
1CA4
  0
DICTIONARY
  5
1C8E
102
{ACAD_REACTORS
330
7
102
}
330
7
100
AcDbDictionary
281
     1
  3
2dWireframe
350
1C94
  3
3D Hidden
350
1C96
  3
3dWireframe
350
1C95
  3
Basic
350
1C93
  3
Brighten
350
1C9A
  3
ColorChange
350
1C9E
  3
Conceptual
350
1C97
  3
Dim
350
1C99
  3
EdgeColorOff
350
1CA1
  3
Facepattern
350
1C9D
  3
Flat
350
1C8F
  3
FlatWithEdges
350
1C90
  3
Gouraud
350
1C91
  3
GouraudWithEdges
350
1C92
  3
Hidden
350
2604
  3
JitterOff
350
1C9F
  3
Linepattern
350
1C9C
  3
OverhangOff
350
1CA0
  3
Realistic
350
1C98
  3
Shaded
350
2609
  3
Shaded with edges
350
2608
  3
Shades of Gray
350
2605
  3
Sketchy
350
2606
  3
Thicken
350
1C9B
  3
Wireframe
350
2603
  3
X-Ray
350
2607
  0
XRECORD
  5
480
102
{ACAD_REACTORS
330
7
102
}
330
7
100
AcDbXrecord
280
     1
 90
   990106
  3

 60
     0
 61
     0
 62
     1
 63
     3
 64
     1
 65
     0
 66
     0
 67
     3
 68
     1
 69
     0
 70
     0
 71
     0
 72
     0
 40
0.0
170
     2
340
0
  0
XRECORD
  5
38A6
102
{ACAD_REACTORS
330
7
102
}
330
7
100
AcDbXrecord
280
     1
 90
        1
330
1CA4
  0
DICTIONARY
  5
102
102
{ACAD_REACTORS
330
7
102
}
330
7
100
AcDbDictionary
281
     1
  3
CANNOSCALE
350
1E06
  3
CMLEADERSTYLE
350
1E05
  3
CTABLESTYLE
350
1E04
  3
CVIEWDETAILSTYLE
350
2DEE
  3
CVIEWSECTIONSTYLE
350
2DEF
  3
DIMASSOC
350
103
  3
INDEXCTL
350
1E08
  3
LAYEREVAL
350
301D
  3
LAYERNOTIFY
350
301E
  3
LIGHTINGUNITS
350
301C
  3
MSLTSCALE
350
301B
  3
SORTENTS
350
1E07
  3
XCLIPFRAME
350
38A4
  0
XRECORD
  5
38A7
102
{ACAD_REACTORS
330
7
102
}
330
7
100
AcDbXrecord
280
     1
  1
DWGPROPS COOKIE
  2

  3

  4

  6

  7

  8
ykitaga
  9

300
=
301
=
302
=
303
=
304
=
305
=
306
=
307
=
308
=
309
=
 40
0.3463156713
 41
2453557.746342593
 42
2460164.367384259
  1

 90
        0
  0
DICTIONARY
  5
1CCF
102
{ACAD_REACTORS
330
1CCE
102
}
330
1CCE
100
AcDbDictionary
281
     1
  0
XRECORD
  5
1D99
102
{ACAD_REACTORS
330
1D98
102
}
330
1D98
100
AcDbXrecord
280
     1
290
     1
  0
XRECORD
  5
1D9B
102
{ACAD_REACTORS
330
1D9A
102
}
330
1D9A
100
AcDbXrecord
280
     1
290
     1
  0
XRECORD
  5
1DA1
102
{ACAD_REACTORS
330
1DA0
102
}
330
1DA0
100
AcDbXrecord
280
     1
290
     1
  0
XRECORD
  5
1DA3
102
{ACAD_REACTORS
330
1DA2
102
}
330
1DA2
100
AcDbXrecord
280
     1
290
     1
  0
XRECORD
  5
1DA8
102
{ACAD_REACTORS
330
1CCC
102
}
330
1CCC
100
AcDbXrecord
280
     1
290
     1
  0
SORTENTSTABLE
  5
33AD
102
{ACAD_REACTORS
330
33AC
102
}
330
33AC
100
AcDbSortentsTable
330
33AB
  0
SORTENTSTABLE
  5
3495
102
{ACAD_REACTORS
330
3494
102
}
330
3494
100
AcDbSortentsTable
330
3493
  0
SORTENTSTABLE
  5
3534
102
{ACAD_REACTORS
330
3533
102
}
330
3533
100
AcDbSortentsTable
330
3532
  0
SORTENTSTABLE
  5
35B3
102
{ACAD_REACTORS
330
35B2
102
}
330
35B2
100
AcDbSortentsTable
330
35B1
  0
ACDBDETAILVIEWSTYLE
  5
260D
102
{ACAD_XDICTIONARY
360
38F4
102
}
102
{ACAD_REACTORS
330
260C
102
}
330
260C
100
AcDbModelDocViewStyle
 70
     0
  3
Imperial24
290
     0
100
AcDbDetailViewStyle
 70
     0
 71
     0
 90
        3
 71
     1
340
16
 40
0.24
340
0
 40
0.24
300

 40
0.36
280
     3
 71
     2
340
8
 90
       25
 71
     3
340
16
 40
0.24
 90
        1
 40
0.75
 90
        1
300
%<\AcVar ViewType \f "%tc1">% %<\AcVar ViewDetailId>%\PSCALE %<\AcVar ViewScale \f "%sn">%
 71
     4
340
8
 90
       25
340
8
 90
       25
280
     0
  0
LAYOUT
  5
60
102
{ACAD_XDICTIONARY
360
38A8
102
}
102
{ACAD_REACTORS
330
61
102
}
330
61
100
AcDbPlotSettings
  1

  2
Canon LBP-1420
  4
A4
  6

 40
5.873749733
 41
5.8737478256
 42
5.8737487793
 43
5.8737487793
 44
209.9733276367
 45
296.925994873
 46
0.0
 47
5.37
 48
0.0
 49
0.0
140
0.0
141
0.0
142
1.0
143
0.088099941
 70
 11956
 72
     1
 73
     1
 74
     1
  7
Sekkei.ctb
 75
     0
147
11.3507453947
148
-88.9740150773
149
-101.3630682339
100
AcDbLayout
  1
Model
 70
     1
 71
     0
 10
0.0
 20
0.0
 11
12.0
 21
9.0
 12
0.0
 22
0.0
 32
0.0
 14
0.0
 24
0.0
 34
0.0
 15
0.0
 25
0.0
 35
0.0
146
0.0
 13
0.0
 23
0.0
 33
0.0
 16
1.0
 26
0.0
 36
0.0
 17
0.0
 27
1.0
 37
0.0
 76
     0
330
2
331
1C73
  0
LAYOUT
  5
38A0
102
{ACAD_XDICTIONARY
360
3906
102
}
102
{ACAD_REACTORS
330
61
102
}
330
61
100
AcDbPlotSettings
  1

  2
LBP8610
  4

  6

 40
0.0
 41
0.0
 42
0.0
 43
0.0
 44
0.0
 45
0.0
 46
0.0
 47
0.0
 48
0.0
 49
0.0
140
0.0
141
0.0
142
1.0
143
1.0
 70
   688
 72
     0
 73
     0
 74
     5
  7

 75
    16
147
1.0
148
0.0
149
0.0
100
AcDbLayout
  1
レイアウト1
 70
     1
 71
     1
 10
0.0
 20
0.0
 11
12.0
 21
9.0
 12
0.0
 22
0.0
 32
0.0
 14
0.0
 24
0.0
 34
0.0
 15
0.0
 25
0.0
 35
0.0
146
0.0
 13
0.0
 23
0.0
 33
0.0
 16
1.0
 26
0.0
 36
0.0
 17
0.0
 27
1.0
 37
0.0
 76
     0
330
389F
  0
MATERIAL
  5
1C7E
102
{ACAD_XDICTIONARY
360
1C7F
102
}
102
{ACAD_REACTORS
330
1C75
102
}
330
1C75
100
AcDbMaterial
  1
ByBlock
 72
     0
 43
0.0208333333
 43
0.0
 43
0.0
 43
0.0
 43
0.0
 43
0.0208333333
 43
0.0
 43
0.0
 43
0.0
 43
0.0
 43
1.0
 43
0.0
 43
0.0
 43
0.0
 43
0.0
 43
1.0
 77
     0
 47
0.0208333333
 47
0.0
 47
0.0
 47
0.0
 47
0.0
 47
0.0208333333
 47
0.0
 47
0.0
 47
0.0
 47
0.0
 47
1.0
 47
0.0
 47
0.0
 47
0.0
 47
0.0
 47
1.0
171
     0
 49
0.0208333333
 49
0.0
 49
0.0
 49
0.0
 49
0.0
 49
0.0208333333
 49
0.0
 49
0.0
 49
0.0
 49
0.0
 49
1.0
 49
0.0
 49
0.0
 49
0.0
 49
0.0
 49
1.0
175
     0
142
0.0208333333
142
0.0
142
0.0
142
0.0
142
0.0
142
0.0208333333
142
0.0
142
0.0
142
0.0
142
0.0
142
1.0
142
0.0
142
0.0
142
0.0
142
0.0
142
1.0
179
     0
144
0.0208333333
144
0.0
144
0.0
144
0.0
144
0.0
144
0.0208333333
144
0.0
144
0.0
144
0.0
144
0.0
144
1.0
144
0.0
144
0.0
144
0.0
144
0.0
144
1.0
147
0.0208333333
147
0.0
147
0.0
147
0.0
147
0.0
147
0.0208333333
147
0.0
147
0.0
147
0.0
147
0.0
147
1.0
147
0.0
147
0.0
147
0.0
147
0.0
147
1.0
  0
MATERIAL
  5
1C76
102
{ACAD_XDICTIONARY
360
1C77
102
}
102
{ACAD_REACTORS
330
1C75
102
}
330
1C75
100
AcDbMaterial
  1
ByLayer
 72
     0
 43
0.0208333333
 43
0.0
 43
0.0
 43
0.0
 43
0.0
 43
0.0208333333
 43
0.0
 43
0.0
 43
0.0
 43
0.0
 43
1.0
 43
0.0
 43
0.0
 43
0.0
 43
0.0
 43
1.0
 77
     0
 47
0.0208333333
 47
0.0
 47
0.0
 47
0.0
 47
0.0
 47
0.0208333333
 47
0.0
 47
0.0
 47
0.0
 47
0.0
 47
1.0
 47
0.0
 47
0.0
 47
0.0
 47
0.0
 47
1.0
171
     0
 49
0.0208333333
 49
0.0
 49
0.0
 49
0.0
 49
0.0
 49
0.0208333333
 49
0.0
 49
0.0
 49
0.0
 49
0.0
 49
1.0
 49
0.0
 49
0.0
 49
0.0
 49
0.0
 49
1.0
175
     0
142
0.0208333333
142
0.0
142
0.0
142
0.0
142
0.0
142
0.0208333333
142
0.0
142
0.0
142
0.0
142
0.0
142
1.0
142
0.0
142
0.0
142
0.0
142
0.0
142
1.0
179
     0
144
0.0208333333
144
0.0
144
0.0
144
0.0
144
0.0
144
0.0208333333
144
0.0
144
0.0
144
0.0
144
0.0
144
1.0
144
0.0
144
0.0
144
0.0
144
0.0
144
1.0
147
0.0208333333
147
0.0
147
0.0
147
0.0
147
0.0
147
0.0208333333
147
0.0
147
0.0
147
0.0
147
0.0
147
1.0
147
0.0
147
0.0
147
0.0
147
0.0
147
1.0
  0
MATERIAL
  5
1C86
102
{ACAD_XDICTIONARY
360
1C87
102
}
102
{ACAD_REACTORS
330
1C75
102
}
330
1C75
100
AcDbMaterial
  1
Global
 72
     0
 43
0.0208333333
 43
0.0
 43
0.0
 43
0.0
 43
0.0
 43
0.0208333333
 43
0.0
 43
0.0
 43
0.0
 43
0.0
 43
1.0
 43
0.0
 43
0.0
 43
0.0
 43
0.0
 43
1.0
 77
     0
 47
0.0208333333
 47
0.0
 47
0.0
 47
0.0
 47
0.0
 47
0.0208333333
 47
0.0
 47
0.0
 47
0.0
 47
0.0
 47
1.0
 47
0.0
 47
0.0
 47
0.0
 47
0.0
 47
1.0
171
     0
 49
0.0208333333
 49
0.0
 49
0.0
 49
0.0
 49
0.0
 49
0.0208333333
 49
0.0
 49
0.0
 49
0.0
 49
0.0
 49
1.0
 49
0.0
 49
0.0
 49
0.0
 49
0.0
 49
1.0
175
     0
142
0.0208333333
142
0.0
142
0.0
142
0.0
142
0.0
142
0.0208333333
142
0.0
142
0.0
142
0.0
142
0.0
142
1.0
142
0.0
142
0.0
142
0.0
142
0.0
142
1.0
179
     0
144
0.0208333333
144
0.0
144
0.0
144
0.0
144
0.0
144
0.0208333333
144
0.0
144
0.0
144
0.0
144
0.0
144
1.0
144
0.0
144
0.0
144
0.0
144
0.0
144
1.0
147
0.0208333333
147
0.0
147
0.0
147
0.0
147
0.0
147
0.0208333333
147
0.0
147
0.0
147
0.0
147
0.0
147
1.0
147
0.0
147
0.0
147
0.0
147
0.0
147
1.0
  0
MLEADERSTYLE
  5
1CC8
102
{ACAD_REACTORS
330
1CC7
102
}
330
1CC7
100
AcDbMLeaderStyle
170
     2
171
     1
172
     0
 90
        2
 40
0.0
 41
0.0
173
     1
 91
-1056964608
340
6A
 92
       -2
290
     1
 42
0.09
291
     1
 43
0.36
  3
Standard
 44
0.18
300

342
16
174
     1
178
     6
175
     1
176
     0
 93
-1056964608
 45
0.18
292
     0
297
     0
 46
0.18
 94
-1056964608
 47
1.0
 49
1.0
140
1.0
293
     1
141
0.0
294
     1
177
     0
142
1.0
295
     0
296
     0
143
0.125
1001
ACAD_MLEADERVER
1070
     2
  0
MLINESTYLE
  5
78
102
{ACAD_REACTORS
330
76
102
}
330
76
100
AcDbMlineStyle
  2
STANDARD
 70
     0
  3

 62
     0
 51
90.0
 52
90.0
 71
     2
 49
0.5
 62
   256
  6
BYLAYER
 49
-0.5
 62
   256
  6
BYLAYER
  0
ACDBPLACEHOLDER
  5
5
102
{ACAD_REACTORS
330
6
102
}
330
6
  0
SCALE
  5
1CA6
102
{ACAD_REACTORS
330
1CA5
102
}
330
1CA5
100
AcDbScale
 70
     0
300
1:1
140
1.0
141
1.0
290
     1
  0
SCALE
  5
1CA7
102
{ACAD_REACTORS
330
1CA5
102
}
330
1CA5
100
AcDbScale
 70
     0
300
1:2
140
1.0
141
2.0
290
     0
  0
SCALE
  5
1CA8
102
{ACAD_REACTORS
330
1CA5
102
}
330
1CA5
100
AcDbScale
 70
     0
300
1:4
140
1.0
141
4.0
290
     0
  0
SCALE
  5
1CA9
102
{ACAD_REACTORS
330
1CA5
102
}
330
1CA5
100
AcDbScale
 70
     0
300
1:5
140
1.0
141
5.0
290
     0
  0
SCALE
  5
1CAA
102
{ACAD_REACTORS
330
1CA5
102
}
330
1CA5
100
AcDbScale
 70
     0
300
1:8
140
1.0
141
8.0
290
     0
  0
SCALE
  5
1CAB
102
{ACAD_REACTORS
330
1CA5
102
}
330
1CA5
100
AcDbScale
 70
     0
300
1:10
140
1.0
141
10.0
290
     0
  0
SCALE
  5
1CAC
102
{ACAD_REACTORS
330
1CA5
102
}
330
1CA5
100
AcDbScale
 70
     0
300
1:16
140
1.0
141
16.0
290
     0
  0
SCALE
  5
1CAD
102
{ACAD_REACTORS
330
1CA5
102
}
330
1CA5
100
AcDbScale
 70
     0
300
1:20
140
1.0
141
20.0
290
     0
  0
SCALE
  5
1CAE
102
{ACAD_REACTORS
330
1CA5
102
}
330
1CA5
100
AcDbScale
 70
     0
300
1:30
140
1.0
141
30.0
290
     0
  0
SCALE
  5
1CAF
102
{ACAD_REACTORS
330
1CA5
102
}
330
1CA5
100
AcDbScale
 70
     0
300
1:40
140
1.0
141
40.0
290
     0
  0
SCALE
  5
1CB0
102
{ACAD_REACTORS
330
1CA5
102
}
330
1CA5
100
AcDbScale
 70
     0
300
1:50
140
1.0
141
50.0
290
     0
  0
SCALE
  5
1CB1
102
{ACAD_REACTORS
330
1CA5
102
}
330
1CA5
100
AcDbScale
 70
     0
300
1:100
140
1.0
141
100.0
290
     0
  0
SCALE
  5
1CB2
102
{ACAD_REACTORS
330
1CA5
102
}
330
1CA5
100
AcDbScale
 70
     0
300
2:1
140
2.0
141
1.0
290
     0
  0
SCALE
  5
1CB3
102
{ACAD_REACTORS
330
1CA5
102
}
330
1CA5
100
AcDbScale
 70
     0
300
4:1
140
4.0
141
1.0
290
     0
  0
SCALE
  5
1CB4
102
{ACAD_REACTORS
330
1CA5
102
}
330
1CA5
100
AcDbScale
 70
     0
300
8:1
140
8.0
141
1.0
290
     0
  0
SCALE
  5
1CB5
102
{ACAD_REACTORS
330
1CA5
102
}
330
1CA5
100
AcDbScale
 70
     0
300
10:1
140
10.0
141
1.0
290
     0
  0
SCALE
  5
1CB6
102
{ACAD_REACTORS
330
1CA5
102
}
330
1CA5
100
AcDbScale
 70
     0
300
100:1
140
100.0
141
1.0
290
     0
  0
SCALE
  5
1CB7
102
{ACAD_REACTORS
330
1CA5
102
}
330
1CA5
100
AcDbScale
 70
     0
300
1/128" = 1'-0"
140
0.0078125
141
12.0
290
     0
  0
SCALE
  5
1CB8
102
{ACAD_REACTORS
330
1CA5
102
}
330
1CA5
100
AcDbScale
 70
     0
300
1/64" = 1'-0"
140
0.015625
141
12.0
290
     0
  0
SCALE
  5
1CB9
102
{ACAD_REACTORS
330
1CA5
102
}
330
1CA5
100
AcDbScale
 70
     0
300
1/32" = 1'-0"
140
0.03125
141
12.0
290
     0
  0
SCALE
  5
1CBA
102
{ACAD_REACTORS
330
1CA5
102
}
330
1CA5
100
AcDbScale
 70
     0
300
1/16" = 1'-0"
140
0.0625
141
12.0
290
     0
  0
SCALE
  5
1CBB
102
{ACAD_REACTORS
330
1CA5
102
}
330
1CA5
100
AcDbScale
 70
     0
300
3/32" = 1'-0"
140
0.09375
141
12.0
290
     0
  0
SCALE
  5
1CBC
102
{ACAD_REACTORS
330
1CA5
102
}
330
1CA5
100
AcDbScale
 70
     0
300
1/8" = 1'-0"
140
0.125
141
12.0
290
     0
  0
SCALE
  5
1CBD
102
{ACAD_REACTORS
330
1CA5
102
}
330
1CA5
100
AcDbScale
 70
     0
300
3/16" = 1'-0"
140
0.1875
141
12.0
290
     0
  0
SCALE
  5
1CBE
102
{ACAD_REACTORS
330
1CA5
102
}
330
1CA5
100
AcDbScale
 70
     0
300
1/4" = 1'-0"
140
0.25
141
12.0
290
     0
  0
SCALE
  5
1CBF
102
{ACAD_REACTORS
330
1CA5
102
}
330
1CA5
100
AcDbScale
 70
     0
300
3/8" = 1'-0"
140
0.375
141
12.0
290
     0
  0
SCALE
  5
1CC0
102
{ACAD_REACTORS
330
1CA5
102
}
330
1CA5
100
AcDbScale
 70
     0
300
1/2" = 1'-0"
140
0.5
141
12.0
290
     0
  0
SCALE
  5
1CC1
102
{ACAD_REACTORS
330
1CA5
102
}
330
1CA5
100
AcDbScale
 70
     0
300
3/4" = 1'-0"
140
0.75
141
12.0
290
     0
  0
SCALE
  5
1CC2
102
{ACAD_REACTORS
330
1CA5
102
}
330
1CA5
100
AcDbScale
 70
     0
300
1" = 1'-0"
140
1.0
141
12.0
290
     0
  0
SCALE
  5
1CC3
102
{ACAD_REACTORS
330
1CA5
102
}
330
1CA5
100
AcDbScale
 70
     0
300
1-1/2" = 1'-0"
140
1.5
141
12.0
290
     0
  0
SCALE
  5
1CC4
102
{ACAD_REACTORS
330
1CA5
102
}
330
1CA5
100
AcDbScale
 70
     0
300
3" = 1'-0"
140
3.0
141
12.0
290
     0
  0
SCALE
  5
1CC5
102
{ACAD_REACTORS
330
1CA5
102
}
330
1CA5
100
AcDbScale
 70
     0
300
6" = 1'-0"
140
6.0
141
12.0
290
     0
  0
SCALE
  5
1CC6
102
{ACAD_REACTORS
330
1CA5
102
}
330
1CA5
100
AcDbScale
 70
     0
300
1'-0" = 1'-0"
140
12.0
141
12.0
290
     0
  0
ACDBSECTIONVIEWSTYLE
  5
260B
102
{ACAD_XDICTIONARY
360
38F2
102
}
102
{ACAD_REACTORS
330
260A
102
}
330
260A
100
AcDbModelDocViewStyle
 70
     0
  3
Imperial24
290
     0
100
AcDbSectionViewStyle
 70
     0
 71
     0
 90
       78
 71
     1
340
16
 40
0.24
340
0
340
0
 40
0.24
300
I, O, Q, S, X, Z
 40
0.48
 90
        3
 40
0.18
 90
        1
 71
     2
340
8
 90
       25
340
8
 90
       50
 40
0.24
 40
0.0
 40
0.24
 71
     3
340
16
 40
0.24
 90
        1
 40
0.75
 90
        1
300
%<\AcVar ViewType \f "%tc1">% %<\AcVar ViewSectionStartId>%-%<\AcVar ViewSectionEndId>%\PSCALE %<\AcVar ViewScale \f "%sn">%
 71
     4
300
ANSI31
 40
1.0
 90
        0
290
     0
290
     0
 90
        6
 40
0.0
 40
1.5707963268
 40
0.2617993878
 40
1.308996939
 40
-0.2617993878
 40
1.8325957146
  0
TABLESTYLE
  5
1CA4
102
{ACAD_XDICTIONARY
360
1DA9
102
}
102
{ACAD_REACTORS
330
1CA3
102
}
330
1CA3
100
AcDbTableStyle
  3
Standard
 70
     0
 71
     0
 40
0.06
 41
0.06
280
     0
281
     0
  7
STANDARD
140
0.18
170
     2
 62
     0
 63
     7
283
     0
274
    -2
284
     1
 64
     0
275
    -2
285
     1
 65
     0
276
    -2
286
     1
 66
     0
277
    -2
287
     1
 67
     0
278
    -2
288
     1
 68
     0
279
    -2
289
     1
 69
     0
  7
STANDARD
140
0.25
170
     5
 62
     0
 63
     7
283
     0
274
    -2
284
     1
 64
     0
275
    -2
285
     1
 65
     0
276
    -2
286
     1
 66
     0
277
    -2
287
     1
 67
     0
278
    -2
288
     1
 68
     0
279
    -2
289
     1
 69
     0
  7
STANDARD
140
0.18
170
     5
 62
     0
 63
     7
283
     0
274
    -2
284
     1
 64
     0
275
    -2
285
     1
 65
     0
276
    -2
286
     1
 66
     0
277
    -2
287
     1
 67
     0
278
    -2
288
     1
 68
     0
279
    -2
289
     1
 69
     0
  0
VISUALSTYLE
  5
1C94
102
{ACAD_XDICTIONARY
360
38B7
102
}
102
{ACAD_REACTORS
330
1C8E
102
}
330
1C8E
100
AcDbVisualStyle
  2

 70
     4
 71
     0
 72
     2
 73
     0
 90
        0
 40
-0.6
 41
-30.0
 62
     5
 63
     7
 74
     1
 91
        4
 64
     7
 65
   257
 75
     1
175
     1
 42
1.0
 92
        0
 66
   257
 43
1.0
 76
     1
 77
     6
 78
     2
 67
     7
 79
     5
170
     0
171
     0
290
     0
174
     0
 93
        1
 44
0.0
173
     0
291
     0
 45
0.0
1001
ACAD
1000
AcDbSavedByObjectVersion
1070
     0
  0
VISUALSTYLE
  5
1C96
102
{ACAD_XDICTIONARY
360
38BB
102
}
102
{ACAD_REACTORS
330
1C8E
102
}
330
1C8E
100
AcDbVisualStyle
  2

 70
     6
 71
     1
 72
     2
 73
     2
 90
        0
 40
-0.6
 41
-30.0
 62
     5
 63
     7
 74
     2
 91
        2
 64
     7
 65
   257
 75
     2
175
     1
 42
179.0
 92
        0
 66
   257
 43
1.0
 76
     1
 77
     6
 78
     2
 67
     7
 79
     3
170
     0
171
     0
290
     0
174
     0
 93
        1
 44
0.0
173
     0
291
     0
 45
0.0
1001
ACAD
1000
AcDbSavedByObjectVersion
1070
     0
  0
VISUALSTYLE
  5
1C95
102
{ACAD_XDICTIONARY
360
38B9
102
}
102
{ACAD_REACTORS
330
1C8E
102
}
330
1C8E
100
AcDbVisualStyle
  2

 70
     5
 71
     0
 72
     2
 73
     0
 90
        0
 40
-0.6
 41
-30.0
 62
     5
 63
     7
 74
     1
 91
        4
 64
     7
 65
   257
 75
     1
175
     1
 42
1.0
 92
        0
 66
   257
 43
1.0
 76
     1
 77
     6
 78
     2
 67
     7
 79
     5
170
     0
171
     0
290
     0
174
     0
 93
        1
 44
0.0
173
     0
291
     0
 45
0.0
1001
ACAD
1000
AcDbSavedByObjectVersion
1070
     0
  0
VISUALSTYLE
  5
1C93
102
{ACAD_XDICTIONARY
360
38B5
102
}
102
{ACAD_REACTORS
330
1C8E
102
}
330
1C8E
100
AcDbVisualStyle
  2

 70
     7
 71
     1
 72
     0
 73
     1
 90
        0
 40
-0.6
 41
-30.0
 62
     5
 63
     7
 74
     0
 91
        4
 64
     7
 65
   257
 75
     1
175
     1
 42
1.0
 92
        8
 66
     7
 43
1.0
 76
     1
 77
     6
 78
     2
 67
     7
 79
     5
170
     0
171
     0
290
     0
174
     0
 93
        1
 44
0.0
173
     0
291
     1
 45
0.0
1001
ACAD
1000
AcDbSavedByObjectVersion
1070
     0
  0
VISUALSTYLE
  5
1C9A
102
{ACAD_XDICTIONARY
360
38C3
102
}
102
{ACAD_REACTORS
330
1C8E
102
}
330
1C8E
100
AcDbVisualStyle
  2

 70
    12
 71
     2
 72
     2
 73
     0
 90
        0
 40
-0.6
 41
-30.0
 62
     5
 63
     7
 74
     1
 91
        4
 64
     7
 65
   257
 75
     1
175
     1
 42
1.0
 92
        8
 66
     7
 43
1.0
 76
     1
 77
     6
 78
     2
 67
     7
 79
     5
170
     0
171
     0
290
     0
174
     0
 93
        1
 44
50.0
173
     0
291
     1
 45
0.0
1001
ACAD
1000
AcDbSavedByObjectVersion
1070
     0
  0
VISUALSTYLE
  5
1C9E
102
{ACAD_XDICTIONARY
360
38CB
102
}
102
{ACAD_REACTORS
330
1C8E
102
}
330
1C8E
100
AcDbVisualStyle
  2

 70
    16
 71
     2
 72
     2
 73
     3
 90
        0
 40
-0.6
 41
-30.0
 62
     5
 63
     8
 74
     1
 91
        4
 64
     7
 65
   257
 75
     1
175
     1
 42
1.0
 92
        8
 66
     8
 43
1.0
 76
     1
 77
     6
 78
     2
 67
     7
 79
     5
170
     0
171
     0
290
     0
174
     0
 93
        1
 44
0.0
173
     0
291
     1
 45
0.0
1001
ACAD
1000
AcDbSavedByObjectVersion
1070
     0
  0
VISUALSTYLE
  5
1C97
102
{ACAD_XDICTIONARY
360
38BD
102
}
102
{ACAD_REACTORS
330
1C8E
102
}
330
1C8E
100
AcDbVisualStyle
  2

 70
     9
 71
     3
 72
     2
 73
     0
 90
        0
 40
-0.6
 41
-30.0
 62
     5
 63
     7
 74
     2
 91
        2
 64
     7
 65
   257
 75
     1
175
     1
 42
179.0
 92
        8
 66
     7
 43
1.0
 76
     1
 77
     6
 78
     2
 67
     7
 79
     3
170
     0
171
     0
290
     0
174
     0
 93
        1
 44
0.0
173
     0
291
     0
 45
0.0
1001
ACAD
1000
AcDbSavedByObjectVersion
1070
     0
  0
VISUALSTYLE
  5
1C99
102
{ACAD_XDICTIONARY
360
38C1
102
}
102
{ACAD_REACTORS
330
1C8E
102
}
330
1C8E
100
AcDbVisualStyle
  2

 70
    11
 71
     2
 72
     2
 73
     0
 90
        0
 40
-0.6
 41
-30.0
 62
     5
 63
     7
 74
     1
 91
        4
 64
     7
 65
   257
 75
     1
175
     1
 42
1.0
 92
        8
 66
     7
 43
1.0
 76
     1
 77
     6
 78
     2
 67
     7
 79
     5
170
     0
171
     0
290
     0
174
     0
 93
        1
 44
-50.0
173
     0
291
     1
 45
0.0
1001
ACAD
1000
AcDbSavedByObjectVersion
1070
     0
  0
VISUALSTYLE
  5
1CA1
102
{ACAD_XDICTIONARY
360
38D1
102
}
102
{ACAD_REACTORS
330
1C8E
102
}
330
1C8E
100
AcDbVisualStyle
  2

 70
    22
 71
     2
 72
     2
 73
     0
 90
        0
 40
-0.6
 41
-30.0
 62
     5
 63
     7
 74
     1
 91
        4
 64
     7
 65
   257
 75
     1
175
     1
 42
1.0
 92
        8
 66
     7
 43
1.0
 76
     1
 77
     6
 78
     2
 67
     7
 79
     5
170
     0
171
     0
290
     0
174
     0
 93
        1
 44
0.0
173
     0
291
     1
 45
0.0
1001
ACAD
1000
AcDbSavedByObjectVersion
1070
     0
  0
VISUALSTYLE
  5
1C9D
102
{ACAD_XDICTIONARY
360
38C9
102
}
102
{ACAD_REACTORS
330
1C8E
102
}
330
1C8E
100
AcDbVisualStyle
  2

 70
    15
 71
     2
 72
     2
 73
     0
 90
        0
 40
-0.6
 41
-30.0
 62
     5
 63
     7
 74
     1
 91
        4
 64
     7
 65
   257
 75
     1
175
     1
 42
1.0
 92
        8
 66
     7
 43
1.0
 76
     1
 77
     6
 78
     2
 67
     7
 79
     5
170
     0
171
     0
290
     0
174
     0
 93
        1
 44
0.0
173
     0
291
     1
 45
0.0
1001
ACAD
1000
AcDbSavedByObjectVersion
1070
     0
  0
VISUALSTYLE
  5
1C8F
102
{ACAD_XDICTIONARY
360
38AD
102
}
102
{ACAD_REACTORS
330
1C8E
102
}
330
1C8E
100
AcDbVisualStyle
  2

 70
     0
 71
     2
 72
     1
 73
     1
 90
        2
 40
-0.6
 41
30.0
 62
     5
 63
     7
 74
     0
 91
        4
 64
     7
 65
   257
 75
     1
175
     1
 42
1.0
 92
        8
 66
     7
 43
1.0
 76
     1
 77
     6
 78
     2
 67
     7
 79
     5
170
     0
171
     0
290
     0
174
     0
 93
       13
 44
0.0
173
     0
291
     1
 45
0.0
1001
ACAD
1000
AcDbSavedByObjectVersion
1070
     0
  0
VISUALSTYLE
  5
1C90
102
{ACAD_XDICTIONARY
360
38AF
102
}
102
{ACAD_REACTORS
330
1C8E
102
}
330
1C8E
100
AcDbVisualStyle
  2

 70
     1
 71
     2
 72
     1
 73
     1
 90
        2
 40
-0.6
 41
30.0
 62
     5
 63
     7
 74
     1
 91
        4
 64
     7
 65
   257
 75
     1
175
     1
 42
1.0
 92
        0
 66
   257
 43
1.0
 76
     1
 77
     6
 78
     2
 67
     7
 79
     5
170
     0
171
     0
290
     0
174
     0
 93
       13
 44
0.0
173
     0
291
     1
 45
0.0
1001
ACAD
1000
AcDbSavedByObjectVersion
1070
     0
  0
VISUALSTYLE
  5
1C91
102
{ACAD_XDICTIONARY
360
38B1
102
}
102
{ACAD_REACTORS
330
1C8E
102
}
330
1C8E
100
AcDbVisualStyle
  2

 70
     2
 71
     2
 72
     2
 73
     1
 90
        2
 40
-0.6
 41
30.0
 62
     5
 63
     7
 74
     0
 91
        4
 64
     7
 65
   257
 75
     1
175
     1
 42
1.0
 92
        0
 66
     7
 43
1.0
 76
     1
 77
     6
 78
     2
 67
     7
 79
     5
170
     0
171
     0
290
     0
174
     0
 93
       13
 44
0.0
173
     0
291
     1
 45
0.0
1001
ACAD
1000
AcDbSavedByObjectVersion
1070
     0
  0
VISUALSTYLE
  5
1C92
102
{ACAD_XDICTIONARY
360
38B3
102
}
102
{ACAD_REACTORS
330
1C8E
102
}
330
1C8E
100
AcDbVisualStyle
  2

 70
     3
 71
     2
 72
     2
 73
     1
 90
        2
 40
-0.6
 41
30.0
 62
     5
 63
     7
 74
     1
 91
        4
 64
     7
 65
   257
 75
     1
175
     1
 42
1.0
 92
        0
 66
   257
 43
1.0
 76
     1
 77
     6
 78
     2
 67
     7
 79
     5
170
     0
171
     0
290
     0
174
     0
 93
       13
 44
0.0
173
     0
291
     1
 45
0.0
1001
ACAD
1000
AcDbSavedByObjectVersion
1070
     0
  0
VISUALSTYLE
  5
2604
102
{ACAD_XDICTIONARY
360
38E6
102
}
102
{ACAD_REACTORS
330
1C8E
102
}
330
1C8E
100
AcDbVisualStyle
  2

 70
     6
 71
     1
 72
     2
 73
     2
 90
        0
 40
-0.6
 41
-30.0
 62
     5
 63
     7
 74
     2
 91
        2
 64
     7
 65
   257
 75
     2
175
     1
 42
40.0
 92
        0
 66
   257
 43
1.0
 76
     1
 77
     6
 78
     2
 67
     7
 79
     3
170
     0
171
     0
290
     0
174
     0
 93
        1
 44
0.0
173
     0
291
     0
 45
0.0
1001
ACAD
1000
AcDbSavedByObjectVersion
1070
     0
  0
VISUALSTYLE
  5
1C9F
102
{ACAD_XDICTIONARY
360
38CD
102
}
102
{ACAD_REACTORS
330
1C8E
102
}
330
1C8E
100
AcDbVisualStyle
  2

 70
    20
 71
     2
 72
     2
 73
     0
 90
        0
 40
-0.6
 41
-30.0
 62
     5
 63
     7
 74
     1
 91
        4
 64
     7
 65
   257
 75
     1
175
     1
 42
1.0
 92
       10
 66
     7
 43
1.0
 76
     1
 77
     6
 78
     2
 67
     7
 79
     5
170
     0
171
     0
290
     0
174
     0
 93
        1
 44
0.0
173
     0
291
     1
 45
0.0
1001
ACAD
1000
AcDbSavedByObjectVersion
1070
     0
  0
VISUALSTYLE
  5
1C9C
102
{ACAD_XDICTIONARY
360
38C7
102
}
102
{ACAD_REACTORS
330
1C8E
102
}
330
1C8E
100
AcDbVisualStyle
  2

 70
    14
 71
     2
 72
     2
 73
     0
 90
        0
 40
-0.6
 41
-30.0
 62
     5
 63
     7
 74
     1
 91
        4
 64
     7
 65
   257
 75
     7
175
     7
 42
1.0
 92
        8
 66
     7
 43
1.0
 76
     1
 77
     6
 78
     2
 67
     7
 79
     5
170
     0
171
     0
290
     0
174
     0
 93
        1
 44
0.0
173
     0
291
     1
 45
0.0
1001
ACAD
1000
AcDbSavedByObjectVersion
1070
     0
  0
VISUALSTYLE
  5
1CA0
102
{ACAD_XDICTIONARY
360
38CF
102
}
102
{ACAD_REACTORS
330
1C8E
102
}
330
1C8E
100
AcDbVisualStyle
  2

 70
    21
 71
     2
 72
     2
 73
     0
 90
        0
 40
-0.6
 41
-30.0
 62
     5
 63
     7
 74
     1
 91
        4
 64
     7
 65
   257
 75
     1
175
     1
 42
1.0
 92
        9
 66
     7
 43
1.0
 76
     1
 77
     6
 78
     2
 67
     7
 79
     5
170
     0
171
     0
290
     0
174
     0
 93
        1
 44
0.0
173
     0
291
     1
 45
0.0
1001
ACAD
1000
AcDbSavedByObjectVersion
1070
     0
  0
VISUALSTYLE
  5
1C98
102
{ACAD_XDICTIONARY
360
38BF
102
}
102
{ACAD_REACTORS
330
1C8E
102
}
330
1C8E
100
AcDbVisualStyle
  2

 70
     8
 71
     2
 72
     2
 73
     0
 90
        0
 40
-0.6
 41
-30.0
 62
     5
 63
     7
 74
     1
 91
        0
 64
     7
 65
   257
 75
     1
175
     1
 42
1.0
 92
        8
 66
     8
 43
1.0
 76
     1
 77
     6
 78
     2
 67
     7
 79
     5
170
     0
171
     0
290
     0
174
     0
 93
       13
 44
0.0
173
     0
291
     0
 45
0.0
1001
ACAD
1000
AcDbSavedByObjectVersion
1070
     0
  0
VISUALSTYLE
  5
2609
102
{ACAD_XDICTIONARY
360
38F0
102
}
102
{ACAD_REACTORS
330
1C8E
102
}
330
1C8E
100
AcDbVisualStyle
  2

 70
    27
 71
     2
 72
     2
 73
     1
 90
        2
 40
-0.6
 41
30.0
 62
     5
 63
     7
 74
     0
 91
        4
 64
     7
 65
   257
 75
     1
175
     1
 42
1.0
 92
        8
 66
   257
 43
1.0
 76
     1
 77
     6
 78
     2
 67
     8
 79
     3
170
     0
171
     0
290
     0
174
     0
 93
        5
 44
0.0
173
     0
291
     0
 45
0.0
1001
ACAD
1000
AcDbSavedByObjectVersion
1070
     0
  0
VISUALSTYLE
  5
2608
102
{ACAD_XDICTIONARY
360
38EE
102
}
102
{ACAD_REACTORS
330
1C8E
102
}
330
1C8E
100
AcDbVisualStyle
  2

 70
    26
 71
     2
 72
     2
 73
     1
 90
        2
 40
-0.6
 41
30.0
 62
     5
 63
     7
 74
     1
 91
        2
 64
     7
 65
   257
 75
     2
175
     1
 42
1.0
 92
        8
 66
   257
 43
1.0
 76
     1
 77
     6
 78
     2
 67
     7
 79
     3
170
     0
171
     0
290
     0
174
     0
 93
        5
 44
0.0
173
     0
291
     0
 45
0.0
1001
ACAD
1000
AcDbSavedByObjectVersion
1070
     0
  0
VISUALSTYLE
  5
2605
102
{ACAD_XDICTIONARY
360
38E8
102
}
102
{ACAD_REACTORS
330
1C8E
102
}
330
1C8E
100
AcDbVisualStyle
  2

 70
    23
 71
     2
 72
     2
 73
     3
 90
        0
 40
-0.6
 41
-30.0
 62
     5
 63
     7
 74
     2
 91
        2
 64
     7
 65
     7
 75
     1
175
     1
 42
40.0
 92
        8
 66
     7
 43
1.0
 76
     1
 77
     6
 78
     2
 67
     7
 79
     3
170
     0
171
     0
290
     0
174
     0
 93
        1
 44
0.0
173
     0
291
     0
 45
0.0
1001
ACAD
1000
AcDbSavedByObjectVersion
1070
     0
  0
VISUALSTYLE
  5
2606
102
{ACAD_XDICTIONARY
360
38EA
102
}
102
{ACAD_REACTORS
330
1C8E
102
}
330
1C8E
100
AcDbVisualStyle
  2

 70
    24
 71
     1
 72
     2
 73
     2
 90
        0
 40
-0.6
 41
-30.0
 62
     5
 63
     7
 74
     2
 91
        2
 64
     7
 65
     7
 75
     1
175
     1
 42
40.0
 92
       11
 66
     7
 43
1.0
 76
     1
 77
     6
 78
     2
 67
     7
 79
     6
170
     0
171
     0
290
     0
174
     0
 93
        1
 44
0.0
173
     0
291
     0
 45
0.0
1001
ACAD
1000
AcDbSavedByObjectVersion
1070
     0
  0
VISUALSTYLE
  5
1C9B
102
{ACAD_XDICTIONARY
360
38C5
102
}
102
{ACAD_REACTORS
330
1C8E
102
}
330
1C8E
100
AcDbVisualStyle
  2

 70
    13
 71
     2
 72
     2
 73
     0
 90
        0
 40
-0.6
 41
-30.0
 62
     5
 63
     7
 74
     1
 91
        4
 64
     7
 65
   257
 75
     1
175
     1
 42
1.0
 92
       12
 66
     7
 43
1.0
 76
     1
 77
     6
 78
     2
 67
     7
 79
     5
170
     0
171
     0
290
     0
174
     0
 93
        1
 44
0.0
173
     0
291
     1
 45
0.0
1001
ACAD
1000
AcDbSavedByObjectVersion
1070
     0
  0
VISUALSTYLE
  5
2603
102
{ACAD_XDICTIONARY
360
38E4
102
}
102
{ACAD_REACTORS
330
1C8E
102
}
330
1C8E
100
AcDbVisualStyle
  2

 70
     5
 71
     0
 72
     2
 73
     0
 90
        0
 40
-0.6
 41
-30.0
 62
     5
 63
     7
 74
     1
 91
        4
 64
     7
 65
   257
 75
     1
175
     1
 42
1.0
 92
        0
 66
   257
 43
1.0
 76
     1
 77
     6
 78
     2
 67
     7
 79
     3
170
     0
171
     0
290
     0
174
     0
 93
        1
 44
0.0
173
     0
291
     0
 45
0.0
1001
ACAD
1000
AcDbSavedByObjectVersion
1070
     0
  0
VISUALSTYLE
  5
2607
102
{ACAD_XDICTIONARY
360
38EC
102
}
102
{ACAD_REACTORS
330
1C8E
102
}
330
1C8E
100
AcDbVisualStyle
  2

 70
    25
 71
     2
 72
     2
 73
     1
 90
        1
 40
0.5
 41
-30.0
 62
     5
 63
     7
 74
     1
 91
        0
 64
     7
 65
   257
 75
     1
175
     1
 42
1.0
 92
        8
 66
     7
 43
1.0
 76
     1
 77
     6
 78
     2
 67
     7
 79
     3
170
     0
171
     0
290
     0
174
     0
 93
       13
 44
0.0
173
     0
291
     0
 45
0.0
1001
ACAD
1000
AcDbSavedByObjectVersion
1070
     0
  0
DICTIONARYVAR
  5
1E06
102
{ACAD_REACTORS
330
102
102
}
330
102
100
DictionaryVariables
280
     0
  1
1:1
  0
DICTIONARYVAR
  5
1E05
102
{ACAD_REACTORS
330
102
102
}
330
102
100
DictionaryVariables
280
     0
  1
STANDARD
  0
DICTIONARYVAR
  5
1E04
102
{ACAD_REACTORS
330
102
102
}
330
102
100
DictionaryVariables
280
     0
  1
STANDARD
  0
DICTIONARYVAR
  5
2DEE
102
{ACAD_REACTORS
330
102
102
}
330
102
100
DictionaryVariables
280
     0
  1
Imperial24
  0
DICTIONARYVAR
  5
2DEF
102
{ACAD_REACTORS
330
102
102
}
330
102
100
DictionaryVariables
280
     0
  1
Imperial24
  0
DICTIONARYVAR
  5
103
102
{ACAD_REACTORS
330
102
102
}
330
102
100
DictionaryVariables
280
     0
  1
1
  0
DICTIONARYVAR
  5
1E08
102
{ACAD_REACTORS
330
102
102
}
330
102
100
DictionaryVariables
280
     0
  1
0
  0
DICTIONARYVAR
  5
301D
102
{ACAD_REACTORS
330
102
102
}
330
102
100
DictionaryVariables
280
     0
  1
1
  0
DICTIONARYVAR
  5
301E
102
{ACAD_REACTORS
330
102
102
}
330
102
100
DictionaryVariables
280
     0
  1
15
  0
DICTIONARYVAR
  5
301C
102
{ACAD_REACTORS
330
102
102
}
330
102
100
DictionaryVariables
280
     0
  1
0
  0
DICTIONARYVAR
  5
301B
102
{ACAD_REACTORS
330
102
102
}
330
102
100
DictionaryVariables
280
     0
  1
0
  0
DICTIONARYVAR
  5
1E07
102
{ACAD_REACTORS
330
102
102
}
330
102
100
DictionaryVariables
280
     0
  1
127
  0
DICTIONARYVAR
  5
38A4
102
{ACAD_REACTORS
330
102
102
}
330
102
100
DictionaryVariables
280
     0
  1
2
  0
DICTIONARY
  5
38F4
330
260D
100
AcDbDictionary
280
     1
281
     1
  3
ACAD_XREC_ROUNDTRIP
360
38F5
  0
DICTIONARY
  5
38A8
330
60
100
AcDbDictionary
280
     1
281
     1
  3
ACAD_XREC_ROUNDTRIP
360
38A9
  0
DICTIONARY
  5
3906
330
38A0
100
AcDbDictionary
280
     1
281
     1
  3
ACAD_XREC_ROUNDTRIP
360
3907
  0
DICTIONARY
  5
1C7F
330
1C7E
100
AcDbDictionary
280
     1
281
     1
  3
ACAD_XREC_ROUNDTRIP
360
38AB
  3
BUMPTILE
360
1C81
  3
DIFFUSETILE
360
1C80
  3
OPACITYTILE
360
1C84
  3
REFLECTIONTILE
360
1C83
  3
REFRACTIONTILE
360
1C85
  3
SPECULARTILE
360
1C82
  0
DICTIONARY
  5
1C77
330
1C76
100
AcDbDictionary
280
     1
281
     1
  3
ACAD_XREC_ROUNDTRIP
360
38AA
  3
BUMPTILE
360
1C79
  3
DIFFUSETILE
360
1C78
  3
OPACITYTILE
360
1C7C
  3
REFLECTIONTILE
360
1C7B
  3
REFRACTIONTILE
360
1C7D
  3
SPECULARTILE
360
1C7A
  0
DICTIONARY
  5
1C87
330
1C86
100
AcDbDictionary
280
     1
281
     1
  3
ACAD_XREC_ROUNDTRIP
360
38AC
  3
BUMPTILE
360
1C89
  3
DIFFUSETILE
360
1C88
  3
OPACITYTILE
360
1C8C
  3
REFLECTIONTILE
360
1C8B
  3
REFRACTIONTILE
360
1C8D
  3
SPECULARTILE
360
1C8A
  0
DICTIONARY
  5
38F2
330
260B
100
AcDbDictionary
280
     1
281
     1
  3
ACAD_XREC_ROUNDTRIP
360
38F3
  0
DICTIONARY
  5
1DA9
330
1CA4
100
AcDbDictionary
280
     1
281
     1
  3
ACAD_ROUNDTRIP_2008_TABLESTYLE_CELLSTYLEMAP
360
38A5
  3
ACAD_XREC_ROUNDTRIP
360
38D3
  0
DICTIONARY
  5
38B7
330
1C94
100
AcDbDictionary
280
     1
281
     1
  3
ACAD_XREC_ROUNDTRIP
360
38B8
  0
DICTIONARY
  5
38BB
330
1C96
100
AcDbDictionary
280
     1
281
     1
  3
ACAD_XREC_ROUNDTRIP
360
38BC
  0
DICTIONARY
  5
38B9
330
1C95
100
AcDbDictionary
280
     1
281
     1
  3
ACAD_XREC_ROUNDTRIP
360
38BA
  0
DICTIONARY
  5
38B5
330
1C93
100
AcDbDictionary
280
     1
281
     1
  3
ACAD_XREC_ROUNDTRIP
360
38B6
  0
DICTIONARY
  5
38C3
330
1C9A
100
AcDbDictionary
280
     1
281
     1
  3
ACAD_XREC_ROUNDTRIP
360
38C4
  0
DICTIONARY
  5
38CB
330
1C9E
100
AcDbDictionary
280
     1
281
     1
  3
ACAD_XREC_ROUNDTRIP
360
38CC
  0
DICTIONARY
  5
38BD
330
1C97
100
AcDbDictionary
280
     1
281
     1
  3
ACAD_XREC_ROUNDTRIP
360
38BE
  0
DICTIONARY
  5
38C1
330
1C99
100
AcDbDictionary
280
     1
281
     1
  3
ACAD_XREC_ROUNDTRIP
360
38C2
  0
DICTIONARY
  5
38D1
330
1CA1
100
AcDbDictionary
280
     1
281
     1
  3
ACAD_XREC_ROUNDTRIP
360
38D2
  0
DICTIONARY
  5
38C9
330
1C9D
100
AcDbDictionary
280
     1
281
     1
  3
ACAD_XREC_ROUNDTRIP
360
38CA
  0
DICTIONARY
  5
38AD
330
1C8F
100
AcDbDictionary
280
     1
281
     1
  3
ACAD_XREC_ROUNDTRIP
360
38AE
  0
DICTIONARY
  5
38AF
330
1C90
100
AcDbDictionary
280
     1
281
     1
  3
ACAD_XREC_ROUNDTRIP
360
38B0
  0
DICTIONARY
  5
38B1
330
1C91
100
AcDbDictionary
280
     1
281
     1
  3
ACAD_XREC_ROUNDTRIP
360
38B2
  0
DICTIONARY
  5
38B3
330
1C92
100
AcDbDictionary
280
     1
281
     1
  3
ACAD_XREC_ROUNDTRIP
360
38B4
  0
DICTIONARY
  5
38E6
330
2604
100
AcDbDictionary
280
     1
281
     1
  3
ACAD_XREC_ROUNDTRIP
360
38E7
  0
DICTIONARY
  5
38CD
330
1C9F
100
AcDbDictionary
280
     1
281
     1
  3
ACAD_XREC_ROUNDTRIP
360
38CE
  0
DICTIONARY
  5
38C7
330
1C9C
100
AcDbDictionary
280
     1
281
     1
  3
ACAD_XREC_ROUNDTRIP
360
38C8
  0
DICTIONARY
  5
38CF
330
1CA0
100
AcDbDictionary
280
     1
281
     1
  3
ACAD_XREC_ROUNDTRIP
360
38D0
  0
DICTIONARY
  5
38BF
330
1C98
100
AcDbDictionary
280
     1
281
     1
  3
ACAD_XREC_ROUNDTRIP
360
38C0
  0
DICTIONARY
  5
38F0
330
2609
100
AcDbDictionary
280
     1
281
     1
  3
ACAD_XREC_ROUNDTRIP
360
38F1
  0
DICTIONARY
  5
38EE
330
2608
100
AcDbDictionary
280
     1
281
     1
  3
ACAD_XREC_ROUNDTRIP
360
38EF
  0
DICTIONARY
  5
38E8
330
2605
100
AcDbDictionary
280
     1
281
     1
  3
ACAD_XREC_ROUNDTRIP
360
38E9
  0
DICTIONARY
  5
38EA
330
2606
100
AcDbDictionary
280
     1
281
     1
  3
ACAD_XREC_ROUNDTRIP
360
38EB
  0
DICTIONARY
  5
38C5
330
1C9B
100
AcDbDictionary
280
     1
281
     1
  3
ACAD_XREC_ROUNDTRIP
360
38C6
  0
DICTIONARY
  5
38E4
330
2603
100
AcDbDictionary
280
     1
281
     1
  3
ACAD_XREC_ROUNDTRIP
360
38E5
  0
DICTIONARY
  5
38EC
330
2607
100
AcDbDictionary
280
     1
281
     1
  3
ACAD_XREC_ROUNDTRIP
360
38ED
  0
XRECORD
  5
38F5
102
{ACAD_REACTORS
330
38F4
102
}
330
38F4
100
AcDbXrecord
280
     1
102
DISPLAYNAME
  1
Imperial24
102
FLAGS
 90
        0
  0
XRECORD
  5
38A9
102
{ACAD_REACTORS
330
38A8
102
}
330
38A8
100
AcDbXrecord
280
     1
102
SHADEPLOT
 70
     0
102
SHADEPLOTRESLEVEL
 70
     2
102
SHADEPLOTCUSTOMDPI
 70
   300
  0
XRECORD
  5
3907
102
{ACAD_REACTORS
330
3906
102
}
330
3906
100
AcDbXrecord
280
     1
102
SHADEPLOT
 70
     0
102
SHADEPLOTRESLEVEL
 70
     2
102
SHADEPLOTCUSTOMDPI
 70
   300
  0
XRECORD
  5
38AB
102
{ACAD_REACTORS
330
1C7F
102
}
330
1C7F
100
AcDbXrecord
280
     1
102
MATERIAL
148
0.0
149
0.0
149
0.0
 93
        0
 94
      127
282
     0
 72
     0
 77
     0
171
     0
175
     0
179
     0
273
     0
  0
XRECORD
  5
1C81
102
{ACAD_REACTORS
330
1C7F
102
}
330
1C7F
100
AcDbXrecord
280
     1
270
     1
271
     1
  0
XRECORD
  5
1C80
102
{ACAD_REACTORS
330
1C7F
102
}
330
1C7F
100
AcDbXrecord
280
     1
270
     1
271
     1
  0
XRECORD
  5
1C84
102
{ACAD_REACTORS
330
1C7F
102
}
330
1C7F
100
AcDbXrecord
280
     1
270
     1
271
     1
  0
XRECORD
  5
1C83
102
{ACAD_REACTORS
330
1C7F
102
}
330
1C7F
100
AcDbXrecord
280
     1
270
     1
271
     1
  0
XRECORD
  5
1C85
102
{ACAD_REACTORS
330
1C7F
102
}
330
1C7F
100
AcDbXrecord
280
     1
270
     1
271
     1
  0
XRECORD
  5
1C82
102
{ACAD_REACTORS
330
1C7F
102
}
330
1C7F
100
AcDbXrecord
280
     1
270
     1
271
     1
  0
XRECORD
  5
38AA
102
{ACAD_REACTORS
330
1C77
102
}
330
1C77
100
AcDbXrecord
280
     1
102
MATERIAL
148
0.0
149
0.0
149
0.0
 93
        0
 94
      127
282
     0
 72
     0
 77
     0
171
     0
175
     0
179
     0
273
     0
  0
XRECORD
  5
1C79
102
{ACAD_REACTORS
330
1C77
102
}
330
1C77
100
AcDbXrecord
280
     1
270
     1
271
     1
  0
XRECORD
  5
1C78
102
{ACAD_REACTORS
330
1C77
102
}
330
1C77
100
AcDbXrecord
280
     1
270
     1
271
     1
  0
XRECORD
  5
1C7C
102
{ACAD_REACTORS
330
1C77
102
}
330
1C77
100
AcDbXrecord
280
     1
270
     1
271
     1
  0
XRECORD
  5
1C7B
102
{ACAD_REACTORS
330
1C77
102
}
330
1C77
100
AcDbXrecord
280
     1
270
     1
271
     1
  0
XRECORD
  5
1C7D
102
{ACAD_REACTORS
330
1C77
102
}
330
1C77
100
AcDbXrecord
280
     1
270
     1
271
     1
  0
XRECORD
  5
1C7A
102
{ACAD_REACTORS
330
1C77
102
}
330
1C77
100
AcDbXrecord
280
     1
270
     1
271
     1
  0
XRECORD
  5
38AC
102
{ACAD_REACTORS
330
1C87
102
}
330
1C87
100
AcDbXrecord
280
     1
102
MATERIAL
148
0.0
149
0.0
149
0.0
 93
        0
 94
      127
282
     0
 72
     0
 77
     0
171
     0
175
     0
179
     0
273
     0
  0
XRECORD
  5
1C89
102
{ACAD_REACTORS
330
1C87
102
}
330
1C87
100
AcDbXrecord
280
     1
270
     1
271
     1
  0
XRECORD
  5
1C88
102
{ACAD_REACTORS
330
1C87
102
}
330
1C87
100
AcDbXrecord
280
     1
270
     1
271
     1
  0
XRECORD
  5
1C8C
102
{ACAD_REACTORS
330
1C87
102
}
330
1C87
100
AcDbXrecord
280
     1
270
     1
271
     1
  0
XRECORD
  5
1C8B
102
{ACAD_REACTORS
330
1C87
102
}
330
1C87
100
AcDbXrecord
280
     1
270
     1
271
     1
  0
XRECORD
  5
1C8D
102
{ACAD_REACTORS
330
1C87
102
}
330
1C87
100
AcDbXrecord
280
     1
270
     1
271
     1
  0
XRECORD
  5
1C8A
102
{ACAD_REACTORS
330
1C87
102
}
330
1C87
100
AcDbXrecord
280
     1
270
     1
271
     1
  0
XRECORD
  5
38F3
102
{ACAD_REACTORS
330
38F2
102
}
330
38F2
100
AcDbXrecord
280
     1
102
DISPLAYNAME
  1
Imperial24
102
FLAGS
 90
        0
  0
CELLSTYLEMAP
  5
38A5
102
{ACAD_REACTORS
330
1DA9
102
}
330
1DA9
100
AcDbCellStyleMap
 90
        3
300
CELLSTYLE
  1
TABLEFORMAT_BEGIN
 90
        5
170
     1
 91
        0
 92
    32768
 62
   257
 93
        1
300
CONTENTFORMAT
  1
CONTENTFORMAT_BEGIN
 90
        0
 91
        0
 92
      512
 93
        0
300

 40
0.0
140
1.0
 94
        5
 62
     0
340
16
144
0.25
309
CONTENTFORMAT_END
171
     1
301
MARGIN
  1
CELLMARGIN_BEGIN
 40
0.06
 40
0.06
 40
0.06
 40
0.06
 40
0.18
 40
0.18
309
CELLMARGIN_END
 94
        6
 95
        1
302
GRIDFORMAT
  1
GRIDFORMAT_BEGIN
 90
        0
 91
        1
 62
     0
 92
       -2
340
0
 93
        0
 40
0.045
309
GRIDFORMAT_END
 95
        2
302
GRIDFORMAT
  1
GRIDFORMAT_BEGIN
 90
        0
 91
        1
 62
     0
 92
       -2
340
0
 93
        0
 40
0.045
309
GRIDFORMAT_END
 95
        4
302
GRIDFORMAT
  1
GRIDFORMAT_BEGIN
 90
        0
 91
        1
 62
     0
 92
       -2
340
0
 93
        0
 40
0.045
309
GRIDFORMAT_END
 95
        8
302
GRIDFORMAT
  1
GRIDFORMAT_BEGIN
 90
        0
 91
        1
 62
     0
 92
       -2
340
0
 93
        0
 40
0.045
309
GRIDFORMAT_END
 95
       16
302
GRIDFORMAT
  1
GRIDFORMAT_BEGIN
 90
        0
 91
        1
 62
     0
 92
       -2
340
0
 93
        0
 40
0.045
309
GRIDFORMAT_END
 95
       32
302
GRIDFORMAT
  1
GRIDFORMAT_BEGIN
 90
        0
 91
        1
 62
     0
 92
       -2
340
0
 93
        0
 40
0.045
309
GRIDFORMAT_END
309
TABLEFORMAT_END
  1
CELLSTYLE_BEGIN
 90
        1
 91
        1
300
_TITLE
309
CELLSTYLE_END
300
CELLSTYLE
  1
TABLEFORMAT_BEGIN
 90
        5
170
     1
 91
        0
 92
        0
 62
   257
 93
        1
300
CONTENTFORMAT
  1
CONTENTFORMAT_BEGIN
 90
        0
 91
        0
 92
      512
 93
        0
300

 40
0.0
140
1.0
 94
        5
 62
     0
340
16
144
0.18
309
CONTENTFORMAT_END
171
     1
301
MARGIN
  1
CELLMARGIN_BEGIN
 40
0.06
 40
0.06
 40
0.06
 40
0.06
 40
0.18
 40
0.18
309
CELLMARGIN_END
 94
        6
 95
        1
302
GRIDFORMAT
  1
GRIDFORMAT_BEGIN
 90
        0
 91
        1
 62
     0
 92
       -2
340
0
 93
        0
 40
0.045
309
GRIDFORMAT_END
 95
        2
302
GRIDFORMAT
  1
GRIDFORMAT_BEGIN
 90
        0
 91
        1
 62
     0
 92
       -2
340
0
 93
        0
 40
0.045
309
GRIDFORMAT_END
 95
        4
302
GRIDFORMAT
  1
GRIDFORMAT_BEGIN
 90
        0
 91
        1
 62
     0
 92
       -2
340
0
 93
        0
 40
0.045
309
GRIDFORMAT_END
 95
        8
302
GRIDFORMAT
  1
GRIDFORMAT_BEGIN
 90
        0
 91
        1
 62
     0
 92
       -2
340
0
 93
        0
 40
0.045
309
GRIDFORMAT_END
 95
       16
302
GRIDFORMAT
  1
GRIDFORMAT_BEGIN
 90
        0
 91
        1
 62
     0
 92
       -2
340
0
 93
        0
 40
0.045
309
GRIDFORMAT_END
 95
       32
302
GRIDFORMAT
  1
GRIDFORMAT_BEGIN
 90
        0
 91
        1
 62
     0
 92
       -2
340
0
 93
        0
 40
0.045
309
GRIDFORMAT_END
309
TABLEFORMAT_END
  1
CELLSTYLE_BEGIN
 90
        2
 91
        1
300
_HEADER
309
CELLSTYLE_END
300
CELLSTYLE
  1
TABLEFORMAT_BEGIN
 90
        5
170
     1
 91
        0
 92
        0
 62
   257
 93
        1
300
CONTENTFORMAT
  1
CONTENTFORMAT_BEGIN
 90
        0
 91
        0
 92
      512
 93
        0
300

 40
0.0
140
1.0
 94
        2
 62
     0
340
16
144
0.18
309
CONTENTFORMAT_END
171
     1
301
MARGIN
  1
CELLMARGIN_BEGIN
 40
0.06
 40
0.06
 40
0.06
 40
0.06
 40
0.18
 40
0.18
309
CELLMARGIN_END
 94
        6
 95
        1
302
GRIDFORMAT
  1
GRIDFORMAT_BEGIN
 90
        0
 91
        1
 62
     0
 92
       -2
340
0
 93
        0
 40
0.045
309
GRIDFORMAT_END
 95
        2
302
GRIDFORMAT
  1
GRIDFORMAT_BEGIN
 90
        0
 91
        1
 62
     0
 92
       -2
340
0
 93
        0
 40
0.045
309
GRIDFORMAT_END
 95
        4
302
GRIDFORMAT
  1
GRIDFORMAT_BEGIN
 90
        0
 91
        1
 62
     0
 92
       -2
340
0
 93
        0
 40
0.045
309
GRIDFORMAT_END
 95
        8
302
GRIDFORMAT
  1
GRIDFORMAT_BEGIN
 90
        0
 91
        1
 62
     0
 92
       -2
340
0
 93
        0
 40
0.045
309
GRIDFORMAT_END
 95
       16
302
GRIDFORMAT
  1
GRIDFORMAT_BEGIN
 90
        0
 91
        1
 62
     0
 92
       -2
340
0
 93
        0
 40
0.045
309
GRIDFORMAT_END
 95
       32
302
GRIDFORMAT
  1
GRIDFORMAT_BEGIN
 90
        0
 91
        1
 62
     0
 92
       -2
340
0
 93
        0
 40
0.045
309
GRIDFORMAT_END
309
TABLEFORMAT_END
  1
CELLSTYLE_BEGIN
 90
        3
 91
        2
300
_DATA
309
CELLSTYLE_END
  0
XRECORD
  5
38D3
102
{ACAD_REACTORS
330
1DA9
102
}
330
1DA9
100
AcDbXrecord
280
     1
102
ACAD_ROUNDTRIP_PRE2007_TABLESTYLE
 90
      512
 91
        0
  1

 92
      512
 93
        0
  2

 94
      512
 95
        0
  3

  0
XRECORD
  5
38B8
102
{ACAD_REACTORS
330
38B7
102
}
330
38B7
100
AcDbXrecord
280
     1
102
RTVSPost2010Prop28
280
     1
102
RTVSPost2010PropOp28
 70
     1
102
RTVSPost2010Prop29
280
     1
102
RTVSPost2010PropOp29
 70
     1
102
RTVSPost2010Prop30
280
     0
102
RTVSPost2010PropOp30
 70
     1
102
RTVSPost2010Prop31
280
     0
102
RTVSPost2010PropOp31
 70
     1
102
RTVSPost2010Prop32
280
     0
102
RTVSPost2010PropOp32
 70
     1
102
RTVSPost2010Prop33
280
     0
102
RTVSPost2010PropOp33
 70
     1
102
RTVSPost2010Prop34
280
     0
102
RTVSPost2010PropOp34
 70
     1
102
RTVSPost2010Prop35
280
     0
102
RTVSPost2010PropOp35
 70
     1
102
RTVSPost2010Prop36
280
     0
102
RTVSPost2010PropOp36
 70
     1
102
RTVSPost2010Prop37
 90
       50
102
RTVSPost2010PropOp37
 70
     1
102
RTVSPost2010Prop38
140
0.0
102
RTVSPost2010PropOp38
 70
     1
102
RTVSPost2010Prop39
140
1.0
102
RTVSPost2010PropOp39
 70
     1
102
RTVSPost2010Prop40
 90
        0
102
RTVSPost2010PropOp40
 70
     1
102
RTVSPost2010Prop41ColorIndex
 90
       18
102
RTVSPost2010Prop41ColorRGB
 90
        0
102
RTVSPost2010PropOp41
 70
     1
102
RTVSPost2010Prop42
 90
       50
102
RTVSPost2010PropOp42
 70
     1
102
RTVSPost2010Prop43
 90
        3
102
RTVSPost2010PropOp43
 70
     1
102
RTVSPost2010Prop44ColorIndex
 90
        5
102
RTVSPost2010Prop44ColorRGB
 90
      255
102
RTVSPost2010PropOp44
 70
     1
102
RTVSPost2010Prop45
280
     0
102
RTVSPost2010PropOp45
 70
     1
102
RTVSPost2010Prop46
 90
       50
102
RTVSPost2010PropOp46
 70
     1
102
RTVSPost2010Prop47
 90
       50
102
RTVSPost2010PropOp47
 70
     1
102
RTVSPost2010Prop48
 90
       50
102
RTVSPost2010PropOp48
 70
     1
102
RTVSPost2010Prop49
280
     0
102
RTVSPost2010PropOp49
 70
     1
102
RTVSPost2010Prop50
 90
       50
102
RTVSPost2010PropOp50
 70
     1
102
RTVSPost2010Prop51ColorIndex
 90
      256
102
RTVSPost2010Prop51ColorRGB
 90
-16777216
102
RTVSPost2010PropOp51
 70
     0
102
RTVSPost2010Prop52
140
1.0
102
RTVSPost2010PropOp52
 70
     0
102
RTVSPost2010Prop53
 90
        2
102
RTVSPost2010PropOp53
 70
     1
102
RTVSPost2010Prop54
  1
strokes_ogs.tif
102
RTVSPost2010PropOp54
 70
     1
102
RTVSPost2010Prop55
280
     0
102
RTVSPost2010PropOp55
 70
     1
102
RTVSPost2010Prop56
140
1.0
102
RTVSPost2010PropOp56
 70
     1
102
RTVSPost2010Prop57
140
1.0
102
RTVSPost2010PropOp57
 70
     1
102
RTVSPropertyOp0
 70
     1
102
RTVSPropertyOp1
 70
     1
102
RTVSPropertyOp2
 70
     1
102
RTVSPropertyOp3
 70
     1
102
RTVSPropertyOp4
 70
     1
102
RTVSPropertyOp5
 70
     1
102
RTVSPropertyOp6
 70
     1
102
RTVSPropertyOp7
 70
     1
102
RTVSPropertyOp8
 70
     1
102
RTVSPropertyOp9
 70
     1
102
RTVSPropertyOp10
 70
     1
102
RTVSPropertyOp11
 70
     1
102
RTVSPropertyOp12
 70
     1
102
RTVSPropertyOp13
 70
     1
102
RTVSPropertyOp14
 70
     1
102
RTVSPropertyOp15
 70
     1
102
RTVSPropertyOp16
 70
     1
102
RTVSPropertyOp17
 70
     1
102
RTVSPropertyOp18
 70
     1
102
RTVSPropertyOp19
 70
     1
102
RTVSPropertyOp20
 70
     1
102
RTVSPropertyOp21
 70
     1
102
RTVSPropertyOp22
 70
     1
102
RTVSPropertyOp23
 70
     1
102
RTVSPropertyOp24
 70
     1
102
RTVSPropertyOp25
 70
     1
102
RTVSPropertyOp26
 70
     1
102
RTVSPropertyOp27
 70
     1
102
RTVSPropertyOp28
 70
     1
102
RTVSPropertyOp29
 70
     1
102
RTVSPropertyOp30
 70
     1
102
RTVSPropertyOp31
 70
     1
102
RTVSPropertyOp32
 70
     1
102
RTVSPropertyOp33
 70
     1
102
RTVSPropertyOp34
 70
     1
102
RTVSPropertyOp35
 70
     1
102
RTVSPropertyOp36
 70
     1
102
RTVSPropertyOp37
 70
     1
102
RTVSPropertyOp38
 70
     1
102
RTVSPropertyOp39
 70
     1
102
RTVSPropertyOp40
 70
     1
102
RTVSPropertyOp41
 70
     1
102
RTVSPropertyOp42
 70
     1
102
RTVSPropertyOp43
 70
     1
102
RTVSPropertyOp44
 70
     1
102
RTVSPropertyOp45
 70
     1
102
RTVSPropertyOp46
 70
     1
102
RTVSPropertyOp47
 70
     1
102
RTVSPropertyOp48
 70
     1
102
RTVSPropertyOp49
 70
     1
102
RTVSPropertyOp50
 70
     1
102
RTVSPropertyOp51
 70
     0
102
RTVSPropertyOp52
 70
     0
102
RTVSPropertyOp53
 70
     1
102
RTVSPropertyOp54
 70
     1
102
RTVSPropertyOp55
 70
     1
102
RTVSPropertyOp56
 70
     1
102
RTVSPropertyOp57
 70
     1
102
RTVSPropertyOp58
 70
     1
102
RTVSPropertyOp59
 70
     1
102
RTVSPropertyOp60
 70
     1
102
RTVSPropertyOp61
 70
     1
102
RTVSPropertyOp62
 70
     1
  0
XRECORD
  5
38BC
102
{ACAD_REACTORS
330
38BB
102
}
330
38BB
100
AcDbXrecord
280
     1
102
RTVSPost2010Prop28
280
     0
102
RTVSPost2010PropOp28
 70
     1
102
RTVSPost2010Prop29
280
     1
102
RTVSPost2010PropOp29
 70
     1
102
RTVSPost2010Prop30
280
     1
102
RTVSPost2010PropOp30
 70
     1
102
RTVSPost2010Prop31
280
     0
102
RTVSPost2010PropOp31
 70
     1
102
RTVSPost2010Prop32
280
     0
102
RTVSPost2010PropOp32
 70
     1
102
RTVSPost2010Prop33
280
     0
102
RTVSPost2010PropOp33
 70
     1
102
RTVSPost2010Prop34
280
     0
102
RTVSPost2010PropOp34
 70
     1
102
RTVSPost2010Prop35
280
     0
102
RTVSPost2010PropOp35
 70
     1
102
RTVSPost2010Prop36
280
     0
102
RTVSPost2010PropOp36
 70
     1
102
RTVSPost2010Prop37
 90
       50
102
RTVSPost2010PropOp37
 70
     1
102
RTVSPost2010Prop38
140
0.0
102
RTVSPost2010PropOp38
 70
     1
102
RTVSPost2010Prop39
140
1.0
102
RTVSPost2010PropOp39
 70
     1
102
RTVSPost2010Prop40
 90
        0
102
RTVSPost2010PropOp40
 70
     1
102
RTVSPost2010Prop41ColorIndex
 90
       18
102
RTVSPost2010Prop41ColorRGB
 90
        0
102
RTVSPost2010PropOp41
 70
     1
102
RTVSPost2010Prop42
 90
       50
102
RTVSPost2010PropOp42
 70
     1
102
RTVSPost2010Prop43
 90
        3
102
RTVSPost2010PropOp43
 70
     1
102
RTVSPost2010Prop44ColorIndex
 90
        5
102
RTVSPost2010Prop44ColorRGB
 90
      255
102
RTVSPost2010PropOp44
 70
     1
102
RTVSPost2010Prop45
280
     0
102
RTVSPost2010PropOp45
 70
     1
102
RTVSPost2010Prop46
 90
       50
102
RTVSPost2010PropOp46
 70
     1
102
RTVSPost2010Prop47
 90
       50
102
RTVSPost2010PropOp47
 70
     1
102
RTVSPost2010Prop48
 90
       50
102
RTVSPost2010PropOp48
 70
     1
102
RTVSPost2010Prop49
280
     0
102
RTVSPost2010PropOp49
 70
     1
102
RTVSPost2010Prop50
 90
       50
102
RTVSPost2010PropOp50
 70
     1
102
RTVSPost2010Prop51ColorIndex
 90
      256
102
RTVSPost2010Prop51ColorRGB
 90
-16777216
102
RTVSPost2010PropOp51
 70
     0
102
RTVSPost2010Prop52
140
1.0
102
RTVSPost2010PropOp52
 70
     0
102
RTVSPost2010Prop53
 90
        2
102
RTVSPost2010PropOp53
 70
     1
102
RTVSPost2010Prop54
  1
strokes_ogs.tif
102
RTVSPost2010PropOp54
 70
     1
102
RTVSPost2010Prop55
280
     0
102
RTVSPost2010PropOp55
 70
     1
102
RTVSPost2010Prop56
140
1.0
102
RTVSPost2010PropOp56
 70
     1
102
RTVSPost2010Prop57
140
1.0
102
RTVSPost2010PropOp57
 70
     1
102
RTVSPropertyOp0
 70
     1
102
RTVSPropertyOp1
 70
     1
102
RTVSPropertyOp2
 70
     1
102
RTVSPropertyOp3
 70
     1
102
RTVSPropertyOp4
 70
     1
102
RTVSPropertyOp5
 70
     1
102
RTVSPropertyOp6
 70
     1
102
RTVSPropertyOp7
 70
     1
102
RTVSPropertyOp8
 70
     1
102
RTVSPropertyOp9
 70
     1
102
RTVSPropertyOp10
 70
     1
102
RTVSPropertyOp11
 70
     1
102
RTVSPropertyOp12
 70
     1
102
RTVSPropertyOp13
 70
     1
102
RTVSPropertyOp14
 70
     1
102
RTVSPropertyOp15
 70
     1
102
RTVSPropertyOp16
 70
     1
102
RTVSPropertyOp17
 70
     1
102
RTVSPropertyOp18
 70
     1
102
RTVSPropertyOp19
 70
     1
102
RTVSPropertyOp20
 70
     1
102
RTVSPropertyOp21
 70
     1
102
RTVSPropertyOp22
 70
     1
102
RTVSPropertyOp23
 70
     1
102
RTVSPropertyOp24
 70
     1
102
RTVSPropertyOp25
 70
     1
102
RTVSPropertyOp26
 70
     1
102
RTVSPropertyOp27
 70
     1
102
RTVSPropertyOp28
 70
     1
102
RTVSPropertyOp29
 70
     1
102
RTVSPropertyOp30
 70
     1
102
RTVSPropertyOp31
 70
     1
102
RTVSPropertyOp32
 70
     1
102
RTVSPropertyOp33
 70
     1
102
RTVSPropertyOp34
 70
     1
102
RTVSPropertyOp35
 70
     1
102
RTVSPropertyOp36
 70
     1
102
RTVSPropertyOp37
 70
     1
102
RTVSPropertyOp38
 70
     1
102
RTVSPropertyOp39
 70
     1
102
RTVSPropertyOp40
 70
     1
102
RTVSPropertyOp41
 70
     1
102
RTVSPropertyOp42
 70
     1
102
RTVSPropertyOp43
 70
     1
102
RTVSPropertyOp44
 70
     1
102
RTVSPropertyOp45
 70
     1
102
RTVSPropertyOp46
 70
     1
102
RTVSPropertyOp47
 70
     1
102
RTVSPropertyOp48
 70
     1
102
RTVSPropertyOp49
 70
     1
102
RTVSPropertyOp50
 70
     1
102
RTVSPropertyOp51
 70
     0
102
RTVSPropertyOp52
 70
     0
102
RTVSPropertyOp53
 70
     1
102
RTVSPropertyOp54
 70
     1
102
RTVSPropertyOp55
 70
     1
102
RTVSPropertyOp56
 70
     1
102
RTVSPropertyOp57
 70
     1
102
RTVSPropertyOp58
 70
     1
102
RTVSPropertyOp59
 70
     1
102
RTVSPropertyOp60
 70
     1
102
RTVSPropertyOp61
 70
     1
102
RTVSPropertyOp62
 70
     1
  0
XRECORD
  5
38BA
102
{ACAD_REACTORS
330
38B9
102
}
330
38B9
100
AcDbXrecord
280
     1
102
RTVSPost2010Prop28
280
     0
102
RTVSPost2010PropOp28
 70
     1
102
RTVSPost2010Prop29
280
     1
102
RTVSPost2010PropOp29
 70
     1
102
RTVSPost2010Prop30
280
     1
102
RTVSPost2010PropOp30
 70
     1
102
RTVSPost2010Prop31
280
     0
102
RTVSPost2010PropOp31
 70
     1
102
RTVSPost2010Prop32
280
     0
102
RTVSPost2010PropOp32
 70
     1
102
RTVSPost2010Prop33
280
     0
102
RTVSPost2010PropOp33
 70
     1
102
RTVSPost2010Prop34
280
     0
102
RTVSPost2010PropOp34
 70
     1
102
RTVSPost2010Prop35
280
     0
102
RTVSPost2010PropOp35
 70
     1
102
RTVSPost2010Prop36
280
     0
102
RTVSPost2010PropOp36
 70
     1
102
RTVSPost2010Prop37
 90
       50
102
RTVSPost2010PropOp37
 70
     1
102
RTVSPost2010Prop38
140
0.0
102
RTVSPost2010PropOp38
 70
     1
102
RTVSPost2010Prop39
140
1.0
102
RTVSPost2010PropOp39
 70
     1
102
RTVSPost2010Prop40
 90
        0
102
RTVSPost2010PropOp40
 70
     1
102
RTVSPost2010Prop41ColorIndex
 90
       18
102
RTVSPost2010Prop41ColorRGB
 90
        0
102
RTVSPost2010PropOp41
 70
     1
102
RTVSPost2010Prop42
 90
       50
102
RTVSPost2010PropOp42
 70
     1
102
RTVSPost2010Prop43
 90
        3
102
RTVSPost2010PropOp43
 70
     1
102
RTVSPost2010Prop44ColorIndex
 90
        5
102
RTVSPost2010Prop44ColorRGB
 90
      255
102
RTVSPost2010PropOp44
 70
     1
102
RTVSPost2010Prop45
280
     0
102
RTVSPost2010PropOp45
 70
     1
102
RTVSPost2010Prop46
 90
       50
102
RTVSPost2010PropOp46
 70
     1
102
RTVSPost2010Prop47
 90
       50
102
RTVSPost2010PropOp47
 70
     1
102
RTVSPost2010Prop48
 90
       50
102
RTVSPost2010PropOp48
 70
     1
102
RTVSPost2010Prop49
280
     0
102
RTVSPost2010PropOp49
 70
     1
102
RTVSPost2010Prop50
 90
       50
102
RTVSPost2010PropOp50
 70
     1
102
RTVSPost2010Prop51ColorIndex
 90
      256
102
RTVSPost2010Prop51ColorRGB
 90
-16777216
102
RTVSPost2010PropOp51
 70
     0
102
RTVSPost2010Prop52
140
1.0
102
RTVSPost2010PropOp52
 70
     0
102
RTVSPost2010Prop53
 90
        2
102
RTVSPost2010PropOp53
 70
     1
102
RTVSPost2010Prop54
  1
strokes_ogs.tif
102
RTVSPost2010PropOp54
 70
     1
102
RTVSPost2010Prop55
280
     0
102
RTVSPost2010PropOp55
 70
     1
102
RTVSPost2010Prop56
140
1.0
102
RTVSPost2010PropOp56
 70
     1
102
RTVSPost2010Prop57
140
1.0
102
RTVSPost2010PropOp57
 70
     1
102
RTVSPropertyOp0
 70
     1
102
RTVSPropertyOp1
 70
     1
102
RTVSPropertyOp2
 70
     1
102
RTVSPropertyOp3
 70
     1
102
RTVSPropertyOp4
 70
     1
102
RTVSPropertyOp5
 70
     1
102
RTVSPropertyOp6
 70
     1
102
RTVSPropertyOp7
 70
     1
102
RTVSPropertyOp8
 70
     1
102
RTVSPropertyOp9
 70
     1
102
RTVSPropertyOp10
 70
     1
102
RTVSPropertyOp11
 70
     1
102
RTVSPropertyOp12
 70
     1
102
RTVSPropertyOp13
 70
     1
102
RTVSPropertyOp14
 70
     1
102
RTVSPropertyOp15
 70
     1
102
RTVSPropertyOp16
 70
     1
102
RTVSPropertyOp17
 70
     1
102
RTVSPropertyOp18
 70
     1
102
RTVSPropertyOp19
 70
     1
102
RTVSPropertyOp20
 70
     1
102
RTVSPropertyOp21
 70
     1
102
RTVSPropertyOp22
 70
     1
102
RTVSPropertyOp23
 70
     1
102
RTVSPropertyOp24
 70
     1
102
RTVSPropertyOp25
 70
     1
102
RTVSPropertyOp26
 70
     1
102
RTVSPropertyOp27
 70
     1
102
RTVSPropertyOp28
 70
     1
102
RTVSPropertyOp29
 70
     1
102
RTVSPropertyOp30
 70
     1
102
RTVSPropertyOp31
 70
     1
102
RTVSPropertyOp32
 70
     1
102
RTVSPropertyOp33
 70
     1
102
RTVSPropertyOp34
 70
     1
102
RTVSPropertyOp35
 70
     1
102
RTVSPropertyOp36
 70
     1
102
RTVSPropertyOp37
 70
     1
102
RTVSPropertyOp38
 70
     1
102
RTVSPropertyOp39
 70
     1
102
RTVSPropertyOp40
 70
     1
102
RTVSPropertyOp41
 70
     1
102
RTVSPropertyOp42
 70
     1
102
RTVSPropertyOp43
 70
     1
102
RTVSPropertyOp44
 70
     1
102
RTVSPropertyOp45
 70
     1
102
RTVSPropertyOp46
 70
     1
102
RTVSPropertyOp47
 70
     1
102
RTVSPropertyOp48
 70
     1
102
RTVSPropertyOp49
 70
     1
102
RTVSPropertyOp50
 70
     1
102
RTVSPropertyOp51
 70
     0
102
RTVSPropertyOp52
 70
     0
102
RTVSPropertyOp53
 70
     1
102
RTVSPropertyOp54
 70
     1
102
RTVSPropertyOp55
 70
     1
102
RTVSPropertyOp56
 70
     1
102
RTVSPropertyOp57
 70
     1
102
RTVSPropertyOp58
 70
     1
102
RTVSPropertyOp59
 70
     1
102
RTVSPropertyOp60
 70
     1
102
RTVSPropertyOp61
 70
     1
102
RTVSPropertyOp62
 70
     1
  0
XRECORD
  5
38B6
102
{ACAD_REACTORS
330
38B5
102
}
330
38B5
100
AcDbXrecord
280
     1
102
RTVSPost2010Prop28
280
     0
102
RTVSPost2010PropOp28
 70
     1
102
RTVSPost2010Prop29
280
     1
102
RTVSPost2010PropOp29
 70
     1
102
RTVSPost2010Prop30
280
     1
102
RTVSPost2010PropOp30
 70
     1
102
RTVSPost2010Prop31
280
     0
102
RTVSPost2010PropOp31
 70
     1
102
RTVSPost2010Prop32
280
     0
102
RTVSPost2010PropOp32
 70
     1
102
RTVSPost2010Prop33
280
     0
102
RTVSPost2010PropOp33
 70
     1
102
RTVSPost2010Prop34
280
     0
102
RTVSPost2010PropOp34
 70
     1
102
RTVSPost2010Prop35
280
     0
102
RTVSPost2010PropOp35
 70
     1
102
RTVSPost2010Prop36
280
     0
102
RTVSPost2010PropOp36
 70
     1
102
RTVSPost2010Prop37
 90
       50
102
RTVSPost2010PropOp37
 70
     1
102
RTVSPost2010Prop38
140
0.0
102
RTVSPost2010PropOp38
 70
     1
102
RTVSPost2010Prop39
140
1.0
102
RTVSPost2010PropOp39
 70
     1
102
RTVSPost2010Prop40
 90
        0
102
RTVSPost2010PropOp40
 70
     1
102
RTVSPost2010Prop41ColorIndex
 90
       18
102
RTVSPost2010Prop41ColorRGB
 90
        0
102
RTVSPost2010PropOp41
 70
     1
102
RTVSPost2010Prop42
 90
       50
102
RTVSPost2010PropOp42
 70
     1
102
RTVSPost2010Prop43
 90
        3
102
RTVSPost2010PropOp43
 70
     1
102
RTVSPost2010Prop44ColorIndex
 90
        5
102
RTVSPost2010Prop44ColorRGB
 90
      255
102
RTVSPost2010PropOp44
 70
     1
102
RTVSPost2010Prop45
280
     0
102
RTVSPost2010PropOp45
 70
     1
102
RTVSPost2010Prop46
 90
       50
102
RTVSPost2010PropOp46
 70
     1
102
RTVSPost2010Prop47
 90
       50
102
RTVSPost2010PropOp47
 70
     1
102
RTVSPost2010Prop48
 90
       50
102
RTVSPost2010PropOp48
 70
     1
102
RTVSPost2010Prop49
280
     0
102
RTVSPost2010PropOp49
 70
     1
102
RTVSPost2010Prop50
 90
       50
102
RTVSPost2010PropOp50
 70
     1
102
RTVSPost2010Prop51ColorIndex
 90
      256
102
RTVSPost2010Prop51ColorRGB
 90
-16777216
102
RTVSPost2010PropOp51
 70
     0
102
RTVSPost2010Prop52
140
1.0
102
RTVSPost2010PropOp52
 70
     0
102
RTVSPost2010Prop53
 90
        2
102
RTVSPost2010PropOp53
 70
     1
102
RTVSPost2010Prop54
  1
strokes_ogs.tif
102
RTVSPost2010PropOp54
 70
     1
102
RTVSPost2010Prop55
280
     0
102
RTVSPost2010PropOp55
 70
     1
102
RTVSPost2010Prop56
140
1.0
102
RTVSPost2010PropOp56
 70
     1
102
RTVSPost2010Prop57
140
1.0
102
RTVSPost2010PropOp57
 70
     1
102
RTVSPropertyOp0
 70
     1
102
RTVSPropertyOp1
 70
     1
102
RTVSPropertyOp2
 70
     1
102
RTVSPropertyOp3
 70
     1
102
RTVSPropertyOp4
 70
     1
102
RTVSPropertyOp5
 70
     1
102
RTVSPropertyOp6
 70
     1
102
RTVSPropertyOp7
 70
     1
102
RTVSPropertyOp8
 70
     1
102
RTVSPropertyOp9
 70
     1
102
RTVSPropertyOp10
 70
     1
102
RTVSPropertyOp11
 70
     1
102
RTVSPropertyOp12
 70
     1
102
RTVSPropertyOp13
 70
     1
102
RTVSPropertyOp14
 70
     1
102
RTVSPropertyOp15
 70
     1
102
RTVSPropertyOp16
 70
     1
102
RTVSPropertyOp17
 70
     1
102
RTVSPropertyOp18
 70
     1
102
RTVSPropertyOp19
 70
     1
102
RTVSPropertyOp20
 70
     1
102
RTVSPropertyOp21
 70
     1
102
RTVSPropertyOp22
 70
     1
102
RTVSPropertyOp23
 70
     1
102
RTVSPropertyOp24
 70
     1
102
RTVSPropertyOp25
 70
     1
102
RTVSPropertyOp26
 70
     1
102
RTVSPropertyOp27
 70
     1
102
RTVSPropertyOp28
 70
     1
102
RTVSPropertyOp29
 70
     1
102
RTVSPropertyOp30
 70
     1
102
RTVSPropertyOp31
 70
     1
102
RTVSPropertyOp32
 70
     1
102
RTVSPropertyOp33
 70
     1
102
RTVSPropertyOp34
 70
     1
102
RTVSPropertyOp35
 70
     1
102
RTVSPropertyOp36
 70
     1
102
RTVSPropertyOp37
 70
     1
102
RTVSPropertyOp38
 70
     1
102
RTVSPropertyOp39
 70
     1
102
RTVSPropertyOp40
 70
     1
102
RTVSPropertyOp41
 70
     1
102
RTVSPropertyOp42
 70
     1
102
RTVSPropertyOp43
 70
     1
102
RTVSPropertyOp44
 70
     1
102
RTVSPropertyOp45
 70
     1
102
RTVSPropertyOp46
 70
     1
102
RTVSPropertyOp47
 70
     1
102
RTVSPropertyOp48
 70
     1
102
RTVSPropertyOp49
 70
     1
102
RTVSPropertyOp50
 70
     1
102
RTVSPropertyOp51
 70
     0
102
RTVSPropertyOp52
 70
     0
102
RTVSPropertyOp53
 70
     1
102
RTVSPropertyOp54
 70
     1
102
RTVSPropertyOp55
 70
     1
102
RTVSPropertyOp56
 70
     1
102
RTVSPropertyOp57
 70
     1
102
RTVSPropertyOp58
 70
     1
102
RTVSPropertyOp59
 70
     1
102
RTVSPropertyOp60
 70
     1
102
RTVSPropertyOp61
 70
     1
102
RTVSPropertyOp62
 70
     1
  0
XRECORD
  5
38C4
102
{ACAD_REACTORS
330
38C3
102
}
330
38C3
100
AcDbXrecord
280
     1
102
RTVSPost2010Prop28
280
     0
102
RTVSPost2010PropOp28
 70
     1
102
RTVSPost2010Prop29
280
     1
102
RTVSPost2010PropOp29
 70
     1
102
RTVSPost2010Prop30
280
     1
102
RTVSPost2010PropOp30
 70
     1
102
RTVSPost2010Prop31
280
     0
102
RTVSPost2010PropOp31
 70
     1
102
RTVSPost2010Prop32
280
     0
102
RTVSPost2010PropOp32
 70
     1
102
RTVSPost2010Prop33
280
     0
102
RTVSPost2010PropOp33
 70
     1
102
RTVSPost2010Prop34
280
     0
102
RTVSPost2010PropOp34
 70
     1
102
RTVSPost2010Prop35
280
     0
102
RTVSPost2010PropOp35
 70
     1
102
RTVSPost2010Prop36
280
     0
102
RTVSPost2010PropOp36
 70
     1
102
RTVSPost2010Prop37
 90
       50
102
RTVSPost2010PropOp37
 70
     1
102
RTVSPost2010Prop38
140
0.0
102
RTVSPost2010PropOp38
 70
     1
102
RTVSPost2010Prop39
140
1.0
102
RTVSPost2010PropOp39
 70
     1
102
RTVSPost2010Prop40
 90
        0
102
RTVSPost2010PropOp40
 70
     1
102
RTVSPost2010Prop41ColorIndex
 90
       18
102
RTVSPost2010Prop41ColorRGB
 90
        0
102
RTVSPost2010PropOp41
 70
     1
102
RTVSPost2010Prop42
 90
       50
102
RTVSPost2010PropOp42
 70
     1
102
RTVSPost2010Prop43
 90
        3
102
RTVSPost2010PropOp43
 70
     1
102
RTVSPost2010Prop44ColorIndex
 90
        5
102
RTVSPost2010Prop44ColorRGB
 90
      255
102
RTVSPost2010PropOp44
 70
     1
102
RTVSPost2010Prop45
280
     0
102
RTVSPost2010PropOp45
 70
     1
102
RTVSPost2010Prop46
 90
       50
102
RTVSPost2010PropOp46
 70
     1
102
RTVSPost2010Prop47
 90
       50
102
RTVSPost2010PropOp47
 70
     1
102
RTVSPost2010Prop48
 90
       50
102
RTVSPost2010PropOp48
 70
     1
102
RTVSPost2010Prop49
280
     0
102
RTVSPost2010PropOp49
 70
     1
102
RTVSPost2010Prop50
 90
       50
102
RTVSPost2010PropOp50
 70
     1
102
RTVSPost2010Prop51ColorIndex
 90
      256
102
RTVSPost2010Prop51ColorRGB
 90
-16777216
102
RTVSPost2010PropOp51
 70
     0
102
RTVSPost2010Prop52
140
1.0
102
RTVSPost2010PropOp52
 70
     0
102
RTVSPost2010Prop53
 90
        2
102
RTVSPost2010PropOp53
 70
     1
102
RTVSPost2010Prop54
  1
strokes_ogs.tif
102
RTVSPost2010PropOp54
 70
     1
102
RTVSPost2010Prop55
280
     0
102
RTVSPost2010PropOp55
 70
     1
102
RTVSPost2010Prop56
140
1.0
102
RTVSPost2010PropOp56
 70
     1
102
RTVSPost2010Prop57
140
1.0
102
RTVSPost2010PropOp57
 70
     1
102
RTVSPropertyOp0
 70
     1
102
RTVSPropertyOp1
 70
     1
102
RTVSPropertyOp2
 70
     1
102
RTVSPropertyOp3
 70
     1
102
RTVSPropertyOp4
 70
     1
102
RTVSPropertyOp5
 70
     1
102
RTVSPropertyOp6
 70
     1
102
RTVSPropertyOp7
 70
     1
102
RTVSPropertyOp8
 70
     1
102
RTVSPropertyOp9
 70
     1
102
RTVSPropertyOp10
 70
     1
102
RTVSPropertyOp11
 70
     1
102
RTVSPropertyOp12
 70
     1
102
RTVSPropertyOp13
 70
     1
102
RTVSPropertyOp14
 70
     1
102
RTVSPropertyOp15
 70
     1
102
RTVSPropertyOp16
 70
     1
102
RTVSPropertyOp17
 70
     1
102
RTVSPropertyOp18
 70
     1
102
RTVSPropertyOp19
 70
     1
102
RTVSPropertyOp20
 70
     1
102
RTVSPropertyOp21
 70
     1
102
RTVSPropertyOp22
 70
     1
102
RTVSPropertyOp23
 70
     1
102
RTVSPropertyOp24
 70
     1
102
RTVSPropertyOp25
 70
     1
102
RTVSPropertyOp26
 70
     1
102
RTVSPropertyOp27
 70
     1
102
RTVSPropertyOp28
 70
     1
102
RTVSPropertyOp29
 70
     1
102
RTVSPropertyOp30
 70
     1
102
RTVSPropertyOp31
 70
     1
102
RTVSPropertyOp32
 70
     1
102
RTVSPropertyOp33
 70
     1
102
RTVSPropertyOp34
 70
     1
102
RTVSPropertyOp35
 70
     1
102
RTVSPropertyOp36
 70
     1
102
RTVSPropertyOp37
 70
     1
102
RTVSPropertyOp38
 70
     1
102
RTVSPropertyOp39
 70
     1
102
RTVSPropertyOp40
 70
     1
102
RTVSPropertyOp41
 70
     1
102
RTVSPropertyOp42
 70
     1
102
RTVSPropertyOp43
 70
     1
102
RTVSPropertyOp44
 70
     1
102
RTVSPropertyOp45
 70
     1
102
RTVSPropertyOp46
 70
     1
102
RTVSPropertyOp47
 70
     1
102
RTVSPropertyOp48
 70
     1
102
RTVSPropertyOp49
 70
     1
102
RTVSPropertyOp50
 70
     1
102
RTVSPropertyOp51
 70
     0
102
RTVSPropertyOp52
 70
     0
102
RTVSPropertyOp53
 70
     1
102
RTVSPropertyOp54
 70
     1
102
RTVSPropertyOp55
 70
     1
102
RTVSPropertyOp56
 70
     1
102
RTVSPropertyOp57
 70
     1
102
RTVSPropertyOp58
 70
     1
102
RTVSPropertyOp59
 70
     1
102
RTVSPropertyOp60
 70
     1
102
RTVSPropertyOp61
 70
     1
102
RTVSPropertyOp62
 70
     1
  0
XRECORD
  5
38CC
102
{ACAD_REACTORS
330
38CB
102
}
330
38CB
100
AcDbXrecord
280
     1
102
RTVSPost2010Prop28
280
     0
102
RTVSPost2010PropOp28
 70
     1
102
RTVSPost2010Prop29
280
     1
102
RTVSPost2010PropOp29
 70
     1
102
RTVSPost2010Prop30
280
     1
102
RTVSPost2010PropOp30
 70
     1
102
RTVSPost2010Prop31
280
     0
102
RTVSPost2010PropOp31
 70
     1
102
RTVSPost2010Prop32
280
     0
102
RTVSPost2010PropOp32
 70
     1
102
RTVSPost2010Prop33
280
     0
102
RTVSPost2010PropOp33
 70
     1
102
RTVSPost2010Prop34
280
     0
102
RTVSPost2010PropOp34
 70
     1
102
RTVSPost2010Prop35
280
     0
102
RTVSPost2010PropOp35
 70
     1
102
RTVSPost2010Prop36
280
     0
102
RTVSPost2010PropOp36
 70
     1
102
RTVSPost2010Prop37
 90
       50
102
RTVSPost2010PropOp37
 70
     1
102
RTVSPost2010Prop38
140
0.0
102
RTVSPost2010PropOp38
 70
     1
102
RTVSPost2010Prop39
140
1.0
102
RTVSPost2010PropOp39
 70
     1
102
RTVSPost2010Prop40
 90
        0
102
RTVSPost2010PropOp40
 70
     1
102
RTVSPost2010Prop41ColorIndex
 90
       18
102
RTVSPost2010Prop41ColorRGB
 90
        0
102
RTVSPost2010PropOp41
 70
     1
102
RTVSPost2010Prop42
 90
       50
102
RTVSPost2010PropOp42
 70
     1
102
RTVSPost2010Prop43
 90
        3
102
RTVSPost2010PropOp43
 70
     1
102
RTVSPost2010Prop44ColorIndex
 90
        5
102
RTVSPost2010Prop44ColorRGB
 90
      255
102
RTVSPost2010PropOp44
 70
     1
102
RTVSPost2010Prop45
280
     0
102
RTVSPost2010PropOp45
 70
     1
102
RTVSPost2010Prop46
 90
       50
102
RTVSPost2010PropOp46
 70
     1
102
RTVSPost2010Prop47
 90
       50
102
RTVSPost2010PropOp47
 70
     1
102
RTVSPost2010Prop48
 90
       50
102
RTVSPost2010PropOp48
 70
     1
102
RTVSPost2010Prop49
280
     0
102
RTVSPost2010PropOp49
 70
     1
102
RTVSPost2010Prop50
 90
       50
102
RTVSPost2010PropOp50
 70
     1
102
RTVSPost2010Prop51ColorIndex
 90
      256
102
RTVSPost2010Prop51ColorRGB
 90
-16777216
102
RTVSPost2010PropOp51
 70
     0
102
RTVSPost2010Prop52
140
1.0
102
RTVSPost2010PropOp52
 70
     0
102
RTVSPost2010Prop53
 90
        2
102
RTVSPost2010PropOp53
 70
     1
102
RTVSPost2010Prop54
  1
strokes_ogs.tif
102
RTVSPost2010PropOp54
 70
     1
102
RTVSPost2010Prop55
280
     0
102
RTVSPost2010PropOp55
 70
     1
102
RTVSPost2010Prop56
140
1.0
102
RTVSPost2010PropOp56
 70
     1
102
RTVSPost2010Prop57
140
1.0
102
RTVSPost2010PropOp57
 70
     1
102
RTVSPropertyOp0
 70
     1
102
RTVSPropertyOp1
 70
     1
102
RTVSPropertyOp2
 70
     1
102
RTVSPropertyOp3
 70
     1
102
RTVSPropertyOp4
 70
     1
102
RTVSPropertyOp5
 70
     1
102
RTVSPropertyOp6
 70
     1
102
RTVSPropertyOp7
 70
     1
102
RTVSPropertyOp8
 70
     1
102
RTVSPropertyOp9
 70
     1
102
RTVSPropertyOp10
 70
     1
102
RTVSPropertyOp11
 70
     1
102
RTVSPropertyOp12
 70
     1
102
RTVSPropertyOp13
 70
     1
102
RTVSPropertyOp14
 70
     1
102
RTVSPropertyOp15
 70
     1
102
RTVSPropertyOp16
 70
     1
102
RTVSPropertyOp17
 70
     1
102
RTVSPropertyOp18
 70
     1
102
RTVSPropertyOp19
 70
     1
102
RTVSPropertyOp20
 70
     1
102
RTVSPropertyOp21
 70
     1
102
RTVSPropertyOp22
 70
     1
102
RTVSPropertyOp23
 70
     1
102
RTVSPropertyOp24
 70
     1
102
RTVSPropertyOp25
 70
     1
102
RTVSPropertyOp26
 70
     1
102
RTVSPropertyOp27
 70
     1
102
RTVSPropertyOp28
 70
     1
102
RTVSPropertyOp29
 70
     1
102
RTVSPropertyOp30
 70
     1
102
RTVSPropertyOp31
 70
     1
102
RTVSPropertyOp32
 70
     1
102
RTVSPropertyOp33
 70
     1
102
RTVSPropertyOp34
 70
     1
102
RTVSPropertyOp35
 70
     1
102
RTVSPropertyOp36
 70
     1
102
RTVSPropertyOp37
 70
     1
102
RTVSPropertyOp38
 70
     1
102
RTVSPropertyOp39
 70
     1
102
RTVSPropertyOp40
 70
     1
102
RTVSPropertyOp41
 70
     1
102
RTVSPropertyOp42
 70
     1
102
RTVSPropertyOp43
 70
     1
102
RTVSPropertyOp44
 70
     1
102
RTVSPropertyOp45
 70
     1
102
RTVSPropertyOp46
 70
     1
102
RTVSPropertyOp47
 70
     1
102
RTVSPropertyOp48
 70
     1
102
RTVSPropertyOp49
 70
     1
102
RTVSPropertyOp50
 70
     1
102
RTVSPropertyOp51
 70
     0
102
RTVSPropertyOp52
 70
     0
102
RTVSPropertyOp53
 70
     1
102
RTVSPropertyOp54
 70
     1
102
RTVSPropertyOp55
 70
     1
102
RTVSPropertyOp56
 70
     1
102
RTVSPropertyOp57
 70
     1
102
RTVSPropertyOp58
 70
     1
102
RTVSPropertyOp59
 70
     1
102
RTVSPropertyOp60
 70
     1
102
RTVSPropertyOp61
 70
     1
102
RTVSPropertyOp62
 70
     1
  0
XRECORD
  5
38BE
102
{ACAD_REACTORS
330
38BD
102
}
330
38BD
100
AcDbXrecord
280
     1
102
RTVSPost2010Prop28
280
     0
102
RTVSPost2010PropOp28
 70
     1
102
RTVSPost2010Prop29
280
     1
102
RTVSPost2010PropOp29
 70
     1
102
RTVSPost2010Prop30
280
     1
102
RTVSPost2010PropOp30
 70
     1
102
RTVSPost2010Prop31
280
     0
102
RTVSPost2010PropOp31
 70
     1
102
RTVSPost2010Prop32
280
     0
102
RTVSPost2010PropOp32
 70
     1
102
RTVSPost2010Prop33
280
     0
102
RTVSPost2010PropOp33
 70
     1
102
RTVSPost2010Prop34
280
     0
102
RTVSPost2010PropOp34
 70
     1
102
RTVSPost2010Prop35
280
     0
102
RTVSPost2010PropOp35
 70
     1
102
RTVSPost2010Prop36
280
     0
102
RTVSPost2010PropOp36
 70
     1
102
RTVSPost2010Prop37
 90
       50
102
RTVSPost2010PropOp37
 70
     1
102
RTVSPost2010Prop38
140
0.0
102
RTVSPost2010PropOp38
 70
     1
102
RTVSPost2010Prop39
140
1.0
102
RTVSPost2010PropOp39
 70
     1
102
RTVSPost2010Prop40
 90
        0
102
RTVSPost2010PropOp40
 70
     1
102
RTVSPost2010Prop41ColorIndex
 90
       18
102
RTVSPost2010Prop41ColorRGB
 90
        0
102
RTVSPost2010PropOp41
 70
     1
102
RTVSPost2010Prop42
 90
       50
102
RTVSPost2010PropOp42
 70
     1
102
RTVSPost2010Prop43
 90
        3
102
RTVSPost2010PropOp43
 70
     1
102
RTVSPost2010Prop44ColorIndex
 90
        5
102
RTVSPost2010Prop44ColorRGB
 90
      255
102
RTVSPost2010PropOp44
 70
     1
102
RTVSPost2010Prop45
280
     0
102
RTVSPost2010PropOp45
 70
     1
102
RTVSPost2010Prop46
 90
       50
102
RTVSPost2010PropOp46
 70
     1
102
RTVSPost2010Prop47
 90
       50
102
RTVSPost2010PropOp47
 70
     1
102
RTVSPost2010Prop48
 90
       50
102
RTVSPost2010PropOp48
 70
     1
102
RTVSPost2010Prop49
280
     0
102
RTVSPost2010PropOp49
 70
     1
102
RTVSPost2010Prop50
 90
       50
102
RTVSPost2010PropOp50
 70
     1
102
RTVSPost2010Prop51ColorIndex
 90
      256
102
RTVSPost2010Prop51ColorRGB
 90
-16777216
102
RTVSPost2010PropOp51
 70
     0
102
RTVSPost2010Prop52
140
1.0
102
RTVSPost2010PropOp52
 70
     0
102
RTVSPost2010Prop53
 90
        2
102
RTVSPost2010PropOp53
 70
     1
102
RTVSPost2010Prop54
  1
strokes_ogs.tif
102
RTVSPost2010PropOp54
 70
     1
102
RTVSPost2010Prop55
280
     0
102
RTVSPost2010PropOp55
 70
     1
102
RTVSPost2010Prop56
140
1.0
102
RTVSPost2010PropOp56
 70
     1
102
RTVSPost2010Prop57
140
1.0
102
RTVSPost2010PropOp57
 70
     1
102
RTVSPropertyOp0
 70
     1
102
RTVSPropertyOp1
 70
     1
102
RTVSPropertyOp2
 70
     1
102
RTVSPropertyOp3
 70
     1
102
RTVSPropertyOp4
 70
     1
102
RTVSPropertyOp5
 70
     1
102
RTVSPropertyOp6
 70
     1
102
RTVSPropertyOp7
 70
     1
102
RTVSPropertyOp8
 70
     1
102
RTVSPropertyOp9
 70
     1
102
RTVSPropertyOp10
 70
     1
102
RTVSPropertyOp11
 70
     1
102
RTVSPropertyOp12
 70
     1
102
RTVSPropertyOp13
 70
     1
102
RTVSPropertyOp14
 70
     1
102
RTVSPropertyOp15
 70
     1
102
RTVSPropertyOp16
 70
     1
102
RTVSPropertyOp17
 70
     1
102
RTVSPropertyOp18
 70
     1
102
RTVSPropertyOp19
 70
     1
102
RTVSPropertyOp20
 70
     1
102
RTVSPropertyOp21
 70
     1
102
RTVSPropertyOp22
 70
     1
102
RTVSPropertyOp23
 70
     1
102
RTVSPropertyOp24
 70
     1
102
RTVSPropertyOp25
 70
     1
102
RTVSPropertyOp26
 70
     1
102
RTVSPropertyOp27
 70
     1
102
RTVSPropertyOp28
 70
     1
102
RTVSPropertyOp29
 70
     1
102
RTVSPropertyOp30
 70
     1
102
RTVSPropertyOp31
 70
     1
102
RTVSPropertyOp32
 70
     1
102
RTVSPropertyOp33
 70
     1
102
RTVSPropertyOp34
 70
     1
102
RTVSPropertyOp35
 70
     1
102
RTVSPropertyOp36
 70
     1
102
RTVSPropertyOp37
 70
     1
102
RTVSPropertyOp38
 70
     1
102
RTVSPropertyOp39
 70
     1
102
RTVSPropertyOp40
 70
     1
102
RTVSPropertyOp41
 70
     1
102
RTVSPropertyOp42
 70
     1
102
RTVSPropertyOp43
 70
     1
102
RTVSPropertyOp44
 70
     1
102
RTVSPropertyOp45
 70
     1
102
RTVSPropertyOp46
 70
     1
102
RTVSPropertyOp47
 70
     1
102
RTVSPropertyOp48
 70
     1
102
RTVSPropertyOp49
 70
     1
102
RTVSPropertyOp50
 70
     1
102
RTVSPropertyOp51
 70
     0
102
RTVSPropertyOp52
 70
     0
102
RTVSPropertyOp53
 70
     1
102
RTVSPropertyOp54
 70
     1
102
RTVSPropertyOp55
 70
     1
102
RTVSPropertyOp56
 70
     1
102
RTVSPropertyOp57
 70
     1
102
RTVSPropertyOp58
 70
     1
102
RTVSPropertyOp59
 70
     1
102
RTVSPropertyOp60
 70
     1
102
RTVSPropertyOp61
 70
     1
102
RTVSPropertyOp62
 70
     1
  0
XRECORD
  5
38C2
102
{ACAD_REACTORS
330
38C1
102
}
330
38C1
100
AcDbXrecord
280
     1
102
RTVSPost2010Prop28
280
     0
102
RTVSPost2010PropOp28
 70
     1
102
RTVSPost2010Prop29
280
     1
102
RTVSPost2010PropOp29
 70
     1
102
RTVSPost2010Prop30
280
     1
102
RTVSPost2010PropOp30
 70
     1
102
RTVSPost2010Prop31
280
     0
102
RTVSPost2010PropOp31
 70
     1
102
RTVSPost2010Prop32
280
     0
102
RTVSPost2010PropOp32
 70
     1
102
RTVSPost2010Prop33
280
     0
102
RTVSPost2010PropOp33
 70
     1
102
RTVSPost2010Prop34
280
     0
102
RTVSPost2010PropOp34
 70
     1
102
RTVSPost2010Prop35
280
     0
102
RTVSPost2010PropOp35
 70
     1
102
RTVSPost2010Prop36
280
     0
102
RTVSPost2010PropOp36
 70
     1
102
RTVSPost2010Prop37
 90
       50
102
RTVSPost2010PropOp37
 70
     1
102
RTVSPost2010Prop38
140
0.0
102
RTVSPost2010PropOp38
 70
     1
102
RTVSPost2010Prop39
140
1.0
102
RTVSPost2010PropOp39
 70
     1
102
RTVSPost2010Prop40
 90
        0
102
RTVSPost2010PropOp40
 70
     1
102
RTVSPost2010Prop41ColorIndex
 90
       18
102
RTVSPost2010Prop41ColorRGB
 90
        0
102
RTVSPost2010PropOp41
 70
     1
102
RTVSPost2010Prop42
 90
       50
102
RTVSPost2010PropOp42
 70
     1
102
RTVSPost2010Prop43
 90
        3
102
RTVSPost2010PropOp43
 70
     1
102
RTVSPost2010Prop44ColorIndex
 90
        5
102
RTVSPost2010Prop44ColorRGB
 90
      255
102
RTVSPost2010PropOp44
 70
     1
102
RTVSPost2010Prop45
280
     0
102
RTVSPost2010PropOp45
 70
     1
102
RTVSPost2010Prop46
 90
       50
102
RTVSPost2010PropOp46
 70
     1
102
RTVSPost2010Prop47
 90
       50
102
RTVSPost2010PropOp47
 70
     1
102
RTVSPost2010Prop48
 90
       50
102
RTVSPost2010PropOp48
 70
     1
102
RTVSPost2010Prop49
280
     0
102
RTVSPost2010PropOp49
 70
     1
102
RTVSPost2010Prop50
 90
       50
102
RTVSPost2010PropOp50
 70
     1
102
RTVSPost2010Prop51ColorIndex
 90
      256
102
RTVSPost2010Prop51ColorRGB
 90
-16777216
102
RTVSPost2010PropOp51
 70
     0
102
RTVSPost2010Prop52
140
1.0
102
RTVSPost2010PropOp52
 70
     0
102
RTVSPost2010Prop53
 90
        2
102
RTVSPost2010PropOp53
 70
     1
102
RTVSPost2010Prop54
  1
strokes_ogs.tif
102
RTVSPost2010PropOp54
 70
     1
102
RTVSPost2010Prop55
280
     0
102
RTVSPost2010PropOp55
 70
     1
102
RTVSPost2010Prop56
140
1.0
102
RTVSPost2010PropOp56
 70
     1
102
RTVSPost2010Prop57
140
1.0
102
RTVSPost2010PropOp57
 70
     1
102
RTVSPropertyOp0
 70
     1
102
RTVSPropertyOp1
 70
     1
102
RTVSPropertyOp2
 70
     1
102
RTVSPropertyOp3
 70
     1
102
RTVSPropertyOp4
 70
     1
102
RTVSPropertyOp5
 70
     1
102
RTVSPropertyOp6
 70
     1
102
RTVSPropertyOp7
 70
     1
102
RTVSPropertyOp8
 70
     1
102
RTVSPropertyOp9
 70
     1
102
RTVSPropertyOp10
 70
     1
102
RTVSPropertyOp11
 70
     1
102
RTVSPropertyOp12
 70
     1
102
RTVSPropertyOp13
 70
     1
102
RTVSPropertyOp14
 70
     1
102
RTVSPropertyOp15
 70
     1
102
RTVSPropertyOp16
 70
     1
102
RTVSPropertyOp17
 70
     1
102
RTVSPropertyOp18
 70
     1
102
RTVSPropertyOp19
 70
     1
102
RTVSPropertyOp20
 70
     1
102
RTVSPropertyOp21
 70
     1
102
RTVSPropertyOp22
 70
     1
102
RTVSPropertyOp23
 70
     1
102
RTVSPropertyOp24
 70
     1
102
RTVSPropertyOp25
 70
     1
102
RTVSPropertyOp26
 70
     1
102
RTVSPropertyOp27
 70
     1
102
RTVSPropertyOp28
 70
     1
102
RTVSPropertyOp29
 70
     1
102
RTVSPropertyOp30
 70
     1
102
RTVSPropertyOp31
 70
     1
102
RTVSPropertyOp32
 70
     1
102
RTVSPropertyOp33
 70
     1
102
RTVSPropertyOp34
 70
     1
102
RTVSPropertyOp35
 70
     1
102
RTVSPropertyOp36
 70
     1
102
RTVSPropertyOp37
 70
     1
102
RTVSPropertyOp38
 70
     1
102
RTVSPropertyOp39
 70
     1
102
RTVSPropertyOp40
 70
     1
102
RTVSPropertyOp41
 70
     1
102
RTVSPropertyOp42
 70
     1
102
RTVSPropertyOp43
 70
     1
102
RTVSPropertyOp44
 70
     1
102
RTVSPropertyOp45
 70
     1
102
RTVSPropertyOp46
 70
     1
102
RTVSPropertyOp47
 70
     1
102
RTVSPropertyOp48
 70
     1
102
RTVSPropertyOp49
 70
     1
102
RTVSPropertyOp50
 70
     1
102
RTVSPropertyOp51
 70
     0
102
RTVSPropertyOp52
 70
     0
102
RTVSPropertyOp53
 70
     1
102
RTVSPropertyOp54
 70
     1
102
RTVSPropertyOp55
 70
     1
102
RTVSPropertyOp56
 70
     1
102
RTVSPropertyOp57
 70
     1
102
RTVSPropertyOp58
 70
     1
102
RTVSPropertyOp59
 70
     1
102
RTVSPropertyOp60
 70
     1
102
RTVSPropertyOp61
 70
     1
102
RTVSPropertyOp62
 70
     1
  0
XRECORD
  5
38D2
102
{ACAD_REACTORS
330
38D1
102
}
330
38D1
100
AcDbXrecord
280
     1
102
RTVSPost2010Prop28
280
     0
102
RTVSPost2010PropOp28
 70
     1
102
RTVSPost2010Prop29
280
     1
102
RTVSPost2010PropOp29
 70
     1
102
RTVSPost2010Prop30
280
     1
102
RTVSPost2010PropOp30
 70
     1
102
RTVSPost2010Prop31
280
     0
102
RTVSPost2010PropOp31
 70
     1
102
RTVSPost2010Prop32
280
     0
102
RTVSPost2010PropOp32
 70
     1
102
RTVSPost2010Prop33
280
     0
102
RTVSPost2010PropOp33
 70
     1
102
RTVSPost2010Prop34
280
     0
102
RTVSPost2010PropOp34
 70
     1
102
RTVSPost2010Prop35
280
     0
102
RTVSPost2010PropOp35
 70
     1
102
RTVSPost2010Prop36
280
     0
102
RTVSPost2010PropOp36
 70
     1
102
RTVSPost2010Prop37
 90
       50
102
RTVSPost2010PropOp37
 70
     1
102
RTVSPost2010Prop38
140
0.0
102
RTVSPost2010PropOp38
 70
     1
102
RTVSPost2010Prop39
140
1.0
102
RTVSPost2010PropOp39
 70
     1
102
RTVSPost2010Prop40
 90
        0
102
RTVSPost2010PropOp40
 70
     1
102
RTVSPost2010Prop41ColorIndex
 90
       18
102
RTVSPost2010Prop41ColorRGB
 90
        0
102
RTVSPost2010PropOp41
 70
     1
102
RTVSPost2010Prop42
 90
       50
102
RTVSPost2010PropOp42
 70
     1
102
RTVSPost2010Prop43
 90
        3
102
RTVSPost2010PropOp43
 70
     1
102
RTVSPost2010Prop44ColorIndex
 90
        5
102
RTVSPost2010Prop44ColorRGB
 90
      255
102
RTVSPost2010PropOp44
 70
     1
102
RTVSPost2010Prop45
280
     0
102
RTVSPost2010PropOp45
 70
     1
102
RTVSPost2010Prop46
 90
       50
102
RTVSPost2010PropOp46
 70
     1
102
RTVSPost2010Prop47
 90
       50
102
RTVSPost2010PropOp47
 70
     1
102
RTVSPost2010Prop48
 90
       50
102
RTVSPost2010PropOp48
 70
     1
102
RTVSPost2010Prop49
280
     0
102
RTVSPost2010PropOp49
 70
     1
102
RTVSPost2010Prop50
 90
       50
102
RTVSPost2010PropOp50
 70
     1
102
RTVSPost2010Prop51ColorIndex
 90
      256
102
RTVSPost2010Prop51ColorRGB
 90
-16777216
102
RTVSPost2010PropOp51
 70
     0
102
RTVSPost2010Prop52
140
1.0
102
RTVSPost2010PropOp52
 70
     0
102
RTVSPost2010Prop53
 90
        2
102
RTVSPost2010PropOp53
 70
     1
102
RTVSPost2010Prop54
  1
strokes_ogs.tif
102
RTVSPost2010PropOp54
 70
     1
102
RTVSPost2010Prop55
280
     0
102
RTVSPost2010PropOp55
 70
     1
102
RTVSPost2010Prop56
140
1.0
102
RTVSPost2010PropOp56
 70
     1
102
RTVSPost2010Prop57
140
1.0
102
RTVSPost2010PropOp57
 70
     1
102
RTVSPropertyOp0
 70
     0
102
RTVSPropertyOp1
 70
     0
102
RTVSPropertyOp2
 70
     0
102
RTVSPropertyOp3
 70
     0
102
RTVSPropertyOp4
 70
     0
102
RTVSPropertyOp5
 70
     0
102
RTVSPropertyOp6
 70
     0
102
RTVSPropertyOp7
 70
     0
102
RTVSPropertyOp8
 70
     0
102
RTVSPropertyOp9
 70
     0
102
RTVSPropertyOp10
 70
     0
102
RTVSPropertyOp11
 70
     0
102
RTVSPropertyOp12
 70
     0
102
RTVSPropertyOp13
 70
     0
102
RTVSPropertyOp14
 70
     2
102
RTVSPropertyOp15
 70
     0
102
RTVSPropertyOp16
 70
     0
102
RTVSPropertyOp17
 70
     0
102
RTVSPropertyOp18
 70
     0
102
RTVSPropertyOp19
 70
     0
102
RTVSPropertyOp20
 70
     0
102
RTVSPropertyOp21
 70
     0
102
RTVSPropertyOp22
 70
     0
102
RTVSPropertyOp23
 70
     0
102
RTVSPropertyOp24
 70
     0
102
RTVSPropertyOp25
 70
     0
102
RTVSPropertyOp26
 70
     0
102
RTVSPropertyOp27
 70
     0
102
RTVSPropertyOp28
 70
     1
102
RTVSPropertyOp29
 70
     1
102
RTVSPropertyOp30
 70
     1
102
RTVSPropertyOp31
 70
     1
102
RTVSPropertyOp32
 70
     1
102
RTVSPropertyOp33
 70
     1
102
RTVSPropertyOp34
 70
     1
102
RTVSPropertyOp35
 70
     1
102
RTVSPropertyOp36
 70
     1
102
RTVSPropertyOp37
 70
     1
102
RTVSPropertyOp38
 70
     1
102
RTVSPropertyOp39
 70
     1
102
RTVSPropertyOp40
 70
     1
102
RTVSPropertyOp41
 70
     1
102
RTVSPropertyOp42
 70
     1
102
RTVSPropertyOp43
 70
     1
102
RTVSPropertyOp44
 70
     1
102
RTVSPropertyOp45
 70
     1
102
RTVSPropertyOp46
 70
     1
102
RTVSPropertyOp47
 70
     1
102
RTVSPropertyOp48
 70
     1
102
RTVSPropertyOp49
 70
     1
102
RTVSPropertyOp50
 70
     1
102
RTVSPropertyOp51
 70
     0
102
RTVSPropertyOp52
 70
     0
102
RTVSPropertyOp53
 70
     1
102
RTVSPropertyOp54
 70
     1
102
RTVSPropertyOp55
 70
     1
102
RTVSPropertyOp56
 70
     1
102
RTVSPropertyOp57
 70
     1
102
RTVSPropertyOp58
 70
     1
102
RTVSPropertyOp59
 70
     1
102
RTVSPropertyOp60
 70
     1
102
RTVSPropertyOp61
 70
     1
102
RTVSPropertyOp62
 70
     1
  0
XRECORD
  5
38CA
102
{ACAD_REACTORS
330
38C9
102
}
330
38C9
100
AcDbXrecord
280
     1
102
RTVSPost2010Prop28
280
     0
102
RTVSPost2010PropOp28
 70
     1
102
RTVSPost2010Prop29
280
     1
102
RTVSPost2010PropOp29
 70
     1
102
RTVSPost2010Prop30
280
     1
102
RTVSPost2010PropOp30
 70
     1
102
RTVSPost2010Prop31
280
     0
102
RTVSPost2010PropOp31
 70
     1
102
RTVSPost2010Prop32
280
     0
102
RTVSPost2010PropOp32
 70
     1
102
RTVSPost2010Prop33
280
     0
102
RTVSPost2010PropOp33
 70
     1
102
RTVSPost2010Prop34
280
     0
102
RTVSPost2010PropOp34
 70
     1
102
RTVSPost2010Prop35
280
     0
102
RTVSPost2010PropOp35
 70
     1
102
RTVSPost2010Prop36
280
     0
102
RTVSPost2010PropOp36
 70
     1
102
RTVSPost2010Prop37
 90
       50
102
RTVSPost2010PropOp37
 70
     1
102
RTVSPost2010Prop38
140
0.0
102
RTVSPost2010PropOp38
 70
     1
102
RTVSPost2010Prop39
140
1.0
102
RTVSPost2010PropOp39
 70
     1
102
RTVSPost2010Prop40
 90
        0
102
RTVSPost2010PropOp40
 70
     1
102
RTVSPost2010Prop41ColorIndex
 90
       18
102
RTVSPost2010Prop41ColorRGB
 90
        0
102
RTVSPost2010PropOp41
 70
     1
102
RTVSPost2010Prop42
 90
       50
102
RTVSPost2010PropOp42
 70
     1
102
RTVSPost2010Prop43
 90
        3
102
RTVSPost2010PropOp43
 70
     1
102
RTVSPost2010Prop44ColorIndex
 90
        5
102
RTVSPost2010Prop44ColorRGB
 90
      255
102
RTVSPost2010PropOp44
 70
     1
102
RTVSPost2010Prop45
280
     0
102
RTVSPost2010PropOp45
 70
     1
102
RTVSPost2010Prop46
 90
       50
102
RTVSPost2010PropOp46
 70
     1
102
RTVSPost2010Prop47
 90
       50
102
RTVSPost2010PropOp47
 70
     1
102
RTVSPost2010Prop48
 90
       50
102
RTVSPost2010PropOp48
 70
     1
102
RTVSPost2010Prop49
280
     0
102
RTVSPost2010PropOp49
 70
     1
102
RTVSPost2010Prop50
 90
       50
102
RTVSPost2010PropOp50
 70
     1
102
RTVSPost2010Prop51ColorIndex
 90
      256
102
RTVSPost2010Prop51ColorRGB
 90
-16777216
102
RTVSPost2010PropOp51
 70
     0
102
RTVSPost2010Prop52
140
1.0
102
RTVSPost2010PropOp52
 70
     0
102
RTVSPost2010Prop53
 90
        2
102
RTVSPost2010PropOp53
 70
     1
102
RTVSPost2010Prop54
  1
strokes_ogs.tif
102
RTVSPost2010PropOp54
 70
     1
102
RTVSPost2010Prop55
280
     0
102
RTVSPost2010PropOp55
 70
     1
102
RTVSPost2010Prop56
140
1.0
102
RTVSPost2010PropOp56
 70
     1
102
RTVSPost2010Prop57
140
1.0
102
RTVSPost2010PropOp57
 70
     1
102
RTVSPropertyOp0
 70
     1
102
RTVSPropertyOp1
 70
     1
102
RTVSPropertyOp2
 70
     1
102
RTVSPropertyOp3
 70
     1
102
RTVSPropertyOp4
 70
     1
102
RTVSPropertyOp5
 70
     1
102
RTVSPropertyOp6
 70
     1
102
RTVSPropertyOp7
 70
     1
102
RTVSPropertyOp8
 70
     1
102
RTVSPropertyOp9
 70
     1
102
RTVSPropertyOp10
 70
     1
102
RTVSPropertyOp11
 70
     1
102
RTVSPropertyOp12
 70
     1
102
RTVSPropertyOp13
 70
     1
102
RTVSPropertyOp14
 70
     1
102
RTVSPropertyOp15
 70
     1
102
RTVSPropertyOp16
 70
     1
102
RTVSPropertyOp17
 70
     1
102
RTVSPropertyOp18
 70
     1
102
RTVSPropertyOp19
 70
     1
102
RTVSPropertyOp20
 70
     1
102
RTVSPropertyOp21
 70
     1
102
RTVSPropertyOp22
 70
     1
102
RTVSPropertyOp23
 70
     1
102
RTVSPropertyOp24
 70
     1
102
RTVSPropertyOp25
 70
     1
102
RTVSPropertyOp26
 70
     1
102
RTVSPropertyOp27
 70
     1
102
RTVSPropertyOp28
 70
     1
102
RTVSPropertyOp29
 70
     1
102
RTVSPropertyOp30
 70
     1
102
RTVSPropertyOp31
 70
     1
102
RTVSPropertyOp32
 70
     1
102
RTVSPropertyOp33
 70
     1
102
RTVSPropertyOp34
 70
     1
102
RTVSPropertyOp35
 70
     1
102
RTVSPropertyOp36
 70
     1
102
RTVSPropertyOp37
 70
     1
102
RTVSPropertyOp38
 70
     1
102
RTVSPropertyOp39
 70
     1
102
RTVSPropertyOp40
 70
     1
102
RTVSPropertyOp41
 70
     1
102
RTVSPropertyOp42
 70
     1
102
RTVSPropertyOp43
 70
     1
102
RTVSPropertyOp44
 70
     1
102
RTVSPropertyOp45
 70
     1
102
RTVSPropertyOp46
 70
     1
102
RTVSPropertyOp47
 70
     1
102
RTVSPropertyOp48
 70
     1
102
RTVSPropertyOp49
 70
     1
102
RTVSPropertyOp50
 70
     1
102
RTVSPropertyOp51
 70
     0
102
RTVSPropertyOp52
 70
     0
102
RTVSPropertyOp53
 70
     1
102
RTVSPropertyOp54
 70
     1
102
RTVSPropertyOp55
 70
     1
102
RTVSPropertyOp56
 70
     1
102
RTVSPropertyOp57
 70
     1
102
RTVSPropertyOp58
 70
     1
102
RTVSPropertyOp59
 70
     1
102
RTVSPropertyOp60
 70
     1
102
RTVSPropertyOp61
 70
     1
102
RTVSPropertyOp62
 70
     1
  0
XRECORD
  5
38AE
102
{ACAD_REACTORS
330
38AD
102
}
330
38AD
100
AcDbXrecord
280
     1
102
RTVSPost2010Prop28
280
     0
102
RTVSPost2010PropOp28
 70
     1
102
RTVSPost2010Prop29
280
     1
102
RTVSPost2010PropOp29
 70
     1
102
RTVSPost2010Prop30
280
     1
102
RTVSPost2010PropOp30
 70
     1
102
RTVSPost2010Prop31
280
     0
102
RTVSPost2010PropOp31
 70
     1
102
RTVSPost2010Prop32
280
     0
102
RTVSPost2010PropOp32
 70
     1
102
RTVSPost2010Prop33
280
     0
102
RTVSPost2010PropOp33
 70
     1
102
RTVSPost2010Prop34
280
     0
102
RTVSPost2010PropOp34
 70
     1
102
RTVSPost2010Prop35
280
     0
102
RTVSPost2010PropOp35
 70
     1
102
RTVSPost2010Prop36
280
     0
102
RTVSPost2010PropOp36
 70
     1
102
RTVSPost2010Prop37
 90
       50
102
RTVSPost2010PropOp37
 70
     1
102
RTVSPost2010Prop38
140
0.0
102
RTVSPost2010PropOp38
 70
     1
102
RTVSPost2010Prop39
140
1.0
102
RTVSPost2010PropOp39
 70
     1
102
RTVSPost2010Prop40
 90
        0
102
RTVSPost2010PropOp40
 70
     1
102
RTVSPost2010Prop41ColorIndex
 90
       18
102
RTVSPost2010Prop41ColorRGB
 90
        0
102
RTVSPost2010PropOp41
 70
     1
102
RTVSPost2010Prop42
 90
       50
102
RTVSPost2010PropOp42
 70
     1
102
RTVSPost2010Prop43
 90
        3
102
RTVSPost2010PropOp43
 70
     1
102
RTVSPost2010Prop44ColorIndex
 90
        5
102
RTVSPost2010Prop44ColorRGB
 90
      255
102
RTVSPost2010PropOp44
 70
     1
102
RTVSPost2010Prop45
280
     0
102
RTVSPost2010PropOp45
 70
     1
102
RTVSPost2010Prop46
 90
       50
102
RTVSPost2010PropOp46
 70
     1
102
RTVSPost2010Prop47
 90
       50
102
RTVSPost2010PropOp47
 70
     1
102
RTVSPost2010Prop48
 90
       50
102
RTVSPost2010PropOp48
 70
     1
102
RTVSPost2010Prop49
280
     0
102
RTVSPost2010PropOp49
 70
     1
102
RTVSPost2010Prop50
 90
       50
102
RTVSPost2010PropOp50
 70
     1
102
RTVSPost2010Prop51ColorIndex
 90
      256
102
RTVSPost2010Prop51ColorRGB
 90
-16777216
102
RTVSPost2010PropOp51
 70
     0
102
RTVSPost2010Prop52
140
1.0
102
RTVSPost2010PropOp52
 70
     0
102
RTVSPost2010Prop53
 90
        2
102
RTVSPost2010PropOp53
 70
     1
102
RTVSPost2010Prop54
  1
strokes_ogs.tif
102
RTVSPost2010PropOp54
 70
     1
102
RTVSPost2010Prop55
280
     0
102
RTVSPost2010PropOp55
 70
     1
102
RTVSPost2010Prop56
140
1.0
102
RTVSPost2010PropOp56
 70
     1
102
RTVSPost2010Prop57
140
1.0
102
RTVSPost2010PropOp57
 70
     1
102
RTVSPropertyOp0
 70
     1
102
RTVSPropertyOp1
 70
     1
102
RTVSPropertyOp2
 70
     1
102
RTVSPropertyOp3
 70
     1
102
RTVSPropertyOp4
 70
     1
102
RTVSPropertyOp5
 70
     1
102
RTVSPropertyOp6
 70
     1
102
RTVSPropertyOp7
 70
     1
102
RTVSPropertyOp8
 70
     1
102
RTVSPropertyOp9
 70
     1
102
RTVSPropertyOp10
 70
     1
102
RTVSPropertyOp11
 70
     1
102
RTVSPropertyOp12
 70
     1
102
RTVSPropertyOp13
 70
     1
102
RTVSPropertyOp14
 70
     1
102
RTVSPropertyOp15
 70
     1
102
RTVSPropertyOp16
 70
     1
102
RTVSPropertyOp17
 70
     1
102
RTVSPropertyOp18
 70
     1
102
RTVSPropertyOp19
 70
     1
102
RTVSPropertyOp20
 70
     1
102
RTVSPropertyOp21
 70
     1
102
RTVSPropertyOp22
 70
     1
102
RTVSPropertyOp23
 70
     1
102
RTVSPropertyOp24
 70
     1
102
RTVSPropertyOp25
 70
     1
102
RTVSPropertyOp26
 70
     1
102
RTVSPropertyOp27
 70
     1
102
RTVSPropertyOp28
 70
     1
102
RTVSPropertyOp29
 70
     1
102
RTVSPropertyOp30
 70
     1
102
RTVSPropertyOp31
 70
     1
102
RTVSPropertyOp32
 70
     1
102
RTVSPropertyOp33
 70
     1
102
RTVSPropertyOp34
 70
     1
102
RTVSPropertyOp35
 70
     1
102
RTVSPropertyOp36
 70
     1
102
RTVSPropertyOp37
 70
     1
102
RTVSPropertyOp38
 70
     1
102
RTVSPropertyOp39
 70
     1
102
RTVSPropertyOp40
 70
     1
102
RTVSPropertyOp41
 70
     1
102
RTVSPropertyOp42
 70
     1
102
RTVSPropertyOp43
 70
     1
102
RTVSPropertyOp44
 70
     1
102
RTVSPropertyOp45
 70
     1
102
RTVSPropertyOp46
 70
     1
102
RTVSPropertyOp47
 70
     1
102
RTVSPropertyOp48
 70
     1
102
RTVSPropertyOp49
 70
     1
102
RTVSPropertyOp50
 70
     1
102
RTVSPropertyOp51
 70
     0
102
RTVSPropertyOp52
 70
     0
102
RTVSPropertyOp53
 70
     1
102
RTVSPropertyOp54
 70
     1
102
RTVSPropertyOp55
 70
     1
102
RTVSPropertyOp56
 70
     1
102
RTVSPropertyOp57
 70
     1
102
RTVSPropertyOp58
 70
     1
102
RTVSPropertyOp59
 70
     1
102
RTVSPropertyOp60
 70
     1
102
RTVSPropertyOp61
 70
     1
102
RTVSPropertyOp62
 70
     1
  0
XRECORD
  5
38B0
102
{ACAD_REACTORS
330
38AF
102
}
330
38AF
100
AcDbXrecord
280
     1
102
RTVSPost2010Prop28
280
     0
102
RTVSPost2010PropOp28
 70
     1
102
RTVSPost2010Prop29
280
     1
102
RTVSPost2010PropOp29
 70
     1
102
RTVSPost2010Prop30
280
     1
102
RTVSPost2010PropOp30
 70
     1
102
RTVSPost2010Prop31
280
     0
102
RTVSPost2010PropOp31
 70
     1
102
RTVSPost2010Prop32
280
     0
102
RTVSPost2010PropOp32
 70
     1
102
RTVSPost2010Prop33
280
     0
102
RTVSPost2010PropOp33
 70
     1
102
RTVSPost2010Prop34
280
     0
102
RTVSPost2010PropOp34
 70
     1
102
RTVSPost2010Prop35
280
     0
102
RTVSPost2010PropOp35
 70
     1
102
RTVSPost2010Prop36
280
     0
102
RTVSPost2010PropOp36
 70
     1
102
RTVSPost2010Prop37
 90
       50
102
RTVSPost2010PropOp37
 70
     1
102
RTVSPost2010Prop38
140
0.0
102
RTVSPost2010PropOp38
 70
     1
102
RTVSPost2010Prop39
140
1.0
102
RTVSPost2010PropOp39
 70
     1
102
RTVSPost2010Prop40
 90
        0
102
RTVSPost2010PropOp40
 70
     1
102
RTVSPost2010Prop41ColorIndex
 90
       18
102
RTVSPost2010Prop41ColorRGB
 90
        0
102
RTVSPost2010PropOp41
 70
     1
102
RTVSPost2010Prop42
 90
       50
102
RTVSPost2010PropOp42
 70
     1
102
RTVSPost2010Prop43
 90
        3
102
RTVSPost2010PropOp43
 70
     1
102
RTVSPost2010Prop44ColorIndex
 90
        5
102
RTVSPost2010Prop44ColorRGB
 90
      255
102
RTVSPost2010PropOp44
 70
     1
102
RTVSPost2010Prop45
280
     0
102
RTVSPost2010PropOp45
 70
     1
102
RTVSPost2010Prop46
 90
       50
102
RTVSPost2010PropOp46
 70
     1
102
RTVSPost2010Prop47
 90
       50
102
RTVSPost2010PropOp47
 70
     1
102
RTVSPost2010Prop48
 90
       50
102
RTVSPost2010PropOp48
 70
     1
102
RTVSPost2010Prop49
280
     0
102
RTVSPost2010PropOp49
 70
     1
102
RTVSPost2010Prop50
 90
       50
102
RTVSPost2010PropOp50
 70
     1
102
RTVSPost2010Prop51ColorIndex
 90
      256
102
RTVSPost2010Prop51ColorRGB
 90
-16777216
102
RTVSPost2010PropOp51
 70
     0
102
RTVSPost2010Prop52
140
1.0
102
RTVSPost2010PropOp52
 70
     0
102
RTVSPost2010Prop53
 90
        2
102
RTVSPost2010PropOp53
 70
     1
102
RTVSPost2010Prop54
  1
strokes_ogs.tif
102
RTVSPost2010PropOp54
 70
     1
102
RTVSPost2010Prop55
280
     0
102
RTVSPost2010PropOp55
 70
     1
102
RTVSPost2010Prop56
140
1.0
102
RTVSPost2010PropOp56
 70
     1
102
RTVSPost2010Prop57
140
1.0
102
RTVSPost2010PropOp57
 70
     1
102
RTVSPropertyOp0
 70
     1
102
RTVSPropertyOp1
 70
     1
102
RTVSPropertyOp2
 70
     1
102
RTVSPropertyOp3
 70
     1
102
RTVSPropertyOp4
 70
     1
102
RTVSPropertyOp5
 70
     1
102
RTVSPropertyOp6
 70
     1
102
RTVSPropertyOp7
 70
     1
102
RTVSPropertyOp8
 70
     1
102
RTVSPropertyOp9
 70
     1
102
RTVSPropertyOp10
 70
     1
102
RTVSPropertyOp11
 70
     1
102
RTVSPropertyOp12
 70
     1
102
RTVSPropertyOp13
 70
     1
102
RTVSPropertyOp14
 70
     1
102
RTVSPropertyOp15
 70
     1
102
RTVSPropertyOp16
 70
     1
102
RTVSPropertyOp17
 70
     1
102
RTVSPropertyOp18
 70
     1
102
RTVSPropertyOp19
 70
     1
102
RTVSPropertyOp20
 70
     1
102
RTVSPropertyOp21
 70
     1
102
RTVSPropertyOp22
 70
     1
102
RTVSPropertyOp23
 70
     1
102
RTVSPropertyOp24
 70
     1
102
RTVSPropertyOp25
 70
     1
102
RTVSPropertyOp26
 70
     1
102
RTVSPropertyOp27
 70
     1
102
RTVSPropertyOp28
 70
     1
102
RTVSPropertyOp29
 70
     1
102
RTVSPropertyOp30
 70
     1
102
RTVSPropertyOp31
 70
     1
102
RTVSPropertyOp32
 70
     1
102
RTVSPropertyOp33
 70
     1
102
RTVSPropertyOp34
 70
     1
102
RTVSPropertyOp35
 70
     1
102
RTVSPropertyOp36
 70
     1
102
RTVSPropertyOp37
 70
     1
102
RTVSPropertyOp38
 70
     1
102
RTVSPropertyOp39
 70
     1
102
RTVSPropertyOp40
 70
     1
102
RTVSPropertyOp41
 70
     1
102
RTVSPropertyOp42
 70
     1
102
RTVSPropertyOp43
 70
     1
102
RTVSPropertyOp44
 70
     1
102
RTVSPropertyOp45
 70
     1
102
RTVSPropertyOp46
 70
     1
102
RTVSPropertyOp47
 70
     1
102
RTVSPropertyOp48
 70
     1
102
RTVSPropertyOp49
 70
     1
102
RTVSPropertyOp50
 70
     1
102
RTVSPropertyOp51
 70
     0
102
RTVSPropertyOp52
 70
     0
102
RTVSPropertyOp53
 70
     1
102
RTVSPropertyOp54
 70
     1
102
RTVSPropertyOp55
 70
     1
102
RTVSPropertyOp56
 70
     1
102
RTVSPropertyOp57
 70
     1
102
RTVSPropertyOp58
 70
     1
102
RTVSPropertyOp59
 70
     1
102
RTVSPropertyOp60
 70
     1
102
RTVSPropertyOp61
 70
     1
102
RTVSPropertyOp62
 70
     1
  0
XRECORD
  5
38B2
102
{ACAD_REACTORS
330
38B1
102
}
330
38B1
100
AcDbXrecord
280
     1
102
RTVSPost2010Prop28
280
     0
102
RTVSPost2010PropOp28
 70
     1
102
RTVSPost2010Prop29
280
     1
102
RTVSPost2010PropOp29
 70
     1
102
RTVSPost2010Prop30
280
     1
102
RTVSPost2010PropOp30
 70
     1
102
RTVSPost2010Prop31
280
     0
102
RTVSPost2010PropOp31
 70
     1
102
RTVSPost2010Prop32
280
     0
102
RTVSPost2010PropOp32
 70
     1
102
RTVSPost2010Prop33
280
     0
102
RTVSPost2010PropOp33
 70
     1
102
RTVSPost2010Prop34
280
     0
102
RTVSPost2010PropOp34
 70
     1
102
RTVSPost2010Prop35
280
     0
102
RTVSPost2010PropOp35
 70
     1
102
RTVSPost2010Prop36
280
     0
102
RTVSPost2010PropOp36
 70
     1
102
RTVSPost2010Prop37
 90
       50
102
RTVSPost2010PropOp37
 70
     1
102
RTVSPost2010Prop38
140
0.0
102
RTVSPost2010PropOp38
 70
     1
102
RTVSPost2010Prop39
140
1.0
102
RTVSPost2010PropOp39
 70
     1
102
RTVSPost2010Prop40
 90
        0
102
RTVSPost2010PropOp40
 70
     1
102
RTVSPost2010Prop41ColorIndex
 90
       18
102
RTVSPost2010Prop41ColorRGB
 90
        0
102
RTVSPost2010PropOp41
 70
     1
102
RTVSPost2010Prop42
 90
       50
102
RTVSPost2010PropOp42
 70
     1
102
RTVSPost2010Prop43
 90
        3
102
RTVSPost2010PropOp43
 70
     1
102
RTVSPost2010Prop44ColorIndex
 90
        5
102
RTVSPost2010Prop44ColorRGB
 90
      255
102
RTVSPost2010PropOp44
 70
     1
102
RTVSPost2010Prop45
280
     0
102
RTVSPost2010PropOp45
 70
     1
102
RTVSPost2010Prop46
 90
       50
102
RTVSPost2010PropOp46
 70
     1
102
RTVSPost2010Prop47
 90
       50
102
RTVSPost2010PropOp47
 70
     1
102
RTVSPost2010Prop48
 90
       50
102
RTVSPost2010PropOp48
 70
     1
102
RTVSPost2010Prop49
280
     0
102
RTVSPost2010PropOp49
 70
     1
102
RTVSPost2010Prop50
 90
       50
102
RTVSPost2010PropOp50
 70
     1
102
RTVSPost2010Prop51ColorIndex
 90
      256
102
RTVSPost2010Prop51ColorRGB
 90
-16777216
102
RTVSPost2010PropOp51
 70
     0
102
RTVSPost2010Prop52
140
1.0
102
RTVSPost2010PropOp52
 70
     0
102
RTVSPost2010Prop53
 90
        2
102
RTVSPost2010PropOp53
 70
     1
102
RTVSPost2010Prop54
  1
strokes_ogs.tif
102
RTVSPost2010PropOp54
 70
     1
102
RTVSPost2010Prop55
280
     0
102
RTVSPost2010PropOp55
 70
     1
102
RTVSPost2010Prop56
140
1.0
102
RTVSPost2010PropOp56
 70
     1
102
RTVSPost2010Prop57
140
1.0
102
RTVSPost2010PropOp57
 70
     1
102
RTVSPropertyOp0
 70
     1
102
RTVSPropertyOp1
 70
     1
102
RTVSPropertyOp2
 70
     1
102
RTVSPropertyOp3
 70
     1
102
RTVSPropertyOp4
 70
     1
102
RTVSPropertyOp5
 70
     1
102
RTVSPropertyOp6
 70
     1
102
RTVSPropertyOp7
 70
     1
102
RTVSPropertyOp8
 70
     1
102
RTVSPropertyOp9
 70
     1
102
RTVSPropertyOp10
 70
     1
102
RTVSPropertyOp11
 70
     1
102
RTVSPropertyOp12
 70
     1
102
RTVSPropertyOp13
 70
     1
102
RTVSPropertyOp14
 70
     1
102
RTVSPropertyOp15
 70
     1
102
RTVSPropertyOp16
 70
     1
102
RTVSPropertyOp17
 70
     1
102
RTVSPropertyOp18
 70
     1
102
RTVSPropertyOp19
 70
     1
102
RTVSPropertyOp20
 70
     1
102
RTVSPropertyOp21
 70
     1
102
RTVSPropertyOp22
 70
     1
102
RTVSPropertyOp23
 70
     1
102
RTVSPropertyOp24
 70
     1
102
RTVSPropertyOp25
 70
     1
102
RTVSPropertyOp26
 70
     1
102
RTVSPropertyOp27
 70
     1
102
RTVSPropertyOp28
 70
     1
102
RTVSPropertyOp29
 70
     1
102
RTVSPropertyOp30
 70
     1
102
RTVSPropertyOp31
 70
     1
102
RTVSPropertyOp32
 70
     1
102
RTVSPropertyOp33
 70
     1
102
RTVSPropertyOp34
 70
     1
102
RTVSPropertyOp35
 70
     1
102
RTVSPropertyOp36
 70
     1
102
RTVSPropertyOp37
 70
     1
102
RTVSPropertyOp38
 70
     1
102
RTVSPropertyOp39
 70
     1
102
RTVSPropertyOp40
 70
     1
102
RTVSPropertyOp41
 70
     1
102
RTVSPropertyOp42
 70
     1
102
RTVSPropertyOp43
 70
     1
102
RTVSPropertyOp44
 70
     1
102
RTVSPropertyOp45
 70
     1
102
RTVSPropertyOp46
 70
     1
102
RTVSPropertyOp47
 70
     1
102
RTVSPropertyOp48
 70
     1
102
RTVSPropertyOp49
 70
     1
102
RTVSPropertyOp50
 70
     1
102
RTVSPropertyOp51
 70
     0
102
RTVSPropertyOp52
 70
     0
102
RTVSPropertyOp53
 70
     1
102
RTVSPropertyOp54
 70
     1
102
RTVSPropertyOp55
 70
     1
102
RTVSPropertyOp56
 70
     1
102
RTVSPropertyOp57
 70
     1
102
RTVSPropertyOp58
 70
     1
102
RTVSPropertyOp59
 70
     1
102
RTVSPropertyOp60
 70
     1
102
RTVSPropertyOp61
 70
     1
102
RTVSPropertyOp62
 70
     1
  0
XRECORD
  5
38B4
102
{ACAD_REACTORS
330
38B3
102
}
330
38B3
100
AcDbXrecord
280
     1
102
RTVSPost2010Prop28
280
     0
102
RTVSPost2010PropOp28
 70
     1
102
RTVSPost2010Prop29
280
     1
102
RTVSPost2010PropOp29
 70
     1
102
RTVSPost2010Prop30
280
     1
102
RTVSPost2010PropOp30
 70
     1
102
RTVSPost2010Prop31
280
     0
102
RTVSPost2010PropOp31
 70
     1
102
RTVSPost2010Prop32
280
     0
102
RTVSPost2010PropOp32
 70
     1
102
RTVSPost2010Prop33
280
     0
102
RTVSPost2010PropOp33
 70
     1
102
RTVSPost2010Prop34
280
     0
102
RTVSPost2010PropOp34
 70
     1
102
RTVSPost2010Prop35
280
     0
102
RTVSPost2010PropOp35
 70
     1
102
RTVSPost2010Prop36
280
     0
102
RTVSPost2010PropOp36
 70
     1
102
RTVSPost2010Prop37
 90
       50
102
RTVSPost2010PropOp37
 70
     1
102
RTVSPost2010Prop38
140
0.0
102
RTVSPost2010PropOp38
 70
     1
102
RTVSPost2010Prop39
140
1.0
102
RTVSPost2010PropOp39
 70
     1
102
RTVSPost2010Prop40
 90
        0
102
RTVSPost2010PropOp40
 70
     1
102
RTVSPost2010Prop41ColorIndex
 90
       18
102
RTVSPost2010Prop41ColorRGB
 90
        0
102
RTVSPost2010PropOp41
 70
     1
102
RTVSPost2010Prop42
 90
       50
102
RTVSPost2010PropOp42
 70
     1
102
RTVSPost2010Prop43
 90
        3
102
RTVSPost2010PropOp43
 70
     1
102
RTVSPost2010Prop44ColorIndex
 90
        5
102
RTVSPost2010Prop44ColorRGB
 90
      255
102
RTVSPost2010PropOp44
 70
     1
102
RTVSPost2010Prop45
280
     0
102
RTVSPost2010PropOp45
 70
     1
102
RTVSPost2010Prop46
 90
       50
102
RTVSPost2010PropOp46
 70
     1
102
RTVSPost2010Prop47
 90
       50
102
RTVSPost2010PropOp47
 70
     1
102
RTVSPost2010Prop48
 90
       50
102
RTVSPost2010PropOp48
 70
     1
102
RTVSPost2010Prop49
280
     0
102
RTVSPost2010PropOp49
 70
     1
102
RTVSPost2010Prop50
 90
       50
102
RTVSPost2010PropOp50
 70
     1
102
RTVSPost2010Prop51ColorIndex
 90
      256
102
RTVSPost2010Prop51ColorRGB
 90
-16777216
102
RTVSPost2010PropOp51
 70
     0
102
RTVSPost2010Prop52
140
1.0
102
RTVSPost2010PropOp52
 70
     0
102
RTVSPost2010Prop53
 90
        2
102
RTVSPost2010PropOp53
 70
     1
102
RTVSPost2010Prop54
  1
strokes_ogs.tif
102
RTVSPost2010PropOp54
 70
     1
102
RTVSPost2010Prop55
280
     0
102
RTVSPost2010PropOp55
 70
     1
102
RTVSPost2010Prop56
140
1.0
102
RTVSPost2010PropOp56
 70
     1
102
RTVSPost2010Prop57
140
1.0
102
RTVSPost2010PropOp57
 70
     1
102
RTVSPropertyOp0
 70
     1
102
RTVSPropertyOp1
 70
     1
102
RTVSPropertyOp2
 70
     1
102
RTVSPropertyOp3
 70
     1
102
RTVSPropertyOp4
 70
     1
102
RTVSPropertyOp5
 70
     1
102
RTVSPropertyOp6
 70
     1
102
RTVSPropertyOp7
 70
     1
102
RTVSPropertyOp8
 70
     1
102
RTVSPropertyOp9
 70
     1
102
RTVSPropertyOp10
 70
     1
102
RTVSPropertyOp11
 70
     1
102
RTVSPropertyOp12
 70
     1
102
RTVSPropertyOp13
 70
     1
102
RTVSPropertyOp14
 70
     1
102
RTVSPropertyOp15
 70
     1
102
RTVSPropertyOp16
 70
     1
102
RTVSPropertyOp17
 70
     1
102
RTVSPropertyOp18
 70
     1
102
RTVSPropertyOp19
 70
     1
102
RTVSPropertyOp20
 70
     1
102
RTVSPropertyOp21
 70
     1
102
RTVSPropertyOp22
 70
     1
102
RTVSPropertyOp23
 70
     1
102
RTVSPropertyOp24
 70
     1
102
RTVSPropertyOp25
 70
     1
102
RTVSPropertyOp26
 70
     1
102
RTVSPropertyOp27
 70
     1
102
RTVSPropertyOp28
 70
     1
102
RTVSPropertyOp29
 70
     1
102
RTVSPropertyOp30
 70
     1
102
RTVSPropertyOp31
 70
     1
102
RTVSPropertyOp32
 70
     1
102
RTVSPropertyOp33
 70
     1
102
RTVSPropertyOp34
 70
     1
102
RTVSPropertyOp35
 70
     1
102
RTVSPropertyOp36
 70
     1
102
RTVSPropertyOp37
 70
     1
102
RTVSPropertyOp38
 70
     1
102
RTVSPropertyOp39
 70
     1
102
RTVSPropertyOp40
 70
     1
102
RTVSPropertyOp41
 70
     1
102
RTVSPropertyOp42
 70
     1
102
RTVSPropertyOp43
 70
     1
102
RTVSPropertyOp44
 70
     1
102
RTVSPropertyOp45
 70
     1
102
RTVSPropertyOp46
 70
     1
102
RTVSPropertyOp47
 70
     1
102
RTVSPropertyOp48
 70
     1
102
RTVSPropertyOp49
 70
     1
102
RTVSPropertyOp50
 70
     1
102
RTVSPropertyOp51
 70
     0
102
RTVSPropertyOp52
 70
     0
102
RTVSPropertyOp53
 70
     1
102
RTVSPropertyOp54
 70
     1
102
RTVSPropertyOp55
 70
     1
102
RTVSPropertyOp56
 70
     1
102
RTVSPropertyOp57
 70
     1
102
RTVSPropertyOp58
 70
     1
102
RTVSPropertyOp59
 70
     1
102
RTVSPropertyOp60
 70
     1
102
RTVSPropertyOp61
 70
     1
102
RTVSPropertyOp62
 70
     1
  0
XRECORD
  5
38E7
102
{ACAD_REACTORS
330
38E6
102
}
330
38E6
100
AcDbXrecord
280
     1
102
RTVSPost2010Prop28
280
     0
102
RTVSPost2010PropOp28
 70
     1
102
RTVSPost2010Prop29
280
     1
102
RTVSPost2010PropOp29
 70
     1
102
RTVSPost2010Prop30
280
     1
102
RTVSPost2010PropOp30
 70
     1
102
RTVSPost2010Prop31
280
     0
102
RTVSPost2010PropOp31
 70
     1
102
RTVSPost2010Prop32
280
     0
102
RTVSPost2010PropOp32
 70
     1
102
RTVSPost2010Prop33
280
     0
102
RTVSPost2010PropOp33
 70
     1
102
RTVSPost2010Prop34
280
     0
102
RTVSPost2010PropOp34
 70
     1
102
RTVSPost2010Prop35
280
     0
102
RTVSPost2010PropOp35
 70
     1
102
RTVSPost2010Prop36
280
     0
102
RTVSPost2010PropOp36
 70
     1
102
RTVSPost2010Prop37
 90
       50
102
RTVSPost2010PropOp37
 70
     1
102
RTVSPost2010Prop38
140
0.0
102
RTVSPost2010PropOp38
 70
     1
102
RTVSPost2010Prop39
140
1.0
102
RTVSPost2010PropOp39
 70
     1
102
RTVSPost2010Prop40
 90
        0
102
RTVSPost2010PropOp40
 70
     1
102
RTVSPost2010Prop41ColorIndex
 90
       18
102
RTVSPost2010Prop41ColorRGB
 90
        0
102
RTVSPost2010PropOp41
 70
     1
102
RTVSPost2010Prop42
 90
       50
102
RTVSPost2010PropOp42
 70
     1
102
RTVSPost2010Prop43
 90
        3
102
RTVSPost2010PropOp43
 70
     1
102
RTVSPost2010Prop44ColorIndex
 90
        5
102
RTVSPost2010Prop44ColorRGB
 90
      255
102
RTVSPost2010PropOp44
 70
     1
102
RTVSPost2010Prop45
280
     0
102
RTVSPost2010PropOp45
 70
     1
102
RTVSPost2010Prop46
 90
       50
102
RTVSPost2010PropOp46
 70
     1
102
RTVSPost2010Prop47
 90
       50
102
RTVSPost2010PropOp47
 70
     1
102
RTVSPost2010Prop48
 90
       50
102
RTVSPost2010PropOp48
 70
     1
102
RTVSPost2010Prop49
280
     0
102
RTVSPost2010PropOp49
 70
     1
102
RTVSPost2010Prop50
 90
       50
102
RTVSPost2010PropOp50
 70
     1
102
RTVSPost2010Prop51ColorIndex
 90
      256
102
RTVSPost2010Prop51ColorRGB
 90
-16777216
102
RTVSPost2010PropOp51
 70
     0
102
RTVSPost2010Prop52
140
1.0
102
RTVSPost2010PropOp52
 70
     0
102
RTVSPost2010Prop53
 90
        2
102
RTVSPost2010PropOp53
 70
     1
102
RTVSPost2010Prop54
  1
strokes_ogs.tif
102
RTVSPost2010PropOp54
 70
     1
102
RTVSPost2010Prop55
280
     0
102
RTVSPost2010PropOp55
 70
     1
102
RTVSPost2010Prop56
140
1.0
102
RTVSPost2010PropOp56
 70
     1
102
RTVSPost2010Prop57
140
1.0
102
RTVSPost2010PropOp57
 70
     1
102
RTVSPropertyOp0
 70
     1
102
RTVSPropertyOp1
 70
     1
102
RTVSPropertyOp2
 70
     1
102
RTVSPropertyOp3
 70
     1
102
RTVSPropertyOp4
 70
     1
102
RTVSPropertyOp5
 70
     1
102
RTVSPropertyOp6
 70
     1
102
RTVSPropertyOp7
 70
     1
102
RTVSPropertyOp8
 70
     1
102
RTVSPropertyOp9
 70
     1
102
RTVSPropertyOp10
 70
     1
102
RTVSPropertyOp11
 70
     1
102
RTVSPropertyOp12
 70
     1
102
RTVSPropertyOp13
 70
     1
102
RTVSPropertyOp14
 70
     1
102
RTVSPropertyOp15
 70
     1
102
RTVSPropertyOp16
 70
     1
102
RTVSPropertyOp17
 70
     1
102
RTVSPropertyOp18
 70
     1
102
RTVSPropertyOp19
 70
     1
102
RTVSPropertyOp20
 70
     1
102
RTVSPropertyOp21
 70
     1
102
RTVSPropertyOp22
 70
     1
102
RTVSPropertyOp23
 70
     1
102
RTVSPropertyOp24
 70
     1
102
RTVSPropertyOp25
 70
     1
102
RTVSPropertyOp26
 70
     1
102
RTVSPropertyOp27
 70
     1
102
RTVSPropertyOp28
 70
     1
102
RTVSPropertyOp29
 70
     1
102
RTVSPropertyOp30
 70
     1
102
RTVSPropertyOp31
 70
     1
102
RTVSPropertyOp32
 70
     1
102
RTVSPropertyOp33
 70
     1
102
RTVSPropertyOp34
 70
     1
102
RTVSPropertyOp35
 70
     1
102
RTVSPropertyOp36
 70
     1
102
RTVSPropertyOp37
 70
     1
102
RTVSPropertyOp38
 70
     1
102
RTVSPropertyOp39
 70
     1
102
RTVSPropertyOp40
 70
     1
102
RTVSPropertyOp41
 70
     1
102
RTVSPropertyOp42
 70
     1
102
RTVSPropertyOp43
 70
     1
102
RTVSPropertyOp44
 70
     1
102
RTVSPropertyOp45
 70
     1
102
RTVSPropertyOp46
 70
     1
102
RTVSPropertyOp47
 70
     1
102
RTVSPropertyOp48
 70
     1
102
RTVSPropertyOp49
 70
     1
102
RTVSPropertyOp50
 70
     1
102
RTVSPropertyOp51
 70
     0
102
RTVSPropertyOp52
 70
     0
102
RTVSPropertyOp53
 70
     1
102
RTVSPropertyOp54
 70
     1
102
RTVSPropertyOp55
 70
     1
102
RTVSPropertyOp56
 70
     1
102
RTVSPropertyOp57
 70
     1
102
RTVSPropertyOp58
 70
     1
102
RTVSPropertyOp59
 70
     1
102
RTVSPropertyOp60
 70
     1
102
RTVSPropertyOp61
 70
     1
102
RTVSPropertyOp62
 70
     1
  0
XRECORD
  5
38CE
102
{ACAD_REACTORS
330
38CD
102
}
330
38CD
100
AcDbXrecord
280
     1
102
RTVSPost2010Prop28
280
     0
102
RTVSPost2010PropOp28
 70
     1
102
RTVSPost2010Prop29
280
     1
102
RTVSPost2010PropOp29
 70
     1
102
RTVSPost2010Prop30
280
     1
102
RTVSPost2010PropOp30
 70
     1
102
RTVSPost2010Prop31
280
     0
102
RTVSPost2010PropOp31
 70
     1
102
RTVSPost2010Prop32
280
     0
102
RTVSPost2010PropOp32
 70
     1
102
RTVSPost2010Prop33
280
     0
102
RTVSPost2010PropOp33
 70
     1
102
RTVSPost2010Prop34
280
     0
102
RTVSPost2010PropOp34
 70
     1
102
RTVSPost2010Prop35
280
     0
102
RTVSPost2010PropOp35
 70
     1
102
RTVSPost2010Prop36
280
     0
102
RTVSPost2010PropOp36
 70
     1
102
RTVSPost2010Prop37
 90
       50
102
RTVSPost2010PropOp37
 70
     1
102
RTVSPost2010Prop38
140
0.0
102
RTVSPost2010PropOp38
 70
     1
102
RTVSPost2010Prop39
140
1.0
102
RTVSPost2010PropOp39
 70
     1
102
RTVSPost2010Prop40
 90
        0
102
RTVSPost2010PropOp40
 70
     1
102
RTVSPost2010Prop41ColorIndex
 90
       18
102
RTVSPost2010Prop41ColorRGB
 90
        0
102
RTVSPost2010PropOp41
 70
     1
102
RTVSPost2010Prop42
 90
       50
102
RTVSPost2010PropOp42
 70
     1
102
RTVSPost2010Prop43
 90
        3
102
RTVSPost2010PropOp43
 70
     1
102
RTVSPost2010Prop44ColorIndex
 90
        5
102
RTVSPost2010Prop44ColorRGB
 90
      255
102
RTVSPost2010PropOp44
 70
     1
102
RTVSPost2010Prop45
280
     0
102
RTVSPost2010PropOp45
 70
     1
102
RTVSPost2010Prop46
 90
       50
102
RTVSPost2010PropOp46
 70
     1
102
RTVSPost2010Prop47
 90
       50
102
RTVSPost2010PropOp47
 70
     1
102
RTVSPost2010Prop48
 90
       50
102
RTVSPost2010PropOp48
 70
     1
102
RTVSPost2010Prop49
280
     0
102
RTVSPost2010PropOp49
 70
     1
102
RTVSPost2010Prop50
 90
       50
102
RTVSPost2010PropOp50
 70
     1
102
RTVSPost2010Prop51ColorIndex
 90
      256
102
RTVSPost2010Prop51ColorRGB
 90
-16777216
102
RTVSPost2010PropOp51
 70
     0
102
RTVSPost2010Prop52
140
1.0
102
RTVSPost2010PropOp52
 70
     0
102
RTVSPost2010Prop53
 90
        2
102
RTVSPost2010PropOp53
 70
     1
102
RTVSPost2010Prop54
  1
strokes_ogs.tif
102
RTVSPost2010PropOp54
 70
     1
102
RTVSPost2010Prop55
280
     0
102
RTVSPost2010PropOp55
 70
     1
102
RTVSPost2010Prop56
140
1.0
102
RTVSPost2010PropOp56
 70
     1
102
RTVSPost2010Prop57
140
1.0
102
RTVSPost2010PropOp57
 70
     1
102
RTVSPropertyOp0
 70
     0
102
RTVSPropertyOp1
 70
     0
102
RTVSPropertyOp2
 70
     0
102
RTVSPropertyOp3
 70
     0
102
RTVSPropertyOp4
 70
     0
102
RTVSPropertyOp5
 70
     0
102
RTVSPropertyOp6
 70
     0
102
RTVSPropertyOp7
 70
     0
102
RTVSPropertyOp8
 70
     0
102
RTVSPropertyOp9
 70
     0
102
RTVSPropertyOp10
 70
     0
102
RTVSPropertyOp11
 70
     0
102
RTVSPropertyOp12
 70
     0
102
RTVSPropertyOp13
 70
     0
102
RTVSPropertyOp14
 70
     2
102
RTVSPropertyOp15
 70
     0
102
RTVSPropertyOp16
 70
     0
102
RTVSPropertyOp17
 70
     0
102
RTVSPropertyOp18
 70
     0
102
RTVSPropertyOp19
 70
     0
102
RTVSPropertyOp20
 70
     0
102
RTVSPropertyOp21
 70
     0
102
RTVSPropertyOp22
 70
     0
102
RTVSPropertyOp23
 70
     0
102
RTVSPropertyOp24
 70
     0
102
RTVSPropertyOp25
 70
     0
102
RTVSPropertyOp26
 70
     0
102
RTVSPropertyOp27
 70
     0
102
RTVSPropertyOp28
 70
     1
102
RTVSPropertyOp29
 70
     1
102
RTVSPropertyOp30
 70
     1
102
RTVSPropertyOp31
 70
     1
102
RTVSPropertyOp32
 70
     1
102
RTVSPropertyOp33
 70
     1
102
RTVSPropertyOp34
 70
     1
102
RTVSPropertyOp35
 70
     1
102
RTVSPropertyOp36
 70
     1
102
RTVSPropertyOp37
 70
     1
102
RTVSPropertyOp38
 70
     1
102
RTVSPropertyOp39
 70
     1
102
RTVSPropertyOp40
 70
     1
102
RTVSPropertyOp41
 70
     1
102
RTVSPropertyOp42
 70
     1
102
RTVSPropertyOp43
 70
     1
102
RTVSPropertyOp44
 70
     1
102
RTVSPropertyOp45
 70
     1
102
RTVSPropertyOp46
 70
     1
102
RTVSPropertyOp47
 70
     1
102
RTVSPropertyOp48
 70
     1
102
RTVSPropertyOp49
 70
     1
102
RTVSPropertyOp50
 70
     1
102
RTVSPropertyOp51
 70
     0
102
RTVSPropertyOp52
 70
     0
102
RTVSPropertyOp53
 70
     1
102
RTVSPropertyOp54
 70
     1
102
RTVSPropertyOp55
 70
     1
102
RTVSPropertyOp56
 70
     1
102
RTVSPropertyOp57
 70
     1
102
RTVSPropertyOp58
 70
     1
102
RTVSPropertyOp59
 70
     1
102
RTVSPropertyOp60
 70
     1
102
RTVSPropertyOp61
 70
     1
102
RTVSPropertyOp62
 70
     1
  0
XRECORD
  5
38C8
102
{ACAD_REACTORS
330
38C7
102
}
330
38C7
100
AcDbXrecord
280
     1
102
RTVSPost2010Prop28
280
     0
102
RTVSPost2010PropOp28
 70
     1
102
RTVSPost2010Prop29
280
     1
102
RTVSPost2010PropOp29
 70
     1
102
RTVSPost2010Prop30
280
     1
102
RTVSPost2010PropOp30
 70
     1
102
RTVSPost2010Prop31
280
     0
102
RTVSPost2010PropOp31
 70
     1
102
RTVSPost2010Prop32
280
     0
102
RTVSPost2010PropOp32
 70
     1
102
RTVSPost2010Prop33
280
     0
102
RTVSPost2010PropOp33
 70
     1
102
RTVSPost2010Prop34
280
     0
102
RTVSPost2010PropOp34
 70
     1
102
RTVSPost2010Prop35
280
     0
102
RTVSPost2010PropOp35
 70
     1
102
RTVSPost2010Prop36
280
     0
102
RTVSPost2010PropOp36
 70
     1
102
RTVSPost2010Prop37
 90
       50
102
RTVSPost2010PropOp37
 70
     1
102
RTVSPost2010Prop38
140
0.0
102
RTVSPost2010PropOp38
 70
     1
102
RTVSPost2010Prop39
140
1.0
102
RTVSPost2010PropOp39
 70
     1
102
RTVSPost2010Prop40
 90
        0
102
RTVSPost2010PropOp40
 70
     1
102
RTVSPost2010Prop41ColorIndex
 90
       18
102
RTVSPost2010Prop41ColorRGB
 90
        0
102
RTVSPost2010PropOp41
 70
     1
102
RTVSPost2010Prop42
 90
       50
102
RTVSPost2010PropOp42
 70
     1
102
RTVSPost2010Prop43
 90
        3
102
RTVSPost2010PropOp43
 70
     1
102
RTVSPost2010Prop44ColorIndex
 90
        5
102
RTVSPost2010Prop44ColorRGB
 90
      255
102
RTVSPost2010PropOp44
 70
     1
102
RTVSPost2010Prop45
280
     0
102
RTVSPost2010PropOp45
 70
     1
102
RTVSPost2010Prop46
 90
       50
102
RTVSPost2010PropOp46
 70
     1
102
RTVSPost2010Prop47
 90
       50
102
RTVSPost2010PropOp47
 70
     1
102
RTVSPost2010Prop48
 90
       50
102
RTVSPost2010PropOp48
 70
     1
102
RTVSPost2010Prop49
280
     0
102
RTVSPost2010PropOp49
 70
     1
102
RTVSPost2010Prop50
 90
       50
102
RTVSPost2010PropOp50
 70
     1
102
RTVSPost2010Prop51ColorIndex
 90
      256
102
RTVSPost2010Prop51ColorRGB
 90
-16777216
102
RTVSPost2010PropOp51
 70
     0
102
RTVSPost2010Prop52
140
1.0
102
RTVSPost2010PropOp52
 70
     0
102
RTVSPost2010Prop53
 90
        2
102
RTVSPost2010PropOp53
 70
     1
102
RTVSPost2010Prop54
  1
strokes_ogs.tif
102
RTVSPost2010PropOp54
 70
     1
102
RTVSPost2010Prop55
280
     0
102
RTVSPost2010PropOp55
 70
     1
102
RTVSPost2010Prop56
140
1.0
102
RTVSPost2010PropOp56
 70
     1
102
RTVSPost2010Prop57
140
1.0
102
RTVSPost2010PropOp57
 70
     1
102
RTVSPropertyOp0
 70
     1
102
RTVSPropertyOp1
 70
     1
102
RTVSPropertyOp2
 70
     1
102
RTVSPropertyOp3
 70
     1
102
RTVSPropertyOp4
 70
     1
102
RTVSPropertyOp5
 70
     1
102
RTVSPropertyOp6
 70
     1
102
RTVSPropertyOp7
 70
     1
102
RTVSPropertyOp8
 70
     1
102
RTVSPropertyOp9
 70
     1
102
RTVSPropertyOp10
 70
     1
102
RTVSPropertyOp11
 70
     1
102
RTVSPropertyOp12
 70
     1
102
RTVSPropertyOp13
 70
     1
102
RTVSPropertyOp14
 70
     1
102
RTVSPropertyOp15
 70
     1
102
RTVSPropertyOp16
 70
     1
102
RTVSPropertyOp17
 70
     1
102
RTVSPropertyOp18
 70
     1
102
RTVSPropertyOp19
 70
     1
102
RTVSPropertyOp20
 70
     1
102
RTVSPropertyOp21
 70
     1
102
RTVSPropertyOp22
 70
     1
102
RTVSPropertyOp23
 70
     1
102
RTVSPropertyOp24
 70
     1
102
RTVSPropertyOp25
 70
     1
102
RTVSPropertyOp26
 70
     1
102
RTVSPropertyOp27
 70
     1
102
RTVSPropertyOp28
 70
     1
102
RTVSPropertyOp29
 70
     1
102
RTVSPropertyOp30
 70
     1
102
RTVSPropertyOp31
 70
     1
102
RTVSPropertyOp32
 70
     1
102
RTVSPropertyOp33
 70
     1
102
RTVSPropertyOp34
 70
     1
102
RTVSPropertyOp35
 70
     1
102
RTVSPropertyOp36
 70
     1
102
RTVSPropertyOp37
 70
     1
102
RTVSPropertyOp38
 70
     1
102
RTVSPropertyOp39
 70
     1
102
RTVSPropertyOp40
 70
     1
102
RTVSPropertyOp41
 70
     1
102
RTVSPropertyOp42
 70
     1
102
RTVSPropertyOp43
 70
     1
102
RTVSPropertyOp44
 70
     1
102
RTVSPropertyOp45
 70
     1
102
RTVSPropertyOp46
 70
     1
102
RTVSPropertyOp47
 70
     1
102
RTVSPropertyOp48
 70
     1
102
RTVSPropertyOp49
 70
     1
102
RTVSPropertyOp50
 70
     1
102
RTVSPropertyOp51
 70
     0
102
RTVSPropertyOp52
 70
     0
102
RTVSPropertyOp53
 70
     1
102
RTVSPropertyOp54
 70
     1
102
RTVSPropertyOp55
 70
     1
102
RTVSPropertyOp56
 70
     1
102
RTVSPropertyOp57
 70
     1
102
RTVSPropertyOp58
 70
     1
102
RTVSPropertyOp59
 70
     1
102
RTVSPropertyOp60
 70
     1
102
RTVSPropertyOp61
 70
     1
102
RTVSPropertyOp62
 70
     1
  0
XRECORD
  5
38D0
102
{ACAD_REACTORS
330
38CF
102
}
330
38CF
100
AcDbXrecord
280
     1
102
RTVSPost2010Prop28
280
     0
102
RTVSPost2010PropOp28
 70
     1
102
RTVSPost2010Prop29
280
     1
102
RTVSPost2010PropOp29
 70
     1
102
RTVSPost2010Prop30
280
     1
102
RTVSPost2010PropOp30
 70
     1
102
RTVSPost2010Prop31
280
     0
102
RTVSPost2010PropOp31
 70
     1
102
RTVSPost2010Prop32
280
     0
102
RTVSPost2010PropOp32
 70
     1
102
RTVSPost2010Prop33
280
     0
102
RTVSPost2010PropOp33
 70
     1
102
RTVSPost2010Prop34
280
     0
102
RTVSPost2010PropOp34
 70
     1
102
RTVSPost2010Prop35
280
     0
102
RTVSPost2010PropOp35
 70
     1
102
RTVSPost2010Prop36
280
     0
102
RTVSPost2010PropOp36
 70
     1
102
RTVSPost2010Prop37
 90
       50
102
RTVSPost2010PropOp37
 70
     1
102
RTVSPost2010Prop38
140
0.0
102
RTVSPost2010PropOp38
 70
     1
102
RTVSPost2010Prop39
140
1.0
102
RTVSPost2010PropOp39
 70
     1
102
RTVSPost2010Prop40
 90
        0
102
RTVSPost2010PropOp40
 70
     1
102
RTVSPost2010Prop41ColorIndex
 90
       18
102
RTVSPost2010Prop41ColorRGB
 90
        0
102
RTVSPost2010PropOp41
 70
     1
102
RTVSPost2010Prop42
 90
       50
102
RTVSPost2010PropOp42
 70
     1
102
RTVSPost2010Prop43
 90
        3
102
RTVSPost2010PropOp43
 70
     1
102
RTVSPost2010Prop44ColorIndex
 90
        5
102
RTVSPost2010Prop44ColorRGB
 90
      255
102
RTVSPost2010PropOp44
 70
     1
102
RTVSPost2010Prop45
280
     0
102
RTVSPost2010PropOp45
 70
     1
102
RTVSPost2010Prop46
 90
       50
102
RTVSPost2010PropOp46
 70
     1
102
RTVSPost2010Prop47
 90
       50
102
RTVSPost2010PropOp47
 70
     1
102
RTVSPost2010Prop48
 90
       50
102
RTVSPost2010PropOp48
 70
     1
102
RTVSPost2010Prop49
280
     0
102
RTVSPost2010PropOp49
 70
     1
102
RTVSPost2010Prop50
 90
       50
102
RTVSPost2010PropOp50
 70
     1
102
RTVSPost2010Prop51ColorIndex
 90
      256
102
RTVSPost2010Prop51ColorRGB
 90
-16777216
102
RTVSPost2010PropOp51
 70
     0
102
RTVSPost2010Prop52
140
1.0
102
RTVSPost2010PropOp52
 70
     0
102
RTVSPost2010Prop53
 90
        2
102
RTVSPost2010PropOp53
 70
     1
102
RTVSPost2010Prop54
  1
strokes_ogs.tif
102
RTVSPost2010PropOp54
 70
     1
102
RTVSPost2010Prop55
280
     0
102
RTVSPost2010PropOp55
 70
     1
102
RTVSPost2010Prop56
140
1.0
102
RTVSPost2010PropOp56
 70
     1
102
RTVSPost2010Prop57
140
1.0
102
RTVSPost2010PropOp57
 70
     1
102
RTVSPropertyOp0
 70
     0
102
RTVSPropertyOp1
 70
     0
102
RTVSPropertyOp2
 70
     0
102
RTVSPropertyOp3
 70
     0
102
RTVSPropertyOp4
 70
     0
102
RTVSPropertyOp5
 70
     0
102
RTVSPropertyOp6
 70
     0
102
RTVSPropertyOp7
 70
     0
102
RTVSPropertyOp8
 70
     0
102
RTVSPropertyOp9
 70
     0
102
RTVSPropertyOp10
 70
     0
102
RTVSPropertyOp11
 70
     0
102
RTVSPropertyOp12
 70
     0
102
RTVSPropertyOp13
 70
     0
102
RTVSPropertyOp14
 70
     2
102
RTVSPropertyOp15
 70
     0
102
RTVSPropertyOp16
 70
     0
102
RTVSPropertyOp17
 70
     0
102
RTVSPropertyOp18
 70
     0
102
RTVSPropertyOp19
 70
     0
102
RTVSPropertyOp20
 70
     0
102
RTVSPropertyOp21
 70
     0
102
RTVSPropertyOp22
 70
     0
102
RTVSPropertyOp23
 70
     0
102
RTVSPropertyOp24
 70
     0
102
RTVSPropertyOp25
 70
     0
102
RTVSPropertyOp26
 70
     0
102
RTVSPropertyOp27
 70
     0
102
RTVSPropertyOp28
 70
     1
102
RTVSPropertyOp29
 70
     1
102
RTVSPropertyOp30
 70
     1
102
RTVSPropertyOp31
 70
     1
102
RTVSPropertyOp32
 70
     1
102
RTVSPropertyOp33
 70
     1
102
RTVSPropertyOp34
 70
     1
102
RTVSPropertyOp35
 70
     1
102
RTVSPropertyOp36
 70
     1
102
RTVSPropertyOp37
 70
     1
102
RTVSPropertyOp38
 70
     1
102
RTVSPropertyOp39
 70
     1
102
RTVSPropertyOp40
 70
     1
102
RTVSPropertyOp41
 70
     1
102
RTVSPropertyOp42
 70
     1
102
RTVSPropertyOp43
 70
     1
102
RTVSPropertyOp44
 70
     1
102
RTVSPropertyOp45
 70
     1
102
RTVSPropertyOp46
 70
     1
102
RTVSPropertyOp47
 70
     1
102
RTVSPropertyOp48
 70
     1
102
RTVSPropertyOp49
 70
     1
102
RTVSPropertyOp50
 70
     1
102
RTVSPropertyOp51
 70
     0
102
RTVSPropertyOp52
 70
     0
102
RTVSPropertyOp53
 70
     1
102
RTVSPropertyOp54
 70
     1
102
RTVSPropertyOp55
 70
     1
102
RTVSPropertyOp56
 70
     1
102
RTVSPropertyOp57
 70
     1
102
RTVSPropertyOp58
 70
     1
102
RTVSPropertyOp59
 70
     1
102
RTVSPropertyOp60
 70
     1
102
RTVSPropertyOp61
 70
     1
102
RTVSPropertyOp62
 70
     1
  0
XRECORD
  5
38C0
102
{ACAD_REACTORS
330
38BF
102
}
330
38BF
100
AcDbXrecord
280
     1
102
RTVSPost2010Prop28
280
     0
102
RTVSPost2010PropOp28
 70
     1
102
RTVSPost2010Prop29
280
     1
102
RTVSPost2010PropOp29
 70
     1
102
RTVSPost2010Prop30
280
     1
102
RTVSPost2010PropOp30
 70
     1
102
RTVSPost2010Prop31
280
     0
102
RTVSPost2010PropOp31
 70
     1
102
RTVSPost2010Prop32
280
     0
102
RTVSPost2010PropOp32
 70
     1
102
RTVSPost2010Prop33
280
     0
102
RTVSPost2010PropOp33
 70
     1
102
RTVSPost2010Prop34
280
     0
102
RTVSPost2010PropOp34
 70
     1
102
RTVSPost2010Prop35
280
     0
102
RTVSPost2010PropOp35
 70
     1
102
RTVSPost2010Prop36
280
     0
102
RTVSPost2010PropOp36
 70
     1
102
RTVSPost2010Prop37
 90
       50
102
RTVSPost2010PropOp37
 70
     1
102
RTVSPost2010Prop38
140
0.0
102
RTVSPost2010PropOp38
 70
     1
102
RTVSPost2010Prop39
140
1.0
102
RTVSPost2010PropOp39
 70
     1
102
RTVSPost2010Prop40
 90
        0
102
RTVSPost2010PropOp40
 70
     1
102
RTVSPost2010Prop41ColorIndex
 90
       18
102
RTVSPost2010Prop41ColorRGB
 90
        0
102
RTVSPost2010PropOp41
 70
     1
102
RTVSPost2010Prop42
 90
       50
102
RTVSPost2010PropOp42
 70
     1
102
RTVSPost2010Prop43
 90
        3
102
RTVSPost2010PropOp43
 70
     1
102
RTVSPost2010Prop44ColorIndex
 90
        5
102
RTVSPost2010Prop44ColorRGB
 90
      255
102
RTVSPost2010PropOp44
 70
     1
102
RTVSPost2010Prop45
280
     0
102
RTVSPost2010PropOp45
 70
     1
102
RTVSPost2010Prop46
 90
       50
102
RTVSPost2010PropOp46
 70
     1
102
RTVSPost2010Prop47
 90
       50
102
RTVSPost2010PropOp47
 70
     1
102
RTVSPost2010Prop48
 90
       50
102
RTVSPost2010PropOp48
 70
     1
102
RTVSPost2010Prop49
280
     0
102
RTVSPost2010PropOp49
 70
     1
102
RTVSPost2010Prop50
 90
       50
102
RTVSPost2010PropOp50
 70
     1
102
RTVSPost2010Prop51ColorIndex
 90
      256
102
RTVSPost2010Prop51ColorRGB
 90
-16777216
102
RTVSPost2010PropOp51
 70
     0
102
RTVSPost2010Prop52
140
1.0
102
RTVSPost2010PropOp52
 70
     0
102
RTVSPost2010Prop53
 90
        2
102
RTVSPost2010PropOp53
 70
     1
102
RTVSPost2010Prop54
  1
strokes_ogs.tif
102
RTVSPost2010PropOp54
 70
     1
102
RTVSPost2010Prop55
280
     0
102
RTVSPost2010PropOp55
 70
     1
102
RTVSPost2010Prop56
140
1.0
102
RTVSPost2010PropOp56
 70
     1
102
RTVSPost2010Prop57
140
1.0
102
RTVSPost2010PropOp57
 70
     1
102
RTVSPropertyOp0
 70
     1
102
RTVSPropertyOp1
 70
     1
102
RTVSPropertyOp2
 70
     1
102
RTVSPropertyOp3
 70
     1
102
RTVSPropertyOp4
 70
     1
102
RTVSPropertyOp5
 70
     1
102
RTVSPropertyOp6
 70
     1
102
RTVSPropertyOp7
 70
     1
102
RTVSPropertyOp8
 70
     1
102
RTVSPropertyOp9
 70
     1
102
RTVSPropertyOp10
 70
     1
102
RTVSPropertyOp11
 70
     1
102
RTVSPropertyOp12
 70
     1
102
RTVSPropertyOp13
 70
     1
102
RTVSPropertyOp14
 70
     1
102
RTVSPropertyOp15
 70
     1
102
RTVSPropertyOp16
 70
     1
102
RTVSPropertyOp17
 70
     1
102
RTVSPropertyOp18
 70
     1
102
RTVSPropertyOp19
 70
     1
102
RTVSPropertyOp20
 70
     1
102
RTVSPropertyOp21
 70
     1
102
RTVSPropertyOp22
 70
     1
102
RTVSPropertyOp23
 70
     1
102
RTVSPropertyOp24
 70
     1
102
RTVSPropertyOp25
 70
     1
102
RTVSPropertyOp26
 70
     1
102
RTVSPropertyOp27
 70
     1
102
RTVSPropertyOp28
 70
     1
102
RTVSPropertyOp29
 70
     1
102
RTVSPropertyOp30
 70
     1
102
RTVSPropertyOp31
 70
     1
102
RTVSPropertyOp32
 70
     1
102
RTVSPropertyOp33
 70
     1
102
RTVSPropertyOp34
 70
     1
102
RTVSPropertyOp35
 70
     1
102
RTVSPropertyOp36
 70
     1
102
RTVSPropertyOp37
 70
     1
102
RTVSPropertyOp38
 70
     1
102
RTVSPropertyOp39
 70
     1
102
RTVSPropertyOp40
 70
     1
102
RTVSPropertyOp41
 70
     1
102
RTVSPropertyOp42
 70
     1
102
RTVSPropertyOp43
 70
     1
102
RTVSPropertyOp44
 70
     1
102
RTVSPropertyOp45
 70
     1
102
RTVSPropertyOp46
 70
     1
102
RTVSPropertyOp47
 70
     1
102
RTVSPropertyOp48
 70
     1
102
RTVSPropertyOp49
 70
     1
102
RTVSPropertyOp50
 70
     1
102
RTVSPropertyOp51
 70
     0
102
RTVSPropertyOp52
 70
     0
102
RTVSPropertyOp53
 70
     1
102
RTVSPropertyOp54
 70
     1
102
RTVSPropertyOp55
 70
     1
102
RTVSPropertyOp56
 70
     1
102
RTVSPropertyOp57
 70
     1
102
RTVSPropertyOp58
 70
     1
102
RTVSPropertyOp59
 70
     1
102
RTVSPropertyOp60
 70
     1
102
RTVSPropertyOp61
 70
     1
102
RTVSPropertyOp62
 70
     1
  0
XRECORD
  5
38F1
102
{ACAD_REACTORS
330
38F0
102
}
330
38F0
100
AcDbXrecord
280
     1
102
RTVSPost2010Prop28
280
     0
102
RTVSPost2010PropOp28
 70
     1
102
RTVSPost2010Prop29
280
     1
102
RTVSPost2010PropOp29
 70
     1
102
RTVSPost2010Prop30
280
     1
102
RTVSPost2010PropOp30
 70
     1
102
RTVSPost2010Prop31
280
     0
102
RTVSPost2010PropOp31
 70
     1
102
RTVSPost2010Prop32
280
     0
102
RTVSPost2010PropOp32
 70
     1
102
RTVSPost2010Prop33
280
     0
102
RTVSPost2010PropOp33
 70
     1
102
RTVSPost2010Prop34
280
     0
102
RTVSPost2010PropOp34
 70
     1
102
RTVSPost2010Prop35
280
     0
102
RTVSPost2010PropOp35
 70
     1
102
RTVSPost2010Prop36
280
     0
102
RTVSPost2010PropOp36
 70
     1
102
RTVSPost2010Prop37
 90
       50
102
RTVSPost2010PropOp37
 70
     1
102
RTVSPost2010Prop38
140
0.0
102
RTVSPost2010PropOp38
 70
     1
102
RTVSPost2010Prop39
140
1.0
102
RTVSPost2010PropOp39
 70
     1
102
RTVSPost2010Prop40
 90
        0
102
RTVSPost2010PropOp40
 70
     1
102
RTVSPost2010Prop41ColorIndex
 90
       18
102
RTVSPost2010Prop41ColorRGB
 90
        0
102
RTVSPost2010PropOp41
 70
     1
102
RTVSPost2010Prop42
 90
       50
102
RTVSPost2010PropOp42
 70
     1
102
RTVSPost2010Prop43
 90
        3
102
RTVSPost2010PropOp43
 70
     1
102
RTVSPost2010Prop44ColorIndex
 90
        5
102
RTVSPost2010Prop44ColorRGB
 90
      255
102
RTVSPost2010PropOp44
 70
     1
102
RTVSPost2010Prop45
280
     0
102
RTVSPost2010PropOp45
 70
     1
102
RTVSPost2010Prop46
 90
       50
102
RTVSPost2010PropOp46
 70
     1
102
RTVSPost2010Prop47
 90
       50
102
RTVSPost2010PropOp47
 70
     1
102
RTVSPost2010Prop48
 90
       50
102
RTVSPost2010PropOp48
 70
     1
102
RTVSPost2010Prop49
280
     0
102
RTVSPost2010PropOp49
 70
     1
102
RTVSPost2010Prop50
 90
       50
102
RTVSPost2010PropOp50
 70
     1
102
RTVSPost2010Prop51ColorIndex
 90
      256
102
RTVSPost2010Prop51ColorRGB
 90
-16777216
102
RTVSPost2010PropOp51
 70
     0
102
RTVSPost2010Prop52
140
1.0
102
RTVSPost2010PropOp52
 70
     0
102
RTVSPost2010Prop53
 90
        2
102
RTVSPost2010PropOp53
 70
     1
102
RTVSPost2010Prop54
  1
strokes_ogs.tif
102
RTVSPost2010PropOp54
 70
     1
102
RTVSPost2010Prop55
280
     0
102
RTVSPost2010PropOp55
 70
     1
102
RTVSPost2010Prop56
140
1.0
102
RTVSPost2010PropOp56
 70
     1
102
RTVSPost2010Prop57
140
1.0
102
RTVSPost2010PropOp57
 70
     1
102
RTVSPropertyOp0
 70
     1
102
RTVSPropertyOp1
 70
     1
102
RTVSPropertyOp2
 70
     1
102
RTVSPropertyOp3
 70
     1
102
RTVSPropertyOp4
 70
     1
102
RTVSPropertyOp5
 70
     1
102
RTVSPropertyOp6
 70
     1
102
RTVSPropertyOp7
 70
     1
102
RTVSPropertyOp8
 70
     1
102
RTVSPropertyOp9
 70
     1
102
RTVSPropertyOp10
 70
     1
102
RTVSPropertyOp11
 70
     1
102
RTVSPropertyOp12
 70
     1
102
RTVSPropertyOp13
 70
     1
102
RTVSPropertyOp14
 70
     1
102
RTVSPropertyOp15
 70
     1
102
RTVSPropertyOp16
 70
     1
102
RTVSPropertyOp17
 70
     1
102
RTVSPropertyOp18
 70
     1
102
RTVSPropertyOp19
 70
     1
102
RTVSPropertyOp20
 70
     1
102
RTVSPropertyOp21
 70
     1
102
RTVSPropertyOp22
 70
     1
102
RTVSPropertyOp23
 70
     1
102
RTVSPropertyOp24
 70
     1
102
RTVSPropertyOp25
 70
     1
102
RTVSPropertyOp26
 70
     1
102
RTVSPropertyOp27
 70
     1
102
RTVSPropertyOp28
 70
     1
102
RTVSPropertyOp29
 70
     1
102
RTVSPropertyOp30
 70
     1
102
RTVSPropertyOp31
 70
     1
102
RTVSPropertyOp32
 70
     1
102
RTVSPropertyOp33
 70
     1
102
RTVSPropertyOp34
 70
     1
102
RTVSPropertyOp35
 70
     1
102
RTVSPropertyOp36
 70
     1
102
RTVSPropertyOp37
 70
     1
102
RTVSPropertyOp38
 70
     1
102
RTVSPropertyOp39
 70
     1
102
RTVSPropertyOp40
 70
     1
102
RTVSPropertyOp41
 70
     1
102
RTVSPropertyOp42
 70
     1
102
RTVSPropertyOp43
 70
     1
102
RTVSPropertyOp44
 70
     1
102
RTVSPropertyOp45
 70
     1
102
RTVSPropertyOp46
 70
     1
102
RTVSPropertyOp47
 70
     1
102
RTVSPropertyOp48
 70
     1
102
RTVSPropertyOp49
 70
     1
102
RTVSPropertyOp50
 70
     1
102
RTVSPropertyOp51
 70
     0
102
RTVSPropertyOp52
 70
     0
102
RTVSPropertyOp53
 70
     1
102
RTVSPropertyOp54
 70
     1
102
RTVSPropertyOp55
 70
     1
102
RTVSPropertyOp56
 70
     1
102
RTVSPropertyOp57
 70
     1
102
RTVSPropertyOp58
 70
     1
102
RTVSPropertyOp59
 70
     1
102
RTVSPropertyOp60
 70
     1
102
RTVSPropertyOp61
 70
     1
102
RTVSPropertyOp62
 70
     1
  0
XRECORD
  5
38EF
102
{ACAD_REACTORS
330
38EE
102
}
330
38EE
100
AcDbXrecord
280
     1
102
RTVSPost2010Prop28
280
     0
102
RTVSPost2010PropOp28
 70
     1
102
RTVSPost2010Prop29
280
     1
102
RTVSPost2010PropOp29
 70
     1
102
RTVSPost2010Prop30
280
     1
102
RTVSPost2010PropOp30
 70
     1
102
RTVSPost2010Prop31
280
     0
102
RTVSPost2010PropOp31
 70
     1
102
RTVSPost2010Prop32
280
     0
102
RTVSPost2010PropOp32
 70
     1
102
RTVSPost2010Prop33
280
     0
102
RTVSPost2010PropOp33
 70
     1
102
RTVSPost2010Prop34
280
     0
102
RTVSPost2010PropOp34
 70
     1
102
RTVSPost2010Prop35
280
     0
102
RTVSPost2010PropOp35
 70
     1
102
RTVSPost2010Prop36
280
     0
102
RTVSPost2010PropOp36
 70
     1
102
RTVSPost2010Prop37
 90
       50
102
RTVSPost2010PropOp37
 70
     1
102
RTVSPost2010Prop38
140
0.0
102
RTVSPost2010PropOp38
 70
     1
102
RTVSPost2010Prop39
140
1.0
102
RTVSPost2010PropOp39
 70
     1
102
RTVSPost2010Prop40
 90
        0
102
RTVSPost2010PropOp40
 70
     1
102
RTVSPost2010Prop41ColorIndex
 90
       18
102
RTVSPost2010Prop41ColorRGB
 90
        0
102
RTVSPost2010PropOp41
 70
     1
102
RTVSPost2010Prop42
 90
       50
102
RTVSPost2010PropOp42
 70
     1
102
RTVSPost2010Prop43
 90
        3
102
RTVSPost2010PropOp43
 70
     1
102
RTVSPost2010Prop44ColorIndex
 90
        5
102
RTVSPost2010Prop44ColorRGB
 90
      255
102
RTVSPost2010PropOp44
 70
     1
102
RTVSPost2010Prop45
280
     0
102
RTVSPost2010PropOp45
 70
     1
102
RTVSPost2010Prop46
 90
       50
102
RTVSPost2010PropOp46
 70
     1
102
RTVSPost2010Prop47
 90
       50
102
RTVSPost2010PropOp47
 70
     1
102
RTVSPost2010Prop48
 90
       50
102
RTVSPost2010PropOp48
 70
     1
102
RTVSPost2010Prop49
280
     0
102
RTVSPost2010PropOp49
 70
     1
102
RTVSPost2010Prop50
 90
       50
102
RTVSPost2010PropOp50
 70
     1
102
RTVSPost2010Prop51ColorIndex
 90
      256
102
RTVSPost2010Prop51ColorRGB
 90
-16777216
102
RTVSPost2010PropOp51
 70
     0
102
RTVSPost2010Prop52
140
1.0
102
RTVSPost2010PropOp52
 70
     0
102
RTVSPost2010Prop53
 90
        2
102
RTVSPost2010PropOp53
 70
     1
102
RTVSPost2010Prop54
  1
strokes_ogs.tif
102
RTVSPost2010PropOp54
 70
     1
102
RTVSPost2010Prop55
280
     0
102
RTVSPost2010PropOp55
 70
     1
102
RTVSPost2010Prop56
140
1.0
102
RTVSPost2010PropOp56
 70
     1
102
RTVSPost2010Prop57
140
1.0
102
RTVSPost2010PropOp57
 70
     1
102
RTVSPropertyOp0
 70
     1
102
RTVSPropertyOp1
 70
     1
102
RTVSPropertyOp2
 70
     1
102
RTVSPropertyOp3
 70
     1
102
RTVSPropertyOp4
 70
     1
102
RTVSPropertyOp5
 70
     1
102
RTVSPropertyOp6
 70
     1
102
RTVSPropertyOp7
 70
     1
102
RTVSPropertyOp8
 70
     1
102
RTVSPropertyOp9
 70
     1
102
RTVSPropertyOp10
 70
     1
102
RTVSPropertyOp11
 70
     1
102
RTVSPropertyOp12
 70
     1
102
RTVSPropertyOp13
 70
     1
102
RTVSPropertyOp14
 70
     1
102
RTVSPropertyOp15
 70
     1
102
RTVSPropertyOp16
 70
     1
102
RTVSPropertyOp17
 70
     1
102
RTVSPropertyOp18
 70
     1
102
RTVSPropertyOp19
 70
     1
102
RTVSPropertyOp20
 70
     1
102
RTVSPropertyOp21
 70
     1
102
RTVSPropertyOp22
 70
     1
102
RTVSPropertyOp23
 70
     1
102
RTVSPropertyOp24
 70
     1
102
RTVSPropertyOp25
 70
     1
102
RTVSPropertyOp26
 70
     1
102
RTVSPropertyOp27
 70
     1
102
RTVSPropertyOp28
 70
     1
102
RTVSPropertyOp29
 70
     1
102
RTVSPropertyOp30
 70
     1
102
RTVSPropertyOp31
 70
     1
102
RTVSPropertyOp32
 70
     1
102
RTVSPropertyOp33
 70
     1
102
RTVSPropertyOp34
 70
     1
102
RTVSPropertyOp35
 70
     1
102
RTVSPropertyOp36
 70
     1
102
RTVSPropertyOp37
 70
     1
102
RTVSPropertyOp38
 70
     1
102
RTVSPropertyOp39
 70
     1
102
RTVSPropertyOp40
 70
     1
102
RTVSPropertyOp41
 70
     1
102
RTVSPropertyOp42
 70
     1
102
RTVSPropertyOp43
 70
     1
102
RTVSPropertyOp44
 70
     1
102
RTVSPropertyOp45
 70
     1
102
RTVSPropertyOp46
 70
     1
102
RTVSPropertyOp47
 70
     1
102
RTVSPropertyOp48
 70
     1
102
RTVSPropertyOp49
 70
     1
102
RTVSPropertyOp50
 70
     1
102
RTVSPropertyOp51
 70
     0
102
RTVSPropertyOp52
 70
     0
102
RTVSPropertyOp53
 70
     1
102
RTVSPropertyOp54
 70
     1
102
RTVSPropertyOp55
 70
     1
102
RTVSPropertyOp56
 70
     1
102
RTVSPropertyOp57
 70
     1
102
RTVSPropertyOp58
 70
     1
102
RTVSPropertyOp59
 70
     1
102
RTVSPropertyOp60
 70
     1
102
RTVSPropertyOp61
 70
     1
102
RTVSPropertyOp62
 70
     1
  0
XRECORD
  5
38E9
102
{ACAD_REACTORS
330
38E8
102
}
330
38E8
100
AcDbXrecord
280
     1
102
RTVSPost2010Prop28
280
     0
102
RTVSPost2010PropOp28
 70
     1
102
RTVSPost2010Prop29
280
     1
102
RTVSPost2010PropOp29
 70
     1
102
RTVSPost2010Prop30
280
     1
102
RTVSPost2010PropOp30
 70
     1
102
RTVSPost2010Prop31
280
     0
102
RTVSPost2010PropOp31
 70
     1
102
RTVSPost2010Prop32
280
     0
102
RTVSPost2010PropOp32
 70
     1
102
RTVSPost2010Prop33
280
     0
102
RTVSPost2010PropOp33
 70
     1
102
RTVSPost2010Prop34
280
     0
102
RTVSPost2010PropOp34
 70
     1
102
RTVSPost2010Prop35
280
     0
102
RTVSPost2010PropOp35
 70
     1
102
RTVSPost2010Prop36
280
     0
102
RTVSPost2010PropOp36
 70
     1
102
RTVSPost2010Prop37
 90
       50
102
RTVSPost2010PropOp37
 70
     1
102
RTVSPost2010Prop38
140
0.0
102
RTVSPost2010PropOp38
 70
     1
102
RTVSPost2010Prop39
140
1.0
102
RTVSPost2010PropOp39
 70
     1
102
RTVSPost2010Prop40
 90
        0
102
RTVSPost2010PropOp40
 70
     1
102
RTVSPost2010Prop41ColorIndex
 90
       18
102
RTVSPost2010Prop41ColorRGB
 90
        0
102
RTVSPost2010PropOp41
 70
     1
102
RTVSPost2010Prop42
 90
       50
102
RTVSPost2010PropOp42
 70
     1
102
RTVSPost2010Prop43
 90
        3
102
RTVSPost2010PropOp43
 70
     1
102
RTVSPost2010Prop44ColorIndex
 90
        5
102
RTVSPost2010Prop44ColorRGB
 90
      255
102
RTVSPost2010PropOp44
 70
     1
102
RTVSPost2010Prop45
280
     0
102
RTVSPost2010PropOp45
 70
     1
102
RTVSPost2010Prop46
 90
       50
102
RTVSPost2010PropOp46
 70
     1
102
RTVSPost2010Prop47
 90
       50
102
RTVSPost2010PropOp47
 70
     1
102
RTVSPost2010Prop48
 90
       50
102
RTVSPost2010PropOp48
 70
     1
102
RTVSPost2010Prop49
280
     0
102
RTVSPost2010PropOp49
 70
     1
102
RTVSPost2010Prop50
 90
       50
102
RTVSPost2010PropOp50
 70
     1
102
RTVSPost2010Prop51ColorIndex
 90
      256
102
RTVSPost2010Prop51ColorRGB
 90
-16777216
102
RTVSPost2010PropOp51
 70
     0
102
RTVSPost2010Prop52
140
1.0
102
RTVSPost2010PropOp52
 70
     0
102
RTVSPost2010Prop53
 90
        2
102
RTVSPost2010PropOp53
 70
     1
102
RTVSPost2010Prop54
  1
strokes_ogs.tif
102
RTVSPost2010PropOp54
 70
     1
102
RTVSPost2010Prop55
280
     0
102
RTVSPost2010PropOp55
 70
     1
102
RTVSPost2010Prop56
140
1.0
102
RTVSPost2010PropOp56
 70
     1
102
RTVSPost2010Prop57
140
1.0
102
RTVSPost2010PropOp57
 70
     1
102
RTVSPropertyOp0
 70
     1
102
RTVSPropertyOp1
 70
     1
102
RTVSPropertyOp2
 70
     1
102
RTVSPropertyOp3
 70
     1
102
RTVSPropertyOp4
 70
     1
102
RTVSPropertyOp5
 70
     1
102
RTVSPropertyOp6
 70
     1
102
RTVSPropertyOp7
 70
     1
102
RTVSPropertyOp8
 70
     1
102
RTVSPropertyOp9
 70
     1
102
RTVSPropertyOp10
 70
     1
102
RTVSPropertyOp11
 70
     1
102
RTVSPropertyOp12
 70
     1
102
RTVSPropertyOp13
 70
     1
102
RTVSPropertyOp14
 70
     1
102
RTVSPropertyOp15
 70
     1
102
RTVSPropertyOp16
 70
     1
102
RTVSPropertyOp17
 70
     1
102
RTVSPropertyOp18
 70
     1
102
RTVSPropertyOp19
 70
     1
102
RTVSPropertyOp20
 70
     1
102
RTVSPropertyOp21
 70
     1
102
RTVSPropertyOp22
 70
     1
102
RTVSPropertyOp23
 70
     1
102
RTVSPropertyOp24
 70
     1
102
RTVSPropertyOp25
 70
     1
102
RTVSPropertyOp26
 70
     1
102
RTVSPropertyOp27
 70
     1
102
RTVSPropertyOp28
 70
     1
102
RTVSPropertyOp29
 70
     1
102
RTVSPropertyOp30
 70
     1
102
RTVSPropertyOp31
 70
     1
102
RTVSPropertyOp32
 70
     1
102
RTVSPropertyOp33
 70
     1
102
RTVSPropertyOp34
 70
     1
102
RTVSPropertyOp35
 70
     1
102
RTVSPropertyOp36
 70
     1
102
RTVSPropertyOp37
 70
     1
102
RTVSPropertyOp38
 70
     1
102
RTVSPropertyOp39
 70
     1
102
RTVSPropertyOp40
 70
     1
102
RTVSPropertyOp41
 70
     1
102
RTVSPropertyOp42
 70
     1
102
RTVSPropertyOp43
 70
     1
102
RTVSPropertyOp44
 70
     1
102
RTVSPropertyOp45
 70
     1
102
RTVSPropertyOp46
 70
     1
102
RTVSPropertyOp47
 70
     1
102
RTVSPropertyOp48
 70
     1
102
RTVSPropertyOp49
 70
     1
102
RTVSPropertyOp50
 70
     1
102
RTVSPropertyOp51
 70
     0
102
RTVSPropertyOp52
 70
     0
102
RTVSPropertyOp53
 70
     1
102
RTVSPropertyOp54
 70
     1
102
RTVSPropertyOp55
 70
     1
102
RTVSPropertyOp56
 70
     1
102
RTVSPropertyOp57
 70
     1
102
RTVSPropertyOp58
 70
     1
102
RTVSPropertyOp59
 70
     1
102
RTVSPropertyOp60
 70
     1
102
RTVSPropertyOp61
 70
     1
102
RTVSPropertyOp62
 70
     1
  0
XRECORD
  5
38EB
102
{ACAD_REACTORS
330
38EA
102
}
330
38EA
100
AcDbXrecord
280
     1
102
RTVSPost2010Prop28
280
     0
102
RTVSPost2010PropOp28
 70
     1
102
RTVSPost2010Prop29
280
     1
102
RTVSPost2010PropOp29
 70
     1
102
RTVSPost2010Prop30
280
     1
102
RTVSPost2010PropOp30
 70
     1
102
RTVSPost2010Prop31
280
     0
102
RTVSPost2010PropOp31
 70
     1
102
RTVSPost2010Prop32
280
     0
102
RTVSPost2010PropOp32
 70
     1
102
RTVSPost2010Prop33
280
     0
102
RTVSPost2010PropOp33
 70
     1
102
RTVSPost2010Prop34
280
     0
102
RTVSPost2010PropOp34
 70
     1
102
RTVSPost2010Prop35
280
     0
102
RTVSPost2010PropOp35
 70
     1
102
RTVSPost2010Prop36
280
     0
102
RTVSPost2010PropOp36
 70
     1
102
RTVSPost2010Prop37
 90
       50
102
RTVSPost2010PropOp37
 70
     1
102
RTVSPost2010Prop38
140
0.0
102
RTVSPost2010PropOp38
 70
     1
102
RTVSPost2010Prop39
140
1.0
102
RTVSPost2010PropOp39
 70
     1
102
RTVSPost2010Prop40
 90
        0
102
RTVSPost2010PropOp40
 70
     1
102
RTVSPost2010Prop41ColorIndex
 90
       18
102
RTVSPost2010Prop41ColorRGB
 90
        0
102
RTVSPost2010PropOp41
 70
     1
102
RTVSPost2010Prop42
 90
       50
102
RTVSPost2010PropOp42
 70
     1
102
RTVSPost2010Prop43
 90
        3
102
RTVSPost2010PropOp43
 70
     1
102
RTVSPost2010Prop44ColorIndex
 90
        5
102
RTVSPost2010Prop44ColorRGB
 90
      255
102
RTVSPost2010PropOp44
 70
     1
102
RTVSPost2010Prop45
280
     0
102
RTVSPost2010PropOp45
 70
     1
102
RTVSPost2010Prop46
 90
       50
102
RTVSPost2010PropOp46
 70
     1
102
RTVSPost2010Prop47
 90
       50
102
RTVSPost2010PropOp47
 70
     1
102
RTVSPost2010Prop48
 90
       50
102
RTVSPost2010PropOp48
 70
     1
102
RTVSPost2010Prop49
280
     0
102
RTVSPost2010PropOp49
 70
     1
102
RTVSPost2010Prop50
 90
       50
102
RTVSPost2010PropOp50
 70
     1
102
RTVSPost2010Prop51ColorIndex
 90
      256
102
RTVSPost2010Prop51ColorRGB
 90
-16777216
102
RTVSPost2010PropOp51
 70
     0
102
RTVSPost2010Prop52
140
1.0
102
RTVSPost2010PropOp52
 70
     0
102
RTVSPost2010Prop53
 90
        2
102
RTVSPost2010PropOp53
 70
     1
102
RTVSPost2010Prop54
  1
strokes_ogs.tif
102
RTVSPost2010PropOp54
 70
     1
102
RTVSPost2010Prop55
280
     0
102
RTVSPost2010PropOp55
 70
     1
102
RTVSPost2010Prop56
140
1.0
102
RTVSPost2010PropOp56
 70
     1
102
RTVSPost2010Prop57
140
1.0
102
RTVSPost2010PropOp57
 70
     1
102
RTVSPropertyOp0
 70
     1
102
RTVSPropertyOp1
 70
     1
102
RTVSPropertyOp2
 70
     1
102
RTVSPropertyOp3
 70
     1
102
RTVSPropertyOp4
 70
     1
102
RTVSPropertyOp5
 70
     1
102
RTVSPropertyOp6
 70
     1
102
RTVSPropertyOp7
 70
     1
102
RTVSPropertyOp8
 70
     1
102
RTVSPropertyOp9
 70
     1
102
RTVSPropertyOp10
 70
     1
102
RTVSPropertyOp11
 70
     1
102
RTVSPropertyOp12
 70
     1
102
RTVSPropertyOp13
 70
     1
102
RTVSPropertyOp14
 70
     1
102
RTVSPropertyOp15
 70
     1
102
RTVSPropertyOp16
 70
     1
102
RTVSPropertyOp17
 70
     1
102
RTVSPropertyOp18
 70
     1
102
RTVSPropertyOp19
 70
     1
102
RTVSPropertyOp20
 70
     1
102
RTVSPropertyOp21
 70
     1
102
RTVSPropertyOp22
 70
     1
102
RTVSPropertyOp23
 70
     1
102
RTVSPropertyOp24
 70
     1
102
RTVSPropertyOp25
 70
     1
102
RTVSPropertyOp26
 70
     1
102
RTVSPropertyOp27
 70
     1
102
RTVSPropertyOp28
 70
     1
102
RTVSPropertyOp29
 70
     1
102
RTVSPropertyOp30
 70
     1
102
RTVSPropertyOp31
 70
     1
102
RTVSPropertyOp32
 70
     1
102
RTVSPropertyOp33
 70
     1
102
RTVSPropertyOp34
 70
     1
102
RTVSPropertyOp35
 70
     1
102
RTVSPropertyOp36
 70
     1
102
RTVSPropertyOp37
 70
     1
102
RTVSPropertyOp38
 70
     1
102
RTVSPropertyOp39
 70
     1
102
RTVSPropertyOp40
 70
     1
102
RTVSPropertyOp41
 70
     1
102
RTVSPropertyOp42
 70
     1
102
RTVSPropertyOp43
 70
     1
102
RTVSPropertyOp44
 70
     1
102
RTVSPropertyOp45
 70
     1
102
RTVSPropertyOp46
 70
     1
102
RTVSPropertyOp47
 70
     1
102
RTVSPropertyOp48
 70
     1
102
RTVSPropertyOp49
 70
     1
102
RTVSPropertyOp50
 70
     1
102
RTVSPropertyOp51
 70
     0
102
RTVSPropertyOp52
 70
     0
102
RTVSPropertyOp53
 70
     1
102
RTVSPropertyOp54
 70
     1
102
RTVSPropertyOp55
 70
     1
102
RTVSPropertyOp56
 70
     1
102
RTVSPropertyOp57
 70
     1
102
RTVSPropertyOp58
 70
     1
102
RTVSPropertyOp59
 70
     1
102
RTVSPropertyOp60
 70
     1
102
RTVSPropertyOp61
 70
     1
102
RTVSPropertyOp62
 70
     1
  0
XRECORD
  5
38C6
102
{ACAD_REACTORS
330
38C5
102
}
330
38C5
100
AcDbXrecord
280
     1
102
RTVSPost2010Prop28
280
     0
102
RTVSPost2010PropOp28
 70
     1
102
RTVSPost2010Prop29
280
     1
102
RTVSPost2010PropOp29
 70
     1
102
RTVSPost2010Prop30
280
     1
102
RTVSPost2010PropOp30
 70
     1
102
RTVSPost2010Prop31
280
     0
102
RTVSPost2010PropOp31
 70
     1
102
RTVSPost2010Prop32
280
     0
102
RTVSPost2010PropOp32
 70
     1
102
RTVSPost2010Prop33
280
     0
102
RTVSPost2010PropOp33
 70
     1
102
RTVSPost2010Prop34
280
     0
102
RTVSPost2010PropOp34
 70
     1
102
RTVSPost2010Prop35
280
     0
102
RTVSPost2010PropOp35
 70
     1
102
RTVSPost2010Prop36
280
     0
102
RTVSPost2010PropOp36
 70
     1
102
RTVSPost2010Prop37
 90
       50
102
RTVSPost2010PropOp37
 70
     1
102
RTVSPost2010Prop38
140
0.0
102
RTVSPost2010PropOp38
 70
     1
102
RTVSPost2010Prop39
140
1.0
102
RTVSPost2010PropOp39
 70
     1
102
RTVSPost2010Prop40
 90
        0
102
RTVSPost2010PropOp40
 70
     1
102
RTVSPost2010Prop41ColorIndex
 90
       18
102
RTVSPost2010Prop41ColorRGB
 90
        0
102
RTVSPost2010PropOp41
 70
     1
102
RTVSPost2010Prop42
 90
       50
102
RTVSPost2010PropOp42
 70
     1
102
RTVSPost2010Prop43
 90
        3
102
RTVSPost2010PropOp43
 70
     1
102
RTVSPost2010Prop44ColorIndex
 90
        5
102
RTVSPost2010Prop44ColorRGB
 90
      255
102
RTVSPost2010PropOp44
 70
     1
102
RTVSPost2010Prop45
280
     0
102
RTVSPost2010PropOp45
 70
     1
102
RTVSPost2010Prop46
 90
       50
102
RTVSPost2010PropOp46
 70
     1
102
RTVSPost2010Prop47
 90
       50
102
RTVSPost2010PropOp47
 70
     1
102
RTVSPost2010Prop48
 90
       50
102
RTVSPost2010PropOp48
 70
     1
102
RTVSPost2010Prop49
280
     0
102
RTVSPost2010PropOp49
 70
     1
102
RTVSPost2010Prop50
 90
       50
102
RTVSPost2010PropOp50
 70
     1
102
RTVSPost2010Prop51ColorIndex
 90
      256
102
RTVSPost2010Prop51ColorRGB
 90
-16777216
102
RTVSPost2010PropOp51
 70
     0
102
RTVSPost2010Prop52
140
1.0
102
RTVSPost2010PropOp52
 70
     0
102
RTVSPost2010Prop53
 90
        2
102
RTVSPost2010PropOp53
 70
     1
102
RTVSPost2010Prop54
  1
strokes_ogs.tif
102
RTVSPost2010PropOp54
 70
     1
102
RTVSPost2010Prop55
280
     0
102
RTVSPost2010PropOp55
 70
     1
102
RTVSPost2010Prop56
140
1.0
102
RTVSPost2010PropOp56
 70
     1
102
RTVSPost2010Prop57
140
1.0
102
RTVSPost2010PropOp57
 70
     1
102
RTVSPropertyOp0
 70
     1
102
RTVSPropertyOp1
 70
     1
102
RTVSPropertyOp2
 70
     1
102
RTVSPropertyOp3
 70
     1
102
RTVSPropertyOp4
 70
     1
102
RTVSPropertyOp5
 70
     1
102
RTVSPropertyOp6
 70
     1
102
RTVSPropertyOp7
 70
     1
102
RTVSPropertyOp8
 70
     1
102
RTVSPropertyOp9
 70
     1
102
RTVSPropertyOp10
 70
     1
102
RTVSPropertyOp11
 70
     1
102
RTVSPropertyOp12
 70
     1
102
RTVSPropertyOp13
 70
     1
102
RTVSPropertyOp14
 70
     1
102
RTVSPropertyOp15
 70
     1
102
RTVSPropertyOp16
 70
     1
102
RTVSPropertyOp17
 70
     1
102
RTVSPropertyOp18
 70
     1
102
RTVSPropertyOp19
 70
     1
102
RTVSPropertyOp20
 70
     1
102
RTVSPropertyOp21
 70
     1
102
RTVSPropertyOp22
 70
     1
102
RTVSPropertyOp23
 70
     1
102
RTVSPropertyOp24
 70
     1
102
RTVSPropertyOp25
 70
     1
102
RTVSPropertyOp26
 70
     1
102
RTVSPropertyOp27
 70
     1
102
RTVSPropertyOp28
 70
     1
102
RTVSPropertyOp29
 70
     1
102
RTVSPropertyOp30
 70
     1
102
RTVSPropertyOp31
 70
     1
102
RTVSPropertyOp32
 70
     1
102
RTVSPropertyOp33
 70
     1
102
RTVSPropertyOp34
 70
     1
102
RTVSPropertyOp35
 70
     1
102
RTVSPropertyOp36
 70
     1
102
RTVSPropertyOp37
 70
     1
102
RTVSPropertyOp38
 70
     1
102
RTVSPropertyOp39
 70
     1
102
RTVSPropertyOp40
 70
     1
102
RTVSPropertyOp41
 70
     1
102
RTVSPropertyOp42
 70
     1
102
RTVSPropertyOp43
 70
     1
102
RTVSPropertyOp44
 70
     1
102
RTVSPropertyOp45
 70
     1
102
RTVSPropertyOp46
 70
     1
102
RTVSPropertyOp47
 70
     1
102
RTVSPropertyOp48
 70
     1
102
RTVSPropertyOp49
 70
     1
102
RTVSPropertyOp50
 70
     1
102
RTVSPropertyOp51
 70
     0
102
RTVSPropertyOp52
 70
     0
102
RTVSPropertyOp53
 70
     1
102
RTVSPropertyOp54
 70
     1
102
RTVSPropertyOp55
 70
     1
102
RTVSPropertyOp56
 70
     1
102
RTVSPropertyOp57
 70
     1
102
RTVSPropertyOp58
 70
     1
102
RTVSPropertyOp59
 70
     1
102
RTVSPropertyOp60
 70
     1
102
RTVSPropertyOp61
 70
     1
102
RTVSPropertyOp62
 70
     1
  0
XRECORD
  5
38E5
102
{ACAD_REACTORS
330
38E4
102
}
330
38E4
100
AcDbXrecord
280
     1
102
RTVSPost2010Prop28
280
     0
102
RTVSPost2010PropOp28
 70
     1
102
RTVSPost2010Prop29
280
     1
102
RTVSPost2010PropOp29
 70
     1
102
RTVSPost2010Prop30
280
     1
102
RTVSPost2010PropOp30
 70
     1
102
RTVSPost2010Prop31
280
     0
102
RTVSPost2010PropOp31
 70
     1
102
RTVSPost2010Prop32
280
     0
102
RTVSPost2010PropOp32
 70
     1
102
RTVSPost2010Prop33
280
     0
102
RTVSPost2010PropOp33
 70
     1
102
RTVSPost2010Prop34
280
     0
102
RTVSPost2010PropOp34
 70
     1
102
RTVSPost2010Prop35
280
     0
102
RTVSPost2010PropOp35
 70
     1
102
RTVSPost2010Prop36
280
     0
102
RTVSPost2010PropOp36
 70
     1
102
RTVSPost2010Prop37
 90
       50
102
RTVSPost2010PropOp37
 70
     1
102
RTVSPost2010Prop38
140
0.0
102
RTVSPost2010PropOp38
 70
     1
102
RTVSPost2010Prop39
140
1.0
102
RTVSPost2010PropOp39
 70
     1
102
RTVSPost2010Prop40
 90
        0
102
RTVSPost2010PropOp40
 70
     1
102
RTVSPost2010Prop41ColorIndex
 90
       18
102
RTVSPost2010Prop41ColorRGB
 90
        0
102
RTVSPost2010PropOp41
 70
     1
102
RTVSPost2010Prop42
 90
       50
102
RTVSPost2010PropOp42
 70
     1
102
RTVSPost2010Prop43
 90
        3
102
RTVSPost2010PropOp43
 70
     1
102
RTVSPost2010Prop44ColorIndex
 90
        5
102
RTVSPost2010Prop44ColorRGB
 90
      255
102
RTVSPost2010PropOp44
 70
     1
102
RTVSPost2010Prop45
280
     0
102
RTVSPost2010PropOp45
 70
     1
102
RTVSPost2010Prop46
 90
       50
102
RTVSPost2010PropOp46
 70
     1
102
RTVSPost2010Prop47
 90
       50
102
RTVSPost2010PropOp47
 70
     1
102
RTVSPost2010Prop48
 90
       50
102
RTVSPost2010PropOp48
 70
     1
102
RTVSPost2010Prop49
280
     0
102
RTVSPost2010PropOp49
 70
     1
102
RTVSPost2010Prop50
 90
       50
102
RTVSPost2010PropOp50
 70
     1
102
RTVSPost2010Prop51ColorIndex
 90
      256
102
RTVSPost2010Prop51ColorRGB
 90
-16777216
102
RTVSPost2010PropOp51
 70
     0
102
RTVSPost2010Prop52
140
1.0
102
RTVSPost2010PropOp52
 70
     0
102
RTVSPost2010Prop53
 90
        2
102
RTVSPost2010PropOp53
 70
     1
102
RTVSPost2010Prop54
  1
strokes_ogs.tif
102
RTVSPost2010PropOp54
 70
     1
102
RTVSPost2010Prop55
280
     0
102
RTVSPost2010PropOp55
 70
     1
102
RTVSPost2010Prop56
140
1.0
102
RTVSPost2010PropOp56
 70
     1
102
RTVSPost2010Prop57
140
1.0
102
RTVSPost2010PropOp57
 70
     1
102
RTVSPropertyOp0
 70
     1
102
RTVSPropertyOp1
 70
     1
102
RTVSPropertyOp2
 70
     1
102
RTVSPropertyOp3
 70
     1
102
RTVSPropertyOp4
 70
     1
102
RTVSPropertyOp5
 70
     1
102
RTVSPropertyOp6
 70
     1
102
RTVSPropertyOp7
 70
     1
102
RTVSPropertyOp8
 70
     1
102
RTVSPropertyOp9
 70
     1
102
RTVSPropertyOp10
 70
     1
102
RTVSPropertyOp11
 70
     1
102
RTVSPropertyOp12
 70
     1
102
RTVSPropertyOp13
 70
     1
102
RTVSPropertyOp14
 70
     1
102
RTVSPropertyOp15
 70
     1
102
RTVSPropertyOp16
 70
     1
102
RTVSPropertyOp17
 70
     1
102
RTVSPropertyOp18
 70
     1
102
RTVSPropertyOp19
 70
     1
102
RTVSPropertyOp20
 70
     1
102
RTVSPropertyOp21
 70
     1
102
RTVSPropertyOp22
 70
     1
102
RTVSPropertyOp23
 70
     1
102
RTVSPropertyOp24
 70
     1
102
RTVSPropertyOp25
 70
     1
102
RTVSPropertyOp26
 70
     1
102
RTVSPropertyOp27
 70
     1
102
RTVSPropertyOp28
 70
     1
102
RTVSPropertyOp29
 70
     1
102
RTVSPropertyOp30
 70
     1
102
RTVSPropertyOp31
 70
     1
102
RTVSPropertyOp32
 70
     1
102
RTVSPropertyOp33
 70
     1
102
RTVSPropertyOp34
 70
     1
102
RTVSPropertyOp35
 70
     1
102
RTVSPropertyOp36
 70
     1
102
RTVSPropertyOp37
 70
     1
102
RTVSPropertyOp38
 70
     1
102
RTVSPropertyOp39
 70
     1
102
RTVSPropertyOp40
 70
     1
102
RTVSPropertyOp41
 70
     1
102
RTVSPropertyOp42
 70
     1
102
RTVSPropertyOp43
 70
     1
102
RTVSPropertyOp44
 70
     1
102
RTVSPropertyOp45
 70
     1
102
RTVSPropertyOp46
 70
     1
102
RTVSPropertyOp47
 70
     1
102
RTVSPropertyOp48
 70
     1
102
RTVSPropertyOp49
 70
     1
102
RTVSPropertyOp50
 70
     1
102
RTVSPropertyOp51
 70
     0
102
RTVSPropertyOp52
 70
     0
102
RTVSPropertyOp53
 70
     1
102
RTVSPropertyOp54
 70
     1
102
RTVSPropertyOp55
 70
     1
102
RTVSPropertyOp56
 70
     1
102
RTVSPropertyOp57
 70
     1
102
RTVSPropertyOp58
 70
     1
102
RTVSPropertyOp59
 70
     1
102
RTVSPropertyOp60
 70
     1
102
RTVSPropertyOp61
 70
     1
102
RTVSPropertyOp62
 70
     1
  0
XRECORD
  5
38ED
102
{ACAD_REACTORS
330
38EC
102
}
330
38EC
100
AcDbXrecord
280
     1
102
RTVSPost2010Prop28
280
     0
102
RTVSPost2010PropOp28
 70
     1
102
RTVSPost2010Prop29
280
     1
102
RTVSPost2010PropOp29
 70
     1
102
RTVSPost2010Prop30
280
     1
102
RTVSPost2010PropOp30
 70
     1
102
RTVSPost2010Prop31
280
     0
102
RTVSPost2010PropOp31
 70
     1
102
RTVSPost2010Prop32
280
     0
102
RTVSPost2010PropOp32
 70
     1
102
RTVSPost2010Prop33
280
     0
102
RTVSPost2010PropOp33
 70
     1
102
RTVSPost2010Prop34
280
     0
102
RTVSPost2010PropOp34
 70
     1
102
RTVSPost2010Prop35
280
     0
102
RTVSPost2010PropOp35
 70
     1
102
RTVSPost2010Prop36
280
     0
102
RTVSPost2010PropOp36
 70
     1
102
RTVSPost2010Prop37
 90
       50
102
RTVSPost2010PropOp37
 70
     1
102
RTVSPost2010Prop38
140
0.0
102
RTVSPost2010PropOp38
 70
     1
102
RTVSPost2010Prop39
140
1.0
102
RTVSPost2010PropOp39
 70
     1
102
RTVSPost2010Prop40
 90
        0
102
RTVSPost2010PropOp40
 70
     1
102
RTVSPost2010Prop41ColorIndex
 90
       18
102
RTVSPost2010Prop41ColorRGB
 90
        0
102
RTVSPost2010PropOp41
 70
     1
102
RTVSPost2010Prop42
 90
       50
102
RTVSPost2010PropOp42
 70
     1
102
RTVSPost2010Prop43
 90
        3
102
RTVSPost2010PropOp43
 70
     1
102
RTVSPost2010Prop44ColorIndex
 90
        5
102
RTVSPost2010Prop44ColorRGB
 90
      255
102
RTVSPost2010PropOp44
 70
     1
102
RTVSPost2010Prop45
280
     0
102
RTVSPost2010PropOp45
 70
     1
102
RTVSPost2010Prop46
 90
       50
102
RTVSPost2010PropOp46
 70
     1
102
RTVSPost2010Prop47
 90
       50
102
RTVSPost2010PropOp47
 70
     1
102
RTVSPost2010Prop48
 90
       50
102
RTVSPost2010PropOp48
 70
     1
102
RTVSPost2010Prop49
280
     0
102
RTVSPost2010PropOp49
 70
     1
102
RTVSPost2010Prop50
 90
       50
102
RTVSPost2010PropOp50
 70
     1
102
RTVSPost2010Prop51ColorIndex
 90
      256
102
RTVSPost2010Prop51ColorRGB
 90
-16777216
102
RTVSPost2010PropOp51
 70
     0
102
RTVSPost2010Prop52
140
1.0
102
RTVSPost2010PropOp52
 70
     0
102
RTVSPost2010Prop53
 90
        2
102
RTVSPost2010PropOp53
 70
     1
102
RTVSPost2010Prop54
  1
strokes_ogs.tif
102
RTVSPost2010PropOp54
 70
     1
102
RTVSPost2010Prop55
280
     0
102
RTVSPost2010PropOp55
 70
     1
102
RTVSPost2010Prop56
140
1.0
102
RTVSPost2010PropOp56
 70
     1
102
RTVSPost2010Prop57
140
1.0
102
RTVSPost2010PropOp57
 70
     1
102
RTVSPropertyOp0
 70
     1
102
RTVSPropertyOp1
 70
     1
102
RTVSPropertyOp2
 70
     1
102
RTVSPropertyOp3
 70
     1
102
RTVSPropertyOp4
 70
     1
102
RTVSPropertyOp5
 70
     1
102
RTVSPropertyOp6
 70
     1
102
RTVSPropertyOp7
 70
     1
102
RTVSPropertyOp8
 70
     1
102
RTVSPropertyOp9
 70
     1
102
RTVSPropertyOp10
 70
     1
102
RTVSPropertyOp11
 70
     1
102
RTVSPropertyOp12
 70
     1
102
RTVSPropertyOp13
 70
     1
102
RTVSPropertyOp14
 70
     1
102
RTVSPropertyOp15
 70
     1
102
RTVSPropertyOp16
 70
     1
102
RTVSPropertyOp17
 70
     1
102
RTVSPropertyOp18
 70
     1
102
RTVSPropertyOp19
 70
     1
102
RTVSPropertyOp20
 70
     1
102
RTVSPropertyOp21
 70
     1
102
RTVSPropertyOp22
 70
     1
102
RTVSPropertyOp23
 70
     1
102
RTVSPropertyOp24
 70
     1
102
RTVSPropertyOp25
 70
     1
102
RTVSPropertyOp26
 70
     1
102
RTVSPropertyOp27
 70
     1
102
RTVSPropertyOp28
 70
     1
102
RTVSPropertyOp29
 70
     1
102
RTVSPropertyOp30
 70
     1
102
RTVSPropertyOp31
 70
     1
102
RTVSPropertyOp32
 70
     1
102
RTVSPropertyOp33
 70
     1
102
RTVSPropertyOp34
 70
     1
102
RTVSPropertyOp35
 70
     1
102
RTVSPropertyOp36
 70
     1
102
RTVSPropertyOp37
 70
     1
102
RTVSPropertyOp38
 70
     1
102
RTVSPropertyOp39
 70
     1
102
RTVSPropertyOp40
 70
     1
102
RTVSPropertyOp41
 70
     1
102
RTVSPropertyOp42
 70
     1
102
RTVSPropertyOp43
 70
     1
102
RTVSPropertyOp44
 70
     1
102
RTVSPropertyOp45
 70
     1
102
RTVSPropertyOp46
 70
     1
102
RTVSPropertyOp47
 70
     1
102
RTVSPropertyOp48
 70
     1
102
RTVSPropertyOp49
 70
     1
102
RTVSPropertyOp50
 70
     1
102
RTVSPropertyOp51
 70
     0
102
RTVSPropertyOp52
 70
     0
102
RTVSPropertyOp53
 70
     1
102
RTVSPropertyOp54
 70
     1
102
RTVSPropertyOp55
 70
     1
102
RTVSPropertyOp56
 70
     1
102
RTVSPropertyOp57
 70
     1
102
RTVSPropertyOp58
 70
     1
102
RTVSPropertyOp59
 70
     1
102
RTVSPropertyOp60
 70
     1
102
RTVSPropertyOp61
 70
     1
102
RTVSPropertyOp62
 70
     1
  0
ENDSEC
  0
EOF
