  0
SECTION
  2
HEADER
  9
$ACADVER
  1
AC1015
  9
$ACADMAINTVER
 70
    20
  9
$DWGCODEPAGE
  3
ANSI_932
  9
$INSBASE
 10
0.0
 20
0.0
 30
0.0
  9
$EXTMIN
 10
26.8662160436
 20
-34.5469973751
 30
0.0
  9
$EXTMAX
 10
766.3275525426
 20
445.6448390605
 30
0.0
  9
$LIMMIN
 10
0.0
 20
0.0
  9
$LIMMAX
 10
297.0
 20
210.0
  9
$ORTHOMODE
 70
     0
  9
$REGENMODE
 70
     1
  9
$FILLMODE
 70
     1
  9
$QTEXTMODE
 70
     0
  9
$MIRRTEXT
 70
     0
  9
$LTSCALE
 40
2.0
  9
$ATTMODE
 70
     1
  9
$TEXTSIZE
 40
2.0
  9
$TRACEWID
 40
1.0
  9
$TEXTSTYLE
  7
STANDARD
  9
$CLAYER
  8
0
  9
$CELTYPE
  6
BYLAYER
  9
$CECOLOR
 62
   256
  9
$CELTSCALE
 40
1.0
  9
$DISPSILH
 70
     0
  9
$DIMSCALE
 40
2.0
  9
$DIMASZ
 40
1.8
  9
$DIMEXO
 40
0.625
  9
$DIMDLI
 40
3.75
  9
$DIMRND
 40
0.0
  9
$DIMDLE
 40
0.0
  9
$DIMEXE
 40
0.8
  9
$DIMTP
 40
0.0
  9
$DIMTM
 40
0.0
  9
$DIMTXT
 40
1.8
  9
$DIMCEN
 40
2.5
  9
$DIMTSZ
 40
0.0
  9
$DIMTOL
 70
     0
  9
$DIMLIM
 70
     0
  9
$DIMTIH
 70
     0
  9
$DIMTOH
 70
     0
  9
$DIMSE1
 70
     0
  9
$DIMSE2
 70
     0
  9
$DIMTAD
 70
     1
  9
$DIMZIN
 70
     8
  9
$DIMBLK
  1

  9
$DIMASO
 70
     1
  9
$DIMSHO
 70
     1
  9
$DIMPOST
  1

  9
$DIMAPOST
  1

  9
$DIMALT
 70
     0
  9
$DIMALTD
 70
     4
  9
$DIMALTF
 40
0.0394
  9
$DIMLFAC
 40
1.0
  9
$DIMTOFL
 70
     1
  9
$DIMTVP
 40
0.0
  9
$DIMTIX
 70
     0
  9
$DIMSOXD
 70
     0
  9
$DIMSAH
 70
     0
  9
$DIMBLK1
  1

  9
$DIMBLK2
  1

  9
$DIMSTYLE
  2
STANDARD
  9
$DIMCLRD
 70
     0
  9
$DIMCLRE
 70
     0
  9
$DIMCLRT
 70
     0
  9
$DIMTFAC
 40
1.0
  9
$DIMGAP
 40
0.75
  9
$DIMJUST
 70
     0
  9
$DIMSD1
 70
     0
  9
$DIMSD2
 70
     0
  9
$DIMTOLJ
 70
     1
  9
$DIMTZIN
 70
     0
  9
$DIMALTZ
 70
     0
  9
$DIMALTTZ
 70
     0
  9
$DIMUPT
 70
     0
  9
$DIMDEC
 70
     2
  9
$DIMTDEC
 70
     2
  9
$DIMALTU
 70
     8
  9
$DIMALTTD
 70
     4
  9
$DIMTXSTY
  7
STANDARD
  9
$DIMAUNIT
 70
     0
  9
$DIMADEC
 70
     2
  9
$DIMALTRND
 40
0.0
  9
$DIMAZIN
 70
     0
  9
$DIMDSEP
 70
    46
  9
$DIMATFIT
 70
     3
  9
$DIMFRAC
 70
     0
  9
$DIMLDRBLK
  1

  9
$DIMLUNIT
 70
     6
  9
$DIMLWD
 70
    -2
  9
$DIMLWE
 70
    -2
  9
$DIMTMOVE
 70
     0
  9
$LUNITS
 70
     2
  9
$LUPREC
 70
     3
  9
$SKETCHINC
 40
1.0
  9
$FILLETRAD
 40
10.0
  9
$AUNITS
 70
     0
  9
$AUPREC
 70
     2
  9
$MENU
  1
.
  9
$ELEVATION
 40
0.0
  9
$PELEVATION
 40
0.0
  9
$THICKNESS
 40
0.0
  9
$LIMCHECK
 70
     0
  9
$CHAMFERA
 40
0.0
  9
$CHAMFERB
 40
0.0
  9
$CHAMFERC
 40
20.0
  9
$CHAMFERD
 40
0.0
  9
$SKPOLY
 70
     0
  9
$TDCREATE
 40
2453557.746875000
  9
$TDUCREATE
 40
2453557.371879873
  9
$TDUPDATE
 40
2460164.368449075
  9
$TDUUPDATE
 40
2460163.993449074
  9
$TDINDWG
 40
0.4705873264
  9
$TDUSRTIMER
 40
0.4705871528
  9
$USRTIMER
 70
     1
  9
$ANGBASE
 50
0.0
  9
$ANGDIR
 70
     0
  9
$PDMODE
 70
     0
  9
$PDSIZE
 40
-10.0
  9
$PLINEWID
 40
0.0
  9
$SPLFRAME
 70
     0
  9
$SPLINETYPE
 70
     6
  9
$SPLINESEGS
 70
     8
  9
$HANDSEED
  5
56DB
  9
$SURFTAB1
 70
     6
  9
$SURFTAB2
 70
     6
  9
$SURFTYPE
 70
     6
  9
$SURFU
 70
     6
  9
$SURFV
 70
     6
  9
$UCSBASE
  2

  9
$UCSNAME
  2

  9
$UCSORG
 10
0.0
 20
0.0
 30
0.0
  9
$UCSXDIR
 10
1.0
 20
0.0
 30
0.0
  9
$UCSYDIR
 10
0.0
 20
1.0
 30
0.0
  9
$UCSORTHOREF
  2

  9
$UCSORTHOVIEW
 70
     0
  9
$UCSORGTOP
 10
0.0
 20
0.0
 30
0.0
  9
$UCSORGBOTTOM
 10
0.0
 20
0.0
 30
0.0
  9
$UCSORGLEFT
 10
0.0
 20
0.0
 30
0.0
  9
$UCSORGRIGHT
 10
0.0
 20
0.0
 30
0.0
  9
$UCSORGFRONT
 10
0.0
 20
0.0
 30
0.0
  9
$UCSORGBACK
 10
0.0
 20
0.0
 30
0.0
  9
$PUCSBASE
  2

  9
$PUCSNAME
  2

  9
$PUCSORG
 10
0.0
 20
0.0
 30
0.0
  9
$PUCSXDIR
 10
1.0
 20
0.0
 30
0.0
  9
$PUCSYDIR
 10
0.0
 20
1.0
 30
0.0
  9
$PUCSORTHOREF
  2

  9
$PUCSORTHOVIEW
 70
     0
  9
$PUCSORGTOP
 10
0.0
 20
0.0
 30
0.0
  9
$PUCSORGBOTTOM
 10
0.0
 20
0.0
 30
0.0
  9
$PUCSORGLEFT
 10
0.0
 20
0.0
 30
0.0
  9
$PUCSORGRIGHT
 10
0.0
 20
0.0
 30
0.0
  9
$PUCSORGFRONT
 10
0.0
 20
0.0
 30
0.0
  9
$PUCSORGBACK
 10
0.0
 20
0.0
 30
0.0
  9
$USERI1
 70
     0
  9
$USERI2
 70
     0
  9
$USERI3
 70
     0
  9
$USERI4
 70
     0
  9
$USERI5
 70
     0
  9
$USERR1
 40
0.0
  9
$USERR2
 40
0.0
  9
$USERR3
 40
0.0
  9
$USERR4
 40
0.0
  9
$USERR5
 40
0.0
  9
$WORLDVIEW
 70
     1
  9
$SHADEDGE
 70
     3
  9
$SHADEDIF
 70
    70
  9
$TILEMODE
 70
     1
  9
$MAXACTVP
 70
    48
  9
$PINSBASE
 10
0.0
 20
0.0
 30
0.0
  9
$PLIMCHECK
 70
     0
  9
$PEXTMIN
 10
0.0
 20
0.0
 30
0.0
  9
$PEXTMAX
 10
0.0
 20
0.0
 30
0.0
  9
$PLIMMIN
 10
0.0
 20
0.0
  9
$PLIMMAX
 10
12.0
 20
9.0
  9
$UNITMODE
 70
     0
  9
$VISRETAIN
 70
     1
  9
$PLINEGEN
 70
     0
  9
$PSLTSCALE
 70
     1
  9
$TREEDEPTH
 70
  3020
  9
$CMLSTYLE
  2
STANDARD
  9
$CMLJUST
 70
     0
  9
$CMLSCALE
 40
1.0
  9
$PROXYGRAPHICS
 70
     1
  9
$MEASUREMENT
 70
     0
  9
$CELWEIGHT
370
    -1
  9
$ENDCAPS
280
     0
  9
$JOINSTYLE
280
     0
  9
$LWDISPLAY
290
     0
  9
$INSUNITS
 70
     0
  9
$HYPERLINKBASE
  1

  9
$STYLESHEET
  1
SEKKEI.CTB
  9
$XEDIT
290
     1
  9
$CEPSNTYPE
380
     0
  9
$PSTYLEMODE
290
     1
  9
$FINGERPRINTGUID
  2
{6385560B-F4B1-4644-A7C2-A3E32AC3D232}
  9
$VERSIONGUID
  2
{F23E693C-6A3A-C24C-9077-53CAF92D595C}
  9
$EXTNAMES
290
     1
  9
$PSVPSCALE
 40
0.0
  9
$OLESTARTUP
290
     0
  0
ENDSEC
  0
SECTION
  2
CLASSES
  0
CLASS
  1
DICTIONARYVAR
  2
AcDbDictionaryVar
  3
ObjectDBX Classes
 90
        0
280
     0
281
     0
  0
CLASS
  1
ACDBDICTIONARYWDFLT
  2
AcDbDictionaryWithDefault
  3
ObjectDBX Classes
 90
        0
280
     0
281
     0
  0
CLASS
  1
MATERIAL
  2
AcDbMaterial
  3
ObjectDBX Classes
 90
     1153
280
     0
281
     0
  0
CLASS
  1
VISUALSTYLE
  2
AcDbVisualStyle
  3
ObjectDBX Classes
 90
     4095
280
     0
281
     0
  0
CLASS
  1
TABLESTYLE
  2
AcDbTableStyle
  3
ObjectDBX Classes
 90
     4095
280
     0
281
     0
  0
CLASS
  1
SCALE
  2
AcDbScale
  3
ObjectDBX Classes
 90
     1153
280
     0
281
     0
  0
CLASS
  1
MLEADERSTYLE
  2
AcDbMLeaderStyle
  3
ACDB_MLEADERSTYLE_CLASS
 90
     4095
280
     0
281
     0
  0
CLASS
  1
CELLSTYLEMAP
  2
AcDbCellStyleMap
  3
ObjectDBX Classes
 90
     1152
280
     0
281
     0
  0
CLASS
  1
SORTENTSTABLE
  2
AcDbSortentsTable
  3
ObjectDBX Classes
 90
        0
280
     0
281
     0
  0
CLASS
  1
ACAD_EVALUATION_GRAPH
  2
AcDbEvalGraph
  3
ObjectDBX Classes
 90
    33921
280
     0
281
     0
  0
CLASS
  1
ACAECUSTOBJ
  2
AcAeEditorObj
  3
AcAeEditorObj
 90
    33792
280
     0
281
     0
  0
CLASS
  1
ACDB_DYNAMICBLOCKPURGEPREVENTER_VERSION
  2
AcDbDynamicBlockPurgePreventer
  3
ObjectDBX Classes
 90
    33921
280
     0
281
     0
  0
CLASS
  1
ACDBSECTIONVIEWSTYLE
  2
AcDbSectionViewStyle
  3
ObjectDBX Classes
 90
     1025
280
     0
281
     0
  0
CLASS
  1
ACDBDETAILVIEWSTYLE
  2
AcDbDetailViewStyle
  3
ObjectDBX Classes
 90
     1025
280
     0
281
     0
  0
CLASS
  1
ACDBPLACEHOLDER
  2
AcDbPlaceHolder
  3
ObjectDBX Classes
 90
        0
280
     0
281
     0
  0
CLASS
  1
LAYOUT
  2
AcDbLayout
  3
ObjectDBX Classes
 90
        0
280
     0
281
     0
  0
ENDSEC
  0
SECTION
  2
TABLES
  0
TABLE
  2
VPORT
  5
6E
102
{ACAD_XDICTIONARY
360
1F46
102
}
330
0
100
AcDbSymbolTable
 70
     1
  0
VPORT
  5
1D54
330
6E
100
AcDbSymbolTableRecord
100
AcDbViewportTableRecord
  2
*Active
 70
     0
 10
0.0
 20
0.0
 11
1.0
 21
1.0
 12
505.4665095947
 22
225.8744170951
 13
0.0
 23
0.0
 14
10.0
 24
10.0
 15
10.0
 25
10.0
 16
0.0
 26
0.0
 36
1.0
 17
0.0
 27
0.0
 37
0.0
 40
487.7957579874
 41
1.4710526316
 42
50.0
 43
0.0
 44
0.0
 50
0.0
 51
0.0
 71
     0
 72
   100
 73
     1
 74
     3
 75
     0
 76
     0
 77
     0
 78
     0
281
     0
 65
     1
110
0.0
120
0.0
130
0.0
111
1.0
121
0.0
131
0.0
112
0.0
122
1.0
132
0.0
 79
     0
146
0.0
1001
ACAD_NAV_VCDISPLAY
1070
     3
  0
ENDTAB
  0
TABLE
  2
LTYPE
  5
69
330
0
100
AcDbSymbolTable
 70
     5
  0
LTYPE
  5
6A
330
69
100
AcDbSymbolTableRecord
100
AcDbLinetypeTableRecord
  2
BYBLOCK
 70
     0
  3

 72
    65
 73
     0
 40
0.0
  0
LTYPE
  5
6B
330
69
100
AcDbSymbolTableRecord
100
AcDbLinetypeTableRecord
  2
BYLAYER
 70
     0
  3

 72
    65
 73
     0
 40
0.0
  0
LTYPE
  5
8
330
69
100
AcDbSymbolTableRecord
100
AcDbLinetypeTableRecord
  2
CONTINUOUS
 70
     0
  3
Solid line
 72
    65
 73
     0
 40
0.0
  0
LTYPE
  5
27C
330
69
100
AcDbSymbolTableRecord
100
AcDbLinetypeTableRecord
  2
sekkei(A2)
 70
     0
  3
center(A2)  ____ _ ____ _ ____ _ ____ _ ____ _ 
 72
    65
 73
     4
 40
14.2875
 49
9.525
 74
     0
 49
-1.5875
 74
     0
 49
1.5875
 74
     0
 49
-1.5875
 74
     0
  0
LTYPE
  5
2B4
330
69
100
AcDbSymbolTableRecord
100
AcDbLinetypeTableRecord
  2
HIDDEN2
 70
     0
  3
Hidden (.5x) _ _ _ _ _ _ _ _ _ _ _ _ _ _ _ _ _
 72
    65
 73
     2
 40
4.7625
 49
3.175
 74
     0
 49
-1.5875
 74
     0
  0
LTYPE
  5
2718
330
69
100
AcDbSymbolTableRecord
100
AcDbLinetypeTableRecord
  2
CENS
 70
     0
  3
(一点鎖線１)---- - ---- - ---- - ---- - ---- - 
 72
    65
 73
     4
 40
13.0
 49
10.0
 74
     0
 49
-1.0
 74
     0
 49
1.0
 74
     0
 49
-1.0
 74
     0
  0
LTYPE
  5
279A
330
69
100
AcDbSymbolTableRecord
100
AcDbLinetypeTableRecord
  2
sekkei_H
 70
     0
  3
Hidden-S _ _ _ _ _ _ _ _ _ _ _ _ _ _ _ _ _
 72
    65
 73
     2
 40
2.38125
 49
1.5875
 74
     0
 49
-0.79375
 74
     0
  0
ENDTAB
  0
TABLE
  2
LAYER
  5
66
102
{ACAD_XDICTIONARY
360
1DB7
102
}
330
0
100
AcDbSymbolTable
 70
     9
  0
LAYER
  5
5E
102
{ACAD_XDICTIONARY
360
1F2F
102
}
330
66
100
AcDbSymbolTableRecord
100
AcDbLayerTableRecord
  2
0
 70
     0
 62
     7
  6
CONTINUOUS
370
    -3
390
5
  0
LAYER
  5
3E
102
{ACAD_XDICTIONARY
360
1F31
102
}
330
66
100
AcDbSymbolTableRecord
100
AcDbLayerTableRecord
  2
CENTER
 70
     0
 62
     3
  6
sekkei(A2)
370
    -3
390
5
  0
LAYER
  5
135
330
66
100
AcDbSymbolTableRecord
100
AcDbLayerTableRecord
  2
DEFPOINTS
 70
     0
 62
     7
  6
CONTINUOUS
290
     0
370
    -3
390
5
  0
LAYER
  5
2B5
102
{ACAD_XDICTIONARY
360
1F37
102
}
330
66
100
AcDbSymbolTableRecord
100
AcDbLayerTableRecord
  2
HIDS
 70
     0
 62
     1
  6
HIDDEN2
370
    -3
390
5
  0
LAYER
  5
2BA
102
{ACAD_XDICTIONARY
360
1F39
102
}
330
66
100
AcDbSymbolTableRecord
100
AcDbLayerTableRecord
  2
HOJO
 70
     0
 62
     4
  6
CONTINUOUS
370
    -3
390
5
  0
LAYER
  5
1DB4
102
{ACAD_XDICTIONARY
360
1DB5
102
}
330
66
100
AcDbSymbolTableRecord
100
AcDbLayerTableRecord
  2
TITLE_C
 70
     0
 62
     4
  6
CONTINUOUS
370
    -3
390
5
1001
AcAecLayerStandard
1000

1000

  0
ENDTAB
  0
TABLE
  2
STYLE
  5
67
330
0
100
AcDbSymbolTable
 70
     1
  0
STYLE
  5
16
330
67
100
AcDbSymbolTableRecord
100
AcDbTextStyleTableRecord
  2
STANDARD
 70
     0
 40
0.0
 41
1.0
 50
0.0
 71
     0
 42
2.0
  3
simplex.shx
  4
extfont.shx
  0
ENDTAB
  0
TABLE
  2
VIEW
  5
6C
330
0
100
AcDbSymbolTable
 70
     0
  0
ENDTAB
  0
TABLE
  2
UCS
  5
6D
330
0
100
AcDbSymbolTable
 70
     0
  0
ENDTAB
  0
TABLE
  2
APPID
  5
70
330
0
100
AcDbSymbolTable
 70
    10
  0
APPID
  5
71
330
70
100
AcDbSymbolTableRecord
100
AcDbRegAppTableRecord
  2
ACAD
 70
     0
  0
APPID
  5
1DB6
330
70
100
AcDbSymbolTableRecord
100
AcDbRegAppTableRecord
  2
AcAecLayerStandard
 70
     0
  0
APPID
  5
1DDF
330
70
100
AcDbSymbolTableRecord
100
AcDbRegAppTableRecord
  2
ACAD_EXEMPT_FROM_CAD_STANDARDS
 70
     0
  0
APPID
  5
1F97
330
70
100
AcDbSymbolTableRecord
100
AcDbRegAppTableRecord
  2
ACAD_MLEADERVER
 70
     0
  0
APPID
  5
2821
330
70
100
AcDbSymbolTableRecord
100
AcDbRegAppTableRecord
  2
AcadAnnoAV
 70
     0
  0
APPID
  5
2847
330
70
100
AcDbSymbolTableRecord
100
AcDbRegAppTableRecord
  2
ACAUTHENVIRON
 70
     0
  0
APPID
  5
284B
330
70
100
AcDbSymbolTableRecord
100
AcDbRegAppTableRecord
  2
AcDbDynamicBlockTrueName
 70
     0
  0
APPID
  5
284C
330
70
100
AcDbSymbolTableRecord
100
AcDbRegAppTableRecord
  2
AcDbDynamicBlockGUID
 70
     0
  0
APPID
  5
284E
330
70
100
AcDbSymbolTableRecord
100
AcDbRegAppTableRecord
  2
AcDbBlockRepETag
 70
     0
  0
APPID
  5
3C1E
330
70
100
AcDbSymbolTableRecord
100
AcDbRegAppTableRecord
  2
ACAD_NAV_VCDISPLAY
 70
     0
  0
ENDTAB
  0
TABLE
  2
DIMSTYLE
  5
72
330
0
100
AcDbSymbolTable
 70
     1
100
AcDbDimStyleTable
 71
     1
340
73
  0
DIMSTYLE
105
73
330
72
100
AcDbSymbolTableRecord
100
AcDbDimStyleTableRecord
  2
STANDARD
 70
     0
 40
2.0
 41
1.8
 42
0.625
 43
3.75
 44
0.8
 73
     0
 74
     0
 77
     1
 78
     8
140
1.8
141
2.5
143
0.0394
147
0.75
171
     4
172
     1
179
     2
271
     2
272
     2
273
     8
274
     4
277
     6
340
16
  0
ENDTAB
  0
TABLE
  2
BLOCK_RECORD
  5
1
330
0
100
AcDbSymbolTable
 70
    74
  0
BLOCK_RECORD
  5
2
330
1
100
AcDbSymbolTableRecord
100
AcDbBlockTableRecord
  2
*MODEL_SPACE
340
60
  0
BLOCK_RECORD
  5
566A
330
1
100
AcDbSymbolTableRecord
100
AcDbBlockTableRecord
  2
*Paper_Space
340
566B
  0
BLOCK_RECORD
  5
4AC
330
1
100
AcDbSymbolTableRecord
100
AcDbBlockTableRecord
  2
黒丸矢印1
340
0
  0
BLOCK_RECORD
  5
45D6
330
1
100
AcDbSymbolTableRecord
100
AcDbBlockTableRecord
  2
ファンカバ－ブレーキ_F2S-15_M_0001
340
0
310
28000000200000002000000001002000000000000010000001000000010000000000000000000000000000FF000000FF000000FF000000FF000000FF000000FF000000FF000000FF000000FF000000FF000000FF000000FF000000FF000000FF000000FF000000FF000000FF000000FF000000FF000000FF000000FF000000
310
FF000000FF000000FF000000FF000000FF000000FF000000FF000000FF000000FF000000FF000000FF000000FF000000FF000000FF000000FF000000FF000000FF000000FF000000FF000000FF000000FF000000FF000000FF000000FF000000FFFFFFFFFFFFFFFFFFFFFFFFFFFFFFFFFFFFFFFFFF000000FF000000FF0000
310
00FF000000FF000000FF000000FF000000FF000000FF000000FF000000FF000000FF000000FF000000FF000000FF000000FF000000FF000000FF000000FF000000FF000000FF000000FF000000FF000000FF000000FF000000FF000000FFFFFFFFFF000000FF000000FF000000FF000000FFFFFFFFFF000000FF000000FF00
310
0000FF000000FF000000FF000000FF000000FF000000FF000000FF000000FF000000FF000000FF000000FF000000FF000000FF000000FF000000FF000000FF000000FF000000FF000000FF000000FF000000FF000000FF000000FF000000FFFFFFFFFF000000FF000000FF000000FF000000FFFFFFFFFF000000FF000000FF
310
000000FF000000FF000000FF000000FF000000FF000000FF000000FF000000FF000000FF000000FF000000FF000000FF000000FF000000FF000000FF000000FF000000FF000000FF000000FF000000FF000000FF000000FF000000FF000000FFFFFFFFFFFFFFFFFFFFFFFFFFFFFFFFFFFFFFFFFFFFFFFFFF000000FF000000
310
FF000000FF000000FF000000FF000000FF000000FF000000FF000000FF000000FF000000FF000000FF000000FF000000FF000000FF000000FF000000FF000000FF000000FF000000FF000000FF000000FF000000FF000000FF000000FF000000FFFFFFFFFF000000FF000000FF000000FF000000FFFFFFFFFF000000FF0000
310
00FF000000FF000000FF000000FF000000FF000000FF000000FF000000FF000000FF000000FF000000FF000000FF000000FF000000FF000000FF000000FF000000FF000000FF000000FF000000FF000000FF000000FF000000FF000000FF000000FFFFFFFFFF000000FF000000FF000000FF000000FFFFFFFFFF000000FF00
310
0000FF000000FF000000FF000000FF000000FF000000FF000000FF000000FF000000FF000000FF000000FF000000FF000000FF000000FF000000FF000000FF000000FF000000FF000000FF000000FF000000FF000000FF000000FF000000FF000000FFFFFFFFFF000000FF000000FF000000FF000000FFFFFFFFFF000000FF
310
000000FF000000FF000000FF000000FF000000FF000000FF000000FF000000FF000000FF000000FF000000FF000000FF000000FF000000FF000000FF000000FF000000FF000000FF000000FF000000FF000000FF000000FF000000FF000000FF000000FFFFFFFFFF000000FF000000FF000000FF000000FFFFFFFFFF000000
310
FF000000FF000000FF000000FF000000FF000000FF000000FF000000FF000000FF000000FF000000FF000000FF000000FF000000FF000000FF000000FF000000FF000000FF000000FF000000FF000000FF000000FF000000FF000000FF000000FF000000FFFFFFFFFF000000FF000000FF000000FF000000FFFFFFFFFF0000
310
00FF000000FF000000FF000000FF000000FF000000FF000000FF000000FF000000FF000000FF000000FF000000FF000000FF000000FF000000FF000000FF000000FF000000FF000000FF000000FF000000FF000000FF000000FF000000FF000000FF000000FFFFFFFFFF000000FF000000FF000000FF000000FFFFFFFFFF00
310
0000FF000000FF000000FF000000FF000000FF000000FF000000FF000000FF000000FF000000FF000000FF000000FF000000FF000000FF000000FF000000FF000000FF000000FF000000FF000000FF000000FF000000FF000000FF000000FF000000FF000000FFFFFFFFFF000000FF000000FF000000FF000000FFFFFFFFFF
310
000000FF000000FF000000FF000000FF000000FF000000FF000000FF000000FF000000FF000000FF000000FF000000FF000000FF000000FF000000FF000000FF000000FF000000FF000000FF000000FF000000FF000000FF000000FF000000FF000000FF000000FFFFFFFFFF000000FF000000FF000000FF000000FFFFFFFF
310
FF000000FF000000FF000000FF000000FF000000FF000000FF000000FF000000FF000000FF000000FF000000FF000000FF000000FF000000FF000000FF000000FF000000FF000000FF000000FF000000FF000000FF000000FF000000FF000000FF000000FF000000FFFFFFFFFF000000FF000000FF000000FF000000FFFFFF
310
FFFF000000FF000000FF000000FF000000FF000000FF000000FF000000FF000000FF000000FF000000FF000000FF000000FF000000FF000000FF000000FF000000FF000000FF000000FF000000FF000000FF000000FF000000FF000000FF000000FF000000FF000000FFFFFFFFFF000000FF000000FF000000FF000000FFFF
310
FFFFFF000000FF000000FF000000FF000000FF000000FF000000FF000000FF000000FF000000FF000000FF000000FF000000FF000000FF000000FF000000FF000000FF000000FF000000FF000000FF000000FF000000FF000000FF000000FF000000FF000000FF000000FFFFFFFFFF000000FF000000FF000000FF000000FF
310
FFFFFFFF000000FF000000FF000000FF000000FF000000FF000000FF000000FF000000FF000000FF000000FF000000FF000000FF000000FF000000FF000000FF000000FF000000FF000000FF000000FF000000FF000000FF000000FF000000FF000000FF000000FF000000FFFFFFFFFF000000FF000000FF000000FF000000
310
FFFFFFFFFF000000FF000000FF000000FF000000FF000000FF000000FF000000FF000000FF000000FF000000FF000000FF000000FF000000FF000000FF000000FF000000FF000000FF000000FF000000FF000000FF000000FF000000FF000000FF000000FF000000FF000000FFFFFFFFFF000000FF000000FF000000FF0000
310
00FFFFFFFFFF000000FF000000FF000000FF000000FF000000FF000000FF000000FF000000FF000000FF000000FF000000FF000000FF000000FF000000FF000000FF000000FF000000FF000000FF000000FF000000FF000000FF000000FF000000FF000000FF000000FF000000FFFFFFFFFF000000FF000000FF000000FF00
310
0000FFFFFFFFFF000000FF000000FF000000FF000000FF000000FF000000FF000000FF000000FF000000FF000000FF000000FF000000FF000000FF000000FF000000FF000000FF000000FF000000FF000000FF000000FF000000FF000000FF000000FF000000FF000000FF000000FFFFFFFFFF000000FF000000FF000000FF
310
000000FFFFFFFFFF000000FF000000FF000000FF000000FF000000FF000000FF000000FF000000FF000000FF000000FF000000FF000000FF000000FF000000FF000000FF000000FF000000FF000000FF000000FF000000FF000000FF000000FF000000FF000000FF000000FF000000FFFFFFFFFF000000FF000000FF000000
310
FF000000FFFFFFFFFF000000FF000000FF000000FF000000FF000000FF000000FF000000FF000000FF000000FF000000FF000000FF000000FF000000FF000000FF000000FF000000FF000000FF000000FF000000FF000000FF000000FF000000FF000000FF000000FF000000FF000000FFFFFFFFFF000000FF000000FF0000
310
00FF000000FFFFFFFFFF000000FF000000FF000000FF000000FF000000FF000000FF000000FF000000FF000000FF000000FF000000FF000000FF000000FF000000FF000000FF000000FF000000FF000000FF000000FF000000FF000000FF000000FF000000FF000000FF000000FF000000FFFFFFFFFF000000FF000000FF00
310
0000FF000000FFFFFFFFFF000000FF000000FF000000FF000000FF000000FF000000FF000000FF000000FF000000FF000000FF000000FF000000FF000000FF000000FF000000FF000000FF000000FF000000FF000000FF000000FF000000FF000000FF000000FF000000FF000000FF000000FFFFFFFFFFFFFFFFFFFFFFFFFF
310
FFFFFFFFFFFFFFFFFFFFFFFF000000FF000000FF000000FF000000FF000000FF000000FF000000FF000000FF000000FF000000FF000000FF000000FF000000FF000000FF000000FF000000FF000000FF000000FF000000FF000000FF000000FF000000FF000000FF000000FF000000FF000000FFFFFFFFFF000000FF000000
310
FF000000FF000000FFFFFFFFFF000000FF000000FF000000FF000000FF000000FF000000FF000000FF000000FF000000FF000000FF000000FF000000FF000000FF000000FF000000FF000000FF000000FF000000FF000000FF000000FF000000FF000000FF000000FF000000FF000000FF000000FFFFFFFFFFFFFFFFFF0000
310
00FF000000FF000000FFFFFFFFFF000000FF000000FF000000FF000000FF000000FF000000FF000000FF000000FF000000FF000000FF000000FF000000FF000000FF000000FF000000FF000000FF000000FF000000FF000000FF000000FF000000FF000000FF000000FF000000FF000000FF000000FF000000FFFFFFFFFFFF
310
FFFFFFFFFFFFFFFFFFFFFFFFFFFFFF000000FF000000FF000000FF000000FF000000FF000000FF000000FF000000FF000000FF000000FF000000FF000000FF000000FF000000FF000000FF000000FF000000FF000000FF000000FF000000FF000000FF000000FF000000FF000000FF000000FF000000FF000000FF000000FF
310
000000FF000000FFFFFFFFFFFFFFFFFF000000FF000000FF000000FF000000FF000000FF000000FF000000FF000000FF000000FF000000FF000000FF000000FF000000FF000000FF000000FF000000FF000000FF000000FF000000FF000000FF000000FF000000FF000000FF000000FF000000FF000000FF000000FF000000
310
FF000000FF000000FFFFFFFFFFFFFFFFFF000000FF000000FF000000FF000000FF000000FF000000FF000000FF000000FF000000FF000000FF000000FF000000FF000000FF000000FF000000FF000000FF000000FF000000FF000000FF000000FF000000FF000000FF000000FF000000FF000000FF000000FF000000FF0000
310
00FF000000FF000000FFFFFFFFFFFFFFFFFF000000FF000000FF000000FF000000FF000000FF000000FF000000FF000000FF000000FF000000FF000000FF000000FF000000FF000000FF000000FF000000FF000000FF000000FF000000FF000000FF000000FF000000FF000000FF000000FF000000FF000000FF000000FF00
310
0000FF000000FF000000FFFFFFFFFF000000FF000000FF000000FF000000FF000000FF000000FF000000FF000000FF000000FF000000FF000000FF000000FF000000FF000000FF000000FF000000FF000000FF000000FF000000FF000000FF000000FF000000FF000000FF000000FF000000FF000000FF000000FF000000FF
310
000000FF000000FF000000FF000000FF000000FF000000FF000000FF000000FF000000FF000000FF000000FF000000FF000000FF000000FF000000FF000000FF000000FF000000FF
102
{BLKREFS
331
466D
102
}
  0
BLOCK_RECORD
  5
45F0
330
1
100
AcDbSymbolTableRecord
100
AcDbBlockTableRecord
  2
ファンカバ－ブレーキ_F2S-15_M_0002
340
0
310
28000000200000002000000001002000000000000010000001000000010000000000000000000000000000FF000000FF000000FF000000FF000000FF000000FF000000FF000000FF000000FF000000FF000000FF000000FF000000FF000000FF000000FF000000FF000000FF000000FF000000FF000000FF000000FF000000
310
FF000000FF000000FF000000FF000000FF000000FF000000FF000000FF000000FF000000FF000000FF000000FF000000FF000000FF000000FF000000FF000000FF000000FF000000FF000000FF000000FF000000FF000000FF000000FFFFFFFFFFFFFFFFFFFFFFFFFFFFFFFFFFFFFFFFFF000000FF000000FF000000FF0000
310
00FF000000FF000000FF000000FF000000FF000000FF000000FF000000FF000000FF000000FF000000FF000000FF000000FF000000FF000000FF000000FF000000FF000000FF000000FF000000FF000000FF000000FF000000FF000000FFFFFFFFFF000000FF000000FF000000FF000000FFFFFFFFFF000000FF000000FF00
310
0000FF000000FF000000FF000000FF000000FF000000FF000000FF000000FF000000FF000000FF000000FF000000FF000000FF000000FF000000FF000000FF000000FF000000FF000000FF000000FF000000FF000000FF000000FF000000FFFFFFFFFF000000FF000000FF000000FF000000FFFFFFFFFF000000FF000000FF
310
000000FF000000FF000000FF000000FF000000FF000000FF000000FF000000FF000000FF000000FF000000FF000000FF000000FF000000FF000000FF000000FF000000FF000000FF000000FF000000FF000000FF000000FF000000FF000000FFFFFFFFFFFFFFFFFFFFFFFFFFFFFFFFFFFFFFFFFFFFFFFFFF000000FF000000
310
FF000000FF000000FF000000FF000000FF000000FF000000FF000000FF000000FF000000FF000000FF000000FF000000FF000000FF000000FF000000FF000000FF000000FF000000FF000000FF000000FF000000FF000000FF000000FF000000FFFFFFFFFF000000FF000000FF000000FF000000FFFFFFFFFF000000FF0000
310
00FF000000FF000000FF000000FF000000FF000000FF000000FF000000FF000000FF000000FF000000FF000000FF000000FF000000FF000000FF000000FF000000FF000000FF000000FF000000FF000000FF000000FF000000FF000000FF000000FFFFFFFFFF000000FF000000FF000000FF000000FFFFFFFFFF000000FF00
310
0000FF000000FF000000FF000000FF000000FF000000FF000000FF000000FF000000FF000000FF000000FF000000FF000000FF000000FF000000FF000000FF000000FF000000FF000000FF000000FF000000FF000000FF000000FF000000FF000000FFFFFFFFFF000000FF000000FF000000FF000000FFFFFFFFFF000000FF
310
000000FF000000FF000000FF000000FF000000FF000000FF000000FF000000FF000000FF000000FF000000FF000000FF000000FF000000FF000000FF000000FF000000FF000000FF000000FF000000FF000000FF000000FF000000FF000000FF000000FFFFFFFFFF000000FF000000FF000000FF000000FFFFFFFFFF000000
310
FF000000FF000000FF000000FF000000FF000000FF000000FF000000FF000000FF000000FF000000FF000000FF000000FF000000FF000000FF000000FF000000FF000000FF000000FF000000FF000000FF000000FF000000FF000000FF000000FF000000FFFFFFFFFF000000FF000000FF000000FF000000FFFFFFFFFF0000
310
00FF000000FF000000FF000000FF000000FF000000FF000000FF000000FF000000FF000000FF000000FF000000FF000000FF000000FF000000FF000000FF000000FF000000FF000000FF000000FF000000FF000000FF000000FF000000FF000000FF000000FFFFFFFFFF000000FF000000FF000000FF000000FFFFFFFFFF00
310
0000FF000000FF000000FF000000FF000000FF000000FF000000FF000000FF000000FF000000FF000000FF000000FF000000FF000000FF000000FF000000FF000000FF000000FF000000FF000000FF000000FF000000FF000000FF000000FF000000FF000000FFFFFFFFFF000000FF000000FF000000FF000000FFFFFFFFFF
310
000000FF000000FF000000FF000000FF000000FF000000FF000000FF000000FF000000FF000000FF000000FF000000FF000000FF000000FF000000FF000000FF000000FF000000FF000000FF000000FF000000FF000000FF000000FF000000FF000000FF000000FFFFFFFFFF000000FF000000FF000000FF000000FFFFFFFF
310
FF000000FF000000FF000000FF000000FF000000FF000000FF000000FF000000FF000000FF000000FF000000FF000000FF000000FF000000FF000000FF000000FF000000FF000000FF000000FF000000FF000000FF000000FF000000FF000000FF000000FF000000FFFFFFFFFF000000FF000000FF000000FF000000FFFFFF
310
FFFF000000FF000000FF000000FF000000FF000000FF000000FF000000FF000000FF000000FF000000FF000000FF000000FF000000FF000000FF000000FF000000FF000000FF000000FF000000FF000000FF000000FF000000FF000000FF000000FF000000FF000000FFFFFFFFFF000000FF000000FF000000FF000000FFFF
310
FFFFFF000000FF000000FF000000FF000000FF000000FF000000FF000000FF000000FF000000FF000000FF000000FF000000FF000000FF000000FF000000FF000000FF000000FF000000FF000000FF000000FF000000FF000000FF000000FF000000FF000000FF000000FFFFFFFFFF000000FF000000FF000000FF000000FF
310
FFFFFFFF000000FF000000FF000000FF000000FF000000FF000000FF000000FF000000FF000000FF000000FF000000FF000000FF000000FF000000FF000000FF000000FF000000FF000000FF000000FF000000FF000000FF000000FF000000FF000000FF000000FF000000FFFFFFFFFF000000FF000000FF000000FF000000
310
FFFFFFFFFF000000FF000000FF000000FF000000FF000000FF000000FF000000FF000000FF000000FF000000FF000000FF000000FF000000FF000000FF000000FF000000FF000000FF000000FF000000FF000000FF000000FF000000FF000000FF000000FF000000FF000000FFFFFFFFFF000000FF000000FF000000FF0000
310
00FFFFFFFFFF000000FF000000FF000000FF000000FF000000FF000000FF000000FF000000FF000000FF000000FF000000FF000000FF000000FF000000FF000000FF000000FF000000FF000000FF000000FF000000FF000000FF000000FF000000FF000000FF000000FF000000FFFFFFFFFF000000FF000000FF000000FF00
310
0000FFFFFFFFFF000000FF000000FF000000FF000000FF000000FF000000FF000000FF000000FF000000FF000000FF000000FF000000FF000000FF000000FF000000FF000000FF000000FF000000FF000000FF000000FF000000FF000000FF000000FF000000FF000000FF000000FFFFFFFFFF000000FF000000FF000000FF
310
000000FFFFFFFFFF000000FF000000FF000000FF000000FF000000FF000000FF000000FF000000FF000000FF000000FF000000FF000000FF000000FF000000FF000000FF000000FF000000FF000000FF000000FF000000FF000000FF000000FF000000FF000000FF000000FF000000FFFFFFFFFF000000FF000000FF000000
310
FF000000FFFFFFFFFF000000FF000000FF000000FF000000FF000000FF000000FF000000FF000000FF000000FF000000FF000000FF000000FF000000FF000000FF000000FF000000FF000000FF000000FF000000FF000000FF000000FF000000FF000000FF000000FF000000FF000000FFFFFFFFFF000000FF000000FF0000
310
00FF000000FFFFFFFFFF000000FF000000FF000000FF000000FF000000FF000000FF000000FF000000FF000000FF000000FF000000FF000000FF000000FF000000FF000000FF000000FF000000FF000000FF000000FF000000FF000000FF000000FF000000FF000000FF000000FF000000FFFFFFFFFF000000FF000000FF00
310
0000FF000000FFFFFFFFFF000000FF000000FF000000FF000000FF000000FF000000FF000000FF000000FF000000FF000000FF000000FF000000FF000000FF000000FF000000FF000000FF000000FF000000FF000000FF000000FF000000FF000000FF000000FF000000FF000000FF000000FFFFFFFFFFFFFFFFFFFFFFFFFF
310
FFFFFFFFFFFFFFFFFFFFFFFF000000FF000000FF000000FF000000FF000000FF000000FF000000FF000000FF000000FF000000FF000000FF000000FF000000FF000000FF000000FF000000FF000000FF000000FF000000FF000000FF000000FF000000FF000000FF000000FF000000FF000000FFFFFFFFFF000000FF000000
310
FF000000FF000000FFFFFFFFFF000000FF000000FF000000FF000000FF000000FF000000FF000000FF000000FF000000FF000000FF000000FF000000FF000000FF000000FF000000FF000000FF000000FF000000FF000000FF000000FF000000FF000000FF000000FF000000FF000000FF000000FFFFFFFFFF000000FF0000
310
00FF000000FFFFFFFFFFFFFFFFFF000000FF000000FF000000FF000000FF000000FF000000FF000000FF000000FF000000FF000000FF000000FF000000FF000000FF000000FF000000FF000000FF000000FF000000FF000000FF000000FF000000FF000000FF000000FF000000FF000000FF000000FFFFFFFFFFFFFFFFFFFF
310
FFFFFFFFFFFFFFFFFFFFFF000000FF000000FF000000FF000000FF000000FF000000FF000000FF000000FF000000FF000000FF000000FF000000FF000000FF000000FF000000FF000000FF000000FF000000FF000000FF000000FF000000FF000000FF000000FF000000FF000000FF000000FF000000FFFFFFFFFFFFFFFFFF
310
000000FF000000FF000000FF000000FF000000FF000000FF000000FF000000FF000000FF000000FF000000FF000000FF000000FF000000FF000000FF000000FF000000FF000000FF000000FF000000FF000000FF000000FF000000FF000000FF000000FF000000FF000000FF000000FF000000FF000000FFFFFFFFFFFFFFFF
310
FF000000FF000000FF000000FF000000FF000000FF000000FF000000FF000000FF000000FF000000FF000000FF000000FF000000FF000000FF000000FF000000FF000000FF000000FF000000FF000000FF000000FF000000FF000000FF000000FF000000FF000000FF000000FF000000FF000000FF000000FFFFFF00FFFFFF
310
FFFF000000FF000000FF000000FF000000FF000000FF000000FF000000FF000000FF000000FF000000FF000000FF000000FF000000FF000000FF000000FF000000FF000000FF000000FF000000FF000000FF000000FF000000FF000000FF000000FF000000FF000000FF000000FF000000FF000000FF000000FF000000FFFF
310
FFFFFF000000FF000000FF000000FF000000FF000000FF000000FF000000FF000000FF000000FF000000FF000000FF000000FF000000FF000000FF000000FF000000FF000000FF000000FF000000FF000000FF000000FF000000FF000000FF000000FF000000FF000000FF000000FF000000FF000000FF000000FF000000FF
310
000000FF000000FF000000FF000000FF000000FF000000FF000000FF000000FF000000FF000000FF000000FF000000FF000000FF000000FF000000FF000000FF000000FF000000FF
102
{BLKREFS
331
4675
102
}
  0
BLOCK_RECORD
  5
4676
330
1
100
AcDbSymbolTableRecord
100
AcDbBlockTableRecord
  2
*D25
340
0
  0
BLOCK_RECORD
  5
4682
330
1
100
AcDbSymbolTableRecord
100
AcDbBlockTableRecord
  2
*D26
340
0
  0
BLOCK_RECORD
  5
468E
330
1
100
AcDbSymbolTableRecord
100
AcDbBlockTableRecord
  2
*D27
340
0
  0
BLOCK_RECORD
  5
469A
330
1
100
AcDbSymbolTableRecord
100
AcDbBlockTableRecord
  2
*D28
340
0
  0
BLOCK_RECORD
  5
46A6
330
1
100
AcDbSymbolTableRecord
100
AcDbBlockTableRecord
  2
*D29
340
0
  0
BLOCK_RECORD
  5
46B2
330
1
100
AcDbSymbolTableRecord
100
AcDbBlockTableRecord
  2
*D30
340
0
  0
BLOCK_RECORD
  5
46BE
330
1
100
AcDbSymbolTableRecord
100
AcDbBlockTableRecord
  2
*D31
340
0
  0
BLOCK_RECORD
  5
46CA
330
1
100
AcDbSymbolTableRecord
100
AcDbBlockTableRecord
  2
*D32
340
0
  0
BLOCK_RECORD
  5
46E5
330
1
100
AcDbSymbolTableRecord
100
AcDbBlockTableRecord
  2
*D33
340
0
  0
BLOCK_RECORD
  5
46F1
330
1
100
AcDbSymbolTableRecord
100
AcDbBlockTableRecord
  2
*D34
340
0
  0
BLOCK_RECORD
  5
46FD
330
1
100
AcDbSymbolTableRecord
100
AcDbBlockTableRecord
  2
*D35
340
0
  0
BLOCK_RECORD
  5
4709
330
1
100
AcDbSymbolTableRecord
100
AcDbBlockTableRecord
  2
*D36
340
0
  0
BLOCK_RECORD
  5
4715
330
1
100
AcDbSymbolTableRecord
100
AcDbBlockTableRecord
  2
*D37
340
0
  0
BLOCK_RECORD
  5
4721
330
1
100
AcDbSymbolTableRecord
100
AcDbBlockTableRecord
  2
*D38
340
0
  0
BLOCK_RECORD
  5
472D
330
1
100
AcDbSymbolTableRecord
100
AcDbBlockTableRecord
  2
*D39
340
0
  0
BLOCK_RECORD
  5
4739
330
1
100
AcDbSymbolTableRecord
100
AcDbBlockTableRecord
  2
*D40
340
0
  0
BLOCK_RECORD
  5
4745
330
1
100
AcDbSymbolTableRecord
100
AcDbBlockTableRecord
  2
*D41
340
0
  0
BLOCK_RECORD
  5
4751
330
1
100
AcDbSymbolTableRecord
100
AcDbBlockTableRecord
  2
*D42
340
0
  0
BLOCK_RECORD
  5
475D
330
1
100
AcDbSymbolTableRecord
100
AcDbBlockTableRecord
  2
*D43
340
0
  0
BLOCK_RECORD
  5
4769
330
1
100
AcDbSymbolTableRecord
100
AcDbBlockTableRecord
  2
*D44
340
0
  0
BLOCK_RECORD
  5
4775
330
1
100
AcDbSymbolTableRecord
100
AcDbBlockTableRecord
  2
*D45
340
0
  0
BLOCK_RECORD
  5
4781
330
1
100
AcDbSymbolTableRecord
100
AcDbBlockTableRecord
  2
*D46
340
0
  0
BLOCK_RECORD
  5
478D
330
1
100
AcDbSymbolTableRecord
100
AcDbBlockTableRecord
  2
*D47
340
0
  0
BLOCK_RECORD
  5
479B
330
1
100
AcDbSymbolTableRecord
100
AcDbBlockTableRecord
  2
*D48
340
0
  0
BLOCK_RECORD
  5
47A7
330
1
100
AcDbSymbolTableRecord
100
AcDbBlockTableRecord
  2
*D49
340
0
  0
BLOCK_RECORD
  5
47B3
330
1
100
AcDbSymbolTableRecord
100
AcDbBlockTableRecord
  2
*D50
340
0
  0
BLOCK_RECORD
  5
47C0
330
1
100
AcDbSymbolTableRecord
100
AcDbBlockTableRecord
  2
*D51
340
0
  0
BLOCK_RECORD
  5
47CC
330
1
100
AcDbSymbolTableRecord
100
AcDbBlockTableRecord
  2
*D52
340
0
  0
BLOCK_RECORD
  5
47D8
330
1
100
AcDbSymbolTableRecord
100
AcDbBlockTableRecord
  2
*D53
340
0
  0
BLOCK_RECORD
  5
47E4
330
1
100
AcDbSymbolTableRecord
100
AcDbBlockTableRecord
  2
*D54
340
0
  0
BLOCK_RECORD
  5
47F0
330
1
100
AcDbSymbolTableRecord
100
AcDbBlockTableRecord
  2
*D55
340
0
  0
BLOCK_RECORD
  5
4922
330
1
100
AcDbSymbolTableRecord
100
AcDbBlockTableRecord
  2
ファンカバ－ブレーキ_F2S-15_M_0003
340
0
310
28000000200000002000000001002000000000000010000001000000010000000000000000000000000000FF000000FF000000FF000000FF000000FF000000FF000000FF000000FF000000FF000000FF000000FF000000FF000000FF000000FF000000FF000000FF000000FF000000FF000000FF000000FF000000FF000000
310
FF000000FF000000FF000000FF000000FF000000FF000000FF000000FF000000FF000000FF000000FF000000FF000000FF000000FF000000FF000000FF000000FF000000FF000000FF000000FF000000FF000000FF000000FFFFFFFFFFFFFFFFFFFFFFFFFFFFFFFFFFFFFFFFFFFFFFFFFFFFFFFFFF000000FF000000FF0000
310
00FF000000FF000000FF000000FF000000FF000000FF000000FF000000FF000000FF000000FF000000FF000000FF000000FF000000FF000000FF000000FF000000FF000000FF000000FF000000FF000000FF000000FF000000FFFFFFFFFF000000FF000000FF000000FF000000FF000000FFFFFFFFFFFFFFFFFF000000FF00
310
0000FF000000FF000000FF000000FF000000FF000000FF000000FF000000FF000000FF000000FF000000FF000000FF000000FF000000FF000000FF000000FF000000FF000000FF000000FF000000FF000000FF000000FF000000FFFFFFFFFF000000FF000000FF000000FF000000FF000000FF000000FFFFFFFFFF000000FF
310
000000FF000000FF000000FF000000FF000000FF000000FF000000FF000000FF000000FF000000FF000000FF000000FF000000FF000000FF000000FF000000FF000000FF000000FF000000FF000000FF000000FF000000FF000000FFFFFFFFFF000000FF000000FF000000FF000000FF000000FF000000FFFFFFFFFF000000
310
FF000000FF000000FF000000FF000000FF000000FF000000FF000000FF000000FF000000FF000000FF000000FF000000FF000000FF000000FF000000FF000000FF000000FF000000FF000000FF000000FF000000FF000000FF000000FFFFFFFFFF000000FF000000FF000000FF000000FF000000FF000000FFFFFFFFFF0000
310
00FF000000FF000000FF000000FF000000FF000000FF000000FF000000FF000000FF000000FF000000FF000000FF000000FF000000FF000000FF000000FF000000FF000000FF000000FF000000FF000000FF000000FF000000FF000000FFFFFFFFFFFFFFFFFFFFFFFFFFFFFFFFFFFFFFFFFFFFFFFFFFFFFFFFFFFFFFFFFF00
310
0000FF000000FF000000FF000000FF000000FF000000FF000000FF000000FF000000FF000000FF000000FF000000FF000000FF000000FF000000FF000000FF000000FF000000FF000000FF000000FF000000FF000000FF000000FF000000FFFFFFFFFF000000FF000000FF000000FF000000FF000000FF000000FFFFFFFFFF
310
000000FF000000FF000000FF000000FF000000FF000000FF000000FF000000FF000000FF000000FF000000FF000000FF000000FF000000FF000000FF000000FF000000FF000000FF000000FF000000FF000000FF000000FF000000FF000000FFFFFFFFFF000000FF000000FF000000FF000000FF000000FF000000FFFFFFFF
310
FF000000FF000000FF000000FF000000FF000000FF000000FF000000FF000000FF000000FF000000FF000000FF000000FF000000FF000000FF000000FF000000FF000000FF000000FF000000FF000000FF000000FF000000FF000000FF000000FFFFFFFFFF000000FF000000FF000000FF000000FF000000FF000000FFFFFF
310
FFFF000000FF000000FF000000FF000000FF000000FF000000FF000000FF000000FF000000FF000000FF000000FF000000FF000000FF000000FF000000FF000000FF000000FF000000FF000000FF000000FF000000FF000000FF000000FF000000FFFFFFFFFF000000FF000000FF000000FF000000FF000000FF000000FFFF
310
FFFFFF000000FF000000FF000000FF000000FF000000FF000000FF000000FF000000FF000000FF000000FF000000FF000000FF000000FF000000FF000000FF000000FF000000FF000000FF000000FF000000FF000000FF000000FF000000FF000000FFFFFFFFFF000000FF000000FF000000FF000000FF000000FF000000FF
310
FFFFFFFF000000FF000000FF000000FF000000FF000000FF000000FF000000FF000000FF000000FF000000FF000000FF000000FF000000FF000000FF000000FF000000FF000000FF000000FF000000FF000000FF000000FF000000FF000000FF000000FFFFFFFFFF000000FF000000FF000000FF000000FF000000FF000000
310
FFFFFFFFFF000000FF000000FF000000FF000000FF000000FF000000FF000000FF000000FF000000FF000000FF000000FF000000FF000000FF000000FF000000FF000000FF000000FF000000FF000000FF000000FF000000FF000000FF000000FF000000FFFFFFFFFFFFFFFFFFFFFFFFFF000000FF000000FF000000FF0000
310
00FFFFFFFFFF000000FF000000FF000000FF000000FF000000FF000000FF000000FF000000FF000000FF000000FF000000FF000000FF000000FF000000FF000000FF000000FF000000FF000000FF000000FF000000FF000000FF000000FF000000FF000000FFFFFFFFFFFFFFFFFFFFFFFFFF000000FF000000FF000000FF00
310
0000FFFFFFFFFF000000FF000000FF000000FF000000FF000000FF000000FF000000FF000000FF000000FF000000FF000000FF000000FF000000FF000000FF000000FF000000FF000000FF000000FF000000FF000000FF000000FF000000FF000000FF000000FFFFFFFFFFFFFFFFFFFFFFFFFF000000FF000000FF000000FF
310
000000FFFFFFFFFF000000FF000000FF000000FF000000FF000000FF000000FF000000FF000000FF000000FF000000FF000000FF000000FF000000FF000000FF000000FF000000FF000000FF000000FF000000FF000000FF000000FF000000FF000000FF000000FFFFFFFFFFFFFFFFFFFFFFFFFF000000FF000000FF000000
310
FF000000FFFFFFFFFF000000FF000000FF000000FF000000FF000000FF000000FF000000FF000000FF000000FF000000FF000000FF000000FF000000FF000000FF000000FF000000FF000000FF000000FF000000FF000000FF000000FF000000FF000000FF000000FFFFFFFFFFFFFFFFFFFFFFFFFF000000FF000000FF0000
310
00FF000000FFFFFFFFFF000000FF000000FF000000FF000000FF000000FF000000FF000000FF000000FF000000FF000000FF000000FF000000FF000000FF000000FF000000FF000000FF000000FF000000FF000000FF000000FF000000FF000000FF000000FF000000FFFFFFFFFFFFFFFFFFFFFFFFFF000000FF000000FF00
310
0000FF000000FFFFFFFFFF000000FF000000FF000000FF000000FF000000FF000000FF000000FF000000FF000000FF000000FF000000FF000000FF000000FF000000FF000000FF000000FF000000FF000000FF000000FF000000FF000000FF000000FF000000FF000000FFFFFFFFFF000000FF000000FF000000FF000000FF
310
000000FF000000FFFFFFFFFF000000FF000000FF000000FF000000FF000000FF000000FF000000FF000000FF000000FF000000FF000000FF000000FF000000FF000000FF000000FF000000FF000000FF000000FF000000FF000000FF000000FF000000FF000000FF000000FFFFFFFFFF000000FF000000FF000000FF000000
310
FF000000FF000000FFFFFFFFFF000000FF000000FF000000FF000000FF000000FF000000FF000000FF000000FF000000FF000000FF000000FF000000FF000000FF000000FF000000FF000000FF000000FF000000FF000000FF000000FF000000FF000000FF000000FF000000FFFFFFFFFF000000FF000000FF000000FF0000
310
00FF000000FF000000FFFFFFFFFF000000FF000000FF000000FF000000FF000000FF000000FF000000FF000000FF000000FF000000FF000000FF000000FF000000FF000000FF000000FF000000FF000000FF000000FF000000FF000000FF000000FF000000FF000000FF000000FFFFFFFFFF000000FF000000FF000000FF00
310
0000FF000000FF000000FFFFFFFFFF000000FF000000FF000000FF000000FF000000FF000000FF000000FF000000FF000000FF000000FF000000FF000000FF000000FF000000FF000000FF000000FF000000FF000000FF000000FF000000FF000000FF000000FF000000FF000000FFFFFFFFFF000000FF000000FF000000FF
310
000000FF000000FF000000FFFFFFFFFF000000FF000000FF000000FF000000FF000000FF000000FF000000FF000000FF000000FF000000FF000000FF000000FF000000FF000000FF000000FF000000FF000000FF000000FF000000FF000000FF000000FF000000FF000000FF000000FFFFFFFFFF000000FF000000FF000000
310
FF000000FF000000FF000000FFFFFFFFFF000000FF000000FF000000FF000000FF000000FF000000FF000000FF000000FF000000FF000000FF000000FF000000FF000000FF000000FF000000FF000000FF000000FF000000FF000000FF000000FF000000FF000000FF000000FF000000FFFFFFFFFFFFFFFFFFFFFFFFFFFFFF
310
FFFFFFFFFFFFFFFFFFFFFFFFFFFFFFFFFFFF000000FF000000FF000000FF000000FF000000FF000000FF000000FF000000FF000000FF000000FF000000FF000000FF000000FF000000FF000000FF000000FF000000FF000000FF000000FF000000FF000000FF000000FF000000FF000000FFFFFFFFFF000000FF000000FF00
310
0000FF000000FF000000FF000000FFFFFFFFFF000000FF000000FF000000FF000000FF000000FF000000FF000000FF000000FF000000FF000000FF000000FF000000FF000000FF000000FF000000FF000000FF000000FF000000FF000000FF000000FF000000FF000000FF000000FF000000FFFFFFFFFF000000FF000000FF
310
000000FF000000FF000000FF000000FFFFFFFFFF000000FF000000FF000000FF000000FF000000FF000000FF000000FF000000FF000000FF000000FF000000FF000000FF000000FF000000FF000000FF000000FF000000FF000000FF000000FF000000FF000000FF000000FF000000FF000000FFFFFFFFFF000000FF000000
310
FF000000FF000000FF000000FF000000FFFFFFFFFF000000FF000000FF000000FF000000FF000000FF000000FF000000FF000000FF000000FF000000FF000000FF000000FF000000FF000000FF000000FF000000FF000000FF000000FF000000FF000000FF000000FF000000FF000000FF000000FFFFFFFFFF000000FF0000
310
00FF000000FF000000FF000000FFFFFFFFFFFFFFFFFF000000FF000000FF000000FF000000FF000000FF000000FF000000FF000000FF000000FF000000FF000000FF000000FF000000FF000000FF000000FF000000FF000000FF000000FF000000FF000000FF000000FF000000FF000000FF000000FFFFFFFFFFFFFFFFFFFF
310
FFFFFFFFFFFFFFFFFFFFFFFFFFFFFFFFFFFFFF000000FF000000FF000000FF000000FF000000FF000000FF000000FF000000FF000000FF000000FF000000FF000000FF000000FF000000FF000000FF000000FF000000FF000000FF000000FF000000FF000000FF000000FF000000FF000000FF000000FF000000FF000000FF
310
000000FF000000FF000000FF000000FF000000FF000000FF000000FF000000FF000000FF000000FF000000FF000000FF000000FF000000FF000000FF000000FF000000FF000000FF
102
{BLKREFS
331
4944
102
}
  0
BLOCK_RECORD
  5
5154
102
{ACAD_XDICTIONARY
360
5155
102
}
330
1
100
AcDbSymbolTableRecord
100
AcDbBlockTableRecord
  2
A$C97379603
340
0
102
{BLKREFS
331
523B
102
}
  0
BLOCK_RECORD
  5
523C
102
{ACAD_XDICTIONARY
360
523D
102
}
330
1
100
AcDbSymbolTableRecord
100
AcDbBlockTableRecord
  2
A$C0221c00d
340
0
102
{BLKREFS
331
52DA
102
}
  0
BLOCK_RECORD
  5
52DB
102
{ACAD_XDICTIONARY
360
52DC
102
}
330
1
100
AcDbSymbolTableRecord
100
AcDbBlockTableRecord
  2
A$C326328fc
340
0
102
{BLKREFS
331
5359
102
}
  0
BLOCK_RECORD
  5
535A
102
{ACAD_XDICTIONARY
360
535B
102
}
330
1
100
AcDbSymbolTableRecord
100
AcDbBlockTableRecord
  2
A$Cae477ae8
340
0
102
{BLKREFS
331
53DD
102
}
  0
BLOCK_RECORD
  5
53F2
330
1
100
AcDbSymbolTableRecord
100
AcDbBlockTableRecord
  2
*D70
340
0
  0
ENDTAB
  0
ENDSEC
  0
SECTION
  2
BLOCKS
  0
BLOCK
  5
5D
330
2
100
AcDbEntity
  8
0
100
AcDbBlockBegin
  2
*MODEL_SPACE
 70
     0
 10
0.0
 20
0.0
 30
0.0
  3
*MODEL_SPACE
  1

  0
ENDBLK
  5
5F
330
2
100
AcDbEntity
  8
0
100
AcDbBlockEnd
  0
BLOCK
  5
566C
330
566A
100
AcDbEntity
 67
     1
  8
0
100
AcDbBlockBegin
  2
*Paper_Space
 70
     0
 10
0.0
 20
0.0
 30
0.0
  3
*Paper_Space
  1

  0
ENDBLK
  5
566D
330
566A
100
AcDbEntity
 67
     1
  8
0
100
AcDbBlockEnd
  0
BLOCK
  5
4B0
330
4AC
100
AcDbEntity
  8
0
100
AcDbBlockBegin
  2
黒丸矢印1
 70
     0
 10
0.0
 20
0.0
 30
0.0
  3
黒丸矢印1
  1

  0
HATCH
  5
4AD
330
4AC
100
AcDbEntity
  8
0
100
AcDbHatch
 10
0.0
 20
0.0
 30
0.0
210
0.0
220
0.0
230
1.0
  2
SOLID
 70
     1
 71
     1
 91
        1
 92
        7
 72
     1
 73
     1
 93
        2
 10
-0.25
 20
0.0
 42
1.0
 10
0.25
 20
0.0
 42
1.0
 97
        1
330
4AE
 75
     0
 76
     1
 47
0.0031599728
 98
        1
 10
-0.0919668375711354
 20
0.0618998464179867
  0
CIRCLE
  5
4AE
102
{ACAD_REACTORS
330
4AD
102
}
330
4AC
100
AcDbEntity
  8
0
100
AcDbCircle
 10
0.0
 20
0.0
 30
0.0
 40
0.25
  0
LINE
  5
4AF
330
4AC
100
AcDbEntity
  8
0
100
AcDbLine
 10
0.0
 20
0.0
 30
0.0
 11
-1.0
 21
0.0
 31
0.0
  0
ENDBLK
  5
4B1
330
4AC
100
AcDbEntity
  8
0
100
AcDbBlockEnd
  0
BLOCK
  5
45D7
330
45D6
100
AcDbEntity
  8
0
100
AcDbBlockBegin
  2
ファンカバ－ブレーキ_F2S-15_M_0001
 70
     0
 10
0.0
 20
0.0
 30
0.0
  3
ファンカバ－ブレーキ_F2S-15_M_0001
  1

  0
LINE
  5
45D8
330
45D6
100
AcDbEntity
  8
0
100
AcDbLine
 10
-20.0
 20
-42.0
 30
0.0
 11
-20.0
 21
42.0
 31
0.0
  0
LINE
  5
45D9
330
45D6
100
AcDbEntity
  8
0
100
AcDbLine
 10
0.0
 20
-45.0
 30
0.0
 11
0.0
 21
45.0
 31
0.0
  0
LINE
  5
45DA
330
45D6
100
AcDbEntity
  8
0
100
AcDbLine
 10
-20.5
 20
35.0
 30
0.0
 11
-20.5
 21
-35.0
 31
0.0
  0
LINE
  5
45DB
330
45D6
100
AcDbEntity
  8
0
100
AcDbLine
 10
0.0
 20
-34.409302
 30
0.0
 11
-18.25
 21
-34.409302
 31
0.0
  0
LINE
  5
45DC
330
45D6
100
AcDbEntity
  8
0
100
AcDbLine
 10
-15.958526
 20
-45.0
 30
0.0
 11
0.0
 21
-45.0
 31
0.0
  0
LINE
  5
45DD
330
45D6
100
AcDbEntity
  8
0
100
AcDbLine
 10
-19.422653
 20
-43.0
 30
0.0
 11
-20.0
 21
-42.0
 31
0.0
  0
ARC
  5
45DE
330
45D6
100
AcDbEntity
  8
0
100
AcDbCircle
 10
-15.958526
 20
-41.0
 30
0.0
 40
4.0
100
AcDbArc
 50
209.999603
 51
270.0
  0
LINE
  5
45DF
330
45D6
100
AcDbEntity
  8
0
100
AcDbLine
 10
-20.5
 20
-35.0
 30
0.0
 11
-20.0
 21
-35.5
 31
0.0
  0
LINE
  5
45E0
330
45D6
100
AcDbEntity
  8
0
100
AcDbLine
 10
0.0
 20
34.409302
 30
0.0
 11
-18.25
 21
34.409302
 31
0.0
  0
LINE
  5
45E1
330
45D6
100
AcDbEntity
  8
0
100
AcDbLine
 10
-20.5
 20
35.0
 30
0.0
 11
-20.0
 21
35.499985
 31
0.0
  0
LINE
  5
45E2
330
45D6
100
AcDbEntity
  8
0
100
AcDbLine
 10
-15.958526
 20
45.0
 30
0.0
 11
0.0
 21
45.0
 31
0.0
  0
ARC
  5
45E3
330
45D6
100
AcDbEntity
  8
0
100
AcDbCircle
 10
-15.958526
 20
41.000015
 30
0.0
 40
4.0
100
AcDbArc
 50
90.0
 51
150.000397
  0
LINE
  5
45E4
330
45D6
100
AcDbEntity
  8
0
100
AcDbLine
 10
-19.422653
 20
42.999985
 30
0.0
 11
-20.0
 21
42.0
 31
0.0
  0
LINE
  5
45E5
330
45D6
100
AcDbEntity
  8
0
100
AcDbLine
 10
-0.299995
 20
58.875
 30
0.0
 11
-0.299995
 21
46.5
 31
0.0
  0
LINE
  5
45E6
330
45D6
100
AcDbEntity
  8
0
100
AcDbLine
 10
-5.699997
 20
58.0625
 30
0.0
 11
-5.699997
 21
46.5
 31
0.0
  0
LINE
  5
45E7
330
45D6
100
AcDbEntity
  8
0
100
AcDbLine
 10
-3.900001
 20
60.125
 30
0.0
 11
-3.900001
 21
46.5
 31
0.0
  0
LINE
  5
45E8
330
45D6
100
AcDbEntity
  8
0
100
AcDbLine
 10
-2.099998
 20
59.5
 30
0.0
 11
-2.099998
 21
46.5
 31
0.0
  0
LINE
  5
45E9
330
45D6
100
AcDbEntity
  8
0
100
AcDbLine
 10
-6.5
 20
46.5
 30
0.0
 11
0.5
 21
46.5
 31
0.0
  0
LINE
  5
45EA
330
45D6
100
AcDbEntity
  8
0
100
AcDbLine
 10
-6.5
 20
46.5
 30
0.0
 11
-6.5
 21
45.0
 31
0.0
  0
LINE
  5
45EB
330
45D6
100
AcDbEntity
  8
0
100
AcDbLine
 10
0.5
 20
46.5
 30
0.0
 11
0.5
 21
45.0
 31
0.0
  0
LINE
  5
45EC
330
45D6
100
AcDbEntity
  8
HOJO
100
AcDbLine
 10
-3.900001
 20
60.125
 30
0.0
 11
-2.099998
 21
59.5
 31
0.0
  0
LINE
  5
45ED
330
45D6
100
AcDbEntity
  8
HOJO
100
AcDbLine
 10
-5.699997
 20
58.0625
 30
0.0
 11
-3.900001
 21
58.6875
 31
0.0
  0
LINE
  5
45EE
330
45D6
100
AcDbEntity
  8
HOJO
100
AcDbLine
 10
-0.299995
 20
58.875
 30
0.0
 11
-2.098991
 21
58.427292
 31
0.0
  0
ENDBLK
  5
45EF
330
45D6
100
AcDbEntity
  8
0
100
AcDbBlockEnd
  0
BLOCK
  5
45F1
330
45F0
100
AcDbEntity
  8
0
100
AcDbBlockBegin
  2
ファンカバ－ブレーキ_F2S-15_M_0002
 70
     0
 10
0.0
 20
0.0
 30
0.0
  3
ファンカバ－ブレーキ_F2S-15_M_0002
  1

  0
LINE
  5
45F2
330
45F0
100
AcDbEntity
  8
0
100
AcDbLine
 10
20.0
 20
-42.0
 30
0.0
 11
20.0
 21
42.0
 31
0.0
  0
LINE
  5
45F3
330
45F0
100
AcDbEntity
  8
0
100
AcDbLine
 10
0.0
 20
-45.0
 30
0.0
 11
0.0
 21
45.0
 31
0.0
  0
LINE
  5
45F4
330
45F0
100
AcDbEntity
  8
0
100
AcDbLine
 10
0.0
 20
34.409302
 30
0.0
 11
18.25
 21
34.409302
 31
0.0
  0
LINE
  5
45F5
330
45F0
100
AcDbEntity
  8
0
100
AcDbLine
 10
0.0
 20
-34.409302
 30
0.0
 11
18.25
 21
-34.409302
 31
0.0
  0
LINE
  5
45F6
330
45F0
100
AcDbEntity
  8
0
100
AcDbLine
 10
15.958496
 20
-45.0
 30
0.0
 11
0.0
 21
-45.0
 31
0.0
  0
LINE
  5
45F7
330
45F0
100
AcDbEntity
  8
0
100
AcDbLine
 10
20.5
 20
35.0
 30
0.0
 11
20.5
 21
-35.0
 31
0.0
  0
LINE
  5
45F8
330
45F0
100
AcDbEntity
  8
0
100
AcDbLine
 10
19.422608
 20
-43.0
 30
0.0
 11
20.0
 21
-42.0
 31
0.0
  0
ARC
  5
45F9
330
45F0
100
AcDbEntity
  8
0
100
AcDbCircle
 10
15.958496
 20
-41.0
 30
0.0
 40
4.0
100
AcDbArc
 50
270.0
 51
330.000397
  0
LINE
  5
45FA
330
45F0
100
AcDbEntity
  8
0
100
AcDbLine
 10
20.5
 20
-35.0
 30
0.0
 11
20.0
 21
-35.5
 31
0.0
  0
LINE
  5
45FB
330
45F0
100
AcDbEntity
  8
0
100
AcDbLine
 10
20.5
 20
35.0
 30
0.0
 11
20.0
 21
35.499985
 31
0.0
  0
LINE
  5
45FC
330
45F0
100
AcDbEntity
  8
0
100
AcDbLine
 10
15.958496
 20
45.0
 30
0.0
 11
0.0
 21
45.0
 31
0.0
  0
LINE
  5
45FD
330
45F0
100
AcDbEntity
  8
HOJO
100
AcDbLine
 10
0.299988
 20
58.875
 30
0.0
 11
2.098938
 21
58.427292
 31
0.0
  0
LINE
  5
45FE
330
45F0
100
AcDbEntity
  8
0
100
AcDbLine
 10
6.5
 20
46.5
 30
0.0
 11
-0.5
 21
46.5
 31
0.0
  0
LINE
  5
45FF
330
45F0
100
AcDbEntity
  8
0
100
AcDbLine
 10
0.299988
 20
58.875
 30
0.0
 11
0.299988
 21
46.5
 31
0.0
  0
LINE
  5
4600
330
45F0
100
AcDbEntity
  8
0
100
AcDbLine
 10
-0.5
 20
46.5
 30
0.0
 11
-0.5
 21
45.0
 31
0.0
  0
LINE
  5
4601
330
45F0
100
AcDbEntity
  8
0
100
AcDbLine
 10
5.699951
 20
58.0625
 30
0.0
 11
5.699951
 21
46.5
 31
0.0
  0
LINE
  5
4602
330
45F0
100
AcDbEntity
  8
0
100
AcDbLine
 10
3.899964
 20
60.125
 30
0.0
 11
3.899964
 21
46.5
 31
0.0
  0
LINE
  5
4603
330
45F0
100
AcDbEntity
  8
0
100
AcDbLine
 10
2.099976
 20
59.5
 30
0.0
 11
2.099976
 21
46.5
 31
0.0
  0
LINE
  5
4604
330
45F0
100
AcDbEntity
  8
0
100
AcDbLine
 10
6.5
 20
46.5
 30
0.0
 11
6.5
 21
45.0
 31
0.0
  0
ARC
  5
4605
330
45F0
100
AcDbEntity
  8
0
100
AcDbCircle
 10
15.958496
 20
41.000015
 30
0.0
 40
4.0
100
AcDbArc
 50
29.999599
 51
90.0
  0
LINE
  5
4606
330
45F0
100
AcDbEntity
  8
0
100
AcDbLine
 10
19.422608
 20
42.999985
 30
0.0
 11
20.0
 21
42.0
 31
0.0
  0
LINE
  5
4607
330
45F0
100
AcDbEntity
  8
HOJO
100
AcDbLine
 10
5.699951
 20
58.0625
 30
0.0
 11
3.899964
 21
58.6875
 31
0.0
  0
LINE
  5
4608
330
45F0
100
AcDbEntity
  8
HOJO
100
AcDbLine
 10
3.899964
 20
60.125
 30
0.0
 11
2.099976
 21
59.5
 31
0.0
  0
ENDBLK
  5
4609
330
45F0
100
AcDbEntity
  8
0
100
AcDbBlockEnd
  0
BLOCK
  5
4677
330
4676
100
AcDbEntity
  8
0
100
AcDbBlockBegin
  2
*D25
 70
     1
 10
0.0
 20
0.0
 30
0.0
  3
*D25
  1

  0
POINT
  5
4802
330
4676
100
AcDbEntity
  8
DEFPOINTS
 62
     0
100
AcDbPoint
 10
371.8996651857
 20
193.7048196455
 30
0.0
  0
POINT
  5
4803
330
4676
100
AcDbEntity
  8
DEFPOINTS
 62
     0
100
AcDbPoint
 10
450.8996651857
 20
148.4198156455
 30
0.0
  0
POINT
  5
4804
330
4676
100
AcDbEntity
  8
DEFPOINTS
 62
     0
100
AcDbPoint
 10
450.8996651857
 20
235.6994346303
 30
0.0
  0
ENDBLK
  5
4678
330
4676
100
AcDbEntity
  8
0
100
AcDbBlockEnd
  0
BLOCK
  5
4683
330
4682
100
AcDbEntity
  8
0
100
AcDbBlockBegin
  2
*D26
 70
     1
 10
0.0
 20
0.0
 30
0.0
  3
*D26
  1

  0
POINT
  5
480B
330
4682
100
AcDbEntity
  8
DEFPOINTS
 62
     0
100
AcDbPoint
 10
371.8996651857
 20
85.1348116455
 30
0.0
  0
POINT
  5
480C
330
4682
100
AcDbEntity
  8
DEFPOINTS
 62
     0
100
AcDbPoint
 10
419.8996651857
 20
91.257658762
 30
0.0
  0
POINT
  5
480D
330
4682
100
AcDbEntity
  8
DEFPOINTS
 62
     0
100
AcDbPoint
 10
419.8996651857
 20
52.0071501279
 30
0.0
  0
ENDBLK
  5
4684
330
4682
100
AcDbEntity
  8
0
100
AcDbBlockEnd
  0
BLOCK
  5
468F
330
468E
100
AcDbEntity
  8
0
100
AcDbBlockBegin
  2
*D27
 70
     1
 10
0.0
 20
0.0
 30
0.0
  3
*D27
  1

  0
POINT
  5
4814
330
468E
100
AcDbEntity
  8
DEFPOINTS
 62
     0
100
AcDbPoint
 10
323.8996651857
 20
91.257658762
 30
0.0
  0
POINT
  5
4815
330
468E
100
AcDbEntity
  8
DEFPOINTS
 62
     0
100
AcDbPoint
 10
419.8996651857
 20
91.257658762
 30
0.0
  0
POINT
  5
4816
330
468E
100
AcDbEntity
  8
DEFPOINTS
 62
     0
100
AcDbPoint
 10
419.8996651857
 20
40.0450829167
 30
0.0
  0
ENDBLK
  5
4690
330
468E
100
AcDbEntity
  8
0
100
AcDbBlockEnd
  0
BLOCK
  5
469B
330
469A
100
AcDbEntity
  8
0
100
AcDbBlockBegin
  2
*D28
 70
     1
 10
0.0
 20
0.0
 30
0.0
  3
*D28
  1

  0
POINT
  5
481D
330
469A
100
AcDbEntity
  8
DEFPOINTS
 62
     0
100
AcDbPoint
 10
292.8996651857
 20
148.4198156455
 30
0.0
  0
POINT
  5
481E
330
469A
100
AcDbEntity
  8
DEFPOINTS
 62
     0
100
AcDbPoint
 10
450.8996651857
 20
148.4198156455
 30
0.0
  0
POINT
  5
481F
330
469A
100
AcDbEntity
  8
DEFPOINTS
 62
     0
100
AcDbPoint
 10
450.8996651857
 20
247.419558734
 30
0.0
  0
ENDBLK
  5
469C
330
469A
100
AcDbEntity
  8
0
100
AcDbBlockEnd
  0
BLOCK
  5
46A7
330
46A6
100
AcDbEntity
  8
0
100
AcDbBlockBegin
  2
*D29
 70
     1
 10
0.0
 20
0.0
 30
0.0
  3
*D29
  1

  0
POINT
  5
4826
330
46A6
100
AcDbEntity
  8
DEFPOINTS
 62
     0
100
AcDbPoint
 10
371.8996651857
 20
85.1348116455
 30
0.0
  0
POINT
  5
4827
330
46A6
100
AcDbEntity
  8
DEFPOINTS
 62
     0
100
AcDbPoint
 10
323.8996651857
 20
91.257658762
 30
0.0
  0
POINT
  5
4828
330
46A6
100
AcDbEntity
  8
DEFPOINTS
 62
     0
100
AcDbPoint
 10
323.8996651857
 20
52.0071501279
 30
0.0
  0
ENDBLK
  5
46A8
330
46A6
100
AcDbEntity
  8
0
100
AcDbBlockEnd
  0
BLOCK
  5
46B3
330
46B2
100
AcDbEntity
  8
0
100
AcDbBlockBegin
  2
*D30
 70
     1
 10
0.0
 20
0.0
 30
0.0
  3
*D30
  1

  0
POINT
  5
482F
330
46B2
100
AcDbEntity
  8
DEFPOINTS
 62
     0
100
AcDbPoint
 10
361.8996651857
 20
95.4198156455
 30
0.0
  0
POINT
  5
4830
330
46B2
100
AcDbEntity
  8
DEFPOINTS
 62
     0
100
AcDbPoint
 10
323.8996651857
 20
91.257658762
 30
0.0
  0
POINT
  5
4831
330
46B2
100
AcDbEntity
  8
DEFPOINTS
 62
     0
100
AcDbPoint
 10
323.8996651857
 20
64.1399089138
 30
0.0
  0
ENDBLK
  5
46B4
330
46B2
100
AcDbEntity
  8
0
100
AcDbBlockEnd
  0
BLOCK
  5
46BF
330
46BE
100
AcDbEntity
  8
0
100
AcDbBlockBegin
  2
*D31
 70
     1
 10
0.0
 20
0.0
 30
0.0
  3
*D31
  1

  0
POINT
  5
4838
330
46BE
100
AcDbEntity
  8
DEFPOINTS
 62
     0
100
AcDbPoint
 10
323.8996651857
 20
105.6698156455
 30
0.0
  0
POINT
  5
4839
330
46BE
100
AcDbEntity
  8
DEFPOINTS
 62
     0
100
AcDbPoint
 10
323.8996651857
 20
95.1698156455
 30
0.0
  0
POINT
  5
483A
330
46BE
100
AcDbEntity
  8
DEFPOINTS
 62
     0
100
AcDbPoint
 10
311.7513161241
 20
95.1698156455
 30
0.0
  0
ENDBLK
  5
46C0
330
46BE
100
AcDbEntity
  8
0
100
AcDbBlockEnd
  0
BLOCK
  5
46CB
330
46CA
100
AcDbEntity
  8
0
100
AcDbBlockBegin
  2
*D32
 70
     1
 10
0.0
 20
0.0
 30
0.0
  3
*D32
  1

  0
POINT
  5
4842
330
46CA
100
AcDbEntity
  8
DEFPOINTS
 62
     0
100
AcDbPoint
 10
336.8996651857
 20
91.030742918
 30
0.0
  0
POINT
  5
4843
330
46CA
100
AcDbEntity
  8
DEFPOINTS
 62
     0
100
AcDbPoint
 10
323.8996651857
 20
91.257658762
 30
0.0
  0
POINT
  5
4844
330
46CA
100
AcDbEntity
  8
DEFPOINTS
 62
     0
100
AcDbPoint
 10
323.8996651857
 20
75.9475660095
 30
0.0
  0
ENDBLK
  5
46CC
330
46CA
100
AcDbEntity
  8
0
100
AcDbBlockEnd
  0
BLOCK
  5
46E6
330
46E5
100
AcDbEntity
  8
0
100
AcDbBlockBegin
  2
*D33
 70
     1
 10
0.0
 20
0.0
 30
0.0
  3
*D33
  1

  0
POINT
  5
4856
330
46E5
100
AcDbEntity
  8
DEFPOINTS
 62
     0
100
AcDbPoint
 10
336.8996651857
 20
91.030742918
 30
0.0
  0
POINT
  5
4857
330
46E5
100
AcDbEntity
  8
DEFPOINTS
 62
     0
100
AcDbPoint
 10
361.8996651857
 20
95.4198156455
 30
0.0
  0
POINT
  5
4858
330
46E5
100
AcDbEntity
  8
DEFPOINTS
 62
     0
100
AcDbPoint
 10
361.8996651857
 20
75.9475660095
 30
0.0
  0
ENDBLK
  5
46E7
330
46E5
100
AcDbEntity
  8
0
100
AcDbBlockEnd
  0
BLOCK
  5
46F2
330
46F1
100
AcDbEntity
  8
0
100
AcDbBlockBegin
  2
*D34
 70
     1
 10
0.0
 20
0.0
 30
0.0
  3
*D34
  1

  0
POINT
  5
485F
330
46F1
100
AcDbEntity
  8
DEFPOINTS
 62
     0
100
AcDbPoint
 10
581.9726121171
 20
173.1019791455
 30
0.0
  0
POINT
  5
4860
330
46F1
100
AcDbEntity
  8
DEFPOINTS
 62
     0
100
AcDbPoint
 10
546.4726121171
 20
186.3984536455
 30
0.0
  0
POINT
  5
4861
330
46F1
100
AcDbEntity
  8
DEFPOINTS
 62
     0
100
AcDbPoint
 10
546.4726121171
 20
211.5299927537
 30
0.0
  0
ENDBLK
  5
46F3
330
46F1
100
AcDbEntity
  8
0
100
AcDbBlockEnd
  0
BLOCK
  5
46FE
330
46FD
100
AcDbEntity
  8
0
100
AcDbBlockBegin
  2
*D35
 70
     1
 10
0.0
 20
0.0
 30
0.0
  3
*D35
  1

  0
POINT
  5
4868
330
46FD
100
AcDbEntity
  8
DEFPOINTS
 62
     0
100
AcDbPoint
 10
581.9726121171
 20
173.1019791455
 30
0.0
  0
POINT
  5
4869
330
46FD
100
AcDbEntity
  8
DEFPOINTS
 62
     0
100
AcDbPoint
 10
537.4726121171
 20
179.4198156455
 30
0.0
  0
POINT
  5
486A
330
46FD
100
AcDbEntity
  8
DEFPOINTS
 62
     0
100
AcDbPoint
 10
537.4726121171
 20
223.5788511491
 30
0.0
  0
ENDBLK
  5
46FF
330
46FD
100
AcDbEntity
  8
0
100
AcDbBlockEnd
  0
BLOCK
  5
470A
330
4709
100
AcDbEntity
  8
0
100
AcDbBlockBegin
  2
*D36
 70
     1
 10
0.0
 20
0.0
 30
0.0
  3
*D36
  1

  0
POINT
  5
4871
330
4709
100
AcDbEntity
  8
DEFPOINTS
 62
     0
100
AcDbPoint
 10
423.8996651857
 20
139.4198156455
 30
0.0
  0
POINT
  5
4872
330
4709
100
AcDbEntity
  8
DEFPOINTS
 62
     0
100
AcDbPoint
 10
450.8996651857
 20
148.4198156455
 30
0.0
  0
POINT
  5
4873
330
4709
100
AcDbEntity
  8
DEFPOINTS
 62
     0
100
AcDbPoint
 10
450.8996651857
 20
211.9073098053
 30
0.0
  0
ENDBLK
  5
470B
330
4709
100
AcDbEntity
  8
0
100
AcDbBlockEnd
  0
BLOCK
  5
4716
330
4715
100
AcDbEntity
  8
0
100
AcDbBlockBegin
  2
*D37
 70
     1
 10
0.0
 20
0.0
 30
0.0
  3
*D37
  1

  0
POINT
  5
487A
330
4715
100
AcDbEntity
  8
DEFPOINTS
 62
     0
100
AcDbPoint
 10
420.8996651857
 20
148.7311556455
 30
0.0
  0
POINT
  5
487B
330
4715
100
AcDbEntity
  8
DEFPOINTS
 62
     0
100
AcDbPoint
 10
450.8996651857
 20
148.4198156455
 30
0.0
  0
POINT
  5
487C
330
4715
100
AcDbEntity
  8
DEFPOINTS
 62
     0
100
AcDbPoint
 10
450.8996651857
 20
223.6505762348
 30
0.0
  0
ENDBLK
  5
4717
330
4715
100
AcDbEntity
  8
0
100
AcDbBlockEnd
  0
BLOCK
  5
4722
330
4721
100
AcDbEntity
  8
0
100
AcDbBlockBegin
  2
*D38
 70
     1
 10
0.0
 20
0.0
 30
0.0
  3
*D38
  1

  0
POINT
  5
4883
330
4721
100
AcDbEntity
  8
DEFPOINTS
 62
     0
100
AcDbPoint
 10
581.9726121171
 20
173.1019791455
 30
0.0
  0
POINT
  5
4884
330
4721
100
AcDbEntity
  8
DEFPOINTS
 62
     0
100
AcDbPoint
 10
651.4726121171
 20
179.4198156455
 30
0.0
  0
POINT
  5
4885
330
4721
100
AcDbEntity
  8
DEFPOINTS
 62
     0
100
AcDbPoint
 10
651.4726121171
 20
223.5788511491
 30
0.0
  0
ENDBLK
  5
4723
330
4721
100
AcDbEntity
  8
0
100
AcDbBlockEnd
  0
BLOCK
  5
472E
330
472D
100
AcDbEntity
  8
0
100
AcDbBlockBegin
  2
*D39
 70
     1
 10
0.0
 20
0.0
 30
0.0
  3
*D39
  1

  0
POINT
  5
488C
330
472D
100
AcDbEntity
  8
DEFPOINTS
 62
     0
100
AcDbPoint
 10
581.9726121171
 20
173.1019791455
 30
0.0
  0
POINT
  5
488D
330
472D
100
AcDbEntity
  8
DEFPOINTS
 62
     0
100
AcDbPoint
 10
642.4726121171
 20
186.3984536455
 30
0.0
  0
POINT
  5
488E
330
472D
100
AcDbEntity
  8
DEFPOINTS
 62
     0
100
AcDbPoint
 10
642.4726121171
 20
211.5299927537
 30
0.0
  0
ENDBLK
  5
472F
330
472D
100
AcDbEntity
  8
0
100
AcDbBlockEnd
  0
BLOCK
  5
473A
330
4739
100
AcDbEntity
  8
0
100
AcDbBlockBegin
  2
*D40
 70
     1
 10
0.0
 20
0.0
 30
0.0
  3
*D40
  1

  0
POINT
  5
4895
330
4739
100
AcDbEntity
  8
DEFPOINTS
 62
     0
100
AcDbPoint
 10
651.4726121171
 20
179.4198156455
 30
0.0
  0
POINT
  5
4896
330
4739
100
AcDbEntity
  8
DEFPOINTS
 62
     0
100
AcDbPoint
 10
537.4726121171
 20
179.4198156455
 30
0.0
  0
POINT
  5
4897
330
4739
100
AcDbEntity
  8
DEFPOINTS
 62
     0
100
AcDbPoint
 10
537.4726121171
 20
235.6994346303
 30
0.0
  0
ENDBLK
  5
473B
330
4739
100
AcDbEntity
  8
0
100
AcDbBlockEnd
  0
BLOCK
  5
4746
330
4745
100
AcDbEntity
  8
0
100
AcDbBlockBegin
  2
*D41
 70
     1
 10
0.0
 20
0.0
 30
0.0
  3
*D41
  1

  0
POINT
  5
489E
330
4745
100
AcDbEntity
  8
DEFPOINTS
 62
     0
100
AcDbPoint
 10
537.4726121171
 20
179.4198156455
 30
0.0
  0
POINT
  5
489F
330
4745
100
AcDbEntity
  8
DEFPOINTS
 62
     0
100
AcDbPoint
 10
747.3429121171
 20
174.4198156455
 30
0.0
  0
POINT
  5
48A0
330
4745
100
AcDbEntity
  8
DEFPOINTS
 62
     0
100
AcDbPoint
 10
747.3429121171
 20
247.419558734
 30
0.0
  0
ENDBLK
  5
4747
330
4745
100
AcDbEntity
  8
0
100
AcDbBlockEnd
  0
BLOCK
  5
4752
330
4751
100
AcDbEntity
  8
0
100
AcDbBlockBegin
  2
*D42
 70
     1
 10
0.0
 20
0.0
 30
0.0
  3
*D42
  1

  0
POINT
  5
48A7
330
4751
100
AcDbEntity
  8
DEFPOINTS
 62
     0
100
AcDbPoint
 10
381.8996651857
 20
95.4198156455
 30
0.0
  0
POINT
  5
48A8
330
4751
100
AcDbEntity
  8
DEFPOINTS
 62
     0
100
AcDbPoint
 10
419.8996651857
 20
91.257658762
 30
0.0
  0
POINT
  5
48A9
330
4751
100
AcDbEntity
  8
DEFPOINTS
 62
     0
100
AcDbPoint
 10
419.8996651857
 20
64.1399089138
 30
0.0
  0
ENDBLK
  5
4753
330
4751
100
AcDbEntity
  8
0
100
AcDbBlockEnd
  0
BLOCK
  5
475E
330
475D
100
AcDbEntity
  8
0
100
AcDbBlockBegin
  2
*D43
 70
     1
 10
0.0
 20
0.0
 30
0.0
  3
*D43
  1

  0
POINT
  5
48B0
330
475D
100
AcDbEntity
  8
DEFPOINTS
 62
     0
100
AcDbPoint
 10
530.8054371171
 20
139.4198156455
 30
0.0
  0
POINT
  5
48B1
330
475D
100
AcDbEntity
  8
DEFPOINTS
 62
     0
100
AcDbPoint
 10
546.4726121171
 20
90.4198156455
 30
0.0
  0
POINT
  5
48B2
330
475D
100
AcDbEntity
  8
DEFPOINTS
 62
     0
100
AcDbPoint
 10
501.9842215624
 20
90.4198156455
 30
0.0
  0
ENDBLK
  5
475F
330
475D
100
AcDbEntity
  8
0
100
AcDbBlockEnd
  0
BLOCK
  5
476A
330
4769
100
AcDbEntity
  8
0
100
AcDbBlockBegin
  2
*D44
 70
     1
 10
0.0
 20
0.0
 30
0.0
  3
*D44
  1

  0
POINT
  5
48B9
330
4769
100
AcDbEntity
  8
DEFPOINTS
 62
     0
100
AcDbPoint
 10
530.8054371171
 20
139.4198156455
 30
0.0
  0
POINT
  5
48BA
330
4769
100
AcDbEntity
  8
DEFPOINTS
 62
     0
100
AcDbPoint
 10
546.4726121171
 20
188.4198156455
 30
0.0
  0
POINT
  5
48BB
330
4769
100
AcDbEntity
  8
DEFPOINTS
 62
     0
100
AcDbPoint
 10
501.9842215624
 20
188.4198156455
 30
0.0
  0
ENDBLK
  5
476B
330
4769
100
AcDbEntity
  8
0
100
AcDbBlockEnd
  0
BLOCK
  5
4776
330
4775
100
AcDbEntity
  8
0
100
AcDbBlockBegin
  2
*D45
 70
     1
 10
0.0
 20
0.0
 30
0.0
  3
*D45
  1

  0
POINT
  5
48C2
330
4775
100
AcDbEntity
  8
DEFPOINTS
 62
     0
100
AcDbPoint
 10
546.4726121171
 20
90.4198156455
 30
0.0
  0
POINT
  5
48C3
330
4775
100
AcDbEntity
  8
DEFPOINTS
 62
     0
100
AcDbPoint
 10
546.4726121171
 20
188.4198156455
 30
0.0
  0
POINT
  5
48C4
330
4775
100
AcDbEntity
  8
DEFPOINTS
 62
     0
100
AcDbPoint
 10
489.9223905873
 20
188.4198156455
 30
0.0
  0
ENDBLK
  5
4777
330
4775
100
AcDbEntity
  8
0
100
AcDbBlockEnd
  0
BLOCK
  5
4782
330
4781
100
AcDbEntity
  8
0
100
AcDbBlockBegin
  2
*D46
 70
     1
 10
0.0
 20
0.0
 30
0.0
  3
*D46
  1

  0
POINT
  5
48CB
330
4781
100
AcDbEntity
  8
DEFPOINTS
 62
     0
100
AcDbPoint
 10
450.8996651857
 20
130.4198156455
 30
0.0
  0
POINT
  5
48CC
330
4781
100
AcDbEntity
  8
DEFPOINTS
 62
     0
100
AcDbPoint
 10
450.8996651857
 20
148.4198156455
 30
0.0
  0
POINT
  5
48CD
330
4781
100
AcDbEntity
  8
DEFPOINTS
 62
     0
100
AcDbPoint
 10
466.919969024
 20
148.4198156455
 30
0.0
  0
ENDBLK
  5
4783
330
4781
100
AcDbEntity
  8
0
100
AcDbBlockEnd
  0
BLOCK
  5
478E
330
478D
100
AcDbEntity
  8
0
100
AcDbBlockBegin
  2
*D47
 70
     1
 10
0.0
 20
0.0
 30
0.0
  3
*D47
  1

  0
POINT
  5
48D6
330
478D
100
AcDbEntity
  8
DEFPOINTS
 62
     0
100
AcDbPoint
 10
570.4726121171
 20
136.4198156455
 30
0.0
  0
POINT
  5
48D7
330
478D
100
AcDbEntity
  8
DEFPOINTS
 62
     0
100
AcDbPoint
 10
570.4726121171
 20
142.4198156455
 30
0.0
  0
POINT
  5
48D8
330
478D
100
AcDbEntity
  8
DEFPOINTS
 62
     0
100
AcDbPoint
 10
525.897657406
 20
142.4198156455
 30
0.0
  0
ENDBLK
  5
478F
330
478D
100
AcDbEntity
  8
0
100
AcDbBlockEnd
  0
BLOCK
  5
479C
330
479B
100
AcDbEntity
  8
0
100
AcDbBlockBegin
  2
*D48
 70
     1
 10
0.0
 20
0.0
 30
0.0
  3
*D48
  1

  0
POINT
  5
48DF
330
479B
100
AcDbEntity
  8
DEFPOINTS
 62
     0
100
AcDbPoint
 10
530.8054371171
 20
139.4198156455
 30
0.0
  0
POINT
  5
48E0
330
479B
100
AcDbEntity
  8
DEFPOINTS
 62
     0
100
AcDbPoint
 10
538.4939741171
 20
100.4198156455
 30
0.0
  0
POINT
  5
48E1
330
479B
100
AcDbEntity
  8
DEFPOINTS
 62
     0
100
AcDbPoint
 10
513.8872359465
 20
100.4198156455
 30
0.0
  0
ENDBLK
  5
479D
330
479B
100
AcDbEntity
  8
0
100
AcDbBlockEnd
  0
BLOCK
  5
47A8
330
47A7
100
AcDbEntity
  8
0
100
AcDbBlockBegin
  2
*D49
 70
     1
 10
0.0
 20
0.0
 30
0.0
  3
*D49
  1

  0
POINT
  5
48E8
330
47A7
100
AcDbEntity
  8
DEFPOINTS
 62
     0
100
AcDbPoint
 10
530.8054371171
 20
139.4198156455
 30
0.0
  0
POINT
  5
48E9
330
47A7
100
AcDbEntity
  8
DEFPOINTS
 62
     0
100
AcDbPoint
 10
538.4939741171
 20
178.4198156455
 30
0.0
  0
POINT
  5
48EA
330
47A7
100
AcDbEntity
  8
DEFPOINTS
 62
     0
100
AcDbPoint
 10
513.8872359465
 20
178.4198156455
 30
0.0
  0
ENDBLK
  5
47A9
330
47A7
100
AcDbEntity
  8
0
100
AcDbBlockEnd
  0
BLOCK
  5
47B4
330
47B3
100
AcDbEntity
  8
0
100
AcDbBlockBegin
  2
*D50
 70
     1
 10
0.0
 20
0.0
 30
0.0
  3
*D50
  1

  0
POINT
  5
48F2
330
47B3
100
AcDbEntity
  8
DEFPOINTS
 62
     0
100
AcDbPoint
 10
570.4726121171
 20
142.4198156455
 30
0.0
  0
POINT
  5
48F3
330
47B3
100
AcDbEntity
  8
DEFPOINTS
 62
     0
100
AcDbPoint
 10
590.9726121171
 20
139.4198156455
 30
0.0
  0
POINT
  5
48F4
330
47B3
100
AcDbEntity
  8
DEFPOINTS
 62
     0
100
AcDbPoint
 10
590.9726121171
 20
199.7867263242
 30
0.0
  0
ENDBLK
  5
47B5
330
47B3
100
AcDbEntity
  8
0
100
AcDbBlockEnd
  0
BLOCK
  5
47C1
330
47C0
100
AcDbEntity
  8
0
100
AcDbBlockBegin
  2
*D51
 70
     1
 10
0.0
 20
0.0
 30
0.0
  3
*D51
  1

  0
POINT
  5
48FB
330
47C0
100
AcDbEntity
  8
DEFPOINTS
 62
     0
100
AcDbPoint
 10
742.8014081171
 20
184.4198156455
 30
0.0
  0
POINT
  5
48FC
330
47C0
100
AcDbEntity
  8
DEFPOINTS
 62
     0
100
AcDbPoint
 10
742.8014081171
 20
94.4198156455
 30
0.0
  0
POINT
  5
48FD
330
47C0
100
AcDbEntity
  8
DEFPOINTS
 62
     0
100
AcDbPoint
 10
764.7275525426
 20
94.4198156455
 30
0.0
  0
ENDBLK
  5
47C2
330
47C0
100
AcDbEntity
  8
0
100
AcDbBlockEnd
  0
BLOCK
  5
47CD
330
47CC
100
AcDbEntity
  8
0
100
AcDbBlockBegin
  2
*D52
 70
     1
 10
0.0
 20
0.0
 30
0.0
  3
*D52
  1

  0
POINT
  5
4904
330
47CC
100
AcDbEntity
  8
DEFPOINTS
 62
     0
100
AcDbPoint
 10
371.8996651857
 20
193.7048196455
 30
0.0
  0
POINT
  5
4905
330
47CC
100
AcDbEntity
  8
DEFPOINTS
 62
     0
100
AcDbPoint
 10
292.8996651857
 20
148.4198156455
 30
0.0
  0
POINT
  5
4906
330
47CC
100
AcDbEntity
  8
DEFPOINTS
 62
     0
100
AcDbPoint
 10
292.8996651857
 20
235.6994346303
 30
0.0
  0
ENDBLK
  5
47CE
330
47CC
100
AcDbEntity
  8
0
100
AcDbBlockEnd
  0
BLOCK
  5
47D9
330
47D8
100
AcDbEntity
  8
0
100
AcDbBlockBegin
  2
*D53
 70
     1
 10
0.0
 20
0.0
 30
0.0
  3
*D53
  1

  0
POINT
  5
490D
330
47D8
100
AcDbEntity
  8
DEFPOINTS
 62
     0
100
AcDbPoint
 10
319.8996651857
 20
139.4198156455
 30
0.0
  0
POINT
  5
490E
330
47D8
100
AcDbEntity
  8
DEFPOINTS
 62
     0
100
AcDbPoint
 10
292.8996651857
 20
148.4198156455
 30
0.0
  0
POINT
  5
490F
330
47D8
100
AcDbEntity
  8
DEFPOINTS
 62
     0
100
AcDbPoint
 10
292.8996651857
 20
211.9073098053
 30
0.0
  0
ENDBLK
  5
47DA
330
47D8
100
AcDbEntity
  8
0
100
AcDbBlockEnd
  0
BLOCK
  5
47E5
330
47E4
100
AcDbEntity
  8
0
100
AcDbBlockBegin
  2
*D54
 70
     1
 10
0.0
 20
0.0
 30
0.0
  3
*D54
  1

  0
POINT
  5
4916
330
47E4
100
AcDbEntity
  8
DEFPOINTS
 62
     0
100
AcDbPoint
 10
322.8996651857
 20
148.7311556455
 30
0.0
  0
POINT
  5
4917
330
47E4
100
AcDbEntity
  8
DEFPOINTS
 62
     0
100
AcDbPoint
 10
292.8996651857
 20
148.4198156455
 30
0.0
  0
POINT
  5
4918
330
47E4
100
AcDbEntity
  8
DEFPOINTS
 62
     0
100
AcDbPoint
 10
292.8996651857
 20
223.6505762348
 30
0.0
  0
ENDBLK
  5
47E6
330
47E4
100
AcDbEntity
  8
0
100
AcDbBlockEnd
  0
BLOCK
  5
47F1
330
47F0
100
AcDbEntity
  8
0
100
AcDbBlockBegin
  2
*D55
 70
     1
 10
0.0
 20
0.0
 30
0.0
  3
*D55
  1

  0
POINT
  5
491F
330
47F0
100
AcDbEntity
  8
DEFPOINTS
 62
     0
100
AcDbPoint
 10
292.8996651857
 20
130.4198156455
 30
0.0
  0
POINT
  5
4920
330
47F0
100
AcDbEntity
  8
DEFPOINTS
 62
     0
100
AcDbPoint
 10
292.8996651857
 20
148.4198156455
 30
0.0
  0
POINT
  5
4921
330
47F0
100
AcDbEntity
  8
DEFPOINTS
 62
     0
100
AcDbPoint
 10
276.8793613473
 20
148.4198156455
 30
0.0
  0
ENDBLK
  5
47F2
330
47F0
100
AcDbEntity
  8
0
100
AcDbBlockEnd
  0
BLOCK
  5
4923
330
4922
100
AcDbEntity
  8
0
100
AcDbBlockBegin
  2
ファンカバ－ブレーキ_F2S-15_M_0003
 70
     0
 10
0.0
 20
0.0
 30
0.0
  3
ファンカバ－ブレーキ_F2S-15_M_0003
  1

  0
LINE
  5
4924
330
4922
100
AcDbEntity
  8
0
100
AcDbLine
 10
20.0
 20
-42.0
 30
0.0
 11
20.0
 21
42.0
 31
0.0
  0
LINE
  5
4925
330
4922
100
AcDbEntity
  8
0
100
AcDbLine
 10
20.5
 20
35.0
 30
0.0
 11
20.5
 21
-35.0
 31
0.0
  0
LINE
  5
4926
330
4922
100
AcDbEntity
  8
0
100
AcDbLine
 10
0.0
 20
-6.866027
 30
0.0
 11
0.0
 21
-45.0
 31
0.0
  0
LINE
  5
4927
330
4922
100
AcDbEntity
  8
0
100
AcDbLine
 10
15.958496
 20
-45.0
 30
0.0
 11
0.0
 21
-45.0
 31
0.0
  0
LINE
  5
4928
330
4922
100
AcDbEntity
  8
0
100
AcDbLine
 10
0.0
 20
-29.0
 30
0.0
 11
18.25
 21
-29.0
 31
0.0
  0
ARC
  5
4929
330
4922
100
AcDbEntity
  8
0
100
AcDbCircle
 10
15.958496
 20
-41.0
 30
0.0
 40
4.0
100
AcDbArc
 50
270.0
 51
330.000397
  0
LINE
  5
492A
330
4922
100
AcDbEntity
  8
0
100
AcDbLine
 10
19.422608
 20
-43.0
 30
0.0
 11
20.0
 21
-42.0
 31
0.0
  0
LINE
  5
492B
330
4922
100
AcDbEntity
  8
0
100
AcDbLine
 10
20.5
 20
-35.0
 30
0.0
 11
20.0
 21
-35.5
 31
0.0
  0
LINE
  5
492C
330
4922
100
AcDbEntity
  8
0
100
AcDbLine
 10
15.958496
 20
45.0
 30
0.0
 11
0.0
 21
45.0
 31
0.0
  0
LINE
  5
492D
330
4922
100
AcDbEntity
  8
0
100
AcDbLine
 10
0.0
 20
29.0
 30
0.0
 11
18.25
 21
29.0
 31
0.0
  0
LINE
  5
492E
330
4922
100
AcDbEntity
  8
0
100
AcDbLine
 10
0.5
 20
-7.0
 30
0.0
 11
5.5
 21
-7.0
 31
0.0
  0
LINE
  5
492F
330
4922
100
AcDbEntity
  8
0
100
AcDbLine
 10
5.5
 20
7.0
 30
0.0
 11
0.5
 21
7.0
 31
0.0
  0
LINE
  5
4930
330
4922
100
AcDbEntity
  8
0
100
AcDbLine
 10
0.0
 20
45.0
 30
0.0
 11
0.0
 21
6.866028
 31
0.0
  0
LINE
  5
4931
330
4922
100
AcDbEntity
  8
0
100
AcDbLine
 10
-0.5
 20
-6.0
 30
0.0
 11
-0.5
 21
6.0
 31
0.0
  0
ARC
  5
4932
330
4922
100
AcDbEntity
  8
0
100
AcDbCircle
 10
0.5
 20
-6.0
 30
0.0
 40
1.0
100
AcDbArc
 50
180.0
 51
270.0
  0
ARC
  5
4933
330
4922
100
AcDbEntity
  8
0
100
AcDbCircle
 10
0.5
 20
6.0
 30
0.0
 40
1.0
100
AcDbArc
 50
90.0
 51
180.0
  0
LINE
  5
4934
330
4922
100
AcDbEntity
  8
0
100
AcDbLine
 10
4.0
 20
3.5
 30
0.0
 11
4.0
 21
-3.5
 31
0.0
  0
LINE
  5
4935
330
4922
100
AcDbEntity
  8
0
100
AcDbLine
 10
2.0
 20
3.5
 30
0.0
 11
2.0
 21
-3.5
 31
0.0
  0
LINE
  5
4936
330
4922
100
AcDbEntity
  8
0
100
AcDbLine
 10
6.5
 20
-6.0
 30
0.0
 11
6.5
 21
6.0
 31
0.0
  0
ARC
  5
4937
330
4922
100
AcDbEntity
  8
0
100
AcDbCircle
 10
3.0
 20
-3.5
 30
0.0
 40
1.0
100
AcDbArc
 50
180.0
 51
0.0
  0
ARC
  5
4938
330
4922
100
AcDbEntity
  8
0
100
AcDbCircle
 10
5.5
 20
-6.0
 30
0.0
 40
1.0
100
AcDbArc
 50
270.0
 51
0.0
  0
ARC
  5
4939
330
4922
100
AcDbEntity
  8
0
100
AcDbCircle
 10
3.0
 20
3.5
 30
0.0
 40
1.0
100
AcDbArc
 50
0.0
 51
180.0
  0
ARC
  5
493A
330
4922
100
AcDbEntity
  8
0
100
AcDbCircle
 10
5.5
 20
6.0
 30
0.0
 40
1.0
100
AcDbArc
 50
0.0
 51
90.0
  0
LINE
  5
493B
330
4922
100
AcDbEntity
  8
0
100
AcDbLine
 10
20.5
 20
35.0
 30
0.0
 11
20.0
 21
35.49997
 31
0.0
  0
ARC
  5
493C
330
4922
100
AcDbEntity
  8
0
100
AcDbCircle
 10
15.958496
 20
41.0
 30
0.0
 40
4.0
100
AcDbArc
 50
29.999599
 51
90.0
  0
LINE
  5
493D
330
4922
100
AcDbEntity
  8
0
100
AcDbLine
 10
19.422608
 20
43.0
 30
0.0
 11
20.0
 21
42.0
 31
0.0
  0
ENDBLK
  5
493E
330
4922
100
AcDbEntity
  8
0
100
AcDbBlockEnd
  0
BLOCK
  5
5157
330
5154
100
AcDbEntity
  8
0
100
AcDbBlockBegin
  2
A$C97379603
 70
     0
 10
0.0
 20
0.0
 30
0.0
  3
A$C97379603
  1

  0
LINE
  5
5158
330
5154
100
AcDbEntity
  8
CENTER
100
AcDbLine
 10
144.87027
 20
33.6821635
 30
0.0
 11
144.87027
 21
-33.6821635
 31
0.0
  0
LINE
  5
5159
330
5154
100
AcDbEntity
  8
CENTER
100
AcDbLine
 10
143.1223153445
 20
0.0
 30
0.0
 11
146.6182246555
 21
0.0
 31
0.0
  0
LINE
  5
515A
330
5154
100
AcDbEntity
  8
0
100
AcDbLine
 10
150.37027
 20
3.0
 30
0.0
 11
150.37027
 21
-3.0
 31
0.0
  0
LINE
  5
515B
330
5154
100
AcDbEntity
  8
0
100
AcDbLine
 10
156.37027
 20
3.0
 30
0.0
 11
156.37027
 21
-3.0
 31
0.0
  0
ARC
  5
515C
330
5154
100
AcDbEntity
  8
0
100
AcDbCircle
 10
144.87027
 20
0.0
 30
0.0
 40
9.0
100
AcDbArc
 50
19.471222
 51
340.528778
  0
ARC
  5
515D
330
5154
100
AcDbEntity
  8
0
100
AcDbCircle
 10
144.87027
 20
0.0
 30
0.0
 40
10.0
100
AcDbArc
 50
17.457603
 51
342.542389
  0
LINE
  5
515E
330
5154
100
AcDbEntity
  8
0
100
AcDbLine
 10
156.37027
 20
-3.0
 30
0.0
 11
150.37027
 21
-3.0
 31
0.0
  0
LINE
  5
515F
330
5154
100
AcDbEntity
  8
0
100
AcDbLine
 10
156.37027
 20
3.0
 30
0.0
 11
150.37027
 21
3.0
 31
0.0
  0
CIRCLE
  5
5160
330
5154
100
AcDbEntity
  8
0
  6
Continuous
100
AcDbCircle
 10
144.87027
 20
0.0
 30
0.0
 40
25.548
  0
CIRCLE
  5
5161
330
5154
100
AcDbEntity
  8
0
  6
Continuous
100
AcDbCircle
 10
144.87027
 20
0.0
 30
0.0
 40
23.0
  0
CIRCLE
  5
5162
330
5154
100
AcDbEntity
  8
0
  6
Continuous
100
AcDbCircle
 10
144.87027
 20
0.0
 30
0.0
 40
17.5
  0
CIRCLE
  5
5163
330
5154
100
AcDbEntity
  8
0
  6
Continuous
100
AcDbCircle
 10
144.87027
 20
0.0
 30
0.0
 40
19.5
  0
LINE
  5
5164
330
5154
100
AcDbEntity
  8
0
100
AcDbLine
 10
189.36
 20
40.0
 30
0.0
 11
189.36
 21
-40.0
 31
0.0
  0
ARC
  5
5165
330
5154
100
AcDbEntity
  8
0
100
AcDbCircle
 10
187.36
 20
35.0
 30
0.0
 40
2.0
100
AcDbArc
 50
270.0
 51
0.0
  0
ARC
  5
5166
330
5154
100
AcDbEntity
  8
0
100
AcDbCircle
 10
187.36
 20
22.0
 30
0.0
 40
2.0
100
AcDbArc
 50
0.0
 51
90.0
  0
ARC
  5
5167
330
5154
100
AcDbEntity
  8
0
100
AcDbCircle
 10
187.36
 20
-22.0
 30
0.0
 40
2.0
100
AcDbArc
 50
270.0
 51
0.0
  0
ARC
  5
5168
330
5154
100
AcDbEntity
  8
0
100
AcDbCircle
 10
187.36
 20
-35.0
 30
0.0
 40
2.0
100
AcDbArc
 50
0.0
 51
90.0
  0
ARC
  5
5169
330
5154
100
AcDbEntity
  8
0
100
AcDbCircle
 10
187.36
 20
21.5526601325
 30
0.0
 40
2.0
100
AcDbArc
 50
314.8143643905
 51
0.0
  0
LINE
  5
516A
330
5154
100
AcDbEntity
  8
0
100
AcDbLine
 10
180.36
 20
49.0
 30
0.0
 11
84.36
 21
49.0
 31
0.0
  0
LINE
  5
516B
330
5154
100
AcDbEntity
  8
0
100
AcDbLine
 10
180.36
 20
-49.0
 30
0.0
 11
84.36
 21
-49.0
 31
0.0
  0
ARC
  5
516C
330
5154
100
AcDbEntity
  8
0
100
AcDbCircle
 10
180.36
 20
40.0
 30
0.0
 40
9.0
100
AcDbArc
 50
0.0
 51
130.947188455
  0
ARC
  5
516D
330
5154
100
AcDbEntity
  8
0
100
AcDbCircle
 10
180.36
 20
-40.0
 30
0.0
 40
9.0
100
AcDbArc
 50
229.052811545
 51
0.0
  0
LINE
  5
516E
330
5154
100
AcDbEntity
  8
0
100
AcDbLine
 10
73.8790356544
 20
45.0
 30
0.0
 11
0.0
 21
45.0
 31
0.0
  0
LINE
  5
516F
330
5154
100
AcDbEntity
  8
0
100
AcDbLine
 10
73.8790356544
 20
-45.0
 30
0.0
 11
0.0
 21
-45.0
 31
0.0
  0
ARC
  5
5170
330
5154
100
AcDbEntity
  8
0
100
AcDbCircle
 10
150.86
 20
16.5
 30
0.0
 40
34.0
100
AcDbArc
 50
60.5450656692
 51
67.0804578484
  0
ARC
  5
5171
330
5154
100
AcDbEntity
  8
0
100
AcDbCircle
 10
158.2593242935
 20
34.0
 30
0.0
 40
15.0
100
AcDbArc
 50
67.0804578484
 51
90.0
  0
ARC
  5
5172
330
5154
100
AcDbEntity
  8
0
100
AcDbCircle
 10
170.5295533815
 20
51.329709585
 30
0.0
 40
6.0
100
AcDbArc
 50
240.5450656692
 51
310.947188455
  0
ARC
  5
5173
330
5154
100
AcDbEntity
  8
0
100
AcDbCircle
 10
170.5295533815
 20
-51.329709585
 30
0.0
 40
6.0
100
AcDbArc
 50
49.052811545
 51
119.4549343308
  0
ARC
  5
5174
330
5154
100
AcDbEntity
  8
0
100
AcDbCircle
 10
150.86
 20
-16.5
 30
0.0
 40
34.0
100
AcDbArc
 50
292.9195421516
 51
299.4549343308
  0
ARC
  5
5175
330
5154
100
AcDbEntity
  8
0
100
AcDbCircle
 10
158.2593242935
 20
-34.0
 30
0.0
 40
15.0
100
AcDbArc
 50
270.0
 51
292.9195421516
  0
ARC
  5
5176
330
5154
100
AcDbEntity
  8
0
100
AcDbCircle
 10
94.1904466185
 20
51.329709585
 30
0.0
 40
6.0
100
AcDbArc
 50
229.052811545
 51
299.4549343308
  0
ARC
  5
5177
330
5154
100
AcDbEntity
  8
0
100
AcDbCircle
 10
113.86
 20
16.5
 30
0.0
 40
34.0
100
AcDbArc
 50
112.9195421516
 51
119.4549343308
  0
ARC
  5
5178
330
5154
100
AcDbEntity
  8
0
100
AcDbCircle
 10
106.4606757065
 20
34.0
 30
0.0
 40
15.0
100
AcDbArc
 50
90.0
 51
112.9195421516
  0
LINE
  5
5179
330
5154
100
AcDbEntity
  8
0
100
AcDbLine
 10
184.86
 20
15.4172746018
 30
0.0
 11
184.86
 21
-15.4172746018
 31
0.0
  0
ARC
  5
517A
330
5154
100
AcDbEntity
  8
0
100
AcDbCircle
 10
186.86
 20
15.4172746018
 30
0.0
 40
2.0
100
AcDbArc
 50
134.8143643905
 51
180.0
  0
LINE
  5
517B
330
5154
100
AcDbEntity
  8
0
100
AcDbLine
 10
185.4503758372
 20
16.8360627184
 30
0.0
 11
188.7696241628
 21
20.1338720159
 31
0.0
  0
LINE
  5
517C
330
5154
100
AcDbEntity
  8
0
100
AcDbLine
 10
0.0
 20
45.0
 30
0.0
 11
0.0
 21
-45.0
 31
0.0
  0
LINE
  5
517D
330
5154
100
AcDbEntity
  8
0
100
AcDbLine
 10
73.0
 20
34.4093010682
 30
0.0
 11
73.36
 21
34.4093010682
 31
0.0
  0
ARC
  5
517E
330
5154
100
AcDbEntity
  8
0
100
AcDbCircle
 10
94.1904466185
 20
-51.329709585
 30
0.0
 40
6.0
100
AcDbArc
 50
60.5450656692
 51
130.947188455
  0
ARC
  5
517F
330
5154
100
AcDbEntity
  8
0
100
AcDbCircle
 10
113.86
 20
-16.5
 30
0.0
 40
34.0
100
AcDbArc
 50
240.5450656692
 51
247.0804578484
  0
ARC
  5
5180
330
5154
100
AcDbEntity
  8
0
100
AcDbCircle
 10
106.4606757065
 20
-34.0
 30
0.0
 40
15.0
100
AcDbArc
 50
247.0804578484
 51
270.0
  0
ARC
  5
5181
330
5154
100
AcDbEntity
  8
0
100
AcDbCircle
 10
73.8790356544
 20
-47.0
 30
0.0
 40
2.0
100
AcDbArc
 50
62.9562954612
 51
90.0
  0
LINE
  5
5182
330
5154
100
AcDbEntity
  8
0
100
AcDbLine
 10
74.7883756879
 20
-45.2186800671
 30
0.0
 11
80.2679698491
 21
-48.0159396981
 31
0.0
  0
ARC
  5
5183
330
5154
100
AcDbEntity
  8
0
100
AcDbCircle
 10
73.8790356544
 20
47.0
 30
0.0
 40
2.0
100
AcDbArc
 50
270.0
 51
297.0437045388
  0
LINE
  5
5184
330
5154
100
AcDbEntity
  8
0
100
AcDbLine
 10
74.7883756879
 20
45.2186800671
 30
0.0
 11
80.2679698491
 21
48.0159396981
 31
0.0
  0
ARC
  5
5185
330
5154
100
AcDbEntity
  8
0
100
AcDbCircle
 10
187.36
 20
-21.5526601325
 30
0.0
 40
2.0
100
AcDbArc
 50
0.0
 51
45.1856356095
  0
ARC
  5
5186
330
5154
100
AcDbEntity
  8
0
100
AcDbCircle
 10
186.86
 20
-15.4172746018
 30
0.0
 40
2.0
100
AcDbArc
 50
180.0
 51
225.1856356095
  0
LINE
  5
5187
330
5154
100
AcDbEntity
  8
0
100
AcDbLine
 10
185.4503758372
 20
-16.8360627184
 30
0.0
 11
188.7696241628
 21
-20.1338720159
 31
0.0
  0
ARC
  5
5188
330
5154
100
AcDbEntity
  8
0
100
AcDbCircle
 10
73.962
 20
36.4093010682
 30
0.0
 40
2.0
100
AcDbArc
 50
270.0
 51
0.0
  0
ARC
  5
5189
330
5154
100
AcDbEntity
  8
0
100
AcDbCircle
 10
72.5
 20
32.4093010682
 30
0.0
 40
2.0
100
AcDbArc
 50
0.0
 51
90.0
  0
ARC
  5
518A
330
5154
100
AcDbEntity
  8
0
100
AcDbCircle
 10
73.962
 20
-36.4093010682
 30
0.0
 40
2.0
100
AcDbArc
 50
0.0
 51
90.0
  0
ARC
  5
518B
330
5154
100
AcDbEntity
  8
0
100
AcDbCircle
 10
72.5
 20
-32.4093010682
 30
0.0
 40
2.0
100
AcDbArc
 50
270.0
 51
0.0
  0
LINE
  5
518C
330
5154
100
AcDbEntity
  8
0
100
AcDbLine
 10
74.5
 20
32.4093010682
 30
0.0
 11
74.5
 21
-32.4093010682
 31
0.0
  0
ARC
  5
518D
330
5154
100
AcDbEntity
  8
0
100
AcDbCircle
 10
84.36
 20
-40.0
 30
0.0
 40
9.0
100
AcDbArc
 50
242.9562954612
 51
310.947188455
  0
LINE
  5
518E
330
5154
100
AcDbEntity
  8
0
100
AcDbLine
 10
0.0
 20
34.4093010682
 30
0.0
 11
73.962
 21
34.4093010682
 31
0.0
  0
LINE
  5
518F
330
5154
100
AcDbEntity
  8
0
100
AcDbLine
 10
0.0
 20
-34.4093010682
 30
0.0
 11
74.0
 21
-34.4093010682
 31
0.0
  0
LINE
  5
5190
330
5154
100
AcDbEntity
  8
CENTER
100
AcDbLine
 10
188.348908
 20
39.0
 30
0.0
 11
172.391632
 21
39.0
 31
0.0
  0
LINE
  5
5191
330
5154
100
AcDbEntity
  8
CENTER
100
AcDbLine
 10
180.37027
 20
46.978638
 30
0.0
 11
180.37027
 21
31.021362
 31
0.0
  0
LINE
  5
5192
330
5154
100
AcDbEntity
  8
CENTER
100
AcDbLine
 10
92.348908
 20
39.0
 30
0.0
 11
76.391632
 21
39.0
 31
0.0
  0
LINE
  5
5193
330
5154
100
AcDbEntity
  8
CENTER
100
AcDbLine
 10
84.37027
 20
46.978638
 30
0.0
 11
84.37027
 21
31.021362
 31
0.0
  0
LINE
  5
5194
330
5154
100
AcDbEntity
  8
CENTER
100
AcDbLine
 10
92.348908
 20
-39.0
 30
0.0
 11
76.391632
 21
-39.0
 31
0.0
  0
LINE
  5
5195
330
5154
100
AcDbEntity
  8
CENTER
100
AcDbLine
 10
84.37027
 20
-31.021362
 30
0.0
 11
84.37027
 21
-46.978638
 31
0.0
  0
LINE
  5
5196
330
5154
100
AcDbEntity
  8
CENTER
100
AcDbLine
 10
188.348908
 20
-39.0
 30
0.0
 11
172.391632
 21
-39.0
 31
0.0
  0
LINE
  5
5197
330
5154
100
AcDbEntity
  8
CENTER
100
AcDbLine
 10
180.37027
 20
-31.021362
 30
0.0
 11
180.37027
 21
-46.978638
 31
0.0
  0
LINE
  5
5198
330
5154
100
AcDbEntity
  8
CENTER
100
AcDbLine
 10
74.797928
 20
28.5
 30
0.0
 11
85.942612
 21
28.5
 31
0.0
  0
LINE
  5
5199
330
5154
100
AcDbEntity
  8
CENTER
100
AcDbLine
 10
80.37027
 20
22.927658
 30
0.0
 11
80.37027
 21
34.072342
 31
0.0
  0
LINE
  5
519A
330
5154
100
AcDbEntity
  8
CENTER
100
AcDbLine
 10
74.797928
 20
-28.5
 30
0.0
 11
85.942612
 21
-28.5
 31
0.0
  0
LINE
  5
519B
330
5154
100
AcDbEntity
  8
CENTER
100
AcDbLine
 10
80.37027
 20
-34.072342
 30
0.0
 11
80.37027
 21
-22.927658
 31
0.0
  0
LINE
  5
519C
330
5154
100
AcDbEntity
  8
CENTER
100
AcDbLine
 10
178.797928
 20
-28.5
 30
0.0
 11
189.942612
 21
-28.5
 31
0.0
  0
LINE
  5
519D
330
5154
100
AcDbEntity
  8
CENTER
100
AcDbLine
 10
184.37027
 20
-34.072342
 30
0.0
 11
184.37027
 21
-22.927658
 31
0.0
  0
LINE
  5
519E
330
5154
100
AcDbEntity
  8
CENTER
100
AcDbLine
 10
184.37027
 20
22.927658
 30
0.0
 11
184.37027
 21
34.072342
 31
0.0
  0
LINE
  5
519F
330
5154
100
AcDbEntity
  8
CENTER
100
AcDbLine
 10
178.797928
 20
28.5
 30
0.0
 11
189.942612
 21
28.5
 31
0.0
  0
LINE
  5
51A0
330
5154
100
AcDbEntity
  8
0
  6
Continuous
100
AcDbLine
 10
77.981186
 20
-24.0
 30
0.0
 11
80.370285
 21
-24.0
 31
0.0
  0
LINE
  5
51A1
330
5154
100
AcDbEntity
  8
0
100
AcDbLine
 10
80.48027
 20
15.6715728753
 30
0.0
 11
80.48027
 21
-15.6715728753
 31
0.0
  0
LINE
  5
51A2
330
5154
100
AcDbEntity
  8
0
100
AcDbLine
 10
75.98027
 20
-21.8284271247
 30
0.0
 11
75.98027
 21
-40.0
 31
0.0
  0
ARC
  5
51A3
330
5154
100
AcDbEntity
  8
0
100
AcDbCircle
 10
78.48027
 20
-15.6715728753
 30
0.0
 40
2.0
100
AcDbArc
 50
315.0
 51
0.0
  0
ARC
  5
51A4
330
5154
100
AcDbEntity
  8
0
100
AcDbCircle
 10
77.98027
 20
-21.8284271247
 30
0.0
 40
2.0
100
AcDbArc
 50
135.0
 51
180.0
  0
LINE
  5
51A5
330
5154
100
AcDbEntity
  8
0
100
AcDbLine
 10
76.5660564376
 20
-20.4142135624
 30
0.0
 11
79.8944835624
 21
-17.0857864376
 31
0.0
  0
ARC
  5
51A6
330
5154
100
AcDbEntity
  8
0
100
AcDbCircle
 10
80.37027
 20
-28.5
 30
0.0
 40
4.5
100
AcDbArc
 50
270.0
 51
90.0
  0
LINE
  5
51A7
330
5154
100
AcDbEntity
  8
0
100
AcDbLine
 10
80.37027
 20
-24.0
 30
0.0
 11
77.98027
 21
-24.0
 31
0.0
  0
ARC
  5
51A8
330
5154
100
AcDbEntity
  8
0
100
AcDbCircle
 10
77.98027
 20
-22.0
 30
0.0
 40
2.0
100
AcDbArc
 50
180.0
 51
270.0
  0
ARC
  5
51A9
330
5154
100
AcDbEntity
  8
0
100
AcDbCircle
 10
77.98027
 20
-35.0
 30
0.0
 40
2.0
100
AcDbArc
 50
90.0
 51
180.0
  0
LINE
  5
51AA
330
5154
100
AcDbEntity
  8
0
100
AcDbLine
 10
80.37027
 20
-33.0
 30
0.0
 11
77.98027
 21
-33.0
 31
0.0
  0
ARC
  5
51AB
330
5154
100
AcDbEntity
  8
0
100
AcDbCircle
 10
77.98027
 20
35.0
 30
0.0
 40
2.0
100
AcDbArc
 50
180.0
 51
270.0
  0
LINE
  5
51AC
330
5154
100
AcDbEntity
  8
0
100
AcDbLine
 10
75.98027
 20
21.8284271247
 30
0.0
 11
75.98027
 21
40.0
 31
0.0
  0
ARC
  5
51AD
330
5154
100
AcDbEntity
  8
0
100
AcDbCircle
 10
77.98027
 20
22.0
 30
0.0
 40
2.0
100
AcDbArc
 50
90.0
 51
180.0
  0
ARC
  5
51AE
330
5154
100
AcDbEntity
  8
0
100
AcDbCircle
 10
80.37027
 20
28.5
 30
0.0
 40
4.5
100
AcDbArc
 50
270.0
 51
90.0
  0
LINE
  5
51AF
330
5154
100
AcDbEntity
  8
0
100
AcDbLine
 10
80.37027
 20
33.0
 30
0.0
 11
77.98027
 21
33.0
 31
0.0
  0
LINE
  5
51B0
330
5154
100
AcDbEntity
  8
0
100
AcDbLine
 10
80.37027
 20
24.0
 30
0.0
 11
77.98027
 21
24.0
 31
0.0
  0
ARC
  5
51B1
330
5154
100
AcDbEntity
  8
0
100
AcDbCircle
 10
78.48027
 20
15.6715728753
 30
0.0
 40
2.0
100
AcDbArc
 50
0.0
 51
45.0
  0
LINE
  5
51B2
330
5154
100
AcDbEntity
  8
0
100
AcDbLine
 10
76.5660564376
 20
20.4142135624
 30
0.0
 11
79.8944835624
 21
17.0857864376
 31
0.0
  0
ARC
  5
51B3
330
5154
100
AcDbEntity
  8
0
100
AcDbCircle
 10
77.98027
 20
21.8284271247
 30
0.0
 40
2.0
100
AcDbArc
 50
180.0
 51
225.0
  0
ARC
  5
51B4
330
5154
100
AcDbEntity
  8
0
100
AcDbCircle
 10
184.37027
 20
-28.5
 30
0.0
 40
4.5
100
AcDbArc
 50
90.0
 51
270.0
  0
LINE
  5
51B5
330
5154
100
AcDbEntity
  8
0
100
AcDbLine
 10
184.37027
 20
-33.0
 30
0.0
 11
187.36
 21
-33.0
 31
0.0
  0
LINE
  5
51B6
330
5154
100
AcDbEntity
  8
0
100
AcDbLine
 10
184.37027
 20
-24.0
 30
0.0
 11
187.36
 21
-24.0
 31
0.0
  0
ARC
  5
51B7
330
5154
100
AcDbEntity
  8
0
100
AcDbCircle
 10
184.37027
 20
28.5
 30
0.0
 40
4.5
100
AcDbArc
 50
90.0
 51
270.0
  0
LINE
  5
51B8
330
5154
100
AcDbEntity
  8
0
100
AcDbLine
 10
184.37027
 20
24.0
 30
0.0
 11
187.36
 21
24.0
 31
0.0
  0
LINE
  5
51B9
330
5154
100
AcDbEntity
  8
0
100
AcDbLine
 10
184.37027
 20
33.0
 30
0.0
 11
187.36
 21
33.0
 31
0.0
  0
CIRCLE
  5
51BA
330
5154
100
AcDbEntity
  8
0
  6
Continuous
100
AcDbCircle
 10
84.370285
 20
39.0
 30
0.0
 40
5.25
  0
CIRCLE
  5
51BB
330
5154
100
AcDbEntity
  8
0
  6
Continuous
100
AcDbCircle
 10
84.370285
 20
-38.999962
 30
0.0
 40
5.25
  0
CIRCLE
  5
51BC
330
5154
100
AcDbEntity
  8
0
  6
Continuous
100
AcDbCircle
 10
180.37027
 20
-38.999962
 30
0.0
 40
5.25
  0
CIRCLE
  5
51BD
330
5154
100
AcDbEntity
  8
0
  6
Continuous
100
AcDbCircle
 10
180.37027
 20
39.0
 30
0.0
 40
5.25
  0
CIRCLE
  5
51BE
330
5154
100
AcDbEntity
  8
0
100
AcDbCircle
 10
184.37027
 20
28.5
 30
0.0
 40
3.799999999999998
  0
CIRCLE
  5
51BF
330
5154
100
AcDbEntity
  8
0
100
AcDbCircle
 10
184.37027
 20
28.5
 30
0.0
 40
3.5
  0
LINE
  5
51C0
330
5154
100
AcDbEntity
  8
0
100
AcDbLine
 10
186.170288
 20
28.5
 30
0.0
 11
185.30426
 21
30.0
 31
0.0
  0
LINE
  5
51C1
330
5154
100
AcDbEntity
  8
0
100
AcDbLine
 10
182.570282
 20
28.5
 30
0.0
 11
183.43631
 21
30.0
 31
0.0
  0
LINE
  5
51C2
330
5154
100
AcDbEntity
  8
0
100
AcDbLine
 10
186.170288
 20
28.5
 30
0.0
 11
185.30426
 21
27.0
 31
0.0
  0
LINE
  5
51C3
330
5154
100
AcDbEntity
  8
0
100
AcDbLine
 10
182.570282
 20
28.5
 30
0.0
 11
183.43631
 21
27.0
 31
0.0
  0
LINE
  5
51C4
330
5154
100
AcDbEntity
  8
0
100
AcDbLine
 10
185.30426
 20
27.0
 30
0.0
 11
183.43631
 21
27.0
 31
0.0
  0
LINE
  5
51C5
330
5154
100
AcDbEntity
  8
0
100
AcDbLine
 10
185.30426
 20
30.0
 30
0.0
 11
183.43631
 21
30.0
 31
0.0
  0
CIRCLE
  5
51C6
330
5154
100
AcDbEntity
  8
0
100
AcDbCircle
 10
184.37027
 20
-28.5
 30
0.0
 40
3.799999999999998
  0
CIRCLE
  5
51C7
330
5154
100
AcDbEntity
  8
0
100
AcDbCircle
 10
184.37027
 20
-28.5
 30
0.0
 40
3.5
  0
LINE
  5
51C8
330
5154
100
AcDbEntity
  8
0
100
AcDbLine
 10
186.170288
 20
-28.5
 30
0.0
 11
185.30426
 21
-27.0
 31
0.0
  0
LINE
  5
51C9
330
5154
100
AcDbEntity
  8
0
100
AcDbLine
 10
182.570282
 20
-28.5
 30
0.0
 11
183.43631
 21
-27.0
 31
0.0
  0
LINE
  5
51CA
330
5154
100
AcDbEntity
  8
0
100
AcDbLine
 10
186.170288
 20
-28.5
 30
0.0
 11
185.30426
 21
-30.0
 31
0.0
  0
LINE
  5
51CB
330
5154
100
AcDbEntity
  8
0
100
AcDbLine
 10
182.570282
 20
-28.5
 30
0.0
 11
183.43631
 21
-30.0
 31
0.0
  0
LINE
  5
51CC
330
5154
100
AcDbEntity
  8
0
100
AcDbLine
 10
185.30426
 20
-30.0
 30
0.0
 11
183.43631
 21
-30.0
 31
0.0
  0
LINE
  5
51CD
330
5154
100
AcDbEntity
  8
0
100
AcDbLine
 10
185.30426
 20
-27.0
 30
0.0
 11
183.43631
 21
-27.0
 31
0.0
  0
CIRCLE
  5
51CE
330
5154
100
AcDbEntity
  8
0
100
AcDbCircle
 10
80.37027
 20
-28.5
 30
0.0
 40
3.799999999999998
  0
CIRCLE
  5
51CF
330
5154
100
AcDbEntity
  8
0
100
AcDbCircle
 10
80.37027
 20
-28.5
 30
0.0
 40
3.5
  0
LINE
  5
51D0
330
5154
100
AcDbEntity
  8
0
100
AcDbLine
 10
82.170288
 20
-28.5
 30
0.0
 11
81.30426
 21
-27.0
 31
0.0
  0
LINE
  5
51D1
330
5154
100
AcDbEntity
  8
0
100
AcDbLine
 10
78.570282
 20
-28.5
 30
0.0
 11
79.43631
 21
-27.0
 31
0.0
  0
LINE
  5
51D2
330
5154
100
AcDbEntity
  8
0
100
AcDbLine
 10
82.170288
 20
-28.5
 30
0.0
 11
81.30426
 21
-30.0
 31
0.0
  0
LINE
  5
51D3
330
5154
100
AcDbEntity
  8
0
100
AcDbLine
 10
78.570282
 20
-28.5
 30
0.0
 11
79.43631
 21
-30.0
 31
0.0
  0
LINE
  5
51D4
330
5154
100
AcDbEntity
  8
0
100
AcDbLine
 10
81.30426
 20
-30.0
 30
0.0
 11
79.43631
 21
-30.0
 31
0.0
  0
LINE
  5
51D5
330
5154
100
AcDbEntity
  8
0
100
AcDbLine
 10
81.30426
 20
-27.0
 30
0.0
 11
79.43631
 21
-27.0
 31
0.0
  0
CIRCLE
  5
51D6
330
5154
100
AcDbEntity
  8
0
100
AcDbCircle
 10
80.37027
 20
28.5
 30
0.0
 40
3.799999999999998
  0
CIRCLE
  5
51D7
330
5154
100
AcDbEntity
  8
0
100
AcDbCircle
 10
80.37027
 20
28.5
 30
0.0
 40
3.5
  0
LINE
  5
51D8
330
5154
100
AcDbEntity
  8
0
100
AcDbLine
 10
82.170288
 20
28.5
 30
0.0
 11
81.30426
 21
30.0
 31
0.0
  0
LINE
  5
51D9
330
5154
100
AcDbEntity
  8
0
100
AcDbLine
 10
78.570282
 20
28.5
 30
0.0
 11
79.43631
 21
30.0
 31
0.0
  0
LINE
  5
51DA
330
5154
100
AcDbEntity
  8
0
100
AcDbLine
 10
82.170288
 20
28.5
 30
0.0
 11
81.30426
 21
27.0
 31
0.0
  0
LINE
  5
51DB
330
5154
100
AcDbEntity
  8
0
100
AcDbLine
 10
78.570282
 20
28.5
 30
0.0
 11
79.43631
 21
27.0
 31
0.0
  0
LINE
  5
51DC
330
5154
100
AcDbEntity
  8
0
100
AcDbLine
 10
81.30426
 20
27.0
 30
0.0
 11
79.43631
 21
27.0
 31
0.0
  0
LINE
  5
51DD
330
5154
100
AcDbEntity
  8
0
100
AcDbLine
 10
81.30426
 20
30.0
 30
0.0
 11
79.43631
 21
30.0
 31
0.0
  0
CIRCLE
  5
51DE
330
5154
100
AcDbEntity
  8
HOJO
100
AcDbCircle
 10
180.37027
 20
39.0
 30
0.0
 40
5.0
  0
CIRCLE
  5
51DF
330
5154
100
AcDbEntity
  8
HOJO
100
AcDbCircle
 10
84.37027
 20
39.0
 30
0.0
 40
5.0
  0
CIRCLE
  5
51E0
330
5154
100
AcDbEntity
  8
HOJO
100
AcDbCircle
 10
180.37027
 20
-39.0
 30
0.0
 40
5.0
  0
CIRCLE
  5
51E1
330
5154
100
AcDbEntity
  8
HOJO
100
AcDbCircle
 10
84.37027
 20
-39.0
 30
0.0
 40
5.0
  0
CIRCLE
  5
51E2
330
5154
100
AcDbEntity
  8
0
100
AcDbCircle
 10
180.37027
 20
39.0
 30
0.0
 40
4.2
  0
CIRCLE
  5
51E3
330
5154
100
AcDbEntity
  8
0
100
AcDbCircle
 10
84.37027
 20
39.0
 30
0.0
 40
4.2
  0
CIRCLE
  5
51E4
330
5154
100
AcDbEntity
  8
0
100
AcDbCircle
 10
180.37027
 20
-39.0
 30
0.0
 40
4.2
  0
CIRCLE
  5
51E5
330
5154
100
AcDbEntity
  8
0
100
AcDbCircle
 10
84.37027
 20
-39.0
 30
0.0
 40
4.2
  0
LINE
  5
51E6
330
5154
100
AcDbEntity
  8
0
100
AcDbLine
 10
179.87027
 20
-18.0
 30
0.0
 11
179.87027
 21
18.320496
 31
0.0
  0
LINE
  5
51E7
330
5154
100
AcDbEntity
  8
0
100
AcDbLine
 10
84.87027
 20
-18.0
 30
0.0
 11
84.87027
 21
18.320496
 31
0.0
  0
LINE
  5
51E8
330
5154
100
AcDbEntity
  8
0
100
AcDbLine
 10
109.87027
 20
-43.0
 30
0.0
 11
154.87027
 21
-43.0
 31
0.0
  0
LINE
  5
51E9
330
5154
100
AcDbEntity
  8
0
100
AcDbLine
 10
99.262009
 20
-37.53714
 30
0.0
 11
101.262009
 21
-36.850922
 31
0.0
  0
ARC
  5
51EA
330
5154
100
AcDbEntity
  8
0
100
AcDbCircle
 10
99.37027
 20
-37.5
 30
0.0
 40
2.0
100
AcDbArc
 50
0.0
 51
37.874985
  0
ARC
  5
51EB
330
5154
100
AcDbEntity
  8
0
100
AcDbCircle
 10
97.37027
 20
-38.186218
 30
0.0
 40
2.0
100
AcDbArc
 50
0.0
 51
37.874985
  0
ARC
  5
51EC
330
5154
100
AcDbEntity
  8
0
100
AcDbCircle
 10
109.87027
 20
-18.0
 30
0.0
 40
25.0
100
AcDbArc
 50
248.311188
 51
270.0
  0
LINE
  5
51ED
330
5154
100
AcDbEntity
  8
0
100
AcDbLine
 10
99.37027
 20
-38.186218
 30
0.0
 11
99.37027
 21
-39.371704
 31
0.0
  0
ARC
  5
51EE
330
5154
100
AcDbEntity
  8
0
100
AcDbCircle
 10
101.37027
 20
-39.371704
 30
0.0
 40
2.0
100
AcDbArc
 50
180.0
 51
248.311188
  0
LINE
  5
51EF
330
5154
100
AcDbEntity
  8
0
100
AcDbLine
 10
101.37027
 20
-37.5
 30
0.0
 11
101.37027
 21
-40.062408
 31
0.0
  0
ARC
  5
51F0
330
5154
100
AcDbEntity
  8
0
100
AcDbCircle
 10
103.37027
 20
-40.062408
 30
0.0
 40
2.0
100
AcDbArc
 50
180.0
 51
253.584045
  0
ARC
  5
51F1
330
5154
100
AcDbEntity
  8
0
100
AcDbCircle
 10
109.87027
 20
-18.0
 30
0.0
 40
25.0
100
AcDbArc
 50
180.0
 51
190.015411
  0
ARC
  5
51F2
330
5154
100
AcDbEntity
  8
0
100
AcDbCircle
 10
86.957398
 20
-20.0
 30
0.0
 40
2.0
100
AcDbArc
 50
184.988541
 51
270.0
  0
ARC
  5
51F3
330
5154
100
AcDbEntity
  8
0
100
AcDbCircle
 10
87.220764
 20
-22.0
 30
0.0
 40
2.0
100
AcDbArc
 50
190.015411
 51
270.0
  0
LINE
  5
51F4
330
5154
100
AcDbEntity
  8
0
100
AcDbLine
 10
89.47081
 20
-24.772125
 30
0.0
 11
98.948975
 21
-36.958328
 31
0.0
  0
LINE
  5
51F5
330
5154
100
AcDbEntity
  8
0
100
AcDbLine
 10
90.448975
 20
-22.772125
 30
0.0
 11
100.948975
 21
-36.272125
 31
0.0
  0
LINE
  5
51F6
330
5154
100
AcDbEntity
  8
0
100
AcDbLine
 10
88.87027
 20
-22.0
 30
0.0
 11
86.957398
 21
-22.0
 31
0.0
  0
LINE
  5
51F7
330
5154
100
AcDbEntity
  8
0
100
AcDbLine
 10
87.220764
 20
-24.0
 30
0.0
 11
87.892105
 21
-24.0
 31
0.0
  0
ARC
  5
51F8
330
5154
100
AcDbEntity
  8
0
100
AcDbCircle
 10
88.87027
 20
-24.0
 30
0.0
 40
2.0
100
AcDbArc
 50
37.874985
 51
90.0
  0
ARC
  5
51F9
330
5154
100
AcDbEntity
  8
0
100
AcDbCircle
 10
87.892105
 20
-26.0
 30
0.0
 40
2.0
100
AcDbArc
 50
37.874985
 51
90.0
  0
LINE
  5
51FA
330
5154
100
AcDbEntity
  8
0
100
AcDbLine
 10
88.770798
 20
-24.203369
 30
0.0
 11
89.748978
 21
-22.203369
 31
0.0
  0
LINE
  5
51FB
330
5154
100
AcDbEntity
  8
0
100
AcDbLine
 10
165.478516
 20
-37.53714
 30
0.0
 11
163.478516
 21
-36.850922
 31
0.0
  0
ARC
  5
51FC
330
5154
100
AcDbEntity
  8
0
100
AcDbCircle
 10
167.37027
 20
-38.186218
 30
0.0
 40
2.0
100
AcDbArc
 50
142.125015
 51
180.0
  0
ARC
  5
51FD
330
5154
100
AcDbEntity
  8
0
100
AcDbCircle
 10
165.37027
 20
-37.5
 30
0.0
 40
2.0
100
AcDbArc
 50
142.125015
 51
180.0
  0
ARC
  5
51FE
330
5154
100
AcDbEntity
  8
0
100
AcDbCircle
 10
161.37027
 20
-40.062408
 30
0.0
 40
2.0
100
AcDbArc
 50
286.415962
 51
0.0
  0
ARC
  5
51FF
330
5154
100
AcDbEntity
  8
0
100
AcDbCircle
 10
154.87027
 20
-18.0
 30
0.0
 40
25.0
100
AcDbArc
 50
270.0
 51
291.688812
  0
LINE
  5
5200
330
5154
100
AcDbEntity
  8
0
100
AcDbLine
 10
163.37027
 20
-37.5
 30
0.0
 11
163.37027
 21
-40.062408
 31
0.0
  0
ARC
  5
5201
330
5154
100
AcDbEntity
  8
0
100
AcDbCircle
 10
163.37027
 20
-39.371704
 30
0.0
 40
2.0
100
AcDbArc
 50
291.688805
 51
0.0
  0
LINE
  5
5202
330
5154
100
AcDbEntity
  8
0
100
AcDbLine
 10
165.37027
 20
-38.186218
 30
0.0
 11
165.37027
 21
-39.371704
 31
0.0
  0
ARC
  5
5203
330
5154
100
AcDbEntity
  8
0
100
AcDbCircle
 10
154.87027
 20
-18.0
 30
0.0
 40
25.0
100
AcDbArc
 50
349.98459
 51
0.0
  0
LINE
  5
5204
330
5154
100
AcDbEntity
  8
0
100
AcDbLine
 10
175.87027
 20
-22.0
 30
0.0
 11
177.783142
 21
-22.0
 31
0.0
  0
LINE
  5
5205
330
5154
100
AcDbEntity
  8
0
100
AcDbLine
 10
177.519776
 20
-24.0
 30
0.0
 11
176.84845
 21
-24.0
 31
0.0
  0
LINE
  5
5206
330
5154
100
AcDbEntity
  8
0
100
AcDbLine
 10
175.269745
 20
-24.772125
 30
0.0
 11
165.791565
 21
-36.958328
 31
0.0
  0
LINE
  5
5207
330
5154
100
AcDbEntity
  8
0
100
AcDbLine
 10
174.291565
 20
-22.772125
 30
0.0
 11
163.791565
 21
-36.272125
 31
0.0
  0
ARC
  5
5208
330
5154
100
AcDbEntity
  8
0
100
AcDbCircle
 10
175.87027
 20
-24.0
 30
0.0
 40
2.0
100
AcDbArc
 50
90.0
 51
142.125015
  0
ARC
  5
5209
330
5154
100
AcDbEntity
  8
0
100
AcDbCircle
 10
176.84845
 20
-26.0
 30
0.0
 40
2.0
100
AcDbArc
 50
90.0
 51
142.125015
  0
LINE
  5
520A
330
5154
100
AcDbEntity
  8
0
100
AcDbLine
 10
175.969727
 20
-24.203369
 30
0.0
 11
174.991577
 21
-22.203369
 31
0.0
  0
ARC
  5
520B
330
5154
100
AcDbEntity
  8
0
100
AcDbCircle
 10
177.783142
 20
-20.0
 30
0.0
 40
2.0
100
AcDbArc
 50
270.0
 51
355.011444
  0
ARC
  5
520C
330
5154
100
AcDbEntity
  8
0
100
AcDbCircle
 10
177.519776
 20
-22.0
 30
0.0
 40
2.0
100
AcDbArc
 50
270.0
 51
349.984589
  0
LINE
  5
520D
330
5154
100
AcDbEntity
  8
0
100
AcDbLine
 10
154.87027
 20
43.0
 30
0.0
 11
109.87027
 21
43.0
 31
0.0
  0
LINE
  5
520E
330
5154
100
AcDbEntity
  8
0
100
AcDbLine
 10
89.47081
 20
24.772125
 30
0.0
 11
98.948975
 21
36.958344
 31
0.0
  0
LINE
  5
520F
330
5154
100
AcDbEntity
  8
0
100
AcDbLine
 10
90.448975
 20
22.772125
 30
0.0
 11
100.948975
 21
36.272125
 31
0.0
  0
ARC
  5
5210
330
5154
100
AcDbEntity
  8
0
100
AcDbCircle
 10
86.957398
 20
20.0
 30
0.0
 40
2.0
100
AcDbArc
 50
90.0
 51
175.011459
  0
ARC
  5
5211
330
5154
100
AcDbEntity
  8
0
100
AcDbCircle
 10
87.220764
 20
22.0
 30
0.0
 40
2.0
100
AcDbArc
 50
90.0
 51
169.984589
  0
ARC
  5
5212
330
5154
100
AcDbEntity
  8
0
100
AcDbCircle
 10
109.87027
 20
18.0
 30
0.0
 40
25.0
100
AcDbArc
 50
169.984589
 51
180.0
  0
ARC
  5
5213
330
5154
100
AcDbEntity
  8
0
100
AcDbCircle
 10
88.87027
 20
24.0
 30
0.0
 40
2.0
100
AcDbArc
 50
270.0
 51
322.125031
  0
LINE
  5
5214
330
5154
100
AcDbEntity
  8
0
100
AcDbLine
 10
88.770798
 20
24.203369
 30
0.0
 11
89.748978
 21
22.203369
 31
0.0
  0
LINE
  5
5215
330
5154
100
AcDbEntity
  8
0
100
AcDbLine
 10
88.87027
 20
22.0
 30
0.0
 11
86.957398
 21
22.0
 31
0.0
  0
LINE
  5
5216
330
5154
100
AcDbEntity
  8
0
100
AcDbLine
 10
87.220764
 20
24.0
 30
0.0
 11
87.892105
 21
24.0
 31
0.0
  0
ARC
  5
5217
330
5154
100
AcDbEntity
  8
0
100
AcDbCircle
 10
87.892105
 20
26.0
 30
0.0
 40
2.0
100
AcDbArc
 50
270.0
 51
322.125031
  0
ARC
  5
5218
330
5154
100
AcDbEntity
  8
0
100
AcDbCircle
 10
99.37027
 20
37.5
 30
0.0
 40
2.0
100
AcDbArc
 50
322.125015
 51
0.0
  0
LINE
  5
5219
330
5154
100
AcDbEntity
  8
0
100
AcDbLine
 10
99.262009
 20
37.53714
 30
0.0
 11
101.262009
 21
36.850922
 31
0.0
  0
ARC
  5
521A
330
5154
100
AcDbEntity
  8
0
100
AcDbCircle
 10
109.87027
 20
18.0
 30
0.0
 40
25.0
100
AcDbArc
 50
90.0
 51
111.688805
  0
ARC
  5
521B
330
5154
100
AcDbEntity
  8
0
100
AcDbCircle
 10
101.37027
 20
39.371704
 30
0.0
 40
2.0
100
AcDbArc
 50
111.688805
 51
180.0
  0
LINE
  5
521C
330
5154
100
AcDbEntity
  8
0
100
AcDbLine
 10
99.37027
 20
38.186218
 30
0.0
 11
99.37027
 21
39.371704
 31
0.0
  0
ARC
  5
521D
330
5154
100
AcDbEntity
  8
0
100
AcDbCircle
 10
97.37027
 20
38.186218
 30
0.0
 40
2.0
100
AcDbArc
 50
322.125015
 51
0.0
  0
LINE
  5
521E
330
5154
100
AcDbEntity
  8
0
100
AcDbLine
 10
101.37027
 20
37.5
 30
0.0
 11
101.37027
 21
40.062408
 31
0.0
  0
ARC
  5
521F
330
5154
100
AcDbEntity
  8
0
100
AcDbCircle
 10
103.37027
 20
40.062408
 30
0.0
 40
2.0
100
AcDbArc
 50
106.415962
 51
180.0
  0
LINE
  5
5220
330
5154
100
AcDbEntity
  8
0
100
AcDbLine
 10
175.269745
 20
24.772125
 30
0.0
 11
165.791565
 21
36.958344
 31
0.0
  0
LINE
  5
5221
330
5154
100
AcDbEntity
  8
0
100
AcDbLine
 10
174.291565
 20
22.772125
 30
0.0
 11
163.791565
 21
36.272125
 31
0.0
  0
LINE
  5
5222
330
5154
100
AcDbEntity
  8
0
100
AcDbLine
 10
177.519776
 20
24.0
 30
0.0
 11
176.84845
 21
24.0
 31
0.0
  0
LINE
  5
5223
330
5154
100
AcDbEntity
  8
0
100
AcDbLine
 10
175.87027
 20
22.0
 30
0.0
 11
177.783142
 21
22.0
 31
0.0
  0
ARC
  5
5224
330
5154
100
AcDbEntity
  8
0
100
AcDbCircle
 10
175.87027
 20
24.0
 30
0.0
 40
2.0
100
AcDbArc
 50
217.874985
 51
270.0
  0
LINE
  5
5225
330
5154
100
AcDbEntity
  8
0
100
AcDbLine
 10
175.969727
 20
24.203369
 30
0.0
 11
174.991577
 21
22.203369
 31
0.0
  0
ARC
  5
5226
330
5154
100
AcDbEntity
  8
0
100
AcDbCircle
 10
176.84845
 20
26.0
 30
0.0
 40
2.0
100
AcDbArc
 50
217.874985
 51
270.0
  0
ARC
  5
5227
330
5154
100
AcDbEntity
  8
0
100
AcDbCircle
 10
177.519776
 20
22.0
 30
0.0
 40
2.0
100
AcDbArc
 50
10.01541
 51
90.0
  0
ARC
  5
5228
330
5154
100
AcDbEntity
  8
0
100
AcDbCircle
 10
177.783142
 20
20.0
 30
0.0
 40
2.0
100
AcDbArc
 50
4.988542
 51
90.0
  0
ARC
  5
5229
330
5154
100
AcDbEntity
  8
0
100
AcDbCircle
 10
154.87027
 20
18.0
 30
0.0
 40
25.0
100
AcDbArc
 50
0.0
 51
10.01541
  0
ARC
  5
522A
330
5154
100
AcDbEntity
  8
0
100
AcDbCircle
 10
161.37027
 20
40.062408
 30
0.0
 40
2.0
100
AcDbArc
 50
0.0
 51
73.584038
  0
ARC
  5
522B
330
5154
100
AcDbEntity
  8
0
100
AcDbCircle
 10
154.87027
 20
18.0
 30
0.0
 40
25.0
100
AcDbArc
 50
68.311195
 51
90.0
  0
ARC
  5
522C
330
5154
100
AcDbEntity
  8
0
100
AcDbCircle
 10
163.37027
 20
39.371704
 30
0.0
 40
2.0
100
AcDbArc
 50
0.0
 51
68.311195
  0
LINE
  5
522D
330
5154
100
AcDbEntity
  8
0
100
AcDbLine
 10
163.37027
 20
37.5
 30
0.0
 11
163.37027
 21
40.062408
 31
0.0
  0
LINE
  5
522E
330
5154
100
AcDbEntity
  8
0
100
AcDbLine
 10
165.37027
 20
38.186218
 30
0.0
 11
165.37027
 21
39.371704
 31
0.0
  0
LINE
  5
522F
330
5154
100
AcDbEntity
  8
0
100
AcDbLine
 10
165.478516
 20
37.53714
 30
0.0
 11
163.478516
 21
36.850922
 31
0.0
  0
ARC
  5
5230
330
5154
100
AcDbEntity
  8
0
100
AcDbCircle
 10
165.37027
 20
37.5
 30
0.0
 40
2.0
100
AcDbArc
 50
180.0
 51
217.874985
  0
ARC
  5
5231
330
5154
100
AcDbEntity
  8
0
100
AcDbCircle
 10
167.37027
 20
38.186218
 30
0.0
 40
2.0
100
AcDbArc
 50
180.0
 51
217.874985
  0
ARC
  5
5232
330
5154
100
AcDbEntity
  8
0
100
AcDbCircle
 10
85.1284230626
 20
-40.2224888727
 30
0.0
 40
9.150858197714477
100
AcDbArc
 50
178.6068050225
 51
240.5119553746
  0
ARC
  5
5233
330
5154
100
AcDbEntity
  8
0
100
AcDbCircle
 10
84.36
 20
40.0
 30
0.0
 40
9.0
100
AcDbArc
 50
49.052811545
 51
117.0437045388
  0
ARC
  5
5234
330
5154
100
AcDbEntity
  8
0
100
AcDbCircle
 10
85.1284230626
 20
40.2224888727
 30
0.0
 40
9.150858197714477
100
AcDbArc
 50
119.4880446254
 51
181.3931949775
  0
ENDBLK
  5
5235
330
5154
100
AcDbEntity
  8
0
100
AcDbBlockEnd
  0
BLOCK
  5
523F
330
523C
100
AcDbEntity
  8
0
100
AcDbBlockBegin
  2
A$C0221c00d
 70
     0
 10
0.0
 20
0.0
 30
0.0
  3
A$C0221c00d
  1

  0
LINE
  5
5240
330
523C
100
AcDbEntity
  8
0
100
AcDbLine
 10
0.0
 20
-34.4093010682
 30
0.0
 11
-75.3703
 21
-34.4093010682
 31
0.0
  0
LINE
  5
5241
330
523C
100
AcDbEntity
  8
0
100
AcDbLine
 10
0.0
 20
34.4093010682
 30
0.0
 11
-75.3703
 21
34.4093010682
 31
0.0
  0
LINE
  5
5242
330
523C
100
AcDbEntity
  8
0
100
AcDbLine
 10
-73.8893356544
 20
45.0
 30
0.0
 11
0.0
 21
45.0
 31
0.0
  0
ARC
  5
5243
330
523C
100
AcDbEntity
  8
0
100
AcDbCircle
 10
-73.8893356544
 20
47.0
 30
0.0
 40
2.0
100
AcDbArc
 50
242.9562954612
 51
270.0
  0
ARC
  5
5244
330
523C
100
AcDbEntity
  8
0
100
AcDbCircle
 10
-180.3703
 20
-40.0
 30
0.0
 40
9.0
100
AcDbArc
 50
180.0
 51
310.947188455
  0
LINE
  5
5245
330
523C
100
AcDbEntity
  8
0
100
AcDbLine
 10
-180.3703
 20
-49.0
 30
0.0
 11
-84.3703
 21
-49.0
 31
0.0
  0
LINE
  5
5246
330
523C
100
AcDbEntity
  8
0
100
AcDbLine
 10
-189.3703
 20
40.0
 30
0.0
 11
-189.3703
 21
-40.0
 31
0.0
  0
LINE
  5
5247
330
523C
100
AcDbEntity
  8
0
100
AcDbLine
 10
-75.3703
 20
40.0
 30
0.0
 11
-75.3703
 21
21.8284421707
 31
0.0
  0
ARC
  5
5248
330
523C
100
AcDbEntity
  8
0
100
AcDbCircle
 10
-150.8703
 20
-16.5
 30
0.0
 40
34.0
100
AcDbArc
 50
240.5450656692
 51
247.0804578484
  0
ARC
  5
5249
330
523C
100
AcDbEntity
  8
0
100
AcDbCircle
 10
-158.2696242935
 20
-34.0
 30
0.0
 40
15.0
100
AcDbArc
 50
247.0804578484
 51
270.0
  0
ARC
  5
524A
330
523C
100
AcDbEntity
  8
0
100
AcDbCircle
 10
-170.5398533815
 20
-51.329709585
 30
0.0
 40
6.0
100
AcDbArc
 50
60.5450656692
 51
130.947188455
  0
ARC
  5
524B
330
523C
100
AcDbEntity
  8
0
100
AcDbCircle
 10
-106.4709757065
 20
-34.0
 30
0.0
 40
15.0
100
AcDbArc
 50
270.0
 51
292.9195421516
  0
ARC
  5
524C
330
523C
100
AcDbEntity
  8
0
100
AcDbCircle
 10
-94.2007466185
 20
-51.329709585
 30
0.0
 40
6.0
100
AcDbArc
 50
49.052811545
 51
119.4549343308
  0
ARC
  5
524D
330
523C
100
AcDbEntity
  8
0
100
AcDbCircle
 10
-113.8703
 20
-16.5
 30
0.0
 40
34.0
100
AcDbArc
 50
292.9195421516
 51
299.4549343308
  0
LINE
  5
524E
330
523C
100
AcDbEntity
  8
0
100
AcDbLine
 10
-180.3703
 20
49.0
 30
0.0
 11
-84.3703
 21
49.0
 31
0.0
  0
ARC
  5
524F
330
523C
100
AcDbEntity
  8
0
100
AcDbCircle
 10
-158.2696242935
 20
34.0
 30
0.0
 40
15.0
100
AcDbArc
 50
90.0
 51
112.9195421516
  0
ARC
  5
5250
330
523C
100
AcDbEntity
  8
0
100
AcDbCircle
 10
-180.3703
 20
40.0
 30
0.0
 40
9.0
100
AcDbArc
 50
49.052811545
 51
180.0
  0
ARC
  5
5251
330
523C
100
AcDbEntity
  8
0
100
AcDbCircle
 10
-170.5398533815
 20
51.329709585
 30
0.0
 40
6.0
100
AcDbArc
 50
229.052811545
 51
299.4549343308
  0
ARC
  5
5252
330
523C
100
AcDbEntity
  8
0
100
AcDbCircle
 10
-150.8703
 20
16.5
 30
0.0
 40
34.0
100
AcDbArc
 50
112.9195421516
 51
119.4549343308
  0
ARC
  5
5253
330
523C
100
AcDbEntity
  8
0
100
AcDbCircle
 10
-84.3703
 20
40.0
 30
0.0
 40
9.0
100
AcDbArc
 50
0.0
 51
130.947188455
  0
ARC
  5
5254
330
523C
100
AcDbEntity
  8
0
100
AcDbCircle
 10
-106.4709757065
 20
34.0
 30
0.0
 40
15.0
100
AcDbArc
 50
67.0804578484
 51
90.0
  0
ARC
  5
5255
330
523C
100
AcDbEntity
  8
0
100
AcDbCircle
 10
-113.8703
 20
16.5
 30
0.0
 40
34.0
100
AcDbArc
 50
60.5450656692
 51
67.0804578484
  0
ARC
  5
5256
330
523C
100
AcDbEntity
  8
0
100
AcDbCircle
 10
-94.2007466185
 20
51.329709585
 30
0.0
 40
6.0
100
AcDbArc
 50
240.5450656692
 51
310.947188455
  0
LINE
  5
5257
330
523C
100
AcDbEntity
  8
0
100
AcDbLine
 10
-75.3703
 20
-40.0
 30
0.0
 11
-75.3703
 21
-21.8284421707
 31
0.0
  0
LINE
  5
5258
330
523C
100
AcDbEntity
  8
0
100
AcDbLine
 10
-73.8893356544
 20
-45.0
 30
0.0
 11
0.0
 21
-45.0
 31
0.0
  0
LINE
  5
5259
330
523C
100
AcDbEntity
  8
0
100
AcDbLine
 10
-184.8701844159
 20
15.6715578293
 30
0.0
 11
-184.8701844159
 21
-15.6715578293
 31
0.0
  0
ARC
  5
525A
330
523C
100
AcDbEntity
  8
0
100
AcDbCircle
 10
-186.8701844159
 20
-15.6715578293
 30
0.0
 40
2.0
100
AcDbArc
 50
314.9992641783
 51
0.0
  0
LINE
  5
525B
330
523C
100
AcDbEntity
  8
0
100
AcDbLine
 10
-188.7844954002
 20
-20.4142104464
 30
0.0
 11
-185.4559890157
 21
-17.0857895536
 31
0.0
  0
ARC
  5
525C
330
523C
100
AcDbEntity
  8
0
100
AcDbCircle
 10
-187.3703
 20
-21.8284421707
 30
0.0
 40
2.0
100
AcDbArc
 50
134.9992641783
 51
180.0
  0
ARC
  5
525D
330
523C
100
AcDbEntity
  8
0
100
AcDbCircle
 10
-186.8701844159
 20
15.6715578293
 30
0.0
 40
2.0
100
AcDbArc
 50
0.0
 51
45.0007358217
  0
LINE
  5
525E
330
523C
100
AcDbEntity
  8
0
100
AcDbLine
 10
-188.7844954002
 20
20.4142104464
 30
0.0
 11
-185.4559890157
 21
17.0857895536
 31
0.0
  0
ARC
  5
525F
330
523C
100
AcDbEntity
  8
0
100
AcDbCircle
 10
-187.3703
 20
21.8284421707
 30
0.0
 40
2.0
100
AcDbArc
 50
180.0
 51
225.0007358217
  0
LINE
  5
5260
330
523C
100
AcDbEntity
  8
0
100
AcDbLine
 10
-79.8704155841
 20
15.6715578293
 30
0.0
 11
-79.8704155841
 21
-15.6715578293
 31
0.0
  0
ARC
  5
5261
330
523C
100
AcDbEntity
  8
0
100
AcDbCircle
 10
-77.8704155841
 20
-15.6715578293
 30
0.0
 40
2.0
100
AcDbArc
 50
180.0
 51
225.0007358217
  0
LINE
  5
5262
330
523C
100
AcDbEntity
  8
0
100
AcDbLine
 10
-75.9561045998
 20
-20.4142104464
 30
0.0
 11
-79.2846109843
 21
-17.0857895536
 31
0.0
  0
ARC
  5
5263
330
523C
100
AcDbEntity
  8
0
100
AcDbCircle
 10
-77.3703
 20
-21.8284421707
 30
0.0
 40
2.0
100
AcDbArc
 50
0.0
 51
45.0007358217
  0
ARC
  5
5264
330
523C
100
AcDbEntity
  8
0
100
AcDbCircle
 10
-77.8704155841
 20
15.6715578293
 30
0.0
 40
2.0
100
AcDbArc
 50
134.9992641783
 51
180.0
  0
LINE
  5
5265
330
523C
100
AcDbEntity
  8
0
100
AcDbLine
 10
-75.9561045998
 20
20.4142104464
 30
0.0
 11
-79.2846109843
 21
17.0857895536
 31
0.0
  0
ARC
  5
5266
330
523C
100
AcDbEntity
  8
0
100
AcDbCircle
 10
-77.3703
 20
21.8284421707
 30
0.0
 40
2.0
100
AcDbArc
 50
314.9992641783
 51
0.0
  0
ARC
  5
5267
330
523C
100
AcDbEntity
  8
0
100
AcDbCircle
 10
-84.3703
 20
-40.0
 30
0.0
 40
9.0
100
AcDbArc
 50
229.052811545
 51
0.0
  0
LINE
  5
5268
330
523C
100
AcDbEntity
  8
0
100
AcDbLine
 10
-74.7986756879
 20
45.2186800671
 30
0.0
 11
-80.2782698491
 21
48.0159396981
 31
0.0
  0
ARC
  5
5269
330
523C
100
AcDbEntity
  8
0
100
AcDbCircle
 10
-73.8893356544
 20
-47.0
 30
0.0
 40
2.0
100
AcDbArc
 50
90.0
 51
117.0437045388
  0
LINE
  5
526A
330
523C
100
AcDbEntity
  8
0
100
AcDbLine
 10
-74.7986756879
 20
-45.2186800671
 30
0.0
 11
-80.2782698491
 21
-48.0159396981
 31
0.0
  0
CIRCLE
  5
526B
330
523C
100
AcDbEntity
  8
0
  6
Continuous
100
AcDbCircle
 10
-144.8703
 20
0.0
 30
0.0
 40
25.548
  0
CIRCLE
  5
526C
330
523C
100
AcDbEntity
  8
0
  6
Continuous
100
AcDbCircle
 10
-144.8703
 20
0.0
 30
0.0
 40
23.0
  0
CIRCLE
  5
526D
330
523C
100
AcDbEntity
  8
0
  6
Continuous
100
AcDbCircle
 10
-144.8703
 20
0.0
 30
0.0
 40
17.5
  0
CIRCLE
  5
526E
330
523C
100
AcDbEntity
  8
0
  6
Continuous
100
AcDbCircle
 10
-144.8703
 20
0.0
 30
0.0
 40
19.5
  0
CIRCLE
  5
526F
330
523C
100
AcDbEntity
  8
0
100
AcDbCircle
 10
-84.3703
 20
39.0
 30
0.0
 40
4.2
  0
CIRCLE
  5
5270
330
523C
100
AcDbEntity
  8
0
100
AcDbCircle
 10
-180.3703
 20
39.0
 30
0.0
 40
4.2
  0
CIRCLE
  5
5271
330
523C
100
AcDbEntity
  8
0
100
AcDbCircle
 10
-84.3703
 20
-39.0
 30
0.0
 40
4.2
  0
CIRCLE
  5
5272
330
523C
100
AcDbEntity
  8
0
100
AcDbCircle
 10
-180.3703
 20
-39.0
 30
0.0
 40
4.2
  0
CIRCLE
  5
5273
330
523C
100
AcDbEntity
  8
HOJO
100
AcDbCircle
 10
-84.3703
 20
39.0
 30
0.0
 40
5.0
  0
CIRCLE
  5
5274
330
523C
100
AcDbEntity
  8
HOJO
100
AcDbCircle
 10
-180.3703
 20
39.0
 30
0.0
 40
5.0
  0
CIRCLE
  5
5275
330
523C
100
AcDbEntity
  8
HOJO
100
AcDbCircle
 10
-180.3703
 20
-39.0
 30
0.0
 40
5.0
  0
CIRCLE
  5
5276
330
523C
100
AcDbEntity
  8
HOJO
100
AcDbCircle
 10
-84.3703
 20
-39.0
 30
0.0
 40
5.0
  0
LINE
  5
5277
330
523C
100
AcDbEntity
  8
CENTER
100
AcDbLine
 10
-172.391662
 20
39.0
 30
0.0
 11
-188.348938
 21
39.0
 31
0.0
  0
LINE
  5
5278
330
523C
100
AcDbEntity
  8
CENTER
100
AcDbLine
 10
-180.3703
 20
46.978638
 30
0.0
 11
-180.3703
 21
31.021362
 31
0.0
  0
LINE
  5
5279
330
523C
100
AcDbEntity
  8
CENTER
100
AcDbLine
 10
-76.391662
 20
39.0
 30
0.0
 11
-92.348938
 21
39.0
 31
0.0
  0
LINE
  5
527A
330
523C
100
AcDbEntity
  8
CENTER
100
AcDbLine
 10
-84.3703
 20
46.978638
 30
0.0
 11
-84.3703
 21
31.021362
 31
0.0
  0
LINE
  5
527B
330
523C
100
AcDbEntity
  8
CENTER
100
AcDbLine
 10
-76.391662
 20
-39.0
 30
0.0
 11
-92.348938
 21
-39.0
 31
0.0
  0
LINE
  5
527C
330
523C
100
AcDbEntity
  8
CENTER
100
AcDbLine
 10
-84.3703
 20
-31.021362
 30
0.0
 11
-84.3703
 21
-46.978638
 31
0.0
  0
LINE
  5
527D
330
523C
100
AcDbEntity
  8
CENTER
100
AcDbLine
 10
-172.391662
 20
-39.0
 30
0.0
 11
-188.348938
 21
-39.0
 31
0.0
  0
LINE
  5
527E
330
523C
100
AcDbEntity
  8
CENTER
100
AcDbLine
 10
-180.3703
 20
-31.021362
 30
0.0
 11
-180.3703
 21
-46.978638
 31
0.0
  0
LINE
  5
527F
330
523C
100
AcDbEntity
  8
CENTER
100
AcDbLine
 10
-144.8703
 20
33.6821635
 30
0.0
 11
-144.8703
 21
-33.6821635
 31
0.0
  0
LINE
  5
5280
330
523C
100
AcDbEntity
  8
CENTER
100
AcDbLine
 10
-146.8674436841
 20
0.0
 30
0.0
 11
-142.8731563159
 21
0.0
 31
0.0
  0
LINE
  5
5281
330
523C
100
AcDbEntity
  8
0
100
AcDbLine
 10
-150.3703
 20
3.0
 30
0.0
 11
-150.3703
 21
-3.0
 31
0.0
  0
LINE
  5
5282
330
523C
100
AcDbEntity
  8
0
100
AcDbLine
 10
-156.3703
 20
3.0
 30
0.0
 11
-156.3703
 21
-3.0
 31
0.0
  0
ARC
  5
5283
330
523C
100
AcDbEntity
  8
0
100
AcDbCircle
 10
-144.8703
 20
0.0
 30
0.0
 40
9.0
100
AcDbArc
 50
199.471222
 51
160.528778
  0
ARC
  5
5284
330
523C
100
AcDbEntity
  8
0
100
AcDbCircle
 10
-144.8703
 20
0.0
 30
0.0
 40
10.0
100
AcDbArc
 50
197.457596
 51
162.542404
  0
LINE
  5
5285
330
523C
100
AcDbEntity
  8
0
100
AcDbLine
 10
-150.3703
 20
-3.0
 30
0.0
 11
-156.3703
 21
-3.0
 31
0.0
  0
LINE
  5
5286
330
523C
100
AcDbEntity
  8
0
100
AcDbLine
 10
-150.3703
 20
3.0
 30
0.0
 11
-156.3703
 21
3.0
 31
0.0
  0
LINE
  5
5287
330
523C
100
AcDbEntity
  8
0
100
AcDbLine
 10
-179.8703
 20
-18.0
 30
0.0
 11
-179.8703
 21
18.320496
 31
0.0
  0
LINE
  5
5288
330
523C
100
AcDbEntity
  8
0
100
AcDbLine
 10
-84.8703
 20
-18.0
 30
0.0
 11
-84.8703
 21
18.320496
 31
0.0
  0
ARC
  5
5289
330
523C
100
AcDbEntity
  8
0
100
AcDbCircle
 10
-87.220825
 20
-22.0
 30
0.0
 40
2.0
100
AcDbArc
 50
270.0
 51
349.98459
  0
ARC
  5
528A
330
523C
100
AcDbEntity
  8
0
100
AcDbCircle
 10
-86.957397
 20
-20.0
 30
0.0
 40
2.0
100
AcDbArc
 50
270.0
 51
355.011458
  0
LINE
  5
528B
330
523C
100
AcDbEntity
  8
0
100
AcDbLine
 10
-109.8703
 20
-43.0
 30
0.0
 11
-154.8703
 21
-43.0
 31
0.0
  0
ARC
  5
528C
330
523C
100
AcDbEntity
  8
0
100
AcDbCircle
 10
-161.3703
 20
-40.062408
 30
0.0
 40
2.0
100
AcDbArc
 50
180.0
 51
253.584045
  0
ARC
  5
528D
330
523C
100
AcDbEntity
  8
0
100
AcDbCircle
 10
-163.3703
 20
-39.371704
 30
0.0
 40
2.0
100
AcDbArc
 50
180.0
 51
248.311188
  0
ARC
  5
528E
330
523C
100
AcDbEntity
  8
0
100
AcDbCircle
 10
-154.8703
 20
-18.0
 30
0.0
 40
25.0
100
AcDbArc
 50
248.311188
 51
270.0
  0
ARC
  5
528F
330
523C
100
AcDbEntity
  8
0
100
AcDbCircle
 10
-154.8703
 20
-18.0
 30
0.0
 40
25.0
100
AcDbArc
 50
180.0
 51
190.015411
  0
LINE
  5
5290
330
523C
100
AcDbEntity
  8
0
100
AcDbLine
 10
-165.478576
 20
-37.53714
 30
0.0
 11
-163.478576
 21
-36.850922
 31
0.0
  0
LINE
  5
5291
330
523C
100
AcDbEntity
  8
0
100
AcDbLine
 10
-174.291626
 20
-22.772125
 30
0.0
 11
-163.791626
 21
-36.272125
 31
0.0
  0
LINE
  5
5292
330
523C
100
AcDbEntity
  8
0
100
AcDbLine
 10
-175.269775
 20
-24.772125
 30
0.0
 11
-165.791626
 21
-36.958328
 31
0.0
  0
ARC
  5
5293
330
523C
100
AcDbEntity
  8
0
100
AcDbCircle
 10
-167.3703
 20
-38.186218
 30
0.0
 40
2.0
100
AcDbArc
 50
0.0
 51
37.874985
  0
LINE
  5
5294
330
523C
100
AcDbEntity
  8
0
100
AcDbLine
 10
-165.3703
 20
-38.186218
 30
0.0
 11
-165.3703
 21
-39.371704
 31
0.0
  0
ARC
  5
5295
330
523C
100
AcDbEntity
  8
0
100
AcDbCircle
 10
-175.8703
 20
-24.0
 30
0.0
 40
2.0
100
AcDbArc
 50
37.874985
 51
90.0
  0
LINE
  5
5296
330
523C
100
AcDbEntity
  8
0
100
AcDbLine
 10
-175.969787
 20
-24.203369
 30
0.0
 11
-174.991577
 21
-22.203369
 31
0.0
  0
ARC
  5
5297
330
523C
100
AcDbEntity
  8
0
100
AcDbCircle
 10
-176.848449
 20
-26.0
 30
0.0
 40
2.0
100
AcDbArc
 50
37.874985
 51
90.0
  0
ARC
  5
5298
330
523C
100
AcDbEntity
  8
0
100
AcDbCircle
 10
-177.519775
 20
-22.0
 30
0.0
 40
2.0
100
AcDbArc
 50
190.015411
 51
270.0
  0
ARC
  5
5299
330
523C
100
AcDbEntity
  8
0
100
AcDbCircle
 10
-177.783203
 20
-20.0
 30
0.0
 40
2.0
100
AcDbArc
 50
184.988541
 51
270.0
  0
LINE
  5
529A
330
523C
100
AcDbEntity
  8
0
100
AcDbLine
 10
-175.8703
 20
-22.0
 30
0.0
 11
-177.783203
 21
-22.0
 31
0.0
  0
LINE
  5
529B
330
523C
100
AcDbEntity
  8
0
100
AcDbLine
 10
-177.519775
 20
-24.0
 30
0.0
 11
-176.848449
 21
-24.0
 31
0.0
  0
ARC
  5
529C
330
523C
100
AcDbEntity
  8
0
100
AcDbCircle
 10
-165.3703
 20
-37.5
 30
0.0
 40
2.0
100
AcDbArc
 50
0.0
 51
37.874985
  0
LINE
  5
529D
330
523C
100
AcDbEntity
  8
0
100
AcDbLine
 10
-163.3703
 20
-37.5
 30
0.0
 11
-163.3703
 21
-40.062408
 31
0.0
  0
ARC
  5
529E
330
523C
100
AcDbEntity
  8
0
100
AcDbCircle
 10
-103.3703
 20
-40.062408
 30
0.0
 40
2.0
100
AcDbArc
 50
286.415962
 51
0.0
  0
ARC
  5
529F
330
523C
100
AcDbEntity
  8
0
100
AcDbCircle
 10
-101.3703
 20
-39.371704
 30
0.0
 40
2.0
100
AcDbArc
 50
291.688805
 51
0.0
  0
ARC
  5
52A0
330
523C
100
AcDbEntity
  8
0
100
AcDbCircle
 10
-109.8703
 20
-18.0
 30
0.0
 40
25.0
100
AcDbArc
 50
270.0
 51
291.688812
  0
ARC
  5
52A1
330
523C
100
AcDbEntity
  8
0
100
AcDbCircle
 10
-99.3703
 20
-37.5
 30
0.0
 40
2.0
100
AcDbArc
 50
142.125015
 51
180.0
  0
LINE
  5
52A2
330
523C
100
AcDbEntity
  8
0
100
AcDbLine
 10
-99.262024
 20
-37.53714
 30
0.0
 11
-101.262024
 21
-36.850922
 31
0.0
  0
LINE
  5
52A3
330
523C
100
AcDbEntity
  8
0
100
AcDbLine
 10
-101.3703
 20
-37.5
 30
0.0
 11
-101.3703
 21
-40.062408
 31
0.0
  0
LINE
  5
52A4
330
523C
100
AcDbEntity
  8
0
100
AcDbLine
 10
-90.448974
 20
-22.772125
 30
0.0
 11
-100.948974
 21
-36.272125
 31
0.0
  0
LINE
  5
52A5
330
523C
100
AcDbEntity
  8
0
100
AcDbLine
 10
-89.470825
 20
-24.772125
 30
0.0
 11
-98.948974
 21
-36.958328
 31
0.0
  0
ARC
  5
52A6
330
523C
100
AcDbEntity
  8
0
100
AcDbCircle
 10
-97.3703
 20
-38.186218
 30
0.0
 40
2.0
100
AcDbArc
 50
142.125015
 51
180.0
  0
LINE
  5
52A7
330
523C
100
AcDbEntity
  8
0
100
AcDbLine
 10
-99.3703
 20
-38.186218
 30
0.0
 11
-99.3703
 21
-39.371704
 31
0.0
  0
ARC
  5
52A8
330
523C
100
AcDbEntity
  8
0
100
AcDbCircle
 10
-88.8703
 20
-24.0
 30
0.0
 40
2.0
100
AcDbArc
 50
90.0
 51
142.125015
  0
LINE
  5
52A9
330
523C
100
AcDbEntity
  8
0
100
AcDbLine
 10
-88.770813
 20
-24.203369
 30
0.0
 11
-89.749023
 21
-22.203369
 31
0.0
  0
ARC
  5
52AA
330
523C
100
AcDbEntity
  8
0
100
AcDbCircle
 10
-87.892151
 20
-26.0
 30
0.0
 40
2.0
100
AcDbArc
 50
90.0
 51
142.125015
  0
LINE
  5
52AB
330
523C
100
AcDbEntity
  8
0
100
AcDbLine
 10
-88.8703
 20
-22.0
 30
0.0
 11
-86.957397
 21
-22.0
 31
0.0
  0
LINE
  5
52AC
330
523C
100
AcDbEntity
  8
0
100
AcDbLine
 10
-87.220825
 20
-24.0
 30
0.0
 11
-87.892151
 21
-24.0
 31
0.0
  0
ARC
  5
52AD
330
523C
100
AcDbEntity
  8
0
100
AcDbCircle
 10
-109.8703
 20
-18.0
 30
0.0
 40
25.0
100
AcDbArc
 50
349.98459
 51
0.0
  0
ARC
  5
52AE
330
523C
100
AcDbEntity
  8
0
100
AcDbCircle
 10
-87.220825
 20
22.0
 30
0.0
 40
2.0
100
AcDbArc
 50
10.01541
 51
90.0
  0
ARC
  5
52AF
330
523C
100
AcDbEntity
  8
0
100
AcDbCircle
 10
-86.957397
 20
20.0
 30
0.0
 40
2.0
100
AcDbArc
 50
4.988542
 51
90.0
  0
LINE
  5
52B0
330
523C
100
AcDbEntity
  8
0
100
AcDbLine
 10
-154.8703
 20
43.0
 30
0.0
 11
-109.8703
 21
43.0
 31
0.0
  0
ARC
  5
52B1
330
523C
100
AcDbEntity
  8
0
100
AcDbCircle
 10
-176.848449
 20
26.0
 30
0.0
 40
2.0
100
AcDbArc
 50
270.0
 51
322.125031
  0
LINE
  5
52B2
330
523C
100
AcDbEntity
  8
0
100
AcDbLine
 10
-174.291626
 20
22.772125
 30
0.0
 11
-163.791626
 21
36.272125
 31
0.0
  0
ARC
  5
52B3
330
523C
100
AcDbEntity
  8
0
100
AcDbCircle
 10
-175.8703
 20
24.0
 30
0.0
 40
2.0
100
AcDbArc
 50
270.0
 51
322.125031
  0
LINE
  5
52B4
330
523C
100
AcDbEntity
  8
0
100
AcDbLine
 10
-175.969787
 20
24.203369
 30
0.0
 11
-174.991577
 21
22.203369
 31
0.0
  0
ARC
  5
52B5
330
523C
100
AcDbEntity
  8
0
100
AcDbCircle
 10
-177.519775
 20
22.0
 30
0.0
 40
2.0
100
AcDbArc
 50
90.0
 51
169.984589
  0
ARC
  5
52B6
330
523C
100
AcDbEntity
  8
0
100
AcDbCircle
 10
-177.783203
 20
20.0
 30
0.0
 40
2.0
100
AcDbArc
 50
90.0
 51
175.011459
  0
LINE
  5
52B7
330
523C
100
AcDbEntity
  8
0
100
AcDbLine
 10
-175.8703
 20
22.0
 30
0.0
 11
-177.783203
 21
22.0
 31
0.0
  0
LINE
  5
52B8
330
523C
100
AcDbEntity
  8
0
100
AcDbLine
 10
-177.519775
 20
24.0
 30
0.0
 11
-176.848449
 21
24.0
 31
0.0
  0
ARC
  5
52B9
330
523C
100
AcDbEntity
  8
0
100
AcDbCircle
 10
-154.8703
 20
18.0
 30
0.0
 40
25.0
100
AcDbArc
 50
169.984589
 51
180.0
  0
ARC
  5
52BA
330
523C
100
AcDbEntity
  8
0
100
AcDbCircle
 10
-163.3703
 20
39.371704
 30
0.0
 40
2.0
100
AcDbArc
 50
111.688805
 51
180.0
  0
LINE
  5
52BB
330
523C
100
AcDbEntity
  8
0
100
AcDbLine
 10
-165.478576
 20
37.53714
 30
0.0
 11
-163.478576
 21
36.850922
 31
0.0
  0
LINE
  5
52BC
330
523C
100
AcDbEntity
  8
0
100
AcDbLine
 10
-175.269775
 20
24.772125
 30
0.0
 11
-165.791626
 21
36.958344
 31
0.0
  0
ARC
  5
52BD
330
523C
100
AcDbEntity
  8
0
100
AcDbCircle
 10
-167.3703
 20
38.186218
 30
0.0
 40
2.0
100
AcDbArc
 50
322.125015
 51
0.0
  0
LINE
  5
52BE
330
523C
100
AcDbEntity
  8
0
100
AcDbLine
 10
-165.3703
 20
38.186218
 30
0.0
 11
-165.3703
 21
39.371704
 31
0.0
  0
ARC
  5
52BF
330
523C
100
AcDbEntity
  8
0
100
AcDbCircle
 10
-154.8703
 20
18.0
 30
0.0
 40
25.0
100
AcDbArc
 50
90.0
 51
111.688805
  0
ARC
  5
52C0
330
523C
100
AcDbEntity
  8
0
100
AcDbCircle
 10
-165.3703
 20
37.5
 30
0.0
 40
2.0
100
AcDbArc
 50
322.125015
 51
0.0
  0
ARC
  5
52C1
330
523C
100
AcDbEntity
  8
0
100
AcDbCircle
 10
-161.3703
 20
40.062408
 30
0.0
 40
2.0
100
AcDbArc
 50
106.415962
 51
180.0
  0
LINE
  5
52C2
330
523C
100
AcDbEntity
  8
0
100
AcDbLine
 10
-163.3703
 20
37.5
 30
0.0
 11
-163.3703
 21
40.062408
 31
0.0
  0
ARC
  5
52C3
330
523C
100
AcDbEntity
  8
0
100
AcDbCircle
 10
-87.892151
 20
26.0
 30
0.0
 40
2.0
100
AcDbArc
 50
217.874985
 51
270.0
  0
LINE
  5
52C4
330
523C
100
AcDbEntity
  8
0
100
AcDbLine
 10
-90.448974
 20
22.772125
 30
0.0
 11
-100.948974
 21
36.272125
 31
0.0
  0
ARC
  5
52C5
330
523C
100
AcDbEntity
  8
0
100
AcDbCircle
 10
-88.8703
 20
24.0
 30
0.0
 40
2.0
100
AcDbArc
 50
217.874985
 51
270.0
  0
LINE
  5
52C6
330
523C
100
AcDbEntity
  8
0
100
AcDbLine
 10
-88.770813
 20
24.203369
 30
0.0
 11
-89.749023
 21
22.203369
 31
0.0
  0
LINE
  5
52C7
330
523C
100
AcDbEntity
  8
0
100
AcDbLine
 10
-88.8703
 20
22.0
 30
0.0
 11
-86.957397
 21
22.0
 31
0.0
  0
LINE
  5
52C8
330
523C
100
AcDbEntity
  8
0
100
AcDbLine
 10
-87.220825
 20
24.0
 30
0.0
 11
-87.892151
 21
24.0
 31
0.0
  0
ARC
  5
52C9
330
523C
100
AcDbEntity
  8
0
100
AcDbCircle
 10
-99.3703
 20
37.5
 30
0.0
 40
2.0
100
AcDbArc
 50
180.0
 51
217.874985
  0
ARC
  5
52CA
330
523C
100
AcDbEntity
  8
0
100
AcDbCircle
 10
-103.3703
 20
40.062408
 30
0.0
 40
2.0
100
AcDbArc
 50
0.0
 51
73.584038
  0
LINE
  5
52CB
330
523C
100
AcDbEntity
  8
0
100
AcDbLine
 10
-99.262024
 20
37.53714
 30
0.0
 11
-101.262024
 21
36.850922
 31
0.0
  0
ARC
  5
52CC
330
523C
100
AcDbEntity
  8
0
100
AcDbCircle
 10
-109.8703
 20
18.0
 30
0.0
 40
25.0
100
AcDbArc
 50
68.311195
 51
90.0
  0
LINE
  5
52CD
330
523C
100
AcDbEntity
  8
0
100
AcDbLine
 10
-101.3703
 20
37.5
 30
0.0
 11
-101.3703
 21
40.062408
 31
0.0
  0
LINE
  5
52CE
330
523C
100
AcDbEntity
  8
0
100
AcDbLine
 10
-89.470825
 20
24.772125
 30
0.0
 11
-98.948974
 21
36.958344
 31
0.0
  0
ARC
  5
52CF
330
523C
100
AcDbEntity
  8
0
100
AcDbCircle
 10
-101.3703
 20
39.371704
 30
0.0
 40
2.0
100
AcDbArc
 50
0.0
 51
68.311195
  0
ARC
  5
52D0
330
523C
100
AcDbEntity
  8
0
100
AcDbCircle
 10
-97.3703
 20
38.186218
 30
0.0
 40
2.0
100
AcDbArc
 50
180.0
 51
217.874985
  0
LINE
  5
52D1
330
523C
100
AcDbEntity
  8
0
100
AcDbLine
 10
-99.3703
 20
38.186218
 30
0.0
 11
-99.3703
 21
39.371704
 31
0.0
  0
ARC
  5
52D2
330
523C
100
AcDbEntity
  8
0
100
AcDbCircle
 10
-109.8703
 20
18.0
 30
0.0
 40
25.0
100
AcDbArc
 50
0.0
 51
10.01541
  0
LINE
  5
52D3
330
523C
100
AcDbEntity
  8
0
100
AcDbLine
 10
0.0
 20
45.0
 30
0.0
 11
0.0
 21
-45.0
 31
0.0
  0
ENDBLK
  5
52D4
330
523C
100
AcDbEntity
  8
0
100
AcDbBlockEnd
  0
BLOCK
  5
52DE
330
52DB
100
AcDbEntity
  8
0
100
AcDbBlockBegin
  2
A$C326328fc
 70
     0
 10
0.0
 20
0.0
 30
0.0
  3
A$C326328fc
  1

  0
LINE
  5
52DF
330
52DB
100
AcDbEntity
  8
CENTER
100
AcDbLine
 10
-147.2498523411
 20
-45.0
 30
0.0
 11
-142.4907476589
 21
-45.0
 31
0.0
  0
LINE
  5
52E0
330
52DB
100
AcDbEntity
  8
0
100
AcDbLine
 10
-74.1800833955
 20
-90.0
 30
0.0
 11
0.0
 21
-90.0
 31
0.0
  0
ARC
  5
52E1
330
52DB
100
AcDbEntity
  8
0
100
AcDbCircle
 10
-74.1800833955
 20
-92.0
 30
0.0
 40
2.0
100
AcDbArc
 50
90.0
 51
179.0
  0
LINE
  5
52E2
330
52DB
100
AcDbEntity
  8
0
100
AcDbLine
 10
-72.5532952856
 20
0.0
 30
0.0
 11
0.0
 21
0.0
 31
0.0
  0
LINE
  5
52E3
330
52DB
100
AcDbEntity
  8
0
100
AcDbLine
 10
-188.5221568834
 20
-93.0
 30
0.0
 11
-189.36
 21
-45.0
 31
0.0
  0
LINE
  5
52E4
330
52DB
100
AcDbEntity
  8
0
100
AcDbLine
 10
-76.1978431166
 20
-93.0
 30
0.0
 11
-75.900497747
 21
-75.9650951871
 31
0.0
  0
LINE
  5
52E5
330
52DB
100
AcDbEntity
  8
0
100
AcDbLine
 10
-188.7490727275
 20
-10.0
 30
0.0
 11
-75.9709272725
 21
-10.0
 31
0.0
  0
LINE
  5
52E6
330
52DB
100
AcDbEntity
  8
0
100
AcDbLine
 10
-188.7490727275
 20
-10.0
 30
0.0
 11
-189.36
 21
-45.0
 31
0.0
  0
LINE
  5
52E7
330
52DB
100
AcDbEntity
  8
0
100
AcDbLine
 10
-75.9709272725
 20
-10.0
 30
0.0
 11
-75.900497747
 21
-14.0349048129
 31
0.0
  0
LINE
  5
52E8
330
52DB
100
AcDbEntity
  8
0
100
AcDbLine
 10
-188.5221568834
 20
-93.0
 30
0.0
 11
-76.1978431166
 21
-93.0
 31
0.0
  0
LINE
  5
52E9
330
52DB
100
AcDbEntity
  8
0
100
AcDbLine
 10
0.0
 20
-74.0
 30
0.0
 11
-82.9008023567
 21
-74.0
 31
0.0
  0
ARC
  5
52EA
330
52DB
100
AcDbEntity
  8
0
100
AcDbCircle
 10
-73.9008023567
 20
-76.0
 30
0.0
 40
2.0
100
AcDbArc
 50
90.0
 51
179.0
  0
LINE
  5
52EB
330
52DB
100
AcDbEntity
  8
0
100
AcDbLine
 10
0.0
 20
-16.0
 30
0.0
 11
-82.9008023567
 21
-16.0
 31
0.0
  0
ARC
  5
52EC
330
52DB
100
AcDbEntity
  8
0
100
AcDbCircle
 10
-73.9008023567
 20
-14.0
 30
0.0
 40
2.0
100
AcDbArc
 50
181.0
 51
270.0
  0
ARC
  5
52ED
330
52DB
100
AcDbEntity
  8
0
100
AcDbCircle
 10
-82.9008023567
 20
-76.0
 30
0.0
 40
2.0
100
AcDbArc
 50
90.0
 51
179.0
  0
ARC
  5
52EE
330
52DB
100
AcDbEntity
  8
0
100
AcDbCircle
 10
-82.9008023567
 20
-14.0
 30
0.0
 40
2.0
100
AcDbArc
 50
181.0
 51
270.0
  0
LINE
  5
52EF
330
52DB
100
AcDbEntity
  8
0
100
AcDbLine
 10
-178.6579061247
 20
-40.0
 30
0.0
 11
-158.3257737513
 21
-40.0
 31
0.0
  0
LINE
  5
52F0
330
52DB
100
AcDbEntity
  8
0
100
AcDbLine
 10
-170.5295533815
 20
3.0
 30
0.0
 11
-170.5295533815
 21
-37.4623975841
 31
0.0
  0
LINE
  5
52F1
330
52DB
100
AcDbEntity
  8
0
100
AcDbLine
 10
-158.3257737513
 20
-40.0
 30
0.0
 11
-158.3257737513
 21
3.0
 31
0.0
  0
ARC
  5
52F2
330
52DB
100
AcDbEntity
  8
0
100
AcDbCircle
 10
-170.5295533815
 20
-52.4623975841
 30
0.0
 40
15.0
100
AcDbArc
 50
69.4077044077
 51
90.0
  0
LINE
  5
52F3
330
52DB
100
AcDbEntity
  8
0
100
AcDbLine
 10
-163.601510389
 20
-39.041602577
 30
0.0
 11
-165.2538167438
 21
-38.4207950071
 31
0.0
  0
ARC
  5
52F4
330
52DB
100
AcDbEntity
  8
0
100
AcDbCircle
 10
-158.3257737513
 20
-25.0
 30
0.0
 40
15.0
100
AcDbArc
 50
249.4077044077
 51
270.0
  0
ARC
  5
52F5
330
52DB
100
AcDbEntity
  8
0
100
AcDbCircle
 10
-178.6579061247
 20
-33.0
 30
0.0
 40
7.0
100
AcDbArc
 50
270.0
 51
300.4144326901
  0
ARC
  5
52F6
330
52DB
100
AcDbEntity
  8
0
100
AcDbCircle
 10
-170.5295533815
 20
-44.4623975841
 30
0.0
 40
7.0
100
AcDbArc
 50
90.0
 51
120.4144326901
  0
LINE
  5
52F7
330
52DB
100
AcDbEntity
  8
0
100
AcDbLine
 10
-174.073310476
 20
-38.4256943733
 30
0.0
 11
-175.1141490302
 21
-39.0367032108
 31
0.0
  0
LINE
  5
52F8
330
52DB
100
AcDbEntity
  8
0
100
AcDbLine
 10
-106.4606757065
 20
-40.0
 30
0.0
 11
-106.4606757065
 21
3.0
 31
0.0
  0
LINE
  5
52F9
330
52DB
100
AcDbEntity
  8
0
100
AcDbLine
 10
-94.2568960764
 20
3.0
 30
0.0
 11
-94.2568960764
 21
-37.4623975841
 31
0.0
  0
ARC
  5
52FA
330
52DB
100
AcDbEntity
  8
0
100
AcDbCircle
 10
-94.2568960764
 20
-44.4623975841
 30
0.0
 40
7.0
100
AcDbArc
 50
59.5855673099
 51
90.0
  0
LINE
  5
52FB
330
52DB
100
AcDbEntity
  8
0
100
AcDbLine
 10
-86.1285433331
 20
-40.0
 30
0.0
 11
-106.4606757065
 21
-40.0
 31
0.0
  0
ARC
  5
52FC
330
52DB
100
AcDbEntity
  8
0
100
AcDbCircle
 10
-86.1285433331
 20
-33.0
 30
0.0
 40
7.0
100
AcDbArc
 50
239.5855673099
 51
270.0
  0
LINE
  5
52FD
330
52DB
100
AcDbEntity
  8
0
100
AcDbLine
 10
-90.7131389819
 20
-38.4256943733
 30
0.0
 11
-89.6723004276
 21
-39.0367032108
 31
0.0
  0
ARC
  5
52FE
330
52DB
100
AcDbEntity
  8
0
100
AcDbCircle
 10
-94.2568960764
 20
-52.4623975841
 30
0.0
 40
15.0
100
AcDbArc
 50
90.0
 51
110.5922955923
  0
ARC
  5
52FF
330
52DB
100
AcDbEntity
  8
0
100
AcDbCircle
 10
-106.4606757065
 20
-25.0
 30
0.0
 40
15.0
100
AcDbArc
 50
270.0
 51
290.5922955923
  0
LINE
  5
5300
330
52DB
100
AcDbEntity
  8
0
100
AcDbLine
 10
-101.1849390689
 20
-39.041602577
 30
0.0
 11
-99.532632714
 21
-38.4207950071
 31
0.0
  0
LINE
  5
5301
330
52DB
100
AcDbEntity
  8
0
100
AcDbLine
 10
-106.4606757065
 20
-50.0
 30
0.0
 11
-106.4606757065
 21
-92.5001713375
 31
0.0
  0
LINE
  5
5302
330
52DB
100
AcDbEntity
  8
0
100
AcDbLine
 10
-94.2568960764
 20
-92.5001713375
 30
0.0
 11
-94.2568960764
 21
-52.5376024159
 31
0.0
  0
ARC
  5
5303
330
52DB
100
AcDbEntity
  8
0
100
AcDbCircle
 10
-106.4606757065
 20
-65.0
 30
0.0
 40
15.0
100
AcDbArc
 50
69.4077044077
 51
90.0
  0
LINE
  5
5304
330
52DB
100
AcDbEntity
  8
0
100
AcDbLine
 10
-86.1285433331
 20
-50.0
 30
0.0
 11
-106.4606757065
 21
-50.0
 31
0.0
  0
ARC
  5
5305
330
52DB
100
AcDbEntity
  8
0
100
AcDbCircle
 10
-94.2568960764
 20
-45.5376024159
 30
0.0
 40
7.0
100
AcDbArc
 50
270.0
 51
300.4144326901
  0
ARC
  5
5306
330
52DB
100
AcDbEntity
  8
0
100
AcDbCircle
 10
-94.2568960764
 20
-37.5376024159
 30
0.0
 40
15.0
100
AcDbArc
 50
249.4077044077
 51
270.0
  0
LINE
  5
5307
330
52DB
100
AcDbEntity
  8
0
100
AcDbLine
 10
-101.1849390689
 20
-50.958397423
 30
0.0
 11
-99.532632714
 21
-51.5792049929
 31
0.0
  0
LINE
  5
5308
330
52DB
100
AcDbEntity
  8
0
100
AcDbLine
 10
-90.7131389819
 20
-51.5743056267
 30
0.0
 11
-89.6723004276
 21
-50.9632967892
 31
0.0
  0
ARC
  5
5309
330
52DB
100
AcDbEntity
  8
0
100
AcDbCircle
 10
-86.1285433331
 20
-57.0
 30
0.0
 40
7.0
100
AcDbArc
 50
90.0
 51
120.4144326901
  0
LINE
  5
530A
330
52DB
100
AcDbEntity
  8
0
100
AcDbLine
 10
-158.3257737513
 20
-50.0
 30
0.0
 11
-158.3257737513
 21
-93.0
 31
0.0
  0
LINE
  5
530B
330
52DB
100
AcDbEntity
  8
0
100
AcDbLine
 10
-170.5295533815
 20
-93.0
 30
0.0
 11
-170.5295533815
 21
-52.5376024159
 31
0.0
  0
ARC
  5
530C
330
52DB
100
AcDbEntity
  8
0
100
AcDbCircle
 10
-170.5295533815
 20
-45.5376024159
 30
0.0
 40
7.0
100
AcDbArc
 50
239.5855673099
 51
270.0
  0
LINE
  5
530D
330
52DB
100
AcDbEntity
  8
0
100
AcDbLine
 10
-178.6579061247
 20
-50.0
 30
0.0
 11
-158.3257737513
 21
-50.0
 31
0.0
  0
ARC
  5
530E
330
52DB
100
AcDbEntity
  8
0
100
AcDbCircle
 10
-178.6579061247
 20
-57.0
 30
0.0
 40
7.0
100
AcDbArc
 50
59.5855673099
 51
90.0
  0
LINE
  5
530F
330
52DB
100
AcDbEntity
  8
0
100
AcDbLine
 10
-174.073310476
 20
-51.5743056267
 30
0.0
 11
-175.1141490302
 21
-50.9632967892
 31
0.0
  0
ARC
  5
5310
330
52DB
100
AcDbEntity
  8
0
100
AcDbCircle
 10
-170.5295533815
 20
-37.5376024159
 30
0.0
 40
15.0
100
AcDbArc
 50
270.0
 51
290.5922955923
  0
ARC
  5
5311
330
52DB
100
AcDbEntity
  8
0
100
AcDbCircle
 10
-158.3257737513
 20
-65.0
 30
0.0
 40
15.0
100
AcDbArc
 50
90.0
 51
110.5922955923
  0
LINE
  5
5312
330
52DB
100
AcDbEntity
  8
0
100
AcDbLine
 10
-163.601510389
 20
-50.958397423
 30
0.0
 11
-165.2538167438
 21
-51.5792049929
 31
0.0
  0
LINE
  5
5313
330
52DB
100
AcDbEntity
  8
0
100
AcDbLine
 10
0.0
 20
-90.0
 30
0.0
 11
0.0
 21
-51.8718909966
 31
0.0
  0
LINE
  5
5314
330
52DB
100
AcDbEntity
  8
0
100
AcDbLine
 10
-74.7638109769
 20
-10.0130884742
 30
0.0
 11
-74.5526099356
 21
-1.9476461034
 31
0.0
  0
ARC
  5
5315
330
52DB
100
AcDbEntity
  8
0
100
AcDbCircle
 10
-75.2636396394
 20
-10.0
 30
0.0
 40
0.5
100
AcDbArc
 50
270.0
 51
358.5
  0
ARC
  5
5316
330
52DB
100
AcDbEntity
  8
0
100
AcDbCircle
 10
-72.5532952856
 20
-2.0
 30
0.0
 40
2.0
100
AcDbArc
 50
90.0
 51
178.5
  0
LINE
  5
5317
330
52DB
100
AcDbEntity
  8
0
100
AcDbLine
 10
-75.2636396394
 20
-10.5
 30
0.0
 11
-75.96219974
 21
-10.5
 31
0.0
  0
LINE
  5
5318
330
52DB
100
AcDbEntity
  8
0
100
AcDbLine
 10
-188.5221568834
 20
3.0
 30
0.0
 11
-188.7490727275
 21
-10.0
 31
0.0
  0
LINE
  5
5319
330
52DB
100
AcDbEntity
  8
0
  6
Continuous
100
AcDbLine
 10
-188.5221568834
 20
3.0
 30
0.0
 11
-76.1978431166
 21
3.0
 31
0.0
  0
LINE
  5
531A
330
52DB
100
AcDbEntity
  8
0
100
AcDbLine
 10
-76.1978431166
 20
3.0
 30
0.0
 11
-75.9709272725
 21
-10.0
 31
0.0
  0
LINE
  5
531B
330
52DB
100
AcDbEntity
  8
HIDS
100
AcDbLine
 10
-175.3703
 20
-55.0
 30
0.0
 11
-175.3703
 21
-93.0
 31
0.0
  0
LINE
  5
531C
330
52DB
100
AcDbEntity
  8
HIDS
100
AcDbLine
 10
-185.3703
 20
-55.0
 30
0.0
 11
-185.3703
 21
-93.0
 31
0.0
  0
LINE
  5
531D
330
52DB
100
AcDbEntity
  8
HIDS
100
AcDbLine
 10
-176.1703
 20
-10.0
 30
0.0
 11
-176.1703
 21
-93.0
 31
0.0
  0
LINE
  5
531E
330
52DB
100
AcDbEntity
  8
HIDS
100
AcDbLine
 10
-184.5703
 20
-10.0
 30
0.0
 11
-184.5703
 21
-93.0
 31
0.0
  0
LINE
  5
531F
330
52DB
100
AcDbEntity
  8
CENTER
100
AcDbLine
 10
-180.3703
 20
8.248291
 30
0.0
 11
-180.3703
 21
-97.821869
 31
0.0
  0
LINE
  5
5320
330
52DB
100
AcDbEntity
  8
CENTER
100
AcDbLine
 10
-144.8703
 20
39.8660786498
 30
0.0
 11
-144.8703
 21
-129.8660786498
 31
0.0
  0
LINE
  5
5321
330
52DB
100
AcDbEntity
  8
HIDS
  6
sekkei_H
100
AcDbLine
 10
-175.1203
 20
-10.0
 30
0.0
 11
-175.1203
 21
3.0
 31
0.0
  0
LINE
  5
5322
330
52DB
100
AcDbEntity
  8
HIDS
  6
sekkei_H
100
AcDbLine
 10
-185.6203
 20
-10.0
 30
0.0
 11
-185.6203
 21
3.0
 31
0.0
  0
LINE
  5
5323
330
52DB
100
AcDbEntity
  8
HIDS
100
AcDbLine
 10
-185.3703
 20
-35.0
 30
0.0
 11
-175.3703
 21
-35.0
 31
0.0
  0
LINE
  5
5324
330
52DB
100
AcDbEntity
  8
HIDS
100
AcDbLine
 10
-185.3703
 20
-55.0
 30
0.0
 11
-175.3703
 21
-55.0
 31
0.0
  0
LINE
  5
5325
330
52DB
100
AcDbEntity
  8
HIDS
100
AcDbLine
 10
-185.3703
 20
-10.0
 30
0.0
 11
-185.3703
 21
-35.0
 31
0.0
  0
LINE
  5
5326
330
52DB
100
AcDbEntity
  8
HIDS
100
AcDbLine
 10
-175.3703
 20
-10.0
 30
0.0
 11
-175.3703
 21
-35.0
 31
0.0
  0
LINE
  5
5327
330
52DB
100
AcDbEntity
  8
HIDS
100
AcDbLine
 10
-79.3703
 20
-55.0
 30
0.0
 11
-79.3703
 21
-93.0
 31
0.0
  0
LINE
  5
5328
330
52DB
100
AcDbEntity
  8
HIDS
100
AcDbLine
 10
-89.3703
 20
-55.0
 30
0.0
 11
-89.3703
 21
-93.0
 31
0.0
  0
LINE
  5
5329
330
52DB
100
AcDbEntity
  8
CENTER
100
AcDbLine
 10
-84.3703
 20
8.248291
 30
0.0
 11
-84.3703
 21
-97.821869
 31
0.0
  0
LINE
  5
532A
330
52DB
100
AcDbEntity
  8
HIDS
  6
sekkei_H
100
AcDbLine
 10
-79.1203
 20
-10.0
 30
0.0
 11
-79.1203
 21
3.0
 31
0.0
  0
LINE
  5
532B
330
52DB
100
AcDbEntity
  8
HIDS
  6
sekkei_H
100
AcDbLine
 10
-89.6203
 20
-10.0
 30
0.0
 11
-89.6203
 21
3.0
 31
0.0
  0
LINE
  5
532C
330
52DB
100
AcDbEntity
  8
HIDS
100
AcDbLine
 10
-89.3703
 20
-10.0
 30
0.0
 11
-89.3703
 21
-35.0
 31
0.0
  0
LINE
  5
532D
330
52DB
100
AcDbEntity
  8
HIDS
100
AcDbLine
 10
-79.3703
 20
-10.0
 30
0.0
 11
-79.3703
 21
-35.0
 31
0.0
  0
LINE
  5
532E
330
52DB
100
AcDbEntity
  8
HIDS
100
AcDbLine
 10
-89.3703
 20
-55.0
 30
0.0
 11
-79.3703
 21
-55.0
 31
0.0
  0
LINE
  5
532F
330
52DB
100
AcDbEntity
  8
HIDS
100
AcDbLine
 10
-89.3703
 20
-35.0
 30
0.0
 11
-79.3703
 21
-35.0
 31
0.0
  0
LINE
  5
5330
330
52DB
100
AcDbEntity
  8
0
100
AcDbLine
 10
-154.18164
 20
-94.0
 30
0.0
 11
-135.55896
 21
-94.0
 31
0.0
  0
LINE
  5
5331
330
52DB
100
AcDbEntity
  8
0
100
AcDbLine
 10
-156.3703
 20
-124.0
 30
0.0
 11
-135.8703
 21
-124.0
 31
0.0
  0
LINE
  5
5332
330
52DB
100
AcDbEntity
  8
0
100
AcDbLine
 10
-153.355591
 20
-124.0
 30
0.0
 11
-153.355591
 21
-100.0
 31
0.0
  0
LINE
  5
5333
330
52DB
100
AcDbEntity
  8
0
100
AcDbLine
 10
-156.3703
 20
-124.0
 30
0.0
 11
-156.3703
 21
-97.0
 31
0.0
  0
LINE
  5
5334
330
52DB
100
AcDbEntity
  8
0
100
AcDbLine
 10
-154.8703
 20
-93.0
 30
0.0
 11
-154.8703
 21
-93.222565
 31
0.0
  0
ARC
  5
5335
330
52DB
100
AcDbEntity
  8
0
100
AcDbCircle
 10
-154.18164
 20
-93.5
 30
0.0
 40
0.5
100
AcDbArc
 50
210.0
 51
270.0
  0
ARC
  5
5336
330
52DB
100
AcDbEntity
  8
0
100
AcDbCircle
 10
-152.970276
 20
-92.598083
 30
0.0
 40
2.0
100
AcDbArc
 50
198.19487
 51
210.0
  0
LINE
  5
5337
330
52DB
100
AcDbEntity
  8
0
100
AcDbLine
 10
-154.614624
 20
-93.75
 30
0.0
 11
-154.702331
 21
-93.598083
 31
0.0
  0
ARC
  5
5338
330
52DB
100
AcDbEntity
  8
0
100
AcDbCircle
 10
-162.355591
 20
-100.0
 30
0.0
 40
9.000010000000003
100
AcDbArc
 50
0.0
 51
19.471197
  0
LINE
  5
5339
330
52DB
100
AcDbEntity
  8
0
100
AcDbLine
 10
-153.8703
 20
-94.0
 30
0.0
 11
-153.8703
 21
-97.0
 31
0.0
  0
LINE
  5
533A
330
52DB
100
AcDbEntity
  8
0
100
AcDbLine
 10
-156.3703
 20
-97.0
 30
0.0
 11
-153.8703
 21
-97.0
 31
0.0
  0
LINE
  5
533B
330
52DB
100
AcDbEntity
  8
0
100
AcDbLine
 10
-135.8703
 20
-94.0
 30
0.0
 11
-135.8703
 21
-124.0
 31
0.0
  0
LINE
  5
533C
330
52DB
100
AcDbEntity
  8
0
100
AcDbLine
 10
-134.8703
 20
-93.0
 30
0.0
 11
-134.8703
 21
-93.222565
 31
0.0
  0
ARC
  5
533D
330
52DB
100
AcDbEntity
  8
0
100
AcDbCircle
 10
-135.55896
 20
-93.5
 30
0.0
 40
0.5
100
AcDbArc
 50
270.0
 51
330.0
  0
ARC
  5
533E
330
52DB
100
AcDbEntity
  8
0
100
AcDbCircle
 10
-136.770324
 20
-92.598083
 30
0.0
 40
2.0
100
AcDbArc
 50
330.0
 51
341.805128
  0
LINE
  5
533F
330
52DB
100
AcDbEntity
  8
0
100
AcDbLine
 10
-135.125976
 20
-93.75
 30
0.0
 11
-135.038269
 21
-93.598083
 31
0.0
  0
LINE
  5
5340
330
52DB
100
AcDbEntity
  8
0
100
AcDbLine
 10
-154.18164
 20
4.0
 30
0.0
 11
-135.55896
 21
4.0
 31
0.0
  0
LINE
  5
5341
330
52DB
100
AcDbEntity
  8
0
100
AcDbLine
 10
-156.3703
 20
34.0
 30
0.0
 11
-135.8703
 21
34.0
 31
0.0
  0
LINE
  5
5342
330
52DB
100
AcDbEntity
  8
0
100
AcDbLine
 10
-153.355591
 20
34.0
 30
0.0
 11
-153.355591
 21
10.0
 31
0.0
  0
LINE
  5
5343
330
52DB
100
AcDbEntity
  8
0
100
AcDbLine
 10
-156.3703
 20
34.0
 30
0.0
 11
-156.3703
 21
7.0
 31
0.0
  0
LINE
  5
5344
330
52DB
100
AcDbEntity
  8
0
100
AcDbLine
 10
-154.8703
 20
3.0
 30
0.0
 11
-154.8703
 21
3.222565
 31
0.0
  0
ARC
  5
5345
330
52DB
100
AcDbEntity
  8
0
100
AcDbCircle
 10
-154.18164
 20
3.5
 30
0.0
 40
0.5
100
AcDbArc
 50
90.0
 51
150.0
  0
ARC
  5
5346
330
52DB
100
AcDbEntity
  8
0
100
AcDbCircle
 10
-152.970276
 20
2.598083
 30
0.0
 40
2.0
100
AcDbArc
 50
150.0
 51
161.80513
  0
LINE
  5
5347
330
52DB
100
AcDbEntity
  8
0
100
AcDbLine
 10
-154.614624
 20
3.75
 30
0.0
 11
-154.702331
 21
3.598083
 31
0.0
  0
ARC
  5
5348
330
52DB
100
AcDbEntity
  8
0
100
AcDbCircle
 10
-162.355591
 20
10.0
 30
0.0
 40
9.000010000000003
100
AcDbArc
 50
340.528803
 51
0.0
  0
LINE
  5
5349
330
52DB
100
AcDbEntity
  8
0
100
AcDbLine
 10
-153.8703
 20
4.0
 30
0.0
 11
-153.8703
 21
7.0
 31
0.0
  0
LINE
  5
534A
330
52DB
100
AcDbEntity
  8
0
100
AcDbLine
 10
-156.3703
 20
7.0
 30
0.0
 11
-153.8703
 21
7.0
 31
0.0
  0
LINE
  5
534B
330
52DB
100
AcDbEntity
  8
0
100
AcDbLine
 10
-135.8703
 20
4.0
 30
0.0
 11
-135.8703
 21
34.0
 31
0.0
  0
LINE
  5
534C
330
52DB
100
AcDbEntity
  8
0
100
AcDbLine
 10
-134.8703
 20
3.0
 30
0.0
 11
-134.8703
 21
3.222565
 31
0.0
  0
ARC
  5
534D
330
52DB
100
AcDbEntity
  8
0
100
AcDbCircle
 10
-135.55896
 20
3.5
 30
0.0
 40
0.5
100
AcDbArc
 50
30.0
 51
90.0
  0
ARC
  5
534E
330
52DB
100
AcDbEntity
  8
0
100
AcDbCircle
 10
-136.770324
 20
2.598083
 30
0.0
 40
2.0
100
AcDbArc
 50
18.194872
 51
30.0
  0
LINE
  5
534F
330
52DB
100
AcDbEntity
  8
0
100
AcDbLine
 10
-135.125976
 20
3.75
 30
0.0
 11
-135.038269
 21
3.598083
 31
0.0
  0
LINE
  5
5350
330
52DB
100
AcDbEntity
  8
0
100
AcDbLine
 10
0.0
 20
-38.1281090034
 30
0.0
 11
0.0
 21
0.0
 31
0.0
  0
LINE
  5
5351
330
52DB
100
AcDbEntity
  8
HIDS
100
AcDbLine
 10
-80.1703
 20
-10.0
 30
0.0
 11
-80.1703
 21
-93.0
 31
0.0
  0
LINE
  5
5352
330
52DB
100
AcDbEntity
  8
HIDS
100
AcDbLine
 10
-88.5703
 20
-10.0
 30
0.0
 11
-88.5703
 21
-93.0
 31
0.0
  0
ENDBLK
  5
5353
330
52DB
100
AcDbEntity
  8
0
100
AcDbBlockEnd
  0
BLOCK
  5
535D
330
535A
100
AcDbEntity
  8
0
100
AcDbBlockBegin
  2
A$Cae477ae8
 70
     0
 10
0.0
 20
0.0
 30
0.0
  3
A$Cae477ae8
  1

  0
LINE
  5
535E
330
535A
100
AcDbEntity
  8
0
  6
Continuous
100
AcDbLine
 10
48.0
 20
-48.1621568834
 30
0.0
 11
48.0
 21
48.1621568834
 31
0.0
  0
LINE
  5
535F
330
535A
100
AcDbEntity
  8
0
  6
Continuous
100
AcDbLine
 10
-35.0
 20
-48.3890727275
 30
0.0
 11
-35.0
 21
48.3890727275
 31
0.0
  0
LINE
  5
5360
330
535A
100
AcDbEntity
  8
0
100
AcDbLine
 10
-48.0
 20
48.1621568834
 30
0.0
 11
0.0
 21
49.0
 31
0.0
  0
LINE
  5
5361
330
535A
100
AcDbEntity
  8
0
100
AcDbLine
 10
-48.0
 20
-48.1621568834
 30
0.0
 11
0.0
 21
-49.0
 31
0.0
  0
LINE
  5
5362
330
535A
100
AcDbEntity
  8
0
100
AcDbLine
 10
48.0
 20
-48.1621568834
 30
0.0
 11
0.0
 21
-49.0
 31
0.0
  0
LINE
  5
5363
330
535A
100
AcDbEntity
  8
0
100
AcDbLine
 10
48.0
 20
48.1621568834
 30
0.0
 11
0.0
 21
49.0
 31
0.0
  0
LINE
  5
5364
330
535A
100
AcDbEntity
  8
0
  6
Continuous
100
AcDbLine
 10
5.0
 20
18.283996
 30
0.0
 11
5.0
 21
-18.284058
 31
0.0
  0
LINE
  5
5365
330
535A
100
AcDbEntity
  8
0
  6
Continuous
100
AcDbLine
 10
-5.0
 20
-18.510987
 30
0.0
 11
-5.0
 21
18.510925
 31
0.0
  0
LINE
  5
5366
330
535A
100
AcDbEntity
  8
0
  6
Continuous
100
AcDbLine
 10
6.965088
 20
20.283691
 30
0.0
 11
48.0
 21
21.0
 31
0.0
  0
LINE
  5
5367
330
535A
100
AcDbEntity
  8
0
  6
Continuous
100
AcDbLine
 10
9.720978
 20
15.831787
 30
0.0
 11
48.0
 21
16.5
 31
0.0
  0
LINE
  5
5368
330
535A
100
AcDbEntity
  8
0
  6
Continuous
100
AcDbLine
 10
-6.965088
 20
20.51062
 30
0.0
 11
-48.0
 21
21.2269291946
 31
0.0
  0
LINE
  5
5369
330
535A
100
AcDbEntity
  8
0
  6
Continuous
100
AcDbLine
 10
-9.721008
 20
16.058716
 30
0.0
 11
-48.0
 21
16.7269351563
 31
0.0
  0
LINE
  5
536A
330
535A
100
AcDbEntity
  8
0
  6
Continuous
100
AcDbLine
 10
-6.965088
 20
-20.510681
 30
0.0
 11
-48.0
 21
-21.2269009084
 31
0.0
  0
LINE
  5
536B
330
535A
100
AcDbEntity
  8
0
  6
Continuous
100
AcDbLine
 10
-9.721008
 20
-16.058777
 30
0.0
 11
-48.0
 21
-16.7269037864
 31
0.0
  0
LINE
  5
536C
330
535A
100
AcDbEntity
  8
0
  6
Continuous
100
AcDbLine
 10
6.965088
 20
-20.283753
 30
0.0
 11
48.0
 21
-21.0
 31
0.0
  0
LINE
  5
536D
330
535A
100
AcDbEntity
  8
0
  6
Continuous
100
AcDbLine
 10
9.720978
 20
-15.831848
 30
0.0
 11
48.0
 21
-16.5
 31
0.0
  0
LINE
  5
536E
330
535A
100
AcDbEntity
  8
0
  6
Continuous
100
AcDbLine
 10
7.75589
 20
-13.832154
 30
0.0
 11
7.75589
 21
13.832092
 31
0.0
  0
LINE
  5
536F
330
535A
100
AcDbEntity
  8
0
  6
Continuous
100
AcDbLine
 10
-7.75589
 20
14.059021
 30
0.0
 11
-7.75589
 21
-14.059082
 31
0.0
  0
LINE
  5
5370
330
535A
100
AcDbEntity
  8
0
  6
Continuous
100
AcDbLine
 10
-5.44107
 20
19.763794
 30
0.0
 11
-8.19696
 21
15.311951
 31
0.0
  0
LINE
  5
5371
330
535A
100
AcDbEntity
  8
0
  6
Continuous
100
AcDbLine
 10
-8.19696
 20
-15.311951
 30
0.0
 11
-5.44107
 21
-19.763855
 31
0.0
  0
LINE
  5
5372
330
535A
100
AcDbEntity
  8
0
  6
Continuous
100
AcDbLine
 10
8.196961
 20
-15.085083
 30
0.0
 11
5.441071
 21
-19.536926
 31
0.0
  0
LINE
  5
5373
330
535A
100
AcDbEntity
  8
0
  6
Continuous
100
AcDbLine
 10
8.196961
 20
15.085022
 30
0.0
 11
5.441071
 21
19.536926
 31
0.0
  0
ARC
  5
5374
330
535A
100
AcDbEntity
  8
0
  6
Continuous
100
AcDbCircle
 10
-7.0
 20
18.510925
 30
0.0
 40
2.0
100
AcDbArc
 50
0.0
 51
89.0
  0
ARC
  5
5375
330
535A
100
AcDbEntity
  8
0
  6
Continuous
100
AcDbCircle
 10
-7.0
 20
-18.510987
 30
0.0
 40
2.0
100
AcDbArc
 50
271.0
 51
0.0
  0
ARC
  5
5376
330
535A
100
AcDbEntity
  8
0
  6
Continuous
100
AcDbCircle
 10
7.0
 20
-18.284058
 30
0.0
 40
2.0
100
AcDbArc
 50
180.0
 51
269.0
  0
ARC
  5
5377
330
535A
100
AcDbEntity
  8
0
  6
Continuous
100
AcDbCircle
 10
7.0
 20
18.283996
 30
0.0
 40
2.0
100
AcDbArc
 50
91.0
 51
180.0
  0
ARC
  5
5378
330
535A
100
AcDbEntity
  8
0
  6
Continuous
100
AcDbCircle
 10
9.75589
 20
13.832092
 30
0.0
 40
2.0
100
AcDbArc
 50
91.0
 51
180.0
  0
ARC
  5
5379
330
535A
100
AcDbEntity
  8
0
  6
Continuous
100
AcDbCircle
 10
9.75589
 20
-13.832154
 30
0.0
 40
2.0
100
AcDbArc
 50
180.0
 51
268.999999
  0
ARC
  5
537A
330
535A
100
AcDbEntity
  8
0
  6
Continuous
100
AcDbCircle
 10
-9.75589
 20
-14.059082
 30
0.0
 40
2.0
100
AcDbArc
 50
271.0
 51
0.0
  0
ARC
  5
537B
330
535A
100
AcDbEntity
  8
0
  6
Continuous
100
AcDbCircle
 10
-9.75589
 20
14.059021
 30
0.0
 40
2.0
100
AcDbArc
 50
0.0
 51
89.0
  0
LINE
  5
537C
330
535A
100
AcDbEntity
  8
HIDS
100
AcDbLine
 10
-26.052368
 20
-44.545258
 30
0.0
 11
0.0
 21
-45.0
 31
0.0
  0
LINE
  5
537D
330
535A
100
AcDbEntity
  8
HIDS
100
AcDbLine
 10
-26.052368
 20
44.545258
 30
0.0
 11
0.0
 21
45.0
 31
0.0
  0
LINE
  5
537E
330
535A
100
AcDbEntity
  8
CENTER
100
AcDbLine
 10
-51.450775
 20
-39.0
 30
0.0
 11
53.6875
 21
-39.0
 31
0.0
  0
LINE
  5
537F
330
535A
100
AcDbEntity
  8
CENTER
100
AcDbLine
 10
-51.450775
 20
39.0
 30
0.0
 11
53.6875
 21
39.0
 31
0.0
  0
LINE
  5
5380
330
535A
100
AcDbEntity
  8
HOJO
100
AcDbLine
 10
-35.0
 20
-34.0
 30
0.0
 11
-10.0
 21
-34.0
 31
0.0
  0
LINE
  5
5381
330
535A
100
AcDbEntity
  8
HOJO
100
AcDbLine
 10
-35.0
 20
-44.0
 30
0.0
 11
-10.0
 21
-44.0
 31
0.0
  0
LINE
  5
5382
330
535A
100
AcDbEntity
  8
HIDS
100
AcDbLine
 10
-35.0
 20
44.0
 30
0.0
 11
-10.0
 21
44.0
 31
0.0
  0
LINE
  5
5383
330
535A
100
AcDbEntity
  8
HIDS
100
AcDbLine
 10
-35.0
 20
34.0
 30
0.0
 11
-10.0
 21
34.0
 31
0.0
  0
LINE
  5
5384
330
535A
100
AcDbEntity
  8
0
100
AcDbLine
 10
-42.000031
 20
32.299973
 30
0.0
 11
-41.9999799214
 21
24.700043
 31
0.0
  0
LINE
  5
5385
330
535A
100
AcDbEntity
  8
0
100
AcDbLine
 10
-41.0
 20
33.0
 30
0.0
 11
-41.0
 21
24.0
 31
0.0
  0
LINE
  5
5386
330
535A
100
AcDbEntity
  8
0
100
AcDbLine
 10
-46.000031
 20
32.0
 30
0.0
 11
-46.000031
 21
25.0
 31
0.0
  0
ARC
  5
5387
330
535A
100
AcDbEntity
  8
HIDS
100
AcDbCircle
 10
0.0
 20
0.0
 30
0.0
 40
45.0
100
AcDbArc
 50
132.843643
 51
227.156357
  0
LINE
  5
5388
330
535A
100
AcDbEntity
  8
0
100
AcDbLine
 10
-48.0
 20
-48.1621568834
 30
0.0
 11
-48.0
 21
48.1621568834
 31
0.0
  0
ARC
  5
5389
330
535A
100
AcDbEntity
  8
HIDS
100
AcDbCircle
 10
-34.0
 20
-36.660606
 30
0.0
 40
5.0
100
AcDbArc
 50
0.0
 51
47.156357
  0
LINE
  5
538A
330
535A
100
AcDbEntity
  8
0
100
AcDbLine
 10
-35.0
 20
-44.25
 30
0.0
 11
-48.0
 21
-44.25
 31
0.0
  0
ARC
  5
538B
330
535A
100
AcDbEntity
  8
HIDS
100
AcDbCircle
 10
-26.0
 20
-41.545708
 30
0.0
 40
3.0
100
AcDbArc
 50
180.0
 51
269.0
  0
LINE
  5
538C
330
535A
100
AcDbEntity
  8
HIDS
100
AcDbLine
 10
-29.0
 20
-41.545708
 30
0.0
 11
-29.0
 21
-36.660606
 31
0.0
  0
LINE
  5
538D
330
535A
100
AcDbEntity
  8
CENTER
100
AcDbLine
 10
-39.101624
 20
-28.5
 30
0.0
 11
-49.121002
 21
-28.5
 31
0.0
  0
LINE
  5
538E
330
535A
100
AcDbEntity
  8
0
100
AcDbLine
 10
-35.0
 20
-33.75
 30
0.0
 11
-48.0
 21
-33.75
 31
0.0
  0
LINE
  5
538F
330
535A
100
AcDbEntity
  8
0
100
AcDbLine
 10
-42.0000151088
 20
-29.9355380818
 30
0.0
 11
-41.9999799214
 21
-24.700043
 31
0.0
  0
LINE
  5
5390
330
535A
100
AcDbEntity
  8
0
100
AcDbLine
 10
-41.0
 20
-29.7964629511
 30
0.0
 11
-41.0
 21
-24.0
 31
0.0
  0
LINE
  5
5391
330
535A
100
AcDbEntity
  8
0
100
AcDbLine
 10
-46.000031
 20
-30.1579598673
 30
0.0
 11
-46.000031
 21
-25.0
 31
0.0
  0
ARC
  5
5392
330
535A
100
AcDbEntity
  8
HIDS
100
AcDbCircle
 10
-26.0
 20
41.545715
 30
0.0
 40
3.0
100
AcDbArc
 50
91.0
 51
180.0
  0
LINE
  5
5393
330
535A
100
AcDbEntity
  8
CENTER
100
AcDbLine
 10
-39.101624
 20
28.5
 30
0.0
 11
-49.121002
 21
28.5
 31
0.0
  0
LINE
  5
5394
330
535A
100
AcDbEntity
  8
HIDS
  6
sekkei_H
100
AcDbLine
 10
-35.0
 20
33.75
 30
0.0
 11
-48.0
 21
33.75
 31
0.0
  0
LINE
  5
5395
330
535A
100
AcDbEntity
  8
0
100
AcDbLine
 10
-42.000031
 20
32.299973
 30
0.0
 11
-41.0
 21
32.299973
 31
0.0
  0
LINE
  5
5396
330
535A
100
AcDbEntity
  8
0
100
AcDbLine
 10
-46.000031
 20
32.0
 30
0.0
 11
-42.000031
 21
32.000015
 31
0.0
  0
LINE
  5
5397
330
535A
100
AcDbEntity
  8
0
100
AcDbLine
 10
-41.0
 20
33.0
 30
0.0
 11
-48.0
 21
33.183304
 31
0.0
  0
ARC
  5
5398
330
535A
100
AcDbEntity
  8
HIDS
100
AcDbCircle
 10
-34.0
 20
36.660599
 30
0.0
 40
5.0
100
AcDbArc
 50
312.843643
 51
0.0
  0
LINE
  5
5399
330
535A
100
AcDbEntity
  8
HIDS
100
AcDbLine
 10
-29.0
 20
41.545715
 30
0.0
 11
-29.0
 21
36.660599
 31
0.0
  0
LINE
  5
539A
330
535A
100
AcDbEntity
  8
HIDS
  6
sekkei_H
100
AcDbLine
 10
-35.0
 20
44.25
 30
0.0
 11
-48.0
 21
44.25
 31
0.0
  0
ARC
  5
539B
330
535A
100
AcDbEntity
  8
HIDS
100
AcDbCircle
 10
0.0
 20
0.0
 30
0.0
 40
45.0
100
AcDbArc
 50
312.843643
 51
47.156357
  0
ARC
  5
539C
330
535A
100
AcDbEntity
  8
HIDS
100
AcDbCircle
 10
34.0
 20
-36.660606
 30
0.0
 40
5.0
100
AcDbArc
 50
132.843643
 51
180.0
  0
LINE
  5
539D
330
535A
100
AcDbEntity
  8
HOJO
100
AcDbLine
 10
10.0
 20
-34.0
 30
0.0
 11
10.0
 21
-44.0
 31
0.0
  0
LINE
  5
539E
330
535A
100
AcDbEntity
  8
HOJO
100
AcDbLine
 10
-10.0
 20
-34.0
 30
0.0
 11
-10.0
 21
-44.0
 31
0.0
  0
LINE
  5
539F
330
535A
100
AcDbEntity
  8
HOJO
100
AcDbLine
 10
48.0
 20
-44.0
 30
0.0
 11
10.0
 21
-44.0
 31
0.0
  0
LINE
  5
53A0
330
535A
100
AcDbEntity
  8
HIDS
100
AcDbLine
 10
26.052368
 20
-44.545258
 30
0.0
 11
0.0
 21
-45.0
 31
0.0
  0
ARC
  5
53A1
330
535A
100
AcDbEntity
  8
HIDS
100
AcDbCircle
 10
26.0
 20
-41.545708
 30
0.0
 40
3.0
100
AcDbArc
 50
271.0
 51
0.0
  0
LINE
  5
53A2
330
535A
100
AcDbEntity
  8
HIDS
100
AcDbLine
 10
29.0
 20
-41.545708
 30
0.0
 11
29.0
 21
-36.660606
 31
0.0
  0
LINE
  5
53A3
330
535A
100
AcDbEntity
  8
HOJO
100
AcDbLine
 10
48.0
 20
-34.0
 30
0.0
 11
10.0
 21
-34.0
 31
0.0
  0
LINE
  5
53A4
330
535A
100
AcDbEntity
  8
HIDS
100
AcDbLine
 10
48.0
 20
44.0
 30
0.0
 11
10.0
 21
44.0
 31
0.0
  0
LINE
  5
53A5
330
535A
100
AcDbEntity
  8
HIDS
100
AcDbLine
 10
48.0
 20
34.0
 30
0.0
 11
10.0
 21
34.0
 31
0.0
  0
LINE
  5
53A6
330
535A
100
AcDbEntity
  8
HIDS
100
AcDbLine
 10
26.052368
 20
44.545258
 30
0.0
 11
0.0
 21
45.0
 31
0.0
  0
LINE
  5
53A7
330
535A
100
AcDbEntity
  8
HIDS
100
AcDbLine
 10
-10.0
 20
34.0
 30
0.0
 11
-10.0
 21
44.0
 31
0.0
  0
ARC
  5
53A8
330
535A
100
AcDbEntity
  8
HIDS
100
AcDbCircle
 10
26.0
 20
41.545715
 30
0.0
 40
3.0
100
AcDbArc
 50
0.0
 51
89.0
  0
LINE
  5
53A9
330
535A
100
AcDbEntity
  8
HIDS
100
AcDbLine
 10
10.0
 20
34.0
 30
0.0
 11
10.0
 21
44.0
 31
0.0
  0
ARC
  5
53AA
330
535A
100
AcDbEntity
  8
HIDS
100
AcDbCircle
 10
34.0
 20
36.660599
 30
0.0
 40
5.0
100
AcDbArc
 50
180.0
 51
227.156357
  0
LINE
  5
53AB
330
535A
100
AcDbEntity
  8
HIDS
100
AcDbLine
 10
29.0
 20
41.545715
 30
0.0
 11
29.0
 21
36.660599
 31
0.0
  0
LINE
  5
53AC
330
535A
100
AcDbEntity
  8
0
100
AcDbLine
 10
-41.0
 20
24.0
 30
0.0
 11
-48.0
 21
23.816711
 31
0.0
  0
LINE
  5
53AD
330
535A
100
AcDbEntity
  8
0
100
AcDbLine
 10
-46.000031
 20
25.0
 30
0.0
 11
-42.000031
 21
25.0
 31
0.0
  0
LINE
  5
53AE
330
535A
100
AcDbEntity
  8
0
100
AcDbLine
 10
-42.000031
 20
24.700043
 30
0.0
 11
-41.0
 21
24.700043
 31
0.0
  0
LWPOLYLINE
  5
53AF
330
535A
100
AcDbEntity
  8
HOJO
100
AcDbPolyline
 90
       19
 70
     0
 43
0.0
 10
-48.0
 20
-30.0474634747
 10
-44.281891
 20
-30.2528854747
 10
-40.200165
 20
-29.6852274747
 10
-35.767029
 20
-30.0906924747
 10
-31.279846
 20
-29.4419414747
 10
-26.68454
 20
-30.0095994747
 10
-20.92688
 20
-29.2256944747
 10
-14.871887
 20
-30.1988234747
 10
-9.465637
 20
-29.3338184747
 10
-4.491882
 20
-29.8744444747
 10
1.238739
 20
-29.2256944747
 10
7.401886
 20
-29.9825684747
 10
12.591888
 20
-29.3338184747
 10
17.998138
 20
-29.8744444747
 10
23.188141
 20
-29.1175704747
 10
28.378113
 20
-29.9825684747
 10
34.649384
 20
-29.1175704747
 10
40.920624
 20
-29.8744444747
 10
48.0
 20
-28.5703524747
  0
LINE
  5
53B0
330
535A
100
AcDbEntity
  8
0
100
AcDbLine
 10
-46.000031
 20
-25.0
 30
0.0
 11
-42.000031
 21
-25.0
 31
0.0
  0
LINE
  5
53B1
330
535A
100
AcDbEntity
  8
0
100
AcDbLine
 10
-42.000031
 20
-24.700043
 30
0.0
 11
-41.0
 21
-24.700043
 31
0.0
  0
LINE
  5
53B2
330
535A
100
AcDbEntity
  8
0
100
AcDbLine
 10
-41.0
 20
-24.0
 30
0.0
 11
-48.0
 21
-23.816711
 31
0.0
  0
LINE
  5
53B3
330
535A
100
AcDbEntity
  8
CENTER
100
AcDbLine
 10
0.0
 20
-2.9329564864
 30
0.0
 11
0.0
 21
2.9329564864
 31
0.0
  0
LINE
  5
53B4
330
535A
100
AcDbEntity
  8
0
100
AcDbLine
 10
49.0
 20
-9.31131
 30
0.0
 11
49.0
 21
9.31134
 31
0.0
  0
ARC
  5
53B5
330
535A
100
AcDbEntity
  8
0
100
AcDbCircle
 10
55.0
 20
0.0
 30
0.0
 40
3.0
100
AcDbArc
 50
90.0
 51
270.0
  0
LINE
  5
53B6
330
535A
100
AcDbEntity
  8
0
100
AcDbLine
 10
79.0
 20
9.0
 30
0.0
 11
79.0
 21
-9.0
 31
0.0
  0
LINE
  5
53B7
330
535A
100
AcDbEntity
  8
0
100
AcDbLine
 10
79.0
 20
-3.0
 30
0.0
 11
55.0
 21
-3.0
 31
0.0
  0
LINE
  5
53B8
330
535A
100
AcDbEntity
  8
0
100
AcDbLine
 10
79.0
 20
-9.0
 30
0.0
 11
49.0
 21
-9.0
 31
0.0
  0
LINE
  5
53B9
330
535A
100
AcDbEntity
  8
0
100
AcDbLine
 10
48.0
 20
-10.0
 30
0.0
 11
48.222565
 21
-10.0
 31
0.0
  0
ARC
  5
53BA
330
535A
100
AcDbEntity
  8
0
100
AcDbCircle
 10
48.5
 20
-9.31131
 30
0.0
 40
0.5
100
AcDbArc
 50
300.0
 51
0.0
  0
ARC
  5
53BB
330
535A
100
AcDbEntity
  8
0
100
AcDbCircle
 10
47.598083
 20
-8.100006
 30
0.0
 40
2.0
100
AcDbArc
 50
288.19487
 51
300.0
  0
LINE
  5
53BC
330
535A
100
AcDbEntity
  8
0
100
AcDbLine
 10
48.75
 20
-9.744324
 30
0.0
 11
48.598083
 21
-9.832062
 31
0.0
  0
LINE
  5
53BD
330
535A
100
AcDbEntity
  8
0
100
AcDbLine
 10
79.0
 20
3.0
 30
0.0
 11
55.0
 21
3.0
 31
0.0
  0
LINE
  5
53BE
330
535A
100
AcDbEntity
  8
0
100
AcDbLine
 10
79.0
 20
9.0
 30
0.0
 11
49.0
 21
9.0
 31
0.0
  0
LINE
  5
53BF
330
535A
100
AcDbEntity
  8
0
100
AcDbLine
 10
48.0
 20
10.0
 30
0.0
 11
48.222565
 21
10.0
 31
0.0
  0
ARC
  5
53C0
330
535A
100
AcDbEntity
  8
0
100
AcDbCircle
 10
48.5
 20
9.31134
 30
0.0
 40
0.5
100
AcDbArc
 50
0.0
 51
60.0
  0
ARC
  5
53C1
330
535A
100
AcDbEntity
  8
0
100
AcDbCircle
 10
47.598083
 20
8.100006
 30
0.0
 40
2.0
100
AcDbArc
 50
60.0
 51
71.80513
  0
LINE
  5
53C2
330
535A
100
AcDbEntity
  8
0
100
AcDbLine
 10
48.75
 20
9.744324
 30
0.0
 11
48.598083
 21
9.832062
 31
0.0
  0
LINE
  5
53C3
330
535A
100
AcDbEntity
  8
0
100
AcDbLine
 10
-49.0
 20
-9.31131
 30
0.0
 11
-49.0
 21
9.31134
 31
0.0
  0
ARC
  5
53C4
330
535A
100
AcDbEntity
  8
0
100
AcDbCircle
 10
-55.0
 20
0.0
 30
0.0
 40
3.0
100
AcDbArc
 50
270.0
 51
90.0
  0
LINE
  5
53C5
330
535A
100
AcDbEntity
  8
0
100
AcDbLine
 10
-79.0
 20
9.0
 30
0.0
 11
-79.0
 21
-9.0
 31
0.0
  0
LINE
  5
53C6
330
535A
100
AcDbEntity
  8
0
100
AcDbLine
 10
-79.0
 20
-3.0
 30
0.0
 11
-55.0
 21
-3.0
 31
0.0
  0
LINE
  5
53C7
330
535A
100
AcDbEntity
  8
0
100
AcDbLine
 10
-79.0
 20
-9.0
 30
0.0
 11
-49.0
 21
-9.0
 31
0.0
  0
LINE
  5
53C8
330
535A
100
AcDbEntity
  8
0
100
AcDbLine
 10
-48.0
 20
-10.0
 30
0.0
 11
-48.222565
 21
-10.0
 31
0.0
  0
ARC
  5
53C9
330
535A
100
AcDbEntity
  8
0
100
AcDbCircle
 10
-48.5
 20
-9.31131
 30
0.0
 40
0.5
100
AcDbArc
 50
180.0
 51
240.0
  0
ARC
  5
53CA
330
535A
100
AcDbEntity
  8
0
100
AcDbCircle
 10
-47.598083
 20
-8.100006
 30
0.0
 40
2.0
100
AcDbArc
 50
240.0
 51
251.80513
  0
LINE
  5
53CB
330
535A
100
AcDbEntity
  8
0
100
AcDbLine
 10
-48.75
 20
-9.744324
 30
0.0
 11
-48.598083
 21
-9.832062
 31
0.0
  0
LINE
  5
53CC
330
535A
100
AcDbEntity
  8
0
100
AcDbLine
 10
-79.0
 20
3.0
 30
0.0
 11
-55.0
 21
3.0
 31
0.0
  0
LINE
  5
53CD
330
535A
100
AcDbEntity
  8
0
100
AcDbLine
 10
-79.0
 20
9.0
 30
0.0
 11
-49.0
 21
9.0
 31
0.0
  0
LINE
  5
53CE
330
535A
100
AcDbEntity
  8
0
100
AcDbLine
 10
-48.0
 20
10.0
 30
0.0
 11
-48.222565
 21
10.0
 31
0.0
  0
ARC
  5
53CF
330
535A
100
AcDbEntity
  8
0
100
AcDbCircle
 10
-48.5
 20
9.31134
 30
0.0
 40
0.5
100
AcDbArc
 50
120.0
 51
180.0
  0
ARC
  5
53D0
330
535A
100
AcDbEntity
  8
0
100
AcDbCircle
 10
-47.598083
 20
8.100006
 30
0.0
 40
2.0
100
AcDbArc
 50
108.19487
 51
120.0
  0
LINE
  5
53D1
330
535A
100
AcDbEntity
  8
0
100
AcDbLine
 10
-48.75
 20
9.744324
 30
0.0
 11
-48.598083
 21
9.832062
 31
0.0
  0
LINE
  5
53D2
330
535A
100
AcDbEntity
  8
CENTER
100
AcDbLine
 10
-2.9329564864
 20
0.0
 30
0.0
 11
2.9329564864
 21
0.0
 31
0.0
  0
LINE
  5
53D3
330
535A
100
AcDbEntity
  8
0
100
AcDbLine
 10
48.0
 20
-43.2
 30
0.0
 11
-35.0
 21
-43.2
 31
0.0
  0
LINE
  5
53D4
330
535A
100
AcDbEntity
  8
0
100
AcDbLine
 10
48.0
 20
-34.8
 30
0.0
 11
-35.0
 21
-34.8
 31
0.0
  0
LINE
  5
53D5
330
535A
100
AcDbEntity
  8
HIDS
100
AcDbLine
 10
48.0
 20
34.8
 30
0.0
 11
-35.0
 21
34.8
 31
0.0
  0
LINE
  5
53D6
330
535A
100
AcDbEntity
  8
HIDS
100
AcDbLine
 10
48.0
 20
43.2
 30
0.0
 11
-35.0
 21
43.2
 31
0.0
  0
ENDBLK
  5
53D7
330
535A
100
AcDbEntity
  8
0
100
AcDbBlockEnd
  0
BLOCK
  5
53F3
330
53F2
100
AcDbEntity
  8
0
100
AcDbBlockBegin
  2
*D70
 70
     1
 10
0.0
 20
0.0
 30
0.0
  3
*D70
  1

  0
POINT
  5
5408
330
53F2
100
AcDbEntity
  8
DEFPOINTS
 62
     0
100
AcDbPoint
 10
371.8996651857
 20
104.6198156455
 30
0.0
  0
POINT
  5
5409
330
53F2
100
AcDbEntity
  8
DEFPOINTS
 62
     0
100
AcDbPoint
 10
371.8996651857
 20
96.2198156455
 30
0.0
  0
POINT
  5
540A
330
53F2
100
AcDbEntity
  8
DEFPOINTS
 62
     0
100
AcDbPoint
 10
370.3838906704
 20
96.2198156455
 30
0.0
  0
ENDBLK
  5
53F4
330
53F2
100
AcDbEntity
  8
0
100
AcDbBlockEnd
  0
ENDSEC
  0
SECTION
  2
ENTITIES
  0
TEXT
  5
1DCA
330
2
100
AcDbEntity
  8
TITLE_C
100
AcDbText
 10
33.3279241421
 20
-25.9207662799
 30
0.0
 40
5.0
  1
F2F18T010～240-CTMR60WN
100
AcDbText
  0
TEXT
  5
1DCB
330
2
100
AcDbEntity
  8
TITLE_C
100
AcDbText
 10
33.3279241421
 20
1.4333608575
 30
0.0
 40
5.0
  1
F2F18T010～240-CTMR40WN
100
AcDbText
  0
TEXT
  5
1DCC
330
2
100
AcDbEntity
  8
TITLE_C
100
AcDbText
 10
33.3279241421
 20
10.4333608575
 30
0.0
 40
5.0
  1
F2F18T010～240-CTMR40NNX
100
AcDbText
  0
TEXT
  5
1DCE
330
2
100
AcDbEntity
  8
TITLE_C
100
AcDbText
 10
33.3279241421
 20
-16.9207662799
 30
0.0
 40
5.0
  1
F2F18T010～240-CTMR60NNX
100
AcDbText
  0
TEXT
  5
1DD0
330
2
100
AcDbEntity
  8
TITLE_C
100
AcDbText
 10
150.1192673709
 20
20.1408578066
 30
0.0
 40
5.0
  1
F2F18T010～240-CSMR40NN
100
AcDbText
  0
LINE
  5
272C
330
2
100
AcDbEntity
  8
0
  6
CENS
 62
     3
100
AcDbLine
 10
710.8429121171
 20
188.8256126008
 30
0.0
 11
710.8429121171
 21
178.1037863665
 31
0.0
  0
ARC
  5
272D
330
2
100
AcDbEntity
  8
0
100
AcDbCircle
 10
710.8429121171
 20
179.0198156455
 30
0.0
 40
9.000000000010642
100
AcDbArc
 50
77.3231615211
 51
102.6768384789
  0
ARC
  5
272E
330
2
100
AcDbEntity
  8
0
100
AcDbCircle
 10
709.218968563
 20
186.2394283313
 30
0.0
 40
1.59999999999961
100
AcDbArc
 50
102.6768384789
 51
165.0
  0
LINE
  5
272F
330
2
100
AcDbEntity
  8
0
100
AcDbLine
 10
707.3429121171
 20
185.4198156455
 30
0.0
 11
707.673487241
 21
186.6535388035
 31
0.0
  0
ARC
  5
2730
330
2
100
AcDbEntity
  8
0
100
AcDbCircle
 10
712.4668556712
 20
186.2394283313
 30
0.0
 40
1.59999999999961
100
AcDbArc
 50
15.0
 51
77.3231615211
  0
LINE
  5
2731
330
2
100
AcDbEntity
  8
0
100
AcDbLine
 10
714.0123369932
 20
186.6535388035
 30
0.0
 11
714.3429121171
 21
185.4198156455
 31
0.0
  0
LINE
  5
2732
330
2
100
AcDbEntity
  8
0
100
AcDbLine
 10
707.0429121171
 20
185.4198156455
 30
0.0
 11
714.6429121171
 21
185.4198156455
 31
0.0
  0
LINE
  5
2733
330
2
100
AcDbEntity
  8
0
100
AcDbLine
 10
707.0429121171
 20
185.4198156455
 30
0.0
 11
707.0429121171
 21
184.4198156455
 31
0.0
  0
LINE
  5
2734
330
2
100
AcDbEntity
  8
0
100
AcDbLine
 10
710.7698314772
 20
184.4198156455
 30
0.0
 11
710.5018822848
 21
185.4198156455
 31
0.0
  0
LINE
  5
2735
330
2
100
AcDbEntity
  8
0
100
AcDbLine
 10
711.1839419494
 20
184.4198156455
 30
0.0
 11
710.915992757
 21
185.4198156455
 31
0.0
  0
LINE
  5
2736
330
2
100
AcDbEntity
  8
0
100
AcDbLine
 10
714.6429121171
 20
185.4198156455
 30
0.0
 11
714.6429121171
 21
184.4198156455
 31
0.0
  0
LINE
  5
2762
330
2
100
AcDbEntity
  8
CENTER
100
AcDbLine
 10
706.051152579
 20
346.7787604107
 30
0.0
 11
715.6346716552
 21
346.7787604107
 31
0.0
  0
CIRCLE
  5
2763
330
2
100
AcDbEntity
  8
0
100
AcDbCircle
 10
710.8429121171
 20
346.7787604107
 30
0.0
 40
3.799999999999998
  0
CIRCLE
  5
2764
330
2
100
AcDbEntity
  8
0
100
AcDbCircle
 10
710.8429121171
 20
346.7787604107
 30
0.0
 40
3.499999999999146
  0
LINE
  5
2765
330
2
100
AcDbEntity
  8
CENTER
100
AcDbLine
 10
710.8429121171
 20
351.5705199488
 30
0.0
 11
710.8429121171
 21
341.9870008726
 31
0.0
  0
ARC
  5
2766
330
2
100
AcDbEntity
  8
0
100
AcDbCircle
 10
712.6565484807
 20
348.5923967743
 30
0.0
 40
1.336363636363619
100
AcDbArc
 50
180.0
 51
270.0
  0
ARC
  5
2767
330
2
100
AcDbEntity
  8
0
100
AcDbCircle
 10
709.0292757535
 20
348.5923967743
 30
0.0
 40
1.336363636363619
100
AcDbArc
 50
270.0
 51
0.0
  0
ARC
  5
2768
330
2
100
AcDbEntity
  8
0
100
AcDbCircle
 10
712.6565484807
 20
344.9651240471
 30
0.0
 40
1.336363636363619
100
AcDbArc
 50
90.0
 51
180.0
  0
LINE
  5
2769
330
2
100
AcDbEntity
  8
0
100
AcDbLine
 10
708.7429121171
 20
347.256033138
 30
0.0
 11
709.0292757535
 21
347.256033138
 31
0.0
  0
LINE
  5
276A
330
2
100
AcDbEntity
  8
0
100
AcDbLine
 10
708.7429121171
 20
346.7787604107
 30
0.0
 11
708.7429121171
 21
347.256033138
 31
0.0
  0
LINE
  5
276B
330
2
100
AcDbEntity
  8
0
100
AcDbLine
 10
710.915992757
 20
342.9794632099
 30
0.0
 11
710.915992757
 21
343.2795234624
 31
0.0
  0
LINE
  5
276C
330
2
100
AcDbEntity
  8
0
100
AcDbLine
 10
710.5018822848
 20
342.9940941568
 30
0.0
 11
710.5018822848
 21
343.2954145115
 31
0.0
  0
LINE
  5
276D
330
2
100
AcDbEntity
  8
0
100
AcDbLine
 10
711.3201848444
 20
344.9651240471
 30
0.0
 11
711.3201848444
 21
344.6787604107
 31
0.0
  0
LINE
  5
276E
330
2
100
AcDbEntity
  8
0
100
AcDbLine
 10
711.3201848444
 20
344.6787604107
 30
0.0
 11
710.8429121171
 21
344.6787604107
 31
0.0
  0
LINE
  5
276F
330
2
100
AcDbEntity
  8
0
100
AcDbLine
 10
710.8429121171
 20
344.6787604107
 30
0.0
 11
710.3656393898
 21
344.6787604107
 31
0.0
  0
LINE
  5
2770
330
2
100
AcDbEntity
  8
0
100
AcDbLine
 10
710.3656393898
 20
344.6787604107
 30
0.0
 11
710.3656393898
 21
344.9651240471
 31
0.0
  0
LINE
  5
2771
330
2
100
AcDbEntity
  8
0
100
AcDbLine
 10
709.0292757535
 20
346.3014876834
 30
0.0
 11
708.7429121171
 21
346.3014876834
 31
0.0
  0
ARC
  5
2772
330
2
100
AcDbEntity
  8
0
100
AcDbCircle
 10
709.0292757535
 20
344.9651240471
 30
0.0
 40
1.336363636363619
100
AcDbArc
 50
0.0
 51
90.0
  0
LINE
  5
2773
330
2
100
AcDbEntity
  8
0
100
AcDbLine
 10
708.7429121171
 20
346.3014876834
 30
0.0
 11
708.7429121171
 21
346.7787604107
 31
0.0
  0
LINE
  5
2774
330
2
100
AcDbEntity
  8
0
100
AcDbLine
 10
712.6565484807
 20
347.256033138
 30
0.0
 11
712.9429121171
 21
347.256033138
 31
0.0
  0
LINE
  5
2775
330
2
100
AcDbEntity
  8
0
100
AcDbLine
 10
712.9429121171
 20
347.256033138
 30
0.0
 11
712.9429121171
 21
346.7787604107
 31
0.0
  0
LINE
  5
2776
330
2
100
AcDbEntity
  8
0
100
AcDbLine
 10
712.9429121171
 20
346.3014876834
 30
0.0
 11
712.6565484807
 21
346.3014876834
 31
0.0
  0
LINE
  5
2777
330
2
100
AcDbEntity
  8
0
100
AcDbLine
 10
712.9429121171
 20
346.7787604107
 30
0.0
 11
712.9429121171
 21
346.3014876834
 31
0.0
  0
LINE
  5
2778
330
2
100
AcDbEntity
  8
0
100
AcDbLine
 10
710.8429121171
 20
348.8787604107
 30
0.0
 11
711.3201848444
 21
348.8787604107
 31
0.0
  0
LINE
  5
2779
330
2
100
AcDbEntity
  8
0
100
AcDbLine
 10
711.3201848444
 20
348.8787604107
 30
0.0
 11
711.3201848444
 21
348.5923967743
 31
0.0
  0
LINE
  5
277A
330
2
100
AcDbEntity
  8
0
100
AcDbLine
 10
710.3656393898
 20
348.8787604107
 30
0.0
 11
710.8429121171
 21
348.8787604107
 31
0.0
  0
LINE
  5
277B
330
2
100
AcDbEntity
  8
0
100
AcDbLine
 10
710.3656393898
 20
348.5923967743
 30
0.0
 11
710.3656393898
 21
348.8787604107
 31
0.0
  0
LINE
  5
277C
330
2
100
AcDbEntity
  8
0
100
AcDbLine
 10
710.8429121171
 20
357.4837243047
 30
0.0
 11
710.8429121171
 21
353.8889983047
 31
0.0
  0
LINE
  5
277D
330
2
100
AcDbEntity
  8
0
100
AcDbLine
 10
712.4155761171
 20
360.4696243047
 30
0.0
 11
709.1953301171
 21
360.4696243047
 31
0.0
  0
LINE
  5
277E
330
2
100
AcDbEntity
  8
0
100
AcDbLine
 10
715.0367301171
 20
357.4837243047
 30
0.0
 11
706.4993161171
 21
357.4837243047
 31
0.0
  0
LINE
  5
277F
330
2
100
AcDbEntity
  8
0
100
AcDbLine
 10
713.6887081171
 20
358.9837243047
 30
0.0
 11
708.0149101171
 21
358.9837243047
 31
0.0
  0
CIRCLE
  5
2780
330
2
100
AcDbEntity
  8
0
100
AcDbCircle
 10
710.8429121171
 20
346.7787604107
 30
0.0
 40
4.0
  0
CIRCLE
  5
2781
330
2
100
AcDbEntity
  8
0
100
AcDbCircle
 10
710.8429121171
 20
357.4837243047
 30
0.0
 40
4.926010018386079
  0
LINE
  5
2791
330
2
100
AcDbEntity
  8
0
  6
CENS
 62
     3
100
AcDbLine
 10
71.8867460118
 20
188.8256126008
 30
0.0
 11
71.8867460118
 21
178.1037863665
 31
0.0
  0
ARC
  5
2792
330
2
100
AcDbEntity
  8
0
100
AcDbCircle
 10
71.8867460118
 20
179.0198156455
 30
0.0
 40
9.000000000010642
100
AcDbArc
 50
77.3231615211
 51
102.6768384789
  0
ARC
  5
2793
330
2
100
AcDbEntity
  8
0
100
AcDbCircle
 10
70.2628024577
 20
186.2394283313
 30
0.0
 40
1.59999999999961
100
AcDbArc
 50
102.6768384789
 51
165.0
  0
LINE
  5
2794
330
2
100
AcDbEntity
  8
0
100
AcDbLine
 10
68.3867460118
 20
185.4198156455
 30
0.0
 11
68.7173211357
 21
186.6535388035
 31
0.0
  0
ARC
  5
2795
330
2
100
AcDbEntity
  8
0
100
AcDbCircle
 10
73.5106895659
 20
186.2394283313
 30
0.0
 40
1.59999999999961
100
AcDbArc
 50
15.0
 51
77.3231615211
  0
LINE
  5
2796
330
2
100
AcDbEntity
  8
0
100
AcDbLine
 10
75.0561708879
 20
186.6535388035
 30
0.0
 11
75.3867460118
 21
185.4198156455
 31
0.0
  0
LINE
  5
2797
330
2
100
AcDbEntity
  8
0
100
AcDbLine
 10
68.0867460118
 20
185.4198156455
 30
0.0
 11
75.6867460118
 21
185.4198156455
 31
0.0
  0
LINE
  5
2798
330
2
100
AcDbEntity
  8
0
100
AcDbLine
 10
68.0867460118
 20
185.4198156455
 30
0.0
 11
68.0867460118
 21
184.4198156455
 31
0.0
  0
LINE
  5
2799
330
2
100
AcDbEntity
  8
0
100
AcDbLine
 10
75.6867460118
 20
185.4198156455
 30
0.0
 11
75.6867460118
 21
184.4198156455
 31
0.0
  0
ARC
  5
27AD
330
2
100
AcDbEntity
  8
HIDS
100
AcDbCircle
 10
385.8996651857
 20
179.0198156455
 30
0.0
 40
9.000000000010642
100
AcDbArc
 50
77.3231615211
 51
102.6768384789
  0
ARC
  5
27AE
330
2
100
AcDbEntity
  8
HIDS
100
AcDbCircle
 10
384.2757216316
 20
186.2394283313
 30
0.0
 40
1.59999999999961
100
AcDbArc
 50
102.6768384789
 51
141.9411893058
  0
ARC
  5
27AF
330
2
100
AcDbEntity
  8
HIDS
  6
sekkei_H
100
AcDbCircle
 10
384.2757216316
 20
186.2394283313
 30
0.0
 40
1.59999999999961
100
AcDbArc
 50
141.9411893058
 51
165.0
  0
LINE
  5
27B0
330
2
100
AcDbEntity
  8
HIDS
  6
sekkei_H
100
AcDbLine
 10
382.3996651857
 20
185.4198156455
 30
0.0
 11
382.7302403095
 21
186.6535388035
 31
0.0
  0
ARC
  5
27B1
330
2
100
AcDbEntity
  8
HIDS
  6
sekkei_H
100
AcDbCircle
 10
387.5236087397
 20
186.2394283313
 30
0.0
 40
1.59999999999961
100
AcDbArc
 50
15.0
 51
33.5557012948
  0
ARC
  5
27B2
330
2
100
AcDbEntity
  8
HIDS
100
AcDbCircle
 10
387.5236087397
 20
186.2394283313
 30
0.0
 40
1.59999999999961
100
AcDbArc
 50
33.5557012948
 51
77.3231615211
  0
LINE
  5
27B3
330
2
100
AcDbEntity
  8
HIDS
  6
sekkei_H
100
AcDbLine
 10
389.0690900618
 20
186.6535388035
 30
0.0
 11
389.3996651857
 21
185.4198156455
 31
0.0
  0
LINE
  5
27B4
330
2
100
AcDbEntity
  8
HIDS
  6
sekkei_H
100
AcDbLine
 10
382.0996651857
 20
185.4198156455
 30
0.0
 11
389.6996651857
 21
185.4198156455
 31
0.0
  0
LINE
  5
27B5
330
2
100
AcDbEntity
  8
HIDS
  6
sekkei_H
100
AcDbLine
 10
382.0996651857
 20
185.4198156455
 30
0.0
 11
382.0996651857
 21
184.2417754612
 31
0.0
  0
LINE
  5
27B6
330
2
100
AcDbEntity
  8
HIDS
  6
sekkei_H
100
AcDbLine
 10
389.6996651857
 20
185.4198156455
 30
0.0
 11
389.6996651857
 21
184.109118069
 31
0.0
  0
TEXT
  5
29AA
330
2
100
AcDbEntity
  8
TITLE_C
100
AcDbText
 10
33.3279241421
 20
19.5486344818
 30
0.0
 40
5.0
  1
F2F18T010～240-CTMR40NN
100
AcDbText
  0
TEXT
  5
29AC
330
2
100
AcDbEntity
  8
TITLE_C
100
AcDbText
 10
33.3279241421
 20
-7.9453344739
 30
0.0
 40
5.0
  1
F2F18T010～240-CTMR60NN
100
AcDbText
  0
TEXT
  5
2A0B
330
2
100
AcDbEntity
  8
TITLE_C
100
AcDbText
 10
33.3279241421
 20
-34.5469973751
 30
0.0
 40
5.0
  1
F2F18T010～240-CTMR90NN
100
AcDbText
  0
LINE
  5
466B
330
2
100
AcDbEntity
  8
CENTER
100
AcDbLine
 10
251.1573150118
 20
139.4198156455
 30
0.0
 11
26.8662160436
 21
139.4198156455
 31
0.0
  0
LINE
  5
466C
330
2
100
AcDbEntity
  8
CENTER
100
AcDbLine
 10
755.8634420853
 20
360.7787604107
 30
0.0
 11
533.9142621171
 21
360.7787604107
 31
0.0
  0
INSERT
  5
466D
330
2
100
AcDbEntity
  8
0
100
AcDbBlockReference
  2
ファンカバ－ブレーキ_F2S-15_M_0001
 10
55.8867460118
 20
139.4198156455
 30
0.0
  0
LINE
  5
466F
330
2
100
AcDbEntity
  8
CENTER
100
AcDbLine
 10
288.8473271857
 20
139.4198156455
 30
0.0
 11
454.9520031857
 21
139.4198156455
 31
0.0
  0
LINE
  5
4670
330
2
100
AcDbEntity
  8
CENTER
100
AcDbLine
 10
371.8996651857
 20
85.1348116455
 30
0.0
 11
371.8996651857
 21
193.7048196455
 31
0.0
  0
INSERT
  5
4675
330
2
100
AcDbEntity
  8
0
100
AcDbBlockReference
  2
ファンカバ－ブレーキ_F2S-15_M_0002
 10
726.8429121171
 20
139.4198156455
 30
0.0
  0
INSERT
  5
4944
330
2
100
AcDbEntity
  8
0
100
AcDbBlockReference
  2
ファンカバ－ブレーキ_F2S-15_M_0003
 10
726.8429121171
 20
360.7787604107
 30
0.0
  0
LINE
  5
49BF
330
2
100
AcDbEntity
  8
CENTER
100
AcDbLine
 10
530.8054371171
 20
139.4198156455
 30
0.0
 11
755.8634420853
 21
139.4198156455
 31
0.0
  0
LINE
  5
4AA5
330
2
100
AcDbEntity
  8
0
  6
CENS
 62
     3
100
AcDbLine
 10
385.8996651857
 20
188.8256126008
 30
0.0
 11
385.8996651857
 21
178.1037863665
 31
0.0
  0
TEXT
  5
4D4A
330
2
100
AcDbEntity
  8
TITLE_C
100
AcDbText
 10
150.0263312075
 20
2.0057331192
 30
0.0
 40
5.0
  1
F2F18T010～240-CSMR40WN
100
AcDbText
  0
TEXT
  5
4D4B
330
2
100
AcDbEntity
  8
TITLE_C
100
AcDbText
 10
150.0263312075
 20
11.0057331192
 30
0.0
 40
5.0
  1
F2F18T010～240-CSMR40WNX
100
AcDbText
  0
INSERT
  5
523B
330
2
100
AcDbEntity
  8
0
100
AcDbBlockReference
  2
A$C97379603
 10
55.8867460118
 20
139.4198156455
 30
0.0
  0
INSERT
  5
52DA
330
2
100
AcDbEntity
  8
0
100
AcDbBlockReference
  2
A$C0221c00d
 10
726.8429121171
 20
139.4198156455
 30
0.0
  0
INSERT
  5
5359
330
2
100
AcDbEntity
  8
0
100
AcDbBlockReference
  2
A$C326328fc
 10
726.8429121171
 20
405.7787604107
 30
0.0
  0
INSERT
  5
53DD
330
2
100
AcDbEntity
  8
0
100
AcDbBlockReference
  2
A$Cae477ae8
 10
371.8996651857
 20
139.4198156455
 30
0.0
  0
ENDSEC
  0
SECTION
  2
OBJECTS
  0
DICTIONARY
  5
7
330
0
100
AcDbDictionary
281
     1
  3
ACAD_CIP_PREVIOUS_PRODUCT_INFO
350
2E4D
  3
ACAD_COLOR
350
1D83
  3
ACAD_DETAILVIEWSTYLE
350
2E49
  3
ACAD_GROUP
350
75
  3
ACAD_LAYOUT
350
61
  3
ACAD_MATERIAL
350
1D56
  3
ACAD_MLEADERSTYLE
350
1DA8
  3
ACAD_MLINESTYLE
350
76
  3
ACAD_PLOTSETTINGS
350
77
  3
ACAD_PLOTSTYLENAME
350
6
  3
ACAD_SCALELIST
350
1D86
  3
ACAD_SECTIONVIEWSTYLE
350
2E47
  3
ACAD_TABLESTYLE
350
1D84
  3
ACAD_VISUALSTYLE
350
1D6F
  3
AcadDim
350
480
  3
ACDB_RECOMPOSE_DATA
350
5671
  3
AcDbVariableDictionary
350
102
  3
DWGPROPS
350
5672
  0
DICTIONARY
  5
1F46
330
6E
100
AcDbDictionary
280
     1
281
     1
  0
DICTIONARY
  5
1DB7
330
66
100
AcDbDictionary
280
     1
281
     1
  3
ACAD_LAYERSTATES
360
1DB8
  0
DICTIONARY
  5
1F2F
330
5E
100
AcDbDictionary
280
     1
281
     1
  3
ADSK_XREC_LAYER_RECONCILED
360
1F30
  0
DICTIONARY
  5
1F31
330
3E
100
AcDbDictionary
280
     1
281
     1
  3
ADSK_XREC_LAYER_RECONCILED
360
1F32
  0
DICTIONARY
  5
1F37
330
2B5
100
AcDbDictionary
280
     1
281
     1
  3
ADSK_XREC_LAYER_RECONCILED
360
1F38
  0
DICTIONARY
  5
1F39
330
2BA
100
AcDbDictionary
280
     1
281
     1
  3
ADSK_XREC_LAYER_RECONCILED
360
1F3A
  0
DICTIONARY
  5
1DB5
330
1DB4
100
AcDbDictionary
280
     1
281
     1
  3
ADSK_XREC_LAYER_RECONCILED
360
1F3F
  0
DICTIONARY
  5
5155
330
5154
100
AcDbDictionary
280
     1
281
     1
  3
ACAD_SORTENTS
360
5156
  0
DICTIONARY
  5
523D
330
523C
100
AcDbDictionary
280
     1
281
     1
  3
ACAD_SORTENTS
360
523E
  0
DICTIONARY
  5
52DC
330
52DB
100
AcDbDictionary
280
     1
281
     1
  3
ACAD_SORTENTS
360
52DD
  0
DICTIONARY
  5
535B
330
535A
100
AcDbDictionary
280
     1
281
     1
  3
ACAD_SORTENTS
360
535C
  0
XRECORD
  5
2E4D
102
{ACAD_REACTORS
330
7
102
}
330
7
100
AcDbXrecord
280
     1
300
ACD
300
2020
300
87224ACD_2020_0F
  0
DICTIONARY
  5
1D83
102
{ACAD_REACTORS
330
7
102
}
330
7
100
AcDbDictionary
281
     1
  0
DICTIONARY
  5
2E49
102
{ACAD_REACTORS
330
7
102
}
330
7
100
AcDbDictionary
281
     1
  3
Imperial24
350
2E4A
  0
DICTIONARY
  5
75
102
{ACAD_REACTORS
330
7
102
}
330
7
100
AcDbDictionary
281
     1
  0
DICTIONARY
  5
61
102
{ACAD_REACTORS
330
7
102
}
330
7
100
AcDbDictionary
281
     1
  3
Model
350
60
  3
レイアウト1
350
566B
  0
DICTIONARY
  5
1D56
102
{ACAD_REACTORS
330
7
102
}
330
7
100
AcDbDictionary
281
     1
  3
ByBlock
350
1D5F
  3
ByLayer
350
1D57
  3
Global
350
1D67
  0
DICTIONARY
  5
1DA8
102
{ACAD_REACTORS
330
7
102
}
330
7
100
AcDbDictionary
281
     1
  3
Standard
350
1DA9
  0
DICTIONARY
  5
76
102
{ACAD_REACTORS
330
7
102
}
330
7
100
AcDbDictionary
281
     1
  3
STANDARD
350
78
  0
DICTIONARY
  5
77
102
{ACAD_REACTORS
330
7
102
}
330
7
100
AcDbDictionary
281
     1
  0
ACDBDICTIONARYWDFLT
  5
6
102
{ACAD_REACTORS
330
7
102
}
330
7
100
AcDbDictionary
281
     1
  3
Normal
350
5
100
AcDbDictionaryWithDefault
340
5
  0
DICTIONARY
  5
1D86
102
{ACAD_REACTORS
330
7
102
}
330
7
100
AcDbDictionary
281
     1
  3
A0
350
1D87
  3
A1
350
1D88
  3
A2
350
1D89
  3
A3
350
1D8A
  3
A4
350
1D8B
  3
A5
350
1D8C
  3
A6
350
1D8D
  3
A7
350
1D8E
  3
A8
350
1D8F
  3
A9
350
1D90
  3
B0
350
1D91
  3
B1
350
1D92
  3
B2
350
1D93
  3
B3
350
1D94
  3
B4
350
1D95
  3
B5
350
1D96
  3
B6
350
1D97
  3
B7
350
1D98
  3
B8
350
1D99
  3
B9
350
1D9A
  3
C0
350
1D9B
  3
C1
350
1D9C
  3
C2
350
1D9D
  3
C3
350
1D9E
  3
C4
350
1D9F
  3
C5
350
1DA0
  3
C6
350
1DA1
  3
C7
350
1DA2
  3
C8
350
1DA3
  3
C9
350
1DA4
  3
D0
350
1DA5
  3
D1
350
1DA6
  3
D2
350
1DA7
  0
DICTIONARY
  5
2E47
102
{ACAD_REACTORS
330
7
102
}
330
7
100
AcDbDictionary
281
     1
  3
Imperial24
350
2E48
  0
DICTIONARY
  5
1D84
102
{ACAD_REACTORS
330
7
102
}
330
7
100
AcDbDictionary
281
     1
  3
Standard
350
1D85
  0
DICTIONARY
  5
1D6F
102
{ACAD_REACTORS
330
7
102
}
330
7
100
AcDbDictionary
281
     1
  3
2dWireframe
350
1D75
  3
3D Hidden
350
1D77
  3
3dWireframe
350
1D76
  3
Basic
350
1D74
  3
Brighten
350
1D7B
  3
ColorChange
350
1D7F
  3
Conceptual
350
1D78
  3
Dim
350
1D7A
  3
EdgeColorOff
350
1D82
  3
Facepattern
350
1D7E
  3
Flat
350
1D70
  3
FlatWithEdges
350
1D71
  3
Gouraud
350
1D72
  3
GouraudWithEdges
350
1D73
  3
Hidden
350
2E41
  3
JitterOff
350
1D80
  3
Linepattern
350
1D7D
  3
OverhangOff
350
1D81
  3
Realistic
350
1D79
  3
Shaded
350
2E46
  3
Shaded with edges
350
2E45
  3
Shades of Gray
350
2E42
  3
Sketchy
350
2E43
  3
Thicken
350
1D7C
  3
Wireframe
350
2E40
  3
X-Ray
350
2E44
  0
XRECORD
  5
480
102
{ACAD_REACTORS
330
7
102
}
330
7
100
AcDbXrecord
280
     1
 90
   990106
  3

 60
     0
 61
     0
 62
     1
 63
     3
 64
     1
 65
     0
 66
     0
 67
     3
 68
     1
 69
     0
 70
     0
 71
     0
 72
     0
 40
0.0
170
     2
340
0
  0
XRECORD
  5
5671
102
{ACAD_REACTORS
330
7
102
}
330
7
100
AcDbXrecord
280
     1
 90
        1
330
1D85
  0
DICTIONARY
  5
102
102
{ACAD_REACTORS
330
7
102
}
330
7
100
AcDbDictionary
281
     1
  3
CANNOSCALE
350
1FB8
  3
CMLEADERSTYLE
350
1FB7
  3
CTABLESTYLE
350
1FB6
  3
CVIEWDETAILSTYLE
350
49AE
  3
CVIEWSECTIONSTYLE
350
49AF
  3
DIMASSOC
350
103
  3
INDEXCTL
350
1FBA
  3
LAYEREVAL
350
4D3D
  3
LAYERNOTIFY
350
4D3E
  3
LIGHTINGUNITS
350
4D3C
  3
MSLTSCALE
350
4D3B
  3
SORTENTS
350
1FB9
  3
XCLIPFRAME
350
566F
  0
XRECORD
  5
5672
102
{ACAD_REACTORS
330
7
102
}
330
7
100
AcDbXrecord
280
     1
  1
DWGPROPS COOKIE
  2

  3

  4

  6

  7

  8
ykitaga
  9

300
=
301
=
302
=
303
=
304
=
305
=
306
=
307
=
308
=
309
=
 40
0.4705873264
 41
2453557.746875
 42
2460164.368449075
  1

 90
        0
  0
DICTIONARY
  5
1DB8
102
{ACAD_REACTORS
330
1DB7
102
}
330
1DB7
100
AcDbDictionary
281
     1
  0
XRECORD
  5
1F30
102
{ACAD_REACTORS
330
1F2F
102
}
330
1F2F
100
AcDbXrecord
280
     1
290
     1
  0
XRECORD
  5
1F32
102
{ACAD_REACTORS
330
1F31
102
}
330
1F31
100
AcDbXrecord
280
     1
290
     1
  0
XRECORD
  5
1F38
102
{ACAD_REACTORS
330
1F37
102
}
330
1F37
100
AcDbXrecord
280
     1
290
     1
  0
XRECORD
  5
1F3A
102
{ACAD_REACTORS
330
1F39
102
}
330
1F39
100
AcDbXrecord
280
     1
290
     1
  0
XRECORD
  5
1F3F
102
{ACAD_REACTORS
330
1DB5
102
}
330
1DB5
100
AcDbXrecord
280
     1
290
     1
  0
SORTENTSTABLE
  5
5156
102
{ACAD_REACTORS
330
5155
102
}
330
5155
100
AcDbSortentsTable
330
5154
  0
SORTENTSTABLE
  5
523E
102
{ACAD_REACTORS
330
523D
102
}
330
523D
100
AcDbSortentsTable
330
523C
  0
SORTENTSTABLE
  5
52DD
102
{ACAD_REACTORS
330
52DC
102
}
330
52DC
100
AcDbSortentsTable
330
52DB
  0
SORTENTSTABLE
  5
535C
102
{ACAD_REACTORS
330
535B
102
}
330
535B
100
AcDbSortentsTable
330
535A
  0
ACDBDETAILVIEWSTYLE
  5
2E4A
102
{ACAD_XDICTIONARY
360
56CF
102
}
102
{ACAD_REACTORS
330
2E49
102
}
330
2E49
100
AcDbModelDocViewStyle
 70
     0
  3
Imperial24
290
     0
100
AcDbDetailViewStyle
 70
     0
 71
     0
 90
        3
 71
     1
340
16
 40
0.24
340
0
 40
0.24
300

 40
0.36
280
     3
 71
     2
340
8
 90
       25
 71
     3
340
16
 40
0.24
 90
        1
 40
0.75
 90
        1
300
%<\AcVar ViewType \f "%tc1">% %<\AcVar ViewDetailId>%\PSCALE %<\AcVar ViewScale \f "%sn">%
 71
     4
340
8
 90
       25
340
8
 90
       25
280
     0
  0
LAYOUT
  5
60
102
{ACAD_XDICTIONARY
360
5673
102
}
102
{ACAD_REACTORS
330
61
102
}
330
61
100
AcDbPlotSettings
  1

  2
Canon LBP-1420
  4
A4
  6

 40
5.873749733
 41
5.8737478256
 42
5.8737487793
 43
5.8737487793
 44
209.9733276367
 45
296.925994873
 46
0.0
 47
5.37
 48
0.0
 49
0.0
140
0.0
141
0.0
142
1.0
143
0.088099941
 70
 11956
 72
     1
 73
     1
 74
     1
  7
Sekkei.ctb
 75
     0
147
11.3507453947
148
-88.9740150773
149
-101.3630682339
100
AcDbLayout
  1
Model
 70
     1
 71
     0
 10
0.0
 20
0.0
 11
12.0
 21
9.0
 12
0.0
 22
0.0
 32
0.0
 14
0.0
 24
0.0
 34
0.0
 15
0.0
 25
0.0
 35
0.0
146
0.0
 13
0.0
 23
0.0
 33
0.0
 16
1.0
 26
0.0
 36
0.0
 17
0.0
 27
1.0
 37
0.0
 76
     0
330
2
331
1D54
  0
LAYOUT
  5
566B
102
{ACAD_XDICTIONARY
360
56D9
102
}
102
{ACAD_REACTORS
330
61
102
}
330
61
100
AcDbPlotSettings
  1

  2
LBP8610
  4

  6

 40
0.0
 41
0.0
 42
0.0
 43
0.0
 44
0.0
 45
0.0
 46
0.0
 47
0.0
 48
0.0
 49
0.0
140
0.0
141
0.0
142
1.0
143
1.0
 70
   688
 72
     0
 73
     0
 74
     5
  7

 75
    16
147
1.0
148
0.0
149
0.0
100
AcDbLayout
  1
レイアウト1
 70
     1
 71
     1
 10
0.0
 20
0.0
 11
12.0
 21
9.0
 12
0.0
 22
0.0
 32
0.0
 14
0.0
 24
0.0
 34
0.0
 15
0.0
 25
0.0
 35
0.0
146
0.0
 13
0.0
 23
0.0
 33
0.0
 16
1.0
 26
0.0
 36
0.0
 17
0.0
 27
1.0
 37
0.0
 76
     0
330
566A
  0
MATERIAL
  5
1D5F
102
{ACAD_XDICTIONARY
360
1D60
102
}
102
{ACAD_REACTORS
330
1D56
102
}
330
1D56
100
AcDbMaterial
  1
ByBlock
 72
     0
 43
0.0208333333
 43
0.0
 43
0.0
 43
0.0
 43
0.0
 43
0.0208333333
 43
0.0
 43
0.0
 43
0.0
 43
0.0
 43
1.0
 43
0.0
 43
0.0
 43
0.0
 43
0.0
 43
1.0
 77
     0
 47
0.0208333333
 47
0.0
 47
0.0
 47
0.0
 47
0.0
 47
0.0208333333
 47
0.0
 47
0.0
 47
0.0
 47
0.0
 47
1.0
 47
0.0
 47
0.0
 47
0.0
 47
0.0
 47
1.0
171
     0
 49
0.0208333333
 49
0.0
 49
0.0
 49
0.0
 49
0.0
 49
0.0208333333
 49
0.0
 49
0.0
 49
0.0
 49
0.0
 49
1.0
 49
0.0
 49
0.0
 49
0.0
 49
0.0
 49
1.0
175
     0
142
0.0208333333
142
0.0
142
0.0
142
0.0
142
0.0
142
0.0208333333
142
0.0
142
0.0
142
0.0
142
0.0
142
1.0
142
0.0
142
0.0
142
0.0
142
0.0
142
1.0
179
     0
144
0.0208333333
144
0.0
144
0.0
144
0.0
144
0.0
144
0.0208333333
144
0.0
144
0.0
144
0.0
144
0.0
144
1.0
144
0.0
144
0.0
144
0.0
144
0.0
144
1.0
147
0.0208333333
147
0.0
147
0.0
147
0.0
147
0.0
147
0.0208333333
147
0.0
147
0.0
147
0.0
147
0.0
147
1.0
147
0.0
147
0.0
147
0.0
147
0.0
147
1.0
  0
MATERIAL
  5
1D57
102
{ACAD_XDICTIONARY
360
1D58
102
}
102
{ACAD_REACTORS
330
1D56
102
}
330
1D56
100
AcDbMaterial
  1
ByLayer
 72
     0
 43
0.0208333333
 43
0.0
 43
0.0
 43
0.0
 43
0.0
 43
0.0208333333
 43
0.0
 43
0.0
 43
0.0
 43
0.0
 43
1.0
 43
0.0
 43
0.0
 43
0.0
 43
0.0
 43
1.0
 77
     0
 47
0.0208333333
 47
0.0
 47
0.0
 47
0.0
 47
0.0
 47
0.0208333333
 47
0.0
 47
0.0
 47
0.0
 47
0.0
 47
1.0
 47
0.0
 47
0.0
 47
0.0
 47
0.0
 47
1.0
171
     0
 49
0.0208333333
 49
0.0
 49
0.0
 49
0.0
 49
0.0
 49
0.0208333333
 49
0.0
 49
0.0
 49
0.0
 49
0.0
 49
1.0
 49
0.0
 49
0.0
 49
0.0
 49
0.0
 49
1.0
175
     0
142
0.0208333333
142
0.0
142
0.0
142
0.0
142
0.0
142
0.0208333333
142
0.0
142
0.0
142
0.0
142
0.0
142
1.0
142
0.0
142
0.0
142
0.0
142
0.0
142
1.0
179
     0
144
0.0208333333
144
0.0
144
0.0
144
0.0
144
0.0
144
0.0208333333
144
0.0
144
0.0
144
0.0
144
0.0
144
1.0
144
0.0
144
0.0
144
0.0
144
0.0
144
1.0
147
0.0208333333
147
0.0
147
0.0
147
0.0
147
0.0
147
0.0208333333
147
0.0
147
0.0
147
0.0
147
0.0
147
1.0
147
0.0
147
0.0
147
0.0
147
0.0
147
1.0
  0
MATERIAL
  5
1D67
102
{ACAD_XDICTIONARY
360
1D68
102
}
102
{ACAD_REACTORS
330
1D56
102
}
330
1D56
100
AcDbMaterial
  1
Global
 72
     0
 43
0.0208333333
 43
0.0
 43
0.0
 43
0.0
 43
0.0
 43
0.0208333333
 43
0.0
 43
0.0
 43
0.0
 43
0.0
 43
1.0
 43
0.0
 43
0.0
 43
0.0
 43
0.0
 43
1.0
 77
     0
 47
0.0208333333
 47
0.0
 47
0.0
 47
0.0
 47
0.0
 47
0.0208333333
 47
0.0
 47
0.0
 47
0.0
 47
0.0
 47
1.0
 47
0.0
 47
0.0
 47
0.0
 47
0.0
 47
1.0
171
     0
 49
0.0208333333
 49
0.0
 49
0.0
 49
0.0
 49
0.0
 49
0.0208333333
 49
0.0
 49
0.0
 49
0.0
 49
0.0
 49
1.0
 49
0.0
 49
0.0
 49
0.0
 49
0.0
 49
1.0
175
     0
142
0.0208333333
142
0.0
142
0.0
142
0.0
142
0.0
142
0.0208333333
142
0.0
142
0.0
142
0.0
142
0.0
142
1.0
142
0.0
142
0.0
142
0.0
142
0.0
142
1.0
179
     0
144
0.0208333333
144
0.0
144
0.0
144
0.0
144
0.0
144
0.0208333333
144
0.0
144
0.0
144
0.0
144
0.0
144
1.0
144
0.0
144
0.0
144
0.0
144
0.0
144
1.0
147
0.0208333333
147
0.0
147
0.0
147
0.0
147
0.0
147
0.0208333333
147
0.0
147
0.0
147
0.0
147
0.0
147
1.0
147
0.0
147
0.0
147
0.0
147
0.0
147
1.0
  0
MLEADERSTYLE
  5
1DA9
102
{ACAD_REACTORS
330
1DA8
102
}
330
1DA8
100
AcDbMLeaderStyle
170
     2
171
     1
172
     0
 90
        2
 40
0.0
 41
0.0
173
     1
 91
-1056964608
340
6A
 92
       -2
290
     1
 42
0.09
291
     1
 43
0.36
  3
Standard
 44
0.18
300

342
16
174
     1
178
     6
175
     1
176
     0
 93
-1056964608
 45
0.18
292
     0
297
     0
 46
0.18
 94
-1056964608
 47
1.0
 49
1.0
140
1.0
293
     1
141
0.0
294
     1
177
     0
142
1.0
295
     0
296
     0
143
0.125
1001
ACAD_MLEADERVER
1070
     2
  0
MLINESTYLE
  5
78
102
{ACAD_REACTORS
330
76
102
}
330
76
100
AcDbMlineStyle
  2
STANDARD
 70
     0
  3

 62
     0
 51
90.0
 52
90.0
 71
     2
 49
0.5
 62
   256
  6
BYLAYER
 49
-0.5
 62
   256
  6
BYLAYER
  0
ACDBPLACEHOLDER
  5
5
102
{ACAD_REACTORS
330
6
102
}
330
6
  0
SCALE
  5
1D87
102
{ACAD_REACTORS
330
1D86
102
}
330
1D86
100
AcDbScale
 70
     0
300
1:1
140
1.0
141
1.0
290
     1
  0
SCALE
  5
1D88
102
{ACAD_REACTORS
330
1D86
102
}
330
1D86
100
AcDbScale
 70
     0
300
1:2
140
1.0
141
2.0
290
     0
  0
SCALE
  5
1D89
102
{ACAD_REACTORS
330
1D86
102
}
330
1D86
100
AcDbScale
 70
     0
300
1:4
140
1.0
141
4.0
290
     0
  0
SCALE
  5
1D8A
102
{ACAD_REACTORS
330
1D86
102
}
330
1D86
100
AcDbScale
 70
     0
300
1:5
140
1.0
141
5.0
290
     0
  0
SCALE
  5
1D8B
102
{ACAD_REACTORS
330
1D86
102
}
330
1D86
100
AcDbScale
 70
     0
300
1:8
140
1.0
141
8.0
290
     0
  0
SCALE
  5
1D8C
102
{ACAD_REACTORS
330
1D86
102
}
330
1D86
100
AcDbScale
 70
     0
300
1:10
140
1.0
141
10.0
290
     0
  0
SCALE
  5
1D8D
102
{ACAD_REACTORS
330
1D86
102
}
330
1D86
100
AcDbScale
 70
     0
300
1:16
140
1.0
141
16.0
290
     0
  0
SCALE
  5
1D8E
102
{ACAD_REACTORS
330
1D86
102
}
330
1D86
100
AcDbScale
 70
     0
300
1:20
140
1.0
141
20.0
290
     0
  0
SCALE
  5
1D8F
102
{ACAD_REACTORS
330
1D86
102
}
330
1D86
100
AcDbScale
 70
     0
300
1:30
140
1.0
141
30.0
290
     0
  0
SCALE
  5
1D90
102
{ACAD_REACTORS
330
1D86
102
}
330
1D86
100
AcDbScale
 70
     0
300
1:40
140
1.0
141
40.0
290
     0
  0
SCALE
  5
1D91
102
{ACAD_REACTORS
330
1D86
102
}
330
1D86
100
AcDbScale
 70
     0
300
1:50
140
1.0
141
50.0
290
     0
  0
SCALE
  5
1D92
102
{ACAD_REACTORS
330
1D86
102
}
330
1D86
100
AcDbScale
 70
     0
300
1:100
140
1.0
141
100.0
290
     0
  0
SCALE
  5
1D93
102
{ACAD_REACTORS
330
1D86
102
}
330
1D86
100
AcDbScale
 70
     0
300
2:1
140
2.0
141
1.0
290
     0
  0
SCALE
  5
1D94
102
{ACAD_REACTORS
330
1D86
102
}
330
1D86
100
AcDbScale
 70
     0
300
4:1
140
4.0
141
1.0
290
     0
  0
SCALE
  5
1D95
102
{ACAD_REACTORS
330
1D86
102
}
330
1D86
100
AcDbScale
 70
     0
300
8:1
140
8.0
141
1.0
290
     0
  0
SCALE
  5
1D96
102
{ACAD_REACTORS
330
1D86
102
}
330
1D86
100
AcDbScale
 70
     0
300
10:1
140
10.0
141
1.0
290
     0
  0
SCALE
  5
1D97
102
{ACAD_REACTORS
330
1D86
102
}
330
1D86
100
AcDbScale
 70
     0
300
100:1
140
100.0
141
1.0
290
     0
  0
SCALE
  5
1D98
102
{ACAD_REACTORS
330
1D86
102
}
330
1D86
100
AcDbScale
 70
     0
300
1/128" = 1'-0"
140
0.0078125
141
12.0
290
     0
  0
SCALE
  5
1D99
102
{ACAD_REACTORS
330
1D86
102
}
330
1D86
100
AcDbScale
 70
     0
300
1/64" = 1'-0"
140
0.015625
141
12.0
290
     0
  0
SCALE
  5
1D9A
102
{ACAD_REACTORS
330
1D86
102
}
330
1D86
100
AcDbScale
 70
     0
300
1/32" = 1'-0"
140
0.03125
141
12.0
290
     0
  0
SCALE
  5
1D9B
102
{ACAD_REACTORS
330
1D86
102
}
330
1D86
100
AcDbScale
 70
     0
300
1/16" = 1'-0"
140
0.0625
141
12.0
290
     0
  0
SCALE
  5
1D9C
102
{ACAD_REACTORS
330
1D86
102
}
330
1D86
100
AcDbScale
 70
     0
300
3/32" = 1'-0"
140
0.09375
141
12.0
290
     0
  0
SCALE
  5
1D9D
102
{ACAD_REACTORS
330
1D86
102
}
330
1D86
100
AcDbScale
 70
     0
300
1/8" = 1'-0"
140
0.125
141
12.0
290
     0
  0
SCALE
  5
1D9E
102
{ACAD_REACTORS
330
1D86
102
}
330
1D86
100
AcDbScale
 70
     0
300
3/16" = 1'-0"
140
0.1875
141
12.0
290
     0
  0
SCALE
  5
1D9F
102
{ACAD_REACTORS
330
1D86
102
}
330
1D86
100
AcDbScale
 70
     0
300
1/4" = 1'-0"
140
0.25
141
12.0
290
     0
  0
SCALE
  5
1DA0
102
{ACAD_REACTORS
330
1D86
102
}
330
1D86
100
AcDbScale
 70
     0
300
3/8" = 1'-0"
140
0.375
141
12.0
290
     0
  0
SCALE
  5
1DA1
102
{ACAD_REACTORS
330
1D86
102
}
330
1D86
100
AcDbScale
 70
     0
300
1/2" = 1'-0"
140
0.5
141
12.0
290
     0
  0
SCALE
  5
1DA2
102
{ACAD_REACTORS
330
1D86
102
}
330
1D86
100
AcDbScale
 70
     0
300
3/4" = 1'-0"
140
0.75
141
12.0
290
     0
  0
SCALE
  5
1DA3
102
{ACAD_REACTORS
330
1D86
102
}
330
1D86
100
AcDbScale
 70
     0
300
1" = 1'-0"
140
1.0
141
12.0
290
     0
  0
SCALE
  5
1DA4
102
{ACAD_REACTORS
330
1D86
102
}
330
1D86
100
AcDbScale
 70
     0
300
1-1/2" = 1'-0"
140
1.5
141
12.0
290
     0
  0
SCALE
  5
1DA5
102
{ACAD_REACTORS
330
1D86
102
}
330
1D86
100
AcDbScale
 70
     0
300
3" = 1'-0"
140
3.0
141
12.0
290
     0
  0
SCALE
  5
1DA6
102
{ACAD_REACTORS
330
1D86
102
}
330
1D86
100
AcDbScale
 70
     0
300
6" = 1'-0"
140
6.0
141
12.0
290
     0
  0
SCALE
  5
1DA7
102
{ACAD_REACTORS
330
1D86
102
}
330
1D86
100
AcDbScale
 70
     0
300
1'-0" = 1'-0"
140
12.0
141
12.0
290
     0
  0
ACDBSECTIONVIEWSTYLE
  5
2E48
102
{ACAD_XDICTIONARY
360
56CD
102
}
102
{ACAD_REACTORS
330
2E47
102
}
330
2E47
100
AcDbModelDocViewStyle
 70
     0
  3
Imperial24
290
     0
100
AcDbSectionViewStyle
 70
     0
 71
     0
 90
       78
 71
     1
340
16
 40
0.24
340
0
340
0
 40
0.24
300
I, O, Q, S, X, Z
 40
0.48
 90
        3
 40
0.18
 90
        1
 71
     2
340
8
 90
       25
340
8
 90
       50
 40
0.24
 40
0.0
 40
0.24
 71
     3
340
16
 40
0.24
 90
        1
 40
0.75
 90
        1
300
%<\AcVar ViewType \f "%tc1">% %<\AcVar ViewSectionStartId>%-%<\AcVar ViewSectionEndId>%\PSCALE %<\AcVar ViewScale \f "%sn">%
 71
     4
300
ANSI31
 40
1.0
 90
        0
290
     0
290
     0
 90
        6
 40
0.0
 40
1.5707963268
 40
0.2617993878
 40
1.308996939
 40
-0.2617993878
 40
1.8325957146
  0
TABLESTYLE
  5
1D85
102
{ACAD_XDICTIONARY
360
1F40
102
}
102
{ACAD_REACTORS
330
1D84
102
}
330
1D84
100
AcDbTableStyle
  3
Standard
 70
     0
 71
     0
 40
0.06
 41
0.06
280
     0
281
     0
  7
STANDARD
140
0.18
170
     2
 62
     0
 63
     7
283
     0
274
    -2
284
     1
 64
     0
275
    -2
285
     1
 65
     0
276
    -2
286
     1
 66
     0
277
    -2
287
     1
 67
     0
278
    -2
288
     1
 68
     0
279
    -2
289
     1
 69
     0
  7
STANDARD
140
0.25
170
     5
 62
     0
 63
     7
283
     0
274
    -2
284
     1
 64
     0
275
    -2
285
     1
 65
     0
276
    -2
286
     1
 66
     0
277
    -2
287
     1
 67
     0
278
    -2
288
     1
 68
     0
279
    -2
289
     1
 69
     0
  7
STANDARD
140
0.18
170
     5
 62
     0
 63
     7
283
     0
274
    -2
284
     1
 64
     0
275
    -2
285
     1
 65
     0
276
    -2
286
     1
 66
     0
277
    -2
287
     1
 67
     0
278
    -2
288
     1
 68
     0
279
    -2
289
     1
 69
     0
  0
VISUALSTYLE
  5
1D75
102
{ACAD_XDICTIONARY
360
5682
102
}
102
{ACAD_REACTORS
330
1D6F
102
}
330
1D6F
100
AcDbVisualStyle
  2

 70
     4
 71
     0
 72
     2
 73
     0
 90
        0
 40
-0.6
 41
-30.0
 62
     5
 63
     7
 74
     1
 91
        4
 64
     7
 65
   257
 75
     1
175
     1
 42
1.0
 92
        0
 66
   257
 43
1.0
 76
     1
 77
     6
 78
     2
 67
     7
 79
     5
170
     0
171
     0
290
     0
174
     0
 93
        1
 44
0.0
173
     0
291
     0
 45
0.0
1001
ACAD
1000
AcDbSavedByObjectVersion
1070
     0
  0
VISUALSTYLE
  5
1D77
102
{ACAD_XDICTIONARY
360
5686
102
}
102
{ACAD_REACTORS
330
1D6F
102
}
330
1D6F
100
AcDbVisualStyle
  2

 70
     6
 71
     1
 72
     2
 73
     2
 90
        0
 40
-0.6
 41
-30.0
 62
     5
 63
     7
 74
     2
 91
        2
 64
     7
 65
   257
 75
     2
175
     1
 42
179.0
 92
        0
 66
   257
 43
1.0
 76
     1
 77
     6
 78
     2
 67
     7
 79
     3
170
     0
171
     0
290
     0
174
     0
 93
        1
 44
0.0
173
     0
291
     0
 45
0.0
1001
ACAD
1000
AcDbSavedByObjectVersion
1070
     0
  0
VISUALSTYLE
  5
1D76
102
{ACAD_XDICTIONARY
360
5684
102
}
102
{ACAD_REACTORS
330
1D6F
102
}
330
1D6F
100
AcDbVisualStyle
  2

 70
     5
 71
     0
 72
     2
 73
     0
 90
        0
 40
-0.6
 41
-30.0
 62
     5
 63
     7
 74
     1
 91
        4
 64
     7
 65
   257
 75
     1
175
     1
 42
1.0
 92
        0
 66
   257
 43
1.0
 76
     1
 77
     6
 78
     2
 67
     7
 79
     5
170
     0
171
     0
290
     0
174
     0
 93
        1
 44
0.0
173
     0
291
     0
 45
0.0
1001
ACAD
1000
AcDbSavedByObjectVersion
1070
     0
  0
VISUALSTYLE
  5
1D74
102
{ACAD_XDICTIONARY
360
5680
102
}
102
{ACAD_REACTORS
330
1D6F
102
}
330
1D6F
100
AcDbVisualStyle
  2

 70
     7
 71
     1
 72
     0
 73
     1
 90
        0
 40
-0.6
 41
-30.0
 62
     5
 63
     7
 74
     0
 91
        4
 64
     7
 65
   257
 75
     1
175
     1
 42
1.0
 92
        8
 66
     7
 43
1.0
 76
     1
 77
     6
 78
     2
 67
     7
 79
     5
170
     0
171
     0
290
     0
174
     0
 93
        1
 44
0.0
173
     0
291
     1
 45
0.0
1001
ACAD
1000
AcDbSavedByObjectVersion
1070
     0
  0
VISUALSTYLE
  5
1D7B
102
{ACAD_XDICTIONARY
360
568E
102
}
102
{ACAD_REACTORS
330
1D6F
102
}
330
1D6F
100
AcDbVisualStyle
  2

 70
    12
 71
     2
 72
     2
 73
     0
 90
        0
 40
-0.6
 41
-30.0
 62
     5
 63
     7
 74
     1
 91
        4
 64
     7
 65
   257
 75
     1
175
     1
 42
1.0
 92
        8
 66
     7
 43
1.0
 76
     1
 77
     6
 78
     2
 67
     7
 79
     5
170
     0
171
     0
290
     0
174
     0
 93
        1
 44
50.0
173
     0
291
     1
 45
0.0
1001
ACAD
1000
AcDbSavedByObjectVersion
1070
     0
  0
VISUALSTYLE
  5
1D7F
102
{ACAD_XDICTIONARY
360
5696
102
}
102
{ACAD_REACTORS
330
1D6F
102
}
330
1D6F
100
AcDbVisualStyle
  2

 70
    16
 71
     2
 72
     2
 73
     3
 90
        0
 40
-0.6
 41
-30.0
 62
     5
 63
     8
 74
     1
 91
        4
 64
     7
 65
   257
 75
     1
175
     1
 42
1.0
 92
        8
 66
     8
 43
1.0
 76
     1
 77
     6
 78
     2
 67
     7
 79
     5
170
     0
171
     0
290
     0
174
     0
 93
        1
 44
0.0
173
     0
291
     1
 45
0.0
1001
ACAD
1000
AcDbSavedByObjectVersion
1070
     0
  0
VISUALSTYLE
  5
1D78
102
{ACAD_XDICTIONARY
360
5688
102
}
102
{ACAD_REACTORS
330
1D6F
102
}
330
1D6F
100
AcDbVisualStyle
  2

 70
     9
 71
     3
 72
     2
 73
     0
 90
        0
 40
-0.6
 41
-30.0
 62
     5
 63
     7
 74
     2
 91
        2
 64
     7
 65
   257
 75
     1
175
     1
 42
179.0
 92
        8
 66
     7
 43
1.0
 76
     1
 77
     6
 78
     2
 67
     7
 79
     3
170
     0
171
     0
290
     0
174
     0
 93
        1
 44
0.0
173
     0
291
     0
 45
0.0
1001
ACAD
1000
AcDbSavedByObjectVersion
1070
     0
  0
VISUALSTYLE
  5
1D7A
102
{ACAD_XDICTIONARY
360
568C
102
}
102
{ACAD_REACTORS
330
1D6F
102
}
330
1D6F
100
AcDbVisualStyle
  2

 70
    11
 71
     2
 72
     2
 73
     0
 90
        0
 40
-0.6
 41
-30.0
 62
     5
 63
     7
 74
     1
 91
        4
 64
     7
 65
   257
 75
     1
175
     1
 42
1.0
 92
        8
 66
     7
 43
1.0
 76
     1
 77
     6
 78
     2
 67
     7
 79
     5
170
     0
171
     0
290
     0
174
     0
 93
        1
 44
-50.0
173
     0
291
     1
 45
0.0
1001
ACAD
1000
AcDbSavedByObjectVersion
1070
     0
  0
VISUALSTYLE
  5
1D82
102
{ACAD_XDICTIONARY
360
569C
102
}
102
{ACAD_REACTORS
330
1D6F
102
}
330
1D6F
100
AcDbVisualStyle
  2

 70
    22
 71
     2
 72
     2
 73
     0
 90
        0
 40
-0.6
 41
-30.0
 62
     5
 63
     7
 74
     1
 91
        4
 64
     7
 65
   257
 75
     1
175
     1
 42
1.0
 92
        8
 66
     7
 43
1.0
 76
     1
 77
     6
 78
     2
 67
     7
 79
     5
170
     0
171
     0
290
     0
174
     0
 93
        1
 44
0.0
173
     0
291
     1
 45
0.0
1001
ACAD
1000
AcDbSavedByObjectVersion
1070
     0
  0
VISUALSTYLE
  5
1D7E
102
{ACAD_XDICTIONARY
360
5694
102
}
102
{ACAD_REACTORS
330
1D6F
102
}
330
1D6F
100
AcDbVisualStyle
  2

 70
    15
 71
     2
 72
     2
 73
     0
 90
        0
 40
-0.6
 41
-30.0
 62
     5
 63
     7
 74
     1
 91
        4
 64
     7
 65
   257
 75
     1
175
     1
 42
1.0
 92
        8
 66
     7
 43
1.0
 76
     1
 77
     6
 78
     2
 67
     7
 79
     5
170
     0
171
     0
290
     0
174
     0
 93
        1
 44
0.0
173
     0
291
     1
 45
0.0
1001
ACAD
1000
AcDbSavedByObjectVersion
1070
     0
  0
VISUALSTYLE
  5
1D70
102
{ACAD_XDICTIONARY
360
5678
102
}
102
{ACAD_REACTORS
330
1D6F
102
}
330
1D6F
100
AcDbVisualStyle
  2

 70
     0
 71
     2
 72
     1
 73
     1
 90
        2
 40
-0.6
 41
30.0
 62
     5
 63
     7
 74
     0
 91
        4
 64
     7
 65
   257
 75
     1
175
     1
 42
1.0
 92
        8
 66
     7
 43
1.0
 76
     1
 77
     6
 78
     2
 67
     7
 79
     5
170
     0
171
     0
290
     0
174
     0
 93
       13
 44
0.0
173
     0
291
     1
 45
0.0
1001
ACAD
1000
AcDbSavedByObjectVersion
1070
     0
  0
VISUALSTYLE
  5
1D71
102
{ACAD_XDICTIONARY
360
567A
102
}
102
{ACAD_REACTORS
330
1D6F
102
}
330
1D6F
100
AcDbVisualStyle
  2

 70
     1
 71
     2
 72
     1
 73
     1
 90
        2
 40
-0.6
 41
30.0
 62
     5
 63
     7
 74
     1
 91
        4
 64
     7
 65
   257
 75
     1
175
     1
 42
1.0
 92
        0
 66
   257
 43
1.0
 76
     1
 77
     6
 78
     2
 67
     7
 79
     5
170
     0
171
     0
290
     0
174
     0
 93
       13
 44
0.0
173
     0
291
     1
 45
0.0
1001
ACAD
1000
AcDbSavedByObjectVersion
1070
     0
  0
VISUALSTYLE
  5
1D72
102
{ACAD_XDICTIONARY
360
567C
102
}
102
{ACAD_REACTORS
330
1D6F
102
}
330
1D6F
100
AcDbVisualStyle
  2

 70
     2
 71
     2
 72
     2
 73
     1
 90
        2
 40
-0.6
 41
30.0
 62
     5
 63
     7
 74
     0
 91
        4
 64
     7
 65
   257
 75
     1
175
     1
 42
1.0
 92
        0
 66
     7
 43
1.0
 76
     1
 77
     6
 78
     2
 67
     7
 79
     5
170
     0
171
     0
290
     0
174
     0
 93
       13
 44
0.0
173
     0
291
     1
 45
0.0
1001
ACAD
1000
AcDbSavedByObjectVersion
1070
     0
  0
VISUALSTYLE
  5
1D73
102
{ACAD_XDICTIONARY
360
567E
102
}
102
{ACAD_REACTORS
330
1D6F
102
}
330
1D6F
100
AcDbVisualStyle
  2

 70
     3
 71
     2
 72
     2
 73
     1
 90
        2
 40
-0.6
 41
30.0
 62
     5
 63
     7
 74
     1
 91
        4
 64
     7
 65
   257
 75
     1
175
     1
 42
1.0
 92
        0
 66
   257
 43
1.0
 76
     1
 77
     6
 78
     2
 67
     7
 79
     5
170
     0
171
     0
290
     0
174
     0
 93
       13
 44
0.0
173
     0
291
     1
 45
0.0
1001
ACAD
1000
AcDbSavedByObjectVersion
1070
     0
  0
VISUALSTYLE
  5
2E41
102
{ACAD_XDICTIONARY
360
56C1
102
}
102
{ACAD_REACTORS
330
1D6F
102
}
330
1D6F
100
AcDbVisualStyle
  2

 70
     6
 71
     1
 72
     2
 73
     2
 90
        0
 40
-0.6
 41
-30.0
 62
     5
 63
     7
 74
     2
 91
        2
 64
     7
 65
   257
 75
     2
175
     1
 42
40.0
 92
        0
 66
   257
 43
1.0
 76
     1
 77
     6
 78
     2
 67
     7
 79
     3
170
     0
171
     0
290
     0
174
     0
 93
        1
 44
0.0
173
     0
291
     0
 45
0.0
1001
ACAD
1000
AcDbSavedByObjectVersion
1070
     0
  0
VISUALSTYLE
  5
1D80
102
{ACAD_XDICTIONARY
360
5698
102
}
102
{ACAD_REACTORS
330
1D6F
102
}
330
1D6F
100
AcDbVisualStyle
  2

 70
    20
 71
     2
 72
     2
 73
     0
 90
        0
 40
-0.6
 41
-30.0
 62
     5
 63
     7
 74
     1
 91
        4
 64
     7
 65
   257
 75
     1
175
     1
 42
1.0
 92
       10
 66
     7
 43
1.0
 76
     1
 77
     6
 78
     2
 67
     7
 79
     5
170
     0
171
     0
290
     0
174
     0
 93
        1
 44
0.0
173
     0
291
     1
 45
0.0
1001
ACAD
1000
AcDbSavedByObjectVersion
1070
     0
  0
VISUALSTYLE
  5
1D7D
102
{ACAD_XDICTIONARY
360
5692
102
}
102
{ACAD_REACTORS
330
1D6F
102
}
330
1D6F
100
AcDbVisualStyle
  2

 70
    14
 71
     2
 72
     2
 73
     0
 90
        0
 40
-0.6
 41
-30.0
 62
     5
 63
     7
 74
     1
 91
        4
 64
     7
 65
   257
 75
     7
175
     7
 42
1.0
 92
        8
 66
     7
 43
1.0
 76
     1
 77
     6
 78
     2
 67
     7
 79
     5
170
     0
171
     0
290
     0
174
     0
 93
        1
 44
0.0
173
     0
291
     1
 45
0.0
1001
ACAD
1000
AcDbSavedByObjectVersion
1070
     0
  0
VISUALSTYLE
  5
1D81
102
{ACAD_XDICTIONARY
360
569A
102
}
102
{ACAD_REACTORS
330
1D6F
102
}
330
1D6F
100
AcDbVisualStyle
  2

 70
    21
 71
     2
 72
     2
 73
     0
 90
        0
 40
-0.6
 41
-30.0
 62
     5
 63
     7
 74
     1
 91
        4
 64
     7
 65
   257
 75
     1
175
     1
 42
1.0
 92
        9
 66
     7
 43
1.0
 76
     1
 77
     6
 78
     2
 67
     7
 79
     5
170
     0
171
     0
290
     0
174
     0
 93
        1
 44
0.0
173
     0
291
     1
 45
0.0
1001
ACAD
1000
AcDbSavedByObjectVersion
1070
     0
  0
VISUALSTYLE
  5
1D79
102
{ACAD_XDICTIONARY
360
568A
102
}
102
{ACAD_REACTORS
330
1D6F
102
}
330
1D6F
100
AcDbVisualStyle
  2

 70
     8
 71
     2
 72
     2
 73
     0
 90
        0
 40
-0.6
 41
-30.0
 62
     5
 63
     7
 74
     1
 91
        0
 64
     7
 65
   257
 75
     1
175
     1
 42
1.0
 92
        8
 66
     8
 43
1.0
 76
     1
 77
     6
 78
     2
 67
     7
 79
     5
170
     0
171
     0
290
     0
174
     0
 93
       13
 44
0.0
173
     0
291
     0
 45
0.0
1001
ACAD
1000
AcDbSavedByObjectVersion
1070
     0
  0
VISUALSTYLE
  5
2E46
102
{ACAD_XDICTIONARY
360
56CB
102
}
102
{ACAD_REACTORS
330
1D6F
102
}
330
1D6F
100
AcDbVisualStyle
  2

 70
    27
 71
     2
 72
     2
 73
     1
 90
        2
 40
-0.6
 41
30.0
 62
     5
 63
     7
 74
     0
 91
        4
 64
     7
 65
   257
 75
     1
175
     1
 42
1.0
 92
        8
 66
   257
 43
1.0
 76
     1
 77
     6
 78
     2
 67
     8
 79
     3
170
     0
171
     0
290
     0
174
     0
 93
        5
 44
0.0
173
     0
291
     0
 45
0.0
1001
ACAD
1000
AcDbSavedByObjectVersion
1070
     0
  0
VISUALSTYLE
  5
2E45
102
{ACAD_XDICTIONARY
360
56C9
102
}
102
{ACAD_REACTORS
330
1D6F
102
}
330
1D6F
100
AcDbVisualStyle
  2

 70
    26
 71
     2
 72
     2
 73
     1
 90
        2
 40
-0.6
 41
30.0
 62
     5
 63
     7
 74
     1
 91
        2
 64
     7
 65
   257
 75
     2
175
     1
 42
1.0
 92
        8
 66
   257
 43
1.0
 76
     1
 77
     6
 78
     2
 67
     7
 79
     3
170
     0
171
     0
290
     0
174
     0
 93
        5
 44
0.0
173
     0
291
     0
 45
0.0
1001
ACAD
1000
AcDbSavedByObjectVersion
1070
     0
  0
VISUALSTYLE
  5
2E42
102
{ACAD_XDICTIONARY
360
56C3
102
}
102
{ACAD_REACTORS
330
1D6F
102
}
330
1D6F
100
AcDbVisualStyle
  2

 70
    23
 71
     2
 72
     2
 73
     3
 90
        0
 40
-0.6
 41
-30.0
 62
     5
 63
     7
 74
     2
 91
        2
 64
     7
 65
     7
 75
     1
175
     1
 42
40.0
 92
        8
 66
     7
 43
1.0
 76
     1
 77
     6
 78
     2
 67
     7
 79
     3
170
     0
171
     0
290
     0
174
     0
 93
        1
 44
0.0
173
     0
291
     0
 45
0.0
1001
ACAD
1000
AcDbSavedByObjectVersion
1070
     0
  0
VISUALSTYLE
  5
2E43
102
{ACAD_XDICTIONARY
360
56C5
102
}
102
{ACAD_REACTORS
330
1D6F
102
}
330
1D6F
100
AcDbVisualStyle
  2

 70
    24
 71
     1
 72
     2
 73
     2
 90
        0
 40
-0.6
 41
-30.0
 62
     5
 63
     7
 74
     2
 91
        2
 64
     7
 65
     7
 75
     1
175
     1
 42
40.0
 92
       11
 66
     7
 43
1.0
 76
     1
 77
     6
 78
     2
 67
     7
 79
     6
170
     0
171
     0
290
     0
174
     0
 93
        1
 44
0.0
173
     0
291
     0
 45
0.0
1001
ACAD
1000
AcDbSavedByObjectVersion
1070
     0
  0
VISUALSTYLE
  5
1D7C
102
{ACAD_XDICTIONARY
360
5690
102
}
102
{ACAD_REACTORS
330
1D6F
102
}
330
1D6F
100
AcDbVisualStyle
  2

 70
    13
 71
     2
 72
     2
 73
     0
 90
        0
 40
-0.6
 41
-30.0
 62
     5
 63
     7
 74
     1
 91
        4
 64
     7
 65
   257
 75
     1
175
     1
 42
1.0
 92
       12
 66
     7
 43
1.0
 76
     1
 77
     6
 78
     2
 67
     7
 79
     5
170
     0
171
     0
290
     0
174
     0
 93
        1
 44
0.0
173
     0
291
     1
 45
0.0
1001
ACAD
1000
AcDbSavedByObjectVersion
1070
     0
  0
VISUALSTYLE
  5
2E40
102
{ACAD_XDICTIONARY
360
56BF
102
}
102
{ACAD_REACTORS
330
1D6F
102
}
330
1D6F
100
AcDbVisualStyle
  2

 70
     5
 71
     0
 72
     2
 73
     0
 90
        0
 40
-0.6
 41
-30.0
 62
     5
 63
     7
 74
     1
 91
        4
 64
     7
 65
   257
 75
     1
175
     1
 42
1.0
 92
        0
 66
   257
 43
1.0
 76
     1
 77
     6
 78
     2
 67
     7
 79
     3
170
     0
171
     0
290
     0
174
     0
 93
        1
 44
0.0
173
     0
291
     0
 45
0.0
1001
ACAD
1000
AcDbSavedByObjectVersion
1070
     0
  0
VISUALSTYLE
  5
2E44
102
{ACAD_XDICTIONARY
360
56C7
102
}
102
{ACAD_REACTORS
330
1D6F
102
}
330
1D6F
100
AcDbVisualStyle
  2

 70
    25
 71
     2
 72
     2
 73
     1
 90
        1
 40
0.5
 41
-30.0
 62
     5
 63
     7
 74
     1
 91
        0
 64
     7
 65
   257
 75
     1
175
     1
 42
1.0
 92
        8
 66
     7
 43
1.0
 76
     1
 77
     6
 78
     2
 67
     7
 79
     3
170
     0
171
     0
290
     0
174
     0
 93
       13
 44
0.0
173
     0
291
     0
 45
0.0
1001
ACAD
1000
AcDbSavedByObjectVersion
1070
     0
  0
DICTIONARYVAR
  5
1FB8
102
{ACAD_REACTORS
330
102
102
}
330
102
100
DictionaryVariables
280
     0
  1
1:1
  0
DICTIONARYVAR
  5
1FB7
102
{ACAD_REACTORS
330
102
102
}
330
102
100
DictionaryVariables
280
     0
  1
STANDARD
  0
DICTIONARYVAR
  5
1FB6
102
{ACAD_REACTORS
330
102
102
}
330
102
100
DictionaryVariables
280
     0
  1
STANDARD
  0
DICTIONARYVAR
  5
49AE
102
{ACAD_REACTORS
330
102
102
}
330
102
100
DictionaryVariables
280
     0
  1
Imperial24
  0
DICTIONARYVAR
  5
49AF
102
{ACAD_REACTORS
330
102
102
}
330
102
100
DictionaryVariables
280
     0
  1
Imperial24
  0
DICTIONARYVAR
  5
103
102
{ACAD_REACTORS
330
102
102
}
330
102
100
DictionaryVariables
280
     0
  1
1
  0
DICTIONARYVAR
  5
1FBA
102
{ACAD_REACTORS
330
102
102
}
330
102
100
DictionaryVariables
280
     0
  1
0
  0
DICTIONARYVAR
  5
4D3D
102
{ACAD_REACTORS
330
102
102
}
330
102
100
DictionaryVariables
280
     0
  1
1
  0
DICTIONARYVAR
  5
4D3E
102
{ACAD_REACTORS
330
102
102
}
330
102
100
DictionaryVariables
280
     0
  1
15
  0
DICTIONARYVAR
  5
4D3C
102
{ACAD_REACTORS
330
102
102
}
330
102
100
DictionaryVariables
280
     0
  1
0
  0
DICTIONARYVAR
  5
4D3B
102
{ACAD_REACTORS
330
102
102
}
330
102
100
DictionaryVariables
280
     0
  1
0
  0
DICTIONARYVAR
  5
1FB9
102
{ACAD_REACTORS
330
102
102
}
330
102
100
DictionaryVariables
280
     0
  1
127
  0
DICTIONARYVAR
  5
566F
102
{ACAD_REACTORS
330
102
102
}
330
102
100
DictionaryVariables
280
     0
  1
2
  0
DICTIONARY
  5
56CF
330
2E4A
100
AcDbDictionary
280
     1
281
     1
  3
ACAD_XREC_ROUNDTRIP
360
56D0
  0
DICTIONARY
  5
5673
330
60
100
AcDbDictionary
280
     1
281
     1
  3
ACAD_XREC_ROUNDTRIP
360
5674
  0
DICTIONARY
  5
56D9
330
566B
100
AcDbDictionary
280
     1
281
     1
  3
ACAD_XREC_ROUNDTRIP
360
56DA
  0
DICTIONARY
  5
1D60
330
1D5F
100
AcDbDictionary
280
     1
281
     1
  3
ACAD_XREC_ROUNDTRIP
360
5676
  3
BUMPTILE
360
1D62
  3
DIFFUSETILE
360
1D61
  3
OPACITYTILE
360
1D65
  3
REFLECTIONTILE
360
1D64
  3
REFRACTIONTILE
360
1D66
  3
SPECULARTILE
360
1D63
  0
DICTIONARY
  5
1D58
330
1D57
100
AcDbDictionary
280
     1
281
     1
  3
ACAD_XREC_ROUNDTRIP
360
5675
  3
BUMPTILE
360
1D5A
  3
DIFFUSETILE
360
1D59
  3
OPACITYTILE
360
1D5D
  3
REFLECTIONTILE
360
1D5C
  3
REFRACTIONTILE
360
1D5E
  3
SPECULARTILE
360
1D5B
  0
DICTIONARY
  5
1D68
330
1D67
100
AcDbDictionary
280
     1
281
     1
  3
ACAD_XREC_ROUNDTRIP
360
5677
  3
BUMPTILE
360
1D6A
  3
DIFFUSETILE
360
1D69
  3
OPACITYTILE
360
1D6D
  3
REFLECTIONTILE
360
1D6C
  3
REFRACTIONTILE
360
1D6E
  3
SPECULARTILE
360
1D6B
  0
DICTIONARY
  5
56CD
330
2E48
100
AcDbDictionary
280
     1
281
     1
  3
ACAD_XREC_ROUNDTRIP
360
56CE
  0
DICTIONARY
  5
1F40
330
1D85
100
AcDbDictionary
280
     1
281
     1
  3
ACAD_ROUNDTRIP_2008_TABLESTYLE_CELLSTYLEMAP
360
5670
  3
ACAD_XREC_ROUNDTRIP
360
569E
  0
DICTIONARY
  5
5682
330
1D75
100
AcDbDictionary
280
     1
281
     1
  3
ACAD_XREC_ROUNDTRIP
360
5683
  0
DICTIONARY
  5
5686
330
1D77
100
AcDbDictionary
280
     1
281
     1
  3
ACAD_XREC_ROUNDTRIP
360
5687
  0
DICTIONARY
  5
5684
330
1D76
100
AcDbDictionary
280
     1
281
     1
  3
ACAD_XREC_ROUNDTRIP
360
5685
  0
DICTIONARY
  5
5680
330
1D74
100
AcDbDictionary
280
     1
281
     1
  3
ACAD_XREC_ROUNDTRIP
360
5681
  0
DICTIONARY
  5
568E
330
1D7B
100
AcDbDictionary
280
     1
281
     1
  3
ACAD_XREC_ROUNDTRIP
360
568F
  0
DICTIONARY
  5
5696
330
1D7F
100
AcDbDictionary
280
     1
281
     1
  3
ACAD_XREC_ROUNDTRIP
360
5697
  0
DICTIONARY
  5
5688
330
1D78
100
AcDbDictionary
280
     1
281
     1
  3
ACAD_XREC_ROUNDTRIP
360
5689
  0
DICTIONARY
  5
568C
330
1D7A
100
AcDbDictionary
280
     1
281
     1
  3
ACAD_XREC_ROUNDTRIP
360
568D
  0
DICTIONARY
  5
569C
330
1D82
100
AcDbDictionary
280
     1
281
     1
  3
ACAD_XREC_ROUNDTRIP
360
569D
  0
DICTIONARY
  5
5694
330
1D7E
100
AcDbDictionary
280
     1
281
     1
  3
ACAD_XREC_ROUNDTRIP
360
5695
  0
DICTIONARY
  5
5678
330
1D70
100
AcDbDictionary
280
     1
281
     1
  3
ACAD_XREC_ROUNDTRIP
360
5679
  0
DICTIONARY
  5
567A
330
1D71
100
AcDbDictionary
280
     1
281
     1
  3
ACAD_XREC_ROUNDTRIP
360
567B
  0
DICTIONARY
  5
567C
330
1D72
100
AcDbDictionary
280
     1
281
     1
  3
ACAD_XREC_ROUNDTRIP
360
567D
  0
DICTIONARY
  5
567E
330
1D73
100
AcDbDictionary
280
     1
281
     1
  3
ACAD_XREC_ROUNDTRIP
360
567F
  0
DICTIONARY
  5
56C1
330
2E41
100
AcDbDictionary
280
     1
281
     1
  3
ACAD_XREC_ROUNDTRIP
360
56C2
  0
DICTIONARY
  5
5698
330
1D80
100
AcDbDictionary
280
     1
281
     1
  3
ACAD_XREC_ROUNDTRIP
360
5699
  0
DICTIONARY
  5
5692
330
1D7D
100
AcDbDictionary
280
     1
281
     1
  3
ACAD_XREC_ROUNDTRIP
360
5693
  0
DICTIONARY
  5
569A
330
1D81
100
AcDbDictionary
280
     1
281
     1
  3
ACAD_XREC_ROUNDTRIP
360
569B
  0
DICTIONARY
  5
568A
330
1D79
100
AcDbDictionary
280
     1
281
     1
  3
ACAD_XREC_ROUNDTRIP
360
568B
  0
DICTIONARY
  5
56CB
330
2E46
100
AcDbDictionary
280
     1
281
     1
  3
ACAD_XREC_ROUNDTRIP
360
56CC
  0
DICTIONARY
  5
56C9
330
2E45
100
AcDbDictionary
280
     1
281
     1
  3
ACAD_XREC_ROUNDTRIP
360
56CA
  0
DICTIONARY
  5
56C3
330
2E42
100
AcDbDictionary
280
     1
281
     1
  3
ACAD_XREC_ROUNDTRIP
360
56C4
  0
DICTIONARY
  5
56C5
330
2E43
100
AcDbDictionary
280
     1
281
     1
  3
ACAD_XREC_ROUNDTRIP
360
56C6
  0
DICTIONARY
  5
5690
330
1D7C
100
AcDbDictionary
280
     1
281
     1
  3
ACAD_XREC_ROUNDTRIP
360
5691
  0
DICTIONARY
  5
56BF
330
2E40
100
AcDbDictionary
280
     1
281
     1
  3
ACAD_XREC_ROUNDTRIP
360
56C0
  0
DICTIONARY
  5
56C7
330
2E44
100
AcDbDictionary
280
     1
281
     1
  3
ACAD_XREC_ROUNDTRIP
360
56C8
  0
XRECORD
  5
56D0
102
{ACAD_REACTORS
330
56CF
102
}
330
56CF
100
AcDbXrecord
280
     1
102
DISPLAYNAME
  1
Imperial24
102
FLAGS
 90
        0
  0
XRECORD
  5
5674
102
{ACAD_REACTORS
330
5673
102
}
330
5673
100
AcDbXrecord
280
     1
102
SHADEPLOT
 70
     0
102
SHADEPLOTRESLEVEL
 70
     2
102
SHADEPLOTCUSTOMDPI
 70
   300
  0
XRECORD
  5
56DA
102
{ACAD_REACTORS
330
56D9
102
}
330
56D9
100
AcDbXrecord
280
     1
102
SHADEPLOT
 70
     0
102
SHADEPLOTRESLEVEL
 70
     2
102
SHADEPLOTCUSTOMDPI
 70
   300
  0
XRECORD
  5
5676
102
{ACAD_REACTORS
330
1D60
102
}
330
1D60
100
AcDbXrecord
280
     1
102
MATERIAL
148
0.0
149
0.0
149
0.0
 93
        0
 94
      127
282
     0
 72
     0
 77
     0
171
     0
175
     0
179
     0
273
     0
  0
XRECORD
  5
1D62
102
{ACAD_REACTORS
330
1D60
102
}
330
1D60
100
AcDbXrecord
280
     1
270
     1
271
     1
  0
XRECORD
  5
1D61
102
{ACAD_REACTORS
330
1D60
102
}
330
1D60
100
AcDbXrecord
280
     1
270
     1
271
     1
  0
XRECORD
  5
1D65
102
{ACAD_REACTORS
330
1D60
102
}
330
1D60
100
AcDbXrecord
280
     1
270
     1
271
     1
  0
XRECORD
  5
1D64
102
{ACAD_REACTORS
330
1D60
102
}
330
1D60
100
AcDbXrecord
280
     1
270
     1
271
     1
  0
XRECORD
  5
1D66
102
{ACAD_REACTORS
330
1D60
102
}
330
1D60
100
AcDbXrecord
280
     1
270
     1
271
     1
  0
XRECORD
  5
1D63
102
{ACAD_REACTORS
330
1D60
102
}
330
1D60
100
AcDbXrecord
280
     1
270
     1
271
     1
  0
XRECORD
  5
5675
102
{ACAD_REACTORS
330
1D58
102
}
330
1D58
100
AcDbXrecord
280
     1
102
MATERIAL
148
0.0
149
0.0
149
0.0
 93
        0
 94
      127
282
     0
 72
     0
 77
     0
171
     0
175
     0
179
     0
273
     0
  0
XRECORD
  5
1D5A
102
{ACAD_REACTORS
330
1D58
102
}
330
1D58
100
AcDbXrecord
280
     1
270
     1
271
     1
  0
XRECORD
  5
1D59
102
{ACAD_REACTORS
330
1D58
102
}
330
1D58
100
AcDbXrecord
280
     1
270
     1
271
     1
  0
XRECORD
  5
1D5D
102
{ACAD_REACTORS
330
1D58
102
}
330
1D58
100
AcDbXrecord
280
     1
270
     1
271
     1
  0
XRECORD
  5
1D5C
102
{ACAD_REACTORS
330
1D58
102
}
330
1D58
100
AcDbXrecord
280
     1
270
     1
271
     1
  0
XRECORD
  5
1D5E
102
{ACAD_REACTORS
330
1D58
102
}
330
1D58
100
AcDbXrecord
280
     1
270
     1
271
     1
  0
XRECORD
  5
1D5B
102
{ACAD_REACTORS
330
1D58
102
}
330
1D58
100
AcDbXrecord
280
     1
270
     1
271
     1
  0
XRECORD
  5
5677
102
{ACAD_REACTORS
330
1D68
102
}
330
1D68
100
AcDbXrecord
280
     1
102
MATERIAL
148
0.0
149
0.0
149
0.0
 93
        0
 94
      127
282
     0
 72
     0
 77
     0
171
     0
175
     0
179
     0
273
     0
  0
XRECORD
  5
1D6A
102
{ACAD_REACTORS
330
1D68
102
}
330
1D68
100
AcDbXrecord
280
     1
270
     1
271
     1
  0
XRECORD
  5
1D69
102
{ACAD_REACTORS
330
1D68
102
}
330
1D68
100
AcDbXrecord
280
     1
270
     1
271
     1
  0
XRECORD
  5
1D6D
102
{ACAD_REACTORS
330
1D68
102
}
330
1D68
100
AcDbXrecord
280
     1
270
     1
271
     1
  0
XRECORD
  5
1D6C
102
{ACAD_REACTORS
330
1D68
102
}
330
1D68
100
AcDbXrecord
280
     1
270
     1
271
     1
  0
XRECORD
  5
1D6E
102
{ACAD_REACTORS
330
1D68
102
}
330
1D68
100
AcDbXrecord
280
     1
270
     1
271
     1
  0
XRECORD
  5
1D6B
102
{ACAD_REACTORS
330
1D68
102
}
330
1D68
100
AcDbXrecord
280
     1
270
     1
271
     1
  0
XRECORD
  5
56CE
102
{ACAD_REACTORS
330
56CD
102
}
330
56CD
100
AcDbXrecord
280
     1
102
DISPLAYNAME
  1
Imperial24
102
FLAGS
 90
        0
  0
CELLSTYLEMAP
  5
5670
102
{ACAD_REACTORS
330
1F40
102
}
330
1F40
100
AcDbCellStyleMap
 90
        3
300
CELLSTYLE
  1
TABLEFORMAT_BEGIN
 90
        5
170
     1
 91
        0
 92
    32768
 62
   257
 93
        1
300
CONTENTFORMAT
  1
CONTENTFORMAT_BEGIN
 90
        0
 91
        0
 92
      512
 93
        0
300

 40
0.0
140
1.0
 94
        5
 62
     0
340
16
144
0.25
309
CONTENTFORMAT_END
171
     1
301
MARGIN
  1
CELLMARGIN_BEGIN
 40
0.06
 40
0.06
 40
0.06
 40
0.06
 40
0.18
 40
0.18
309
CELLMARGIN_END
 94
        6
 95
        1
302
GRIDFORMAT
  1
GRIDFORMAT_BEGIN
 90
        0
 91
        1
 62
     0
 92
       -2
340
0
 93
        0
 40
0.045
309
GRIDFORMAT_END
 95
        2
302
GRIDFORMAT
  1
GRIDFORMAT_BEGIN
 90
        0
 91
        1
 62
     0
 92
       -2
340
0
 93
        0
 40
0.045
309
GRIDFORMAT_END
 95
        4
302
GRIDFORMAT
  1
GRIDFORMAT_BEGIN
 90
        0
 91
        1
 62
     0
 92
       -2
340
0
 93
        0
 40
0.045
309
GRIDFORMAT_END
 95
        8
302
GRIDFORMAT
  1
GRIDFORMAT_BEGIN
 90
        0
 91
        1
 62
     0
 92
       -2
340
0
 93
        0
 40
0.045
309
GRIDFORMAT_END
 95
       16
302
GRIDFORMAT
  1
GRIDFORMAT_BEGIN
 90
        0
 91
        1
 62
     0
 92
       -2
340
0
 93
        0
 40
0.045
309
GRIDFORMAT_END
 95
       32
302
GRIDFORMAT
  1
GRIDFORMAT_BEGIN
 90
        0
 91
        1
 62
     0
 92
       -2
340
0
 93
        0
 40
0.045
309
GRIDFORMAT_END
309
TABLEFORMAT_END
  1
CELLSTYLE_BEGIN
 90
        1
 91
        1
300
_TITLE
309
CELLSTYLE_END
300
CELLSTYLE
  1
TABLEFORMAT_BEGIN
 90
        5
170
     1
 91
        0
 92
        0
 62
   257
 93
        1
300
CONTENTFORMAT
  1
CONTENTFORMAT_BEGIN
 90
        0
 91
        0
 92
      512
 93
        0
300

 40
0.0
140
1.0
 94
        5
 62
     0
340
16
144
0.18
309
CONTENTFORMAT_END
171
     1
301
MARGIN
  1
CELLMARGIN_BEGIN
 40
0.06
 40
0.06
 40
0.06
 40
0.06
 40
0.18
 40
0.18
309
CELLMARGIN_END
 94
        6
 95
        1
302
GRIDFORMAT
  1
GRIDFORMAT_BEGIN
 90
        0
 91
        1
 62
     0
 92
       -2
340
0
 93
        0
 40
0.045
309
GRIDFORMAT_END
 95
        2
302
GRIDFORMAT
  1
GRIDFORMAT_BEGIN
 90
        0
 91
        1
 62
     0
 92
       -2
340
0
 93
        0
 40
0.045
309
GRIDFORMAT_END
 95
        4
302
GRIDFORMAT
  1
GRIDFORMAT_BEGIN
 90
        0
 91
        1
 62
     0
 92
       -2
340
0
 93
        0
 40
0.045
309
GRIDFORMAT_END
 95
        8
302
GRIDFORMAT
  1
GRIDFORMAT_BEGIN
 90
        0
 91
        1
 62
     0
 92
       -2
340
0
 93
        0
 40
0.045
309
GRIDFORMAT_END
 95
       16
302
GRIDFORMAT
  1
GRIDFORMAT_BEGIN
 90
        0
 91
        1
 62
     0
 92
       -2
340
0
 93
        0
 40
0.045
309
GRIDFORMAT_END
 95
       32
302
GRIDFORMAT
  1
GRIDFORMAT_BEGIN
 90
        0
 91
        1
 62
     0
 92
       -2
340
0
 93
        0
 40
0.045
309
GRIDFORMAT_END
309
TABLEFORMAT_END
  1
CELLSTYLE_BEGIN
 90
        2
 91
        1
300
_HEADER
309
CELLSTYLE_END
300
CELLSTYLE
  1
TABLEFORMAT_BEGIN
 90
        5
170
     1
 91
        0
 92
        0
 62
   257
 93
        1
300
CONTENTFORMAT
  1
CONTENTFORMAT_BEGIN
 90
        0
 91
        0
 92
      512
 93
        0
300

 40
0.0
140
1.0
 94
        2
 62
     0
340
16
144
0.18
309
CONTENTFORMAT_END
171
     1
301
MARGIN
  1
CELLMARGIN_BEGIN
 40
0.06
 40
0.06
 40
0.06
 40
0.06
 40
0.18
 40
0.18
309
CELLMARGIN_END
 94
        6
 95
        1
302
GRIDFORMAT
  1
GRIDFORMAT_BEGIN
 90
        0
 91
        1
 62
     0
 92
       -2
340
0
 93
        0
 40
0.045
309
GRIDFORMAT_END
 95
        2
302
GRIDFORMAT
  1
GRIDFORMAT_BEGIN
 90
        0
 91
        1
 62
     0
 92
       -2
340
0
 93
        0
 40
0.045
309
GRIDFORMAT_END
 95
        4
302
GRIDFORMAT
  1
GRIDFORMAT_BEGIN
 90
        0
 91
        1
 62
     0
 92
       -2
340
0
 93
        0
 40
0.045
309
GRIDFORMAT_END
 95
        8
302
GRIDFORMAT
  1
GRIDFORMAT_BEGIN
 90
        0
 91
        1
 62
     0
 92
       -2
340
0
 93
        0
 40
0.045
309
GRIDFORMAT_END
 95
       16
302
GRIDFORMAT
  1
GRIDFORMAT_BEGIN
 90
        0
 91
        1
 62
     0
 92
       -2
340
0
 93
        0
 40
0.045
309
GRIDFORMAT_END
 95
       32
302
GRIDFORMAT
  1
GRIDFORMAT_BEGIN
 90
        0
 91
        1
 62
     0
 92
       -2
340
0
 93
        0
 40
0.045
309
GRIDFORMAT_END
309
TABLEFORMAT_END
  1
CELLSTYLE_BEGIN
 90
        3
 91
        2
300
_DATA
309
CELLSTYLE_END
  0
XRECORD
  5
569E
102
{ACAD_REACTORS
330
1F40
102
}
330
1F40
100
AcDbXrecord
280
     1
102
ACAD_ROUNDTRIP_PRE2007_TABLESTYLE
 90
      512
 91
        0
  1

 92
      512
 93
        0
  2

 94
      512
 95
        0
  3

  0
XRECORD
  5
5683
102
{ACAD_REACTORS
330
5682
102
}
330
5682
100
AcDbXrecord
280
     1
102
RTVSPost2010Prop28
280
     1
102
RTVSPost2010PropOp28
 70
     1
102
RTVSPost2010Prop29
280
     1
102
RTVSPost2010PropOp29
 70
     1
102
RTVSPost2010Prop30
280
     0
102
RTVSPost2010PropOp30
 70
     1
102
RTVSPost2010Prop31
280
     0
102
RTVSPost2010PropOp31
 70
     1
102
RTVSPost2010Prop32
280
     0
102
RTVSPost2010PropOp32
 70
     1
102
RTVSPost2010Prop33
280
     0
102
RTVSPost2010PropOp33
 70
     1
102
RTVSPost2010Prop34
280
     0
102
RTVSPost2010PropOp34
 70
     1
102
RTVSPost2010Prop35
280
     0
102
RTVSPost2010PropOp35
 70
     1
102
RTVSPost2010Prop36
280
     0
102
RTVSPost2010PropOp36
 70
     1
102
RTVSPost2010Prop37
 90
       50
102
RTVSPost2010PropOp37
 70
     1
102
RTVSPost2010Prop38
140
0.0
102
RTVSPost2010PropOp38
 70
     1
102
RTVSPost2010Prop39
140
1.0
102
RTVSPost2010PropOp39
 70
     1
102
RTVSPost2010Prop40
 90
        0
102
RTVSPost2010PropOp40
 70
     1
102
RTVSPost2010Prop41ColorIndex
 90
       18
102
RTVSPost2010Prop41ColorRGB
 90
        0
102
RTVSPost2010PropOp41
 70
     1
102
RTVSPost2010Prop42
 90
       50
102
RTVSPost2010PropOp42
 70
     1
102
RTVSPost2010Prop43
 90
        3
102
RTVSPost2010PropOp43
 70
     1
102
RTVSPost2010Prop44ColorIndex
 90
        5
102
RTVSPost2010Prop44ColorRGB
 90
      255
102
RTVSPost2010PropOp44
 70
     1
102
RTVSPost2010Prop45
280
     0
102
RTVSPost2010PropOp45
 70
     1
102
RTVSPost2010Prop46
 90
       50
102
RTVSPost2010PropOp46
 70
     1
102
RTVSPost2010Prop47
 90
       50
102
RTVSPost2010PropOp47
 70
     1
102
RTVSPost2010Prop48
 90
       50
102
RTVSPost2010PropOp48
 70
     1
102
RTVSPost2010Prop49
280
     0
102
RTVSPost2010PropOp49
 70
     1
102
RTVSPost2010Prop50
 90
       50
102
RTVSPost2010PropOp50
 70
     1
102
RTVSPost2010Prop51ColorIndex
 90
      256
102
RTVSPost2010Prop51ColorRGB
 90
-16777216
102
RTVSPost2010PropOp51
 70
     0
102
RTVSPost2010Prop52
140
1.0
102
RTVSPost2010PropOp52
 70
     0
102
RTVSPost2010Prop53
 90
        2
102
RTVSPost2010PropOp53
 70
     1
102
RTVSPost2010Prop54
  1
strokes_ogs.tif
102
RTVSPost2010PropOp54
 70
     1
102
RTVSPost2010Prop55
280
     0
102
RTVSPost2010PropOp55
 70
     1
102
RTVSPost2010Prop56
140
1.0
102
RTVSPost2010PropOp56
 70
     1
102
RTVSPost2010Prop57
140
1.0
102
RTVSPost2010PropOp57
 70
     1
102
RTVSPropertyOp0
 70
     1
102
RTVSPropertyOp1
 70
     1
102
RTVSPropertyOp2
 70
     1
102
RTVSPropertyOp3
 70
     1
102
RTVSPropertyOp4
 70
     1
102
RTVSPropertyOp5
 70
     1
102
RTVSPropertyOp6
 70
     1
102
RTVSPropertyOp7
 70
     1
102
RTVSPropertyOp8
 70
     1
102
RTVSPropertyOp9
 70
     1
102
RTVSPropertyOp10
 70
     1
102
RTVSPropertyOp11
 70
     1
102
RTVSPropertyOp12
 70
     1
102
RTVSPropertyOp13
 70
     1
102
RTVSPropertyOp14
 70
     1
102
RTVSPropertyOp15
 70
     1
102
RTVSPropertyOp16
 70
     1
102
RTVSPropertyOp17
 70
     1
102
RTVSPropertyOp18
 70
     1
102
RTVSPropertyOp19
 70
     1
102
RTVSPropertyOp20
 70
     1
102
RTVSPropertyOp21
 70
     1
102
RTVSPropertyOp22
 70
     1
102
RTVSPropertyOp23
 70
     1
102
RTVSPropertyOp24
 70
     1
102
RTVSPropertyOp25
 70
     1
102
RTVSPropertyOp26
 70
     1
102
RTVSPropertyOp27
 70
     1
102
RTVSPropertyOp28
 70
     1
102
RTVSPropertyOp29
 70
     1
102
RTVSPropertyOp30
 70
     1
102
RTVSPropertyOp31
 70
     1
102
RTVSPropertyOp32
 70
     1
102
RTVSPropertyOp33
 70
     1
102
RTVSPropertyOp34
 70
     1
102
RTVSPropertyOp35
 70
     1
102
RTVSPropertyOp36
 70
     1
102
RTVSPropertyOp37
 70
     1
102
RTVSPropertyOp38
 70
     1
102
RTVSPropertyOp39
 70
     1
102
RTVSPropertyOp40
 70
     1
102
RTVSPropertyOp41
 70
     1
102
RTVSPropertyOp42
 70
     1
102
RTVSPropertyOp43
 70
     1
102
RTVSPropertyOp44
 70
     1
102
RTVSPropertyOp45
 70
     1
102
RTVSPropertyOp46
 70
     1
102
RTVSPropertyOp47
 70
     1
102
RTVSPropertyOp48
 70
     1
102
RTVSPropertyOp49
 70
     1
102
RTVSPropertyOp50
 70
     1
102
RTVSPropertyOp51
 70
     0
102
RTVSPropertyOp52
 70
     0
102
RTVSPropertyOp53
 70
     1
102
RTVSPropertyOp54
 70
     1
102
RTVSPropertyOp55
 70
     1
102
RTVSPropertyOp56
 70
     1
102
RTVSPropertyOp57
 70
     1
102
RTVSPropertyOp58
 70
     1
102
RTVSPropertyOp59
 70
     1
102
RTVSPropertyOp60
 70
     1
102
RTVSPropertyOp61
 70
     1
102
RTVSPropertyOp62
 70
     1
  0
XRECORD
  5
5687
102
{ACAD_REACTORS
330
5686
102
}
330
5686
100
AcDbXrecord
280
     1
102
RTVSPost2010Prop28
280
     0
102
RTVSPost2010PropOp28
 70
     1
102
RTVSPost2010Prop29
280
     1
102
RTVSPost2010PropOp29
 70
     1
102
RTVSPost2010Prop30
280
     1
102
RTVSPost2010PropOp30
 70
     1
102
RTVSPost2010Prop31
280
     0
102
RTVSPost2010PropOp31
 70
     1
102
RTVSPost2010Prop32
280
     0
102
RTVSPost2010PropOp32
 70
     1
102
RTVSPost2010Prop33
280
     0
102
RTVSPost2010PropOp33
 70
     1
102
RTVSPost2010Prop34
280
     0
102
RTVSPost2010PropOp34
 70
     1
102
RTVSPost2010Prop35
280
     0
102
RTVSPost2010PropOp35
 70
     1
102
RTVSPost2010Prop36
280
     0
102
RTVSPost2010PropOp36
 70
     1
102
RTVSPost2010Prop37
 90
       50
102
RTVSPost2010PropOp37
 70
     1
102
RTVSPost2010Prop38
140
0.0
102
RTVSPost2010PropOp38
 70
     1
102
RTVSPost2010Prop39
140
1.0
102
RTVSPost2010PropOp39
 70
     1
102
RTVSPost2010Prop40
 90
        0
102
RTVSPost2010PropOp40
 70
     1
102
RTVSPost2010Prop41ColorIndex
 90
       18
102
RTVSPost2010Prop41ColorRGB
 90
        0
102
RTVSPost2010PropOp41
 70
     1
102
RTVSPost2010Prop42
 90
       50
102
RTVSPost2010PropOp42
 70
     1
102
RTVSPost2010Prop43
 90
        3
102
RTVSPost2010PropOp43
 70
     1
102
RTVSPost2010Prop44ColorIndex
 90
        5
102
RTVSPost2010Prop44ColorRGB
 90
      255
102
RTVSPost2010PropOp44
 70
     1
102
RTVSPost2010Prop45
280
     0
102
RTVSPost2010PropOp45
 70
     1
102
RTVSPost2010Prop46
 90
       50
102
RTVSPost2010PropOp46
 70
     1
102
RTVSPost2010Prop47
 90
       50
102
RTVSPost2010PropOp47
 70
     1
102
RTVSPost2010Prop48
 90
       50
102
RTVSPost2010PropOp48
 70
     1
102
RTVSPost2010Prop49
280
     0
102
RTVSPost2010PropOp49
 70
     1
102
RTVSPost2010Prop50
 90
       50
102
RTVSPost2010PropOp50
 70
     1
102
RTVSPost2010Prop51ColorIndex
 90
      256
102
RTVSPost2010Prop51ColorRGB
 90
-16777216
102
RTVSPost2010PropOp51
 70
     0
102
RTVSPost2010Prop52
140
1.0
102
RTVSPost2010PropOp52
 70
     0
102
RTVSPost2010Prop53
 90
        2
102
RTVSPost2010PropOp53
 70
     1
102
RTVSPost2010Prop54
  1
strokes_ogs.tif
102
RTVSPost2010PropOp54
 70
     1
102
RTVSPost2010Prop55
280
     0
102
RTVSPost2010PropOp55
 70
     1
102
RTVSPost2010Prop56
140
1.0
102
RTVSPost2010PropOp56
 70
     1
102
RTVSPost2010Prop57
140
1.0
102
RTVSPost2010PropOp57
 70
     1
102
RTVSPropertyOp0
 70
     1
102
RTVSPropertyOp1
 70
     1
102
RTVSPropertyOp2
 70
     1
102
RTVSPropertyOp3
 70
     1
102
RTVSPropertyOp4
 70
     1
102
RTVSPropertyOp5
 70
     1
102
RTVSPropertyOp6
 70
     1
102
RTVSPropertyOp7
 70
     1
102
RTVSPropertyOp8
 70
     1
102
RTVSPropertyOp9
 70
     1
102
RTVSPropertyOp10
 70
     1
102
RTVSPropertyOp11
 70
     1
102
RTVSPropertyOp12
 70
     1
102
RTVSPropertyOp13
 70
     1
102
RTVSPropertyOp14
 70
     1
102
RTVSPropertyOp15
 70
     1
102
RTVSPropertyOp16
 70
     1
102
RTVSPropertyOp17
 70
     1
102
RTVSPropertyOp18
 70
     1
102
RTVSPropertyOp19
 70
     1
102
RTVSPropertyOp20
 70
     1
102
RTVSPropertyOp21
 70
     1
102
RTVSPropertyOp22
 70
     1
102
RTVSPropertyOp23
 70
     1
102
RTVSPropertyOp24
 70
     1
102
RTVSPropertyOp25
 70
     1
102
RTVSPropertyOp26
 70
     1
102
RTVSPropertyOp27
 70
     1
102
RTVSPropertyOp28
 70
     1
102
RTVSPropertyOp29
 70
     1
102
RTVSPropertyOp30
 70
     1
102
RTVSPropertyOp31
 70
     1
102
RTVSPropertyOp32
 70
     1
102
RTVSPropertyOp33
 70
     1
102
RTVSPropertyOp34
 70
     1
102
RTVSPropertyOp35
 70
     1
102
RTVSPropertyOp36
 70
     1
102
RTVSPropertyOp37
 70
     1
102
RTVSPropertyOp38
 70
     1
102
RTVSPropertyOp39
 70
     1
102
RTVSPropertyOp40
 70
     1
102
RTVSPropertyOp41
 70
     1
102
RTVSPropertyOp42
 70
     1
102
RTVSPropertyOp43
 70
     1
102
RTVSPropertyOp44
 70
     1
102
RTVSPropertyOp45
 70
     1
102
RTVSPropertyOp46
 70
     1
102
RTVSPropertyOp47
 70
     1
102
RTVSPropertyOp48
 70
     1
102
RTVSPropertyOp49
 70
     1
102
RTVSPropertyOp50
 70
     1
102
RTVSPropertyOp51
 70
     0
102
RTVSPropertyOp52
 70
     0
102
RTVSPropertyOp53
 70
     1
102
RTVSPropertyOp54
 70
     1
102
RTVSPropertyOp55
 70
     1
102
RTVSPropertyOp56
 70
     1
102
RTVSPropertyOp57
 70
     1
102
RTVSPropertyOp58
 70
     1
102
RTVSPropertyOp59
 70
     1
102
RTVSPropertyOp60
 70
     1
102
RTVSPropertyOp61
 70
     1
102
RTVSPropertyOp62
 70
     1
  0
XRECORD
  5
5685
102
{ACAD_REACTORS
330
5684
102
}
330
5684
100
AcDbXrecord
280
     1
102
RTVSPost2010Prop28
280
     0
102
RTVSPost2010PropOp28
 70
     1
102
RTVSPost2010Prop29
280
     1
102
RTVSPost2010PropOp29
 70
     1
102
RTVSPost2010Prop30
280
     1
102
RTVSPost2010PropOp30
 70
     1
102
RTVSPost2010Prop31
280
     0
102
RTVSPost2010PropOp31
 70
     1
102
RTVSPost2010Prop32
280
     0
102
RTVSPost2010PropOp32
 70
     1
102
RTVSPost2010Prop33
280
     0
102
RTVSPost2010PropOp33
 70
     1
102
RTVSPost2010Prop34
280
     0
102
RTVSPost2010PropOp34
 70
     1
102
RTVSPost2010Prop35
280
     0
102
RTVSPost2010PropOp35
 70
     1
102
RTVSPost2010Prop36
280
     0
102
RTVSPost2010PropOp36
 70
     1
102
RTVSPost2010Prop37
 90
       50
102
RTVSPost2010PropOp37
 70
     1
102
RTVSPost2010Prop38
140
0.0
102
RTVSPost2010PropOp38
 70
     1
102
RTVSPost2010Prop39
140
1.0
102
RTVSPost2010PropOp39
 70
     1
102
RTVSPost2010Prop40
 90
        0
102
RTVSPost2010PropOp40
 70
     1
102
RTVSPost2010Prop41ColorIndex
 90
       18
102
RTVSPost2010Prop41ColorRGB
 90
        0
102
RTVSPost2010PropOp41
 70
     1
102
RTVSPost2010Prop42
 90
       50
102
RTVSPost2010PropOp42
 70
     1
102
RTVSPost2010Prop43
 90
        3
102
RTVSPost2010PropOp43
 70
     1
102
RTVSPost2010Prop44ColorIndex
 90
        5
102
RTVSPost2010Prop44ColorRGB
 90
      255
102
RTVSPost2010PropOp44
 70
     1
102
RTVSPost2010Prop45
280
     0
102
RTVSPost2010PropOp45
 70
     1
102
RTVSPost2010Prop46
 90
       50
102
RTVSPost2010PropOp46
 70
     1
102
RTVSPost2010Prop47
 90
       50
102
RTVSPost2010PropOp47
 70
     1
102
RTVSPost2010Prop48
 90
       50
102
RTVSPost2010PropOp48
 70
     1
102
RTVSPost2010Prop49
280
     0
102
RTVSPost2010PropOp49
 70
     1
102
RTVSPost2010Prop50
 90
       50
102
RTVSPost2010PropOp50
 70
     1
102
RTVSPost2010Prop51ColorIndex
 90
      256
102
RTVSPost2010Prop51ColorRGB
 90
-16777216
102
RTVSPost2010PropOp51
 70
     0
102
RTVSPost2010Prop52
140
1.0
102
RTVSPost2010PropOp52
 70
     0
102
RTVSPost2010Prop53
 90
        2
102
RTVSPost2010PropOp53
 70
     1
102
RTVSPost2010Prop54
  1
strokes_ogs.tif
102
RTVSPost2010PropOp54
 70
     1
102
RTVSPost2010Prop55
280
     0
102
RTVSPost2010PropOp55
 70
     1
102
RTVSPost2010Prop56
140
1.0
102
RTVSPost2010PropOp56
 70
     1
102
RTVSPost2010Prop57
140
1.0
102
RTVSPost2010PropOp57
 70
     1
102
RTVSPropertyOp0
 70
     1
102
RTVSPropertyOp1
 70
     1
102
RTVSPropertyOp2
 70
     1
102
RTVSPropertyOp3
 70
     1
102
RTVSPropertyOp4
 70
     1
102
RTVSPropertyOp5
 70
     1
102
RTVSPropertyOp6
 70
     1
102
RTVSPropertyOp7
 70
     1
102
RTVSPropertyOp8
 70
     1
102
RTVSPropertyOp9
 70
     1
102
RTVSPropertyOp10
 70
     1
102
RTVSPropertyOp11
 70
     1
102
RTVSPropertyOp12
 70
     1
102
RTVSPropertyOp13
 70
     1
102
RTVSPropertyOp14
 70
     1
102
RTVSPropertyOp15
 70
     1
102
RTVSPropertyOp16
 70
     1
102
RTVSPropertyOp17
 70
     1
102
RTVSPropertyOp18
 70
     1
102
RTVSPropertyOp19
 70
     1
102
RTVSPropertyOp20
 70
     1
102
RTVSPropertyOp21
 70
     1
102
RTVSPropertyOp22
 70
     1
102
RTVSPropertyOp23
 70
     1
102
RTVSPropertyOp24
 70
     1
102
RTVSPropertyOp25
 70
     1
102
RTVSPropertyOp26
 70
     1
102
RTVSPropertyOp27
 70
     1
102
RTVSPropertyOp28
 70
     1
102
RTVSPropertyOp29
 70
     1
102
RTVSPropertyOp30
 70
     1
102
RTVSPropertyOp31
 70
     1
102
RTVSPropertyOp32
 70
     1
102
RTVSPropertyOp33
 70
     1
102
RTVSPropertyOp34
 70
     1
102
RTVSPropertyOp35
 70
     1
102
RTVSPropertyOp36
 70
     1
102
RTVSPropertyOp37
 70
     1
102
RTVSPropertyOp38
 70
     1
102
RTVSPropertyOp39
 70
     1
102
RTVSPropertyOp40
 70
     1
102
RTVSPropertyOp41
 70
     1
102
RTVSPropertyOp42
 70
     1
102
RTVSPropertyOp43
 70
     1
102
RTVSPropertyOp44
 70
     1
102
RTVSPropertyOp45
 70
     1
102
RTVSPropertyOp46
 70
     1
102
RTVSPropertyOp47
 70
     1
102
RTVSPropertyOp48
 70
     1
102
RTVSPropertyOp49
 70
     1
102
RTVSPropertyOp50
 70
     1
102
RTVSPropertyOp51
 70
     0
102
RTVSPropertyOp52
 70
     0
102
RTVSPropertyOp53
 70
     1
102
RTVSPropertyOp54
 70
     1
102
RTVSPropertyOp55
 70
     1
102
RTVSPropertyOp56
 70
     1
102
RTVSPropertyOp57
 70
     1
102
RTVSPropertyOp58
 70
     1
102
RTVSPropertyOp59
 70
     1
102
RTVSPropertyOp60
 70
     1
102
RTVSPropertyOp61
 70
     1
102
RTVSPropertyOp62
 70
     1
  0
XRECORD
  5
5681
102
{ACAD_REACTORS
330
5680
102
}
330
5680
100
AcDbXrecord
280
     1
102
RTVSPost2010Prop28
280
     0
102
RTVSPost2010PropOp28
 70
     1
102
RTVSPost2010Prop29
280
     1
102
RTVSPost2010PropOp29
 70
     1
102
RTVSPost2010Prop30
280
     1
102
RTVSPost2010PropOp30
 70
     1
102
RTVSPost2010Prop31
280
     0
102
RTVSPost2010PropOp31
 70
     1
102
RTVSPost2010Prop32
280
     0
102
RTVSPost2010PropOp32
 70
     1
102
RTVSPost2010Prop33
280
     0
102
RTVSPost2010PropOp33
 70
     1
102
RTVSPost2010Prop34
280
     0
102
RTVSPost2010PropOp34
 70
     1
102
RTVSPost2010Prop35
280
     0
102
RTVSPost2010PropOp35
 70
     1
102
RTVSPost2010Prop36
280
     0
102
RTVSPost2010PropOp36
 70
     1
102
RTVSPost2010Prop37
 90
       50
102
RTVSPost2010PropOp37
 70
     1
102
RTVSPost2010Prop38
140
0.0
102
RTVSPost2010PropOp38
 70
     1
102
RTVSPost2010Prop39
140
1.0
102
RTVSPost2010PropOp39
 70
     1
102
RTVSPost2010Prop40
 90
        0
102
RTVSPost2010PropOp40
 70
     1
102
RTVSPost2010Prop41ColorIndex
 90
       18
102
RTVSPost2010Prop41ColorRGB
 90
        0
102
RTVSPost2010PropOp41
 70
     1
102
RTVSPost2010Prop42
 90
       50
102
RTVSPost2010PropOp42
 70
     1
102
RTVSPost2010Prop43
 90
        3
102
RTVSPost2010PropOp43
 70
     1
102
RTVSPost2010Prop44ColorIndex
 90
        5
102
RTVSPost2010Prop44ColorRGB
 90
      255
102
RTVSPost2010PropOp44
 70
     1
102
RTVSPost2010Prop45
280
     0
102
RTVSPost2010PropOp45
 70
     1
102
RTVSPost2010Prop46
 90
       50
102
RTVSPost2010PropOp46
 70
     1
102
RTVSPost2010Prop47
 90
       50
102
RTVSPost2010PropOp47
 70
     1
102
RTVSPost2010Prop48
 90
       50
102
RTVSPost2010PropOp48
 70
     1
102
RTVSPost2010Prop49
280
     0
102
RTVSPost2010PropOp49
 70
     1
102
RTVSPost2010Prop50
 90
       50
102
RTVSPost2010PropOp50
 70
     1
102
RTVSPost2010Prop51ColorIndex
 90
      256
102
RTVSPost2010Prop51ColorRGB
 90
-16777216
102
RTVSPost2010PropOp51
 70
     0
102
RTVSPost2010Prop52
140
1.0
102
RTVSPost2010PropOp52
 70
     0
102
RTVSPost2010Prop53
 90
        2
102
RTVSPost2010PropOp53
 70
     1
102
RTVSPost2010Prop54
  1
strokes_ogs.tif
102
RTVSPost2010PropOp54
 70
     1
102
RTVSPost2010Prop55
280
     0
102
RTVSPost2010PropOp55
 70
     1
102
RTVSPost2010Prop56
140
1.0
102
RTVSPost2010PropOp56
 70
     1
102
RTVSPost2010Prop57
140
1.0
102
RTVSPost2010PropOp57
 70
     1
102
RTVSPropertyOp0
 70
     1
102
RTVSPropertyOp1
 70
     1
102
RTVSPropertyOp2
 70
     1
102
RTVSPropertyOp3
 70
     1
102
RTVSPropertyOp4
 70
     1
102
RTVSPropertyOp5
 70
     1
102
RTVSPropertyOp6
 70
     1
102
RTVSPropertyOp7
 70
     1
102
RTVSPropertyOp8
 70
     1
102
RTVSPropertyOp9
 70
     1
102
RTVSPropertyOp10
 70
     1
102
RTVSPropertyOp11
 70
     1
102
RTVSPropertyOp12
 70
     1
102
RTVSPropertyOp13
 70
     1
102
RTVSPropertyOp14
 70
     1
102
RTVSPropertyOp15
 70
     1
102
RTVSPropertyOp16
 70
     1
102
RTVSPropertyOp17
 70
     1
102
RTVSPropertyOp18
 70
     1
102
RTVSPropertyOp19
 70
     1
102
RTVSPropertyOp20
 70
     1
102
RTVSPropertyOp21
 70
     1
102
RTVSPropertyOp22
 70
     1
102
RTVSPropertyOp23
 70
     1
102
RTVSPropertyOp24
 70
     1
102
RTVSPropertyOp25
 70
     1
102
RTVSPropertyOp26
 70
     1
102
RTVSPropertyOp27
 70
     1
102
RTVSPropertyOp28
 70
     1
102
RTVSPropertyOp29
 70
     1
102
RTVSPropertyOp30
 70
     1
102
RTVSPropertyOp31
 70
     1
102
RTVSPropertyOp32
 70
     1
102
RTVSPropertyOp33
 70
     1
102
RTVSPropertyOp34
 70
     1
102
RTVSPropertyOp35
 70
     1
102
RTVSPropertyOp36
 70
     1
102
RTVSPropertyOp37
 70
     1
102
RTVSPropertyOp38
 70
     1
102
RTVSPropertyOp39
 70
     1
102
RTVSPropertyOp40
 70
     1
102
RTVSPropertyOp41
 70
     1
102
RTVSPropertyOp42
 70
     1
102
RTVSPropertyOp43
 70
     1
102
RTVSPropertyOp44
 70
     1
102
RTVSPropertyOp45
 70
     1
102
RTVSPropertyOp46
 70
     1
102
RTVSPropertyOp47
 70
     1
102
RTVSPropertyOp48
 70
     1
102
RTVSPropertyOp49
 70
     1
102
RTVSPropertyOp50
 70
     1
102
RTVSPropertyOp51
 70
     0
102
RTVSPropertyOp52
 70
     0
102
RTVSPropertyOp53
 70
     1
102
RTVSPropertyOp54
 70
     1
102
RTVSPropertyOp55
 70
     1
102
RTVSPropertyOp56
 70
     1
102
RTVSPropertyOp57
 70
     1
102
RTVSPropertyOp58
 70
     1
102
RTVSPropertyOp59
 70
     1
102
RTVSPropertyOp60
 70
     1
102
RTVSPropertyOp61
 70
     1
102
RTVSPropertyOp62
 70
     1
  0
XRECORD
  5
568F
102
{ACAD_REACTORS
330
568E
102
}
330
568E
100
AcDbXrecord
280
     1
102
RTVSPost2010Prop28
280
     0
102
RTVSPost2010PropOp28
 70
     1
102
RTVSPost2010Prop29
280
     1
102
RTVSPost2010PropOp29
 70
     1
102
RTVSPost2010Prop30
280
     1
102
RTVSPost2010PropOp30
 70
     1
102
RTVSPost2010Prop31
280
     0
102
RTVSPost2010PropOp31
 70
     1
102
RTVSPost2010Prop32
280
     0
102
RTVSPost2010PropOp32
 70
     1
102
RTVSPost2010Prop33
280
     0
102
RTVSPost2010PropOp33
 70
     1
102
RTVSPost2010Prop34
280
     0
102
RTVSPost2010PropOp34
 70
     1
102
RTVSPost2010Prop35
280
     0
102
RTVSPost2010PropOp35
 70
     1
102
RTVSPost2010Prop36
280
     0
102
RTVSPost2010PropOp36
 70
     1
102
RTVSPost2010Prop37
 90
       50
102
RTVSPost2010PropOp37
 70
     1
102
RTVSPost2010Prop38
140
0.0
102
RTVSPost2010PropOp38
 70
     1
102
RTVSPost2010Prop39
140
1.0
102
RTVSPost2010PropOp39
 70
     1
102
RTVSPost2010Prop40
 90
        0
102
RTVSPost2010PropOp40
 70
     1
102
RTVSPost2010Prop41ColorIndex
 90
       18
102
RTVSPost2010Prop41ColorRGB
 90
        0
102
RTVSPost2010PropOp41
 70
     1
102
RTVSPost2010Prop42
 90
       50
102
RTVSPost2010PropOp42
 70
     1
102
RTVSPost2010Prop43
 90
        3
102
RTVSPost2010PropOp43
 70
     1
102
RTVSPost2010Prop44ColorIndex
 90
        5
102
RTVSPost2010Prop44ColorRGB
 90
      255
102
RTVSPost2010PropOp44
 70
     1
102
RTVSPost2010Prop45
280
     0
102
RTVSPost2010PropOp45
 70
     1
102
RTVSPost2010Prop46
 90
       50
102
RTVSPost2010PropOp46
 70
     1
102
RTVSPost2010Prop47
 90
       50
102
RTVSPost2010PropOp47
 70
     1
102
RTVSPost2010Prop48
 90
       50
102
RTVSPost2010PropOp48
 70
     1
102
RTVSPost2010Prop49
280
     0
102
RTVSPost2010PropOp49
 70
     1
102
RTVSPost2010Prop50
 90
       50
102
RTVSPost2010PropOp50
 70
     1
102
RTVSPost2010Prop51ColorIndex
 90
      256
102
RTVSPost2010Prop51ColorRGB
 90
-16777216
102
RTVSPost2010PropOp51
 70
     0
102
RTVSPost2010Prop52
140
1.0
102
RTVSPost2010PropOp52
 70
     0
102
RTVSPost2010Prop53
 90
        2
102
RTVSPost2010PropOp53
 70
     1
102
RTVSPost2010Prop54
  1
strokes_ogs.tif
102
RTVSPost2010PropOp54
 70
     1
102
RTVSPost2010Prop55
280
     0
102
RTVSPost2010PropOp55
 70
     1
102
RTVSPost2010Prop56
140
1.0
102
RTVSPost2010PropOp56
 70
     1
102
RTVSPost2010Prop57
140
1.0
102
RTVSPost2010PropOp57
 70
     1
102
RTVSPropertyOp0
 70
     1
102
RTVSPropertyOp1
 70
     1
102
RTVSPropertyOp2
 70
     1
102
RTVSPropertyOp3
 70
     1
102
RTVSPropertyOp4
 70
     1
102
RTVSPropertyOp5
 70
     1
102
RTVSPropertyOp6
 70
     1
102
RTVSPropertyOp7
 70
     1
102
RTVSPropertyOp8
 70
     1
102
RTVSPropertyOp9
 70
     1
102
RTVSPropertyOp10
 70
     1
102
RTVSPropertyOp11
 70
     1
102
RTVSPropertyOp12
 70
     1
102
RTVSPropertyOp13
 70
     1
102
RTVSPropertyOp14
 70
     1
102
RTVSPropertyOp15
 70
     1
102
RTVSPropertyOp16
 70
     1
102
RTVSPropertyOp17
 70
     1
102
RTVSPropertyOp18
 70
     1
102
RTVSPropertyOp19
 70
     1
102
RTVSPropertyOp20
 70
     1
102
RTVSPropertyOp21
 70
     1
102
RTVSPropertyOp22
 70
     1
102
RTVSPropertyOp23
 70
     1
102
RTVSPropertyOp24
 70
     1
102
RTVSPropertyOp25
 70
     1
102
RTVSPropertyOp26
 70
     1
102
RTVSPropertyOp27
 70
     1
102
RTVSPropertyOp28
 70
     1
102
RTVSPropertyOp29
 70
     1
102
RTVSPropertyOp30
 70
     1
102
RTVSPropertyOp31
 70
     1
102
RTVSPropertyOp32
 70
     1
102
RTVSPropertyOp33
 70
     1
102
RTVSPropertyOp34
 70
     1
102
RTVSPropertyOp35
 70
     1
102
RTVSPropertyOp36
 70
     1
102
RTVSPropertyOp37
 70
     1
102
RTVSPropertyOp38
 70
     1
102
RTVSPropertyOp39
 70
     1
102
RTVSPropertyOp40
 70
     1
102
RTVSPropertyOp41
 70
     1
102
RTVSPropertyOp42
 70
     1
102
RTVSPropertyOp43
 70
     1
102
RTVSPropertyOp44
 70
     1
102
RTVSPropertyOp45
 70
     1
102
RTVSPropertyOp46
 70
     1
102
RTVSPropertyOp47
 70
     1
102
RTVSPropertyOp48
 70
     1
102
RTVSPropertyOp49
 70
     1
102
RTVSPropertyOp50
 70
     1
102
RTVSPropertyOp51
 70
     0
102
RTVSPropertyOp52
 70
     0
102
RTVSPropertyOp53
 70
     1
102
RTVSPropertyOp54
 70
     1
102
RTVSPropertyOp55
 70
     1
102
RTVSPropertyOp56
 70
     1
102
RTVSPropertyOp57
 70
     1
102
RTVSPropertyOp58
 70
     1
102
RTVSPropertyOp59
 70
     1
102
RTVSPropertyOp60
 70
     1
102
RTVSPropertyOp61
 70
     1
102
RTVSPropertyOp62
 70
     1
  0
XRECORD
  5
5697
102
{ACAD_REACTORS
330
5696
102
}
330
5696
100
AcDbXrecord
280
     1
102
RTVSPost2010Prop28
280
     0
102
RTVSPost2010PropOp28
 70
     1
102
RTVSPost2010Prop29
280
     1
102
RTVSPost2010PropOp29
 70
     1
102
RTVSPost2010Prop30
280
     1
102
RTVSPost2010PropOp30
 70
     1
102
RTVSPost2010Prop31
280
     0
102
RTVSPost2010PropOp31
 70
     1
102
RTVSPost2010Prop32
280
     0
102
RTVSPost2010PropOp32
 70
     1
102
RTVSPost2010Prop33
280
     0
102
RTVSPost2010PropOp33
 70
     1
102
RTVSPost2010Prop34
280
     0
102
RTVSPost2010PropOp34
 70
     1
102
RTVSPost2010Prop35
280
     0
102
RTVSPost2010PropOp35
 70
     1
102
RTVSPost2010Prop36
280
     0
102
RTVSPost2010PropOp36
 70
     1
102
RTVSPost2010Prop37
 90
       50
102
RTVSPost2010PropOp37
 70
     1
102
RTVSPost2010Prop38
140
0.0
102
RTVSPost2010PropOp38
 70
     1
102
RTVSPost2010Prop39
140
1.0
102
RTVSPost2010PropOp39
 70
     1
102
RTVSPost2010Prop40
 90
        0
102
RTVSPost2010PropOp40
 70
     1
102
RTVSPost2010Prop41ColorIndex
 90
       18
102
RTVSPost2010Prop41ColorRGB
 90
        0
102
RTVSPost2010PropOp41
 70
     1
102
RTVSPost2010Prop42
 90
       50
102
RTVSPost2010PropOp42
 70
     1
102
RTVSPost2010Prop43
 90
        3
102
RTVSPost2010PropOp43
 70
     1
102
RTVSPost2010Prop44ColorIndex
 90
        5
102
RTVSPost2010Prop44ColorRGB
 90
      255
102
RTVSPost2010PropOp44
 70
     1
102
RTVSPost2010Prop45
280
     0
102
RTVSPost2010PropOp45
 70
     1
102
RTVSPost2010Prop46
 90
       50
102
RTVSPost2010PropOp46
 70
     1
102
RTVSPost2010Prop47
 90
       50
102
RTVSPost2010PropOp47
 70
     1
102
RTVSPost2010Prop48
 90
       50
102
RTVSPost2010PropOp48
 70
     1
102
RTVSPost2010Prop49
280
     0
102
RTVSPost2010PropOp49
 70
     1
102
RTVSPost2010Prop50
 90
       50
102
RTVSPost2010PropOp50
 70
     1
102
RTVSPost2010Prop51ColorIndex
 90
      256
102
RTVSPost2010Prop51ColorRGB
 90
-16777216
102
RTVSPost2010PropOp51
 70
     0
102
RTVSPost2010Prop52
140
1.0
102
RTVSPost2010PropOp52
 70
     0
102
RTVSPost2010Prop53
 90
        2
102
RTVSPost2010PropOp53
 70
     1
102
RTVSPost2010Prop54
  1
strokes_ogs.tif
102
RTVSPost2010PropOp54
 70
     1
102
RTVSPost2010Prop55
280
     0
102
RTVSPost2010PropOp55
 70
     1
102
RTVSPost2010Prop56
140
1.0
102
RTVSPost2010PropOp56
 70
     1
102
RTVSPost2010Prop57
140
1.0
102
RTVSPost2010PropOp57
 70
     1
102
RTVSPropertyOp0
 70
     1
102
RTVSPropertyOp1
 70
     1
102
RTVSPropertyOp2
 70
     1
102
RTVSPropertyOp3
 70
     1
102
RTVSPropertyOp4
 70
     1
102
RTVSPropertyOp5
 70
     1
102
RTVSPropertyOp6
 70
     1
102
RTVSPropertyOp7
 70
     1
102
RTVSPropertyOp8
 70
     1
102
RTVSPropertyOp9
 70
     1
102
RTVSPropertyOp10
 70
     1
102
RTVSPropertyOp11
 70
     1
102
RTVSPropertyOp12
 70
     1
102
RTVSPropertyOp13
 70
     1
102
RTVSPropertyOp14
 70
     1
102
RTVSPropertyOp15
 70
     1
102
RTVSPropertyOp16
 70
     1
102
RTVSPropertyOp17
 70
     1
102
RTVSPropertyOp18
 70
     1
102
RTVSPropertyOp19
 70
     1
102
RTVSPropertyOp20
 70
     1
102
RTVSPropertyOp21
 70
     1
102
RTVSPropertyOp22
 70
     1
102
RTVSPropertyOp23
 70
     1
102
RTVSPropertyOp24
 70
     1
102
RTVSPropertyOp25
 70
     1
102
RTVSPropertyOp26
 70
     1
102
RTVSPropertyOp27
 70
     1
102
RTVSPropertyOp28
 70
     1
102
RTVSPropertyOp29
 70
     1
102
RTVSPropertyOp30
 70
     1
102
RTVSPropertyOp31
 70
     1
102
RTVSPropertyOp32
 70
     1
102
RTVSPropertyOp33
 70
     1
102
RTVSPropertyOp34
 70
     1
102
RTVSPropertyOp35
 70
     1
102
RTVSPropertyOp36
 70
     1
102
RTVSPropertyOp37
 70
     1
102
RTVSPropertyOp38
 70
     1
102
RTVSPropertyOp39
 70
     1
102
RTVSPropertyOp40
 70
     1
102
RTVSPropertyOp41
 70
     1
102
RTVSPropertyOp42
 70
     1
102
RTVSPropertyOp43
 70
     1
102
RTVSPropertyOp44
 70
     1
102
RTVSPropertyOp45
 70
     1
102
RTVSPropertyOp46
 70
     1
102
RTVSPropertyOp47
 70
     1
102
RTVSPropertyOp48
 70
     1
102
RTVSPropertyOp49
 70
     1
102
RTVSPropertyOp50
 70
     1
102
RTVSPropertyOp51
 70
     0
102
RTVSPropertyOp52
 70
     0
102
RTVSPropertyOp53
 70
     1
102
RTVSPropertyOp54
 70
     1
102
RTVSPropertyOp55
 70
     1
102
RTVSPropertyOp56
 70
     1
102
RTVSPropertyOp57
 70
     1
102
RTVSPropertyOp58
 70
     1
102
RTVSPropertyOp59
 70
     1
102
RTVSPropertyOp60
 70
     1
102
RTVSPropertyOp61
 70
     1
102
RTVSPropertyOp62
 70
     1
  0
XRECORD
  5
5689
102
{ACAD_REACTORS
330
5688
102
}
330
5688
100
AcDbXrecord
280
     1
102
RTVSPost2010Prop28
280
     0
102
RTVSPost2010PropOp28
 70
     1
102
RTVSPost2010Prop29
280
     1
102
RTVSPost2010PropOp29
 70
     1
102
RTVSPost2010Prop30
280
     1
102
RTVSPost2010PropOp30
 70
     1
102
RTVSPost2010Prop31
280
     0
102
RTVSPost2010PropOp31
 70
     1
102
RTVSPost2010Prop32
280
     0
102
RTVSPost2010PropOp32
 70
     1
102
RTVSPost2010Prop33
280
     0
102
RTVSPost2010PropOp33
 70
     1
102
RTVSPost2010Prop34
280
     0
102
RTVSPost2010PropOp34
 70
     1
102
RTVSPost2010Prop35
280
     0
102
RTVSPost2010PropOp35
 70
     1
102
RTVSPost2010Prop36
280
     0
102
RTVSPost2010PropOp36
 70
     1
102
RTVSPost2010Prop37
 90
       50
102
RTVSPost2010PropOp37
 70
     1
102
RTVSPost2010Prop38
140
0.0
102
RTVSPost2010PropOp38
 70
     1
102
RTVSPost2010Prop39
140
1.0
102
RTVSPost2010PropOp39
 70
     1
102
RTVSPost2010Prop40
 90
        0
102
RTVSPost2010PropOp40
 70
     1
102
RTVSPost2010Prop41ColorIndex
 90
       18
102
RTVSPost2010Prop41ColorRGB
 90
        0
102
RTVSPost2010PropOp41
 70
     1
102
RTVSPost2010Prop42
 90
       50
102
RTVSPost2010PropOp42
 70
     1
102
RTVSPost2010Prop43
 90
        3
102
RTVSPost2010PropOp43
 70
     1
102
RTVSPost2010Prop44ColorIndex
 90
        5
102
RTVSPost2010Prop44ColorRGB
 90
      255
102
RTVSPost2010PropOp44
 70
     1
102
RTVSPost2010Prop45
280
     0
102
RTVSPost2010PropOp45
 70
     1
102
RTVSPost2010Prop46
 90
       50
102
RTVSPost2010PropOp46
 70
     1
102
RTVSPost2010Prop47
 90
       50
102
RTVSPost2010PropOp47
 70
     1
102
RTVSPost2010Prop48
 90
       50
102
RTVSPost2010PropOp48
 70
     1
102
RTVSPost2010Prop49
280
     0
102
RTVSPost2010PropOp49
 70
     1
102
RTVSPost2010Prop50
 90
       50
102
RTVSPost2010PropOp50
 70
     1
102
RTVSPost2010Prop51ColorIndex
 90
      256
102
RTVSPost2010Prop51ColorRGB
 90
-16777216
102
RTVSPost2010PropOp51
 70
     0
102
RTVSPost2010Prop52
140
1.0
102
RTVSPost2010PropOp52
 70
     0
102
RTVSPost2010Prop53
 90
        2
102
RTVSPost2010PropOp53
 70
     1
102
RTVSPost2010Prop54
  1
strokes_ogs.tif
102
RTVSPost2010PropOp54
 70
     1
102
RTVSPost2010Prop55
280
     0
102
RTVSPost2010PropOp55
 70
     1
102
RTVSPost2010Prop56
140
1.0
102
RTVSPost2010PropOp56
 70
     1
102
RTVSPost2010Prop57
140
1.0
102
RTVSPost2010PropOp57
 70
     1
102
RTVSPropertyOp0
 70
     1
102
RTVSPropertyOp1
 70
     1
102
RTVSPropertyOp2
 70
     1
102
RTVSPropertyOp3
 70
     1
102
RTVSPropertyOp4
 70
     1
102
RTVSPropertyOp5
 70
     1
102
RTVSPropertyOp6
 70
     1
102
RTVSPropertyOp7
 70
     1
102
RTVSPropertyOp8
 70
     1
102
RTVSPropertyOp9
 70
     1
102
RTVSPropertyOp10
 70
     1
102
RTVSPropertyOp11
 70
     1
102
RTVSPropertyOp12
 70
     1
102
RTVSPropertyOp13
 70
     1
102
RTVSPropertyOp14
 70
     1
102
RTVSPropertyOp15
 70
     1
102
RTVSPropertyOp16
 70
     1
102
RTVSPropertyOp17
 70
     1
102
RTVSPropertyOp18
 70
     1
102
RTVSPropertyOp19
 70
     1
102
RTVSPropertyOp20
 70
     1
102
RTVSPropertyOp21
 70
     1
102
RTVSPropertyOp22
 70
     1
102
RTVSPropertyOp23
 70
     1
102
RTVSPropertyOp24
 70
     1
102
RTVSPropertyOp25
 70
     1
102
RTVSPropertyOp26
 70
     1
102
RTVSPropertyOp27
 70
     1
102
RTVSPropertyOp28
 70
     1
102
RTVSPropertyOp29
 70
     1
102
RTVSPropertyOp30
 70
     1
102
RTVSPropertyOp31
 70
     1
102
RTVSPropertyOp32
 70
     1
102
RTVSPropertyOp33
 70
     1
102
RTVSPropertyOp34
 70
     1
102
RTVSPropertyOp35
 70
     1
102
RTVSPropertyOp36
 70
     1
102
RTVSPropertyOp37
 70
     1
102
RTVSPropertyOp38
 70
     1
102
RTVSPropertyOp39
 70
     1
102
RTVSPropertyOp40
 70
     1
102
RTVSPropertyOp41
 70
     1
102
RTVSPropertyOp42
 70
     1
102
RTVSPropertyOp43
 70
     1
102
RTVSPropertyOp44
 70
     1
102
RTVSPropertyOp45
 70
     1
102
RTVSPropertyOp46
 70
     1
102
RTVSPropertyOp47
 70
     1
102
RTVSPropertyOp48
 70
     1
102
RTVSPropertyOp49
 70
     1
102
RTVSPropertyOp50
 70
     1
102
RTVSPropertyOp51
 70
     0
102
RTVSPropertyOp52
 70
     0
102
RTVSPropertyOp53
 70
     1
102
RTVSPropertyOp54
 70
     1
102
RTVSPropertyOp55
 70
     1
102
RTVSPropertyOp56
 70
     1
102
RTVSPropertyOp57
 70
     1
102
RTVSPropertyOp58
 70
     1
102
RTVSPropertyOp59
 70
     1
102
RTVSPropertyOp60
 70
     1
102
RTVSPropertyOp61
 70
     1
102
RTVSPropertyOp62
 70
     1
  0
XRECORD
  5
568D
102
{ACAD_REACTORS
330
568C
102
}
330
568C
100
AcDbXrecord
280
     1
102
RTVSPost2010Prop28
280
     0
102
RTVSPost2010PropOp28
 70
     1
102
RTVSPost2010Prop29
280
     1
102
RTVSPost2010PropOp29
 70
     1
102
RTVSPost2010Prop30
280
     1
102
RTVSPost2010PropOp30
 70
     1
102
RTVSPost2010Prop31
280
     0
102
RTVSPost2010PropOp31
 70
     1
102
RTVSPost2010Prop32
280
     0
102
RTVSPost2010PropOp32
 70
     1
102
RTVSPost2010Prop33
280
     0
102
RTVSPost2010PropOp33
 70
     1
102
RTVSPost2010Prop34
280
     0
102
RTVSPost2010PropOp34
 70
     1
102
RTVSPost2010Prop35
280
     0
102
RTVSPost2010PropOp35
 70
     1
102
RTVSPost2010Prop36
280
     0
102
RTVSPost2010PropOp36
 70
     1
102
RTVSPost2010Prop37
 90
       50
102
RTVSPost2010PropOp37
 70
     1
102
RTVSPost2010Prop38
140
0.0
102
RTVSPost2010PropOp38
 70
     1
102
RTVSPost2010Prop39
140
1.0
102
RTVSPost2010PropOp39
 70
     1
102
RTVSPost2010Prop40
 90
        0
102
RTVSPost2010PropOp40
 70
     1
102
RTVSPost2010Prop41ColorIndex
 90
       18
102
RTVSPost2010Prop41ColorRGB
 90
        0
102
RTVSPost2010PropOp41
 70
     1
102
RTVSPost2010Prop42
 90
       50
102
RTVSPost2010PropOp42
 70
     1
102
RTVSPost2010Prop43
 90
        3
102
RTVSPost2010PropOp43
 70
     1
102
RTVSPost2010Prop44ColorIndex
 90
        5
102
RTVSPost2010Prop44ColorRGB
 90
      255
102
RTVSPost2010PropOp44
 70
     1
102
RTVSPost2010Prop45
280
     0
102
RTVSPost2010PropOp45
 70
     1
102
RTVSPost2010Prop46
 90
       50
102
RTVSPost2010PropOp46
 70
     1
102
RTVSPost2010Prop47
 90
       50
102
RTVSPost2010PropOp47
 70
     1
102
RTVSPost2010Prop48
 90
       50
102
RTVSPost2010PropOp48
 70
     1
102
RTVSPost2010Prop49
280
     0
102
RTVSPost2010PropOp49
 70
     1
102
RTVSPost2010Prop50
 90
       50
102
RTVSPost2010PropOp50
 70
     1
102
RTVSPost2010Prop51ColorIndex
 90
      256
102
RTVSPost2010Prop51ColorRGB
 90
-16777216
102
RTVSPost2010PropOp51
 70
     0
102
RTVSPost2010Prop52
140
1.0
102
RTVSPost2010PropOp52
 70
     0
102
RTVSPost2010Prop53
 90
        2
102
RTVSPost2010PropOp53
 70
     1
102
RTVSPost2010Prop54
  1
strokes_ogs.tif
102
RTVSPost2010PropOp54
 70
     1
102
RTVSPost2010Prop55
280
     0
102
RTVSPost2010PropOp55
 70
     1
102
RTVSPost2010Prop56
140
1.0
102
RTVSPost2010PropOp56
 70
     1
102
RTVSPost2010Prop57
140
1.0
102
RTVSPost2010PropOp57
 70
     1
102
RTVSPropertyOp0
 70
     1
102
RTVSPropertyOp1
 70
     1
102
RTVSPropertyOp2
 70
     1
102
RTVSPropertyOp3
 70
     1
102
RTVSPropertyOp4
 70
     1
102
RTVSPropertyOp5
 70
     1
102
RTVSPropertyOp6
 70
     1
102
RTVSPropertyOp7
 70
     1
102
RTVSPropertyOp8
 70
     1
102
RTVSPropertyOp9
 70
     1
102
RTVSPropertyOp10
 70
     1
102
RTVSPropertyOp11
 70
     1
102
RTVSPropertyOp12
 70
     1
102
RTVSPropertyOp13
 70
     1
102
RTVSPropertyOp14
 70
     1
102
RTVSPropertyOp15
 70
     1
102
RTVSPropertyOp16
 70
     1
102
RTVSPropertyOp17
 70
     1
102
RTVSPropertyOp18
 70
     1
102
RTVSPropertyOp19
 70
     1
102
RTVSPropertyOp20
 70
     1
102
RTVSPropertyOp21
 70
     1
102
RTVSPropertyOp22
 70
     1
102
RTVSPropertyOp23
 70
     1
102
RTVSPropertyOp24
 70
     1
102
RTVSPropertyOp25
 70
     1
102
RTVSPropertyOp26
 70
     1
102
RTVSPropertyOp27
 70
     1
102
RTVSPropertyOp28
 70
     1
102
RTVSPropertyOp29
 70
     1
102
RTVSPropertyOp30
 70
     1
102
RTVSPropertyOp31
 70
     1
102
RTVSPropertyOp32
 70
     1
102
RTVSPropertyOp33
 70
     1
102
RTVSPropertyOp34
 70
     1
102
RTVSPropertyOp35
 70
     1
102
RTVSPropertyOp36
 70
     1
102
RTVSPropertyOp37
 70
     1
102
RTVSPropertyOp38
 70
     1
102
RTVSPropertyOp39
 70
     1
102
RTVSPropertyOp40
 70
     1
102
RTVSPropertyOp41
 70
     1
102
RTVSPropertyOp42
 70
     1
102
RTVSPropertyOp43
 70
     1
102
RTVSPropertyOp44
 70
     1
102
RTVSPropertyOp45
 70
     1
102
RTVSPropertyOp46
 70
     1
102
RTVSPropertyOp47
 70
     1
102
RTVSPropertyOp48
 70
     1
102
RTVSPropertyOp49
 70
     1
102
RTVSPropertyOp50
 70
     1
102
RTVSPropertyOp51
 70
     0
102
RTVSPropertyOp52
 70
     0
102
RTVSPropertyOp53
 70
     1
102
RTVSPropertyOp54
 70
     1
102
RTVSPropertyOp55
 70
     1
102
RTVSPropertyOp56
 70
     1
102
RTVSPropertyOp57
 70
     1
102
RTVSPropertyOp58
 70
     1
102
RTVSPropertyOp59
 70
     1
102
RTVSPropertyOp60
 70
     1
102
RTVSPropertyOp61
 70
     1
102
RTVSPropertyOp62
 70
     1
  0
XRECORD
  5
569D
102
{ACAD_REACTORS
330
569C
102
}
330
569C
100
AcDbXrecord
280
     1
102
RTVSPost2010Prop28
280
     0
102
RTVSPost2010PropOp28
 70
     1
102
RTVSPost2010Prop29
280
     1
102
RTVSPost2010PropOp29
 70
     1
102
RTVSPost2010Prop30
280
     1
102
RTVSPost2010PropOp30
 70
     1
102
RTVSPost2010Prop31
280
     0
102
RTVSPost2010PropOp31
 70
     1
102
RTVSPost2010Prop32
280
     0
102
RTVSPost2010PropOp32
 70
     1
102
RTVSPost2010Prop33
280
     0
102
RTVSPost2010PropOp33
 70
     1
102
RTVSPost2010Prop34
280
     0
102
RTVSPost2010PropOp34
 70
     1
102
RTVSPost2010Prop35
280
     0
102
RTVSPost2010PropOp35
 70
     1
102
RTVSPost2010Prop36
280
     0
102
RTVSPost2010PropOp36
 70
     1
102
RTVSPost2010Prop37
 90
       50
102
RTVSPost2010PropOp37
 70
     1
102
RTVSPost2010Prop38
140
0.0
102
RTVSPost2010PropOp38
 70
     1
102
RTVSPost2010Prop39
140
1.0
102
RTVSPost2010PropOp39
 70
     1
102
RTVSPost2010Prop40
 90
        0
102
RTVSPost2010PropOp40
 70
     1
102
RTVSPost2010Prop41ColorIndex
 90
       18
102
RTVSPost2010Prop41ColorRGB
 90
        0
102
RTVSPost2010PropOp41
 70
     1
102
RTVSPost2010Prop42
 90
       50
102
RTVSPost2010PropOp42
 70
     1
102
RTVSPost2010Prop43
 90
        3
102
RTVSPost2010PropOp43
 70
     1
102
RTVSPost2010Prop44ColorIndex
 90
        5
102
RTVSPost2010Prop44ColorRGB
 90
      255
102
RTVSPost2010PropOp44
 70
     1
102
RTVSPost2010Prop45
280
     0
102
RTVSPost2010PropOp45
 70
     1
102
RTVSPost2010Prop46
 90
       50
102
RTVSPost2010PropOp46
 70
     1
102
RTVSPost2010Prop47
 90
       50
102
RTVSPost2010PropOp47
 70
     1
102
RTVSPost2010Prop48
 90
       50
102
RTVSPost2010PropOp48
 70
     1
102
RTVSPost2010Prop49
280
     0
102
RTVSPost2010PropOp49
 70
     1
102
RTVSPost2010Prop50
 90
       50
102
RTVSPost2010PropOp50
 70
     1
102
RTVSPost2010Prop51ColorIndex
 90
      256
102
RTVSPost2010Prop51ColorRGB
 90
-16777216
102
RTVSPost2010PropOp51
 70
     0
102
RTVSPost2010Prop52
140
1.0
102
RTVSPost2010PropOp52
 70
     0
102
RTVSPost2010Prop53
 90
        2
102
RTVSPost2010PropOp53
 70
     1
102
RTVSPost2010Prop54
  1
strokes_ogs.tif
102
RTVSPost2010PropOp54
 70
     1
102
RTVSPost2010Prop55
280
     0
102
RTVSPost2010PropOp55
 70
     1
102
RTVSPost2010Prop56
140
1.0
102
RTVSPost2010PropOp56
 70
     1
102
RTVSPost2010Prop57
140
1.0
102
RTVSPost2010PropOp57
 70
     1
102
RTVSPropertyOp0
 70
     0
102
RTVSPropertyOp1
 70
     0
102
RTVSPropertyOp2
 70
     0
102
RTVSPropertyOp3
 70
     0
102
RTVSPropertyOp4
 70
     0
102
RTVSPropertyOp5
 70
     0
102
RTVSPropertyOp6
 70
     0
102
RTVSPropertyOp7
 70
     0
102
RTVSPropertyOp8
 70
     0
102
RTVSPropertyOp9
 70
     0
102
RTVSPropertyOp10
 70
     0
102
RTVSPropertyOp11
 70
     0
102
RTVSPropertyOp12
 70
     0
102
RTVSPropertyOp13
 70
     0
102
RTVSPropertyOp14
 70
     2
102
RTVSPropertyOp15
 70
     0
102
RTVSPropertyOp16
 70
     0
102
RTVSPropertyOp17
 70
     0
102
RTVSPropertyOp18
 70
     0
102
RTVSPropertyOp19
 70
     0
102
RTVSPropertyOp20
 70
     0
102
RTVSPropertyOp21
 70
     0
102
RTVSPropertyOp22
 70
     0
102
RTVSPropertyOp23
 70
     0
102
RTVSPropertyOp24
 70
     0
102
RTVSPropertyOp25
 70
     0
102
RTVSPropertyOp26
 70
     0
102
RTVSPropertyOp27
 70
     0
102
RTVSPropertyOp28
 70
     1
102
RTVSPropertyOp29
 70
     1
102
RTVSPropertyOp30
 70
     1
102
RTVSPropertyOp31
 70
     1
102
RTVSPropertyOp32
 70
     1
102
RTVSPropertyOp33
 70
     1
102
RTVSPropertyOp34
 70
     1
102
RTVSPropertyOp35
 70
     1
102
RTVSPropertyOp36
 70
     1
102
RTVSPropertyOp37
 70
     1
102
RTVSPropertyOp38
 70
     1
102
RTVSPropertyOp39
 70
     1
102
RTVSPropertyOp40
 70
     1
102
RTVSPropertyOp41
 70
     1
102
RTVSPropertyOp42
 70
     1
102
RTVSPropertyOp43
 70
     1
102
RTVSPropertyOp44
 70
     1
102
RTVSPropertyOp45
 70
     1
102
RTVSPropertyOp46
 70
     1
102
RTVSPropertyOp47
 70
     1
102
RTVSPropertyOp48
 70
     1
102
RTVSPropertyOp49
 70
     1
102
RTVSPropertyOp50
 70
     1
102
RTVSPropertyOp51
 70
     0
102
RTVSPropertyOp52
 70
     0
102
RTVSPropertyOp53
 70
     1
102
RTVSPropertyOp54
 70
     1
102
RTVSPropertyOp55
 70
     1
102
RTVSPropertyOp56
 70
     1
102
RTVSPropertyOp57
 70
     1
102
RTVSPropertyOp58
 70
     1
102
RTVSPropertyOp59
 70
     1
102
RTVSPropertyOp60
 70
     1
102
RTVSPropertyOp61
 70
     1
102
RTVSPropertyOp62
 70
     1
  0
XRECORD
  5
5695
102
{ACAD_REACTORS
330
5694
102
}
330
5694
100
AcDbXrecord
280
     1
102
RTVSPost2010Prop28
280
     0
102
RTVSPost2010PropOp28
 70
     1
102
RTVSPost2010Prop29
280
     1
102
RTVSPost2010PropOp29
 70
     1
102
RTVSPost2010Prop30
280
     1
102
RTVSPost2010PropOp30
 70
     1
102
RTVSPost2010Prop31
280
     0
102
RTVSPost2010PropOp31
 70
     1
102
RTVSPost2010Prop32
280
     0
102
RTVSPost2010PropOp32
 70
     1
102
RTVSPost2010Prop33
280
     0
102
RTVSPost2010PropOp33
 70
     1
102
RTVSPost2010Prop34
280
     0
102
RTVSPost2010PropOp34
 70
     1
102
RTVSPost2010Prop35
280
     0
102
RTVSPost2010PropOp35
 70
     1
102
RTVSPost2010Prop36
280
     0
102
RTVSPost2010PropOp36
 70
     1
102
RTVSPost2010Prop37
 90
       50
102
RTVSPost2010PropOp37
 70
     1
102
RTVSPost2010Prop38
140
0.0
102
RTVSPost2010PropOp38
 70
     1
102
RTVSPost2010Prop39
140
1.0
102
RTVSPost2010PropOp39
 70
     1
102
RTVSPost2010Prop40
 90
        0
102
RTVSPost2010PropOp40
 70
     1
102
RTVSPost2010Prop41ColorIndex
 90
       18
102
RTVSPost2010Prop41ColorRGB
 90
        0
102
RTVSPost2010PropOp41
 70
     1
102
RTVSPost2010Prop42
 90
       50
102
RTVSPost2010PropOp42
 70
     1
102
RTVSPost2010Prop43
 90
        3
102
RTVSPost2010PropOp43
 70
     1
102
RTVSPost2010Prop44ColorIndex
 90
        5
102
RTVSPost2010Prop44ColorRGB
 90
      255
102
RTVSPost2010PropOp44
 70
     1
102
RTVSPost2010Prop45
280
     0
102
RTVSPost2010PropOp45
 70
     1
102
RTVSPost2010Prop46
 90
       50
102
RTVSPost2010PropOp46
 70
     1
102
RTVSPost2010Prop47
 90
       50
102
RTVSPost2010PropOp47
 70
     1
102
RTVSPost2010Prop48
 90
       50
102
RTVSPost2010PropOp48
 70
     1
102
RTVSPost2010Prop49
280
     0
102
RTVSPost2010PropOp49
 70
     1
102
RTVSPost2010Prop50
 90
       50
102
RTVSPost2010PropOp50
 70
     1
102
RTVSPost2010Prop51ColorIndex
 90
      256
102
RTVSPost2010Prop51ColorRGB
 90
-16777216
102
RTVSPost2010PropOp51
 70
     0
102
RTVSPost2010Prop52
140
1.0
102
RTVSPost2010PropOp52
 70
     0
102
RTVSPost2010Prop53
 90
        2
102
RTVSPost2010PropOp53
 70
     1
102
RTVSPost2010Prop54
  1
strokes_ogs.tif
102
RTVSPost2010PropOp54
 70
     1
102
RTVSPost2010Prop55
280
     0
102
RTVSPost2010PropOp55
 70
     1
102
RTVSPost2010Prop56
140
1.0
102
RTVSPost2010PropOp56
 70
     1
102
RTVSPost2010Prop57
140
1.0
102
RTVSPost2010PropOp57
 70
     1
102
RTVSPropertyOp0
 70
     1
102
RTVSPropertyOp1
 70
     1
102
RTVSPropertyOp2
 70
     1
102
RTVSPropertyOp3
 70
     1
102
RTVSPropertyOp4
 70
     1
102
RTVSPropertyOp5
 70
     1
102
RTVSPropertyOp6
 70
     1
102
RTVSPropertyOp7
 70
     1
102
RTVSPropertyOp8
 70
     1
102
RTVSPropertyOp9
 70
     1
102
RTVSPropertyOp10
 70
     1
102
RTVSPropertyOp11
 70
     1
102
RTVSPropertyOp12
 70
     1
102
RTVSPropertyOp13
 70
     1
102
RTVSPropertyOp14
 70
     1
102
RTVSPropertyOp15
 70
     1
102
RTVSPropertyOp16
 70
     1
102
RTVSPropertyOp17
 70
     1
102
RTVSPropertyOp18
 70
     1
102
RTVSPropertyOp19
 70
     1
102
RTVSPropertyOp20
 70
     1
102
RTVSPropertyOp21
 70
     1
102
RTVSPropertyOp22
 70
     1
102
RTVSPropertyOp23
 70
     1
102
RTVSPropertyOp24
 70
     1
102
RTVSPropertyOp25
 70
     1
102
RTVSPropertyOp26
 70
     1
102
RTVSPropertyOp27
 70
     1
102
RTVSPropertyOp28
 70
     1
102
RTVSPropertyOp29
 70
     1
102
RTVSPropertyOp30
 70
     1
102
RTVSPropertyOp31
 70
     1
102
RTVSPropertyOp32
 70
     1
102
RTVSPropertyOp33
 70
     1
102
RTVSPropertyOp34
 70
     1
102
RTVSPropertyOp35
 70
     1
102
RTVSPropertyOp36
 70
     1
102
RTVSPropertyOp37
 70
     1
102
RTVSPropertyOp38
 70
     1
102
RTVSPropertyOp39
 70
     1
102
RTVSPropertyOp40
 70
     1
102
RTVSPropertyOp41
 70
     1
102
RTVSPropertyOp42
 70
     1
102
RTVSPropertyOp43
 70
     1
102
RTVSPropertyOp44
 70
     1
102
RTVSPropertyOp45
 70
     1
102
RTVSPropertyOp46
 70
     1
102
RTVSPropertyOp47
 70
     1
102
RTVSPropertyOp48
 70
     1
102
RTVSPropertyOp49
 70
     1
102
RTVSPropertyOp50
 70
     1
102
RTVSPropertyOp51
 70
     0
102
RTVSPropertyOp52
 70
     0
102
RTVSPropertyOp53
 70
     1
102
RTVSPropertyOp54
 70
     1
102
RTVSPropertyOp55
 70
     1
102
RTVSPropertyOp56
 70
     1
102
RTVSPropertyOp57
 70
     1
102
RTVSPropertyOp58
 70
     1
102
RTVSPropertyOp59
 70
     1
102
RTVSPropertyOp60
 70
     1
102
RTVSPropertyOp61
 70
     1
102
RTVSPropertyOp62
 70
     1
  0
XRECORD
  5
5679
102
{ACAD_REACTORS
330
5678
102
}
330
5678
100
AcDbXrecord
280
     1
102
RTVSPost2010Prop28
280
     0
102
RTVSPost2010PropOp28
 70
     1
102
RTVSPost2010Prop29
280
     1
102
RTVSPost2010PropOp29
 70
     1
102
RTVSPost2010Prop30
280
     1
102
RTVSPost2010PropOp30
 70
     1
102
RTVSPost2010Prop31
280
     0
102
RTVSPost2010PropOp31
 70
     1
102
RTVSPost2010Prop32
280
     0
102
RTVSPost2010PropOp32
 70
     1
102
RTVSPost2010Prop33
280
     0
102
RTVSPost2010PropOp33
 70
     1
102
RTVSPost2010Prop34
280
     0
102
RTVSPost2010PropOp34
 70
     1
102
RTVSPost2010Prop35
280
     0
102
RTVSPost2010PropOp35
 70
     1
102
RTVSPost2010Prop36
280
     0
102
RTVSPost2010PropOp36
 70
     1
102
RTVSPost2010Prop37
 90
       50
102
RTVSPost2010PropOp37
 70
     1
102
RTVSPost2010Prop38
140
0.0
102
RTVSPost2010PropOp38
 70
     1
102
RTVSPost2010Prop39
140
1.0
102
RTVSPost2010PropOp39
 70
     1
102
RTVSPost2010Prop40
 90
        0
102
RTVSPost2010PropOp40
 70
     1
102
RTVSPost2010Prop41ColorIndex
 90
       18
102
RTVSPost2010Prop41ColorRGB
 90
        0
102
RTVSPost2010PropOp41
 70
     1
102
RTVSPost2010Prop42
 90
       50
102
RTVSPost2010PropOp42
 70
     1
102
RTVSPost2010Prop43
 90
        3
102
RTVSPost2010PropOp43
 70
     1
102
RTVSPost2010Prop44ColorIndex
 90
        5
102
RTVSPost2010Prop44ColorRGB
 90
      255
102
RTVSPost2010PropOp44
 70
     1
102
RTVSPost2010Prop45
280
     0
102
RTVSPost2010PropOp45
 70
     1
102
RTVSPost2010Prop46
 90
       50
102
RTVSPost2010PropOp46
 70
     1
102
RTVSPost2010Prop47
 90
       50
102
RTVSPost2010PropOp47
 70
     1
102
RTVSPost2010Prop48
 90
       50
102
RTVSPost2010PropOp48
 70
     1
102
RTVSPost2010Prop49
280
     0
102
RTVSPost2010PropOp49
 70
     1
102
RTVSPost2010Prop50
 90
       50
102
RTVSPost2010PropOp50
 70
     1
102
RTVSPost2010Prop51ColorIndex
 90
      256
102
RTVSPost2010Prop51ColorRGB
 90
-16777216
102
RTVSPost2010PropOp51
 70
     0
102
RTVSPost2010Prop52
140
1.0
102
RTVSPost2010PropOp52
 70
     0
102
RTVSPost2010Prop53
 90
        2
102
RTVSPost2010PropOp53
 70
     1
102
RTVSPost2010Prop54
  1
strokes_ogs.tif
102
RTVSPost2010PropOp54
 70
     1
102
RTVSPost2010Prop55
280
     0
102
RTVSPost2010PropOp55
 70
     1
102
RTVSPost2010Prop56
140
1.0
102
RTVSPost2010PropOp56
 70
     1
102
RTVSPost2010Prop57
140
1.0
102
RTVSPost2010PropOp57
 70
     1
102
RTVSPropertyOp0
 70
     1
102
RTVSPropertyOp1
 70
     1
102
RTVSPropertyOp2
 70
     1
102
RTVSPropertyOp3
 70
     1
102
RTVSPropertyOp4
 70
     1
102
RTVSPropertyOp5
 70
     1
102
RTVSPropertyOp6
 70
     1
102
RTVSPropertyOp7
 70
     1
102
RTVSPropertyOp8
 70
     1
102
RTVSPropertyOp9
 70
     1
102
RTVSPropertyOp10
 70
     1
102
RTVSPropertyOp11
 70
     1
102
RTVSPropertyOp12
 70
     1
102
RTVSPropertyOp13
 70
     1
102
RTVSPropertyOp14
 70
     1
102
RTVSPropertyOp15
 70
     1
102
RTVSPropertyOp16
 70
     1
102
RTVSPropertyOp17
 70
     1
102
RTVSPropertyOp18
 70
     1
102
RTVSPropertyOp19
 70
     1
102
RTVSPropertyOp20
 70
     1
102
RTVSPropertyOp21
 70
     1
102
RTVSPropertyOp22
 70
     1
102
RTVSPropertyOp23
 70
     1
102
RTVSPropertyOp24
 70
     1
102
RTVSPropertyOp25
 70
     1
102
RTVSPropertyOp26
 70
     1
102
RTVSPropertyOp27
 70
     1
102
RTVSPropertyOp28
 70
     1
102
RTVSPropertyOp29
 70
     1
102
RTVSPropertyOp30
 70
     1
102
RTVSPropertyOp31
 70
     1
102
RTVSPropertyOp32
 70
     1
102
RTVSPropertyOp33
 70
     1
102
RTVSPropertyOp34
 70
     1
102
RTVSPropertyOp35
 70
     1
102
RTVSPropertyOp36
 70
     1
102
RTVSPropertyOp37
 70
     1
102
RTVSPropertyOp38
 70
     1
102
RTVSPropertyOp39
 70
     1
102
RTVSPropertyOp40
 70
     1
102
RTVSPropertyOp41
 70
     1
102
RTVSPropertyOp42
 70
     1
102
RTVSPropertyOp43
 70
     1
102
RTVSPropertyOp44
 70
     1
102
RTVSPropertyOp45
 70
     1
102
RTVSPropertyOp46
 70
     1
102
RTVSPropertyOp47
 70
     1
102
RTVSPropertyOp48
 70
     1
102
RTVSPropertyOp49
 70
     1
102
RTVSPropertyOp50
 70
     1
102
RTVSPropertyOp51
 70
     0
102
RTVSPropertyOp52
 70
     0
102
RTVSPropertyOp53
 70
     1
102
RTVSPropertyOp54
 70
     1
102
RTVSPropertyOp55
 70
     1
102
RTVSPropertyOp56
 70
     1
102
RTVSPropertyOp57
 70
     1
102
RTVSPropertyOp58
 70
     1
102
RTVSPropertyOp59
 70
     1
102
RTVSPropertyOp60
 70
     1
102
RTVSPropertyOp61
 70
     1
102
RTVSPropertyOp62
 70
     1
  0
XRECORD
  5
567B
102
{ACAD_REACTORS
330
567A
102
}
330
567A
100
AcDbXrecord
280
     1
102
RTVSPost2010Prop28
280
     0
102
RTVSPost2010PropOp28
 70
     1
102
RTVSPost2010Prop29
280
     1
102
RTVSPost2010PropOp29
 70
     1
102
RTVSPost2010Prop30
280
     1
102
RTVSPost2010PropOp30
 70
     1
102
RTVSPost2010Prop31
280
     0
102
RTVSPost2010PropOp31
 70
     1
102
RTVSPost2010Prop32
280
     0
102
RTVSPost2010PropOp32
 70
     1
102
RTVSPost2010Prop33
280
     0
102
RTVSPost2010PropOp33
 70
     1
102
RTVSPost2010Prop34
280
     0
102
RTVSPost2010PropOp34
 70
     1
102
RTVSPost2010Prop35
280
     0
102
RTVSPost2010PropOp35
 70
     1
102
RTVSPost2010Prop36
280
     0
102
RTVSPost2010PropOp36
 70
     1
102
RTVSPost2010Prop37
 90
       50
102
RTVSPost2010PropOp37
 70
     1
102
RTVSPost2010Prop38
140
0.0
102
RTVSPost2010PropOp38
 70
     1
102
RTVSPost2010Prop39
140
1.0
102
RTVSPost2010PropOp39
 70
     1
102
RTVSPost2010Prop40
 90
        0
102
RTVSPost2010PropOp40
 70
     1
102
RTVSPost2010Prop41ColorIndex
 90
       18
102
RTVSPost2010Prop41ColorRGB
 90
        0
102
RTVSPost2010PropOp41
 70
     1
102
RTVSPost2010Prop42
 90
       50
102
RTVSPost2010PropOp42
 70
     1
102
RTVSPost2010Prop43
 90
        3
102
RTVSPost2010PropOp43
 70
     1
102
RTVSPost2010Prop44ColorIndex
 90
        5
102
RTVSPost2010Prop44ColorRGB
 90
      255
102
RTVSPost2010PropOp44
 70
     1
102
RTVSPost2010Prop45
280
     0
102
RTVSPost2010PropOp45
 70
     1
102
RTVSPost2010Prop46
 90
       50
102
RTVSPost2010PropOp46
 70
     1
102
RTVSPost2010Prop47
 90
       50
102
RTVSPost2010PropOp47
 70
     1
102
RTVSPost2010Prop48
 90
       50
102
RTVSPost2010PropOp48
 70
     1
102
RTVSPost2010Prop49
280
     0
102
RTVSPost2010PropOp49
 70
     1
102
RTVSPost2010Prop50
 90
       50
102
RTVSPost2010PropOp50
 70
     1
102
RTVSPost2010Prop51ColorIndex
 90
      256
102
RTVSPost2010Prop51ColorRGB
 90
-16777216
102
RTVSPost2010PropOp51
 70
     0
102
RTVSPost2010Prop52
140
1.0
102
RTVSPost2010PropOp52
 70
     0
102
RTVSPost2010Prop53
 90
        2
102
RTVSPost2010PropOp53
 70
     1
102
RTVSPost2010Prop54
  1
strokes_ogs.tif
102
RTVSPost2010PropOp54
 70
     1
102
RTVSPost2010Prop55
280
     0
102
RTVSPost2010PropOp55
 70
     1
102
RTVSPost2010Prop56
140
1.0
102
RTVSPost2010PropOp56
 70
     1
102
RTVSPost2010Prop57
140
1.0
102
RTVSPost2010PropOp57
 70
     1
102
RTVSPropertyOp0
 70
     1
102
RTVSPropertyOp1
 70
     1
102
RTVSPropertyOp2
 70
     1
102
RTVSPropertyOp3
 70
     1
102
RTVSPropertyOp4
 70
     1
102
RTVSPropertyOp5
 70
     1
102
RTVSPropertyOp6
 70
     1
102
RTVSPropertyOp7
 70
     1
102
RTVSPropertyOp8
 70
     1
102
RTVSPropertyOp9
 70
     1
102
RTVSPropertyOp10
 70
     1
102
RTVSPropertyOp11
 70
     1
102
RTVSPropertyOp12
 70
     1
102
RTVSPropertyOp13
 70
     1
102
RTVSPropertyOp14
 70
     1
102
RTVSPropertyOp15
 70
     1
102
RTVSPropertyOp16
 70
     1
102
RTVSPropertyOp17
 70
     1
102
RTVSPropertyOp18
 70
     1
102
RTVSPropertyOp19
 70
     1
102
RTVSPropertyOp20
 70
     1
102
RTVSPropertyOp21
 70
     1
102
RTVSPropertyOp22
 70
     1
102
RTVSPropertyOp23
 70
     1
102
RTVSPropertyOp24
 70
     1
102
RTVSPropertyOp25
 70
     1
102
RTVSPropertyOp26
 70
     1
102
RTVSPropertyOp27
 70
     1
102
RTVSPropertyOp28
 70
     1
102
RTVSPropertyOp29
 70
     1
102
RTVSPropertyOp30
 70
     1
102
RTVSPropertyOp31
 70
     1
102
RTVSPropertyOp32
 70
     1
102
RTVSPropertyOp33
 70
     1
102
RTVSPropertyOp34
 70
     1
102
RTVSPropertyOp35
 70
     1
102
RTVSPropertyOp36
 70
     1
102
RTVSPropertyOp37
 70
     1
102
RTVSPropertyOp38
 70
     1
102
RTVSPropertyOp39
 70
     1
102
RTVSPropertyOp40
 70
     1
102
RTVSPropertyOp41
 70
     1
102
RTVSPropertyOp42
 70
     1
102
RTVSPropertyOp43
 70
     1
102
RTVSPropertyOp44
 70
     1
102
RTVSPropertyOp45
 70
     1
102
RTVSPropertyOp46
 70
     1
102
RTVSPropertyOp47
 70
     1
102
RTVSPropertyOp48
 70
     1
102
RTVSPropertyOp49
 70
     1
102
RTVSPropertyOp50
 70
     1
102
RTVSPropertyOp51
 70
     0
102
RTVSPropertyOp52
 70
     0
102
RTVSPropertyOp53
 70
     1
102
RTVSPropertyOp54
 70
     1
102
RTVSPropertyOp55
 70
     1
102
RTVSPropertyOp56
 70
     1
102
RTVSPropertyOp57
 70
     1
102
RTVSPropertyOp58
 70
     1
102
RTVSPropertyOp59
 70
     1
102
RTVSPropertyOp60
 70
     1
102
RTVSPropertyOp61
 70
     1
102
RTVSPropertyOp62
 70
     1
  0
XRECORD
  5
567D
102
{ACAD_REACTORS
330
567C
102
}
330
567C
100
AcDbXrecord
280
     1
102
RTVSPost2010Prop28
280
     0
102
RTVSPost2010PropOp28
 70
     1
102
RTVSPost2010Prop29
280
     1
102
RTVSPost2010PropOp29
 70
     1
102
RTVSPost2010Prop30
280
     1
102
RTVSPost2010PropOp30
 70
     1
102
RTVSPost2010Prop31
280
     0
102
RTVSPost2010PropOp31
 70
     1
102
RTVSPost2010Prop32
280
     0
102
RTVSPost2010PropOp32
 70
     1
102
RTVSPost2010Prop33
280
     0
102
RTVSPost2010PropOp33
 70
     1
102
RTVSPost2010Prop34
280
     0
102
RTVSPost2010PropOp34
 70
     1
102
RTVSPost2010Prop35
280
     0
102
RTVSPost2010PropOp35
 70
     1
102
RTVSPost2010Prop36
280
     0
102
RTVSPost2010PropOp36
 70
     1
102
RTVSPost2010Prop37
 90
       50
102
RTVSPost2010PropOp37
 70
     1
102
RTVSPost2010Prop38
140
0.0
102
RTVSPost2010PropOp38
 70
     1
102
RTVSPost2010Prop39
140
1.0
102
RTVSPost2010PropOp39
 70
     1
102
RTVSPost2010Prop40
 90
        0
102
RTVSPost2010PropOp40
 70
     1
102
RTVSPost2010Prop41ColorIndex
 90
       18
102
RTVSPost2010Prop41ColorRGB
 90
        0
102
RTVSPost2010PropOp41
 70
     1
102
RTVSPost2010Prop42
 90
       50
102
RTVSPost2010PropOp42
 70
     1
102
RTVSPost2010Prop43
 90
        3
102
RTVSPost2010PropOp43
 70
     1
102
RTVSPost2010Prop44ColorIndex
 90
        5
102
RTVSPost2010Prop44ColorRGB
 90
      255
102
RTVSPost2010PropOp44
 70
     1
102
RTVSPost2010Prop45
280
     0
102
RTVSPost2010PropOp45
 70
     1
102
RTVSPost2010Prop46
 90
       50
102
RTVSPost2010PropOp46
 70
     1
102
RTVSPost2010Prop47
 90
       50
102
RTVSPost2010PropOp47
 70
     1
102
RTVSPost2010Prop48
 90
       50
102
RTVSPost2010PropOp48
 70
     1
102
RTVSPost2010Prop49
280
     0
102
RTVSPost2010PropOp49
 70
     1
102
RTVSPost2010Prop50
 90
       50
102
RTVSPost2010PropOp50
 70
     1
102
RTVSPost2010Prop51ColorIndex
 90
      256
102
RTVSPost2010Prop51ColorRGB
 90
-16777216
102
RTVSPost2010PropOp51
 70
     0
102
RTVSPost2010Prop52
140
1.0
102
RTVSPost2010PropOp52
 70
     0
102
RTVSPost2010Prop53
 90
        2
102
RTVSPost2010PropOp53
 70
     1
102
RTVSPost2010Prop54
  1
strokes_ogs.tif
102
RTVSPost2010PropOp54
 70
     1
102
RTVSPost2010Prop55
280
     0
102
RTVSPost2010PropOp55
 70
     1
102
RTVSPost2010Prop56
140
1.0
102
RTVSPost2010PropOp56
 70
     1
102
RTVSPost2010Prop57
140
1.0
102
RTVSPost2010PropOp57
 70
     1
102
RTVSPropertyOp0
 70
     1
102
RTVSPropertyOp1
 70
     1
102
RTVSPropertyOp2
 70
     1
102
RTVSPropertyOp3
 70
     1
102
RTVSPropertyOp4
 70
     1
102
RTVSPropertyOp5
 70
     1
102
RTVSPropertyOp6
 70
     1
102
RTVSPropertyOp7
 70
     1
102
RTVSPropertyOp8
 70
     1
102
RTVSPropertyOp9
 70
     1
102
RTVSPropertyOp10
 70
     1
102
RTVSPropertyOp11
 70
     1
102
RTVSPropertyOp12
 70
     1
102
RTVSPropertyOp13
 70
     1
102
RTVSPropertyOp14
 70
     1
102
RTVSPropertyOp15
 70
     1
102
RTVSPropertyOp16
 70
     1
102
RTVSPropertyOp17
 70
     1
102
RTVSPropertyOp18
 70
     1
102
RTVSPropertyOp19
 70
     1
102
RTVSPropertyOp20
 70
     1
102
RTVSPropertyOp21
 70
     1
102
RTVSPropertyOp22
 70
     1
102
RTVSPropertyOp23
 70
     1
102
RTVSPropertyOp24
 70
     1
102
RTVSPropertyOp25
 70
     1
102
RTVSPropertyOp26
 70
     1
102
RTVSPropertyOp27
 70
     1
102
RTVSPropertyOp28
 70
     1
102
RTVSPropertyOp29
 70
     1
102
RTVSPropertyOp30
 70
     1
102
RTVSPropertyOp31
 70
     1
102
RTVSPropertyOp32
 70
     1
102
RTVSPropertyOp33
 70
     1
102
RTVSPropertyOp34
 70
     1
102
RTVSPropertyOp35
 70
     1
102
RTVSPropertyOp36
 70
     1
102
RTVSPropertyOp37
 70
     1
102
RTVSPropertyOp38
 70
     1
102
RTVSPropertyOp39
 70
     1
102
RTVSPropertyOp40
 70
     1
102
RTVSPropertyOp41
 70
     1
102
RTVSPropertyOp42
 70
     1
102
RTVSPropertyOp43
 70
     1
102
RTVSPropertyOp44
 70
     1
102
RTVSPropertyOp45
 70
     1
102
RTVSPropertyOp46
 70
     1
102
RTVSPropertyOp47
 70
     1
102
RTVSPropertyOp48
 70
     1
102
RTVSPropertyOp49
 70
     1
102
RTVSPropertyOp50
 70
     1
102
RTVSPropertyOp51
 70
     0
102
RTVSPropertyOp52
 70
     0
102
RTVSPropertyOp53
 70
     1
102
RTVSPropertyOp54
 70
     1
102
RTVSPropertyOp55
 70
     1
102
RTVSPropertyOp56
 70
     1
102
RTVSPropertyOp57
 70
     1
102
RTVSPropertyOp58
 70
     1
102
RTVSPropertyOp59
 70
     1
102
RTVSPropertyOp60
 70
     1
102
RTVSPropertyOp61
 70
     1
102
RTVSPropertyOp62
 70
     1
  0
XRECORD
  5
567F
102
{ACAD_REACTORS
330
567E
102
}
330
567E
100
AcDbXrecord
280
     1
102
RTVSPost2010Prop28
280
     0
102
RTVSPost2010PropOp28
 70
     1
102
RTVSPost2010Prop29
280
     1
102
RTVSPost2010PropOp29
 70
     1
102
RTVSPost2010Prop30
280
     1
102
RTVSPost2010PropOp30
 70
     1
102
RTVSPost2010Prop31
280
     0
102
RTVSPost2010PropOp31
 70
     1
102
RTVSPost2010Prop32
280
     0
102
RTVSPost2010PropOp32
 70
     1
102
RTVSPost2010Prop33
280
     0
102
RTVSPost2010PropOp33
 70
     1
102
RTVSPost2010Prop34
280
     0
102
RTVSPost2010PropOp34
 70
     1
102
RTVSPost2010Prop35
280
     0
102
RTVSPost2010PropOp35
 70
     1
102
RTVSPost2010Prop36
280
     0
102
RTVSPost2010PropOp36
 70
     1
102
RTVSPost2010Prop37
 90
       50
102
RTVSPost2010PropOp37
 70
     1
102
RTVSPost2010Prop38
140
0.0
102
RTVSPost2010PropOp38
 70
     1
102
RTVSPost2010Prop39
140
1.0
102
RTVSPost2010PropOp39
 70
     1
102
RTVSPost2010Prop40
 90
        0
102
RTVSPost2010PropOp40
 70
     1
102
RTVSPost2010Prop41ColorIndex
 90
       18
102
RTVSPost2010Prop41ColorRGB
 90
        0
102
RTVSPost2010PropOp41
 70
     1
102
RTVSPost2010Prop42
 90
       50
102
RTVSPost2010PropOp42
 70
     1
102
RTVSPost2010Prop43
 90
        3
102
RTVSPost2010PropOp43
 70
     1
102
RTVSPost2010Prop44ColorIndex
 90
        5
102
RTVSPost2010Prop44ColorRGB
 90
      255
102
RTVSPost2010PropOp44
 70
     1
102
RTVSPost2010Prop45
280
     0
102
RTVSPost2010PropOp45
 70
     1
102
RTVSPost2010Prop46
 90
       50
102
RTVSPost2010PropOp46
 70
     1
102
RTVSPost2010Prop47
 90
       50
102
RTVSPost2010PropOp47
 70
     1
102
RTVSPost2010Prop48
 90
       50
102
RTVSPost2010PropOp48
 70
     1
102
RTVSPost2010Prop49
280
     0
102
RTVSPost2010PropOp49
 70
     1
102
RTVSPost2010Prop50
 90
       50
102
RTVSPost2010PropOp50
 70
     1
102
RTVSPost2010Prop51ColorIndex
 90
      256
102
RTVSPost2010Prop51ColorRGB
 90
-16777216
102
RTVSPost2010PropOp51
 70
     0
102
RTVSPost2010Prop52
140
1.0
102
RTVSPost2010PropOp52
 70
     0
102
RTVSPost2010Prop53
 90
        2
102
RTVSPost2010PropOp53
 70
     1
102
RTVSPost2010Prop54
  1
strokes_ogs.tif
102
RTVSPost2010PropOp54
 70
     1
102
RTVSPost2010Prop55
280
     0
102
RTVSPost2010PropOp55
 70
     1
102
RTVSPost2010Prop56
140
1.0
102
RTVSPost2010PropOp56
 70
     1
102
RTVSPost2010Prop57
140
1.0
102
RTVSPost2010PropOp57
 70
     1
102
RTVSPropertyOp0
 70
     1
102
RTVSPropertyOp1
 70
     1
102
RTVSPropertyOp2
 70
     1
102
RTVSPropertyOp3
 70
     1
102
RTVSPropertyOp4
 70
     1
102
RTVSPropertyOp5
 70
     1
102
RTVSPropertyOp6
 70
     1
102
RTVSPropertyOp7
 70
     1
102
RTVSPropertyOp8
 70
     1
102
RTVSPropertyOp9
 70
     1
102
RTVSPropertyOp10
 70
     1
102
RTVSPropertyOp11
 70
     1
102
RTVSPropertyOp12
 70
     1
102
RTVSPropertyOp13
 70
     1
102
RTVSPropertyOp14
 70
     1
102
RTVSPropertyOp15
 70
     1
102
RTVSPropertyOp16
 70
     1
102
RTVSPropertyOp17
 70
     1
102
RTVSPropertyOp18
 70
     1
102
RTVSPropertyOp19
 70
     1
102
RTVSPropertyOp20
 70
     1
102
RTVSPropertyOp21
 70
     1
102
RTVSPropertyOp22
 70
     1
102
RTVSPropertyOp23
 70
     1
102
RTVSPropertyOp24
 70
     1
102
RTVSPropertyOp25
 70
     1
102
RTVSPropertyOp26
 70
     1
102
RTVSPropertyOp27
 70
     1
102
RTVSPropertyOp28
 70
     1
102
RTVSPropertyOp29
 70
     1
102
RTVSPropertyOp30
 70
     1
102
RTVSPropertyOp31
 70
     1
102
RTVSPropertyOp32
 70
     1
102
RTVSPropertyOp33
 70
     1
102
RTVSPropertyOp34
 70
     1
102
RTVSPropertyOp35
 70
     1
102
RTVSPropertyOp36
 70
     1
102
RTVSPropertyOp37
 70
     1
102
RTVSPropertyOp38
 70
     1
102
RTVSPropertyOp39
 70
     1
102
RTVSPropertyOp40
 70
     1
102
RTVSPropertyOp41
 70
     1
102
RTVSPropertyOp42
 70
     1
102
RTVSPropertyOp43
 70
     1
102
RTVSPropertyOp44
 70
     1
102
RTVSPropertyOp45
 70
     1
102
RTVSPropertyOp46
 70
     1
102
RTVSPropertyOp47
 70
     1
102
RTVSPropertyOp48
 70
     1
102
RTVSPropertyOp49
 70
     1
102
RTVSPropertyOp50
 70
     1
102
RTVSPropertyOp51
 70
     0
102
RTVSPropertyOp52
 70
     0
102
RTVSPropertyOp53
 70
     1
102
RTVSPropertyOp54
 70
     1
102
RTVSPropertyOp55
 70
     1
102
RTVSPropertyOp56
 70
     1
102
RTVSPropertyOp57
 70
     1
102
RTVSPropertyOp58
 70
     1
102
RTVSPropertyOp59
 70
     1
102
RTVSPropertyOp60
 70
     1
102
RTVSPropertyOp61
 70
     1
102
RTVSPropertyOp62
 70
     1
  0
XRECORD
  5
56C2
102
{ACAD_REACTORS
330
56C1
102
}
330
56C1
100
AcDbXrecord
280
     1
102
RTVSPost2010Prop28
280
     0
102
RTVSPost2010PropOp28
 70
     1
102
RTVSPost2010Prop29
280
     1
102
RTVSPost2010PropOp29
 70
     1
102
RTVSPost2010Prop30
280
     1
102
RTVSPost2010PropOp30
 70
     1
102
RTVSPost2010Prop31
280
     0
102
RTVSPost2010PropOp31
 70
     1
102
RTVSPost2010Prop32
280
     0
102
RTVSPost2010PropOp32
 70
     1
102
RTVSPost2010Prop33
280
     0
102
RTVSPost2010PropOp33
 70
     1
102
RTVSPost2010Prop34
280
     0
102
RTVSPost2010PropOp34
 70
     1
102
RTVSPost2010Prop35
280
     0
102
RTVSPost2010PropOp35
 70
     1
102
RTVSPost2010Prop36
280
     0
102
RTVSPost2010PropOp36
 70
     1
102
RTVSPost2010Prop37
 90
       50
102
RTVSPost2010PropOp37
 70
     1
102
RTVSPost2010Prop38
140
0.0
102
RTVSPost2010PropOp38
 70
     1
102
RTVSPost2010Prop39
140
1.0
102
RTVSPost2010PropOp39
 70
     1
102
RTVSPost2010Prop40
 90
        0
102
RTVSPost2010PropOp40
 70
     1
102
RTVSPost2010Prop41ColorIndex
 90
       18
102
RTVSPost2010Prop41ColorRGB
 90
        0
102
RTVSPost2010PropOp41
 70
     1
102
RTVSPost2010Prop42
 90
       50
102
RTVSPost2010PropOp42
 70
     1
102
RTVSPost2010Prop43
 90
        3
102
RTVSPost2010PropOp43
 70
     1
102
RTVSPost2010Prop44ColorIndex
 90
        5
102
RTVSPost2010Prop44ColorRGB
 90
      255
102
RTVSPost2010PropOp44
 70
     1
102
RTVSPost2010Prop45
280
     0
102
RTVSPost2010PropOp45
 70
     1
102
RTVSPost2010Prop46
 90
       50
102
RTVSPost2010PropOp46
 70
     1
102
RTVSPost2010Prop47
 90
       50
102
RTVSPost2010PropOp47
 70
     1
102
RTVSPost2010Prop48
 90
       50
102
RTVSPost2010PropOp48
 70
     1
102
RTVSPost2010Prop49
280
     0
102
RTVSPost2010PropOp49
 70
     1
102
RTVSPost2010Prop50
 90
       50
102
RTVSPost2010PropOp50
 70
     1
102
RTVSPost2010Prop51ColorIndex
 90
      256
102
RTVSPost2010Prop51ColorRGB
 90
-16777216
102
RTVSPost2010PropOp51
 70
     0
102
RTVSPost2010Prop52
140
1.0
102
RTVSPost2010PropOp52
 70
     0
102
RTVSPost2010Prop53
 90
        2
102
RTVSPost2010PropOp53
 70
     1
102
RTVSPost2010Prop54
  1
strokes_ogs.tif
102
RTVSPost2010PropOp54
 70
     1
102
RTVSPost2010Prop55
280
     0
102
RTVSPost2010PropOp55
 70
     1
102
RTVSPost2010Prop56
140
1.0
102
RTVSPost2010PropOp56
 70
     1
102
RTVSPost2010Prop57
140
1.0
102
RTVSPost2010PropOp57
 70
     1
102
RTVSPropertyOp0
 70
     1
102
RTVSPropertyOp1
 70
     1
102
RTVSPropertyOp2
 70
     1
102
RTVSPropertyOp3
 70
     1
102
RTVSPropertyOp4
 70
     1
102
RTVSPropertyOp5
 70
     1
102
RTVSPropertyOp6
 70
     1
102
RTVSPropertyOp7
 70
     1
102
RTVSPropertyOp8
 70
     1
102
RTVSPropertyOp9
 70
     1
102
RTVSPropertyOp10
 70
     1
102
RTVSPropertyOp11
 70
     1
102
RTVSPropertyOp12
 70
     1
102
RTVSPropertyOp13
 70
     1
102
RTVSPropertyOp14
 70
     1
102
RTVSPropertyOp15
 70
     1
102
RTVSPropertyOp16
 70
     1
102
RTVSPropertyOp17
 70
     1
102
RTVSPropertyOp18
 70
     1
102
RTVSPropertyOp19
 70
     1
102
RTVSPropertyOp20
 70
     1
102
RTVSPropertyOp21
 70
     1
102
RTVSPropertyOp22
 70
     1
102
RTVSPropertyOp23
 70
     1
102
RTVSPropertyOp24
 70
     1
102
RTVSPropertyOp25
 70
     1
102
RTVSPropertyOp26
 70
     1
102
RTVSPropertyOp27
 70
     1
102
RTVSPropertyOp28
 70
     1
102
RTVSPropertyOp29
 70
     1
102
RTVSPropertyOp30
 70
     1
102
RTVSPropertyOp31
 70
     1
102
RTVSPropertyOp32
 70
     1
102
RTVSPropertyOp33
 70
     1
102
RTVSPropertyOp34
 70
     1
102
RTVSPropertyOp35
 70
     1
102
RTVSPropertyOp36
 70
     1
102
RTVSPropertyOp37
 70
     1
102
RTVSPropertyOp38
 70
     1
102
RTVSPropertyOp39
 70
     1
102
RTVSPropertyOp40
 70
     1
102
RTVSPropertyOp41
 70
     1
102
RTVSPropertyOp42
 70
     1
102
RTVSPropertyOp43
 70
     1
102
RTVSPropertyOp44
 70
     1
102
RTVSPropertyOp45
 70
     1
102
RTVSPropertyOp46
 70
     1
102
RTVSPropertyOp47
 70
     1
102
RTVSPropertyOp48
 70
     1
102
RTVSPropertyOp49
 70
     1
102
RTVSPropertyOp50
 70
     1
102
RTVSPropertyOp51
 70
     0
102
RTVSPropertyOp52
 70
     0
102
RTVSPropertyOp53
 70
     1
102
RTVSPropertyOp54
 70
     1
102
RTVSPropertyOp55
 70
     1
102
RTVSPropertyOp56
 70
     1
102
RTVSPropertyOp57
 70
     1
102
RTVSPropertyOp58
 70
     1
102
RTVSPropertyOp59
 70
     1
102
RTVSPropertyOp60
 70
     1
102
RTVSPropertyOp61
 70
     1
102
RTVSPropertyOp62
 70
     1
  0
XRECORD
  5
5699
102
{ACAD_REACTORS
330
5698
102
}
330
5698
100
AcDbXrecord
280
     1
102
RTVSPost2010Prop28
280
     0
102
RTVSPost2010PropOp28
 70
     1
102
RTVSPost2010Prop29
280
     1
102
RTVSPost2010PropOp29
 70
     1
102
RTVSPost2010Prop30
280
     1
102
RTVSPost2010PropOp30
 70
     1
102
RTVSPost2010Prop31
280
     0
102
RTVSPost2010PropOp31
 70
     1
102
RTVSPost2010Prop32
280
     0
102
RTVSPost2010PropOp32
 70
     1
102
RTVSPost2010Prop33
280
     0
102
RTVSPost2010PropOp33
 70
     1
102
RTVSPost2010Prop34
280
     0
102
RTVSPost2010PropOp34
 70
     1
102
RTVSPost2010Prop35
280
     0
102
RTVSPost2010PropOp35
 70
     1
102
RTVSPost2010Prop36
280
     0
102
RTVSPost2010PropOp36
 70
     1
102
RTVSPost2010Prop37
 90
       50
102
RTVSPost2010PropOp37
 70
     1
102
RTVSPost2010Prop38
140
0.0
102
RTVSPost2010PropOp38
 70
     1
102
RTVSPost2010Prop39
140
1.0
102
RTVSPost2010PropOp39
 70
     1
102
RTVSPost2010Prop40
 90
        0
102
RTVSPost2010PropOp40
 70
     1
102
RTVSPost2010Prop41ColorIndex
 90
       18
102
RTVSPost2010Prop41ColorRGB
 90
        0
102
RTVSPost2010PropOp41
 70
     1
102
RTVSPost2010Prop42
 90
       50
102
RTVSPost2010PropOp42
 70
     1
102
RTVSPost2010Prop43
 90
        3
102
RTVSPost2010PropOp43
 70
     1
102
RTVSPost2010Prop44ColorIndex
 90
        5
102
RTVSPost2010Prop44ColorRGB
 90
      255
102
RTVSPost2010PropOp44
 70
     1
102
RTVSPost2010Prop45
280
     0
102
RTVSPost2010PropOp45
 70
     1
102
RTVSPost2010Prop46
 90
       50
102
RTVSPost2010PropOp46
 70
     1
102
RTVSPost2010Prop47
 90
       50
102
RTVSPost2010PropOp47
 70
     1
102
RTVSPost2010Prop48
 90
       50
102
RTVSPost2010PropOp48
 70
     1
102
RTVSPost2010Prop49
280
     0
102
RTVSPost2010PropOp49
 70
     1
102
RTVSPost2010Prop50
 90
       50
102
RTVSPost2010PropOp50
 70
     1
102
RTVSPost2010Prop51ColorIndex
 90
      256
102
RTVSPost2010Prop51ColorRGB
 90
-16777216
102
RTVSPost2010PropOp51
 70
     0
102
RTVSPost2010Prop52
140
1.0
102
RTVSPost2010PropOp52
 70
     0
102
RTVSPost2010Prop53
 90
        2
102
RTVSPost2010PropOp53
 70
     1
102
RTVSPost2010Prop54
  1
strokes_ogs.tif
102
RTVSPost2010PropOp54
 70
     1
102
RTVSPost2010Prop55
280
     0
102
RTVSPost2010PropOp55
 70
     1
102
RTVSPost2010Prop56
140
1.0
102
RTVSPost2010PropOp56
 70
     1
102
RTVSPost2010Prop57
140
1.0
102
RTVSPost2010PropOp57
 70
     1
102
RTVSPropertyOp0
 70
     0
102
RTVSPropertyOp1
 70
     0
102
RTVSPropertyOp2
 70
     0
102
RTVSPropertyOp3
 70
     0
102
RTVSPropertyOp4
 70
     0
102
RTVSPropertyOp5
 70
     0
102
RTVSPropertyOp6
 70
     0
102
RTVSPropertyOp7
 70
     0
102
RTVSPropertyOp8
 70
     0
102
RTVSPropertyOp9
 70
     0
102
RTVSPropertyOp10
 70
     0
102
RTVSPropertyOp11
 70
     0
102
RTVSPropertyOp12
 70
     0
102
RTVSPropertyOp13
 70
     0
102
RTVSPropertyOp14
 70
     2
102
RTVSPropertyOp15
 70
     0
102
RTVSPropertyOp16
 70
     0
102
RTVSPropertyOp17
 70
     0
102
RTVSPropertyOp18
 70
     0
102
RTVSPropertyOp19
 70
     0
102
RTVSPropertyOp20
 70
     0
102
RTVSPropertyOp21
 70
     0
102
RTVSPropertyOp22
 70
     0
102
RTVSPropertyOp23
 70
     0
102
RTVSPropertyOp24
 70
     0
102
RTVSPropertyOp25
 70
     0
102
RTVSPropertyOp26
 70
     0
102
RTVSPropertyOp27
 70
     0
102
RTVSPropertyOp28
 70
     1
102
RTVSPropertyOp29
 70
     1
102
RTVSPropertyOp30
 70
     1
102
RTVSPropertyOp31
 70
     1
102
RTVSPropertyOp32
 70
     1
102
RTVSPropertyOp33
 70
     1
102
RTVSPropertyOp34
 70
     1
102
RTVSPropertyOp35
 70
     1
102
RTVSPropertyOp36
 70
     1
102
RTVSPropertyOp37
 70
     1
102
RTVSPropertyOp38
 70
     1
102
RTVSPropertyOp39
 70
     1
102
RTVSPropertyOp40
 70
     1
102
RTVSPropertyOp41
 70
     1
102
RTVSPropertyOp42
 70
     1
102
RTVSPropertyOp43
 70
     1
102
RTVSPropertyOp44
 70
     1
102
RTVSPropertyOp45
 70
     1
102
RTVSPropertyOp46
 70
     1
102
RTVSPropertyOp47
 70
     1
102
RTVSPropertyOp48
 70
     1
102
RTVSPropertyOp49
 70
     1
102
RTVSPropertyOp50
 70
     1
102
RTVSPropertyOp51
 70
     0
102
RTVSPropertyOp52
 70
     0
102
RTVSPropertyOp53
 70
     1
102
RTVSPropertyOp54
 70
     1
102
RTVSPropertyOp55
 70
     1
102
RTVSPropertyOp56
 70
     1
102
RTVSPropertyOp57
 70
     1
102
RTVSPropertyOp58
 70
     1
102
RTVSPropertyOp59
 70
     1
102
RTVSPropertyOp60
 70
     1
102
RTVSPropertyOp61
 70
     1
102
RTVSPropertyOp62
 70
     1
  0
XRECORD
  5
5693
102
{ACAD_REACTORS
330
5692
102
}
330
5692
100
AcDbXrecord
280
     1
102
RTVSPost2010Prop28
280
     0
102
RTVSPost2010PropOp28
 70
     1
102
RTVSPost2010Prop29
280
     1
102
RTVSPost2010PropOp29
 70
     1
102
RTVSPost2010Prop30
280
     1
102
RTVSPost2010PropOp30
 70
     1
102
RTVSPost2010Prop31
280
     0
102
RTVSPost2010PropOp31
 70
     1
102
RTVSPost2010Prop32
280
     0
102
RTVSPost2010PropOp32
 70
     1
102
RTVSPost2010Prop33
280
     0
102
RTVSPost2010PropOp33
 70
     1
102
RTVSPost2010Prop34
280
     0
102
RTVSPost2010PropOp34
 70
     1
102
RTVSPost2010Prop35
280
     0
102
RTVSPost2010PropOp35
 70
     1
102
RTVSPost2010Prop36
280
     0
102
RTVSPost2010PropOp36
 70
     1
102
RTVSPost2010Prop37
 90
       50
102
RTVSPost2010PropOp37
 70
     1
102
RTVSPost2010Prop38
140
0.0
102
RTVSPost2010PropOp38
 70
     1
102
RTVSPost2010Prop39
140
1.0
102
RTVSPost2010PropOp39
 70
     1
102
RTVSPost2010Prop40
 90
        0
102
RTVSPost2010PropOp40
 70
     1
102
RTVSPost2010Prop41ColorIndex
 90
       18
102
RTVSPost2010Prop41ColorRGB
 90
        0
102
RTVSPost2010PropOp41
 70
     1
102
RTVSPost2010Prop42
 90
       50
102
RTVSPost2010PropOp42
 70
     1
102
RTVSPost2010Prop43
 90
        3
102
RTVSPost2010PropOp43
 70
     1
102
RTVSPost2010Prop44ColorIndex
 90
        5
102
RTVSPost2010Prop44ColorRGB
 90
      255
102
RTVSPost2010PropOp44
 70
     1
102
RTVSPost2010Prop45
280
     0
102
RTVSPost2010PropOp45
 70
     1
102
RTVSPost2010Prop46
 90
       50
102
RTVSPost2010PropOp46
 70
     1
102
RTVSPost2010Prop47
 90
       50
102
RTVSPost2010PropOp47
 70
     1
102
RTVSPost2010Prop48
 90
       50
102
RTVSPost2010PropOp48
 70
     1
102
RTVSPost2010Prop49
280
     0
102
RTVSPost2010PropOp49
 70
     1
102
RTVSPost2010Prop50
 90
       50
102
RTVSPost2010PropOp50
 70
     1
102
RTVSPost2010Prop51ColorIndex
 90
      256
102
RTVSPost2010Prop51ColorRGB
 90
-16777216
102
RTVSPost2010PropOp51
 70
     0
102
RTVSPost2010Prop52
140
1.0
102
RTVSPost2010PropOp52
 70
     0
102
RTVSPost2010Prop53
 90
        2
102
RTVSPost2010PropOp53
 70
     1
102
RTVSPost2010Prop54
  1
strokes_ogs.tif
102
RTVSPost2010PropOp54
 70
     1
102
RTVSPost2010Prop55
280
     0
102
RTVSPost2010PropOp55
 70
     1
102
RTVSPost2010Prop56
140
1.0
102
RTVSPost2010PropOp56
 70
     1
102
RTVSPost2010Prop57
140
1.0
102
RTVSPost2010PropOp57
 70
     1
102
RTVSPropertyOp0
 70
     1
102
RTVSPropertyOp1
 70
     1
102
RTVSPropertyOp2
 70
     1
102
RTVSPropertyOp3
 70
     1
102
RTVSPropertyOp4
 70
     1
102
RTVSPropertyOp5
 70
     1
102
RTVSPropertyOp6
 70
     1
102
RTVSPropertyOp7
 70
     1
102
RTVSPropertyOp8
 70
     1
102
RTVSPropertyOp9
 70
     1
102
RTVSPropertyOp10
 70
     1
102
RTVSPropertyOp11
 70
     1
102
RTVSPropertyOp12
 70
     1
102
RTVSPropertyOp13
 70
     1
102
RTVSPropertyOp14
 70
     1
102
RTVSPropertyOp15
 70
     1
102
RTVSPropertyOp16
 70
     1
102
RTVSPropertyOp17
 70
     1
102
RTVSPropertyOp18
 70
     1
102
RTVSPropertyOp19
 70
     1
102
RTVSPropertyOp20
 70
     1
102
RTVSPropertyOp21
 70
     1
102
RTVSPropertyOp22
 70
     1
102
RTVSPropertyOp23
 70
     1
102
RTVSPropertyOp24
 70
     1
102
RTVSPropertyOp25
 70
     1
102
RTVSPropertyOp26
 70
     1
102
RTVSPropertyOp27
 70
     1
102
RTVSPropertyOp28
 70
     1
102
RTVSPropertyOp29
 70
     1
102
RTVSPropertyOp30
 70
     1
102
RTVSPropertyOp31
 70
     1
102
RTVSPropertyOp32
 70
     1
102
RTVSPropertyOp33
 70
     1
102
RTVSPropertyOp34
 70
     1
102
RTVSPropertyOp35
 70
     1
102
RTVSPropertyOp36
 70
     1
102
RTVSPropertyOp37
 70
     1
102
RTVSPropertyOp38
 70
     1
102
RTVSPropertyOp39
 70
     1
102
RTVSPropertyOp40
 70
     1
102
RTVSPropertyOp41
 70
     1
102
RTVSPropertyOp42
 70
     1
102
RTVSPropertyOp43
 70
     1
102
RTVSPropertyOp44
 70
     1
102
RTVSPropertyOp45
 70
     1
102
RTVSPropertyOp46
 70
     1
102
RTVSPropertyOp47
 70
     1
102
RTVSPropertyOp48
 70
     1
102
RTVSPropertyOp49
 70
     1
102
RTVSPropertyOp50
 70
     1
102
RTVSPropertyOp51
 70
     0
102
RTVSPropertyOp52
 70
     0
102
RTVSPropertyOp53
 70
     1
102
RTVSPropertyOp54
 70
     1
102
RTVSPropertyOp55
 70
     1
102
RTVSPropertyOp56
 70
     1
102
RTVSPropertyOp57
 70
     1
102
RTVSPropertyOp58
 70
     1
102
RTVSPropertyOp59
 70
     1
102
RTVSPropertyOp60
 70
     1
102
RTVSPropertyOp61
 70
     1
102
RTVSPropertyOp62
 70
     1
  0
XRECORD
  5
569B
102
{ACAD_REACTORS
330
569A
102
}
330
569A
100
AcDbXrecord
280
     1
102
RTVSPost2010Prop28
280
     0
102
RTVSPost2010PropOp28
 70
     1
102
RTVSPost2010Prop29
280
     1
102
RTVSPost2010PropOp29
 70
     1
102
RTVSPost2010Prop30
280
     1
102
RTVSPost2010PropOp30
 70
     1
102
RTVSPost2010Prop31
280
     0
102
RTVSPost2010PropOp31
 70
     1
102
RTVSPost2010Prop32
280
     0
102
RTVSPost2010PropOp32
 70
     1
102
RTVSPost2010Prop33
280
     0
102
RTVSPost2010PropOp33
 70
     1
102
RTVSPost2010Prop34
280
     0
102
RTVSPost2010PropOp34
 70
     1
102
RTVSPost2010Prop35
280
     0
102
RTVSPost2010PropOp35
 70
     1
102
RTVSPost2010Prop36
280
     0
102
RTVSPost2010PropOp36
 70
     1
102
RTVSPost2010Prop37
 90
       50
102
RTVSPost2010PropOp37
 70
     1
102
RTVSPost2010Prop38
140
0.0
102
RTVSPost2010PropOp38
 70
     1
102
RTVSPost2010Prop39
140
1.0
102
RTVSPost2010PropOp39
 70
     1
102
RTVSPost2010Prop40
 90
        0
102
RTVSPost2010PropOp40
 70
     1
102
RTVSPost2010Prop41ColorIndex
 90
       18
102
RTVSPost2010Prop41ColorRGB
 90
        0
102
RTVSPost2010PropOp41
 70
     1
102
RTVSPost2010Prop42
 90
       50
102
RTVSPost2010PropOp42
 70
     1
102
RTVSPost2010Prop43
 90
        3
102
RTVSPost2010PropOp43
 70
     1
102
RTVSPost2010Prop44ColorIndex
 90
        5
102
RTVSPost2010Prop44ColorRGB
 90
      255
102
RTVSPost2010PropOp44
 70
     1
102
RTVSPost2010Prop45
280
     0
102
RTVSPost2010PropOp45
 70
     1
102
RTVSPost2010Prop46
 90
       50
102
RTVSPost2010PropOp46
 70
     1
102
RTVSPost2010Prop47
 90
       50
102
RTVSPost2010PropOp47
 70
     1
102
RTVSPost2010Prop48
 90
       50
102
RTVSPost2010PropOp48
 70
     1
102
RTVSPost2010Prop49
280
     0
102
RTVSPost2010PropOp49
 70
     1
102
RTVSPost2010Prop50
 90
       50
102
RTVSPost2010PropOp50
 70
     1
102
RTVSPost2010Prop51ColorIndex
 90
      256
102
RTVSPost2010Prop51ColorRGB
 90
-16777216
102
RTVSPost2010PropOp51
 70
     0
102
RTVSPost2010Prop52
140
1.0
102
RTVSPost2010PropOp52
 70
     0
102
RTVSPost2010Prop53
 90
        2
102
RTVSPost2010PropOp53
 70
     1
102
RTVSPost2010Prop54
  1
strokes_ogs.tif
102
RTVSPost2010PropOp54
 70
     1
102
RTVSPost2010Prop55
280
     0
102
RTVSPost2010PropOp55
 70
     1
102
RTVSPost2010Prop56
140
1.0
102
RTVSPost2010PropOp56
 70
     1
102
RTVSPost2010Prop57
140
1.0
102
RTVSPost2010PropOp57
 70
     1
102
RTVSPropertyOp0
 70
     0
102
RTVSPropertyOp1
 70
     0
102
RTVSPropertyOp2
 70
     0
102
RTVSPropertyOp3
 70
     0
102
RTVSPropertyOp4
 70
     0
102
RTVSPropertyOp5
 70
     0
102
RTVSPropertyOp6
 70
     0
102
RTVSPropertyOp7
 70
     0
102
RTVSPropertyOp8
 70
     0
102
RTVSPropertyOp9
 70
     0
102
RTVSPropertyOp10
 70
     0
102
RTVSPropertyOp11
 70
     0
102
RTVSPropertyOp12
 70
     0
102
RTVSPropertyOp13
 70
     0
102
RTVSPropertyOp14
 70
     2
102
RTVSPropertyOp15
 70
     0
102
RTVSPropertyOp16
 70
     0
102
RTVSPropertyOp17
 70
     0
102
RTVSPropertyOp18
 70
     0
102
RTVSPropertyOp19
 70
     0
102
RTVSPropertyOp20
 70
     0
102
RTVSPropertyOp21
 70
     0
102
RTVSPropertyOp22
 70
     0
102
RTVSPropertyOp23
 70
     0
102
RTVSPropertyOp24
 70
     0
102
RTVSPropertyOp25
 70
     0
102
RTVSPropertyOp26
 70
     0
102
RTVSPropertyOp27
 70
     0
102
RTVSPropertyOp28
 70
     1
102
RTVSPropertyOp29
 70
     1
102
RTVSPropertyOp30
 70
     1
102
RTVSPropertyOp31
 70
     1
102
RTVSPropertyOp32
 70
     1
102
RTVSPropertyOp33
 70
     1
102
RTVSPropertyOp34
 70
     1
102
RTVSPropertyOp35
 70
     1
102
RTVSPropertyOp36
 70
     1
102
RTVSPropertyOp37
 70
     1
102
RTVSPropertyOp38
 70
     1
102
RTVSPropertyOp39
 70
     1
102
RTVSPropertyOp40
 70
     1
102
RTVSPropertyOp41
 70
     1
102
RTVSPropertyOp42
 70
     1
102
RTVSPropertyOp43
 70
     1
102
RTVSPropertyOp44
 70
     1
102
RTVSPropertyOp45
 70
     1
102
RTVSPropertyOp46
 70
     1
102
RTVSPropertyOp47
 70
     1
102
RTVSPropertyOp48
 70
     1
102
RTVSPropertyOp49
 70
     1
102
RTVSPropertyOp50
 70
     1
102
RTVSPropertyOp51
 70
     0
102
RTVSPropertyOp52
 70
     0
102
RTVSPropertyOp53
 70
     1
102
RTVSPropertyOp54
 70
     1
102
RTVSPropertyOp55
 70
     1
102
RTVSPropertyOp56
 70
     1
102
RTVSPropertyOp57
 70
     1
102
RTVSPropertyOp58
 70
     1
102
RTVSPropertyOp59
 70
     1
102
RTVSPropertyOp60
 70
     1
102
RTVSPropertyOp61
 70
     1
102
RTVSPropertyOp62
 70
     1
  0
XRECORD
  5
568B
102
{ACAD_REACTORS
330
568A
102
}
330
568A
100
AcDbXrecord
280
     1
102
RTVSPost2010Prop28
280
     0
102
RTVSPost2010PropOp28
 70
     1
102
RTVSPost2010Prop29
280
     1
102
RTVSPost2010PropOp29
 70
     1
102
RTVSPost2010Prop30
280
     1
102
RTVSPost2010PropOp30
 70
     1
102
RTVSPost2010Prop31
280
     0
102
RTVSPost2010PropOp31
 70
     1
102
RTVSPost2010Prop32
280
     0
102
RTVSPost2010PropOp32
 70
     1
102
RTVSPost2010Prop33
280
     0
102
RTVSPost2010PropOp33
 70
     1
102
RTVSPost2010Prop34
280
     0
102
RTVSPost2010PropOp34
 70
     1
102
RTVSPost2010Prop35
280
     0
102
RTVSPost2010PropOp35
 70
     1
102
RTVSPost2010Prop36
280
     0
102
RTVSPost2010PropOp36
 70
     1
102
RTVSPost2010Prop37
 90
       50
102
RTVSPost2010PropOp37
 70
     1
102
RTVSPost2010Prop38
140
0.0
102
RTVSPost2010PropOp38
 70
     1
102
RTVSPost2010Prop39
140
1.0
102
RTVSPost2010PropOp39
 70
     1
102
RTVSPost2010Prop40
 90
        0
102
RTVSPost2010PropOp40
 70
     1
102
RTVSPost2010Prop41ColorIndex
 90
       18
102
RTVSPost2010Prop41ColorRGB
 90
        0
102
RTVSPost2010PropOp41
 70
     1
102
RTVSPost2010Prop42
 90
       50
102
RTVSPost2010PropOp42
 70
     1
102
RTVSPost2010Prop43
 90
        3
102
RTVSPost2010PropOp43
 70
     1
102
RTVSPost2010Prop44ColorIndex
 90
        5
102
RTVSPost2010Prop44ColorRGB
 90
      255
102
RTVSPost2010PropOp44
 70
     1
102
RTVSPost2010Prop45
280
     0
102
RTVSPost2010PropOp45
 70
     1
102
RTVSPost2010Prop46
 90
       50
102
RTVSPost2010PropOp46
 70
     1
102
RTVSPost2010Prop47
 90
       50
102
RTVSPost2010PropOp47
 70
     1
102
RTVSPost2010Prop48
 90
       50
102
RTVSPost2010PropOp48
 70
     1
102
RTVSPost2010Prop49
280
     0
102
RTVSPost2010PropOp49
 70
     1
102
RTVSPost2010Prop50
 90
       50
102
RTVSPost2010PropOp50
 70
     1
102
RTVSPost2010Prop51ColorIndex
 90
      256
102
RTVSPost2010Prop51ColorRGB
 90
-16777216
102
RTVSPost2010PropOp51
 70
     0
102
RTVSPost2010Prop52
140
1.0
102
RTVSPost2010PropOp52
 70
     0
102
RTVSPost2010Prop53
 90
        2
102
RTVSPost2010PropOp53
 70
     1
102
RTVSPost2010Prop54
  1
strokes_ogs.tif
102
RTVSPost2010PropOp54
 70
     1
102
RTVSPost2010Prop55
280
     0
102
RTVSPost2010PropOp55
 70
     1
102
RTVSPost2010Prop56
140
1.0
102
RTVSPost2010PropOp56
 70
     1
102
RTVSPost2010Prop57
140
1.0
102
RTVSPost2010PropOp57
 70
     1
102
RTVSPropertyOp0
 70
     1
102
RTVSPropertyOp1
 70
     1
102
RTVSPropertyOp2
 70
     1
102
RTVSPropertyOp3
 70
     1
102
RTVSPropertyOp4
 70
     1
102
RTVSPropertyOp5
 70
     1
102
RTVSPropertyOp6
 70
     1
102
RTVSPropertyOp7
 70
     1
102
RTVSPropertyOp8
 70
     1
102
RTVSPropertyOp9
 70
     1
102
RTVSPropertyOp10
 70
     1
102
RTVSPropertyOp11
 70
     1
102
RTVSPropertyOp12
 70
     1
102
RTVSPropertyOp13
 70
     1
102
RTVSPropertyOp14
 70
     1
102
RTVSPropertyOp15
 70
     1
102
RTVSPropertyOp16
 70
     1
102
RTVSPropertyOp17
 70
     1
102
RTVSPropertyOp18
 70
     1
102
RTVSPropertyOp19
 70
     1
102
RTVSPropertyOp20
 70
     1
102
RTVSPropertyOp21
 70
     1
102
RTVSPropertyOp22
 70
     1
102
RTVSPropertyOp23
 70
     1
102
RTVSPropertyOp24
 70
     1
102
RTVSPropertyOp25
 70
     1
102
RTVSPropertyOp26
 70
     1
102
RTVSPropertyOp27
 70
     1
102
RTVSPropertyOp28
 70
     1
102
RTVSPropertyOp29
 70
     1
102
RTVSPropertyOp30
 70
     1
102
RTVSPropertyOp31
 70
     1
102
RTVSPropertyOp32
 70
     1
102
RTVSPropertyOp33
 70
     1
102
RTVSPropertyOp34
 70
     1
102
RTVSPropertyOp35
 70
     1
102
RTVSPropertyOp36
 70
     1
102
RTVSPropertyOp37
 70
     1
102
RTVSPropertyOp38
 70
     1
102
RTVSPropertyOp39
 70
     1
102
RTVSPropertyOp40
 70
     1
102
RTVSPropertyOp41
 70
     1
102
RTVSPropertyOp42
 70
     1
102
RTVSPropertyOp43
 70
     1
102
RTVSPropertyOp44
 70
     1
102
RTVSPropertyOp45
 70
     1
102
RTVSPropertyOp46
 70
     1
102
RTVSPropertyOp47
 70
     1
102
RTVSPropertyOp48
 70
     1
102
RTVSPropertyOp49
 70
     1
102
RTVSPropertyOp50
 70
     1
102
RTVSPropertyOp51
 70
     0
102
RTVSPropertyOp52
 70
     0
102
RTVSPropertyOp53
 70
     1
102
RTVSPropertyOp54
 70
     1
102
RTVSPropertyOp55
 70
     1
102
RTVSPropertyOp56
 70
     1
102
RTVSPropertyOp57
 70
     1
102
RTVSPropertyOp58
 70
     1
102
RTVSPropertyOp59
 70
     1
102
RTVSPropertyOp60
 70
     1
102
RTVSPropertyOp61
 70
     1
102
RTVSPropertyOp62
 70
     1
  0
XRECORD
  5
56CC
102
{ACAD_REACTORS
330
56CB
102
}
330
56CB
100
AcDbXrecord
280
     1
102
RTVSPost2010Prop28
280
     0
102
RTVSPost2010PropOp28
 70
     1
102
RTVSPost2010Prop29
280
     1
102
RTVSPost2010PropOp29
 70
     1
102
RTVSPost2010Prop30
280
     1
102
RTVSPost2010PropOp30
 70
     1
102
RTVSPost2010Prop31
280
     0
102
RTVSPost2010PropOp31
 70
     1
102
RTVSPost2010Prop32
280
     0
102
RTVSPost2010PropOp32
 70
     1
102
RTVSPost2010Prop33
280
     0
102
RTVSPost2010PropOp33
 70
     1
102
RTVSPost2010Prop34
280
     0
102
RTVSPost2010PropOp34
 70
     1
102
RTVSPost2010Prop35
280
     0
102
RTVSPost2010PropOp35
 70
     1
102
RTVSPost2010Prop36
280
     0
102
RTVSPost2010PropOp36
 70
     1
102
RTVSPost2010Prop37
 90
       50
102
RTVSPost2010PropOp37
 70
     1
102
RTVSPost2010Prop38
140
0.0
102
RTVSPost2010PropOp38
 70
     1
102
RTVSPost2010Prop39
140
1.0
102
RTVSPost2010PropOp39
 70
     1
102
RTVSPost2010Prop40
 90
        0
102
RTVSPost2010PropOp40
 70
     1
102
RTVSPost2010Prop41ColorIndex
 90
       18
102
RTVSPost2010Prop41ColorRGB
 90
        0
102
RTVSPost2010PropOp41
 70
     1
102
RTVSPost2010Prop42
 90
       50
102
RTVSPost2010PropOp42
 70
     1
102
RTVSPost2010Prop43
 90
        3
102
RTVSPost2010PropOp43
 70
     1
102
RTVSPost2010Prop44ColorIndex
 90
        5
102
RTVSPost2010Prop44ColorRGB
 90
      255
102
RTVSPost2010PropOp44
 70
     1
102
RTVSPost2010Prop45
280
     0
102
RTVSPost2010PropOp45
 70
     1
102
RTVSPost2010Prop46
 90
       50
102
RTVSPost2010PropOp46
 70
     1
102
RTVSPost2010Prop47
 90
       50
102
RTVSPost2010PropOp47
 70
     1
102
RTVSPost2010Prop48
 90
       50
102
RTVSPost2010PropOp48
 70
     1
102
RTVSPost2010Prop49
280
     0
102
RTVSPost2010PropOp49
 70
     1
102
RTVSPost2010Prop50
 90
       50
102
RTVSPost2010PropOp50
 70
     1
102
RTVSPost2010Prop51ColorIndex
 90
      256
102
RTVSPost2010Prop51ColorRGB
 90
-16777216
102
RTVSPost2010PropOp51
 70
     0
102
RTVSPost2010Prop52
140
1.0
102
RTVSPost2010PropOp52
 70
     0
102
RTVSPost2010Prop53
 90
        2
102
RTVSPost2010PropOp53
 70
     1
102
RTVSPost2010Prop54
  1
strokes_ogs.tif
102
RTVSPost2010PropOp54
 70
     1
102
RTVSPost2010Prop55
280
     0
102
RTVSPost2010PropOp55
 70
     1
102
RTVSPost2010Prop56
140
1.0
102
RTVSPost2010PropOp56
 70
     1
102
RTVSPost2010Prop57
140
1.0
102
RTVSPost2010PropOp57
 70
     1
102
RTVSPropertyOp0
 70
     1
102
RTVSPropertyOp1
 70
     1
102
RTVSPropertyOp2
 70
     1
102
RTVSPropertyOp3
 70
     1
102
RTVSPropertyOp4
 70
     1
102
RTVSPropertyOp5
 70
     1
102
RTVSPropertyOp6
 70
     1
102
RTVSPropertyOp7
 70
     1
102
RTVSPropertyOp8
 70
     1
102
RTVSPropertyOp9
 70
     1
102
RTVSPropertyOp10
 70
     1
102
RTVSPropertyOp11
 70
     1
102
RTVSPropertyOp12
 70
     1
102
RTVSPropertyOp13
 70
     1
102
RTVSPropertyOp14
 70
     1
102
RTVSPropertyOp15
 70
     1
102
RTVSPropertyOp16
 70
     1
102
RTVSPropertyOp17
 70
     1
102
RTVSPropertyOp18
 70
     1
102
RTVSPropertyOp19
 70
     1
102
RTVSPropertyOp20
 70
     1
102
RTVSPropertyOp21
 70
     1
102
RTVSPropertyOp22
 70
     1
102
RTVSPropertyOp23
 70
     1
102
RTVSPropertyOp24
 70
     1
102
RTVSPropertyOp25
 70
     1
102
RTVSPropertyOp26
 70
     1
102
RTVSPropertyOp27
 70
     1
102
RTVSPropertyOp28
 70
     1
102
RTVSPropertyOp29
 70
     1
102
RTVSPropertyOp30
 70
     1
102
RTVSPropertyOp31
 70
     1
102
RTVSPropertyOp32
 70
     1
102
RTVSPropertyOp33
 70
     1
102
RTVSPropertyOp34
 70
     1
102
RTVSPropertyOp35
 70
     1
102
RTVSPropertyOp36
 70
     1
102
RTVSPropertyOp37
 70
     1
102
RTVSPropertyOp38
 70
     1
102
RTVSPropertyOp39
 70
     1
102
RTVSPropertyOp40
 70
     1
102
RTVSPropertyOp41
 70
     1
102
RTVSPropertyOp42
 70
     1
102
RTVSPropertyOp43
 70
     1
102
RTVSPropertyOp44
 70
     1
102
RTVSPropertyOp45
 70
     1
102
RTVSPropertyOp46
 70
     1
102
RTVSPropertyOp47
 70
     1
102
RTVSPropertyOp48
 70
     1
102
RTVSPropertyOp49
 70
     1
102
RTVSPropertyOp50
 70
     1
102
RTVSPropertyOp51
 70
     0
102
RTVSPropertyOp52
 70
     0
102
RTVSPropertyOp53
 70
     1
102
RTVSPropertyOp54
 70
     1
102
RTVSPropertyOp55
 70
     1
102
RTVSPropertyOp56
 70
     1
102
RTVSPropertyOp57
 70
     1
102
RTVSPropertyOp58
 70
     1
102
RTVSPropertyOp59
 70
     1
102
RTVSPropertyOp60
 70
     1
102
RTVSPropertyOp61
 70
     1
102
RTVSPropertyOp62
 70
     1
  0
XRECORD
  5
56CA
102
{ACAD_REACTORS
330
56C9
102
}
330
56C9
100
AcDbXrecord
280
     1
102
RTVSPost2010Prop28
280
     0
102
RTVSPost2010PropOp28
 70
     1
102
RTVSPost2010Prop29
280
     1
102
RTVSPost2010PropOp29
 70
     1
102
RTVSPost2010Prop30
280
     1
102
RTVSPost2010PropOp30
 70
     1
102
RTVSPost2010Prop31
280
     0
102
RTVSPost2010PropOp31
 70
     1
102
RTVSPost2010Prop32
280
     0
102
RTVSPost2010PropOp32
 70
     1
102
RTVSPost2010Prop33
280
     0
102
RTVSPost2010PropOp33
 70
     1
102
RTVSPost2010Prop34
280
     0
102
RTVSPost2010PropOp34
 70
     1
102
RTVSPost2010Prop35
280
     0
102
RTVSPost2010PropOp35
 70
     1
102
RTVSPost2010Prop36
280
     0
102
RTVSPost2010PropOp36
 70
     1
102
RTVSPost2010Prop37
 90
       50
102
RTVSPost2010PropOp37
 70
     1
102
RTVSPost2010Prop38
140
0.0
102
RTVSPost2010PropOp38
 70
     1
102
RTVSPost2010Prop39
140
1.0
102
RTVSPost2010PropOp39
 70
     1
102
RTVSPost2010Prop40
 90
        0
102
RTVSPost2010PropOp40
 70
     1
102
RTVSPost2010Prop41ColorIndex
 90
       18
102
RTVSPost2010Prop41ColorRGB
 90
        0
102
RTVSPost2010PropOp41
 70
     1
102
RTVSPost2010Prop42
 90
       50
102
RTVSPost2010PropOp42
 70
     1
102
RTVSPost2010Prop43
 90
        3
102
RTVSPost2010PropOp43
 70
     1
102
RTVSPost2010Prop44ColorIndex
 90
        5
102
RTVSPost2010Prop44ColorRGB
 90
      255
102
RTVSPost2010PropOp44
 70
     1
102
RTVSPost2010Prop45
280
     0
102
RTVSPost2010PropOp45
 70
     1
102
RTVSPost2010Prop46
 90
       50
102
RTVSPost2010PropOp46
 70
     1
102
RTVSPost2010Prop47
 90
       50
102
RTVSPost2010PropOp47
 70
     1
102
RTVSPost2010Prop48
 90
       50
102
RTVSPost2010PropOp48
 70
     1
102
RTVSPost2010Prop49
280
     0
102
RTVSPost2010PropOp49
 70
     1
102
RTVSPost2010Prop50
 90
       50
102
RTVSPost2010PropOp50
 70
     1
102
RTVSPost2010Prop51ColorIndex
 90
      256
102
RTVSPost2010Prop51ColorRGB
 90
-16777216
102
RTVSPost2010PropOp51
 70
     0
102
RTVSPost2010Prop52
140
1.0
102
RTVSPost2010PropOp52
 70
     0
102
RTVSPost2010Prop53
 90
        2
102
RTVSPost2010PropOp53
 70
     1
102
RTVSPost2010Prop54
  1
strokes_ogs.tif
102
RTVSPost2010PropOp54
 70
     1
102
RTVSPost2010Prop55
280
     0
102
RTVSPost2010PropOp55
 70
     1
102
RTVSPost2010Prop56
140
1.0
102
RTVSPost2010PropOp56
 70
     1
102
RTVSPost2010Prop57
140
1.0
102
RTVSPost2010PropOp57
 70
     1
102
RTVSPropertyOp0
 70
     1
102
RTVSPropertyOp1
 70
     1
102
RTVSPropertyOp2
 70
     1
102
RTVSPropertyOp3
 70
     1
102
RTVSPropertyOp4
 70
     1
102
RTVSPropertyOp5
 70
     1
102
RTVSPropertyOp6
 70
     1
102
RTVSPropertyOp7
 70
     1
102
RTVSPropertyOp8
 70
     1
102
RTVSPropertyOp9
 70
     1
102
RTVSPropertyOp10
 70
     1
102
RTVSPropertyOp11
 70
     1
102
RTVSPropertyOp12
 70
     1
102
RTVSPropertyOp13
 70
     1
102
RTVSPropertyOp14
 70
     1
102
RTVSPropertyOp15
 70
     1
102
RTVSPropertyOp16
 70
     1
102
RTVSPropertyOp17
 70
     1
102
RTVSPropertyOp18
 70
     1
102
RTVSPropertyOp19
 70
     1
102
RTVSPropertyOp20
 70
     1
102
RTVSPropertyOp21
 70
     1
102
RTVSPropertyOp22
 70
     1
102
RTVSPropertyOp23
 70
     1
102
RTVSPropertyOp24
 70
     1
102
RTVSPropertyOp25
 70
     1
102
RTVSPropertyOp26
 70
     1
102
RTVSPropertyOp27
 70
     1
102
RTVSPropertyOp28
 70
     1
102
RTVSPropertyOp29
 70
     1
102
RTVSPropertyOp30
 70
     1
102
RTVSPropertyOp31
 70
     1
102
RTVSPropertyOp32
 70
     1
102
RTVSPropertyOp33
 70
     1
102
RTVSPropertyOp34
 70
     1
102
RTVSPropertyOp35
 70
     1
102
RTVSPropertyOp36
 70
     1
102
RTVSPropertyOp37
 70
     1
102
RTVSPropertyOp38
 70
     1
102
RTVSPropertyOp39
 70
     1
102
RTVSPropertyOp40
 70
     1
102
RTVSPropertyOp41
 70
     1
102
RTVSPropertyOp42
 70
     1
102
RTVSPropertyOp43
 70
     1
102
RTVSPropertyOp44
 70
     1
102
RTVSPropertyOp45
 70
     1
102
RTVSPropertyOp46
 70
     1
102
RTVSPropertyOp47
 70
     1
102
RTVSPropertyOp48
 70
     1
102
RTVSPropertyOp49
 70
     1
102
RTVSPropertyOp50
 70
     1
102
RTVSPropertyOp51
 70
     0
102
RTVSPropertyOp52
 70
     0
102
RTVSPropertyOp53
 70
     1
102
RTVSPropertyOp54
 70
     1
102
RTVSPropertyOp55
 70
     1
102
RTVSPropertyOp56
 70
     1
102
RTVSPropertyOp57
 70
     1
102
RTVSPropertyOp58
 70
     1
102
RTVSPropertyOp59
 70
     1
102
RTVSPropertyOp60
 70
     1
102
RTVSPropertyOp61
 70
     1
102
RTVSPropertyOp62
 70
     1
  0
XRECORD
  5
56C4
102
{ACAD_REACTORS
330
56C3
102
}
330
56C3
100
AcDbXrecord
280
     1
102
RTVSPost2010Prop28
280
     0
102
RTVSPost2010PropOp28
 70
     1
102
RTVSPost2010Prop29
280
     1
102
RTVSPost2010PropOp29
 70
     1
102
RTVSPost2010Prop30
280
     1
102
RTVSPost2010PropOp30
 70
     1
102
RTVSPost2010Prop31
280
     0
102
RTVSPost2010PropOp31
 70
     1
102
RTVSPost2010Prop32
280
     0
102
RTVSPost2010PropOp32
 70
     1
102
RTVSPost2010Prop33
280
     0
102
RTVSPost2010PropOp33
 70
     1
102
RTVSPost2010Prop34
280
     0
102
RTVSPost2010PropOp34
 70
     1
102
RTVSPost2010Prop35
280
     0
102
RTVSPost2010PropOp35
 70
     1
102
RTVSPost2010Prop36
280
     0
102
RTVSPost2010PropOp36
 70
     1
102
RTVSPost2010Prop37
 90
       50
102
RTVSPost2010PropOp37
 70
     1
102
RTVSPost2010Prop38
140
0.0
102
RTVSPost2010PropOp38
 70
     1
102
RTVSPost2010Prop39
140
1.0
102
RTVSPost2010PropOp39
 70
     1
102
RTVSPost2010Prop40
 90
        0
102
RTVSPost2010PropOp40
 70
     1
102
RTVSPost2010Prop41ColorIndex
 90
       18
102
RTVSPost2010Prop41ColorRGB
 90
        0
102
RTVSPost2010PropOp41
 70
     1
102
RTVSPost2010Prop42
 90
       50
102
RTVSPost2010PropOp42
 70
     1
102
RTVSPost2010Prop43
 90
        3
102
RTVSPost2010PropOp43
 70
     1
102
RTVSPost2010Prop44ColorIndex
 90
        5
102
RTVSPost2010Prop44ColorRGB
 90
      255
102
RTVSPost2010PropOp44
 70
     1
102
RTVSPost2010Prop45
280
     0
102
RTVSPost2010PropOp45
 70
     1
102
RTVSPost2010Prop46
 90
       50
102
RTVSPost2010PropOp46
 70
     1
102
RTVSPost2010Prop47
 90
       50
102
RTVSPost2010PropOp47
 70
     1
102
RTVSPost2010Prop48
 90
       50
102
RTVSPost2010PropOp48
 70
     1
102
RTVSPost2010Prop49
280
     0
102
RTVSPost2010PropOp49
 70
     1
102
RTVSPost2010Prop50
 90
       50
102
RTVSPost2010PropOp50
 70
     1
102
RTVSPost2010Prop51ColorIndex
 90
      256
102
RTVSPost2010Prop51ColorRGB
 90
-16777216
102
RTVSPost2010PropOp51
 70
     0
102
RTVSPost2010Prop52
140
1.0
102
RTVSPost2010PropOp52
 70
     0
102
RTVSPost2010Prop53
 90
        2
102
RTVSPost2010PropOp53
 70
     1
102
RTVSPost2010Prop54
  1
strokes_ogs.tif
102
RTVSPost2010PropOp54
 70
     1
102
RTVSPost2010Prop55
280
     0
102
RTVSPost2010PropOp55
 70
     1
102
RTVSPost2010Prop56
140
1.0
102
RTVSPost2010PropOp56
 70
     1
102
RTVSPost2010Prop57
140
1.0
102
RTVSPost2010PropOp57
 70
     1
102
RTVSPropertyOp0
 70
     1
102
RTVSPropertyOp1
 70
     1
102
RTVSPropertyOp2
 70
     1
102
RTVSPropertyOp3
 70
     1
102
RTVSPropertyOp4
 70
     1
102
RTVSPropertyOp5
 70
     1
102
RTVSPropertyOp6
 70
     1
102
RTVSPropertyOp7
 70
     1
102
RTVSPropertyOp8
 70
     1
102
RTVSPropertyOp9
 70
     1
102
RTVSPropertyOp10
 70
     1
102
RTVSPropertyOp11
 70
     1
102
RTVSPropertyOp12
 70
     1
102
RTVSPropertyOp13
 70
     1
102
RTVSPropertyOp14
 70
     1
102
RTVSPropertyOp15
 70
     1
102
RTVSPropertyOp16
 70
     1
102
RTVSPropertyOp17
 70
     1
102
RTVSPropertyOp18
 70
     1
102
RTVSPropertyOp19
 70
     1
102
RTVSPropertyOp20
 70
     1
102
RTVSPropertyOp21
 70
     1
102
RTVSPropertyOp22
 70
     1
102
RTVSPropertyOp23
 70
     1
102
RTVSPropertyOp24
 70
     1
102
RTVSPropertyOp25
 70
     1
102
RTVSPropertyOp26
 70
     1
102
RTVSPropertyOp27
 70
     1
102
RTVSPropertyOp28
 70
     1
102
RTVSPropertyOp29
 70
     1
102
RTVSPropertyOp30
 70
     1
102
RTVSPropertyOp31
 70
     1
102
RTVSPropertyOp32
 70
     1
102
RTVSPropertyOp33
 70
     1
102
RTVSPropertyOp34
 70
     1
102
RTVSPropertyOp35
 70
     1
102
RTVSPropertyOp36
 70
     1
102
RTVSPropertyOp37
 70
     1
102
RTVSPropertyOp38
 70
     1
102
RTVSPropertyOp39
 70
     1
102
RTVSPropertyOp40
 70
     1
102
RTVSPropertyOp41
 70
     1
102
RTVSPropertyOp42
 70
     1
102
RTVSPropertyOp43
 70
     1
102
RTVSPropertyOp44
 70
     1
102
RTVSPropertyOp45
 70
     1
102
RTVSPropertyOp46
 70
     1
102
RTVSPropertyOp47
 70
     1
102
RTVSPropertyOp48
 70
     1
102
RTVSPropertyOp49
 70
     1
102
RTVSPropertyOp50
 70
     1
102
RTVSPropertyOp51
 70
     0
102
RTVSPropertyOp52
 70
     0
102
RTVSPropertyOp53
 70
     1
102
RTVSPropertyOp54
 70
     1
102
RTVSPropertyOp55
 70
     1
102
RTVSPropertyOp56
 70
     1
102
RTVSPropertyOp57
 70
     1
102
RTVSPropertyOp58
 70
     1
102
RTVSPropertyOp59
 70
     1
102
RTVSPropertyOp60
 70
     1
102
RTVSPropertyOp61
 70
     1
102
RTVSPropertyOp62
 70
     1
  0
XRECORD
  5
56C6
102
{ACAD_REACTORS
330
56C5
102
}
330
56C5
100
AcDbXrecord
280
     1
102
RTVSPost2010Prop28
280
     0
102
RTVSPost2010PropOp28
 70
     1
102
RTVSPost2010Prop29
280
     1
102
RTVSPost2010PropOp29
 70
     1
102
RTVSPost2010Prop30
280
     1
102
RTVSPost2010PropOp30
 70
     1
102
RTVSPost2010Prop31
280
     0
102
RTVSPost2010PropOp31
 70
     1
102
RTVSPost2010Prop32
280
     0
102
RTVSPost2010PropOp32
 70
     1
102
RTVSPost2010Prop33
280
     0
102
RTVSPost2010PropOp33
 70
     1
102
RTVSPost2010Prop34
280
     0
102
RTVSPost2010PropOp34
 70
     1
102
RTVSPost2010Prop35
280
     0
102
RTVSPost2010PropOp35
 70
     1
102
RTVSPost2010Prop36
280
     0
102
RTVSPost2010PropOp36
 70
     1
102
RTVSPost2010Prop37
 90
       50
102
RTVSPost2010PropOp37
 70
     1
102
RTVSPost2010Prop38
140
0.0
102
RTVSPost2010PropOp38
 70
     1
102
RTVSPost2010Prop39
140
1.0
102
RTVSPost2010PropOp39
 70
     1
102
RTVSPost2010Prop40
 90
        0
102
RTVSPost2010PropOp40
 70
     1
102
RTVSPost2010Prop41ColorIndex
 90
       18
102
RTVSPost2010Prop41ColorRGB
 90
        0
102
RTVSPost2010PropOp41
 70
     1
102
RTVSPost2010Prop42
 90
       50
102
RTVSPost2010PropOp42
 70
     1
102
RTVSPost2010Prop43
 90
        3
102
RTVSPost2010PropOp43
 70
     1
102
RTVSPost2010Prop44ColorIndex
 90
        5
102
RTVSPost2010Prop44ColorRGB
 90
      255
102
RTVSPost2010PropOp44
 70
     1
102
RTVSPost2010Prop45
280
     0
102
RTVSPost2010PropOp45
 70
     1
102
RTVSPost2010Prop46
 90
       50
102
RTVSPost2010PropOp46
 70
     1
102
RTVSPost2010Prop47
 90
       50
102
RTVSPost2010PropOp47
 70
     1
102
RTVSPost2010Prop48
 90
       50
102
RTVSPost2010PropOp48
 70
     1
102
RTVSPost2010Prop49
280
     0
102
RTVSPost2010PropOp49
 70
     1
102
RTVSPost2010Prop50
 90
       50
102
RTVSPost2010PropOp50
 70
     1
102
RTVSPost2010Prop51ColorIndex
 90
      256
102
RTVSPost2010Prop51ColorRGB
 90
-16777216
102
RTVSPost2010PropOp51
 70
     0
102
RTVSPost2010Prop52
140
1.0
102
RTVSPost2010PropOp52
 70
     0
102
RTVSPost2010Prop53
 90
        2
102
RTVSPost2010PropOp53
 70
     1
102
RTVSPost2010Prop54
  1
strokes_ogs.tif
102
RTVSPost2010PropOp54
 70
     1
102
RTVSPost2010Prop55
280
     0
102
RTVSPost2010PropOp55
 70
     1
102
RTVSPost2010Prop56
140
1.0
102
RTVSPost2010PropOp56
 70
     1
102
RTVSPost2010Prop57
140
1.0
102
RTVSPost2010PropOp57
 70
     1
102
RTVSPropertyOp0
 70
     1
102
RTVSPropertyOp1
 70
     1
102
RTVSPropertyOp2
 70
     1
102
RTVSPropertyOp3
 70
     1
102
RTVSPropertyOp4
 70
     1
102
RTVSPropertyOp5
 70
     1
102
RTVSPropertyOp6
 70
     1
102
RTVSPropertyOp7
 70
     1
102
RTVSPropertyOp8
 70
     1
102
RTVSPropertyOp9
 70
     1
102
RTVSPropertyOp10
 70
     1
102
RTVSPropertyOp11
 70
     1
102
RTVSPropertyOp12
 70
     1
102
RTVSPropertyOp13
 70
     1
102
RTVSPropertyOp14
 70
     1
102
RTVSPropertyOp15
 70
     1
102
RTVSPropertyOp16
 70
     1
102
RTVSPropertyOp17
 70
     1
102
RTVSPropertyOp18
 70
     1
102
RTVSPropertyOp19
 70
     1
102
RTVSPropertyOp20
 70
     1
102
RTVSPropertyOp21
 70
     1
102
RTVSPropertyOp22
 70
     1
102
RTVSPropertyOp23
 70
     1
102
RTVSPropertyOp24
 70
     1
102
RTVSPropertyOp25
 70
     1
102
RTVSPropertyOp26
 70
     1
102
RTVSPropertyOp27
 70
     1
102
RTVSPropertyOp28
 70
     1
102
RTVSPropertyOp29
 70
     1
102
RTVSPropertyOp30
 70
     1
102
RTVSPropertyOp31
 70
     1
102
RTVSPropertyOp32
 70
     1
102
RTVSPropertyOp33
 70
     1
102
RTVSPropertyOp34
 70
     1
102
RTVSPropertyOp35
 70
     1
102
RTVSPropertyOp36
 70
     1
102
RTVSPropertyOp37
 70
     1
102
RTVSPropertyOp38
 70
     1
102
RTVSPropertyOp39
 70
     1
102
RTVSPropertyOp40
 70
     1
102
RTVSPropertyOp41
 70
     1
102
RTVSPropertyOp42
 70
     1
102
RTVSPropertyOp43
 70
     1
102
RTVSPropertyOp44
 70
     1
102
RTVSPropertyOp45
 70
     1
102
RTVSPropertyOp46
 70
     1
102
RTVSPropertyOp47
 70
     1
102
RTVSPropertyOp48
 70
     1
102
RTVSPropertyOp49
 70
     1
102
RTVSPropertyOp50
 70
     1
102
RTVSPropertyOp51
 70
     0
102
RTVSPropertyOp52
 70
     0
102
RTVSPropertyOp53
 70
     1
102
RTVSPropertyOp54
 70
     1
102
RTVSPropertyOp55
 70
     1
102
RTVSPropertyOp56
 70
     1
102
RTVSPropertyOp57
 70
     1
102
RTVSPropertyOp58
 70
     1
102
RTVSPropertyOp59
 70
     1
102
RTVSPropertyOp60
 70
     1
102
RTVSPropertyOp61
 70
     1
102
RTVSPropertyOp62
 70
     1
  0
XRECORD
  5
5691
102
{ACAD_REACTORS
330
5690
102
}
330
5690
100
AcDbXrecord
280
     1
102
RTVSPost2010Prop28
280
     0
102
RTVSPost2010PropOp28
 70
     1
102
RTVSPost2010Prop29
280
     1
102
RTVSPost2010PropOp29
 70
     1
102
RTVSPost2010Prop30
280
     1
102
RTVSPost2010PropOp30
 70
     1
102
RTVSPost2010Prop31
280
     0
102
RTVSPost2010PropOp31
 70
     1
102
RTVSPost2010Prop32
280
     0
102
RTVSPost2010PropOp32
 70
     1
102
RTVSPost2010Prop33
280
     0
102
RTVSPost2010PropOp33
 70
     1
102
RTVSPost2010Prop34
280
     0
102
RTVSPost2010PropOp34
 70
     1
102
RTVSPost2010Prop35
280
     0
102
RTVSPost2010PropOp35
 70
     1
102
RTVSPost2010Prop36
280
     0
102
RTVSPost2010PropOp36
 70
     1
102
RTVSPost2010Prop37
 90
       50
102
RTVSPost2010PropOp37
 70
     1
102
RTVSPost2010Prop38
140
0.0
102
RTVSPost2010PropOp38
 70
     1
102
RTVSPost2010Prop39
140
1.0
102
RTVSPost2010PropOp39
 70
     1
102
RTVSPost2010Prop40
 90
        0
102
RTVSPost2010PropOp40
 70
     1
102
RTVSPost2010Prop41ColorIndex
 90
       18
102
RTVSPost2010Prop41ColorRGB
 90
        0
102
RTVSPost2010PropOp41
 70
     1
102
RTVSPost2010Prop42
 90
       50
102
RTVSPost2010PropOp42
 70
     1
102
RTVSPost2010Prop43
 90
        3
102
RTVSPost2010PropOp43
 70
     1
102
RTVSPost2010Prop44ColorIndex
 90
        5
102
RTVSPost2010Prop44ColorRGB
 90
      255
102
RTVSPost2010PropOp44
 70
     1
102
RTVSPost2010Prop45
280
     0
102
RTVSPost2010PropOp45
 70
     1
102
RTVSPost2010Prop46
 90
       50
102
RTVSPost2010PropOp46
 70
     1
102
RTVSPost2010Prop47
 90
       50
102
RTVSPost2010PropOp47
 70
     1
102
RTVSPost2010Prop48
 90
       50
102
RTVSPost2010PropOp48
 70
     1
102
RTVSPost2010Prop49
280
     0
102
RTVSPost2010PropOp49
 70
     1
102
RTVSPost2010Prop50
 90
       50
102
RTVSPost2010PropOp50
 70
     1
102
RTVSPost2010Prop51ColorIndex
 90
      256
102
RTVSPost2010Prop51ColorRGB
 90
-16777216
102
RTVSPost2010PropOp51
 70
     0
102
RTVSPost2010Prop52
140
1.0
102
RTVSPost2010PropOp52
 70
     0
102
RTVSPost2010Prop53
 90
        2
102
RTVSPost2010PropOp53
 70
     1
102
RTVSPost2010Prop54
  1
strokes_ogs.tif
102
RTVSPost2010PropOp54
 70
     1
102
RTVSPost2010Prop55
280
     0
102
RTVSPost2010PropOp55
 70
     1
102
RTVSPost2010Prop56
140
1.0
102
RTVSPost2010PropOp56
 70
     1
102
RTVSPost2010Prop57
140
1.0
102
RTVSPost2010PropOp57
 70
     1
102
RTVSPropertyOp0
 70
     1
102
RTVSPropertyOp1
 70
     1
102
RTVSPropertyOp2
 70
     1
102
RTVSPropertyOp3
 70
     1
102
RTVSPropertyOp4
 70
     1
102
RTVSPropertyOp5
 70
     1
102
RTVSPropertyOp6
 70
     1
102
RTVSPropertyOp7
 70
     1
102
RTVSPropertyOp8
 70
     1
102
RTVSPropertyOp9
 70
     1
102
RTVSPropertyOp10
 70
     1
102
RTVSPropertyOp11
 70
     1
102
RTVSPropertyOp12
 70
     1
102
RTVSPropertyOp13
 70
     1
102
RTVSPropertyOp14
 70
     1
102
RTVSPropertyOp15
 70
     1
102
RTVSPropertyOp16
 70
     1
102
RTVSPropertyOp17
 70
     1
102
RTVSPropertyOp18
 70
     1
102
RTVSPropertyOp19
 70
     1
102
RTVSPropertyOp20
 70
     1
102
RTVSPropertyOp21
 70
     1
102
RTVSPropertyOp22
 70
     1
102
RTVSPropertyOp23
 70
     1
102
RTVSPropertyOp24
 70
     1
102
RTVSPropertyOp25
 70
     1
102
RTVSPropertyOp26
 70
     1
102
RTVSPropertyOp27
 70
     1
102
RTVSPropertyOp28
 70
     1
102
RTVSPropertyOp29
 70
     1
102
RTVSPropertyOp30
 70
     1
102
RTVSPropertyOp31
 70
     1
102
RTVSPropertyOp32
 70
     1
102
RTVSPropertyOp33
 70
     1
102
RTVSPropertyOp34
 70
     1
102
RTVSPropertyOp35
 70
     1
102
RTVSPropertyOp36
 70
     1
102
RTVSPropertyOp37
 70
     1
102
RTVSPropertyOp38
 70
     1
102
RTVSPropertyOp39
 70
     1
102
RTVSPropertyOp40
 70
     1
102
RTVSPropertyOp41
 70
     1
102
RTVSPropertyOp42
 70
     1
102
RTVSPropertyOp43
 70
     1
102
RTVSPropertyOp44
 70
     1
102
RTVSPropertyOp45
 70
     1
102
RTVSPropertyOp46
 70
     1
102
RTVSPropertyOp47
 70
     1
102
RTVSPropertyOp48
 70
     1
102
RTVSPropertyOp49
 70
     1
102
RTVSPropertyOp50
 70
     1
102
RTVSPropertyOp51
 70
     0
102
RTVSPropertyOp52
 70
     0
102
RTVSPropertyOp53
 70
     1
102
RTVSPropertyOp54
 70
     1
102
RTVSPropertyOp55
 70
     1
102
RTVSPropertyOp56
 70
     1
102
RTVSPropertyOp57
 70
     1
102
RTVSPropertyOp58
 70
     1
102
RTVSPropertyOp59
 70
     1
102
RTVSPropertyOp60
 70
     1
102
RTVSPropertyOp61
 70
     1
102
RTVSPropertyOp62
 70
     1
  0
XRECORD
  5
56C0
102
{ACAD_REACTORS
330
56BF
102
}
330
56BF
100
AcDbXrecord
280
     1
102
RTVSPost2010Prop28
280
     0
102
RTVSPost2010PropOp28
 70
     1
102
RTVSPost2010Prop29
280
     1
102
RTVSPost2010PropOp29
 70
     1
102
RTVSPost2010Prop30
280
     1
102
RTVSPost2010PropOp30
 70
     1
102
RTVSPost2010Prop31
280
     0
102
RTVSPost2010PropOp31
 70
     1
102
RTVSPost2010Prop32
280
     0
102
RTVSPost2010PropOp32
 70
     1
102
RTVSPost2010Prop33
280
     0
102
RTVSPost2010PropOp33
 70
     1
102
RTVSPost2010Prop34
280
     0
102
RTVSPost2010PropOp34
 70
     1
102
RTVSPost2010Prop35
280
     0
102
RTVSPost2010PropOp35
 70
     1
102
RTVSPost2010Prop36
280
     0
102
RTVSPost2010PropOp36
 70
     1
102
RTVSPost2010Prop37
 90
       50
102
RTVSPost2010PropOp37
 70
     1
102
RTVSPost2010Prop38
140
0.0
102
RTVSPost2010PropOp38
 70
     1
102
RTVSPost2010Prop39
140
1.0
102
RTVSPost2010PropOp39
 70
     1
102
RTVSPost2010Prop40
 90
        0
102
RTVSPost2010PropOp40
 70
     1
102
RTVSPost2010Prop41ColorIndex
 90
       18
102
RTVSPost2010Prop41ColorRGB
 90
        0
102
RTVSPost2010PropOp41
 70
     1
102
RTVSPost2010Prop42
 90
       50
102
RTVSPost2010PropOp42
 70
     1
102
RTVSPost2010Prop43
 90
        3
102
RTVSPost2010PropOp43
 70
     1
102
RTVSPost2010Prop44ColorIndex
 90
        5
102
RTVSPost2010Prop44ColorRGB
 90
      255
102
RTVSPost2010PropOp44
 70
     1
102
RTVSPost2010Prop45
280
     0
102
RTVSPost2010PropOp45
 70
     1
102
RTVSPost2010Prop46
 90
       50
102
RTVSPost2010PropOp46
 70
     1
102
RTVSPost2010Prop47
 90
       50
102
RTVSPost2010PropOp47
 70
     1
102
RTVSPost2010Prop48
 90
       50
102
RTVSPost2010PropOp48
 70
     1
102
RTVSPost2010Prop49
280
     0
102
RTVSPost2010PropOp49
 70
     1
102
RTVSPost2010Prop50
 90
       50
102
RTVSPost2010PropOp50
 70
     1
102
RTVSPost2010Prop51ColorIndex
 90
      256
102
RTVSPost2010Prop51ColorRGB
 90
-16777216
102
RTVSPost2010PropOp51
 70
     0
102
RTVSPost2010Prop52
140
1.0
102
RTVSPost2010PropOp52
 70
     0
102
RTVSPost2010Prop53
 90
        2
102
RTVSPost2010PropOp53
 70
     1
102
RTVSPost2010Prop54
  1
strokes_ogs.tif
102
RTVSPost2010PropOp54
 70
     1
102
RTVSPost2010Prop55
280
     0
102
RTVSPost2010PropOp55
 70
     1
102
RTVSPost2010Prop56
140
1.0
102
RTVSPost2010PropOp56
 70
     1
102
RTVSPost2010Prop57
140
1.0
102
RTVSPost2010PropOp57
 70
     1
102
RTVSPropertyOp0
 70
     1
102
RTVSPropertyOp1
 70
     1
102
RTVSPropertyOp2
 70
     1
102
RTVSPropertyOp3
 70
     1
102
RTVSPropertyOp4
 70
     1
102
RTVSPropertyOp5
 70
     1
102
RTVSPropertyOp6
 70
     1
102
RTVSPropertyOp7
 70
     1
102
RTVSPropertyOp8
 70
     1
102
RTVSPropertyOp9
 70
     1
102
RTVSPropertyOp10
 70
     1
102
RTVSPropertyOp11
 70
     1
102
RTVSPropertyOp12
 70
     1
102
RTVSPropertyOp13
 70
     1
102
RTVSPropertyOp14
 70
     1
102
RTVSPropertyOp15
 70
     1
102
RTVSPropertyOp16
 70
     1
102
RTVSPropertyOp17
 70
     1
102
RTVSPropertyOp18
 70
     1
102
RTVSPropertyOp19
 70
     1
102
RTVSPropertyOp20
 70
     1
102
RTVSPropertyOp21
 70
     1
102
RTVSPropertyOp22
 70
     1
102
RTVSPropertyOp23
 70
     1
102
RTVSPropertyOp24
 70
     1
102
RTVSPropertyOp25
 70
     1
102
RTVSPropertyOp26
 70
     1
102
RTVSPropertyOp27
 70
     1
102
RTVSPropertyOp28
 70
     1
102
RTVSPropertyOp29
 70
     1
102
RTVSPropertyOp30
 70
     1
102
RTVSPropertyOp31
 70
     1
102
RTVSPropertyOp32
 70
     1
102
RTVSPropertyOp33
 70
     1
102
RTVSPropertyOp34
 70
     1
102
RTVSPropertyOp35
 70
     1
102
RTVSPropertyOp36
 70
     1
102
RTVSPropertyOp37
 70
     1
102
RTVSPropertyOp38
 70
     1
102
RTVSPropertyOp39
 70
     1
102
RTVSPropertyOp40
 70
     1
102
RTVSPropertyOp41
 70
     1
102
RTVSPropertyOp42
 70
     1
102
RTVSPropertyOp43
 70
     1
102
RTVSPropertyOp44
 70
     1
102
RTVSPropertyOp45
 70
     1
102
RTVSPropertyOp46
 70
     1
102
RTVSPropertyOp47
 70
     1
102
RTVSPropertyOp48
 70
     1
102
RTVSPropertyOp49
 70
     1
102
RTVSPropertyOp50
 70
     1
102
RTVSPropertyOp51
 70
     0
102
RTVSPropertyOp52
 70
     0
102
RTVSPropertyOp53
 70
     1
102
RTVSPropertyOp54
 70
     1
102
RTVSPropertyOp55
 70
     1
102
RTVSPropertyOp56
 70
     1
102
RTVSPropertyOp57
 70
     1
102
RTVSPropertyOp58
 70
     1
102
RTVSPropertyOp59
 70
     1
102
RTVSPropertyOp60
 70
     1
102
RTVSPropertyOp61
 70
     1
102
RTVSPropertyOp62
 70
     1
  0
XRECORD
  5
56C8
102
{ACAD_REACTORS
330
56C7
102
}
330
56C7
100
AcDbXrecord
280
     1
102
RTVSPost2010Prop28
280
     0
102
RTVSPost2010PropOp28
 70
     1
102
RTVSPost2010Prop29
280
     1
102
RTVSPost2010PropOp29
 70
     1
102
RTVSPost2010Prop30
280
     1
102
RTVSPost2010PropOp30
 70
     1
102
RTVSPost2010Prop31
280
     0
102
RTVSPost2010PropOp31
 70
     1
102
RTVSPost2010Prop32
280
     0
102
RTVSPost2010PropOp32
 70
     1
102
RTVSPost2010Prop33
280
     0
102
RTVSPost2010PropOp33
 70
     1
102
RTVSPost2010Prop34
280
     0
102
RTVSPost2010PropOp34
 70
     1
102
RTVSPost2010Prop35
280
     0
102
RTVSPost2010PropOp35
 70
     1
102
RTVSPost2010Prop36
280
     0
102
RTVSPost2010PropOp36
 70
     1
102
RTVSPost2010Prop37
 90
       50
102
RTVSPost2010PropOp37
 70
     1
102
RTVSPost2010Prop38
140
0.0
102
RTVSPost2010PropOp38
 70
     1
102
RTVSPost2010Prop39
140
1.0
102
RTVSPost2010PropOp39
 70
     1
102
RTVSPost2010Prop40
 90
        0
102
RTVSPost2010PropOp40
 70
     1
102
RTVSPost2010Prop41ColorIndex
 90
       18
102
RTVSPost2010Prop41ColorRGB
 90
        0
102
RTVSPost2010PropOp41
 70
     1
102
RTVSPost2010Prop42
 90
       50
102
RTVSPost2010PropOp42
 70
     1
102
RTVSPost2010Prop43
 90
        3
102
RTVSPost2010PropOp43
 70
     1
102
RTVSPost2010Prop44ColorIndex
 90
        5
102
RTVSPost2010Prop44ColorRGB
 90
      255
102
RTVSPost2010PropOp44
 70
     1
102
RTVSPost2010Prop45
280
     0
102
RTVSPost2010PropOp45
 70
     1
102
RTVSPost2010Prop46
 90
       50
102
RTVSPost2010PropOp46
 70
     1
102
RTVSPost2010Prop47
 90
       50
102
RTVSPost2010PropOp47
 70
     1
102
RTVSPost2010Prop48
 90
       50
102
RTVSPost2010PropOp48
 70
     1
102
RTVSPost2010Prop49
280
     0
102
RTVSPost2010PropOp49
 70
     1
102
RTVSPost2010Prop50
 90
       50
102
RTVSPost2010PropOp50
 70
     1
102
RTVSPost2010Prop51ColorIndex
 90
      256
102
RTVSPost2010Prop51ColorRGB
 90
-16777216
102
RTVSPost2010PropOp51
 70
     0
102
RTVSPost2010Prop52
140
1.0
102
RTVSPost2010PropOp52
 70
     0
102
RTVSPost2010Prop53
 90
        2
102
RTVSPost2010PropOp53
 70
     1
102
RTVSPost2010Prop54
  1
strokes_ogs.tif
102
RTVSPost2010PropOp54
 70
     1
102
RTVSPost2010Prop55
280
     0
102
RTVSPost2010PropOp55
 70
     1
102
RTVSPost2010Prop56
140
1.0
102
RTVSPost2010PropOp56
 70
     1
102
RTVSPost2010Prop57
140
1.0
102
RTVSPost2010PropOp57
 70
     1
102
RTVSPropertyOp0
 70
     1
102
RTVSPropertyOp1
 70
     1
102
RTVSPropertyOp2
 70
     1
102
RTVSPropertyOp3
 70
     1
102
RTVSPropertyOp4
 70
     1
102
RTVSPropertyOp5
 70
     1
102
RTVSPropertyOp6
 70
     1
102
RTVSPropertyOp7
 70
     1
102
RTVSPropertyOp8
 70
     1
102
RTVSPropertyOp9
 70
     1
102
RTVSPropertyOp10
 70
     1
102
RTVSPropertyOp11
 70
     1
102
RTVSPropertyOp12
 70
     1
102
RTVSPropertyOp13
 70
     1
102
RTVSPropertyOp14
 70
     1
102
RTVSPropertyOp15
 70
     1
102
RTVSPropertyOp16
 70
     1
102
RTVSPropertyOp17
 70
     1
102
RTVSPropertyOp18
 70
     1
102
RTVSPropertyOp19
 70
     1
102
RTVSPropertyOp20
 70
     1
102
RTVSPropertyOp21
 70
     1
102
RTVSPropertyOp22
 70
     1
102
RTVSPropertyOp23
 70
     1
102
RTVSPropertyOp24
 70
     1
102
RTVSPropertyOp25
 70
     1
102
RTVSPropertyOp26
 70
     1
102
RTVSPropertyOp27
 70
     1
102
RTVSPropertyOp28
 70
     1
102
RTVSPropertyOp29
 70
     1
102
RTVSPropertyOp30
 70
     1
102
RTVSPropertyOp31
 70
     1
102
RTVSPropertyOp32
 70
     1
102
RTVSPropertyOp33
 70
     1
102
RTVSPropertyOp34
 70
     1
102
RTVSPropertyOp35
 70
     1
102
RTVSPropertyOp36
 70
     1
102
RTVSPropertyOp37
 70
     1
102
RTVSPropertyOp38
 70
     1
102
RTVSPropertyOp39
 70
     1
102
RTVSPropertyOp40
 70
     1
102
RTVSPropertyOp41
 70
     1
102
RTVSPropertyOp42
 70
     1
102
RTVSPropertyOp43
 70
     1
102
RTVSPropertyOp44
 70
     1
102
RTVSPropertyOp45
 70
     1
102
RTVSPropertyOp46
 70
     1
102
RTVSPropertyOp47
 70
     1
102
RTVSPropertyOp48
 70
     1
102
RTVSPropertyOp49
 70
     1
102
RTVSPropertyOp50
 70
     1
102
RTVSPropertyOp51
 70
     0
102
RTVSPropertyOp52
 70
     0
102
RTVSPropertyOp53
 70
     1
102
RTVSPropertyOp54
 70
     1
102
RTVSPropertyOp55
 70
     1
102
RTVSPropertyOp56
 70
     1
102
RTVSPropertyOp57
 70
     1
102
RTVSPropertyOp58
 70
     1
102
RTVSPropertyOp59
 70
     1
102
RTVSPropertyOp60
 70
     1
102
RTVSPropertyOp61
 70
     1
102
RTVSPropertyOp62
 70
     1
  0
ENDSEC
  0
EOF
