  0
SECTION
  2
HEADER
  9
$ACADVER
  1
AC1015
  9
$ACADMAINTVER
 70
    20
  9
$DWGCODEPAGE
  3
ANSI_932
  9
$INSBASE
 10
0.0
 20
0.0
 30
0.0
  9
$EXTMIN
 10
-20.5254391223
 20
-41.0349343213
 30
0.0
  9
$EXTMAX
 10
760.3298450017
 20
433.9830244476
 30
0.0
  9
$LIMMIN
 10
-65.079786232
 20
-45.4419903397
  9
$LIMMAX
 10
1007.6842987783
 20
510.7302467446
  9
$ORTHOMODE
 70
     1
  9
$REGENMODE
 70
     1
  9
$FILLMODE
 70
     1
  9
$QTEXTMODE
 70
     0
  9
$MIRRTEXT
 70
     0
  9
$LTSCALE
 40
3.0
  9
$ATTMODE
 70
     1
  9
$TEXTSIZE
 40
2.0
  9
$TRACEWID
 40
1.0
  9
$TEXTSTYLE
  7
STANDARD
  9
$CLAYER
  8
0
  9
$CELTYPE
  6
BYLAYER
  9
$CECOLOR
 62
   256
  9
$CELTSCALE
 40
1.0
  9
$DISPSILH
 70
     0
  9
$DIMSCALE
 40
3.0
  9
$DIMASZ
 40
1.8
  9
$DIMEXO
 40
0.625
  9
$DIMDLI
 40
3.75
  9
$DIMRND
 40
0.0
  9
$DIMDLE
 40
0.0
  9
$DIMEXE
 40
0.8
  9
$DIMTP
 40
0.0
  9
$DIMTM
 40
0.0
  9
$DIMTXT
 40
1.8
  9
$DIMCEN
 40
2.5
  9
$DIMTSZ
 40
0.0
  9
$DIMTOL
 70
     0
  9
$DIMLIM
 70
     0
  9
$DIMTIH
 70
     0
  9
$DIMTOH
 70
     0
  9
$DIMSE1
 70
     0
  9
$DIMSE2
 70
     0
  9
$DIMTAD
 70
     1
  9
$DIMZIN
 70
     8
  9
$DIMBLK
  1

  9
$DIMASO
 70
     1
  9
$DIMSHO
 70
     1
  9
$DIMPOST
  1

  9
$DIMAPOST
  1

  9
$DIMALT
 70
     0
  9
$DIMALTD
 70
     4
  9
$DIMALTF
 40
0.0394
  9
$DIMLFAC
 40
1.0
  9
$DIMTOFL
 70
     1
  9
$DIMTVP
 40
0.0
  9
$DIMTIX
 70
     0
  9
$DIMSOXD
 70
     0
  9
$DIMSAH
 70
     0
  9
$DIMBLK1
  1

  9
$DIMBLK2
  1

  9
$DIMSTYLE
  2
STANDARD
  9
$DIMCLRD
 70
     0
  9
$DIMCLRE
 70
     0
  9
$DIMCLRT
 70
     0
  9
$DIMTFAC
 40
1.0
  9
$DIMGAP
 40
0.75
  9
$DIMJUST
 70
     0
  9
$DIMSD1
 70
     0
  9
$DIMSD2
 70
     0
  9
$DIMTOLJ
 70
     1
  9
$DIMTZIN
 70
     0
  9
$DIMALTZ
 70
     0
  9
$DIMALTTZ
 70
     0
  9
$DIMUPT
 70
     0
  9
$DIMDEC
 70
     2
  9
$DIMTDEC
 70
     2
  9
$DIMALTU
 70
     8
  9
$DIMALTTD
 70
     4
  9
$DIMTXSTY
  7
STANDARD
  9
$DIMAUNIT
 70
     0
  9
$DIMADEC
 70
     2
  9
$DIMALTRND
 40
0.0
  9
$DIMAZIN
 70
     0
  9
$DIMDSEP
 70
    46
  9
$DIMATFIT
 70
     3
  9
$DIMFRAC
 70
     0
  9
$DIMLDRBLK
  1

  9
$DIMLUNIT
 70
     6
  9
$DIMLWD
 70
    -2
  9
$DIMLWE
 70
    -2
  9
$DIMTMOVE
 70
     0
  9
$LUNITS
 70
     2
  9
$LUPREC
 70
     3
  9
$SKETCHINC
 40
1.0
  9
$FILLETRAD
 40
10.0
  9
$AUNITS
 70
     0
  9
$AUPREC
 70
     2
  9
$MENU
  1
.
  9
$ELEVATION
 40
0.0
  9
$PELEVATION
 40
0.0
  9
$THICKNESS
 40
0.0
  9
$LIMCHECK
 70
     0
  9
$CHAMFERA
 40
0.0
  9
$CHAMFERB
 40
0.0
  9
$CHAMFERC
 40
20.0
  9
$CHAMFERD
 40
0.0
  9
$SKPOLY
 70
     0
  9
$TDCREATE
 40
2453557.501145833
  9
$TDUCREATE
 40
2453557.126156864
  9
$TDUPDATE
 40
2460164.370162037
  9
$TDUUPDATE
 40
2460163.995162037
  9
$TDINDWG
 40
0.5112925579
  9
$TDUSRTIMER
 40
0.5112921875
  9
$USRTIMER
 70
     1
  9
$ANGBASE
 50
0.0
  9
$ANGDIR
 70
     0
  9
$PDMODE
 70
     0
  9
$PDSIZE
 40
-10.0
  9
$PLINEWID
 40
0.0
  9
$SPLFRAME
 70
     0
  9
$SPLINETYPE
 70
     6
  9
$SPLINESEGS
 70
     8
  9
$HANDSEED
  5
47D1
  9
$SURFTAB1
 70
     6
  9
$SURFTAB2
 70
     6
  9
$SURFTYPE
 70
     6
  9
$SURFU
 70
     6
  9
$SURFV
 70
     6
  9
$UCSBASE
  2

  9
$UCSNAME
  2

  9
$UCSORG
 10
0.0
 20
0.0
 30
0.0
  9
$UCSXDIR
 10
1.0
 20
0.0
 30
0.0
  9
$UCSYDIR
 10
0.0
 20
1.0
 30
0.0
  9
$UCSORTHOREF
  2

  9
$UCSORTHOVIEW
 70
     0
  9
$UCSORGTOP
 10
0.0
 20
0.0
 30
0.0
  9
$UCSORGBOTTOM
 10
0.0
 20
0.0
 30
0.0
  9
$UCSORGLEFT
 10
0.0
 20
0.0
 30
0.0
  9
$UCSORGRIGHT
 10
0.0
 20
0.0
 30
0.0
  9
$UCSORGFRONT
 10
0.0
 20
0.0
 30
0.0
  9
$UCSORGBACK
 10
0.0
 20
0.0
 30
0.0
  9
$PUCSBASE
  2

  9
$PUCSNAME
  2

  9
$PUCSORG
 10
0.0
 20
0.0
 30
0.0
  9
$PUCSXDIR
 10
1.0
 20
0.0
 30
0.0
  9
$PUCSYDIR
 10
0.0
 20
1.0
 30
0.0
  9
$PUCSORTHOREF
  2

  9
$PUCSORTHOVIEW
 70
     0
  9
$PUCSORGTOP
 10
0.0
 20
0.0
 30
0.0
  9
$PUCSORGBOTTOM
 10
0.0
 20
0.0
 30
0.0
  9
$PUCSORGLEFT
 10
0.0
 20
0.0
 30
0.0
  9
$PUCSORGRIGHT
 10
0.0
 20
0.0
 30
0.0
  9
$PUCSORGFRONT
 10
0.0
 20
0.0
 30
0.0
  9
$PUCSORGBACK
 10
0.0
 20
0.0
 30
0.0
  9
$USERI1
 70
     0
  9
$USERI2
 70
     0
  9
$USERI3
 70
     0
  9
$USERI4
 70
     0
  9
$USERI5
 70
     0
  9
$USERR1
 40
0.0
  9
$USERR2
 40
0.0
  9
$USERR3
 40
0.0
  9
$USERR4
 40
0.0
  9
$USERR5
 40
0.0
  9
$WORLDVIEW
 70
     1
  9
$SHADEDGE
 70
     3
  9
$SHADEDIF
 70
    70
  9
$TILEMODE
 70
     1
  9
$MAXACTVP
 70
    48
  9
$PINSBASE
 10
0.0
 20
0.0
 30
0.0
  9
$PLIMCHECK
 70
     0
  9
$PEXTMIN
 10
0.0
 20
0.0
 30
0.0
  9
$PEXTMAX
 10
0.0
 20
0.0
 30
0.0
  9
$PLIMMIN
 10
0.0
 20
0.0
  9
$PLIMMAX
 10
12.0
 20
9.0
  9
$UNITMODE
 70
     0
  9
$VISRETAIN
 70
     1
  9
$PLINEGEN
 70
     0
  9
$PSLTSCALE
 70
     1
  9
$TREEDEPTH
 70
  3020
  9
$CMLSTYLE
  2
STANDARD
  9
$CMLJUST
 70
     0
  9
$CMLSCALE
 40
1.0
  9
$PROXYGRAPHICS
 70
     1
  9
$MEASUREMENT
 70
     0
  9
$CELWEIGHT
370
    -1
  9
$ENDCAPS
280
     0
  9
$JOINSTYLE
280
     0
  9
$LWDISPLAY
290
     0
  9
$INSUNITS
 70
     0
  9
$HYPERLINKBASE
  1

  9
$STYLESHEET
  1
SEKKEI.CTB
  9
$XEDIT
290
     1
  9
$CEPSNTYPE
380
     0
  9
$PSTYLEMODE
290
     1
  9
$FINGERPRINTGUID
  2
{6385560B-F4B1-4644-A7C2-A3E32AC3D232}
  9
$VERSIONGUID
  2
{14C1AD5B-475F-CD47-8C04-C703B7DC516D}
  9
$EXTNAMES
290
     1
  9
$PSVPSCALE
 40
0.0
  9
$OLESTARTUP
290
     0
  0
ENDSEC
  0
SECTION
  2
CLASSES
  0
CLASS
  1
DICTIONARYVAR
  2
AcDbDictionaryVar
  3
ObjectDBX Classes
 90
        0
280
     0
281
     0
  0
CLASS
  1
ACDBDICTIONARYWDFLT
  2
AcDbDictionaryWithDefault
  3
ObjectDBX Classes
 90
        0
280
     0
281
     0
  0
CLASS
  1
MATERIAL
  2
AcDbMaterial
  3
ObjectDBX Classes
 90
     1153
280
     0
281
     0
  0
CLASS
  1
VISUALSTYLE
  2
AcDbVisualStyle
  3
ObjectDBX Classes
 90
     4095
280
     0
281
     0
  0
CLASS
  1
TABLESTYLE
  2
AcDbTableStyle
  3
ObjectDBX Classes
 90
     4095
280
     0
281
     0
  0
CLASS
  1
SCALE
  2
AcDbScale
  3
ObjectDBX Classes
 90
     1153
280
     0
281
     0
  0
CLASS
  1
MLEADERSTYLE
  2
AcDbMLeaderStyle
  3
ACDB_MLEADERSTYLE_CLASS
 90
     4095
280
     0
281
     0
  0
CLASS
  1
CELLSTYLEMAP
  2
AcDbCellStyleMap
  3
ObjectDBX Classes
 90
     1152
280
     0
281
     0
  0
CLASS
  1
SORTENTSTABLE
  2
AcDbSortentsTable
  3
ObjectDBX Classes
 90
        0
280
     0
281
     0
  0
CLASS
  1
ACAD_EVALUATION_GRAPH
  2
AcDbEvalGraph
  3
ObjectDBX Classes
 90
    33921
280
     0
281
     0
  0
CLASS
  1
ACAECUSTOBJ
  2
AcAeEditorObj
  3
AcAeEditorObj
 90
    33792
280
     0
281
     0
  0
CLASS
  1
ACDB_DYNAMICBLOCKPURGEPREVENTER_VERSION
  2
AcDbDynamicBlockPurgePreventer
  3
ObjectDBX Classes
 90
    33921
280
     0
281
     0
  0
CLASS
  1
ACDBSECTIONVIEWSTYLE
  2
AcDbSectionViewStyle
  3
ObjectDBX Classes
 90
     1025
280
     0
281
     0
  0
CLASS
  1
ACDBDETAILVIEWSTYLE
  2
AcDbDetailViewStyle
  3
ObjectDBX Classes
 90
     1025
280
     0
281
     0
  0
CLASS
  1
ACDBPLACEHOLDER
  2
AcDbPlaceHolder
  3
ObjectDBX Classes
 90
        0
280
     0
281
     0
  0
CLASS
  1
LAYOUT
  2
AcDbLayout
  3
ObjectDBX Classes
 90
        0
280
     0
281
     0
  0
ENDSEC
  0
SECTION
  2
TABLES
  0
TABLE
  2
VPORT
  5
6E
102
{ACAD_XDICTIONARY
360
3074
102
}
330
0
100
AcDbSymbolTable
 70
     1
  0
VPORT
  5
2FF8
330
6E
100
AcDbSymbolTableRecord
100
AcDbViewportTableRecord
  2
*Active
 70
     0
 10
0.0
 20
0.0
 11
1.0
 21
1.0
 12
477.6041233548
 22
216.5762513217
 13
0.0
 23
0.0
 14
10.0
 24
10.0
 15
18.0
 25
18.0
 16
0.0
 26
0.0
 36
1.0
 17
0.0
 27
0.0
 37
0.0
 40
482.5254427389
 41
1.4710526316
 42
50.0
 43
0.0
 44
0.0
 50
0.0
 51
0.0
 71
     0
 72
   100
 73
     1
 74
     3
 75
     0
 76
     0
 77
     0
 78
     0
281
     0
 65
     1
110
0.0
120
0.0
130
0.0
111
1.0
121
0.0
131
0.0
112
0.0
122
1.0
132
0.0
 79
     0
146
0.0
1001
ACAD_NAV_VCDISPLAY
1070
     3
  0
ENDTAB
  0
TABLE
  2
LTYPE
  5
69
330
0
100
AcDbSymbolTable
 70
     7
  0
LTYPE
  5
6A
330
69
100
AcDbSymbolTableRecord
100
AcDbLinetypeTableRecord
  2
BYBLOCK
 70
     0
  3

 72
    65
 73
     0
 40
0.0
  0
LTYPE
  5
6B
330
69
100
AcDbSymbolTableRecord
100
AcDbLinetypeTableRecord
  2
BYLAYER
 70
     0
  3

 72
    65
 73
     0
 40
0.0
  0
LTYPE
  5
8
330
69
100
AcDbSymbolTableRecord
100
AcDbLinetypeTableRecord
  2
CONTINUOUS
 70
     0
  3
Solid line
 72
    65
 73
     0
 40
0.0
  0
LTYPE
  5
27C
330
69
100
AcDbSymbolTableRecord
100
AcDbLinetypeTableRecord
  2
sekkei(A2)
 70
     0
  3
center(A2)  ____ _ ____ _ ____ _ ____ _ ____ _ 
 72
    65
 73
     4
 40
14.2875
 49
9.525
 74
     0
 49
-1.5875
 74
     0
 49
1.5875
 74
     0
 49
-1.5875
 74
     0
  0
LTYPE
  5
2B4
330
69
100
AcDbSymbolTableRecord
100
AcDbLinetypeTableRecord
  2
HIDDEN2
 70
     0
  3
Hidden (.5x) _ _ _ _ _ _ _ _ _ _ _ _ _ _ _ _ _
 72
    65
 73
     2
 40
4.7625
 49
3.175
 74
     0
 49
-1.5875
 74
     0
  0
LTYPE
  5
477
330
69
100
AcDbSymbolTableRecord
100
AcDbLinetypeTableRecord
  2
sekkei-P(A4)
 70
     0
  3
Phantom(A4)  ____ _ _ ____ _ _ ____ _ _ _____
 72
    65
 73
     6
 40
15.0
 49
7.5
 74
     0
 49
-1.5
 74
     0
 49
1.5
 74
     0
 49
-1.5
 74
     0
 49
1.5
 74
     0
 49
-1.5
 74
     0
  0
LTYPE
  5
48F
330
69
100
AcDbSymbolTableRecord
100
AcDbLinetypeTableRecord
  2
sekkei_H
 70
     0
  3
Hidden-S _ _ _ _ _ _ _ _ _ _ _ _ _ _ _ _ _
 72
    65
 73
     2
 40
2.38125
 49
1.5875
 74
     0
 49
-0.79375
 74
     0
  0
LTYPE
  5
494
330
69
100
AcDbSymbolTableRecord
100
AcDbLinetypeTableRecord
  2
sekkei_P_S
 70
     0
  3
Phantom_S   __ _ _ __ _ _ __ _ _ ___
 72
    65
 73
     6
 40
7.5
 49
3.75
 74
     0
 49
-0.75
 74
     0
 49
0.75
 74
     0
 49
-0.75
 74
     0
 49
0.75
 74
     0
 49
-0.75
 74
     0
  0
LTYPE
  5
3886
330
69
100
AcDbSymbolTableRecord
100
AcDbLinetypeTableRecord
  2
CENS
 70
     0
  3
(一点鎖線１)---- - ---- - ---- - ---- - ---- - 
 72
    65
 73
     4
 40
13.0
 49
10.0
 74
     0
 49
-1.0
 74
     0
 49
1.0
 74
     0
 49
-1.0
 74
     0
  0
ENDTAB
  0
TABLE
  2
LAYER
  5
66
102
{ACAD_XDICTIONARY
360
30EC
102
}
330
0
100
AcDbSymbolTable
 70
    10
  0
LAYER
  5
5E
102
{ACAD_XDICTIONARY
360
3057
102
}
330
66
100
AcDbSymbolTableRecord
100
AcDbLayerTableRecord
  2
0
 70
     0
 62
     7
  6
CONTINUOUS
370
    -3
390
5
  0
LAYER
  5
3E
102
{ACAD_XDICTIONARY
360
3059
102
}
330
66
100
AcDbSymbolTableRecord
100
AcDbLayerTableRecord
  2
CENTER
 70
     0
 62
     3
  6
sekkei(A2)
370
    -3
390
5
  0
LAYER
  5
135
330
66
100
AcDbSymbolTableRecord
100
AcDbLayerTableRecord
  2
DEFPOINTS
 70
     0
 62
     7
  6
CONTINUOUS
290
     0
370
    -3
390
5
  0
LAYER
  5
2B5
102
{ACAD_XDICTIONARY
360
305F
102
}
330
66
100
AcDbSymbolTableRecord
100
AcDbLayerTableRecord
  2
HIDS
 70
     0
 62
     1
  6
HIDDEN2
370
    -3
390
5
  0
LAYER
  5
2BA
102
{ACAD_XDICTIONARY
360
3061
102
}
330
66
100
AcDbSymbolTableRecord
100
AcDbLayerTableRecord
  2
HOJO
 70
     0
 62
     4
  6
CONTINUOUS
370
    -3
390
5
  0
LAYER
  5
478
102
{ACAD_XDICTIONARY
360
3067
102
}
330
66
100
AcDbSymbolTableRecord
100
AcDbLayerTableRecord
  2
PHAS
 70
     0
 62
     2
  6
sekkei-P(A4)
370
    -3
390
5
  0
LAYER
  5
30FD
330
66
100
AcDbSymbolTableRecord
100
AcDbLayerTableRecord
  2
TITLE_C
 70
     0
 62
     4
  6
CONTINUOUS
370
    -3
390
5
1001
AcAecLayerStandard
1000

1000

  0
ENDTAB
  0
TABLE
  2
STYLE
  5
67
330
0
100
AcDbSymbolTable
 70
     1
  0
STYLE
  5
16
330
67
100
AcDbSymbolTableRecord
100
AcDbTextStyleTableRecord
  2
STANDARD
 70
     0
 40
0.0
 41
1.0
 50
0.0
 71
     0
 42
2.0
  3
simplex.shx
  4
extfont.shx
  0
ENDTAB
  0
TABLE
  2
VIEW
  5
6C
330
0
100
AcDbSymbolTable
 70
     0
  0
ENDTAB
  0
TABLE
  2
UCS
  5
6D
330
0
100
AcDbSymbolTable
 70
     0
  0
ENDTAB
  0
TABLE
  2
APPID
  5
70
330
0
100
AcDbSymbolTable
 70
    10
  0
APPID
  5
71
330
70
100
AcDbSymbolTableRecord
100
AcDbRegAppTableRecord
  2
ACAD
 70
     0
  0
APPID
  5
304B
330
70
100
AcDbSymbolTableRecord
100
AcDbRegAppTableRecord
  2
ACAD_MLEADERVER
 70
     0
  0
APPID
  5
30FF
330
70
100
AcDbSymbolTableRecord
100
AcDbRegAppTableRecord
  2
AcAecLayerStandard
 70
     0
  0
APPID
  5
3106
330
70
100
AcDbSymbolTableRecord
100
AcDbRegAppTableRecord
  2
ACAD_EXEMPT_FROM_CAD_STANDARDS
 70
     0
  0
APPID
  5
3AD2
330
70
100
AcDbSymbolTableRecord
100
AcDbRegAppTableRecord
  2
AcadAnnoAV
 70
     0
  0
APPID
  5
3AF8
330
70
100
AcDbSymbolTableRecord
100
AcDbRegAppTableRecord
  2
ACAUTHENVIRON
 70
     0
  0
APPID
  5
3AFC
330
70
100
AcDbSymbolTableRecord
100
AcDbRegAppTableRecord
  2
AcDbDynamicBlockTrueName
 70
     0
  0
APPID
  5
3AFD
330
70
100
AcDbSymbolTableRecord
100
AcDbRegAppTableRecord
  2
AcDbDynamicBlockGUID
 70
     0
  0
APPID
  5
3AFF
330
70
100
AcDbSymbolTableRecord
100
AcDbRegAppTableRecord
  2
AcDbBlockRepETag
 70
     0
  0
APPID
  5
4161
330
70
100
AcDbSymbolTableRecord
100
AcDbRegAppTableRecord
  2
ACAD_NAV_VCDISPLAY
 70
     0
  0
ENDTAB
  0
TABLE
  2
DIMSTYLE
  5
72
330
0
100
AcDbSymbolTable
 70
     1
100
AcDbDimStyleTable
 71
     1
340
73
  0
DIMSTYLE
105
73
330
72
100
AcDbSymbolTableRecord
100
AcDbDimStyleTableRecord
  2
STANDARD
 70
     0
 40
3.0
 41
1.8
 42
0.625
 43
3.75
 44
0.8
 73
     0
 74
     0
 77
     1
 78
     8
140
1.8
141
2.5
143
0.0394
147
0.75
171
     4
172
     1
179
     2
271
     2
272
     2
273
     8
274
     4
277
     6
340
16
  0
ENDTAB
  0
TABLE
  2
BLOCK_RECORD
  5
1
330
0
100
AcDbSymbolTable
 70
    64
  0
BLOCK_RECORD
  5
2
102
{ACAD_XDICTIONARY
360
39A7
102
}
330
1
100
AcDbSymbolTableRecord
100
AcDbBlockTableRecord
  2
*MODEL_SPACE
340
60
  0
BLOCK_RECORD
  5
4740
330
1
100
AcDbSymbolTableRecord
100
AcDbBlockTableRecord
  2
*Paper_Space
340
4741
  0
BLOCK_RECORD
  5
4AC
330
1
100
AcDbSymbolTableRecord
100
AcDbBlockTableRecord
  2
黒丸矢印1
340
0
  0
BLOCK_RECORD
  5
1780
330
1
100
AcDbSymbolTableRecord
100
AcDbBlockTableRecord
  2
*D2
340
0
  0
BLOCK_RECORD
  5
178F
330
1
100
AcDbSymbolTableRecord
100
AcDbBlockTableRecord
  2
*D3
340
0
  0
BLOCK_RECORD
  5
179C
330
1
100
AcDbSymbolTableRecord
100
AcDbBlockTableRecord
  2
*D4
340
0
  0
BLOCK_RECORD
  5
17A9
330
1
100
AcDbSymbolTableRecord
100
AcDbBlockTableRecord
  2
*D5
340
0
  0
BLOCK_RECORD
  5
17B6
330
1
100
AcDbSymbolTableRecord
100
AcDbBlockTableRecord
  2
*D6
340
0
  0
BLOCK_RECORD
  5
17C3
330
1
100
AcDbSymbolTableRecord
100
AcDbBlockTableRecord
  2
*D7
340
0
  0
BLOCK_RECORD
  5
17D0
330
1
100
AcDbSymbolTableRecord
100
AcDbBlockTableRecord
  2
*D8
340
0
  0
BLOCK_RECORD
  5
1828
330
1
100
AcDbSymbolTableRecord
100
AcDbBlockTableRecord
  2
*D9
340
0
  0
BLOCK_RECORD
  5
1837
330
1
100
AcDbSymbolTableRecord
100
AcDbBlockTableRecord
  2
*D10
340
0
  0
BLOCK_RECORD
  5
1844
330
1
100
AcDbSymbolTableRecord
100
AcDbBlockTableRecord
  2
*D11
340
0
  0
BLOCK_RECORD
  5
1851
330
1
100
AcDbSymbolTableRecord
100
AcDbBlockTableRecord
  2
*D12
340
0
  0
BLOCK_RECORD
  5
185E
330
1
100
AcDbSymbolTableRecord
100
AcDbBlockTableRecord
  2
*D13
340
0
  0
BLOCK_RECORD
  5
1874
330
1
100
AcDbSymbolTableRecord
100
AcDbBlockTableRecord
  2
*D14
340
0
  0
BLOCK_RECORD
  5
18C0
330
1
100
AcDbSymbolTableRecord
100
AcDbBlockTableRecord
  2
*D15
340
0
  0
BLOCK_RECORD
  5
18CE
330
1
100
AcDbSymbolTableRecord
100
AcDbBlockTableRecord
  2
*D16
340
0
  0
BLOCK_RECORD
  5
18DB
330
1
100
AcDbSymbolTableRecord
100
AcDbBlockTableRecord
  2
*D17
340
0
  0
BLOCK_RECORD
  5
190D
330
1
100
AcDbSymbolTableRecord
100
AcDbBlockTableRecord
  2
*D18
340
0
  0
BLOCK_RECORD
  5
191A
330
1
100
AcDbSymbolTableRecord
100
AcDbBlockTableRecord
  2
*D19
340
0
  0
BLOCK_RECORD
  5
1927
330
1
100
AcDbSymbolTableRecord
100
AcDbBlockTableRecord
  2
*D20
340
0
  0
BLOCK_RECORD
  5
1934
330
1
100
AcDbSymbolTableRecord
100
AcDbBlockTableRecord
  2
*D21
340
0
  0
BLOCK_RECORD
  5
1941
330
1
100
AcDbSymbolTableRecord
100
AcDbBlockTableRecord
  2
*D22
340
0
  0
BLOCK_RECORD
  5
1A66
330
1
100
AcDbSymbolTableRecord
100
AcDbBlockTableRecord
  2
*D23
340
0
  0
BLOCK_RECORD
  5
1C1D
330
1
100
AcDbSymbolTableRecord
100
AcDbBlockTableRecord
  2
*D24
340
0
  0
BLOCK_RECORD
  5
1C2C
330
1
100
AcDbSymbolTableRecord
100
AcDbBlockTableRecord
  2
*D25
340
0
  0
BLOCK_RECORD
  5
1C3B
330
1
100
AcDbSymbolTableRecord
100
AcDbBlockTableRecord
  2
*D26
340
0
  0
BLOCK_RECORD
  5
1C48
330
1
100
AcDbSymbolTableRecord
100
AcDbBlockTableRecord
  2
*D27
340
0
  0
BLOCK_RECORD
  5
1C55
330
1
100
AcDbSymbolTableRecord
100
AcDbBlockTableRecord
  2
*D28
340
0
  0
BLOCK_RECORD
  5
1C62
330
1
100
AcDbSymbolTableRecord
100
AcDbBlockTableRecord
  2
*D29
340
0
  0
BLOCK_RECORD
  5
1C6F
330
1
100
AcDbSymbolTableRecord
100
AcDbBlockTableRecord
  2
*D30
340
0
  0
BLOCK_RECORD
  5
1C7E
330
1
100
AcDbSymbolTableRecord
100
AcDbBlockTableRecord
  2
*D31
340
0
  0
BLOCK_RECORD
  5
1D15
330
1
100
AcDbSymbolTableRecord
100
AcDbBlockTableRecord
  2
*D32
340
0
  0
BLOCK_RECORD
  5
1D2F
330
1
100
AcDbSymbolTableRecord
100
AcDbBlockTableRecord
  2
*D33
340
0
  0
BLOCK_RECORD
  5
2095
330
1
100
AcDbSymbolTableRecord
100
AcDbBlockTableRecord
  2
*D34
340
0
  0
BLOCK_RECORD
  5
20BA
330
1
100
AcDbSymbolTableRecord
100
AcDbBlockTableRecord
  2
*D35
340
0
  0
BLOCK_RECORD
  5
20D0
330
1
100
AcDbSymbolTableRecord
100
AcDbBlockTableRecord
  2
*D36
340
0
  0
BLOCK_RECORD
  5
4451
330
1
100
AcDbSymbolTableRecord
100
AcDbBlockTableRecord
  2
*D62
340
0
  0
ENDTAB
  0
ENDSEC
  0
SECTION
  2
BLOCKS
  0
BLOCK
  5
5D
330
2
100
AcDbEntity
  8
0
100
AcDbBlockBegin
  2
*MODEL_SPACE
 70
     0
 10
0.0
 20
0.0
 30
0.0
  3
*MODEL_SPACE
  1

  0
ENDBLK
  5
5F
330
2
100
AcDbEntity
  8
0
100
AcDbBlockEnd
  0
BLOCK
  5
4742
330
4740
100
AcDbEntity
 67
     1
  8
0
100
AcDbBlockBegin
  2
*Paper_Space
 70
     0
 10
0.0
 20
0.0
 30
0.0
  3
*Paper_Space
  1

  0
ENDBLK
  5
4743
330
4740
100
AcDbEntity
 67
     1
  8
0
100
AcDbBlockEnd
  0
BLOCK
  5
4B0
330
4AC
100
AcDbEntity
  8
0
100
AcDbBlockBegin
  2
黒丸矢印1
 70
     0
 10
0.0
 20
0.0
 30
0.0
  3
黒丸矢印1
  1

  0
HATCH
  5
4AD
330
4AC
100
AcDbEntity
  8
0
100
AcDbHatch
 10
0.0
 20
0.0
 30
0.0
210
0.0
220
0.0
230
1.0
  2
SOLID
 70
     1
 71
     1
 91
        1
 92
        7
 72
     1
 73
     1
 93
        2
 10
-0.25
 20
0.0
 42
1.0
 10
0.25
 20
0.0
 42
1.0
 97
        1
330
4AE
 75
     0
 76
     1
 47
0.0031599728
 98
        1
 10
-0.0919668375711354
 20
0.0618998464179867
  0
CIRCLE
  5
4AE
102
{ACAD_REACTORS
330
4AD
102
}
330
4AC
100
AcDbEntity
  8
0
100
AcDbCircle
 10
0.0
 20
0.0
 30
0.0
 40
0.25
  0
LINE
  5
4AF
330
4AC
100
AcDbEntity
  8
0
100
AcDbLine
 10
0.0
 20
0.0
 30
0.0
 11
-1.0
 21
0.0
 31
0.0
  0
ENDBLK
  5
4B1
330
4AC
100
AcDbEntity
  8
0
100
AcDbBlockEnd
  0
BLOCK
  5
178C
330
1780
100
AcDbEntity
  8
0
100
AcDbBlockBegin
  2
*D2
 70
     1
 10
0.0
 20
0.0
 30
0.0
  3
*D2
  1

  0
POINT
  5
2C9E
330
1780
100
AcDbEntity
  8
DEFPOINTS
 62
     0
100
AcDbPoint
 10
577.4465097754
 20
151.0722340405
 30
0.0
  0
POINT
  5
2C9F
330
1780
100
AcDbEntity
  8
DEFPOINTS
 62
     0
100
AcDbPoint
 10
581.4465097754
 20
151.0722340405
 30
0.0
  0
POINT
  5
2CA0
330
1780
100
AcDbEntity
  8
DEFPOINTS
 62
     0
100
AcDbPoint
 10
581.4465097754
 20
201.6206806344
 30
0.0
  0
ENDBLK
  5
178D
330
1780
100
AcDbEntity
  8
0
100
AcDbBlockEnd
  0
BLOCK
  5
1799
330
178F
100
AcDbEntity
  8
0
100
AcDbBlockBegin
  2
*D3
 70
     1
 10
0.0
 20
0.0
 30
0.0
  3
*D3
  1

  0
POINT
  5
2C5B
330
178F
100
AcDbEntity
  8
DEFPOINTS
 62
     0
100
AcDbPoint
 10
579.4465097754
 20
173.3791040405
 30
0.0
  0
POINT
  5
2C5C
330
178F
100
AcDbEntity
  8
DEFPOINTS
 62
     0
100
AcDbPoint
 10
547.4465097754
 20
184.7508690405
 30
0.0
  0
POINT
  5
2C5D
330
178F
100
AcDbEntity
  8
DEFPOINTS
 62
     0
100
AcDbPoint
 10
547.4465097754
 20
219.824331437
 30
0.0
  0
ENDBLK
  5
179A
330
178F
100
AcDbEntity
  8
0
100
AcDbBlockEnd
  0
BLOCK
  5
17A6
330
179C
100
AcDbEntity
  8
0
100
AcDbBlockBegin
  2
*D4
 70
     1
 10
0.0
 20
0.0
 30
0.0
  3
*D4
  1

  0
POINT
  5
2C64
330
179C
100
AcDbEntity
  8
DEFPOINTS
 62
     0
100
AcDbPoint
 10
579.4465097754
 20
173.3791040405
 30
0.0
  0
POINT
  5
2C65
330
179C
100
AcDbEntity
  8
DEFPOINTS
 62
     0
100
AcDbPoint
 10
633.4465097754
 20
184.7508690405
 30
0.0
  0
POINT
  5
2C66
330
179C
100
AcDbEntity
  8
DEFPOINTS
 62
     0
100
AcDbPoint
 10
633.4465097754
 20
219.824331437
 30
0.0
  0
ENDBLK
  5
17A7
330
179C
100
AcDbEntity
  8
0
100
AcDbBlockEnd
  0
BLOCK
  5
17B3
330
17A9
100
AcDbEntity
  8
0
100
AcDbBlockBegin
  2
*D5
 70
     1
 10
0.0
 20
0.0
 30
0.0
  3
*D5
  1

  0
POINT
  5
2C52
330
17A9
100
AcDbEntity
  8
DEFPOINTS
 62
     0
100
AcDbPoint
 10
579.4465097754
 20
173.3791040405
 30
0.0
  0
POINT
  5
2C53
330
17A9
100
AcDbEntity
  8
DEFPOINTS
 62
     0
100
AcDbPoint
 10
540.4465097754
 20
176.7722310405
 30
0.0
  0
POINT
  5
2C54
330
17A9
100
AcDbEntity
  8
DEFPOINTS
 62
     0
100
AcDbPoint
 10
540.4465097754
 20
237.7462691061
 30
0.0
  0
ENDBLK
  5
17B4
330
17A9
100
AcDbEntity
  8
0
100
AcDbBlockEnd
  0
BLOCK
  5
17C0
330
17B6
100
AcDbEntity
  8
0
100
AcDbBlockBegin
  2
*D6
 70
     1
 10
0.0
 20
0.0
 30
0.0
  3
*D6
  1

  0
POINT
  5
2C49
330
17B6
100
AcDbEntity
  8
DEFPOINTS
 62
     0
100
AcDbPoint
 10
579.4465097754
 20
173.3791040405
 30
0.0
  0
POINT
  5
2C4A
330
17B6
100
AcDbEntity
  8
DEFPOINTS
 62
     0
100
AcDbPoint
 10
640.4465097754
 20
176.7722310405
 30
0.0
  0
POINT
  5
2C4B
330
17B6
100
AcDbEntity
  8
DEFPOINTS
 62
     0
100
AcDbPoint
 10
640.4465097754
 20
237.7462691061
 30
0.0
  0
ENDBLK
  5
17C1
330
17B6
100
AcDbEntity
  8
0
100
AcDbBlockEnd
  0
BLOCK
  5
17CD
330
17C3
100
AcDbEntity
  8
0
100
AcDbBlockBegin
  2
*D7
 70
     1
 10
0.0
 20
0.0
 30
0.0
  3
*D7
  1

  0
POINT
  5
2C37
330
17C3
100
AcDbEntity
  8
DEFPOINTS
 62
     0
100
AcDbPoint
 10
640.4465097754
 20
176.7722310405
 30
0.0
  0
POINT
  5
2C38
330
17C3
100
AcDbEntity
  8
DEFPOINTS
 62
     0
100
AcDbPoint
 10
540.4465097754
 20
176.7722310405
 30
0.0
  0
POINT
  5
2C39
330
17C3
100
AcDbEntity
  8
DEFPOINTS
 62
     0
100
AcDbPoint
 10
540.4465097754
 20
255.739928598
 30
0.0
  0
ENDBLK
  5
17CE
330
17C3
100
AcDbEntity
  8
0
100
AcDbBlockEnd
  0
BLOCK
  5
17DA
330
17D0
100
AcDbEntity
  8
0
100
AcDbBlockBegin
  2
*D8
 70
     1
 10
0.0
 20
0.0
 30
0.0
  3
*D8
  1

  0
POINT
  5
2C40
330
17D0
100
AcDbEntity
  8
DEFPOINTS
 62
     0
100
AcDbPoint
 10
540.4465097754
 20
176.7722310405
 30
0.0
  0
POINT
  5
2C41
330
17D0
100
AcDbEntity
  8
DEFPOINTS
 62
     0
100
AcDbPoint
 10
734.0019907754
 20
175.2722310405
 30
0.0
  0
POINT
  5
2C42
330
17D0
100
AcDbEntity
  8
DEFPOINTS
 62
     0
100
AcDbPoint
 10
734.0019907754
 20
274.0848851132
 30
0.0
  0
ENDBLK
  5
17DB
330
17D0
100
AcDbEntity
  8
0
100
AcDbBlockEnd
  0
BLOCK
  5
1834
330
1828
100
AcDbEntity
  8
0
100
AcDbBlockBegin
  2
*D9
 70
     1
 10
0.0
 20
0.0
 30
0.0
  3
*D9
  1

  0
POINT
  5
2C81
330
1828
100
AcDbEntity
  8
DEFPOINTS
 62
     0
100
AcDbPoint
 10
579.4465097754
 20
137.2722310405
 30
0.0
  0
POINT
  5
2C82
330
1828
100
AcDbEntity
  8
DEFPOINTS
 62
     0
100
AcDbPoint
 10
577.4465097754
 20
151.0722340405
 30
0.0
  0
POINT
  5
2C83
330
1828
100
AcDbEntity
  8
DEFPOINTS
 62
     0
100
AcDbPoint
 10
522.8539766631
 20
151.0722340405
 30
0.0
  0
ENDBLK
  5
1835
330
1828
100
AcDbEntity
  8
0
100
AcDbBlockEnd
  0
BLOCK
  5
1841
330
1837
100
AcDbEntity
  8
0
100
AcDbBlockBegin
  2
*D10
 70
     1
 10
0.0
 20
0.0
 30
0.0
  3
*D10
  1

  0
POINT
  5
2C93
330
1837
100
AcDbEntity
  8
DEFPOINTS
 62
     0
100
AcDbPoint
 10
532.9057387754
 20
143.2722310405
 30
0.0
  0
POINT
  5
2C94
330
1837
100
AcDbEntity
  8
DEFPOINTS
 62
     0
100
AcDbPoint
 10
539.4678717754
 20
176.7722310405
 30
0.0
  0
POINT
  5
2C95
330
1837
100
AcDbEntity
  8
DEFPOINTS
 62
     0
100
AcDbPoint
 10
504.564344589
 20
176.7722310405
 30
0.0
  0
ENDBLK
  5
1842
330
1837
100
AcDbEntity
  8
0
100
AcDbBlockEnd
  0
BLOCK
  5
184E
330
1844
100
AcDbEntity
  8
0
100
AcDbBlockBegin
  2
*D11
 70
     1
 10
0.0
 20
0.0
 30
0.0
  3
*D11
  1

  0
POINT
  5
2C76
330
1844
100
AcDbEntity
  8
DEFPOINTS
 62
     0
100
AcDbPoint
 10
532.9057387754
 20
143.2722310405
 30
0.0
  0
POINT
  5
2C77
330
1844
100
AcDbEntity
  8
DEFPOINTS
 62
     0
100
AcDbPoint
 10
539.4678717754
 20
109.7722310405
 30
0.0
  0
POINT
  5
2C78
330
1844
100
AcDbEntity
  8
DEFPOINTS
 62
     0
100
AcDbPoint
 10
504.564344589
 20
109.7722310405
 30
0.0
  0
ENDBLK
  5
184F
330
1844
100
AcDbEntity
  8
0
100
AcDbBlockEnd
  0
BLOCK
  5
185B
330
1851
100
AcDbEntity
  8
0
100
AcDbBlockBegin
  2
*D12
 70
     1
 10
0.0
 20
0.0
 30
0.0
  3
*D12
  1

  0
POINT
  5
2C8A
330
1851
100
AcDbEntity
  8
DEFPOINTS
 62
     0
100
AcDbPoint
 10
532.9057387754
 20
143.2722310405
 30
0.0
  0
POINT
  5
2C8B
330
1851
100
AcDbEntity
  8
DEFPOINTS
 62
     0
100
AcDbPoint
 10
547.4465097754
 20
183.7722310405
 30
0.0
  0
POINT
  5
2C8C
330
1851
100
AcDbEntity
  8
DEFPOINTS
 62
     0
100
AcDbPoint
 10
486.9053857213
 20
183.7722310405
 30
0.0
  0
ENDBLK
  5
185C
330
1851
100
AcDbEntity
  8
0
100
AcDbBlockEnd
  0
BLOCK
  5
1868
330
185E
100
AcDbEntity
  8
0
100
AcDbBlockBegin
  2
*D13
 70
     1
 10
0.0
 20
0.0
 30
0.0
  3
*D13
  1

  0
POINT
  5
2C6D
330
185E
100
AcDbEntity
  8
DEFPOINTS
 62
     0
100
AcDbPoint
 10
532.9057387754
 20
143.2722310405
 30
0.0
  0
POINT
  5
2C6E
330
185E
100
AcDbEntity
  8
DEFPOINTS
 62
     0
100
AcDbPoint
 10
547.4465097754
 20
102.7722310405
 30
0.0
  0
POINT
  5
2C6F
330
185E
100
AcDbEntity
  8
DEFPOINTS
 62
     0
100
AcDbPoint
 10
486.9053857213
 20
102.7722310405
 30
0.0
  0
ENDBLK
  5
1869
330
185E
100
AcDbEntity
  8
0
100
AcDbBlockEnd
  0
BLOCK
  5
187E
330
1874
100
AcDbEntity
  8
0
100
AcDbBlockBegin
  2
*D14
 70
     1
 10
0.0
 20
0.0
 30
0.0
  3
*D14
  1

  0
POINT
  5
2B58
330
1874
100
AcDbEntity
  8
DEFPOINTS
 62
     0
100
AcDbPoint
 10
547.4465097754
 20
102.7722310405
 30
0.0
  0
POINT
  5
2B59
330
1874
100
AcDbEntity
  8
DEFPOINTS
 62
     0
100
AcDbPoint
 10
547.4465097754
 20
183.7722310405
 30
0.0
  0
POINT
  5
2B5A
330
1874
100
AcDbEntity
  8
DEFPOINTS
 62
     0
100
AcDbPoint
 10
468.8259780493
 20
183.7722310405
 30
0.0
  0
ENDBLK
  5
187F
330
1874
100
AcDbEntity
  8
0
100
AcDbBlockEnd
  0
BLOCK
  5
18CA
330
18C0
100
AcDbEntity
  8
0
100
AcDbBlockBegin
  2
*D15
 70
     1
 10
0.0
 20
0.0
 30
0.0
  3
*D15
  1

  0
POINT
  5
2CA7
330
18C0
100
AcDbEntity
  8
DEFPOINTS
 62
     0
100
AcDbPoint
 10
730.0379407754
 20
181.2722310405
 30
0.0
  0
POINT
  5
2CA8
330
18C0
100
AcDbEntity
  8
DEFPOINTS
 62
     0
100
AcDbPoint
 10
730.0379407754
 20
105.2722310405
 30
0.0
  0
POINT
  5
2CA9
330
18C0
100
AcDbEntity
  8
DEFPOINTS
 62
     0
100
AcDbPoint
 10
757.9298450017
 20
105.2722310405
 30
0.0
  0
ENDBLK
  5
18CB
330
18C0
100
AcDbEntity
  8
0
100
AcDbBlockEnd
  0
BLOCK
  5
18D8
330
18CE
100
AcDbEntity
  8
0
100
AcDbBlockBegin
  2
*D16
 70
     1
 10
0.0
 20
0.0
 30
0.0
  3
*D16
  1

  0
POINT
  5
2B6A
330
18CE
100
AcDbEntity
  8
DEFPOINTS
 62
     0
100
AcDbPoint
 10
352.5637398238
 20
190.8203570405
 30
0.0
  0
POINT
  5
2B6B
330
18CE
100
AcDbEntity
  8
DEFPOINTS
 62
     0
100
AcDbPoint
 10
403.5637398238
 20
156.2483360405
 30
0.0
  0
POINT
  5
2B6C
330
18CE
100
AcDbEntity
  8
DEFPOINTS
 62
     0
100
AcDbPoint
 10
403.5637398238
 20
255.739928598
 30
0.0
  0
ENDBLK
  5
18D9
330
18CE
100
AcDbEntity
  8
0
100
AcDbBlockEnd
  0
BLOCK
  5
18E5
330
18DB
100
AcDbEntity
  8
0
100
AcDbBlockBegin
  2
*D17
 70
     1
 10
0.0
 20
0.0
 30
0.0
  3
*D17
  1

  0
POINT
  5
2B61
330
18DB
100
AcDbEntity
  8
DEFPOINTS
 62
     0
100
AcDbPoint
 10
352.5637398238
 20
190.8203570405
 30
0.0
  0
POINT
  5
2B62
330
18DB
100
AcDbEntity
  8
DEFPOINTS
 62
     0
100
AcDbPoint
 10
301.5637398238
 20
156.2483360405
 30
0.0
  0
POINT
  5
2B63
330
18DB
100
AcDbEntity
  8
DEFPOINTS
 62
     0
100
AcDbPoint
 10
301.5637398238
 20
255.739928598
 30
0.0
  0
ENDBLK
  5
18E6
330
18DB
100
AcDbEntity
  8
0
100
AcDbBlockEnd
  0
BLOCK
  5
1917
330
190D
100
AcDbEntity
  8
0
100
AcDbBlockBegin
  2
*D18
 70
     1
 10
0.0
 20
0.0
 30
0.0
  3
*D18
  1

  0
POINT
  5
2BA4
330
190D
100
AcDbEntity
  8
DEFPOINTS
 62
     0
100
AcDbPoint
 10
360.5637398238
 20
105.7722310405
 30
0.0
  0
POINT
  5
2BA5
330
190D
100
AcDbEntity
  8
DEFPOINTS
 62
     0
100
AcDbPoint
 10
393.0637398238
 20
103.4791630405
 30
0.0
  0
POINT
  5
2BA6
330
190D
100
AcDbEntity
  8
DEFPOINTS
 62
     0
100
AcDbPoint
 10
393.0637398238
 20
61.6650146718
 30
0.0
  0
ENDBLK
  5
1918
330
190D
100
AcDbEntity
  8
0
100
AcDbBlockEnd
  0
BLOCK
  5
1924
330
191A
100
AcDbEntity
  8
0
100
AcDbBlockBegin
  2
*D19
 70
     1
 10
0.0
 20
0.0
 30
0.0
  3
*D19
  1

  0
POINT
  5
2BAD
330
191A
100
AcDbEntity
  8
DEFPOINTS
 62
     0
100
AcDbPoint
 10
344.5637398238
 20
105.7722310405
 30
0.0
  0
POINT
  5
2BAE
330
191A
100
AcDbEntity
  8
DEFPOINTS
 62
     0
100
AcDbPoint
 10
312.0637398238
 20
103.4791630405
 30
0.0
  0
POINT
  5
2BAF
330
191A
100
AcDbEntity
  8
DEFPOINTS
 62
     0
100
AcDbPoint
 10
312.0637398238
 20
61.6650146718
 30
0.0
  0
ENDBLK
  5
1925
330
191A
100
AcDbEntity
  8
0
100
AcDbBlockEnd
  0
BLOCK
  5
1931
330
1927
100
AcDbEntity
  8
0
100
AcDbBlockBegin
  2
*D20
 70
     1
 10
0.0
 20
0.0
 30
0.0
  3
*D20
  1

  0
POINT
  5
2B7C
330
1927
100
AcDbEntity
  8
DEFPOINTS
 62
     0
100
AcDbPoint
 10
352.5637398238
 20
95.7241050405
 30
0.0
  0
POINT
  5
2B7D
330
1927
100
AcDbEntity
  8
DEFPOINTS
 62
     0
100
AcDbPoint
 10
393.0637398238
 20
103.4791630405
 30
0.0
  0
POINT
  5
2B7E
330
1927
100
AcDbEntity
  8
DEFPOINTS
 62
     0
100
AcDbPoint
 10
393.0637398238
 20
43.6881734387
 30
0.0
  0
ENDBLK
  5
1932
330
1927
100
AcDbEntity
  8
0
100
AcDbBlockEnd
  0
BLOCK
  5
193E
330
1934
100
AcDbEntity
  8
0
100
AcDbBlockBegin
  2
*D21
 70
     1
 10
0.0
 20
0.0
 30
0.0
  3
*D21
  1

  0
POINT
  5
2B73
330
1934
100
AcDbEntity
  8
DEFPOINTS
 62
     0
100
AcDbPoint
 10
352.5637398238
 20
95.7241050405
 30
0.0
  0
POINT
  5
2B74
330
1934
100
AcDbEntity
  8
DEFPOINTS
 62
     0
100
AcDbPoint
 10
312.0637398238
 20
103.4791630405
 30
0.0
  0
POINT
  5
2B75
330
1934
100
AcDbEntity
  8
DEFPOINTS
 62
     0
100
AcDbPoint
 10
312.0637398238
 20
43.6881734387
 30
0.0
  0
ENDBLK
  5
193F
330
1934
100
AcDbEntity
  8
0
100
AcDbBlockEnd
  0
BLOCK
  5
194B
330
1941
100
AcDbEntity
  8
0
100
AcDbBlockBegin
  2
*D22
 70
     1
 10
0.0
 20
0.0
 30
0.0
  3
*D22
  1

  0
POINT
  5
2B85
330
1941
100
AcDbEntity
  8
DEFPOINTS
 62
     0
100
AcDbPoint
 10
312.0637398238
 20
103.4791630405
 30
0.0
  0
POINT
  5
2B86
330
1941
100
AcDbEntity
  8
DEFPOINTS
 62
     0
100
AcDbPoint
 10
393.0637398238
 20
103.4791630405
 30
0.0
  0
POINT
  5
2B87
330
1941
100
AcDbEntity
  8
DEFPOINTS
 62
     0
100
AcDbPoint
 10
393.0637398238
 20
25.7428779501
 30
0.0
  0
ENDBLK
  5
194C
330
1941
100
AcDbEntity
  8
0
100
AcDbBlockEnd
  0
BLOCK
  5
1A72
330
1A66
100
AcDbEntity
  8
0
100
AcDbBlockBegin
  2
*D23
 70
     1
 10
0.0
 20
0.0
 30
0.0
  3
*D23
  1

  0
POINT
  5
2B9B
330
1A66
100
AcDbEntity
  8
DEFPOINTS
 62
     0
100
AcDbPoint
 10
312.0637398238
 20
114.0222310405
 30
0.0
  0
POINT
  5
2B9C
330
1A66
100
AcDbEntity
  8
DEFPOINTS
 62
     0
100
AcDbPoint
 10
312.0637398238
 20
105.5222310405
 30
0.0
  0
POINT
  5
2B9D
330
1A66
100
AcDbEntity
  8
DEFPOINTS
 62
     0
100
AcDbPoint
 10
292.4153907622
 20
105.5222310405
 30
0.0
  0
ENDBLK
  5
1A73
330
1A66
100
AcDbEntity
  8
0
100
AcDbBlockEnd
  0
BLOCK
  5
1C29
330
1C1D
100
AcDbEntity
  8
0
100
AcDbBlockBegin
  2
*D24
 70
     1
 10
0.0
 20
0.0
 30
0.0
  3
*D24
  1

  0
POINT
  5
2CD6
330
1C1D
100
AcDbEntity
  8
DEFPOINTS
 62
     0
100
AcDbPoint
 10
123.6182579318
 20
319.370062705
 30
0.0
  0
POINT
  5
2CD7
330
1C1D
100
AcDbEntity
  8
DEFPOINTS
 62
     0
100
AcDbPoint
 10
131.6182579318
 20
323.120062705
 30
0.0
  0
POINT
  5
2CD8
330
1C1D
100
AcDbEntity
  8
DEFPOINTS
 62
     0
100
AcDbPoint
 10
131.6182579318
 20
390.3274005329
 30
0.0
  0
ENDBLK
  5
1C2A
330
1C1D
100
AcDbEntity
  8
0
100
AcDbBlockEnd
  0
BLOCK
  5
1C38
330
1C2C
100
AcDbEntity
  8
0
100
AcDbBlockBegin
  2
*D25
 70
     1
 10
0.0
 20
0.0
 30
0.0
  3
*D25
  1

  0
POINT
  5
2CE1
330
1C2C
100
AcDbEntity
  8
DEFPOINTS
 62
     0
100
AcDbPoint
 10
69.6184419318
 20
319.370062705
 30
0.0
  0
POINT
  5
2CE2
330
1C2C
100
AcDbEntity
  8
DEFPOINTS
 62
     0
100
AcDbPoint
 10
61.6184419318
 20
323.120062705
 30
0.0
  0
POINT
  5
2CE3
330
1C2C
100
AcDbEntity
  8
DEFPOINTS
 62
     0
100
AcDbPoint
 10
61.6184419318
 20
390.3274005329
 30
0.0
  0
ENDBLK
  5
1C39
330
1C2C
100
AcDbEntity
  8
0
100
AcDbBlockEnd
  0
BLOCK
  5
1C45
330
1C3B
100
AcDbEntity
  8
0
100
AcDbBlockBegin
  2
*D26
 70
     1
 10
0.0
 20
0.0
 30
0.0
  3
*D26
  1

  0
POINT
  5
2C23
330
1C3B
100
AcDbEntity
  8
DEFPOINTS
 62
     0
100
AcDbPoint
 10
81.6184419318
 20
319.620062705
 30
0.0
  0
POINT
  5
2C24
330
1C3B
100
AcDbEntity
  8
DEFPOINTS
 62
     0
100
AcDbPoint
 10
111.6182579318
 20
319.620062705
 30
0.0
  0
POINT
  5
2C25
330
1C3B
100
AcDbEntity
  8
DEFPOINTS
 62
     0
100
AcDbPoint
 10
111.6182579318
 20
408.5610879508
 30
0.0
  0
ENDBLK
  5
1C46
330
1C3B
100
AcDbEntity
  8
0
100
AcDbBlockEnd
  0
BLOCK
  5
1C52
330
1C48
100
AcDbEntity
  8
0
100
AcDbBlockBegin
  2
*D27
 70
     1
 10
0.0
 20
0.0
 30
0.0
  3
*D27
  1

  0
POINT
  5
2C1A
330
1C48
100
AcDbEntity
  8
DEFPOINTS
 62
     0
100
AcDbPoint
 10
111.6182579318
 20
319.620062705
 30
0.0
  0
POINT
  5
2C1B
330
1C48
100
AcDbEntity
  8
DEFPOINTS
 62
     0
100
AcDbPoint
 10
131.6182579318
 20
323.120062705
 30
0.0
  0
POINT
  5
2C1C
330
1C48
100
AcDbEntity
  8
DEFPOINTS
 62
     0
100
AcDbPoint
 10
131.6182579318
 20
408.5610879508
 30
0.0
  0
ENDBLK
  5
1C53
330
1C48
100
AcDbEntity
  8
0
100
AcDbBlockEnd
  0
BLOCK
  5
1C5F
330
1C55
100
AcDbEntity
  8
0
100
AcDbBlockBegin
  2
*D28
 70
     1
 10
0.0
 20
0.0
 30
0.0
  3
*D28
  1

  0
POINT
  5
2C11
330
1C55
100
AcDbEntity
  8
DEFPOINTS
 62
     0
100
AcDbPoint
 10
81.6184419318
 20
319.620062705
 30
0.0
  0
POINT
  5
2C12
330
1C55
100
AcDbEntity
  8
DEFPOINTS
 62
     0
100
AcDbPoint
 10
61.6184419318
 20
323.120062705
 30
0.0
  0
POINT
  5
2C13
330
1C55
100
AcDbEntity
  8
DEFPOINTS
 62
     0
100
AcDbPoint
 10
61.6184419318
 20
408.5610879508
 30
0.0
  0
ENDBLK
  5
1C60
330
1C55
100
AcDbEntity
  8
0
100
AcDbBlockEnd
  0
BLOCK
  5
1C6C
330
1C62
100
AcDbEntity
  8
0
100
AcDbBlockBegin
  2
*D29
 70
     1
 10
0.0
 20
0.0
 30
0.0
  3
*D29
  1

  0
POINT
  5
2C08
330
1C62
100
AcDbEntity
  8
DEFPOINTS
 62
     0
100
AcDbPoint
 10
131.6182579318
 20
323.120062705
 30
0.0
  0
POINT
  5
2C09
330
1C62
100
AcDbEntity
  8
DEFPOINTS
 62
     0
100
AcDbPoint
 10
61.6184419318
 20
323.120062705
 30
0.0
  0
POINT
  5
2C0A
330
1C62
100
AcDbEntity
  8
DEFPOINTS
 62
     0
100
AcDbPoint
 10
61.6184419318
 20
426.3330244476
 30
0.0
  0
ENDBLK
  5
1C6D
330
1C62
100
AcDbEntity
  8
0
100
AcDbBlockEnd
  0
BLOCK
  5
1C7B
330
1C6F
100
AcDbEntity
  8
0
100
AcDbBlockBegin
  2
*D30
 70
     1
 10
0.0
 20
0.0
 30
0.0
  3
*D30
  1

  0
POINT
  5
2BE9
330
1C6F
100
AcDbEntity
  8
DEFPOINTS
 62
     0
100
AcDbPoint
 10
131.6182579318
 20
323.120062705
 30
0.0
  0
POINT
  5
2BEA
330
1C6F
100
AcDbEntity
  8
DEFPOINTS
 62
     0
100
AcDbPoint
 10
137.1183499318
 20
352.913138705
 30
0.0
  0
POINT
  5
2BEB
330
1C6F
100
AcDbEntity
  8
DEFPOINTS
 62
     0
100
AcDbPoint
 10
137.1183499318
 20
426.3330244476
 30
0.0
  0
ENDBLK
  5
1C7C
330
1C6F
100
AcDbEntity
  8
0
100
AcDbBlockEnd
  0
BLOCK
  5
1C8A
330
1C7E
100
AcDbEntity
  8
0
100
AcDbBlockBegin
  2
*D31
 70
     1
 10
0.0
 20
0.0
 30
0.0
  3
*D31
  1

  0
POINT
  5
2BFF
330
1C7E
100
AcDbEntity
  8
DEFPOINTS
 62
     0
100
AcDbPoint
 10
61.6184419318
 20
323.120062705
 30
0.0
  0
POINT
  5
2C00
330
1C7E
100
AcDbEntity
  8
DEFPOINTS
 62
     0
100
AcDbPoint
 10
56.1183499318
 20
352.913138705
 30
0.0
  0
POINT
  5
2C01
330
1C7E
100
AcDbEntity
  8
DEFPOINTS
 62
     0
100
AcDbPoint
 10
56.1183499318
 20
426.3330244476
 30
0.0
  0
ENDBLK
  5
1C8B
330
1C7E
100
AcDbEntity
  8
0
100
AcDbBlockEnd
  0
BLOCK
  5
1D21
330
1D15
100
AcDbEntity
  8
0
100
AcDbBlockBegin
  2
*D32
 70
     1
 10
0.0
 20
0.0
 30
0.0
  3
*D32
  1

  0
POINT
  5
2B90
330
1D15
100
AcDbEntity
  8
DEFPOINTS
 62
     0
100
AcDbPoint
 10
324.5637398238
 20
103.2609700405
 30
0.0
  0
POINT
  5
2B91
330
1D15
100
AcDbEntity
  8
DEFPOINTS
 62
     0
100
AcDbPoint
 10
312.0637398238
 20
103.4791630405
 30
0.0
  0
POINT
  5
2B92
330
1D15
100
AcDbEntity
  8
DEFPOINTS
 62
     0
100
AcDbPoint
 10
312.0637398238
 20
79.5950436997
 30
0.0
  0
ENDBLK
  5
1D22
330
1D15
100
AcDbEntity
  8
0
100
AcDbBlockEnd
  0
BLOCK
  5
1D39
330
1D2F
100
AcDbEntity
  8
0
100
AcDbBlockBegin
  2
*D33
 70
     1
 10
0.0
 20
0.0
 30
0.0
  3
*D33
  1

  0
POINT
  5
2BC1
330
1D2F
100
AcDbEntity
  8
DEFPOINTS
 62
     0
100
AcDbPoint
 10
324.5637398238
 20
103.2609741516
 30
0.0
  0
POINT
  5
2BC2
330
1D2F
100
AcDbEntity
  8
DEFPOINTS
 62
     0
100
AcDbPoint
 10
344.5637398238
 20
105.7722310405
 30
0.0
  0
POINT
  5
2BC3
330
1D2F
100
AcDbEntity
  8
DEFPOINTS
 62
     0
100
AcDbPoint
 10
344.5637398238
 20
79.5950436997
 30
0.0
  0
ENDBLK
  5
1D3A
330
1D2F
100
AcDbEntity
  8
0
100
AcDbBlockEnd
  0
BLOCK
  5
20A1
330
2095
100
AcDbEntity
  8
0
100
AcDbBlockBegin
  2
*D34
 70
     1
 10
0.0
 20
0.0
 30
0.0
  3
*D34
  1

  0
POINT
  5
2BDE
330
2095
100
AcDbEntity
  8
DEFPOINTS
 62
     0
100
AcDbPoint
 10
129.6182579318
 20
307.120062705
 30
0.0
  0
POINT
  5
2BDF
330
2095
100
AcDbEntity
  8
DEFPOINTS
 62
     0
100
AcDbPoint
 10
129.6182579318
 20
319.120062705
 30
0.0
  0
POINT
  5
2BE0
330
2095
100
AcDbEntity
  8
DEFPOINTS
 62
     0
100
AcDbPoint
 10
170.8655506246
 20
319.120062705
 30
0.0
  0
ENDBLK
  5
20A2
330
2095
100
AcDbEntity
  8
0
100
AcDbBlockEnd
  0
BLOCK
  5
20C4
330
20BA
100
AcDbEntity
  8
0
100
AcDbBlockBegin
  2
*D35
 70
     1
 10
0.0
 20
0.0
 30
0.0
  3
*D35
  1

  0
POINT
  5
2BD3
330
20BA
100
AcDbEntity
  8
DEFPOINTS
 62
     0
100
AcDbPoint
 10
131.6182579318
 20
303.120062705
 30
0.0
  0
POINT
  5
2BD4
330
20BA
100
AcDbEntity
  8
DEFPOINTS
 62
     0
100
AcDbPoint
 10
131.6182579318
 20
323.120062705
 30
0.0
  0
POINT
  5
2BD5
330
20BA
100
AcDbEntity
  8
DEFPOINTS
 62
     0
100
AcDbPoint
 10
188.7683910926
 20
323.120062705
 30
0.0
  0
ENDBLK
  5
20C5
330
20BA
100
AcDbEntity
  8
0
100
AcDbBlockEnd
  0
BLOCK
  5
20DA
330
20D0
100
AcDbEntity
  8
0
100
AcDbBlockBegin
  2
*D36
 70
     1
 10
0.0
 20
0.0
 30
0.0
  3
*D36
  1

  0
POINT
  5
3054
330
20D0
100
AcDbEntity
  8
DEFPOINTS
 62
     0
100
AcDbPoint
 10
134.6183499318
 20
293.620062705
 30
0.0
  0
POINT
  5
3055
330
20D0
100
AcDbEntity
  8
DEFPOINTS
 62
     0
100
AcDbPoint
 10
134.6183499318
 20
332.620062705
 30
0.0
  0
POINT
  5
3056
330
20D0
100
AcDbEntity
  8
DEFPOINTS
 62
     0
100
AcDbPoint
 10
206.930692315
 20
332.620062705
 30
0.0
  0
ENDBLK
  5
20DB
330
20D0
100
AcDbEntity
  8
0
100
AcDbBlockEnd
  0
BLOCK
  5
4452
330
4451
100
AcDbEntity
  8
0
100
AcDbBlockBegin
  2
*D62
 70
     1
 10
0.0
 20
0.0
 30
0.0
  3
*D62
  1

  0
POINT
  5
4467
330
4451
100
AcDbEntity
  8
DEFPOINTS
 62
     0
100
AcDbPoint
 10
352.7266706607
 20
112.9722310405
 30
0.0
  0
POINT
  5
4468
330
4451
100
AcDbEntity
  8
DEFPOINTS
 62
     0
100
AcDbPoint
 10
353.2356732119
 20
106.5722310405
 30
0.0
  0
POINT
  5
4469
330
4451
100
AcDbEntity
  8
DEFPOINTS
 62
     0
100
AcDbPoint
 10
353.9158528398
 20
106.5722310405
 30
0.0
  0
ENDBLK
  5
4453
330
4451
100
AcDbEntity
  8
0
100
AcDbBlockEnd
  0
ENDSEC
  0
SECTION
  2
ENTITIES
  0
LINE
  5
7DC
330
2
100
AcDbEntity
  8
HIDS
100
AcDbLine
 10
324.5637398238
 20
172.7722310405
 30
0.0
 11
344.5637398238
 21
172.7722310405
 31
0.0
  0
LINE
  5
7DD
330
2
100
AcDbEntity
  8
HIDS
100
AcDbLine
 10
324.5637398238
 20
180.7722310405
 30
0.0
 11
344.5637398238
 21
180.7722310405
 31
0.0
  0
LINE
  5
7DE
330
2
100
AcDbEntity
  8
HOJO
100
AcDbLine
 10
324.5637398238
 20
105.7722310405
 30
0.0
 11
344.5637398238
 21
105.7722310405
 31
0.0
  0
LINE
  5
7DF
330
2
100
AcDbEntity
  8
HOJO
100
AcDbLine
 10
324.5637398238
 20
113.7722310405
 30
0.0
 11
344.5637398238
 21
113.7722310405
 31
0.0
  0
LINE
  5
7E4
330
2
100
AcDbEntity
  8
CENTER
100
AcDbLine
 10
309.5587658238
 20
176.7722310405
 30
0.0
 11
396.6075018238
 21
176.7722310405
 31
0.0
  0
LINE
  5
7E5
330
2
100
AcDbEntity
  8
CENTER
100
AcDbLine
 10
309.5587658238
 20
109.7722310405
 30
0.0
 11
396.6075018238
 21
109.7722310405
 31
0.0
  0
LINE
  5
7EF
330
2
100
AcDbEntity
  8
HIDS
100
AcDbLine
 10
331.5288278238
 20
105.6393960405
 30
0.0
 11
352.5637398238
 21
105.2722310405
 31
0.0
  0
LINE
  5
7F0
330
2
100
AcDbEntity
  8
HIDS
100
AcDbLine
 10
331.5288278238
 20
180.9050590405
 30
0.0
 11
352.5637398238
 21
181.2722310405
 31
0.0
  0
LINE
  5
7F1
330
2
100
AcDbEntity
  8
0
100
AcDbLine
 10
352.5637398238
 20
102.7722310405
 30
0.0
 11
312.0637398238
 21
103.4791630405
 31
0.0
  0
LINE
  5
7F2
330
2
100
AcDbEntity
  8
0
100
AcDbLine
 10
352.5637398238
 20
183.7722310405
 30
0.0
 11
312.0637398238
 21
183.0653070405
 31
0.0
  0
LINE
  5
7F3
330
2
100
AcDbEntity
  8
CENTER
100
AcDbLine
 10
295.8251228238
 20
143.2722310405
 30
0.0
 11
409.3023568238
 21
143.2722310405
 31
0.0
  0
CIRCLE
  5
7F4
330
2
100
AcDbEntity
  8
HOJO
100
AcDbCircle
 10
129.7755659259
 20
176.7722310405
 30
0.0
 40
4.0
  0
CIRCLE
  5
7F5
330
2
100
AcDbEntity
  8
0
100
AcDbCircle
 10
129.7755659259
 20
176.7722310405
 30
0.0
 40
4.25
  0
CIRCLE
  5
7F6
330
2
100
AcDbEntity
  8
HOJO
100
AcDbCircle
 10
215.7755659259
 20
176.7722310405
 30
0.0
 40
4.0
  0
CIRCLE
  5
7F7
330
2
100
AcDbEntity
  8
0
100
AcDbCircle
 10
215.7755659259
 20
176.7722310405
 30
0.0
 40
4.25
  0
LINE
  5
7F8
330
2
100
AcDbEntity
  8
0
100
AcDbLine
 10
29.7200619259
 20
178.2722310405
 30
0.0
 11
29.7200619259
 21
108.2722310405
 31
0.0
  0
LINE
  5
7F9
330
2
100
AcDbEntity
  8
0
100
AcDbLine
 10
29.2200619259
 20
175.2722310405
 30
0.0
 11
29.2200619259
 21
111.2722310405
 31
0.0
  0
LINE
  5
7FA
330
2
100
AcDbEntity
  8
0
100
AcDbLine
 10
49.7200619259
 20
181.2722310405
 30
0.0
 11
49.7200619259
 21
105.2722310405
 31
0.0
  0
ARC
  5
7FB
330
2
100
AcDbEntity
  8
0
100
AcDbCircle
 10
124.7755659259
 20
173.2722310405
 30
0.0
 40
2.0
100
AcDbArc
 50
180.0
 51
270.0
  0
ARC
  5
7FC
330
2
100
AcDbEntity
  8
0
100
AcDbCircle
 10
220.7755659259
 20
173.2722310405
 30
0.0
 40
2.0
100
AcDbArc
 50
270.0
 51
0.0
  0
ARC
  5
7FD
330
2
100
AcDbEntity
  8
0
100
AcDbCircle
 10
144.7755659259
 20
174.2722310405
 30
0.0
 40
2.0
100
AcDbArc
 50
319.398705
 51
0.0
  0
LINE
  5
7FE
330
2
100
AcDbEntity
  8
0
100
AcDbLine
 10
136.3742139259
 20
164.4706410405
 30
0.0
 11
144.2940749259
 21
173.7104940405
 31
0.0
  0
ARC
  5
7FF
330
2
100
AcDbEntity
  8
0
100
AcDbCircle
 10
200.7755659259
 20
174.2722310405
 30
0.0
 40
2.0
100
AcDbArc
 50
180.0
 51
220.601288
  0
LINE
  5
800
330
2
100
AcDbEntity
  8
0
100
AcDbLine
 10
209.1769329259
 20
164.4706410405
 30
0.0
 11
201.2570419259
 21
173.7104940405
 31
0.0
  0
LINE
  5
801
330
2
100
AcDbEntity
  8
CENTER
100
AcDbLine
 10
215.7755659259
 20
184.7508690405
 30
0.0
 11
215.7755659259
 21
168.7935930405
 31
0.0
  0
LINE
  5
802
330
2
100
AcDbEntity
  8
0
100
AcDbLine
 10
222.7755659259
 20
109.7722310405
 30
0.0
 11
222.7755659259
 21
176.7722310405
 31
0.0
  0
LINE
  5
804
330
2
100
AcDbEntity
  8
0
100
AcDbLine
 10
122.7755659259
 20
176.7722310405
 30
0.0
 11
122.7755659259
 21
159.6006610405
 31
0.0
  0
LINE
  5
805
330
2
100
AcDbEntity
  8
CENTER
100
AcDbLine
 10
183.7755659259
 20
113.1653580405
 30
0.0
 11
183.7755659259
 21
173.3791040405
 31
0.0
  0
LINE
  5
806
330
2
100
AcDbEntity
  8
0
100
AcDbLine
 10
312.0637398238
 20
183.0653070405
 30
0.0
 11
312.0637398238
 21
103.4791630405
 31
0.0
  0
ARC
  5
807
330
2
100
AcDbEntity
  8
HIDS
100
AcDbCircle
 10
326.5637398238
 20
174.9739670405
 30
0.0
 40
3.0
100
AcDbArc
 50
309.356701
 51
0.0
  0
LINE
  5
809
330
2
100
AcDbEntity
  8
0
100
AcDbLine
 10
49.7200619259
 20
113.0232690405
 30
0.0
 11
122.7755659259
 21
113.0232690405
 31
0.0
  0
LINE
  5
80A
330
2
100
AcDbEntity
  8
0
100
AcDbLine
 10
49.7200619259
 20
105.2722310405
 30
0.0
 11
121.4168169259
 21
105.2722310405
 31
0.0
  0
LINE
  5
80B
330
2
100
AcDbEntity
  8
CENTER
100
AcDbLine
 10
230.3163369259
 20
143.2722310405
 30
0.0
 11
20.6995319576
 21
143.2722310405
 31
0.0
  0
LINE
  5
80D
330
2
100
AcDbEntity
  8
0
100
AcDbLine
 10
31.3016589259
 20
113.0232300405
 30
0.0
 11
49.7200619259
 21
113.0232300405
 31
0.0
  0
LINE
  5
80E
330
2
100
AcDbEntity
  8
0
100
AcDbLine
 10
33.1841579259
 20
105.2722310405
 30
0.0
 11
49.7200619259
 21
105.2722310405
 31
0.0
  0
ARC
  5
80F
330
2
100
AcDbEntity
  8
0
100
AcDbCircle
 10
33.1841579259
 20
108.2722310405
 30
0.0
 40
3.0
100
AcDbArc
 50
209.999603
 51
270.0
  0
LINE
  5
810
330
2
100
AcDbEntity
  8
0
100
AcDbLine
 10
30.5860589259
 20
106.7722310405
 30
0.0
 11
29.7200619259
 21
108.2722310405
 31
0.0
  0
LINE
  5
811
330
2
100
AcDbEntity
  8
0
100
AcDbLine
 10
29.2200619259
 20
111.2722310405
 30
0.0
 11
29.7200619259
 21
110.7722310405
 31
0.0
  0
CIRCLE
  5
812
330
2
100
AcDbEntity
  8
0
100
AcDbCircle
 10
183.7755659259
 20
143.2722310405
 30
0.0
 40
25.002001
  0
CIRCLE
  5
813
330
2
100
AcDbEntity
  8
0
100
AcDbCircle
 10
183.7755659259
 20
143.2722310405
 30
0.0
 40
23.0
  0
ARC
  5
814
330
2
100
AcDbEntity
  8
0
100
AcDbCircle
 10
206.9701769259
 20
100.2084870405
 30
0.0
 40
6.0
100
AcDbArc
 50
47.364067
 51
120.358299
  0
LINE
  5
815
330
2
100
AcDbEntity
  8
0
100
AcDbLine
 10
208.2570419259
 20
124.0738210405
 30
0.0
 11
199.2570569259
 21
113.5738130405
 31
0.0
  0
LINE
  5
816
330
2
100
AcDbEntity
  8
0
100
AcDbLine
 10
209.1769329259
 20
122.0738210405
 30
0.0
 11
201.2570419259
 21
112.8339680405
 31
0.0
  0
LINE
  5
817
330
2
100
AcDbEntity
  8
0
100
AcDbLine
 10
208.2570419259
 20
162.4706410405
 30
0.0
 11
199.2570569259
 21
172.9706410405
 31
0.0
  0
LINE
  5
818
330
2
100
AcDbEntity
  8
0
100
AcDbLine
 10
129.7755659259
 20
102.7722310405
 30
0.0
 11
215.7755659259
 21
102.7722310405
 31
0.0
  0
CIRCLE
  5
81A
330
2
100
AcDbEntity
  8
0
100
AcDbCircle
 10
127.2755659259
 20
119.7722310405
 30
0.0
 40
3.5
  0
CIRCLE
  5
81B
330
2
100
AcDbEntity
  8
0
100
AcDbCircle
 10
127.2755659259
 20
119.7722310405
 30
0.0
 40
3.799999999999998
  0
ARC
  5
81C
330
2
100
AcDbEntity
  8
0
100
AcDbCircle
 10
127.2755659259
 20
119.7722310405
 30
0.0
 40
4.5
100
AcDbArc
 50
270.0
 51
90.0
  0
LINE
  5
81D
330
2
100
AcDbEntity
  8
0
100
AcDbLine
 10
137.2940749259
 20
124.0738210405
 30
0.0
 11
146.2940749259
 21
113.5738130405
 31
0.0
  0
LINE
  5
81E
330
2
100
AcDbEntity
  8
0
100
AcDbLine
 10
136.3742139259
 20
122.0738210405
 30
0.0
 11
144.2940749259
 21
112.8339680405
 31
0.0
  0
LINE
  5
81F
330
2
100
AcDbEntity
  8
0
100
AcDbLine
 10
122.7755659259
 20
126.9438010405
 30
0.0
 11
122.7755659259
 21
109.7722310405
 31
0.0
  0
ARC
  5
820
330
2
100
AcDbEntity
  8
0
100
AcDbCircle
 10
146.7755659259
 20
111.0372380405
 30
0.0
 40
2.0
100
AcDbArc
 50
180.0
 51
249.51268
  0
LINE
  5
821
330
2
100
AcDbEntity
  8
0
100
AcDbLine
 10
146.6513289259
 20
112.9661240405
 30
0.0
 11
144.6513289259
 21
112.2262720405
 31
0.0
  0
ARC
  5
822
330
2
100
AcDbEntity
  8
0
100
AcDbCircle
 10
149.1762309259
 20
112.7722310405
 30
0.0
 40
10.0
100
AcDbArc
 50
247.668358
 51
270.0
  0
ARC
  5
823
330
2
100
AcDbEntity
  8
0
100
AcDbCircle
 10
129.7755659259
 20
109.7722310405
 30
0.0
 40
7.0
100
AcDbArc
 50
180.0
 51
312.635925
  0
CIRCLE
  5
825
330
2
100
AcDbEntity
  8
HOJO
100
AcDbCircle
 10
129.7755659259
 20
109.7722310405
 30
0.0
 40
4.0
  0
CIRCLE
  5
826
330
2
100
AcDbEntity
  8
0
100
AcDbCircle
 10
129.7755659259
 20
109.7722310405
 30
0.0
 40
4.25
  0
CIRCLE
  5
827
330
2
100
AcDbEntity
  8
0
100
AcDbCircle
 10
129.7755659259
 20
109.7722310405
 30
0.0
 40
3.2
  0
LINE
  5
829
330
2
100
AcDbEntity
  8
0
100
AcDbLine
 10
122.1119459259
 20
105.1475360405
 30
0.0
 11
127.3425829259
 21
103.2086480405
 31
0.0
  0
ARC
  5
82A
330
2
100
AcDbEntity
  8
0
100
AcDbCircle
 10
121.4168169259
 20
103.2722310405
 30
0.0
 40
2.0
100
AcDbArc
 50
69.66127
 51
90.0
  0
ARC
  5
82B
330
2
100
AcDbEntity
  8
0
100
AcDbCircle
 10
124.7755659259
 20
113.2722310405
 30
0.0
 40
2.0
100
AcDbArc
 50
90.0
 51
180.0
  0
LINE
  5
82C
330
2
100
AcDbEntity
  8
0
100
AcDbLine
 10
124.7755659259
 20
115.2722310405
 30
0.0
 11
127.2755659259
 21
115.2722310405
 31
0.0
  0
ARC
  5
82D
330
2
100
AcDbEntity
  8
0
100
AcDbCircle
 10
138.5809549259
 20
100.2084870405
 30
0.0
 40
6.0
100
AcDbArc
 50
59.641697
 51
132.635925
  0
ARC
  5
82E
330
2
100
AcDbEntity
  8
0
100
AcDbCircle
 10
156.7755659259
 20
131.2722310405
 30
0.0
 40
30.0
100
AcDbArc
 50
239.641701
 51
247.668358
  0
ARC
  5
82F
330
2
100
AcDbEntity
  8
0
100
AcDbCircle
 10
142.7755659259
 20
111.5323860405
 30
0.0
 40
2.0
100
AcDbArc
 50
0.0
 51
40.601295
  0
LINE
  5
830
330
2
100
AcDbEntity
  8
0
100
AcDbLine
 10
144.7755659259
 20
111.5323860405
 30
0.0
 11
144.7755659259
 21
111.0372380405
 31
0.0
  0
LINE
  5
831
330
2
100
AcDbEntity
  8
0
100
AcDbLine
 10
191.7755659259
 20
107.7722310405
 30
0.0
 11
153.7755659259
 21
107.7722310405
 31
0.0
  0
ARC
  5
832
330
2
100
AcDbEntity
  8
0
100
AcDbCircle
 10
148.7755659259
 20
110.4073170405
 30
0.0
 40
2.0
100
AcDbArc
 50
180.0
 51
255.522491
  0
ARC
  5
833
330
2
100
AcDbEntity
  8
0
100
AcDbCircle
 10
153.7755659259
 20
129.7722310405
 30
0.0
 40
22.0
100
AcDbArc
 50
249.512688
 51
270.0
  0
ARC
  5
834
330
2
100
AcDbEntity
  8
0
100
AcDbCircle
 10
144.7755659259
 20
112.2722310405
 30
0.0
 40
2.0
100
AcDbArc
 50
0.0
 51
40.601295
  0
LINE
  5
835
330
2
100
AcDbEntity
  8
0
100
AcDbLine
 10
146.7755659259
 20
112.2722310405
 30
0.0
 11
146.7755659259
 21
110.4073170405
 31
0.0
  0
ARC
  5
836
330
2
100
AcDbEntity
  8
0
100
AcDbCircle
 10
196.3749009259
 20
112.7722310405
 30
0.0
 40
10.0
100
AcDbArc
 50
270.0
 51
292.331642
  0
ARC
  5
837
330
2
100
AcDbEntity
  8
0
100
AcDbCircle
 10
198.7755659259
 20
111.0372380405
 30
0.0
 40
2.0
100
AcDbArc
 50
290.487312
 51
0.0
  0
ARC
  5
838
330
2
100
AcDbEntity
  8
0
100
AcDbCircle
 10
196.7755659259
 20
110.4073170405
 30
0.0
 40
2.0
100
AcDbArc
 50
284.477509
 51
0.0
  0
ARC
  5
839
330
2
100
AcDbEntity
  8
0
100
AcDbCircle
 10
191.7755659259
 20
129.7722310405
 30
0.0
 40
22.0
100
AcDbArc
 50
270.0
 51
290.487305
  0
ARC
  5
83A
330
2
100
AcDbEntity
  8
0
100
AcDbCircle
 10
188.7755659259
 20
131.2722310405
 30
0.0
 40
30.0
100
AcDbArc
 50
292.331642
 51
300.358303
  0
LINE
  5
83B
330
2
100
AcDbEntity
  8
0
100
AcDbLine
 10
198.8998029259
 20
112.9661240405
 30
0.0
 11
200.8998029259
 21
112.2262720405
 31
0.0
  0
ARC
  5
83C
330
2
100
AcDbEntity
  8
0
100
AcDbCircle
 10
202.7755659259
 20
111.5323860405
 30
0.0
 40
2.0
100
AcDbArc
 50
139.398712
 51
180.0
  0
ARC
  5
83D
330
2
100
AcDbEntity
  8
0
100
AcDbCircle
 10
200.7755659259
 20
112.2722310405
 30
0.0
 40
2.0
100
AcDbArc
 50
139.398712
 51
180.0
  0
LINE
  5
83E
330
2
100
AcDbEntity
  8
0
100
AcDbLine
 10
198.7755659259
 20
112.2722310405
 30
0.0
 11
198.7755659259
 21
110.4073170405
 31
0.0
  0
LINE
  5
83F
330
2
100
AcDbEntity
  8
0
100
AcDbLine
 10
200.7755659259
 20
111.5323860405
 30
0.0
 11
200.7755659259
 21
111.0372380405
 31
0.0
  0
LINE
  5
840
330
2
100
AcDbEntity
  8
0
100
AcDbLine
 10
137.2940749259
 20
162.4706410405
 30
0.0
 11
146.2940749259
 21
172.9706410405
 31
0.0
  0
LINE
  5
841
330
2
100
AcDbEntity
  8
0
100
AcDbLine
 10
131.7755659259
 20
156.7722310405
 30
0.0
 11
131.7755659259
 21
129.7722310405
 31
0.0
  0
LINE
  5
842
330
2
100
AcDbEntity
  8
0
100
AcDbLine
 10
126.7755659259
 20
132.6006610405
 30
0.0
 11
126.7755659259
 21
153.9438010405
 31
0.0
  0
LINE
  5
843
330
2
100
AcDbEntity
  8
0
100
AcDbLine
 10
122.2755659259
 20
168.9626910405
 30
0.0
 11
122.2755659259
 21
117.5817630405
 31
0.0
  0
LINE
  5
844
330
2
100
AcDbEntity
  8
0
100
AcDbLine
 10
126.1897809259
 20
131.1864460405
 30
0.0
 11
123.3613509259
 21
128.3580160405
 31
0.0
  0
ARC
  5
846
330
2
100
AcDbEntity
  8
0
100
AcDbCircle
 10
124.7755659259
 20
126.2722310405
 30
0.0
 40
2.0
100
AcDbArc
 50
180.0
 51
270.0
  0
LINE
  5
847
330
2
100
AcDbEntity
  8
0
100
AcDbLine
 10
122.2755659259
 20
117.5817630405
 30
0.0
 11
122.7755659259
 21
117.5817630405
 31
0.0
  0
LINE
  5
848
330
2
100
AcDbEntity
  8
0
100
AcDbLine
 10
127.2755659259
 20
117.9722430405
 30
0.0
 11
128.7755659259
 21
118.8382710405
 31
0.0
  0
LINE
  5
849
330
2
100
AcDbEntity
  8
0
100
AcDbLine
 10
128.7755659259
 20
120.7062210405
 30
0.0
 11
128.7755659259
 21
118.8382710405
 31
0.0
  0
LINE
  5
84A
330
2
100
AcDbEntity
  8
0
100
AcDbLine
 10
127.2755659259
 20
121.5722490405
 30
0.0
 11
128.7755659259
 21
120.7062210405
 31
0.0
  0
LINE
  5
84B
330
2
100
AcDbEntity
  8
0
100
AcDbLine
 10
127.2755659259
 20
121.5722490405
 30
0.0
 11
125.7755659259
 21
120.7062210405
 31
0.0
  0
LINE
  5
84C
330
2
100
AcDbEntity
  8
0
100
AcDbLine
 10
125.7755659259
 20
120.7062210405
 30
0.0
 11
125.7755659259
 21
118.8382710405
 31
0.0
  0
LINE
  5
84D
330
2
100
AcDbEntity
  8
0
100
AcDbLine
 10
127.2755659259
 20
117.9722430405
 30
0.0
 11
125.7755659259
 21
118.8382710405
 31
0.0
  0
ARC
  5
84E
330
2
100
AcDbEntity
  8
0
100
AcDbCircle
 10
124.7755659259
 20
126.9438010405
 30
0.0
 40
2.0
100
AcDbArc
 50
135.0
 51
180.0
  0
LINE
  5
84F
330
2
100
AcDbEntity
  8
0
100
AcDbLine
 10
124.7755659259
 20
124.2722310405
 30
0.0
 11
127.2755659259
 21
124.2722310405
 31
0.0
  0
ARC
  5
850
330
2
100
AcDbEntity
  8
0
100
AcDbCircle
 10
134.4106519259
 20
124.7722310405
 30
0.0
 40
2.0
100
AcDbArc
 50
194.477509
 51
270.0
  0
LINE
  5
851
330
2
100
AcDbEntity
  8
0
100
AcDbLine
 10
136.6112749259
 20
124.5892630405
 30
0.0
 11
135.6914139259
 21
122.5892630405
 31
0.0
  0
LINE
  5
852
330
2
100
AcDbEntity
  8
0
100
AcDbLine
 10
134.8556899259
 20
122.7722310405
 30
0.0
 11
134.4106519259
 21
122.7722310405
 31
0.0
  0
ARC
  5
853
330
2
100
AcDbEntity
  8
0
100
AcDbCircle
 10
134.8556899259
 20
120.7722310405
 30
0.0
 40
2.0
100
AcDbArc
 50
40.601295
 51
90.0
  0
ARC
  5
854
330
2
100
AcDbEntity
  8
0
100
AcDbCircle
 10
153.7755659259
 20
129.7722310405
 30
0.0
 40
22.0
100
AcDbArc
 50
180.0
 51
194.477509
  0
ARC
  5
855
330
2
100
AcDbEntity
  8
0
100
AcDbCircle
 10
134.0018389259
 20
126.7722310405
 30
0.0
 40
2.0
100
AcDbArc
 50
188.626923
 51
270.0
  0
LINE
  5
856
330
2
100
AcDbEntity
  8
0
100
AcDbLine
 10
135.7755659259
 20
124.7722310405
 30
0.0
 11
134.0018389259
 21
124.7722310405
 31
0.0
  0
ARC
  5
857
330
2
100
AcDbEntity
  8
0
100
AcDbCircle
 10
135.7755659259
 20
122.7722310405
 30
0.0
 40
2.0
100
AcDbArc
 50
40.601295
 51
90.0
  0
ARC
  5
858
330
2
100
AcDbEntity
  8
0
100
AcDbCircle
 10
124.7755659259
 20
132.6006610405
 30
0.0
 40
2.0
100
AcDbArc
 50
315.0
 51
0.0
  0
ARC
  5
859
330
2
100
AcDbEntity
  8
0
100
AcDbCircle
 10
153.7755659259
 20
156.7722310405
 30
0.0
 40
22.0
100
AcDbArc
 50
165.522491
 51
180.0
  0
ARC
  5
85A
330
2
100
AcDbEntity
  8
0
100
AcDbCircle
 10
124.7755659259
 20
159.6006610405
 30
0.0
 40
2.0
100
AcDbArc
 50
180.0
 51
225.0
  0
LINE
  5
85B
330
2
100
AcDbEntity
  8
0
100
AcDbLine
 10
126.1897809259
 20
155.3580160405
 30
0.0
 11
123.3613509259
 21
158.1864460405
 31
0.0
  0
ARC
  5
85C
330
2
100
AcDbEntity
  8
0
100
AcDbCircle
 10
124.7755659259
 20
153.9438010405
 30
0.0
 40
2.0
100
AcDbArc
 50
0.0
 51
45.0
  0
ARC
  5
85E
330
2
100
AcDbEntity
  8
0
100
AcDbCircle
 10
127.2755659259
 20
166.7722310405
 30
0.0
 40
4.5
100
AcDbArc
 50
270.0
 51
90.0
  0
CIRCLE
  5
85F
330
2
100
AcDbEntity
  8
0
100
AcDbCircle
 10
127.2755659259
 20
166.7722310405
 30
0.0
 40
3.799999999999998
  0
LINE
  5
861
330
2
100
AcDbEntity
  8
0
100
AcDbLine
 10
125.7755659259
 20
165.8382410405
 30
0.0
 11
125.7755659259
 21
167.7061910405
 31
0.0
  0
LINE
  5
862
330
2
100
AcDbEntity
  8
0
100
AcDbLine
 10
128.7755659259
 20
165.8382410405
 30
0.0
 11
128.7755659259
 21
167.7061910405
 31
0.0
  0
CIRCLE
  5
863
330
2
100
AcDbEntity
  8
0
100
AcDbCircle
 10
127.2755659259
 20
166.7722310405
 30
0.0
 40
3.5
  0
ARC
  5
864
330
2
100
AcDbEntity
  8
0
100
AcDbCircle
 10
124.7755659259
 20
160.2722310405
 30
0.0
 40
2.0
100
AcDbArc
 50
90.0
 51
180.0
  0
LINE
  5
865
330
2
100
AcDbEntity
  8
0
100
AcDbLine
 10
124.7755659259
 20
162.2722310405
 30
0.0
 11
127.2755659259
 21
162.2722310405
 31
0.0
  0
LINE
  5
866
330
2
100
AcDbEntity
  8
0
100
AcDbLine
 10
127.2755659259
 20
164.9722130405
 30
0.0
 11
128.7755659259
 21
165.8382410405
 31
0.0
  0
LINE
  5
867
330
2
100
AcDbEntity
  8
0
100
AcDbLine
 10
127.2755659259
 20
164.9722130405
 30
0.0
 11
125.7755659259
 21
165.8382410405
 31
0.0
  0
LINE
  5
868
330
2
100
AcDbEntity
  8
0
100
AcDbLine
 10
122.2755659259
 20
168.9626910405
 30
0.0
 11
122.7755659259
 21
168.9626910405
 31
0.0
  0
LINE
  5
869
330
2
100
AcDbEntity
  8
0
100
AcDbLine
 10
124.7755659259
 20
171.2722310405
 30
0.0
 11
127.2755659259
 21
171.2722310405
 31
0.0
  0
LINE
  5
86A
330
2
100
AcDbEntity
  8
0
100
AcDbLine
 10
127.2755659259
 20
168.5722190405
 30
0.0
 11
125.7755659259
 21
167.7061910405
 31
0.0
  0
LINE
  5
86B
330
2
100
AcDbEntity
  8
0
100
AcDbLine
 10
127.2755659259
 20
168.5722190405
 30
0.0
 11
128.7755659259
 21
167.7061910405
 31
0.0
  0
ARC
  5
86C
330
2
100
AcDbEntity
  8
0
100
AcDbCircle
 10
134.4106519259
 20
161.7722310405
 30
0.0
 40
2.0
100
AcDbArc
 50
90.0
 51
165.522491
  0
ARC
  5
86D
330
2
100
AcDbEntity
  8
0
100
AcDbCircle
 10
134.0018389259
 20
159.7722310405
 30
0.0
 40
2.0
100
AcDbArc
 50
90.0
 51
171.373077
  0
LINE
  5
86E
330
2
100
AcDbEntity
  8
0
100
AcDbLine
 10
134.8556899259
 20
163.7722310405
 30
0.0
 11
134.4106519259
 21
163.7722310405
 31
0.0
  0
LINE
  5
86F
330
2
100
AcDbEntity
  8
0
100
AcDbLine
 10
135.7755659259
 20
161.7722310405
 30
0.0
 11
134.0018389259
 21
161.7722310405
 31
0.0
  0
LINE
  5
870
330
2
100
AcDbEntity
  8
0
100
AcDbLine
 10
136.6112749259
 20
161.9551990405
 30
0.0
 11
135.6914139259
 21
163.9551990405
 31
0.0
  0
ARC
  5
871
330
2
100
AcDbEntity
  8
0
100
AcDbCircle
 10
135.7755659259
 20
163.7722310405
 30
0.0
 40
2.0
100
AcDbArc
 50
270.0
 51
319.398705
  0
ARC
  5
872
330
2
100
AcDbEntity
  8
0
100
AcDbCircle
 10
134.8556899259
 20
165.7722310405
 30
0.0
 40
2.0
100
AcDbArc
 50
270.0
 51
319.398705
  0
ARC
  5
873
330
2
100
AcDbEntity
  8
0
100
AcDbCircle
 10
183.7755659259
 20
143.2722310405
 30
0.0
 40
6.0
100
AcDbArc
 50
109.471222
 51
70.528778
  0
CIRCLE
  5
874
330
2
100
AcDbEntity
  8
0
100
AcDbCircle
 10
183.7755659259
 20
143.2722310405
 30
0.0
 40
10.0
  0
CIRCLE
  5
875
330
2
100
AcDbEntity
  8
0
100
AcDbCircle
 10
183.7755659259
 20
143.2722310405
 30
0.0
 40
16.0
  0
CIRCLE
  5
876
330
2
100
AcDbEntity
  8
0
100
AcDbCircle
 10
183.7755659259
 20
143.2722310405
 30
0.0
 40
19.5
  0
LINE
  5
877
330
2
100
AcDbEntity
  8
0
100
AcDbLine
 10
181.7755659259
 20
151.0722340405
 30
0.0
 11
185.7755659259
 21
151.0722340405
 31
0.0
  0
LINE
  5
878
330
2
100
AcDbEntity
  8
0
100
AcDbLine
 10
181.7755659259
 20
151.0722340405
 30
0.0
 11
181.7755659259
 21
148.9290910405
 31
0.0
  0
LINE
  5
879
330
2
100
AcDbEntity
  8
0
100
AcDbLine
 10
185.7755659259
 20
151.0722340405
 30
0.0
 11
185.7755659259
 21
148.9290910405
 31
0.0
  0
LINE
  5
87D
330
2
100
AcDbEntity
  8
0
100
AcDbLine
 10
324.5637398238
 20
103.2609700405
 30
0.0
 11
324.5637398238
 21
183.2834934602
 31
0.0
  0
ARC
  5
87F
330
2
100
AcDbEntity
  8
0
100
AcDbCircle
 10
218.2755659259
 20
119.7722310405
 30
0.0
 40
4.5
100
AcDbArc
 50
90.0
 51
270.0
  0
CIRCLE
  5
881
330
2
100
AcDbEntity
  8
0
100
AcDbCircle
 10
218.2755659259
 20
119.7722310405
 30
0.0
 40
3.5
  0
CIRCLE
  5
882
330
2
100
AcDbEntity
  8
0
100
AcDbCircle
 10
218.2755659259
 20
119.7722310405
 30
0.0
 40
3.799999999999998
  0
ARC
  5
883
330
2
100
AcDbEntity
  8
HIDS
100
AcDbCircle
 10
352.5637398238
 20
143.2722310405
 30
0.0
 40
38.0
100
AcDbArc
 50
129.356705
 51
230.643295
  0
ARC
  5
884
330
2
100
AcDbEntity
  8
0
100
AcDbCircle
 10
215.7755659259
 20
109.7722310405
 30
0.0
 40
7.0
100
AcDbArc
 50
227.364075
 51
0.0
  0
CIRCLE
  5
886
330
2
100
AcDbEntity
  8
0
100
AcDbCircle
 10
215.7755659259
 20
109.7722310405
 30
0.0
 40
4.25
  0
LINE
  5
887
330
2
100
AcDbEntity
  8
0
100
AcDbLine
 10
220.7755659259
 20
115.2722310405
 30
0.0
 11
218.2755659259
 21
115.2722310405
 31
0.0
  0
CIRCLE
  5
889
330
2
100
AcDbEntity
  8
HOJO
100
AcDbCircle
 10
215.7755659259
 20
109.7722310405
 30
0.0
 40
4.0
  0
CIRCLE
  5
88A
330
2
100
AcDbEntity
  8
0
100
AcDbCircle
 10
215.7755659259
 20
109.7722310405
 30
0.0
 40
3.2
  0
ARC
  5
88B
330
2
100
AcDbEntity
  8
0
100
AcDbCircle
 10
220.7755659259
 20
113.2722310405
 30
0.0
 40
2.0
100
AcDbArc
 50
0.0
 51
90.0
  0
LINE
  5
88D
330
2
100
AcDbEntity
  8
0
100
AcDbLine
 10
312.0637398238
 20
105.5222310405
 30
0.0
 11
324.5637398238
 21
105.5222310405
 31
0.0
  0
LINE
  5
88E
330
2
100
AcDbEntity
  8
0
100
AcDbLine
 10
312.0637398238
 20
114.0222310405
 30
0.0
 11
324.5637398238
 21
114.0222310405
 31
0.0
  0
LINE
  5
894
330
2
100
AcDbEntity
  8
HIDS
100
AcDbLine
 10
329.5637398238
 20
107.6390900405
 30
0.0
 11
329.5637398238
 21
111.5704950405
 31
0.0
  0
ARC
  5
895
330
2
100
AcDbEntity
  8
HIDS
100
AcDbCircle
 10
331.5637398238
 20
107.6390900405
 30
0.0
 40
2.0
100
AcDbArc
 50
180.0
 51
269.0
  0
ARC
  5
89B
330
2
100
AcDbEntity
  8
HIDS
100
AcDbCircle
 10
326.5637398238
 20
111.5704950405
 30
0.0
 40
3.0
100
AcDbArc
 50
0.0
 51
50.643299
  0
LINE
  5
89C
330
2
100
AcDbEntity
  8
0
100
AcDbLine
 10
213.7755659259
 20
156.7722310405
 30
0.0
 11
213.7755659259
 21
129.7722310405
 31
0.0
  0
LINE
  5
89D
330
2
100
AcDbEntity
  8
0
100
AcDbLine
 10
218.7755659259
 20
132.6006610405
 30
0.0
 11
218.7755659259
 21
153.9438010405
 31
0.0
  0
LINE
  5
89E
330
2
100
AcDbEntity
  8
0
100
AcDbLine
 10
219.3613509259
 20
131.1864460405
 30
0.0
 11
222.1897809259
 21
128.3580160405
 31
0.0
  0
LINE
  5
89F
330
2
100
AcDbEntity
  8
0
100
AcDbLine
 10
220.7755659259
 20
124.2722310405
 30
0.0
 11
218.2755659259
 21
124.2722310405
 31
0.0
  0
ARC
  5
8A1
330
2
100
AcDbEntity
  8
0
100
AcDbCircle
 10
211.1404949259
 20
124.7722310405
 30
0.0
 40
2.0
100
AcDbArc
 50
270.0
 51
345.522491
  0
LINE
  5
8A2
330
2
100
AcDbEntity
  8
0
100
AcDbLine
 10
208.9398419259
 20
124.5892630405
 30
0.0
 11
209.8597329259
 21
122.5892630405
 31
0.0
  0
LINE
  5
8A3
330
2
100
AcDbEntity
  8
0
100
AcDbLine
 10
210.6954269259
 20
122.7722310405
 30
0.0
 11
211.1404949259
 21
122.7722310405
 31
0.0
  0
ARC
  5
8A4
330
2
100
AcDbEntity
  8
0
100
AcDbCircle
 10
210.6954269259
 20
120.7722310405
 30
0.0
 40
2.0
100
AcDbArc
 50
90.0
 51
139.398712
  0
LINE
  5
8A5
330
2
100
AcDbEntity
  8
0
100
AcDbLine
 10
218.2755659259
 20
121.5722490405
 30
0.0
 11
216.7755659259
 21
120.7062210405
 31
0.0
  0
LINE
  5
8A6
330
2
100
AcDbEntity
  8
0
100
AcDbLine
 10
218.2755659259
 20
121.5722490405
 30
0.0
 11
219.7755659259
 21
120.7062210405
 31
0.0
  0
LINE
  5
8A7
330
2
100
AcDbEntity
  8
0
100
AcDbLine
 10
218.2755659259
 20
117.9722430405
 30
0.0
 11
219.7755659259
 21
118.8382710405
 31
0.0
  0
LINE
  5
8A8
330
2
100
AcDbEntity
  8
0
100
AcDbLine
 10
218.2755659259
 20
117.9722430405
 30
0.0
 11
216.7755659259
 21
118.8382710405
 31
0.0
  0
LINE
  5
8A9
330
2
100
AcDbEntity
  8
0
100
AcDbLine
 10
219.7755659259
 20
120.7062210405
 30
0.0
 11
219.7755659259
 21
118.8382710405
 31
0.0
  0
LINE
  5
8AA
330
2
100
AcDbEntity
  8
0
100
AcDbLine
 10
216.7755659259
 20
120.7062210405
 30
0.0
 11
216.7755659259
 21
118.8382710405
 31
0.0
  0
ARC
  5
8AB
330
2
100
AcDbEntity
  8
0
100
AcDbCircle
 10
211.5492779259
 20
126.7722310405
 30
0.0
 40
2.0
100
AcDbArc
 50
270.0
 51
351.373077
  0
LINE
  5
8AC
330
2
100
AcDbEntity
  8
0
100
AcDbLine
 10
209.7755659259
 20
124.7722310405
 30
0.0
 11
211.5492779259
 21
124.7722310405
 31
0.0
  0
ARC
  5
8AD
330
2
100
AcDbEntity
  8
0
100
AcDbCircle
 10
209.7755659259
 20
122.7722310405
 30
0.0
 40
2.0
100
AcDbArc
 50
90.0
 51
139.398712
  0
ARC
  5
8AE
330
2
100
AcDbEntity
  8
0
100
AcDbCircle
 10
191.7755659259
 20
129.7722310405
 30
0.0
 40
22.0
100
AcDbArc
 50
345.522488
 51
0.0
  0
ARC
  5
8AF
330
2
100
AcDbEntity
  8
0
100
AcDbCircle
 10
220.7755659259
 20
126.2722310405
 30
0.0
 40
2.0
100
AcDbArc
 50
270.0
 51
0.0
  0
ARC
  5
8B0
330
2
100
AcDbEntity
  8
0
100
AcDbCircle
 10
220.7755659259
 20
126.9438010405
 30
0.0
 40
2.0
100
AcDbArc
 50
0.0
 51
45.0
  0
ARC
  5
8B1
330
2
100
AcDbEntity
  8
0
100
AcDbCircle
 10
220.7755659259
 20
132.6006610405
 30
0.0
 40
2.0
100
AcDbArc
 50
180.0
 51
225.0
  0
ARC
  5
8B2
330
2
100
AcDbEntity
  8
0
100
AcDbCircle
 10
191.7755659259
 20
156.7722310405
 30
0.0
 40
22.0
100
AcDbArc
 50
0.0
 51
14.477512
  0
ARC
  5
8B3
330
2
100
AcDbEntity
  8
0
100
AcDbCircle
 10
220.7755659259
 20
159.6006610405
 30
0.0
 40
2.0
100
AcDbArc
 50
315.0
 51
0.0
  0
LINE
  5
8B4
330
2
100
AcDbEntity
  8
0
100
AcDbLine
 10
219.3613509259
 20
155.3580160405
 30
0.0
 11
222.1897809259
 21
158.1864460405
 31
0.0
  0
ARC
  5
8B5
330
2
100
AcDbEntity
  8
0
100
AcDbCircle
 10
220.7755659259
 20
153.9438010405
 30
0.0
 40
2.0
100
AcDbArc
 50
135.0
 51
180.0
  0
LINE
  5
8B6
330
2
100
AcDbEntity
  8
CENTER
100
AcDbLine
 10
212.7032239259
 20
166.7722310405
 30
0.0
 11
223.8479079259
 21
166.7722310405
 31
0.0
  0
LINE
  5
8B7
330
2
100
AcDbEntity
  8
0
100
AcDbLine
 10
220.7755659259
 20
162.2722310405
 30
0.0
 11
218.2755659259
 21
162.2722310405
 31
0.0
  0
LINE
  5
8B8
330
2
100
AcDbEntity
  8
0
100
AcDbLine
 10
220.7755659259
 20
171.2722310405
 30
0.0
 11
218.2755659259
 21
171.2722310405
 31
0.0
  0
CIRCLE
  5
8B9
330
2
100
AcDbEntity
  8
0
100
AcDbCircle
 10
218.2755659259
 20
166.7722310405
 30
0.0
 40
3.5
  0
CIRCLE
  5
8BA
330
2
100
AcDbEntity
  8
0
100
AcDbCircle
 10
218.2755659259
 20
166.7722310405
 30
0.0
 40
3.799999999999998
  0
ARC
  5
8BB
330
2
100
AcDbEntity
  8
0
100
AcDbCircle
 10
218.2755659259
 20
166.7722310405
 30
0.0
 40
4.5
100
AcDbArc
 50
90.0
 51
270.0
  0
LINE
  5
8BC
330
2
100
AcDbEntity
  8
CENTER
100
AcDbLine
 10
218.2755659259
 20
161.1998890405
 30
0.0
 11
218.2755659259
 21
172.3445730405
 31
0.0
  0
LINE
  5
8BD
330
2
100
AcDbEntity
  8
0
100
AcDbLine
 10
219.7755659259
 20
165.8382410405
 30
0.0
 11
219.7755659259
 21
167.7061910405
 31
0.0
  0
LINE
  5
8BE
330
2
100
AcDbEntity
  8
0
100
AcDbLine
 10
216.7755659259
 20
165.8382410405
 30
0.0
 11
216.7755659259
 21
167.7061910405
 31
0.0
  0
ARC
  5
8BF
330
2
100
AcDbEntity
  8
0
100
AcDbCircle
 10
211.1404949259
 20
161.7722310405
 30
0.0
 40
2.0
100
AcDbArc
 50
14.477512
 51
90.0
  0
ARC
  5
8C0
330
2
100
AcDbEntity
  8
0
100
AcDbCircle
 10
211.5492779259
 20
159.7722310405
 30
0.0
 40
2.0
100
AcDbArc
 50
8.626927
 51
90.0
  0
LINE
  5
8C1
330
2
100
AcDbEntity
  8
0
100
AcDbLine
 10
210.6954269259
 20
163.7722310405
 30
0.0
 11
211.1404949259
 21
163.7722310405
 31
0.0
  0
LINE
  5
8C2
330
2
100
AcDbEntity
  8
0
100
AcDbLine
 10
209.7755659259
 20
161.7722310405
 30
0.0
 11
211.5492779259
 21
161.7722310405
 31
0.0
  0
LINE
  5
8C3
330
2
100
AcDbEntity
  8
0
100
AcDbLine
 10
208.9398419259
 20
161.9551990405
 30
0.0
 11
209.8597329259
 21
163.9551990405
 31
0.0
  0
ARC
  5
8C4
330
2
100
AcDbEntity
  8
0
100
AcDbCircle
 10
209.7755659259
 20
163.7722310405
 30
0.0
 40
2.0
100
AcDbArc
 50
220.601288
 51
270.0
  0
ARC
  5
8C5
330
2
100
AcDbEntity
  8
0
100
AcDbCircle
 10
210.6954269259
 20
165.7722310405
 30
0.0
 40
2.0
100
AcDbArc
 50
220.601288
 51
270.0
  0
LINE
  5
8C6
330
2
100
AcDbEntity
  8
0
100
AcDbLine
 10
218.2755659259
 20
164.9722130405
 30
0.0
 11
216.7755659259
 21
165.8382410405
 31
0.0
  0
LINE
  5
8C7
330
2
100
AcDbEntity
  8
0
100
AcDbLine
 10
218.2755659259
 20
164.9722130405
 30
0.0
 11
219.7755659259
 21
165.8382410405
 31
0.0
  0
LINE
  5
8C8
330
2
100
AcDbEntity
  8
0
100
AcDbLine
 10
218.2755659259
 20
168.5722190405
 30
0.0
 11
219.7755659259
 21
167.7061910405
 31
0.0
  0
LINE
  5
8C9
330
2
100
AcDbEntity
  8
0
100
AcDbLine
 10
218.2755659259
 20
168.5722190405
 30
0.0
 11
216.7755659259
 21
167.7061910405
 31
0.0
  0
ARC
  5
8CA
330
2
100
AcDbEntity
  8
0
100
AcDbCircle
 10
220.7755659259
 20
160.2722310405
 30
0.0
 40
2.0
100
AcDbArc
 50
0.0
 51
90.0
  0
LINE
  5
8CB
330
2
100
AcDbEntity
  8
PHAS
  6
sekkei_P_S
100
AcDbLine
 10
301.5637398238
 20
156.2483360405
 30
0.0
 11
301.5637398238
 21
130.3592060405
 31
0.0
  0
ARC
  5
8D2
330
2
100
AcDbEntity
  8
PHAS
  6
sekkei_P_S
100
AcDbCircle
 10
304.5637398238
 20
130.2961260405
 30
0.0
 40
3.0
100
AcDbArc
 50
180.0
 51
255.0
  0
LINE
  5
8DE
330
2
100
AcDbEntity
  8
PHAS
  6
sekkei_P_S
100
AcDbLine
 10
303.7872808238
 20
127.3983450405
 30
0.0
 11
312.0637398238
 21
125.1806745317
 31
0.0
  0
ARC
  5
8ED
330
2
100
AcDbEntity
  8
PHAS
  6
sekkei_P_S
100
AcDbCircle
 10
304.5637398238
 20
156.2483360405
 30
0.0
 40
3.0
100
AcDbArc
 50
105.0
 51
180.0
  0
LINE
  5
8EE
330
2
100
AcDbEntity
  8
PHAS
  6
sekkei_P_S
100
AcDbLine
 10
303.7872808238
 20
159.1461170405
 30
0.0
 11
312.0637398238
 21
161.3637875492
 31
0.0
  0
LINE
  5
8FC
330
2
100
AcDbEntity
  8
HIDS
  6
sekkei_H
100
AcDbLine
 10
312.0637398238
 20
172.5222310405
 30
0.0
 11
324.5637398238
 21
172.5222310405
 31
0.0
  0
LINE
  5
918
330
2
100
AcDbEntity
  8
0
100
AcDbLine
 10
49.7200619259
 20
173.5211930405
 30
0.0
 11
122.7755659259
 21
173.5211930405
 31
0.0
  0
LINE
  5
919
330
2
100
AcDbEntity
  8
0
100
AcDbLine
 10
49.7200619259
 20
181.2722310405
 30
0.0
 11
121.4168169259
 21
181.2722310405
 31
0.0
  0
LINE
  5
91A
330
2
100
AcDbEntity
  8
0
100
AcDbLine
 10
49.4200589259
 20
195.1472310405
 30
0.0
 11
49.4200589259
 21
182.7722310405
 31
0.0
  0
LINE
  5
91B
330
2
100
AcDbEntity
  8
0
100
AcDbLine
 10
44.0200649259
 20
194.3347310405
 30
0.0
 11
44.0200649259
 21
182.7722310405
 31
0.0
  0
LINE
  5
91C
330
2
100
AcDbEntity
  8
0
100
AcDbLine
 10
45.8200609259
 20
196.3972310405
 30
0.0
 11
45.8200609259
 21
182.7722310405
 31
0.0
  0
LINE
  5
91D
330
2
100
AcDbEntity
  8
0
100
AcDbLine
 10
47.6200639259
 20
195.7722310405
 30
0.0
 11
47.6200639259
 21
182.7722310405
 31
0.0
  0
LINE
  5
91E
330
2
100
AcDbEntity
  8
0
100
AcDbLine
 10
31.3016589259
 20
173.5212240405
 30
0.0
 11
49.7200619259
 21
173.5212240405
 31
0.0
  0
LINE
  5
91F
330
2
100
AcDbEntity
  8
0
100
AcDbLine
 10
33.1841579259
 20
181.2722310405
 30
0.0
 11
49.7200619259
 21
181.2722310405
 31
0.0
  0
ARC
  5
920
330
2
100
AcDbEntity
  8
0
100
AcDbCircle
 10
33.1841579259
 20
178.2722460405
 30
0.0
 40
3.0
100
AcDbArc
 50
90.0
 51
150.000397
  0
LINE
  5
921
330
2
100
AcDbEntity
  8
0
100
AcDbLine
 10
30.5860589259
 20
179.7722160405
 30
0.0
 11
29.7200619259
 21
178.2722310405
 31
0.0
  0
LINE
  5
922
330
2
100
AcDbEntity
  8
0
100
AcDbLine
 10
29.2200619259
 20
175.2722310405
 30
0.0
 11
29.7200619259
 21
175.7722310405
 31
0.0
  0
LINE
  5
923
330
2
100
AcDbEntity
  8
0
100
AcDbLine
 10
43.2200619259
 20
182.7722310405
 30
0.0
 11
50.2200619259
 21
182.7722310405
 31
0.0
  0
LINE
  5
924
330
2
100
AcDbEntity
  8
0
100
AcDbLine
 10
43.2200619259
 20
182.7722310405
 30
0.0
 11
43.2200619259
 21
181.2722310405
 31
0.0
  0
LINE
  5
925
330
2
100
AcDbEntity
  8
0
100
AcDbLine
 10
49.7200619259
 20
181.2722310405
 30
0.0
 11
50.2200619259
 21
181.2722310405
 31
0.0
  0
LINE
  5
926
330
2
100
AcDbEntity
  8
0
100
AcDbLine
 10
50.2200619259
 20
182.7722310405
 30
0.0
 11
50.2200619259
 21
181.2722310405
 31
0.0
  0
LINE
  5
927
330
2
100
AcDbEntity
  8
HOJO
100
AcDbLine
 10
49.4200589259
 20
195.1472310405
 30
0.0
 11
47.6210709259
 21
194.6995230405
 31
0.0
  0
LINE
  5
928
330
2
100
AcDbEntity
  8
HOJO
100
AcDbLine
 10
44.0200649259
 20
194.3347310405
 30
0.0
 11
45.8200609259
 21
194.9597310405
 31
0.0
  0
LINE
  5
929
330
2
100
AcDbEntity
  8
HOJO
100
AcDbLine
 10
45.8200609259
 20
196.3972310405
 30
0.0
 11
47.6200639259
 21
195.7722310405
 31
0.0
  0
ARC
  5
92A
330
2
100
AcDbEntity
  8
0
100
AcDbCircle
 10
206.9701769259
 20
186.3359670405
 30
0.0
 40
6.0
100
AcDbArc
 50
239.641701
 51
312.635933
  0
LINE
  5
92B
330
2
100
AcDbEntity
  8
0
100
AcDbLine
 10
129.7755659259
 20
183.7722310405
 30
0.0
 11
215.7755659259
 21
183.7722310405
 31
0.0
  0
ARC
  5
92C
330
2
100
AcDbEntity
  8
0
100
AcDbCircle
 10
146.7755659259
 20
175.5072320405
 30
0.0
 40
2.0
100
AcDbArc
 50
110.487312
 51
180.0
  0
LINE
  5
92D
330
2
100
AcDbEntity
  8
0
100
AcDbLine
 10
146.6513289259
 20
173.5783380405
 30
0.0
 11
144.6513289259
 21
174.3181900405
 31
0.0
  0
ARC
  5
92E
330
2
100
AcDbEntity
  8
0
100
AcDbCircle
 10
149.1762309259
 20
173.7722310405
 30
0.0
 40
10.0
100
AcDbArc
 50
90.0
 51
112.331642
  0
CIRCLE
  5
92F
330
2
100
AcDbEntity
  8
0
100
AcDbCircle
 10
129.7755659259
 20
176.7722310405
 30
0.0
 40
3.2
  0
ARC
  5
930
330
2
100
AcDbEntity
  8
0
100
AcDbCircle
 10
129.7755659259
 20
176.7722310405
 30
0.0
 40
7.0
100
AcDbArc
 50
47.364067
 51
180.0
  0
LINE
  5
932
330
2
100
AcDbEntity
  8
0
100
AcDbLine
 10
122.1119459259
 20
181.3969260405
 30
0.0
 11
127.3425829259
 21
183.3358140405
 31
0.0
  0
ARC
  5
933
330
2
100
AcDbEntity
  8
0
100
AcDbCircle
 10
121.4168169259
 20
183.2722310405
 30
0.0
 40
2.0
100
AcDbArc
 50
270.0
 51
290.33873
  0
ARC
  5
934
330
2
100
AcDbEntity
  8
0
100
AcDbCircle
 10
138.5809549259
 20
186.3359670405
 30
0.0
 40
6.0
100
AcDbArc
 50
227.364075
 51
300.358303
  0
ARC
  5
935
330
2
100
AcDbEntity
  8
0
100
AcDbCircle
 10
142.7755659259
 20
175.0120840405
 30
0.0
 40
2.0
100
AcDbArc
 50
319.398705
 51
0.0
  0
LINE
  5
936
330
2
100
AcDbEntity
  8
0
100
AcDbLine
 10
144.7755659259
 20
175.0120840405
 30
0.0
 11
144.7755659259
 21
175.5072320405
 31
0.0
  0
ARC
  5
937
330
2
100
AcDbEntity
  8
0
100
AcDbCircle
 10
156.7755659259
 20
155.2722310405
 30
0.0
 40
30.0
100
AcDbArc
 50
112.331642
 51
120.358299
  0
LINE
  5
938
330
2
100
AcDbEntity
  8
0
100
AcDbLine
 10
191.7755659259
 20
178.7722310405
 30
0.0
 11
153.7755659259
 21
178.7722310405
 31
0.0
  0
ARC
  5
939
330
2
100
AcDbEntity
  8
0
100
AcDbCircle
 10
153.7755659259
 20
156.7722310405
 30
0.0
 40
22.0
100
AcDbArc
 50
90.0
 51
110.487312
  0
ARC
  5
93A
330
2
100
AcDbEntity
  8
0
100
AcDbCircle
 10
148.7755659259
 20
176.1371450405
 30
0.0
 40
2.0
100
AcDbArc
 50
104.477509
 51
180.0
  0
LINE
  5
93B
330
2
100
AcDbEntity
  8
0
100
AcDbLine
 10
146.7755659259
 20
174.2722310405
 30
0.0
 11
146.7755659259
 21
176.1371450405
 31
0.0
  0
ARC
  5
93C
330
2
100
AcDbEntity
  8
0
100
AcDbCircle
 10
196.7755659259
 20
176.1371450405
 30
0.0
 40
2.0
100
AcDbArc
 50
0.0
 51
75.522491
  0
ARC
  5
93D
330
2
100
AcDbEntity
  8
0
100
AcDbCircle
 10
191.7755659259
 20
156.7722310405
 30
0.0
 40
22.0
100
AcDbArc
 50
69.512688
 51
90.0
  0
ARC
  5
93E
330
2
100
AcDbEntity
  8
0
100
AcDbCircle
 10
198.7755659259
 20
175.5072320405
 30
0.0
 40
2.0
100
AcDbArc
 50
0.0
 51
69.512688
  0
LINE
  5
93F
330
2
100
AcDbEntity
  8
0
100
AcDbLine
 10
198.8998029259
 20
173.5783380405
 30
0.0
 11
200.8998029259
 21
174.3181900405
 31
0.0
  0
ARC
  5
940
330
2
100
AcDbEntity
  8
0
100
AcDbCircle
 10
202.7755659259
 20
175.0120840405
 30
0.0
 40
2.0
100
AcDbArc
 50
180.0
 51
220.601288
  0
LINE
  5
941
330
2
100
AcDbEntity
  8
0
100
AcDbLine
 10
198.7755659259
 20
174.2722310405
 30
0.0
 11
198.7755659259
 21
176.1371450405
 31
0.0
  0
LINE
  5
942
330
2
100
AcDbEntity
  8
0
100
AcDbLine
 10
200.7755659259
 20
175.0120840405
 30
0.0
 11
200.7755659259
 21
175.5072320405
 31
0.0
  0
ARC
  5
943
330
2
100
AcDbEntity
  8
0
100
AcDbCircle
 10
196.3749009259
 20
173.7722310405
 30
0.0
 40
10.0
100
AcDbArc
 50
67.668358
 51
90.0
  0
ARC
  5
944
330
2
100
AcDbEntity
  8
0
100
AcDbCircle
 10
188.7755659259
 20
155.2722310405
 30
0.0
 40
30.0
100
AcDbArc
 50
59.641697
 51
67.668358
  0
ARC
  5
945
330
2
100
AcDbEntity
  8
0
100
AcDbCircle
 10
215.7755659259
 20
176.7722310405
 30
0.0
 40
7.0
100
AcDbArc
 50
0.0
 51
132.635925
  0
LINE
  5
946
330
2
100
AcDbEntity
  8
CENTER
100
AcDbLine
 10
223.7542039259
 20
176.7722310405
 30
0.0
 11
207.7969279259
 21
176.7722310405
 31
0.0
  0
CIRCLE
  5
947
330
2
100
AcDbEntity
  8
0
100
AcDbCircle
 10
215.7755659259
 20
176.7722310405
 30
0.0
 40
3.2
  0
LINE
  5
948
330
2
100
AcDbEntity
  8
HIDS
  6
sekkei_H
100
AcDbLine
 10
312.0637398238
 20
181.0222310405
 30
0.0
 11
324.5637398238
 21
181.0222310405
 31
0.0
  0
ARC
  5
949
330
2
100
AcDbEntity
  8
HIDS
100
AcDbCircle
 10
331.5637398238
 20
178.9053640405
 30
0.0
 40
2.0
100
AcDbArc
 50
91.0
 51
180.0
  0
LINE
  5
94A
330
2
100
AcDbEntity
  8
HIDS
100
AcDbLine
 10
329.5637398238
 20
178.9053640405
 30
0.0
 11
329.5637398238
 21
174.9739670405
 31
0.0
  0
CIRCLE
  5
94B
330
2
100
AcDbEntity
  8
HOJO
100
AcDbCircle
 10
633.4465097754
 20
176.7722310405
 30
0.0
 40
4.0
  0
CIRCLE
  5
94C
330
2
100
AcDbEntity
  8
HOJO
100
AcDbCircle
 10
547.4465097754
 20
176.7722310405
 30
0.0
 40
4.0
  0
LINE
  5
94D
330
2
100
AcDbEntity
  8
HIDS
100
AcDbLine
 10
360.5637398238
 20
180.7722310405
 30
0.0
 11
360.5637398238
 21
172.7722310405
 31
0.0
  0
LINE
  5
94E
330
2
100
AcDbEntity
  8
HIDS
100
AcDbLine
 10
344.5637398238
 20
180.7722310405
 30
0.0
 11
344.5637398238
 21
172.7722310405
 31
0.0
  0
LINE
  5
94F
330
2
100
AcDbEntity
  8
0
100
AcDbLine
 10
733.5019907754
 20
178.2722310405
 30
0.0
 11
733.5019907754
 21
108.2722310405
 31
0.0
  0
LINE
  5
950
330
2
100
AcDbEntity
  8
0
100
AcDbLine
 10
734.0019907754
 20
175.2722310405
 30
0.0
 11
734.0019907754
 21
111.2722310405
 31
0.0
  0
LINE
  5
951
330
2
100
AcDbEntity
  8
0
100
AcDbLine
 10
713.5019907754
 20
181.2722310405
 30
0.0
 11
713.5019907754
 21
105.2722310405
 31
0.0
  0
ARC
  5
952
330
2
100
AcDbEntity
  8
0
100
AcDbCircle
 10
618.4465097754
 20
174.2722310405
 30
0.0
 40
2.0
100
AcDbArc
 50
180.0
 51
220.601288
  0
LINE
  5
953
330
2
100
AcDbEntity
  8
0
100
AcDbLine
 10
626.8478767754
 20
164.4706410405
 30
0.0
 11
618.9280157754
 21
173.7104940405
 31
0.0
  0
ARC
  5
954
330
2
100
AcDbEntity
  8
0
100
AcDbCircle
 10
562.4465097754
 20
174.2722310405
 30
0.0
 40
2.0
100
AcDbArc
 50
319.398705
 51
0.0
  0
LINE
  5
955
330
2
100
AcDbEntity
  8
0
100
AcDbLine
 10
554.0451427754
 20
164.4706410405
 30
0.0
 11
561.9650037754
 21
173.7104940405
 31
0.0
  0
LINE
  5
957
330
2
100
AcDbEntity
  8
0
100
AcDbLine
 10
540.4465097754
 20
109.7722310405
 30
0.0
 11
540.4465097754
 21
176.7722310405
 31
0.0
  0
LINE
  5
959
330
2
100
AcDbEntity
  8
0
100
AcDbLine
 10
640.4465097754
 20
176.7722310405
 30
0.0
 11
640.4465097754
 21
159.6006610405
 31
0.0
  0
LINE
  5
95A
330
2
100
AcDbEntity
  8
CENTER
100
AcDbLine
 10
579.4465097754
 20
113.1653580405
 30
0.0
 11
579.4465097754
 21
173.3791040405
 31
0.0
  0
ARC
  5
95B
330
2
100
AcDbEntity
  8
HIDS
100
AcDbCircle
 10
378.5637398238
 20
174.9739670405
 30
0.0
 40
3.0
100
AcDbArc
 50
180.0
 51
230.643295
  0
LINE
  5
95C
330
2
100
AcDbEntity
  8
0
100
AcDbLine
 10
393.0637398238
 20
183.0653070405
 30
0.0
 11
393.0637398238
 21
103.4791630405
 31
0.0
  0
LINE
  5
95D
330
2
100
AcDbEntity
  8
CENTER
100
AcDbLine
 10
352.5637398238
 20
190.8203570405
 30
0.0
 11
352.5637398238
 21
95.7241050405
 31
0.0
  0
CIRCLE
  5
95E
330
2
100
AcDbEntity
  8
0
100
AcDbCircle
 10
579.4465097754
 20
143.2722310405
 30
0.0
 40
25.002001
  0
CIRCLE
  5
95F
330
2
100
AcDbEntity
  8
0
100
AcDbCircle
 10
579.4465097754
 20
143.2722310405
 30
0.0
 40
23.0
  0
CIRCLE
  5
960
330
2
100
AcDbEntity
  8
0
100
AcDbCircle
 10
579.4465097754
 20
143.2722310405
 30
0.0
 40
19.5
  0
LINE
  5
961
330
2
100
AcDbEntity
  8
0
100
AcDbLine
 10
571.4465097754
 20
107.7722310405
 30
0.0
 11
609.4465097754
 21
107.7722310405
 31
0.0
  0
LINE
  5
962
330
2
100
AcDbEntity
  8
0
100
AcDbLine
 10
633.4465097754
 20
102.7722310405
 30
0.0
 11
547.4465097754
 21
102.7722310405
 31
0.0
  0
LINE
  5
963
330
2
100
AcDbEntity
  8
CENTER
100
AcDbLine
 10
532.9057387754
 20
143.2722310405
 30
0.0
 11
742.5225207437
 21
143.2722310405
 31
0.0
  0
ARC
  5
966
330
2
100
AcDbEntity
  8
HIDS
100
AcDbCircle
 10
352.5637398238
 20
143.2722310405
 30
0.0
 40
38.0
100
AcDbArc
 50
309.356701
 51
50.643299
  0
LINE
  5
969
330
2
100
AcDbEntity
  8
HOJO
100
AcDbLine
 10
360.5637398238
 20
105.7722310405
 30
0.0
 11
393.0637398238
 21
105.7722310405
 31
0.0
  0
LINE
  5
96A
330
2
100
AcDbEntity
  8
HOJO
100
AcDbLine
 10
360.5637398238
 20
113.7722310405
 30
0.0
 11
393.0637398238
 21
113.7722310405
 31
0.0
  0
LINE
  5
96B
330
2
100
AcDbEntity
  8
0
100
AcDbLine
 10
352.5637398238
 20
102.7722310405
 30
0.0
 11
393.0637398238
 21
103.4791630405
 31
0.0
  0
LINE
  5
96D
330
2
100
AcDbEntity
  8
HIDS
100
AcDbLine
 10
373.5986518238
 20
105.6393960405
 30
0.0
 11
352.5637398238
 21
105.2722310405
 31
0.0
  0
LINE
  5
96F
330
2
100
AcDbEntity
  8
HOJO
100
AcDbLine
 10
344.5637398238
 20
113.7722310405
 30
0.0
 11
344.5637398238
 21
105.7722310405
 31
0.0
  0
LINE
  5
972
330
2
100
AcDbEntity
  8
HOJO
100
AcDbLine
 10
360.5637398238
 20
113.7722310405
 30
0.0
 11
360.5637398238
 21
105.7722310405
 31
0.0
  0
LINE
  5
977
330
2
100
AcDbEntity
  8
HIDS
100
AcDbLine
 10
375.5637398238
 20
107.6390900405
 30
0.0
 11
375.5637398238
 21
111.5704950405
 31
0.0
  0
ARC
  5
978
330
2
100
AcDbEntity
  8
HIDS
100
AcDbCircle
 10
373.5637398238
 20
107.6390900405
 30
0.0
 40
2.0
100
AcDbArc
 50
271.0
 51
0.0
  0
ARC
  5
97B
330
2
100
AcDbEntity
  8
HIDS
100
AcDbCircle
 10
378.5637398238
 20
111.5704950405
 30
0.0
 40
3.0
100
AcDbArc
 50
129.356705
 51
180.0
  0
LINE
  5
983
330
2
100
AcDbEntity
  8
HIDS
100
AcDbLine
 10
360.5637398238
 20
172.7722310405
 30
0.0
 11
393.0637398238
 21
172.7722310405
 31
0.0
  0
LINE
  5
984
330
2
100
AcDbEntity
  8
PHAS
  6
sekkei_P_S
100
AcDbLine
 10
401.3401988238
 20
159.1461170405
 30
0.0
 11
393.0637398238
 21
161.3637875492
 31
0.0
  0
LINE
  5
985
330
2
100
AcDbEntity
  8
PHAS
  6
sekkei_P_S
100
AcDbLine
 10
401.3401988238
 20
127.3983450405
 30
0.0
 11
393.0637398238
 21
125.1806745317
 31
0.0
  0
LINE
  5
9F1
330
2
100
AcDbEntity
  8
PHAS
  6
sekkei_P_S
100
AcDbLine
 10
403.5637398238
 20
156.2483360405
 30
0.0
 11
403.5637398238
 21
130.3592060405
 31
0.0
  0
ARC
  5
9F2
330
2
100
AcDbEntity
  8
PHAS
  6
sekkei_P_S
100
AcDbCircle
 10
400.5637398238
 20
130.2961260405
 30
0.0
 40
3.0
100
AcDbArc
 50
285.0
 51
0.0
  0
ARC
  5
9F3
330
2
100
AcDbEntity
  8
PHAS
  6
sekkei_P_S
100
AcDbCircle
 10
400.5637398238
 20
156.2483360405
 30
0.0
 40
3.0
100
AcDbArc
 50
0.0
 51
75.0
  0
LINE
  5
9F4
330
2
100
AcDbEntity
  8
0
100
AcDbLine
 10
554.9650037754
 20
124.0738210405
 30
0.0
 11
563.9650037754
 21
113.5738130405
 31
0.0
  0
LINE
  5
9F5
330
2
100
AcDbEntity
  8
0
100
AcDbLine
 10
554.0451427754
 20
122.0738210405
 30
0.0
 11
561.9650037754
 21
112.8339680405
 31
0.0
  0
ARC
  5
9F6
330
2
100
AcDbEntity
  8
0
100
AcDbCircle
 10
571.4465097754
 20
129.7722310405
 30
0.0
 40
22.0
100
AcDbArc
 50
249.512688
 51
270.0
  0
ARC
  5
9F7
330
2
100
AcDbEntity
  8
0
100
AcDbCircle
 10
566.8471447754
 20
112.7722310405
 30
0.0
 40
10.0
100
AcDbArc
 50
247.66835
 51
270.0
  0
ARC
  5
9F8
330
2
100
AcDbEntity
  8
0
100
AcDbCircle
 10
547.4465097754
 20
109.7722310405
 30
0.0
 40
7.0
100
AcDbArc
 50
180.0
 51
312.635925
  0
ARC
  5
9FA
330
2
100
AcDbEntity
  8
0
100
AcDbCircle
 10
556.2518687754
 20
100.2084870405
 30
0.0
 40
6.0
100
AcDbArc
 50
59.641697
 51
132.635925
  0
CIRCLE
  5
9FC
330
2
100
AcDbEntity
  8
HOJO
100
AcDbCircle
 10
547.4465097754
 20
109.7722310405
 30
0.0
 40
4.0
  0
CIRCLE
  5
9FD
330
2
100
AcDbEntity
  8
0
100
AcDbCircle
 10
547.4465097754
 20
109.7722310405
 30
0.0
 40
3.2
  0
ARC
  5
9FE
330
2
100
AcDbEntity
  8
0
100
AcDbCircle
 10
564.4465097754
 20
111.0372380405
 30
0.0
 40
2.0
100
AcDbArc
 50
180.0
 51
249.51268
  0
ARC
  5
9FF
330
2
100
AcDbEntity
  8
0
100
AcDbCircle
 10
566.4465097754
 20
110.4073170405
 30
0.0
 40
2.0
100
AcDbArc
 50
180.0
 51
255.522491
  0
ARC
  5
A00
330
2
100
AcDbEntity
  8
0
100
AcDbCircle
 10
574.4465097754
 20
131.2722310405
 30
0.0
 40
30.0
100
AcDbArc
 50
239.641693
 51
247.66835
  0
LINE
  5
A01
330
2
100
AcDbEntity
  8
0
100
AcDbLine
 10
564.3223027754
 20
112.9661240405
 30
0.0
 11
562.3223027754
 21
112.2262720405
 31
0.0
  0
ARC
  5
A02
330
2
100
AcDbEntity
  8
0
100
AcDbCircle
 10
560.4465097754
 20
111.5323860405
 30
0.0
 40
2.0
100
AcDbArc
 50
0.0
 51
40.601295
  0
ARC
  5
A03
330
2
100
AcDbEntity
  8
0
100
AcDbCircle
 10
562.4465097754
 20
112.2722310405
 30
0.0
 40
2.0
100
AcDbArc
 50
0.0
 51
40.601295
  0
LINE
  5
A04
330
2
100
AcDbEntity
  8
0
100
AcDbLine
 10
564.4465097754
 20
112.2722310405
 30
0.0
 11
564.4465097754
 21
110.4073170405
 31
0.0
  0
LINE
  5
A05
330
2
100
AcDbEntity
  8
0
100
AcDbLine
 10
562.4465097754
 20
111.5323860405
 30
0.0
 11
562.4465097754
 21
111.0372380405
 31
0.0
  0
ARC
  5
A06
330
2
100
AcDbEntity
  8
0
100
AcDbCircle
 10
579.4465097754
 20
143.2722310405
 30
0.0
 40
6.0
100
AcDbArc
 50
109.471222
 51
70.528778
  0
CIRCLE
  5
A07
330
2
100
AcDbEntity
  8
0
100
AcDbCircle
 10
579.4465097754
 20
143.2722310405
 30
0.0
 40
10.0
  0
CIRCLE
  5
A08
330
2
100
AcDbEntity
  8
0
100
AcDbCircle
 10
579.4465097754
 20
143.2722310405
 30
0.0
 40
16.0
  0
LINE
  5
A09
330
2
100
AcDbEntity
  8
0
100
AcDbLine
 10
549.4465097754
 20
156.7722310405
 30
0.0
 11
549.4465097754
 21
129.7722310405
 31
0.0
  0
LINE
  5
A0A
330
2
100
AcDbEntity
  8
0
100
AcDbLine
 10
544.4465097754
 20
132.6006610405
 30
0.0
 11
544.4465097754
 21
153.9438010405
 31
0.0
  0
LINE
  5
A0B
330
2
100
AcDbEntity
  8
0
100
AcDbLine
 10
543.8606947754
 20
131.1864460405
 30
0.0
 11
541.0323247754
 21
128.3580160405
 31
0.0
  0
LINE
  5
A0C
330
2
100
AcDbEntity
  8
0
100
AcDbLine
 10
553.4465097754
 20
124.7722310405
 30
0.0
 11
551.6727667754
 21
124.7722310405
 31
0.0
  0
ARC
  5
A0D
330
2
100
AcDbEntity
  8
0
100
AcDbCircle
 10
552.5266487754
 20
120.7722310405
 30
0.0
 40
2.0
100
AcDbArc
 50
40.601295
 51
90.0
  0
ARC
  5
A0E
330
2
100
AcDbEntity
  8
0
100
AcDbCircle
 10
552.0815807754
 20
124.7722310405
 30
0.0
 40
2.0
100
AcDbArc
 50
194.477509
 51
270.0
  0
LINE
  5
A0F
330
2
100
AcDbEntity
  8
0
100
AcDbLine
 10
552.5266487754
 20
122.7722310405
 30
0.0
 11
552.0815807754
 21
122.7722310405
 31
0.0
  0
ARC
  5
A10
330
2
100
AcDbEntity
  8
0
100
AcDbCircle
 10
542.4465097754
 20
126.9438010405
 30
0.0
 40
2.0
100
AcDbArc
 50
135.0
 51
180.0
  0
ARC
  5
A11
330
2
100
AcDbEntity
  8
0
100
AcDbCircle
 10
571.4465097754
 20
129.7722310405
 30
0.0
 40
22.0
100
AcDbArc
 50
180.0
 51
194.477509
  0
ARC
  5
A12
330
2
100
AcDbEntity
  8
0
100
AcDbCircle
 10
551.6727667754
 20
126.7722310405
 30
0.0
 40
2.0
100
AcDbArc
 50
188.626923
 51
270.0
  0
LINE
  5
A13
330
2
100
AcDbEntity
  8
0
100
AcDbLine
 10
554.2822027754
 20
124.5892630405
 30
0.0
 11
553.3623427754
 21
122.5892630405
 31
0.0
  0
ARC
  5
A14
330
2
100
AcDbEntity
  8
0
100
AcDbCircle
 10
553.4465097754
 20
122.7722310405
 30
0.0
 40
2.0
100
AcDbArc
 50
40.601295
 51
90.0
  0
ARC
  5
A15
330
2
100
AcDbEntity
  8
0
100
AcDbCircle
 10
542.4465097754
 20
132.6006610405
 30
0.0
 40
2.0
100
AcDbArc
 50
315.0
 51
0.0
  0
ARC
  5
A16
330
2
100
AcDbEntity
  8
0
100
AcDbCircle
 10
571.4465097754
 20
156.7722310405
 30
0.0
 40
22.0
100
AcDbArc
 50
165.522491
 51
180.0
  0
ARC
  5
A17
330
2
100
AcDbEntity
  8
0
100
AcDbCircle
 10
542.4465097754
 20
159.6006610405
 30
0.0
 40
2.0
100
AcDbArc
 50
180.0
 51
225.0
  0
ARC
  5
A18
330
2
100
AcDbEntity
  8
0
100
AcDbCircle
 10
542.4465097754
 20
153.9438010405
 30
0.0
 40
2.0
100
AcDbArc
 50
0.0
 51
45.0
  0
LINE
  5
A19
330
2
100
AcDbEntity
  8
0
100
AcDbLine
 10
543.8606947754
 20
155.3580160405
 30
0.0
 11
541.0323247754
 21
158.1864460405
 31
0.0
  0
LINE
  5
A1A
330
2
100
AcDbEntity
  8
0
100
AcDbLine
 10
553.4465097754
 20
161.7722310405
 30
0.0
 11
551.6727667754
 21
161.7722310405
 31
0.0
  0
ARC
  5
A1B
330
2
100
AcDbEntity
  8
0
100
AcDbCircle
 10
552.5266487754
 20
165.7722310405
 30
0.0
 40
2.0
100
AcDbArc
 50
270.0
 51
319.398705
  0
ARC
  5
A1C
330
2
100
AcDbEntity
  8
0
100
AcDbCircle
 10
552.0815807754
 20
161.7722310405
 30
0.0
 40
2.0
100
AcDbArc
 50
90.0
 51
165.522491
  0
ARC
  5
A1D
330
2
100
AcDbEntity
  8
0
100
AcDbCircle
 10
551.6727667754
 20
159.7722310405
 30
0.0
 40
2.0
100
AcDbArc
 50
90.0
 51
171.373077
  0
LINE
  5
A1E
330
2
100
AcDbEntity
  8
0
100
AcDbLine
 10
552.5266487754
 20
163.7722310405
 30
0.0
 11
552.0815807754
 21
163.7722310405
 31
0.0
  0
LINE
  5
A1F
330
2
100
AcDbEntity
  8
0
100
AcDbLine
 10
554.9650037754
 20
162.4706410405
 30
0.0
 11
563.9650037754
 21
172.9706410405
 31
0.0
  0
LINE
  5
A20
330
2
100
AcDbEntity
  8
0
100
AcDbLine
 10
554.2822027754
 20
161.9551990405
 30
0.0
 11
553.3623427754
 21
163.9551990405
 31
0.0
  0
ARC
  5
A21
330
2
100
AcDbEntity
  8
0
100
AcDbCircle
 10
553.4465097754
 20
163.7722310405
 30
0.0
 40
2.0
100
AcDbArc
 50
270.0
 51
319.398705
  0
LINE
  5
A22
330
2
100
AcDbEntity
  8
0
100
AcDbLine
 10
581.4465097754
 20
151.0722340405
 30
0.0
 11
581.4465097754
 21
148.9290910405
 31
0.0
  0
LINE
  5
A23
330
2
100
AcDbEntity
  8
0
100
AcDbLine
 10
577.4465097754
 20
151.0722340405
 30
0.0
 11
577.4465097754
 21
148.9290910405
 31
0.0
  0
LINE
  5
A24
330
2
100
AcDbEntity
  8
0
100
AcDbLine
 10
577.4465097754
 20
151.0722340405
 30
0.0
 11
581.4465097754
 21
151.0722340405
 31
0.0
  0
LINE
  5
A25
330
2
100
AcDbEntity
  8
0
100
AcDbLine
 10
731.9203867754
 20
113.0232300405
 30
0.0
 11
713.5019907754
 21
113.0232300405
 31
0.0
  0
LINE
  5
A26
330
2
100
AcDbEntity
  8
0
100
AcDbLine
 10
730.0379407754
 20
105.2722310405
 30
0.0
 11
713.5019907754
 21
105.2722310405
 31
0.0
  0
LINE
  5
A27
330
2
100
AcDbEntity
  8
0
100
AcDbLine
 10
625.9280157754
 20
124.0738210405
 30
0.0
 11
616.9280157754
 21
113.5738130405
 31
0.0
  0
LINE
  5
A28
330
2
100
AcDbEntity
  8
0
100
AcDbLine
 10
626.8478767754
 20
122.0738210405
 30
0.0
 11
618.9280157754
 21
112.8339680405
 31
0.0
  0
LINE
  5
A29
330
2
100
AcDbEntity
  8
0
100
AcDbLine
 10
640.4465097754
 20
126.9438010405
 30
0.0
 11
640.4465097754
 21
109.7722310405
 31
0.0
  0
LINE
  5
A2A
330
2
100
AcDbEntity
  8
0
100
AcDbLine
 10
713.5019907754
 20
113.0232690405
 30
0.0
 11
640.4465097754
 21
113.0232690405
 31
0.0
  0
LINE
  5
A2B
330
2
100
AcDbEntity
  8
0
100
AcDbLine
 10
713.5019907754
 20
105.2722310405
 30
0.0
 11
641.8052747754
 21
105.2722310405
 31
0.0
  0
ARC
  5
A2C
330
2
100
AcDbEntity
  8
0
100
AcDbCircle
 10
624.6411507754
 20
100.2084870405
 30
0.0
 40
6.0
100
AcDbArc
 50
47.364067
 51
120.358299
  0
ARC
  5
A2E
330
2
100
AcDbEntity
  8
0
100
AcDbCircle
 10
614.0458747754
 20
112.7722310405
 30
0.0
 40
10.0
100
AcDbArc
 50
270.0
 51
292.331635
  0
ARC
  5
A2F
330
2
100
AcDbEntity
  8
0
100
AcDbCircle
 10
609.4465097754
 20
129.7722310405
 30
0.0
 40
22.0
100
AcDbArc
 50
270.0
 51
290.487305
  0
ARC
  5
A30
330
2
100
AcDbEntity
  8
0
100
AcDbCircle
 10
616.4465097754
 20
111.0372380405
 30
0.0
 40
2.0
100
AcDbArc
 50
290.487312
 51
0.0
  0
ARC
  5
A31
330
2
100
AcDbEntity
  8
0
100
AcDbCircle
 10
614.4465097754
 20
110.4073170405
 30
0.0
 40
2.0
100
AcDbArc
 50
284.477509
 51
0.0
  0
ARC
  5
A32
330
2
100
AcDbEntity
  8
0
100
AcDbCircle
 10
606.4465097754
 20
131.2722310405
 30
0.0
 40
30.0
100
AcDbArc
 50
292.331635
 51
300.358307
  0
LINE
  5
A33
330
2
100
AcDbEntity
  8
0
100
AcDbLine
 10
616.5707167754
 20
112.9661240405
 30
0.0
 11
618.5707167754
 21
112.2262720405
 31
0.0
  0
ARC
  5
A34
330
2
100
AcDbEntity
  8
0
100
AcDbCircle
 10
620.4465097754
 20
111.5323860405
 30
0.0
 40
2.0
100
AcDbArc
 50
139.398712
 51
180.0
  0
ARC
  5
A35
330
2
100
AcDbEntity
  8
0
100
AcDbCircle
 10
618.4465097754
 20
112.2722310405
 30
0.0
 40
2.0
100
AcDbArc
 50
139.398712
 51
180.0
  0
LINE
  5
A36
330
2
100
AcDbEntity
  8
0
100
AcDbLine
 10
616.4465097754
 20
112.2722310405
 30
0.0
 11
616.4465097754
 21
110.4073170405
 31
0.0
  0
LINE
  5
A37
330
2
100
AcDbEntity
  8
0
100
AcDbLine
 10
618.4465097754
 20
111.5323860405
 30
0.0
 11
618.4465097754
 21
111.0372380405
 31
0.0
  0
ARC
  5
A38
330
2
100
AcDbEntity
  8
0
100
AcDbCircle
 10
633.4465097754
 20
109.7722310405
 30
0.0
 40
7.0
100
AcDbArc
 50
227.364075
 51
0.0
  0
ARC
  5
A3A
330
2
100
AcDbEntity
  8
0
100
AcDbCircle
 10
641.8052747754
 20
103.2722310405
 30
0.0
 40
2.0
100
AcDbArc
 50
90.0
 51
110.33873
  0
CIRCLE
  5
A3B
330
2
100
AcDbEntity
  8
HOJO
100
AcDbCircle
 10
633.4465097754
 20
109.7722310405
 30
0.0
 40
4.0
  0
CIRCLE
  5
A3C
330
2
100
AcDbEntity
  8
0
100
AcDbCircle
 10
633.4465097754
 20
109.7722310405
 30
0.0
 40
3.2
  0
LINE
  5
A3D
330
2
100
AcDbEntity
  8
0
100
AcDbLine
 10
641.1101447754
 20
105.1475360405
 30
0.0
 11
635.8794927754
 21
103.2086480405
 31
0.0
  0
LINE
  5
A3E
330
2
100
AcDbEntity
  8
0
100
AcDbLine
 10
631.4465097754
 20
156.7722310405
 30
0.0
 11
631.4465097754
 21
129.7722310405
 31
0.0
  0
LINE
  5
A3F
330
2
100
AcDbEntity
  8
0
100
AcDbLine
 10
636.4465097754
 20
132.6006610405
 30
0.0
 11
636.4465097754
 21
153.9438010405
 31
0.0
  0
LINE
  5
A40
330
2
100
AcDbEntity
  8
0
100
AcDbLine
 10
626.6108167754
 20
124.5892630405
 30
0.0
 11
627.5306767754
 21
122.5892630405
 31
0.0
  0
ARC
  5
A41
330
2
100
AcDbEntity
  8
0
100
AcDbCircle
 10
627.4465097754
 20
122.7722310405
 30
0.0
 40
2.0
100
AcDbArc
 50
90.0
 51
139.398712
  0
ARC
  5
A42
330
2
100
AcDbEntity
  8
0
100
AcDbCircle
 10
628.3663707754
 20
120.7722310405
 30
0.0
 40
2.0
100
AcDbArc
 50
90.0
 51
139.398712
  0
LINE
  5
A43
330
2
100
AcDbEntity
  8
0
100
AcDbLine
 10
637.0323247754
 20
131.1864460405
 30
0.0
 11
639.8606947754
 21
128.3580160405
 31
0.0
  0
ARC
  5
A44
330
2
100
AcDbEntity
  8
0
100
AcDbCircle
 10
628.8114387754
 20
124.7722310405
 30
0.0
 40
2.0
100
AcDbArc
 50
270.0
 51
345.522491
  0
LINE
  5
A45
330
2
100
AcDbEntity
  8
0
100
AcDbLine
 10
628.3663707754
 20
122.7722310405
 30
0.0
 11
628.8114387754
 21
122.7722310405
 31
0.0
  0
ARC
  5
A46
330
2
100
AcDbEntity
  8
0
100
AcDbCircle
 10
609.4465097754
 20
129.7722310405
 30
0.0
 40
22.0
100
AcDbArc
 50
345.522488
 51
0.0
  0
ARC
  5
A47
330
2
100
AcDbEntity
  8
0
100
AcDbCircle
 10
629.2202527754
 20
126.7722310405
 30
0.0
 40
2.0
100
AcDbArc
 50
270.0
 51
351.373077
  0
LINE
  5
A48
330
2
100
AcDbEntity
  8
0
100
AcDbLine
 10
627.4465097754
 20
124.7722310405
 30
0.0
 11
629.2202527754
 21
124.7722310405
 31
0.0
  0
ARC
  5
A49
330
2
100
AcDbEntity
  8
0
100
AcDbCircle
 10
638.4465097754
 20
126.9438010405
 30
0.0
 40
2.0
100
AcDbArc
 50
0.0
 51
45.0
  0
ARC
  5
A4A
330
2
100
AcDbEntity
  8
0
100
AcDbCircle
 10
638.4465097754
 20
132.6006610405
 30
0.0
 40
2.0
100
AcDbArc
 50
180.0
 51
225.0
  0
LINE
  5
A4B
330
2
100
AcDbEntity
  8
0
100
AcDbLine
 10
626.6108167754
 20
161.9551990405
 30
0.0
 11
627.5306767754
 21
163.9551990405
 31
0.0
  0
ARC
  5
A4C
330
2
100
AcDbEntity
  8
0
100
AcDbCircle
 10
627.4465097754
 20
163.7722310405
 30
0.0
 40
2.0
100
AcDbArc
 50
220.601288
 51
270.0
  0
ARC
  5
A4D
330
2
100
AcDbEntity
  8
0
100
AcDbCircle
 10
628.3663707754
 20
165.7722310405
 30
0.0
 40
2.0
100
AcDbArc
 50
220.601288
 51
270.0
  0
LINE
  5
A4E
330
2
100
AcDbEntity
  8
0
100
AcDbLine
 10
625.9280157754
 20
162.4706410405
 30
0.0
 11
616.9280157754
 21
172.9706410405
 31
0.0
  0
ARC
  5
A4F
330
2
100
AcDbEntity
  8
0
100
AcDbCircle
 10
609.4465097754
 20
156.7722310405
 30
0.0
 40
22.0
100
AcDbArc
 50
0.0
 51
14.477512
  0
ARC
  5
A50
330
2
100
AcDbEntity
  8
0
100
AcDbCircle
 10
638.4465097754
 20
159.6006610405
 30
0.0
 40
2.0
100
AcDbArc
 50
315.0
 51
0.0
  0
ARC
  5
A51
330
2
100
AcDbEntity
  8
0
100
AcDbCircle
 10
638.4465097754
 20
153.9438010405
 30
0.0
 40
2.0
100
AcDbArc
 50
135.0
 51
180.0
  0
LINE
  5
A52
330
2
100
AcDbEntity
  8
0
100
AcDbLine
 10
637.0323247754
 20
155.3580160405
 30
0.0
 11
639.8606947754
 21
158.1864460405
 31
0.0
  0
ARC
  5
A53
330
2
100
AcDbEntity
  8
0
100
AcDbCircle
 10
628.8114387754
 20
161.7722310405
 30
0.0
 40
2.0
100
AcDbArc
 50
14.477512
 51
90.0
  0
ARC
  5
A54
330
2
100
AcDbEntity
  8
0
100
AcDbCircle
 10
629.2202527754
 20
159.7722310405
 30
0.0
 40
2.0
100
AcDbArc
 50
8.626927
 51
90.0
  0
LINE
  5
A55
330
2
100
AcDbEntity
  8
0
100
AcDbLine
 10
628.3663707754
 20
163.7722310405
 30
0.0
 11
628.8114387754
 21
163.7722310405
 31
0.0
  0
LINE
  5
A56
330
2
100
AcDbEntity
  8
0
100
AcDbLine
 10
627.4465097754
 20
161.7722310405
 30
0.0
 11
629.2202527754
 21
161.7722310405
 31
0.0
  0
ARC
  5
A57
330
2
100
AcDbEntity
  8
0
100
AcDbCircle
 10
730.0379407754
 20
108.2722310405
 30
0.0
 40
3.0
100
AcDbArc
 50
270.0
 51
330.000397
  0
LINE
  5
A58
330
2
100
AcDbEntity
  8
0
100
AcDbLine
 10
732.6360237754
 20
106.7722310405
 30
0.0
 11
733.5019907754
 21
108.2722310405
 31
0.0
  0
LINE
  5
A59
330
2
100
AcDbEntity
  8
0
100
AcDbLine
 10
734.0019907754
 20
111.2722310405
 30
0.0
 11
733.5019907754
 21
110.7722310405
 31
0.0
  0
LINE
  5
A5A
330
2
100
AcDbEntity
  8
0
100
AcDbLine
 10
541.1534187754
 20
407.3164926421
 30
0.0
 11
639.7396007754
 21
407.3164926421
 31
0.0
  0
LINE
  5
A5B
330
2
100
AcDbEntity
  8
0
100
AcDbLine
 10
641.4465097754
 20
394.8164926421
 30
0.0
 11
540.9352797754
 21
394.8164926421
 31
0.0
  0
LINE
  5
A5C
330
2
100
AcDbEntity
  8
0
100
AcDbLine
 10
639.7396007754
 20
326.3164926421
 30
0.0
 11
541.1534187754
 21
326.3164926421
 31
0.0
  0
LINE
  5
A5D
330
2
100
AcDbEntity
  8
CENTER
100
AcDbLine
 10
532.9057387754
 20
366.8164926421
 30
0.0
 11
742.5225207437
 21
366.8164926421
 31
0.0
  0
LINE
  5
A5E
330
2
100
AcDbEntity
  8
0
100
AcDbLine
 10
571.4465097754
 20
178.7722310405
 30
0.0
 11
609.4465097754
 21
178.7722310405
 31
0.0
  0
LINE
  5
A5F
330
2
100
AcDbEntity
  8
0
100
AcDbLine
 10
633.4465097754
 20
183.7722310405
 30
0.0
 11
547.4465097754
 21
183.7722310405
 31
0.0
  0
LINE
  5
A60
330
2
100
AcDbEntity
  8
HIDS
100
AcDbLine
 10
551.4465097754
 20
326.3164926421
 30
0.0
 11
551.4465097754
 21
358.8164926421
 31
0.0
  0
LINE
  5
A61
330
2
100
AcDbEntity
  8
HIDS
100
AcDbLine
 10
543.4465097754
 20
326.3164926421
 30
0.0
 11
543.4465097754
 21
358.8164926421
 31
0.0
  0
LINE
  5
A64
330
2
100
AcDbEntity
  8
0
100
AcDbLine
 10
565.0790167754
 20
361.8164926421
 30
0.0
 11
565.0790167754
 21
326.3164926421
 31
0.0
  0
LINE
  5
A65
330
2
100
AcDbEntity
  8
0
100
AcDbLine
 10
556.1045297754
 20
359.6124826421
 30
0.0
 11
556.1045297754
 21
326.3164926421
 31
0.0
  0
LINE
  5
A66
330
2
100
AcDbEntity
  8
0
100
AcDbLine
 10
540.4465097754
 20
366.8164926421
 30
0.0
 11
541.1534187754
 21
326.3164926421
 31
0.0
  0
LINE
  5
A67
330
2
100
AcDbEntity
  8
CENTER
100
AcDbLine
 10
547.4465097754
 20
322.9575756421
 30
0.0
 11
547.4465097754
 21
410.6325936421
 31
0.0
  0
LINE
  5
A68
330
2
100
AcDbEntity
  8
CENTER
100
AcDbLine
 10
579.4465097754
 20
416.3116396421
 30
0.0
 11
579.4465097754
 21
317.3213456421
 31
0.0
  0
LINE
  5
A69
330
2
100
AcDbEntity
  8
HIDS
100
AcDbLine
 10
360.5637398238
 20
180.7722310405
 30
0.0
 11
393.0637398238
 21
180.7722310405
 31
0.0
  0
LINE
  5
A6A
330
2
100
AcDbEntity
  8
0
100
AcDbLine
 10
352.5637398238
 20
183.7722310405
 30
0.0
 11
393.0637398238
 21
183.0653070405
 31
0.0
  0
LINE
  5
A6B
330
2
100
AcDbEntity
  8
HIDS
100
AcDbLine
 10
373.5986518238
 20
180.9050590405
 30
0.0
 11
352.5637398238
 21
181.2722310405
 31
0.0
  0
ARC
  5
A6C
330
2
100
AcDbEntity
  8
HIDS
100
AcDbCircle
 10
373.5637398238
 20
178.9053640405
 30
0.0
 40
2.0
100
AcDbArc
 50
0.0
 51
89.0
  0
LINE
  5
A6D
330
2
100
AcDbEntity
  8
HIDS
100
AcDbLine
 10
375.5637398238
 20
178.9053640405
 30
0.0
 11
375.5637398238
 21
174.9739670405
 31
0.0
  0
ARC
  5
A6E
330
2
100
AcDbEntity
  8
0
100
AcDbCircle
 10
571.4465097754
 20
156.7722310405
 30
0.0
 40
22.0
100
AcDbArc
 50
90.0
 51
110.487312
  0
ARC
  5
A6F
330
2
100
AcDbEntity
  8
0
100
AcDbCircle
 10
556.2518687754
 20
186.3359670405
 30
0.0
 40
6.0
100
AcDbArc
 50
227.364075
 51
300.358307
  0
ARC
  5
A71
330
2
100
AcDbEntity
  8
0
100
AcDbCircle
 10
547.4465097754
 20
176.7722310405
 30
0.0
 40
7.0
100
AcDbArc
 50
47.364067
 51
180.0
  0
CIRCLE
  5
A72
330
2
100
AcDbEntity
  8
0
100
AcDbCircle
 10
547.4465097754
 20
176.7722310405
 30
0.0
 40
3.2
  0
ARC
  5
A73
330
2
100
AcDbEntity
  8
0
100
AcDbCircle
 10
564.4465097754
 20
175.5072320405
 30
0.0
 40
2.0
100
AcDbArc
 50
110.487312
 51
180.0
  0
ARC
  5
A74
330
2
100
AcDbEntity
  8
0
100
AcDbCircle
 10
566.4465097754
 20
176.1371450405
 30
0.0
 40
2.0
100
AcDbArc
 50
104.477509
 51
180.0
  0
LINE
  5
A75
330
2
100
AcDbEntity
  8
0
100
AcDbLine
 10
564.3223027754
 20
173.5783380405
 30
0.0
 11
562.3223027754
 21
174.3181900405
 31
0.0
  0
ARC
  5
A76
330
2
100
AcDbEntity
  8
0
100
AcDbCircle
 10
560.4465097754
 20
175.0120840405
 30
0.0
 40
2.0
100
AcDbArc
 50
319.398705
 51
0.0
  0
LINE
  5
A77
330
2
100
AcDbEntity
  8
0
100
AcDbLine
 10
564.4465097754
 20
174.2722310405
 30
0.0
 11
564.4465097754
 21
176.1371450405
 31
0.0
  0
LINE
  5
A78
330
2
100
AcDbEntity
  8
0
100
AcDbLine
 10
562.4465097754
 20
175.0120840405
 30
0.0
 11
562.4465097754
 21
175.5072320405
 31
0.0
  0
ARC
  5
A79
330
2
100
AcDbEntity
  8
0
100
AcDbCircle
 10
574.4465097754
 20
155.2722310405
 30
0.0
 40
30.0
100
AcDbArc
 50
112.331642
 51
120.358299
  0
ARC
  5
A7A
330
2
100
AcDbEntity
  8
0
100
AcDbCircle
 10
566.8471447754
 20
173.7722310405
 30
0.0
 40
10.0
100
AcDbArc
 50
90.0
 51
112.331642
  0
LINE
  5
A7B
330
2
100
AcDbEntity
  8
HIDS
  6
sekkei_H
100
AcDbLine
 10
551.6965097754
 20
394.8164926421
 30
0.0
 11
551.6965097754
 21
407.3164926421
 31
0.0
  0
LINE
  5
A7C
330
2
100
AcDbEntity
  8
HIDS
  6
sekkei_H
100
AcDbLine
 10
543.1965097754
 20
394.8164926421
 30
0.0
 11
543.1965097754
 21
407.3164926421
 31
0.0
  0
LINE
  5
A7D
330
2
100
AcDbEntity
  8
0
100
AcDbLine
 10
556.1045297754
 20
407.3164926421
 30
0.0
 11
556.1045297754
 21
374.0205026421
 31
0.0
  0
LINE
  5
A7E
330
2
100
AcDbEntity
  8
0
100
AcDbLine
 10
565.0790167754
 20
407.3164926421
 30
0.0
 11
565.0790167754
 21
371.8164926421
 31
0.0
  0
LINE
  5
A7F
330
2
100
AcDbEntity
  8
0
100
AcDbLine
 10
540.4465097754
 20
366.8164926421
 30
0.0
 11
541.1534187754
 21
407.3164926421
 31
0.0
  0
ARC
  5
A80
330
2
100
AcDbEntity
  8
0
100
AcDbCircle
 10
556.1045297754
 20
370.6124826421
 30
0.0
 40
11.0
100
AcDbArc
 50
244.282272
 51
291.075317
  0
LINE
  5
A81
330
2
100
AcDbEntity
  8
HIDS
100
AcDbLine
 10
543.4465097754
 20
358.8164926421
 30
0.0
 11
551.4465097754
 21
358.8164926421
 31
0.0
  0
LINE
  5
A82
330
2
100
AcDbEntity
  8
0
100
AcDbLine
 10
565.0790167754
 20
361.8164926421
 30
0.0
 11
547.5337897754
 21
361.8164926421
 31
0.0
  0
ARC
  5
A83
330
2
100
AcDbEntity
  8
0
100
AcDbCircle
 10
556.1045297754
 20
363.0205026421
 30
0.0
 40
11.0
100
AcDbArc
 50
68.924667
 51
115.717728
  0
LINE
  5
A84
330
2
100
AcDbEntity
  8
0
100
AcDbLine
 10
565.0790167754
 20
371.8164926421
 30
0.0
 11
547.5337897754
 21
371.8164926421
 31
0.0
  0
LINE
  5
A85
330
2
100
AcDbEntity
  8
0
100
AcDbLine
 10
551.3312147754
 20
360.7021126421
 30
0.0
 11
550.3544077754
 21
361.1726326421
 31
0.0
  0
ARC
  5
A86
330
2
100
AcDbEntity
  8
0
100
AcDbCircle
 10
547.5337897754
 20
355.3164926421
 30
0.0
 40
6.5
100
AcDbArc
 50
64.282272
 51
90.0
  0
LINE
  5
A87
330
2
100
AcDbEntity
  8
0
100
AcDbLine
 10
551.3312147754
 20
372.9308726421
 30
0.0
 11
550.3544077754
 21
372.4603836421
 31
0.0
  0
ARC
  5
A88
330
2
100
AcDbEntity
  8
0
100
AcDbCircle
 10
547.5337897754
 20
378.3164926421
 30
0.0
 40
6.5
100
AcDbArc
 50
270.0
 51
295.717728
  0
ARC
  5
A89
330
2
100
AcDbEntity
  8
0
100
AcDbCircle
 10
565.0790167754
 20
355.3164926421
 30
0.0
 40
6.5
100
AcDbArc
 50
90.0
 51
111.075333
  0
LINE
  5
A8A
330
2
100
AcDbEntity
  8
0
100
AcDbLine
 10
562.7416147754
 20
361.3817086421
 30
0.0
 11
560.0600957754
 21
360.3482926421
 31
0.0
  0
ARC
  5
A8B
330
2
100
AcDbEntity
  8
0
100
AcDbCircle
 10
565.0790167754
 20
378.3164926421
 30
0.0
 40
6.5
100
AcDbArc
 50
248.924667
 51
270.0
  0
LINE
  5
A8C
330
2
100
AcDbEntity
  8
0
100
AcDbLine
 10
562.7416147754
 20
372.2512766421
 30
0.0
 11
560.0600957754
 21
373.2846936421
 31
0.0
  0
LINE
  5
A8D
330
2
100
AcDbEntity
  8
HIDS
100
AcDbLine
 10
543.4465097754
 20
394.8164926421
 30
0.0
 11
543.4465097754
 21
374.8164926421
 31
0.0
  0
LINE
  5
A8E
330
2
100
AcDbEntity
  8
HIDS
100
AcDbLine
 10
551.4465097754
 20
394.8164926421
 30
0.0
 11
551.4465097754
 21
374.8164926421
 31
0.0
  0
LINE
  5
A8F
330
2
100
AcDbEntity
  8
HIDS
100
AcDbLine
 10
543.4465097754
 20
374.8164926421
 30
0.0
 11
551.4465097754
 21
374.8164926421
 31
0.0
  0
LINE
  5
A90
330
2
100
AcDbEntity
  8
HIDS
100
AcDbLine
 10
637.4465097754
 20
326.3164926421
 30
0.0
 11
637.4465097754
 21
358.8164926421
 31
0.0
  0
LINE
  5
A91
330
2
100
AcDbEntity
  8
HIDS
100
AcDbLine
 10
629.4465097754
 20
326.3164926421
 30
0.0
 11
629.4465097754
 21
358.8164926421
 31
0.0
  0
LINE
  5
A94
330
2
100
AcDbEntity
  8
0
100
AcDbLine
 10
733.5019907754
 20
401.8164926421
 30
0.0
 11
733.5019907754
 21
331.8164926421
 31
0.0
  0
LINE
  5
A95
330
2
100
AcDbEntity
  8
0
100
AcDbLine
 10
734.0019907754
 20
398.8164926421
 30
0.0
 11
734.0019907754
 21
334.8164926421
 31
0.0
  0
LINE
  5
A96
330
2
100
AcDbEntity
  8
0
100
AcDbLine
 10
624.7884897754
 20
359.6124826421
 30
0.0
 11
624.7884897754
 21
326.3164926421
 31
0.0
  0
LINE
  5
A97
330
2
100
AcDbEntity
  8
0
100
AcDbLine
 10
615.8140027754
 20
361.8164926421
 30
0.0
 11
615.8140027754
 21
326.3164926421
 31
0.0
  0
LINE
  5
A98
330
2
100
AcDbEntity
  8
0
100
AcDbLine
 10
635.8794927754
 20
366.8164926421
 30
0.0
 11
635.4437017754
 21
341.8514046421
 31
0.0
  0
LINE
  5
A99
330
2
100
AcDbEntity
  8
0
100
AcDbLine
 10
641.4465097754
 20
389.8164926421
 30
0.0
 11
641.4465097754
 21
343.8164926421
 31
0.0
  0
LINE
  5
A9A
330
2
100
AcDbEntity
  8
CENTER
100
AcDbLine
 10
633.4465097754
 20
322.9575756421
 30
0.0
 11
633.4465097754
 21
410.6325936421
 31
0.0
  0
LINE
  5
A9B
330
2
100
AcDbEntity
  8
0
100
AcDbLine
 10
713.5019907754
 20
328.8164926421
 30
0.0
 11
713.5019907754
 21
359.9504656421
 31
0.0
  0
LINE
  5
A9C
330
2
100
AcDbEntity
  8
0
100
AcDbLine
 10
731.9203867754
 20
173.5212240405
 30
0.0
 11
713.5019907754
 21
173.5212240405
 31
0.0
  0
LINE
  5
A9D
330
2
100
AcDbEntity
  8
0
100
AcDbLine
 10
730.0379407754
 20
181.2722310405
 30
0.0
 11
713.5019907754
 21
181.2722310405
 31
0.0
  0
LINE
  5
A9E
330
2
100
AcDbEntity
  8
0
100
AcDbLine
 10
730.0379407754
 20
328.8164926421
 30
0.0
 11
713.5019907754
 21
328.8164926421
 31
0.0
  0
LINE
  5
A9F
330
2
100
AcDbEntity
  8
0
100
AcDbLine
 10
731.9203867754
 20
343.8164926421
 30
0.0
 11
713.5019907754
 21
343.8164926421
 31
0.0
  0
LINE
  5
AA0
330
2
100
AcDbEntity
  8
HOJO
100
AcDbLine
 10
717.4020147754
 20
196.3972310405
 30
0.0
 11
715.6020277754
 21
195.7722310405
 31
0.0
  0
LINE
  5
AA1
330
2
100
AcDbEntity
  8
0
100
AcDbLine
 10
720.0019907754
 20
182.7722310405
 30
0.0
 11
713.0019907754
 21
182.7722310405
 31
0.0
  0
LINE
  5
AA2
330
2
100
AcDbEntity
  8
0
100
AcDbLine
 10
713.5019907754
 20
173.5211930405
 30
0.0
 11
640.4465097754
 21
173.5211930405
 31
0.0
  0
LINE
  5
AA3
330
2
100
AcDbEntity
  8
0
100
AcDbLine
 10
713.5019907754
 20
181.2722310405
 30
0.0
 11
641.8052747754
 21
181.2722310405
 31
0.0
  0
ARC
  5
AA4
330
2
100
AcDbEntity
  8
0
100
AcDbCircle
 10
624.6411507754
 20
186.3359670405
 30
0.0
 40
6.0
100
AcDbArc
 50
239.641693
 51
312.635925
  0
ARC
  5
AA6
330
2
100
AcDbEntity
  8
0
100
AcDbCircle
 10
609.4465097754
 20
156.7722310405
 30
0.0
 40
22.0
100
AcDbArc
 50
69.512688
 51
90.0
  0
ARC
  5
AA7
330
2
100
AcDbEntity
  8
0
100
AcDbCircle
 10
616.4465097754
 20
175.5072320405
 30
0.0
 40
2.0
100
AcDbArc
 50
0.0
 51
69.512688
  0
ARC
  5
AA8
330
2
100
AcDbEntity
  8
0
100
AcDbCircle
 10
614.4465097754
 20
176.1371450405
 30
0.0
 40
2.0
100
AcDbArc
 50
0.0
 51
75.522491
  0
LINE
  5
AA9
330
2
100
AcDbEntity
  8
0
100
AcDbLine
 10
616.5707167754
 20
173.5783380405
 30
0.0
 11
618.5707167754
 21
174.3181900405
 31
0.0
  0
ARC
  5
AAA
330
2
100
AcDbEntity
  8
0
100
AcDbCircle
 10
620.4465097754
 20
175.0120840405
 30
0.0
 40
2.0
100
AcDbArc
 50
180.0
 51
220.601288
  0
LINE
  5
AAB
330
2
100
AcDbEntity
  8
0
100
AcDbLine
 10
616.4465097754
 20
174.2722310405
 30
0.0
 11
616.4465097754
 21
176.1371450405
 31
0.0
  0
LINE
  5
AAC
330
2
100
AcDbEntity
  8
0
100
AcDbLine
 10
618.4465097754
 20
175.0120840405
 30
0.0
 11
618.4465097754
 21
175.5072320405
 31
0.0
  0
ARC
  5
AAD
330
2
100
AcDbEntity
  8
0
100
AcDbCircle
 10
606.4465097754
 20
155.2722310405
 30
0.0
 40
30.0
100
AcDbArc
 50
59.641697
 51
67.668358
  0
ARC
  5
AAE
330
2
100
AcDbEntity
  8
0
100
AcDbCircle
 10
614.0458747754
 20
173.7722310405
 30
0.0
 40
10.0
100
AcDbArc
 50
67.668358
 51
90.0
  0
ARC
  5
AAF
330
2
100
AcDbEntity
  8
0
100
AcDbCircle
 10
641.8052747754
 20
183.2722310405
 30
0.0
 40
2.0
100
AcDbArc
 50
249.66127
 51
270.0
  0
ARC
  5
AB0
330
2
100
AcDbEntity
  8
0
100
AcDbCircle
 10
633.4465097754
 20
176.7722310405
 30
0.0
 40
7.0
100
AcDbArc
 50
0.0
 51
132.635925
  0
CIRCLE
  5
AB1
330
2
100
AcDbEntity
  8
0
100
AcDbCircle
 10
633.4465097754
 20
176.7722310405
 30
0.0
 40
3.2
  0
LINE
  5
AB2
330
2
100
AcDbEntity
  8
0
100
AcDbLine
 10
641.1101447754
 20
181.3969260405
 30
0.0
 11
635.8794927754
 21
183.3358140405
 31
0.0
  0
LINE
  5
AB3
330
2
100
AcDbEntity
  8
0
100
AcDbLine
 10
713.8020397754
 20
195.1472310405
 30
0.0
 11
713.8020397754
 21
182.7722310405
 31
0.0
  0
LINE
  5
AB4
330
2
100
AcDbEntity
  8
0
100
AcDbLine
 10
715.6020277754
 20
195.7722310405
 30
0.0
 11
715.6020277754
 21
182.7722310405
 31
0.0
  0
LINE
  5
AB5
330
2
100
AcDbEntity
  8
0
100
AcDbLine
 10
713.5019907754
 20
181.2722310405
 30
0.0
 11
713.0019907754
 21
181.2722310405
 31
0.0
  0
LINE
  5
AB6
330
2
100
AcDbEntity
  8
0
100
AcDbLine
 10
713.0019907754
 20
182.7722310405
 30
0.0
 11
713.0019907754
 21
181.2722310405
 31
0.0
  0
LINE
  5
AB7
330
2
100
AcDbEntity
  8
HOJO
100
AcDbLine
 10
713.8020397754
 20
195.1472310405
 30
0.0
 11
715.6009897754
 21
194.6995230405
 31
0.0
  0
LINE
  5
AB8
330
2
100
AcDbEntity
  8
0
100
AcDbLine
 10
713.5019907754
 20
343.8164926421
 30
0.0
 11
637.4433967754
 21
343.8164926421
 31
0.0
  0
LINE
  5
AB9
330
2
100
AcDbEntity
  8
0
100
AcDbLine
 10
641.7486337754
 20
328.8164926421
 30
0.0
 11
713.5019907754
 21
328.8164926421
 31
0.0
  0
LINE
  5
ABA
330
2
100
AcDbEntity
  8
0
100
AcDbLine
 10
639.7396007754
 20
326.3164926421
 30
0.0
 11
640.0450207754
 21
343.8164926421
 31
0.0
  0
ARC
  5
ABB
330
2
100
AcDbEntity
  8
0
100
AcDbCircle
 10
641.7486337754
 20
326.8164926421
 30
0.0
 40
2.0
100
AcDbArc
 50
90.0
 51
179.0
  0
ARC
  5
ABC
330
2
100
AcDbEntity
  8
0
100
AcDbCircle
 10
637.4433967754
 20
341.8164926421
 30
0.0
 40
2.0
100
AcDbArc
 50
90.0
 51
179.0
  0
LINE
  5
ABD
330
2
100
AcDbEntity
  8
0
100
AcDbLine
 10
719.2020027754
 20
194.3347310405
 30
0.0
 11
719.2020027754
 21
182.7722310405
 31
0.0
  0
LINE
  5
ABE
330
2
100
AcDbEntity
  8
0
100
AcDbLine
 10
717.4020147754
 20
196.3972310405
 30
0.0
 11
717.4020147754
 21
182.7722310405
 31
0.0
  0
ARC
  5
ABF
330
2
100
AcDbEntity
  8
0
100
AcDbCircle
 10
730.0379407754
 20
178.2722460405
 30
0.0
 40
3.0
100
AcDbArc
 50
29.999599
 51
90.0
  0
LINE
  5
AC0
330
2
100
AcDbEntity
  8
0
100
AcDbLine
 10
720.0019907754
 20
182.7722310405
 30
0.0
 11
720.0019907754
 21
181.2722310405
 31
0.0
  0
LINE
  5
AC1
330
2
100
AcDbEntity
  8
0
100
AcDbLine
 10
732.6360237754
 20
179.7722160405
 30
0.0
 11
733.5019907754
 21
178.2722310405
 31
0.0
  0
LINE
  5
AC2
330
2
100
AcDbEntity
  8
0
100
AcDbLine
 10
734.0019907754
 20
175.2722310405
 30
0.0
 11
733.5019907754
 21
175.7722310405
 31
0.0
  0
LINE
  5
AC3
330
2
100
AcDbEntity
  8
HOJO
100
AcDbLine
 10
719.2020027754
 20
194.3347310405
 30
0.0
 11
717.4020147754
 21
194.9597310405
 31
0.0
  0
ARC
  5
AC4
330
2
100
AcDbEntity
  8
0
100
AcDbCircle
 10
730.0379407754
 20
331.8164926421
 30
0.0
 40
3.0
100
AcDbArc
 50
270.0
 51
330.000397
  0
LINE
  5
AC5
330
2
100
AcDbEntity
  8
0
100
AcDbLine
 10
732.6360237754
 20
330.3164926421
 30
0.0
 11
733.5019907754
 21
331.8164926421
 31
0.0
  0
LINE
  5
AC6
330
2
100
AcDbEntity
  8
0
100
AcDbLine
 10
734.0019907754
 20
334.8164926421
 30
0.0
 11
733.5019907754
 21
334.3164926421
 31
0.0
  0
LINE
  5
AC7
330
2
100
AcDbEntity
  8
0
100
AcDbLine
 10
730.0379407754
 20
404.8164926421
 30
0.0
 11
713.5019907754
 21
404.8164926421
 31
0.0
  0
LINE
  5
AC8
330
2
100
AcDbEntity
  8
0
100
AcDbLine
 10
731.9203867754
 20
389.8164926421
 30
0.0
 11
713.5019907754
 21
389.8164926421
 31
0.0
  0
ARC
  5
AC9
330
2
100
AcDbEntity
  8
0
100
AcDbCircle
 10
716.5019907754
 20
363.3164926421
 30
0.0
 40
1.0
100
AcDbArc
 50
180.0
 51
0.0
  0
ARC
  5
ACA
330
2
100
AcDbEntity
  8
0
100
AcDbCircle
 10
716.5019907754
 20
370.3164926421
 30
0.0
 40
1.0
100
AcDbArc
 50
0.0
 51
180.0
  0
LINE
  5
ACB
330
2
100
AcDbEntity
  8
0
100
AcDbLine
 10
714.0019907754
 20
359.8164926421
 30
0.0
 11
719.0019907754
 21
359.8164926421
 31
0.0
  0
LINE
  5
ACC
330
2
100
AcDbEntity
  8
0
100
AcDbLine
 10
719.0019907754
 20
373.8164926421
 30
0.0
 11
714.0019907754
 21
373.8164926421
 31
0.0
  0
LINE
  5
ACD
330
2
100
AcDbEntity
  8
HIDS
  6
sekkei_H
100
AcDbLine
 10
637.6965097754
 20
394.8164926421
 30
0.0
 11
637.6965097754
 21
407.3164926421
 31
0.0
  0
LINE
  5
ACE
330
2
100
AcDbEntity
  8
HIDS
  6
sekkei_H
100
AcDbLine
 10
629.1965097754
 20
394.8164926421
 30
0.0
 11
629.1965097754
 21
407.3164926421
 31
0.0
  0
LINE
  5
ACF
330
2
100
AcDbEntity
  8
0
100
AcDbLine
 10
713.5019907754
 20
373.6825206421
 30
0.0
 11
713.5019907754
 21
404.8164926421
 31
0.0
  0
LINE
  5
AD0
330
2
100
AcDbEntity
  8
0
100
AcDbLine
 10
624.7884897754
 20
407.3164926421
 30
0.0
 11
624.7884897754
 21
374.0205026421
 31
0.0
  0
LINE
  5
AD1
330
2
100
AcDbEntity
  8
0
100
AcDbLine
 10
615.8140027754
 20
407.3164926421
 30
0.0
 11
615.8140027754
 21
371.8164926421
 31
0.0
  0
LINE
  5
AD2
330
2
100
AcDbEntity
  8
0
100
AcDbLine
 10
639.7396007754
 20
407.3164926421
 30
0.0
 11
640.0450207754
 21
389.8164926421
 31
0.0
  0
LINE
  5
AD3
330
2
100
AcDbEntity
  8
0
100
AcDbLine
 10
641.4465097754
 20
404.1957656421
 30
0.0
 11
641.4465097754
 21
394.8164926421
 31
0.0
  0
LINE
  5
AD4
330
2
100
AcDbEntity
  8
0
100
AcDbLine
 10
713.5019907754
 20
389.8164926421
 30
0.0
 11
637.4433967754
 21
389.8164926421
 31
0.0
  0
LINE
  5
AD5
330
2
100
AcDbEntity
  8
0
100
AcDbLine
 10
635.8794927754
 20
366.8164926421
 30
0.0
 11
635.4437017754
 21
391.7815806421
 31
0.0
  0
ARC
  5
AD6
330
2
100
AcDbEntity
  8
0
100
AcDbCircle
 10
624.7884897754
 20
370.6124826421
 30
0.0
 40
11.0
100
AcDbArc
 50
248.924667
 51
295.717728
  0
LINE
  5
AD7
330
2
100
AcDbEntity
  8
0
100
AcDbLine
 10
615.8140027754
 20
361.8164926421
 30
0.0
 11
633.3592297754
 21
361.8164926421
 31
0.0
  0
ARC
  5
AD8
330
2
100
AcDbEntity
  8
0
100
AcDbCircle
 10
624.7884897754
 20
363.0205026421
 30
0.0
 40
11.0
100
AcDbArc
 50
64.282272
 51
111.075333
  0
LINE
  5
AD9
330
2
100
AcDbEntity
  8
0
100
AcDbLine
 10
615.8140027754
 20
371.8164926421
 30
0.0
 11
633.3592297754
 21
371.8164926421
 31
0.0
  0
LINE
  5
ADA
330
2
100
AcDbEntity
  8
0
100
AcDbLine
 10
618.1513437754
 20
361.3817086421
 30
0.0
 11
620.8329237754
 21
360.3482926421
 31
0.0
  0
ARC
  5
ADB
330
2
100
AcDbEntity
  8
0
100
AcDbCircle
 10
615.8140027754
 20
355.3164926421
 30
0.0
 40
6.5
100
AcDbArc
 50
68.924667
 51
90.0
  0
LINE
  5
ADC
330
2
100
AcDbEntity
  8
0
100
AcDbLine
 10
618.1513437754
 20
372.2512766421
 30
0.0
 11
620.8329237754
 21
373.2846936421
 31
0.0
  0
ARC
  5
ADD
330
2
100
AcDbEntity
  8
0
100
AcDbCircle
 10
615.8140027754
 20
378.3164926421
 30
0.0
 40
6.5
100
AcDbArc
 50
270.0
 51
291.075317
  0
LINE
  5
ADE
330
2
100
AcDbEntity
  8
HIDS
100
AcDbLine
 10
629.4465097754
 20
358.8164926421
 30
0.0
 11
637.4465097754
 21
358.8164926421
 31
0.0
  0
LINE
  5
ADF
330
2
100
AcDbEntity
  8
0
100
AcDbLine
 10
629.5618047754
 20
360.7021126421
 30
0.0
 11
630.5386117754
 21
361.1726326421
 31
0.0
  0
ARC
  5
AE0
330
2
100
AcDbEntity
  8
0
100
AcDbCircle
 10
633.3592297754
 20
355.3164926421
 30
0.0
 40
6.5
100
AcDbArc
 50
90.0
 51
115.717728
  0
LINE
  5
AE1
330
2
100
AcDbEntity
  8
0
100
AcDbLine
 10
629.5618047754
 20
372.9308726421
 30
0.0
 11
630.5386117754
 21
372.4603836421
 31
0.0
  0
ARC
  5
AE2
330
2
100
AcDbEntity
  8
0
100
AcDbCircle
 10
633.3592297754
 20
378.3164926421
 30
0.0
 40
6.5
100
AcDbArc
 50
244.282272
 51
270.0
  0
LINE
  5
AE3
330
2
100
AcDbEntity
  8
HIDS
100
AcDbLine
 10
629.4465097754
 20
394.8164926421
 30
0.0
 11
629.4465097754
 21
374.8164926421
 31
0.0
  0
LINE
  5
AE4
330
2
100
AcDbEntity
  8
HIDS
100
AcDbLine
 10
637.4465097754
 20
394.8164926421
 30
0.0
 11
637.4465097754
 21
374.8164926421
 31
0.0
  0
LINE
  5
AE5
330
2
100
AcDbEntity
  8
HIDS
100
AcDbLine
 10
629.4465097754
 20
374.8164926421
 30
0.0
 11
637.4465097754
 21
374.8164926421
 31
0.0
  0
ARC
  5
AE6
330
2
100
AcDbEntity
  8
0
100
AcDbCircle
 10
637.4433967754
 20
391.8164926421
 30
0.0
 40
2.0
100
AcDbArc
 50
181.0
 51
270.0
  0
ARC
  5
AE7
330
2
100
AcDbEntity
  8
0
100
AcDbCircle
 10
714.0019907754
 20
360.8164926421
 30
0.0
 40
1.0
100
AcDbArc
 50
180.0
 51
270.0
  0
LINE
  5
AE8
330
2
100
AcDbEntity
  8
0
100
AcDbLine
 10
715.5019907754
 20
370.3164926421
 30
0.0
 11
715.5019907754
 21
363.3164926421
 31
0.0
  0
LINE
  5
AE9
330
2
100
AcDbEntity
  8
0
100
AcDbLine
 10
713.0019907754
 20
360.8164926421
 30
0.0
 11
713.0019907754
 21
372.8164926421
 31
0.0
  0
ARC
  5
AEA
330
2
100
AcDbEntity
  8
0
100
AcDbCircle
 10
714.0019907754
 20
372.8164926421
 30
0.0
 40
1.0
100
AcDbArc
 50
90.0
 51
180.0
  0
LINE
  5
AEB
330
2
100
AcDbEntity
  8
0
100
AcDbLine
 10
642.8948127754
 20
404.8164926421
 30
0.0
 11
713.5019907754
 21
404.8164926421
 31
0.0
  0
ARC
  5
AEC
330
2
100
AcDbEntity
  8
0
100
AcDbCircle
 10
642.8948127754
 20
402.8164926421
 30
0.0
 40
2.0
100
AcDbArc
 50
90.0
 51
136.398758
  0
LINE
  5
AED
330
2
100
AcDbEntity
  8
0
100
AcDbLine
 10
732.6360237754
 20
403.3164926421
 30
0.0
 11
733.5019907754
 21
401.8164926421
 31
0.0
  0
ARC
  5
AEE
330
2
100
AcDbEntity
  8
0
100
AcDbCircle
 10
719.0019907754
 20
360.8164926421
 30
0.0
 40
1.0
100
AcDbArc
 50
270.0
 51
0.0
  0
LINE
  5
AEF
330
2
100
AcDbEntity
  8
0
100
AcDbLine
 10
717.5019907754
 20
370.3164926421
 30
0.0
 11
717.5019907754
 21
363.3164926421
 31
0.0
  0
LINE
  5
AF0
330
2
100
AcDbEntity
  8
0
100
AcDbLine
 10
720.0019907754
 20
360.8164926421
 30
0.0
 11
720.0019907754
 21
372.8164926421
 31
0.0
  0
ARC
  5
AF1
330
2
100
AcDbEntity
  8
0
100
AcDbCircle
 10
719.0019907754
 20
372.8164926421
 30
0.0
 40
1.0
100
AcDbArc
 50
0.0
 51
90.0
  0
LINE
  5
AF2
330
2
100
AcDbEntity
  8
0
100
AcDbLine
 10
734.0019907754
 20
398.8164926421
 30
0.0
 11
733.5019907754
 21
399.3164926421
 31
0.0
  0
ARC
  5
AF3
330
2
100
AcDbEntity
  8
0
100
AcDbCircle
 10
730.0379407754
 20
401.8165236421
 30
0.0
 40
3.0
100
AcDbArc
 50
29.999599
 51
90.0
  0
LINE
  5
AF6
330
2
100
AcDbEntity
  8
CENTER
100
AcDbLine
 10
218.2755659259
 20
114.1998890405
 30
0.0
 11
218.2755659259
 21
125.3445730405
 31
0.0
  0
LINE
  5
AF7
330
2
100
AcDbEntity
  8
CENTER
100
AcDbLine
 10
212.7032239259
 20
119.7722310405
 30
0.0
 11
223.8479079259
 21
119.7722310405
 31
0.0
  0
LINE
  5
AF8
330
2
100
AcDbEntity
  8
CENTER
100
AcDbLine
 10
127.2755659259
 20
114.1998890405
 30
0.0
 11
127.2755659259
 21
125.3445730405
 31
0.0
  0
LINE
  5
AF9
330
2
100
AcDbEntity
  8
CENTER
100
AcDbLine
 10
121.7032239259
 20
119.7722310405
 30
0.0
 11
132.8479079259
 21
119.7722310405
 31
0.0
  0
LINE
  5
AFA
330
2
100
AcDbEntity
  8
CENTER
100
AcDbLine
 10
127.2755659259
 20
161.1998890405
 30
0.0
 11
127.2755659259
 21
172.3445730405
 31
0.0
  0
LINE
  5
AFB
330
2
100
AcDbEntity
  8
CENTER
100
AcDbLine
 10
121.7032239259
 20
166.7722310405
 30
0.0
 11
132.8479079259
 21
166.7722310405
 31
0.0
  0
LINE
  5
AFD
330
2
100
AcDbEntity
  8
CENTER
100
AcDbLine
 10
137.7542039259
 20
176.7722310405
 30
0.0
 11
121.7969279259
 21
176.7722310405
 31
0.0
  0
LINE
  5
AFE
330
2
100
AcDbEntity
  8
CENTER
100
AcDbLine
 10
129.7755659259
 20
184.7508690405
 30
0.0
 11
129.7755659259
 21
168.7935930405
 31
0.0
  0
LINE
  5
AFF
330
2
100
AcDbEntity
  8
CENTER
100
AcDbLine
 10
137.7542039259
 20
109.7722310405
 30
0.0
 11
121.7969279259
 21
109.7722310405
 31
0.0
  0
LINE
  5
B00
330
2
100
AcDbEntity
  8
CENTER
100
AcDbLine
 10
129.7755659259
 20
117.7508690405
 30
0.0
 11
129.7755659259
 21
101.7935930405
 31
0.0
  0
LINE
  5
B01
330
2
100
AcDbEntity
  8
CENTER
100
AcDbLine
 10
223.7542039259
 20
109.7722310405
 30
0.0
 11
207.7969279259
 21
109.7722310405
 31
0.0
  0
LINE
  5
B02
330
2
100
AcDbEntity
  8
CENTER
100
AcDbLine
 10
215.7755659259
 20
117.7508690405
 30
0.0
 11
215.7755659259
 21
101.7935930405
 31
0.0
  0
LINE
  5
B04
330
2
100
AcDbEntity
  8
CENTER
100
AcDbLine
 10
641.4251477754
 20
176.7722310405
 30
0.0
 11
625.4678717754
 21
176.7722310405
 31
0.0
  0
LINE
  5
B05
330
2
100
AcDbEntity
  8
CENTER
100
AcDbLine
 10
633.4465097754
 20
184.7508690405
 30
0.0
 11
633.4465097754
 21
168.7935930405
 31
0.0
  0
LINE
  5
B06
330
2
100
AcDbEntity
  8
CENTER
100
AcDbLine
 10
555.4251477754
 20
176.7722310405
 30
0.0
 11
539.4678717754
 21
176.7722310405
 31
0.0
  0
LINE
  5
B07
330
2
100
AcDbEntity
  8
CENTER
100
AcDbLine
 10
547.4465097754
 20
184.7508690405
 30
0.0
 11
547.4465097754
 21
168.7935930405
 31
0.0
  0
LINE
  5
B08
330
2
100
AcDbEntity
  8
CENTER
100
AcDbLine
 10
555.4251477754
 20
109.7722310405
 30
0.0
 11
539.4678717754
 21
109.7722310405
 31
0.0
  0
LINE
  5
B09
330
2
100
AcDbEntity
  8
CENTER
100
AcDbLine
 10
547.4465097754
 20
117.7508690405
 30
0.0
 11
547.4465097754
 21
101.7935930405
 31
0.0
  0
LINE
  5
B0A
330
2
100
AcDbEntity
  8
CENTER
100
AcDbLine
 10
633.4465097754
 20
117.7508690405
 30
0.0
 11
633.4465097754
 21
101.7935930405
 31
0.0
  0
LINE
  5
B0B
330
2
100
AcDbEntity
  8
CENTER
100
AcDbLine
 10
641.4251477754
 20
109.7722310405
 30
0.0
 11
625.4678717754
 21
109.7722310405
 31
0.0
  0
LINE
  5
B11
330
2
100
AcDbEntity
  8
0
100
AcDbLine
 10
81.6184419318
 20
306.620062705
 30
0.0
 11
111.6182579318
 21
306.620062705
 31
0.0
  0
LINE
  5
B12
330
2
100
AcDbEntity
  8
0
100
AcDbLine
 10
96.6183499318
 20
272.620062705
 30
0.0
 11
137.1183499318
 21
273.326994705
 31
0.0
  0
LINE
  5
B13
330
2
100
AcDbEntity
  8
0
100
AcDbLine
 10
131.6182579318
 20
320.920065705
 30
0.0
 11
61.6184419318
 21
320.920065705
 31
0.0
  0
LINE
  5
B18
330
2
100
AcDbEntity
  8
0
100
AcDbLine
 10
96.6183499318
 20
353.620062705
 30
0.0
 11
137.1183499318
 21
352.913138705
 31
0.0
  0
LINE
  5
B19
330
2
100
AcDbEntity
  8
0
100
AcDbLine
 10
104.3801299318
 20
323.313284705
 30
0.0
 11
102.0472139318
 21
327.272558705
 31
0.0
  0
ARC
  5
B1A
330
2
100
AcDbEntity
  8
0
100
AcDbCircle
 10
103.6183499318
 20
326.035010705
 30
0.0
 40
2.0
100
AcDbArc
 50
91.0
 51
180.0
  0
LINE
  5
B1B
330
2
100
AcDbEntity
  8
0
100
AcDbLine
 10
111.6182579318
 20
319.620062705
 30
0.0
 11
81.6184419318
 21
319.620062705
 31
0.0
  0
ARC
  5
B1C
330
2
100
AcDbEntity
  8
0
100
AcDbCircle
 10
103.6183499318
 20
300.205114705
 30
0.0
 40
2.0
100
AcDbArc
 50
180.0
 51
269.0
  0
LINE
  5
B1D
330
2
100
AcDbEntity
  8
0
100
AcDbLine
 10
104.3801299318
 20
302.926840705
 30
0.0
 11
102.0472139318
 21
298.967566705
 31
0.0
  0
LINE
  5
B1E
330
2
100
AcDbEntity
  8
CENTER
100
AcDbLine
 10
39.8797329318
 20
313.120062705
 30
0.0
 11
153.3569669318
 21
313.120062705
 31
0.0
  0
LINE
  5
B23
330
2
100
AcDbEntity
  8
0
100
AcDbLine
 10
81.6184419318
 20
306.620062705
 30
0.0
 11
81.6184419318
 21
319.620062705
 31
0.0
  0
LINE
  5
B24
330
2
100
AcDbEntity
  8
0
100
AcDbLine
 10
63.6184419318
 20
307.120062705
 30
0.0
 11
61.6184419318
 21
305.965368705
 31
0.0
  0
LINE
  5
B25
330
2
100
AcDbEntity
  8
0
100
AcDbLine
 10
61.2183559318
 20
333.970068705
 30
0.0
 11
61.2183559318
 21
292.270056705
 31
0.0
  0
LINE
  5
B26
330
2
100
AcDbEntity
  8
0
100
AcDbLine
 10
58.6183499318
 20
291.520483705
 30
0.0
 11
58.6183499318
 21
334.719641705
 31
0.0
  0
LINE
  5
B27
330
2
100
AcDbEntity
  8
0
100
AcDbLine
 10
61.6184419318
 20
323.120062705
 30
0.0
 11
61.6184419318
 21
303.120062705
 31
0.0
  0
LINE
  5
B28
330
2
100
AcDbEntity
  8
0
100
AcDbLine
 10
56.1183499318
 20
352.913138705
 30
0.0
 11
56.1183499318
 21
273.326994705
 31
0.0
  0
LINE
  5
B29
330
2
100
AcDbEntity
  8
PHAS
  6
sekkei_P_S
100
AcDbLine
 10
45.6183499318
 20
326.096167705
 30
0.0
 11
45.6183499318
 21
300.207037705
 31
0.0
  0
LINE
  5
B2A
330
2
100
AcDbEntity
  8
CENTER
100
AcDbLine
 10
96.6183499318
 20
360.668188705
 30
0.0
 11
96.6183499318
 21
265.571936705
 31
0.0
  0
LINE
  5
B2E
330
2
100
AcDbEntity
  8
0
100
AcDbLine
 10
56.1183499318
 20
284.949850705
 30
0.0
 11
62.6183499318
 21
285.120062705
 31
0.0
  0
LINE
  5
B31
330
2
100
AcDbEntity
  8
0
100
AcDbLine
 10
96.6183499318
 20
272.620062705
 30
0.0
 11
56.1183499318
 21
273.326994705
 31
0.0
  0
LINE
  5
B32
330
2
100
AcDbEntity
  8
PHAS
  6
sekkei_P_S
100
AcDbLine
 10
47.8418909318
 20
297.246176705
 30
0.0
 11
61.2183559318
 21
293.661963705
 31
0.0
  0
ARC
  5
B33
330
2
100
AcDbEntity
  8
PHAS
  6
sekkei_P_S
100
AcDbCircle
 10
48.6183499318
 20
300.143957705
 30
0.0
 40
3.0
100
AcDbArc
 50
180.0
 51
255.0
  0
LINE
  5
B34
330
2
100
AcDbEntity
  8
0
100
AcDbLine
 10
68.6183499318
 20
273.108801705
 30
0.0
 11
68.6183499318
 21
294.031851705
 31
0.0
  0
LINE
  5
B37
330
2
100
AcDbEntity
  8
0
100
AcDbLine
 10
89.6532619318
 20
297.987234705
 30
0.0
 11
73.7405119318
 21
297.709463705
 31
0.0
  0
LINE
  5
B38
330
2
100
AcDbEntity
  8
0
100
AcDbLine
 10
87.3203459318
 20
301.946509705
 30
0.0
 11
75.7926049318
 21
301.745291705
 31
0.0
  0
ARC
  5
B3D
330
2
100
AcDbEntity
  8
0
100
AcDbCircle
 10
60.6183499318
 20
291.520483705
 30
0.0
 40
2.0
100
AcDbArc
 50
180.0
 51
250.0
  0
LINE
  5
B41
330
2
100
AcDbEntity
  8
0
100
AcDbLine
 10
62.8024019318
 20
288.597197705
 30
0.0
 11
59.9342979318
 21
289.641089705
 31
0.0
  0
LINE
  5
B42
330
2
100
AcDbEntity
  8
0
100
AcDbLine
 10
61.6183189318
 20
285.820074705
 30
0.0
 11
62.6183499318
 21
285.820074705
 31
0.0
  0
LINE
  5
B43
330
2
100
AcDbEntity
  8
0
100
AcDbLine
 10
61.6183189318
 20
285.820074705
 30
0.0
 11
61.6183189318
 21
286.650305705
 31
0.0
  0
LINE
  5
B44
330
2
100
AcDbEntity
  8
0
100
AcDbLine
 10
57.6183189318
 20
286.120047705
 30
0.0
 11
57.6183189318
 21
287.118612705
 31
0.0
  0
LINE
  5
B45
330
2
100
AcDbEntity
  8
0
100
AcDbLine
 10
57.6183189318
 20
286.120047705
 30
0.0
 11
61.6183189318
 21
286.120031705
 31
0.0
  0
LINE
  5
B46
330
2
100
AcDbEntity
  8
0
100
AcDbLine
 10
62.6183499318
 20
285.120062705
 30
0.0
 11
62.6183499318
 21
286.381071705
 31
0.0
  0
LINE
  5
B49
330
2
100
AcDbEntity
  8
0
100
AcDbLine
 10
64.1183499318
 20
286.595358705
 30
0.0
 11
64.1183499318
 21
286.717810705
 31
0.0
  0
ARC
  5
B4A
330
2
100
AcDbEntity
  8
0
100
AcDbCircle
 10
62.1183499318
 20
286.717810705
 30
0.0
 40
2.0
100
AcDbArc
 50
0.0
 51
69.999992
  0
LINE
  5
B51
330
2
100
AcDbEntity
  8
0
100
AcDbLine
 10
61.6184419318
 20
303.120062705
 30
0.0
 11
71.6183499318
 21
303.120062705
 31
0.0
  0
LINE
  5
B52
330
2
100
AcDbEntity
  8
0
100
AcDbLine
 10
64.6183499318
 20
297.120062705
 30
0.0
 11
71.6183499318
 21
297.120062705
 31
0.0
  0
LINE
  5
B53
330
2
100
AcDbEntity
  8
0
100
AcDbLine
 10
64.6183499318
 20
297.120062705
 30
0.0
 11
70.6183499318
 21
303.120062705
 31
0.0
  0
LINE
  5
B54
330
2
100
AcDbEntity
  8
0
100
AcDbLine
 10
70.6183499318
 20
297.120062705
 30
0.0
 11
64.6183499318
 21
303.120062705
 31
0.0
  0
LINE
  5
B55
330
2
100
AcDbEntity
  8
0
100
AcDbLine
 10
64.6183499318
 20
297.120062705
 30
0.0
 11
64.6183499318
 21
303.120062705
 31
0.0
  0
LINE
  5
B56
330
2
100
AcDbEntity
  8
0
100
AcDbLine
 10
63.6183499318
 20
292.270056705
 30
0.0
 11
63.6183499318
 21
303.120062705
 31
0.0
  0
LINE
  5
B57
330
2
100
AcDbEntity
  8
0
100
AcDbLine
 10
61.2183559318
 20
292.270056705
 30
0.0
 11
63.6183499318
 21
292.270056705
 31
0.0
  0
LINE
  5
B58
330
2
100
AcDbEntity
  8
PHAS
100
AcDbLine
 10
62.4183679318
 20
293.620062705
 30
0.0
 11
63.6183499318
 21
293.661963705
 31
0.0
  0
ARC
  5
B59
330
2
100
AcDbEntity
  8
PHAS
100
AcDbCircle
 10
62.4183679318
 20
293.840063705
 30
0.0
 40
1.219999999999997
100
AcDbArc
 50
188.302261
 51
349.611145
  0
LINE
  5
B5A
330
2
100
AcDbEntity
  8
0
100
AcDbLine
 10
58.6183499318
 20
293.620062705
 30
0.0
 11
61.2183559318
 21
293.620062705
 31
0.0
  0
LINE
  5
B5B
330
2
100
AcDbEntity
  8
PHAS
100
AcDbLine
 10
62.4183679318
 20
293.620062705
 30
0.0
 11
61.2183559318
 21
293.661963705
 31
0.0
  0
LINE
  5
B5C
330
2
100
AcDbEntity
  8
0
100
AcDbLine
 10
64.6183499318
 20
297.120062705
 30
0.0
 11
63.6183499318
 21
296.542715705
 31
0.0
  0
LINE
  5
B5E
330
2
100
AcDbEntity
  8
0
100
AcDbLine
 10
71.6183499318
 20
296.353354705
 30
0.0
 11
71.6183499318
 21
303.120062705
 31
0.0
  0
LINE
  5
B5F
330
2
100
AcDbEntity
  8
0
100
AcDbLine
 10
70.6183499318
 20
297.120062705
 30
0.0
 11
70.6183499318
 21
303.120062705
 31
0.0
  0
LINE
  5
B61
330
2
100
AcDbEntity
  8
0
100
AcDbLine
 10
71.6183499318
 20
300.620062705
 30
0.0
 11
75.2204619318
 21
300.620062705
 31
0.0
  0
ARC
  5
B68
330
2
100
AcDbEntity
  8
0
100
AcDbCircle
 10
89.6183499318
 20
299.986929705
 30
0.0
 40
2.0
100
AcDbArc
 50
271.0
 51
0.0
  0
ARC
  5
B6A
330
2
100
AcDbEntity
  8
0
100
AcDbCircle
 10
87.2854339318
 20
303.946203705
 30
0.0
 40
2.0
100
AcDbArc
 50
271.0
 51
330.014954
  0
LINE
  5
B6B
330
2
100
AcDbEntity
  8
0
100
AcDbLine
 10
91.1894859318
 20
298.749365705
 30
0.0
 11
88.8565699318
 21
302.708655705
 31
0.0
  0
LINE
  5
B6D
330
2
100
AcDbEntity
  8
0
100
AcDbLine
 10
91.6183499318
 20
299.986929705
 30
0.0
 11
91.6183499318
 21
303.210013705
 31
0.0
  0
LINE
  5
B6E
330
2
100
AcDbEntity
  8
0
100
AcDbLine
 10
101.6183499318
 20
300.205114705
 30
0.0
 11
101.6183499318
 21
302.391455705
 31
0.0
  0
LINE
  5
B72
330
2
100
AcDbEntity
  8
0
100
AcDbLine
 10
56.1183499318
 20
341.290274705
 30
0.0
 11
62.6183499318
 21
341.120062705
 31
0.0
  0
LINE
  5
B74
330
2
100
AcDbEntity
  8
0
100
AcDbLine
 10
96.6183499318
 20
353.620062705
 30
0.0
 11
56.1183499318
 21
352.913138705
 31
0.0
  0
LINE
  5
B75
330
2
100
AcDbEntity
  8
PHAS
  6
sekkei_P_S
100
AcDbLine
 10
47.8418909318
 20
328.993948705
 30
0.0
 11
61.2183559318
 21
332.578161705
 31
0.0
  0
ARC
  5
B76
330
2
100
AcDbEntity
  8
PHAS
  6
sekkei_P_S
100
AcDbCircle
 10
48.6183499318
 20
326.096167705
 30
0.0
 40
3.0
100
AcDbArc
 50
105.0
 51
180.0
  0
ARC
  5
B79
330
2
100
AcDbEntity
  8
0
100
AcDbCircle
 10
62.1183499318
 20
339.522314705
 30
0.0
 40
2.0
100
AcDbArc
 50
290.000008
 51
0.0
  0
LINE
  5
B7A
330
2
100
AcDbEntity
  8
0
100
AcDbLine
 10
57.6183189318
 20
340.120077705
 30
0.0
 11
57.6183189318
 21
339.121512705
 31
0.0
  0
LINE
  5
B7B
330
2
100
AcDbEntity
  8
0
100
AcDbLine
 10
68.6183499318
 20
353.131323705
 30
0.0
 11
68.6183499318
 21
332.208288705
 31
0.0
  0
LINE
  5
B7D
330
2
100
AcDbEntity
  8
0
100
AcDbLine
 10
89.6532619318
 20
328.252905705
 30
0.0
 11
73.7405119318
 21
328.530661705
 31
0.0
  0
LINE
  5
B7E
330
2
100
AcDbEntity
  8
0
100
AcDbLine
 10
87.3203459318
 20
324.293615705
 30
0.0
 11
75.7926049318
 21
324.494833705
 31
0.0
  0
LINE
  5
B7F
330
2
100
AcDbEntity
  8
0
100
AcDbLine
 10
69.6184419318
 20
307.120062705
 30
0.0
 11
81.6184419318
 21
307.120062705
 31
0.0
  0
LINE
  5
B80
330
2
100
AcDbEntity
  8
0
100
AcDbLine
 10
69.6184419318
 20
318.776922705
 30
0.0
 11
81.6184419318
 21
318.776922705
 31
0.0
  0
LINE
  5
B81
330
2
100
AcDbEntity
  8
0
100
AcDbLine
 10
63.6184419318
 20
318.776922705
 30
0.0
 11
68.4684479318
 21
318.776922705
 31
0.0
  0
LINE
  5
B82
330
2
100
AcDbEntity
  8
0
100
AcDbLine
 10
63.6184419318
 20
307.120062705
 30
0.0
 11
68.4684479318
 21
307.120062705
 31
0.0
  0
LINE
  5
B83
330
2
100
AcDbEntity
  8
0
100
AcDbLine
 10
63.6184419318
 20
307.120062705
 30
0.0
 11
63.6184419318
 21
319.120062705
 31
0.0
  0
LINE
  5
B84
330
2
100
AcDbEntity
  8
0
100
AcDbLine
 10
63.6184419318
 20
319.120062705
 30
0.0
 11
61.6184419318
 21
320.274771705
 31
0.0
  0
LINE
  5
B85
330
2
100
AcDbEntity
  8
0
100
AcDbLine
 10
69.6184419318
 20
306.870062705
 30
0.0
 11
69.6184419318
 21
319.370062705
 31
0.0
  0
LINE
  5
B86
330
2
100
AcDbEntity
  8
0
100
AcDbLine
 10
68.4684479318
 20
306.870062705
 30
0.0
 11
68.4684479318
 21
319.370062705
 31
0.0
  0
LINE
  5
B87
330
2
100
AcDbEntity
  8
0
100
AcDbLine
 10
68.4684479318
 20
306.870062705
 30
0.0
 11
69.6184419318
 21
306.870062705
 31
0.0
  0
LINE
  5
B88
330
2
100
AcDbEntity
  8
0
100
AcDbLine
 10
68.4684479318
 20
319.370062705
 30
0.0
 11
69.6184419318
 21
319.370062705
 31
0.0
  0
LINE
  5
B8A
330
2
100
AcDbEntity
  8
0
100
AcDbLine
 10
64.6183499318
 20
329.120062705
 30
0.0
 11
71.6183499318
 21
329.120062705
 31
0.0
  0
LINE
  5
B8B
330
2
100
AcDbEntity
  8
0
100
AcDbLine
 10
61.6184419318
 20
323.120062705
 30
0.0
 11
71.6183499318
 21
323.120062705
 31
0.0
  0
LINE
  5
B8C
330
2
100
AcDbEntity
  8
0
100
AcDbLine
 10
64.6183499318
 20
329.120062705
 30
0.0
 11
70.6183499318
 21
323.120062705
 31
0.0
  0
LINE
  5
B8D
330
2
100
AcDbEntity
  8
0
100
AcDbLine
 10
70.6183499318
 20
329.120062705
 30
0.0
 11
64.6183499318
 21
323.120062705
 31
0.0
  0
LINE
  5
B8E
330
2
100
AcDbEntity
  8
0
100
AcDbLine
 10
63.6183499318
 20
333.970068705
 30
0.0
 11
63.6183499318
 21
323.120062705
 31
0.0
  0
LINE
  5
B8F
330
2
100
AcDbEntity
  8
0
100
AcDbLine
 10
64.6183499318
 20
329.120062705
 30
0.0
 11
64.6183499318
 21
323.120062705
 31
0.0
  0
LINE
  5
B90
330
2
100
AcDbEntity
  8
0
100
AcDbLine
 10
64.6183499318
 20
329.120062705
 30
0.0
 11
63.6183499318
 21
329.697409705
 31
0.0
  0
LINE
  5
B91
330
2
100
AcDbEntity
  8
0
100
AcDbLine
 10
61.2183559318
 20
333.970068705
 30
0.0
 11
63.6183499318
 21
333.970068705
 31
0.0
  0
LINE
  5
B92
330
2
100
AcDbEntity
  8
0
100
AcDbLine
 10
62.8024019318
 20
337.642935705
 30
0.0
 11
59.9342979318
 21
336.599035705
 31
0.0
  0
LINE
  5
B93
330
2
100
AcDbEntity
  8
PHAS
100
AcDbLine
 10
62.4183679318
 20
332.620062705
 30
0.0
 11
63.6183499318
 21
332.578161705
 31
0.0
  0
ARC
  5
B94
330
2
100
AcDbEntity
  8
PHAS
100
AcDbCircle
 10
62.4183679318
 20
332.400061705
 30
0.0
 40
1.219999999999997
100
AcDbArc
 50
10.388855
 51
171.697739
  0
ARC
  5
B95
330
2
100
AcDbEntity
  8
0
100
AcDbCircle
 10
60.6183499318
 20
334.719641705
 30
0.0
 40
2.0
100
AcDbArc
 50
110.0
 51
180.0
  0
LINE
  5
B96
330
2
100
AcDbEntity
  8
0
100
AcDbLine
 10
58.6183499318
 20
332.620062705
 30
0.0
 11
61.2183559318
 21
332.620062705
 31
0.0
  0
LINE
  5
B97
330
2
100
AcDbEntity
  8
PHAS
100
AcDbLine
 10
62.4183679318
 20
332.620062705
 30
0.0
 11
61.2183559318
 21
332.578161705
 31
0.0
  0
LINE
  5
B9A
330
2
100
AcDbEntity
  8
0
100
AcDbLine
 10
71.6183499318
 20
325.620062705
 30
0.0
 11
75.2204619318
 21
325.620062705
 31
0.0
  0
LINE
  5
B9B
330
2
100
AcDbEntity
  8
0
100
AcDbLine
 10
71.6183499318
 20
323.120062705
 30
0.0
 11
71.6183499318
 21
329.886770705
 31
0.0
  0
LINE
  5
B9C
330
2
100
AcDbEntity
  8
0
100
AcDbLine
 10
70.6183499318
 20
329.120062705
 30
0.0
 11
70.6183499318
 21
323.120062705
 31
0.0
  0
LINE
  5
BA1
330
2
100
AcDbEntity
  8
0
100
AcDbLine
 10
91.6183499318
 20
323.030111705
 30
0.0
 11
91.6183499318
 21
326.253195705
 31
0.0
  0
ARC
  5
BA2
330
2
100
AcDbEntity
  8
0
100
AcDbCircle
 10
89.6183499318
 20
326.253195705
 30
0.0
 40
2.0
100
AcDbArc
 50
0.0
 51
89.0
  0
LINE
  5
BA3
330
2
100
AcDbEntity
  8
0
100
AcDbLine
 10
88.8565699318
 20
323.531469705
 30
0.0
 11
91.1894859318
 21
327.490759705
 31
0.0
  0
ARC
  5
BA4
330
2
100
AcDbEntity
  8
0
100
AcDbCircle
 10
87.2854339318
 20
322.293921705
 30
0.0
 40
2.0
100
AcDbArc
 50
29.985052
 51
89.0
  0
LINE
  5
BA5
330
2
100
AcDbEntity
  8
0
100
AcDbLine
 10
101.6183499318
 20
326.035010705
 30
0.0
 11
101.6183499318
 21
323.848669705
 31
0.0
  0
LINE
  5
BAC
330
2
100
AcDbEntity
  8
0
100
AcDbLine
 10
61.6183189318
 20
340.420050705
 30
0.0
 11
62.6183499318
 21
340.420050705
 31
0.0
  0
LINE
  5
BAD
330
2
100
AcDbEntity
  8
0
100
AcDbLine
 10
57.6183189318
 20
340.120077705
 30
0.0
 11
61.6183189318
 21
340.120093705
 31
0.0
  0
LINE
  5
BAE
330
2
100
AcDbEntity
  8
0
100
AcDbLine
 10
61.6183189318
 20
340.420050705
 30
0.0
 11
61.6183189318
 21
339.589819705
 31
0.0
  0
LINE
  5
BB0
330
2
100
AcDbEntity
  8
0
100
AcDbLine
 10
64.1183499318
 20
339.644766705
 30
0.0
 11
64.1183499318
 21
339.522314705
 31
0.0
  0
LINE
  5
BB1
330
2
100
AcDbEntity
  8
0
100
AcDbLine
 10
62.6183499318
 20
341.120062705
 30
0.0
 11
62.6183499318
 21
339.859060705
 31
0.0
  0
LINE
  5
BBC
330
2
100
AcDbEntity
  8
0
100
AcDbLine
 10
132.0183439318
 20
333.970068705
 30
0.0
 11
132.0183439318
 21
292.270056705
 31
0.0
  0
LINE
  5
BBD
330
2
100
AcDbEntity
  8
0
100
AcDbLine
 10
134.6183499318
 20
291.520483705
 30
0.0
 11
134.6183499318
 21
334.719641705
 31
0.0
  0
LINE
  5
BBE
330
2
100
AcDbEntity
  8
0
100
AcDbLine
 10
131.6182579318
 20
323.120062705
 30
0.0
 11
131.6182579318
 21
303.120062705
 31
0.0
  0
LINE
  5
BBF
330
2
100
AcDbEntity
  8
0
100
AcDbLine
 10
111.6182579318
 20
306.620062705
 30
0.0
 11
111.6182579318
 21
319.620062705
 31
0.0
  0
LINE
  5
BC0
330
2
100
AcDbEntity
  8
0
100
AcDbLine
 10
137.1183499318
 20
352.913138705
 30
0.0
 11
137.1183499318
 21
273.326994705
 31
0.0
  0
LINE
  5
BC1
330
2
100
AcDbEntity
  8
0
100
AcDbLine
 10
129.6182579318
 20
307.120062705
 30
0.0
 11
131.6182579318
 21
305.965368705
 31
0.0
  0
LINE
  5
BC2
330
2
100
AcDbEntity
  8
PHAS
  6
sekkei_P_S
100
AcDbLine
 10
147.6183499318
 20
326.096167705
 30
0.0
 11
147.6183499318
 21
300.207037705
 31
0.0
  0
LINE
  5
BC8
330
2
100
AcDbEntity
  8
0
100
AcDbLine
 10
131.6182579318
 20
303.120062705
 30
0.0
 11
121.6183499318
 21
303.120062705
 31
0.0
  0
LINE
  5
BC9
330
2
100
AcDbEntity
  8
0
100
AcDbLine
 10
128.6183499318
 20
297.120062705
 30
0.0
 11
121.6183499318
 21
297.120062705
 31
0.0
  0
LINE
  5
BCA
330
2
100
AcDbEntity
  8
0
100
AcDbLine
 10
128.6183499318
 20
297.120062705
 30
0.0
 11
122.6183499318
 21
303.120062705
 31
0.0
  0
LINE
  5
BCB
330
2
100
AcDbEntity
  8
0
100
AcDbLine
 10
122.6183499318
 20
297.120062705
 30
0.0
 11
128.6183499318
 21
303.120062705
 31
0.0
  0
LINE
  5
BD7
330
2
100
AcDbEntity
  8
0
100
AcDbLine
 10
103.5834379318
 20
298.205420705
 30
0.0
 11
118.8880949318
 21
297.938269705
 31
0.0
  0
LINE
  5
BD8
330
2
100
AcDbEntity
  8
0
100
AcDbLine
 10
105.9163539318
 20
302.164694705
 30
0.0
 11
118.1903409318
 21
301.950445705
 31
0.0
  0
ARC
  5
BDA
330
2
100
AcDbEntity
  8
0
100
AcDbCircle
 10
105.9512659318
 20
304.164389705
 30
0.0
 40
2.0
100
AcDbArc
 50
215.590439
 51
269.0
  0
LINE
  5
BDC
330
2
100
AcDbEntity
  8
0
100
AcDbLine
 10
121.6183499318
 20
296.085730705
 30
0.0
 11
121.6183499318
 21
303.120062705
 31
0.0
  0
LINE
  5
BDD
330
2
100
AcDbEntity
  8
0
100
AcDbLine
 10
122.6183499318
 20
297.120062705
 30
0.0
 11
122.6183499318
 21
303.120062705
 31
0.0
  0
LINE
  5
BDF
330
2
100
AcDbEntity
  8
0
100
AcDbLine
 10
121.6183499318
 20
300.620062705
 30
0.0
 11
118.4216949318
 21
300.620062705
 31
0.0
  0
ARC
  5
BE0
330
2
100
AcDbEntity
  8
0
100
AcDbCircle
 10
132.6183499318
 20
291.520483705
 30
0.0
 40
2.0
100
AcDbArc
 50
290.0
 51
0.0
  0
LINE
  5
BE3
330
2
100
AcDbEntity
  8
0
100
AcDbLine
 10
130.4342069318
 20
288.597159705
 30
0.0
 11
133.3024019318
 21
289.641089705
 31
0.0
  0
ARC
  5
BE4
330
2
100
AcDbEntity
  8
0
100
AcDbCircle
 10
131.1182579318
 20
286.717772705
 30
0.0
 40
2.0
100
AcDbArc
 50
110.000008
 51
180.0
  0
LINE
  5
BE5
330
2
100
AcDbEntity
  8
0
100
AcDbLine
 10
129.1182579318
 20
286.265158705
 30
0.0
 11
129.1182579318
 21
286.717772705
 31
0.0
  0
LINE
  5
BE8
330
2
100
AcDbEntity
  8
PHAS
  6
sekkei_P_S
100
AcDbLine
 10
145.3948089318
 20
297.246176705
 30
0.0
 11
132.0183439318
 21
293.661963705
 31
0.0
  0
LINE
  5
BE9
330
2
100
AcDbEntity
  8
0
100
AcDbLine
 10
128.6183499318
 20
297.120062705
 30
0.0
 11
128.6183499318
 21
303.120062705
 31
0.0
  0
LINE
  5
BEA
330
2
100
AcDbEntity
  8
0
100
AcDbLine
 10
129.6183499318
 20
292.270056705
 30
0.0
 11
129.6183499318
 21
303.120062705
 31
0.0
  0
LINE
  5
BEB
330
2
100
AcDbEntity
  8
0
100
AcDbLine
 10
134.6183499318
 20
293.620062705
 30
0.0
 11
132.0183439318
 21
293.620062705
 31
0.0
  0
LINE
  5
BEC
330
2
100
AcDbEntity
  8
0
100
AcDbLine
 10
132.0183439318
 20
292.270056705
 30
0.0
 11
129.6183499318
 21
292.270056705
 31
0.0
  0
LINE
  5
BED
330
2
100
AcDbEntity
  8
PHAS
100
AcDbLine
 10
130.8183319318
 20
293.620062705
 30
0.0
 11
129.6183499318
 21
293.661963705
 31
0.0
  0
LINE
  5
BEE
330
2
100
AcDbEntity
  8
PHAS
100
AcDbLine
 10
130.8183319318
 20
293.620062705
 30
0.0
 11
132.0183439318
 21
293.661963705
 31
0.0
  0
ARC
  5
BEF
330
2
100
AcDbEntity
  8
PHAS
100
AcDbCircle
 10
130.8183319318
 20
293.840063705
 30
0.0
 40
1.219999999999997
100
AcDbArc
 50
190.388855
 51
351.697737
  0
LINE
  5
BF0
330
2
100
AcDbEntity
  8
0
100
AcDbLine
 10
128.6183499318
 20
297.120062705
 30
0.0
 11
129.6183499318
 21
296.542715705
 31
0.0
  0
ARC
  5
BF1
330
2
100
AcDbEntity
  8
PHAS
  6
sekkei_P_S
100
AcDbCircle
 10
144.6183499318
 20
300.143957705
 30
0.0
 40
3.0
100
AcDbArc
 50
285.0
 51
0.0
  0
ARC
  5
BF3
330
2
100
AcDbEntity
  8
0
100
AcDbCircle
 10
131.1182579318
 20
339.522345705
 30
0.0
 40
2.0
100
AcDbArc
 50
180.0
 51
250.0
  0
LINE
  5
BF4
330
2
100
AcDbEntity
  8
0
100
AcDbLine
 10
128.6183499318
 20
329.120062705
 30
0.0
 11
121.6183499318
 21
329.120062705
 31
0.0
  0
LINE
  5
BF5
330
2
100
AcDbEntity
  8
0
100
AcDbLine
 10
131.6182579318
 20
323.120062705
 30
0.0
 11
121.6183499318
 21
323.120062705
 31
0.0
  0
LINE
  5
BF6
330
2
100
AcDbEntity
  8
0
100
AcDbLine
 10
129.6182579318
 20
318.776922705
 30
0.0
 11
124.7682519318
 21
318.776922705
 31
0.0
  0
LINE
  5
BF7
330
2
100
AcDbEntity
  8
0
100
AcDbLine
 10
128.6183499318
 20
329.120062705
 30
0.0
 11
122.6183499318
 21
323.120062705
 31
0.0
  0
LINE
  5
BF8
330
2
100
AcDbEntity
  8
0
100
AcDbLine
 10
122.6183499318
 20
329.120062705
 30
0.0
 11
128.6183499318
 21
323.120062705
 31
0.0
  0
LINE
  5
BF9
330
2
100
AcDbEntity
  8
0
100
AcDbLine
 10
129.6182579318
 20
307.120062705
 30
0.0
 11
124.7682519318
 21
307.120062705
 31
0.0
  0
LINE
  5
BFB
330
2
100
AcDbEntity
  8
0
100
AcDbLine
 10
123.6182579318
 20
318.776922705
 30
0.0
 11
111.6182579318
 21
318.776922705
 31
0.0
  0
LINE
  5
BFC
330
2
100
AcDbEntity
  8
0
100
AcDbLine
 10
123.6182579318
 20
307.120062705
 30
0.0
 11
111.6182579318
 21
307.120062705
 31
0.0
  0
LINE
  5
BFD
330
2
100
AcDbEntity
  8
0
100
AcDbLine
 10
123.6182579318
 20
306.870062705
 30
0.0
 11
123.6182579318
 21
319.370062705
 31
0.0
  0
LINE
  5
BFE
330
2
100
AcDbEntity
  8
0
100
AcDbLine
 10
124.7682519318
 20
306.870062705
 30
0.0
 11
124.7682519318
 21
319.370062705
 31
0.0
  0
LINE
  5
BFF
330
2
100
AcDbEntity
  8
0
100
AcDbLine
 10
124.7682519318
 20
306.870062705
 30
0.0
 11
123.6182579318
 21
306.870062705
 31
0.0
  0
LINE
  5
C00
330
2
100
AcDbEntity
  8
0
100
AcDbLine
 10
124.7682519318
 20
319.370062705
 30
0.0
 11
123.6182579318
 21
319.370062705
 31
0.0
  0
LINE
  5
C02
330
2
100
AcDbEntity
  8
0
100
AcDbLine
 10
103.5834379318
 20
328.034704705
 30
0.0
 11
118.8880949318
 21
328.301855705
 31
0.0
  0
LINE
  5
C03
330
2
100
AcDbEntity
  8
0
100
AcDbLine
 10
105.9163539318
 20
324.075430705
 30
0.0
 11
118.1903409318
 21
324.289679705
 31
0.0
  0
ARC
  5
C04
330
2
100
AcDbEntity
  8
0
100
AcDbCircle
 10
105.9512659318
 20
322.075735705
 30
0.0
 40
2.0
100
AcDbArc
 50
91.0
 51
144.409561
  0
LINE
  5
C06
330
2
100
AcDbEntity
  8
0
100
AcDbLine
 10
121.6183499318
 20
325.620062705
 30
0.0
 11
118.4216949318
 21
325.620062705
 31
0.0
  0
LINE
  5
C08
330
2
100
AcDbEntity
  8
0
100
AcDbLine
 10
121.6183499318
 20
323.120062705
 30
0.0
 11
121.6183499318
 21
330.154394705
 31
0.0
  0
LINE
  5
C09
330
2
100
AcDbEntity
  8
0
100
AcDbLine
 10
122.6183499318
 20
329.120062705
 30
0.0
 11
122.6183499318
 21
323.120062705
 31
0.0
  0
LINE
  5
C0B
330
2
100
AcDbEntity
  8
0
100
AcDbLine
 10
129.6182579318
 20
307.120062705
 30
0.0
 11
129.6182579318
 21
319.120062705
 31
0.0
  0
LINE
  5
C0C
330
2
100
AcDbEntity
  8
0
100
AcDbLine
 10
129.6182579318
 20
319.120062705
 30
0.0
 11
131.6182579318
 21
320.274771705
 31
0.0
  0
LINE
  5
C0D
330
2
100
AcDbEntity
  8
PHAS
  6
sekkei_P_S
100
AcDbLine
 10
145.3948089318
 20
328.993948705
 30
0.0
 11
132.0183439318
 21
332.578161705
 31
0.0
  0
LINE
  5
C0E
330
2
100
AcDbEntity
  8
0
100
AcDbLine
 10
129.6183499318
 20
333.970068705
 30
0.0
 11
129.6183499318
 21
323.120062705
 31
0.0
  0
LINE
  5
C0F
330
2
100
AcDbEntity
  8
0
100
AcDbLine
 10
128.6183499318
 20
329.120062705
 30
0.0
 11
128.6183499318
 21
323.120062705
 31
0.0
  0
LINE
  5
C10
330
2
100
AcDbEntity
  8
0
100
AcDbLine
 10
128.6183499318
 20
329.120062705
 30
0.0
 11
129.6183499318
 21
329.697409705
 31
0.0
  0
LINE
  5
C11
330
2
100
AcDbEntity
  8
0
100
AcDbLine
 10
130.4342069318
 20
337.642965705
 30
0.0
 11
133.3024019318
 21
336.599035705
 31
0.0
  0
LINE
  5
C12
330
2
100
AcDbEntity
  8
0
100
AcDbLine
 10
134.6183499318
 20
332.620062705
 30
0.0
 11
132.0183439318
 21
332.620062705
 31
0.0
  0
LINE
  5
C13
330
2
100
AcDbEntity
  8
0
100
AcDbLine
 10
132.0183439318
 20
333.970068705
 30
0.0
 11
129.6183499318
 21
333.970068705
 31
0.0
  0
LINE
  5
C14
330
2
100
AcDbEntity
  8
PHAS
100
AcDbLine
 10
130.8183319318
 20
332.620062705
 30
0.0
 11
132.0183439318
 21
332.578161705
 31
0.0
  0
LINE
  5
C15
330
2
100
AcDbEntity
  8
PHAS
100
AcDbLine
 10
130.8183319318
 20
332.620062705
 30
0.0
 11
129.6183499318
 21
332.578161705
 31
0.0
  0
ARC
  5
C16
330
2
100
AcDbEntity
  8
PHAS
100
AcDbCircle
 10
130.8183319318
 20
332.400061705
 30
0.0
 40
1.219999999999997
100
AcDbArc
 50
8.302277
 51
169.611145
  0
ARC
  5
C17
330
2
100
AcDbEntity
  8
0
100
AcDbCircle
 10
132.6183499318
 20
334.719641705
 30
0.0
 40
2.0
100
AcDbArc
 50
0.0
 51
70.0
  0
ARC
  5
C18
330
2
100
AcDbEntity
  8
PHAS
  6
sekkei_P_S
100
AcDbCircle
 10
144.6183499318
 20
326.096167705
 30
0.0
 40
3.0
100
AcDbArc
 50
0.0
 51
75.0
  0
LINE
  5
C27
330
2
100
AcDbEntity
  8
0
100
AcDbLine
 10
129.1182579318
 20
339.974966705
 30
0.0
 11
129.1182579318
 21
339.522345705
 31
0.0
  0
LINE
  5
1618
330
2
100
AcDbEntity
  8
0
100
AcDbLine
 10
345.2307318238
 20
152.4460290405
 30
0.0
 11
345.2307318238
 21
134.0984330405
 31
0.0
  0
LINE
  5
161D
330
2
100
AcDbEntity
  8
0
100
AcDbLine
 10
347.5637398238
 20
130.1390220405
 30
0.0
 11
347.5637398238
 21
156.4054400405
 31
0.0
  0
LINE
  5
161E
330
2
100
AcDbEntity
  8
0
100
AcDbLine
 10
324.5637398238
 20
131.7722310405
 30
0.0
 11
312.0637398238
 21
131.7722310405
 31
0.0
  0
LINE
  5
161F
330
2
100
AcDbEntity
  8
0
100
AcDbLine
 10
324.5637398238
 20
127.7722310405
 30
0.0
 11
312.0637398238
 21
127.7722310405
 31
0.0
  0
LINE
  5
1623
330
2
100
AcDbEntity
  8
0
100
AcDbLine
 10
312.0637398238
 20
124.4424280405
 30
0.0
 11
318.5637398238
 21
124.2722310405
 31
0.0
  0
LINE
  5
1624
330
2
100
AcDbEntity
  8
0
100
AcDbLine
 10
313.5637398238
 20
123.2722310405
 30
0.0
 11
317.5637398238
 21
123.2722310405
 31
0.0
  0
LINE
  5
1625
330
2
100
AcDbEntity
  8
CENTER
100
AcDbLine
 10
311.6241338238
 20
119.7722310405
 30
0.0
 11
319.6087528238
 21
119.7722310405
 31
0.0
  0
LINE
  5
1626
330
2
100
AcDbEntity
  8
0
100
AcDbLine
 10
313.5637398238
 20
117.7887416832
 30
0.0
 11
313.5637398238
 21
123.2722310405
 31
0.0
  0
LINE
  5
1627
330
2
100
AcDbEntity
  8
0
100
AcDbLine
 10
317.5637398238
 20
123.5722190405
 30
0.0
 11
318.5637398238
 21
123.5722190405
 31
0.0
  0
LINE
  5
1628
330
2
100
AcDbEntity
  8
0
100
AcDbLine
 10
318.5637398238
 20
118.0255030274
 30
0.0
 11
318.5637398238
 21
124.2722310405
 31
0.0
  0
LINE
  5
1629
330
2
100
AcDbEntity
  8
0
100
AcDbLine
 10
317.5637398238
 20
117.8994526072
 30
0.0
 11
317.5637398238
 21
123.5722190405
 31
0.0
  0
LINE
  5
1631
330
2
100
AcDbEntity
  8
0
100
AcDbLine
 10
343.2657358238
 20
132.0986160405
 30
0.0
 11
324.5637398238
 21
131.7722310405
 31
0.0
  0
LINE
  5
1632
330
2
100
AcDbEntity
  8
0
100
AcDbLine
 10
345.5987438238
 20
128.1394190405
 30
0.0
 11
324.5637398238
 21
127.7722310405
 31
0.0
  0
LINE
  5
1633
330
2
100
AcDbEntity
  8
0
100
AcDbLine
 10
347.1349378238
 20
128.9016260405
 30
0.0
 11
344.8019298238
 21
132.8608240405
 31
0.0
  0
ARC
  5
1634
330
2
100
AcDbEntity
  8
0
100
AcDbCircle
 10
345.5637398238
 20
130.1390220405
 30
0.0
 40
2.0
100
AcDbArc
 50
271.0
 51
0.0
  0
ARC
  5
1635
330
2
100
AcDbEntity
  8
0
100
AcDbCircle
 10
343.2307318238
 20
134.0984330405
 30
0.0
 40
2.0
100
AcDbArc
 50
271.0
 51
0.0
  0
LINE
  5
1639
330
2
100
AcDbEntity
  8
0
100
AcDbLine
 10
324.5637398238
 20
158.7722310405
 30
0.0
 11
312.0637398238
 21
158.7722310405
 31
0.0
  0
LINE
  5
163A
330
2
100
AcDbEntity
  8
0
100
AcDbLine
 10
324.5637398238
 20
154.7722310405
 30
0.0
 11
312.0637398238
 21
154.7722310405
 31
0.0
  0
LINE
  5
163B
330
2
100
AcDbEntity
  8
CENTER
100
AcDbLine
 10
311.6241338238
 20
166.7722310405
 30
0.0
 11
319.6087528238
 21
166.7722310405
 31
0.0
  0
LINE
  5
163C
330
2
100
AcDbEntity
  8
0
100
AcDbLine
 10
313.5637398238
 20
163.2722310405
 30
0.0
 11
317.5637398238
 21
163.2722310405
 31
0.0
  0
LINE
  5
163D
330
2
100
AcDbEntity
  8
0
100
AcDbLine
 10
312.0637398238
 20
171.4424280405
 30
0.0
 11
318.5637398238
 21
171.2722310405
 31
0.0
  0
LINE
  5
163E
330
2
100
AcDbEntity
  8
0
100
AcDbLine
 10
313.5637398238
 20
170.2722310405
 30
0.0
 11
317.5637398238
 21
170.2722310405
 31
0.0
  0
LINE
  5
163F
330
2
100
AcDbEntity
  8
0
100
AcDbLine
 10
312.0637398238
 20
162.1020340405
 30
0.0
 11
318.5637398238
 21
162.2722310405
 31
0.0
  0
LINE
  5
1640
330
2
100
AcDbEntity
  8
0
100
AcDbLine
 10
313.5637398238
 20
170.2722310405
 30
0.0
 11
313.5637398238
 21
163.2722310405
 31
0.0
  0
LINE
  5
1641
330
2
100
AcDbEntity
  8
0
100
AcDbLine
 10
317.5637398238
 20
170.5722190405
 30
0.0
 11
318.5637398238
 21
170.5722190405
 31
0.0
  0
LINE
  5
1643
330
2
100
AcDbEntity
  8
0
100
AcDbLine
 10
317.5637398238
 20
170.5722190405
 30
0.0
 11
317.5637398238
 21
162.9722430405
 31
0.0
  0
LINE
  5
1644
330
2
100
AcDbEntity
  8
0
100
AcDbLine
 10
318.5637398238
 20
171.2722310405
 30
0.0
 11
318.5637398238
 21
162.2722310405
 31
0.0
  0
LINE
  5
1648
330
2
100
AcDbEntity
  8
0
100
AcDbLine
 10
345.5987438238
 20
158.4050430405
 30
0.0
 11
324.5637398238
 21
158.7722310405
 31
0.0
  0
LINE
  5
1649
330
2
100
AcDbEntity
  8
0
100
AcDbLine
 10
343.2657358238
 20
154.4458460405
 30
0.0
 11
324.5637398238
 21
154.7722310405
 31
0.0
  0
ARC
  5
164B
330
2
100
AcDbEntity
  8
0
100
AcDbCircle
 10
345.5637398238
 20
156.4054400405
 30
0.0
 40
2.0
100
AcDbArc
 50
0.0
 51
89.0
  0
LINE
  5
164C
330
2
100
AcDbEntity
  8
0
100
AcDbLine
 10
344.8019298238
 20
153.6836380405
 30
0.0
 11
347.1349378238
 21
157.6428360405
 31
0.0
  0
ARC
  5
164D
330
2
100
AcDbEntity
  8
0
100
AcDbCircle
 10
343.2307318238
 20
152.4460290405
 30
0.0
 40
2.0
100
AcDbArc
 50
0.0
 51
89.0
  0
LINE
  5
1651
330
2
100
AcDbEntity
  8
0
100
AcDbLine
 10
359.8967478238
 20
152.2278280405
 30
0.0
 11
359.8967478238
 21
134.3166340405
 31
0.0
  0
LINE
  5
1653
330
2
100
AcDbEntity
  8
0
100
AcDbLine
 10
357.5637398238
 20
156.1872400405
 30
0.0
 11
357.5637398238
 21
130.3572220405
 31
0.0
  0
LINE
  5
1657
330
2
100
AcDbEntity
  8
0
100
AcDbLine
 10
361.8617438238
 20
132.3168170405
 30
0.0
 11
393.0637398238
 21
131.7722310405
 31
0.0
  0
LINE
  5
1658
330
2
100
AcDbEntity
  8
0
100
AcDbLine
 10
359.5287358238
 20
128.3576190405
 30
0.0
 11
393.0637398238
 21
127.7722310405
 31
0.0
  0
LINE
  5
165D
330
2
100
AcDbEntity
  8
0
100
AcDbLine
 10
360.3255498238
 20
133.0790240405
 30
0.0
 11
357.9925418238
 21
129.1198260405
 31
0.0
  0
ARC
  5
165E
330
2
100
AcDbEntity
  8
0
100
AcDbCircle
 10
359.5637398238
 20
130.3572220405
 30
0.0
 40
2.0
100
AcDbArc
 50
180.0
 51
269.0
  0
ARC
  5
165F
330
2
100
AcDbEntity
  8
0
100
AcDbCircle
 10
361.8967478238
 20
134.3166340405
 30
0.0
 40
2.0
100
AcDbArc
 50
180.0
 51
269.0
  0
LINE
  5
1660
330
2
100
AcDbEntity
  8
0
100
AcDbLine
 10
359.5287358238
 20
158.1868430405
 30
0.0
 11
393.0637398238
 21
158.7722310405
 31
0.0
  0
LINE
  5
1663
330
2
100
AcDbEntity
  8
0
100
AcDbLine
 10
361.8617438238
 20
154.2276450405
 30
0.0
 11
393.0637398238
 21
154.7722310405
 31
0.0
  0
ARC
  5
1666
330
2
100
AcDbEntity
  8
0
100
AcDbCircle
 10
359.5637398238
 20
156.1872400405
 30
0.0
 40
2.0
100
AcDbArc
 50
91.0
 51
180.0
  0
ARC
  5
1667
330
2
100
AcDbEntity
  8
0
100
AcDbCircle
 10
361.8967478238
 20
152.2278280405
 30
0.0
 40
2.0
100
AcDbArc
 50
91.0
 51
180.0
  0
LINE
  5
1668
330
2
100
AcDbEntity
  8
0
100
AcDbLine
 10
360.3255498238
 20
153.4654380405
 30
0.0
 11
357.9925418238
 21
157.4246360405
 31
0.0
  0
LWPOLYLINE
  5
27CB
330
2
100
AcDbEntity
  8
HOJO
100
AcDbPolyline
 90
       21
 70
     0
 43
0.0
 10
56.1183499318
 20
339.180105705
 10
59.5924709318
 20
339.044394705
 10
63.1862519318
 20
340.011953705
 10
66.4921899318
 20
338.709616705
 10
66.6517359318
 20
334.880865705
 10
69.7625759318
 20
330.653280705
 10
73.4317959318
 20
329.137747705
 10
75.8247709318
 20
324.431570705
 10
80.4511749318
 20
322.836249705
 10
87.2312649318
 20
323.474386705
 10
93.5327479318
 20
322.836249705
 10
101.5093109318
 20
323.873205705
 10
107.8905669318
 20
322.437430705
 10
113.6336999318
 20
324.192267705
 10
118.0207849318
 20
323.314856705
 10
118.9779689318
 20
328.818670705
 10
125.7580589318
 20
332.248602705
 10
125.9175749318
 20
337.194067705
 10
129.7531769318
 20
340.526617705
 10
133.4011559318
 20
340.169745705
 10
137.1183499318
 20
340.541464705
  0
LWPOLYLINE
  5
27CC
330
2
100
AcDbEntity
  8
HOJO
100
AcDbPolyline
 90
       21
 70
     0
 43
0.0
 10
56.1183499318
 20
287.060019705
 10
59.5924709318
 20
287.195723705
 10
63.1862519318
 20
286.228171705
 10
66.4921899318
 20
287.530508705
 10
66.6517359318
 20
291.359259705
 10
69.7625759318
 20
295.586844705
 10
73.4317959318
 20
297.102377705
 10
75.8247709318
 20
301.808554705
 10
80.4511749318
 20
303.403875705
 10
87.2312649318
 20
302.765738705
 10
93.5327479318
 20
303.403875705
 10
101.5093109318
 20
302.366919705
 10
107.8905669318
 20
303.802694705
 10
113.6336999318
 20
302.047857705
 10
118.0207849318
 20
302.925268705
 10
118.9779689318
 20
297.421454705
 10
125.7580589318
 20
293.991522705
 10
125.9175749318
 20
289.046057705
 10
129.7531769318
 20
285.713507705
 10
133.4011559318
 20
286.070372705
 10
137.1183499318
 20
285.698652705
  0
LWPOLYLINE
  5
27CD
330
2
100
AcDbEntity
  8
HOJO
100
AcDbPolyline
 90
       21
 70
     0
 43
0.0
 10
312.0637398238
 20
117.8902438425
 10
315.5949898238
 20
117.6512908425
 10
319.3137398238
 20
118.1200408425
 10
323.0949898238
 20
117.7137908425
 10
326.5949898238
 20
118.2137908425
 10
330.6262398238
 20
117.6825408425
 10
334.1574898238
 20
118.2450408425
 10
338.6887398238
 20
117.7450408425
 10
343.3762398238
 20
118.3700408425
 10
348.0637398238
 20
117.7762908425
 10
351.8762398238
 20
118.4012908425
 10
357.1887398238
 20
117.9012908425
 10
361.0949898238
 20
118.5575408425
 10
365.7199898238
 20
117.7137908425
 10
370.1262398238
 20
118.5575408425
 10
374.1887398238
 20
117.6825408425
 10
377.5637398238
 20
118.5262908425
 10
381.8449898238
 20
117.7762908425
 10
385.4699898238
 20
118.4950408425
 10
389.3449898238
 20
117.7762908425
 10
393.0637398238
 20
118.3186108425
  0
TEXT
  5
30E0
330
2
100
AcDbEntity
  8
TITLE_C
100
AcDbText
 10
-20.5254391223
 20
6.7652639134
 30
0.0
 40
7.0
  1
F2S12N010～240-CTML15NNX
 41
0.75
100
AcDbText
  0
TEXT
  5
30E1
330
2
100
AcDbEntity
  8
TITLE_C
100
AcDbText
 10
-20.5254391223
 20
-5.2347360866
 30
0.0
 40
7.0
  1
F2S12N010～240-CTML15WN
 41
0.75
100
AcDbText
  0
TEXT
  5
30E2
330
2
100
AcDbEntity
  8
TITLE_C
100
AcDbText
 10
-20.5254391223
 20
-41.0349343213
 30
0.0
 40
7.0
  1
F2S12N010～240-CTML25WN
 41
0.75
100
AcDbText
  0
TEXT
  5
30E3
330
2
100
AcDbEntity
  8
TITLE_C
100
AcDbText
 10
-20.5254391223
 20
-29.0349343213
 30
0.0
 40
7.0
  1
F2S12N010～240-CTML25NNX
 41
0.75
100
AcDbText
  0
TEXT
  5
30E6
330
2
100
AcDbEntity
  8
TITLE_C
100
AcDbText
 10
103.6264336824
 20
17.2606090269
 30
0.0
 40
7.0
  1
F2S12N010～240-CSML15NN
 41
0.75
100
AcDbText
  0
LINE
  5
3986
330
2
100
AcDbEntity
  8
CENTER
100
AcDbLine
 10
692.7102312373
 20
352.8164926421
 30
0.0
 11
702.2937503136
 21
352.8164926421
 31
0.0
  0
CIRCLE
  5
3987
330
2
100
AcDbEntity
  8
0
100
AcDbCircle
 10
697.5019907754
 20
352.8164926421
 30
0.0
 40
3.799999999999998
  0
CIRCLE
  5
3988
330
2
100
AcDbEntity
  8
0
100
AcDbCircle
 10
697.5019907754
 20
352.8164926421
 30
0.0
 40
3.499999999999146
  0
LINE
  5
3989
330
2
100
AcDbEntity
  8
CENTER
100
AcDbLine
 10
697.5019907754
 20
357.6082521802
 30
0.0
 11
697.5019907754
 21
348.024733104
 31
0.0
  0
ARC
  5
398A
330
2
100
AcDbEntity
  8
0
100
AcDbCircle
 10
699.3156271391
 20
354.6301290057
 30
0.0
 40
1.336363636363619
100
AcDbArc
 50
180.0
 51
270.0
  0
ARC
  5
398B
330
2
100
AcDbEntity
  8
0
100
AcDbCircle
 10
695.6883544118
 20
354.6301290057
 30
0.0
 40
1.336363636363619
100
AcDbArc
 50
270.0
 51
0.0
  0
ARC
  5
398C
330
2
100
AcDbEntity
  8
0
100
AcDbCircle
 10
699.3156271391
 20
351.0028562785
 30
0.0
 40
1.336363636363619
100
AcDbArc
 50
90.0
 51
180.0
  0
LINE
  5
398D
330
2
100
AcDbEntity
  8
0
100
AcDbLine
 10
695.4019907754
 20
353.2937653694
 30
0.0
 11
695.6883544118
 21
353.2937653694
 31
0.0
  0
LINE
  5
398E
330
2
100
AcDbEntity
  8
0
100
AcDbLine
 10
695.4019907754
 20
352.8164926421
 30
0.0
 11
695.4019907754
 21
353.2937653694
 31
0.0
  0
LINE
  5
398F
330
2
100
AcDbEntity
  8
0
100
AcDbLine
 10
697.5750714153
 20
349.0171954413
 30
0.0
 11
697.5750714153
 21
349.3172556938
 31
0.0
  0
LINE
  5
3990
330
2
100
AcDbEntity
  8
0
100
AcDbLine
 10
697.1609609431
 20
349.0318263882
 30
0.0
 11
697.1609609431
 21
349.3331467429
 31
0.0
  0
LINE
  5
3991
330
2
100
AcDbEntity
  8
0
100
AcDbLine
 10
697.9792635027
 20
351.0028562785
 30
0.0
 11
697.9792635027
 21
350.7164926421
 31
0.0
  0
LINE
  5
3992
330
2
100
AcDbEntity
  8
0
100
AcDbLine
 10
697.9792635027
 20
350.7164926421
 30
0.0
 11
697.5019907754
 21
350.7164926421
 31
0.0
  0
LINE
  5
3993
330
2
100
AcDbEntity
  8
0
100
AcDbLine
 10
697.5019907754
 20
350.7164926421
 30
0.0
 11
697.0247180482
 21
350.7164926421
 31
0.0
  0
LINE
  5
3994
330
2
100
AcDbEntity
  8
0
100
AcDbLine
 10
697.0247180482
 20
350.7164926421
 30
0.0
 11
697.0247180482
 21
351.0028562785
 31
0.0
  0
LINE
  5
3995
330
2
100
AcDbEntity
  8
0
100
AcDbLine
 10
695.6883544118
 20
352.3392199148
 30
0.0
 11
695.4019907754
 21
352.3392199148
 31
0.0
  0
ARC
  5
3996
330
2
100
AcDbEntity
  8
0
100
AcDbCircle
 10
695.6883544118
 20
351.0028562785
 30
0.0
 40
1.336363636363619
100
AcDbArc
 50
0.0
 51
90.0
  0
LINE
  5
3997
330
2
100
AcDbEntity
  8
0
100
AcDbLine
 10
695.4019907754
 20
352.3392199148
 30
0.0
 11
695.4019907754
 21
352.8164926421
 31
0.0
  0
LINE
  5
3998
330
2
100
AcDbEntity
  8
0
100
AcDbLine
 10
699.3156271391
 20
353.2937653694
 30
0.0
 11
699.6019907754
 21
353.2937653694
 31
0.0
  0
LINE
  5
3999
330
2
100
AcDbEntity
  8
0
100
AcDbLine
 10
699.6019907754
 20
353.2937653694
 30
0.0
 11
699.6019907754
 21
352.8164926421
 31
0.0
  0
LINE
  5
399A
330
2
100
AcDbEntity
  8
0
100
AcDbLine
 10
699.6019907754
 20
352.3392199148
 30
0.0
 11
699.3156271391
 21
352.3392199148
 31
0.0
  0
LINE
  5
399B
330
2
100
AcDbEntity
  8
0
100
AcDbLine
 10
699.6019907754
 20
352.8164926421
 30
0.0
 11
699.6019907754
 21
352.3392199148
 31
0.0
  0
LINE
  5
399C
330
2
100
AcDbEntity
  8
0
100
AcDbLine
 10
697.5019907754
 20
354.9164926421
 30
0.0
 11
697.9792635027
 21
354.9164926421
 31
0.0
  0
LINE
  5
399D
330
2
100
AcDbEntity
  8
0
100
AcDbLine
 10
697.9792635027
 20
354.9164926421
 30
0.0
 11
697.9792635027
 21
354.6301290057
 31
0.0
  0
LINE
  5
399E
330
2
100
AcDbEntity
  8
0
100
AcDbLine
 10
697.0247180482
 20
354.9164926421
 30
0.0
 11
697.5019907754
 21
354.9164926421
 31
0.0
  0
LINE
  5
399F
330
2
100
AcDbEntity
  8
0
100
AcDbLine
 10
697.0247180482
 20
354.6301290057
 30
0.0
 11
697.0247180482
 21
354.9164926421
 31
0.0
  0
LINE
  5
39A0
330
2
100
AcDbEntity
  8
0
100
AcDbLine
 10
697.5019907754
 20
363.5214565361
 30
0.0
 11
697.5019907754
 21
359.9267305361
 31
0.0
  0
LINE
  5
39A1
330
2
100
AcDbEntity
  8
0
100
AcDbLine
 10
699.0746547754
 20
366.5073565361
 30
0.0
 11
695.8544087754
 21
366.5073565361
 31
0.0
  0
LINE
  5
39A2
330
2
100
AcDbEntity
  8
0
100
AcDbLine
 10
701.6958087754
 20
363.5214565361
 30
0.0
 11
693.1583947754
 21
363.5214565361
 31
0.0
  0
LINE
  5
39A3
330
2
100
AcDbEntity
  8
0
100
AcDbLine
 10
700.3477867754
 20
365.0214565361
 30
0.0
 11
694.6739887754
 21
365.0214565361
 31
0.0
  0
CIRCLE
  5
39A4
330
2
100
AcDbEntity
  8
0
100
AcDbCircle
 10
697.5019907754
 20
352.8164926421
 30
0.0
 40
4.0
  0
CIRCLE
  5
39A5
330
2
100
AcDbEntity
  8
0
100
AcDbCircle
 10
697.5019907754
 20
363.5214565361
 30
0.0
 40
4.926010018386079
  0
LINE
  5
39BD
330
2
100
AcDbEntity
  8
0
  6
CENS
 62
     3
100
AcDbLine
 10
697.5019907754
 20
185.6780279958
 30
0.0
 11
697.5019907754
 21
174.9562017615
 31
0.0
  0
ARC
  5
39BE
330
2
100
AcDbEntity
  8
0
100
AcDbCircle
 10
697.5019907754
 20
175.8722310405
 30
0.0
 40
9.000000000010642
100
AcDbArc
 50
77.3231615211
 51
102.6768384789
  0
ARC
  5
39BF
330
2
100
AcDbEntity
  8
0
100
AcDbCircle
 10
695.8780472214
 20
183.0918437263
 30
0.0
 40
1.59999999999961
100
AcDbArc
 50
102.6768384789
 51
165.0
  0
LINE
  5
39C0
330
2
100
AcDbEntity
  8
0
100
AcDbLine
 10
694.0019907754
 20
182.2722310405
 30
0.0
 11
694.3325658993
 21
183.5059541985
 31
0.0
  0
ARC
  5
39C1
330
2
100
AcDbEntity
  8
0
100
AcDbCircle
 10
699.1259343295
 20
183.0918437263
 30
0.0
 40
1.59999999999961
100
AcDbArc
 50
15.0
 51
77.3231615211
  0
LINE
  5
39C2
330
2
100
AcDbEntity
  8
0
100
AcDbLine
 10
700.6714156516
 20
183.5059541985
 30
0.0
 11
701.0019907754
 21
182.2722310405
 31
0.0
  0
LINE
  5
39C3
330
2
100
AcDbEntity
  8
0
100
AcDbLine
 10
693.7019907754
 20
182.2722310405
 30
0.0
 11
701.3019907754
 21
182.2722310405
 31
0.0
  0
LINE
  5
39C4
330
2
100
AcDbEntity
  8
0
100
AcDbLine
 10
693.7019907754
 20
182.2722310405
 30
0.0
 11
693.7019907754
 21
181.2722310405
 31
0.0
  0
LINE
  5
39C5
330
2
100
AcDbEntity
  8
0
100
AcDbLine
 10
697.4289101356
 20
181.2722310405
 30
0.0
 11
697.1609609431
 21
182.2722310405
 31
0.0
  0
LINE
  5
39C6
330
2
100
AcDbEntity
  8
0
100
AcDbLine
 10
697.8430206077
 20
181.2722310405
 30
0.0
 11
697.5750714153
 21
182.2722310405
 31
0.0
  0
LINE
  5
39C7
330
2
100
AcDbEntity
  8
0
100
AcDbLine
 10
701.3019907754
 20
182.2722310405
 30
0.0
 11
701.3019907754
 21
181.2722310405
 31
0.0
  0
LINE
  5
39D9
330
2
100
AcDbEntity
  8
0
  6
CENS
 62
     3
100
AcDbLine
 10
65.7200619259
 20
185.6780279958
 30
0.0
 11
65.7200619259
 21
174.9562017615
 31
0.0
  0
ARC
  5
39DA
330
2
100
AcDbEntity
  8
0
100
AcDbCircle
 10
65.7200619259
 20
175.8722310405
 30
0.0
 40
9.000000000010642
100
AcDbArc
 50
77.3231615211
 51
102.6768384789
  0
ARC
  5
39DB
330
2
100
AcDbEntity
  8
0
100
AcDbCircle
 10
64.0961183718
 20
183.0918437263
 30
0.0
 40
1.59999999999961
100
AcDbArc
 50
102.6768384789
 51
165.0
  0
LINE
  5
39DC
330
2
100
AcDbEntity
  8
0
100
AcDbLine
 10
62.2200619259
 20
182.2722310405
 30
0.0
 11
62.5506370497
 21
183.5059541985
 31
0.0
  0
ARC
  5
39DD
330
2
100
AcDbEntity
  8
0
100
AcDbCircle
 10
67.3440054799
 20
183.0918437263
 30
0.0
 40
1.59999999999961
100
AcDbArc
 50
15.0
 51
77.3231615211
  0
LINE
  5
39DE
330
2
100
AcDbEntity
  8
0
100
AcDbLine
 10
68.889486802
 20
183.5059541985
 30
0.0
 11
69.2200619259
 21
182.2722310405
 31
0.0
  0
LINE
  5
39DF
330
2
100
AcDbEntity
  8
0
100
AcDbLine
 10
61.9200619259
 20
182.2722310405
 30
0.0
 11
69.5200619259
 21
182.2722310405
 31
0.0
  0
LINE
  5
39E0
330
2
100
AcDbEntity
  8
0
100
AcDbLine
 10
61.9200619259
 20
182.2722310405
 30
0.0
 11
61.9200619259
 21
181.2722310405
 31
0.0
  0
LINE
  5
39E1
330
2
100
AcDbEntity
  8
0
100
AcDbLine
 10
69.5200619259
 20
182.2722310405
 30
0.0
 11
69.5200619259
 21
181.2722310405
 31
0.0
  0
LINE
  5
39E3
330
2
100
AcDbEntity
  8
0
  6
CENS
 62
     3
100
AcDbLine
 10
366.5637398238
 20
185.6780279958
 30
0.0
 11
366.5637398238
 21
174.9562017615
 31
0.0
  0
ARC
  5
39E4
330
2
100
AcDbEntity
  8
0
100
AcDbCircle
 10
366.5637398238
 20
175.8722310405
 30
0.0
 40
9.000000000010642
100
AcDbArc
 50
77.3231615211
 51
102.6768384789
  0
ARC
  5
39E5
330
2
100
AcDbEntity
  8
0
100
AcDbCircle
 10
364.9397962697
 20
183.0918437263
 30
0.0
 40
1.59999999999961
100
AcDbArc
 50
102.6768384789
 51
162.1310666483
  0
LINE
  5
39E6
330
2
100
AcDbEntity
  8
HIDS
  6
sekkei_H
100
AcDbLine
 10
363.0637398238
 20
182.2722310405
 30
0.0
 11
363.3943149476
 21
183.5059541985
 31
0.0
  0
ARC
  5
39E7
330
2
100
AcDbEntity
  8
0
100
AcDbCircle
 10
368.1876833778
 20
183.0918437263
 30
0.0
 40
1.59999999999961
100
AcDbArc
 50
15.0
 51
77.3231615211
  0
LINE
  5
39E8
330
2
100
AcDbEntity
  8
0
100
AcDbLine
 10
369.7331646999
 20
183.5059541985
 30
0.0
 11
369.7421600217
 21
183.4723832005
 31
0.0
  0
LINE
  5
39E9
330
2
100
AcDbEntity
  8
HIDS
  6
sekkei_H
100
AcDbLine
 10
362.7637398238
 20
182.2722310405
 30
0.0
 11
370.3637398238
 21
182.2722310405
 31
0.0
  0
LINE
  5
39EA
330
2
100
AcDbEntity
  8
HIDS
  6
sekkei_H
100
AcDbLine
 10
362.7637398238
 20
182.2722310405
 30
0.0
 11
362.7637398238
 21
181.0941863498
 31
0.0
  0
LINE
  5
39ED
330
2
100
AcDbEntity
  8
HIDS
  6
sekkei_H
100
AcDbLine
 10
370.3637398238
 20
182.2722310405
 30
0.0
 11
370.3637398238
 21
180.9615255999
 31
0.0
  0
ARC
  5
39F1
330
2
100
AcDbEntity
  8
HIDS
  6
sekkei_H
100
AcDbCircle
 10
364.9397962697
 20
183.0918437263
 30
0.0
 40
1.59999999999961
100
AcDbArc
 50
162.1310666483
 51
165.0
  0
LINE
  5
39F2
330
2
100
AcDbEntity
  8
HIDS
  6
sekkei_H
100
AcDbLine
 10
369.7421600217
 20
183.4723832005
 30
0.0
 11
370.0637398238
 21
182.2722310405
 31
0.0
  0
TEXT
  5
3CDB
330
2
100
AcDbEntity
  8
TITLE_C
100
AcDbText
 10
-20.5254391223
 20
16.6058831089
 30
0.0
 40
7.0
  1
F2S12N010～240-CTML15NN
 41
0.75
100
AcDbText
  0
TEXT
  5
3CDD
330
2
100
AcDbEntity
  8
TITLE_C
100
AcDbText
 10
-20.5254391223
 20
-17.8307062104
 30
0.0
 40
7.0
  1
F2S12N010～240-CTML25NN
 41
0.75
100
AcDbText
  0
TEXT
  5
4173
330
2
100
AcDbEntity
  8
TITLE_C
100
AcDbText
 10
103.6765418983
 20
7.299679221
 30
0.0
 40
7.0
  1
F2S12N010～240-CSML15WNX
 41
0.75
100
AcDbText
  0
TEXT
  5
4174
330
2
100
AcDbEntity
  8
TITLE_C
100
AcDbText
 10
103.6765418983
 20
-4.700320779
 30
0.0
 40
7.0
  1
F2S12N010～240-CSML15WN
 41
0.75
100
AcDbText
  0
TEXT
  5
4175
330
2
100
AcDbEntity
  8
TITLE_C
100
AcDbText
 10
103.6765418983
 20
-40.5005190138
 30
0.0
 40
7.0
  1
F2S12N010～240-CSML25WN
 41
0.75
100
AcDbText
  0
TEXT
  5
4176
330
2
100
AcDbEntity
  8
TITLE_C
100
AcDbText
 10
103.6765418983
 20
-28.5005190138
 30
0.0
 40
7.0
  1
F2S12N010～240-CSML25WNX
 41
0.75
100
AcDbText
  0
TEXT
  5
4177
330
2
100
AcDbEntity
  8
TITLE_C
100
AcDbText
 10
103.6765418983
 20
-17.2962909028
 30
0.0
 40
7.0
  1
F2S12N010～240-CSML25NN
 41
0.75
100
AcDbText
  0
LINE
  5
4431
330
2
100
AcDbEntity
  8
HIDS
100
AcDbLine
 10
550.6465097754
 20
394.8164926421
 30
0.0
 11
550.6465097754
 21
326.3164926421
 31
0.0
  0
LINE
  5
4432
330
2
100
AcDbEntity
  8
HIDS
100
AcDbLine
 10
544.2465097754
 20
394.8164926421
 30
0.0
 11
544.2465097754
 21
326.3164926421
 31
0.0
  0
LINE
  5
4433
330
2
100
AcDbEntity
  8
HIDS
100
AcDbLine
 10
636.6465097754
 20
394.8164926421
 30
0.0
 11
636.6465097754
 21
326.3164926421
 31
0.0
  0
LINE
  5
4434
330
2
100
AcDbEntity
  8
HIDS
100
AcDbLine
 10
630.2465097754
 20
394.8164926421
 30
0.0
 11
630.2465097754
 21
326.3164926421
 31
0.0
  0
LINE
  5
444C
330
2
100
AcDbEntity
  8
0
100
AcDbLine
 10
324.5637398238
 20
112.9722310405
 30
0.0
 11
393.0637398238
 21
112.9722310405
 31
0.0
  0
LINE
  5
444D
330
2
100
AcDbEntity
  8
0
100
AcDbLine
 10
324.5637398238
 20
106.5722310405
 30
0.0
 11
393.0637398238
 21
106.5722310405
 31
0.0
  0
LINE
  5
444E
330
2
100
AcDbEntity
  8
HIDS
100
AcDbLine
 10
324.5637398238
 20
179.9722310405
 30
0.0
 11
393.0637398238
 21
179.9722310405
 31
0.0
  0
LINE
  5
444F
330
2
100
AcDbEntity
  8
HIDS
100
AcDbLine
 10
324.5637398238
 20
173.5722310405
 30
0.0
 11
393.0637398238
 21
173.5722310405
 31
0.0
  0
ENDSEC
  0
SECTION
  2
OBJECTS
  0
DICTIONARY
  5
7
330
0
100
AcDbDictionary
281
     1
  3
ACAD_CIP_PREVIOUS_PRODUCT_INFO
350
4160
  3
ACAD_COLOR
350
3024
  3
ACAD_DETAILVIEWSTYLE
350
415C
  3
ACAD_GROUP
350
75
  3
ACAD_LAYOUT
350
61
  3
ACAD_MATERIAL
350
2FFA
  3
ACAD_MLEADERSTYLE
350
3049
  3
ACAD_MLINESTYLE
350
76
  3
ACAD_PLOTSETTINGS
350
77
  3
ACAD_PLOTSTYLENAME
350
6
  3
ACAD_SCALELIST
350
3027
  3
ACAD_SECTIONVIEWSTYLE
350
415A
  3
ACAD_TABLESTYLE
350
3025
  3
ACAD_VISUALSTYLE
350
3013
  3
AcadDim
350
480
  3
ACDB_RECOMPOSE_DATA
350
4747
  3
AcDbVariableDictionary
350
102
  3
DWGPROPS
350
4748
  0
DICTIONARY
  5
3074
330
6E
100
AcDbDictionary
280
     1
281
     1
  0
DICTIONARY
  5
30EC
330
66
100
AcDbDictionary
280
     1
281
     1
  3
ACAD_LAYERSTATES
360
30ED
  0
DICTIONARY
  5
3057
330
5E
100
AcDbDictionary
280
     1
281
     1
  3
ADSK_XREC_LAYER_RECONCILED
360
3058
  0
DICTIONARY
  5
3059
330
3E
100
AcDbDictionary
280
     1
281
     1
  3
ADSK_XREC_LAYER_RECONCILED
360
305A
  0
DICTIONARY
  5
305F
330
2B5
100
AcDbDictionary
280
     1
281
     1
  3
ADSK_XREC_LAYER_RECONCILED
360
3060
  0
DICTIONARY
  5
3061
330
2BA
100
AcDbDictionary
280
     1
281
     1
  3
ADSK_XREC_LAYER_RECONCILED
360
3062
  0
DICTIONARY
  5
3067
330
478
100
AcDbDictionary
280
     1
281
     1
  3
ADSK_XREC_LAYER_RECONCILED
360
3068
  0
DICTIONARY
  5
39A7
330
2
100
AcDbDictionary
280
     1
281
     1
  3
ACAD_SORTENTS
360
39A8
  0
XRECORD
  5
4160
102
{ACAD_REACTORS
330
7
102
}
330
7
100
AcDbXrecord
280
     1
300
ACD
300
2020
300
87224ACD_2020_0F
  0
DICTIONARY
  5
3024
102
{ACAD_REACTORS
330
7
102
}
330
7
100
AcDbDictionary
281
     1
  0
DICTIONARY
  5
415C
102
{ACAD_REACTORS
330
7
102
}
330
7
100
AcDbDictionary
281
     1
  3
Imperial24
350
415D
  0
DICTIONARY
  5
75
102
{ACAD_REACTORS
330
7
102
}
330
7
100
AcDbDictionary
281
     1
  0
DICTIONARY
  5
61
102
{ACAD_REACTORS
330
7
102
}
330
7
100
AcDbDictionary
281
     1
  3
Model
350
60
  3
レイアウト1
350
4741
  0
DICTIONARY
  5
2FFA
102
{ACAD_REACTORS
330
7
102
}
330
7
100
AcDbDictionary
281
     1
  3
ByBlock
350
3003
  3
ByLayer
350
2FFB
  3
Global
350
300B
  0
DICTIONARY
  5
3049
102
{ACAD_REACTORS
330
7
102
}
330
7
100
AcDbDictionary
281
     1
  3
Standard
350
304A
  0
DICTIONARY
  5
76
102
{ACAD_REACTORS
330
7
102
}
330
7
100
AcDbDictionary
281
     1
  3
STANDARD
350
78
  0
DICTIONARY
  5
77
102
{ACAD_REACTORS
330
7
102
}
330
7
100
AcDbDictionary
281
     1
  0
ACDBDICTIONARYWDFLT
  5
6
102
{ACAD_REACTORS
330
7
102
}
330
7
100
AcDbDictionary
281
     1
  3
Normal
350
5
100
AcDbDictionaryWithDefault
340
5
  0
DICTIONARY
  5
3027
102
{ACAD_REACTORS
330
7
102
}
330
7
100
AcDbDictionary
281
     1
  3
A0
350
3028
  3
A1
350
3029
  3
A2
350
302A
  3
A3
350
302B
  3
A4
350
302C
  3
A5
350
302D
  3
A6
350
302E
  3
A7
350
302F
  3
A8
350
3030
  3
A9
350
3031
  3
B0
350
3032
  3
B1
350
3033
  3
B2
350
3034
  3
B3
350
3035
  3
B4
350
3036
  3
B5
350
3037
  3
B6
350
3038
  3
B7
350
3039
  3
B8
350
303A
  3
B9
350
303B
  3
C0
350
303C
  3
C1
350
303D
  3
C2
350
303E
  3
C3
350
303F
  3
C4
350
3040
  3
C5
350
3041
  3
C6
350
3042
  3
C7
350
3043
  3
C8
350
3044
  3
C9
350
3045
  3
D0
350
3046
  3
D1
350
3047
  3
D2
350
3048
  0
DICTIONARY
  5
415A
102
{ACAD_REACTORS
330
7
102
}
330
7
100
AcDbDictionary
281
     1
  3
Imperial24
350
415B
  0
DICTIONARY
  5
3025
102
{ACAD_REACTORS
330
7
102
}
330
7
100
AcDbDictionary
281
     1
  3
Standard
350
3026
  0
DICTIONARY
  5
3013
102
{ACAD_REACTORS
330
7
102
}
330
7
100
AcDbDictionary
281
     1
  3
2dWireframe
350
3019
  3
3D Hidden
350
301B
  3
3dWireframe
350
301A
  3
Basic
350
3018
  3
Brighten
350
301F
  3
ColorChange
350
3023
  3
Conceptual
350
301C
  3
Dim
350
301E
  3
EdgeColorOff
350
30D0
  3
Facepattern
350
3022
  3
Flat
350
3014
  3
FlatWithEdges
350
3015
  3
Gouraud
350
3016
  3
GouraudWithEdges
350
3017
  3
Hidden
350
4154
  3
JitterOff
350
30CE
  3
Linepattern
350
3021
  3
OverhangOff
350
30CF
  3
Realistic
350
301D
  3
Shaded
350
4159
  3
Shaded with edges
350
4158
  3
Shades of Gray
350
4155
  3
Sketchy
350
4156
  3
Thicken
350
3020
  3
Wireframe
350
4153
  3
X-Ray
350
4157
  0
XRECORD
  5
480
102
{ACAD_REACTORS
330
7
102
}
330
7
100
AcDbXrecord
280
     1
 90
   990106
  3

 60
     0
 61
     0
 62
     1
 63
     3
 64
     1
 65
     0
 66
     0
 67
     3
 68
     1
 69
     0
 70
     0
 71
     0
 72
     0
 40
0.0
170
     2
340
0
  0
XRECORD
  5
4747
102
{ACAD_REACTORS
330
7
102
}
330
7
100
AcDbXrecord
280
     1
 90
        1
330
3026
  0
DICTIONARY
  5
102
102
{ACAD_REACTORS
330
7
102
}
330
7
100
AcDbDictionary
281
     1
  3
CANNOSCALE
350
30CA
  3
CMLEADERSTYLE
350
30C9
  3
CTABLESTYLE
350
30C8
  3
CVIEWDETAILSTYLE
350
4162
  3
CVIEWSECTIONSTYLE
350
4163
  3
DIMASSOC
350
103
  3
INDEXCTL
350
30CC
  3
LAYEREVAL
350
4166
  3
LAYERNOTIFY
350
4167
  3
LIGHTINGUNITS
350
4165
  3
MSLTSCALE
350
4164
  3
SORTENTS
350
30CB
  3
XCLIPFRAME
350
4745
  0
XRECORD
  5
4748
102
{ACAD_REACTORS
330
7
102
}
330
7
100
AcDbXrecord
280
     1
  1
DWGPROPS COOKIE
  2

  3

  4

  6

  7

  8
ykitaga
  9

300
=
301
=
302
=
303
=
304
=
305
=
306
=
307
=
308
=
309
=
 40
0.5112809838
 41
2453557.501145833
 42
2460164.370162037
  1

 90
        0
  0
DICTIONARY
  5
30ED
102
{ACAD_REACTORS
330
30EC
102
}
330
30EC
100
AcDbDictionary
281
     1
  0
XRECORD
  5
3058
102
{ACAD_REACTORS
330
3057
102
}
330
3057
100
AcDbXrecord
280
     1
290
     1
  0
XRECORD
  5
305A
102
{ACAD_REACTORS
330
3059
102
}
330
3059
100
AcDbXrecord
280
     1
290
     1
  0
XRECORD
  5
3060
102
{ACAD_REACTORS
330
305F
102
}
330
305F
100
AcDbXrecord
280
     1
290
     1
  0
XRECORD
  5
3062
102
{ACAD_REACTORS
330
3061
102
}
330
3061
100
AcDbXrecord
280
     1
290
     1
  0
XRECORD
  5
3068
102
{ACAD_REACTORS
330
3067
102
}
330
3067
100
AcDbXrecord
280
     1
290
     1
  0
SORTENTSTABLE
  5
39A8
102
{ACAD_REACTORS
330
39A7
102
}
330
39A7
100
AcDbSortentsTable
330
2
331
7FB
  5
7FC
331
7FC
  5
7FD
331
7FD
  5
7FE
331
7FE
  5
7FF
331
7FF
  5
800
331
800
  5
801
331
801
  5
802
331
802
  5
804
331
804
  5
805
331
805
  5
806
331
806
  5
807
331
807
  5
809
331
809
  5
80A
331
80A
  5
80B
331
80B
  5
80C
331
80D
  5
80E
331
80E
  5
80F
331
80F
  5
810
331
810
  5
811
331
811
  5
812
331
812
  5
813
331
813
  5
814
331
814
  5
815
331
815
  5
816
331
816
  5
817
331
817
  5
818
331
818
  5
81A
331
81A
  5
81B
331
81B
  5
81C
331
81C
  5
81D
331
81D
  5
81E
331
81E
  5
81F
331
81F
  5
820
331
820
  5
821
331
821
  5
822
331
822
  5
823
331
823
  5
825
331
825
  5
826
331
826
  5
827
331
827
  5
829
331
829
  5
82A
331
82A
  5
82B
331
82B
  5
82C
331
82C
  5
82D
331
82D
  5
82E
331
82E
  5
82F
331
82F
  5
830
331
830
  5
831
331
831
  5
832
331
832
  5
833
331
833
  5
834
331
834
  5
835
331
835
  5
836
331
836
  5
837
331
837
  5
838
331
838
  5
839
331
839
  5
83A
331
83A
  5
83B
331
83B
  5
83C
331
83C
  5
83D
331
83D
  5
83E
331
83E
  5
83F
331
83F
  5
840
331
840
  5
841
331
841
  5
842
331
842
  5
843
331
843
  5
844
331
844
  5
846
331
846
  5
847
331
847
  5
848
331
848
  5
849
331
849
  5
84A
331
84A
  5
84B
331
84B
  5
84C
331
84C
  5
84D
331
84D
  5
84E
331
84E
  5
84F
331
84F
  5
850
331
850
  5
851
331
851
  5
852
331
852
  5
853
331
853
  5
854
331
854
  5
855
331
855
  5
856
331
856
  5
857
331
857
  5
858
331
858
  5
859
331
859
  5
85A
331
85A
  5
85B
331
85B
  5
85C
331
85C
  5
85E
331
85E
  5
85F
331
85F
  5
861
331
861
  5
862
331
862
  5
863
331
863
  5
864
331
864
  5
865
331
865
  5
866
331
866
  5
867
331
867
  5
868
331
868
  5
869
331
869
  5
86A
331
86A
  5
86B
331
86B
  5
86C
331
86C
  5
86D
331
86D
  5
86E
331
86E
  5
86F
331
86F
  5
870
331
870
  5
871
331
871
  5
872
331
872
  5
873
331
873
  5
874
331
874
  5
875
331
875
  5
876
331
876
  5
877
331
877
  5
878
331
878
  5
879
331
879
  5
87D
331
87D
  5
87F
331
87F
  5
881
331
881
  5
882
331
882
  5
883
331
883
  5
884
331
884
  5
886
331
886
  5
887
331
887
  5
889
331
889
  5
88A
331
88A
  5
88B
331
88B
  5
88D
331
88D
  5
88E
331
88E
  5
894
331
894
  5
895
331
895
  5
89B
331
89B
  5
89C
331
89C
  5
89D
331
89D
  5
89E
331
89E
  5
89F
331
89F
  5
8A1
331
8A1
  5
8A2
331
8A2
  5
8A3
331
8A3
  5
8A4
331
8A4
  5
8A5
331
8A5
  5
8A6
331
8A6
  5
8A7
331
8A7
  5
8A8
331
8A8
  5
8A9
331
8A9
  5
8AA
331
8AA
  5
8AB
331
8AB
  5
8AC
331
8AC
  5
8AD
331
8AD
  5
8AE
331
8AE
  5
8AF
331
8AF
  5
8B0
331
8B0
  5
8B1
331
8B1
  5
8B2
331
8B2
  5
8B3
331
8B3
  5
8B4
331
8B4
  5
8B5
331
8B5
  5
8B6
331
8B6
  5
8B7
331
8B7
  5
8B8
331
8B8
  5
8B9
331
8B9
  5
8BA
331
8BA
  5
8BB
331
8BB
  5
8BC
331
8BC
  5
8BD
331
8BD
  5
8BE
331
8BE
  5
8BF
331
8BF
  5
8C0
331
8C0
  5
8C1
331
8C1
  5
8C2
331
8C2
  5
8C3
331
8C3
  5
8C4
331
8C4
  5
8C5
331
8C5
  5
8C6
331
8C6
  5
8C7
331
8C7
  5
8C8
331
8C8
  5
8C9
331
8C9
  5
8CA
331
8CA
  5
8CB
331
8CB
  5
8D2
331
8D2
  5
8DE
331
8DE
  5
8ED
331
8ED
  5
8EE
331
8EE
  5
8FC
331
8FC
  5
918
331
918
  5
919
331
919
  5
91A
331
91A
  5
91B
331
91B
  5
91C
331
91C
  5
91D
331
91D
  5
91E
331
91E
  5
91F
331
91F
  5
920
331
920
  5
921
331
921
  5
922
331
922
  5
923
331
923
  5
924
331
924
  5
925
331
925
  5
926
331
926
  5
927
331
927
  5
928
331
928
  5
929
331
929
  5
92A
331
92A
  5
92B
331
92B
  5
92C
331
92C
  5
92D
331
92D
  5
92E
331
92E
  5
92F
331
92F
  5
930
331
930
  5
932
331
932
  5
933
331
933
  5
934
331
934
  5
935
331
935
  5
936
331
936
  5
937
331
937
  5
938
331
938
  5
939
331
939
  5
93A
331
93A
  5
93B
331
93B
  5
93C
331
93C
  5
93D
331
93D
  5
93E
331
93E
  5
93F
331
93F
  5
940
331
940
  5
941
331
941
  5
942
331
942
  5
943
331
943
  5
944
331
944
  5
945
331
945
  5
946
331
946
  5
947
331
947
  5
948
331
948
  5
949
331
949
  5
94A
331
94A
  5
94B
331
94B
  5
94C
331
94C
  5
94D
331
94D
  5
94E
331
94E
  5
94F
331
94F
  5
950
331
950
  5
951
331
951
  5
952
331
952
  5
954
331
953
  5
955
331
954
  5
957
331
955
  5
959
331
957
  5
95A
331
959
  5
95B
331
95A
  5
95C
331
95B
  5
95D
331
95C
  5
95E
331
95D
  5
95F
331
95E
  5
961
331
95F
  5
962
331
960
  5
963
331
961
  5
966
331
962
  5
969
331
963
  5
96A
331
966
  5
96B
331
969
  5
96D
331
96A
  5
96F
331
96B
  5
972
331
96D
  5
977
331
96F
  5
978
331
972
  5
97B
331
977
  5
983
331
978
  5
984
331
97B
  5
985
331
983
  5
9F1
331
984
  5
9F2
331
985
  5
9F3
331
9F1
  5
9F4
331
9F2
  5
9F5
331
9F3
  5
9F6
331
9F4
  5
9F7
331
9F5
  5
9F8
331
9F6
  5
9FA
331
9F7
  5
9FC
331
9F8
  5
9FD
331
9FA
  5
9FE
331
9FC
  5
9FF
331
9FD
  5
A00
331
9FE
  5
A01
331
9FF
  5
A02
331
A00
  5
A03
331
A01
  5
A04
331
A02
  5
A05
331
A03
  5
A06
331
A04
  5
A07
331
A05
  5
A08
331
A06
  5
A09
331
A07
  5
A0A
331
A08
  5
A0B
331
A09
  5
A0C
331
A0A
  5
A0D
331
A0B
  5
A0E
331
A0C
  5
A0F
331
A0D
  5
A10
331
A0E
  5
A11
331
A0F
  5
A12
331
A10
  5
A13
331
A11
  5
A14
331
A12
  5
A15
331
A13
  5
A16
331
A14
  5
A17
331
A15
  5
A18
331
A16
  5
A19
331
A17
  5
A1A
331
A18
  5
A1B
331
A19
  5
A1C
331
A1A
  5
A1D
331
A1B
  5
A1E
331
A1C
  5
A1F
331
A1D
  5
A20
331
A1E
  5
A21
331
A1F
  5
A22
331
A20
  5
A23
331
A21
  5
A24
331
A22
  5
A25
331
A23
  5
A26
331
A24
  5
A27
331
A25
  5
A28
331
A26
  5
A29
331
A27
  5
A2A
331
A28
  5
A2B
331
A29
  5
A2C
331
A2A
  5
A2E
331
A2B
  5
A2F
331
A2C
  5
A30
331
A2E
  5
A31
331
A2F
  5
A32
331
A30
  5
A33
331
A31
  5
A34
331
A32
  5
A35
331
A33
  5
A36
331
A34
  5
A37
331
A35
  5
A38
331
A36
  5
A3A
331
A37
  5
A3B
331
A38
  5
A3C
331
A3A
  5
A3D
331
A3B
  5
A3E
331
A3C
  5
A3F
331
A3D
  5
A40
331
A3E
  5
A41
331
A3F
  5
A42
331
A40
  5
A43
331
A41
  5
A44
331
A42
  5
A45
331
A43
  5
A46
331
A44
  5
A47
331
A45
  5
A48
331
A46
  5
A49
331
A47
  5
A4A
331
A48
  5
A4B
331
A49
  5
A4C
331
A4A
  5
A4D
331
A4B
  5
A4E
331
A4C
  5
A4F
331
A4D
  5
A50
331
A4E
  5
A51
331
A4F
  5
A52
331
A50
  5
A53
331
A51
  5
A54
331
A52
  5
A55
331
A53
  5
A56
331
A54
  5
A57
331
A55
  5
A58
331
A56
  5
A59
331
A57
  5
A5A
331
A58
  5
A5B
331
A59
  5
A5C
331
A5A
  5
A5D
331
A5B
  5
A5E
331
A5C
  5
A5F
331
A5D
  5
A60
331
A5E
  5
A61
331
A5F
  5
A62
331
A60
  5
A63
331
A61
  5
A64
331
A64
  5
A67
331
A65
  5
A68
331
A66
  5
A69
331
A67
  5
A6A
331
A68
  5
A6B
331
A69
  5
A6C
331
A6A
  5
A6D
331
A6B
  5
A6E
331
A6C
  5
A6F
331
A6D
  5
A71
331
A6E
  5
A72
331
A6F
  5
A73
331
A71
  5
A74
331
A72
  5
A75
331
A73
  5
A76
331
A74
  5
A77
331
A75
  5
A78
331
A76
  5
A79
331
A77
  5
A7A
331
A78
  5
A7B
331
A79
  5
A7C
331
A7A
  5
A7D
331
A7B
  5
A7E
331
A7C
  5
A7F
331
A7D
  5
A80
331
A7E
  5
A81
331
A7F
  5
A82
331
A80
  5
A83
331
A81
  5
A84
331
A82
  5
A85
331
A83
  5
A86
331
A84
  5
A87
331
A85
  5
A88
331
A86
  5
A89
331
A87
  5
A8A
331
A88
  5
A8B
331
A89
  5
A8C
331
A8A
  5
A8D
331
A8B
  5
A8E
331
A8C
  5
A8F
331
A8D
  5
A90
331
A8E
  5
A91
331
A8F
  5
A92
331
A90
  5
A93
331
A91
  5
A94
331
A94
  5
A97
331
A95
  5
A98
331
A96
  5
A99
331
A97
  5
A9A
331
A98
  5
A9B
331
A99
  5
A9C
331
A9A
  5
A9D
331
A9B
  5
A9E
331
A9C
  5
A9F
331
A9D
  5
AA0
331
A9E
  5
AA1
331
A9F
  5
AA2
331
AA0
  5
AA3
331
AA1
  5
AA4
331
AA2
  5
AA6
331
AA3
  5
AA7
331
AA4
  5
AA8
331
AA6
  5
AA9
331
AA7
  5
AAA
331
AA8
  5
AAB
331
AA9
  5
AAC
331
AAA
  5
AAD
331
AAB
  5
AAE
331
AAC
  5
AAF
331
AAD
  5
AB0
331
AAE
  5
AB1
331
AAF
  5
AB2
331
AB0
  5
AB3
331
AB1
  5
AB4
331
AB2
  5
AB5
331
AB3
  5
AB6
331
AB4
  5
AB7
331
AB5
  5
AB8
331
AB6
  5
AB9
331
AB7
  5
ABA
331
AB8
  5
ABB
331
AB9
  5
ABC
331
ABA
  5
ABD
331
ABB
  5
ABE
331
ABC
  5
ABF
331
ABD
  5
AC0
331
ABE
  5
AC1
331
ABF
  5
AC2
331
AC0
  5
AC3
331
AC1
  5
AC4
331
AC2
  5
AC5
331
AC3
  5
AC6
331
AC4
  5
AC7
331
AC5
  5
AC8
331
AC6
  5
AC9
331
AC7
  5
ACA
331
AC8
  5
ACB
331
AC9
  5
ACC
331
ACA
  5
ACD
331
ACB
  5
ACE
331
ACC
  5
ACF
331
ACD
  5
AD0
331
ACE
  5
AD1
331
ACF
  5
AD2
331
AD0
  5
AD3
331
AD1
  5
AD4
331
AD2
  5
AD5
331
AD3
  5
AD6
331
AD4
  5
AD7
331
AD5
  5
AD8
331
AD6
  5
AD9
331
AD7
  5
ADA
331
AD8
  5
ADB
331
AD9
  5
ADC
331
ADA
  5
ADD
331
ADB
  5
ADE
331
ADC
  5
ADF
331
ADD
  5
AE0
331
ADE
  5
AE1
331
ADF
  5
AE2
331
AE0
  5
AE3
331
AE1
  5
AE4
331
AE2
  5
AE5
331
AE3
  5
AE6
331
AE4
  5
AE7
331
AE5
  5
AE8
331
AE6
  5
AE9
331
AE7
  5
AEA
331
AE8
  5
AEB
331
AE9
  5
AEC
331
AEA
  5
AED
331
AEB
  5
AEE
331
AEC
  5
AEF
331
AED
  5
AF0
331
AEE
  5
AF1
331
AEF
  5
AF2
331
AF0
  5
AF3
331
AF1
  5
AF6
331
AF2
  5
AF7
331
AF3
  5
AF8
331
AF6
  5
AF9
331
AF7
  5
AFA
331
AF8
  5
AFB
331
AF9
  5
AFD
331
AFA
  5
AFE
331
AFB
  5
AFF
331
AFD
  5
B00
331
AFE
  5
B01
331
AFF
  5
B02
331
B00
  5
B04
331
B01
  5
B05
331
B02
  5
B06
331
B04
  5
B07
331
B05
  5
B08
331
B06
  5
B09
331
B07
  5
B0A
331
B08
  5
B0B
331
B09
  5
B11
331
B0A
  5
B12
331
B0B
  5
B13
331
B11
  5
B18
331
B12
  5
B19
331
B13
  5
B1A
331
B18
  5
B1B
331
B19
  5
B1C
331
B1A
  5
B1D
331
B1B
  5
B1E
331
B1C
  5
B23
331
B1D
  5
B24
331
B1E
  5
B25
331
B23
  5
B26
331
B24
  5
B27
331
B25
  5
B28
331
B26
  5
B29
331
B27
  5
B2A
331
B28
  5
B2E
331
B29
  5
B31
331
B2A
  5
B32
331
B2E
  5
B33
331
B31
  5
B34
331
B32
  5
B37
331
B33
  5
B38
331
B34
  5
B3D
331
B37
  5
B41
331
B38
  5
B42
331
B3D
  5
B43
331
B41
  5
B44
331
B42
  5
B45
331
B43
  5
B46
331
B44
  5
B49
331
B45
  5
B4A
331
B46
  5
B51
331
B49
  5
B52
331
B4A
  5
B53
331
B51
  5
B54
331
B52
  5
B55
331
B53
  5
B56
331
B54
  5
B57
331
B55
  5
B58
331
B56
  5
B59
331
B57
  5
B5A
331
B58
  5
B5B
331
B59
  5
B5C
331
B5A
  5
B5E
331
B5B
  5
B5F
331
B5C
  5
B61
331
B5E
  5
B68
331
B5F
  5
B6A
331
B61
  5
B6B
331
B68
  5
B6D
331
B6A
  5
B6E
331
B6B
  5
B72
331
B6D
  5
B74
331
B6E
  5
B75
331
B72
  5
B76
331
B74
  5
B79
331
B75
  5
B7A
331
B76
  5
B7B
331
B79
  5
B7D
331
B7A
  5
B7E
331
B7B
  5
B7F
331
B7D
  5
B80
331
B7E
  5
B81
331
B7F
  5
B82
331
B80
  5
B83
331
B81
  5
B84
331
B82
  5
B85
331
B83
  5
B86
331
B84
  5
B87
331
B85
  5
B88
331
B86
  5
B8A
331
B87
  5
B8B
331
B88
  5
B8C
331
B8A
  5
B8D
331
B8B
  5
B8E
331
B8C
  5
B8F
331
B8D
  5
B90
331
B8E
  5
B91
331
B8F
  5
B92
331
B90
  5
B93
331
B91
  5
B94
331
B92
  5
B95
331
B93
  5
B96
331
B94
  5
B97
331
B95
  5
B9A
331
B96
  5
B9B
331
B97
  5
B9C
331
B9A
  5
BA1
331
B9B
  5
BA2
331
B9C
  5
BA3
331
BA1
  5
BA4
331
BA2
  5
BA5
331
BA3
  5
BAC
331
BA4
  5
BAD
331
BA5
  5
BAE
331
BAC
  5
BB0
331
BAD
  5
BB1
331
BAE
  5
BBC
331
BB0
  5
BBD
331
BB1
  5
BBE
331
BBC
  5
BBF
331
BBD
  5
BC0
331
BBE
  5
BC1
331
BBF
  5
BC2
331
BC0
  5
BC8
331
BC1
  5
BC9
331
BC2
  5
BCA
331
BC8
  5
BCB
331
BC9
  5
BD7
331
BCA
  5
BD8
331
BCB
  5
BDA
331
BD7
  5
BDC
331
BD8
  5
BDD
331
BDA
  5
BDF
331
BDC
  5
BE0
331
BDD
  5
BE3
331
BDF
  5
BE4
331
BE0
  5
BE5
331
BE3
  5
BE8
331
BE4
  5
BE9
331
BE5
  5
BEA
331
BE8
  5
BEB
331
BE9
  5
BEC
331
BEA
  5
BED
331
BEB
  5
BEE
331
BEC
  5
BEF
331
BED
  5
BF0
331
BEE
  5
BF1
331
BEF
  5
BF3
331
BF0
  5
BF4
331
BF1
  5
BF5
331
BF3
  5
BF6
331
BF4
  5
BF7
331
BF5
  5
BF8
331
BF6
  5
BF9
331
BF7
  5
BFB
331
BF8
  5
BFC
331
BF9
  5
BFD
331
BFB
  5
BFE
331
BFC
  5
BFF
331
BFD
  5
C00
331
BFE
  5
C02
331
BFF
  5
C03
331
C00
  5
C04
331
C02
  5
C06
331
C03
  5
C08
331
C04
  5
C09
331
C06
  5
C0B
331
C08
  5
C0C
331
C09
  5
C0D
331
C0B
  5
C0E
331
C0C
  5
C0F
331
C0D
  5
C10
331
C0E
  5
C11
331
C0F
  5
C12
331
C10
  5
C13
331
C11
  5
C14
331
C12
  5
C15
331
C13
  5
C16
331
C14
  5
C17
331
C15
  5
C18
331
C16
  5
C27
331
C17
  5
1618
331
C18
  5
161D
331
C27
  5
161E
331
1618
  5
161F
331
161D
  5
1623
331
161E
  5
1624
331
161F
  5
1625
331
1623
  5
1626
331
1624
  5
1627
331
1625
  5
1628
331
1626
  5
1629
331
1627
  5
1631
331
1628
  5
1632
331
1629
  5
1633
331
1631
  5
1634
331
1632
  5
1635
331
1633
  5
1639
331
1634
  5
163A
331
1635
  5
163B
331
1639
  5
163C
331
163A
  5
163D
331
163B
  5
163E
331
163C
  5
163F
331
163D
  5
1640
331
163E
  5
1641
331
163F
  5
1643
331
1640
  5
1644
331
1641
  5
1648
331
1643
  5
1649
331
1644
  5
164B
331
1648
  5
164C
331
1649
  5
164D
331
164B
  5
1651
331
164C
  5
1653
331
164D
  5
1657
331
1651
  5
1658
331
1653
  5
165D
331
1657
  5
165E
331
1658
  5
165F
331
165D
  5
1660
331
165E
  5
1663
331
165F
  5
1666
331
1660
  5
1667
331
1663
  5
1668
331
1666
  5
177F
331
1667
  5
178E
331
1668
  5
179B
331
27CB
  5
286A
331
27CC
  5
286B
331
27CD
  5
286C
331
30E0
  5
30E3
331
30E1
  5
30E5
331
30E2
  5
30E6
331
30E3
  5
38FD
331
30E6
  5
38FF
331
3986
  5
3989
331
3987
  5
398A
331
3988
  5
398B
331
3989
  5
398C
331
398A
  5
398D
331
398B
  5
398E
331
398C
  5
398F
331
398D
  5
3990
331
398E
  5
3991
331
398F
  5
3992
331
3990
  5
3993
331
3991
  5
3994
331
3992
  5
3995
331
3993
  5
3996
331
3994
  5
3997
331
3995
  5
3998
331
3996
  5
3999
331
3997
  5
399A
331
3998
  5
399B
331
3999
  5
399C
331
399A
  5
399D
331
399B
  5
399E
331
399C
  5
399F
331
399D
  5
39A0
331
399E
  5
39A1
331
399F
  5
39A2
331
39A0
  5
39A3
331
39A1
  5
39A4
331
39A2
  5
39A5
331
39A3
  5
39A6
331
39A4
  5
39A9
331
39A5
  5
39BD
331
39BD
  5
39BE
331
39BE
  5
39BF
331
39BF
  5
39C0
331
39C0
  5
39C1
331
39C1
  5
39C2
331
39C2
  5
39C3
331
39C3
  5
39C4
331
39C4
  5
39C5
331
39C5
  5
39C6
331
39C6
  5
39C7
331
39C7
  5
39C8
331
39D9
  5
39DA
331
39DA
  5
39DB
331
39DB
  5
39DC
331
39DC
  5
39DD
331
39DD
  5
39DE
331
39DE
  5
39DF
331
39DF
  5
39E0
331
39E0
  5
39E1
331
39E1
  5
39E2
331
39E6
  5
39E7
331
39E7
  5
39E8
331
39E8
  5
39E9
331
39E9
  5
39ED
331
39EA
  5
39F1
331
39ED
  5
39F2
331
39F1
  5
39E6
331
39F2
  5
39EA
  0
ACDBDETAILVIEWSTYLE
  5
415D
102
{ACAD_XDICTIONARY
360
47B5
102
}
102
{ACAD_REACTORS
330
415C
102
}
330
415C
100
AcDbModelDocViewStyle
 70
     0
  3
Imperial24
290
     0
100
AcDbDetailViewStyle
 70
     0
 71
     0
 90
        3
 71
     1
340
16
 40
0.24
340
0
 40
0.24
300

 40
0.36
280
     3
 71
     2
340
8
 90
       25
 71
     3
340
16
 40
0.24
 90
        1
 40
0.75
 90
        1
300
%<\AcVar ViewType \f "%tc1">% %<\AcVar ViewDetailId>%\PSCALE %<\AcVar ViewScale \f "%sn">%
 71
     4
340
8
 90
       25
340
8
 90
       25
280
     0
  0
LAYOUT
  5
60
102
{ACAD_XDICTIONARY
360
4749
102
}
102
{ACAD_REACTORS
330
61
102
}
330
61
100
AcDbPlotSettings
  1

  2
Canon LBP-1420
  4
A4
  6

 40
5.873749733
 41
5.8737478256
 42
5.8737487793
 43
5.8737487793
 44
209.9733276367
 45
296.925994873
 46
0.0
 47
4.52
 48
328.5174000533
 49
-29.4970548089
140
523.3957935336
141
241.9742563949
142
1.0
143
0.9831130198
 70
 11956
 72
     1
 73
     0
 74
     4
  7
Sekkei.ctb
 75
     0
147
1.0171770486
148
-328.5174000533
149
29.4970548089
100
AcDbLayout
  1
Model
 70
     1
 71
     0
 10
0.0
 20
0.0
 11
12.0
 21
9.0
 12
0.0
 22
0.0
 32
0.0
 14
0.0
 24
0.0
 34
0.0
 15
0.0
 25
0.0
 35
0.0
146
0.0
 13
0.0
 23
0.0
 33
0.0
 16
1.0
 26
0.0
 36
0.0
 17
0.0
 27
1.0
 37
0.0
 76
     0
330
2
331
2FF8
  0
LAYOUT
  5
4741
102
{ACAD_XDICTIONARY
360
47CF
102
}
102
{ACAD_REACTORS
330
61
102
}
330
61
100
AcDbPlotSettings
  1

  2
LBP8610
  4

  6

 40
0.0
 41
0.0
 42
0.0
 43
0.0
 44
0.0
 45
0.0
 46
0.0
 47
0.0
 48
0.0
 49
0.0
140
0.0
141
0.0
142
1.0
143
1.0
 70
   688
 72
     0
 73
     0
 74
     5
  7

 75
    16
147
1.0
148
0.0
149
0.0
100
AcDbLayout
  1
レイアウト1
 70
     1
 71
     1
 10
0.0
 20
0.0
 11
12.0
 21
9.0
 12
0.0
 22
0.0
 32
0.0
 14
0.0
 24
0.0
 34
0.0
 15
0.0
 25
0.0
 35
0.0
146
0.0
 13
0.0
 23
0.0
 33
0.0
 16
1.0
 26
0.0
 36
0.0
 17
0.0
 27
1.0
 37
0.0
 76
     0
330
4740
  0
MATERIAL
  5
3003
102
{ACAD_XDICTIONARY
360
3004
102
}
102
{ACAD_REACTORS
330
2FFA
102
}
330
2FFA
100
AcDbMaterial
  1
ByBlock
 72
     0
 43
0.0208333333
 43
0.0
 43
0.0
 43
0.0
 43
0.0
 43
0.0208333333
 43
0.0
 43
0.0
 43
0.0
 43
0.0
 43
1.0
 43
0.0
 43
0.0
 43
0.0
 43
0.0
 43
1.0
 77
     0
 47
0.0208333333
 47
0.0
 47
0.0
 47
0.0
 47
0.0
 47
0.0208333333
 47
0.0
 47
0.0
 47
0.0
 47
0.0
 47
1.0
 47
0.0
 47
0.0
 47
0.0
 47
0.0
 47
1.0
171
     0
 49
0.0208333333
 49
0.0
 49
0.0
 49
0.0
 49
0.0
 49
0.0208333333
 49
0.0
 49
0.0
 49
0.0
 49
0.0
 49
1.0
 49
0.0
 49
0.0
 49
0.0
 49
0.0
 49
1.0
175
     0
142
0.0208333333
142
0.0
142
0.0
142
0.0
142
0.0
142
0.0208333333
142
0.0
142
0.0
142
0.0
142
0.0
142
1.0
142
0.0
142
0.0
142
0.0
142
0.0
142
1.0
179
     0
144
0.0208333333
144
0.0
144
0.0
144
0.0
144
0.0
144
0.0208333333
144
0.0
144
0.0
144
0.0
144
0.0
144
1.0
144
0.0
144
0.0
144
0.0
144
0.0
144
1.0
147
0.0208333333
147
0.0
147
0.0
147
0.0
147
0.0
147
0.0208333333
147
0.0
147
0.0
147
0.0
147
0.0
147
1.0
147
0.0
147
0.0
147
0.0
147
0.0
147
1.0
  0
MATERIAL
  5
2FFB
102
{ACAD_XDICTIONARY
360
2FFC
102
}
102
{ACAD_REACTORS
330
2FFA
102
}
330
2FFA
100
AcDbMaterial
  1
ByLayer
 72
     0
 43
0.0208333333
 43
0.0
 43
0.0
 43
0.0
 43
0.0
 43
0.0208333333
 43
0.0
 43
0.0
 43
0.0
 43
0.0
 43
1.0
 43
0.0
 43
0.0
 43
0.0
 43
0.0
 43
1.0
 77
     0
 47
0.0208333333
 47
0.0
 47
0.0
 47
0.0
 47
0.0
 47
0.0208333333
 47
0.0
 47
0.0
 47
0.0
 47
0.0
 47
1.0
 47
0.0
 47
0.0
 47
0.0
 47
0.0
 47
1.0
171
     0
 49
0.0208333333
 49
0.0
 49
0.0
 49
0.0
 49
0.0
 49
0.0208333333
 49
0.0
 49
0.0
 49
0.0
 49
0.0
 49
1.0
 49
0.0
 49
0.0
 49
0.0
 49
0.0
 49
1.0
175
     0
142
0.0208333333
142
0.0
142
0.0
142
0.0
142
0.0
142
0.0208333333
142
0.0
142
0.0
142
0.0
142
0.0
142
1.0
142
0.0
142
0.0
142
0.0
142
0.0
142
1.0
179
     0
144
0.0208333333
144
0.0
144
0.0
144
0.0
144
0.0
144
0.0208333333
144
0.0
144
0.0
144
0.0
144
0.0
144
1.0
144
0.0
144
0.0
144
0.0
144
0.0
144
1.0
147
0.0208333333
147
0.0
147
0.0
147
0.0
147
0.0
147
0.0208333333
147
0.0
147
0.0
147
0.0
147
0.0
147
1.0
147
0.0
147
0.0
147
0.0
147
0.0
147
1.0
  0
MATERIAL
  5
300B
102
{ACAD_XDICTIONARY
360
300C
102
}
102
{ACAD_REACTORS
330
2FFA
102
}
330
2FFA
100
AcDbMaterial
  1
Global
 72
     0
 43
0.0208333333
 43
0.0
 43
0.0
 43
0.0
 43
0.0
 43
0.0208333333
 43
0.0
 43
0.0
 43
0.0
 43
0.0
 43
1.0
 43
0.0
 43
0.0
 43
0.0
 43
0.0
 43
1.0
 77
     0
 47
0.0208333333
 47
0.0
 47
0.0
 47
0.0
 47
0.0
 47
0.0208333333
 47
0.0
 47
0.0
 47
0.0
 47
0.0
 47
1.0
 47
0.0
 47
0.0
 47
0.0
 47
0.0
 47
1.0
171
     0
 49
0.0208333333
 49
0.0
 49
0.0
 49
0.0
 49
0.0
 49
0.0208333333
 49
0.0
 49
0.0
 49
0.0
 49
0.0
 49
1.0
 49
0.0
 49
0.0
 49
0.0
 49
0.0
 49
1.0
175
     0
142
0.0208333333
142
0.0
142
0.0
142
0.0
142
0.0
142
0.0208333333
142
0.0
142
0.0
142
0.0
142
0.0
142
1.0
142
0.0
142
0.0
142
0.0
142
0.0
142
1.0
179
     0
144
0.0208333333
144
0.0
144
0.0
144
0.0
144
0.0
144
0.0208333333
144
0.0
144
0.0
144
0.0
144
0.0
144
1.0
144
0.0
144
0.0
144
0.0
144
0.0
144
1.0
147
0.0208333333
147
0.0
147
0.0
147
0.0
147
0.0
147
0.0208333333
147
0.0
147
0.0
147
0.0
147
0.0
147
1.0
147
0.0
147
0.0
147
0.0
147
0.0
147
1.0
  0
MLEADERSTYLE
  5
304A
102
{ACAD_REACTORS
330
3049
102
}
330
3049
100
AcDbMLeaderStyle
170
     2
171
     1
172
     0
 90
        2
 40
0.0
 41
0.0
173
     1
 91
-1056964608
340
6A
 92
       -2
290
     1
 42
0.09
291
     1
 43
0.36
  3
Standard
 44
0.18
300

342
16
174
     1
178
     6
175
     1
176
     0
 93
-1056964608
 45
0.18
292
     0
297
     0
 46
0.18
 94
-1056964608
 47
1.0
 49
1.0
140
1.0
293
     1
141
0.0
294
     1
177
     0
142
1.0
295
     0
296
     0
143
0.125
1001
ACAD_MLEADERVER
1070
     2
  0
MLINESTYLE
  5
78
102
{ACAD_REACTORS
330
76
102
}
330
76
100
AcDbMlineStyle
  2
STANDARD
 70
     0
  3

 62
     0
 51
90.0
 52
90.0
 71
     2
 49
0.5
 62
   256
  6
BYLAYER
 49
-0.5
 62
   256
  6
BYLAYER
  0
ACDBPLACEHOLDER
  5
5
102
{ACAD_REACTORS
330
6
102
}
330
6
  0
SCALE
  5
3028
102
{ACAD_REACTORS
330
3027
102
}
330
3027
100
AcDbScale
 70
     0
300
1:1
140
1.0
141
1.0
290
     1
  0
SCALE
  5
3029
102
{ACAD_REACTORS
330
3027
102
}
330
3027
100
AcDbScale
 70
     0
300
1:2
140
1.0
141
2.0
290
     0
  0
SCALE
  5
302A
102
{ACAD_REACTORS
330
3027
102
}
330
3027
100
AcDbScale
 70
     0
300
1:4
140
1.0
141
4.0
290
     0
  0
SCALE
  5
302B
102
{ACAD_REACTORS
330
3027
102
}
330
3027
100
AcDbScale
 70
     0
300
1:5
140
1.0
141
5.0
290
     0
  0
SCALE
  5
302C
102
{ACAD_REACTORS
330
3027
102
}
330
3027
100
AcDbScale
 70
     0
300
1:8
140
1.0
141
8.0
290
     0
  0
SCALE
  5
302D
102
{ACAD_REACTORS
330
3027
102
}
330
3027
100
AcDbScale
 70
     0
300
1:10
140
1.0
141
10.0
290
     0
  0
SCALE
  5
302E
102
{ACAD_REACTORS
330
3027
102
}
330
3027
100
AcDbScale
 70
     0
300
1:16
140
1.0
141
16.0
290
     0
  0
SCALE
  5
302F
102
{ACAD_REACTORS
330
3027
102
}
330
3027
100
AcDbScale
 70
     0
300
1:20
140
1.0
141
20.0
290
     0
  0
SCALE
  5
3030
102
{ACAD_REACTORS
330
3027
102
}
330
3027
100
AcDbScale
 70
     0
300
1:30
140
1.0
141
30.0
290
     0
  0
SCALE
  5
3031
102
{ACAD_REACTORS
330
3027
102
}
330
3027
100
AcDbScale
 70
     0
300
1:40
140
1.0
141
40.0
290
     0
  0
SCALE
  5
3032
102
{ACAD_REACTORS
330
3027
102
}
330
3027
100
AcDbScale
 70
     0
300
1:50
140
1.0
141
50.0
290
     0
  0
SCALE
  5
3033
102
{ACAD_REACTORS
330
3027
102
}
330
3027
100
AcDbScale
 70
     0
300
1:100
140
1.0
141
100.0
290
     0
  0
SCALE
  5
3034
102
{ACAD_REACTORS
330
3027
102
}
330
3027
100
AcDbScale
 70
     0
300
2:1
140
2.0
141
1.0
290
     0
  0
SCALE
  5
3035
102
{ACAD_REACTORS
330
3027
102
}
330
3027
100
AcDbScale
 70
     0
300
4:1
140
4.0
141
1.0
290
     0
  0
SCALE
  5
3036
102
{ACAD_REACTORS
330
3027
102
}
330
3027
100
AcDbScale
 70
     0
300
8:1
140
8.0
141
1.0
290
     0
  0
SCALE
  5
3037
102
{ACAD_REACTORS
330
3027
102
}
330
3027
100
AcDbScale
 70
     0
300
10:1
140
10.0
141
1.0
290
     0
  0
SCALE
  5
3038
102
{ACAD_REACTORS
330
3027
102
}
330
3027
100
AcDbScale
 70
     0
300
100:1
140
100.0
141
1.0
290
     0
  0
SCALE
  5
3039
102
{ACAD_REACTORS
330
3027
102
}
330
3027
100
AcDbScale
 70
     0
300
1/128" = 1'-0"
140
0.0078125
141
12.0
290
     0
  0
SCALE
  5
303A
102
{ACAD_REACTORS
330
3027
102
}
330
3027
100
AcDbScale
 70
     0
300
1/64" = 1'-0"
140
0.015625
141
12.0
290
     0
  0
SCALE
  5
303B
102
{ACAD_REACTORS
330
3027
102
}
330
3027
100
AcDbScale
 70
     0
300
1/32" = 1'-0"
140
0.03125
141
12.0
290
     0
  0
SCALE
  5
303C
102
{ACAD_REACTORS
330
3027
102
}
330
3027
100
AcDbScale
 70
     0
300
1/16" = 1'-0"
140
0.0625
141
12.0
290
     0
  0
SCALE
  5
303D
102
{ACAD_REACTORS
330
3027
102
}
330
3027
100
AcDbScale
 70
     0
300
3/32" = 1'-0"
140
0.09375
141
12.0
290
     0
  0
SCALE
  5
303E
102
{ACAD_REACTORS
330
3027
102
}
330
3027
100
AcDbScale
 70
     0
300
1/8" = 1'-0"
140
0.125
141
12.0
290
     0
  0
SCALE
  5
303F
102
{ACAD_REACTORS
330
3027
102
}
330
3027
100
AcDbScale
 70
     0
300
3/16" = 1'-0"
140
0.1875
141
12.0
290
     0
  0
SCALE
  5
3040
102
{ACAD_REACTORS
330
3027
102
}
330
3027
100
AcDbScale
 70
     0
300
1/4" = 1'-0"
140
0.25
141
12.0
290
     0
  0
SCALE
  5
3041
102
{ACAD_REACTORS
330
3027
102
}
330
3027
100
AcDbScale
 70
     0
300
3/8" = 1'-0"
140
0.375
141
12.0
290
     0
  0
SCALE
  5
3042
102
{ACAD_REACTORS
330
3027
102
}
330
3027
100
AcDbScale
 70
     0
300
1/2" = 1'-0"
140
0.5
141
12.0
290
     0
  0
SCALE
  5
3043
102
{ACAD_REACTORS
330
3027
102
}
330
3027
100
AcDbScale
 70
     0
300
3/4" = 1'-0"
140
0.75
141
12.0
290
     0
  0
SCALE
  5
3044
102
{ACAD_REACTORS
330
3027
102
}
330
3027
100
AcDbScale
 70
     0
300
1" = 1'-0"
140
1.0
141
12.0
290
     0
  0
SCALE
  5
3045
102
{ACAD_REACTORS
330
3027
102
}
330
3027
100
AcDbScale
 70
     0
300
1-1/2" = 1'-0"
140
1.5
141
12.0
290
     0
  0
SCALE
  5
3046
102
{ACAD_REACTORS
330
3027
102
}
330
3027
100
AcDbScale
 70
     0
300
3" = 1'-0"
140
3.0
141
12.0
290
     0
  0
SCALE
  5
3047
102
{ACAD_REACTORS
330
3027
102
}
330
3027
100
AcDbScale
 70
     0
300
6" = 1'-0"
140
6.0
141
12.0
290
     0
  0
SCALE
  5
3048
102
{ACAD_REACTORS
330
3027
102
}
330
3027
100
AcDbScale
 70
     0
300
1'-0" = 1'-0"
140
12.0
141
12.0
290
     0
  0
ACDBSECTIONVIEWSTYLE
  5
415B
102
{ACAD_XDICTIONARY
360
47B3
102
}
102
{ACAD_REACTORS
330
415A
102
}
330
415A
100
AcDbModelDocViewStyle
 70
     0
  3
Imperial24
290
     0
100
AcDbSectionViewStyle
 70
     0
 71
     0
 90
       78
 71
     1
340
16
 40
0.24
340
0
340
0
 40
0.24
300
I, O, Q, S, X, Z
 40
0.48
 90
        3
 40
0.18
 90
        1
 71
     2
340
8
 90
       25
340
8
 90
       50
 40
0.24
 40
0.0
 40
0.24
 71
     3
340
16
 40
0.24
 90
        1
 40
0.75
 90
        1
300
%<\AcVar ViewType \f "%tc1">% %<\AcVar ViewSectionStartId>%-%<\AcVar ViewSectionEndId>%\PSCALE %<\AcVar ViewScale \f "%sn">%
 71
     4
300
ANSI31
 40
1.0
 90
        0
290
     0
290
     0
 90
        6
 40
0.0
 40
1.5707963268
 40
0.2617993878
 40
1.308996939
 40
-0.2617993878
 40
1.8325957146
  0
TABLESTYLE
  5
3026
102
{ACAD_XDICTIONARY
360
3069
102
}
102
{ACAD_REACTORS
330
3025
102
}
330
3025
100
AcDbTableStyle
  3
Standard
 70
     0
 71
     0
 40
0.06
 41
0.06
280
     0
281
     0
  7
STANDARD
140
0.18
170
     2
 62
     0
 63
     7
283
     0
274
    -2
284
     1
 64
     0
275
    -2
285
     1
 65
     0
276
    -2
286
     1
 66
     0
277
    -2
287
     1
 67
     0
278
    -2
288
     1
 68
     0
279
    -2
289
     1
 69
     0
  7
STANDARD
140
0.25
170
     5
 62
     0
 63
     7
283
     0
274
    -2
284
     1
 64
     0
275
    -2
285
     1
 65
     0
276
    -2
286
     1
 66
     0
277
    -2
287
     1
 67
     0
278
    -2
288
     1
 68
     0
279
    -2
289
     1
 69
     0
  7
STANDARD
140
0.18
170
     5
 62
     0
 63
     7
283
     0
274
    -2
284
     1
 64
     0
275
    -2
285
     1
 65
     0
276
    -2
286
     1
 66
     0
277
    -2
287
     1
 67
     0
278
    -2
288
     1
 68
     0
279
    -2
289
     1
 69
     0
  0
VISUALSTYLE
  5
3019
102
{ACAD_XDICTIONARY
360
4758
102
}
102
{ACAD_REACTORS
330
3013
102
}
330
3013
100
AcDbVisualStyle
  2

 70
     4
 71
     0
 72
     2
 73
     0
 90
        0
 40
-0.6
 41
-30.0
 62
     5
 63
     7
 74
     1
 91
        4
 64
     7
 65
   257
 75
     1
175
     1
 42
1.0
 92
        0
 66
   257
 43
1.0
 76
     1
 77
     6
 78
     2
 67
     7
 79
     5
170
     0
171
     0
290
     0
174
     0
 93
        1
 44
0.0
173
     0
291
     0
 45
0.0
1001
ACAD
1000
AcDbSavedByObjectVersion
1070
     0
  0
VISUALSTYLE
  5
301B
102
{ACAD_XDICTIONARY
360
475C
102
}
102
{ACAD_REACTORS
330
3013
102
}
330
3013
100
AcDbVisualStyle
  2

 70
     6
 71
     1
 72
     2
 73
     2
 90
        0
 40
-0.6
 41
-30.0
 62
     5
 63
     7
 74
     2
 91
        2
 64
     7
 65
   257
 75
     2
175
     1
 42
40.0
 92
        0
 66
   257
 43
1.0
 76
     1
 77
     6
 78
     2
 67
     7
 79
     3
170
     0
171
     0
290
     0
174
     0
 93
        1
 44
0.0
173
     0
291
     0
 45
0.0
1001
ACAD
1000
AcDbSavedByObjectVersion
1070
     0
  0
VISUALSTYLE
  5
301A
102
{ACAD_XDICTIONARY
360
475A
102
}
102
{ACAD_REACTORS
330
3013
102
}
330
3013
100
AcDbVisualStyle
  2

 70
     5
 71
     0
 72
     2
 73
     0
 90
        0
 40
-0.6
 41
-30.0
 62
     5
 63
     7
 74
     1
 91
        4
 64
     7
 65
   257
 75
     1
175
     1
 42
1.0
 92
        0
 66
   257
 43
1.0
 76
     1
 77
     6
 78
     2
 67
     7
 79
     5
170
     0
171
     0
290
     0
174
     0
 93
        1
 44
0.0
173
     0
291
     0
 45
0.0
1001
ACAD
1000
AcDbSavedByObjectVersion
1070
     0
  0
VISUALSTYLE
  5
3018
102
{ACAD_XDICTIONARY
360
4756
102
}
102
{ACAD_REACTORS
330
3013
102
}
330
3013
100
AcDbVisualStyle
  2

 70
     7
 71
     1
 72
     0
 73
     1
 90
        0
 40
-0.6
 41
-30.0
 62
     5
 63
     7
 74
     0
 91
        4
 64
     7
 65
   257
 75
     1
175
     1
 42
1.0
 92
        8
 66
     7
 43
1.0
 76
     1
 77
     6
 78
     2
 67
     7
 79
     5
170
     0
171
     0
290
     0
174
     0
 93
        1
 44
0.0
173
     0
291
     1
 45
0.0
1001
ACAD
1000
AcDbSavedByObjectVersion
1070
     0
  0
VISUALSTYLE
  5
301F
102
{ACAD_XDICTIONARY
360
4764
102
}
102
{ACAD_REACTORS
330
3013
102
}
330
3013
100
AcDbVisualStyle
  2

 70
    12
 71
     2
 72
     2
 73
     0
 90
        0
 40
-0.6
 41
-30.0
 62
     5
 63
     7
 74
     1
 91
        4
 64
     7
 65
   257
 75
     1
175
     1
 42
1.0
 92
        8
 66
     7
 43
1.0
 76
     1
 77
     6
 78
     2
 67
     7
 79
     5
170
     0
171
     0
290
     0
174
     0
 93
        1
 44
50.0
173
     0
291
     1
 45
0.0
1001
ACAD
1000
AcDbSavedByObjectVersion
1070
     0
  0
VISUALSTYLE
  5
3023
102
{ACAD_XDICTIONARY
360
476C
102
}
102
{ACAD_REACTORS
330
3013
102
}
330
3013
100
AcDbVisualStyle
  2

 70
    16
 71
     2
 72
     2
 73
     3
 90
        0
 40
-0.6
 41
-30.0
 62
     5
 63
     8
 74
     1
 91
        4
 64
     7
 65
   257
 75
     1
175
     1
 42
1.0
 92
        8
 66
     8
 43
1.0
 76
     1
 77
     6
 78
     2
 67
     7
 79
     5
170
     0
171
     0
290
     0
174
     0
 93
        1
 44
0.0
173
     0
291
     1
 45
0.0
1001
ACAD
1000
AcDbSavedByObjectVersion
1070
     0
  0
VISUALSTYLE
  5
301C
102
{ACAD_XDICTIONARY
360
475E
102
}
102
{ACAD_REACTORS
330
3013
102
}
330
3013
100
AcDbVisualStyle
  2

 70
     9
 71
     3
 72
     2
 73
     0
 90
        0
 40
-0.6
 41
-30.0
 62
     5
 63
     7
 74
     2
 91
        2
 64
     7
 65
   257
 75
     1
175
     1
 42
40.0
 92
        8
 66
     7
 43
1.0
 76
     1
 77
     6
 78
     2
 67
     7
 79
     3
170
     0
171
     0
290
     0
174
     0
 93
        1
 44
0.0
173
     0
291
     0
 45
0.0
1001
ACAD
1000
AcDbSavedByObjectVersion
1070
     0
  0
VISUALSTYLE
  5
301E
102
{ACAD_XDICTIONARY
360
4762
102
}
102
{ACAD_REACTORS
330
3013
102
}
330
3013
100
AcDbVisualStyle
  2

 70
    11
 71
     2
 72
     2
 73
     0
 90
        0
 40
-0.6
 41
-30.0
 62
     5
 63
     7
 74
     1
 91
        4
 64
     7
 65
   257
 75
     1
175
     1
 42
1.0
 92
        8
 66
     7
 43
1.0
 76
     1
 77
     6
 78
     2
 67
     7
 79
     5
170
     0
171
     0
290
     0
174
     0
 93
        1
 44
-50.0
173
     0
291
     1
 45
0.0
1001
ACAD
1000
AcDbSavedByObjectVersion
1070
     0
  0
VISUALSTYLE
  5
30D0
102
{ACAD_XDICTIONARY
360
4773
102
}
102
{ACAD_REACTORS
330
3013
102
}
330
3013
100
AcDbVisualStyle
  2

 70
    22
 71
     2
 72
     2
 73
     0
 90
        0
 40
-0.6
 41
-30.0
 62
     5
 63
     7
 74
     1
 91
        4
 64
     7
 65
   257
 75
     1
175
     1
 42
1.0
 92
        8
 66
     7
 43
1.0
 76
     1
 77
     6
 78
     2
 67
     7
 79
     5
170
     0
171
     0
290
     0
174
     0
 93
        1
 44
0.0
173
     0
291
     1
 45
0.0
1001
ACAD
1000
AcDbSavedByObjectVersion
1070
     0
  0
VISUALSTYLE
  5
3022
102
{ACAD_XDICTIONARY
360
476A
102
}
102
{ACAD_REACTORS
330
3013
102
}
330
3013
100
AcDbVisualStyle
  2

 70
    15
 71
     2
 72
     2
 73
     0
 90
        0
 40
-0.6
 41
-30.0
 62
     5
 63
     7
 74
     1
 91
        4
 64
     7
 65
   257
 75
     1
175
     1
 42
1.0
 92
        8
 66
     7
 43
1.0
 76
     1
 77
     6
 78
     2
 67
     7
 79
     5
170
     0
171
     0
290
     0
174
     0
 93
        1
 44
0.0
173
     0
291
     1
 45
0.0
1001
ACAD
1000
AcDbSavedByObjectVersion
1070
     0
  0
VISUALSTYLE
  5
3014
102
{ACAD_XDICTIONARY
360
474E
102
}
102
{ACAD_REACTORS
330
3013
102
}
330
3013
100
AcDbVisualStyle
  2

 70
     0
 71
     2
 72
     1
 73
     1
 90
        2
 40
-0.6
 41
30.0
 62
     5
 63
     7
 74
     0
 91
        4
 64
     7
 65
   257
 75
     1
175
     1
 42
1.0
 92
        8
 66
     7
 43
1.0
 76
     1
 77
     6
 78
     2
 67
     7
 79
     5
170
     0
171
     0
290
     0
174
     0
 93
       13
 44
0.0
173
     0
291
     1
 45
0.0
1001
ACAD
1000
AcDbSavedByObjectVersion
1070
     0
  0
VISUALSTYLE
  5
3015
102
{ACAD_XDICTIONARY
360
4750
102
}
102
{ACAD_REACTORS
330
3013
102
}
330
3013
100
AcDbVisualStyle
  2

 70
     1
 71
     2
 72
     1
 73
     1
 90
        2
 40
-0.6
 41
30.0
 62
     5
 63
     7
 74
     1
 91
        4
 64
     7
 65
   257
 75
     1
175
     1
 42
1.0
 92
        0
 66
   257
 43
1.0
 76
     1
 77
     6
 78
     2
 67
     7
 79
     5
170
     0
171
     0
290
     0
174
     0
 93
       13
 44
0.0
173
     0
291
     1
 45
0.0
1001
ACAD
1000
AcDbSavedByObjectVersion
1070
     0
  0
VISUALSTYLE
  5
3016
102
{ACAD_XDICTIONARY
360
4752
102
}
102
{ACAD_REACTORS
330
3013
102
}
330
3013
100
AcDbVisualStyle
  2

 70
     2
 71
     2
 72
     2
 73
     1
 90
        2
 40
-0.6
 41
30.0
 62
     5
 63
     7
 74
     0
 91
        4
 64
     7
 65
   257
 75
     1
175
     1
 42
1.0
 92
        0
 66
     7
 43
1.0
 76
     1
 77
     6
 78
     2
 67
     7
 79
     5
170
     0
171
     0
290
     0
174
     0
 93
       13
 44
0.0
173
     0
291
     1
 45
0.0
1001
ACAD
1000
AcDbSavedByObjectVersion
1070
     0
  0
VISUALSTYLE
  5
3017
102
{ACAD_XDICTIONARY
360
4754
102
}
102
{ACAD_REACTORS
330
3013
102
}
330
3013
100
AcDbVisualStyle
  2

 70
     3
 71
     2
 72
     2
 73
     1
 90
        2
 40
-0.6
 41
30.0
 62
     5
 63
     7
 74
     1
 91
        4
 64
     7
 65
   257
 75
     1
175
     1
 42
1.0
 92
        0
 66
   257
 43
1.0
 76
     1
 77
     6
 78
     2
 67
     7
 79
     5
170
     0
171
     0
290
     0
174
     0
 93
       13
 44
0.0
173
     0
291
     1
 45
0.0
1001
ACAD
1000
AcDbSavedByObjectVersion
1070
     0
  0
VISUALSTYLE
  5
4154
102
{ACAD_XDICTIONARY
360
47A7
102
}
102
{ACAD_REACTORS
330
3013
102
}
330
3013
100
AcDbVisualStyle
  2

 70
     6
 71
     1
 72
     2
 73
     2
 90
        0
 40
-0.6
 41
-30.0
 62
     5
 63
     7
 74
     2
 91
        2
 64
     7
 65
   257
 75
     2
175
     1
 42
40.0
 92
        0
 66
   257
 43
1.0
 76
     1
 77
     6
 78
     2
 67
     7
 79
     3
170
     0
171
     0
290
     0
174
     0
 93
        1
 44
0.0
173
     0
291
     0
 45
0.0
1001
ACAD
1000
AcDbSavedByObjectVersion
1070
     0
  0
VISUALSTYLE
  5
30CE
102
{ACAD_XDICTIONARY
360
476F
102
}
102
{ACAD_REACTORS
330
3013
102
}
330
3013
100
AcDbVisualStyle
  2

 70
    20
 71
     2
 72
     2
 73
     0
 90
        0
 40
-0.6
 41
-30.0
 62
     5
 63
     7
 74
     1
 91
        4
 64
     7
 65
   257
 75
     1
175
     1
 42
1.0
 92
       10
 66
     7
 43
1.0
 76
     1
 77
     6
 78
     2
 67
     7
 79
     5
170
     0
171
     0
290
     0
174
     0
 93
        1
 44
0.0
173
     0
291
     1
 45
0.0
1001
ACAD
1000
AcDbSavedByObjectVersion
1070
     0
  0
VISUALSTYLE
  5
3021
102
{ACAD_XDICTIONARY
360
4768
102
}
102
{ACAD_REACTORS
330
3013
102
}
330
3013
100
AcDbVisualStyle
  2

 70
    14
 71
     2
 72
     2
 73
     0
 90
        0
 40
-0.6
 41
-30.0
 62
     5
 63
     7
 74
     1
 91
        4
 64
     7
 65
   257
 75
     7
175
     7
 42
1.0
 92
        8
 66
     7
 43
1.0
 76
     1
 77
     6
 78
     2
 67
     7
 79
     5
170
     0
171
     0
290
     0
174
     0
 93
        1
 44
0.0
173
     0
291
     1
 45
0.0
1001
ACAD
1000
AcDbSavedByObjectVersion
1070
     0
  0
VISUALSTYLE
  5
30CF
102
{ACAD_XDICTIONARY
360
4771
102
}
102
{ACAD_REACTORS
330
3013
102
}
330
3013
100
AcDbVisualStyle
  2

 70
    21
 71
     2
 72
     2
 73
     0
 90
        0
 40
-0.6
 41
-30.0
 62
     5
 63
     7
 74
     1
 91
        4
 64
     7
 65
   257
 75
     1
175
     1
 42
1.0
 92
        9
 66
     7
 43
1.0
 76
     1
 77
     6
 78
     2
 67
     7
 79
     5
170
     0
171
     0
290
     0
174
     0
 93
        1
 44
0.0
173
     0
291
     1
 45
0.0
1001
ACAD
1000
AcDbSavedByObjectVersion
1070
     0
  0
VISUALSTYLE
  5
301D
102
{ACAD_XDICTIONARY
360
4760
102
}
102
{ACAD_REACTORS
330
3013
102
}
330
3013
100
AcDbVisualStyle
  2

 70
     8
 71
     2
 72
     2
 73
     0
 90
        0
 40
-0.6
 41
-30.0
 62
     5
 63
     7
 74
     1
 91
        0
 64
     7
 65
   257
 75
     1
175
     1
 42
1.0
 92
        8
 66
     8
 43
1.0
 76
     1
 77
     6
 78
     2
 67
     7
 79
     5
170
     0
171
     0
290
     0
174
     0
 93
       13
 44
0.0
173
     0
291
     0
 45
0.0
1001
ACAD
1000
AcDbSavedByObjectVersion
1070
     0
  0
VISUALSTYLE
  5
4159
102
{ACAD_XDICTIONARY
360
47B1
102
}
102
{ACAD_REACTORS
330
3013
102
}
330
3013
100
AcDbVisualStyle
  2

 70
    27
 71
     2
 72
     2
 73
     1
 90
        2
 40
-0.6
 41
30.0
 62
     5
 63
     7
 74
     0
 91
        4
 64
     7
 65
   257
 75
     1
175
     1
 42
1.0
 92
        8
 66
   257
 43
1.0
 76
     1
 77
     6
 78
     2
 67
     8
 79
     3
170
     0
171
     0
290
     0
174
     0
 93
        5
 44
0.0
173
     0
291
     0
 45
0.0
1001
ACAD
1000
AcDbSavedByObjectVersion
1070
     0
  0
VISUALSTYLE
  5
4158
102
{ACAD_XDICTIONARY
360
47AF
102
}
102
{ACAD_REACTORS
330
3013
102
}
330
3013
100
AcDbVisualStyle
  2

 70
    26
 71
     2
 72
     2
 73
     1
 90
        2
 40
-0.6
 41
30.0
 62
     5
 63
     7
 74
     1
 91
        2
 64
     7
 65
   257
 75
     2
175
     1
 42
1.0
 92
        8
 66
   257
 43
1.0
 76
     1
 77
     6
 78
     2
 67
     7
 79
     3
170
     0
171
     0
290
     0
174
     0
 93
        5
 44
0.0
173
     0
291
     0
 45
0.0
1001
ACAD
1000
AcDbSavedByObjectVersion
1070
     0
  0
VISUALSTYLE
  5
4155
102
{ACAD_XDICTIONARY
360
47A9
102
}
102
{ACAD_REACTORS
330
3013
102
}
330
3013
100
AcDbVisualStyle
  2

 70
    23
 71
     2
 72
     2
 73
     3
 90
        0
 40
-0.6
 41
-30.0
 62
     5
 63
     7
 74
     2
 91
        2
 64
     7
 65
     7
 75
     1
175
     1
 42
40.0
 92
        8
 66
     7
 43
1.0
 76
     1
 77
     6
 78
     2
 67
     7
 79
     3
170
     0
171
     0
290
     0
174
     0
 93
        1
 44
0.0
173
     0
291
     0
 45
0.0
1001
ACAD
1000
AcDbSavedByObjectVersion
1070
     0
  0
VISUALSTYLE
  5
4156
102
{ACAD_XDICTIONARY
360
47AB
102
}
102
{ACAD_REACTORS
330
3013
102
}
330
3013
100
AcDbVisualStyle
  2

 70
    24
 71
     1
 72
     2
 73
     2
 90
        0
 40
-0.6
 41
-30.0
 62
     5
 63
     7
 74
     2
 91
        2
 64
     7
 65
     7
 75
     1
175
     1
 42
40.0
 92
       11
 66
     7
 43
1.0
 76
     1
 77
     6
 78
     2
 67
     7
 79
     6
170
     0
171
     0
290
     0
174
     0
 93
        1
 44
0.0
173
     0
291
     0
 45
0.0
1001
ACAD
1000
AcDbSavedByObjectVersion
1070
     0
  0
VISUALSTYLE
  5
3020
102
{ACAD_XDICTIONARY
360
4766
102
}
102
{ACAD_REACTORS
330
3013
102
}
330
3013
100
AcDbVisualStyle
  2

 70
    13
 71
     2
 72
     2
 73
     0
 90
        0
 40
-0.6
 41
-30.0
 62
     5
 63
     7
 74
     1
 91
        4
 64
     7
 65
   257
 75
     1
175
     1
 42
1.0
 92
       12
 66
     7
 43
1.0
 76
     1
 77
     6
 78
     2
 67
     7
 79
     5
170
     0
171
     0
290
     0
174
     0
 93
        1
 44
0.0
173
     0
291
     1
 45
0.0
1001
ACAD
1000
AcDbSavedByObjectVersion
1070
     0
  0
VISUALSTYLE
  5
4153
102
{ACAD_XDICTIONARY
360
47A5
102
}
102
{ACAD_REACTORS
330
3013
102
}
330
3013
100
AcDbVisualStyle
  2

 70
     5
 71
     0
 72
     2
 73
     0
 90
        0
 40
-0.6
 41
-30.0
 62
     5
 63
     7
 74
     1
 91
        4
 64
     7
 65
   257
 75
     1
175
     1
 42
1.0
 92
        0
 66
   257
 43
1.0
 76
     1
 77
     6
 78
     2
 67
     7
 79
     3
170
     0
171
     0
290
     0
174
     0
 93
        1
 44
0.0
173
     0
291
     0
 45
0.0
1001
ACAD
1000
AcDbSavedByObjectVersion
1070
     0
  0
VISUALSTYLE
  5
4157
102
{ACAD_XDICTIONARY
360
47AD
102
}
102
{ACAD_REACTORS
330
3013
102
}
330
3013
100
AcDbVisualStyle
  2

 70
    25
 71
     2
 72
     2
 73
     1
 90
        1
 40
0.5
 41
-30.0
 62
     5
 63
     7
 74
     1
 91
        0
 64
     7
 65
   257
 75
     1
175
     1
 42
1.0
 92
        8
 66
     7
 43
1.0
 76
     1
 77
     6
 78
     2
 67
     7
 79
     3
170
     0
171
     0
290
     0
174
     0
 93
       13
 44
0.0
173
     0
291
     0
 45
0.0
1001
ACAD
1000
AcDbSavedByObjectVersion
1070
     0
  0
DICTIONARYVAR
  5
30CA
102
{ACAD_REACTORS
330
102
102
}
330
102
100
DictionaryVariables
280
     0
  1
1:1
  0
DICTIONARYVAR
  5
30C9
102
{ACAD_REACTORS
330
102
102
}
330
102
100
DictionaryVariables
280
     0
  1
STANDARD
  0
DICTIONARYVAR
  5
30C8
102
{ACAD_REACTORS
330
102
102
}
330
102
100
DictionaryVariables
280
     0
  1
STANDARD
  0
DICTIONARYVAR
  5
4162
102
{ACAD_REACTORS
330
102
102
}
330
102
100
DictionaryVariables
280
     0
  1
Imperial24
  0
DICTIONARYVAR
  5
4163
102
{ACAD_REACTORS
330
102
102
}
330
102
100
DictionaryVariables
280
     0
  1
Imperial24
  0
DICTIONARYVAR
  5
103
102
{ACAD_REACTORS
330
102
102
}
330
102
100
DictionaryVariables
280
     0
  1
1
  0
DICTIONARYVAR
  5
30CC
102
{ACAD_REACTORS
330
102
102
}
330
102
100
DictionaryVariables
280
     0
  1
0
  0
DICTIONARYVAR
  5
4166
102
{ACAD_REACTORS
330
102
102
}
330
102
100
DictionaryVariables
280
     0
  1
1
  0
DICTIONARYVAR
  5
4167
102
{ACAD_REACTORS
330
102
102
}
330
102
100
DictionaryVariables
280
     0
  1
15
  0
DICTIONARYVAR
  5
4165
102
{ACAD_REACTORS
330
102
102
}
330
102
100
DictionaryVariables
280
     0
  1
0
  0
DICTIONARYVAR
  5
4164
102
{ACAD_REACTORS
330
102
102
}
330
102
100
DictionaryVariables
280
     0
  1
0
  0
DICTIONARYVAR
  5
30CB
102
{ACAD_REACTORS
330
102
102
}
330
102
100
DictionaryVariables
280
     0
  1
127
  0
DICTIONARYVAR
  5
4745
102
{ACAD_REACTORS
330
102
102
}
330
102
100
DictionaryVariables
280
     0
  1
2
  0
DICTIONARY
  5
47B5
330
415D
100
AcDbDictionary
280
     1
281
     1
  3
ACAD_XREC_ROUNDTRIP
360
47B6
  0
DICTIONARY
  5
4749
330
60
100
AcDbDictionary
280
     1
281
     1
  3
ACAD_XREC_ROUNDTRIP
360
474A
  0
DICTIONARY
  5
47CF
330
4741
100
AcDbDictionary
280
     1
281
     1
  3
ACAD_XREC_ROUNDTRIP
360
47D0
  0
DICTIONARY
  5
3004
330
3003
100
AcDbDictionary
280
     1
281
     1
  3
ACAD_XREC_ROUNDTRIP
360
474C
  3
BUMPTILE
360
3006
  3
DIFFUSETILE
360
3005
  3
OPACITYTILE
360
3009
  3
REFLECTIONTILE
360
3008
  3
REFRACTIONTILE
360
300A
  3
SPECULARTILE
360
3007
  0
DICTIONARY
  5
2FFC
330
2FFB
100
AcDbDictionary
280
     1
281
     1
  3
ACAD_XREC_ROUNDTRIP
360
474B
  3
BUMPTILE
360
2FFE
  3
DIFFUSETILE
360
2FFD
  3
OPACITYTILE
360
3001
  3
REFLECTIONTILE
360
3000
  3
REFRACTIONTILE
360
3002
  3
SPECULARTILE
360
2FFF
  0
DICTIONARY
  5
300C
330
300B
100
AcDbDictionary
280
     1
281
     1
  3
ACAD_XREC_ROUNDTRIP
360
474D
  3
BUMPTILE
360
300E
  3
DIFFUSETILE
360
300D
  3
OPACITYTILE
360
3011
  3
REFLECTIONTILE
360
3010
  3
REFRACTIONTILE
360
3012
  3
SPECULARTILE
360
300F
  0
DICTIONARY
  5
47B3
330
415B
100
AcDbDictionary
280
     1
281
     1
  3
ACAD_XREC_ROUNDTRIP
360
47B4
  0
DICTIONARY
  5
3069
330
3026
100
AcDbDictionary
280
     1
281
     1
  3
ACAD_ROUNDTRIP_2008_TABLESTYLE_CELLSTYLEMAP
360
4746
  3
ACAD_XREC_ROUNDTRIP
360
476E
  0
DICTIONARY
  5
4758
330
3019
100
AcDbDictionary
280
     1
281
     1
  3
ACAD_XREC_ROUNDTRIP
360
4759
  0
DICTIONARY
  5
475C
330
301B
100
AcDbDictionary
280
     1
281
     1
  3
ACAD_XREC_ROUNDTRIP
360
475D
  0
DICTIONARY
  5
475A
330
301A
100
AcDbDictionary
280
     1
281
     1
  3
ACAD_XREC_ROUNDTRIP
360
475B
  0
DICTIONARY
  5
4756
330
3018
100
AcDbDictionary
280
     1
281
     1
  3
ACAD_XREC_ROUNDTRIP
360
4757
  0
DICTIONARY
  5
4764
330
301F
100
AcDbDictionary
280
     1
281
     1
  3
ACAD_XREC_ROUNDTRIP
360
4765
  0
DICTIONARY
  5
476C
330
3023
100
AcDbDictionary
280
     1
281
     1
  3
ACAD_XREC_ROUNDTRIP
360
476D
  0
DICTIONARY
  5
475E
330
301C
100
AcDbDictionary
280
     1
281
     1
  3
ACAD_XREC_ROUNDTRIP
360
475F
  0
DICTIONARY
  5
4762
330
301E
100
AcDbDictionary
280
     1
281
     1
  3
ACAD_XREC_ROUNDTRIP
360
4763
  0
DICTIONARY
  5
4773
330
30D0
100
AcDbDictionary
280
     1
281
     1
  3
ACAD_XREC_ROUNDTRIP
360
4774
  0
DICTIONARY
  5
476A
330
3022
100
AcDbDictionary
280
     1
281
     1
  3
ACAD_XREC_ROUNDTRIP
360
476B
  0
DICTIONARY
  5
474E
330
3014
100
AcDbDictionary
280
     1
281
     1
  3
ACAD_XREC_ROUNDTRIP
360
474F
  0
DICTIONARY
  5
4750
330
3015
100
AcDbDictionary
280
     1
281
     1
  3
ACAD_XREC_ROUNDTRIP
360
4751
  0
DICTIONARY
  5
4752
330
3016
100
AcDbDictionary
280
     1
281
     1
  3
ACAD_XREC_ROUNDTRIP
360
4753
  0
DICTIONARY
  5
4754
330
3017
100
AcDbDictionary
280
     1
281
     1
  3
ACAD_XREC_ROUNDTRIP
360
4755
  0
DICTIONARY
  5
47A7
330
4154
100
AcDbDictionary
280
     1
281
     1
  3
ACAD_XREC_ROUNDTRIP
360
47A8
  0
DICTIONARY
  5
476F
330
30CE
100
AcDbDictionary
280
     1
281
     1
  3
ACAD_XREC_ROUNDTRIP
360
4770
  0
DICTIONARY
  5
4768
330
3021
100
AcDbDictionary
280
     1
281
     1
  3
ACAD_XREC_ROUNDTRIP
360
4769
  0
DICTIONARY
  5
4771
330
30CF
100
AcDbDictionary
280
     1
281
     1
  3
ACAD_XREC_ROUNDTRIP
360
4772
  0
DICTIONARY
  5
4760
330
301D
100
AcDbDictionary
280
     1
281
     1
  3
ACAD_XREC_ROUNDTRIP
360
4761
  0
DICTIONARY
  5
47B1
330
4159
100
AcDbDictionary
280
     1
281
     1
  3
ACAD_XREC_ROUNDTRIP
360
47B2
  0
DICTIONARY
  5
47AF
330
4158
100
AcDbDictionary
280
     1
281
     1
  3
ACAD_XREC_ROUNDTRIP
360
47B0
  0
DICTIONARY
  5
47A9
330
4155
100
AcDbDictionary
280
     1
281
     1
  3
ACAD_XREC_ROUNDTRIP
360
47AA
  0
DICTIONARY
  5
47AB
330
4156
100
AcDbDictionary
280
     1
281
     1
  3
ACAD_XREC_ROUNDTRIP
360
47AC
  0
DICTIONARY
  5
4766
330
3020
100
AcDbDictionary
280
     1
281
     1
  3
ACAD_XREC_ROUNDTRIP
360
4767
  0
DICTIONARY
  5
47A5
330
4153
100
AcDbDictionary
280
     1
281
     1
  3
ACAD_XREC_ROUNDTRIP
360
47A6
  0
DICTIONARY
  5
47AD
330
4157
100
AcDbDictionary
280
     1
281
     1
  3
ACAD_XREC_ROUNDTRIP
360
47AE
  0
XRECORD
  5
47B6
102
{ACAD_REACTORS
330
47B5
102
}
330
47B5
100
AcDbXrecord
280
     1
102
DISPLAYNAME
  1
Imperial24
102
FLAGS
 90
        0
  0
XRECORD
  5
474A
102
{ACAD_REACTORS
330
4749
102
}
330
4749
100
AcDbXrecord
280
     1
102
SHADEPLOT
 70
     0
102
SHADEPLOTRESLEVEL
 70
     2
102
SHADEPLOTCUSTOMDPI
 70
   300
  0
XRECORD
  5
47D0
102
{ACAD_REACTORS
330
47CF
102
}
330
47CF
100
AcDbXrecord
280
     1
102
SHADEPLOT
 70
     0
102
SHADEPLOTRESLEVEL
 70
     2
102
SHADEPLOTCUSTOMDPI
 70
   300
  0
XRECORD
  5
474C
102
{ACAD_REACTORS
330
3004
102
}
330
3004
100
AcDbXrecord
280
     1
102
MATERIAL
148
0.0
149
0.0
149
0.0
 93
        0
 94
      127
282
     0
 72
     0
 77
     0
171
     0
175
     0
179
     0
273
     0
  0
XRECORD
  5
3006
102
{ACAD_REACTORS
330
3004
102
}
330
3004
100
AcDbXrecord
280
     1
270
     1
271
     1
  0
XRECORD
  5
3005
102
{ACAD_REACTORS
330
3004
102
}
330
3004
100
AcDbXrecord
280
     1
270
     1
271
     1
  0
XRECORD
  5
3009
102
{ACAD_REACTORS
330
3004
102
}
330
3004
100
AcDbXrecord
280
     1
270
     1
271
     1
  0
XRECORD
  5
3008
102
{ACAD_REACTORS
330
3004
102
}
330
3004
100
AcDbXrecord
280
     1
270
     1
271
     1
  0
XRECORD
  5
300A
102
{ACAD_REACTORS
330
3004
102
}
330
3004
100
AcDbXrecord
280
     1
270
     1
271
     1
  0
XRECORD
  5
3007
102
{ACAD_REACTORS
330
3004
102
}
330
3004
100
AcDbXrecord
280
     1
270
     1
271
     1
  0
XRECORD
  5
474B
102
{ACAD_REACTORS
330
2FFC
102
}
330
2FFC
100
AcDbXrecord
280
     1
102
MATERIAL
148
0.0
149
0.0
149
0.0
 93
        0
 94
      127
282
     0
 72
     0
 77
     0
171
     0
175
     0
179
     0
273
     0
  0
XRECORD
  5
2FFE
102
{ACAD_REACTORS
330
2FFC
102
}
330
2FFC
100
AcDbXrecord
280
     1
270
     1
271
     1
  0
XRECORD
  5
2FFD
102
{ACAD_REACTORS
330
2FFC
102
}
330
2FFC
100
AcDbXrecord
280
     1
270
     1
271
     1
  0
XRECORD
  5
3001
102
{ACAD_REACTORS
330
2FFC
102
}
330
2FFC
100
AcDbXrecord
280
     1
270
     1
271
     1
  0
XRECORD
  5
3000
102
{ACAD_REACTORS
330
2FFC
102
}
330
2FFC
100
AcDbXrecord
280
     1
270
     1
271
     1
  0
XRECORD
  5
3002
102
{ACAD_REACTORS
330
2FFC
102
}
330
2FFC
100
AcDbXrecord
280
     1
270
     1
271
     1
  0
XRECORD
  5
2FFF
102
{ACAD_REACTORS
330
2FFC
102
}
330
2FFC
100
AcDbXrecord
280
     1
270
     1
271
     1
  0
XRECORD
  5
474D
102
{ACAD_REACTORS
330
300C
102
}
330
300C
100
AcDbXrecord
280
     1
102
MATERIAL
148
0.0
149
0.0
149
0.0
 93
        0
 94
      127
282
     0
 72
     0
 77
     0
171
     0
175
     0
179
     0
273
     0
  0
XRECORD
  5
300E
102
{ACAD_REACTORS
330
300C
102
}
330
300C
100
AcDbXrecord
280
     1
270
     1
271
     1
  0
XRECORD
  5
300D
102
{ACAD_REACTORS
330
300C
102
}
330
300C
100
AcDbXrecord
280
     1
270
     1
271
     1
  0
XRECORD
  5
3011
102
{ACAD_REACTORS
330
300C
102
}
330
300C
100
AcDbXrecord
280
     1
270
     1
271
     1
  0
XRECORD
  5
3010
102
{ACAD_REACTORS
330
300C
102
}
330
300C
100
AcDbXrecord
280
     1
270
     1
271
     1
  0
XRECORD
  5
3012
102
{ACAD_REACTORS
330
300C
102
}
330
300C
100
AcDbXrecord
280
     1
270
     1
271
     1
  0
XRECORD
  5
300F
102
{ACAD_REACTORS
330
300C
102
}
330
300C
100
AcDbXrecord
280
     1
270
     1
271
     1
  0
XRECORD
  5
47B4
102
{ACAD_REACTORS
330
47B3
102
}
330
47B3
100
AcDbXrecord
280
     1
102
DISPLAYNAME
  1
Imperial24
102
FLAGS
 90
        0
  0
CELLSTYLEMAP
  5
4746
102
{ACAD_REACTORS
330
3069
102
}
330
3069
100
AcDbCellStyleMap
 90
        3
300
CELLSTYLE
  1
TABLEFORMAT_BEGIN
 90
        5
170
     1
 91
        0
 92
    32768
 62
   257
 93
        1
300
CONTENTFORMAT
  1
CONTENTFORMAT_BEGIN
 90
        0
 91
        0
 92
      512
 93
        0
300

 40
0.0
140
1.0
 94
        5
 62
     0
340
16
144
0.25
309
CONTENTFORMAT_END
171
     1
301
MARGIN
  1
CELLMARGIN_BEGIN
 40
0.06
 40
0.06
 40
0.06
 40
0.06
 40
0.18
 40
0.18
309
CELLMARGIN_END
 94
        6
 95
        1
302
GRIDFORMAT
  1
GRIDFORMAT_BEGIN
 90
        0
 91
        1
 62
     0
 92
       -2
340
0
 93
        0
 40
0.045
309
GRIDFORMAT_END
 95
        2
302
GRIDFORMAT
  1
GRIDFORMAT_BEGIN
 90
        0
 91
        1
 62
     0
 92
       -2
340
0
 93
        0
 40
0.045
309
GRIDFORMAT_END
 95
        4
302
GRIDFORMAT
  1
GRIDFORMAT_BEGIN
 90
        0
 91
        1
 62
     0
 92
       -2
340
0
 93
        0
 40
0.045
309
GRIDFORMAT_END
 95
        8
302
GRIDFORMAT
  1
GRIDFORMAT_BEGIN
 90
        0
 91
        1
 62
     0
 92
       -2
340
0
 93
        0
 40
0.045
309
GRIDFORMAT_END
 95
       16
302
GRIDFORMAT
  1
GRIDFORMAT_BEGIN
 90
        0
 91
        1
 62
     0
 92
       -2
340
0
 93
        0
 40
0.045
309
GRIDFORMAT_END
 95
       32
302
GRIDFORMAT
  1
GRIDFORMAT_BEGIN
 90
        0
 91
        1
 62
     0
 92
       -2
340
0
 93
        0
 40
0.045
309
GRIDFORMAT_END
309
TABLEFORMAT_END
  1
CELLSTYLE_BEGIN
 90
        1
 91
        1
300
_TITLE
309
CELLSTYLE_END
300
CELLSTYLE
  1
TABLEFORMAT_BEGIN
 90
        5
170
     1
 91
        0
 92
        0
 62
   257
 93
        1
300
CONTENTFORMAT
  1
CONTENTFORMAT_BEGIN
 90
        0
 91
        0
 92
      512
 93
        0
300

 40
0.0
140
1.0
 94
        5
 62
     0
340
16
144
0.18
309
CONTENTFORMAT_END
171
     1
301
MARGIN
  1
CELLMARGIN_BEGIN
 40
0.06
 40
0.06
 40
0.06
 40
0.06
 40
0.18
 40
0.18
309
CELLMARGIN_END
 94
        6
 95
        1
302
GRIDFORMAT
  1
GRIDFORMAT_BEGIN
 90
        0
 91
        1
 62
     0
 92
       -2
340
0
 93
        0
 40
0.045
309
GRIDFORMAT_END
 95
        2
302
GRIDFORMAT
  1
GRIDFORMAT_BEGIN
 90
        0
 91
        1
 62
     0
 92
       -2
340
0
 93
        0
 40
0.045
309
GRIDFORMAT_END
 95
        4
302
GRIDFORMAT
  1
GRIDFORMAT_BEGIN
 90
        0
 91
        1
 62
     0
 92
       -2
340
0
 93
        0
 40
0.045
309
GRIDFORMAT_END
 95
        8
302
GRIDFORMAT
  1
GRIDFORMAT_BEGIN
 90
        0
 91
        1
 62
     0
 92
       -2
340
0
 93
        0
 40
0.045
309
GRIDFORMAT_END
 95
       16
302
GRIDFORMAT
  1
GRIDFORMAT_BEGIN
 90
        0
 91
        1
 62
     0
 92
       -2
340
0
 93
        0
 40
0.045
309
GRIDFORMAT_END
 95
       32
302
GRIDFORMAT
  1
GRIDFORMAT_BEGIN
 90
        0
 91
        1
 62
     0
 92
       -2
340
0
 93
        0
 40
0.045
309
GRIDFORMAT_END
309
TABLEFORMAT_END
  1
CELLSTYLE_BEGIN
 90
        2
 91
        1
300
_HEADER
309
CELLSTYLE_END
300
CELLSTYLE
  1
TABLEFORMAT_BEGIN
 90
        5
170
     1
 91
        0
 92
        0
 62
   257
 93
        1
300
CONTENTFORMAT
  1
CONTENTFORMAT_BEGIN
 90
        0
 91
        0
 92
      512
 93
        0
300

 40
0.0
140
1.0
 94
        2
 62
     0
340
16
144
0.18
309
CONTENTFORMAT_END
171
     1
301
MARGIN
  1
CELLMARGIN_BEGIN
 40
0.06
 40
0.06
 40
0.06
 40
0.06
 40
0.18
 40
0.18
309
CELLMARGIN_END
 94
        6
 95
        1
302
GRIDFORMAT
  1
GRIDFORMAT_BEGIN
 90
        0
 91
        1
 62
     0
 92
       -2
340
0
 93
        0
 40
0.045
309
GRIDFORMAT_END
 95
        2
302
GRIDFORMAT
  1
GRIDFORMAT_BEGIN
 90
        0
 91
        1
 62
     0
 92
       -2
340
0
 93
        0
 40
0.045
309
GRIDFORMAT_END
 95
        4
302
GRIDFORMAT
  1
GRIDFORMAT_BEGIN
 90
        0
 91
        1
 62
     0
 92
       -2
340
0
 93
        0
 40
0.045
309
GRIDFORMAT_END
 95
        8
302
GRIDFORMAT
  1
GRIDFORMAT_BEGIN
 90
        0
 91
        1
 62
     0
 92
       -2
340
0
 93
        0
 40
0.045
309
GRIDFORMAT_END
 95
       16
302
GRIDFORMAT
  1
GRIDFORMAT_BEGIN
 90
        0
 91
        1
 62
     0
 92
       -2
340
0
 93
        0
 40
0.045
309
GRIDFORMAT_END
 95
       32
302
GRIDFORMAT
  1
GRIDFORMAT_BEGIN
 90
        0
 91
        1
 62
     0
 92
       -2
340
0
 93
        0
 40
0.045
309
GRIDFORMAT_END
309
TABLEFORMAT_END
  1
CELLSTYLE_BEGIN
 90
        3
 91
        2
300
_DATA
309
CELLSTYLE_END
  0
XRECORD
  5
476E
102
{ACAD_REACTORS
330
3069
102
}
330
3069
100
AcDbXrecord
280
     1
102
ACAD_ROUNDTRIP_PRE2007_TABLESTYLE
 90
      512
 91
        0
  1

 92
      512
 93
        0
  2

 94
      512
 95
        0
  3

  0
XRECORD
  5
4759
102
{ACAD_REACTORS
330
4758
102
}
330
4758
100
AcDbXrecord
280
     1
102
RTVSPost2010Prop28
280
     1
102
RTVSPost2010PropOp28
 70
     1
102
RTVSPost2010Prop29
280
     1
102
RTVSPost2010PropOp29
 70
     1
102
RTVSPost2010Prop30
280
     0
102
RTVSPost2010PropOp30
 70
     1
102
RTVSPost2010Prop31
280
     0
102
RTVSPost2010PropOp31
 70
     1
102
RTVSPost2010Prop32
280
     0
102
RTVSPost2010PropOp32
 70
     1
102
RTVSPost2010Prop33
280
     0
102
RTVSPost2010PropOp33
 70
     1
102
RTVSPost2010Prop34
280
     0
102
RTVSPost2010PropOp34
 70
     1
102
RTVSPost2010Prop35
280
     0
102
RTVSPost2010PropOp35
 70
     1
102
RTVSPost2010Prop36
280
     0
102
RTVSPost2010PropOp36
 70
     1
102
RTVSPost2010Prop37
 90
       50
102
RTVSPost2010PropOp37
 70
     1
102
RTVSPost2010Prop38
140
0.0
102
RTVSPost2010PropOp38
 70
     1
102
RTVSPost2010Prop39
140
1.0
102
RTVSPost2010PropOp39
 70
     1
102
RTVSPost2010Prop40
 90
        0
102
RTVSPost2010PropOp40
 70
     1
102
RTVSPost2010Prop41ColorIndex
 90
       18
102
RTVSPost2010Prop41ColorRGB
 90
        0
102
RTVSPost2010PropOp41
 70
     1
102
RTVSPost2010Prop42
 90
       50
102
RTVSPost2010PropOp42
 70
     1
102
RTVSPost2010Prop43
 90
        3
102
RTVSPost2010PropOp43
 70
     1
102
RTVSPost2010Prop44ColorIndex
 90
        5
102
RTVSPost2010Prop44ColorRGB
 90
      255
102
RTVSPost2010PropOp44
 70
     1
102
RTVSPost2010Prop45
280
     0
102
RTVSPost2010PropOp45
 70
     1
102
RTVSPost2010Prop46
 90
       50
102
RTVSPost2010PropOp46
 70
     1
102
RTVSPost2010Prop47
 90
       50
102
RTVSPost2010PropOp47
 70
     1
102
RTVSPost2010Prop48
 90
       50
102
RTVSPost2010PropOp48
 70
     1
102
RTVSPost2010Prop49
280
     0
102
RTVSPost2010PropOp49
 70
     1
102
RTVSPost2010Prop50
 90
       50
102
RTVSPost2010PropOp50
 70
     1
102
RTVSPost2010Prop51ColorIndex
 90
      256
102
RTVSPost2010Prop51ColorRGB
 90
-16777216
102
RTVSPost2010PropOp51
 70
     0
102
RTVSPost2010Prop52
140
1.0
102
RTVSPost2010PropOp52
 70
     0
102
RTVSPost2010Prop53
 90
        2
102
RTVSPost2010PropOp53
 70
     1
102
RTVSPost2010Prop54
  1
strokes_ogs.tif
102
RTVSPost2010PropOp54
 70
     1
102
RTVSPost2010Prop55
280
     0
102
RTVSPost2010PropOp55
 70
     1
102
RTVSPost2010Prop56
140
1.0
102
RTVSPost2010PropOp56
 70
     1
102
RTVSPost2010Prop57
140
1.0
102
RTVSPost2010PropOp57
 70
     1
102
RTVSPropertyOp0
 70
     1
102
RTVSPropertyOp1
 70
     1
102
RTVSPropertyOp2
 70
     1
102
RTVSPropertyOp3
 70
     1
102
RTVSPropertyOp4
 70
     1
102
RTVSPropertyOp5
 70
     1
102
RTVSPropertyOp6
 70
     1
102
RTVSPropertyOp7
 70
     1
102
RTVSPropertyOp8
 70
     1
102
RTVSPropertyOp9
 70
     1
102
RTVSPropertyOp10
 70
     1
102
RTVSPropertyOp11
 70
     1
102
RTVSPropertyOp12
 70
     1
102
RTVSPropertyOp13
 70
     1
102
RTVSPropertyOp14
 70
     1
102
RTVSPropertyOp15
 70
     1
102
RTVSPropertyOp16
 70
     1
102
RTVSPropertyOp17
 70
     1
102
RTVSPropertyOp18
 70
     1
102
RTVSPropertyOp19
 70
     1
102
RTVSPropertyOp20
 70
     1
102
RTVSPropertyOp21
 70
     1
102
RTVSPropertyOp22
 70
     1
102
RTVSPropertyOp23
 70
     1
102
RTVSPropertyOp24
 70
     1
102
RTVSPropertyOp25
 70
     1
102
RTVSPropertyOp26
 70
     1
102
RTVSPropertyOp27
 70
     1
102
RTVSPropertyOp28
 70
     1
102
RTVSPropertyOp29
 70
     1
102
RTVSPropertyOp30
 70
     1
102
RTVSPropertyOp31
 70
     1
102
RTVSPropertyOp32
 70
     1
102
RTVSPropertyOp33
 70
     1
102
RTVSPropertyOp34
 70
     1
102
RTVSPropertyOp35
 70
     1
102
RTVSPropertyOp36
 70
     1
102
RTVSPropertyOp37
 70
     1
102
RTVSPropertyOp38
 70
     1
102
RTVSPropertyOp39
 70
     1
102
RTVSPropertyOp40
 70
     1
102
RTVSPropertyOp41
 70
     1
102
RTVSPropertyOp42
 70
     1
102
RTVSPropertyOp43
 70
     1
102
RTVSPropertyOp44
 70
     1
102
RTVSPropertyOp45
 70
     1
102
RTVSPropertyOp46
 70
     1
102
RTVSPropertyOp47
 70
     1
102
RTVSPropertyOp48
 70
     1
102
RTVSPropertyOp49
 70
     1
102
RTVSPropertyOp50
 70
     1
102
RTVSPropertyOp51
 70
     0
102
RTVSPropertyOp52
 70
     0
102
RTVSPropertyOp53
 70
     1
102
RTVSPropertyOp54
 70
     1
102
RTVSPropertyOp55
 70
     1
102
RTVSPropertyOp56
 70
     1
102
RTVSPropertyOp57
 70
     1
102
RTVSPropertyOp58
 70
     1
102
RTVSPropertyOp59
 70
     1
102
RTVSPropertyOp60
 70
     1
102
RTVSPropertyOp61
 70
     1
102
RTVSPropertyOp62
 70
     1
  0
XRECORD
  5
475D
102
{ACAD_REACTORS
330
475C
102
}
330
475C
100
AcDbXrecord
280
     1
102
RTVSPost2010Prop28
280
     0
102
RTVSPost2010PropOp28
 70
     1
102
RTVSPost2010Prop29
280
     1
102
RTVSPost2010PropOp29
 70
     1
102
RTVSPost2010Prop30
280
     1
102
RTVSPost2010PropOp30
 70
     1
102
RTVSPost2010Prop31
280
     0
102
RTVSPost2010PropOp31
 70
     1
102
RTVSPost2010Prop32
280
     0
102
RTVSPost2010PropOp32
 70
     1
102
RTVSPost2010Prop33
280
     0
102
RTVSPost2010PropOp33
 70
     1
102
RTVSPost2010Prop34
280
     0
102
RTVSPost2010PropOp34
 70
     1
102
RTVSPost2010Prop35
280
     0
102
RTVSPost2010PropOp35
 70
     1
102
RTVSPost2010Prop36
280
     0
102
RTVSPost2010PropOp36
 70
     1
102
RTVSPost2010Prop37
 90
       50
102
RTVSPost2010PropOp37
 70
     1
102
RTVSPost2010Prop38
140
0.0
102
RTVSPost2010PropOp38
 70
     1
102
RTVSPost2010Prop39
140
1.0
102
RTVSPost2010PropOp39
 70
     1
102
RTVSPost2010Prop40
 90
        0
102
RTVSPost2010PropOp40
 70
     1
102
RTVSPost2010Prop41ColorIndex
 90
       18
102
RTVSPost2010Prop41ColorRGB
 90
        0
102
RTVSPost2010PropOp41
 70
     1
102
RTVSPost2010Prop42
 90
       50
102
RTVSPost2010PropOp42
 70
     1
102
RTVSPost2010Prop43
 90
        3
102
RTVSPost2010PropOp43
 70
     1
102
RTVSPost2010Prop44ColorIndex
 90
        5
102
RTVSPost2010Prop44ColorRGB
 90
      255
102
RTVSPost2010PropOp44
 70
     1
102
RTVSPost2010Prop45
280
     0
102
RTVSPost2010PropOp45
 70
     1
102
RTVSPost2010Prop46
 90
       50
102
RTVSPost2010PropOp46
 70
     1
102
RTVSPost2010Prop47
 90
       50
102
RTVSPost2010PropOp47
 70
     1
102
RTVSPost2010Prop48
 90
       50
102
RTVSPost2010PropOp48
 70
     1
102
RTVSPost2010Prop49
280
     0
102
RTVSPost2010PropOp49
 70
     1
102
RTVSPost2010Prop50
 90
       50
102
RTVSPost2010PropOp50
 70
     1
102
RTVSPost2010Prop51ColorIndex
 90
      256
102
RTVSPost2010Prop51ColorRGB
 90
-16777216
102
RTVSPost2010PropOp51
 70
     0
102
RTVSPost2010Prop52
140
1.0
102
RTVSPost2010PropOp52
 70
     0
102
RTVSPost2010Prop53
 90
        2
102
RTVSPost2010PropOp53
 70
     1
102
RTVSPost2010Prop54
  1
strokes_ogs.tif
102
RTVSPost2010PropOp54
 70
     1
102
RTVSPost2010Prop55
280
     0
102
RTVSPost2010PropOp55
 70
     1
102
RTVSPost2010Prop56
140
1.0
102
RTVSPost2010PropOp56
 70
     1
102
RTVSPost2010Prop57
140
1.0
102
RTVSPost2010PropOp57
 70
     1
102
RTVSPropertyOp0
 70
     1
102
RTVSPropertyOp1
 70
     1
102
RTVSPropertyOp2
 70
     1
102
RTVSPropertyOp3
 70
     1
102
RTVSPropertyOp4
 70
     1
102
RTVSPropertyOp5
 70
     1
102
RTVSPropertyOp6
 70
     1
102
RTVSPropertyOp7
 70
     1
102
RTVSPropertyOp8
 70
     1
102
RTVSPropertyOp9
 70
     1
102
RTVSPropertyOp10
 70
     1
102
RTVSPropertyOp11
 70
     1
102
RTVSPropertyOp12
 70
     1
102
RTVSPropertyOp13
 70
     1
102
RTVSPropertyOp14
 70
     1
102
RTVSPropertyOp15
 70
     1
102
RTVSPropertyOp16
 70
     1
102
RTVSPropertyOp17
 70
     1
102
RTVSPropertyOp18
 70
     1
102
RTVSPropertyOp19
 70
     1
102
RTVSPropertyOp20
 70
     1
102
RTVSPropertyOp21
 70
     1
102
RTVSPropertyOp22
 70
     1
102
RTVSPropertyOp23
 70
     1
102
RTVSPropertyOp24
 70
     1
102
RTVSPropertyOp25
 70
     1
102
RTVSPropertyOp26
 70
     1
102
RTVSPropertyOp27
 70
     1
102
RTVSPropertyOp28
 70
     1
102
RTVSPropertyOp29
 70
     1
102
RTVSPropertyOp30
 70
     1
102
RTVSPropertyOp31
 70
     1
102
RTVSPropertyOp32
 70
     1
102
RTVSPropertyOp33
 70
     1
102
RTVSPropertyOp34
 70
     1
102
RTVSPropertyOp35
 70
     1
102
RTVSPropertyOp36
 70
     1
102
RTVSPropertyOp37
 70
     1
102
RTVSPropertyOp38
 70
     1
102
RTVSPropertyOp39
 70
     1
102
RTVSPropertyOp40
 70
     1
102
RTVSPropertyOp41
 70
     1
102
RTVSPropertyOp42
 70
     1
102
RTVSPropertyOp43
 70
     1
102
RTVSPropertyOp44
 70
     1
102
RTVSPropertyOp45
 70
     1
102
RTVSPropertyOp46
 70
     1
102
RTVSPropertyOp47
 70
     1
102
RTVSPropertyOp48
 70
     1
102
RTVSPropertyOp49
 70
     1
102
RTVSPropertyOp50
 70
     1
102
RTVSPropertyOp51
 70
     0
102
RTVSPropertyOp52
 70
     0
102
RTVSPropertyOp53
 70
     1
102
RTVSPropertyOp54
 70
     1
102
RTVSPropertyOp55
 70
     1
102
RTVSPropertyOp56
 70
     1
102
RTVSPropertyOp57
 70
     1
102
RTVSPropertyOp58
 70
     1
102
RTVSPropertyOp59
 70
     1
102
RTVSPropertyOp60
 70
     1
102
RTVSPropertyOp61
 70
     1
102
RTVSPropertyOp62
 70
     1
  0
XRECORD
  5
475B
102
{ACAD_REACTORS
330
475A
102
}
330
475A
100
AcDbXrecord
280
     1
102
RTVSPost2010Prop28
280
     0
102
RTVSPost2010PropOp28
 70
     1
102
RTVSPost2010Prop29
280
     1
102
RTVSPost2010PropOp29
 70
     1
102
RTVSPost2010Prop30
280
     1
102
RTVSPost2010PropOp30
 70
     1
102
RTVSPost2010Prop31
280
     0
102
RTVSPost2010PropOp31
 70
     1
102
RTVSPost2010Prop32
280
     0
102
RTVSPost2010PropOp32
 70
     1
102
RTVSPost2010Prop33
280
     0
102
RTVSPost2010PropOp33
 70
     1
102
RTVSPost2010Prop34
280
     0
102
RTVSPost2010PropOp34
 70
     1
102
RTVSPost2010Prop35
280
     0
102
RTVSPost2010PropOp35
 70
     1
102
RTVSPost2010Prop36
280
     0
102
RTVSPost2010PropOp36
 70
     1
102
RTVSPost2010Prop37
 90
       50
102
RTVSPost2010PropOp37
 70
     1
102
RTVSPost2010Prop38
140
0.0
102
RTVSPost2010PropOp38
 70
     1
102
RTVSPost2010Prop39
140
1.0
102
RTVSPost2010PropOp39
 70
     1
102
RTVSPost2010Prop40
 90
        0
102
RTVSPost2010PropOp40
 70
     1
102
RTVSPost2010Prop41ColorIndex
 90
       18
102
RTVSPost2010Prop41ColorRGB
 90
        0
102
RTVSPost2010PropOp41
 70
     1
102
RTVSPost2010Prop42
 90
       50
102
RTVSPost2010PropOp42
 70
     1
102
RTVSPost2010Prop43
 90
        3
102
RTVSPost2010PropOp43
 70
     1
102
RTVSPost2010Prop44ColorIndex
 90
        5
102
RTVSPost2010Prop44ColorRGB
 90
      255
102
RTVSPost2010PropOp44
 70
     1
102
RTVSPost2010Prop45
280
     0
102
RTVSPost2010PropOp45
 70
     1
102
RTVSPost2010Prop46
 90
       50
102
RTVSPost2010PropOp46
 70
     1
102
RTVSPost2010Prop47
 90
       50
102
RTVSPost2010PropOp47
 70
     1
102
RTVSPost2010Prop48
 90
       50
102
RTVSPost2010PropOp48
 70
     1
102
RTVSPost2010Prop49
280
     0
102
RTVSPost2010PropOp49
 70
     1
102
RTVSPost2010Prop50
 90
       50
102
RTVSPost2010PropOp50
 70
     1
102
RTVSPost2010Prop51ColorIndex
 90
      256
102
RTVSPost2010Prop51ColorRGB
 90
-16777216
102
RTVSPost2010PropOp51
 70
     0
102
RTVSPost2010Prop52
140
1.0
102
RTVSPost2010PropOp52
 70
     0
102
RTVSPost2010Prop53
 90
        2
102
RTVSPost2010PropOp53
 70
     1
102
RTVSPost2010Prop54
  1
strokes_ogs.tif
102
RTVSPost2010PropOp54
 70
     1
102
RTVSPost2010Prop55
280
     0
102
RTVSPost2010PropOp55
 70
     1
102
RTVSPost2010Prop56
140
1.0
102
RTVSPost2010PropOp56
 70
     1
102
RTVSPost2010Prop57
140
1.0
102
RTVSPost2010PropOp57
 70
     1
102
RTVSPropertyOp0
 70
     1
102
RTVSPropertyOp1
 70
     1
102
RTVSPropertyOp2
 70
     1
102
RTVSPropertyOp3
 70
     1
102
RTVSPropertyOp4
 70
     1
102
RTVSPropertyOp5
 70
     1
102
RTVSPropertyOp6
 70
     1
102
RTVSPropertyOp7
 70
     1
102
RTVSPropertyOp8
 70
     1
102
RTVSPropertyOp9
 70
     1
102
RTVSPropertyOp10
 70
     1
102
RTVSPropertyOp11
 70
     1
102
RTVSPropertyOp12
 70
     1
102
RTVSPropertyOp13
 70
     1
102
RTVSPropertyOp14
 70
     1
102
RTVSPropertyOp15
 70
     1
102
RTVSPropertyOp16
 70
     1
102
RTVSPropertyOp17
 70
     1
102
RTVSPropertyOp18
 70
     1
102
RTVSPropertyOp19
 70
     1
102
RTVSPropertyOp20
 70
     1
102
RTVSPropertyOp21
 70
     1
102
RTVSPropertyOp22
 70
     1
102
RTVSPropertyOp23
 70
     1
102
RTVSPropertyOp24
 70
     1
102
RTVSPropertyOp25
 70
     1
102
RTVSPropertyOp26
 70
     1
102
RTVSPropertyOp27
 70
     1
102
RTVSPropertyOp28
 70
     1
102
RTVSPropertyOp29
 70
     1
102
RTVSPropertyOp30
 70
     1
102
RTVSPropertyOp31
 70
     1
102
RTVSPropertyOp32
 70
     1
102
RTVSPropertyOp33
 70
     1
102
RTVSPropertyOp34
 70
     1
102
RTVSPropertyOp35
 70
     1
102
RTVSPropertyOp36
 70
     1
102
RTVSPropertyOp37
 70
     1
102
RTVSPropertyOp38
 70
     1
102
RTVSPropertyOp39
 70
     1
102
RTVSPropertyOp40
 70
     1
102
RTVSPropertyOp41
 70
     1
102
RTVSPropertyOp42
 70
     1
102
RTVSPropertyOp43
 70
     1
102
RTVSPropertyOp44
 70
     1
102
RTVSPropertyOp45
 70
     1
102
RTVSPropertyOp46
 70
     1
102
RTVSPropertyOp47
 70
     1
102
RTVSPropertyOp48
 70
     1
102
RTVSPropertyOp49
 70
     1
102
RTVSPropertyOp50
 70
     1
102
RTVSPropertyOp51
 70
     0
102
RTVSPropertyOp52
 70
     0
102
RTVSPropertyOp53
 70
     1
102
RTVSPropertyOp54
 70
     1
102
RTVSPropertyOp55
 70
     1
102
RTVSPropertyOp56
 70
     1
102
RTVSPropertyOp57
 70
     1
102
RTVSPropertyOp58
 70
     1
102
RTVSPropertyOp59
 70
     1
102
RTVSPropertyOp60
 70
     1
102
RTVSPropertyOp61
 70
     1
102
RTVSPropertyOp62
 70
     1
  0
XRECORD
  5
4757
102
{ACAD_REACTORS
330
4756
102
}
330
4756
100
AcDbXrecord
280
     1
102
RTVSPost2010Prop28
280
     0
102
RTVSPost2010PropOp28
 70
     1
102
RTVSPost2010Prop29
280
     1
102
RTVSPost2010PropOp29
 70
     1
102
RTVSPost2010Prop30
280
     1
102
RTVSPost2010PropOp30
 70
     1
102
RTVSPost2010Prop31
280
     0
102
RTVSPost2010PropOp31
 70
     1
102
RTVSPost2010Prop32
280
     0
102
RTVSPost2010PropOp32
 70
     1
102
RTVSPost2010Prop33
280
     0
102
RTVSPost2010PropOp33
 70
     1
102
RTVSPost2010Prop34
280
     0
102
RTVSPost2010PropOp34
 70
     1
102
RTVSPost2010Prop35
280
     0
102
RTVSPost2010PropOp35
 70
     1
102
RTVSPost2010Prop36
280
     0
102
RTVSPost2010PropOp36
 70
     1
102
RTVSPost2010Prop37
 90
       50
102
RTVSPost2010PropOp37
 70
     1
102
RTVSPost2010Prop38
140
0.0
102
RTVSPost2010PropOp38
 70
     1
102
RTVSPost2010Prop39
140
1.0
102
RTVSPost2010PropOp39
 70
     1
102
RTVSPost2010Prop40
 90
        0
102
RTVSPost2010PropOp40
 70
     1
102
RTVSPost2010Prop41ColorIndex
 90
       18
102
RTVSPost2010Prop41ColorRGB
 90
        0
102
RTVSPost2010PropOp41
 70
     1
102
RTVSPost2010Prop42
 90
       50
102
RTVSPost2010PropOp42
 70
     1
102
RTVSPost2010Prop43
 90
        3
102
RTVSPost2010PropOp43
 70
     1
102
RTVSPost2010Prop44ColorIndex
 90
        5
102
RTVSPost2010Prop44ColorRGB
 90
      255
102
RTVSPost2010PropOp44
 70
     1
102
RTVSPost2010Prop45
280
     0
102
RTVSPost2010PropOp45
 70
     1
102
RTVSPost2010Prop46
 90
       50
102
RTVSPost2010PropOp46
 70
     1
102
RTVSPost2010Prop47
 90
       50
102
RTVSPost2010PropOp47
 70
     1
102
RTVSPost2010Prop48
 90
       50
102
RTVSPost2010PropOp48
 70
     1
102
RTVSPost2010Prop49
280
     0
102
RTVSPost2010PropOp49
 70
     1
102
RTVSPost2010Prop50
 90
       50
102
RTVSPost2010PropOp50
 70
     1
102
RTVSPost2010Prop51ColorIndex
 90
      256
102
RTVSPost2010Prop51ColorRGB
 90
-16777216
102
RTVSPost2010PropOp51
 70
     0
102
RTVSPost2010Prop52
140
1.0
102
RTVSPost2010PropOp52
 70
     0
102
RTVSPost2010Prop53
 90
        2
102
RTVSPost2010PropOp53
 70
     1
102
RTVSPost2010Prop54
  1
strokes_ogs.tif
102
RTVSPost2010PropOp54
 70
     1
102
RTVSPost2010Prop55
280
     0
102
RTVSPost2010PropOp55
 70
     1
102
RTVSPost2010Prop56
140
1.0
102
RTVSPost2010PropOp56
 70
     1
102
RTVSPost2010Prop57
140
1.0
102
RTVSPost2010PropOp57
 70
     1
102
RTVSPropertyOp0
 70
     1
102
RTVSPropertyOp1
 70
     1
102
RTVSPropertyOp2
 70
     1
102
RTVSPropertyOp3
 70
     1
102
RTVSPropertyOp4
 70
     1
102
RTVSPropertyOp5
 70
     1
102
RTVSPropertyOp6
 70
     1
102
RTVSPropertyOp7
 70
     1
102
RTVSPropertyOp8
 70
     1
102
RTVSPropertyOp9
 70
     1
102
RTVSPropertyOp10
 70
     1
102
RTVSPropertyOp11
 70
     1
102
RTVSPropertyOp12
 70
     1
102
RTVSPropertyOp13
 70
     1
102
RTVSPropertyOp14
 70
     1
102
RTVSPropertyOp15
 70
     1
102
RTVSPropertyOp16
 70
     1
102
RTVSPropertyOp17
 70
     1
102
RTVSPropertyOp18
 70
     1
102
RTVSPropertyOp19
 70
     1
102
RTVSPropertyOp20
 70
     1
102
RTVSPropertyOp21
 70
     1
102
RTVSPropertyOp22
 70
     1
102
RTVSPropertyOp23
 70
     1
102
RTVSPropertyOp24
 70
     1
102
RTVSPropertyOp25
 70
     1
102
RTVSPropertyOp26
 70
     1
102
RTVSPropertyOp27
 70
     1
102
RTVSPropertyOp28
 70
     1
102
RTVSPropertyOp29
 70
     1
102
RTVSPropertyOp30
 70
     1
102
RTVSPropertyOp31
 70
     1
102
RTVSPropertyOp32
 70
     1
102
RTVSPropertyOp33
 70
     1
102
RTVSPropertyOp34
 70
     1
102
RTVSPropertyOp35
 70
     1
102
RTVSPropertyOp36
 70
     1
102
RTVSPropertyOp37
 70
     1
102
RTVSPropertyOp38
 70
     1
102
RTVSPropertyOp39
 70
     1
102
RTVSPropertyOp40
 70
     1
102
RTVSPropertyOp41
 70
     1
102
RTVSPropertyOp42
 70
     1
102
RTVSPropertyOp43
 70
     1
102
RTVSPropertyOp44
 70
     1
102
RTVSPropertyOp45
 70
     1
102
RTVSPropertyOp46
 70
     1
102
RTVSPropertyOp47
 70
     1
102
RTVSPropertyOp48
 70
     1
102
RTVSPropertyOp49
 70
     1
102
RTVSPropertyOp50
 70
     1
102
RTVSPropertyOp51
 70
     0
102
RTVSPropertyOp52
 70
     0
102
RTVSPropertyOp53
 70
     1
102
RTVSPropertyOp54
 70
     1
102
RTVSPropertyOp55
 70
     1
102
RTVSPropertyOp56
 70
     1
102
RTVSPropertyOp57
 70
     1
102
RTVSPropertyOp58
 70
     1
102
RTVSPropertyOp59
 70
     1
102
RTVSPropertyOp60
 70
     1
102
RTVSPropertyOp61
 70
     1
102
RTVSPropertyOp62
 70
     1
  0
XRECORD
  5
4765
102
{ACAD_REACTORS
330
4764
102
}
330
4764
100
AcDbXrecord
280
     1
102
RTVSPost2010Prop28
280
     0
102
RTVSPost2010PropOp28
 70
     1
102
RTVSPost2010Prop29
280
     1
102
RTVSPost2010PropOp29
 70
     1
102
RTVSPost2010Prop30
280
     1
102
RTVSPost2010PropOp30
 70
     1
102
RTVSPost2010Prop31
280
     0
102
RTVSPost2010PropOp31
 70
     1
102
RTVSPost2010Prop32
280
     0
102
RTVSPost2010PropOp32
 70
     1
102
RTVSPost2010Prop33
280
     0
102
RTVSPost2010PropOp33
 70
     1
102
RTVSPost2010Prop34
280
     0
102
RTVSPost2010PropOp34
 70
     1
102
RTVSPost2010Prop35
280
     0
102
RTVSPost2010PropOp35
 70
     1
102
RTVSPost2010Prop36
280
     0
102
RTVSPost2010PropOp36
 70
     1
102
RTVSPost2010Prop37
 90
       50
102
RTVSPost2010PropOp37
 70
     1
102
RTVSPost2010Prop38
140
0.0
102
RTVSPost2010PropOp38
 70
     1
102
RTVSPost2010Prop39
140
1.0
102
RTVSPost2010PropOp39
 70
     1
102
RTVSPost2010Prop40
 90
        0
102
RTVSPost2010PropOp40
 70
     1
102
RTVSPost2010Prop41ColorIndex
 90
       18
102
RTVSPost2010Prop41ColorRGB
 90
        0
102
RTVSPost2010PropOp41
 70
     1
102
RTVSPost2010Prop42
 90
       50
102
RTVSPost2010PropOp42
 70
     1
102
RTVSPost2010Prop43
 90
        3
102
RTVSPost2010PropOp43
 70
     1
102
RTVSPost2010Prop44ColorIndex
 90
        5
102
RTVSPost2010Prop44ColorRGB
 90
      255
102
RTVSPost2010PropOp44
 70
     1
102
RTVSPost2010Prop45
280
     0
102
RTVSPost2010PropOp45
 70
     1
102
RTVSPost2010Prop46
 90
       50
102
RTVSPost2010PropOp46
 70
     1
102
RTVSPost2010Prop47
 90
       50
102
RTVSPost2010PropOp47
 70
     1
102
RTVSPost2010Prop48
 90
       50
102
RTVSPost2010PropOp48
 70
     1
102
RTVSPost2010Prop49
280
     0
102
RTVSPost2010PropOp49
 70
     1
102
RTVSPost2010Prop50
 90
       50
102
RTVSPost2010PropOp50
 70
     1
102
RTVSPost2010Prop51ColorIndex
 90
      256
102
RTVSPost2010Prop51ColorRGB
 90
-16777216
102
RTVSPost2010PropOp51
 70
     0
102
RTVSPost2010Prop52
140
1.0
102
RTVSPost2010PropOp52
 70
     0
102
RTVSPost2010Prop53
 90
        2
102
RTVSPost2010PropOp53
 70
     1
102
RTVSPost2010Prop54
  1
strokes_ogs.tif
102
RTVSPost2010PropOp54
 70
     1
102
RTVSPost2010Prop55
280
     0
102
RTVSPost2010PropOp55
 70
     1
102
RTVSPost2010Prop56
140
1.0
102
RTVSPost2010PropOp56
 70
     1
102
RTVSPost2010Prop57
140
1.0
102
RTVSPost2010PropOp57
 70
     1
102
RTVSPropertyOp0
 70
     1
102
RTVSPropertyOp1
 70
     1
102
RTVSPropertyOp2
 70
     1
102
RTVSPropertyOp3
 70
     1
102
RTVSPropertyOp4
 70
     1
102
RTVSPropertyOp5
 70
     1
102
RTVSPropertyOp6
 70
     1
102
RTVSPropertyOp7
 70
     1
102
RTVSPropertyOp8
 70
     1
102
RTVSPropertyOp9
 70
     1
102
RTVSPropertyOp10
 70
     1
102
RTVSPropertyOp11
 70
     1
102
RTVSPropertyOp12
 70
     1
102
RTVSPropertyOp13
 70
     1
102
RTVSPropertyOp14
 70
     1
102
RTVSPropertyOp15
 70
     1
102
RTVSPropertyOp16
 70
     1
102
RTVSPropertyOp17
 70
     1
102
RTVSPropertyOp18
 70
     1
102
RTVSPropertyOp19
 70
     1
102
RTVSPropertyOp20
 70
     1
102
RTVSPropertyOp21
 70
     1
102
RTVSPropertyOp22
 70
     1
102
RTVSPropertyOp23
 70
     1
102
RTVSPropertyOp24
 70
     1
102
RTVSPropertyOp25
 70
     1
102
RTVSPropertyOp26
 70
     1
102
RTVSPropertyOp27
 70
     1
102
RTVSPropertyOp28
 70
     1
102
RTVSPropertyOp29
 70
     1
102
RTVSPropertyOp30
 70
     1
102
RTVSPropertyOp31
 70
     1
102
RTVSPropertyOp32
 70
     1
102
RTVSPropertyOp33
 70
     1
102
RTVSPropertyOp34
 70
     1
102
RTVSPropertyOp35
 70
     1
102
RTVSPropertyOp36
 70
     1
102
RTVSPropertyOp37
 70
     1
102
RTVSPropertyOp38
 70
     1
102
RTVSPropertyOp39
 70
     1
102
RTVSPropertyOp40
 70
     1
102
RTVSPropertyOp41
 70
     1
102
RTVSPropertyOp42
 70
     1
102
RTVSPropertyOp43
 70
     1
102
RTVSPropertyOp44
 70
     1
102
RTVSPropertyOp45
 70
     1
102
RTVSPropertyOp46
 70
     1
102
RTVSPropertyOp47
 70
     1
102
RTVSPropertyOp48
 70
     1
102
RTVSPropertyOp49
 70
     1
102
RTVSPropertyOp50
 70
     1
102
RTVSPropertyOp51
 70
     0
102
RTVSPropertyOp52
 70
     0
102
RTVSPropertyOp53
 70
     1
102
RTVSPropertyOp54
 70
     1
102
RTVSPropertyOp55
 70
     1
102
RTVSPropertyOp56
 70
     1
102
RTVSPropertyOp57
 70
     1
102
RTVSPropertyOp58
 70
     1
102
RTVSPropertyOp59
 70
     1
102
RTVSPropertyOp60
 70
     1
102
RTVSPropertyOp61
 70
     1
102
RTVSPropertyOp62
 70
     1
  0
XRECORD
  5
476D
102
{ACAD_REACTORS
330
476C
102
}
330
476C
100
AcDbXrecord
280
     1
102
RTVSPost2010Prop28
280
     0
102
RTVSPost2010PropOp28
 70
     1
102
RTVSPost2010Prop29
280
     1
102
RTVSPost2010PropOp29
 70
     1
102
RTVSPost2010Prop30
280
     1
102
RTVSPost2010PropOp30
 70
     1
102
RTVSPost2010Prop31
280
     0
102
RTVSPost2010PropOp31
 70
     1
102
RTVSPost2010Prop32
280
     0
102
RTVSPost2010PropOp32
 70
     1
102
RTVSPost2010Prop33
280
     0
102
RTVSPost2010PropOp33
 70
     1
102
RTVSPost2010Prop34
280
     0
102
RTVSPost2010PropOp34
 70
     1
102
RTVSPost2010Prop35
280
     0
102
RTVSPost2010PropOp35
 70
     1
102
RTVSPost2010Prop36
280
     0
102
RTVSPost2010PropOp36
 70
     1
102
RTVSPost2010Prop37
 90
       50
102
RTVSPost2010PropOp37
 70
     1
102
RTVSPost2010Prop38
140
0.0
102
RTVSPost2010PropOp38
 70
     1
102
RTVSPost2010Prop39
140
1.0
102
RTVSPost2010PropOp39
 70
     1
102
RTVSPost2010Prop40
 90
        0
102
RTVSPost2010PropOp40
 70
     1
102
RTVSPost2010Prop41ColorIndex
 90
       18
102
RTVSPost2010Prop41ColorRGB
 90
        0
102
RTVSPost2010PropOp41
 70
     1
102
RTVSPost2010Prop42
 90
       50
102
RTVSPost2010PropOp42
 70
     1
102
RTVSPost2010Prop43
 90
        3
102
RTVSPost2010PropOp43
 70
     1
102
RTVSPost2010Prop44ColorIndex
 90
        5
102
RTVSPost2010Prop44ColorRGB
 90
      255
102
RTVSPost2010PropOp44
 70
     1
102
RTVSPost2010Prop45
280
     0
102
RTVSPost2010PropOp45
 70
     1
102
RTVSPost2010Prop46
 90
       50
102
RTVSPost2010PropOp46
 70
     1
102
RTVSPost2010Prop47
 90
       50
102
RTVSPost2010PropOp47
 70
     1
102
RTVSPost2010Prop48
 90
       50
102
RTVSPost2010PropOp48
 70
     1
102
RTVSPost2010Prop49
280
     0
102
RTVSPost2010PropOp49
 70
     1
102
RTVSPost2010Prop50
 90
       50
102
RTVSPost2010PropOp50
 70
     1
102
RTVSPost2010Prop51ColorIndex
 90
      256
102
RTVSPost2010Prop51ColorRGB
 90
-16777216
102
RTVSPost2010PropOp51
 70
     0
102
RTVSPost2010Prop52
140
1.0
102
RTVSPost2010PropOp52
 70
     0
102
RTVSPost2010Prop53
 90
        2
102
RTVSPost2010PropOp53
 70
     1
102
RTVSPost2010Prop54
  1
strokes_ogs.tif
102
RTVSPost2010PropOp54
 70
     1
102
RTVSPost2010Prop55
280
     0
102
RTVSPost2010PropOp55
 70
     1
102
RTVSPost2010Prop56
140
1.0
102
RTVSPost2010PropOp56
 70
     1
102
RTVSPost2010Prop57
140
1.0
102
RTVSPost2010PropOp57
 70
     1
102
RTVSPropertyOp0
 70
     1
102
RTVSPropertyOp1
 70
     1
102
RTVSPropertyOp2
 70
     1
102
RTVSPropertyOp3
 70
     1
102
RTVSPropertyOp4
 70
     1
102
RTVSPropertyOp5
 70
     1
102
RTVSPropertyOp6
 70
     1
102
RTVSPropertyOp7
 70
     1
102
RTVSPropertyOp8
 70
     1
102
RTVSPropertyOp9
 70
     1
102
RTVSPropertyOp10
 70
     1
102
RTVSPropertyOp11
 70
     1
102
RTVSPropertyOp12
 70
     1
102
RTVSPropertyOp13
 70
     1
102
RTVSPropertyOp14
 70
     1
102
RTVSPropertyOp15
 70
     1
102
RTVSPropertyOp16
 70
     1
102
RTVSPropertyOp17
 70
     1
102
RTVSPropertyOp18
 70
     1
102
RTVSPropertyOp19
 70
     1
102
RTVSPropertyOp20
 70
     1
102
RTVSPropertyOp21
 70
     1
102
RTVSPropertyOp22
 70
     1
102
RTVSPropertyOp23
 70
     1
102
RTVSPropertyOp24
 70
     1
102
RTVSPropertyOp25
 70
     1
102
RTVSPropertyOp26
 70
     1
102
RTVSPropertyOp27
 70
     1
102
RTVSPropertyOp28
 70
     1
102
RTVSPropertyOp29
 70
     1
102
RTVSPropertyOp30
 70
     1
102
RTVSPropertyOp31
 70
     1
102
RTVSPropertyOp32
 70
     1
102
RTVSPropertyOp33
 70
     1
102
RTVSPropertyOp34
 70
     1
102
RTVSPropertyOp35
 70
     1
102
RTVSPropertyOp36
 70
     1
102
RTVSPropertyOp37
 70
     1
102
RTVSPropertyOp38
 70
     1
102
RTVSPropertyOp39
 70
     1
102
RTVSPropertyOp40
 70
     1
102
RTVSPropertyOp41
 70
     1
102
RTVSPropertyOp42
 70
     1
102
RTVSPropertyOp43
 70
     1
102
RTVSPropertyOp44
 70
     1
102
RTVSPropertyOp45
 70
     1
102
RTVSPropertyOp46
 70
     1
102
RTVSPropertyOp47
 70
     1
102
RTVSPropertyOp48
 70
     1
102
RTVSPropertyOp49
 70
     1
102
RTVSPropertyOp50
 70
     1
102
RTVSPropertyOp51
 70
     0
102
RTVSPropertyOp52
 70
     0
102
RTVSPropertyOp53
 70
     1
102
RTVSPropertyOp54
 70
     1
102
RTVSPropertyOp55
 70
     1
102
RTVSPropertyOp56
 70
     1
102
RTVSPropertyOp57
 70
     1
102
RTVSPropertyOp58
 70
     1
102
RTVSPropertyOp59
 70
     1
102
RTVSPropertyOp60
 70
     1
102
RTVSPropertyOp61
 70
     1
102
RTVSPropertyOp62
 70
     1
  0
XRECORD
  5
475F
102
{ACAD_REACTORS
330
475E
102
}
330
475E
100
AcDbXrecord
280
     1
102
RTVSPost2010Prop28
280
     0
102
RTVSPost2010PropOp28
 70
     1
102
RTVSPost2010Prop29
280
     1
102
RTVSPost2010PropOp29
 70
     1
102
RTVSPost2010Prop30
280
     1
102
RTVSPost2010PropOp30
 70
     1
102
RTVSPost2010Prop31
280
     0
102
RTVSPost2010PropOp31
 70
     1
102
RTVSPost2010Prop32
280
     0
102
RTVSPost2010PropOp32
 70
     1
102
RTVSPost2010Prop33
280
     0
102
RTVSPost2010PropOp33
 70
     1
102
RTVSPost2010Prop34
280
     0
102
RTVSPost2010PropOp34
 70
     1
102
RTVSPost2010Prop35
280
     0
102
RTVSPost2010PropOp35
 70
     1
102
RTVSPost2010Prop36
280
     0
102
RTVSPost2010PropOp36
 70
     1
102
RTVSPost2010Prop37
 90
       50
102
RTVSPost2010PropOp37
 70
     1
102
RTVSPost2010Prop38
140
0.0
102
RTVSPost2010PropOp38
 70
     1
102
RTVSPost2010Prop39
140
1.0
102
RTVSPost2010PropOp39
 70
     1
102
RTVSPost2010Prop40
 90
        0
102
RTVSPost2010PropOp40
 70
     1
102
RTVSPost2010Prop41ColorIndex
 90
       18
102
RTVSPost2010Prop41ColorRGB
 90
        0
102
RTVSPost2010PropOp41
 70
     1
102
RTVSPost2010Prop42
 90
       50
102
RTVSPost2010PropOp42
 70
     1
102
RTVSPost2010Prop43
 90
        3
102
RTVSPost2010PropOp43
 70
     1
102
RTVSPost2010Prop44ColorIndex
 90
        5
102
RTVSPost2010Prop44ColorRGB
 90
      255
102
RTVSPost2010PropOp44
 70
     1
102
RTVSPost2010Prop45
280
     0
102
RTVSPost2010PropOp45
 70
     1
102
RTVSPost2010Prop46
 90
       50
102
RTVSPost2010PropOp46
 70
     1
102
RTVSPost2010Prop47
 90
       50
102
RTVSPost2010PropOp47
 70
     1
102
RTVSPost2010Prop48
 90
       50
102
RTVSPost2010PropOp48
 70
     1
102
RTVSPost2010Prop49
280
     0
102
RTVSPost2010PropOp49
 70
     1
102
RTVSPost2010Prop50
 90
       50
102
RTVSPost2010PropOp50
 70
     1
102
RTVSPost2010Prop51ColorIndex
 90
      256
102
RTVSPost2010Prop51ColorRGB
 90
-16777216
102
RTVSPost2010PropOp51
 70
     0
102
RTVSPost2010Prop52
140
1.0
102
RTVSPost2010PropOp52
 70
     0
102
RTVSPost2010Prop53
 90
        2
102
RTVSPost2010PropOp53
 70
     1
102
RTVSPost2010Prop54
  1
strokes_ogs.tif
102
RTVSPost2010PropOp54
 70
     1
102
RTVSPost2010Prop55
280
     0
102
RTVSPost2010PropOp55
 70
     1
102
RTVSPost2010Prop56
140
1.0
102
RTVSPost2010PropOp56
 70
     1
102
RTVSPost2010Prop57
140
1.0
102
RTVSPost2010PropOp57
 70
     1
102
RTVSPropertyOp0
 70
     1
102
RTVSPropertyOp1
 70
     1
102
RTVSPropertyOp2
 70
     1
102
RTVSPropertyOp3
 70
     1
102
RTVSPropertyOp4
 70
     1
102
RTVSPropertyOp5
 70
     1
102
RTVSPropertyOp6
 70
     1
102
RTVSPropertyOp7
 70
     1
102
RTVSPropertyOp8
 70
     1
102
RTVSPropertyOp9
 70
     1
102
RTVSPropertyOp10
 70
     1
102
RTVSPropertyOp11
 70
     1
102
RTVSPropertyOp12
 70
     1
102
RTVSPropertyOp13
 70
     1
102
RTVSPropertyOp14
 70
     1
102
RTVSPropertyOp15
 70
     1
102
RTVSPropertyOp16
 70
     1
102
RTVSPropertyOp17
 70
     1
102
RTVSPropertyOp18
 70
     1
102
RTVSPropertyOp19
 70
     1
102
RTVSPropertyOp20
 70
     1
102
RTVSPropertyOp21
 70
     1
102
RTVSPropertyOp22
 70
     1
102
RTVSPropertyOp23
 70
     1
102
RTVSPropertyOp24
 70
     1
102
RTVSPropertyOp25
 70
     1
102
RTVSPropertyOp26
 70
     1
102
RTVSPropertyOp27
 70
     1
102
RTVSPropertyOp28
 70
     1
102
RTVSPropertyOp29
 70
     1
102
RTVSPropertyOp30
 70
     1
102
RTVSPropertyOp31
 70
     1
102
RTVSPropertyOp32
 70
     1
102
RTVSPropertyOp33
 70
     1
102
RTVSPropertyOp34
 70
     1
102
RTVSPropertyOp35
 70
     1
102
RTVSPropertyOp36
 70
     1
102
RTVSPropertyOp37
 70
     1
102
RTVSPropertyOp38
 70
     1
102
RTVSPropertyOp39
 70
     1
102
RTVSPropertyOp40
 70
     1
102
RTVSPropertyOp41
 70
     1
102
RTVSPropertyOp42
 70
     1
102
RTVSPropertyOp43
 70
     1
102
RTVSPropertyOp44
 70
     1
102
RTVSPropertyOp45
 70
     1
102
RTVSPropertyOp46
 70
     1
102
RTVSPropertyOp47
 70
     1
102
RTVSPropertyOp48
 70
     1
102
RTVSPropertyOp49
 70
     1
102
RTVSPropertyOp50
 70
     1
102
RTVSPropertyOp51
 70
     0
102
RTVSPropertyOp52
 70
     0
102
RTVSPropertyOp53
 70
     1
102
RTVSPropertyOp54
 70
     1
102
RTVSPropertyOp55
 70
     1
102
RTVSPropertyOp56
 70
     1
102
RTVSPropertyOp57
 70
     1
102
RTVSPropertyOp58
 70
     1
102
RTVSPropertyOp59
 70
     1
102
RTVSPropertyOp60
 70
     1
102
RTVSPropertyOp61
 70
     1
102
RTVSPropertyOp62
 70
     1
  0
XRECORD
  5
4763
102
{ACAD_REACTORS
330
4762
102
}
330
4762
100
AcDbXrecord
280
     1
102
RTVSPost2010Prop28
280
     0
102
RTVSPost2010PropOp28
 70
     1
102
RTVSPost2010Prop29
280
     1
102
RTVSPost2010PropOp29
 70
     1
102
RTVSPost2010Prop30
280
     1
102
RTVSPost2010PropOp30
 70
     1
102
RTVSPost2010Prop31
280
     0
102
RTVSPost2010PropOp31
 70
     1
102
RTVSPost2010Prop32
280
     0
102
RTVSPost2010PropOp32
 70
     1
102
RTVSPost2010Prop33
280
     0
102
RTVSPost2010PropOp33
 70
     1
102
RTVSPost2010Prop34
280
     0
102
RTVSPost2010PropOp34
 70
     1
102
RTVSPost2010Prop35
280
     0
102
RTVSPost2010PropOp35
 70
     1
102
RTVSPost2010Prop36
280
     0
102
RTVSPost2010PropOp36
 70
     1
102
RTVSPost2010Prop37
 90
       50
102
RTVSPost2010PropOp37
 70
     1
102
RTVSPost2010Prop38
140
0.0
102
RTVSPost2010PropOp38
 70
     1
102
RTVSPost2010Prop39
140
1.0
102
RTVSPost2010PropOp39
 70
     1
102
RTVSPost2010Prop40
 90
        0
102
RTVSPost2010PropOp40
 70
     1
102
RTVSPost2010Prop41ColorIndex
 90
       18
102
RTVSPost2010Prop41ColorRGB
 90
        0
102
RTVSPost2010PropOp41
 70
     1
102
RTVSPost2010Prop42
 90
       50
102
RTVSPost2010PropOp42
 70
     1
102
RTVSPost2010Prop43
 90
        3
102
RTVSPost2010PropOp43
 70
     1
102
RTVSPost2010Prop44ColorIndex
 90
        5
102
RTVSPost2010Prop44ColorRGB
 90
      255
102
RTVSPost2010PropOp44
 70
     1
102
RTVSPost2010Prop45
280
     0
102
RTVSPost2010PropOp45
 70
     1
102
RTVSPost2010Prop46
 90
       50
102
RTVSPost2010PropOp46
 70
     1
102
RTVSPost2010Prop47
 90
       50
102
RTVSPost2010PropOp47
 70
     1
102
RTVSPost2010Prop48
 90
       50
102
RTVSPost2010PropOp48
 70
     1
102
RTVSPost2010Prop49
280
     0
102
RTVSPost2010PropOp49
 70
     1
102
RTVSPost2010Prop50
 90
       50
102
RTVSPost2010PropOp50
 70
     1
102
RTVSPost2010Prop51ColorIndex
 90
      256
102
RTVSPost2010Prop51ColorRGB
 90
-16777216
102
RTVSPost2010PropOp51
 70
     0
102
RTVSPost2010Prop52
140
1.0
102
RTVSPost2010PropOp52
 70
     0
102
RTVSPost2010Prop53
 90
        2
102
RTVSPost2010PropOp53
 70
     1
102
RTVSPost2010Prop54
  1
strokes_ogs.tif
102
RTVSPost2010PropOp54
 70
     1
102
RTVSPost2010Prop55
280
     0
102
RTVSPost2010PropOp55
 70
     1
102
RTVSPost2010Prop56
140
1.0
102
RTVSPost2010PropOp56
 70
     1
102
RTVSPost2010Prop57
140
1.0
102
RTVSPost2010PropOp57
 70
     1
102
RTVSPropertyOp0
 70
     1
102
RTVSPropertyOp1
 70
     1
102
RTVSPropertyOp2
 70
     1
102
RTVSPropertyOp3
 70
     1
102
RTVSPropertyOp4
 70
     1
102
RTVSPropertyOp5
 70
     1
102
RTVSPropertyOp6
 70
     1
102
RTVSPropertyOp7
 70
     1
102
RTVSPropertyOp8
 70
     1
102
RTVSPropertyOp9
 70
     1
102
RTVSPropertyOp10
 70
     1
102
RTVSPropertyOp11
 70
     1
102
RTVSPropertyOp12
 70
     1
102
RTVSPropertyOp13
 70
     1
102
RTVSPropertyOp14
 70
     1
102
RTVSPropertyOp15
 70
     1
102
RTVSPropertyOp16
 70
     1
102
RTVSPropertyOp17
 70
     1
102
RTVSPropertyOp18
 70
     1
102
RTVSPropertyOp19
 70
     1
102
RTVSPropertyOp20
 70
     1
102
RTVSPropertyOp21
 70
     1
102
RTVSPropertyOp22
 70
     1
102
RTVSPropertyOp23
 70
     1
102
RTVSPropertyOp24
 70
     1
102
RTVSPropertyOp25
 70
     1
102
RTVSPropertyOp26
 70
     1
102
RTVSPropertyOp27
 70
     1
102
RTVSPropertyOp28
 70
     1
102
RTVSPropertyOp29
 70
     1
102
RTVSPropertyOp30
 70
     1
102
RTVSPropertyOp31
 70
     1
102
RTVSPropertyOp32
 70
     1
102
RTVSPropertyOp33
 70
     1
102
RTVSPropertyOp34
 70
     1
102
RTVSPropertyOp35
 70
     1
102
RTVSPropertyOp36
 70
     1
102
RTVSPropertyOp37
 70
     1
102
RTVSPropertyOp38
 70
     1
102
RTVSPropertyOp39
 70
     1
102
RTVSPropertyOp40
 70
     1
102
RTVSPropertyOp41
 70
     1
102
RTVSPropertyOp42
 70
     1
102
RTVSPropertyOp43
 70
     1
102
RTVSPropertyOp44
 70
     1
102
RTVSPropertyOp45
 70
     1
102
RTVSPropertyOp46
 70
     1
102
RTVSPropertyOp47
 70
     1
102
RTVSPropertyOp48
 70
     1
102
RTVSPropertyOp49
 70
     1
102
RTVSPropertyOp50
 70
     1
102
RTVSPropertyOp51
 70
     0
102
RTVSPropertyOp52
 70
     0
102
RTVSPropertyOp53
 70
     1
102
RTVSPropertyOp54
 70
     1
102
RTVSPropertyOp55
 70
     1
102
RTVSPropertyOp56
 70
     1
102
RTVSPropertyOp57
 70
     1
102
RTVSPropertyOp58
 70
     1
102
RTVSPropertyOp59
 70
     1
102
RTVSPropertyOp60
 70
     1
102
RTVSPropertyOp61
 70
     1
102
RTVSPropertyOp62
 70
     1
  0
XRECORD
  5
4774
102
{ACAD_REACTORS
330
4773
102
}
330
4773
100
AcDbXrecord
280
     1
102
RTVSPost2010Prop28
280
     0
102
RTVSPost2010PropOp28
 70
     1
102
RTVSPost2010Prop29
280
     1
102
RTVSPost2010PropOp29
 70
     1
102
RTVSPost2010Prop30
280
     1
102
RTVSPost2010PropOp30
 70
     1
102
RTVSPost2010Prop31
280
     0
102
RTVSPost2010PropOp31
 70
     1
102
RTVSPost2010Prop32
280
     0
102
RTVSPost2010PropOp32
 70
     1
102
RTVSPost2010Prop33
280
     0
102
RTVSPost2010PropOp33
 70
     1
102
RTVSPost2010Prop34
280
     0
102
RTVSPost2010PropOp34
 70
     1
102
RTVSPost2010Prop35
280
     0
102
RTVSPost2010PropOp35
 70
     1
102
RTVSPost2010Prop36
280
     0
102
RTVSPost2010PropOp36
 70
     1
102
RTVSPost2010Prop37
 90
       50
102
RTVSPost2010PropOp37
 70
     1
102
RTVSPost2010Prop38
140
0.0
102
RTVSPost2010PropOp38
 70
     1
102
RTVSPost2010Prop39
140
1.0
102
RTVSPost2010PropOp39
 70
     1
102
RTVSPost2010Prop40
 90
        0
102
RTVSPost2010PropOp40
 70
     1
102
RTVSPost2010Prop41ColorIndex
 90
       18
102
RTVSPost2010Prop41ColorRGB
 90
        0
102
RTVSPost2010PropOp41
 70
     1
102
RTVSPost2010Prop42
 90
       50
102
RTVSPost2010PropOp42
 70
     1
102
RTVSPost2010Prop43
 90
        3
102
RTVSPost2010PropOp43
 70
     1
102
RTVSPost2010Prop44ColorIndex
 90
        5
102
RTVSPost2010Prop44ColorRGB
 90
      255
102
RTVSPost2010PropOp44
 70
     1
102
RTVSPost2010Prop45
280
     0
102
RTVSPost2010PropOp45
 70
     1
102
RTVSPost2010Prop46
 90
       50
102
RTVSPost2010PropOp46
 70
     1
102
RTVSPost2010Prop47
 90
       50
102
RTVSPost2010PropOp47
 70
     1
102
RTVSPost2010Prop48
 90
       50
102
RTVSPost2010PropOp48
 70
     1
102
RTVSPost2010Prop49
280
     0
102
RTVSPost2010PropOp49
 70
     1
102
RTVSPost2010Prop50
 90
       50
102
RTVSPost2010PropOp50
 70
     1
102
RTVSPost2010Prop51ColorIndex
 90
      256
102
RTVSPost2010Prop51ColorRGB
 90
-16777216
102
RTVSPost2010PropOp51
 70
     0
102
RTVSPost2010Prop52
140
1.0
102
RTVSPost2010PropOp52
 70
     0
102
RTVSPost2010Prop53
 90
        2
102
RTVSPost2010PropOp53
 70
     1
102
RTVSPost2010Prop54
  1
strokes_ogs.tif
102
RTVSPost2010PropOp54
 70
     1
102
RTVSPost2010Prop55
280
     0
102
RTVSPost2010PropOp55
 70
     1
102
RTVSPost2010Prop56
140
1.0
102
RTVSPost2010PropOp56
 70
     1
102
RTVSPost2010Prop57
140
1.0
102
RTVSPost2010PropOp57
 70
     1
102
RTVSPropertyOp0
 70
     0
102
RTVSPropertyOp1
 70
     0
102
RTVSPropertyOp2
 70
     0
102
RTVSPropertyOp3
 70
     0
102
RTVSPropertyOp4
 70
     0
102
RTVSPropertyOp5
 70
     0
102
RTVSPropertyOp6
 70
     0
102
RTVSPropertyOp7
 70
     0
102
RTVSPropertyOp8
 70
     0
102
RTVSPropertyOp9
 70
     0
102
RTVSPropertyOp10
 70
     0
102
RTVSPropertyOp11
 70
     0
102
RTVSPropertyOp12
 70
     0
102
RTVSPropertyOp13
 70
     0
102
RTVSPropertyOp14
 70
     2
102
RTVSPropertyOp15
 70
     0
102
RTVSPropertyOp16
 70
     0
102
RTVSPropertyOp17
 70
     0
102
RTVSPropertyOp18
 70
     0
102
RTVSPropertyOp19
 70
     0
102
RTVSPropertyOp20
 70
     0
102
RTVSPropertyOp21
 70
     0
102
RTVSPropertyOp22
 70
     0
102
RTVSPropertyOp23
 70
     0
102
RTVSPropertyOp24
 70
     0
102
RTVSPropertyOp25
 70
     0
102
RTVSPropertyOp26
 70
     0
102
RTVSPropertyOp27
 70
     0
102
RTVSPropertyOp28
 70
     1
102
RTVSPropertyOp29
 70
     1
102
RTVSPropertyOp30
 70
     1
102
RTVSPropertyOp31
 70
     1
102
RTVSPropertyOp32
 70
     1
102
RTVSPropertyOp33
 70
     1
102
RTVSPropertyOp34
 70
     1
102
RTVSPropertyOp35
 70
     1
102
RTVSPropertyOp36
 70
     1
102
RTVSPropertyOp37
 70
     1
102
RTVSPropertyOp38
 70
     1
102
RTVSPropertyOp39
 70
     1
102
RTVSPropertyOp40
 70
     1
102
RTVSPropertyOp41
 70
     1
102
RTVSPropertyOp42
 70
     1
102
RTVSPropertyOp43
 70
     1
102
RTVSPropertyOp44
 70
     1
102
RTVSPropertyOp45
 70
     1
102
RTVSPropertyOp46
 70
     1
102
RTVSPropertyOp47
 70
     1
102
RTVSPropertyOp48
 70
     1
102
RTVSPropertyOp49
 70
     1
102
RTVSPropertyOp50
 70
     1
102
RTVSPropertyOp51
 70
     0
102
RTVSPropertyOp52
 70
     0
102
RTVSPropertyOp53
 70
     1
102
RTVSPropertyOp54
 70
     1
102
RTVSPropertyOp55
 70
     1
102
RTVSPropertyOp56
 70
     1
102
RTVSPropertyOp57
 70
     1
102
RTVSPropertyOp58
 70
     1
102
RTVSPropertyOp59
 70
     1
102
RTVSPropertyOp60
 70
     1
102
RTVSPropertyOp61
 70
     1
102
RTVSPropertyOp62
 70
     1
  0
XRECORD
  5
476B
102
{ACAD_REACTORS
330
476A
102
}
330
476A
100
AcDbXrecord
280
     1
102
RTVSPost2010Prop28
280
     0
102
RTVSPost2010PropOp28
 70
     1
102
RTVSPost2010Prop29
280
     1
102
RTVSPost2010PropOp29
 70
     1
102
RTVSPost2010Prop30
280
     1
102
RTVSPost2010PropOp30
 70
     1
102
RTVSPost2010Prop31
280
     0
102
RTVSPost2010PropOp31
 70
     1
102
RTVSPost2010Prop32
280
     0
102
RTVSPost2010PropOp32
 70
     1
102
RTVSPost2010Prop33
280
     0
102
RTVSPost2010PropOp33
 70
     1
102
RTVSPost2010Prop34
280
     0
102
RTVSPost2010PropOp34
 70
     1
102
RTVSPost2010Prop35
280
     0
102
RTVSPost2010PropOp35
 70
     1
102
RTVSPost2010Prop36
280
     0
102
RTVSPost2010PropOp36
 70
     1
102
RTVSPost2010Prop37
 90
       50
102
RTVSPost2010PropOp37
 70
     1
102
RTVSPost2010Prop38
140
0.0
102
RTVSPost2010PropOp38
 70
     1
102
RTVSPost2010Prop39
140
1.0
102
RTVSPost2010PropOp39
 70
     1
102
RTVSPost2010Prop40
 90
        0
102
RTVSPost2010PropOp40
 70
     1
102
RTVSPost2010Prop41ColorIndex
 90
       18
102
RTVSPost2010Prop41ColorRGB
 90
        0
102
RTVSPost2010PropOp41
 70
     1
102
RTVSPost2010Prop42
 90
       50
102
RTVSPost2010PropOp42
 70
     1
102
RTVSPost2010Prop43
 90
        3
102
RTVSPost2010PropOp43
 70
     1
102
RTVSPost2010Prop44ColorIndex
 90
        5
102
RTVSPost2010Prop44ColorRGB
 90
      255
102
RTVSPost2010PropOp44
 70
     1
102
RTVSPost2010Prop45
280
     0
102
RTVSPost2010PropOp45
 70
     1
102
RTVSPost2010Prop46
 90
       50
102
RTVSPost2010PropOp46
 70
     1
102
RTVSPost2010Prop47
 90
       50
102
RTVSPost2010PropOp47
 70
     1
102
RTVSPost2010Prop48
 90
       50
102
RTVSPost2010PropOp48
 70
     1
102
RTVSPost2010Prop49
280
     0
102
RTVSPost2010PropOp49
 70
     1
102
RTVSPost2010Prop50
 90
       50
102
RTVSPost2010PropOp50
 70
     1
102
RTVSPost2010Prop51ColorIndex
 90
      256
102
RTVSPost2010Prop51ColorRGB
 90
-16777216
102
RTVSPost2010PropOp51
 70
     0
102
RTVSPost2010Prop52
140
1.0
102
RTVSPost2010PropOp52
 70
     0
102
RTVSPost2010Prop53
 90
        2
102
RTVSPost2010PropOp53
 70
     1
102
RTVSPost2010Prop54
  1
strokes_ogs.tif
102
RTVSPost2010PropOp54
 70
     1
102
RTVSPost2010Prop55
280
     0
102
RTVSPost2010PropOp55
 70
     1
102
RTVSPost2010Prop56
140
1.0
102
RTVSPost2010PropOp56
 70
     1
102
RTVSPost2010Prop57
140
1.0
102
RTVSPost2010PropOp57
 70
     1
102
RTVSPropertyOp0
 70
     1
102
RTVSPropertyOp1
 70
     1
102
RTVSPropertyOp2
 70
     1
102
RTVSPropertyOp3
 70
     1
102
RTVSPropertyOp4
 70
     1
102
RTVSPropertyOp5
 70
     1
102
RTVSPropertyOp6
 70
     1
102
RTVSPropertyOp7
 70
     1
102
RTVSPropertyOp8
 70
     1
102
RTVSPropertyOp9
 70
     1
102
RTVSPropertyOp10
 70
     1
102
RTVSPropertyOp11
 70
     1
102
RTVSPropertyOp12
 70
     1
102
RTVSPropertyOp13
 70
     1
102
RTVSPropertyOp14
 70
     1
102
RTVSPropertyOp15
 70
     1
102
RTVSPropertyOp16
 70
     1
102
RTVSPropertyOp17
 70
     1
102
RTVSPropertyOp18
 70
     1
102
RTVSPropertyOp19
 70
     1
102
RTVSPropertyOp20
 70
     1
102
RTVSPropertyOp21
 70
     1
102
RTVSPropertyOp22
 70
     1
102
RTVSPropertyOp23
 70
     1
102
RTVSPropertyOp24
 70
     1
102
RTVSPropertyOp25
 70
     1
102
RTVSPropertyOp26
 70
     1
102
RTVSPropertyOp27
 70
     1
102
RTVSPropertyOp28
 70
     1
102
RTVSPropertyOp29
 70
     1
102
RTVSPropertyOp30
 70
     1
102
RTVSPropertyOp31
 70
     1
102
RTVSPropertyOp32
 70
     1
102
RTVSPropertyOp33
 70
     1
102
RTVSPropertyOp34
 70
     1
102
RTVSPropertyOp35
 70
     1
102
RTVSPropertyOp36
 70
     1
102
RTVSPropertyOp37
 70
     1
102
RTVSPropertyOp38
 70
     1
102
RTVSPropertyOp39
 70
     1
102
RTVSPropertyOp40
 70
     1
102
RTVSPropertyOp41
 70
     1
102
RTVSPropertyOp42
 70
     1
102
RTVSPropertyOp43
 70
     1
102
RTVSPropertyOp44
 70
     1
102
RTVSPropertyOp45
 70
     1
102
RTVSPropertyOp46
 70
     1
102
RTVSPropertyOp47
 70
     1
102
RTVSPropertyOp48
 70
     1
102
RTVSPropertyOp49
 70
     1
102
RTVSPropertyOp50
 70
     1
102
RTVSPropertyOp51
 70
     0
102
RTVSPropertyOp52
 70
     0
102
RTVSPropertyOp53
 70
     1
102
RTVSPropertyOp54
 70
     1
102
RTVSPropertyOp55
 70
     1
102
RTVSPropertyOp56
 70
     1
102
RTVSPropertyOp57
 70
     1
102
RTVSPropertyOp58
 70
     1
102
RTVSPropertyOp59
 70
     1
102
RTVSPropertyOp60
 70
     1
102
RTVSPropertyOp61
 70
     1
102
RTVSPropertyOp62
 70
     1
  0
XRECORD
  5
474F
102
{ACAD_REACTORS
330
474E
102
}
330
474E
100
AcDbXrecord
280
     1
102
RTVSPost2010Prop28
280
     0
102
RTVSPost2010PropOp28
 70
     1
102
RTVSPost2010Prop29
280
     1
102
RTVSPost2010PropOp29
 70
     1
102
RTVSPost2010Prop30
280
     1
102
RTVSPost2010PropOp30
 70
     1
102
RTVSPost2010Prop31
280
     0
102
RTVSPost2010PropOp31
 70
     1
102
RTVSPost2010Prop32
280
     0
102
RTVSPost2010PropOp32
 70
     1
102
RTVSPost2010Prop33
280
     0
102
RTVSPost2010PropOp33
 70
     1
102
RTVSPost2010Prop34
280
     0
102
RTVSPost2010PropOp34
 70
     1
102
RTVSPost2010Prop35
280
     0
102
RTVSPost2010PropOp35
 70
     1
102
RTVSPost2010Prop36
280
     0
102
RTVSPost2010PropOp36
 70
     1
102
RTVSPost2010Prop37
 90
       50
102
RTVSPost2010PropOp37
 70
     1
102
RTVSPost2010Prop38
140
0.0
102
RTVSPost2010PropOp38
 70
     1
102
RTVSPost2010Prop39
140
1.0
102
RTVSPost2010PropOp39
 70
     1
102
RTVSPost2010Prop40
 90
        0
102
RTVSPost2010PropOp40
 70
     1
102
RTVSPost2010Prop41ColorIndex
 90
       18
102
RTVSPost2010Prop41ColorRGB
 90
        0
102
RTVSPost2010PropOp41
 70
     1
102
RTVSPost2010Prop42
 90
       50
102
RTVSPost2010PropOp42
 70
     1
102
RTVSPost2010Prop43
 90
        3
102
RTVSPost2010PropOp43
 70
     1
102
RTVSPost2010Prop44ColorIndex
 90
        5
102
RTVSPost2010Prop44ColorRGB
 90
      255
102
RTVSPost2010PropOp44
 70
     1
102
RTVSPost2010Prop45
280
     0
102
RTVSPost2010PropOp45
 70
     1
102
RTVSPost2010Prop46
 90
       50
102
RTVSPost2010PropOp46
 70
     1
102
RTVSPost2010Prop47
 90
       50
102
RTVSPost2010PropOp47
 70
     1
102
RTVSPost2010Prop48
 90
       50
102
RTVSPost2010PropOp48
 70
     1
102
RTVSPost2010Prop49
280
     0
102
RTVSPost2010PropOp49
 70
     1
102
RTVSPost2010Prop50
 90
       50
102
RTVSPost2010PropOp50
 70
     1
102
RTVSPost2010Prop51ColorIndex
 90
      256
102
RTVSPost2010Prop51ColorRGB
 90
-16777216
102
RTVSPost2010PropOp51
 70
     0
102
RTVSPost2010Prop52
140
1.0
102
RTVSPost2010PropOp52
 70
     0
102
RTVSPost2010Prop53
 90
        2
102
RTVSPost2010PropOp53
 70
     1
102
RTVSPost2010Prop54
  1
strokes_ogs.tif
102
RTVSPost2010PropOp54
 70
     1
102
RTVSPost2010Prop55
280
     0
102
RTVSPost2010PropOp55
 70
     1
102
RTVSPost2010Prop56
140
1.0
102
RTVSPost2010PropOp56
 70
     1
102
RTVSPost2010Prop57
140
1.0
102
RTVSPost2010PropOp57
 70
     1
102
RTVSPropertyOp0
 70
     1
102
RTVSPropertyOp1
 70
     1
102
RTVSPropertyOp2
 70
     1
102
RTVSPropertyOp3
 70
     1
102
RTVSPropertyOp4
 70
     1
102
RTVSPropertyOp5
 70
     1
102
RTVSPropertyOp6
 70
     1
102
RTVSPropertyOp7
 70
     1
102
RTVSPropertyOp8
 70
     1
102
RTVSPropertyOp9
 70
     1
102
RTVSPropertyOp10
 70
     1
102
RTVSPropertyOp11
 70
     1
102
RTVSPropertyOp12
 70
     1
102
RTVSPropertyOp13
 70
     1
102
RTVSPropertyOp14
 70
     1
102
RTVSPropertyOp15
 70
     1
102
RTVSPropertyOp16
 70
     1
102
RTVSPropertyOp17
 70
     1
102
RTVSPropertyOp18
 70
     1
102
RTVSPropertyOp19
 70
     1
102
RTVSPropertyOp20
 70
     1
102
RTVSPropertyOp21
 70
     1
102
RTVSPropertyOp22
 70
     1
102
RTVSPropertyOp23
 70
     1
102
RTVSPropertyOp24
 70
     1
102
RTVSPropertyOp25
 70
     1
102
RTVSPropertyOp26
 70
     1
102
RTVSPropertyOp27
 70
     1
102
RTVSPropertyOp28
 70
     1
102
RTVSPropertyOp29
 70
     1
102
RTVSPropertyOp30
 70
     1
102
RTVSPropertyOp31
 70
     1
102
RTVSPropertyOp32
 70
     1
102
RTVSPropertyOp33
 70
     1
102
RTVSPropertyOp34
 70
     1
102
RTVSPropertyOp35
 70
     1
102
RTVSPropertyOp36
 70
     1
102
RTVSPropertyOp37
 70
     1
102
RTVSPropertyOp38
 70
     1
102
RTVSPropertyOp39
 70
     1
102
RTVSPropertyOp40
 70
     1
102
RTVSPropertyOp41
 70
     1
102
RTVSPropertyOp42
 70
     1
102
RTVSPropertyOp43
 70
     1
102
RTVSPropertyOp44
 70
     1
102
RTVSPropertyOp45
 70
     1
102
RTVSPropertyOp46
 70
     1
102
RTVSPropertyOp47
 70
     1
102
RTVSPropertyOp48
 70
     1
102
RTVSPropertyOp49
 70
     1
102
RTVSPropertyOp50
 70
     1
102
RTVSPropertyOp51
 70
     0
102
RTVSPropertyOp52
 70
     0
102
RTVSPropertyOp53
 70
     1
102
RTVSPropertyOp54
 70
     1
102
RTVSPropertyOp55
 70
     1
102
RTVSPropertyOp56
 70
     1
102
RTVSPropertyOp57
 70
     1
102
RTVSPropertyOp58
 70
     1
102
RTVSPropertyOp59
 70
     1
102
RTVSPropertyOp60
 70
     1
102
RTVSPropertyOp61
 70
     1
102
RTVSPropertyOp62
 70
     1
  0
XRECORD
  5
4751
102
{ACAD_REACTORS
330
4750
102
}
330
4750
100
AcDbXrecord
280
     1
102
RTVSPost2010Prop28
280
     0
102
RTVSPost2010PropOp28
 70
     1
102
RTVSPost2010Prop29
280
     1
102
RTVSPost2010PropOp29
 70
     1
102
RTVSPost2010Prop30
280
     1
102
RTVSPost2010PropOp30
 70
     1
102
RTVSPost2010Prop31
280
     0
102
RTVSPost2010PropOp31
 70
     1
102
RTVSPost2010Prop32
280
     0
102
RTVSPost2010PropOp32
 70
     1
102
RTVSPost2010Prop33
280
     0
102
RTVSPost2010PropOp33
 70
     1
102
RTVSPost2010Prop34
280
     0
102
RTVSPost2010PropOp34
 70
     1
102
RTVSPost2010Prop35
280
     0
102
RTVSPost2010PropOp35
 70
     1
102
RTVSPost2010Prop36
280
     0
102
RTVSPost2010PropOp36
 70
     1
102
RTVSPost2010Prop37
 90
       50
102
RTVSPost2010PropOp37
 70
     1
102
RTVSPost2010Prop38
140
0.0
102
RTVSPost2010PropOp38
 70
     1
102
RTVSPost2010Prop39
140
1.0
102
RTVSPost2010PropOp39
 70
     1
102
RTVSPost2010Prop40
 90
        0
102
RTVSPost2010PropOp40
 70
     1
102
RTVSPost2010Prop41ColorIndex
 90
       18
102
RTVSPost2010Prop41ColorRGB
 90
        0
102
RTVSPost2010PropOp41
 70
     1
102
RTVSPost2010Prop42
 90
       50
102
RTVSPost2010PropOp42
 70
     1
102
RTVSPost2010Prop43
 90
        3
102
RTVSPost2010PropOp43
 70
     1
102
RTVSPost2010Prop44ColorIndex
 90
        5
102
RTVSPost2010Prop44ColorRGB
 90
      255
102
RTVSPost2010PropOp44
 70
     1
102
RTVSPost2010Prop45
280
     0
102
RTVSPost2010PropOp45
 70
     1
102
RTVSPost2010Prop46
 90
       50
102
RTVSPost2010PropOp46
 70
     1
102
RTVSPost2010Prop47
 90
       50
102
RTVSPost2010PropOp47
 70
     1
102
RTVSPost2010Prop48
 90
       50
102
RTVSPost2010PropOp48
 70
     1
102
RTVSPost2010Prop49
280
     0
102
RTVSPost2010PropOp49
 70
     1
102
RTVSPost2010Prop50
 90
       50
102
RTVSPost2010PropOp50
 70
     1
102
RTVSPost2010Prop51ColorIndex
 90
      256
102
RTVSPost2010Prop51ColorRGB
 90
-16777216
102
RTVSPost2010PropOp51
 70
     0
102
RTVSPost2010Prop52
140
1.0
102
RTVSPost2010PropOp52
 70
     0
102
RTVSPost2010Prop53
 90
        2
102
RTVSPost2010PropOp53
 70
     1
102
RTVSPost2010Prop54
  1
strokes_ogs.tif
102
RTVSPost2010PropOp54
 70
     1
102
RTVSPost2010Prop55
280
     0
102
RTVSPost2010PropOp55
 70
     1
102
RTVSPost2010Prop56
140
1.0
102
RTVSPost2010PropOp56
 70
     1
102
RTVSPost2010Prop57
140
1.0
102
RTVSPost2010PropOp57
 70
     1
102
RTVSPropertyOp0
 70
     1
102
RTVSPropertyOp1
 70
     1
102
RTVSPropertyOp2
 70
     1
102
RTVSPropertyOp3
 70
     1
102
RTVSPropertyOp4
 70
     1
102
RTVSPropertyOp5
 70
     1
102
RTVSPropertyOp6
 70
     1
102
RTVSPropertyOp7
 70
     1
102
RTVSPropertyOp8
 70
     1
102
RTVSPropertyOp9
 70
     1
102
RTVSPropertyOp10
 70
     1
102
RTVSPropertyOp11
 70
     1
102
RTVSPropertyOp12
 70
     1
102
RTVSPropertyOp13
 70
     1
102
RTVSPropertyOp14
 70
     1
102
RTVSPropertyOp15
 70
     1
102
RTVSPropertyOp16
 70
     1
102
RTVSPropertyOp17
 70
     1
102
RTVSPropertyOp18
 70
     1
102
RTVSPropertyOp19
 70
     1
102
RTVSPropertyOp20
 70
     1
102
RTVSPropertyOp21
 70
     1
102
RTVSPropertyOp22
 70
     1
102
RTVSPropertyOp23
 70
     1
102
RTVSPropertyOp24
 70
     1
102
RTVSPropertyOp25
 70
     1
102
RTVSPropertyOp26
 70
     1
102
RTVSPropertyOp27
 70
     1
102
RTVSPropertyOp28
 70
     1
102
RTVSPropertyOp29
 70
     1
102
RTVSPropertyOp30
 70
     1
102
RTVSPropertyOp31
 70
     1
102
RTVSPropertyOp32
 70
     1
102
RTVSPropertyOp33
 70
     1
102
RTVSPropertyOp34
 70
     1
102
RTVSPropertyOp35
 70
     1
102
RTVSPropertyOp36
 70
     1
102
RTVSPropertyOp37
 70
     1
102
RTVSPropertyOp38
 70
     1
102
RTVSPropertyOp39
 70
     1
102
RTVSPropertyOp40
 70
     1
102
RTVSPropertyOp41
 70
     1
102
RTVSPropertyOp42
 70
     1
102
RTVSPropertyOp43
 70
     1
102
RTVSPropertyOp44
 70
     1
102
RTVSPropertyOp45
 70
     1
102
RTVSPropertyOp46
 70
     1
102
RTVSPropertyOp47
 70
     1
102
RTVSPropertyOp48
 70
     1
102
RTVSPropertyOp49
 70
     1
102
RTVSPropertyOp50
 70
     1
102
RTVSPropertyOp51
 70
     0
102
RTVSPropertyOp52
 70
     0
102
RTVSPropertyOp53
 70
     1
102
RTVSPropertyOp54
 70
     1
102
RTVSPropertyOp55
 70
     1
102
RTVSPropertyOp56
 70
     1
102
RTVSPropertyOp57
 70
     1
102
RTVSPropertyOp58
 70
     1
102
RTVSPropertyOp59
 70
     1
102
RTVSPropertyOp60
 70
     1
102
RTVSPropertyOp61
 70
     1
102
RTVSPropertyOp62
 70
     1
  0
XRECORD
  5
4753
102
{ACAD_REACTORS
330
4752
102
}
330
4752
100
AcDbXrecord
280
     1
102
RTVSPost2010Prop28
280
     0
102
RTVSPost2010PropOp28
 70
     1
102
RTVSPost2010Prop29
280
     1
102
RTVSPost2010PropOp29
 70
     1
102
RTVSPost2010Prop30
280
     1
102
RTVSPost2010PropOp30
 70
     1
102
RTVSPost2010Prop31
280
     0
102
RTVSPost2010PropOp31
 70
     1
102
RTVSPost2010Prop32
280
     0
102
RTVSPost2010PropOp32
 70
     1
102
RTVSPost2010Prop33
280
     0
102
RTVSPost2010PropOp33
 70
     1
102
RTVSPost2010Prop34
280
     0
102
RTVSPost2010PropOp34
 70
     1
102
RTVSPost2010Prop35
280
     0
102
RTVSPost2010PropOp35
 70
     1
102
RTVSPost2010Prop36
280
     0
102
RTVSPost2010PropOp36
 70
     1
102
RTVSPost2010Prop37
 90
       50
102
RTVSPost2010PropOp37
 70
     1
102
RTVSPost2010Prop38
140
0.0
102
RTVSPost2010PropOp38
 70
     1
102
RTVSPost2010Prop39
140
1.0
102
RTVSPost2010PropOp39
 70
     1
102
RTVSPost2010Prop40
 90
        0
102
RTVSPost2010PropOp40
 70
     1
102
RTVSPost2010Prop41ColorIndex
 90
       18
102
RTVSPost2010Prop41ColorRGB
 90
        0
102
RTVSPost2010PropOp41
 70
     1
102
RTVSPost2010Prop42
 90
       50
102
RTVSPost2010PropOp42
 70
     1
102
RTVSPost2010Prop43
 90
        3
102
RTVSPost2010PropOp43
 70
     1
102
RTVSPost2010Prop44ColorIndex
 90
        5
102
RTVSPost2010Prop44ColorRGB
 90
      255
102
RTVSPost2010PropOp44
 70
     1
102
RTVSPost2010Prop45
280
     0
102
RTVSPost2010PropOp45
 70
     1
102
RTVSPost2010Prop46
 90
       50
102
RTVSPost2010PropOp46
 70
     1
102
RTVSPost2010Prop47
 90
       50
102
RTVSPost2010PropOp47
 70
     1
102
RTVSPost2010Prop48
 90
       50
102
RTVSPost2010PropOp48
 70
     1
102
RTVSPost2010Prop49
280
     0
102
RTVSPost2010PropOp49
 70
     1
102
RTVSPost2010Prop50
 90
       50
102
RTVSPost2010PropOp50
 70
     1
102
RTVSPost2010Prop51ColorIndex
 90
      256
102
RTVSPost2010Prop51ColorRGB
 90
-16777216
102
RTVSPost2010PropOp51
 70
     0
102
RTVSPost2010Prop52
140
1.0
102
RTVSPost2010PropOp52
 70
     0
102
RTVSPost2010Prop53
 90
        2
102
RTVSPost2010PropOp53
 70
     1
102
RTVSPost2010Prop54
  1
strokes_ogs.tif
102
RTVSPost2010PropOp54
 70
     1
102
RTVSPost2010Prop55
280
     0
102
RTVSPost2010PropOp55
 70
     1
102
RTVSPost2010Prop56
140
1.0
102
RTVSPost2010PropOp56
 70
     1
102
RTVSPost2010Prop57
140
1.0
102
RTVSPost2010PropOp57
 70
     1
102
RTVSPropertyOp0
 70
     1
102
RTVSPropertyOp1
 70
     1
102
RTVSPropertyOp2
 70
     1
102
RTVSPropertyOp3
 70
     1
102
RTVSPropertyOp4
 70
     1
102
RTVSPropertyOp5
 70
     1
102
RTVSPropertyOp6
 70
     1
102
RTVSPropertyOp7
 70
     1
102
RTVSPropertyOp8
 70
     1
102
RTVSPropertyOp9
 70
     1
102
RTVSPropertyOp10
 70
     1
102
RTVSPropertyOp11
 70
     1
102
RTVSPropertyOp12
 70
     1
102
RTVSPropertyOp13
 70
     1
102
RTVSPropertyOp14
 70
     1
102
RTVSPropertyOp15
 70
     1
102
RTVSPropertyOp16
 70
     1
102
RTVSPropertyOp17
 70
     1
102
RTVSPropertyOp18
 70
     1
102
RTVSPropertyOp19
 70
     1
102
RTVSPropertyOp20
 70
     1
102
RTVSPropertyOp21
 70
     1
102
RTVSPropertyOp22
 70
     1
102
RTVSPropertyOp23
 70
     1
102
RTVSPropertyOp24
 70
     1
102
RTVSPropertyOp25
 70
     1
102
RTVSPropertyOp26
 70
     1
102
RTVSPropertyOp27
 70
     1
102
RTVSPropertyOp28
 70
     1
102
RTVSPropertyOp29
 70
     1
102
RTVSPropertyOp30
 70
     1
102
RTVSPropertyOp31
 70
     1
102
RTVSPropertyOp32
 70
     1
102
RTVSPropertyOp33
 70
     1
102
RTVSPropertyOp34
 70
     1
102
RTVSPropertyOp35
 70
     1
102
RTVSPropertyOp36
 70
     1
102
RTVSPropertyOp37
 70
     1
102
RTVSPropertyOp38
 70
     1
102
RTVSPropertyOp39
 70
     1
102
RTVSPropertyOp40
 70
     1
102
RTVSPropertyOp41
 70
     1
102
RTVSPropertyOp42
 70
     1
102
RTVSPropertyOp43
 70
     1
102
RTVSPropertyOp44
 70
     1
102
RTVSPropertyOp45
 70
     1
102
RTVSPropertyOp46
 70
     1
102
RTVSPropertyOp47
 70
     1
102
RTVSPropertyOp48
 70
     1
102
RTVSPropertyOp49
 70
     1
102
RTVSPropertyOp50
 70
     1
102
RTVSPropertyOp51
 70
     0
102
RTVSPropertyOp52
 70
     0
102
RTVSPropertyOp53
 70
     1
102
RTVSPropertyOp54
 70
     1
102
RTVSPropertyOp55
 70
     1
102
RTVSPropertyOp56
 70
     1
102
RTVSPropertyOp57
 70
     1
102
RTVSPropertyOp58
 70
     1
102
RTVSPropertyOp59
 70
     1
102
RTVSPropertyOp60
 70
     1
102
RTVSPropertyOp61
 70
     1
102
RTVSPropertyOp62
 70
     1
  0
XRECORD
  5
4755
102
{ACAD_REACTORS
330
4754
102
}
330
4754
100
AcDbXrecord
280
     1
102
RTVSPost2010Prop28
280
     0
102
RTVSPost2010PropOp28
 70
     1
102
RTVSPost2010Prop29
280
     1
102
RTVSPost2010PropOp29
 70
     1
102
RTVSPost2010Prop30
280
     1
102
RTVSPost2010PropOp30
 70
     1
102
RTVSPost2010Prop31
280
     0
102
RTVSPost2010PropOp31
 70
     1
102
RTVSPost2010Prop32
280
     0
102
RTVSPost2010PropOp32
 70
     1
102
RTVSPost2010Prop33
280
     0
102
RTVSPost2010PropOp33
 70
     1
102
RTVSPost2010Prop34
280
     0
102
RTVSPost2010PropOp34
 70
     1
102
RTVSPost2010Prop35
280
     0
102
RTVSPost2010PropOp35
 70
     1
102
RTVSPost2010Prop36
280
     0
102
RTVSPost2010PropOp36
 70
     1
102
RTVSPost2010Prop37
 90
       50
102
RTVSPost2010PropOp37
 70
     1
102
RTVSPost2010Prop38
140
0.0
102
RTVSPost2010PropOp38
 70
     1
102
RTVSPost2010Prop39
140
1.0
102
RTVSPost2010PropOp39
 70
     1
102
RTVSPost2010Prop40
 90
        0
102
RTVSPost2010PropOp40
 70
     1
102
RTVSPost2010Prop41ColorIndex
 90
       18
102
RTVSPost2010Prop41ColorRGB
 90
        0
102
RTVSPost2010PropOp41
 70
     1
102
RTVSPost2010Prop42
 90
       50
102
RTVSPost2010PropOp42
 70
     1
102
RTVSPost2010Prop43
 90
        3
102
RTVSPost2010PropOp43
 70
     1
102
RTVSPost2010Prop44ColorIndex
 90
        5
102
RTVSPost2010Prop44ColorRGB
 90
      255
102
RTVSPost2010PropOp44
 70
     1
102
RTVSPost2010Prop45
280
     0
102
RTVSPost2010PropOp45
 70
     1
102
RTVSPost2010Prop46
 90
       50
102
RTVSPost2010PropOp46
 70
     1
102
RTVSPost2010Prop47
 90
       50
102
RTVSPost2010PropOp47
 70
     1
102
RTVSPost2010Prop48
 90
       50
102
RTVSPost2010PropOp48
 70
     1
102
RTVSPost2010Prop49
280
     0
102
RTVSPost2010PropOp49
 70
     1
102
RTVSPost2010Prop50
 90
       50
102
RTVSPost2010PropOp50
 70
     1
102
RTVSPost2010Prop51ColorIndex
 90
      256
102
RTVSPost2010Prop51ColorRGB
 90
-16777216
102
RTVSPost2010PropOp51
 70
     0
102
RTVSPost2010Prop52
140
1.0
102
RTVSPost2010PropOp52
 70
     0
102
RTVSPost2010Prop53
 90
        2
102
RTVSPost2010PropOp53
 70
     1
102
RTVSPost2010Prop54
  1
strokes_ogs.tif
102
RTVSPost2010PropOp54
 70
     1
102
RTVSPost2010Prop55
280
     0
102
RTVSPost2010PropOp55
 70
     1
102
RTVSPost2010Prop56
140
1.0
102
RTVSPost2010PropOp56
 70
     1
102
RTVSPost2010Prop57
140
1.0
102
RTVSPost2010PropOp57
 70
     1
102
RTVSPropertyOp0
 70
     1
102
RTVSPropertyOp1
 70
     1
102
RTVSPropertyOp2
 70
     1
102
RTVSPropertyOp3
 70
     1
102
RTVSPropertyOp4
 70
     1
102
RTVSPropertyOp5
 70
     1
102
RTVSPropertyOp6
 70
     1
102
RTVSPropertyOp7
 70
     1
102
RTVSPropertyOp8
 70
     1
102
RTVSPropertyOp9
 70
     1
102
RTVSPropertyOp10
 70
     1
102
RTVSPropertyOp11
 70
     1
102
RTVSPropertyOp12
 70
     1
102
RTVSPropertyOp13
 70
     1
102
RTVSPropertyOp14
 70
     1
102
RTVSPropertyOp15
 70
     1
102
RTVSPropertyOp16
 70
     1
102
RTVSPropertyOp17
 70
     1
102
RTVSPropertyOp18
 70
     1
102
RTVSPropertyOp19
 70
     1
102
RTVSPropertyOp20
 70
     1
102
RTVSPropertyOp21
 70
     1
102
RTVSPropertyOp22
 70
     1
102
RTVSPropertyOp23
 70
     1
102
RTVSPropertyOp24
 70
     1
102
RTVSPropertyOp25
 70
     1
102
RTVSPropertyOp26
 70
     1
102
RTVSPropertyOp27
 70
     1
102
RTVSPropertyOp28
 70
     1
102
RTVSPropertyOp29
 70
     1
102
RTVSPropertyOp30
 70
     1
102
RTVSPropertyOp31
 70
     1
102
RTVSPropertyOp32
 70
     1
102
RTVSPropertyOp33
 70
     1
102
RTVSPropertyOp34
 70
     1
102
RTVSPropertyOp35
 70
     1
102
RTVSPropertyOp36
 70
     1
102
RTVSPropertyOp37
 70
     1
102
RTVSPropertyOp38
 70
     1
102
RTVSPropertyOp39
 70
     1
102
RTVSPropertyOp40
 70
     1
102
RTVSPropertyOp41
 70
     1
102
RTVSPropertyOp42
 70
     1
102
RTVSPropertyOp43
 70
     1
102
RTVSPropertyOp44
 70
     1
102
RTVSPropertyOp45
 70
     1
102
RTVSPropertyOp46
 70
     1
102
RTVSPropertyOp47
 70
     1
102
RTVSPropertyOp48
 70
     1
102
RTVSPropertyOp49
 70
     1
102
RTVSPropertyOp50
 70
     1
102
RTVSPropertyOp51
 70
     0
102
RTVSPropertyOp52
 70
     0
102
RTVSPropertyOp53
 70
     1
102
RTVSPropertyOp54
 70
     1
102
RTVSPropertyOp55
 70
     1
102
RTVSPropertyOp56
 70
     1
102
RTVSPropertyOp57
 70
     1
102
RTVSPropertyOp58
 70
     1
102
RTVSPropertyOp59
 70
     1
102
RTVSPropertyOp60
 70
     1
102
RTVSPropertyOp61
 70
     1
102
RTVSPropertyOp62
 70
     1
  0
XRECORD
  5
47A8
102
{ACAD_REACTORS
330
47A7
102
}
330
47A7
100
AcDbXrecord
280
     1
102
RTVSPost2010Prop28
280
     0
102
RTVSPost2010PropOp28
 70
     1
102
RTVSPost2010Prop29
280
     1
102
RTVSPost2010PropOp29
 70
     1
102
RTVSPost2010Prop30
280
     1
102
RTVSPost2010PropOp30
 70
     1
102
RTVSPost2010Prop31
280
     0
102
RTVSPost2010PropOp31
 70
     1
102
RTVSPost2010Prop32
280
     0
102
RTVSPost2010PropOp32
 70
     1
102
RTVSPost2010Prop33
280
     0
102
RTVSPost2010PropOp33
 70
     1
102
RTVSPost2010Prop34
280
     0
102
RTVSPost2010PropOp34
 70
     1
102
RTVSPost2010Prop35
280
     0
102
RTVSPost2010PropOp35
 70
     1
102
RTVSPost2010Prop36
280
     0
102
RTVSPost2010PropOp36
 70
     1
102
RTVSPost2010Prop37
 90
       50
102
RTVSPost2010PropOp37
 70
     1
102
RTVSPost2010Prop38
140
0.0
102
RTVSPost2010PropOp38
 70
     1
102
RTVSPost2010Prop39
140
1.0
102
RTVSPost2010PropOp39
 70
     1
102
RTVSPost2010Prop40
 90
        0
102
RTVSPost2010PropOp40
 70
     1
102
RTVSPost2010Prop41ColorIndex
 90
       18
102
RTVSPost2010Prop41ColorRGB
 90
        0
102
RTVSPost2010PropOp41
 70
     1
102
RTVSPost2010Prop42
 90
       50
102
RTVSPost2010PropOp42
 70
     1
102
RTVSPost2010Prop43
 90
        3
102
RTVSPost2010PropOp43
 70
     1
102
RTVSPost2010Prop44ColorIndex
 90
        5
102
RTVSPost2010Prop44ColorRGB
 90
      255
102
RTVSPost2010PropOp44
 70
     1
102
RTVSPost2010Prop45
280
     0
102
RTVSPost2010PropOp45
 70
     1
102
RTVSPost2010Prop46
 90
       50
102
RTVSPost2010PropOp46
 70
     1
102
RTVSPost2010Prop47
 90
       50
102
RTVSPost2010PropOp47
 70
     1
102
RTVSPost2010Prop48
 90
       50
102
RTVSPost2010PropOp48
 70
     1
102
RTVSPost2010Prop49
280
     0
102
RTVSPost2010PropOp49
 70
     1
102
RTVSPost2010Prop50
 90
       50
102
RTVSPost2010PropOp50
 70
     1
102
RTVSPost2010Prop51ColorIndex
 90
      256
102
RTVSPost2010Prop51ColorRGB
 90
-16777216
102
RTVSPost2010PropOp51
 70
     0
102
RTVSPost2010Prop52
140
1.0
102
RTVSPost2010PropOp52
 70
     0
102
RTVSPost2010Prop53
 90
        2
102
RTVSPost2010PropOp53
 70
     1
102
RTVSPost2010Prop54
  1
strokes_ogs.tif
102
RTVSPost2010PropOp54
 70
     1
102
RTVSPost2010Prop55
280
     0
102
RTVSPost2010PropOp55
 70
     1
102
RTVSPost2010Prop56
140
1.0
102
RTVSPost2010PropOp56
 70
     1
102
RTVSPost2010Prop57
140
1.0
102
RTVSPost2010PropOp57
 70
     1
102
RTVSPropertyOp0
 70
     1
102
RTVSPropertyOp1
 70
     1
102
RTVSPropertyOp2
 70
     1
102
RTVSPropertyOp3
 70
     1
102
RTVSPropertyOp4
 70
     1
102
RTVSPropertyOp5
 70
     1
102
RTVSPropertyOp6
 70
     1
102
RTVSPropertyOp7
 70
     1
102
RTVSPropertyOp8
 70
     1
102
RTVSPropertyOp9
 70
     1
102
RTVSPropertyOp10
 70
     1
102
RTVSPropertyOp11
 70
     1
102
RTVSPropertyOp12
 70
     1
102
RTVSPropertyOp13
 70
     1
102
RTVSPropertyOp14
 70
     1
102
RTVSPropertyOp15
 70
     1
102
RTVSPropertyOp16
 70
     1
102
RTVSPropertyOp17
 70
     1
102
RTVSPropertyOp18
 70
     1
102
RTVSPropertyOp19
 70
     1
102
RTVSPropertyOp20
 70
     1
102
RTVSPropertyOp21
 70
     1
102
RTVSPropertyOp22
 70
     1
102
RTVSPropertyOp23
 70
     1
102
RTVSPropertyOp24
 70
     1
102
RTVSPropertyOp25
 70
     1
102
RTVSPropertyOp26
 70
     1
102
RTVSPropertyOp27
 70
     1
102
RTVSPropertyOp28
 70
     1
102
RTVSPropertyOp29
 70
     1
102
RTVSPropertyOp30
 70
     1
102
RTVSPropertyOp31
 70
     1
102
RTVSPropertyOp32
 70
     1
102
RTVSPropertyOp33
 70
     1
102
RTVSPropertyOp34
 70
     1
102
RTVSPropertyOp35
 70
     1
102
RTVSPropertyOp36
 70
     1
102
RTVSPropertyOp37
 70
     1
102
RTVSPropertyOp38
 70
     1
102
RTVSPropertyOp39
 70
     1
102
RTVSPropertyOp40
 70
     1
102
RTVSPropertyOp41
 70
     1
102
RTVSPropertyOp42
 70
     1
102
RTVSPropertyOp43
 70
     1
102
RTVSPropertyOp44
 70
     1
102
RTVSPropertyOp45
 70
     1
102
RTVSPropertyOp46
 70
     1
102
RTVSPropertyOp47
 70
     1
102
RTVSPropertyOp48
 70
     1
102
RTVSPropertyOp49
 70
     1
102
RTVSPropertyOp50
 70
     1
102
RTVSPropertyOp51
 70
     0
102
RTVSPropertyOp52
 70
     0
102
RTVSPropertyOp53
 70
     1
102
RTVSPropertyOp54
 70
     1
102
RTVSPropertyOp55
 70
     1
102
RTVSPropertyOp56
 70
     1
102
RTVSPropertyOp57
 70
     1
102
RTVSPropertyOp58
 70
     1
102
RTVSPropertyOp59
 70
     1
102
RTVSPropertyOp60
 70
     1
102
RTVSPropertyOp61
 70
     1
102
RTVSPropertyOp62
 70
     1
  0
XRECORD
  5
4770
102
{ACAD_REACTORS
330
476F
102
}
330
476F
100
AcDbXrecord
280
     1
102
RTVSPost2010Prop28
280
     0
102
RTVSPost2010PropOp28
 70
     1
102
RTVSPost2010Prop29
280
     1
102
RTVSPost2010PropOp29
 70
     1
102
RTVSPost2010Prop30
280
     1
102
RTVSPost2010PropOp30
 70
     1
102
RTVSPost2010Prop31
280
     0
102
RTVSPost2010PropOp31
 70
     1
102
RTVSPost2010Prop32
280
     0
102
RTVSPost2010PropOp32
 70
     1
102
RTVSPost2010Prop33
280
     0
102
RTVSPost2010PropOp33
 70
     1
102
RTVSPost2010Prop34
280
     0
102
RTVSPost2010PropOp34
 70
     1
102
RTVSPost2010Prop35
280
     0
102
RTVSPost2010PropOp35
 70
     1
102
RTVSPost2010Prop36
280
     0
102
RTVSPost2010PropOp36
 70
     1
102
RTVSPost2010Prop37
 90
       50
102
RTVSPost2010PropOp37
 70
     1
102
RTVSPost2010Prop38
140
0.0
102
RTVSPost2010PropOp38
 70
     1
102
RTVSPost2010Prop39
140
1.0
102
RTVSPost2010PropOp39
 70
     1
102
RTVSPost2010Prop40
 90
        0
102
RTVSPost2010PropOp40
 70
     1
102
RTVSPost2010Prop41ColorIndex
 90
       18
102
RTVSPost2010Prop41ColorRGB
 90
        0
102
RTVSPost2010PropOp41
 70
     1
102
RTVSPost2010Prop42
 90
       50
102
RTVSPost2010PropOp42
 70
     1
102
RTVSPost2010Prop43
 90
        3
102
RTVSPost2010PropOp43
 70
     1
102
RTVSPost2010Prop44ColorIndex
 90
        5
102
RTVSPost2010Prop44ColorRGB
 90
      255
102
RTVSPost2010PropOp44
 70
     1
102
RTVSPost2010Prop45
280
     0
102
RTVSPost2010PropOp45
 70
     1
102
RTVSPost2010Prop46
 90
       50
102
RTVSPost2010PropOp46
 70
     1
102
RTVSPost2010Prop47
 90
       50
102
RTVSPost2010PropOp47
 70
     1
102
RTVSPost2010Prop48
 90
       50
102
RTVSPost2010PropOp48
 70
     1
102
RTVSPost2010Prop49
280
     0
102
RTVSPost2010PropOp49
 70
     1
102
RTVSPost2010Prop50
 90
       50
102
RTVSPost2010PropOp50
 70
     1
102
RTVSPost2010Prop51ColorIndex
 90
      256
102
RTVSPost2010Prop51ColorRGB
 90
-16777216
102
RTVSPost2010PropOp51
 70
     0
102
RTVSPost2010Prop52
140
1.0
102
RTVSPost2010PropOp52
 70
     0
102
RTVSPost2010Prop53
 90
        2
102
RTVSPost2010PropOp53
 70
     1
102
RTVSPost2010Prop54
  1
strokes_ogs.tif
102
RTVSPost2010PropOp54
 70
     1
102
RTVSPost2010Prop55
280
     0
102
RTVSPost2010PropOp55
 70
     1
102
RTVSPost2010Prop56
140
1.0
102
RTVSPost2010PropOp56
 70
     1
102
RTVSPost2010Prop57
140
1.0
102
RTVSPost2010PropOp57
 70
     1
102
RTVSPropertyOp0
 70
     0
102
RTVSPropertyOp1
 70
     0
102
RTVSPropertyOp2
 70
     0
102
RTVSPropertyOp3
 70
     0
102
RTVSPropertyOp4
 70
     0
102
RTVSPropertyOp5
 70
     0
102
RTVSPropertyOp6
 70
     0
102
RTVSPropertyOp7
 70
     0
102
RTVSPropertyOp8
 70
     0
102
RTVSPropertyOp9
 70
     0
102
RTVSPropertyOp10
 70
     0
102
RTVSPropertyOp11
 70
     0
102
RTVSPropertyOp12
 70
     0
102
RTVSPropertyOp13
 70
     0
102
RTVSPropertyOp14
 70
     2
102
RTVSPropertyOp15
 70
     0
102
RTVSPropertyOp16
 70
     0
102
RTVSPropertyOp17
 70
     0
102
RTVSPropertyOp18
 70
     0
102
RTVSPropertyOp19
 70
     0
102
RTVSPropertyOp20
 70
     0
102
RTVSPropertyOp21
 70
     0
102
RTVSPropertyOp22
 70
     0
102
RTVSPropertyOp23
 70
     0
102
RTVSPropertyOp24
 70
     0
102
RTVSPropertyOp25
 70
     0
102
RTVSPropertyOp26
 70
     0
102
RTVSPropertyOp27
 70
     0
102
RTVSPropertyOp28
 70
     1
102
RTVSPropertyOp29
 70
     1
102
RTVSPropertyOp30
 70
     1
102
RTVSPropertyOp31
 70
     1
102
RTVSPropertyOp32
 70
     1
102
RTVSPropertyOp33
 70
     1
102
RTVSPropertyOp34
 70
     1
102
RTVSPropertyOp35
 70
     1
102
RTVSPropertyOp36
 70
     1
102
RTVSPropertyOp37
 70
     1
102
RTVSPropertyOp38
 70
     1
102
RTVSPropertyOp39
 70
     1
102
RTVSPropertyOp40
 70
     1
102
RTVSPropertyOp41
 70
     1
102
RTVSPropertyOp42
 70
     1
102
RTVSPropertyOp43
 70
     1
102
RTVSPropertyOp44
 70
     1
102
RTVSPropertyOp45
 70
     1
102
RTVSPropertyOp46
 70
     1
102
RTVSPropertyOp47
 70
     1
102
RTVSPropertyOp48
 70
     1
102
RTVSPropertyOp49
 70
     1
102
RTVSPropertyOp50
 70
     1
102
RTVSPropertyOp51
 70
     0
102
RTVSPropertyOp52
 70
     0
102
RTVSPropertyOp53
 70
     1
102
RTVSPropertyOp54
 70
     1
102
RTVSPropertyOp55
 70
     1
102
RTVSPropertyOp56
 70
     1
102
RTVSPropertyOp57
 70
     1
102
RTVSPropertyOp58
 70
     1
102
RTVSPropertyOp59
 70
     1
102
RTVSPropertyOp60
 70
     1
102
RTVSPropertyOp61
 70
     1
102
RTVSPropertyOp62
 70
     1
  0
XRECORD
  5
4769
102
{ACAD_REACTORS
330
4768
102
}
330
4768
100
AcDbXrecord
280
     1
102
RTVSPost2010Prop28
280
     0
102
RTVSPost2010PropOp28
 70
     1
102
RTVSPost2010Prop29
280
     1
102
RTVSPost2010PropOp29
 70
     1
102
RTVSPost2010Prop30
280
     1
102
RTVSPost2010PropOp30
 70
     1
102
RTVSPost2010Prop31
280
     0
102
RTVSPost2010PropOp31
 70
     1
102
RTVSPost2010Prop32
280
     0
102
RTVSPost2010PropOp32
 70
     1
102
RTVSPost2010Prop33
280
     0
102
RTVSPost2010PropOp33
 70
     1
102
RTVSPost2010Prop34
280
     0
102
RTVSPost2010PropOp34
 70
     1
102
RTVSPost2010Prop35
280
     0
102
RTVSPost2010PropOp35
 70
     1
102
RTVSPost2010Prop36
280
     0
102
RTVSPost2010PropOp36
 70
     1
102
RTVSPost2010Prop37
 90
       50
102
RTVSPost2010PropOp37
 70
     1
102
RTVSPost2010Prop38
140
0.0
102
RTVSPost2010PropOp38
 70
     1
102
RTVSPost2010Prop39
140
1.0
102
RTVSPost2010PropOp39
 70
     1
102
RTVSPost2010Prop40
 90
        0
102
RTVSPost2010PropOp40
 70
     1
102
RTVSPost2010Prop41ColorIndex
 90
       18
102
RTVSPost2010Prop41ColorRGB
 90
        0
102
RTVSPost2010PropOp41
 70
     1
102
RTVSPost2010Prop42
 90
       50
102
RTVSPost2010PropOp42
 70
     1
102
RTVSPost2010Prop43
 90
        3
102
RTVSPost2010PropOp43
 70
     1
102
RTVSPost2010Prop44ColorIndex
 90
        5
102
RTVSPost2010Prop44ColorRGB
 90
      255
102
RTVSPost2010PropOp44
 70
     1
102
RTVSPost2010Prop45
280
     0
102
RTVSPost2010PropOp45
 70
     1
102
RTVSPost2010Prop46
 90
       50
102
RTVSPost2010PropOp46
 70
     1
102
RTVSPost2010Prop47
 90
       50
102
RTVSPost2010PropOp47
 70
     1
102
RTVSPost2010Prop48
 90
       50
102
RTVSPost2010PropOp48
 70
     1
102
RTVSPost2010Prop49
280
     0
102
RTVSPost2010PropOp49
 70
     1
102
RTVSPost2010Prop50
 90
       50
102
RTVSPost2010PropOp50
 70
     1
102
RTVSPost2010Prop51ColorIndex
 90
      256
102
RTVSPost2010Prop51ColorRGB
 90
-16777216
102
RTVSPost2010PropOp51
 70
     0
102
RTVSPost2010Prop52
140
1.0
102
RTVSPost2010PropOp52
 70
     0
102
RTVSPost2010Prop53
 90
        2
102
RTVSPost2010PropOp53
 70
     1
102
RTVSPost2010Prop54
  1
strokes_ogs.tif
102
RTVSPost2010PropOp54
 70
     1
102
RTVSPost2010Prop55
280
     0
102
RTVSPost2010PropOp55
 70
     1
102
RTVSPost2010Prop56
140
1.0
102
RTVSPost2010PropOp56
 70
     1
102
RTVSPost2010Prop57
140
1.0
102
RTVSPost2010PropOp57
 70
     1
102
RTVSPropertyOp0
 70
     1
102
RTVSPropertyOp1
 70
     1
102
RTVSPropertyOp2
 70
     1
102
RTVSPropertyOp3
 70
     1
102
RTVSPropertyOp4
 70
     1
102
RTVSPropertyOp5
 70
     1
102
RTVSPropertyOp6
 70
     1
102
RTVSPropertyOp7
 70
     1
102
RTVSPropertyOp8
 70
     1
102
RTVSPropertyOp9
 70
     1
102
RTVSPropertyOp10
 70
     1
102
RTVSPropertyOp11
 70
     1
102
RTVSPropertyOp12
 70
     1
102
RTVSPropertyOp13
 70
     1
102
RTVSPropertyOp14
 70
     1
102
RTVSPropertyOp15
 70
     1
102
RTVSPropertyOp16
 70
     1
102
RTVSPropertyOp17
 70
     1
102
RTVSPropertyOp18
 70
     1
102
RTVSPropertyOp19
 70
     1
102
RTVSPropertyOp20
 70
     1
102
RTVSPropertyOp21
 70
     1
102
RTVSPropertyOp22
 70
     1
102
RTVSPropertyOp23
 70
     1
102
RTVSPropertyOp24
 70
     1
102
RTVSPropertyOp25
 70
     1
102
RTVSPropertyOp26
 70
     1
102
RTVSPropertyOp27
 70
     1
102
RTVSPropertyOp28
 70
     1
102
RTVSPropertyOp29
 70
     1
102
RTVSPropertyOp30
 70
     1
102
RTVSPropertyOp31
 70
     1
102
RTVSPropertyOp32
 70
     1
102
RTVSPropertyOp33
 70
     1
102
RTVSPropertyOp34
 70
     1
102
RTVSPropertyOp35
 70
     1
102
RTVSPropertyOp36
 70
     1
102
RTVSPropertyOp37
 70
     1
102
RTVSPropertyOp38
 70
     1
102
RTVSPropertyOp39
 70
     1
102
RTVSPropertyOp40
 70
     1
102
RTVSPropertyOp41
 70
     1
102
RTVSPropertyOp42
 70
     1
102
RTVSPropertyOp43
 70
     1
102
RTVSPropertyOp44
 70
     1
102
RTVSPropertyOp45
 70
     1
102
RTVSPropertyOp46
 70
     1
102
RTVSPropertyOp47
 70
     1
102
RTVSPropertyOp48
 70
     1
102
RTVSPropertyOp49
 70
     1
102
RTVSPropertyOp50
 70
     1
102
RTVSPropertyOp51
 70
     0
102
RTVSPropertyOp52
 70
     0
102
RTVSPropertyOp53
 70
     1
102
RTVSPropertyOp54
 70
     1
102
RTVSPropertyOp55
 70
     1
102
RTVSPropertyOp56
 70
     1
102
RTVSPropertyOp57
 70
     1
102
RTVSPropertyOp58
 70
     1
102
RTVSPropertyOp59
 70
     1
102
RTVSPropertyOp60
 70
     1
102
RTVSPropertyOp61
 70
     1
102
RTVSPropertyOp62
 70
     1
  0
XRECORD
  5
4772
102
{ACAD_REACTORS
330
4771
102
}
330
4771
100
AcDbXrecord
280
     1
102
RTVSPost2010Prop28
280
     0
102
RTVSPost2010PropOp28
 70
     1
102
RTVSPost2010Prop29
280
     1
102
RTVSPost2010PropOp29
 70
     1
102
RTVSPost2010Prop30
280
     1
102
RTVSPost2010PropOp30
 70
     1
102
RTVSPost2010Prop31
280
     0
102
RTVSPost2010PropOp31
 70
     1
102
RTVSPost2010Prop32
280
     0
102
RTVSPost2010PropOp32
 70
     1
102
RTVSPost2010Prop33
280
     0
102
RTVSPost2010PropOp33
 70
     1
102
RTVSPost2010Prop34
280
     0
102
RTVSPost2010PropOp34
 70
     1
102
RTVSPost2010Prop35
280
     0
102
RTVSPost2010PropOp35
 70
     1
102
RTVSPost2010Prop36
280
     0
102
RTVSPost2010PropOp36
 70
     1
102
RTVSPost2010Prop37
 90
       50
102
RTVSPost2010PropOp37
 70
     1
102
RTVSPost2010Prop38
140
0.0
102
RTVSPost2010PropOp38
 70
     1
102
RTVSPost2010Prop39
140
1.0
102
RTVSPost2010PropOp39
 70
     1
102
RTVSPost2010Prop40
 90
        0
102
RTVSPost2010PropOp40
 70
     1
102
RTVSPost2010Prop41ColorIndex
 90
       18
102
RTVSPost2010Prop41ColorRGB
 90
        0
102
RTVSPost2010PropOp41
 70
     1
102
RTVSPost2010Prop42
 90
       50
102
RTVSPost2010PropOp42
 70
     1
102
RTVSPost2010Prop43
 90
        3
102
RTVSPost2010PropOp43
 70
     1
102
RTVSPost2010Prop44ColorIndex
 90
        5
102
RTVSPost2010Prop44ColorRGB
 90
      255
102
RTVSPost2010PropOp44
 70
     1
102
RTVSPost2010Prop45
280
     0
102
RTVSPost2010PropOp45
 70
     1
102
RTVSPost2010Prop46
 90
       50
102
RTVSPost2010PropOp46
 70
     1
102
RTVSPost2010Prop47
 90
       50
102
RTVSPost2010PropOp47
 70
     1
102
RTVSPost2010Prop48
 90
       50
102
RTVSPost2010PropOp48
 70
     1
102
RTVSPost2010Prop49
280
     0
102
RTVSPost2010PropOp49
 70
     1
102
RTVSPost2010Prop50
 90
       50
102
RTVSPost2010PropOp50
 70
     1
102
RTVSPost2010Prop51ColorIndex
 90
      256
102
RTVSPost2010Prop51ColorRGB
 90
-16777216
102
RTVSPost2010PropOp51
 70
     0
102
RTVSPost2010Prop52
140
1.0
102
RTVSPost2010PropOp52
 70
     0
102
RTVSPost2010Prop53
 90
        2
102
RTVSPost2010PropOp53
 70
     1
102
RTVSPost2010Prop54
  1
strokes_ogs.tif
102
RTVSPost2010PropOp54
 70
     1
102
RTVSPost2010Prop55
280
     0
102
RTVSPost2010PropOp55
 70
     1
102
RTVSPost2010Prop56
140
1.0
102
RTVSPost2010PropOp56
 70
     1
102
RTVSPost2010Prop57
140
1.0
102
RTVSPost2010PropOp57
 70
     1
102
RTVSPropertyOp0
 70
     0
102
RTVSPropertyOp1
 70
     0
102
RTVSPropertyOp2
 70
     0
102
RTVSPropertyOp3
 70
     0
102
RTVSPropertyOp4
 70
     0
102
RTVSPropertyOp5
 70
     0
102
RTVSPropertyOp6
 70
     0
102
RTVSPropertyOp7
 70
     0
102
RTVSPropertyOp8
 70
     0
102
RTVSPropertyOp9
 70
     0
102
RTVSPropertyOp10
 70
     0
102
RTVSPropertyOp11
 70
     0
102
RTVSPropertyOp12
 70
     0
102
RTVSPropertyOp13
 70
     0
102
RTVSPropertyOp14
 70
     2
102
RTVSPropertyOp15
 70
     0
102
RTVSPropertyOp16
 70
     0
102
RTVSPropertyOp17
 70
     0
102
RTVSPropertyOp18
 70
     0
102
RTVSPropertyOp19
 70
     0
102
RTVSPropertyOp20
 70
     0
102
RTVSPropertyOp21
 70
     0
102
RTVSPropertyOp22
 70
     0
102
RTVSPropertyOp23
 70
     0
102
RTVSPropertyOp24
 70
     0
102
RTVSPropertyOp25
 70
     0
102
RTVSPropertyOp26
 70
     0
102
RTVSPropertyOp27
 70
     0
102
RTVSPropertyOp28
 70
     1
102
RTVSPropertyOp29
 70
     1
102
RTVSPropertyOp30
 70
     1
102
RTVSPropertyOp31
 70
     1
102
RTVSPropertyOp32
 70
     1
102
RTVSPropertyOp33
 70
     1
102
RTVSPropertyOp34
 70
     1
102
RTVSPropertyOp35
 70
     1
102
RTVSPropertyOp36
 70
     1
102
RTVSPropertyOp37
 70
     1
102
RTVSPropertyOp38
 70
     1
102
RTVSPropertyOp39
 70
     1
102
RTVSPropertyOp40
 70
     1
102
RTVSPropertyOp41
 70
     1
102
RTVSPropertyOp42
 70
     1
102
RTVSPropertyOp43
 70
     1
102
RTVSPropertyOp44
 70
     1
102
RTVSPropertyOp45
 70
     1
102
RTVSPropertyOp46
 70
     1
102
RTVSPropertyOp47
 70
     1
102
RTVSPropertyOp48
 70
     1
102
RTVSPropertyOp49
 70
     1
102
RTVSPropertyOp50
 70
     1
102
RTVSPropertyOp51
 70
     0
102
RTVSPropertyOp52
 70
     0
102
RTVSPropertyOp53
 70
     1
102
RTVSPropertyOp54
 70
     1
102
RTVSPropertyOp55
 70
     1
102
RTVSPropertyOp56
 70
     1
102
RTVSPropertyOp57
 70
     1
102
RTVSPropertyOp58
 70
     1
102
RTVSPropertyOp59
 70
     1
102
RTVSPropertyOp60
 70
     1
102
RTVSPropertyOp61
 70
     1
102
RTVSPropertyOp62
 70
     1
  0
XRECORD
  5
4761
102
{ACAD_REACTORS
330
4760
102
}
330
4760
100
AcDbXrecord
280
     1
102
RTVSPost2010Prop28
280
     0
102
RTVSPost2010PropOp28
 70
     1
102
RTVSPost2010Prop29
280
     1
102
RTVSPost2010PropOp29
 70
     1
102
RTVSPost2010Prop30
280
     1
102
RTVSPost2010PropOp30
 70
     1
102
RTVSPost2010Prop31
280
     0
102
RTVSPost2010PropOp31
 70
     1
102
RTVSPost2010Prop32
280
     0
102
RTVSPost2010PropOp32
 70
     1
102
RTVSPost2010Prop33
280
     0
102
RTVSPost2010PropOp33
 70
     1
102
RTVSPost2010Prop34
280
     0
102
RTVSPost2010PropOp34
 70
     1
102
RTVSPost2010Prop35
280
     0
102
RTVSPost2010PropOp35
 70
     1
102
RTVSPost2010Prop36
280
     0
102
RTVSPost2010PropOp36
 70
     1
102
RTVSPost2010Prop37
 90
       50
102
RTVSPost2010PropOp37
 70
     1
102
RTVSPost2010Prop38
140
0.0
102
RTVSPost2010PropOp38
 70
     1
102
RTVSPost2010Prop39
140
1.0
102
RTVSPost2010PropOp39
 70
     1
102
RTVSPost2010Prop40
 90
        0
102
RTVSPost2010PropOp40
 70
     1
102
RTVSPost2010Prop41ColorIndex
 90
       18
102
RTVSPost2010Prop41ColorRGB
 90
        0
102
RTVSPost2010PropOp41
 70
     1
102
RTVSPost2010Prop42
 90
       50
102
RTVSPost2010PropOp42
 70
     1
102
RTVSPost2010Prop43
 90
        3
102
RTVSPost2010PropOp43
 70
     1
102
RTVSPost2010Prop44ColorIndex
 90
        5
102
RTVSPost2010Prop44ColorRGB
 90
      255
102
RTVSPost2010PropOp44
 70
     1
102
RTVSPost2010Prop45
280
     0
102
RTVSPost2010PropOp45
 70
     1
102
RTVSPost2010Prop46
 90
       50
102
RTVSPost2010PropOp46
 70
     1
102
RTVSPost2010Prop47
 90
       50
102
RTVSPost2010PropOp47
 70
     1
102
RTVSPost2010Prop48
 90
       50
102
RTVSPost2010PropOp48
 70
     1
102
RTVSPost2010Prop49
280
     0
102
RTVSPost2010PropOp49
 70
     1
102
RTVSPost2010Prop50
 90
       50
102
RTVSPost2010PropOp50
 70
     1
102
RTVSPost2010Prop51ColorIndex
 90
      256
102
RTVSPost2010Prop51ColorRGB
 90
-16777216
102
RTVSPost2010PropOp51
 70
     0
102
RTVSPost2010Prop52
140
1.0
102
RTVSPost2010PropOp52
 70
     0
102
RTVSPost2010Prop53
 90
        2
102
RTVSPost2010PropOp53
 70
     1
102
RTVSPost2010Prop54
  1
strokes_ogs.tif
102
RTVSPost2010PropOp54
 70
     1
102
RTVSPost2010Prop55
280
     0
102
RTVSPost2010PropOp55
 70
     1
102
RTVSPost2010Prop56
140
1.0
102
RTVSPost2010PropOp56
 70
     1
102
RTVSPost2010Prop57
140
1.0
102
RTVSPost2010PropOp57
 70
     1
102
RTVSPropertyOp0
 70
     1
102
RTVSPropertyOp1
 70
     1
102
RTVSPropertyOp2
 70
     1
102
RTVSPropertyOp3
 70
     1
102
RTVSPropertyOp4
 70
     1
102
RTVSPropertyOp5
 70
     1
102
RTVSPropertyOp6
 70
     1
102
RTVSPropertyOp7
 70
     1
102
RTVSPropertyOp8
 70
     1
102
RTVSPropertyOp9
 70
     1
102
RTVSPropertyOp10
 70
     1
102
RTVSPropertyOp11
 70
     1
102
RTVSPropertyOp12
 70
     1
102
RTVSPropertyOp13
 70
     1
102
RTVSPropertyOp14
 70
     1
102
RTVSPropertyOp15
 70
     1
102
RTVSPropertyOp16
 70
     1
102
RTVSPropertyOp17
 70
     1
102
RTVSPropertyOp18
 70
     1
102
RTVSPropertyOp19
 70
     1
102
RTVSPropertyOp20
 70
     1
102
RTVSPropertyOp21
 70
     1
102
RTVSPropertyOp22
 70
     1
102
RTVSPropertyOp23
 70
     1
102
RTVSPropertyOp24
 70
     1
102
RTVSPropertyOp25
 70
     1
102
RTVSPropertyOp26
 70
     1
102
RTVSPropertyOp27
 70
     1
102
RTVSPropertyOp28
 70
     1
102
RTVSPropertyOp29
 70
     1
102
RTVSPropertyOp30
 70
     1
102
RTVSPropertyOp31
 70
     1
102
RTVSPropertyOp32
 70
     1
102
RTVSPropertyOp33
 70
     1
102
RTVSPropertyOp34
 70
     1
102
RTVSPropertyOp35
 70
     1
102
RTVSPropertyOp36
 70
     1
102
RTVSPropertyOp37
 70
     1
102
RTVSPropertyOp38
 70
     1
102
RTVSPropertyOp39
 70
     1
102
RTVSPropertyOp40
 70
     1
102
RTVSPropertyOp41
 70
     1
102
RTVSPropertyOp42
 70
     1
102
RTVSPropertyOp43
 70
     1
102
RTVSPropertyOp44
 70
     1
102
RTVSPropertyOp45
 70
     1
102
RTVSPropertyOp46
 70
     1
102
RTVSPropertyOp47
 70
     1
102
RTVSPropertyOp48
 70
     1
102
RTVSPropertyOp49
 70
     1
102
RTVSPropertyOp50
 70
     1
102
RTVSPropertyOp51
 70
     0
102
RTVSPropertyOp52
 70
     0
102
RTVSPropertyOp53
 70
     1
102
RTVSPropertyOp54
 70
     1
102
RTVSPropertyOp55
 70
     1
102
RTVSPropertyOp56
 70
     1
102
RTVSPropertyOp57
 70
     1
102
RTVSPropertyOp58
 70
     1
102
RTVSPropertyOp59
 70
     1
102
RTVSPropertyOp60
 70
     1
102
RTVSPropertyOp61
 70
     1
102
RTVSPropertyOp62
 70
     1
  0
XRECORD
  5
47B2
102
{ACAD_REACTORS
330
47B1
102
}
330
47B1
100
AcDbXrecord
280
     1
102
RTVSPost2010Prop28
280
     0
102
RTVSPost2010PropOp28
 70
     1
102
RTVSPost2010Prop29
280
     1
102
RTVSPost2010PropOp29
 70
     1
102
RTVSPost2010Prop30
280
     1
102
RTVSPost2010PropOp30
 70
     1
102
RTVSPost2010Prop31
280
     0
102
RTVSPost2010PropOp31
 70
     1
102
RTVSPost2010Prop32
280
     0
102
RTVSPost2010PropOp32
 70
     1
102
RTVSPost2010Prop33
280
     0
102
RTVSPost2010PropOp33
 70
     1
102
RTVSPost2010Prop34
280
     0
102
RTVSPost2010PropOp34
 70
     1
102
RTVSPost2010Prop35
280
     0
102
RTVSPost2010PropOp35
 70
     1
102
RTVSPost2010Prop36
280
     0
102
RTVSPost2010PropOp36
 70
     1
102
RTVSPost2010Prop37
 90
       50
102
RTVSPost2010PropOp37
 70
     1
102
RTVSPost2010Prop38
140
0.0
102
RTVSPost2010PropOp38
 70
     1
102
RTVSPost2010Prop39
140
1.0
102
RTVSPost2010PropOp39
 70
     1
102
RTVSPost2010Prop40
 90
        0
102
RTVSPost2010PropOp40
 70
     1
102
RTVSPost2010Prop41ColorIndex
 90
       18
102
RTVSPost2010Prop41ColorRGB
 90
        0
102
RTVSPost2010PropOp41
 70
     1
102
RTVSPost2010Prop42
 90
       50
102
RTVSPost2010PropOp42
 70
     1
102
RTVSPost2010Prop43
 90
        3
102
RTVSPost2010PropOp43
 70
     1
102
RTVSPost2010Prop44ColorIndex
 90
        5
102
RTVSPost2010Prop44ColorRGB
 90
      255
102
RTVSPost2010PropOp44
 70
     1
102
RTVSPost2010Prop45
280
     0
102
RTVSPost2010PropOp45
 70
     1
102
RTVSPost2010Prop46
 90
       50
102
RTVSPost2010PropOp46
 70
     1
102
RTVSPost2010Prop47
 90
       50
102
RTVSPost2010PropOp47
 70
     1
102
RTVSPost2010Prop48
 90
       50
102
RTVSPost2010PropOp48
 70
     1
102
RTVSPost2010Prop49
280
     0
102
RTVSPost2010PropOp49
 70
     1
102
RTVSPost2010Prop50
 90
       50
102
RTVSPost2010PropOp50
 70
     1
102
RTVSPost2010Prop51ColorIndex
 90
      256
102
RTVSPost2010Prop51ColorRGB
 90
-16777216
102
RTVSPost2010PropOp51
 70
     0
102
RTVSPost2010Prop52
140
1.0
102
RTVSPost2010PropOp52
 70
     0
102
RTVSPost2010Prop53
 90
        2
102
RTVSPost2010PropOp53
 70
     1
102
RTVSPost2010Prop54
  1
strokes_ogs.tif
102
RTVSPost2010PropOp54
 70
     1
102
RTVSPost2010Prop55
280
     0
102
RTVSPost2010PropOp55
 70
     1
102
RTVSPost2010Prop56
140
1.0
102
RTVSPost2010PropOp56
 70
     1
102
RTVSPost2010Prop57
140
1.0
102
RTVSPost2010PropOp57
 70
     1
102
RTVSPropertyOp0
 70
     1
102
RTVSPropertyOp1
 70
     1
102
RTVSPropertyOp2
 70
     1
102
RTVSPropertyOp3
 70
     1
102
RTVSPropertyOp4
 70
     1
102
RTVSPropertyOp5
 70
     1
102
RTVSPropertyOp6
 70
     1
102
RTVSPropertyOp7
 70
     1
102
RTVSPropertyOp8
 70
     1
102
RTVSPropertyOp9
 70
     1
102
RTVSPropertyOp10
 70
     1
102
RTVSPropertyOp11
 70
     1
102
RTVSPropertyOp12
 70
     1
102
RTVSPropertyOp13
 70
     1
102
RTVSPropertyOp14
 70
     1
102
RTVSPropertyOp15
 70
     1
102
RTVSPropertyOp16
 70
     1
102
RTVSPropertyOp17
 70
     1
102
RTVSPropertyOp18
 70
     1
102
RTVSPropertyOp19
 70
     1
102
RTVSPropertyOp20
 70
     1
102
RTVSPropertyOp21
 70
     1
102
RTVSPropertyOp22
 70
     1
102
RTVSPropertyOp23
 70
     1
102
RTVSPropertyOp24
 70
     1
102
RTVSPropertyOp25
 70
     1
102
RTVSPropertyOp26
 70
     1
102
RTVSPropertyOp27
 70
     1
102
RTVSPropertyOp28
 70
     1
102
RTVSPropertyOp29
 70
     1
102
RTVSPropertyOp30
 70
     1
102
RTVSPropertyOp31
 70
     1
102
RTVSPropertyOp32
 70
     1
102
RTVSPropertyOp33
 70
     1
102
RTVSPropertyOp34
 70
     1
102
RTVSPropertyOp35
 70
     1
102
RTVSPropertyOp36
 70
     1
102
RTVSPropertyOp37
 70
     1
102
RTVSPropertyOp38
 70
     1
102
RTVSPropertyOp39
 70
     1
102
RTVSPropertyOp40
 70
     1
102
RTVSPropertyOp41
 70
     1
102
RTVSPropertyOp42
 70
     1
102
RTVSPropertyOp43
 70
     1
102
RTVSPropertyOp44
 70
     1
102
RTVSPropertyOp45
 70
     1
102
RTVSPropertyOp46
 70
     1
102
RTVSPropertyOp47
 70
     1
102
RTVSPropertyOp48
 70
     1
102
RTVSPropertyOp49
 70
     1
102
RTVSPropertyOp50
 70
     1
102
RTVSPropertyOp51
 70
     0
102
RTVSPropertyOp52
 70
     0
102
RTVSPropertyOp53
 70
     1
102
RTVSPropertyOp54
 70
     1
102
RTVSPropertyOp55
 70
     1
102
RTVSPropertyOp56
 70
     1
102
RTVSPropertyOp57
 70
     1
102
RTVSPropertyOp58
 70
     1
102
RTVSPropertyOp59
 70
     1
102
RTVSPropertyOp60
 70
     1
102
RTVSPropertyOp61
 70
     1
102
RTVSPropertyOp62
 70
     1
  0
XRECORD
  5
47B0
102
{ACAD_REACTORS
330
47AF
102
}
330
47AF
100
AcDbXrecord
280
     1
102
RTVSPost2010Prop28
280
     0
102
RTVSPost2010PropOp28
 70
     1
102
RTVSPost2010Prop29
280
     1
102
RTVSPost2010PropOp29
 70
     1
102
RTVSPost2010Prop30
280
     1
102
RTVSPost2010PropOp30
 70
     1
102
RTVSPost2010Prop31
280
     0
102
RTVSPost2010PropOp31
 70
     1
102
RTVSPost2010Prop32
280
     0
102
RTVSPost2010PropOp32
 70
     1
102
RTVSPost2010Prop33
280
     0
102
RTVSPost2010PropOp33
 70
     1
102
RTVSPost2010Prop34
280
     0
102
RTVSPost2010PropOp34
 70
     1
102
RTVSPost2010Prop35
280
     0
102
RTVSPost2010PropOp35
 70
     1
102
RTVSPost2010Prop36
280
     0
102
RTVSPost2010PropOp36
 70
     1
102
RTVSPost2010Prop37
 90
       50
102
RTVSPost2010PropOp37
 70
     1
102
RTVSPost2010Prop38
140
0.0
102
RTVSPost2010PropOp38
 70
     1
102
RTVSPost2010Prop39
140
1.0
102
RTVSPost2010PropOp39
 70
     1
102
RTVSPost2010Prop40
 90
        0
102
RTVSPost2010PropOp40
 70
     1
102
RTVSPost2010Prop41ColorIndex
 90
       18
102
RTVSPost2010Prop41ColorRGB
 90
        0
102
RTVSPost2010PropOp41
 70
     1
102
RTVSPost2010Prop42
 90
       50
102
RTVSPost2010PropOp42
 70
     1
102
RTVSPost2010Prop43
 90
        3
102
RTVSPost2010PropOp43
 70
     1
102
RTVSPost2010Prop44ColorIndex
 90
        5
102
RTVSPost2010Prop44ColorRGB
 90
      255
102
RTVSPost2010PropOp44
 70
     1
102
RTVSPost2010Prop45
280
     0
102
RTVSPost2010PropOp45
 70
     1
102
RTVSPost2010Prop46
 90
       50
102
RTVSPost2010PropOp46
 70
     1
102
RTVSPost2010Prop47
 90
       50
102
RTVSPost2010PropOp47
 70
     1
102
RTVSPost2010Prop48
 90
       50
102
RTVSPost2010PropOp48
 70
     1
102
RTVSPost2010Prop49
280
     0
102
RTVSPost2010PropOp49
 70
     1
102
RTVSPost2010Prop50
 90
       50
102
RTVSPost2010PropOp50
 70
     1
102
RTVSPost2010Prop51ColorIndex
 90
      256
102
RTVSPost2010Prop51ColorRGB
 90
-16777216
102
RTVSPost2010PropOp51
 70
     0
102
RTVSPost2010Prop52
140
1.0
102
RTVSPost2010PropOp52
 70
     0
102
RTVSPost2010Prop53
 90
        2
102
RTVSPost2010PropOp53
 70
     1
102
RTVSPost2010Prop54
  1
strokes_ogs.tif
102
RTVSPost2010PropOp54
 70
     1
102
RTVSPost2010Prop55
280
     0
102
RTVSPost2010PropOp55
 70
     1
102
RTVSPost2010Prop56
140
1.0
102
RTVSPost2010PropOp56
 70
     1
102
RTVSPost2010Prop57
140
1.0
102
RTVSPost2010PropOp57
 70
     1
102
RTVSPropertyOp0
 70
     1
102
RTVSPropertyOp1
 70
     1
102
RTVSPropertyOp2
 70
     1
102
RTVSPropertyOp3
 70
     1
102
RTVSPropertyOp4
 70
     1
102
RTVSPropertyOp5
 70
     1
102
RTVSPropertyOp6
 70
     1
102
RTVSPropertyOp7
 70
     1
102
RTVSPropertyOp8
 70
     1
102
RTVSPropertyOp9
 70
     1
102
RTVSPropertyOp10
 70
     1
102
RTVSPropertyOp11
 70
     1
102
RTVSPropertyOp12
 70
     1
102
RTVSPropertyOp13
 70
     1
102
RTVSPropertyOp14
 70
     1
102
RTVSPropertyOp15
 70
     1
102
RTVSPropertyOp16
 70
     1
102
RTVSPropertyOp17
 70
     1
102
RTVSPropertyOp18
 70
     1
102
RTVSPropertyOp19
 70
     1
102
RTVSPropertyOp20
 70
     1
102
RTVSPropertyOp21
 70
     1
102
RTVSPropertyOp22
 70
     1
102
RTVSPropertyOp23
 70
     1
102
RTVSPropertyOp24
 70
     1
102
RTVSPropertyOp25
 70
     1
102
RTVSPropertyOp26
 70
     1
102
RTVSPropertyOp27
 70
     1
102
RTVSPropertyOp28
 70
     1
102
RTVSPropertyOp29
 70
     1
102
RTVSPropertyOp30
 70
     1
102
RTVSPropertyOp31
 70
     1
102
RTVSPropertyOp32
 70
     1
102
RTVSPropertyOp33
 70
     1
102
RTVSPropertyOp34
 70
     1
102
RTVSPropertyOp35
 70
     1
102
RTVSPropertyOp36
 70
     1
102
RTVSPropertyOp37
 70
     1
102
RTVSPropertyOp38
 70
     1
102
RTVSPropertyOp39
 70
     1
102
RTVSPropertyOp40
 70
     1
102
RTVSPropertyOp41
 70
     1
102
RTVSPropertyOp42
 70
     1
102
RTVSPropertyOp43
 70
     1
102
RTVSPropertyOp44
 70
     1
102
RTVSPropertyOp45
 70
     1
102
RTVSPropertyOp46
 70
     1
102
RTVSPropertyOp47
 70
     1
102
RTVSPropertyOp48
 70
     1
102
RTVSPropertyOp49
 70
     1
102
RTVSPropertyOp50
 70
     1
102
RTVSPropertyOp51
 70
     0
102
RTVSPropertyOp52
 70
     0
102
RTVSPropertyOp53
 70
     1
102
RTVSPropertyOp54
 70
     1
102
RTVSPropertyOp55
 70
     1
102
RTVSPropertyOp56
 70
     1
102
RTVSPropertyOp57
 70
     1
102
RTVSPropertyOp58
 70
     1
102
RTVSPropertyOp59
 70
     1
102
RTVSPropertyOp60
 70
     1
102
RTVSPropertyOp61
 70
     1
102
RTVSPropertyOp62
 70
     1
  0
XRECORD
  5
47AA
102
{ACAD_REACTORS
330
47A9
102
}
330
47A9
100
AcDbXrecord
280
     1
102
RTVSPost2010Prop28
280
     0
102
RTVSPost2010PropOp28
 70
     1
102
RTVSPost2010Prop29
280
     1
102
RTVSPost2010PropOp29
 70
     1
102
RTVSPost2010Prop30
280
     1
102
RTVSPost2010PropOp30
 70
     1
102
RTVSPost2010Prop31
280
     0
102
RTVSPost2010PropOp31
 70
     1
102
RTVSPost2010Prop32
280
     0
102
RTVSPost2010PropOp32
 70
     1
102
RTVSPost2010Prop33
280
     0
102
RTVSPost2010PropOp33
 70
     1
102
RTVSPost2010Prop34
280
     0
102
RTVSPost2010PropOp34
 70
     1
102
RTVSPost2010Prop35
280
     0
102
RTVSPost2010PropOp35
 70
     1
102
RTVSPost2010Prop36
280
     0
102
RTVSPost2010PropOp36
 70
     1
102
RTVSPost2010Prop37
 90
       50
102
RTVSPost2010PropOp37
 70
     1
102
RTVSPost2010Prop38
140
0.0
102
RTVSPost2010PropOp38
 70
     1
102
RTVSPost2010Prop39
140
1.0
102
RTVSPost2010PropOp39
 70
     1
102
RTVSPost2010Prop40
 90
        0
102
RTVSPost2010PropOp40
 70
     1
102
RTVSPost2010Prop41ColorIndex
 90
       18
102
RTVSPost2010Prop41ColorRGB
 90
        0
102
RTVSPost2010PropOp41
 70
     1
102
RTVSPost2010Prop42
 90
       50
102
RTVSPost2010PropOp42
 70
     1
102
RTVSPost2010Prop43
 90
        3
102
RTVSPost2010PropOp43
 70
     1
102
RTVSPost2010Prop44ColorIndex
 90
        5
102
RTVSPost2010Prop44ColorRGB
 90
      255
102
RTVSPost2010PropOp44
 70
     1
102
RTVSPost2010Prop45
280
     0
102
RTVSPost2010PropOp45
 70
     1
102
RTVSPost2010Prop46
 90
       50
102
RTVSPost2010PropOp46
 70
     1
102
RTVSPost2010Prop47
 90
       50
102
RTVSPost2010PropOp47
 70
     1
102
RTVSPost2010Prop48
 90
       50
102
RTVSPost2010PropOp48
 70
     1
102
RTVSPost2010Prop49
280
     0
102
RTVSPost2010PropOp49
 70
     1
102
RTVSPost2010Prop50
 90
       50
102
RTVSPost2010PropOp50
 70
     1
102
RTVSPost2010Prop51ColorIndex
 90
      256
102
RTVSPost2010Prop51ColorRGB
 90
-16777216
102
RTVSPost2010PropOp51
 70
     0
102
RTVSPost2010Prop52
140
1.0
102
RTVSPost2010PropOp52
 70
     0
102
RTVSPost2010Prop53
 90
        2
102
RTVSPost2010PropOp53
 70
     1
102
RTVSPost2010Prop54
  1
strokes_ogs.tif
102
RTVSPost2010PropOp54
 70
     1
102
RTVSPost2010Prop55
280
     0
102
RTVSPost2010PropOp55
 70
     1
102
RTVSPost2010Prop56
140
1.0
102
RTVSPost2010PropOp56
 70
     1
102
RTVSPost2010Prop57
140
1.0
102
RTVSPost2010PropOp57
 70
     1
102
RTVSPropertyOp0
 70
     1
102
RTVSPropertyOp1
 70
     1
102
RTVSPropertyOp2
 70
     1
102
RTVSPropertyOp3
 70
     1
102
RTVSPropertyOp4
 70
     1
102
RTVSPropertyOp5
 70
     1
102
RTVSPropertyOp6
 70
     1
102
RTVSPropertyOp7
 70
     1
102
RTVSPropertyOp8
 70
     1
102
RTVSPropertyOp9
 70
     1
102
RTVSPropertyOp10
 70
     1
102
RTVSPropertyOp11
 70
     1
102
RTVSPropertyOp12
 70
     1
102
RTVSPropertyOp13
 70
     1
102
RTVSPropertyOp14
 70
     1
102
RTVSPropertyOp15
 70
     1
102
RTVSPropertyOp16
 70
     1
102
RTVSPropertyOp17
 70
     1
102
RTVSPropertyOp18
 70
     1
102
RTVSPropertyOp19
 70
     1
102
RTVSPropertyOp20
 70
     1
102
RTVSPropertyOp21
 70
     1
102
RTVSPropertyOp22
 70
     1
102
RTVSPropertyOp23
 70
     1
102
RTVSPropertyOp24
 70
     1
102
RTVSPropertyOp25
 70
     1
102
RTVSPropertyOp26
 70
     1
102
RTVSPropertyOp27
 70
     1
102
RTVSPropertyOp28
 70
     1
102
RTVSPropertyOp29
 70
     1
102
RTVSPropertyOp30
 70
     1
102
RTVSPropertyOp31
 70
     1
102
RTVSPropertyOp32
 70
     1
102
RTVSPropertyOp33
 70
     1
102
RTVSPropertyOp34
 70
     1
102
RTVSPropertyOp35
 70
     1
102
RTVSPropertyOp36
 70
     1
102
RTVSPropertyOp37
 70
     1
102
RTVSPropertyOp38
 70
     1
102
RTVSPropertyOp39
 70
     1
102
RTVSPropertyOp40
 70
     1
102
RTVSPropertyOp41
 70
     1
102
RTVSPropertyOp42
 70
     1
102
RTVSPropertyOp43
 70
     1
102
RTVSPropertyOp44
 70
     1
102
RTVSPropertyOp45
 70
     1
102
RTVSPropertyOp46
 70
     1
102
RTVSPropertyOp47
 70
     1
102
RTVSPropertyOp48
 70
     1
102
RTVSPropertyOp49
 70
     1
102
RTVSPropertyOp50
 70
     1
102
RTVSPropertyOp51
 70
     0
102
RTVSPropertyOp52
 70
     0
102
RTVSPropertyOp53
 70
     1
102
RTVSPropertyOp54
 70
     1
102
RTVSPropertyOp55
 70
     1
102
RTVSPropertyOp56
 70
     1
102
RTVSPropertyOp57
 70
     1
102
RTVSPropertyOp58
 70
     1
102
RTVSPropertyOp59
 70
     1
102
RTVSPropertyOp60
 70
     1
102
RTVSPropertyOp61
 70
     1
102
RTVSPropertyOp62
 70
     1
  0
XRECORD
  5
47AC
102
{ACAD_REACTORS
330
47AB
102
}
330
47AB
100
AcDbXrecord
280
     1
102
RTVSPost2010Prop28
280
     0
102
RTVSPost2010PropOp28
 70
     1
102
RTVSPost2010Prop29
280
     1
102
RTVSPost2010PropOp29
 70
     1
102
RTVSPost2010Prop30
280
     1
102
RTVSPost2010PropOp30
 70
     1
102
RTVSPost2010Prop31
280
     0
102
RTVSPost2010PropOp31
 70
     1
102
RTVSPost2010Prop32
280
     0
102
RTVSPost2010PropOp32
 70
     1
102
RTVSPost2010Prop33
280
     0
102
RTVSPost2010PropOp33
 70
     1
102
RTVSPost2010Prop34
280
     0
102
RTVSPost2010PropOp34
 70
     1
102
RTVSPost2010Prop35
280
     0
102
RTVSPost2010PropOp35
 70
     1
102
RTVSPost2010Prop36
280
     0
102
RTVSPost2010PropOp36
 70
     1
102
RTVSPost2010Prop37
 90
       50
102
RTVSPost2010PropOp37
 70
     1
102
RTVSPost2010Prop38
140
0.0
102
RTVSPost2010PropOp38
 70
     1
102
RTVSPost2010Prop39
140
1.0
102
RTVSPost2010PropOp39
 70
     1
102
RTVSPost2010Prop40
 90
        0
102
RTVSPost2010PropOp40
 70
     1
102
RTVSPost2010Prop41ColorIndex
 90
       18
102
RTVSPost2010Prop41ColorRGB
 90
        0
102
RTVSPost2010PropOp41
 70
     1
102
RTVSPost2010Prop42
 90
       50
102
RTVSPost2010PropOp42
 70
     1
102
RTVSPost2010Prop43
 90
        3
102
RTVSPost2010PropOp43
 70
     1
102
RTVSPost2010Prop44ColorIndex
 90
        5
102
RTVSPost2010Prop44ColorRGB
 90
      255
102
RTVSPost2010PropOp44
 70
     1
102
RTVSPost2010Prop45
280
     0
102
RTVSPost2010PropOp45
 70
     1
102
RTVSPost2010Prop46
 90
       50
102
RTVSPost2010PropOp46
 70
     1
102
RTVSPost2010Prop47
 90
       50
102
RTVSPost2010PropOp47
 70
     1
102
RTVSPost2010Prop48
 90
       50
102
RTVSPost2010PropOp48
 70
     1
102
RTVSPost2010Prop49
280
     0
102
RTVSPost2010PropOp49
 70
     1
102
RTVSPost2010Prop50
 90
       50
102
RTVSPost2010PropOp50
 70
     1
102
RTVSPost2010Prop51ColorIndex
 90
      256
102
RTVSPost2010Prop51ColorRGB
 90
-16777216
102
RTVSPost2010PropOp51
 70
     0
102
RTVSPost2010Prop52
140
1.0
102
RTVSPost2010PropOp52
 70
     0
102
RTVSPost2010Prop53
 90
        2
102
RTVSPost2010PropOp53
 70
     1
102
RTVSPost2010Prop54
  1
strokes_ogs.tif
102
RTVSPost2010PropOp54
 70
     1
102
RTVSPost2010Prop55
280
     0
102
RTVSPost2010PropOp55
 70
     1
102
RTVSPost2010Prop56
140
1.0
102
RTVSPost2010PropOp56
 70
     1
102
RTVSPost2010Prop57
140
1.0
102
RTVSPost2010PropOp57
 70
     1
102
RTVSPropertyOp0
 70
     1
102
RTVSPropertyOp1
 70
     1
102
RTVSPropertyOp2
 70
     1
102
RTVSPropertyOp3
 70
     1
102
RTVSPropertyOp4
 70
     1
102
RTVSPropertyOp5
 70
     1
102
RTVSPropertyOp6
 70
     1
102
RTVSPropertyOp7
 70
     1
102
RTVSPropertyOp8
 70
     1
102
RTVSPropertyOp9
 70
     1
102
RTVSPropertyOp10
 70
     1
102
RTVSPropertyOp11
 70
     1
102
RTVSPropertyOp12
 70
     1
102
RTVSPropertyOp13
 70
     1
102
RTVSPropertyOp14
 70
     1
102
RTVSPropertyOp15
 70
     1
102
RTVSPropertyOp16
 70
     1
102
RTVSPropertyOp17
 70
     1
102
RTVSPropertyOp18
 70
     1
102
RTVSPropertyOp19
 70
     1
102
RTVSPropertyOp20
 70
     1
102
RTVSPropertyOp21
 70
     1
102
RTVSPropertyOp22
 70
     1
102
RTVSPropertyOp23
 70
     1
102
RTVSPropertyOp24
 70
     1
102
RTVSPropertyOp25
 70
     1
102
RTVSPropertyOp26
 70
     1
102
RTVSPropertyOp27
 70
     1
102
RTVSPropertyOp28
 70
     1
102
RTVSPropertyOp29
 70
     1
102
RTVSPropertyOp30
 70
     1
102
RTVSPropertyOp31
 70
     1
102
RTVSPropertyOp32
 70
     1
102
RTVSPropertyOp33
 70
     1
102
RTVSPropertyOp34
 70
     1
102
RTVSPropertyOp35
 70
     1
102
RTVSPropertyOp36
 70
     1
102
RTVSPropertyOp37
 70
     1
102
RTVSPropertyOp38
 70
     1
102
RTVSPropertyOp39
 70
     1
102
RTVSPropertyOp40
 70
     1
102
RTVSPropertyOp41
 70
     1
102
RTVSPropertyOp42
 70
     1
102
RTVSPropertyOp43
 70
     1
102
RTVSPropertyOp44
 70
     1
102
RTVSPropertyOp45
 70
     1
102
RTVSPropertyOp46
 70
     1
102
RTVSPropertyOp47
 70
     1
102
RTVSPropertyOp48
 70
     1
102
RTVSPropertyOp49
 70
     1
102
RTVSPropertyOp50
 70
     1
102
RTVSPropertyOp51
 70
     0
102
RTVSPropertyOp52
 70
     0
102
RTVSPropertyOp53
 70
     1
102
RTVSPropertyOp54
 70
     1
102
RTVSPropertyOp55
 70
     1
102
RTVSPropertyOp56
 70
     1
102
RTVSPropertyOp57
 70
     1
102
RTVSPropertyOp58
 70
     1
102
RTVSPropertyOp59
 70
     1
102
RTVSPropertyOp60
 70
     1
102
RTVSPropertyOp61
 70
     1
102
RTVSPropertyOp62
 70
     1
  0
XRECORD
  5
4767
102
{ACAD_REACTORS
330
4766
102
}
330
4766
100
AcDbXrecord
280
     1
102
RTVSPost2010Prop28
280
     0
102
RTVSPost2010PropOp28
 70
     1
102
RTVSPost2010Prop29
280
     1
102
RTVSPost2010PropOp29
 70
     1
102
RTVSPost2010Prop30
280
     1
102
RTVSPost2010PropOp30
 70
     1
102
RTVSPost2010Prop31
280
     0
102
RTVSPost2010PropOp31
 70
     1
102
RTVSPost2010Prop32
280
     0
102
RTVSPost2010PropOp32
 70
     1
102
RTVSPost2010Prop33
280
     0
102
RTVSPost2010PropOp33
 70
     1
102
RTVSPost2010Prop34
280
     0
102
RTVSPost2010PropOp34
 70
     1
102
RTVSPost2010Prop35
280
     0
102
RTVSPost2010PropOp35
 70
     1
102
RTVSPost2010Prop36
280
     0
102
RTVSPost2010PropOp36
 70
     1
102
RTVSPost2010Prop37
 90
       50
102
RTVSPost2010PropOp37
 70
     1
102
RTVSPost2010Prop38
140
0.0
102
RTVSPost2010PropOp38
 70
     1
102
RTVSPost2010Prop39
140
1.0
102
RTVSPost2010PropOp39
 70
     1
102
RTVSPost2010Prop40
 90
        0
102
RTVSPost2010PropOp40
 70
     1
102
RTVSPost2010Prop41ColorIndex
 90
       18
102
RTVSPost2010Prop41ColorRGB
 90
        0
102
RTVSPost2010PropOp41
 70
     1
102
RTVSPost2010Prop42
 90
       50
102
RTVSPost2010PropOp42
 70
     1
102
RTVSPost2010Prop43
 90
        3
102
RTVSPost2010PropOp43
 70
     1
102
RTVSPost2010Prop44ColorIndex
 90
        5
102
RTVSPost2010Prop44ColorRGB
 90
      255
102
RTVSPost2010PropOp44
 70
     1
102
RTVSPost2010Prop45
280
     0
102
RTVSPost2010PropOp45
 70
     1
102
RTVSPost2010Prop46
 90
       50
102
RTVSPost2010PropOp46
 70
     1
102
RTVSPost2010Prop47
 90
       50
102
RTVSPost2010PropOp47
 70
     1
102
RTVSPost2010Prop48
 90
       50
102
RTVSPost2010PropOp48
 70
     1
102
RTVSPost2010Prop49
280
     0
102
RTVSPost2010PropOp49
 70
     1
102
RTVSPost2010Prop50
 90
       50
102
RTVSPost2010PropOp50
 70
     1
102
RTVSPost2010Prop51ColorIndex
 90
      256
102
RTVSPost2010Prop51ColorRGB
 90
-16777216
102
RTVSPost2010PropOp51
 70
     0
102
RTVSPost2010Prop52
140
1.0
102
RTVSPost2010PropOp52
 70
     0
102
RTVSPost2010Prop53
 90
        2
102
RTVSPost2010PropOp53
 70
     1
102
RTVSPost2010Prop54
  1
strokes_ogs.tif
102
RTVSPost2010PropOp54
 70
     1
102
RTVSPost2010Prop55
280
     0
102
RTVSPost2010PropOp55
 70
     1
102
RTVSPost2010Prop56
140
1.0
102
RTVSPost2010PropOp56
 70
     1
102
RTVSPost2010Prop57
140
1.0
102
RTVSPost2010PropOp57
 70
     1
102
RTVSPropertyOp0
 70
     1
102
RTVSPropertyOp1
 70
     1
102
RTVSPropertyOp2
 70
     1
102
RTVSPropertyOp3
 70
     1
102
RTVSPropertyOp4
 70
     1
102
RTVSPropertyOp5
 70
     1
102
RTVSPropertyOp6
 70
     1
102
RTVSPropertyOp7
 70
     1
102
RTVSPropertyOp8
 70
     1
102
RTVSPropertyOp9
 70
     1
102
RTVSPropertyOp10
 70
     1
102
RTVSPropertyOp11
 70
     1
102
RTVSPropertyOp12
 70
     1
102
RTVSPropertyOp13
 70
     1
102
RTVSPropertyOp14
 70
     1
102
RTVSPropertyOp15
 70
     1
102
RTVSPropertyOp16
 70
     1
102
RTVSPropertyOp17
 70
     1
102
RTVSPropertyOp18
 70
     1
102
RTVSPropertyOp19
 70
     1
102
RTVSPropertyOp20
 70
     1
102
RTVSPropertyOp21
 70
     1
102
RTVSPropertyOp22
 70
     1
102
RTVSPropertyOp23
 70
     1
102
RTVSPropertyOp24
 70
     1
102
RTVSPropertyOp25
 70
     1
102
RTVSPropertyOp26
 70
     1
102
RTVSPropertyOp27
 70
     1
102
RTVSPropertyOp28
 70
     1
102
RTVSPropertyOp29
 70
     1
102
RTVSPropertyOp30
 70
     1
102
RTVSPropertyOp31
 70
     1
102
RTVSPropertyOp32
 70
     1
102
RTVSPropertyOp33
 70
     1
102
RTVSPropertyOp34
 70
     1
102
RTVSPropertyOp35
 70
     1
102
RTVSPropertyOp36
 70
     1
102
RTVSPropertyOp37
 70
     1
102
RTVSPropertyOp38
 70
     1
102
RTVSPropertyOp39
 70
     1
102
RTVSPropertyOp40
 70
     1
102
RTVSPropertyOp41
 70
     1
102
RTVSPropertyOp42
 70
     1
102
RTVSPropertyOp43
 70
     1
102
RTVSPropertyOp44
 70
     1
102
RTVSPropertyOp45
 70
     1
102
RTVSPropertyOp46
 70
     1
102
RTVSPropertyOp47
 70
     1
102
RTVSPropertyOp48
 70
     1
102
RTVSPropertyOp49
 70
     1
102
RTVSPropertyOp50
 70
     1
102
RTVSPropertyOp51
 70
     0
102
RTVSPropertyOp52
 70
     0
102
RTVSPropertyOp53
 70
     1
102
RTVSPropertyOp54
 70
     1
102
RTVSPropertyOp55
 70
     1
102
RTVSPropertyOp56
 70
     1
102
RTVSPropertyOp57
 70
     1
102
RTVSPropertyOp58
 70
     1
102
RTVSPropertyOp59
 70
     1
102
RTVSPropertyOp60
 70
     1
102
RTVSPropertyOp61
 70
     1
102
RTVSPropertyOp62
 70
     1
  0
XRECORD
  5
47A6
102
{ACAD_REACTORS
330
47A5
102
}
330
47A5
100
AcDbXrecord
280
     1
102
RTVSPost2010Prop28
280
     0
102
RTVSPost2010PropOp28
 70
     1
102
RTVSPost2010Prop29
280
     1
102
RTVSPost2010PropOp29
 70
     1
102
RTVSPost2010Prop30
280
     1
102
RTVSPost2010PropOp30
 70
     1
102
RTVSPost2010Prop31
280
     0
102
RTVSPost2010PropOp31
 70
     1
102
RTVSPost2010Prop32
280
     0
102
RTVSPost2010PropOp32
 70
     1
102
RTVSPost2010Prop33
280
     0
102
RTVSPost2010PropOp33
 70
     1
102
RTVSPost2010Prop34
280
     0
102
RTVSPost2010PropOp34
 70
     1
102
RTVSPost2010Prop35
280
     0
102
RTVSPost2010PropOp35
 70
     1
102
RTVSPost2010Prop36
280
     0
102
RTVSPost2010PropOp36
 70
     1
102
RTVSPost2010Prop37
 90
       50
102
RTVSPost2010PropOp37
 70
     1
102
RTVSPost2010Prop38
140
0.0
102
RTVSPost2010PropOp38
 70
     1
102
RTVSPost2010Prop39
140
1.0
102
RTVSPost2010PropOp39
 70
     1
102
RTVSPost2010Prop40
 90
        0
102
RTVSPost2010PropOp40
 70
     1
102
RTVSPost2010Prop41ColorIndex
 90
       18
102
RTVSPost2010Prop41ColorRGB
 90
        0
102
RTVSPost2010PropOp41
 70
     1
102
RTVSPost2010Prop42
 90
       50
102
RTVSPost2010PropOp42
 70
     1
102
RTVSPost2010Prop43
 90
        3
102
RTVSPost2010PropOp43
 70
     1
102
RTVSPost2010Prop44ColorIndex
 90
        5
102
RTVSPost2010Prop44ColorRGB
 90
      255
102
RTVSPost2010PropOp44
 70
     1
102
RTVSPost2010Prop45
280
     0
102
RTVSPost2010PropOp45
 70
     1
102
RTVSPost2010Prop46
 90
       50
102
RTVSPost2010PropOp46
 70
     1
102
RTVSPost2010Prop47
 90
       50
102
RTVSPost2010PropOp47
 70
     1
102
RTVSPost2010Prop48
 90
       50
102
RTVSPost2010PropOp48
 70
     1
102
RTVSPost2010Prop49
280
     0
102
RTVSPost2010PropOp49
 70
     1
102
RTVSPost2010Prop50
 90
       50
102
RTVSPost2010PropOp50
 70
     1
102
RTVSPost2010Prop51ColorIndex
 90
      256
102
RTVSPost2010Prop51ColorRGB
 90
-16777216
102
RTVSPost2010PropOp51
 70
     0
102
RTVSPost2010Prop52
140
1.0
102
RTVSPost2010PropOp52
 70
     0
102
RTVSPost2010Prop53
 90
        2
102
RTVSPost2010PropOp53
 70
     1
102
RTVSPost2010Prop54
  1
strokes_ogs.tif
102
RTVSPost2010PropOp54
 70
     1
102
RTVSPost2010Prop55
280
     0
102
RTVSPost2010PropOp55
 70
     1
102
RTVSPost2010Prop56
140
1.0
102
RTVSPost2010PropOp56
 70
     1
102
RTVSPost2010Prop57
140
1.0
102
RTVSPost2010PropOp57
 70
     1
102
RTVSPropertyOp0
 70
     1
102
RTVSPropertyOp1
 70
     1
102
RTVSPropertyOp2
 70
     1
102
RTVSPropertyOp3
 70
     1
102
RTVSPropertyOp4
 70
     1
102
RTVSPropertyOp5
 70
     1
102
RTVSPropertyOp6
 70
     1
102
RTVSPropertyOp7
 70
     1
102
RTVSPropertyOp8
 70
     1
102
RTVSPropertyOp9
 70
     1
102
RTVSPropertyOp10
 70
     1
102
RTVSPropertyOp11
 70
     1
102
RTVSPropertyOp12
 70
     1
102
RTVSPropertyOp13
 70
     1
102
RTVSPropertyOp14
 70
     1
102
RTVSPropertyOp15
 70
     1
102
RTVSPropertyOp16
 70
     1
102
RTVSPropertyOp17
 70
     1
102
RTVSPropertyOp18
 70
     1
102
RTVSPropertyOp19
 70
     1
102
RTVSPropertyOp20
 70
     1
102
RTVSPropertyOp21
 70
     1
102
RTVSPropertyOp22
 70
     1
102
RTVSPropertyOp23
 70
     1
102
RTVSPropertyOp24
 70
     1
102
RTVSPropertyOp25
 70
     1
102
RTVSPropertyOp26
 70
     1
102
RTVSPropertyOp27
 70
     1
102
RTVSPropertyOp28
 70
     1
102
RTVSPropertyOp29
 70
     1
102
RTVSPropertyOp30
 70
     1
102
RTVSPropertyOp31
 70
     1
102
RTVSPropertyOp32
 70
     1
102
RTVSPropertyOp33
 70
     1
102
RTVSPropertyOp34
 70
     1
102
RTVSPropertyOp35
 70
     1
102
RTVSPropertyOp36
 70
     1
102
RTVSPropertyOp37
 70
     1
102
RTVSPropertyOp38
 70
     1
102
RTVSPropertyOp39
 70
     1
102
RTVSPropertyOp40
 70
     1
102
RTVSPropertyOp41
 70
     1
102
RTVSPropertyOp42
 70
     1
102
RTVSPropertyOp43
 70
     1
102
RTVSPropertyOp44
 70
     1
102
RTVSPropertyOp45
 70
     1
102
RTVSPropertyOp46
 70
     1
102
RTVSPropertyOp47
 70
     1
102
RTVSPropertyOp48
 70
     1
102
RTVSPropertyOp49
 70
     1
102
RTVSPropertyOp50
 70
     1
102
RTVSPropertyOp51
 70
     0
102
RTVSPropertyOp52
 70
     0
102
RTVSPropertyOp53
 70
     1
102
RTVSPropertyOp54
 70
     1
102
RTVSPropertyOp55
 70
     1
102
RTVSPropertyOp56
 70
     1
102
RTVSPropertyOp57
 70
     1
102
RTVSPropertyOp58
 70
     1
102
RTVSPropertyOp59
 70
     1
102
RTVSPropertyOp60
 70
     1
102
RTVSPropertyOp61
 70
     1
102
RTVSPropertyOp62
 70
     1
  0
XRECORD
  5
47AE
102
{ACAD_REACTORS
330
47AD
102
}
330
47AD
100
AcDbXrecord
280
     1
102
RTVSPost2010Prop28
280
     0
102
RTVSPost2010PropOp28
 70
     1
102
RTVSPost2010Prop29
280
     1
102
RTVSPost2010PropOp29
 70
     1
102
RTVSPost2010Prop30
280
     1
102
RTVSPost2010PropOp30
 70
     1
102
RTVSPost2010Prop31
280
     0
102
RTVSPost2010PropOp31
 70
     1
102
RTVSPost2010Prop32
280
     0
102
RTVSPost2010PropOp32
 70
     1
102
RTVSPost2010Prop33
280
     0
102
RTVSPost2010PropOp33
 70
     1
102
RTVSPost2010Prop34
280
     0
102
RTVSPost2010PropOp34
 70
     1
102
RTVSPost2010Prop35
280
     0
102
RTVSPost2010PropOp35
 70
     1
102
RTVSPost2010Prop36
280
     0
102
RTVSPost2010PropOp36
 70
     1
102
RTVSPost2010Prop37
 90
       50
102
RTVSPost2010PropOp37
 70
     1
102
RTVSPost2010Prop38
140
0.0
102
RTVSPost2010PropOp38
 70
     1
102
RTVSPost2010Prop39
140
1.0
102
RTVSPost2010PropOp39
 70
     1
102
RTVSPost2010Prop40
 90
        0
102
RTVSPost2010PropOp40
 70
     1
102
RTVSPost2010Prop41ColorIndex
 90
       18
102
RTVSPost2010Prop41ColorRGB
 90
        0
102
RTVSPost2010PropOp41
 70
     1
102
RTVSPost2010Prop42
 90
       50
102
RTVSPost2010PropOp42
 70
     1
102
RTVSPost2010Prop43
 90
        3
102
RTVSPost2010PropOp43
 70
     1
102
RTVSPost2010Prop44ColorIndex
 90
        5
102
RTVSPost2010Prop44ColorRGB
 90
      255
102
RTVSPost2010PropOp44
 70
     1
102
RTVSPost2010Prop45
280
     0
102
RTVSPost2010PropOp45
 70
     1
102
RTVSPost2010Prop46
 90
       50
102
RTVSPost2010PropOp46
 70
     1
102
RTVSPost2010Prop47
 90
       50
102
RTVSPost2010PropOp47
 70
     1
102
RTVSPost2010Prop48
 90
       50
102
RTVSPost2010PropOp48
 70
     1
102
RTVSPost2010Prop49
280
     0
102
RTVSPost2010PropOp49
 70
     1
102
RTVSPost2010Prop50
 90
       50
102
RTVSPost2010PropOp50
 70
     1
102
RTVSPost2010Prop51ColorIndex
 90
      256
102
RTVSPost2010Prop51ColorRGB
 90
-16777216
102
RTVSPost2010PropOp51
 70
     0
102
RTVSPost2010Prop52
140
1.0
102
RTVSPost2010PropOp52
 70
     0
102
RTVSPost2010Prop53
 90
        2
102
RTVSPost2010PropOp53
 70
     1
102
RTVSPost2010Prop54
  1
strokes_ogs.tif
102
RTVSPost2010PropOp54
 70
     1
102
RTVSPost2010Prop55
280
     0
102
RTVSPost2010PropOp55
 70
     1
102
RTVSPost2010Prop56
140
1.0
102
RTVSPost2010PropOp56
 70
     1
102
RTVSPost2010Prop57
140
1.0
102
RTVSPost2010PropOp57
 70
     1
102
RTVSPropertyOp0
 70
     1
102
RTVSPropertyOp1
 70
     1
102
RTVSPropertyOp2
 70
     1
102
RTVSPropertyOp3
 70
     1
102
RTVSPropertyOp4
 70
     1
102
RTVSPropertyOp5
 70
     1
102
RTVSPropertyOp6
 70
     1
102
RTVSPropertyOp7
 70
     1
102
RTVSPropertyOp8
 70
     1
102
RTVSPropertyOp9
 70
     1
102
RTVSPropertyOp10
 70
     1
102
RTVSPropertyOp11
 70
     1
102
RTVSPropertyOp12
 70
     1
102
RTVSPropertyOp13
 70
     1
102
RTVSPropertyOp14
 70
     1
102
RTVSPropertyOp15
 70
     1
102
RTVSPropertyOp16
 70
     1
102
RTVSPropertyOp17
 70
     1
102
RTVSPropertyOp18
 70
     1
102
RTVSPropertyOp19
 70
     1
102
RTVSPropertyOp20
 70
     1
102
RTVSPropertyOp21
 70
     1
102
RTVSPropertyOp22
 70
     1
102
RTVSPropertyOp23
 70
     1
102
RTVSPropertyOp24
 70
     1
102
RTVSPropertyOp25
 70
     1
102
RTVSPropertyOp26
 70
     1
102
RTVSPropertyOp27
 70
     1
102
RTVSPropertyOp28
 70
     1
102
RTVSPropertyOp29
 70
     1
102
RTVSPropertyOp30
 70
     1
102
RTVSPropertyOp31
 70
     1
102
RTVSPropertyOp32
 70
     1
102
RTVSPropertyOp33
 70
     1
102
RTVSPropertyOp34
 70
     1
102
RTVSPropertyOp35
 70
     1
102
RTVSPropertyOp36
 70
     1
102
RTVSPropertyOp37
 70
     1
102
RTVSPropertyOp38
 70
     1
102
RTVSPropertyOp39
 70
     1
102
RTVSPropertyOp40
 70
     1
102
RTVSPropertyOp41
 70
     1
102
RTVSPropertyOp42
 70
     1
102
RTVSPropertyOp43
 70
     1
102
RTVSPropertyOp44
 70
     1
102
RTVSPropertyOp45
 70
     1
102
RTVSPropertyOp46
 70
     1
102
RTVSPropertyOp47
 70
     1
102
RTVSPropertyOp48
 70
     1
102
RTVSPropertyOp49
 70
     1
102
RTVSPropertyOp50
 70
     1
102
RTVSPropertyOp51
 70
     0
102
RTVSPropertyOp52
 70
     0
102
RTVSPropertyOp53
 70
     1
102
RTVSPropertyOp54
 70
     1
102
RTVSPropertyOp55
 70
     1
102
RTVSPropertyOp56
 70
     1
102
RTVSPropertyOp57
 70
     1
102
RTVSPropertyOp58
 70
     1
102
RTVSPropertyOp59
 70
     1
102
RTVSPropertyOp60
 70
     1
102
RTVSPropertyOp61
 70
     1
102
RTVSPropertyOp62
 70
     1
  0
ENDSEC
  0
EOF
