  0
SECTION
  2
HEADER
  9
$ACADVER
  1
AC1015
  9
$ACADMAINTVER
 70
    20
  9
$DWGCODEPAGE
  3
ANSI_932
  9
$INSBASE
 10
0.0
 20
0.0
 30
0.0
  9
$EXTMIN
 10
87.9659352285
 20
-58.5338523444
 30
0.0
  9
$EXTMAX
 10
931.4567524623
 20
469.7527266233
 30
0.0
  9
$LIMMIN
 10
0.0
 20
0.0
  9
$LIMMAX
 10
297.0
 20
210.0
  9
$ORTHOMODE
 70
     0
  9
$REGENMODE
 70
     1
  9
$FILLMODE
 70
     1
  9
$QTEXTMODE
 70
     0
  9
$MIRRTEXT
 70
     0
  9
$LTSCALE
 40
3.0
  9
$ATTMODE
 70
     1
  9
$TEXTSIZE
 40
2.0
  9
$TRACEWID
 40
1.0
  9
$TEXTSTYLE
  7
STANDARD
  9
$CLAYER
  8
0
  9
$CELTYPE
  6
BYLAYER
  9
$CECOLOR
 62
   256
  9
$CELTSCALE
 40
1.0
  9
$DISPSILH
 70
     0
  9
$DIMSCALE
 40
3.0
  9
$DIMASZ
 40
1.8
  9
$DIMEXO
 40
0.625
  9
$DIMDLI
 40
3.75
  9
$DIMRND
 40
0.0
  9
$DIMDLE
 40
0.0
  9
$DIMEXE
 40
0.8
  9
$DIMTP
 40
0.0
  9
$DIMTM
 40
0.0
  9
$DIMTXT
 40
1.8
  9
$DIMCEN
 40
2.5
  9
$DIMTSZ
 40
0.0
  9
$DIMTOL
 70
     0
  9
$DIMLIM
 70
     0
  9
$DIMTIH
 70
     0
  9
$DIMTOH
 70
     0
  9
$DIMSE1
 70
     0
  9
$DIMSE2
 70
     0
  9
$DIMTAD
 70
     1
  9
$DIMZIN
 70
     8
  9
$DIMBLK
  1

  9
$DIMASO
 70
     1
  9
$DIMSHO
 70
     1
  9
$DIMPOST
  1

  9
$DIMAPOST
  1

  9
$DIMALT
 70
     0
  9
$DIMALTD
 70
     4
  9
$DIMALTF
 40
0.0394
  9
$DIMLFAC
 40
1.0
  9
$DIMTOFL
 70
     1
  9
$DIMTVP
 40
0.0
  9
$DIMTIX
 70
     0
  9
$DIMSOXD
 70
     0
  9
$DIMSAH
 70
     0
  9
$DIMBLK1
  1

  9
$DIMBLK2
  1

  9
$DIMSTYLE
  2
STANDARD
  9
$DIMCLRD
 70
     0
  9
$DIMCLRE
 70
     0
  9
$DIMCLRT
 70
     0
  9
$DIMTFAC
 40
1.0
  9
$DIMGAP
 40
0.75
  9
$DIMJUST
 70
     0
  9
$DIMSD1
 70
     0
  9
$DIMSD2
 70
     0
  9
$DIMTOLJ
 70
     1
  9
$DIMTZIN
 70
     0
  9
$DIMALTZ
 70
     0
  9
$DIMALTTZ
 70
     0
  9
$DIMUPT
 70
     0
  9
$DIMDEC
 70
     2
  9
$DIMTDEC
 70
     2
  9
$DIMALTU
 70
     8
  9
$DIMALTTD
 70
     4
  9
$DIMTXSTY
  7
STANDARD
  9
$DIMAUNIT
 70
     0
  9
$DIMADEC
 70
     2
  9
$DIMALTRND
 40
0.0
  9
$DIMAZIN
 70
     0
  9
$DIMDSEP
 70
    46
  9
$DIMATFIT
 70
     3
  9
$DIMFRAC
 70
     0
  9
$DIMLDRBLK
  1

  9
$DIMLUNIT
 70
     6
  9
$DIMLWD
 70
    -2
  9
$DIMLWE
 70
    -2
  9
$DIMTMOVE
 70
     0
  9
$LUNITS
 70
     2
  9
$LUPREC
 70
     3
  9
$SKETCHINC
 40
1.0
  9
$FILLETRAD
 40
10.0
  9
$AUNITS
 70
     0
  9
$AUPREC
 70
     2
  9
$MENU
  1
.
  9
$ELEVATION
 40
0.0
  9
$PELEVATION
 40
0.0
  9
$THICKNESS
 40
0.0
  9
$LIMCHECK
 70
     0
  9
$CHAMFERA
 40
0.0
  9
$CHAMFERB
 40
0.0
  9
$CHAMFERC
 40
20.0
  9
$CHAMFERD
 40
0.0
  9
$SKPOLY
 70
     0
  9
$TDCREATE
 40
2453557.744143519
  9
$TDUCREATE
 40
2453557.369153102
  9
$TDUPDATE
 40
2460164.371377315
  9
$TDUUPDATE
 40
2460163.996377315
  9
$TDINDWG
 40
0.2801024306
  9
$TDUSRTIMER
 40
0.2801024306
  9
$USRTIMER
 70
     1
  9
$ANGBASE
 50
0.0
  9
$ANGDIR
 70
     0
  9
$PDMODE
 70
     0
  9
$PDSIZE
 40
-10.0
  9
$PLINEWID
 40
0.0
  9
$SPLFRAME
 70
     0
  9
$SPLINETYPE
 70
     6
  9
$SPLINESEGS
 70
     8
  9
$HANDSEED
  5
424F
  9
$SURFTAB1
 70
     6
  9
$SURFTAB2
 70
     6
  9
$SURFTYPE
 70
     6
  9
$SURFU
 70
     6
  9
$SURFV
 70
     6
  9
$UCSBASE
  2

  9
$UCSNAME
  2

  9
$UCSORG
 10
0.0
 20
0.0
 30
0.0
  9
$UCSXDIR
 10
1.0
 20
0.0
 30
0.0
  9
$UCSYDIR
 10
0.0
 20
1.0
 30
0.0
  9
$UCSORTHOREF
  2

  9
$UCSORTHOVIEW
 70
     0
  9
$UCSORGTOP
 10
0.0
 20
0.0
 30
0.0
  9
$UCSORGBOTTOM
 10
0.0
 20
0.0
 30
0.0
  9
$UCSORGLEFT
 10
0.0
 20
0.0
 30
0.0
  9
$UCSORGRIGHT
 10
0.0
 20
0.0
 30
0.0
  9
$UCSORGFRONT
 10
0.0
 20
0.0
 30
0.0
  9
$UCSORGBACK
 10
0.0
 20
0.0
 30
0.0
  9
$PUCSBASE
  2

  9
$PUCSNAME
  2

  9
$PUCSORG
 10
0.0
 20
0.0
 30
0.0
  9
$PUCSXDIR
 10
1.0
 20
0.0
 30
0.0
  9
$PUCSYDIR
 10
0.0
 20
1.0
 30
0.0
  9
$PUCSORTHOREF
  2

  9
$PUCSORTHOVIEW
 70
     0
  9
$PUCSORGTOP
 10
0.0
 20
0.0
 30
0.0
  9
$PUCSORGBOTTOM
 10
0.0
 20
0.0
 30
0.0
  9
$PUCSORGLEFT
 10
0.0
 20
0.0
 30
0.0
  9
$PUCSORGRIGHT
 10
0.0
 20
0.0
 30
0.0
  9
$PUCSORGFRONT
 10
0.0
 20
0.0
 30
0.0
  9
$PUCSORGBACK
 10
0.0
 20
0.0
 30
0.0
  9
$USERI1
 70
     0
  9
$USERI2
 70
     0
  9
$USERI3
 70
     0
  9
$USERI4
 70
     0
  9
$USERI5
 70
     0
  9
$USERR1
 40
0.0
  9
$USERR2
 40
0.0
  9
$USERR3
 40
0.0
  9
$USERR4
 40
0.0
  9
$USERR5
 40
0.0
  9
$WORLDVIEW
 70
     1
  9
$SHADEDGE
 70
     3
  9
$SHADEDIF
 70
    70
  9
$TILEMODE
 70
     1
  9
$MAXACTVP
 70
    48
  9
$PINSBASE
 10
0.0
 20
0.0
 30
0.0
  9
$PLIMCHECK
 70
     0
  9
$PEXTMIN
 10
0.0
 20
0.0
 30
0.0
  9
$PEXTMAX
 10
0.0
 20
0.0
 30
0.0
  9
$PLIMMIN
 10
0.0
 20
0.0
  9
$PLIMMAX
 10
12.0
 20
9.0
  9
$UNITMODE
 70
     0
  9
$VISRETAIN
 70
     1
  9
$PLINEGEN
 70
     0
  9
$PSLTSCALE
 70
     1
  9
$TREEDEPTH
 70
  3020
  9
$CMLSTYLE
  2
STANDARD
  9
$CMLJUST
 70
     0
  9
$CMLSCALE
 40
1.0
  9
$PROXYGRAPHICS
 70
     1
  9
$MEASUREMENT
 70
     0
  9
$CELWEIGHT
370
    -1
  9
$ENDCAPS
280
     0
  9
$JOINSTYLE
280
     0
  9
$LWDISPLAY
290
     0
  9
$INSUNITS
 70
     0
  9
$HYPERLINKBASE
  1

  9
$STYLESHEET
  1
SEKKEI.CTB
  9
$XEDIT
290
     1
  9
$CEPSNTYPE
380
     0
  9
$PSTYLEMODE
290
     1
  9
$FINGERPRINTGUID
  2
{6385560B-F4B1-4644-A7C2-A3E32AC3D232}
  9
$VERSIONGUID
  2
{CD4DB4F2-6A59-7B47-80AA-ED74529E35A2}
  9
$EXTNAMES
290
     1
  9
$PSVPSCALE
 40
0.0
  9
$OLESTARTUP
290
     0
  0
ENDSEC
  0
SECTION
  2
CLASSES
  0
CLASS
  1
DICTIONARYVAR
  2
AcDbDictionaryVar
  3
ObjectDBX Classes
 90
        0
280
     0
281
     0
  0
CLASS
  1
ACDBDICTIONARYWDFLT
  2
AcDbDictionaryWithDefault
  3
ObjectDBX Classes
 90
        0
280
     0
281
     0
  0
CLASS
  1
MATERIAL
  2
AcDbMaterial
  3
ObjectDBX Classes
 90
     1153
280
     0
281
     0
  0
CLASS
  1
VISUALSTYLE
  2
AcDbVisualStyle
  3
ObjectDBX Classes
 90
     4095
280
     0
281
     0
  0
CLASS
  1
TABLESTYLE
  2
AcDbTableStyle
  3
ObjectDBX Classes
 90
     4095
280
     0
281
     0
  0
CLASS
  1
SCALE
  2
AcDbScale
  3
ObjectDBX Classes
 90
     1153
280
     0
281
     0
  0
CLASS
  1
MLEADERSTYLE
  2
AcDbMLeaderStyle
  3
ACDB_MLEADERSTYLE_CLASS
 90
     4095
280
     0
281
     0
  0
CLASS
  1
CELLSTYLEMAP
  2
AcDbCellStyleMap
  3
ObjectDBX Classes
 90
     1152
280
     0
281
     0
  0
CLASS
  1
SORTENTSTABLE
  2
AcDbSortentsTable
  3
ObjectDBX Classes
 90
        0
280
     0
281
     0
  0
CLASS
  1
ACAD_EVALUATION_GRAPH
  2
AcDbEvalGraph
  3
ObjectDBX Classes
 90
    33921
280
     0
281
     0
  0
CLASS
  1
ACAECUSTOBJ
  2
AcAeEditorObj
  3
AcAeEditorObj
 90
    33792
280
     0
281
     0
  0
CLASS
  1
ACDB_DYNAMICBLOCKPURGEPREVENTER_VERSION
  2
AcDbDynamicBlockPurgePreventer
  3
ObjectDBX Classes
 90
    33921
280
     0
281
     0
  0
CLASS
  1
ACDBSECTIONVIEWSTYLE
  2
AcDbSectionViewStyle
  3
ObjectDBX Classes
 90
     1025
280
     0
281
     0
  0
CLASS
  1
ACDBDETAILVIEWSTYLE
  2
AcDbDetailViewStyle
  3
ObjectDBX Classes
 90
     1025
280
     0
281
     0
  0
CLASS
  1
ACDBPLACEHOLDER
  2
AcDbPlaceHolder
  3
ObjectDBX Classes
 90
        0
280
     0
281
     0
  0
CLASS
  1
LAYOUT
  2
AcDbLayout
  3
ObjectDBX Classes
 90
        0
280
     0
281
     0
  0
ENDSEC
  0
SECTION
  2
TABLES
  0
TABLE
  2
VPORT
  5
6E
102
{ACAD_XDICTIONARY
360
1F33
102
}
330
0
100
AcDbSymbolTable
 70
     1
  0
VPORT
  5
1EB7
330
6E
100
AcDbSymbolTableRecord
100
AcDbViewportTableRecord
  2
*Active
 70
     0
 10
0.0
 20
0.0
 11
1.0
 21
1.0
 12
629.5305361
 22
227.9720473158
 13
0.0
 23
0.0
 14
10.0
 24
10.0
 15
10.0
 25
10.0
 16
0.0
 26
0.0
 36
1.0
 17
0.0
 27
0.0
 37
0.0
 40
536.684843807
 41
1.4710526316
 42
50.0
 43
0.0
 44
0.0
 50
0.0
 51
0.0
 71
     0
 72
   100
 73
     1
 74
     3
 75
     0
 76
     0
 77
     0
 78
     0
281
     0
 65
     1
110
0.0
120
0.0
130
0.0
111
1.0
121
0.0
131
0.0
112
0.0
122
1.0
132
0.0
 79
     0
146
0.0
1001
ACAD_NAV_VCDISPLAY
1070
     3
  0
ENDTAB
  0
TABLE
  2
LTYPE
  5
69
330
0
100
AcDbSymbolTable
 70
     7
  0
LTYPE
  5
6A
330
69
100
AcDbSymbolTableRecord
100
AcDbLinetypeTableRecord
  2
BYBLOCK
 70
     0
  3

 72
    65
 73
     0
 40
0.0
  0
LTYPE
  5
6B
330
69
100
AcDbSymbolTableRecord
100
AcDbLinetypeTableRecord
  2
BYLAYER
 70
     0
  3

 72
    65
 73
     0
 40
0.0
  0
LTYPE
  5
8
330
69
100
AcDbSymbolTableRecord
100
AcDbLinetypeTableRecord
  2
CONTINUOUS
 70
     0
  3
Solid line
 72
    65
 73
     0
 40
0.0
  0
LTYPE
  5
27C
330
69
100
AcDbSymbolTableRecord
100
AcDbLinetypeTableRecord
  2
sekkei(A2)
 70
     0
  3
center(A2)  ____ _ ____ _ ____ _ ____ _ ____ _ 
 72
    65
 73
     4
 40
14.2875
 49
9.525
 74
     0
 49
-1.5875
 74
     0
 49
1.5875
 74
     0
 49
-1.5875
 74
     0
  0
LTYPE
  5
2B4
330
69
100
AcDbSymbolTableRecord
100
AcDbLinetypeTableRecord
  2
HIDDEN2
 70
     0
  3
Hidden (.5x) _ _ _ _ _ _ _ _ _ _ _ _ _ _ _ _ _
 72
    65
 73
     2
 40
4.7625
 49
3.175
 74
     0
 49
-1.5875
 74
     0
  0
LTYPE
  5
477
330
69
100
AcDbSymbolTableRecord
100
AcDbLinetypeTableRecord
  2
sekkei-P(A4)
 70
     0
  3
Phantom(A4)  ____ _ _ ____ _ _ ____ _ _ _____
 72
    65
 73
     6
 40
15.0
 49
7.5
 74
     0
 49
-1.5
 74
     0
 49
1.5
 74
     0
 49
-1.5
 74
     0
 49
1.5
 74
     0
 49
-1.5
 74
     0
  0
LTYPE
  5
48F
330
69
100
AcDbSymbolTableRecord
100
AcDbLinetypeTableRecord
  2
sekkei_H
 70
     0
  3
Hidden-S _ _ _ _ _ _ _ _ _ _ _ _ _ _ _ _ _
 72
    65
 73
     2
 40
2.38125
 49
1.5875
 74
     0
 49
-0.79375
 74
     0
  0
LTYPE
  5
494
330
69
100
AcDbSymbolTableRecord
100
AcDbLinetypeTableRecord
  2
sekkei_P_S
 70
     0
  3
Phantom_S   __ _ _ __ _ _ __ _ _ ___
 72
    65
 73
     6
 40
7.5
 49
3.75
 74
     0
 49
-0.75
 74
     0
 49
0.75
 74
     0
 49
-0.75
 74
     0
 49
0.75
 74
     0
 49
-0.75
 74
     0
  0
LTYPE
  5
24F1
330
69
100
AcDbSymbolTableRecord
100
AcDbLinetypeTableRecord
  2
CENS
 70
     0
  3
(一点鎖線１)---- - ---- - ---- - ---- - ---- - 
 72
    65
 73
     4
 40
13.0
 49
10.0
 74
     0
 49
-1.0
 74
     0
 49
1.0
 74
     0
 49
-1.0
 74
     0
  0
ENDTAB
  0
TABLE
  2
LAYER
  5
66
102
{ACAD_XDICTIONARY
360
1F75
102
}
330
0
100
AcDbSymbolTable
 70
    10
  0
LAYER
  5
5E
102
{ACAD_XDICTIONARY
360
1F16
102
}
330
66
100
AcDbSymbolTableRecord
100
AcDbLayerTableRecord
  2
0
 70
     0
 62
     7
  6
CONTINUOUS
370
    -3
390
5
  0
LAYER
  5
3E
102
{ACAD_XDICTIONARY
360
1F18
102
}
330
66
100
AcDbSymbolTableRecord
100
AcDbLayerTableRecord
  2
CENTER
 70
     0
 62
     3
  6
sekkei(A2)
370
    -3
390
5
  0
LAYER
  5
135
330
66
100
AcDbSymbolTableRecord
100
AcDbLayerTableRecord
  2
DEFPOINTS
 70
     0
 62
     7
  6
CONTINUOUS
290
     0
370
    -3
390
5
  0
LAYER
  5
2B5
102
{ACAD_XDICTIONARY
360
1F1E
102
}
330
66
100
AcDbSymbolTableRecord
100
AcDbLayerTableRecord
  2
HIDS
 70
     0
 62
     1
  6
HIDDEN2
370
    -3
390
5
  0
LAYER
  5
2BA
102
{ACAD_XDICTIONARY
360
1F20
102
}
330
66
100
AcDbSymbolTableRecord
100
AcDbLayerTableRecord
  2
HOJO
 70
     0
 62
     4
  6
CONTINUOUS
370
    -3
390
5
  0
LAYER
  5
478
102
{ACAD_XDICTIONARY
360
1F26
102
}
330
66
100
AcDbSymbolTableRecord
100
AcDbLayerTableRecord
  2
PHAS
 70
     0
 62
     2
  6
sekkei-P(A4)
370
    -3
390
5
  0
LAYER
  5
1F72
330
66
100
AcDbSymbolTableRecord
100
AcDbLayerTableRecord
  2
TITLE_C
 70
     0
 62
     4
  6
CONTINUOUS
370
    -3
390
5
1001
AcAecLayerStandard
1000

1000

  0
ENDTAB
  0
TABLE
  2
STYLE
  5
67
330
0
100
AcDbSymbolTable
 70
     1
  0
STYLE
  5
16
330
67
100
AcDbSymbolTableRecord
100
AcDbTextStyleTableRecord
  2
STANDARD
 70
     0
 40
0.0
 41
1.0
 50
0.0
 71
     0
 42
2.0
  3
simplex.shx
  4
extfont.shx
  0
ENDTAB
  0
TABLE
  2
VIEW
  5
6C
330
0
100
AcDbSymbolTable
 70
     0
  0
ENDTAB
  0
TABLE
  2
UCS
  5
6D
330
0
100
AcDbSymbolTable
 70
     0
  0
ENDTAB
  0
TABLE
  2
APPID
  5
70
330
0
100
AcDbSymbolTable
 70
    15
  0
APPID
  5
71
330
70
100
AcDbSymbolTableRecord
100
AcDbRegAppTableRecord
  2
ACAD
 70
     0
  0
APPID
  5
1F0A
330
70
100
AcDbSymbolTableRecord
100
AcDbRegAppTableRecord
  2
ACAD_MLEADERVER
 70
     0
  0
APPID
  5
1F74
330
70
100
AcDbSymbolTableRecord
100
AcDbRegAppTableRecord
  2
AcAecLayerStandard
 70
     0
  0
APPID
  5
1F8B
330
70
100
AcDbSymbolTableRecord
100
AcDbRegAppTableRecord
  2
ACAD_EXEMPT_FROM_CAD_STANDARDS
 70
     0
  0
APPID
  5
2724
330
70
100
AcDbSymbolTableRecord
100
AcDbRegAppTableRecord
  2
AcadAnnoAV
 70
     0
  0
APPID
  5
274A
330
70
100
AcDbSymbolTableRecord
100
AcDbRegAppTableRecord
  2
ACAUTHENVIRON
 70
     0
  0
APPID
  5
274E
330
70
100
AcDbSymbolTableRecord
100
AcDbRegAppTableRecord
  2
AcDbDynamicBlockTrueName
 70
     0
  0
APPID
  5
274F
330
70
100
AcDbSymbolTableRecord
100
AcDbRegAppTableRecord
  2
AcDbDynamicBlockGUID
 70
     0
  0
APPID
  5
2751
330
70
100
AcDbSymbolTableRecord
100
AcDbRegAppTableRecord
  2
AcDbBlockRepETag
 70
     0
  0
APPID
  5
2E2D
330
70
100
AcDbSymbolTableRecord
100
AcDbRegAppTableRecord
  2
ACAD_NAV_VCDISPLAY
 70
     0
  0
APPID
  5
342A
330
70
100
AcDbSymbolTableRecord
100
AcDbRegAppTableRecord
  2
ACAD_PSEXT
 70
     0
  0
APPID
  5
342B
330
70
100
AcDbSymbolTableRecord
100
AcDbRegAppTableRecord
  2
ACAD_DSTYLE_DIMJAG
 70
     0
  0
APPID
  5
342C
330
70
100
AcDbSymbolTableRecord
100
AcDbRegAppTableRecord
  2
ACAD_DSTYLE_DIMTALN
 70
     0
  0
APPID
  5
342D
330
70
100
AcDbSymbolTableRecord
100
AcDbRegAppTableRecord
  2
ACAD_DSTYLE_DIMBREAK
 70
     0
  0
APPID
  5
3503
330
70
100
AcDbSymbolTableRecord
100
AcDbRegAppTableRecord
  2
AcCmTransparency
 70
     0
  0
ENDTAB
  0
TABLE
  2
DIMSTYLE
  5
72
330
0
100
AcDbSymbolTable
 70
     1
100
AcDbDimStyleTable
 71
     1
340
73
  0
DIMSTYLE
105
73
330
72
100
AcDbSymbolTableRecord
100
AcDbDimStyleTableRecord
  2
STANDARD
 70
     0
 40
3.0
 41
1.8
 42
0.625
 43
3.75
 44
0.8
 73
     0
 74
     0
 77
     1
 78
     8
140
1.8
141
2.5
143
0.0394
147
0.75
171
     4
172
     1
179
     2
271
     2
272
     2
273
     8
274
     4
277
     6
340
16
  0
ENDTAB
  0
TABLE
  2
BLOCK_RECORD
  5
1
330
0
100
AcDbSymbolTable
 70
    75
  0
BLOCK_RECORD
  5
2
102
{ACAD_XDICTIONARY
360
262E
102
}
330
1
100
AcDbSymbolTableRecord
100
AcDbBlockTableRecord
  2
*MODEL_SPACE
340
60
  0
BLOCK_RECORD
  5
41D2
330
1
100
AcDbSymbolTableRecord
100
AcDbBlockTableRecord
  2
*Paper_Space
340
41D3
  0
BLOCK_RECORD
  5
4AC
330
1
100
AcDbSymbolTableRecord
100
AcDbBlockTableRecord
  2
黒丸矢印1
340
0
  0
BLOCK_RECORD
  5
2AD7
330
1
100
AcDbSymbolTableRecord
100
AcDbBlockTableRecord
  2
ファンカバ－_F2S-15_M
340
0
310
28000000200000002000000001002000000000000010000001000000010000000000000000000000000000FF000000FF000000FF000000FF000000FF000000FF000000FF000000FF000000FF000000FF000000FF000000FF000000FF000000FF000000FF000000FF000000FF000000FF000000FF000000FF000000FF000000
310
FF000000FF000000FF000000FF000000FF000000FF000000FF000000FF000000FF000000FF000000FF000000FF000000FF000000FF000000FF000000FF000000FF000000FF0000FFFF0000FFFF0000FFFF0000FFFF0000FFFF0000FFFF0000FFFF0000FFFF0000FFFF0000FFFF0000FFFF0000FFFF0000FFFF0000FFFF0000
310
FFFF0000FFFF0000FFFF0000FFFF000000FF000000FF000000FF000000FF000000FF000000FF000000FF000000FF000000FF000000FF000000FF000000FF000000FF0000FFFF0000FFFF000000FF000000FF000000FF000000FF000000FF000000FF000000FF000000FF000000FF000000FF000000FF000000FF000000FF00
310
0000FF000000FF000000FF0000FFFF0000FFFF000000FF000000FF000000FF000000FF000000FF000000FF000000FF000000FF000000FF000000FF000000FF0000FFFF000000FF000000FF000000FF000000FF000000FF000000FF000000FF000000FF000000FF000000FF000000FF000000FF000000FF000000FF000000FF
310
000000FF000000FF000000FF000000FF000000FF0000FFFF000000FF000000FF000000FF000000FF000000FF000000FF000000FF000000FF000000FF0000FFFF000000FF000000FF000000FF000000FF000000FF000000FF000000FF000000FF000000FF000000FF000000FF000000FF000000FF000000FF000000FF000000
310
FF000000FF000000FF000000FF000000FF000000FF000000FF0000FFFF000000FF000000FF000000FF000000FF000000FF000000FF000000FF0000FFFF000000FF000000FF000000FF000000FF000000FF000000FF000000FF000000FF000000FF000000FF000000FF000000FF000000FF000000FF000000FF000000FF0000
310
00FF000000FF000000FF000000FF000000FF000000FF000000FF000000FF0000FFFF000000FF000000FF000000FF000000FF000000FF0000FFFF000000FF000000FF000000FF000000FF000000FF000000FF000000FF000000FF000000FF000000FF000000FF000000FF000000FF000000FF000000FF000000FF000000FF00
310
0000FF000000FF000000FF000000FF000000FF000000FF000000FF000000FF000000FF0000FFFF000000FF000000FF000000FF0000FFFF0000FFFF000000FF000000FF000000FF000000FF000000FF000000FF000000FF000000FF000000FF000000FF000000FF000000FF000000FF000000FF000000FF000000FF000000FF
310
000000FF000000FF000000FF000000FF000000FF000000FF000000FF000000FF000000FF0000FFFF0000FFFF000000FF000000FF0000FFFF000000FF000000FF000000FF000000FF000000FF000000FF000000FF000000FF000000FF000000FF000000FF000000FF000000FF000000FF000000FF000000FF000000FF000000
310
FF000000FF000000FF000000FF000000FF000000FF000000FF000000FF000000FF000000FF000000FF0000FFFF000000FF000000FF0000FFFF000000FF000000FF000000FF000000FF000000FF000000FF000000FF000000FF000000FF000000FF000000FF000000FF000000FF000000FF000000FF000000FF000000FF0000
310
00FF000000FF000000FF000000FF000000FF000000FF000000FF000000FF000000FF000000FF000000FF0000FFFF000000FF000000FF0000FFFF000000FF000000FF000000FF000000FF000000FF000000FF000000FF000000FF000000FF000000FF000000FF000000FF000000FF000000FF000000FF000000FF000000FF00
310
0000FF000000FF000000FF000000FF000000FF000000FF000000FF000000FF000000FF000000FF000000FF0000FFFF000000FF000000FF0000FFFF000000FF000000FF000000FF000000FF000000FF000000FF000000FF000000FF000000FF000000FF000000FF000000FF000000FF000000FF000000FF000000FF000000FF
310
000000FF000000FF000000FF000000FF000000FF000000FF000000FF000000FF000000FF000000FF000000FF0000FFFF000000FF000000FF0000FFFF000000FF000000FF000000FF000000FF000000FF000000FF000000FF000000FF000000FF000000FF000000FF000000FF000000FF000000FF000000FF000000FF000000
310
FF000000FF000000FF000000FF000000FF000000FF000000FF000000FF000000FF000000FF000000FF000000FF0000FFFF000000FF000000FF0000FFFF000000FF000000FF000000FF000000FF000000FF000000FF000000FF000000FF000000FF000000FF000000FF000000FF000000FF000000FF000000FF000000FF0000
310
00FF000000FF000000FF000000FF000000FF000000FF000000FF000000FF000000FF000000FF000000FF000000FF0000FFFF000000FF000000FF0000FFFF000000FF000000FF000000FF000000FF000000FF000000FF000000FF000000FF000000FF000000FF000000FF000000FF000000FF000000FF000000FF000000FF00
310
0000FF000000FF000000FF000000FF000000FF000000FF000000FF000000FF000000FF000000FF000000FF000000FF0000FFFF000000FF000000FF0000FFFF000000FF000000FF000000FF000000FF000000FF000000FF000000FF000000FF000000FF000000FF000000FF000000FF000000FF000000FF000000FF000000FF
310
000000FF000000FF000000FF000000FF000000FF000000FF000000FF000000FF000000FF000000FF000000FF000000FF0000FFFF000000FF000000FF0000FFFF000000FF000000FF000000FF000000FF000000FF000000FF000000FF000000FF000000FF000000FF000000FF000000FF000000FF000000FF000000FF000000
310
FF000000FF000000FF000000FF000000FF000000FF000000FF000000FF000000FF000000FF000000FF000000FF000000FF0000FFFF000000FF000000FF0000FFFF000000FF000000FF000000FF000000FF000000FF000000FF000000FF000000FF000000FF000000FF000000FF000000FF000000FF000000FF000000FF0000
310
00FF000000FF000000FF000000FF000000FF000000FF000000FF000000FF000000FF000000FF000000FF000000FF000000FF0000FFFF000000FF000000FF0000FFFF000000FF000000FF000000FF000000FF000000FF000000FF000000FF000000FF000000FF000000FF000000FF000000FF000000FF000000FF000000FF00
310
0000FF000000FF000000FF000000FF000000FF000000FF000000FF000000FF000000FF000000FF000000FF000000FF000000FF0000FFFF000000FF000000FF0000FFFF000000FF000000FF000000FF000000FF000000FF000000FF000000FF000000FF000000FF000000FF000000FF000000FF000000FF000000FF000000FF
310
000000FF000000FF000000FF000000FF000000FF000000FF000000FF000000FF000000FF000000FF000000FF000000FF000000FF0000FFFF000000FF000000FF0000FFFF000000FF000000FF000000FF000000FF000000FF000000FF000000FF000000FF000000FF000000FF000000FF000000FF000000FF000000FF000000
310
FF000000FF000000FF000000FF000000FF000000FF000000FF000000FF000000FF000000FF000000FF000000FF000000FF000000FF0000FFFF000000FF000000FF0000FFFF000000FF000000FF000000FF000000FF000000FF000000FF000000FF000000FF000000FF000000FF000000FF000000FF000000FF000000FF0000
310
00FF000000FF000000FF000000FF000000FF000000FF000000FF000000FF000000FF000000FF000000FF000000FF000000FF000000FF0000FFFF000000FF000000FF0000FFFF000000FF000000FF000000FF000000FF000000FF000000FF000000FF000000FF000000FF000000FF000000FF000000FF000000FF000000FF00
310
0000FF000000FF000000FF000000FF000000FF000000FF000000FF000000FF000000FF000000FF000000FF000000FF000000FF000000FF0000FFFF000000FF000000FF0000FFFF000000FF000000FF000000FF000000FF000000FF000000FF000000FF000000FF000000FF000000FF000000FF000000FF000000FF000000FF
310
000000FF000000FF000000FF000000FF000000FF000000FF000000FF000000FF000000FF000000FF000000FF000000FF000000FF000000FF0000FFFF000000FF000000FF0000FFFF0000FFFF000000FF000000FF000000FF000000FF000000FF000000FF000000FF000000FF000000FF000000FF000000FF000000FF000000
310
FF000000FF000000FF000000FF000000FF000000FF000000FF000000FF000000FF000000FF000000FF000000FF000000FF000000FF0000FFFF0000FFFF000000FF000000FF000000FF0000FFFF000000FF000000FF000000FF000000FF000000FF000000FF000000FF000000FF000000FF000000FF000000FF000000FF0000
310
00FF000000FF000000FF000000FF000000FF000000FF000000FF000000FF000000FF000000FF000000FF000000FF000000FF000000FF0000FFFF000000FF000000FF000000FF000000FF000000FF0000FFFF000000FF000000FF000000FF000000FF000000FF000000FF000000FF000000FF000000FF000000FF000000FF00
310
0000FF000000FF000000FF000000FF000000FF000000FF000000FF000000FF000000FF000000FF000000FF000000FF000000FF0000FFFF000000FF000000FF000000FF000000FF000000FF000000FF000000FF0000FFFF000000FF000000FF000000FF000000FF000000FF000000FF000000FF000000FF000000FF000000FF
310
000000FF000000FF000000FF000000FF000000FF000000FF000000FF000000FF000000FF000000FF000000FF000000FF0000FFFF000000FF000000FF000000FF000000FF000000FF000000FF000000FF000000FF000000FF0000FFFF000000FF000000FF000000FF000000FF000000FF000000FF000000FF000000FF000000
310
FF000000FF000000FF000000FF000000FF000000FF000000FF000000FF000000FF000000FF000000FF000000FF0000FFFF000000FF000000FF000000FF000000FF000000FF000000FF000000FF000000FF000000FF000000FF000000FF0000FFFF0000FFFF000000FF000000FF000000FF000000FF000000FF000000FF0000
310
00FF000000FF000000FF000000FF000000FF000000FF000000FF000000FF000000FF000000FF0000FFFF0000FFFF000000FF000000FF000000FF000000FF000000FF000000FF000000FF000000FF000000FF000000FF000000FF000000FF000000FF0000FFFF0000FFFF0000FFFF0000FFFF0000FFFF0000FFFF0000FFFF00
310
00FFFF0000FFFF0000FFFF0000FFFF0000FFFF0000FFFF0000FFFF0000FFFF0000FFFF0000FFFF0000FFFF000000FF000000FF000000FF000000FF000000FF000000FF000000FF000000FF000000FF000000FF000000FF000000FF000000FF000000FF000000FF000000FF000000FF000000FF000000FF000000FF000000FF
310
000000FF000000FF000000FF000000FF000000FF000000FF000000FF000000FF000000FF000000FF000000FF000000FF000000FF000000FF000000FF000000FF000000FF000000FF
  0
BLOCK_RECORD
  5
2B45
330
1
100
AcDbSymbolTableRecord
100
AcDbBlockTableRecord
  2
F2S-15_0006
340
0
310
28000000200000002000000001002000000000000010000001000000010000000000000000000000000000FF000000FF000000FF000000FF000000FF000000FF000000FF000000FF000000FF000000FF000000FF000000FF000000FF000000FF000000FF000000FF000000FF000000FF000000FF000000FF000000FF000000
310
FF000000FF000000FF000000FF000000FF000000FF000000FF000000FF000000FF000000FF000000FF000000FF000000FF000000FF000000FF000000FF000000FF000000FF000000FF000000FF000000FF000000FF000000FF000000FF000000FF000000FF000000FF000000FF000000FF000000FF000000FF000000FF0000
310
00FF000000FF000000FF000000FF000000FF000000FF000000FF000000FF000000FF000000FF000000FF000000FF000000FF000000FF000000FF000000FF000000FF000000FF000000FF000000FF000000FF000000FF000000FF000000FF000000FF000000FF000000FF000000FF000000FF000000FF000000FF000000FF00
310
0000FF000000FF000000FF000000FF000000FF000000FF000000FF000000FF000000FF000000FF000000FF000000FF000000FF000000FF000000FF000000FF000000FF000000FF000000FF000000FF000000FF000000FF000000FF000000FF000000FF000000FF000000FF000000FF000000FF000000FF000000FF000000FF
310
000000FF000000FF000000FF000000FF000000FF000000FF000000FF000000FF000000FF000000FF000000FF000000FF000000FF000000FF000000FFFFFFFFFFFFFFFFFFFFFFFFFFFFFFFFFFFFFFFFFFFFFFFFFFFFFFFFFFFFFFFFFFFFFFFFFFFFFFFFFFFFFFFFFFFFFFFFFFFFFFFFFFFFFFFFFFFFFFFFFFFFFFFFFFFFFFFF
310
FFFFFFFFFFFFFFFFFFFFFFFFFFFFFFFFFFFFFFFFFFFFFFFFFFFFFFFFFF000000FF000000FF000000FF000000FF000000FF000000FF000000FF000000FFFFFFFFFF000000FF000000FFFFFFFFFF000000FF000000FF000000FF000000FF000000FF000000FF000000FF000000FF000000FF000000FF000000FF000000FF0000
310
00FF000000FF000000FF000000FF000000FF000000FF000000FFFFFFFFFF000000FF000000FF000000FF000000FF000000FF000000FF000000FF000000FFFFFFFFFF000000FF000000FFFFFFFFFF000000FF000000FF000000FF000000FF000000FF000000FF000000FF000000FF000000FF000000FF000000FF000000FF00
310
0000FF000000FF000000FF000000FF000000FF000000FF000000FFFFFFFFFF000000FF000000FF000000FF000000FF000000FF000000FF000000FF000000FFFFFFFFFF000000FF000000FFFFFFFFFF000000FF000000FF000000FF000000FF000000FF000000FF000000FF000000FF000000FF000000FF000000FF000000FF
310
000000FF000000FF000000FF000000FF000000FF000000FF000000FFFFFFFFFF000000FF000000FF000000FF000000FF000000FF000000FF000000FF000000FFFFFFFFFFFFFFFFFFFFFFFFFFFFFFFFFF000000FF000000FF000000FF000000FF000000FF000000FF000000FF000000FF000000FF000000FF000000FF000000
310
FF000000FF000000FF000000FF000000FF000000FF000000FF000000FFFFFFFFFF000000FF000000FF000000FF000000FF000000FF000000FF000000FF000000FFFFFF00FFFFFF00FFFFFF00FFFFFFFFFF000000FF000000FF000000FF000000FF000000FF000000FF000000FF000000FF000000FF000000FF000000FF0000
310
00FF000000FF000000FF000000FF000000FFFFFF00FFFFFF00FFFFFF00FFFFFF00FF000000FF000000FF000000FF000000FF000000FF000000FF000000FF000000FFFFFFFFFFFFFFFFFFFFFFFFFFFFFF00FF000000FF000000FF000000FF000000FF000000FF000000FF000000FF000000FF000000FF000000FF000000FF00
310
0000FF000000FF000000FF000000FF000000FFFFFF00FFFFFFFFFFFFFFFFFFFFFFFFFF000000FF000000FF000000FF000000FF000000FF000000FF000000FF000000FFFFFFFFFF00FFFFFFFFFFFFFFFFFF00FFFFFF00FFFFFFFFFFFFFFFFFFFFFFFFFFFFFFFFFFFFFFFFFFFFFFFFFF000000FF000000FFFFFFFFFFFFFFFFFF
310
FFFFFFFFFFFFFFFFFFFFFFFFFFFFFFFFFFFF00FFFFFF00FFFFFFFFFFFFFFFFFFFFFFFFFF000000FF000000FF000000FF000000FF000000FF00FFFFFF00FFFFFF00FFFFFFFFFFFFFFFFFFFFFFFFFFFFFFFFFFFFFFFFFF00FFFFFF00FFFFFFFFFFFFFFFFFFFFFFFFFFFFFFFFFFFFFFFFFF000000FF000000FFFFFFFFFFFFFFFF
310
FFFFFFFFFFFFFFFFFFFFFFFFFFFFFF00FFFFFFFFFFFFFFFFFFFFFFFFFFFFFFFFFFFFFFFFFF00FFFFFF00FFFFFF00FFFFFF000000FF000000FF00FFFFFF000000FF000000FFFFFFFFFFFFFFFFFFFFFFFFFFFFFFFFFFFFFFFFFFFFFFFFFFFFFF00FFFFFF00FFFFFF00FFFFFF00FFFFFF00FFFFFF00FFFFFF00FFFFFF00FFFFFF
310
00FFFFFF00FFFFFF00FFFFFF00FFFFFFFFFFFFFFFFFFFFFFFFFFFFFFFFFFFFFFFFFFFFFFFFFF000000FF000000FF00FFFFFF000000FF000000FF00FFFFFF000000FF000000FFFFFFFFFFFFFFFFFFFFFFFFFFFFFFFFFFFFFFFFFFFFFFFFFFFFFFFFFFFFFFFFFFFFFFFFFFFFFFFFFFFFFFFFFFFFFFFFFFFFFFFFFFFFFFFFFFFF
310
FFFFFFFFFFFFFFFFFFFFFFFFFFFFFFFFFFFFFFFFFFFFFFFFFFFFFFFFFFFFFFFFFFFFFFFFFFFFFF000000FF000000FF00FFFFFF000000FF000000FF00FFFFFF000000FF000000FFFFFFFFFFFFFFFFFFFFFFFFFFFFFFFFFF000000FF000000FFFFFFFFFF000000FF000000FF000000FF000000FF00FF00FF00FF00FF000000FF
310
000000FF000000FF000000FFFFFFFFFF000000FF000000FFFFFFFFFFFFFFFFFFFFFFFFFFFFFFFFFF000000FF000000FF00FFFFFF000000FF000000FF00FFFFFF000000FF000000FFFFFFFFFFFFFFFFFFFFFFFFFFFFFFFFFF000000FF000000FFFFFFFFFF000000FF000000FF000000FF000000FF00FF00FF000000FF000000
310
FF000000FF000000FF000000FFFFFFFFFF000000FF000000FFFFFFFFFFFFFFFFFFFFFFFFFFFFFFFFFF000000FF000000FF00FFFFFF000000FF000000FF00FFFFFF000000FF000000FFFFFFFFFFFFFFFFFFFFFFFFFFFFFFFFFFFFFFFFFFFFFFFFFFFFFFFFFFFFFFFFFFFFFFFFFFFFFFFFFFFFFFFFFFFFFFFFFFFFFFFFFFFFFF
310
FFFFFFFFFFFFFFFFFFFFFFFFFFFFFFFFFFFFFFFFFFFFFFFFFFFFFFFFFFFFFFFFFFFFFFFFFFFFFFFFFFFF000000FF000000FF00FFFFFF000000FF000000FF00FFFFFF000000FF000000FFFFFFFFFFFFFFFFFFFFFFFFFFFFFFFFFFFFFFFFFFFFFF00FFFFFF00FFFFFF00FFFFFF00FFFFFF00FFFFFF00FFFFFF00FFFFFF00FFFF
310
FF00FFFFFF00FFFFFF00FFFFFF00FFFFFF00FFFFFFFFFFFFFFFFFFFFFFFFFFFFFFFFFFFFFFFFFFFFFFFFFF000000FF000000FF00FFFFFF000000FF000000FF00FFFFFF00FFFFFF00FFFFFFFFFFFFFFFFFFFFFFFFFFFFFFFFFFFFFFFFFF00FFFFFFFFFFFFFFFFFFFFFFFFFFFFFFFFFFFFFFFFFFFFFFFFFF000000FF000000FF
310
FFFFFFFFFFFFFFFFFFFFFFFFFFFFFFFFFFFFFFFFFFFF00FFFFFFFFFFFFFFFFFFFFFFFFFFFFFFFFFFFFFFFFFF00FFFFFF00FFFFFF00FFFFFF000000FF000000FF000000FF000000FF000000FFFFFFFFFFFFFFFFFFFFFFFFFFFFFF00FFFFFF00FFFFFFFFFFFFFFFFFFFFFFFFFFFFFFFFFFFFFFFFFFFFFFFFFF000000FF000000
310
FFFFFFFFFFFFFFFFFFFFFFFFFFFFFFFFFFFFFFFFFFFFFFFFFFFFFF00FFFFFF00FFFFFFFFFFFFFFFFFFFFFFFFFF000000FF000000FF000000FF000000FF000000FF000000FF000000FF000000FFFFFFFFFFFFFFFFFFFFFFFFFFFFFF00FF000000FF000000FF000000FF000000FF000000FF000000FF000000FF000000FF0000
310
00FF000000FF000000FF000000FF000000FF000000FF000000FF000000FFFFFF00FFFFFFFFFFFFFFFFFFFFFFFFFF000000FF000000FF000000FF000000FF000000FF000000FF000000FF000000FFFFFF00FFFFFF00FFFFFF00FFFFFFFFFF000000FF000000FF000000FF000000FF000000FF000000FF000000FF000000FF00
310
0000FF000000FF000000FF000000FF000000FF000000FF000000FF000000FFFFFF00FFFFFF00FFFFFF00FFFFFF00FF000000FF000000FF000000FF000000FF000000FF000000FF000000FF000000FFFFFFFFFFFFFFFFFFFFFFFFFFFFFFFFFF000000FF000000FF000000FF000000FF000000FF000000FF000000FF000000FF
310
000000FF000000FF000000FF000000FF000000FF000000FF000000FF000000FF000000FF000000FF000000FFFFFFFFFF000000FF000000FF000000FF000000FF000000FF000000FF000000FF000000FFFFFFFFFF000000FF000000FFFFFFFFFF000000FF000000FF000000FF000000FF000000FF000000FF000000FF000000
310
FF000000FF000000FF000000FF000000FF000000FF000000FF000000FF000000FF000000FF000000FF000000FFFFFFFFFF000000FF000000FF000000FF000000FF000000FF000000FF000000FF000000FFFFFFFFFF000000FF000000FFFFFFFFFF000000FF000000FF000000FF000000FF000000FF000000FF000000FF0000
310
00FF000000FF000000FF000000FF000000FF000000FF000000FF000000FF000000FF000000FF000000FF000000FFFFFFFFFF000000FF000000FF000000FF000000FF000000FF000000FF000000FF000000FFFFFFFFFF000000FF000000FFFFFFFFFF000000FF000000FF000000FF000000FF000000FF000000FF000000FF00
310
0000FF000000FF000000FF000000FF000000FF000000FF000000FF000000FF000000FF000000FF000000FF000000FFFFFFFFFF000000FF000000FF000000FF000000FF000000FF000000FF000000FF000000FFFFFFFFFFFFFFFFFFFFFFFFFFFFFFFFFFFFFFFFFFFFFFFFFFFFFFFFFFFFFFFFFFFFFFFFFFFFFFFFFFFFFFFFFF
310
FFFFFFFFFFFFFFFFFFFFFFFFFFFFFFFFFFFFFFFFFFFFFFFFFFFFFFFFFFFFFFFFFFFFFFFFFFFFFFFFFFFFFFFFFFFFFFFFFFFFFFFF000000FF000000FF000000FF000000FF000000FF000000FF000000FF000000FF000000FF000000FF000000FF000000FF000000FF000000FF000000FF000000FF000000FF000000FF000000
310
FF000000FF000000FF000000FF000000FF000000FF000000FF000000FF000000FF000000FF000000FF000000FF000000FF000000FF000000FF000000FF000000FF000000FF000000FF000000FF000000FF000000FF000000FF000000FF000000FF000000FF000000FF000000FF000000FF000000FF000000FF000000FF0000
310
00FF000000FF000000FF000000FF000000FF000000FF000000FF000000FF000000FF000000FF000000FF000000FF000000FF000000FF000000FF000000FF000000FF000000FF000000FF000000FF000000FF000000FF000000FF000000FF000000FF000000FF000000FF000000FF000000FF000000FF000000FF000000FF00
310
0000FF000000FF000000FF000000FF000000FF000000FF000000FF000000FF000000FF000000FF000000FF000000FF000000FF000000FF000000FF000000FF000000FF000000FF000000FF000000FF000000FF000000FF000000FF000000FF000000FF000000FF000000FF000000FF000000FF000000FF000000FF000000FF
310
000000FF000000FF000000FF000000FF000000FF000000FF000000FF000000FF000000FF000000FF000000FF000000FF000000FF000000FF000000FF000000FF000000FF000000FF
102
{BLKREFS
331
2EB7
102
}
1001
ACAD
1000
DesignCenter Data
1002
{
1070
     1
1070
     4
1002
}
  0
BLOCK_RECORD
  5
2C60
102
{ACAD_XDICTIONARY
360
2C61
102
}
330
1
100
AcDbSymbolTableRecord
100
AcDbBlockTableRecord
  2
ファンカバ－ブレーキ_F2S-15_0005-01
340
0
102
{BLKREFS
331
2EB9
102
}
1001
AcDbDynamicBlockGUID
1000
{B0675341-5482-4694-AEF2-5E7B5E546ED3}
  0
BLOCK_RECORD
  5
2C7B
102
{ACAD_XDICTIONARY
360
2C7C
102
}
330
1
100
AcDbSymbolTableRecord
100
AcDbBlockTableRecord
  2
ファンカバ－ブレーキ_F2S-15_0006-01
340
0
102
{BLKREFS
331
2EBA
102
}
1001
AcDbDynamicBlockGUID
1000
{48AA324A-DAA9-47EA-B68A-4A24DADE6D3F}
  0
BLOCK_RECORD
  5
2C96
102
{ACAD_XDICTIONARY
360
2C97
102
}
330
1
100
AcDbSymbolTableRecord
100
AcDbBlockTableRecord
  2
ファンカバ－ブレーキ_F2S-15_0007-01
340
0
102
{BLKREFS
331
2EBB
102
}
1001
AcDbDynamicBlockGUID
1000
{884C2A03-AA9A-488E-9DFD-FE8016EF97C0}
  0
BLOCK_RECORD
  5
2EBE
330
1
100
AcDbSymbolTableRecord
100
AcDbBlockTableRecord
  2
*D19
340
0
  0
BLOCK_RECORD
  5
2ECA
330
1
100
AcDbSymbolTableRecord
100
AcDbBlockTableRecord
  2
*D20
340
0
  0
BLOCK_RECORD
  5
2ED6
330
1
100
AcDbSymbolTableRecord
100
AcDbBlockTableRecord
  2
*D21
340
0
  0
BLOCK_RECORD
  5
2EE2
330
1
100
AcDbSymbolTableRecord
100
AcDbBlockTableRecord
  2
*D22
340
0
  0
BLOCK_RECORD
  5
2EEE
330
1
100
AcDbSymbolTableRecord
100
AcDbBlockTableRecord
  2
*D23
340
0
  0
BLOCK_RECORD
  5
2EFA
330
1
100
AcDbSymbolTableRecord
100
AcDbBlockTableRecord
  2
*D24
340
0
  0
BLOCK_RECORD
  5
2F06
330
1
100
AcDbSymbolTableRecord
100
AcDbBlockTableRecord
  2
*D25
340
0
  0
BLOCK_RECORD
  5
2F14
330
1
100
AcDbSymbolTableRecord
100
AcDbBlockTableRecord
  2
*D26
340
0
  0
BLOCK_RECORD
  5
2F22
330
1
100
AcDbSymbolTableRecord
100
AcDbBlockTableRecord
  2
*D27
340
0
  0
BLOCK_RECORD
  5
2F3C
330
1
100
AcDbSymbolTableRecord
100
AcDbBlockTableRecord
  2
*D28
340
0
  0
BLOCK_RECORD
  5
2F48
330
1
100
AcDbSymbolTableRecord
100
AcDbBlockTableRecord
  2
*D29
340
0
  0
BLOCK_RECORD
  5
2F54
330
1
100
AcDbSymbolTableRecord
100
AcDbBlockTableRecord
  2
*D30
340
0
  0
BLOCK_RECORD
  5
2F60
330
1
100
AcDbSymbolTableRecord
100
AcDbBlockTableRecord
  2
*D31
340
0
  0
BLOCK_RECORD
  5
2F6C
330
1
100
AcDbSymbolTableRecord
100
AcDbBlockTableRecord
  2
*D32
340
0
  0
BLOCK_RECORD
  5
2F78
330
1
100
AcDbSymbolTableRecord
100
AcDbBlockTableRecord
  2
*D33
340
0
  0
BLOCK_RECORD
  5
2F86
330
1
100
AcDbSymbolTableRecord
100
AcDbBlockTableRecord
  2
*D34
340
0
  0
BLOCK_RECORD
  5
2F94
330
1
100
AcDbSymbolTableRecord
100
AcDbBlockTableRecord
  2
*D35
340
0
  0
BLOCK_RECORD
  5
2FA2
330
1
100
AcDbSymbolTableRecord
100
AcDbBlockTableRecord
  2
*D36
340
0
  0
BLOCK_RECORD
  5
2FB0
330
1
100
AcDbSymbolTableRecord
100
AcDbBlockTableRecord
  2
*D37
340
0
  0
BLOCK_RECORD
  5
2FBC
330
1
100
AcDbSymbolTableRecord
100
AcDbBlockTableRecord
  2
*D38
340
0
  0
BLOCK_RECORD
  5
2FCA
330
1
100
AcDbSymbolTableRecord
100
AcDbBlockTableRecord
  2
*D39
340
0
  0
BLOCK_RECORD
  5
2FD6
330
1
100
AcDbSymbolTableRecord
100
AcDbBlockTableRecord
  2
*D40
340
0
  0
BLOCK_RECORD
  5
2FE2
330
1
100
AcDbSymbolTableRecord
100
AcDbBlockTableRecord
  2
*D41
340
0
  0
BLOCK_RECORD
  5
2FEE
330
1
100
AcDbSymbolTableRecord
100
AcDbBlockTableRecord
  2
*D42
340
0
  0
BLOCK_RECORD
  5
2FFA
330
1
100
AcDbSymbolTableRecord
100
AcDbBlockTableRecord
  2
*D43
340
0
  0
BLOCK_RECORD
  5
3006
330
1
100
AcDbSymbolTableRecord
100
AcDbBlockTableRecord
  2
*D44
340
0
  0
BLOCK_RECORD
  5
3012
330
1
100
AcDbSymbolTableRecord
100
AcDbBlockTableRecord
  2
*D45
340
0
  0
BLOCK_RECORD
  5
301E
330
1
100
AcDbSymbolTableRecord
100
AcDbBlockTableRecord
  2
*D46
340
0
  0
BLOCK_RECORD
  5
302A
330
1
100
AcDbSymbolTableRecord
100
AcDbBlockTableRecord
  2
*D47
340
0
  0
BLOCK_RECORD
  5
3038
330
1
100
AcDbSymbolTableRecord
100
AcDbBlockTableRecord
  2
*D48
340
0
  0
BLOCK_RECORD
  5
3044
330
1
100
AcDbSymbolTableRecord
100
AcDbBlockTableRecord
  2
*D49
340
0
  0
BLOCK_RECORD
  5
3050
330
1
100
AcDbSymbolTableRecord
100
AcDbBlockTableRecord
  2
*D50
340
0
  0
BLOCK_RECORD
  5
305C
330
1
100
AcDbSymbolTableRecord
100
AcDbBlockTableRecord
  2
*D51
340
0
  0
BLOCK_RECORD
  5
3068
330
1
100
AcDbSymbolTableRecord
100
AcDbBlockTableRecord
  2
*D52
340
0
  0
BLOCK_RECORD
  5
3074
330
1
100
AcDbSymbolTableRecord
100
AcDbBlockTableRecord
  2
*D53
340
0
  0
BLOCK_RECORD
  5
3C47
102
{ACAD_XDICTIONARY
360
3C48
102
}
330
1
100
AcDbSymbolTableRecord
100
AcDbBlockTableRecord
  2
A$Ce40ca605
340
0
102
{BLKREFS
331
3D29
102
}
  0
BLOCK_RECORD
  5
3D28
330
1
100
AcDbSymbolTableRecord
100
AcDbBlockTableRecord
  2
A$C79275bbe
340
0
102
{BLKREFS
331
3D2C
102
}
  0
BLOCK_RECORD
  5
3D2D
102
{ACAD_XDICTIONARY
360
3DC1
102
}
330
1
100
AcDbSymbolTableRecord
100
AcDbBlockTableRecord
  2
A$Cd6ae6cdc
340
0
102
{BLKREFS
331
3DC5
102
}
  0
BLOCK_RECORD
  5
3DC6
102
{ACAD_XDICTIONARY
360
3E1B
102
}
330
1
100
AcDbSymbolTableRecord
100
AcDbBlockTableRecord
  2
A$Ca4d0cbaa
340
0
102
{BLKREFS
331
3E1F
102
}
  0
BLOCK_RECORD
  5
3EB3
102
{ACAD_XDICTIONARY
360
3F1E
102
}
330
1
100
AcDbSymbolTableRecord
100
AcDbBlockTableRecord
  2
A$C03ffc646
340
0
102
{BLKREFS
331
3F22
102
}
  0
BLOCK_RECORD
  5
3F39
330
1
100
AcDbSymbolTableRecord
100
AcDbBlockTableRecord
  2
*D69
340
0
  0
ENDTAB
  0
ENDSEC
  0
SECTION
  2
BLOCKS
  0
BLOCK
  5
5D
330
2
100
AcDbEntity
  8
0
100
AcDbBlockBegin
  2
*MODEL_SPACE
 70
     0
 10
0.0
 20
0.0
 30
0.0
  3
*MODEL_SPACE
  1

  0
ENDBLK
  5
5F
330
2
100
AcDbEntity
  8
0
100
AcDbBlockEnd
  0
BLOCK
  5
41D4
330
41D2
100
AcDbEntity
 67
     1
  8
0
100
AcDbBlockBegin
  2
*Paper_Space
 70
     0
 10
0.0
 20
0.0
 30
0.0
  3
*Paper_Space
  1

  0
ENDBLK
  5
41D5
330
41D2
100
AcDbEntity
 67
     1
  8
0
100
AcDbBlockEnd
  0
BLOCK
  5
4B0
330
4AC
100
AcDbEntity
  8
0
100
AcDbBlockBegin
  2
黒丸矢印1
 70
     0
 10
0.0
 20
0.0
 30
0.0
  3
黒丸矢印1
  1

  0
HATCH
  5
4AD
330
4AC
100
AcDbEntity
  8
0
100
AcDbHatch
 10
0.0
 20
0.0
 30
0.0
210
0.0
220
0.0
230
1.0
  2
SOLID
 70
     1
 71
     1
 91
        1
 92
        7
 72
     1
 73
     1
 93
        2
 10
-0.25
 20
0.0
 42
1.0
 10
0.25
 20
0.0
 42
1.0
 97
        1
330
4AE
 75
     0
 76
     1
 47
0.0031599728
 98
        1
 10
-0.0919668375711354
 20
0.0618998464179867
  0
CIRCLE
  5
4AE
102
{ACAD_REACTORS
330
4AD
102
}
330
4AC
100
AcDbEntity
  8
0
100
AcDbCircle
 10
0.0
 20
0.0
 30
0.0
 40
0.25
  0
LINE
  5
4AF
330
4AC
100
AcDbEntity
  8
0
100
AcDbLine
 10
0.0
 20
0.0
 30
0.0
 11
-1.0
 21
0.0
 31
0.0
  0
ENDBLK
  5
4B1
330
4AC
100
AcDbEntity
  8
0
100
AcDbBlockEnd
  0
BLOCK
  5
2AD8
330
2AD7
100
AcDbEntity
  8
0
100
AcDbBlockBegin
  2
ファンカバ－_F2S-15_M
 70
     0
 10
0.0
 20
0.0
 30
0.0
  3
ファンカバ－_F2S-15_M
  1

  0
LINE
  5
2AD9
330
2AD7
100
AcDbEntity
  8
HIDS
100
AcDbLine
 10
26.100494
 20
-47.0
 30
0.0
 11
-26.100494
 21
-47.0
 31
0.0
  0
LINE
  5
2ADA
330
2AD7
100
AcDbEntity
  8
HIDS
100
AcDbLine
 10
26.100494
 20
47.0
 30
0.0
 11
-26.100494
 21
47.0
 31
0.0
  0
LINE
  5
2ADB
330
2AD7
100
AcDbEntity
  8
HIDS
100
AcDbLine
 10
-44.949738
 20
31.050247
 30
0.0
 11
-31.050262
 21
44.949753
 31
0.0
  0
LINE
  5
2ADC
330
2AD7
100
AcDbEntity
  8
HIDS
100
AcDbLine
 10
-47.0
 20
-26.100502
 30
0.0
 11
-47.0
 21
26.10051
 31
0.0
  0
LINE
  5
2ADD
330
2AD7
100
AcDbEntity
  8
HIDS
100
AcDbLine
 10
-31.050262
 20
-44.949745
 30
0.0
 11
-44.949738
 21
-31.050255
 31
0.0
  0
ARC
  5
2ADE
330
2AD7
100
AcDbEntity
  8
HIDS
100
AcDbCircle
 10
-26.100494
 20
-40.0
 30
0.0
 40
7.0
100
AcDbArc
 50
225.0
 51
270.0
  0
ARC
  5
2ADF
330
2AD7
100
AcDbEntity
  8
HIDS
100
AcDbCircle
 10
-40.0
 20
-26.100502
 30
0.0
 40
7.0
100
AcDbArc
 50
180.0
 51
225.0
  0
ARC
  5
2AE0
330
2AD7
100
AcDbEntity
  8
HIDS
100
AcDbCircle
 10
-40.0
 20
26.10051
 30
0.0
 40
7.0
100
AcDbArc
 50
135.0
 51
180.0
  0
ARC
  5
2AE1
330
2AD7
100
AcDbEntity
  8
HIDS
100
AcDbCircle
 10
-26.100494
 20
40.0
 30
0.0
 40
7.0
100
AcDbArc
 50
90.0
 51
135.0
  0
LINE
  5
2AE2
330
2AD7
100
AcDbEntity
  8
HIDS
100
AcDbLine
 10
31.050262
 20
44.949753
 30
0.0
 11
44.949738
 21
31.050247
 31
0.0
  0
LINE
  5
2AE3
330
2AD7
100
AcDbEntity
  8
HIDS
100
AcDbLine
 10
47.0
 20
26.10051
 30
0.0
 11
47.0
 21
-26.100502
 31
0.0
  0
LINE
  5
2AE4
330
2AD7
100
AcDbEntity
  8
HIDS
100
AcDbLine
 10
44.949738
 20
-31.050255
 30
0.0
 11
31.050262
 21
-44.949745
 31
0.0
  0
ARC
  5
2AE5
330
2AD7
100
AcDbEntity
  8
HIDS
100
AcDbCircle
 10
26.100494
 20
-40.0
 30
0.0
 40
7.0
100
AcDbArc
 50
270.0
 51
315.0
  0
ARC
  5
2AE6
330
2AD7
100
AcDbEntity
  8
HIDS
100
AcDbCircle
 10
40.0
 20
-26.100502
 30
0.0
 40
7.0
100
AcDbArc
 50
315.0
 51
0.0
  0
ARC
  5
2AE7
330
2AD7
100
AcDbEntity
  8
HIDS
100
AcDbCircle
 10
40.0
 20
26.10051
 30
0.0
 40
7.0
100
AcDbArc
 50
0.0
 51
45.0
  0
ARC
  5
2AE8
330
2AD7
100
AcDbEntity
  8
HIDS
100
AcDbCircle
 10
26.100494
 20
40.0
 30
0.0
 40
7.0
100
AcDbArc
 50
45.0
 51
90.0
  0
ENDBLK
  5
2AE9
330
2AD7
100
AcDbEntity
  8
0
100
AcDbBlockEnd
  0
BLOCK
  5
2B46
330
2B45
100
AcDbEntity
  8
0
100
AcDbBlockBegin
  2
F2S-15_0006
 70
     0
 10
0.0
 20
0.0
 30
0.0
  3
F2S-15_0006
  1

  0
LINE
  5
2B47
330
2B45
100
AcDbEntity
  8
0
100
AcDbLine
 10
-35.0
 20
7.071075
 30
0.0
 11
-23.0
 21
7.071075
 31
0.0
  0
LINE
  5
2B48
330
2B45
100
AcDbEntity
  8
0
100
AcDbLine
 10
-23.0
 20
-7.5
 30
0.0
 11
-35.0
 21
-7.5
 31
0.0
  0
LINE
  5
2B49
330
2B45
100
AcDbEntity
  8
CENTER
100
AcDbLine
 10
-2.6700269993
 20
0.0
 30
0.0
 11
2.6700269993
 21
0.0
 31
0.0
  0
LINE
  5
2B4A
330
2B45
100
AcDbEntity
  8
0
100
AcDbLine
 10
-6.965088
 20
20.510651
 30
0.0
 11
-35.56485
 21
21.009857
 31
0.0
  0
LINE
  5
2B4B
330
2B45
100
AcDbEntity
  8
0
100
AcDbLine
 10
-9.721008
 20
16.058762
 30
0.0
 11
-30.661072
 21
16.424271
 31
0.0
  0
LINE
  5
2B4C
330
2B45
100
AcDbEntity
  8
0
100
AcDbLine
 10
-6.965088
 20
-20.510651
 30
0.0
 11
-35.56485
 21
-21.009857
 31
0.0
  0
LINE
  5
2B4D
330
2B45
100
AcDbEntity
  8
0
100
AcDbLine
 10
-9.721008
 20
-16.058746
 30
0.0
 11
-30.661072
 21
-16.424255
 31
0.0
  0
LINE
  5
2B4E
330
2B45
100
AcDbEntity
  8
0
100
AcDbLine
 10
44.0
 20
9.800003
 30
0.0
 11
-44.0
 21
9.800003
 31
0.0
  0
LINE
  5
2B4F
330
2B45
100
AcDbEntity
  8
0
100
AcDbLine
 10
-42.000031
 20
32.299973
 30
0.0
 11
-42.0
 21
27.687515
 31
0.0
  0
LINE
  5
2B50
330
2B45
100
AcDbEntity
  8
0
100
AcDbLine
 10
-41.0
 20
33.0
 30
0.0
 11
-41.0
 21
27.482544
 31
0.0
  0
LINE
  5
2B51
330
2B45
100
AcDbEntity
  8
0
100
AcDbLine
 10
-46.000031
 20
32.0
 30
0.0
 11
-46.000031
 21
27.521805
 31
0.0
  0
LINE
  5
2B52
330
2B45
100
AcDbEntity
  8
0
100
AcDbLine
 10
-35.0
 20
48.3890727275
 30
0.0
 11
-35.0
 21
20.507553
 31
0.0
  0
LINE
  5
2B53
330
2B45
100
AcDbEntity
  8
0
100
AcDbLine
 10
-48.0
 20
-48.1621568834
 30
0.0
 11
-48.0
 21
48.1621568834
 31
0.0
  0
LINE
  5
2B54
330
2B45
100
AcDbEntity
  8
0
100
AcDbLine
 10
-35.0
 20
-48.3890727275
 30
0.0
 11
-35.0
 21
-20.507553
 31
0.0
  0
LINE
  5
2B55
330
2B45
100
AcDbEntity
  8
0
100
AcDbLine
 10
-35.0
 20
-7.850006
 30
0.0
 11
-35.0
 21
7.850006
 31
0.0
  0
LINE
  5
2B56
330
2B45
100
AcDbEntity
  8
0
100
AcDbLine
 10
-36.149994
 20
-7.850006
 30
0.0
 11
-36.149994
 21
7.850006
 31
0.0
  0
LINE
  5
2B57
330
2B45
100
AcDbEntity
  8
0
100
AcDbLine
 10
-42.0
 20
-7.5
 30
0.0
 11
-42.0
 21
7.5
 31
0.0
  0
LINE
  5
2B58
330
2B45
100
AcDbEntity
  8
0
100
AcDbLine
 10
-44.0
 20
-12.0
 30
0.0
 11
-44.0
 21
12.0
 31
0.0
  0
LINE
  5
2B59
330
2B45
100
AcDbEntity
  8
PHAS
  6
sekkei_P_S
100
AcDbLine
 10
-60.0
 20
12.976105
 30
0.0
 11
-60.0
 21
-12.913025
 31
0.0
  0
LINE
  5
2B5A
330
2B45
100
AcDbEntity
  8
0
100
AcDbLine
 10
-47.0
 20
21.589584
 30
0.0
 11
-47.0
 21
-21.599579
 31
0.0
  0
LINE
  5
2B5B
330
2B45
100
AcDbEntity
  8
0
100
AcDbLine
 10
-44.399994
 20
-20.850006
 30
0.0
 11
-44.399994
 21
20.839996
 31
0.0
  0
LINE
  5
2B5C
330
2B45
100
AcDbEntity
  8
PHAS
  6
sekkei_P_S
100
AcDbLine
 10
-57.776459
 20
-15.873886
 30
0.0
 11
-44.399994
 21
-19.458099
 31
0.0
  0
ARC
  5
2B5D
330
2B45
100
AcDbEntity
  8
PHAS
  6
sekkei_P_S
100
AcDbCircle
 10
-57.0
 20
-12.976105
 30
0.0
 40
3.0
100
AcDbArc
 50
180.0
 51
255.0
  0
LINE
  5
2B5E
330
2B45
100
AcDbEntity
  8
0
100
AcDbLine
 10
-42.0
 20
-20.850006
 30
0.0
 11
-42.0
 21
-12.0
 31
0.0
  0
ARC
  5
2B5F
330
2B45
100
AcDbEntity
  8
0
100
AcDbCircle
 10
-42.0
 20
-26.948204
 30
0.0
 40
2.0
100
AcDbArc
 50
0.0
 51
69.999992
  0
LINE
  5
2B60
330
2B45
100
AcDbEntity
  8
CENTER
100
AcDbLine
 10
-39.101624
 20
-28.5
 30
0.0
 11
-49.121002
 21
-28.5
 31
0.0
  0
LINE
  5
2B61
330
2B45
100
AcDbEntity
  8
0
100
AcDbLine
 10
-42.000031
 20
-32.299973
 30
0.0
 11
-42.0
 21
-27.687515
 31
0.0
  0
LINE
  5
2B62
330
2B45
100
AcDbEntity
  8
0
100
AcDbLine
 10
-42.000031
 20
-32.299973
 30
0.0
 11
-41.0
 21
-32.299973
 31
0.0
  0
LINE
  5
2B63
330
2B45
100
AcDbEntity
  8
0
100
AcDbLine
 10
-41.0
 20
-33.0
 30
0.0
 11
-41.0
 21
-27.482544
 31
0.0
  0
LINE
  5
2B64
330
2B45
100
AcDbEntity
  8
0
100
AcDbLine
 10
-46.000031
 20
-32.0
 30
0.0
 11
-46.000031
 21
-27.521797
 31
0.0
  0
LINE
  5
2B65
330
2B45
100
AcDbEntity
  8
0
100
AcDbLine
 10
-46.000031
 20
-32.0
 30
0.0
 11
-42.000031
 21
-32.000015
 31
0.0
  0
LINE
  5
2B66
330
2B45
100
AcDbEntity
  8
0
100
AcDbLine
 10
-41.0
 20
-33.0
 30
0.0
 11
-48.0
 21
-33.183304
 31
0.0
  0
LINE
  5
2B67
330
2B45
100
AcDbEntity
  8
PHAS
  6
sekkei_P_S
100
AcDbLine
 10
-43.199982
 20
-19.5
 30
0.0
 11
-44.399994
 21
-19.458099
 31
0.0
  0
LINE
  5
2B68
330
2B45
100
AcDbEntity
  8
PHAS
  6
sekkei_P_S
100
AcDbLine
 10
-43.199982
 20
-19.5
 30
0.0
 11
-42.0
 21
-19.458099
 31
0.0
  0
LINE
  5
2B69
330
2B45
100
AcDbEntity
  8
0
100
AcDbLine
 10
-47.0
 20
-19.5
 30
0.0
 11
-44.399994
 21
-19.5
 31
0.0
  0
LINE
  5
2B6A
330
2B45
100
AcDbEntity
  8
0
100
AcDbLine
 10
-44.399994
 20
-20.850006
 30
0.0
 11
-42.0
 21
-20.850006
 31
0.0
  0
ARC
  5
2B6B
330
2B45
100
AcDbEntity
  8
0
100
AcDbCircle
 10
-45.0
 20
-21.599579
 30
0.0
 40
2.0
100
AcDbArc
 50
180.0
 51
250.0
  0
LINE
  5
2B6C
330
2B45
100
AcDbEntity
  8
0
100
AcDbLine
 10
-41.315948
 20
-25.068825
 30
0.0
 11
-45.684052
 21
-23.478973
 31
0.0
  0
ARC
  5
2B6D
330
2B45
100
AcDbEntity
  8
PHAS
  6
sekkei_P_S
100
AcDbCircle
 10
-43.199982
 20
-19.279999
 30
0.0
 40
1.219999999999997
100
AcDbArc
 50
188.302261
 51
349.611145
  0
LINE
  5
2B6E
330
2B45
100
AcDbEntity
  8
0
100
AcDbLine
 10
-40.0
 20
-27.27758
 30
0.0
 11
-40.0
 21
-26.948204
 31
0.0
  0
LINE
  5
2B6F
330
2B45
100
AcDbEntity
  8
0
100
AcDbLine
 10
-32.0
 20
-12.0
 30
0.0
 11
-44.0
 21
-12.0
 31
0.0
  0
LINE
  5
2B70
330
2B45
100
AcDbEntity
  8
0
100
AcDbLine
 10
-36.149994
 20
-7.5
 30
0.0
 11
-42.0
 21
-7.5
 31
0.0
  0
LINE
  5
2B71
330
2B45
100
AcDbEntity
  8
0
100
AcDbLine
 10
-32.0
 20
-17.5
 30
0.0
 11
-41.0
 21
-17.5
 31
0.0
  0
LINE
  5
2B72
330
2B45
100
AcDbEntity
  8
0
100
AcDbLine
 10
-41.0
 20
-17.5
 30
0.0
 11
-33.0
 21
-12.0
 31
0.0
  0
LINE
  5
2B73
330
2B45
100
AcDbEntity
  8
0
100
AcDbLine
 10
-41.0
 20
-12.0
 30
0.0
 11
-33.0
 21
-17.5
 31
0.0
  0
LINE
  5
2B74
330
2B45
100
AcDbEntity
  8
0
100
AcDbLine
 10
-41.0
 20
-17.5
 30
0.0
 11
-42.0
 21
-18.077347
 31
0.0
  0
LINE
  5
2B75
330
2B45
100
AcDbEntity
  8
0
100
AcDbLine
 10
-41.0
 20
-17.5
 30
0.0
 11
-41.0
 21
-12.0
 31
0.0
  0
LINE
  5
2B76
330
2B45
100
AcDbEntity
  8
0
100
AcDbLine
 10
-42.0
 20
-7.5
 30
0.0
 11
-44.0
 21
-8.654694
 31
0.0
  0
LINE
  5
2B77
330
2B45
100
AcDbEntity
  8
0
100
AcDbLine
 10
-33.0
 20
-17.5
 30
0.0
 11
-33.0
 21
-12.0
 31
0.0
  0
LINE
  5
2B78
330
2B45
100
AcDbEntity
  8
0
100
AcDbLine
 10
-32.0
 20
-12.0
 30
0.0
 11
-32.0
 21
-18.764313
 31
0.0
  0
LINE
  5
2B79
330
2B45
100
AcDbEntity
  8
0
100
AcDbLine
 10
-32.0
 20
-12.5
 30
0.0
 11
-28.007751
 21
-12.5
 31
0.0
  0
LINE
  5
2B7A
330
2B45
100
AcDbEntity
  8
0
100
AcDbLine
 10
-36.149994
 20
-7.850006
 30
0.0
 11
-35.0
 21
-7.850006
 31
0.0
  0
LINE
  5
2B7B
330
2B45
100
AcDbEntity
  8
PHAS
  6
sekkei_P_S
100
AcDbLine
 10
-57.776459
 20
15.873886
 30
0.0
 11
-44.399994
 21
19.458099
 31
0.0
  0
ARC
  5
2B7C
330
2B45
100
AcDbEntity
  8
PHAS
  6
sekkei_P_S
100
AcDbCircle
 10
-57.0
 20
12.976105
 30
0.0
 40
3.0
100
AcDbArc
 50
105.0
 51
180.0
  0
LINE
  5
2B7D
330
2B45
100
AcDbEntity
  8
0
100
AcDbLine
 10
-33.0
 20
12.0
 30
0.0
 11
-33.0
 21
17.5
 31
0.0
  0
LINE
  5
2B7E
330
2B45
100
AcDbEntity
  8
0
100
AcDbLine
 10
-41.0
 20
17.5
 30
0.0
 11
-41.0
 21
12.0
 31
0.0
  0
LINE
  5
2B7F
330
2B45
100
AcDbEntity
  8
0
100
AcDbLine
 10
-41.0
 20
12.0
 30
0.0
 11
-33.0
 21
17.5
 31
0.0
  0
LINE
  5
2B80
330
2B45
100
AcDbEntity
  8
0
100
AcDbLine
 10
-41.0
 20
17.5
 30
0.0
 11
-33.0
 21
12.0
 31
0.0
  0
LINE
  5
2B81
330
2B45
100
AcDbEntity
  8
0
100
AcDbLine
 10
-32.0
 20
18.764313
 30
0.0
 11
-32.0
 21
12.0
 31
0.0
  0
LINE
  5
2B82
330
2B45
100
AcDbEntity
  8
0
100
AcDbLine
 10
-42.0
 20
20.839996
 30
0.0
 11
-42.0
 21
12.0
 31
0.0
  0
LINE
  5
2B83
330
2B45
100
AcDbEntity
  8
0
100
AcDbLine
 10
-32.0
 20
12.0
 30
0.0
 11
-44.0
 21
12.0
 31
0.0
  0
LINE
  5
2B84
330
2B45
100
AcDbEntity
  8
0
100
AcDbLine
 10
-36.149994
 20
7.071075
 30
0.0
 11
-42.0
 21
7.071075
 31
0.0
  0
LINE
  5
2B85
330
2B45
100
AcDbEntity
  8
0
100
AcDbLine
 10
-42.0
 20
7.5
 30
0.0
 11
-44.0
 21
8.654709
 31
0.0
  0
LINE
  5
2B86
330
2B45
100
AcDbEntity
  8
0
100
AcDbLine
 10
-36.149994
 20
7.850006
 30
0.0
 11
-35.0
 21
7.850006
 31
0.0
  0
ARC
  5
2B87
330
2B45
100
AcDbEntity
  8
0
100
AcDbCircle
 10
-42.0
 20
26.948212
 30
0.0
 40
2.0
100
AcDbArc
 50
290.000008
 51
0.0
  0
LINE
  5
2B88
330
2B45
100
AcDbEntity
  8
0
100
AcDbLine
 10
-32.0
 20
17.490005
 30
0.0
 11
-41.0
 21
17.490005
 31
0.0
  0
ARC
  5
2B89
330
2B45
100
AcDbEntity
  8
PHAS
  6
sekkei_P_S
100
AcDbCircle
 10
-43.199982
 20
19.279999
 30
0.0
 40
1.219999999999997
100
AcDbArc
 50
10.388855
 51
171.697739
  0
LINE
  5
2B8A
330
2B45
100
AcDbEntity
  8
0
100
AcDbLine
 10
-41.0
 20
17.490005
 30
0.0
 11
-42.0
 21
18.067352
 31
0.0
  0
LINE
  5
2B8B
330
2B45
100
AcDbEntity
  8
PHAS
  6
sekkei_P_S
100
AcDbLine
 10
-43.199982
 20
19.5
 30
0.0
 11
-44.399994
 21
19.458099
 31
0.0
  0
LINE
  5
2B8C
330
2B45
100
AcDbEntity
  8
PHAS
  6
sekkei_P_S
100
AcDbLine
 10
-43.199982
 20
19.5
 30
0.0
 11
-42.0
 21
19.458099
 31
0.0
  0
LINE
  5
2B8D
330
2B45
100
AcDbEntity
  8
0
100
AcDbLine
 10
-47.0
 20
19.5
 30
0.0
 11
-44.399994
 21
19.5
 31
0.0
  0
LINE
  5
2B8E
330
2B45
100
AcDbEntity
  8
0
100
AcDbLine
 10
-44.399994
 20
20.839996
 30
0.0
 11
-42.0
 21
20.839996
 31
0.0
  0
ARC
  5
2B8F
330
2B45
100
AcDbEntity
  8
0
100
AcDbCircle
 10
-45.0
 20
21.589584
 30
0.0
 40
2.0
100
AcDbArc
 50
110.0
 51
180.0
  0
LINE
  5
2B90
330
2B45
100
AcDbEntity
  8
0
100
AcDbLine
 10
-41.315948
 20
25.068817
 30
0.0
 11
-45.684052
 21
23.478973
 31
0.0
  0
LINE
  5
2B91
330
2B45
100
AcDbEntity
  8
0
100
AcDbLine
 10
-32.0
 20
12.5
 30
0.0
 11
-28.007751
 21
12.5
 31
0.0
  0
LINE
  5
2B92
330
2B45
100
AcDbEntity
  8
0
100
AcDbLine
 10
-40.0
 20
27.277573
 30
0.0
 11
-40.0
 21
26.948212
 31
0.0
  0
LINE
  5
2B93
330
2B45
100
AcDbEntity
  8
CENTER
100
AcDbLine
 10
-39.101624
 20
28.5
 30
0.0
 11
-49.121002
 21
28.5
 31
0.0
  0
LINE
  5
2B94
330
2B45
100
AcDbEntity
  8
0
100
AcDbLine
 10
-42.000031
 20
32.299973
 30
0.0
 11
-41.0
 21
32.299973
 31
0.0
  0
LINE
  5
2B95
330
2B45
100
AcDbEntity
  8
0
100
AcDbLine
 10
-46.000031
 20
32.0
 30
0.0
 11
-42.000031
 21
32.000015
 31
0.0
  0
LINE
  5
2B96
330
2B45
100
AcDbEntity
  8
0
100
AcDbLine
 10
-41.0
 20
33.0
 30
0.0
 11
-48.0
 21
33.183304
 31
0.0
  0
LINE
  5
2B97
330
2B45
100
AcDbEntity
  8
0
100
AcDbLine
 10
40.0
 20
26.948212
 30
0.0
 11
40.0
 21
28.131744
 31
0.0
  0
LINE
  5
2B98
330
2B45
100
AcDbEntity
  8
CENTER
100
AcDbLine
 10
0.0
 20
-2.6700269993
 30
0.0
 11
0.0
 21
2.6700269993
 31
0.0
  0
LINE
  5
2B99
330
2B45
100
AcDbEntity
  8
0
100
AcDbLine
 10
48.0
 20
48.1621568834
 30
0.0
 11
48.0
 21
-48.1621568834
 31
0.0
  0
LINE
  5
2B9A
330
2B45
100
AcDbEntity
  8
0
100
AcDbLine
 10
32.0
 20
17.5
 30
0.0
 11
41.0
 21
17.5
 31
0.0
  0
LINE
  5
2B9B
330
2B45
100
AcDbEntity
  8
0
100
AcDbLine
 10
32.0
 20
12.0
 30
0.0
 11
44.0
 21
12.0
 31
0.0
  0
LINE
  5
2B9C
330
2B45
100
AcDbEntity
  8
0
100
AcDbLine
 10
41.0
 20
12.0
 30
0.0
 11
33.0
 21
17.5
 31
0.0
  0
LINE
  5
2B9D
330
2B45
100
AcDbEntity
  8
0
100
AcDbLine
 10
41.0
 20
17.5
 30
0.0
 11
33.0
 21
12.0
 31
0.0
  0
LINE
  5
2B9E
330
2B45
100
AcDbEntity
  8
0
100
AcDbLine
 10
36.149994
 20
7.071075
 30
0.0
 11
42.0
 21
7.071075
 31
0.0
  0
LINE
  5
2B9F
330
2B45
100
AcDbEntity
  8
0
100
AcDbLine
 10
32.0
 20
-12.0
 30
0.0
 11
44.0
 21
-12.0
 31
0.0
  0
LINE
  5
2BA0
330
2B45
100
AcDbEntity
  8
0
100
AcDbLine
 10
36.149994
 20
-7.5
 30
0.0
 11
42.0
 21
-7.5
 31
0.0
  0
LINE
  5
2BA1
330
2B45
100
AcDbEntity
  8
0
100
AcDbLine
 10
32.0
 20
-17.5
 30
0.0
 11
41.0
 21
-17.5
 31
0.0
  0
LINE
  5
2BA2
330
2B45
100
AcDbEntity
  8
0
100
AcDbLine
 10
41.0
 20
-17.5
 30
0.0
 11
33.0
 21
-12.0
 31
0.0
  0
LINE
  5
2BA3
330
2B45
100
AcDbEntity
  8
0
100
AcDbLine
 10
41.0
 20
-12.0
 30
0.0
 11
33.0
 21
-17.5
 31
0.0
  0
LINE
  5
2BA4
330
2B45
100
AcDbEntity
  8
0
100
AcDbLine
 10
35.0
 20
-7.850006
 30
0.0
 11
35.0
 21
7.850006
 31
0.0
  0
LINE
  5
2BA5
330
2B45
100
AcDbEntity
  8
0
100
AcDbLine
 10
36.149994
 20
-7.850006
 30
0.0
 11
36.149994
 21
7.850006
 31
0.0
  0
LINE
  5
2BA6
330
2B45
100
AcDbEntity
  8
0
100
AcDbLine
 10
23.0
 20
-8.0
 30
0.0
 11
23.0
 21
8.0
 31
0.0
  0
LINE
  5
2BA7
330
2B45
100
AcDbEntity
  8
0
100
AcDbLine
 10
-23.0
 20
-8.0
 30
0.0
 11
-23.0
 21
8.0
 31
0.0
  0
ARC
  5
2BA8
330
2B45
100
AcDbEntity
  8
0
100
AcDbCircle
 10
7.0
 20
-18.284042
 30
0.0
 40
2.0
100
AcDbArc
 50
180.0
 51
269.0
  0
LINE
  5
2BA9
330
2B45
100
AcDbEntity
  8
0
100
AcDbLine
 10
23.0
 20
-8.0
 30
0.0
 11
-23.0
 21
-8.0
 31
0.0
  0
LINE
  5
2BAA
330
2B45
100
AcDbEntity
  8
0
100
AcDbLine
 10
-8.19696
 20
-15.311951
 30
0.0
 11
-5.441071
 21
-19.76384
 31
0.0
  0
ARC
  5
2BAB
330
2B45
100
AcDbEntity
  8
0
100
AcDbCircle
 10
-7.0
 20
-18.510956
 30
0.0
 40
2.0
100
AcDbArc
 50
271.0
 51
0.0
  0
ARC
  5
2BAC
330
2B45
100
AcDbEntity
  8
0
100
AcDbCircle
 10
-9.75589
 20
-14.059052
 30
0.0
 40
2.0
100
AcDbArc
 50
271.0
 51
0.0
  0
LINE
  5
2BAD
330
2B45
100
AcDbEntity
  8
0
100
AcDbLine
 10
-5.0
 20
-18.510956
 30
0.0
 11
-5.0
 21
-11.411469
 31
0.0
  0
LINE
  5
2BAE
330
2B45
100
AcDbEntity
  8
0
100
AcDbLine
 10
-7.75589
 20
-14.059052
 30
0.0
 11
-7.75589
 21
-11.707092
 31
0.0
  0
LINE
  5
2BAF
330
2B45
100
AcDbEntity
  8
0
100
AcDbLine
 10
5.0
 20
-18.284042
 30
0.0
 11
5.0
 21
-11.284073
 31
0.0
  0
LINE
  5
2BB0
330
2B45
100
AcDbEntity
  8
0
100
AcDbLine
 10
8.19696
 20
-15.085037
 30
0.0
 11
5.441071
 21
-19.536926
 31
0.0
  0
LINE
  5
2BB1
330
2B45
100
AcDbEntity
  8
0
100
AcDbLine
 10
6.965088
 20
-20.283737
 30
0.0
 11
35.728577
 21
-20.785797
 31
0.0
  0
LINE
  5
2BB2
330
2B45
100
AcDbEntity
  8
0
100
AcDbLine
 10
9.721008
 20
-15.831833
 30
0.0
 11
30.333832
 21
-16.191635
 31
0.0
  0
ARC
  5
2BB3
330
2B45
100
AcDbEntity
  8
0
100
AcDbCircle
 10
9.75589
 20
-13.832138
 30
0.0
 40
2.0
100
AcDbArc
 50
180.0
 51
269.0
  0
LINE
  5
2BB4
330
2B45
100
AcDbEntity
  8
0
100
AcDbLine
 10
7.75589
 20
-13.832138
 30
0.0
 11
7.75589
 21
-11.099625
 31
0.0
  0
LINE
  5
2BB5
330
2B45
100
AcDbEntity
  8
0
100
AcDbLine
 10
32.0
 20
-12.5
 30
0.0
 11
27.661804
 21
-12.5
 31
0.0
  0
LINE
  5
2BB6
330
2B45
100
AcDbEntity
  8
0
100
AcDbLine
 10
32.0
 20
-18.739426
 30
0.0
 11
32.0
 21
-12.0
 31
0.0
  0
LINE
  5
2BB7
330
2B45
100
AcDbEntity
  8
0
100
AcDbLine
 10
33.0
 20
-17.5
 30
0.0
 11
33.0
 21
-12.0
 31
0.0
  0
LINE
  5
2BB8
330
2B45
100
AcDbEntity
  8
0
100
AcDbLine
 10
23.0
 20
-7.5
 30
0.0
 11
35.0
 21
-7.5
 31
0.0
  0
LINE
  5
2BB9
330
2B45
100
AcDbEntity
  8
0
100
AcDbLine
 10
36.149994
 20
-7.850006
 30
0.0
 11
35.0
 21
-7.850006
 31
0.0
  0
ARC
  5
2BBA
330
2B45
100
AcDbEntity
  8
0
100
AcDbCircle
 10
7.0
 20
18.284042
 30
0.0
 40
2.0
100
AcDbArc
 50
91.0
 51
180.0
  0
LINE
  5
2BBB
330
2B45
100
AcDbEntity
  8
0
100
AcDbLine
 10
23.0
 20
8.0
 30
0.0
 11
-23.0
 21
8.0
 31
0.0
  0
LINE
  5
2BBC
330
2B45
100
AcDbEntity
  8
0
100
AcDbLine
 10
5.0
 20
18.284042
 30
0.0
 11
5.0
 21
11.284073
 31
0.0
  0
LINE
  5
2BBD
330
2B45
100
AcDbEntity
  8
0
100
AcDbLine
 10
-7.75589
 20
14.059052
 30
0.0
 11
-7.75589
 21
11.707092
 31
0.0
  0
LINE
  5
2BBE
330
2B45
100
AcDbEntity
  8
0
100
AcDbLine
 10
-5.0
 20
18.510956
 30
0.0
 11
-5.0
 21
11.411469
 31
0.0
  0
ARC
  5
2BBF
330
2B45
100
AcDbEntity
  8
0
100
AcDbCircle
 10
-7.0
 20
18.510956
 30
0.0
 40
2.0
100
AcDbArc
 50
0.0
 51
89.0
  0
ARC
  5
2BC0
330
2B45
100
AcDbEntity
  8
0
100
AcDbCircle
 10
-9.75589
 20
14.059052
 30
0.0
 40
2.0
100
AcDbArc
 50
0.0
 51
89.0
  0
LINE
  5
2BC1
330
2B45
100
AcDbEntity
  8
0
100
AcDbLine
 10
-5.441071
 20
19.76384
 30
0.0
 11
-8.19696
 21
15.311951
 31
0.0
  0
LINE
  5
2BC2
330
2B45
100
AcDbEntity
  8
0
100
AcDbLine
 10
33.0
 20
12.0
 30
0.0
 11
33.0
 21
17.5
 31
0.0
  0
LINE
  5
2BC3
330
2B45
100
AcDbEntity
  8
0
100
AcDbLine
 10
32.0
 20
12.0
 30
0.0
 11
32.0
 21
18.739441
 31
0.0
  0
LINE
  5
2BC4
330
2B45
100
AcDbEntity
  8
0
100
AcDbLine
 10
7.75589
 20
13.832138
 30
0.0
 11
7.75589
 21
11.099625
 31
0.0
  0
LINE
  5
2BC5
330
2B45
100
AcDbEntity
  8
0
100
AcDbLine
 10
35.0
 20
7.071075
 30
0.0
 11
23.0
 21
7.071075
 31
0.0
  0
LINE
  5
2BC6
330
2B45
100
AcDbEntity
  8
0
100
AcDbLine
 10
36.149994
 20
7.850006
 30
0.0
 11
35.0
 21
7.850006
 31
0.0
  0
LINE
  5
2BC7
330
2B45
100
AcDbEntity
  8
0
100
AcDbLine
 10
6.965088
 20
20.283737
 30
0.0
 11
35.728577
 21
20.785797
 31
0.0
  0
LINE
  5
2BC8
330
2B45
100
AcDbEntity
  8
0
100
AcDbLine
 10
9.721008
 20
15.831833
 30
0.0
 11
30.333832
 21
16.191635
 31
0.0
  0
ARC
  5
2BC9
330
2B45
100
AcDbEntity
  8
0
100
AcDbCircle
 10
9.75589
 20
13.832138
 30
0.0
 40
2.0
100
AcDbArc
 50
91.0
 51
180.0
  0
LINE
  5
2BCA
330
2B45
100
AcDbEntity
  8
0
100
AcDbLine
 10
8.19696
 20
15.085037
 30
0.0
 11
5.441071
 21
19.536926
 31
0.0
  0
LINE
  5
2BCB
330
2B45
100
AcDbEntity
  8
0
100
AcDbLine
 10
32.0
 20
12.5
 30
0.0
 11
27.661804
 21
12.5
 31
0.0
  0
LINE
  5
2BCC
330
2B45
100
AcDbEntity
  8
PHAS
  6
sekkei_P_S
100
AcDbLine
 10
60.0
 20
12.976105
 30
0.0
 11
60.0
 21
-12.913025
 31
0.0
  0
LINE
  5
2BCD
330
2B45
100
AcDbEntity
  8
0
100
AcDbLine
 10
42.0
 20
-7.5
 30
0.0
 11
42.0
 21
7.5
 31
0.0
  0
LINE
  5
2BCE
330
2B45
100
AcDbEntity
  8
0
100
AcDbLine
 10
44.0
 20
-12.0
 30
0.0
 11
44.0
 21
12.0
 31
0.0
  0
LINE
  5
2BCF
330
2B45
100
AcDbEntity
  8
0
100
AcDbLine
 10
44.399994
 20
-20.850006
 30
0.0
 11
44.399994
 21
20.850006
 31
0.0
  0
LINE
  5
2BD0
330
2B45
100
AcDbEntity
  8
0
100
AcDbLine
 10
47.0
 20
-21.599579
 30
0.0
 11
47.0
 21
21.599579
 31
0.0
  0
LINE
  5
2BD1
330
2B45
100
AcDbEntity
  8
PHAS
  6
sekkei_P_S
100
AcDbLine
 10
57.776459
 20
-15.873886
 30
0.0
 11
44.399994
 21
-19.458099
 31
0.0
  0
LINE
  5
2BD2
330
2B45
100
AcDbEntity
  8
0
100
AcDbLine
 10
42.0
 20
-20.850006
 30
0.0
 11
42.0
 21
-12.0
 31
0.0
  0
ARC
  5
2BD3
330
2B45
100
AcDbEntity
  8
0
100
AcDbCircle
 10
42.0
 20
-26.948204
 30
0.0
 40
2.0
100
AcDbArc
 50
110.0
 51
180.0
  0
LINE
  5
2BD4
330
2B45
100
AcDbEntity
  8
0
100
AcDbLine
 10
40.0
 20
-26.948204
 30
0.0
 11
40.0
 21
-28.131744
 31
0.0
  0
LINE
  5
2BD5
330
2B45
100
AcDbEntity
  8
PHAS
  6
sekkei_P_S
100
AcDbLine
 10
43.200012
 20
-19.5
 30
0.0
 11
44.399994
 21
-19.458099
 31
0.0
  0
LINE
  5
2BD6
330
2B45
100
AcDbEntity
  8
0
100
AcDbLine
 10
44.399994
 20
-20.850006
 30
0.0
 11
42.0
 21
-20.850006
 31
0.0
  0
LINE
  5
2BD7
330
2B45
100
AcDbEntity
  8
0
100
AcDbLine
 10
41.315948
 20
-25.068825
 30
0.0
 11
45.684052
 21
-23.478973
 31
0.0
  0
ARC
  5
2BD8
330
2B45
100
AcDbEntity
  8
PHAS
  6
sekkei_P_S
100
AcDbCircle
 10
43.200012
 20
-19.279999
 30
0.0
 40
1.219999999999997
100
AcDbArc
 50
190.388855
 51
351.697737
  0
LINE
  5
2BD9
330
2B45
100
AcDbEntity
  8
PHAS
  6
sekkei_P_S
100
AcDbLine
 10
43.200012
 20
-19.5
 30
0.0
 11
42.0
 21
-19.458099
 31
0.0
  0
LINE
  5
2BDA
330
2B45
100
AcDbEntity
  8
0
100
AcDbLine
 10
47.0
 20
-19.5
 30
0.0
 11
44.399994
 21
-19.5
 31
0.0
  0
ARC
  5
2BDB
330
2B45
100
AcDbEntity
  8
0
100
AcDbCircle
 10
45.0
 20
-21.599579
 30
0.0
 40
2.0
100
AcDbArc
 50
290.0
 51
0.0
  0
LINE
  5
2BDC
330
2B45
100
AcDbEntity
  8
0
100
AcDbLine
 10
41.0
 20
-17.5
 30
0.0
 11
42.0
 21
-18.077347
 31
0.0
  0
LINE
  5
2BDD
330
2B45
100
AcDbEntity
  8
0
100
AcDbLine
 10
41.0
 20
-17.5
 30
0.0
 11
41.0
 21
-12.0
 31
0.0
  0
LINE
  5
2BDE
330
2B45
100
AcDbEntity
  8
0
100
AcDbLine
 10
42.0
 20
-7.5
 30
0.0
 11
44.0
 21
-8.654694
 31
0.0
  0
ARC
  5
2BDF
330
2B45
100
AcDbEntity
  8
PHAS
  6
sekkei_P_S
100
AcDbCircle
 10
57.0
 20
-12.976105
 30
0.0
 40
3.0
100
AcDbArc
 50
285.0
 51
0.0
  0
LINE
  5
2BE0
330
2B45
100
AcDbEntity
  8
0
100
AcDbLine
 10
41.0
 20
17.5
 30
0.0
 11
41.0
 21
12.0
 31
0.0
  0
LINE
  5
2BE1
330
2B45
100
AcDbEntity
  8
0
100
AcDbLine
 10
42.0
 20
20.850006
 30
0.0
 11
42.0
 21
12.0
 31
0.0
  0
LINE
  5
2BE2
330
2B45
100
AcDbEntity
  8
0
100
AcDbLine
 10
42.0
 20
7.5
 30
0.0
 11
44.0
 21
8.654709
 31
0.0
  0
LINE
  5
2BE3
330
2B45
100
AcDbEntity
  8
PHAS
  6
sekkei_P_S
100
AcDbLine
 10
57.776459
 20
15.873886
 30
0.0
 11
44.399994
 21
19.458099
 31
0.0
  0
ARC
  5
2BE4
330
2B45
100
AcDbEntity
  8
PHAS
  6
sekkei_P_S
100
AcDbCircle
 10
43.200012
 20
19.279999
 30
0.0
 40
1.219999999999997
100
AcDbArc
 50
8.302277
 51
169.611145
  0
LINE
  5
2BE5
330
2B45
100
AcDbEntity
  8
PHAS
  6
sekkei_P_S
100
AcDbLine
 10
43.200012
 20
19.5
 30
0.0
 11
44.399994
 21
19.458099
 31
0.0
  0
LINE
  5
2BE6
330
2B45
100
AcDbEntity
  8
0
100
AcDbLine
 10
41.0
 20
17.5
 30
0.0
 11
42.0
 21
18.077347
 31
0.0
  0
LINE
  5
2BE7
330
2B45
100
AcDbEntity
  8
PHAS
  6
sekkei_P_S
100
AcDbLine
 10
43.200012
 20
19.5
 30
0.0
 11
42.0
 21
19.458099
 31
0.0
  0
LINE
  5
2BE8
330
2B45
100
AcDbEntity
  8
0
100
AcDbLine
 10
47.0
 20
19.5
 30
0.0
 11
44.399994
 21
19.5
 31
0.0
  0
LINE
  5
2BE9
330
2B45
100
AcDbEntity
  8
0
100
AcDbLine
 10
44.399994
 20
20.850006
 30
0.0
 11
42.0
 21
20.850006
 31
0.0
  0
LINE
  5
2BEA
330
2B45
100
AcDbEntity
  8
0
100
AcDbLine
 10
41.315948
 20
25.068817
 30
0.0
 11
45.684052
 21
23.478973
 31
0.0
  0
ARC
  5
2BEB
330
2B45
100
AcDbEntity
  8
0
100
AcDbCircle
 10
42.0
 20
26.948212
 30
0.0
 40
2.0
100
AcDbArc
 50
180.0
 51
249.999992
  0
ARC
  5
2BEC
330
2B45
100
AcDbEntity
  8
0
100
AcDbCircle
 10
45.0
 20
21.599579
 30
0.0
 40
2.0
100
AcDbArc
 50
0.0
 51
70.0
  0
ARC
  5
2BED
330
2B45
100
AcDbEntity
  8
PHAS
  6
sekkei_P_S
100
AcDbCircle
 10
57.0
 20
12.976105
 30
0.0
 40
3.0
100
AcDbArc
 50
0.0
 51
75.0
  0
LWPOLYLINE
  5
2BEE
330
2B45
100
AcDbEntity
  8
HOJO
100
AcDbPolyline
 90
       27
 70
     0
 43
0.0
 10
-48.0
 20
27.714905
 10
-45.256805
 20
27.450043
 10
-42.629791
 20
27.816605
 10
-38.355316
 20
26.940475
 10
-36.718964
 20
24.645309
 10
-35.497101
 20
20.796402
 10
-30.976135
 20
18.169373
 10
-30.181946
 20
13.77063
 10
-25.477722
 20
11.021408
 10
-19.368347
 20
12.059998
 10
-13.869904
 20
11.021408
 10
-7.332855
 20
11.754532
 10
-3.178497
 20
11.1436
 10
1.46463
 20
11.693436
 10
7.268524
 20
11.021408
 10
12.217133
 20
11.815628
 10
16.004944
 20
10.960312
 10
20.525879
 20
11.693436
 10
25.535583
 20
11.082504
 10
29.751038
 20
13.892807
 10
30.850739
 20
18.230469
 10
35.127289
 20
20.124374
 10
37.571045
 20
22.8125
 10
38.12088
 20
26.478119
 10
41.002716
 20
29.014145
 10
44.444092
 20
28.555313
 10
48.0
 20
29.257141
  0
LWPOLYLINE
  5
2BEF
330
2B45
100
AcDbEntity
  8
HOJO
100
AcDbPolyline
 90
       27
 70
     0
 43
0.0
 10
-48.0
 20
-27.714897
 10
-45.256805
 20
-27.450035
 10
-42.629791
 20
-27.816605
 10
-38.355316
 20
-26.940468
 10
-36.718964
 20
-24.645309
 10
-35.497101
 20
-20.796402
 10
-30.976135
 20
-18.169373
 10
-30.181946
 20
-13.77063
 10
-25.477722
 20
-11.021408
 10
-19.368347
 20
-12.059998
 10
-13.869904
 20
-11.021408
 10
-7.332855
 20
-11.754532
 10
-3.178497
 20
-11.1436
 10
1.46463
 20
-11.693436
 10
7.268524
 20
-11.021408
 10
12.217133
 20
-11.815628
 10
16.004944
 20
-10.960312
 10
20.525879
 20
-11.693436
 10
25.535583
 20
-11.082504
 10
29.751038
 20
-13.892807
 10
30.850739
 20
-18.230469
 10
35.127289
 20
-20.124374
 10
37.571045
 20
-22.8125
 10
38.12088
 20
-26.478127
 10
41.002716
 20
-29.014145
 10
44.444092
 20
-28.555313
 10
48.0
 20
-29.257141
  0
LINE
  5
2BF0
330
2B45
100
AcDbEntity
  8
0
100
AcDbLine
 10
-48.0
 20
48.1621568834
 30
0.0
 11
0.0
 21
49.0
 31
0.0
  0
LINE
  5
2BF1
330
2B45
100
AcDbEntity
  8
0
100
AcDbLine
 10
-48.0
 20
-48.1621568834
 30
0.0
 11
0.0
 21
-49.0
 31
0.0
  0
LINE
  5
2BF2
330
2B45
100
AcDbEntity
  8
0
100
AcDbLine
 10
48.0
 20
-48.1621568834
 30
0.0
 11
0.0
 21
-49.0
 31
0.0
  0
LINE
  5
2BF3
330
2B45
100
AcDbEntity
  8
0
100
AcDbLine
 10
48.0
 20
48.1621568834
 30
0.0
 11
0.0
 21
49.0
 31
0.0
  0
ENDBLK
  5
2BF4
330
2B45
100
AcDbEntity
  8
0
100
AcDbBlockEnd
  0
BLOCK
  5
2C62
330
2C60
100
AcDbEntity
  8
0
100
AcDbBlockBegin
  2
ファンカバ－ブレーキ_F2S-15_0005-01
 70
     0
 10
0.0
 20
0.0
 30
0.0
  3
ファンカバ－ブレーキ_F2S-15_0005-01
  1

  0
LINE
  5
2C63
330
2C60
100
AcDbEntity
  8
0
100
AcDbLine
 10
-57.0
 20
42.0
 30
0.0
 11
-57.0
 21
-42.0
 31
0.0
  0
LINE
  5
2C64
330
2C60
100
AcDbEntity
  8
0
100
AcDbLine
 10
-9.5
 20
-47.0
 30
0.0
 11
-9.5
 21
47.0
 31
0.0
  0
LINE
  5
2C65
330
2C60
100
AcDbEntity
  8
0
100
AcDbLine
 10
0.0
 20
-45.0
 30
0.0
 11
0.0
 21
45.0
 31
0.0
  0
LINE
  5
2C66
330
2C60
100
AcDbEntity
  8
0
100
AcDbLine
 10
0.0
 20
-34.409302
 30
0.0
 11
-9.5
 21
-34.409302
 31
0.0
  0
LINE
  5
2C67
330
2C60
100
AcDbEntity
  8
0
100
AcDbLine
 10
-9.5
 20
-45.0
 30
0.0
 11
0.0
 21
-45.0
 31
0.0
  0
LINE
  5
2C68
330
2C60
100
AcDbEntity
  8
0
100
AcDbLine
 10
-52.0
 20
-47.0
 30
0.0
 11
-9.5
 21
-47.0
 31
0.0
  0
LINE
  5
2C69
330
2C60
100
AcDbEntity
  8
0
100
AcDbLine
 10
-9.5
 20
-29.0
 30
0.0
 11
-53.474998
 21
-29.0
 31
0.0
  0
ARC
  5
2C6A
330
2C60
100
AcDbEntity
  8
0
100
AcDbCircle
 10
-52.0
 20
-42.0
 30
0.0
 40
5.0
100
AcDbArc
 50
180.0
 51
270.0
  0
LINE
  5
2C6B
330
2C60
100
AcDbEntity
  8
0
100
AcDbLine
 10
0.0
 20
34.409302
 30
0.0
 11
-9.5
 21
34.409302
 31
0.0
  0
LINE
  5
2C6C
330
2C60
100
AcDbEntity
  8
0
100
AcDbLine
 10
-9.5
 20
29.0
 30
0.0
 11
-53.474998
 21
29.0
 31
0.0
  0
LINE
  5
2C6D
330
2C60
100
AcDbEntity
  8
0
100
AcDbLine
 10
-6.5
 20
46.5
 30
0.0
 11
0.5
 21
46.5
 31
0.0
  0
LINE
  5
2C6E
330
2C60
100
AcDbEntity
  8
0
100
AcDbLine
 10
-9.5
 20
45.0
 30
0.0
 11
0.0
 21
45.0
 31
0.0
  0
LINE
  5
2C6F
330
2C60
100
AcDbEntity
  8
0
100
AcDbLine
 10
-52.0
 20
47.0
 30
0.0
 11
-9.5
 21
47.0
 31
0.0
  0
ARC
  5
2C70
330
2C60
100
AcDbEntity
  8
0
100
AcDbCircle
 10
-52.0
 20
42.0
 30
0.0
 40
5.0
100
AcDbArc
 50
90.0
 51
180.0
  0
LINE
  5
2C71
330
2C60
100
AcDbEntity
  8
0
100
AcDbLine
 10
-6.5
 20
46.5
 30
0.0
 11
-6.5
 21
45.0
 31
0.0
  0
LINE
  5
2C72
330
2C60
100
AcDbEntity
  8
0
100
AcDbLine
 10
-0.299995
 20
58.875
 30
0.0
 11
-0.299995
 21
46.5
 31
0.0
  0
LINE
  5
2C73
330
2C60
100
AcDbEntity
  8
0
100
AcDbLine
 10
-5.699997
 20
58.0625
 30
0.0
 11
-5.699997
 21
46.5
 31
0.0
  0
LINE
  5
2C74
330
2C60
100
AcDbEntity
  8
0
100
AcDbLine
 10
-3.900001
 20
60.125
 30
0.0
 11
-3.900001
 21
46.5
 31
0.0
  0
LINE
  5
2C75
330
2C60
100
AcDbEntity
  8
0
100
AcDbLine
 10
-2.099998
 20
59.5
 30
0.0
 11
-2.099998
 21
46.5
 31
0.0
  0
LINE
  5
2C76
330
2C60
100
AcDbEntity
  8
0
100
AcDbLine
 10
0.5
 20
46.5
 30
0.0
 11
0.5
 21
45.0
 31
0.0
  0
LINE
  5
2C77
330
2C60
100
AcDbEntity
  8
HOJO
100
AcDbLine
 10
-0.299995
 20
58.875
 30
0.0
 11
-2.098991
 21
58.427292
 31
0.0
  0
LINE
  5
2C78
330
2C60
100
AcDbEntity
  8
HOJO
100
AcDbLine
 10
-5.699997
 20
58.0625
 30
0.0
 11
-3.900001
 21
58.6875
 31
0.0
  0
LINE
  5
2C79
330
2C60
100
AcDbEntity
  8
HOJO
100
AcDbLine
 10
-3.900001
 20
60.125
 30
0.0
 11
-2.099998
 21
59.5
 31
0.0
  0
ENDBLK
  5
2C7A
330
2C60
100
AcDbEntity
  8
0
100
AcDbBlockEnd
  0
BLOCK
  5
2C7D
330
2C7B
100
AcDbEntity
  8
0
100
AcDbBlockBegin
  2
ファンカバ－ブレーキ_F2S-15_0006-01
 70
     0
 10
0.0
 20
0.0
 30
0.0
  3
ファンカバ－ブレーキ_F2S-15_0006-01
  1

  0
LINE
  5
2C7E
330
2C7B
100
AcDbEntity
  8
0
100
AcDbLine
 10
56.999939
 20
42.0
 30
0.0
 11
56.999939
 21
-42.0
 31
0.0
  0
LINE
  5
2C7F
330
2C7B
100
AcDbEntity
  8
0
100
AcDbLine
 10
9.5
 20
-47.0
 30
0.0
 11
9.5
 21
47.0
 31
0.0
  0
LINE
  5
2C80
330
2C7B
100
AcDbEntity
  8
0
100
AcDbLine
 10
0.0
 20
-45.0
 30
0.0
 11
0.0
 21
45.0
 31
0.0
  0
LINE
  5
2C81
330
2C7B
100
AcDbEntity
  8
0
100
AcDbLine
 10
51.999939
 20
-47.0
 30
0.0
 11
9.5
 21
-47.0
 31
0.0
  0
LINE
  5
2C82
330
2C7B
100
AcDbEntity
  8
0
100
AcDbLine
 10
9.5
 20
29.0
 30
0.0
 11
53.474976
 21
29.0
 31
0.0
  0
LINE
  5
2C83
330
2C7B
100
AcDbEntity
  8
0
100
AcDbLine
 10
9.5
 20
-29.0
 30
0.0
 11
53.474976
 21
-29.0
 31
0.0
  0
LINE
  5
2C84
330
2C7B
100
AcDbEntity
  8
0
100
AcDbLine
 10
9.5
 20
-45.0
 30
0.0
 11
0.0
 21
-45.0
 31
0.0
  0
LINE
  5
2C85
330
2C7B
100
AcDbEntity
  8
0
100
AcDbLine
 10
0.0
 20
-34.409302
 30
0.0
 11
9.5
 21
-34.409302
 31
0.0
  0
LINE
  5
2C86
330
2C7B
100
AcDbEntity
  8
0
100
AcDbLine
 10
0.0
 20
34.409302
 30
0.0
 11
9.5
 21
34.409302
 31
0.0
  0
ARC
  5
2C87
330
2C7B
100
AcDbEntity
  8
0
100
AcDbCircle
 10
51.999939
 20
-42.0
 30
0.0
 40
5.0
100
AcDbArc
 50
270.0
 51
0.0
  0
LINE
  5
2C88
330
2C7B
100
AcDbEntity
  8
0
100
AcDbLine
 10
51.999939
 20
47.0
 30
0.0
 11
9.5
 21
47.0
 31
0.0
  0
LINE
  5
2C89
330
2C7B
100
AcDbEntity
  8
0
100
AcDbLine
 10
0.299988
 20
58.875
 30
0.0
 11
0.299988
 21
46.5
 31
0.0
  0
LINE
  5
2C8A
330
2C7B
100
AcDbEntity
  8
0
100
AcDbLine
 10
5.699951
 20
58.0625
 30
0.0
 11
5.699951
 21
46.5
 31
0.0
  0
LINE
  5
2C8B
330
2C7B
100
AcDbEntity
  8
0
100
AcDbLine
 10
3.899964
 20
60.125
 30
0.0
 11
3.899964
 21
46.5
 31
0.0
  0
LINE
  5
2C8C
330
2C7B
100
AcDbEntity
  8
0
100
AcDbLine
 10
2.099976
 20
59.5
 30
0.0
 11
2.099976
 21
46.5
 31
0.0
  0
LINE
  5
2C8D
330
2C7B
100
AcDbEntity
  8
0
100
AcDbLine
 10
6.5
 20
46.5
 30
0.0
 11
-0.5
 21
46.5
 31
0.0
  0
LINE
  5
2C8E
330
2C7B
100
AcDbEntity
  8
0
100
AcDbLine
 10
9.5
 20
45.0
 30
0.0
 11
0.0
 21
45.0
 31
0.0
  0
LINE
  5
2C8F
330
2C7B
100
AcDbEntity
  8
0
100
AcDbLine
 10
-0.5
 20
46.5
 30
0.0
 11
-0.5
 21
45.0
 31
0.0
  0
LINE
  5
2C90
330
2C7B
100
AcDbEntity
  8
0
100
AcDbLine
 10
6.5
 20
46.5
 30
0.0
 11
6.5
 21
45.0
 31
0.0
  0
LINE
  5
2C91
330
2C7B
100
AcDbEntity
  8
HOJO
100
AcDbLine
 10
0.299988
 20
58.875
 30
0.0
 11
2.098938
 21
58.427292
 31
0.0
  0
LINE
  5
2C92
330
2C7B
100
AcDbEntity
  8
HOJO
100
AcDbLine
 10
5.699951
 20
58.0625
 30
0.0
 11
3.899964
 21
58.6875
 31
0.0
  0
LINE
  5
2C93
330
2C7B
100
AcDbEntity
  8
HOJO
100
AcDbLine
 10
3.899964
 20
60.125
 30
0.0
 11
2.099976
 21
59.5
 31
0.0
  0
ARC
  5
2C94
330
2C7B
100
AcDbEntity
  8
0
100
AcDbCircle
 10
51.999939
 20
42.0
 30
0.0
 40
5.0
100
AcDbArc
 50
0.0
 51
90.0
  0
ENDBLK
  5
2C95
330
2C7B
100
AcDbEntity
  8
0
100
AcDbBlockEnd
  0
BLOCK
  5
2C98
330
2C96
100
AcDbEntity
  8
0
100
AcDbBlockBegin
  2
ファンカバ－ブレーキ_F2S-15_0007-01
 70
     0
 10
0.0
 20
0.0
 30
0.0
  3
ファンカバ－ブレーキ_F2S-15_0007-01
  1

  0
LINE
  5
2C99
330
2C96
100
AcDbEntity
  8
0
100
AcDbLine
 10
0.0
 20
-6.866027
 30
0.0
 11
0.0
 21
-45.0
 31
0.0
  0
LINE
  5
2C9A
330
2C96
100
AcDbEntity
  8
0
100
AcDbLine
 10
56.999939
 20
-42.0
 30
0.0
 11
56.999939
 21
42.0
 31
0.0
  0
LINE
  5
2C9B
330
2C96
100
AcDbEntity
  8
0
100
AcDbLine
 10
9.5
 20
47.0
 30
0.0
 11
9.5
 21
-47.0
 31
0.0
  0
LINE
  5
2C9C
330
2C96
100
AcDbEntity
  8
0
100
AcDbLine
 10
51.999939
 20
-47.0
 30
0.0
 11
9.5
 21
-47.0
 31
0.0
  0
LINE
  5
2C9D
330
2C96
100
AcDbEntity
  8
0
100
AcDbLine
 10
9.5
 20
-29.0
 30
0.0
 11
53.474976
 21
-29.0
 31
0.0
  0
LINE
  5
2C9E
330
2C96
100
AcDbEntity
  8
0
100
AcDbLine
 10
9.5
 20
-45.0
 30
0.0
 11
0.0
 21
-45.0
 31
0.0
  0
LINE
  5
2C9F
330
2C96
100
AcDbEntity
  8
0
100
AcDbLine
 10
0.0
 20
-29.0
 30
0.0
 11
9.5
 21
-29.0
 31
0.0
  0
ARC
  5
2CA0
330
2C96
100
AcDbEntity
  8
0
100
AcDbCircle
 10
51.999939
 20
-42.0
 30
0.0
 40
5.0
100
AcDbArc
 50
270.0
 51
0.0
  0
LINE
  5
2CA1
330
2C96
100
AcDbEntity
  8
0
100
AcDbLine
 10
51.999939
 20
47.0
 30
0.0
 11
9.5
 21
47.0
 31
0.0
  0
LINE
  5
2CA2
330
2C96
100
AcDbEntity
  8
0
100
AcDbLine
 10
9.5
 20
29.0
 30
0.0
 11
53.474976
 21
29.0
 31
0.0
  0
LINE
  5
2CA3
330
2C96
100
AcDbEntity
  8
0
100
AcDbLine
 10
0.0
 20
45.0
 30
0.0
 11
0.0
 21
6.866028
 31
0.0
  0
LINE
  5
2CA4
330
2C96
100
AcDbEntity
  8
0
100
AcDbLine
 10
4.0
 20
3.5
 30
0.0
 11
4.0
 21
-3.5
 31
0.0
  0
LINE
  5
2CA5
330
2C96
100
AcDbEntity
  8
0
100
AcDbLine
 10
2.0
 20
3.5
 30
0.0
 11
2.0
 21
-3.5
 31
0.0
  0
LINE
  5
2CA6
330
2C96
100
AcDbEntity
  8
0
100
AcDbLine
 10
-0.5
 20
-6.0
 30
0.0
 11
-0.5
 21
6.0
 31
0.0
  0
LINE
  5
2CA7
330
2C96
100
AcDbEntity
  8
0
100
AcDbLine
 10
6.5
 20
-6.0
 30
0.0
 11
6.5
 21
6.0
 31
0.0
  0
LINE
  5
2CA8
330
2C96
100
AcDbEntity
  8
0
100
AcDbLine
 10
0.5
 20
-7.0
 30
0.0
 11
5.5
 21
-7.0
 31
0.0
  0
ARC
  5
2CA9
330
2C96
100
AcDbEntity
  8
0
100
AcDbCircle
 10
0.5
 20
-6.0
 30
0.0
 40
1.0
100
AcDbArc
 50
180.0
 51
270.0
  0
ARC
  5
2CAA
330
2C96
100
AcDbEntity
  8
0
100
AcDbCircle
 10
3.0
 20
-3.5
 30
0.0
 40
1.0
100
AcDbArc
 50
180.0
 51
0.0
  0
ARC
  5
2CAB
330
2C96
100
AcDbEntity
  8
0
100
AcDbCircle
 10
5.5
 20
-6.0
 30
0.0
 40
1.0
100
AcDbArc
 50
270.0
 51
0.0
  0
ARC
  5
2CAC
330
2C96
100
AcDbEntity
  8
0
100
AcDbCircle
 10
3.0
 20
3.5
 30
0.0
 40
1.0
100
AcDbArc
 50
0.0
 51
180.0
  0
LINE
  5
2CAD
330
2C96
100
AcDbEntity
  8
0
100
AcDbLine
 10
5.5
 20
7.0
 30
0.0
 11
0.5
 21
7.0
 31
0.0
  0
ARC
  5
2CAE
330
2C96
100
AcDbEntity
  8
0
100
AcDbCircle
 10
0.5
 20
6.0
 30
0.0
 40
1.0
100
AcDbArc
 50
90.0
 51
180.0
  0
ARC
  5
2CAF
330
2C96
100
AcDbEntity
  8
0
100
AcDbCircle
 10
5.5
 20
6.0
 30
0.0
 40
1.0
100
AcDbArc
 50
0.0
 51
90.0
  0
LINE
  5
2CB0
330
2C96
100
AcDbEntity
  8
0
100
AcDbLine
 10
0.0
 20
29.0
 30
0.0
 11
9.5
 21
29.0
 31
0.0
  0
LINE
  5
2CB1
330
2C96
100
AcDbEntity
  8
0
100
AcDbLine
 10
9.5
 20
45.0
 30
0.0
 11
0.0
 21
45.0
 31
0.0
  0
ARC
  5
2CB2
330
2C96
100
AcDbEntity
  8
0
100
AcDbCircle
 10
51.999939
 20
42.000031
 30
0.0
 40
5.0
100
AcDbArc
 50
0.0
 51
90.0
  0
ENDBLK
  5
2CB3
330
2C96
100
AcDbEntity
  8
0
100
AcDbBlockEnd
  0
BLOCK
  5
2EBF
330
2EBE
100
AcDbEntity
  8
0
100
AcDbBlockBegin
  2
*D19
 70
     1
 10
0.0
 20
0.0
 30
0.0
  3
*D19
  1

  0
POINT
  5
3086
330
2EBE
100
AcDbEntity
  8
DEFPOINTS
 62
     0
100
AcDbPoint
 10
665.0813878617
 20
121.7739387801
 30
0.0
  0
POINT
  5
3087
330
2EBE
100
AcDbEntity
  8
DEFPOINTS
 62
     0
100
AcDbPoint
 10
665.0813878617
 20
219.7739387801
 30
0.0
  0
POINT
  5
3088
330
2EBE
100
AcDbEntity
  8
DEFPOINTS
 62
     0
100
AcDbPoint
 10
587.6837102251
 20
219.7739387801
 30
0.0
  0
ENDBLK
  5
2EC0
330
2EBE
100
AcDbEntity
  8
0
100
AcDbBlockEnd
  0
BLOCK
  5
2ECB
330
2ECA
100
AcDbEntity
  8
0
100
AcDbBlockBegin
  2
*D20
 70
     1
 10
0.0
 20
0.0
 30
0.0
  3
*D20
  1

  0
POINT
  5
308F
330
2ECA
100
AcDbEntity
  8
DEFPOINTS
 62
     0
100
AcDbPoint
 10
476.3862611095
 20
225.0589427801
 30
0.0
  0
POINT
  5
3090
330
2ECA
100
AcDbEntity
  8
DEFPOINTS
 62
     0
100
AcDbPoint
 10
536.3862611095
 20
183.7500437801
 30
0.0
  0
POINT
  5
3091
330
2ECA
100
AcDbEntity
  8
DEFPOINTS
 62
     0
100
AcDbPoint
 10
536.3862611095
 20
290.7416363376
 30
0.0
  0
ENDBLK
  5
2ECC
330
2ECA
100
AcDbEntity
  8
0
100
AcDbBlockEnd
  0
BLOCK
  5
2ED7
330
2ED6
100
AcDbEntity
  8
0
100
AcDbBlockBegin
  2
*D21
 70
     1
 10
0.0
 20
0.0
 30
0.0
  3
*D21
  1

  0
POINT
  5
3098
330
2ED6
100
AcDbEntity
  8
DEFPOINTS
 62
     0
100
AcDbPoint
 10
476.3862611095
 20
225.0589427801
 30
0.0
  0
POINT
  5
3099
330
2ED6
100
AcDbEntity
  8
DEFPOINTS
 62
     0
100
AcDbPoint
 10
416.3862611095
 20
183.7500437801
 30
0.0
  0
POINT
  5
309A
330
2ED6
100
AcDbEntity
  8
DEFPOINTS
 62
     0
100
AcDbPoint
 10
416.3862611095
 20
290.7416363376
 30
0.0
  0
ENDBLK
  5
2ED8
330
2ED6
100
AcDbEntity
  8
0
100
AcDbBlockEnd
  0
BLOCK
  5
2EE3
330
2EE2
100
AcDbEntity
  8
0
100
AcDbBlockBegin
  2
*D22
 70
     1
 10
0.0
 20
0.0
 30
0.0
  3
*D22
  1

  0
POINT
  5
30A1
330
2EE2
100
AcDbEntity
  8
DEFPOINTS
 62
     0
100
AcDbPoint
 10
476.3862611095
 20
116.4889347801
 30
0.0
  0
POINT
  5
30A2
330
2EE2
100
AcDbEntity
  8
DEFPOINTS
 62
     0
100
AcDbPoint
 10
524.3862611095
 20
122.6117818966
 30
0.0
  0
POINT
  5
30A3
330
2EE2
100
AcDbEntity
  8
DEFPOINTS
 62
     0
100
AcDbPoint
 10
524.3862611095
 20
65.6898811783
 30
0.0
  0
ENDBLK
  5
2EE4
330
2EE2
100
AcDbEntity
  8
0
100
AcDbBlockEnd
  0
BLOCK
  5
2EEF
330
2EEE
100
AcDbEntity
  8
0
100
AcDbBlockBegin
  2
*D23
 70
     1
 10
0.0
 20
0.0
 30
0.0
  3
*D23
  1

  0
POINT
  5
30AA
330
2EEE
100
AcDbEntity
  8
DEFPOINTS
 62
     0
100
AcDbPoint
 10
476.3862611095
 20
116.4889347801
 30
0.0
  0
POINT
  5
30AB
330
2EEE
100
AcDbEntity
  8
DEFPOINTS
 62
     0
100
AcDbPoint
 10
428.3862611095
 20
122.6117818966
 30
0.0
  0
POINT
  5
30AC
330
2EEE
100
AcDbEntity
  8
DEFPOINTS
 62
     0
100
AcDbPoint
 10
428.3862611095
 20
65.6898811783
 30
0.0
  0
ENDBLK
  5
2EF0
330
2EEE
100
AcDbEntity
  8
0
100
AcDbBlockEnd
  0
BLOCK
  5
2EFB
330
2EFA
100
AcDbEntity
  8
0
100
AcDbBlockBegin
  2
*D24
 70
     1
 10
0.0
 20
0.0
 30
0.0
  3
*D24
  1

  0
POINT
  5
30B3
330
2EFA
100
AcDbEntity
  8
DEFPOINTS
 62
     0
100
AcDbPoint
 10
428.3862611095
 20
122.6117818966
 30
0.0
  0
POINT
  5
30B4
330
2EFA
100
AcDbEntity
  8
DEFPOINTS
 62
     0
100
AcDbPoint
 10
524.3862611095
 20
122.6117818966
 30
0.0
  0
POINT
  5
30B5
330
2EFA
100
AcDbEntity
  8
DEFPOINTS
 62
     0
100
AcDbPoint
 10
524.3862611095
 20
47.7445856897
 30
0.0
  0
ENDBLK
  5
2EFC
330
2EFA
100
AcDbEntity
  8
0
100
AcDbBlockEnd
  0
BLOCK
  5
2F07
330
2F06
100
AcDbEntity
  8
0
100
AcDbBlockBegin
  2
*D25
 70
     1
 10
0.0
 20
0.0
 30
0.0
  3
*D25
  1

  0
POINT
  5
30BE
330
2F06
100
AcDbEntity
  8
DEFPOINTS
 62
     0
100
AcDbPoint
 10
428.3862611095
 20
137.0239387801
 30
0.0
  0
POINT
  5
30BF
330
2F06
100
AcDbEntity
  8
DEFPOINTS
 62
     0
100
AcDbPoint
 10
428.3862611095
 20
126.5239387801
 30
0.0
  0
POINT
  5
30C0
330
2F06
100
AcDbEntity
  8
DEFPOINTS
 62
     0
100
AcDbPoint
 10
408.737912048
 20
126.5239387801
 30
0.0
  0
ENDBLK
  5
2F08
330
2F06
100
AcDbEntity
  8
0
100
AcDbBlockEnd
  0
BLOCK
  5
2F15
330
2F14
100
AcDbEntity
  8
0
100
AcDbBlockBegin
  2
*D26
 70
     1
 10
0.0
 20
0.0
 30
0.0
  3
*D26
  1

  0
POINT
  5
30C9
330
2F14
100
AcDbEntity
  8
DEFPOINTS
 62
     0
100
AcDbPoint
 10
441.3862611095
 20
122.3848660526
 30
0.0
  0
POINT
  5
30CA
330
2F14
100
AcDbEntity
  8
DEFPOINTS
 62
     0
100
AcDbPoint
 10
428.3862611095
 20
122.6117818966
 30
0.0
  0
POINT
  5
30CB
330
2F14
100
AcDbEntity
  8
DEFPOINTS
 62
     0
100
AcDbPoint
 10
428.3862611095
 20
101.5967514393
 30
0.0
  0
ENDBLK
  5
2F16
330
2F14
100
AcDbEntity
  8
0
100
AcDbBlockEnd
  0
BLOCK
  5
2F23
330
2F22
100
AcDbEntity
  8
0
100
AcDbBlockBegin
  2
*D27
 70
     1
 10
0.0
 20
0.0
 30
0.0
  3
*D27
  1

  0
POINT
  5
30D2
330
2F22
100
AcDbEntity
  8
DEFPOINTS
 62
     0
100
AcDbPoint
 10
486.3862611095
 20
126.7739387801
 30
0.0
  0
POINT
  5
30D3
330
2F22
100
AcDbEntity
  8
DEFPOINTS
 62
     0
100
AcDbPoint
 10
524.3862611095
 20
122.6117818966
 30
0.0
  0
POINT
  5
30D4
330
2F22
100
AcDbEntity
  8
DEFPOINTS
 62
     0
100
AcDbPoint
 10
524.3862611095
 20
83.6667224114
 30
0.0
  0
ENDBLK
  5
2F24
330
2F22
100
AcDbEntity
  8
0
100
AcDbBlockEnd
  0
BLOCK
  5
2F3D
330
2F3C
100
AcDbEntity
  8
0
100
AcDbBlockBegin
  2
*D28
 70
     1
 10
0.0
 20
0.0
 30
0.0
  3
*D28
  1

  0
POINT
  5
30E6
330
2F3C
100
AcDbEntity
  8
DEFPOINTS
 62
     0
100
AcDbPoint
 10
466.3862611095
 20
126.7739387801
 30
0.0
  0
POINT
  5
30E7
330
2F3C
100
AcDbEntity
  8
DEFPOINTS
 62
     0
100
AcDbPoint
 10
428.3862611095
 20
122.6117818966
 30
0.0
  0
POINT
  5
30E8
330
2F3C
100
AcDbEntity
  8
DEFPOINTS
 62
     0
100
AcDbPoint
 10
428.3862611095
 20
83.6667224114
 30
0.0
  0
ENDBLK
  5
2F3E
330
2F3C
100
AcDbEntity
  8
0
100
AcDbBlockEnd
  0
BLOCK
  5
2F49
330
2F48
100
AcDbEntity
  8
0
100
AcDbBlockBegin
  2
*D29
 70
     1
 10
0.0
 20
0.0
 30
0.0
  3
*D29
  1

  0
POINT
  5
30EF
330
2F48
100
AcDbEntity
  8
DEFPOINTS
 62
     0
100
AcDbPoint
 10
441.3862611095
 20
122.3848660526
 30
0.0
  0
POINT
  5
30F0
330
2F48
100
AcDbEntity
  8
DEFPOINTS
 62
     0
100
AcDbPoint
 10
466.3862611095
 20
126.7739387801
 30
0.0
  0
POINT
  5
30F1
330
2F48
100
AcDbEntity
  8
DEFPOINTS
 62
     0
100
AcDbPoint
 10
466.3862611095
 20
101.5967514393
 30
0.0
  0
ENDBLK
  5
2F4A
330
2F48
100
AcDbEntity
  8
0
100
AcDbBlockEnd
  0
BLOCK
  5
2F55
330
2F54
100
AcDbEntity
  8
0
100
AcDbBlockBegin
  2
*D30
 70
     1
 10
0.0
 20
0.0
 30
0.0
  3
*D30
  1

  0
POINT
  5
30F8
330
2F54
100
AcDbEntity
  8
DEFPOINTS
 62
     0
100
AcDbPoint
 10
271.3154222315
 20
354.1350290657
 30
0.0
  0
POINT
  5
30F9
330
2F54
100
AcDbEntity
  8
DEFPOINTS
 62
     0
100
AcDbPoint
 10
183.3154222315
 20
354.1350290657
 30
0.0
  0
POINT
  5
30FA
330
2F54
100
AcDbEntity
  8
DEFPOINTS
 62
     0
100
AcDbPoint
 10
183.3154222315
 20
462.1027266233
 30
0.0
  0
ENDBLK
  5
2F56
330
2F54
100
AcDbEntity
  8
0
100
AcDbBlockEnd
  0
BLOCK
  5
2F61
330
2F60
100
AcDbEntity
  8
0
100
AcDbBlockBegin
  2
*D31
 70
     1
 10
0.0
 20
0.0
 30
0.0
  3
*D31
  1

  0
POINT
  5
3101
330
2F60
100
AcDbEntity
  8
DEFPOINTS
 62
     0
100
AcDbPoint
 10
204.3154222315
 20
350.1350290657
 30
0.0
  0
POINT
  5
3102
330
2F60
100
AcDbEntity
  8
DEFPOINTS
 62
     0
100
AcDbPoint
 10
250.3154222315
 20
350.1350290657
 30
0.0
  0
POINT
  5
3103
330
2F60
100
AcDbEntity
  8
DEFPOINTS
 62
     0
100
AcDbPoint
 10
250.3154222315
 20
444.3307901264
 30
0.0
  0
ENDBLK
  5
2F62
330
2F60
100
AcDbEntity
  8
0
100
AcDbBlockEnd
  0
BLOCK
  5
2F6D
330
2F6C
100
AcDbEntity
  8
0
100
AcDbBlockBegin
  2
*D32
 70
     1
 10
0.0
 20
0.0
 30
0.0
  3
*D32
  1

  0
POINT
  5
310A
330
2F6C
100
AcDbEntity
  8
DEFPOINTS
 62
     0
100
AcDbPoint
 10
204.3154222315
 20
350.1350290657
 30
0.0
  0
POINT
  5
310B
330
2F6C
100
AcDbEntity
  8
DEFPOINTS
 62
     0
100
AcDbPoint
 10
183.3154222315
 20
354.1350290657
 30
0.0
  0
POINT
  5
310C
330
2F6C
100
AcDbEntity
  8
DEFPOINTS
 62
     0
100
AcDbPoint
 10
183.3154222315
 20
444.3307901264
 30
0.0
  0
ENDBLK
  5
2F6E
330
2F6C
100
AcDbEntity
  8
0
100
AcDbBlockEnd
  0
BLOCK
  5
2F79
330
2F78
100
AcDbEntity
  8
0
100
AcDbBlockBegin
  2
*D33
 70
     1
 10
0.0
 20
0.0
 30
0.0
  3
*D33
  1

  0
POINT
  5
3115
330
2F78
100
AcDbEntity
  8
DEFPOINTS
 62
     0
100
AcDbPoint
 10
183.3154222315
 20
354.1350290657
 30
0.0
  0
POINT
  5
3116
330
2F78
100
AcDbEntity
  8
DEFPOINTS
 62
     0
100
AcDbPoint
 10
179.3154222315
 20
390.2971859491
 30
0.0
  0
POINT
  5
3117
330
2F78
100
AcDbEntity
  8
DEFPOINTS
 62
     0
100
AcDbPoint
 10
179.3154222315
 20
462.1027266233
 30
0.0
  0
ENDBLK
  5
2F7A
330
2F78
100
AcDbEntity
  8
0
100
AcDbBlockEnd
  0
BLOCK
  5
2F87
330
2F86
100
AcDbEntity
  8
0
100
AcDbBlockBegin
  2
*D34
 70
     1
 10
0.0
 20
0.0
 30
0.0
  3
*D34
  1

  0
POINT
  5
3120
330
2F86
100
AcDbEntity
  8
DEFPOINTS
 62
     0
100
AcDbPoint
 10
192.3154222315
 20
349.9850350657
 30
0.0
  0
POINT
  5
3121
330
2F86
100
AcDbEntity
  8
DEFPOINTS
 62
     0
100
AcDbPoint
 10
183.3154222315
 20
354.1350290657
 30
0.0
  0
POINT
  5
3122
330
2F86
100
AcDbEntity
  8
DEFPOINTS
 62
     0
100
AcDbPoint
 10
183.3154222315
 20
426.0971027085
 30
0.0
  0
ENDBLK
  5
2F88
330
2F86
100
AcDbEntity
  8
0
100
AcDbBlockEnd
  0
BLOCK
  5
2F95
330
2F94
100
AcDbEntity
  8
0
100
AcDbBlockBegin
  2
*D35
 70
     1
 10
0.0
 20
0.0
 30
0.0
  3
*D35
  1

  0
POINT
  5
312B
330
2F94
100
AcDbEntity
  8
DEFPOINTS
 62
     0
100
AcDbPoint
 10
269.3154222315
 20
334.6350290657
 30
0.0
  0
POINT
  5
312C
330
2F94
100
AcDbEntity
  8
DEFPOINTS
 62
     0
100
AcDbPoint
 10
269.3154222315
 20
349.6350290657
 30
0.0
  0
POINT
  5
312D
330
2F94
100
AcDbEntity
  8
DEFPOINTS
 62
     0
100
AcDbPoint
 10
309.0626229243
 20
349.6350290657
 30
0.0
  0
ENDBLK
  5
2F96
330
2F94
100
AcDbEntity
  8
0
100
AcDbBlockEnd
  0
BLOCK
  5
2FA3
330
2FA2
100
AcDbEntity
  8
0
100
AcDbBlockBegin
  2
*D36
 70
     1
 10
0.0
 20
0.0
 30
0.0
  3
*D36
  1

  0
POINT
  5
3136
330
2FA2
100
AcDbEntity
  8
DEFPOINTS
 62
     0
100
AcDbPoint
 10
271.3154222315
 20
354.1350290657
 30
0.0
  0
POINT
  5
3137
330
2FA2
100
AcDbEntity
  8
DEFPOINTS
 62
     0
100
AcDbPoint
 10
275.3154222315
 20
390.2971859491
 30
0.0
  0
POINT
  5
3138
330
2FA2
100
AcDbEntity
  8
DEFPOINTS
 62
     0
100
AcDbPoint
 10
275.3154222315
 20
462.1027266233
 30
0.0
  0
ENDBLK
  5
2FA4
330
2FA2
100
AcDbEntity
  8
0
100
AcDbBlockEnd
  0
BLOCK
  5
2FB1
330
2FB0
100
AcDbEntity
  8
0
100
AcDbBlockBegin
  2
*D37
 70
     1
 10
0.0
 20
0.0
 30
0.0
  3
*D37
  1

  0
POINT
  5
313F
330
2FB0
100
AcDbEntity
  8
DEFPOINTS
 62
     0
100
AcDbPoint
 10
250.3154222315
 20
350.1350290657
 30
0.0
  0
POINT
  5
3140
330
2FB0
100
AcDbEntity
  8
DEFPOINTS
 62
     0
100
AcDbPoint
 10
271.3154222315
 20
354.1350290657
 30
0.0
  0
POINT
  5
3141
330
2FB0
100
AcDbEntity
  8
DEFPOINTS
 62
     0
100
AcDbPoint
 10
271.3154222315
 20
444.3307901264
 30
0.0
  0
ENDBLK
  5
2FB2
330
2FB0
100
AcDbEntity
  8
0
100
AcDbBlockEnd
  0
BLOCK
  5
2FBD
330
2FBC
100
AcDbEntity
  8
0
100
AcDbBlockBegin
  2
*D38
 70
     1
 10
0.0
 20
0.0
 30
0.0
  3
*D38
  1

  0
POINT
  5
314A
330
2FBC
100
AcDbEntity
  8
DEFPOINTS
 62
     0
100
AcDbPoint
 10
262.3154222315
 20
349.9850350657
 30
0.0
  0
POINT
  5
314B
330
2FBC
100
AcDbEntity
  8
DEFPOINTS
 62
     0
100
AcDbPoint
 10
271.3154222315
 20
354.1350290657
 30
0.0
  0
POINT
  5
314C
330
2FBC
100
AcDbEntity
  8
DEFPOINTS
 62
     0
100
AcDbPoint
 10
271.3154222315
 20
426.0971027085
 30
0.0
  0
ENDBLK
  5
2FBE
330
2FBC
100
AcDbEntity
  8
0
100
AcDbBlockEnd
  0
BLOCK
  5
2FCB
330
2FCA
100
AcDbEntity
  8
0
100
AcDbBlockBegin
  2
*D39
 70
     1
 10
0.0
 20
0.0
 30
0.0
  3
*D39
  1

  0
POINT
  5
3153
330
2FCA
100
AcDbEntity
  8
DEFPOINTS
 62
     0
100
AcDbPoint
 10
271.3154222315
 20
330.1350290657
 30
0.0
  0
POINT
  5
3154
330
2FCA
100
AcDbEntity
  8
DEFPOINTS
 62
     0
100
AcDbPoint
 10
271.3154222315
 20
354.1350290657
 30
0.0
  0
POINT
  5
3155
330
2FCA
100
AcDbEntity
  8
DEFPOINTS
 62
     0
100
AcDbPoint
 10
326.9654633923
 20
354.1350290657
 30
0.0
  0
ENDBLK
  5
2FCC
330
2FCA
100
AcDbEntity
  8
0
100
AcDbBlockEnd
  0
BLOCK
  5
2FD7
330
2FD6
100
AcDbEntity
  8
0
100
AcDbBlockBegin
  2
*D40
 70
     1
 10
0.0
 20
0.0
 30
0.0
  3
*D40
  1

  0
POINT
  5
315C
330
2FD6
100
AcDbEntity
  8
DEFPOINTS
 62
     0
100
AcDbPoint
 10
274.3154222315
 20
322.6350290657
 30
0.0
  0
POINT
  5
315D
330
2FD6
100
AcDbEntity
  8
DEFPOINTS
 62
     0
100
AcDbPoint
 10
274.3154222315
 20
361.6350290657
 30
0.0
  0
POINT
  5
315E
330
2FD6
100
AcDbEntity
  8
DEFPOINTS
 62
     0
100
AcDbPoint
 10
345.1277646146
 20
361.6350290657
 30
0.0
  0
ENDBLK
  5
2FD8
330
2FD6
100
AcDbEntity
  8
0
100
AcDbBlockEnd
  0
BLOCK
  5
2FE3
330
2FE2
100
AcDbEntity
  8
0
100
AcDbBlockBegin
  2
*D41
 70
     1
 10
0.0
 20
0.0
 30
0.0
  3
*D41
  1

  0
POINT
  5
3165
330
2FE2
100
AcDbEntity
  8
DEFPOINTS
 62
     0
100
AcDbPoint
 10
770.0813878617
 20
210.7739387801
 30
0.0
  0
POINT
  5
3166
330
2FE2
100
AcDbEntity
  8
DEFPOINTS
 62
     0
100
AcDbPoint
 10
656.0813878617
 20
210.7739387801
 30
0.0
  0
POINT
  5
3167
330
2FE2
100
AcDbEntity
  8
DEFPOINTS
 62
     0
100
AcDbPoint
 10
656.0813878617
 20
290.7416363376
 30
0.0
  0
ENDBLK
  5
2FE4
330
2FE2
100
AcDbEntity
  8
0
100
AcDbBlockEnd
  0
BLOCK
  5
2FEF
330
2FEE
100
AcDbEntity
  8
0
100
AcDbBlockBegin
  2
*D42
 70
     1
 10
0.0
 20
0.0
 30
0.0
  3
*D42
  1

  0
POINT
  5
357A
330
2FEE
100
AcDbEntity
  8
DEFPOINTS
 62
     0
100
AcDbPoint
 10
656.0813878617
 20
210.7739387801
 30
0.0
  0
POINT
  5
357B
330
2FEE
100
AcDbEntity
  8
DEFPOINTS
 62
     0
100
AcDbPoint
 10
902.4516268617
 20
212.7739387801
 30
0.0
  0
POINT
  5
357C
330
2FEE
100
AcDbEntity
  8
DEFPOINTS
 62
     0
100
AcDbPoint
 10
902.4516268617
 20
309.0865928528
 30
0.0
  0
ENDBLK
  5
2FF0
330
2FEE
100
AcDbEntity
  8
0
100
AcDbBlockEnd
  0
BLOCK
  5
2FFB
330
2FFA
100
AcDbEntity
  8
0
100
AcDbBlockBegin
  2
*D43
 70
     1
 10
0.0
 20
0.0
 30
0.0
  3
*D43
  1

  0
POINT
  5
3177
330
2FFA
100
AcDbEntity
  8
DEFPOINTS
 62
     0
100
AcDbPoint
 10
700.5813878617
 20
204.4561022801
 30
0.0
  0
POINT
  5
3178
330
2FFA
100
AcDbEntity
  8
DEFPOINTS
 62
     0
100
AcDbPoint
 10
770.0813878617
 20
210.7739387801
 30
0.0
  0
POINT
  5
3179
330
2FFA
100
AcDbEntity
  8
DEFPOINTS
 62
     0
100
AcDbPoint
 10
770.0813878617
 20
272.7479768457
 30
0.0
  0
ENDBLK
  5
2FFC
330
2FFA
100
AcDbEntity
  8
0
100
AcDbBlockEnd
  0
BLOCK
  5
3007
330
3006
100
AcDbEntity
  8
0
100
AcDbBlockBegin
  2
*D44
 70
     1
 10
0.0
 20
0.0
 30
0.0
  3
*D44
  1

  0
POINT
  5
3180
330
3006
100
AcDbEntity
  8
DEFPOINTS
 62
     0
100
AcDbPoint
 10
700.5813878617
 20
163.2739387801
 30
0.0
  0
POINT
  5
3181
330
3006
100
AcDbEntity
  8
DEFPOINTS
 62
     0
100
AcDbPoint
 10
698.0813878617
 20
180.5739417801
 30
0.0
  0
POINT
  5
3182
330
3006
100
AcDbEntity
  8
DEFPOINTS
 62
     0
100
AcDbPoint
 10
641.711708839
 20
180.5739417801
 30
0.0
  0
ENDBLK
  5
3008
330
3006
100
AcDbEntity
  8
0
100
AcDbBlockEnd
  0
BLOCK
  5
3013
330
3012
100
AcDbEntity
  8
0
100
AcDbBlockBegin
  2
*D45
 70
     1
 10
0.0
 20
0.0
 30
0.0
  3
*D45
  1

  0
POINT
  5
3189
330
3012
100
AcDbEntity
  8
DEFPOINTS
 62
     0
100
AcDbPoint
 10
649.4142128617
 20
170.7739387801
 30
0.0
  0
POINT
  5
318A
330
3012
100
AcDbEntity
  8
DEFPOINTS
 62
     0
100
AcDbPoint
 10
657.1027498617
 20
209.7739387801
 30
0.0
  0
POINT
  5
318B
330
3012
100
AcDbEntity
  8
DEFPOINTS
 62
     0
100
AcDbPoint
 10
623.4220767649
 20
209.7739387801
 30
0.0
  0
ENDBLK
  5
3014
330
3012
100
AcDbEntity
  8
0
100
AcDbBlockEnd
  0
BLOCK
  5
301F
330
301E
100
AcDbEntity
  8
0
100
AcDbBlockBegin
  2
*D46
 70
     1
 10
0.0
 20
0.0
 30
0.0
  3
*D46
  1

  0
POINT
  5
3192
330
301E
100
AcDbEntity
  8
DEFPOINTS
 62
     0
100
AcDbPoint
 10
649.4142128617
 20
170.7739387801
 30
0.0
  0
POINT
  5
3193
330
301E
100
AcDbEntity
  8
DEFPOINTS
 62
     0
100
AcDbPoint
 10
665.0813878617
 20
219.7739387801
 30
0.0
  0
POINT
  5
3194
330
301E
100
AcDbEntity
  8
DEFPOINTS
 62
     0
100
AcDbPoint
 10
605.7631178971
 20
219.7739387801
 30
0.0
  0
ENDBLK
  5
3020
330
301E
100
AcDbEntity
  8
0
100
AcDbBlockEnd
  0
BLOCK
  5
302B
330
302A
100
AcDbEntity
  8
0
100
AcDbBlockBegin
  2
*D47
 70
     1
 10
0.0
 20
0.0
 30
0.0
  3
*D47
  1

  0
POINT
  5
319D
330
302A
100
AcDbEntity
  8
DEFPOINTS
 62
     0
100
AcDbPoint
 10
698.0813878617
 20
180.5739417801
 30
0.0
  0
POINT
  5
319E
330
302A
100
AcDbEntity
  8
DEFPOINTS
 62
     0
100
AcDbPoint
 10
703.0813878617
 20
180.5739417801
 30
0.0
  0
POINT
  5
319F
330
302A
100
AcDbEntity
  8
DEFPOINTS
 62
     0
100
AcDbPoint
 10
703.0813878617
 20
236.622388374
 30
0.0
  0
ENDBLK
  5
302C
330
302A
100
AcDbEntity
  8
0
100
AcDbBlockEnd
  0
BLOCK
  5
3039
330
3038
100
AcDbEntity
  8
0
100
AcDbBlockBegin
  2
*D48
 70
     1
 10
0.0
 20
0.0
 30
0.0
  3
*D48
  1

  0
POINT
  5
31A6
330
3038
100
AcDbEntity
  8
DEFPOINTS
 62
     0
100
AcDbPoint
 10
649.4142128617
 20
170.7739387801
 30
0.0
  0
POINT
  5
31A7
330
3038
100
AcDbEntity
  8
DEFPOINTS
 62
     0
100
AcDbPoint
 10
665.0813878617
 20
121.7739387801
 30
0.0
  0
POINT
  5
31A8
330
3038
100
AcDbEntity
  8
DEFPOINTS
 62
     0
100
AcDbPoint
 10
605.7631178971
 20
121.7739387801
 30
0.0
  0
ENDBLK
  5
303A
330
3038
100
AcDbEntity
  8
0
100
AcDbBlockEnd
  0
BLOCK
  5
3045
330
3044
100
AcDbEntity
  8
0
100
AcDbBlockBegin
  2
*D49
 70
     1
 10
0.0
 20
0.0
 30
0.0
  3
*D49
  1

  0
POINT
  5
31AF
330
3044
100
AcDbEntity
  8
DEFPOINTS
 62
     0
100
AcDbPoint
 10
649.4142128617
 20
170.7739387801
 30
0.0
  0
POINT
  5
31B0
330
3044
100
AcDbEntity
  8
DEFPOINTS
 62
     0
100
AcDbPoint
 10
657.1027498617
 20
131.7739387801
 30
0.0
  0
POINT
  5
31B1
330
3044
100
AcDbEntity
  8
DEFPOINTS
 62
     0
100
AcDbPoint
 10
623.4220767649
 20
131.7739387801
 30
0.0
  0
ENDBLK
  5
3046
330
3044
100
AcDbEntity
  8
0
100
AcDbBlockEnd
  0
BLOCK
  5
3051
330
3050
100
AcDbEntity
  8
0
100
AcDbBlockBegin
  2
*D50
 70
     1
 10
0.0
 20
0.0
 30
0.0
  3
*D50
  1

  0
POINT
  5
31B8
330
3050
100
AcDbEntity
  8
DEFPOINTS
 62
     0
100
AcDbPoint
 10
700.5813878617
 20
204.4561022801
 30
0.0
  0
POINT
  5
31B9
330
3050
100
AcDbEntity
  8
DEFPOINTS
 62
     0
100
AcDbPoint
 10
656.0813878617
 20
210.7739387801
 30
0.0
  0
POINT
  5
31BA
330
3050
100
AcDbEntity
  8
DEFPOINTS
 62
     0
100
AcDbPoint
 10
656.0813878617
 20
272.7479768457
 30
0.0
  0
ENDBLK
  5
3052
330
3050
100
AcDbEntity
  8
0
100
AcDbBlockEnd
  0
BLOCK
  5
305D
330
305C
100
AcDbEntity
  8
0
100
AcDbBlockBegin
  2
*D51
 70
     1
 10
0.0
 20
0.0
 30
0.0
  3
*D51
  1

  0
POINT
  5
31C1
330
305C
100
AcDbEntity
  8
DEFPOINTS
 62
     0
100
AcDbPoint
 10
700.5813878617
 20
204.4561022801
 30
0.0
  0
POINT
  5
31C2
330
305C
100
AcDbEntity
  8
DEFPOINTS
 62
     0
100
AcDbPoint
 10
665.0813878617
 20
217.7525767801
 30
0.0
  0
POINT
  5
31C3
330
305C
100
AcDbEntity
  8
DEFPOINTS
 62
     0
100
AcDbPoint
 10
665.0813878617
 20
254.8260391766
 30
0.0
  0
ENDBLK
  5
305E
330
305C
100
AcDbEntity
  8
0
100
AcDbBlockEnd
  0
BLOCK
  5
3069
330
3068
100
AcDbEntity
  8
0
100
AcDbBlockBegin
  2
*D52
 70
     1
 10
0.0
 20
0.0
 30
0.0
  3
*D52
  1

  0
POINT
  5
31CA
330
3068
100
AcDbEntity
  8
DEFPOINTS
 62
     0
100
AcDbPoint
 10
700.5813878617
 20
204.4561022801
 30
0.0
  0
POINT
  5
31CB
330
3068
100
AcDbEntity
  8
DEFPOINTS
 62
     0
100
AcDbPoint
 10
761.0813878617
 20
217.7525767801
 30
0.0
  0
POINT
  5
31CC
330
3068
100
AcDbEntity
  8
DEFPOINTS
 62
     0
100
AcDbPoint
 10
761.0813878617
 20
254.8260391766
 30
0.0
  0
ENDBLK
  5
306A
330
3068
100
AcDbEntity
  8
0
100
AcDbBlockEnd
  0
BLOCK
  5
3075
330
3074
100
AcDbEntity
  8
0
100
AcDbBlockBegin
  2
*D53
 70
     1
 10
0.0
 20
0.0
 30
0.0
  3
*D53
  1

  0
POINT
  5
31D3
330
3074
100
AcDbEntity
  8
DEFPOINTS
 62
     0
100
AcDbPoint
 10
897.4413268617
 20
217.7739387801
 30
0.0
  0
POINT
  5
31D4
330
3074
100
AcDbEntity
  8
DEFPOINTS
 62
     0
100
AcDbPoint
 10
897.4413268617
 20
123.7739387801
 30
0.0
  0
POINT
  5
31D5
330
3074
100
AcDbEntity
  8
DEFPOINTS
 62
     0
100
AcDbPoint
 10
929.0567524623
 20
123.7739387801
 30
0.0
  0
ENDBLK
  5
3076
330
3074
100
AcDbEntity
  8
0
100
AcDbBlockEnd
  0
BLOCK
  5
3C4A
330
3C47
100
AcDbEntity
  8
0
100
AcDbBlockBegin
  2
A$Ce40ca605
 70
     0
 10
0.0
 20
0.0
 30
0.0
  3
A$Ce40ca605
  1

  0
LINE
  5
3C4B
330
3C47
100
AcDbEntity
  8
0
100
AcDbLine
 10
189.36
 20
-5.0
 30
0.0
 11
189.36
 21
-85.0
 31
0.0
  0
ARC
  5
3C4C
330
3C47
100
AcDbEntity
  8
0
100
AcDbCircle
 10
187.36
 20
-23.4473398675
 30
0.0
 40
2.0
100
AcDbArc
 50
314.8143643905
 51
0.0
  0
LINE
  5
3C4D
330
3C47
100
AcDbEntity
  8
0
100
AcDbLine
 10
180.36
 20
4.0
 30
0.0
 11
84.36
 21
4.0
 31
0.0
  0
LINE
  5
3C4E
330
3C47
100
AcDbEntity
  8
0
100
AcDbLine
 10
180.36
 20
-94.0
 30
0.0
 11
84.36
 21
-94.0
 31
0.0
  0
ARC
  5
3C4F
330
3C47
100
AcDbEntity
  8
0
100
AcDbCircle
 10
180.36
 20
-5.0
 30
0.0
 40
9.0
100
AcDbArc
 50
0.0
 51
130.947188455
  0
ARC
  5
3C50
330
3C47
100
AcDbEntity
  8
0
100
AcDbCircle
 10
180.36
 20
-85.0
 30
0.0
 40
9.0
100
AcDbArc
 50
229.052811545
 51
0.0
  0
LINE
  5
3C51
330
3C47
100
AcDbEntity
  8
0
100
AcDbLine
 10
73.8790356544
 20
0.0
 30
0.0
 11
0.0
 21
0.0
 31
0.0
  0
LINE
  5
3C52
330
3C47
100
AcDbEntity
  8
0
100
AcDbLine
 10
73.8790356544
 20
-90.0
 30
0.0
 11
0.0
 21
-90.0
 31
0.0
  0
ARC
  5
3C53
330
3C47
100
AcDbEntity
  8
0
100
AcDbCircle
 10
150.86
 20
-28.5
 30
0.0
 40
34.0
100
AcDbArc
 50
60.5450656692
 51
67.0804578484
  0
ARC
  5
3C54
330
3C47
100
AcDbEntity
  8
0
100
AcDbCircle
 10
158.2593242935
 20
-11.0
 30
0.0
 40
15.0
100
AcDbArc
 50
67.0804578484
 51
90.0
  0
ARC
  5
3C55
330
3C47
100
AcDbEntity
  8
0
100
AcDbCircle
 10
170.5295533815
 20
6.329709585
 30
0.0
 40
6.0
100
AcDbArc
 50
240.5450656692
 51
310.947188455
  0
ARC
  5
3C56
330
3C47
100
AcDbEntity
  8
0
100
AcDbCircle
 10
170.5295533815
 20
-96.329709585
 30
0.0
 40
6.0
100
AcDbArc
 50
49.052811545
 51
119.4549343308
  0
ARC
  5
3C57
330
3C47
100
AcDbEntity
  8
0
100
AcDbCircle
 10
150.86
 20
-61.5
 30
0.0
 40
34.0
100
AcDbArc
 50
292.9195421516
 51
299.4549343308
  0
ARC
  5
3C58
330
3C47
100
AcDbEntity
  8
0
100
AcDbCircle
 10
158.2593242935
 20
-79.0
 30
0.0
 40
15.0
100
AcDbArc
 50
270.0
 51
292.9195421516
  0
ARC
  5
3C59
330
3C47
100
AcDbEntity
  8
0
100
AcDbCircle
 10
94.1904466185
 20
6.329709585
 30
0.0
 40
6.0
100
AcDbArc
 50
229.052811545
 51
299.4549343308
  0
ARC
  5
3C5A
330
3C47
100
AcDbEntity
  8
0
100
AcDbCircle
 10
113.86
 20
-28.5
 30
0.0
 40
34.0
100
AcDbArc
 50
112.9195421516
 51
119.4549343308
  0
ARC
  5
3C5B
330
3C47
100
AcDbEntity
  8
0
100
AcDbCircle
 10
106.4606757065
 20
-11.0
 30
0.0
 40
15.0
100
AcDbArc
 50
90.0
 51
112.9195421516
  0
LINE
  5
3C5C
330
3C47
100
AcDbEntity
  8
0
100
AcDbLine
 10
184.86
 20
-29.5827253982
 30
0.0
 11
184.86
 21
-60.4172746018
 31
0.0
  0
ARC
  5
3C5D
330
3C47
100
AcDbEntity
  8
0
100
AcDbCircle
 10
186.86
 20
-29.5827253982
 30
0.0
 40
2.0
100
AcDbArc
 50
134.8143643905
 51
180.0
  0
LINE
  5
3C5E
330
3C47
100
AcDbEntity
  8
0
100
AcDbLine
 10
185.4503758372
 20
-28.1639372816
 30
0.0
 11
188.7696241628
 21
-24.8661279841
 31
0.0
  0
LINE
  5
3C5F
330
3C47
100
AcDbEntity
  8
0
100
AcDbLine
 10
0.0
 20
0.0
 30
0.0
 11
0.0
 21
-90.0
 31
0.0
  0
LINE
  5
3C60
330
3C47
100
AcDbEntity
  8
0
100
AcDbLine
 10
73.0
 20
-10.5906989318
 30
0.0
 11
73.36
 21
-10.5906989318
 31
0.0
  0
ARC
  5
3C61
330
3C47
100
AcDbEntity
  8
0
100
AcDbCircle
 10
94.1904466185
 20
-96.329709585
 30
0.0
 40
6.0
100
AcDbArc
 50
60.5450656692
 51
130.947188455
  0
ARC
  5
3C62
330
3C47
100
AcDbEntity
  8
0
100
AcDbCircle
 10
113.86
 20
-61.5
 30
0.0
 40
34.0
100
AcDbArc
 50
240.5450656692
 51
247.0804578484
  0
ARC
  5
3C63
330
3C47
100
AcDbEntity
  8
0
100
AcDbCircle
 10
106.4606757065
 20
-79.0
 30
0.0
 40
15.0
100
AcDbArc
 50
247.0804578484
 51
270.0
  0
ARC
  5
3C64
330
3C47
100
AcDbEntity
  8
0
100
AcDbCircle
 10
73.8790356544
 20
-92.0
 30
0.0
 40
2.0
100
AcDbArc
 50
62.9562954612
 51
90.0
  0
LINE
  5
3C65
330
3C47
100
AcDbEntity
  8
0
100
AcDbLine
 10
74.7883756879
 20
-90.2186800671
 30
0.0
 11
80.2679698491
 21
-93.0159396981
 31
0.0
  0
ARC
  5
3C66
330
3C47
100
AcDbEntity
  8
0
100
AcDbCircle
 10
73.8790356544
 20
2.0
 30
0.0
 40
2.0
100
AcDbArc
 50
270.0
 51
297.0437045388
  0
LINE
  5
3C67
330
3C47
100
AcDbEntity
  8
0
100
AcDbLine
 10
74.7883756879
 20
0.2186800671
 30
0.0
 11
80.2679698491
 21
3.0159396981
 31
0.0
  0
ARC
  5
3C68
330
3C47
100
AcDbEntity
  8
0
100
AcDbCircle
 10
187.36
 20
-66.5526601325
 30
0.0
 40
2.0
100
AcDbArc
 50
0.0
 51
45.1856356095
  0
ARC
  5
3C69
330
3C47
100
AcDbEntity
  8
0
100
AcDbCircle
 10
186.86
 20
-60.4172746018
 30
0.0
 40
2.0
100
AcDbArc
 50
180.0
 51
225.1856356095
  0
LINE
  5
3C6A
330
3C47
100
AcDbEntity
  8
0
100
AcDbLine
 10
185.4503758372
 20
-61.8360627184
 30
0.0
 11
188.7696241628
 21
-65.1338720159
 31
0.0
  0
ARC
  5
3C6B
330
3C47
100
AcDbEntity
  8
0
100
AcDbCircle
 10
73.962
 20
-8.5906989318
 30
0.0
 40
2.0
100
AcDbArc
 50
270.0
 51
0.0
  0
ARC
  5
3C6C
330
3C47
100
AcDbEntity
  8
0
100
AcDbCircle
 10
72.5
 20
-12.5906989318
 30
0.0
 40
2.0
100
AcDbArc
 50
0.0
 51
90.0
  0
ARC
  5
3C6D
330
3C47
100
AcDbEntity
  8
0
100
AcDbCircle
 10
73.962
 20
-81.4093010682
 30
0.0
 40
2.0
100
AcDbArc
 50
0.0
 51
90.0
  0
ARC
  5
3C6E
330
3C47
100
AcDbEntity
  8
0
100
AcDbCircle
 10
72.5
 20
-77.4093010682
 30
0.0
 40
2.0
100
AcDbArc
 50
270.0
 51
0.0
  0
LINE
  5
3C6F
330
3C47
100
AcDbEntity
  8
0
100
AcDbLine
 10
74.5
 20
-12.5906989318
 30
0.0
 11
74.5
 21
-77.4093010682
 31
0.0
  0
LINE
  5
3C70
330
3C47
100
AcDbEntity
  8
0
100
AcDbLine
 10
0.0
 20
-10.5906989318
 30
0.0
 11
73.962
 21
-10.5906989318
 31
0.0
  0
LINE
  5
3C71
330
3C47
100
AcDbEntity
  8
0
100
AcDbLine
 10
0.0
 20
-79.4093010682
 30
0.0
 11
74.0
 21
-79.4093010682
 31
0.0
  0
LINE
  5
3C72
330
3C47
100
AcDbEntity
  8
CENTER
100
AcDbLine
 10
144.87027
 20
-11.3178365
 30
0.0
 11
144.87027
 21
-78.6821635
 31
0.0
  0
LINE
  5
3C73
330
3C47
100
AcDbEntity
  8
CENTER
100
AcDbLine
 10
188.348908
 20
-6.0
 30
0.0
 11
172.391632
 21
-6.0
 31
0.0
  0
LINE
  5
3C74
330
3C47
100
AcDbEntity
  8
CENTER
100
AcDbLine
 10
180.37027
 20
1.978638
 30
0.0
 11
180.37027
 21
-13.978638
 31
0.0
  0
LINE
  5
3C75
330
3C47
100
AcDbEntity
  8
CENTER
100
AcDbLine
 10
92.348908
 20
-6.0
 30
0.0
 11
76.391632
 21
-6.0
 31
0.0
  0
LINE
  5
3C76
330
3C47
100
AcDbEntity
  8
CENTER
100
AcDbLine
 10
84.37027
 20
1.978638
 30
0.0
 11
84.37027
 21
-13.978638
 31
0.0
  0
LINE
  5
3C77
330
3C47
100
AcDbEntity
  8
CENTER
100
AcDbLine
 10
92.348908
 20
-84.0
 30
0.0
 11
76.391632
 21
-84.0
 31
0.0
  0
LINE
  5
3C78
330
3C47
100
AcDbEntity
  8
CENTER
100
AcDbLine
 10
84.37027
 20
-76.021362
 30
0.0
 11
84.37027
 21
-91.978638
 31
0.0
  0
LINE
  5
3C79
330
3C47
100
AcDbEntity
  8
CENTER
100
AcDbLine
 10
188.348908
 20
-84.0
 30
0.0
 11
172.391632
 21
-84.0
 31
0.0
  0
LINE
  5
3C7A
330
3C47
100
AcDbEntity
  8
CENTER
100
AcDbLine
 10
180.37027
 20
-76.021362
 30
0.0
 11
180.37027
 21
-91.978638
 31
0.0
  0
LINE
  5
3C7B
330
3C47
100
AcDbEntity
  8
CENTER
100
AcDbLine
 10
74.797928
 20
-16.5
 30
0.0
 11
85.942612
 21
-16.5
 31
0.0
  0
LINE
  5
3C7C
330
3C47
100
AcDbEntity
  8
CENTER
100
AcDbLine
 10
80.37027
 20
-22.072342
 30
0.0
 11
80.37027
 21
-10.927658
 31
0.0
  0
LINE
  5
3C7D
330
3C47
100
AcDbEntity
  8
CENTER
100
AcDbLine
 10
74.797928
 20
-73.5
 30
0.0
 11
85.942612
 21
-73.5
 31
0.0
  0
LINE
  5
3C7E
330
3C47
100
AcDbEntity
  8
CENTER
100
AcDbLine
 10
80.37027
 20
-79.072342
 30
0.0
 11
80.37027
 21
-67.927658
 31
0.0
  0
LINE
  5
3C7F
330
3C47
100
AcDbEntity
  8
CENTER
100
AcDbLine
 10
178.797928
 20
-73.5
 30
0.0
 11
189.942612
 21
-73.5
 31
0.0
  0
LINE
  5
3C80
330
3C47
100
AcDbEntity
  8
CENTER
100
AcDbLine
 10
184.37027
 20
-79.072342
 30
0.0
 11
184.37027
 21
-67.927658
 31
0.0
  0
LINE
  5
3C81
330
3C47
100
AcDbEntity
  8
CENTER
100
AcDbLine
 10
184.37027
 20
-22.072342
 30
0.0
 11
184.37027
 21
-10.927658
 31
0.0
  0
LINE
  5
3C82
330
3C47
100
AcDbEntity
  8
CENTER
100
AcDbLine
 10
178.797928
 20
-16.5
 30
0.0
 11
189.942612
 21
-16.5
 31
0.0
  0
CIRCLE
  5
3C83
330
3C47
100
AcDbEntity
  8
0
100
AcDbCircle
 10
144.87027
 20
-45.0
 30
0.0
 40
12.0
  0
LINE
  5
3C84
330
3C47
100
AcDbEntity
  8
0
100
AcDbLine
 10
147.37027
 20
-35.199997
 30
0.0
 11
147.37027
 21
-37.928925
 31
0.0
  0
LINE
  5
3C85
330
3C47
100
AcDbEntity
  8
0
100
AcDbLine
 10
142.37027
 20
-35.199997
 30
0.0
 11
142.37027
 21
-37.928925
 31
0.0
  0
ARC
  5
3C86
330
3C47
100
AcDbEntity
  8
0
100
AcDbCircle
 10
144.87027
 20
-45.0
 30
0.0
 40
7.5
100
AcDbArc
 50
109.471222
 51
70.528778
  0
LINE
  5
3C87
330
3C47
100
AcDbEntity
  8
0
100
AcDbLine
 10
142.37027
 20
-35.199997
 30
0.0
 11
147.37027
 21
-35.199997
 31
0.0
  0
LINE
  5
3C88
330
3C47
100
AcDbEntity
  8
CENTER
100
AcDbLine
 10
143.1223153445
 20
-45.0
 30
0.0
 11
146.6182246555
 21
-45.0
 31
0.0
  0
CIRCLE
  5
3C89
330
3C47
100
AcDbEntity
  8
0
  6
Continuous
100
AcDbCircle
 10
144.87027
 20
-45.0
 30
0.0
 40
25.548
  0
CIRCLE
  5
3C8A
330
3C47
100
AcDbEntity
  8
0
  6
Continuous
100
AcDbCircle
 10
144.87027
 20
-45.0
 30
0.0
 40
23.0
  0
CIRCLE
  5
3C8B
330
3C47
100
AcDbEntity
  8
0
  6
Continuous
100
AcDbCircle
 10
144.87027
 20
-45.0
 30
0.0
 40
17.5
  0
CIRCLE
  5
3C8C
330
3C47
100
AcDbEntity
  8
0
  6
Continuous
100
AcDbCircle
 10
144.87027
 20
-45.0
 30
0.0
 40
19.5
  0
LINE
  5
3C8D
330
3C47
100
AcDbEntity
  8
0
  6
Continuous
100
AcDbLine
 10
77.981186
 20
-69.0
 30
0.0
 11
80.370285
 21
-69.0
 31
0.0
  0
LINE
  5
3C8E
330
3C47
100
AcDbEntity
  8
0
100
AcDbLine
 10
80.48027
 20
-29.3284271247
 30
0.0
 11
80.48027
 21
-60.6715728753
 31
0.0
  0
LINE
  5
3C8F
330
3C47
100
AcDbEntity
  8
0
100
AcDbLine
 10
75.98027
 20
-66.8284271247
 30
0.0
 11
75.98027
 21
-85.0
 31
0.0
  0
ARC
  5
3C90
330
3C47
100
AcDbEntity
  8
0
100
AcDbCircle
 10
78.48027
 20
-60.6715728753
 30
0.0
 40
2.0
100
AcDbArc
 50
315.0
 51
0.0
  0
ARC
  5
3C91
330
3C47
100
AcDbEntity
  8
0
100
AcDbCircle
 10
77.98027
 20
-66.8284271247
 30
0.0
 40
2.0
100
AcDbArc
 50
135.0
 51
180.0
  0
LINE
  5
3C92
330
3C47
100
AcDbEntity
  8
0
100
AcDbLine
 10
76.5660564376
 20
-65.4142135624
 30
0.0
 11
79.8944835624
 21
-62.0857864376
 31
0.0
  0
ARC
  5
3C93
330
3C47
100
AcDbEntity
  8
0
100
AcDbCircle
 10
80.37027
 20
-73.5
 30
0.0
 40
4.5
100
AcDbArc
 50
270.0
 51
90.0
  0
LINE
  5
3C94
330
3C47
100
AcDbEntity
  8
0
100
AcDbLine
 10
80.37027
 20
-69.0
 30
0.0
 11
77.98027
 21
-69.0
 31
0.0
  0
ARC
  5
3C95
330
3C47
100
AcDbEntity
  8
0
100
AcDbCircle
 10
77.98027
 20
-67.0
 30
0.0
 40
2.0
100
AcDbArc
 50
180.0
 51
270.0
  0
ARC
  5
3C96
330
3C47
100
AcDbEntity
  8
0
100
AcDbCircle
 10
77.98027
 20
-80.0
 30
0.0
 40
2.0
100
AcDbArc
 50
90.0
 51
180.0
  0
LINE
  5
3C97
330
3C47
100
AcDbEntity
  8
0
100
AcDbLine
 10
80.37027
 20
-78.0
 30
0.0
 11
77.98027
 21
-78.0
 31
0.0
  0
ARC
  5
3C98
330
3C47
100
AcDbEntity
  8
0
100
AcDbCircle
 10
77.98027
 20
-10.0
 30
0.0
 40
2.0
100
AcDbArc
 50
180.0
 51
270.0
  0
LINE
  5
3C99
330
3C47
100
AcDbEntity
  8
0
100
AcDbLine
 10
75.98027
 20
-23.1715728753
 30
0.0
 11
75.98027
 21
-5.0
 31
0.0
  0
ARC
  5
3C9A
330
3C47
100
AcDbEntity
  8
0
100
AcDbCircle
 10
77.98027
 20
-23.0
 30
0.0
 40
2.0
100
AcDbArc
 50
90.0
 51
180.0
  0
ARC
  5
3C9B
330
3C47
100
AcDbEntity
  8
0
100
AcDbCircle
 10
80.37027
 20
-16.5
 30
0.0
 40
4.5
100
AcDbArc
 50
270.0
 51
90.0
  0
LINE
  5
3C9C
330
3C47
100
AcDbEntity
  8
0
100
AcDbLine
 10
80.37027
 20
-12.0
 30
0.0
 11
77.98027
 21
-12.0
 31
0.0
  0
LINE
  5
3C9D
330
3C47
100
AcDbEntity
  8
0
100
AcDbLine
 10
80.37027
 20
-21.0
 30
0.0
 11
77.98027
 21
-21.0
 31
0.0
  0
ARC
  5
3C9E
330
3C47
100
AcDbEntity
  8
0
100
AcDbCircle
 10
78.48027
 20
-29.3284271247
 30
0.0
 40
2.0
100
AcDbArc
 50
0.0
 51
45.0
  0
LINE
  5
3C9F
330
3C47
100
AcDbEntity
  8
0
100
AcDbLine
 10
76.5660564376
 20
-24.5857864376
 30
0.0
 11
79.8944835624
 21
-27.9142135624
 31
0.0
  0
ARC
  5
3CA0
330
3C47
100
AcDbEntity
  8
0
100
AcDbCircle
 10
77.98027
 20
-23.1715728753
 30
0.0
 40
2.0
100
AcDbArc
 50
180.0
 51
225.0
  0
ARC
  5
3CA1
330
3C47
100
AcDbEntity
  8
0
100
AcDbCircle
 10
184.37027
 20
-73.5
 30
0.0
 40
4.5
100
AcDbArc
 50
90.0
 51
270.0
  0
LINE
  5
3CA2
330
3C47
100
AcDbEntity
  8
0
100
AcDbLine
 10
184.37027
 20
-78.0
 30
0.0
 11
187.36
 21
-78.0
 31
0.0
  0
LINE
  5
3CA3
330
3C47
100
AcDbEntity
  8
0
100
AcDbLine
 10
184.37027
 20
-69.0
 30
0.0
 11
187.36
 21
-69.0
 31
0.0
  0
ARC
  5
3CA4
330
3C47
100
AcDbEntity
  8
0
100
AcDbCircle
 10
184.37027
 20
-16.5
 30
0.0
 40
4.5
100
AcDbArc
 50
90.0
 51
270.0
  0
LINE
  5
3CA5
330
3C47
100
AcDbEntity
  8
0
100
AcDbLine
 10
184.37027
 20
-21.0
 30
0.0
 11
187.36
 21
-21.0
 31
0.0
  0
LINE
  5
3CA6
330
3C47
100
AcDbEntity
  8
0
100
AcDbLine
 10
184.37027
 20
-12.0
 30
0.0
 11
187.36
 21
-12.0
 31
0.0
  0
CIRCLE
  5
3CA7
330
3C47
100
AcDbEntity
  8
0
  6
Continuous
100
AcDbCircle
 10
84.370285
 20
-6.0
 30
0.0
 40
5.25
  0
CIRCLE
  5
3CA8
330
3C47
100
AcDbEntity
  8
0
  6
Continuous
100
AcDbCircle
 10
84.370285
 20
-83.999962
 30
0.0
 40
5.25
  0
CIRCLE
  5
3CA9
330
3C47
100
AcDbEntity
  8
0
  6
Continuous
100
AcDbCircle
 10
180.37027
 20
-83.999962
 30
0.0
 40
5.25
  0
CIRCLE
  5
3CAA
330
3C47
100
AcDbEntity
  8
0
  6
Continuous
100
AcDbCircle
 10
180.37027
 20
-6.0
 30
0.0
 40
5.25
  0
CIRCLE
  5
3CAB
330
3C47
100
AcDbEntity
  8
0
100
AcDbCircle
 10
184.37027
 20
-16.5
 30
0.0
 40
3.799999999999998
  0
CIRCLE
  5
3CAC
330
3C47
100
AcDbEntity
  8
0
100
AcDbCircle
 10
184.37027
 20
-16.5
 30
0.0
 40
3.5
  0
LINE
  5
3CAD
330
3C47
100
AcDbEntity
  8
0
100
AcDbLine
 10
186.170288
 20
-16.5
 30
0.0
 11
185.30426
 21
-15.0
 31
0.0
  0
LINE
  5
3CAE
330
3C47
100
AcDbEntity
  8
0
100
AcDbLine
 10
182.570282
 20
-16.5
 30
0.0
 11
183.43631
 21
-15.0
 31
0.0
  0
LINE
  5
3CAF
330
3C47
100
AcDbEntity
  8
0
100
AcDbLine
 10
186.170288
 20
-16.5
 30
0.0
 11
185.30426
 21
-18.0
 31
0.0
  0
LINE
  5
3CB0
330
3C47
100
AcDbEntity
  8
0
100
AcDbLine
 10
182.570282
 20
-16.5
 30
0.0
 11
183.43631
 21
-18.0
 31
0.0
  0
LINE
  5
3CB1
330
3C47
100
AcDbEntity
  8
0
100
AcDbLine
 10
185.30426
 20
-18.0
 30
0.0
 11
183.43631
 21
-18.0
 31
0.0
  0
LINE
  5
3CB2
330
3C47
100
AcDbEntity
  8
0
100
AcDbLine
 10
185.30426
 20
-15.0
 30
0.0
 11
183.43631
 21
-15.0
 31
0.0
  0
CIRCLE
  5
3CB3
330
3C47
100
AcDbEntity
  8
0
100
AcDbCircle
 10
184.37027
 20
-73.5
 30
0.0
 40
3.799999999999998
  0
CIRCLE
  5
3CB4
330
3C47
100
AcDbEntity
  8
0
100
AcDbCircle
 10
184.37027
 20
-73.5
 30
0.0
 40
3.5
  0
LINE
  5
3CB5
330
3C47
100
AcDbEntity
  8
0
100
AcDbLine
 10
186.170288
 20
-73.5
 30
0.0
 11
185.30426
 21
-72.0
 31
0.0
  0
LINE
  5
3CB6
330
3C47
100
AcDbEntity
  8
0
100
AcDbLine
 10
182.570282
 20
-73.5
 30
0.0
 11
183.43631
 21
-72.0
 31
0.0
  0
LINE
  5
3CB7
330
3C47
100
AcDbEntity
  8
0
100
AcDbLine
 10
186.170288
 20
-73.5
 30
0.0
 11
185.30426
 21
-75.0
 31
0.0
  0
LINE
  5
3CB8
330
3C47
100
AcDbEntity
  8
0
100
AcDbLine
 10
182.570282
 20
-73.5
 30
0.0
 11
183.43631
 21
-75.0
 31
0.0
  0
LINE
  5
3CB9
330
3C47
100
AcDbEntity
  8
0
100
AcDbLine
 10
185.30426
 20
-75.0
 30
0.0
 11
183.43631
 21
-75.0
 31
0.0
  0
LINE
  5
3CBA
330
3C47
100
AcDbEntity
  8
0
100
AcDbLine
 10
185.30426
 20
-72.0
 30
0.0
 11
183.43631
 21
-72.0
 31
0.0
  0
CIRCLE
  5
3CBB
330
3C47
100
AcDbEntity
  8
0
100
AcDbCircle
 10
80.37027
 20
-73.5
 30
0.0
 40
3.799999999999998
  0
CIRCLE
  5
3CBC
330
3C47
100
AcDbEntity
  8
0
100
AcDbCircle
 10
80.37027
 20
-73.5
 30
0.0
 40
3.5
  0
LINE
  5
3CBD
330
3C47
100
AcDbEntity
  8
0
100
AcDbLine
 10
82.170288
 20
-73.5
 30
0.0
 11
81.30426
 21
-72.0
 31
0.0
  0
LINE
  5
3CBE
330
3C47
100
AcDbEntity
  8
0
100
AcDbLine
 10
78.570282
 20
-73.5
 30
0.0
 11
79.43631
 21
-72.0
 31
0.0
  0
LINE
  5
3CBF
330
3C47
100
AcDbEntity
  8
0
100
AcDbLine
 10
82.170288
 20
-73.5
 30
0.0
 11
81.30426
 21
-75.0
 31
0.0
  0
LINE
  5
3CC0
330
3C47
100
AcDbEntity
  8
0
100
AcDbLine
 10
78.570282
 20
-73.5
 30
0.0
 11
79.43631
 21
-75.0
 31
0.0
  0
LINE
  5
3CC1
330
3C47
100
AcDbEntity
  8
0
100
AcDbLine
 10
81.30426
 20
-75.0
 30
0.0
 11
79.43631
 21
-75.0
 31
0.0
  0
LINE
  5
3CC2
330
3C47
100
AcDbEntity
  8
0
100
AcDbLine
 10
81.30426
 20
-72.0
 30
0.0
 11
79.43631
 21
-72.0
 31
0.0
  0
CIRCLE
  5
3CC3
330
3C47
100
AcDbEntity
  8
0
100
AcDbCircle
 10
80.37027
 20
-16.5
 30
0.0
 40
3.799999999999998
  0
CIRCLE
  5
3CC4
330
3C47
100
AcDbEntity
  8
0
100
AcDbCircle
 10
80.37027
 20
-16.5
 30
0.0
 40
3.5
  0
LINE
  5
3CC5
330
3C47
100
AcDbEntity
  8
0
100
AcDbLine
 10
82.170288
 20
-16.5
 30
0.0
 11
81.30426
 21
-15.0
 31
0.0
  0
LINE
  5
3CC6
330
3C47
100
AcDbEntity
  8
0
100
AcDbLine
 10
78.570282
 20
-16.5
 30
0.0
 11
79.43631
 21
-15.0
 31
0.0
  0
LINE
  5
3CC7
330
3C47
100
AcDbEntity
  8
0
100
AcDbLine
 10
82.170288
 20
-16.5
 30
0.0
 11
81.30426
 21
-18.0
 31
0.0
  0
LINE
  5
3CC8
330
3C47
100
AcDbEntity
  8
0
100
AcDbLine
 10
78.570282
 20
-16.5
 30
0.0
 11
79.43631
 21
-18.0
 31
0.0
  0
LINE
  5
3CC9
330
3C47
100
AcDbEntity
  8
0
100
AcDbLine
 10
81.30426
 20
-18.0
 30
0.0
 11
79.43631
 21
-18.0
 31
0.0
  0
LINE
  5
3CCA
330
3C47
100
AcDbEntity
  8
0
100
AcDbLine
 10
81.30426
 20
-15.0
 30
0.0
 11
79.43631
 21
-15.0
 31
0.0
  0
CIRCLE
  5
3CCB
330
3C47
100
AcDbEntity
  8
HOJO
100
AcDbCircle
 10
180.37027
 20
-6.0
 30
0.0
 40
5.0
  0
CIRCLE
  5
3CCC
330
3C47
100
AcDbEntity
  8
HOJO
100
AcDbCircle
 10
84.37027
 20
-6.0
 30
0.0
 40
5.0
  0
CIRCLE
  5
3CCD
330
3C47
100
AcDbEntity
  8
HOJO
100
AcDbCircle
 10
180.37027
 20
-84.0
 30
0.0
 40
5.0
  0
CIRCLE
  5
3CCE
330
3C47
100
AcDbEntity
  8
HOJO
100
AcDbCircle
 10
84.37027
 20
-84.0
 30
0.0
 40
5.0
  0
CIRCLE
  5
3CCF
330
3C47
100
AcDbEntity
  8
0
100
AcDbCircle
 10
180.37027
 20
-6.0
 30
0.0
 40
4.2
  0
CIRCLE
  5
3CD0
330
3C47
100
AcDbEntity
  8
0
100
AcDbCircle
 10
84.37027
 20
-6.0
 30
0.0
 40
4.2
  0
CIRCLE
  5
3CD1
330
3C47
100
AcDbEntity
  8
0
100
AcDbCircle
 10
180.37027
 20
-84.0
 30
0.0
 40
4.2
  0
CIRCLE
  5
3CD2
330
3C47
100
AcDbEntity
  8
0
100
AcDbCircle
 10
84.37027
 20
-84.0
 30
0.0
 40
4.2
  0
LINE
  5
3CD3
330
3C47
100
AcDbEntity
  8
0
100
AcDbLine
 10
179.87027
 20
-63.0
 30
0.0
 11
179.87027
 21
-26.679504
 31
0.0
  0
LINE
  5
3CD4
330
3C47
100
AcDbEntity
  8
0
100
AcDbLine
 10
84.87027
 20
-63.0
 30
0.0
 11
84.87027
 21
-26.679504
 31
0.0
  0
LINE
  5
3CD5
330
3C47
100
AcDbEntity
  8
0
100
AcDbLine
 10
109.87027
 20
-88.0
 30
0.0
 11
154.87027
 21
-88.0
 31
0.0
  0
LINE
  5
3CD6
330
3C47
100
AcDbEntity
  8
0
100
AcDbLine
 10
99.262009
 20
-82.53714
 30
0.0
 11
101.262009
 21
-81.850922
 31
0.0
  0
ARC
  5
3CD7
330
3C47
100
AcDbEntity
  8
0
100
AcDbCircle
 10
99.37027
 20
-82.5
 30
0.0
 40
2.0
100
AcDbArc
 50
0.0
 51
37.874985
  0
ARC
  5
3CD8
330
3C47
100
AcDbEntity
  8
0
100
AcDbCircle
 10
97.37027
 20
-83.186218
 30
0.0
 40
2.0
100
AcDbArc
 50
0.0
 51
37.874985
  0
ARC
  5
3CD9
330
3C47
100
AcDbEntity
  8
0
100
AcDbCircle
 10
109.87027
 20
-63.0
 30
0.0
 40
25.0
100
AcDbArc
 50
248.311188
 51
270.0
  0
LINE
  5
3CDA
330
3C47
100
AcDbEntity
  8
0
100
AcDbLine
 10
99.37027
 20
-83.186218
 30
0.0
 11
99.37027
 21
-84.371704
 31
0.0
  0
ARC
  5
3CDB
330
3C47
100
AcDbEntity
  8
0
100
AcDbCircle
 10
101.37027
 20
-84.371704
 30
0.0
 40
2.0
100
AcDbArc
 50
180.0
 51
248.311188
  0
LINE
  5
3CDC
330
3C47
100
AcDbEntity
  8
0
100
AcDbLine
 10
101.37027
 20
-82.5
 30
0.0
 11
101.37027
 21
-85.062408
 31
0.0
  0
ARC
  5
3CDD
330
3C47
100
AcDbEntity
  8
0
100
AcDbCircle
 10
103.37027
 20
-85.062408
 30
0.0
 40
2.0
100
AcDbArc
 50
180.0
 51
253.584045
  0
ARC
  5
3CDE
330
3C47
100
AcDbEntity
  8
0
100
AcDbCircle
 10
109.87027
 20
-63.0
 30
0.0
 40
25.0
100
AcDbArc
 50
180.0
 51
190.015411
  0
ARC
  5
3CDF
330
3C47
100
AcDbEntity
  8
0
100
AcDbCircle
 10
86.957398
 20
-65.0
 30
0.0
 40
2.0
100
AcDbArc
 50
184.988541
 51
270.0
  0
ARC
  5
3CE0
330
3C47
100
AcDbEntity
  8
0
100
AcDbCircle
 10
87.220764
 20
-67.0
 30
0.0
 40
2.0
100
AcDbArc
 50
190.015411
 51
270.0
  0
LINE
  5
3CE1
330
3C47
100
AcDbEntity
  8
0
100
AcDbLine
 10
89.47081
 20
-69.772125
 30
0.0
 11
98.948975
 21
-81.958328
 31
0.0
  0
LINE
  5
3CE2
330
3C47
100
AcDbEntity
  8
0
100
AcDbLine
 10
90.448975
 20
-67.772125
 30
0.0
 11
100.948975
 21
-81.272125
 31
0.0
  0
LINE
  5
3CE3
330
3C47
100
AcDbEntity
  8
0
100
AcDbLine
 10
88.87027
 20
-67.0
 30
0.0
 11
86.957398
 21
-67.0
 31
0.0
  0
LINE
  5
3CE4
330
3C47
100
AcDbEntity
  8
0
100
AcDbLine
 10
87.220764
 20
-69.0
 30
0.0
 11
87.892105
 21
-69.0
 31
0.0
  0
ARC
  5
3CE5
330
3C47
100
AcDbEntity
  8
0
100
AcDbCircle
 10
88.87027
 20
-69.0
 30
0.0
 40
2.0
100
AcDbArc
 50
37.874985
 51
90.0
  0
ARC
  5
3CE6
330
3C47
100
AcDbEntity
  8
0
100
AcDbCircle
 10
87.892105
 20
-71.0
 30
0.0
 40
2.0
100
AcDbArc
 50
37.874985
 51
90.0
  0
LINE
  5
3CE7
330
3C47
100
AcDbEntity
  8
0
100
AcDbLine
 10
88.770798
 20
-69.203369
 30
0.0
 11
89.748978
 21
-67.203369
 31
0.0
  0
LINE
  5
3CE8
330
3C47
100
AcDbEntity
  8
0
100
AcDbLine
 10
165.478516
 20
-82.53714
 30
0.0
 11
163.478516
 21
-81.850922
 31
0.0
  0
ARC
  5
3CE9
330
3C47
100
AcDbEntity
  8
0
100
AcDbCircle
 10
167.37027
 20
-83.186218
 30
0.0
 40
2.0
100
AcDbArc
 50
142.125015
 51
180.0
  0
ARC
  5
3CEA
330
3C47
100
AcDbEntity
  8
0
100
AcDbCircle
 10
165.37027
 20
-82.5
 30
0.0
 40
2.0
100
AcDbArc
 50
142.125015
 51
180.0
  0
ARC
  5
3CEB
330
3C47
100
AcDbEntity
  8
0
100
AcDbCircle
 10
161.37027
 20
-85.062408
 30
0.0
 40
2.0
100
AcDbArc
 50
286.415962
 51
0.0
  0
ARC
  5
3CEC
330
3C47
100
AcDbEntity
  8
0
100
AcDbCircle
 10
154.87027
 20
-63.0
 30
0.0
 40
25.0
100
AcDbArc
 50
270.0
 51
291.688812
  0
LINE
  5
3CED
330
3C47
100
AcDbEntity
  8
0
100
AcDbLine
 10
163.37027
 20
-82.5
 30
0.0
 11
163.37027
 21
-85.062408
 31
0.0
  0
ARC
  5
3CEE
330
3C47
100
AcDbEntity
  8
0
100
AcDbCircle
 10
163.37027
 20
-84.371704
 30
0.0
 40
2.0
100
AcDbArc
 50
291.688805
 51
0.0
  0
LINE
  5
3CEF
330
3C47
100
AcDbEntity
  8
0
100
AcDbLine
 10
165.37027
 20
-83.186218
 30
0.0
 11
165.37027
 21
-84.371704
 31
0.0
  0
ARC
  5
3CF0
330
3C47
100
AcDbEntity
  8
0
100
AcDbCircle
 10
154.87027
 20
-63.0
 30
0.0
 40
25.0
100
AcDbArc
 50
349.98459
 51
0.0
  0
LINE
  5
3CF1
330
3C47
100
AcDbEntity
  8
0
100
AcDbLine
 10
175.87027
 20
-67.0
 30
0.0
 11
177.783142
 21
-67.0
 31
0.0
  0
LINE
  5
3CF2
330
3C47
100
AcDbEntity
  8
0
100
AcDbLine
 10
177.519776
 20
-69.0
 30
0.0
 11
176.84845
 21
-69.0
 31
0.0
  0
LINE
  5
3CF3
330
3C47
100
AcDbEntity
  8
0
100
AcDbLine
 10
175.269745
 20
-69.772125
 30
0.0
 11
165.791565
 21
-81.958328
 31
0.0
  0
LINE
  5
3CF4
330
3C47
100
AcDbEntity
  8
0
100
AcDbLine
 10
174.291565
 20
-67.772125
 30
0.0
 11
163.791565
 21
-81.272125
 31
0.0
  0
ARC
  5
3CF5
330
3C47
100
AcDbEntity
  8
0
100
AcDbCircle
 10
175.87027
 20
-69.0
 30
0.0
 40
2.0
100
AcDbArc
 50
90.0
 51
142.125015
  0
ARC
  5
3CF6
330
3C47
100
AcDbEntity
  8
0
100
AcDbCircle
 10
176.84845
 20
-71.0
 30
0.0
 40
2.0
100
AcDbArc
 50
90.0
 51
142.125015
  0
LINE
  5
3CF7
330
3C47
100
AcDbEntity
  8
0
100
AcDbLine
 10
175.969727
 20
-69.203369
 30
0.0
 11
174.991577
 21
-67.203369
 31
0.0
  0
ARC
  5
3CF8
330
3C47
100
AcDbEntity
  8
0
100
AcDbCircle
 10
177.783142
 20
-65.0
 30
0.0
 40
2.0
100
AcDbArc
 50
270.0
 51
355.011444
  0
ARC
  5
3CF9
330
3C47
100
AcDbEntity
  8
0
100
AcDbCircle
 10
177.519776
 20
-67.0
 30
0.0
 40
2.0
100
AcDbArc
 50
270.0
 51
349.984589
  0
LINE
  5
3CFA
330
3C47
100
AcDbEntity
  8
0
100
AcDbLine
 10
154.87027
 20
-2.0
 30
0.0
 11
109.87027
 21
-2.0
 31
0.0
  0
LINE
  5
3CFB
330
3C47
100
AcDbEntity
  8
0
100
AcDbLine
 10
89.47081
 20
-20.227875
 30
0.0
 11
98.948975
 21
-8.041656
 31
0.0
  0
LINE
  5
3CFC
330
3C47
100
AcDbEntity
  8
0
100
AcDbLine
 10
90.448975
 20
-22.227875
 30
0.0
 11
100.948975
 21
-8.727875
 31
0.0
  0
ARC
  5
3CFD
330
3C47
100
AcDbEntity
  8
0
100
AcDbCircle
 10
86.957398
 20
-25.0
 30
0.0
 40
2.0
100
AcDbArc
 50
90.0
 51
175.011459
  0
ARC
  5
3CFE
330
3C47
100
AcDbEntity
  8
0
100
AcDbCircle
 10
87.220764
 20
-23.0
 30
0.0
 40
2.0
100
AcDbArc
 50
90.0
 51
169.984589
  0
ARC
  5
3CFF
330
3C47
100
AcDbEntity
  8
0
100
AcDbCircle
 10
109.87027
 20
-27.0
 30
0.0
 40
25.0
100
AcDbArc
 50
169.984589
 51
180.0
  0
ARC
  5
3D00
330
3C47
100
AcDbEntity
  8
0
100
AcDbCircle
 10
88.87027
 20
-21.0
 30
0.0
 40
2.0
100
AcDbArc
 50
270.0
 51
322.125031
  0
LINE
  5
3D01
330
3C47
100
AcDbEntity
  8
0
100
AcDbLine
 10
88.770798
 20
-20.796631
 30
0.0
 11
89.748978
 21
-22.796631
 31
0.0
  0
LINE
  5
3D02
330
3C47
100
AcDbEntity
  8
0
100
AcDbLine
 10
88.87027
 20
-23.0
 30
0.0
 11
86.957398
 21
-23.0
 31
0.0
  0
LINE
  5
3D03
330
3C47
100
AcDbEntity
  8
0
100
AcDbLine
 10
87.220764
 20
-21.0
 30
0.0
 11
87.892105
 21
-21.0
 31
0.0
  0
ARC
  5
3D04
330
3C47
100
AcDbEntity
  8
0
100
AcDbCircle
 10
87.892105
 20
-19.0
 30
0.0
 40
2.0
100
AcDbArc
 50
270.0
 51
322.125031
  0
ARC
  5
3D05
330
3C47
100
AcDbEntity
  8
0
100
AcDbCircle
 10
99.37027
 20
-7.5
 30
0.0
 40
2.0
100
AcDbArc
 50
322.125015
 51
0.0
  0
LINE
  5
3D06
330
3C47
100
AcDbEntity
  8
0
100
AcDbLine
 10
99.262009
 20
-7.46286
 30
0.0
 11
101.262009
 21
-8.149078
 31
0.0
  0
ARC
  5
3D07
330
3C47
100
AcDbEntity
  8
0
100
AcDbCircle
 10
109.87027
 20
-27.0
 30
0.0
 40
25.0
100
AcDbArc
 50
90.0
 51
111.688805
  0
ARC
  5
3D08
330
3C47
100
AcDbEntity
  8
0
100
AcDbCircle
 10
101.37027
 20
-5.628296
 30
0.0
 40
2.0
100
AcDbArc
 50
111.688805
 51
180.0
  0
LINE
  5
3D09
330
3C47
100
AcDbEntity
  8
0
100
AcDbLine
 10
99.37027
 20
-6.813782
 30
0.0
 11
99.37027
 21
-5.628296
 31
0.0
  0
ARC
  5
3D0A
330
3C47
100
AcDbEntity
  8
0
100
AcDbCircle
 10
97.37027
 20
-6.813782
 30
0.0
 40
2.0
100
AcDbArc
 50
322.125015
 51
0.0
  0
LINE
  5
3D0B
330
3C47
100
AcDbEntity
  8
0
100
AcDbLine
 10
101.37027
 20
-7.5
 30
0.0
 11
101.37027
 21
-4.937592
 31
0.0
  0
ARC
  5
3D0C
330
3C47
100
AcDbEntity
  8
0
100
AcDbCircle
 10
103.37027
 20
-4.937592
 30
0.0
 40
2.0
100
AcDbArc
 50
106.415962
 51
180.0
  0
LINE
  5
3D0D
330
3C47
100
AcDbEntity
  8
0
100
AcDbLine
 10
175.269745
 20
-20.227875
 30
0.0
 11
165.791565
 21
-8.041656
 31
0.0
  0
LINE
  5
3D0E
330
3C47
100
AcDbEntity
  8
0
100
AcDbLine
 10
174.291565
 20
-22.227875
 30
0.0
 11
163.791565
 21
-8.727875
 31
0.0
  0
LINE
  5
3D0F
330
3C47
100
AcDbEntity
  8
0
100
AcDbLine
 10
177.519776
 20
-21.0
 30
0.0
 11
176.84845
 21
-21.0
 31
0.0
  0
LINE
  5
3D10
330
3C47
100
AcDbEntity
  8
0
100
AcDbLine
 10
175.87027
 20
-23.0
 30
0.0
 11
177.783142
 21
-23.0
 31
0.0
  0
ARC
  5
3D11
330
3C47
100
AcDbEntity
  8
0
100
AcDbCircle
 10
175.87027
 20
-21.0
 30
0.0
 40
2.0
100
AcDbArc
 50
217.874985
 51
270.0
  0
LINE
  5
3D12
330
3C47
100
AcDbEntity
  8
0
100
AcDbLine
 10
175.969727
 20
-20.796631
 30
0.0
 11
174.991577
 21
-22.796631
 31
0.0
  0
ARC
  5
3D13
330
3C47
100
AcDbEntity
  8
0
100
AcDbCircle
 10
176.84845
 20
-19.0
 30
0.0
 40
2.0
100
AcDbArc
 50
217.874985
 51
270.0
  0
ARC
  5
3D14
330
3C47
100
AcDbEntity
  8
0
100
AcDbCircle
 10
177.519776
 20
-23.0
 30
0.0
 40
2.0
100
AcDbArc
 50
10.01541
 51
90.0
  0
ARC
  5
3D15
330
3C47
100
AcDbEntity
  8
0
100
AcDbCircle
 10
177.783142
 20
-25.0
 30
0.0
 40
2.0
100
AcDbArc
 50
4.988542
 51
90.0
  0
ARC
  5
3D16
330
3C47
100
AcDbEntity
  8
0
100
AcDbCircle
 10
154.87027
 20
-27.0
 30
0.0
 40
25.0
100
AcDbArc
 50
0.0
 51
10.01541
  0
ARC
  5
3D17
330
3C47
100
AcDbEntity
  8
0
100
AcDbCircle
 10
161.37027
 20
-4.937592
 30
0.0
 40
2.0
100
AcDbArc
 50
0.0
 51
73.584038
  0
ARC
  5
3D18
330
3C47
100
AcDbEntity
  8
0
100
AcDbCircle
 10
154.87027
 20
-27.0
 30
0.0
 40
25.0
100
AcDbArc
 50
68.311195
 51
90.0
  0
ARC
  5
3D19
330
3C47
100
AcDbEntity
  8
0
100
AcDbCircle
 10
163.37027
 20
-5.628296
 30
0.0
 40
2.0
100
AcDbArc
 50
0.0
 51
68.311195
  0
LINE
  5
3D1A
330
3C47
100
AcDbEntity
  8
0
100
AcDbLine
 10
163.37027
 20
-7.5
 30
0.0
 11
163.37027
 21
-4.937592
 31
0.0
  0
LINE
  5
3D1B
330
3C47
100
AcDbEntity
  8
0
100
AcDbLine
 10
165.37027
 20
-6.813782
 30
0.0
 11
165.37027
 21
-5.628296
 31
0.0
  0
LINE
  5
3D1C
330
3C47
100
AcDbEntity
  8
0
100
AcDbLine
 10
165.478516
 20
-7.46286
 30
0.0
 11
163.478516
 21
-8.149078
 31
0.0
  0
ARC
  5
3D1D
330
3C47
100
AcDbEntity
  8
0
100
AcDbCircle
 10
165.37027
 20
-7.5
 30
0.0
 40
2.0
100
AcDbArc
 50
180.0
 51
217.874985
  0
ARC
  5
3D1E
330
3C47
100
AcDbEntity
  8
0
100
AcDbCircle
 10
167.37027
 20
-6.813782
 30
0.0
 40
2.0
100
AcDbArc
 50
180.0
 51
217.874985
  0
ARC
  5
3D1F
330
3C47
100
AcDbEntity
  8
0
100
AcDbCircle
 10
187.36
 20
-80.0
 30
0.0
 40
2.0
100
AcDbArc
 50
0.0
 51
90.0
  0
ARC
  5
3D20
330
3C47
100
AcDbEntity
  8
0
100
AcDbCircle
 10
187.36
 20
-67.0
 30
0.0
 40
2.0
100
AcDbArc
 50
270.0
 51
0.0
  0
ARC
  5
3D21
330
3C47
100
AcDbEntity
  8
0
100
AcDbCircle
 10
187.36
 20
-23.0
 30
0.0
 40
2.0
100
AcDbArc
 50
0.0
 51
90.0
  0
ARC
  5
3D22
330
3C47
100
AcDbEntity
  8
0
100
AcDbCircle
 10
187.36
 20
-10.0
 30
0.0
 40
2.0
100
AcDbArc
 50
270.0
 51
0.0
  0
ARC
  5
3D23
330
3C47
100
AcDbEntity
  8
0
100
AcDbCircle
 10
85.1284230626
 20
-85.2224888727
 30
0.0
 40
9.150858197714477
100
AcDbArc
 50
178.6068050225
 51
240.5119553746
  0
ARC
  5
3D24
330
3C47
100
AcDbEntity
  8
0
100
AcDbCircle
 10
84.36
 20
-85.0
 30
0.0
 40
9.0
100
AcDbArc
 50
242.9562954612
 51
310.947188455
  0
ARC
  5
3D25
330
3C47
100
AcDbEntity
  8
0
100
AcDbCircle
 10
84.36
 20
-5.0
 30
0.0
 40
9.0
100
AcDbArc
 50
49.052811545
 51
117.0437045388
  0
ARC
  5
3D26
330
3C47
100
AcDbEntity
  8
0
100
AcDbCircle
 10
85.1284230626
 20
-4.7775111273
 30
0.0
 40
9.150858197714477
100
AcDbArc
 50
119.4880446254
 51
181.3931949775
  0
ENDBLK
  5
3D27
330
3C47
100
AcDbEntity
  8
0
100
AcDbBlockEnd
  0
BLOCK
  5
3D2A
330
3D28
100
AcDbEntity
  8
0
100
AcDbBlockBegin
  2
A$C79275bbe
 70
     0
 10
0.0
 20
0.0
 30
0.0
  3
A$C79275bbe
  1

  0
INSERT
  5
3D29
330
3D28
100
AcDbEntity
  8
0
100
AcDbBlockReference
  2
A$Ce40ca605
 10
0.0
 20
0.0
 30
0.0
  0
ENDBLK
  5
3D2B
330
3D28
100
AcDbEntity
  8
0
100
AcDbBlockEnd
  0
BLOCK
  5
3DC3
330
3D2D
100
AcDbEntity
  8
0
100
AcDbBlockBegin
  2
A$Cd6ae6cdc
 70
     0
 10
0.0
 20
0.0
 30
0.0
  3
A$Cd6ae6cdc
  1

  0
LINE
  5
3D2E
330
3D2D
100
AcDbEntity
  8
0
100
AcDbLine
 10
0.0
 20
-79.4093010682
 30
0.0
 11
-75.3703
 21
-79.4093010682
 31
0.0
  0
LINE
  5
3D2F
330
3D2D
100
AcDbEntity
  8
0
100
AcDbLine
 10
0.0
 20
-10.5906989318
 30
0.0
 11
-75.3703
 21
-10.5906989318
 31
0.0
  0
LINE
  5
3D30
330
3D2D
100
AcDbEntity
  8
0
100
AcDbLine
 10
-73.8893356544
 20
-90.0
 30
0.0
 11
0.0
 21
-90.0
 31
0.0
  0
LINE
  5
3D31
330
3D2D
100
AcDbEntity
  8
0
100
AcDbLine
 10
-73.8893356544
 20
0.0
 30
0.0
 11
0.0
 21
0.0
 31
0.0
  0
ARC
  5
3D32
330
3D2D
100
AcDbEntity
  8
0
100
AcDbCircle
 10
-73.8893356544
 20
2.0
 30
0.0
 40
2.0
100
AcDbArc
 50
242.9562954612
 51
270.0
  0
ARC
  5
3D33
330
3D2D
100
AcDbEntity
  8
0
100
AcDbCircle
 10
-180.3703
 20
-85.0
 30
0.0
 40
9.0
100
AcDbArc
 50
180.0
 51
310.947188455
  0
LINE
  5
3D34
330
3D2D
100
AcDbEntity
  8
0
100
AcDbLine
 10
-180.3703
 20
-94.0
 30
0.0
 11
-84.3703
 21
-94.0
 31
0.0
  0
LINE
  5
3D35
330
3D2D
100
AcDbEntity
  8
0
100
AcDbLine
 10
-189.3703
 20
-5.0
 30
0.0
 11
-189.3703
 21
-85.0
 31
0.0
  0
LINE
  5
3D36
330
3D2D
100
AcDbEntity
  8
0
100
AcDbLine
 10
-75.3703
 20
-5.0
 30
0.0
 11
-75.3703
 21
-23.1715578293
 31
0.0
  0
ARC
  5
3D37
330
3D2D
100
AcDbEntity
  8
0
100
AcDbCircle
 10
-150.8703
 20
-61.5
 30
0.0
 40
34.0
100
AcDbArc
 50
240.5450656692
 51
247.0804578484
  0
ARC
  5
3D38
330
3D2D
100
AcDbEntity
  8
0
100
AcDbCircle
 10
-158.2696242935
 20
-79.0
 30
0.0
 40
15.0
100
AcDbArc
 50
247.0804578484
 51
270.0
  0
ARC
  5
3D39
330
3D2D
100
AcDbEntity
  8
0
100
AcDbCircle
 10
-170.5398533815
 20
-96.329709585
 30
0.0
 40
6.0
100
AcDbArc
 50
60.5450656692
 51
130.947188455
  0
ARC
  5
3D3A
330
3D2D
100
AcDbEntity
  8
0
100
AcDbCircle
 10
-106.4709757065
 20
-79.0
 30
0.0
 40
15.0
100
AcDbArc
 50
270.0
 51
292.9195421516
  0
ARC
  5
3D3B
330
3D2D
100
AcDbEntity
  8
0
100
AcDbCircle
 10
-94.2007466185
 20
-96.329709585
 30
0.0
 40
6.0
100
AcDbArc
 50
49.052811545
 51
119.4549343308
  0
ARC
  5
3D3C
330
3D2D
100
AcDbEntity
  8
0
100
AcDbCircle
 10
-113.8703
 20
-61.5
 30
0.0
 40
34.0
100
AcDbArc
 50
292.9195421516
 51
299.4549343308
  0
LINE
  5
3D3D
330
3D2D
100
AcDbEntity
  8
0
100
AcDbLine
 10
-180.3703
 20
4.0
 30
0.0
 11
-84.3703
 21
4.0
 31
0.0
  0
ARC
  5
3D3E
330
3D2D
100
AcDbEntity
  8
0
100
AcDbCircle
 10
-158.2696242935
 20
-11.0
 30
0.0
 40
15.0
100
AcDbArc
 50
90.0
 51
112.9195421516
  0
ARC
  5
3D3F
330
3D2D
100
AcDbEntity
  8
0
100
AcDbCircle
 10
-180.3703
 20
-5.0
 30
0.0
 40
9.0
100
AcDbArc
 50
49.052811545
 51
180.0
  0
ARC
  5
3D40
330
3D2D
100
AcDbEntity
  8
0
100
AcDbCircle
 10
-170.5398533815
 20
6.329709585
 30
0.0
 40
6.0
100
AcDbArc
 50
229.052811545
 51
299.4549343308
  0
ARC
  5
3D41
330
3D2D
100
AcDbEntity
  8
0
100
AcDbCircle
 10
-150.8703
 20
-28.5
 30
0.0
 40
34.0
100
AcDbArc
 50
112.9195421516
 51
119.4549343308
  0
ARC
  5
3D42
330
3D2D
100
AcDbEntity
  8
0
100
AcDbCircle
 10
-84.3703
 20
-5.0
 30
0.0
 40
9.0
100
AcDbArc
 50
0.0
 51
130.947188455
  0
ARC
  5
3D43
330
3D2D
100
AcDbEntity
  8
0
100
AcDbCircle
 10
-106.4709757065
 20
-11.0
 30
0.0
 40
15.0
100
AcDbArc
 50
67.0804578484
 51
90.0
  0
ARC
  5
3D44
330
3D2D
100
AcDbEntity
  8
0
100
AcDbCircle
 10
-113.8703
 20
-28.5
 30
0.0
 40
34.0
100
AcDbArc
 50
60.5450656692
 51
67.0804578484
  0
ARC
  5
3D45
330
3D2D
100
AcDbEntity
  8
0
100
AcDbCircle
 10
-94.2007466185
 20
6.329709585
 30
0.0
 40
6.0
100
AcDbArc
 50
240.5450656692
 51
310.947188455
  0
LINE
  5
3D46
330
3D2D
100
AcDbEntity
  8
0
100
AcDbLine
 10
-75.3703
 20
-85.0
 30
0.0
 11
-75.3703
 21
-66.8284421707
 31
0.0
  0
LINE
  5
3D47
330
3D2D
100
AcDbEntity
  8
0
100
AcDbLine
 10
-184.8701844159
 20
-29.3284421707
 30
0.0
 11
-184.8701844159
 21
-60.6715578293
 31
0.0
  0
ARC
  5
3D48
330
3D2D
100
AcDbEntity
  8
0
100
AcDbCircle
 10
-186.8701844159
 20
-60.6715578293
 30
0.0
 40
2.0
100
AcDbArc
 50
314.9992641783
 51
0.0
  0
LINE
  5
3D49
330
3D2D
100
AcDbEntity
  8
0
100
AcDbLine
 10
-188.7844954002
 20
-65.4142104464
 30
0.0
 11
-185.4559890157
 21
-62.0857895536
 31
0.0
  0
ARC
  5
3D4A
330
3D2D
100
AcDbEntity
  8
0
100
AcDbCircle
 10
-187.3703
 20
-66.8284421707
 30
0.0
 40
2.0
100
AcDbArc
 50
134.9992641783
 51
180.0
  0
ARC
  5
3D4B
330
3D2D
100
AcDbEntity
  8
0
100
AcDbCircle
 10
-186.8701844159
 20
-29.3284421707
 30
0.0
 40
2.0
100
AcDbArc
 50
0.0
 51
45.0007358217
  0
LINE
  5
3D4C
330
3D2D
100
AcDbEntity
  8
0
100
AcDbLine
 10
-188.7844954002
 20
-24.5857895536
 30
0.0
 11
-185.4559890157
 21
-27.9142104464
 31
0.0
  0
ARC
  5
3D4D
330
3D2D
100
AcDbEntity
  8
0
100
AcDbCircle
 10
-187.3703
 20
-23.1715578293
 30
0.0
 40
2.0
100
AcDbArc
 50
180.0
 51
225.0007358217
  0
LINE
  5
3D4E
330
3D2D
100
AcDbEntity
  8
0
100
AcDbLine
 10
-79.8704155841
 20
-29.3284421707
 30
0.0
 11
-79.8704155841
 21
-60.6715578293
 31
0.0
  0
ARC
  5
3D4F
330
3D2D
100
AcDbEntity
  8
0
100
AcDbCircle
 10
-77.8704155841
 20
-60.6715578293
 30
0.0
 40
2.0
100
AcDbArc
 50
180.0
 51
225.0007358217
  0
LINE
  5
3D50
330
3D2D
100
AcDbEntity
  8
0
100
AcDbLine
 10
-75.9561045998
 20
-65.4142104464
 30
0.0
 11
-79.2846109843
 21
-62.0857895536
 31
0.0
  0
ARC
  5
3D51
330
3D2D
100
AcDbEntity
  8
0
100
AcDbCircle
 10
-77.3703
 20
-66.8284421707
 30
0.0
 40
2.0
100
AcDbArc
 50
0.0
 51
45.0007358217
  0
ARC
  5
3D52
330
3D2D
100
AcDbEntity
  8
0
100
AcDbCircle
 10
-77.8704155841
 20
-29.3284421707
 30
0.0
 40
2.0
100
AcDbArc
 50
134.9992641783
 51
180.0
  0
LINE
  5
3D53
330
3D2D
100
AcDbEntity
  8
0
100
AcDbLine
 10
-75.9561045998
 20
-24.5857895536
 30
0.0
 11
-79.2846109843
 21
-27.9142104464
 31
0.0
  0
ARC
  5
3D54
330
3D2D
100
AcDbEntity
  8
0
100
AcDbCircle
 10
-77.3703
 20
-23.1715578293
 30
0.0
 40
2.0
100
AcDbArc
 50
314.9992641783
 51
0.0
  0
ARC
  5
3D55
330
3D2D
100
AcDbEntity
  8
0
100
AcDbCircle
 10
-84.3703
 20
-85.0
 30
0.0
 40
9.0
100
AcDbArc
 50
229.052811545
 51
0.0
  0
LINE
  5
3D56
330
3D2D
100
AcDbEntity
  8
0
100
AcDbLine
 10
-74.7986756879
 20
0.2186800671
 30
0.0
 11
-80.2782698491
 21
3.0159396981
 31
0.0
  0
ARC
  5
3D57
330
3D2D
100
AcDbEntity
  8
0
100
AcDbCircle
 10
-73.8893356544
 20
-92.0
 30
0.0
 40
2.0
100
AcDbArc
 50
90.0
 51
117.0437045388
  0
LINE
  5
3D58
330
3D2D
100
AcDbEntity
  8
0
100
AcDbLine
 10
-74.7986756879
 20
-90.2186800671
 30
0.0
 11
-80.2782698491
 21
-93.0159396981
 31
0.0
  0
CIRCLE
  5
3D59
330
3D2D
100
AcDbEntity
  8
0
  6
Continuous
100
AcDbCircle
 10
-144.8703
 20
-45.0
 30
0.0
 40
25.548
  0
CIRCLE
  5
3D5A
330
3D2D
100
AcDbEntity
  8
0
  6
Continuous
100
AcDbCircle
 10
-144.8703
 20
-45.0
 30
0.0
 40
23.0
  0
CIRCLE
  5
3D5B
330
3D2D
100
AcDbEntity
  8
0
  6
Continuous
100
AcDbCircle
 10
-144.8703
 20
-45.0
 30
0.0
 40
17.5
  0
CIRCLE
  5
3D5C
330
3D2D
100
AcDbEntity
  8
0
  6
Continuous
100
AcDbCircle
 10
-144.8703
 20
-45.0
 30
0.0
 40
19.5
  0
CIRCLE
  5
3D5D
330
3D2D
100
AcDbEntity
  8
0
100
AcDbCircle
 10
-84.3703
 20
-6.0
 30
0.0
 40
4.2
  0
CIRCLE
  5
3D5E
330
3D2D
100
AcDbEntity
  8
0
100
AcDbCircle
 10
-180.3703
 20
-6.0
 30
0.0
 40
4.2
  0
CIRCLE
  5
3D5F
330
3D2D
100
AcDbEntity
  8
0
100
AcDbCircle
 10
-84.3703
 20
-84.0
 30
0.0
 40
4.2
  0
CIRCLE
  5
3D60
330
3D2D
100
AcDbEntity
  8
0
100
AcDbCircle
 10
-180.3703
 20
-84.0
 30
0.0
 40
4.2
  0
CIRCLE
  5
3D61
330
3D2D
100
AcDbEntity
  8
HOJO
100
AcDbCircle
 10
-84.3703
 20
-6.0
 30
0.0
 40
5.0
  0
CIRCLE
  5
3D62
330
3D2D
100
AcDbEntity
  8
HOJO
100
AcDbCircle
 10
-180.3703
 20
-6.0
 30
0.0
 40
5.0
  0
CIRCLE
  5
3D63
330
3D2D
100
AcDbEntity
  8
HOJO
100
AcDbCircle
 10
-180.3703
 20
-84.0
 30
0.0
 40
5.0
  0
CIRCLE
  5
3D64
330
3D2D
100
AcDbEntity
  8
0
100
AcDbCircle
 10
-144.8703
 20
-45.0
 30
0.0
 40
12.0
  0
LINE
  5
3D65
330
3D2D
100
AcDbEntity
  8
0
100
AcDbLine
 10
-142.3703
 20
-35.199997
 30
0.0
 11
-142.3703
 21
-37.928925
 31
0.0
  0
LINE
  5
3D66
330
3D2D
100
AcDbEntity
  8
0
100
AcDbLine
 10
-147.3703
 20
-35.199997
 30
0.0
 11
-147.3703
 21
-37.928925
 31
0.0
  0
ARC
  5
3D67
330
3D2D
100
AcDbEntity
  8
0
100
AcDbCircle
 10
-144.8703
 20
-45.0
 30
0.0
 40
7.5
100
AcDbArc
 50
109.471222
 51
70.528778
  0
LINE
  5
3D68
330
3D2D
100
AcDbEntity
  8
0
100
AcDbLine
 10
-147.3703
 20
-35.199997
 30
0.0
 11
-142.3703
 21
-35.199997
 31
0.0
  0
CIRCLE
  5
3D69
330
3D2D
100
AcDbEntity
  8
HOJO
100
AcDbCircle
 10
-84.3703
 20
-84.0
 30
0.0
 40
5.0
  0
LINE
  5
3D6A
330
3D2D
100
AcDbEntity
  8
CENTER
100
AcDbLine
 10
-172.391662
 20
-6.0
 30
0.0
 11
-188.348938
 21
-6.0
 31
0.0
  0
LINE
  5
3D6B
330
3D2D
100
AcDbEntity
  8
CENTER
100
AcDbLine
 10
-180.3703
 20
1.978638
 30
0.0
 11
-180.3703
 21
-13.978638
 31
0.0
  0
LINE
  5
3D6C
330
3D2D
100
AcDbEntity
  8
CENTER
100
AcDbLine
 10
-76.391662
 20
-6.0
 30
0.0
 11
-92.348938
 21
-6.0
 31
0.0
  0
LINE
  5
3D6D
330
3D2D
100
AcDbEntity
  8
CENTER
100
AcDbLine
 10
-84.3703
 20
1.978638
 30
0.0
 11
-84.3703
 21
-13.978638
 31
0.0
  0
LINE
  5
3D6E
330
3D2D
100
AcDbEntity
  8
CENTER
100
AcDbLine
 10
-76.391662
 20
-84.0
 30
0.0
 11
-92.348938
 21
-84.0
 31
0.0
  0
LINE
  5
3D6F
330
3D2D
100
AcDbEntity
  8
CENTER
100
AcDbLine
 10
-84.3703
 20
-76.021362
 30
0.0
 11
-84.3703
 21
-91.978638
 31
0.0
  0
LINE
  5
3D70
330
3D2D
100
AcDbEntity
  8
CENTER
100
AcDbLine
 10
-172.391662
 20
-84.0
 30
0.0
 11
-188.348938
 21
-84.0
 31
0.0
  0
LINE
  5
3D71
330
3D2D
100
AcDbEntity
  8
CENTER
100
AcDbLine
 10
-180.3703
 20
-76.021362
 30
0.0
 11
-180.3703
 21
-91.978638
 31
0.0
  0
LINE
  5
3D72
330
3D2D
100
AcDbEntity
  8
CENTER
100
AcDbLine
 10
-144.8703
 20
-11.3178365
 30
0.0
 11
-144.8703
 21
-78.6821635
 31
0.0
  0
LINE
  5
3D73
330
3D2D
100
AcDbEntity
  8
CENTER
100
AcDbLine
 10
-146.8674436841
 20
-45.0
 30
0.0
 11
-142.8731563159
 21
-45.0
 31
0.0
  0
LINE
  5
3D74
330
3D2D
100
AcDbEntity
  8
0
100
AcDbLine
 10
-179.8703
 20
-63.0
 30
0.0
 11
-179.8703
 21
-26.679504
 31
0.0
  0
LINE
  5
3D75
330
3D2D
100
AcDbEntity
  8
0
100
AcDbLine
 10
-84.8703
 20
-63.0
 30
0.0
 11
-84.8703
 21
-26.679504
 31
0.0
  0
ARC
  5
3D76
330
3D2D
100
AcDbEntity
  8
0
100
AcDbCircle
 10
-87.220825
 20
-67.0
 30
0.0
 40
2.0
100
AcDbArc
 50
270.0
 51
349.98459
  0
ARC
  5
3D77
330
3D2D
100
AcDbEntity
  8
0
100
AcDbCircle
 10
-86.957397
 20
-65.0
 30
0.0
 40
2.0
100
AcDbArc
 50
270.0
 51
355.011458
  0
LINE
  5
3D78
330
3D2D
100
AcDbEntity
  8
0
100
AcDbLine
 10
-109.8703
 20
-88.0
 30
0.0
 11
-154.8703
 21
-88.0
 31
0.0
  0
ARC
  5
3D79
330
3D2D
100
AcDbEntity
  8
0
100
AcDbCircle
 10
-161.3703
 20
-85.062408
 30
0.0
 40
2.0
100
AcDbArc
 50
180.0
 51
253.584045
  0
ARC
  5
3D7A
330
3D2D
100
AcDbEntity
  8
0
100
AcDbCircle
 10
-163.3703
 20
-84.371704
 30
0.0
 40
2.0
100
AcDbArc
 50
180.0
 51
248.311188
  0
ARC
  5
3D7B
330
3D2D
100
AcDbEntity
  8
0
100
AcDbCircle
 10
-154.8703
 20
-63.0
 30
0.0
 40
25.0
100
AcDbArc
 50
248.311188
 51
270.0
  0
ARC
  5
3D7C
330
3D2D
100
AcDbEntity
  8
0
100
AcDbCircle
 10
-154.8703
 20
-63.0
 30
0.0
 40
25.0
100
AcDbArc
 50
180.0
 51
190.015411
  0
LINE
  5
3D7D
330
3D2D
100
AcDbEntity
  8
0
100
AcDbLine
 10
-165.478576
 20
-82.53714
 30
0.0
 11
-163.478576
 21
-81.850922
 31
0.0
  0
LINE
  5
3D7E
330
3D2D
100
AcDbEntity
  8
0
100
AcDbLine
 10
-174.291626
 20
-67.772125
 30
0.0
 11
-163.791626
 21
-81.272125
 31
0.0
  0
LINE
  5
3D7F
330
3D2D
100
AcDbEntity
  8
0
100
AcDbLine
 10
-175.269775
 20
-69.772125
 30
0.0
 11
-165.791626
 21
-81.958328
 31
0.0
  0
ARC
  5
3D80
330
3D2D
100
AcDbEntity
  8
0
100
AcDbCircle
 10
-167.3703
 20
-83.186218
 30
0.0
 40
2.0
100
AcDbArc
 50
0.0
 51
37.874985
  0
LINE
  5
3D81
330
3D2D
100
AcDbEntity
  8
0
100
AcDbLine
 10
-165.3703
 20
-83.186218
 30
0.0
 11
-165.3703
 21
-84.371704
 31
0.0
  0
ARC
  5
3D82
330
3D2D
100
AcDbEntity
  8
0
100
AcDbCircle
 10
-175.8703
 20
-69.0
 30
0.0
 40
2.0
100
AcDbArc
 50
37.874985
 51
90.0
  0
LINE
  5
3D83
330
3D2D
100
AcDbEntity
  8
0
100
AcDbLine
 10
-175.969787
 20
-69.203369
 30
0.0
 11
-174.991577
 21
-67.203369
 31
0.0
  0
ARC
  5
3D84
330
3D2D
100
AcDbEntity
  8
0
100
AcDbCircle
 10
-176.848449
 20
-71.0
 30
0.0
 40
2.0
100
AcDbArc
 50
37.874985
 51
90.0
  0
ARC
  5
3D85
330
3D2D
100
AcDbEntity
  8
0
100
AcDbCircle
 10
-177.519775
 20
-67.0
 30
0.0
 40
2.0
100
AcDbArc
 50
190.015411
 51
270.0
  0
ARC
  5
3D86
330
3D2D
100
AcDbEntity
  8
0
100
AcDbCircle
 10
-177.783203
 20
-65.0
 30
0.0
 40
2.0
100
AcDbArc
 50
184.988541
 51
270.0
  0
LINE
  5
3D87
330
3D2D
100
AcDbEntity
  8
0
100
AcDbLine
 10
-175.8703
 20
-67.0
 30
0.0
 11
-177.783203
 21
-67.0
 31
0.0
  0
LINE
  5
3D88
330
3D2D
100
AcDbEntity
  8
0
100
AcDbLine
 10
-177.519775
 20
-69.0
 30
0.0
 11
-176.848449
 21
-69.0
 31
0.0
  0
ARC
  5
3D89
330
3D2D
100
AcDbEntity
  8
0
100
AcDbCircle
 10
-165.3703
 20
-82.5
 30
0.0
 40
2.0
100
AcDbArc
 50
0.0
 51
37.874985
  0
LINE
  5
3D8A
330
3D2D
100
AcDbEntity
  8
0
100
AcDbLine
 10
-163.3703
 20
-82.5
 30
0.0
 11
-163.3703
 21
-85.062408
 31
0.0
  0
ARC
  5
3D8B
330
3D2D
100
AcDbEntity
  8
0
100
AcDbCircle
 10
-103.3703
 20
-85.062408
 30
0.0
 40
2.0
100
AcDbArc
 50
286.415962
 51
0.0
  0
ARC
  5
3D8C
330
3D2D
100
AcDbEntity
  8
0
100
AcDbCircle
 10
-101.3703
 20
-84.371704
 30
0.0
 40
2.0
100
AcDbArc
 50
291.688805
 51
0.0
  0
ARC
  5
3D8D
330
3D2D
100
AcDbEntity
  8
0
100
AcDbCircle
 10
-109.8703
 20
-63.0
 30
0.0
 40
25.0
100
AcDbArc
 50
270.0
 51
291.688812
  0
ARC
  5
3D8E
330
3D2D
100
AcDbEntity
  8
0
100
AcDbCircle
 10
-99.3703
 20
-82.5
 30
0.0
 40
2.0
100
AcDbArc
 50
142.125015
 51
180.0
  0
LINE
  5
3D8F
330
3D2D
100
AcDbEntity
  8
0
100
AcDbLine
 10
-99.262024
 20
-82.53714
 30
0.0
 11
-101.262024
 21
-81.850922
 31
0.0
  0
LINE
  5
3D90
330
3D2D
100
AcDbEntity
  8
0
100
AcDbLine
 10
-101.3703
 20
-82.5
 30
0.0
 11
-101.3703
 21
-85.062408
 31
0.0
  0
LINE
  5
3D91
330
3D2D
100
AcDbEntity
  8
0
100
AcDbLine
 10
-90.448974
 20
-67.772125
 30
0.0
 11
-100.948974
 21
-81.272125
 31
0.0
  0
LINE
  5
3D92
330
3D2D
100
AcDbEntity
  8
0
100
AcDbLine
 10
-89.470825
 20
-69.772125
 30
0.0
 11
-98.948974
 21
-81.958328
 31
0.0
  0
ARC
  5
3D93
330
3D2D
100
AcDbEntity
  8
0
100
AcDbCircle
 10
-97.3703
 20
-83.186218
 30
0.0
 40
2.0
100
AcDbArc
 50
142.125015
 51
180.0
  0
LINE
  5
3D94
330
3D2D
100
AcDbEntity
  8
0
100
AcDbLine
 10
-99.3703
 20
-83.186218
 30
0.0
 11
-99.3703
 21
-84.371704
 31
0.0
  0
ARC
  5
3D95
330
3D2D
100
AcDbEntity
  8
0
100
AcDbCircle
 10
-88.8703
 20
-69.0
 30
0.0
 40
2.0
100
AcDbArc
 50
90.0
 51
142.125015
  0
LINE
  5
3D96
330
3D2D
100
AcDbEntity
  8
0
100
AcDbLine
 10
-88.770813
 20
-69.203369
 30
0.0
 11
-89.749023
 21
-67.203369
 31
0.0
  0
ARC
  5
3D97
330
3D2D
100
AcDbEntity
  8
0
100
AcDbCircle
 10
-87.892151
 20
-71.0
 30
0.0
 40
2.0
100
AcDbArc
 50
90.0
 51
142.125015
  0
LINE
  5
3D98
330
3D2D
100
AcDbEntity
  8
0
100
AcDbLine
 10
-88.8703
 20
-67.0
 30
0.0
 11
-86.957397
 21
-67.0
 31
0.0
  0
LINE
  5
3D99
330
3D2D
100
AcDbEntity
  8
0
100
AcDbLine
 10
-87.220825
 20
-69.0
 30
0.0
 11
-87.892151
 21
-69.0
 31
0.0
  0
ARC
  5
3D9A
330
3D2D
100
AcDbEntity
  8
0
100
AcDbCircle
 10
-109.8703
 20
-63.0
 30
0.0
 40
25.0
100
AcDbArc
 50
349.98459
 51
0.0
  0
ARC
  5
3D9B
330
3D2D
100
AcDbEntity
  8
0
100
AcDbCircle
 10
-87.220825
 20
-23.0
 30
0.0
 40
2.0
100
AcDbArc
 50
10.01541
 51
90.0
  0
ARC
  5
3D9C
330
3D2D
100
AcDbEntity
  8
0
100
AcDbCircle
 10
-86.957397
 20
-25.0
 30
0.0
 40
2.0
100
AcDbArc
 50
4.988542
 51
90.0
  0
LINE
  5
3D9D
330
3D2D
100
AcDbEntity
  8
0
100
AcDbLine
 10
-154.8703
 20
-2.0
 30
0.0
 11
-109.8703
 21
-2.0
 31
0.0
  0
ARC
  5
3D9E
330
3D2D
100
AcDbEntity
  8
0
100
AcDbCircle
 10
-176.848449
 20
-19.0
 30
0.0
 40
2.0
100
AcDbArc
 50
270.0
 51
322.125031
  0
LINE
  5
3D9F
330
3D2D
100
AcDbEntity
  8
0
100
AcDbLine
 10
-174.291626
 20
-22.227875
 30
0.0
 11
-163.791626
 21
-8.727875
 31
0.0
  0
ARC
  5
3DA0
330
3D2D
100
AcDbEntity
  8
0
100
AcDbCircle
 10
-175.8703
 20
-21.0
 30
0.0
 40
2.0
100
AcDbArc
 50
270.0
 51
322.125031
  0
LINE
  5
3DA1
330
3D2D
100
AcDbEntity
  8
0
100
AcDbLine
 10
-175.969787
 20
-20.796631
 30
0.0
 11
-174.991577
 21
-22.796631
 31
0.0
  0
ARC
  5
3DA2
330
3D2D
100
AcDbEntity
  8
0
100
AcDbCircle
 10
-177.519775
 20
-23.0
 30
0.0
 40
2.0
100
AcDbArc
 50
90.0
 51
169.984589
  0
ARC
  5
3DA3
330
3D2D
100
AcDbEntity
  8
0
100
AcDbCircle
 10
-177.783203
 20
-25.0
 30
0.0
 40
2.0
100
AcDbArc
 50
90.0
 51
175.011459
  0
LINE
  5
3DA4
330
3D2D
100
AcDbEntity
  8
0
100
AcDbLine
 10
-175.8703
 20
-23.0
 30
0.0
 11
-177.783203
 21
-23.0
 31
0.0
  0
LINE
  5
3DA5
330
3D2D
100
AcDbEntity
  8
0
100
AcDbLine
 10
-177.519775
 20
-21.0
 30
0.0
 11
-176.848449
 21
-21.0
 31
0.0
  0
ARC
  5
3DA6
330
3D2D
100
AcDbEntity
  8
0
100
AcDbCircle
 10
-154.8703
 20
-27.0
 30
0.0
 40
25.0
100
AcDbArc
 50
169.984589
 51
180.0
  0
ARC
  5
3DA7
330
3D2D
100
AcDbEntity
  8
0
100
AcDbCircle
 10
-163.3703
 20
-5.628296
 30
0.0
 40
2.0
100
AcDbArc
 50
111.688805
 51
180.0
  0
LINE
  5
3DA8
330
3D2D
100
AcDbEntity
  8
0
100
AcDbLine
 10
-165.478576
 20
-7.46286
 30
0.0
 11
-163.478576
 21
-8.149078
 31
0.0
  0
LINE
  5
3DA9
330
3D2D
100
AcDbEntity
  8
0
100
AcDbLine
 10
-175.269775
 20
-20.227875
 30
0.0
 11
-165.791626
 21
-8.041656
 31
0.0
  0
ARC
  5
3DAA
330
3D2D
100
AcDbEntity
  8
0
100
AcDbCircle
 10
-167.3703
 20
-6.813782
 30
0.0
 40
2.0
100
AcDbArc
 50
322.125015
 51
0.0
  0
LINE
  5
3DAB
330
3D2D
100
AcDbEntity
  8
0
100
AcDbLine
 10
-165.3703
 20
-6.813782
 30
0.0
 11
-165.3703
 21
-5.628296
 31
0.0
  0
ARC
  5
3DAC
330
3D2D
100
AcDbEntity
  8
0
100
AcDbCircle
 10
-154.8703
 20
-27.0
 30
0.0
 40
25.0
100
AcDbArc
 50
90.0
 51
111.688805
  0
ARC
  5
3DAD
330
3D2D
100
AcDbEntity
  8
0
100
AcDbCircle
 10
-165.3703
 20
-7.5
 30
0.0
 40
2.0
100
AcDbArc
 50
322.125015
 51
0.0
  0
ARC
  5
3DAE
330
3D2D
100
AcDbEntity
  8
0
100
AcDbCircle
 10
-161.3703
 20
-4.937592
 30
0.0
 40
2.0
100
AcDbArc
 50
106.415962
 51
180.0
  0
LINE
  5
3DAF
330
3D2D
100
AcDbEntity
  8
0
100
AcDbLine
 10
-163.3703
 20
-7.5
 30
0.0
 11
-163.3703
 21
-4.937592
 31
0.0
  0
ARC
  5
3DB0
330
3D2D
100
AcDbEntity
  8
0
100
AcDbCircle
 10
-87.892151
 20
-19.0
 30
0.0
 40
2.0
100
AcDbArc
 50
217.874985
 51
270.0
  0
LINE
  5
3DB1
330
3D2D
100
AcDbEntity
  8
0
100
AcDbLine
 10
-90.448974
 20
-22.227875
 30
0.0
 11
-100.948974
 21
-8.727875
 31
0.0
  0
ARC
  5
3DB2
330
3D2D
100
AcDbEntity
  8
0
100
AcDbCircle
 10
-88.8703
 20
-21.0
 30
0.0
 40
2.0
100
AcDbArc
 50
217.874985
 51
270.0
  0
LINE
  5
3DB3
330
3D2D
100
AcDbEntity
  8
0
100
AcDbLine
 10
-88.770813
 20
-20.796631
 30
0.0
 11
-89.749023
 21
-22.796631
 31
0.0
  0
LINE
  5
3DB4
330
3D2D
100
AcDbEntity
  8
0
100
AcDbLine
 10
-88.8703
 20
-23.0
 30
0.0
 11
-86.957397
 21
-23.0
 31
0.0
  0
LINE
  5
3DB5
330
3D2D
100
AcDbEntity
  8
0
100
AcDbLine
 10
-87.220825
 20
-21.0
 30
0.0
 11
-87.892151
 21
-21.0
 31
0.0
  0
ARC
  5
3DB6
330
3D2D
100
AcDbEntity
  8
0
100
AcDbCircle
 10
-99.3703
 20
-7.5
 30
0.0
 40
2.0
100
AcDbArc
 50
180.0
 51
217.874985
  0
ARC
  5
3DB7
330
3D2D
100
AcDbEntity
  8
0
100
AcDbCircle
 10
-103.3703
 20
-4.937592
 30
0.0
 40
2.0
100
AcDbArc
 50
0.0
 51
73.584038
  0
LINE
  5
3DB8
330
3D2D
100
AcDbEntity
  8
0
100
AcDbLine
 10
-99.262024
 20
-7.46286
 30
0.0
 11
-101.262024
 21
-8.149078
 31
0.0
  0
ARC
  5
3DB9
330
3D2D
100
AcDbEntity
  8
0
100
AcDbCircle
 10
-109.8703
 20
-27.0
 30
0.0
 40
25.0
100
AcDbArc
 50
68.311195
 51
90.0
  0
LINE
  5
3DBA
330
3D2D
100
AcDbEntity
  8
0
100
AcDbLine
 10
-101.3703
 20
-7.5
 30
0.0
 11
-101.3703
 21
-4.937592
 31
0.0
  0
LINE
  5
3DBB
330
3D2D
100
AcDbEntity
  8
0
100
AcDbLine
 10
-89.470825
 20
-20.227875
 30
0.0
 11
-98.948974
 21
-8.041656
 31
0.0
  0
ARC
  5
3DBC
330
3D2D
100
AcDbEntity
  8
0
100
AcDbCircle
 10
-101.3703
 20
-5.628296
 30
0.0
 40
2.0
100
AcDbArc
 50
0.0
 51
68.311195
  0
ARC
  5
3DBD
330
3D2D
100
AcDbEntity
  8
0
100
AcDbCircle
 10
-97.3703
 20
-6.813782
 30
0.0
 40
2.0
100
AcDbArc
 50
180.0
 51
217.874985
  0
LINE
  5
3DBE
330
3D2D
100
AcDbEntity
  8
0
100
AcDbLine
 10
-99.3703
 20
-6.813782
 30
0.0
 11
-99.3703
 21
-5.628296
 31
0.0
  0
ARC
  5
3DBF
330
3D2D
100
AcDbEntity
  8
0
100
AcDbCircle
 10
-109.8703
 20
-27.0
 30
0.0
 40
25.0
100
AcDbArc
 50
0.0
 51
10.01541
  0
LINE
  5
3DC0
330
3D2D
100
AcDbEntity
  8
0
100
AcDbLine
 10
0.0
 20
0.0
 30
0.0
 11
0.0
 21
-90.0
 31
0.0
  0
ENDBLK
  5
3DC4
330
3D2D
100
AcDbEntity
  8
0
100
AcDbBlockEnd
  0
BLOCK
  5
3E1D
330
3DC6
100
AcDbEntity
  8
0
100
AcDbBlockBegin
  2
A$Ca4d0cbaa
 70
     0
 10
0.0
 20
0.0
 30
0.0
  3
A$Ca4d0cbaa
  1

  0
LINE
  5
3DC7
330
3DC6
100
AcDbEntity
  8
CENTER
100
AcDbLine
 10
-147.2498523411
 20
-45.0
 30
0.0
 11
-142.4907476589
 21
-45.0
 31
0.0
  0
LINE
  5
3DC8
330
3DC6
100
AcDbEntity
  8
0
100
AcDbLine
 10
-74.1800833955
 20
-90.0
 30
0.0
 11
0.0
 21
-90.0
 31
0.0
  0
ARC
  5
3DC9
330
3DC6
100
AcDbEntity
  8
0
100
AcDbCircle
 10
-74.1800833955
 20
-92.0
 30
0.0
 40
2.0
100
AcDbArc
 50
90.0
 51
179.0
  0
LINE
  5
3DCA
330
3DC6
100
AcDbEntity
  8
0
100
AcDbLine
 10
-72.5532952856
 20
0.0
 30
0.0
 11
0.0
 21
0.0
 31
0.0
  0
LINE
  5
3DCB
330
3DC6
100
AcDbEntity
  8
0
100
AcDbLine
 10
-188.5221568834
 20
-93.0
 30
0.0
 11
-189.36
 21
-45.0
 31
0.0
  0
LINE
  5
3DCC
330
3DC6
100
AcDbEntity
  8
0
100
AcDbLine
 10
-76.1978431166
 20
-93.0
 30
0.0
 11
-75.900497747
 21
-75.9650951871
 31
0.0
  0
LINE
  5
3DCD
330
3DC6
100
AcDbEntity
  8
0
100
AcDbLine
 10
-188.7490727275
 20
-10.0
 30
0.0
 11
-75.9709272725
 21
-10.0
 31
0.0
  0
LINE
  5
3DCE
330
3DC6
100
AcDbEntity
  8
0
100
AcDbLine
 10
-188.7490727275
 20
-10.0
 30
0.0
 11
-189.36
 21
-45.0
 31
0.0
  0
LINE
  5
3DCF
330
3DC6
100
AcDbEntity
  8
0
100
AcDbLine
 10
-75.9709272725
 20
-10.0
 30
0.0
 11
-75.900497747
 21
-14.0349048129
 31
0.0
  0
LINE
  5
3DD0
330
3DC6
100
AcDbEntity
  8
0
100
AcDbLine
 10
-188.5221568834
 20
-93.0
 30
0.0
 11
-76.1978431166
 21
-93.0
 31
0.0
  0
LINE
  5
3DD1
330
3DC6
100
AcDbEntity
  8
0
100
AcDbLine
 10
0.0
 20
-74.0
 30
0.0
 11
-82.9008023567
 21
-74.0
 31
0.0
  0
ARC
  5
3DD2
330
3DC6
100
AcDbEntity
  8
0
100
AcDbCircle
 10
-73.9008023567
 20
-76.0
 30
0.0
 40
2.0
100
AcDbArc
 50
90.0
 51
179.0
  0
LINE
  5
3DD3
330
3DC6
100
AcDbEntity
  8
0
100
AcDbLine
 10
0.0
 20
-16.0
 30
0.0
 11
-82.9008023567
 21
-16.0
 31
0.0
  0
ARC
  5
3DD4
330
3DC6
100
AcDbEntity
  8
0
100
AcDbCircle
 10
-73.9008023567
 20
-14.0
 30
0.0
 40
2.0
100
AcDbArc
 50
181.0
 51
270.0
  0
ARC
  5
3DD5
330
3DC6
100
AcDbEntity
  8
0
100
AcDbCircle
 10
-82.9008023567
 20
-76.0
 30
0.0
 40
2.0
100
AcDbArc
 50
90.0
 51
179.0
  0
ARC
  5
3DD6
330
3DC6
100
AcDbEntity
  8
0
100
AcDbCircle
 10
-82.9008023567
 20
-14.0
 30
0.0
 40
2.0
100
AcDbArc
 50
181.0
 51
270.0
  0
LINE
  5
3DD7
330
3DC6
100
AcDbEntity
  8
0
100
AcDbLine
 10
-178.6579061247
 20
-40.0
 30
0.0
 11
-158.3257737513
 21
-40.0
 31
0.0
  0
LINE
  5
3DD8
330
3DC6
100
AcDbEntity
  8
0
100
AcDbLine
 10
-170.5295533815
 20
3.0
 30
0.0
 11
-170.5295533815
 21
-37.4623975841
 31
0.0
  0
LINE
  5
3DD9
330
3DC6
100
AcDbEntity
  8
0
100
AcDbLine
 10
-158.3257737513
 20
-40.0
 30
0.0
 11
-158.3257737513
 21
3.0
 31
0.0
  0
ARC
  5
3DDA
330
3DC6
100
AcDbEntity
  8
0
100
AcDbCircle
 10
-170.5295533815
 20
-52.4623975841
 30
0.0
 40
15.0
100
AcDbArc
 50
69.4077044077
 51
90.0
  0
LINE
  5
3DDB
330
3DC6
100
AcDbEntity
  8
0
100
AcDbLine
 10
-163.601510389
 20
-39.041602577
 30
0.0
 11
-165.2538167438
 21
-38.4207950071
 31
0.0
  0
ARC
  5
3DDC
330
3DC6
100
AcDbEntity
  8
0
100
AcDbCircle
 10
-158.3257737513
 20
-25.0
 30
0.0
 40
15.0
100
AcDbArc
 50
249.4077044077
 51
270.0
  0
ARC
  5
3DDD
330
3DC6
100
AcDbEntity
  8
0
100
AcDbCircle
 10
-178.6579061247
 20
-33.0
 30
0.0
 40
7.0
100
AcDbArc
 50
270.0
 51
300.4144326901
  0
ARC
  5
3DDE
330
3DC6
100
AcDbEntity
  8
0
100
AcDbCircle
 10
-170.5295533815
 20
-44.4623975841
 30
0.0
 40
7.0
100
AcDbArc
 50
90.0
 51
120.4144326901
  0
LINE
  5
3DDF
330
3DC6
100
AcDbEntity
  8
0
100
AcDbLine
 10
-174.073310476
 20
-38.4256943733
 30
0.0
 11
-175.1141490302
 21
-39.0367032108
 31
0.0
  0
LINE
  5
3DE0
330
3DC6
100
AcDbEntity
  8
0
100
AcDbLine
 10
-106.4606757065
 20
-40.0
 30
0.0
 11
-106.4606757065
 21
3.0
 31
0.0
  0
LINE
  5
3DE1
330
3DC6
100
AcDbEntity
  8
0
100
AcDbLine
 10
-94.2568960764
 20
3.0
 30
0.0
 11
-94.2568960764
 21
-37.4623975841
 31
0.0
  0
ARC
  5
3DE2
330
3DC6
100
AcDbEntity
  8
0
100
AcDbCircle
 10
-94.2568960764
 20
-44.4623975841
 30
0.0
 40
7.0
100
AcDbArc
 50
59.5855673099
 51
90.0
  0
LINE
  5
3DE3
330
3DC6
100
AcDbEntity
  8
0
100
AcDbLine
 10
-86.1285433331
 20
-40.0
 30
0.0
 11
-106.4606757065
 21
-40.0
 31
0.0
  0
ARC
  5
3DE4
330
3DC6
100
AcDbEntity
  8
0
100
AcDbCircle
 10
-86.1285433331
 20
-33.0
 30
0.0
 40
7.0
100
AcDbArc
 50
239.5855673099
 51
270.0
  0
LINE
  5
3DE5
330
3DC6
100
AcDbEntity
  8
0
100
AcDbLine
 10
-90.7131389819
 20
-38.4256943733
 30
0.0
 11
-89.6723004276
 21
-39.0367032108
 31
0.0
  0
ARC
  5
3DE6
330
3DC6
100
AcDbEntity
  8
0
100
AcDbCircle
 10
-94.2568960764
 20
-52.4623975841
 30
0.0
 40
15.0
100
AcDbArc
 50
90.0
 51
110.5922955923
  0
ARC
  5
3DE7
330
3DC6
100
AcDbEntity
  8
0
100
AcDbCircle
 10
-106.4606757065
 20
-25.0
 30
0.0
 40
15.0
100
AcDbArc
 50
270.0
 51
290.5922955923
  0
LINE
  5
3DE8
330
3DC6
100
AcDbEntity
  8
0
100
AcDbLine
 10
-101.1849390689
 20
-39.041602577
 30
0.0
 11
-99.532632714
 21
-38.4207950071
 31
0.0
  0
LINE
  5
3DE9
330
3DC6
100
AcDbEntity
  8
0
100
AcDbLine
 10
-106.4606757065
 20
-50.0
 30
0.0
 11
-106.4606757065
 21
-92.5001713375
 31
0.0
  0
LINE
  5
3DEA
330
3DC6
100
AcDbEntity
  8
0
100
AcDbLine
 10
-94.2568960764
 20
-92.5001713375
 30
0.0
 11
-94.2568960764
 21
-52.5376024159
 31
0.0
  0
ARC
  5
3DEB
330
3DC6
100
AcDbEntity
  8
0
100
AcDbCircle
 10
-106.4606757065
 20
-65.0
 30
0.0
 40
15.0
100
AcDbArc
 50
69.4077044077
 51
90.0
  0
LINE
  5
3DEC
330
3DC6
100
AcDbEntity
  8
0
100
AcDbLine
 10
-86.1285433331
 20
-50.0
 30
0.0
 11
-106.4606757065
 21
-50.0
 31
0.0
  0
ARC
  5
3DED
330
3DC6
100
AcDbEntity
  8
0
100
AcDbCircle
 10
-94.2568960764
 20
-45.5376024159
 30
0.0
 40
7.0
100
AcDbArc
 50
270.0
 51
300.4144326901
  0
ARC
  5
3DEE
330
3DC6
100
AcDbEntity
  8
0
100
AcDbCircle
 10
-94.2568960764
 20
-37.5376024159
 30
0.0
 40
15.0
100
AcDbArc
 50
249.4077044077
 51
270.0
  0
LINE
  5
3DEF
330
3DC6
100
AcDbEntity
  8
0
100
AcDbLine
 10
-101.1849390689
 20
-50.958397423
 30
0.0
 11
-99.532632714
 21
-51.5792049929
 31
0.0
  0
LINE
  5
3DF0
330
3DC6
100
AcDbEntity
  8
0
100
AcDbLine
 10
-90.7131389819
 20
-51.5743056267
 30
0.0
 11
-89.6723004276
 21
-50.9632967892
 31
0.0
  0
ARC
  5
3DF1
330
3DC6
100
AcDbEntity
  8
0
100
AcDbCircle
 10
-86.1285433331
 20
-57.0
 30
0.0
 40
7.0
100
AcDbArc
 50
90.0
 51
120.4144326901
  0
LINE
  5
3DF2
330
3DC6
100
AcDbEntity
  8
0
100
AcDbLine
 10
-158.3257737513
 20
-50.0
 30
0.0
 11
-158.3257737513
 21
-93.0
 31
0.0
  0
LINE
  5
3DF3
330
3DC6
100
AcDbEntity
  8
0
100
AcDbLine
 10
-170.5295533815
 20
-93.0
 30
0.0
 11
-170.5295533815
 21
-52.5376024159
 31
0.0
  0
ARC
  5
3DF4
330
3DC6
100
AcDbEntity
  8
0
100
AcDbCircle
 10
-170.5295533815
 20
-45.5376024159
 30
0.0
 40
7.0
100
AcDbArc
 50
239.5855673099
 51
270.0
  0
LINE
  5
3DF5
330
3DC6
100
AcDbEntity
  8
0
100
AcDbLine
 10
-178.6579061247
 20
-50.0
 30
0.0
 11
-158.3257737513
 21
-50.0
 31
0.0
  0
ARC
  5
3DF6
330
3DC6
100
AcDbEntity
  8
0
100
AcDbCircle
 10
-178.6579061247
 20
-57.0
 30
0.0
 40
7.0
100
AcDbArc
 50
59.5855673099
 51
90.0
  0
LINE
  5
3DF7
330
3DC6
100
AcDbEntity
  8
0
100
AcDbLine
 10
-174.073310476
 20
-51.5743056267
 30
0.0
 11
-175.1141490302
 21
-50.9632967892
 31
0.0
  0
ARC
  5
3DF8
330
3DC6
100
AcDbEntity
  8
0
100
AcDbCircle
 10
-170.5295533815
 20
-37.5376024159
 30
0.0
 40
15.0
100
AcDbArc
 50
270.0
 51
290.5922955923
  0
ARC
  5
3DF9
330
3DC6
100
AcDbEntity
  8
0
100
AcDbCircle
 10
-158.3257737513
 20
-65.0
 30
0.0
 40
15.0
100
AcDbArc
 50
90.0
 51
110.5922955923
  0
LINE
  5
3DFA
330
3DC6
100
AcDbEntity
  8
0
100
AcDbLine
 10
-163.601510389
 20
-50.958397423
 30
0.0
 11
-165.2538167438
 21
-51.5792049929
 31
0.0
  0
LINE
  5
3DFB
330
3DC6
100
AcDbEntity
  8
0
100
AcDbLine
 10
0.0
 20
-90.0
 30
0.0
 11
0.0
 21
-70.0
 31
0.0
  0
LINE
  5
3DFC
330
3DC6
100
AcDbEntity
  8
0
100
AcDbLine
 10
-74.7638109769
 20
-10.0130884742
 30
0.0
 11
-74.5526099356
 21
-1.9476461034
 31
0.0
  0
ARC
  5
3DFD
330
3DC6
100
AcDbEntity
  8
0
100
AcDbCircle
 10
-75.2636396394
 20
-10.0
 30
0.0
 40
0.5
100
AcDbArc
 50
270.0
 51
358.5
  0
ARC
  5
3DFE
330
3DC6
100
AcDbEntity
  8
0
100
AcDbCircle
 10
-72.5532952856
 20
-2.0
 30
0.0
 40
2.0
100
AcDbArc
 50
90.0
 51
178.5
  0
LINE
  5
3DFF
330
3DC6
100
AcDbEntity
  8
0
100
AcDbLine
 10
-75.2636396394
 20
-10.5
 30
0.0
 11
-75.96219974
 21
-10.5
 31
0.0
  0
LINE
  5
3E00
330
3DC6
100
AcDbEntity
  8
0
100
AcDbLine
 10
-188.5221568834
 20
3.0
 30
0.0
 11
-188.7490727275
 21
-10.0
 31
0.0
  0
LINE
  5
3E01
330
3DC6
100
AcDbEntity
  8
0
  6
Continuous
100
AcDbLine
 10
-188.5221568834
 20
3.0
 30
0.0
 11
-76.1978431166
 21
3.0
 31
0.0
  0
LINE
  5
3E02
330
3DC6
100
AcDbEntity
  8
0
100
AcDbLine
 10
-76.1978431166
 20
3.0
 30
0.0
 11
-75.9709272725
 21
-10.0
 31
0.0
  0
LINE
  5
3E03
330
3DC6
100
AcDbEntity
  8
HIDS
100
AcDbLine
 10
-175.3703
 20
-55.0
 30
0.0
 11
-175.3703
 21
-93.0
 31
0.0
  0
LINE
  5
3E04
330
3DC6
100
AcDbEntity
  8
HIDS
100
AcDbLine
 10
-185.3703
 20
-55.0
 30
0.0
 11
-185.3703
 21
-93.0
 31
0.0
  0
LINE
  5
3E05
330
3DC6
100
AcDbEntity
  8
CENTER
100
AcDbLine
 10
-180.3703
 20
8.248291
 30
0.0
 11
-180.3703
 21
-97.821869
 31
0.0
  0
LINE
  5
3E06
330
3DC6
100
AcDbEntity
  8
CENTER
100
AcDbLine
 10
-144.8703
 20
10.9414731563
 30
0.0
 11
-144.8703
 21
-100.9414731563
 31
0.0
  0
LINE
  5
3E07
330
3DC6
100
AcDbEntity
  8
HIDS
  6
sekkei_H
100
AcDbLine
 10
-175.1203
 20
-10.0
 30
0.0
 11
-175.1203
 21
3.0
 31
0.0
  0
LINE
  5
3E08
330
3DC6
100
AcDbEntity
  8
HIDS
  6
sekkei_H
100
AcDbLine
 10
-185.6203
 20
-10.0
 30
0.0
 11
-185.6203
 21
3.0
 31
0.0
  0
LINE
  5
3E09
330
3DC6
100
AcDbEntity
  8
HIDS
100
AcDbLine
 10
-185.3703
 20
-35.0
 30
0.0
 11
-175.3703
 21
-35.0
 31
0.0
  0
LINE
  5
3E0A
330
3DC6
100
AcDbEntity
  8
HIDS
100
AcDbLine
 10
-185.3703
 20
-55.0
 30
0.0
 11
-175.3703
 21
-55.0
 31
0.0
  0
LINE
  5
3E0B
330
3DC6
100
AcDbEntity
  8
HIDS
100
AcDbLine
 10
-185.3703
 20
-10.0
 30
0.0
 11
-185.3703
 21
-35.0
 31
0.0
  0
LINE
  5
3E0C
330
3DC6
100
AcDbEntity
  8
HIDS
100
AcDbLine
 10
-175.3703
 20
-10.0
 30
0.0
 11
-175.3703
 21
-35.0
 31
0.0
  0
LINE
  5
3E0D
330
3DC6
100
AcDbEntity
  8
HIDS
100
AcDbLine
 10
-79.3703
 20
-55.0
 30
0.0
 11
-79.3703
 21
-93.0
 31
0.0
  0
LINE
  5
3E0E
330
3DC6
100
AcDbEntity
  8
HIDS
100
AcDbLine
 10
-89.3703
 20
-55.0
 30
0.0
 11
-89.3703
 21
-93.0
 31
0.0
  0
LINE
  5
3E0F
330
3DC6
100
AcDbEntity
  8
CENTER
100
AcDbLine
 10
-84.3703
 20
8.248291
 30
0.0
 11
-84.3703
 21
-97.821869
 31
0.0
  0
LINE
  5
3E10
330
3DC6
100
AcDbEntity
  8
HIDS
  6
sekkei_H
100
AcDbLine
 10
-79.1203
 20
-10.0
 30
0.0
 11
-79.1203
 21
3.0
 31
0.0
  0
LINE
  5
3E11
330
3DC6
100
AcDbEntity
  8
HIDS
  6
sekkei_H
100
AcDbLine
 10
-89.6203
 20
-10.0
 30
0.0
 11
-89.6203
 21
3.0
 31
0.0
  0
LINE
  5
3E12
330
3DC6
100
AcDbEntity
  8
HIDS
100
AcDbLine
 10
-89.3703
 20
-10.0
 30
0.0
 11
-89.3703
 21
-35.0
 31
0.0
  0
LINE
  5
3E13
330
3DC6
100
AcDbEntity
  8
HIDS
100
AcDbLine
 10
-79.3703
 20
-10.0
 30
0.0
 11
-79.3703
 21
-35.0
 31
0.0
  0
LINE
  5
3E14
330
3DC6
100
AcDbEntity
  8
HIDS
100
AcDbLine
 10
-89.3703
 20
-55.0
 30
0.0
 11
-79.3703
 21
-55.0
 31
0.0
  0
LINE
  5
3E15
330
3DC6
100
AcDbEntity
  8
HIDS
100
AcDbLine
 10
-89.3703
 20
-35.0
 30
0.0
 11
-79.3703
 21
-35.0
 31
0.0
  0
LINE
  5
3E16
330
3DC6
100
AcDbEntity
  8
0
100
AcDbLine
 10
0.0
 20
-20.0
 30
0.0
 11
0.0
 21
0.0
 31
0.0
  0
LINE
  5
3E17
330
3DC6
100
AcDbEntity
  8
HIDS
100
AcDbLine
 10
-176.1703
 20
-10.0
 30
0.0
 11
-176.1703
 21
-93.0
 31
0.0
  0
LINE
  5
3E18
330
3DC6
100
AcDbEntity
  8
HIDS
100
AcDbLine
 10
-184.5703
 20
-10.0
 30
0.0
 11
-184.5703
 21
-93.0
 31
0.0
  0
LINE
  5
3E19
330
3DC6
100
AcDbEntity
  8
HIDS
100
AcDbLine
 10
-80.1703
 20
-10.0
 30
0.0
 11
-80.1703
 21
-93.0
 31
0.0
  0
LINE
  5
3E1A
330
3DC6
100
AcDbEntity
  8
HIDS
100
AcDbLine
 10
-88.5703
 20
-10.0
 30
0.0
 11
-88.5703
 21
-93.0
 31
0.0
  0
ENDBLK
  5
3E1E
330
3DC6
100
AcDbEntity
  8
0
100
AcDbBlockEnd
  0
BLOCK
  5
3F20
330
3EB3
100
AcDbEntity
  8
0
100
AcDbBlockBegin
  2
A$C03ffc646
 70
     0
 10
0.0
 20
0.0
 30
0.0
  3
A$C03ffc646
  1

  0
LINE
  5
3EB4
330
3EB3
100
AcDbEntity
  8
0
  6
Continuous
100
AcDbLine
 10
48.0
 20
-48.1621568834
 30
0.0
 11
48.0
 21
48.1621568834
 31
0.0
  0
LINE
  5
3EB5
330
3EB3
100
AcDbEntity
  8
0
  6
Continuous
100
AcDbLine
 10
-35.0
 20
-48.3890727275
 30
0.0
 11
-35.0
 21
48.3890727275
 31
0.0
  0
LINE
  5
3EB6
330
3EB3
100
AcDbEntity
  8
0
100
AcDbLine
 10
-48.0
 20
48.1621568834
 30
0.0
 11
0.0
 21
49.0
 31
0.0
  0
LINE
  5
3EB7
330
3EB3
100
AcDbEntity
  8
0
100
AcDbLine
 10
-48.0
 20
-48.1621568834
 30
0.0
 11
0.0
 21
-49.0
 31
0.0
  0
LINE
  5
3EB8
330
3EB3
100
AcDbEntity
  8
0
100
AcDbLine
 10
48.0
 20
-48.1621568834
 30
0.0
 11
0.0
 21
-49.0
 31
0.0
  0
LINE
  5
3EB9
330
3EB3
100
AcDbEntity
  8
0
100
AcDbLine
 10
48.0
 20
48.1621568834
 30
0.0
 11
0.0
 21
49.0
 31
0.0
  0
LINE
  5
3EBA
330
3EB3
100
AcDbEntity
  8
0
  6
Continuous
100
AcDbLine
 10
5.0
 20
18.283996
 30
0.0
 11
5.0
 21
-18.284058
 31
0.0
  0
LINE
  5
3EBB
330
3EB3
100
AcDbEntity
  8
0
  6
Continuous
100
AcDbLine
 10
-5.0
 20
-18.510987
 30
0.0
 11
-5.0
 21
18.510925
 31
0.0
  0
LINE
  5
3EBC
330
3EB3
100
AcDbEntity
  8
0
  6
Continuous
100
AcDbLine
 10
6.965088
 20
20.283691
 30
0.0
 11
48.0
 21
21.0
 31
0.0
  0
LINE
  5
3EBD
330
3EB3
100
AcDbEntity
  8
0
  6
Continuous
100
AcDbLine
 10
9.720978
 20
15.831787
 30
0.0
 11
48.0
 21
16.5
 31
0.0
  0
LINE
  5
3EBE
330
3EB3
100
AcDbEntity
  8
0
  6
Continuous
100
AcDbLine
 10
6.965088
 20
-20.283753
 30
0.0
 11
48.0
 21
-21.0
 31
0.0
  0
LINE
  5
3EBF
330
3EB3
100
AcDbEntity
  8
0
  6
Continuous
100
AcDbLine
 10
9.720978
 20
-15.831848
 30
0.0
 11
48.0
 21
-16.5
 31
0.0
  0
LINE
  5
3EC0
330
3EB3
100
AcDbEntity
  8
0
  6
Continuous
100
AcDbLine
 10
7.75589
 20
-13.832154
 30
0.0
 11
7.75589
 21
13.832092
 31
0.0
  0
LINE
  5
3EC1
330
3EB3
100
AcDbEntity
  8
0
  6
Continuous
100
AcDbLine
 10
-7.75589
 20
14.059021
 30
0.0
 11
-7.75589
 21
-14.059082
 31
0.0
  0
LINE
  5
3EC2
330
3EB3
100
AcDbEntity
  8
0
  6
Continuous
100
AcDbLine
 10
-5.44107
 20
19.763794
 30
0.0
 11
-8.19696
 21
15.311951
 31
0.0
  0
LINE
  5
3EC3
330
3EB3
100
AcDbEntity
  8
0
  6
Continuous
100
AcDbLine
 10
-8.19696
 20
-15.311951
 30
0.0
 11
-5.44107
 21
-19.763855
 31
0.0
  0
LINE
  5
3EC4
330
3EB3
100
AcDbEntity
  8
0
  6
Continuous
100
AcDbLine
 10
8.196961
 20
-15.085083
 30
0.0
 11
5.441071
 21
-19.536926
 31
0.0
  0
LINE
  5
3EC5
330
3EB3
100
AcDbEntity
  8
0
  6
Continuous
100
AcDbLine
 10
8.196961
 20
15.085022
 30
0.0
 11
5.441071
 21
19.536926
 31
0.0
  0
ARC
  5
3EC6
330
3EB3
100
AcDbEntity
  8
0
  6
Continuous
100
AcDbCircle
 10
-7.0
 20
18.510925
 30
0.0
 40
2.0
100
AcDbArc
 50
0.0
 51
89.0
  0
ARC
  5
3EC7
330
3EB3
100
AcDbEntity
  8
0
  6
Continuous
100
AcDbCircle
 10
-7.0
 20
-18.510987
 30
0.0
 40
2.0
100
AcDbArc
 50
271.0
 51
0.0
  0
ARC
  5
3EC8
330
3EB3
100
AcDbEntity
  8
0
  6
Continuous
100
AcDbCircle
 10
7.0
 20
-18.284058
 30
0.0
 40
2.0
100
AcDbArc
 50
180.0
 51
269.0
  0
ARC
  5
3EC9
330
3EB3
100
AcDbEntity
  8
0
  6
Continuous
100
AcDbCircle
 10
7.0
 20
18.283996
 30
0.0
 40
2.0
100
AcDbArc
 50
91.0
 51
180.0
  0
ARC
  5
3ECA
330
3EB3
100
AcDbEntity
  8
0
  6
Continuous
100
AcDbCircle
 10
9.75589
 20
13.832092
 30
0.0
 40
2.0
100
AcDbArc
 50
91.0
 51
180.0
  0
ARC
  5
3ECB
330
3EB3
100
AcDbEntity
  8
0
  6
Continuous
100
AcDbCircle
 10
9.75589
 20
-13.832154
 30
0.0
 40
2.0
100
AcDbArc
 50
180.0
 51
268.999999
  0
ARC
  5
3ECC
330
3EB3
100
AcDbEntity
  8
0
  6
Continuous
100
AcDbCircle
 10
-9.75589
 20
-14.059082
 30
0.0
 40
2.0
100
AcDbArc
 50
271.0
 51
0.0
  0
ARC
  5
3ECD
330
3EB3
100
AcDbEntity
  8
0
  6
Continuous
100
AcDbCircle
 10
-9.75589
 20
14.059021
 30
0.0
 40
2.0
100
AcDbArc
 50
0.0
 51
89.0
  0
LINE
  5
3ECE
330
3EB3
100
AcDbEntity
  8
HIDS
100
AcDbLine
 10
-26.052368
 20
-44.545258
 30
0.0
 11
0.0
 21
-45.0
 31
0.0
  0
LINE
  5
3ECF
330
3EB3
100
AcDbEntity
  8
HIDS
100
AcDbLine
 10
-26.052368
 20
44.545258
 30
0.0
 11
0.0
 21
45.0
 31
0.0
  0
LINE
  5
3ED0
330
3EB3
100
AcDbEntity
  8
CENTER
100
AcDbLine
 10
-51.450775
 20
-39.0
 30
0.0
 11
53.6875
 21
-39.0
 31
0.0
  0
LINE
  5
3ED1
330
3EB3
100
AcDbEntity
  8
CENTER
100
AcDbLine
 10
-51.450775
 20
39.0
 30
0.0
 11
53.6875
 21
39.0
 31
0.0
  0
LINE
  5
3ED2
330
3EB3
100
AcDbEntity
  8
HOJO
100
AcDbLine
 10
-35.0
 20
-34.0
 30
0.0
 11
-10.0
 21
-34.0
 31
0.0
  0
LINE
  5
3ED3
330
3EB3
100
AcDbEntity
  8
HOJO
100
AcDbLine
 10
-35.0
 20
-44.0
 30
0.0
 11
-10.0
 21
-44.0
 31
0.0
  0
LINE
  5
3ED4
330
3EB3
100
AcDbEntity
  8
HIDS
100
AcDbLine
 10
-35.0
 20
44.0
 30
0.0
 11
-10.0
 21
44.0
 31
0.0
  0
LINE
  5
3ED5
330
3EB3
100
AcDbEntity
  8
HIDS
100
AcDbLine
 10
-35.0
 20
34.0
 30
0.0
 11
-10.0
 21
34.0
 31
0.0
  0
LINE
  5
3ED6
330
3EB3
100
AcDbEntity
  8
0
100
AcDbLine
 10
-42.000031
 20
32.299973
 30
0.0
 11
-41.9999799214
 21
24.700043
 31
0.0
  0
LINE
  5
3ED7
330
3EB3
100
AcDbEntity
  8
0
100
AcDbLine
 10
-41.0
 20
33.0
 30
0.0
 11
-41.0
 21
24.0
 31
0.0
  0
LINE
  5
3ED8
330
3EB3
100
AcDbEntity
  8
0
100
AcDbLine
 10
-46.000031
 20
32.0
 30
0.0
 11
-46.000031
 21
25.0
 31
0.0
  0
ARC
  5
3ED9
330
3EB3
100
AcDbEntity
  8
HIDS
100
AcDbCircle
 10
0.0
 20
0.0
 30
0.0
 40
45.0
100
AcDbArc
 50
132.843643
 51
227.156357
  0
LINE
  5
3EDA
330
3EB3
100
AcDbEntity
  8
0
100
AcDbLine
 10
-48.0
 20
-48.1621568834
 30
0.0
 11
-48.0
 21
48.1621568834
 31
0.0
  0
ARC
  5
3EDB
330
3EB3
100
AcDbEntity
  8
HIDS
100
AcDbCircle
 10
-34.0
 20
-36.660606
 30
0.0
 40
5.0
100
AcDbArc
 50
0.0
 51
47.156357
  0
LINE
  5
3EDC
330
3EB3
100
AcDbEntity
  8
0
100
AcDbLine
 10
-35.0
 20
-44.25
 30
0.0
 11
-48.0
 21
-44.25
 31
0.0
  0
ARC
  5
3EDD
330
3EB3
100
AcDbEntity
  8
HIDS
100
AcDbCircle
 10
-26.0
 20
-41.545708
 30
0.0
 40
3.0
100
AcDbArc
 50
180.0
 51
269.0
  0
LINE
  5
3EDE
330
3EB3
100
AcDbEntity
  8
HIDS
100
AcDbLine
 10
-29.0
 20
-41.545708
 30
0.0
 11
-29.0
 21
-36.660606
 31
0.0
  0
LINE
  5
3EDF
330
3EB3
100
AcDbEntity
  8
PHAS
  6
sekkei_P_S
100
AcDbLine
 10
-60.0
 20
12.976105
 30
0.0
 11
-60.0
 21
-12.913025
 31
0.0
  0
LINE
  5
3EE0
330
3EB3
100
AcDbEntity
  8
PHAS
  6
sekkei_P_S
100
AcDbLine
 10
-57.776459
 20
-15.873886
 30
0.0
 11
-48.0
 21
-18.493480298
 31
0.0
  0
ARC
  5
3EE1
330
3EB3
100
AcDbEntity
  8
PHAS
  6
sekkei_P_S
100
AcDbCircle
 10
-57.0
 20
-12.976105
 30
0.0
 40
3.0
100
AcDbArc
 50
180.0
 51
255.0
  0
LINE
  5
3EE2
330
3EB3
100
AcDbEntity
  8
CENTER
100
AcDbLine
 10
-39.101624
 20
-28.5
 30
0.0
 11
-49.121002
 21
-28.5
 31
0.0
  0
LINE
  5
3EE3
330
3EB3
100
AcDbEntity
  8
0
100
AcDbLine
 10
-35.0
 20
-33.75
 30
0.0
 11
-48.0
 21
-33.75
 31
0.0
  0
LINE
  5
3EE4
330
3EB3
100
AcDbEntity
  8
0
100
AcDbLine
 10
-42.0000151088
 20
-29.9355380818
 30
0.0
 11
-41.9999799214
 21
-24.700043
 31
0.0
  0
LINE
  5
3EE5
330
3EB3
100
AcDbEntity
  8
0
100
AcDbLine
 10
-41.0
 20
-29.7964629511
 30
0.0
 11
-41.0
 21
-24.0
 31
0.0
  0
LINE
  5
3EE6
330
3EB3
100
AcDbEntity
  8
0
100
AcDbLine
 10
-46.000031
 20
-30.1579598673
 30
0.0
 11
-46.000031
 21
-25.0
 31
0.0
  0
LINE
  5
3EE7
330
3EB3
100
AcDbEntity
  8
PHAS
  6
sekkei_P_S
100
AcDbLine
 10
-57.776459
 20
15.873886
 30
0.0
 11
-48.0
 21
18.493480298
 31
0.0
  0
ARC
  5
3EE8
330
3EB3
100
AcDbEntity
  8
PHAS
  6
sekkei_P_S
100
AcDbCircle
 10
-57.0
 20
12.976105
 30
0.0
 40
3.0
100
AcDbArc
 50
105.0
 51
180.0
  0
ARC
  5
3EE9
330
3EB3
100
AcDbEntity
  8
HIDS
100
AcDbCircle
 10
-26.0
 20
41.545715
 30
0.0
 40
3.0
100
AcDbArc
 50
91.0
 51
180.0
  0
LINE
  5
3EEA
330
3EB3
100
AcDbEntity
  8
CENTER
100
AcDbLine
 10
-39.101624
 20
28.5
 30
0.0
 11
-49.121002
 21
28.5
 31
0.0
  0
LINE
  5
3EEB
330
3EB3
100
AcDbEntity
  8
HIDS
  6
sekkei_H
100
AcDbLine
 10
-35.0
 20
33.75
 30
0.0
 11
-48.0
 21
33.75
 31
0.0
  0
LINE
  5
3EEC
330
3EB3
100
AcDbEntity
  8
0
100
AcDbLine
 10
-42.000031
 20
32.299973
 30
0.0
 11
-41.0
 21
32.299973
 31
0.0
  0
LINE
  5
3EED
330
3EB3
100
AcDbEntity
  8
0
100
AcDbLine
 10
-46.000031
 20
32.0
 30
0.0
 11
-42.000031
 21
32.000015
 31
0.0
  0
LINE
  5
3EEE
330
3EB3
100
AcDbEntity
  8
0
100
AcDbLine
 10
-41.0
 20
33.0
 30
0.0
 11
-48.0
 21
33.183304
 31
0.0
  0
ARC
  5
3EEF
330
3EB3
100
AcDbEntity
  8
HIDS
100
AcDbCircle
 10
-34.0
 20
36.660599
 30
0.0
 40
5.0
100
AcDbArc
 50
312.843643
 51
0.0
  0
LINE
  5
3EF0
330
3EB3
100
AcDbEntity
  8
HIDS
100
AcDbLine
 10
-29.0
 20
41.545715
 30
0.0
 11
-29.0
 21
36.660599
 31
0.0
  0
LINE
  5
3EF1
330
3EB3
100
AcDbEntity
  8
HIDS
  6
sekkei_H
100
AcDbLine
 10
-35.0
 20
44.25
 30
0.0
 11
-48.0
 21
44.25
 31
0.0
  0
ARC
  5
3EF2
330
3EB3
100
AcDbEntity
  8
HIDS
100
AcDbCircle
 10
0.0
 20
0.0
 30
0.0
 40
45.0
100
AcDbArc
 50
312.843643
 51
47.156357
  0
ARC
  5
3EF3
330
3EB3
100
AcDbEntity
  8
HIDS
100
AcDbCircle
 10
34.0
 20
-36.660606
 30
0.0
 40
5.0
100
AcDbArc
 50
132.843643
 51
180.0
  0
LINE
  5
3EF4
330
3EB3
100
AcDbEntity
  8
HOJO
100
AcDbLine
 10
10.0
 20
-34.0
 30
0.0
 11
10.0
 21
-44.0
 31
0.0
  0
LINE
  5
3EF5
330
3EB3
100
AcDbEntity
  8
HOJO
100
AcDbLine
 10
-10.0
 20
-34.0
 30
0.0
 11
-10.0
 21
-44.0
 31
0.0
  0
LINE
  5
3EF6
330
3EB3
100
AcDbEntity
  8
HOJO
100
AcDbLine
 10
48.0
 20
-44.0
 30
0.0
 11
10.0
 21
-44.0
 31
0.0
  0
LINE
  5
3EF7
330
3EB3
100
AcDbEntity
  8
HIDS
100
AcDbLine
 10
26.052368
 20
-44.545258
 30
0.0
 11
0.0
 21
-45.0
 31
0.0
  0
ARC
  5
3EF8
330
3EB3
100
AcDbEntity
  8
HIDS
100
AcDbCircle
 10
26.0
 20
-41.545708
 30
0.0
 40
3.0
100
AcDbArc
 50
271.0
 51
0.0
  0
LINE
  5
3EF9
330
3EB3
100
AcDbEntity
  8
HIDS
100
AcDbLine
 10
29.0
 20
-41.545708
 30
0.0
 11
29.0
 21
-36.660606
 31
0.0
  0
LINE
  5
3EFA
330
3EB3
100
AcDbEntity
  8
HOJO
100
AcDbLine
 10
48.0
 20
-34.0
 30
0.0
 11
10.0
 21
-34.0
 31
0.0
  0
LINE
  5
3EFB
330
3EB3
100
AcDbEntity
  8
PHAS
  6
sekkei_P_S
100
AcDbLine
 10
60.0
 20
12.976105
 30
0.0
 11
60.0
 21
-12.913025
 31
0.0
  0
LINE
  5
3EFC
330
3EB3
100
AcDbEntity
  8
PHAS
  6
sekkei_P_S
100
AcDbLine
 10
57.776459
 20
-15.873886
 30
0.0
 11
48.0
 21
-18.493480298
 31
0.0
  0
ARC
  5
3EFD
330
3EB3
100
AcDbEntity
  8
PHAS
  6
sekkei_P_S
100
AcDbCircle
 10
57.0
 20
-12.976105
 30
0.0
 40
3.0
100
AcDbArc
 50
285.0
 51
0.0
  0
LINE
  5
3EFE
330
3EB3
100
AcDbEntity
  8
PHAS
  6
sekkei_P_S
100
AcDbLine
 10
57.776459
 20
15.873886
 30
0.0
 11
48.0
 21
18.493480298
 31
0.0
  0
ARC
  5
3EFF
330
3EB3
100
AcDbEntity
  8
PHAS
  6
sekkei_P_S
100
AcDbCircle
 10
57.0
 20
12.976105
 30
0.0
 40
3.0
100
AcDbArc
 50
0.0
 51
75.0
  0
LINE
  5
3F00
330
3EB3
100
AcDbEntity
  8
HIDS
100
AcDbLine
 10
48.0
 20
44.0
 30
0.0
 11
10.0
 21
44.0
 31
0.0
  0
LINE
  5
3F01
330
3EB3
100
AcDbEntity
  8
HIDS
100
AcDbLine
 10
48.0
 20
34.0
 30
0.0
 11
10.0
 21
34.0
 31
0.0
  0
LINE
  5
3F02
330
3EB3
100
AcDbEntity
  8
HIDS
100
AcDbLine
 10
26.052368
 20
44.545258
 30
0.0
 11
0.0
 21
45.0
 31
0.0
  0
LINE
  5
3F03
330
3EB3
100
AcDbEntity
  8
HIDS
100
AcDbLine
 10
-10.0
 20
34.0
 30
0.0
 11
-10.0
 21
44.0
 31
0.0
  0
ARC
  5
3F04
330
3EB3
100
AcDbEntity
  8
HIDS
100
AcDbCircle
 10
26.0
 20
41.545715
 30
0.0
 40
3.0
100
AcDbArc
 50
0.0
 51
89.0
  0
LINE
  5
3F05
330
3EB3
100
AcDbEntity
  8
HIDS
100
AcDbLine
 10
10.0
 20
34.0
 30
0.0
 11
10.0
 21
44.0
 31
0.0
  0
ARC
  5
3F06
330
3EB3
100
AcDbEntity
  8
HIDS
100
AcDbCircle
 10
34.0
 20
36.660599
 30
0.0
 40
5.0
100
AcDbArc
 50
180.0
 51
227.156357
  0
LINE
  5
3F07
330
3EB3
100
AcDbEntity
  8
HIDS
100
AcDbLine
 10
29.0
 20
41.545715
 30
0.0
 11
29.0
 21
36.660599
 31
0.0
  0
LINE
  5
3F08
330
3EB3
100
AcDbEntity
  8
0
100
AcDbLine
 10
-41.0
 20
24.0
 30
0.0
 11
-48.0
 21
23.816711
 31
0.0
  0
LINE
  5
3F09
330
3EB3
100
AcDbEntity
  8
0
100
AcDbLine
 10
-46.000031
 20
25.0
 30
0.0
 11
-42.000031
 21
25.0
 31
0.0
  0
LINE
  5
3F0A
330
3EB3
100
AcDbEntity
  8
0
100
AcDbLine
 10
-42.000031
 20
24.700043
 30
0.0
 11
-41.0
 21
24.700043
 31
0.0
  0
LWPOLYLINE
  5
3F0B
330
3EB3
100
AcDbEntity
  8
HOJO
100
AcDbPolyline
 90
       19
 70
     0
 43
0.0
 10
-48.0
 20
-30.0474634747
 10
-44.281891
 20
-30.2528854747
 10
-40.200165
 20
-29.6852274747
 10
-35.767029
 20
-30.0906924747
 10
-31.279846
 20
-29.4419414747
 10
-26.68454
 20
-30.0095994747
 10
-20.92688
 20
-29.2256944747
 10
-14.871887
 20
-30.1988234747
 10
-9.465637
 20
-29.3338184747
 10
-4.491882
 20
-29.8744444747
 10
1.238739
 20
-29.2256944747
 10
7.401886
 20
-29.9825684747
 10
12.591888
 20
-29.3338184747
 10
17.998138
 20
-29.8744444747
 10
23.188141
 20
-29.1175704747
 10
28.378113
 20
-29.9825684747
 10
34.649384
 20
-29.1175704747
 10
40.920624
 20
-29.8744444747
 10
48.0
 20
-28.5703524747
  0
LINE
  5
3F0C
330
3EB3
100
AcDbEntity
  8
0
100
AcDbLine
 10
-46.000031
 20
-25.0
 30
0.0
 11
-42.000031
 21
-25.0
 31
0.0
  0
LINE
  5
3F0D
330
3EB3
100
AcDbEntity
  8
0
100
AcDbLine
 10
-42.000031
 20
-24.700043
 30
0.0
 11
-41.0
 21
-24.700043
 31
0.0
  0
LINE
  5
3F0E
330
3EB3
100
AcDbEntity
  8
0
100
AcDbLine
 10
-41.0
 20
-24.0
 30
0.0
 11
-48.0
 21
-23.816711
 31
0.0
  0
LINE
  5
3F0F
330
3EB3
100
AcDbEntity
  8
CENTER
100
AcDbLine
 10
0.0
 20
-54.285004
 30
0.0
 11
0.0
 21
-29.3659291763
 31
0.0
  0
LINE
  5
3F10
330
3EB3
100
AcDbEntity
  8
CENTER
100
AcDbLine
 10
-3.6212372176
 20
0.0
 30
0.0
 11
3.6212372176
 21
0.0
 31
0.0
  0
LINE
  5
3F11
330
3EB3
100
AcDbEntity
  8
CENTER
100
AcDbLine
 10
0.0
 20
-3.6212372176
 30
0.0
 11
0.0
 21
3.6212372176
 31
0.0
  0
LINE
  5
3F12
330
3EB3
100
AcDbEntity
  8
0
  6
Continuous
100
AcDbLine
 10
-6.965088
 20
20.51062
 30
0.0
 11
-35.0
 21
21.0
 31
0.0
  0
LINE
  5
3F13
330
3EB3
100
AcDbEntity
  8
0
  6
Continuous
100
AcDbLine
 10
-9.721008
 20
16.058716
 30
0.0
 11
-35.0
 21
16.5
 31
0.0
  0
LINE
  5
3F14
330
3EB3
100
AcDbEntity
  8
0
  6
Continuous
100
AcDbLine
 10
-6.965088
 20
-20.510681
 30
0.0
 11
-35.0
 21
-21.0
 31
0.0
  0
LINE
  5
3F15
330
3EB3
100
AcDbEntity
  8
0
  6
Continuous
100
AcDbLine
 10
-9.721008
 20
-16.058777
 30
0.0
 11
-35.0
 21
-16.5
 31
0.0
  0
LINE
  5
3F16
330
3EB3
100
AcDbEntity
  8
0
100
AcDbLine
 10
-35.0
 20
-21.0
 30
0.0
 11
-48.0
 21
-21.0
 31
0.0
  0
LINE
  5
3F17
330
3EB3
100
AcDbEntity
  8
0
100
AcDbLine
 10
-35.0
 20
-16.5
 30
0.0
 11
-48.0
 21
-16.5
 31
0.0
  0
LINE
  5
3F18
330
3EB3
100
AcDbEntity
  8
0
100
AcDbLine
 10
-35.0
 20
21.0
 30
0.0
 11
-48.0
 21
21.0
 31
0.0
  0
LINE
  5
3F19
330
3EB3
100
AcDbEntity
  8
0
100
AcDbLine
 10
-35.0
 20
16.5
 30
0.0
 11
-48.0
 21
16.5
 31
0.0
  0
LINE
  5
3F1A
330
3EB3
100
AcDbEntity
  8
0
100
AcDbLine
 10
48.0
 20
-43.2
 30
0.0
 11
-35.0
 21
-43.2
 31
0.0
  0
LINE
  5
3F1B
330
3EB3
100
AcDbEntity
  8
0
100
AcDbLine
 10
48.0
 20
-34.8
 30
0.0
 11
-35.0
 21
-34.8
 31
0.0
  0
LINE
  5
3F1C
330
3EB3
100
AcDbEntity
  8
HIDS
100
AcDbLine
 10
48.0
 20
34.8
 30
0.0
 11
-35.0
 21
34.8
 31
0.0
  0
LINE
  5
3F1D
330
3EB3
100
AcDbEntity
  8
HIDS
100
AcDbLine
 10
48.0
 20
43.2
 30
0.0
 11
-35.0
 21
43.2
 31
0.0
  0
ENDBLK
  5
3F21
330
3EB3
100
AcDbEntity
  8
0
100
AcDbBlockEnd
  0
BLOCK
  5
3F3A
330
3F39
100
AcDbEntity
  8
0
100
AcDbBlockBegin
  2
*D69
 70
     1
 10
0.0
 20
0.0
 30
0.0
  3
*D69
  1

  0
POINT
  5
3F4F
330
3F39
100
AcDbEntity
  8
DEFPOINTS
 62
     0
100
AcDbPoint
 10
476.3862611095
 20
135.9739387801
 30
0.0
  0
POINT
  5
3F50
330
3F39
100
AcDbEntity
  8
DEFPOINTS
 62
     0
100
AcDbPoint
 10
476.3862611095
 20
127.5739387801
 30
0.0
  0
POINT
  5
3F51
330
3F39
100
AcDbEntity
  8
DEFPOINTS
 62
     0
100
AcDbPoint
 10
474.8704865943
 20
127.5739387801
 30
0.0
  0
ENDBLK
  5
3F3B
330
3F39
100
AcDbEntity
  8
0
100
AcDbBlockEnd
  0
ENDSEC
  0
SECTION
  2
ENTITIES
  0
TEXT
  5
1F87
330
2
100
AcDbEntity
  8
TITLE_C
100
AcDbText
 10
97.2402987939
 20
-10.5349879304
 30
0.0
 40
7.0
  1
F2S15N010～240-CSMR60WNX
100
AcDbText
  0
TEXT
  5
1F88
330
2
100
AcDbEntity
  8
TITLE_C
100
AcDbText
 10
97.2402987939
 20
1.4650120696
 30
0.0
 40
7.0
  1
F2S15N010～240-CSMR60NN
100
AcDbText
  0
TEXT
  5
1F89
330
2
100
AcDbEntity
  8
TITLE_C
100
AcDbText
 10
97.2402987939
 20
25.4650120696
 30
0.0
 40
7.0
  1
F2S15N010～240-CTMR90NNX
100
AcDbText
  0
TEXT
  5
1F8A
330
2
100
AcDbEntity
  8
TITLE_C
100
AcDbText
 10
97.2402987939
 20
13.4650120696
 30
0.0
 40
7.0
  1
F2S15N010～240-CTMR90WN
100
AcDbText
  0
LINE
  5
25FC
330
2
100
AcDbEntity
  8
CENTER
100
AcDbLine
 10
824.6599283236
 20
392.303929718
 30
0.0
 11
834.2434473999
 21
392.303929718
 31
0.0
  0
CIRCLE
  5
25FD
330
2
100
AcDbEntity
  8
0
100
AcDbCircle
 10
829.4516878617
 20
392.303929718
 30
0.0
 40
3.799999999999998
  0
CIRCLE
  5
25FE
330
2
100
AcDbEntity
  8
0
100
AcDbCircle
 10
829.4516878617
 20
392.303929718
 30
0.0
 40
3.499999999999146
  0
LINE
  5
25FF
330
2
100
AcDbEntity
  8
CENTER
100
AcDbLine
 10
829.4516878617
 20
397.0956892561
 30
0.0
 11
829.4516878617
 21
387.5121701799
 31
0.0
  0
ARC
  5
2600
330
2
100
AcDbEntity
  8
0
100
AcDbCircle
 10
831.2653242254
 20
394.1175660816
 30
0.0
 40
1.336363636363619
100
AcDbArc
 50
180.0
 51
270.0
  0
ARC
  5
2601
330
2
100
AcDbEntity
  8
0
100
AcDbCircle
 10
827.6380514981
 20
394.1175660816
 30
0.0
 40
1.336363636363619
100
AcDbArc
 50
270.0
 51
0.0
  0
ARC
  5
2602
330
2
100
AcDbEntity
  8
0
100
AcDbCircle
 10
831.2653242254
 20
390.4902933543
 30
0.0
 40
1.336363636363619
100
AcDbArc
 50
90.0
 51
180.0
  0
LINE
  5
2603
330
2
100
AcDbEntity
  8
0
100
AcDbLine
 10
827.3516878617
 20
392.7812024453
 30
0.0
 11
827.6380514981
 21
392.7812024453
 31
0.0
  0
LINE
  5
2604
330
2
100
AcDbEntity
  8
0
100
AcDbLine
 10
827.3516878617
 20
392.303929718
 30
0.0
 11
827.3516878617
 21
392.7812024453
 31
0.0
  0
LINE
  5
2605
330
2
100
AcDbEntity
  8
0
100
AcDbLine
 10
829.5247685016
 20
388.5046325172
 30
0.0
 11
829.5247685016
 21
388.8046927697
 31
0.0
  0
LINE
  5
2606
330
2
100
AcDbEntity
  8
0
100
AcDbLine
 10
829.1106580294
 20
388.5192634641
 30
0.0
 11
829.1106580294
 21
388.8205838188
 31
0.0
  0
LINE
  5
2607
330
2
100
AcDbEntity
  8
0
100
AcDbLine
 10
829.928960589
 20
390.4902933543
 30
0.0
 11
829.928960589
 21
390.203929718
 31
0.0
  0
LINE
  5
2608
330
2
100
AcDbEntity
  8
0
100
AcDbLine
 10
829.928960589
 20
390.203929718
 30
0.0
 11
829.4516878617
 21
390.203929718
 31
0.0
  0
LINE
  5
2609
330
2
100
AcDbEntity
  8
0
100
AcDbLine
 10
829.4516878617
 20
390.203929718
 30
0.0
 11
828.9744151345
 21
390.203929718
 31
0.0
  0
LINE
  5
260A
330
2
100
AcDbEntity
  8
0
100
AcDbLine
 10
828.9744151345
 20
390.203929718
 30
0.0
 11
828.9744151345
 21
390.4902933543
 31
0.0
  0
LINE
  5
260B
330
2
100
AcDbEntity
  8
0
100
AcDbLine
 10
827.6380514981
 20
391.8266569907
 30
0.0
 11
827.3516878617
 21
391.8266569907
 31
0.0
  0
ARC
  5
260C
330
2
100
AcDbEntity
  8
0
100
AcDbCircle
 10
827.6380514981
 20
390.4902933543
 30
0.0
 40
1.336363636363619
100
AcDbArc
 50
0.0
 51
90.0
  0
LINE
  5
260D
330
2
100
AcDbEntity
  8
0
100
AcDbLine
 10
827.3516878617
 20
391.8266569907
 30
0.0
 11
827.3516878617
 21
392.303929718
 31
0.0
  0
LINE
  5
260E
330
2
100
AcDbEntity
  8
0
100
AcDbLine
 10
831.2653242254
 20
392.7812024453
 30
0.0
 11
831.5516878617
 21
392.7812024453
 31
0.0
  0
LINE
  5
260F
330
2
100
AcDbEntity
  8
0
100
AcDbLine
 10
831.5516878617
 20
392.7812024453
 30
0.0
 11
831.5516878617
 21
392.303929718
 31
0.0
  0
LINE
  5
2610
330
2
100
AcDbEntity
  8
0
100
AcDbLine
 10
831.5516878617
 20
391.8266569907
 30
0.0
 11
831.2653242254
 21
391.8266569907
 31
0.0
  0
LINE
  5
2611
330
2
100
AcDbEntity
  8
0
100
AcDbLine
 10
831.5516878617
 20
392.303929718
 30
0.0
 11
831.5516878617
 21
391.8266569907
 31
0.0
  0
LINE
  5
2612
330
2
100
AcDbEntity
  8
0
100
AcDbLine
 10
829.4516878617
 20
394.403929718
 30
0.0
 11
829.928960589
 21
394.403929718
 31
0.0
  0
LINE
  5
2613
330
2
100
AcDbEntity
  8
0
100
AcDbLine
 10
829.928960589
 20
394.403929718
 30
0.0
 11
829.928960589
 21
394.1175660816
 31
0.0
  0
LINE
  5
2614
330
2
100
AcDbEntity
  8
0
100
AcDbLine
 10
828.9744151345
 20
394.403929718
 30
0.0
 11
829.4516878617
 21
394.403929718
 31
0.0
  0
LINE
  5
2615
330
2
100
AcDbEntity
  8
0
100
AcDbLine
 10
828.9744151345
 20
394.1175660816
 30
0.0
 11
828.9744151345
 21
394.403929718
 31
0.0
  0
LINE
  5
2616
330
2
100
AcDbEntity
  8
0
100
AcDbLine
 10
829.4516878617
 20
403.008893612
 30
0.0
 11
829.4516878617
 21
399.414167612
 31
0.0
  0
LINE
  5
2617
330
2
100
AcDbEntity
  8
0
100
AcDbLine
 10
831.0243518617
 20
405.994793612
 30
0.0
 11
827.8041058617
 21
405.994793612
 31
0.0
  0
LINE
  5
2618
330
2
100
AcDbEntity
  8
0
100
AcDbLine
 10
833.6455058617
 20
403.008893612
 30
0.0
 11
825.1080918617
 21
403.008893612
 31
0.0
  0
LINE
  5
2619
330
2
100
AcDbEntity
  8
0
100
AcDbLine
 10
832.2974838617
 20
404.508893612
 30
0.0
 11
826.6236858617
 21
404.508893612
 31
0.0
  0
CIRCLE
  5
261A
330
2
100
AcDbEntity
  8
0
100
AcDbCircle
 10
829.4516878617
 20
392.303929718
 30
0.0
 40
4.0
  0
CIRCLE
  5
261B
330
2
100
AcDbEntity
  8
0
100
AcDbCircle
 10
829.4516878617
 20
403.008893612
 30
0.0
 40
4.926010018386079
  0
LINE
  5
261D
330
2
100
AcDbEntity
  8
0
  6
CENS
 62
     3
100
AcDbLine
 10
829.4516878617
 20
220.1797357354
 30
0.0
 11
829.4516878617
 21
209.4579095011
 31
0.0
  0
ARC
  5
261E
330
2
100
AcDbEntity
  8
0
100
AcDbCircle
 10
829.4516878617
 20
210.3739387801
 30
0.0
 40
9.000000000010642
100
AcDbArc
 50
77.3231615211
 51
102.6768384789
  0
ARC
  5
261F
330
2
100
AcDbEntity
  8
0
100
AcDbCircle
 10
827.8277443077
 20
217.5935514659
 30
0.0
 40
1.59999999999961
100
AcDbArc
 50
102.6768384789
 51
165.0
  0
LINE
  5
2620
330
2
100
AcDbEntity
  8
0
100
AcDbLine
 10
825.9516878617
 20
216.7739387801
 30
0.0
 11
826.2822629856
 21
218.0076619381
 31
0.0
  0
ARC
  5
2621
330
2
100
AcDbEntity
  8
0
100
AcDbCircle
 10
831.0756314158
 20
217.5935514659
 30
0.0
 40
1.59999999999961
100
AcDbArc
 50
15.0
 51
77.3231615211
  0
LINE
  5
2622
330
2
100
AcDbEntity
  8
0
100
AcDbLine
 10
832.6211127379
 20
218.0076619381
 30
0.0
 11
832.9516878617
 21
216.7739387801
 31
0.0
  0
LINE
  5
2623
330
2
100
AcDbEntity
  8
0
100
AcDbLine
 10
825.6516878617
 20
216.7739387801
 30
0.0
 11
833.2516878617
 21
216.7739387801
 31
0.0
  0
LINE
  5
2625
330
2
100
AcDbEntity
  8
0
100
AcDbLine
 10
825.6516878617
 20
216.7739387801
 30
0.0
 11
825.6516878617
 21
215.7739387801
 31
0.0
  0
LINE
  5
2626
330
2
100
AcDbEntity
  8
0
100
AcDbLine
 10
829.3786072219
 20
215.7739387801
 30
0.0
 11
829.1106580294
 21
216.7739387801
 31
0.0
  0
LINE
  5
2627
330
2
100
AcDbEntity
  8
0
100
AcDbLine
 10
829.792717694
 20
215.7739387801
 30
0.0
 11
829.5247685016
 21
216.7739387801
 31
0.0
  0
LINE
  5
2628
330
2
100
AcDbEntity
  8
0
100
AcDbLine
 10
833.2516878617
 20
216.7739387801
 30
0.0
 11
833.2516878617
 21
215.7739387801
 31
0.0
  0
LINE
  5
2630
330
2
100
AcDbEntity
  8
0
  6
CENS
 62
     3
100
AcDbLine
 10
168.9547442285
 20
220.1797357354
 30
0.0
 11
168.9547442285
 21
209.4579095011
 31
0.0
  0
ARC
  5
2631
330
2
100
AcDbEntity
  8
0
100
AcDbCircle
 10
168.9547442285
 20
210.3739387801
 30
0.0
 40
9.000000000010642
100
AcDbArc
 50
77.3231615211
 51
102.6768384789
  0
ARC
  5
2632
330
2
100
AcDbEntity
  8
0
100
AcDbCircle
 10
167.3308006745
 20
217.5935514659
 30
0.0
 40
1.59999999999961
100
AcDbArc
 50
102.6768384789
 51
165.0
  0
LINE
  5
2633
330
2
100
AcDbEntity
  8
0
100
AcDbLine
 10
165.4547442285
 20
216.7739387801
 30
0.0
 11
165.7853193524
 21
218.0076619381
 31
0.0
  0
ARC
  5
2634
330
2
100
AcDbEntity
  8
0
100
AcDbCircle
 10
170.5786877826
 20
217.5935514659
 30
0.0
 40
1.59999999999961
100
AcDbArc
 50
15.0
 51
77.3231615211
  0
LINE
  5
2635
330
2
100
AcDbEntity
  8
0
100
AcDbLine
 10
172.1241691047
 20
218.0076619381
 30
0.0
 11
172.4547442285
 21
216.7739387801
 31
0.0
  0
LINE
  5
2636
330
2
100
AcDbEntity
  8
0
100
AcDbLine
 10
165.1547442285
 20
216.7739387801
 30
0.0
 11
172.7547442285
 21
216.7739387801
 31
0.0
  0
LINE
  5
2637
330
2
100
AcDbEntity
  8
0
100
AcDbLine
 10
165.1547442285
 20
216.7739387801
 30
0.0
 11
165.1547442285
 21
215.7739387801
 31
0.0
  0
LINE
  5
2638
330
2
100
AcDbEntity
  8
0
100
AcDbLine
 10
172.7547442285
 20
216.7739387801
 30
0.0
 11
172.7547442285
 21
215.7739387801
 31
0.0
  0
ARC
  5
263B
330
2
100
AcDbEntity
  8
HIDS
100
AcDbCircle
 10
490.3862611095
 20
210.3739387801
 30
0.0
 40
9.000000000010642
100
AcDbArc
 50
77.3231615211
 51
102.6768384789
  0
ARC
  5
263C
330
2
100
AcDbEntity
  8
HIDS
100
AcDbCircle
 10
488.7623175554
 20
217.5935514659
 30
0.0
 40
1.59999999999961
100
AcDbArc
 50
102.6768384789
 51
141.9411893057
  0
LINE
  5
263D
330
2
100
AcDbEntity
  8
HIDS
  6
sekkei_H
100
AcDbLine
 10
486.8862611095
 20
216.7739387801
 30
0.0
 11
487.2168362334
 21
218.0076619381
 31
0.0
  0
ARC
  5
263E
330
2
100
AcDbEntity
  8
HIDS
  6
sekkei_H
100
AcDbCircle
 10
492.0102046636
 20
217.5935514659
 30
0.0
 40
1.59999999999961
100
AcDbArc
 50
15.0
 51
33.5557012948
  0
LINE
  5
263F
330
2
100
AcDbEntity
  8
HIDS
  6
sekkei_H
100
AcDbLine
 10
493.5556859856
 20
218.0076619381
 30
0.0
 11
493.8862611095
 21
216.7739387801
 31
0.0
  0
LINE
  5
2640
330
2
100
AcDbEntity
  8
HIDS
  6
sekkei_H
100
AcDbLine
 10
486.5862611095
 20
216.7739387801
 30
0.0
 11
494.1862611095
 21
216.7739387801
 31
0.0
  0
LINE
  5
2641
330
2
100
AcDbEntity
  8
HIDS
  6
sekkei_H
100
AcDbLine
 10
486.5862611095
 20
216.7739387801
 30
0.0
 11
486.5862611095
 21
215.5958985958
 31
0.0
  0
LINE
  5
2644
330
2
100
AcDbEntity
  8
HIDS
  6
sekkei_H
100
AcDbLine
 10
494.1862611095
 20
216.7739387801
 30
0.0
 11
494.1862611095
 21
215.4632412036
 31
0.0
  0
ARC
  5
2645
330
2
100
AcDbEntity
  8
HIDS
  6
sekkei_H
100
AcDbCircle
 10
488.7623175554
 20
217.5935514659
 30
0.0
 40
1.59999999999961
100
AcDbArc
 50
141.9411893057
 51
165.0
  0
ARC
  5
2646
330
2
100
AcDbEntity
  8
HIDS
100
AcDbCircle
 10
492.0102046636
 20
217.5935514659
 30
0.0
 40
1.59999999999961
100
AcDbArc
 50
33.5557012948
 51
77.3231615211
  0
LINE
  5
2E78
330
2
100
AcDbEntity
  8
CENTER
100
AcDbLine
 10
348.2253132285
 20
170.7739387801
 30
0.0
 11
87.9659352285
 21
170.7739387801
 31
0.0
  0
LINE
  5
2E79
330
2
100
AcDbEntity
  8
CENTER
100
AcDbLine
 10
649.4142128617
 20
170.7739387801
 30
0.0
 11
910.97215683
 21
170.7739387801
 31
0.0
  0
LINE
  5
2E7A
330
2
100
AcDbEntity
  8
CENTER
100
AcDbLine
 10
910.97215683
 20
406.303929718
 30
0.0
 11
649.4142128617
 21
406.303929718
 31
0.0
  0
LINE
  5
2E8D
330
2
100
AcDbEntity
  8
CENTER
100
AcDbLine
 10
476.3862611095
 20
116.4889347801
 30
0.0
 11
476.3862611095
 21
225.0589427801
 31
0.0
  0
LINE
  5
2E8F
330
2
100
AcDbEntity
  8
CENTER
100
AcDbLine
 10
412.073309504
 20
170.7739387801
 30
0.0
 11
540.699212715
 21
170.7739387801
 31
0.0
  0
LINE
  5
2E96
330
2
100
AcDbEntity
  8
CENTER
100
AcDbLine
 10
163.002470626
 20
342.1350290657
 30
0.0
 11
291.628373837
 21
342.1350290657
 31
0.0
  0
LINE
  5
2E9F
330
2
100
AcDbEntity
  8
CENTER
100
AcDbLine
 10
227.3154222315
 20
285.9453390657
 30
0.0
 11
227.3154222315
 21
398.3247190657
 31
0.0
  0
INSERT
  5
2EB7
330
2
100
AcDbEntity
  8
0
100
AcDbBlockReference
  2
F2S-15_0006
 10
227.3154222315
 20
342.1350290657
 30
0.0
  0
INSERT
  5
2EB9
330
2
100
AcDbEntity
  8
0
100
AcDbBlockReference
  2
ファンカバ－ブレーキ_F2S-15_0005-01
 10
152.9547442285
 20
170.7739387801
 30
0.0
  0
INSERT
  5
2EBA
330
2
100
AcDbEntity
  8
0
100
AcDbBlockReference
  2
ファンカバ－ブレーキ_F2S-15_0006-01
 10
845.4516878617
 20
170.7739387801
 30
0.0
  0
INSERT
  5
2EBB
330
2
100
AcDbEntity
  8
0
100
AcDbBlockReference
  2
ファンカバ－ブレーキ_F2S-15_0007-01
 10
845.4516878617
 20
406.303929718
 30
0.0
  0
LINE
  5
365C
330
2
100
AcDbEntity
  8
0
  6
CENS
 62
     3
100
AcDbLine
 10
490.3862611095
 20
220.1797357354
 30
0.0
 11
490.3862611095
 21
209.4579095011
 31
0.0
  0
TEXT
  5
38F9
330
2
100
AcDbEntity
  8
TITLE_C
100
AcDbText
 10
97.4481905476
 20
-34.6383137735
 30
0.0
 40
7.0
  1
F2S15N010～240-CSMR90NN
100
AcDbText
  0
TEXT
  5
38FA
330
2
100
AcDbEntity
  8
TITLE_C
100
AcDbText
 10
97.4481905476
 20
-22.6383137735
 30
0.0
 40
7.0
  1
F2S15N010～240-CSMR60WN
100
AcDbText
  0
TEXT
  5
3903
330
2
100
AcDbEntity
  8
TITLE_C
100
AcDbText
 10
97.4481905476
 20
-58.5338523444
 30
0.0
 40
7.0
  1
F2S15N010～240-CSMR90WN
100
AcDbText
  0
TEXT
  5
3904
330
2
100
AcDbEntity
  8
TITLE_C
100
AcDbText
 10
97.4481905476
 20
-46.5338523444
 30
0.0
 40
7.0
  1
F2S15N010～240-CSMR90WNX
100
AcDbText
  0
INSERT
  5
3D2C
330
2
100
AcDbEntity
  8
0
100
AcDbBlockReference
  2
A$C79275bbe
 10
152.9547442285
 20
215.7739387801
 30
0.0
  0
INSERT
  5
3DC5
330
2
100
AcDbEntity
  8
0
100
AcDbBlockReference
  2
A$Cd6ae6cdc
 10
845.4516878617
 20
215.7739387801
 30
0.0
  0
INSERT
  5
3E1F
330
2
100
AcDbEntity
  8
0
100
AcDbBlockReference
  2
A$Ca4d0cbaa
 10
845.4516878617
 20
451.303929718
 30
0.0
  0
INSERT
  5
3F22
330
2
100
AcDbEntity
  8
0
100
AcDbBlockReference
  2
A$C03ffc646
 10
476.3862611095
 20
170.7739387801
 30
0.0
  0
ENDSEC
  0
SECTION
  2
OBJECTS
  0
DICTIONARY
  5
7
330
0
100
AcDbDictionary
281
     1
  3
ACAD_CIP_PREVIOUS_PRODUCT_INFO
350
2914
  3
ACAD_COLOR
350
1EE3
  3
ACAD_DETAILVIEWSTYLE
350
2910
  3
ACAD_GROUP
350
75
  3
ACAD_LAYOUT
350
61
  3
ACAD_MATERIAL
350
1EB9
  3
ACAD_MLEADERSTYLE
350
1F08
  3
ACAD_MLINESTYLE
350
76
  3
ACAD_PLOTSETTINGS
350
77
  3
ACAD_PLOTSTYLENAME
350
6
  3
ACAD_SCALELIST
350
1EE6
  3
ACAD_SECTIONVIEWSTYLE
350
290E
  3
ACAD_TABLESTYLE
350
1EE4
  3
ACAD_VISUALSTYLE
350
1ED2
  3
AcadDim
350
480
  3
ACDB_RECOMPOSE_DATA
350
41D9
  3
AcDbVariableDictionary
350
102
  3
DWGPROPS
350
41DA
  0
DICTIONARY
  5
1F33
330
6E
100
AcDbDictionary
280
     1
281
     1
  0
DICTIONARY
  5
1F75
330
66
100
AcDbDictionary
280
     1
281
     1
  3
ACAD_LAYERSTATES
360
1F76
  0
DICTIONARY
  5
1F16
330
5E
100
AcDbDictionary
280
     1
281
     1
  3
ADSK_XREC_LAYER_RECONCILED
360
1F17
  0
DICTIONARY
  5
1F18
330
3E
100
AcDbDictionary
280
     1
281
     1
  3
ADSK_XREC_LAYER_RECONCILED
360
1F19
  0
DICTIONARY
  5
1F1E
330
2B5
100
AcDbDictionary
280
     1
281
     1
  3
ADSK_XREC_LAYER_RECONCILED
360
1F1F
  0
DICTIONARY
  5
1F20
330
2BA
100
AcDbDictionary
280
     1
281
     1
  3
ADSK_XREC_LAYER_RECONCILED
360
1F21
  0
DICTIONARY
  5
1F26
330
478
100
AcDbDictionary
280
     1
281
     1
  3
ADSK_XREC_LAYER_RECONCILED
360
1F27
  0
DICTIONARY
  5
262E
330
2
100
AcDbDictionary
280
     1
281
     1
  3
ACAD_SORTENTS
360
262F
  0
DICTIONARY
  5
2C61
330
2C60
100
AcDbDictionary
280
     1
281
     1
  0
DICTIONARY
  5
2C7C
330
2C7B
100
AcDbDictionary
280
     1
281
     1
  0
DICTIONARY
  5
2C97
330
2C96
100
AcDbDictionary
280
     1
281
     1
  0
DICTIONARY
  5
3C48
330
3C47
100
AcDbDictionary
280
     1
281
     1
  3
ACAD_SORTENTS
360
3C49
  0
DICTIONARY
  5
3DC1
330
3D2D
100
AcDbDictionary
280
     1
281
     1
  3
ACAD_SORTENTS
360
3DC2
  0
DICTIONARY
  5
3E1B
330
3DC6
100
AcDbDictionary
280
     1
281
     1
  3
ACAD_SORTENTS
360
3E1C
  0
DICTIONARY
  5
3F1E
330
3EB3
100
AcDbDictionary
280
     1
281
     1
  3
ACAD_SORTENTS
360
3F1F
  0
XRECORD
  5
2914
102
{ACAD_REACTORS
330
7
102
}
330
7
100
AcDbXrecord
280
     1
300
ACD
300
2020
300
87224ACD_2020_0F
  0
DICTIONARY
  5
1EE3
102
{ACAD_REACTORS
330
7
102
}
330
7
100
AcDbDictionary
281
     1
  0
DICTIONARY
  5
2910
102
{ACAD_REACTORS
330
7
102
}
330
7
100
AcDbDictionary
281
     1
  3
Imperial24
350
2911
  3
Metric50
350
342F
  0
DICTIONARY
  5
75
102
{ACAD_REACTORS
330
7
102
}
330
7
100
AcDbDictionary
281
     1
  0
DICTIONARY
  5
61
102
{ACAD_REACTORS
330
7
102
}
330
7
100
AcDbDictionary
281
     1
  3
Model
350
60
  3
レイアウト1
350
41D3
  0
DICTIONARY
  5
1EB9
102
{ACAD_REACTORS
330
7
102
}
330
7
100
AcDbDictionary
281
     1
  3
ByBlock
350
1EC2
  3
ByLayer
350
1EBA
  3
Global
350
1ECA
  0
DICTIONARY
  5
1F08
102
{ACAD_REACTORS
330
7
102
}
330
7
100
AcDbDictionary
281
     1
  3
Standard
350
1F09
  0
DICTIONARY
  5
76
102
{ACAD_REACTORS
330
7
102
}
330
7
100
AcDbDictionary
281
     1
  3
STANDARD
350
78
  0
DICTIONARY
  5
77
102
{ACAD_REACTORS
330
7
102
}
330
7
100
AcDbDictionary
281
     1
  0
ACDBDICTIONARYWDFLT
  5
6
102
{ACAD_REACTORS
330
7
102
}
330
7
100
AcDbDictionary
281
     1
  3
Normal
350
5
100
AcDbDictionaryWithDefault
340
5
  0
DICTIONARY
  5
1EE6
102
{ACAD_REACTORS
330
7
102
}
330
7
100
AcDbDictionary
281
     1
  3
A0
350
1EE7
  3
A1
350
1EE8
  3
A2
350
1EE9
  3
A3
350
1EEA
  3
A4
350
1EEB
  3
A5
350
1EEC
  3
A6
350
1EED
  3
A7
350
1EEE
  3
A8
350
1EEF
  3
A9
350
1EF0
  3
B0
350
1EF1
  3
B1
350
1EF2
  3
B2
350
1EF3
  3
B3
350
1EF4
  3
B4
350
1EF5
  3
B5
350
1EF6
  3
B6
350
1EF7
  3
B7
350
1EF8
  3
B8
350
1EF9
  3
B9
350
1EFA
  3
C0
350
1EFB
  3
C1
350
1EFC
  3
C2
350
1EFD
  3
C3
350
1EFE
  3
C4
350
1EFF
  3
C5
350
1F00
  3
C6
350
1F01
  3
C7
350
1F02
  3
C8
350
1F03
  3
C9
350
1F04
  3
D0
350
1F05
  3
D1
350
1F06
  3
D2
350
1F07
  0
DICTIONARY
  5
290E
102
{ACAD_REACTORS
330
7
102
}
330
7
100
AcDbDictionary
281
     1
  3
Imperial24
350
290F
  3
Metric50
350
342E
  0
DICTIONARY
  5
1EE4
102
{ACAD_REACTORS
330
7
102
}
330
7
100
AcDbDictionary
281
     1
  3
Standard
350
1EE5
  0
DICTIONARY
  5
1ED2
102
{ACAD_REACTORS
330
7
102
}
330
7
100
AcDbDictionary
281
     1
  3
2dWireframe
350
1ED8
  3
3D Hidden
350
1EDA
  3
3dWireframe
350
1ED9
  3
Basic
350
1ED7
  3
Brighten
350
1EDE
  3
ColorChange
350
1EE2
  3
Conceptual
350
1EDB
  3
Dim
350
1EDD
  3
EdgeColorOff
350
1F6F
  3
Facepattern
350
1EE1
  3
Flat
350
1ED3
  3
FlatWithEdges
350
1ED4
  3
Gouraud
350
1ED5
  3
GouraudWithEdges
350
1ED6
  3
Hidden
350
2908
  3
JitterOff
350
1F6D
  3
Linepattern
350
1EE0
  3
OverhangOff
350
1F6E
  3
Realistic
350
1EDC
  3
Shaded
350
290D
  3
Shaded with edges
350
290C
  3
Shades of Gray
350
2909
  3
Sketchy
350
290A
  3
Thicken
350
1EDF
  3
Wireframe
350
2907
  3
X-Ray
350
290B
  0
XRECORD
  5
480
102
{ACAD_REACTORS
330
7
102
}
330
7
100
AcDbXrecord
280
     1
 90
   990106
  3

 60
     0
 61
     0
 62
     1
 63
     3
 64
     1
 65
     0
 66
     0
 67
     3
 68
     1
 69
     0
 70
     0
 71
     0
 72
     0
 40
0.0
170
     2
  0
XRECORD
  5
41D9
102
{ACAD_REACTORS
330
7
102
}
330
7
100
AcDbXrecord
280
     1
 90
        1
330
1EE5
  0
DICTIONARY
  5
102
102
{ACAD_REACTORS
330
7
102
}
330
7
100
AcDbDictionary
281
     1
  3
CANNOSCALE
350
1F69
  3
CMLEADERSTYLE
350
1F68
  3
CTABLESTYLE
350
1F67
  3
CVIEWDETAILSTYLE
350
3233
  3
CVIEWSECTIONSTYLE
350
3234
  3
DIMASSOC
350
103
  3
INDEXCTL
350
1F6B
  3
LAYEREVAL
350
38EF
  3
LAYERNOTIFY
350
38F0
  3
LIGHTINGUNITS
350
38EE
  3
MSLTSCALE
350
38ED
  3
SORTENTS
350
1F6A
  3
XCLIPFRAME
350
41D7
  0
XRECORD
  5
41DA
102
{ACAD_REACTORS
330
7
102
}
330
7
100
AcDbXrecord
280
     1
  1
DWGPROPS COOKIE
  2

  3

  4

  6

  7

  8
ykitaga
  9

300
=
301
=
302
=
303
=
304
=
305
=
306
=
307
=
308
=
309
=
 40
0.2801024306
 41
2453557.744143519
 42
2460164.371377315
  1

 90
        0
  0
DICTIONARY
  5
1F76
102
{ACAD_REACTORS
330
1F75
102
}
330
1F75
100
AcDbDictionary
281
     1
  0
XRECORD
  5
1F17
102
{ACAD_REACTORS
330
1F16
102
}
330
1F16
100
AcDbXrecord
280
     1
290
     1
  0
XRECORD
  5
1F19
102
{ACAD_REACTORS
330
1F18
102
}
330
1F18
100
AcDbXrecord
280
     1
290
     1
  0
XRECORD
  5
1F1F
102
{ACAD_REACTORS
330
1F1E
102
}
330
1F1E
100
AcDbXrecord
280
     1
290
     1
  0
XRECORD
  5
1F21
102
{ACAD_REACTORS
330
1F20
102
}
330
1F20
100
AcDbXrecord
280
     1
290
     1
  0
XRECORD
  5
1F27
102
{ACAD_REACTORS
330
1F26
102
}
330
1F26
100
AcDbXrecord
280
     1
290
     1
  0
SORTENTSTABLE
  5
262F
102
{ACAD_REACTORS
330
262E
102
}
330
262E
100
AcDbSortentsTable
330
2
331
1F87
  5
1F89
331
1F88
  5
1F8A
331
1F89
  5
2568
331
1F8A
  5
2569
331
25FC
  5
25FE
331
25FD
  5
25FF
331
25FE
  5
2600
331
25FF
  5
2601
331
2600
  5
2602
331
2601
  5
2603
331
2602
  5
2604
331
2603
  5
2605
331
2604
  5
2606
331
2605
  5
2607
331
2606
  5
2608
331
2607
  5
2609
331
2608
  5
260A
331
2609
  5
260B
331
260A
  5
260C
331
260B
  5
260D
331
260C
  5
260E
331
260D
  5
260F
331
260E
  5
2610
331
260F
  5
2611
331
2610
  5
2612
331
2611
  5
2613
331
2612
  5
2614
331
2613
  5
2615
331
2614
  5
2616
331
2615
  5
2617
331
2616
  5
2618
331
2617
  5
2619
331
2618
  5
261A
331
2619
  5
261B
331
261A
  5
261D
331
261B
  5
261E
331
261D
  5
261F
331
261E
  5
2620
331
261F
  5
2621
331
2620
  5
2622
331
2621
  5
2623
331
2622
  5
2625
331
2623
  5
2626
331
2625
  5
2627
331
2626
  5
2628
331
2627
  5
262B
331
2628
  5
262C
331
2630
  5
2631
331
2631
  5
2632
331
2632
  5
2633
331
2633
  5
2634
331
2634
  5
2635
331
2635
  5
2636
331
2636
  5
2637
331
2637
  5
2638
331
2638
  5
2639
331
263D
  5
263E
331
263E
  5
263F
331
263F
  5
2641
331
2640
  5
2644
331
2641
  5
2645
331
2644
  5
2646
331
2645
  5
263D
331
2646
  5
2640
  0
SORTENTSTABLE
  5
3C49
102
{ACAD_REACTORS
330
3C48
102
}
330
3C48
100
AcDbSortentsTable
330
3C47
  0
SORTENTSTABLE
  5
3DC2
102
{ACAD_REACTORS
330
3DC1
102
}
330
3DC1
100
AcDbSortentsTable
330
3D2D
  0
SORTENTSTABLE
  5
3E1C
102
{ACAD_REACTORS
330
3E1B
102
}
330
3E1B
100
AcDbSortentsTable
330
3DC6
  0
SORTENTSTABLE
  5
3F1F
102
{ACAD_REACTORS
330
3F1E
102
}
330
3F1E
100
AcDbSortentsTable
330
3EB3
  0
ACDBDETAILVIEWSTYLE
  5
2911
102
{ACAD_XDICTIONARY
360
422F
102
}
102
{ACAD_REACTORS
330
2910
102
}
330
2910
100
AcDbModelDocViewStyle
 70
     0
  3
Imperial24
290
     0
100
AcDbDetailViewStyle
 70
     0
 71
     0
 90
        3
 71
     1
340
16
 40
0.24
340
0
 40
0.24
300

 40
0.36
280
     3
 71
     2
340
8
 90
       25
 71
     3
340
16
 40
0.24
 90
        1
 40
0.75
 90
        1
300
%<\AcVar ViewType \f "%tc1">% %<\AcVar ViewDetailId>%\PSCALE %<\AcVar ViewScale \f "%sn">%
 71
     4
340
8
 90
       25
340
8
 90
       25
280
     0
  0
ACDBDETAILVIEWSTYLE
  5
342F
102
{ACAD_XDICTIONARY
360
4233
102
}
102
{ACAD_REACTORS
330
2910
102
}
330
2910
100
AcDbModelDocViewStyle
 70
     0
  3
Metric50
290
     0
100
AcDbDetailViewStyle
 70
     0
 71
     0
 90
        3
 71
     1
340
16
 40
5.0
340
0
 40
5.0
300

 40
0.0
280
     1
 71
     2
340
8
 90
       25
 71
     3
340
16
 40
5.0
 90
        0
 40
15.0
 90
        1
300
%<\AcVar ViewDetailId>% (%<\AcVar ViewScale \f "%sn">%)
 71
     4
340
8
 90
       25
340
8
 90
       25
280
     0
  0
LAYOUT
  5
60
102
{ACAD_XDICTIONARY
360
41DB
102
}
102
{ACAD_REACTORS
330
61
102
}
330
61
100
AcDbPlotSettings
  1

  2
Canon LBP-1420
  4
A4
  6

 40
5.873749733
 41
5.8737478256
 42
5.8737487793
 43
5.8737487793
 44
209.9733276367
 45
296.925994873
 46
0.0
 47
5.37
 48
0.0
 49
0.0
140
0.0
141
0.0
142
1.0
143
0.088099941
 70
 11956
 72
     1
 73
     1
 74
     1
  7
Sekkei.ctb
 75
     0
147
11.3507453947
148
-88.9740150773
149
-101.3630682339
100
AcDbLayout
  1
Model
 70
     1
 71
     0
 10
0.0
 20
0.0
 11
12.0
 21
9.0
 12
0.0
 22
0.0
 32
0.0
 14
0.0
 24
0.0
 34
0.0
 15
0.0
 25
0.0
 35
0.0
146
0.0
 13
0.0
 23
0.0
 33
0.0
 16
1.0
 26
0.0
 36
0.0
 17
0.0
 27
1.0
 37
0.0
 76
     0
330
2
331
1EB7
  0
LAYOUT
  5
41D3
102
{ACAD_XDICTIONARY
360
424D
102
}
102
{ACAD_REACTORS
330
61
102
}
330
61
100
AcDbPlotSettings
  1

  2
LBP8610
  4

  6

 40
0.0
 41
0.0
 42
0.0
 43
0.0
 44
0.0
 45
0.0
 46
0.0
 47
0.0
 48
0.0
 49
0.0
140
0.0
141
0.0
142
1.0
143
1.0
 70
   688
 72
     0
 73
     0
 74
     5
  7

 75
    16
147
1.0
148
0.0
149
0.0
100
AcDbLayout
  1
レイアウト1
 70
     1
 71
     1
 10
0.0
 20
0.0
 11
12.0
 21
9.0
 12
0.0
 22
0.0
 32
0.0
 14
0.0
 24
0.0
 34
0.0
 15
0.0
 25
0.0
 35
0.0
146
0.0
 13
0.0
 23
0.0
 33
0.0
 16
1.0
 26
0.0
 36
0.0
 17
0.0
 27
1.0
 37
0.0
 76
     0
330
41D2
  0
MATERIAL
  5
1EC2
102
{ACAD_XDICTIONARY
360
1EC3
102
}
102
{ACAD_REACTORS
330
1EB9
102
}
330
1EB9
100
AcDbMaterial
  1
ByBlock
 72
     0
 43
0.0208333333
 43
0.0
 43
0.0
 43
0.0
 43
0.0
 43
0.0208333333
 43
0.0
 43
0.0
 43
0.0
 43
0.0
 43
1.0
 43
0.0
 43
0.0
 43
0.0
 43
0.0
 43
1.0
 77
     0
 47
0.0208333333
 47
0.0
 47
0.0
 47
0.0
 47
0.0
 47
0.0208333333
 47
0.0
 47
0.0
 47
0.0
 47
0.0
 47
1.0
 47
0.0
 47
0.0
 47
0.0
 47
0.0
 47
1.0
171
     0
 49
0.0208333333
 49
0.0
 49
0.0
 49
0.0
 49
0.0
 49
0.0208333333
 49
0.0
 49
0.0
 49
0.0
 49
0.0
 49
1.0
 49
0.0
 49
0.0
 49
0.0
 49
0.0
 49
1.0
175
     0
142
0.0208333333
142
0.0
142
0.0
142
0.0
142
0.0
142
0.0208333333
142
0.0
142
0.0
142
0.0
142
0.0
142
1.0
142
0.0
142
0.0
142
0.0
142
0.0
142
1.0
179
     0
144
0.0208333333
144
0.0
144
0.0
144
0.0
144
0.0
144
0.0208333333
144
0.0
144
0.0
144
0.0
144
0.0
144
1.0
144
0.0
144
0.0
144
0.0
144
0.0
144
1.0
147
0.0208333333
147
0.0
147
0.0
147
0.0
147
0.0
147
0.0208333333
147
0.0
147
0.0
147
0.0
147
0.0
147
1.0
147
0.0
147
0.0
147
0.0
147
0.0
147
1.0
  0
MATERIAL
  5
1EBA
102
{ACAD_XDICTIONARY
360
1EBB
102
}
102
{ACAD_REACTORS
330
1EB9
102
}
330
1EB9
100
AcDbMaterial
  1
ByLayer
 72
     0
 43
0.0208333333
 43
0.0
 43
0.0
 43
0.0
 43
0.0
 43
0.0208333333
 43
0.0
 43
0.0
 43
0.0
 43
0.0
 43
1.0
 43
0.0
 43
0.0
 43
0.0
 43
0.0
 43
1.0
 77
     0
 47
0.0208333333
 47
0.0
 47
0.0
 47
0.0
 47
0.0
 47
0.0208333333
 47
0.0
 47
0.0
 47
0.0
 47
0.0
 47
1.0
 47
0.0
 47
0.0
 47
0.0
 47
0.0
 47
1.0
171
     0
 49
0.0208333333
 49
0.0
 49
0.0
 49
0.0
 49
0.0
 49
0.0208333333
 49
0.0
 49
0.0
 49
0.0
 49
0.0
 49
1.0
 49
0.0
 49
0.0
 49
0.0
 49
0.0
 49
1.0
175
     0
142
0.0208333333
142
0.0
142
0.0
142
0.0
142
0.0
142
0.0208333333
142
0.0
142
0.0
142
0.0
142
0.0
142
1.0
142
0.0
142
0.0
142
0.0
142
0.0
142
1.0
179
     0
144
0.0208333333
144
0.0
144
0.0
144
0.0
144
0.0
144
0.0208333333
144
0.0
144
0.0
144
0.0
144
0.0
144
1.0
144
0.0
144
0.0
144
0.0
144
0.0
144
1.0
147
0.0208333333
147
0.0
147
0.0
147
0.0
147
0.0
147
0.0208333333
147
0.0
147
0.0
147
0.0
147
0.0
147
1.0
147
0.0
147
0.0
147
0.0
147
0.0
147
1.0
  0
MATERIAL
  5
1ECA
102
{ACAD_XDICTIONARY
360
1ECB
102
}
102
{ACAD_REACTORS
330
1EB9
102
}
330
1EB9
100
AcDbMaterial
  1
Global
 72
     0
 43
0.0208333333
 43
0.0
 43
0.0
 43
0.0
 43
0.0
 43
0.0208333333
 43
0.0
 43
0.0
 43
0.0
 43
0.0
 43
1.0
 43
0.0
 43
0.0
 43
0.0
 43
0.0
 43
1.0
 77
     0
 47
0.0208333333
 47
0.0
 47
0.0
 47
0.0
 47
0.0
 47
0.0208333333
 47
0.0
 47
0.0
 47
0.0
 47
0.0
 47
1.0
 47
0.0
 47
0.0
 47
0.0
 47
0.0
 47
1.0
171
     0
 49
0.0208333333
 49
0.0
 49
0.0
 49
0.0
 49
0.0
 49
0.0208333333
 49
0.0
 49
0.0
 49
0.0
 49
0.0
 49
1.0
 49
0.0
 49
0.0
 49
0.0
 49
0.0
 49
1.0
175
     0
142
0.0208333333
142
0.0
142
0.0
142
0.0
142
0.0
142
0.0208333333
142
0.0
142
0.0
142
0.0
142
0.0
142
1.0
142
0.0
142
0.0
142
0.0
142
0.0
142
1.0
179
     0
144
0.0208333333
144
0.0
144
0.0
144
0.0
144
0.0
144
0.0208333333
144
0.0
144
0.0
144
0.0
144
0.0
144
1.0
144
0.0
144
0.0
144
0.0
144
0.0
144
1.0
147
0.0208333333
147
0.0
147
0.0
147
0.0
147
0.0
147
0.0208333333
147
0.0
147
0.0
147
0.0
147
0.0
147
1.0
147
0.0
147
0.0
147
0.0
147
0.0
147
1.0
  0
MLEADERSTYLE
  5
1F09
102
{ACAD_REACTORS
330
1F08
102
}
330
1F08
100
AcDbMLeaderStyle
170
     2
171
     1
172
     0
 90
        2
 40
0.0
 41
0.0
173
     1
 91
-1056964608
340
6A
 92
       -2
290
     1
 42
0.09
291
     1
 43
0.36
  3
Standard
 44
0.18
300

342
16
174
     1
178
     6
175
     1
176
     0
 93
-1056964608
 45
0.18
292
     0
297
     0
 46
0.18
 94
-1056964608
 47
1.0
 49
1.0
140
1.0
293
     1
141
0.0
294
     1
177
     0
142
1.0
295
     0
296
     0
143
0.125
1001
ACAD_MLEADERVER
1070
     2
  0
MLINESTYLE
  5
78
102
{ACAD_REACTORS
330
76
102
}
330
76
100
AcDbMlineStyle
  2
STANDARD
 70
     0
  3

 62
     0
 51
90.0
 52
90.0
 71
     2
 49
0.5
 62
   256
  6
BYLAYER
 49
-0.5
 62
   256
  6
BYLAYER
  0
ACDBPLACEHOLDER
  5
5
102
{ACAD_REACTORS
330
6
102
}
330
6
  0
SCALE
  5
1EE7
102
{ACAD_REACTORS
330
1EE6
102
}
330
1EE6
100
AcDbScale
 70
     0
300
1:1
140
1.0
141
1.0
290
     1
  0
SCALE
  5
1EE8
102
{ACAD_REACTORS
330
1EE6
102
}
330
1EE6
100
AcDbScale
 70
     0
300
1:2
140
1.0
141
2.0
290
     0
  0
SCALE
  5
1EE9
102
{ACAD_REACTORS
330
1EE6
102
}
330
1EE6
100
AcDbScale
 70
     0
300
1:4
140
1.0
141
4.0
290
     0
  0
SCALE
  5
1EEA
102
{ACAD_REACTORS
330
1EE6
102
}
330
1EE6
100
AcDbScale
 70
     0
300
1:5
140
1.0
141
5.0
290
     0
  0
SCALE
  5
1EEB
102
{ACAD_REACTORS
330
1EE6
102
}
330
1EE6
100
AcDbScale
 70
     0
300
1:8
140
1.0
141
8.0
290
     0
  0
SCALE
  5
1EEC
102
{ACAD_REACTORS
330
1EE6
102
}
330
1EE6
100
AcDbScale
 70
     0
300
1:10
140
1.0
141
10.0
290
     0
  0
SCALE
  5
1EED
102
{ACAD_REACTORS
330
1EE6
102
}
330
1EE6
100
AcDbScale
 70
     0
300
1:16
140
1.0
141
16.0
290
     0
  0
SCALE
  5
1EEE
102
{ACAD_REACTORS
330
1EE6
102
}
330
1EE6
100
AcDbScale
 70
     0
300
1:20
140
1.0
141
20.0
290
     0
  0
SCALE
  5
1EEF
102
{ACAD_REACTORS
330
1EE6
102
}
330
1EE6
100
AcDbScale
 70
     0
300
1:30
140
1.0
141
30.0
290
     0
  0
SCALE
  5
1EF0
102
{ACAD_REACTORS
330
1EE6
102
}
330
1EE6
100
AcDbScale
 70
     0
300
1:40
140
1.0
141
40.0
290
     0
  0
SCALE
  5
1EF1
102
{ACAD_REACTORS
330
1EE6
102
}
330
1EE6
100
AcDbScale
 70
     0
300
1:50
140
1.0
141
50.0
290
     0
  0
SCALE
  5
1EF2
102
{ACAD_REACTORS
330
1EE6
102
}
330
1EE6
100
AcDbScale
 70
     0
300
1:100
140
1.0
141
100.0
290
     0
  0
SCALE
  5
1EF3
102
{ACAD_REACTORS
330
1EE6
102
}
330
1EE6
100
AcDbScale
 70
     0
300
2:1
140
2.0
141
1.0
290
     0
  0
SCALE
  5
1EF4
102
{ACAD_REACTORS
330
1EE6
102
}
330
1EE6
100
AcDbScale
 70
     0
300
4:1
140
4.0
141
1.0
290
     0
  0
SCALE
  5
1EF5
102
{ACAD_REACTORS
330
1EE6
102
}
330
1EE6
100
AcDbScale
 70
     0
300
8:1
140
8.0
141
1.0
290
     0
  0
SCALE
  5
1EF6
102
{ACAD_REACTORS
330
1EE6
102
}
330
1EE6
100
AcDbScale
 70
     0
300
10:1
140
10.0
141
1.0
290
     0
  0
SCALE
  5
1EF7
102
{ACAD_REACTORS
330
1EE6
102
}
330
1EE6
100
AcDbScale
 70
     0
300
100:1
140
100.0
141
1.0
290
     0
  0
SCALE
  5
1EF8
102
{ACAD_REACTORS
330
1EE6
102
}
330
1EE6
100
AcDbScale
 70
     0
300
1/128" = 1'-0"
140
0.0078125
141
12.0
290
     0
  0
SCALE
  5
1EF9
102
{ACAD_REACTORS
330
1EE6
102
}
330
1EE6
100
AcDbScale
 70
     0
300
1/64" = 1'-0"
140
0.015625
141
12.0
290
     0
  0
SCALE
  5
1EFA
102
{ACAD_REACTORS
330
1EE6
102
}
330
1EE6
100
AcDbScale
 70
     0
300
1/32" = 1'-0"
140
0.03125
141
12.0
290
     0
  0
SCALE
  5
1EFB
102
{ACAD_REACTORS
330
1EE6
102
}
330
1EE6
100
AcDbScale
 70
     0
300
1/16" = 1'-0"
140
0.0625
141
12.0
290
     0
  0
SCALE
  5
1EFC
102
{ACAD_REACTORS
330
1EE6
102
}
330
1EE6
100
AcDbScale
 70
     0
300
3/32" = 1'-0"
140
0.09375
141
12.0
290
     0
  0
SCALE
  5
1EFD
102
{ACAD_REACTORS
330
1EE6
102
}
330
1EE6
100
AcDbScale
 70
     0
300
1/8" = 1'-0"
140
0.125
141
12.0
290
     0
  0
SCALE
  5
1EFE
102
{ACAD_REACTORS
330
1EE6
102
}
330
1EE6
100
AcDbScale
 70
     0
300
3/16" = 1'-0"
140
0.1875
141
12.0
290
     0
  0
SCALE
  5
1EFF
102
{ACAD_REACTORS
330
1EE6
102
}
330
1EE6
100
AcDbScale
 70
     0
300
1/4" = 1'-0"
140
0.25
141
12.0
290
     0
  0
SCALE
  5
1F00
102
{ACAD_REACTORS
330
1EE6
102
}
330
1EE6
100
AcDbScale
 70
     0
300
3/8" = 1'-0"
140
0.375
141
12.0
290
     0
  0
SCALE
  5
1F01
102
{ACAD_REACTORS
330
1EE6
102
}
330
1EE6
100
AcDbScale
 70
     0
300
1/2" = 1'-0"
140
0.5
141
12.0
290
     0
  0
SCALE
  5
1F02
102
{ACAD_REACTORS
330
1EE6
102
}
330
1EE6
100
AcDbScale
 70
     0
300
3/4" = 1'-0"
140
0.75
141
12.0
290
     0
  0
SCALE
  5
1F03
102
{ACAD_REACTORS
330
1EE6
102
}
330
1EE6
100
AcDbScale
 70
     0
300
1" = 1'-0"
140
1.0
141
12.0
290
     0
  0
SCALE
  5
1F04
102
{ACAD_REACTORS
330
1EE6
102
}
330
1EE6
100
AcDbScale
 70
     0
300
1-1/2" = 1'-0"
140
1.5
141
12.0
290
     0
  0
SCALE
  5
1F05
102
{ACAD_REACTORS
330
1EE6
102
}
330
1EE6
100
AcDbScale
 70
     0
300
3" = 1'-0"
140
3.0
141
12.0
290
     0
  0
SCALE
  5
1F06
102
{ACAD_REACTORS
330
1EE6
102
}
330
1EE6
100
AcDbScale
 70
     0
300
6" = 1'-0"
140
6.0
141
12.0
290
     0
  0
SCALE
  5
1F07
102
{ACAD_REACTORS
330
1EE6
102
}
330
1EE6
100
AcDbScale
 70
     0
300
1'-0" = 1'-0"
140
12.0
141
12.0
290
     0
  0
ACDBSECTIONVIEWSTYLE
  5
290F
102
{ACAD_XDICTIONARY
360
422D
102
}
102
{ACAD_REACTORS
330
290E
102
}
330
290E
100
AcDbModelDocViewStyle
 70
     0
  3
Imperial24
290
     0
100
AcDbSectionViewStyle
 70
     0
 71
     0
 90
       78
 71
     1
340
16
 40
0.24
340
0
340
0
 40
0.24
300
I, O, Q, S, X, Z
 40
0.48
 90
        3
 40
0.18
 90
        1
 71
     2
340
8
 90
       25
340
8
 90
       50
 40
0.24
 40
0.0
 40
0.24
 71
     3
340
16
 40
0.24
 90
        1
 40
0.75
 90
        1
300
%<\AcVar ViewType \f "%tc1">% %<\AcVar ViewSectionStartId>%-%<\AcVar ViewSectionEndId>%\PSCALE %<\AcVar ViewScale \f "%sn">%
 71
     4
300
ANSI31
 40
1.0
 90
        0
290
     0
290
     0
 90
        6
 40
0.0
 40
1.5707963268
 40
0.2617993878
 40
1.308996939
 40
-0.2617993878
 40
1.8325957146
  0
ACDBSECTIONVIEWSTYLE
  5
342E
102
{ACAD_XDICTIONARY
360
4231
102
}
102
{ACAD_REACTORS
330
290E
102
}
330
290E
100
AcDbModelDocViewStyle
 70
     0
  3
Metric50
290
     0
100
AcDbSectionViewStyle
 70
     0
 71
     0
 90
      102
 71
     1
340
16
 40
5.0
340
0
340
0
 40
5.0
300
I, O, Q, S, X, Z
 40
10.0
 90
        0
 40
2.5
 90
        0
 71
     2
340
8
 90
       25
340
8
 90
       50
 40
5.0
 40
2.5
 40
5.0
 71
     3
340
16
 40
5.0
 90
        0
 40
15.0
 90
        1
300
%<\AcVar ViewSectionStartId>%-%<\AcVar ViewSectionEndId>% (%<\AcVar ViewScale \f "%sn">%)
 71
     4
300
ANSI31
 40
1.0
 90
        0
290
     0
290
     0
 90
        6
 40
0.0
 40
1.5707963268
 40
0.2617993878
 40
1.308996939
 40
-0.2617993878
 40
1.8325957146
  0
TABLESTYLE
  5
1EE5
102
{ACAD_XDICTIONARY
360
1F28
102
}
102
{ACAD_REACTORS
330
1EE4
102
}
330
1EE4
100
AcDbTableStyle
  3
Standard
 70
     0
 71
     0
 40
0.06
 41
0.06
280
     0
281
     0
  7
STANDARD
140
0.18
170
     2
 62
     0
 63
     7
283
     0
274
    -2
284
     1
 64
     0
275
    -2
285
     1
 65
     0
276
    -2
286
     1
 66
     0
277
    -2
287
     1
 67
     0
278
    -2
288
     1
 68
     0
279
    -2
289
     1
 69
     0
  7
STANDARD
140
0.25
170
     5
 62
     0
 63
     7
283
     0
274
    -2
284
     1
 64
     0
275
    -2
285
     1
 65
     0
276
    -2
286
     1
 66
     0
277
    -2
287
     1
 67
     0
278
    -2
288
     1
 68
     0
279
    -2
289
     1
 69
     0
  7
STANDARD
140
0.18
170
     5
 62
     0
 63
     7
283
     0
274
    -2
284
     1
 64
     0
275
    -2
285
     1
 65
     0
276
    -2
286
     1
 66
     0
277
    -2
287
     1
 67
     0
278
    -2
288
     1
 68
     0
279
    -2
289
     1
 69
     0
  0
VISUALSTYLE
  5
1ED8
102
{ACAD_XDICTIONARY
360
41EA
102
}
102
{ACAD_REACTORS
330
1ED2
102
}
330
1ED2
100
AcDbVisualStyle
  2

 70
     4
 71
     0
 72
     2
 73
     0
 90
        0
 40
-0.6
 41
-30.0
 62
     5
 63
     7
 74
     1
 91
        4
 64
     7
 65
   257
 75
     1
175
     1
 42
1.0
 92
        0
 66
   257
 43
1.0
 76
     1
 77
     6
 78
     2
 67
     7
 79
     5
170
     0
171
     0
290
     0
174
     0
 93
        1
 44
0.0
173
     0
291
     0
 45
0.0
1001
ACAD
1000
AcDbSavedByObjectVersion
1070
     0
  0
VISUALSTYLE
  5
1EDA
102
{ACAD_XDICTIONARY
360
41EE
102
}
102
{ACAD_REACTORS
330
1ED2
102
}
330
1ED2
100
AcDbVisualStyle
  2

 70
     6
 71
     1
 72
     2
 73
     2
 90
        0
 40
-0.6
 41
-30.0
 62
     5
 63
     7
 74
     2
 91
        2
 64
     7
 65
   257
 75
     2
175
     1
 42
40.0
 92
        0
 66
   257
 43
1.0
 76
     1
 77
     6
 78
     2
 67
     7
 79
     3
170
     0
171
     0
290
     0
174
     0
 93
        1
 44
0.0
173
     0
291
     0
 45
0.0
1001
ACAD
1000
AcDbSavedByObjectVersion
1070
     0
  0
VISUALSTYLE
  5
1ED9
102
{ACAD_XDICTIONARY
360
41EC
102
}
102
{ACAD_REACTORS
330
1ED2
102
}
330
1ED2
100
AcDbVisualStyle
  2

 70
     5
 71
     0
 72
     2
 73
     0
 90
        0
 40
-0.6
 41
-30.0
 62
     5
 63
     7
 74
     1
 91
        4
 64
     7
 65
   257
 75
     1
175
     1
 42
1.0
 92
        0
 66
   257
 43
1.0
 76
     1
 77
     6
 78
     2
 67
     7
 79
     5
170
     0
171
     0
290
     0
174
     0
 93
        1
 44
0.0
173
     0
291
     0
 45
0.0
1001
ACAD
1000
AcDbSavedByObjectVersion
1070
     0
  0
VISUALSTYLE
  5
1ED7
102
{ACAD_XDICTIONARY
360
41E8
102
}
102
{ACAD_REACTORS
330
1ED2
102
}
330
1ED2
100
AcDbVisualStyle
  2

 70
     7
 71
     1
 72
     0
 73
     1
 90
        0
 40
-0.6
 41
-30.0
 62
     5
 63
     7
 74
     0
 91
        4
 64
     7
 65
   257
 75
     1
175
     1
 42
1.0
 92
        8
 66
     7
 43
1.0
 76
     1
 77
     6
 78
     2
 67
     7
 79
     5
170
     0
171
     0
290
     0
174
     0
 93
        1
 44
0.0
173
     0
291
     1
 45
0.0
1001
ACAD
1000
AcDbSavedByObjectVersion
1070
     0
  0
VISUALSTYLE
  5
1EDE
102
{ACAD_XDICTIONARY
360
41F6
102
}
102
{ACAD_REACTORS
330
1ED2
102
}
330
1ED2
100
AcDbVisualStyle
  2

 70
    12
 71
     2
 72
     2
 73
     0
 90
        0
 40
-0.6
 41
-30.0
 62
     5
 63
     7
 74
     1
 91
        4
 64
     7
 65
   257
 75
     1
175
     1
 42
1.0
 92
        8
 66
     7
 43
1.0
 76
     1
 77
     6
 78
     2
 67
     7
 79
     5
170
     0
171
     0
290
     0
174
     0
 93
        1
 44
50.0
173
     0
291
     1
 45
0.0
1001
ACAD
1000
AcDbSavedByObjectVersion
1070
     0
  0
VISUALSTYLE
  5
1EE2
102
{ACAD_XDICTIONARY
360
41FE
102
}
102
{ACAD_REACTORS
330
1ED2
102
}
330
1ED2
100
AcDbVisualStyle
  2

 70
    16
 71
     2
 72
     2
 73
     3
 90
        0
 40
-0.6
 41
-30.0
 62
     5
 63
     8
 74
     1
 91
        4
 64
     7
 65
   257
 75
     1
175
     1
 42
1.0
 92
        8
 66
     8
 43
1.0
 76
     1
 77
     6
 78
     2
 67
     7
 79
     5
170
     0
171
     0
290
     0
174
     0
 93
        1
 44
0.0
173
     0
291
     1
 45
0.0
1001
ACAD
1000
AcDbSavedByObjectVersion
1070
     0
  0
VISUALSTYLE
  5
1EDB
102
{ACAD_XDICTIONARY
360
41F0
102
}
102
{ACAD_REACTORS
330
1ED2
102
}
330
1ED2
100
AcDbVisualStyle
  2

 70
     9
 71
     3
 72
     2
 73
     0
 90
        0
 40
-0.6
 41
-30.0
 62
     5
 63
     7
 74
     2
 91
        2
 64
     7
 65
   257
 75
     1
175
     1
 42
40.0
 92
        8
 66
     7
 43
1.0
 76
     1
 77
     6
 78
     2
 67
     7
 79
     3
170
     0
171
     0
290
     0
174
     0
 93
        1
 44
0.0
173
     0
291
     0
 45
0.0
1001
ACAD
1000
AcDbSavedByObjectVersion
1070
     0
  0
VISUALSTYLE
  5
1EDD
102
{ACAD_XDICTIONARY
360
41F4
102
}
102
{ACAD_REACTORS
330
1ED2
102
}
330
1ED2
100
AcDbVisualStyle
  2

 70
    11
 71
     2
 72
     2
 73
     0
 90
        0
 40
-0.6
 41
-30.0
 62
     5
 63
     7
 74
     1
 91
        4
 64
     7
 65
   257
 75
     1
175
     1
 42
1.0
 92
        8
 66
     7
 43
1.0
 76
     1
 77
     6
 78
     2
 67
     7
 79
     5
170
     0
171
     0
290
     0
174
     0
 93
        1
 44
-50.0
173
     0
291
     1
 45
0.0
1001
ACAD
1000
AcDbSavedByObjectVersion
1070
     0
  0
VISUALSTYLE
  5
1F6F
102
{ACAD_XDICTIONARY
360
4205
102
}
102
{ACAD_REACTORS
330
1ED2
102
}
330
1ED2
100
AcDbVisualStyle
  2

 70
    22
 71
     2
 72
     2
 73
     0
 90
        0
 40
-0.6
 41
-30.0
 62
     5
 63
     7
 74
     1
 91
        4
 64
     7
 65
   257
 75
     1
175
     1
 42
1.0
 92
        8
 66
     7
 43
1.0
 76
     1
 77
     6
 78
     2
 67
     7
 79
     5
170
     0
171
     0
290
     0
174
     0
 93
        1
 44
0.0
173
     0
291
     1
 45
0.0
1001
ACAD
1000
AcDbSavedByObjectVersion
1070
     0
  0
VISUALSTYLE
  5
1EE1
102
{ACAD_XDICTIONARY
360
41FC
102
}
102
{ACAD_REACTORS
330
1ED2
102
}
330
1ED2
100
AcDbVisualStyle
  2

 70
    15
 71
     2
 72
     2
 73
     0
 90
        0
 40
-0.6
 41
-30.0
 62
     5
 63
     7
 74
     1
 91
        4
 64
     7
 65
   257
 75
     1
175
     1
 42
1.0
 92
        8
 66
     7
 43
1.0
 76
     1
 77
     6
 78
     2
 67
     7
 79
     5
170
     0
171
     0
290
     0
174
     0
 93
        1
 44
0.0
173
     0
291
     1
 45
0.0
1001
ACAD
1000
AcDbSavedByObjectVersion
1070
     0
  0
VISUALSTYLE
  5
1ED3
102
{ACAD_XDICTIONARY
360
41E0
102
}
102
{ACAD_REACTORS
330
1ED2
102
}
330
1ED2
100
AcDbVisualStyle
  2

 70
     0
 71
     2
 72
     1
 73
     1
 90
        2
 40
-0.6
 41
30.0
 62
     5
 63
     7
 74
     0
 91
        4
 64
     7
 65
   257
 75
     1
175
     1
 42
1.0
 92
        8
 66
     7
 43
1.0
 76
     1
 77
     6
 78
     2
 67
     7
 79
     5
170
     0
171
     0
290
     0
174
     0
 93
       13
 44
0.0
173
     0
291
     1
 45
0.0
1001
ACAD
1000
AcDbSavedByObjectVersion
1070
     0
  0
VISUALSTYLE
  5
1ED4
102
{ACAD_XDICTIONARY
360
41E2
102
}
102
{ACAD_REACTORS
330
1ED2
102
}
330
1ED2
100
AcDbVisualStyle
  2

 70
     1
 71
     2
 72
     1
 73
     1
 90
        2
 40
-0.6
 41
30.0
 62
     5
 63
     7
 74
     1
 91
        4
 64
     7
 65
   257
 75
     1
175
     1
 42
1.0
 92
        0
 66
   257
 43
1.0
 76
     1
 77
     6
 78
     2
 67
     7
 79
     5
170
     0
171
     0
290
     0
174
     0
 93
       13
 44
0.0
173
     0
291
     1
 45
0.0
1001
ACAD
1000
AcDbSavedByObjectVersion
1070
     0
  0
VISUALSTYLE
  5
1ED5
102
{ACAD_XDICTIONARY
360
41E4
102
}
102
{ACAD_REACTORS
330
1ED2
102
}
330
1ED2
100
AcDbVisualStyle
  2

 70
     2
 71
     2
 72
     2
 73
     1
 90
        2
 40
-0.6
 41
30.0
 62
     5
 63
     7
 74
     0
 91
        4
 64
     7
 65
   257
 75
     1
175
     1
 42
1.0
 92
        0
 66
     7
 43
1.0
 76
     1
 77
     6
 78
     2
 67
     7
 79
     5
170
     0
171
     0
290
     0
174
     0
 93
       13
 44
0.0
173
     0
291
     1
 45
0.0
1001
ACAD
1000
AcDbSavedByObjectVersion
1070
     0
  0
VISUALSTYLE
  5
1ED6
102
{ACAD_XDICTIONARY
360
41E6
102
}
102
{ACAD_REACTORS
330
1ED2
102
}
330
1ED2
100
AcDbVisualStyle
  2

 70
     3
 71
     2
 72
     2
 73
     1
 90
        2
 40
-0.6
 41
30.0
 62
     5
 63
     7
 74
     1
 91
        4
 64
     7
 65
   257
 75
     1
175
     1
 42
1.0
 92
        0
 66
   257
 43
1.0
 76
     1
 77
     6
 78
     2
 67
     7
 79
     5
170
     0
171
     0
290
     0
174
     0
 93
       13
 44
0.0
173
     0
291
     1
 45
0.0
1001
ACAD
1000
AcDbSavedByObjectVersion
1070
     0
  0
VISUALSTYLE
  5
2908
102
{ACAD_XDICTIONARY
360
4221
102
}
102
{ACAD_REACTORS
330
1ED2
102
}
330
1ED2
100
AcDbVisualStyle
  2

 70
     6
 71
     1
 72
     2
 73
     2
 90
        0
 40
-0.6
 41
-30.0
 62
     5
 63
     7
 74
     2
 91
        2
 64
     7
 65
   257
 75
     2
175
     1
 42
40.0
 92
        0
 66
   257
 43
1.0
 76
     1
 77
     6
 78
     2
 67
     7
 79
     3
170
     0
171
     0
290
     0
174
     0
 93
        1
 44
0.0
173
     0
291
     0
 45
0.0
1001
ACAD
1000
AcDbSavedByObjectVersion
1070
     0
  0
VISUALSTYLE
  5
1F6D
102
{ACAD_XDICTIONARY
360
4201
102
}
102
{ACAD_REACTORS
330
1ED2
102
}
330
1ED2
100
AcDbVisualStyle
  2

 70
    20
 71
     2
 72
     2
 73
     0
 90
        0
 40
-0.6
 41
-30.0
 62
     5
 63
     7
 74
     1
 91
        4
 64
     7
 65
   257
 75
     1
175
     1
 42
1.0
 92
       10
 66
     7
 43
1.0
 76
     1
 77
     6
 78
     2
 67
     7
 79
     5
170
     0
171
     0
290
     0
174
     0
 93
        1
 44
0.0
173
     0
291
     1
 45
0.0
1001
ACAD
1000
AcDbSavedByObjectVersion
1070
     0
  0
VISUALSTYLE
  5
1EE0
102
{ACAD_XDICTIONARY
360
41FA
102
}
102
{ACAD_REACTORS
330
1ED2
102
}
330
1ED2
100
AcDbVisualStyle
  2

 70
    14
 71
     2
 72
     2
 73
     0
 90
        0
 40
-0.6
 41
-30.0
 62
     5
 63
     7
 74
     1
 91
        4
 64
     7
 65
   257
 75
     7
175
     7
 42
1.0
 92
        8
 66
     7
 43
1.0
 76
     1
 77
     6
 78
     2
 67
     7
 79
     5
170
     0
171
     0
290
     0
174
     0
 93
        1
 44
0.0
173
     0
291
     1
 45
0.0
1001
ACAD
1000
AcDbSavedByObjectVersion
1070
     0
  0
VISUALSTYLE
  5
1F6E
102
{ACAD_XDICTIONARY
360
4203
102
}
102
{ACAD_REACTORS
330
1ED2
102
}
330
1ED2
100
AcDbVisualStyle
  2

 70
    21
 71
     2
 72
     2
 73
     0
 90
        0
 40
-0.6
 41
-30.0
 62
     5
 63
     7
 74
     1
 91
        4
 64
     7
 65
   257
 75
     1
175
     1
 42
1.0
 92
        9
 66
     7
 43
1.0
 76
     1
 77
     6
 78
     2
 67
     7
 79
     5
170
     0
171
     0
290
     0
174
     0
 93
        1
 44
0.0
173
     0
291
     1
 45
0.0
1001
ACAD
1000
AcDbSavedByObjectVersion
1070
     0
  0
VISUALSTYLE
  5
1EDC
102
{ACAD_XDICTIONARY
360
41F2
102
}
102
{ACAD_REACTORS
330
1ED2
102
}
330
1ED2
100
AcDbVisualStyle
  2

 70
     8
 71
     2
 72
     2
 73
     0
 90
        0
 40
-0.6
 41
-30.0
 62
     5
 63
     7
 74
     1
 91
        0
 64
     7
 65
   257
 75
     1
175
     1
 42
1.0
 92
        8
 66
     8
 43
1.0
 76
     1
 77
     6
 78
     2
 67
     7
 79
     5
170
     0
171
     0
290
     0
174
     0
 93
       13
 44
0.0
173
     0
291
     0
 45
0.0
1001
ACAD
1000
AcDbSavedByObjectVersion
1070
     0
  0
VISUALSTYLE
  5
290D
102
{ACAD_XDICTIONARY
360
422B
102
}
102
{ACAD_REACTORS
330
1ED2
102
}
330
1ED2
100
AcDbVisualStyle
  2

 70
    27
 71
     2
 72
     2
 73
     1
 90
        2
 40
-0.6
 41
30.0
 62
     5
 63
     7
 74
     0
 91
        4
 64
     7
 65
   257
 75
     1
175
     1
 42
1.0
 92
        8
 66
   257
 43
1.0
 76
     1
 77
     6
 78
     2
 67
     8
 79
     3
170
     0
171
     0
290
     0
174
     0
 93
        5
 44
0.0
173
     0
291
     0
 45
0.0
1001
ACAD
1000
AcDbSavedByObjectVersion
1070
     0
  0
VISUALSTYLE
  5
290C
102
{ACAD_XDICTIONARY
360
4229
102
}
102
{ACAD_REACTORS
330
1ED2
102
}
330
1ED2
100
AcDbVisualStyle
  2

 70
    26
 71
     2
 72
     2
 73
     1
 90
        2
 40
-0.6
 41
30.0
 62
     5
 63
     7
 74
     1
 91
        2
 64
     7
 65
   257
 75
     2
175
     1
 42
1.0
 92
        8
 66
   257
 43
1.0
 76
     1
 77
     6
 78
     2
 67
     7
 79
     3
170
     0
171
     0
290
     0
174
     0
 93
        5
 44
0.0
173
     0
291
     0
 45
0.0
1001
ACAD
1000
AcDbSavedByObjectVersion
1070
     0
  0
VISUALSTYLE
  5
2909
102
{ACAD_XDICTIONARY
360
4223
102
}
102
{ACAD_REACTORS
330
1ED2
102
}
330
1ED2
100
AcDbVisualStyle
  2

 70
    23
 71
     2
 72
     2
 73
     3
 90
        0
 40
-0.6
 41
-30.0
 62
     5
 63
     7
 74
     2
 91
        2
 64
     7
 65
     7
 75
     1
175
     1
 42
40.0
 92
        8
 66
     7
 43
1.0
 76
     1
 77
     6
 78
     2
 67
     7
 79
     3
170
     0
171
     0
290
     0
174
     0
 93
        1
 44
0.0
173
     0
291
     0
 45
0.0
1001
ACAD
1000
AcDbSavedByObjectVersion
1070
     0
  0
VISUALSTYLE
  5
290A
102
{ACAD_XDICTIONARY
360
4225
102
}
102
{ACAD_REACTORS
330
1ED2
102
}
330
1ED2
100
AcDbVisualStyle
  2

 70
    24
 71
     1
 72
     2
 73
     2
 90
        0
 40
-0.6
 41
-30.0
 62
     5
 63
     7
 74
     2
 91
        2
 64
     7
 65
     7
 75
     1
175
     1
 42
40.0
 92
       11
 66
     7
 43
1.0
 76
     1
 77
     6
 78
     2
 67
     7
 79
     6
170
     0
171
     0
290
     0
174
     0
 93
        1
 44
0.0
173
     0
291
     0
 45
0.0
1001
ACAD
1000
AcDbSavedByObjectVersion
1070
     0
  0
VISUALSTYLE
  5
1EDF
102
{ACAD_XDICTIONARY
360
41F8
102
}
102
{ACAD_REACTORS
330
1ED2
102
}
330
1ED2
100
AcDbVisualStyle
  2

 70
    13
 71
     2
 72
     2
 73
     0
 90
        0
 40
-0.6
 41
-30.0
 62
     5
 63
     7
 74
     1
 91
        4
 64
     7
 65
   257
 75
     1
175
     1
 42
1.0
 92
       12
 66
     7
 43
1.0
 76
     1
 77
     6
 78
     2
 67
     7
 79
     5
170
     0
171
     0
290
     0
174
     0
 93
        1
 44
0.0
173
     0
291
     1
 45
0.0
1001
ACAD
1000
AcDbSavedByObjectVersion
1070
     0
  0
VISUALSTYLE
  5
2907
102
{ACAD_XDICTIONARY
360
421F
102
}
102
{ACAD_REACTORS
330
1ED2
102
}
330
1ED2
100
AcDbVisualStyle
  2

 70
     5
 71
     0
 72
     2
 73
     0
 90
        0
 40
-0.6
 41
-30.0
 62
     5
 63
     7
 74
     1
 91
        4
 64
     7
 65
   257
 75
     1
175
     1
 42
1.0
 92
        0
 66
   257
 43
1.0
 76
     1
 77
     6
 78
     2
 67
     7
 79
     3
170
     0
171
     0
290
     0
174
     0
 93
        1
 44
0.0
173
     0
291
     0
 45
0.0
1001
ACAD
1000
AcDbSavedByObjectVersion
1070
     0
  0
VISUALSTYLE
  5
290B
102
{ACAD_XDICTIONARY
360
4227
102
}
102
{ACAD_REACTORS
330
1ED2
102
}
330
1ED2
100
AcDbVisualStyle
  2

 70
    25
 71
     2
 72
     2
 73
     1
 90
        1
 40
0.5
 41
-30.0
 62
     5
 63
     7
 74
     1
 91
        0
 64
     7
 65
   257
 75
     1
175
     1
 42
1.0
 92
        8
 66
     7
 43
1.0
 76
     1
 77
     6
 78
     2
 67
     7
 79
     3
170
     0
171
     0
290
     0
174
     0
 93
       13
 44
0.0
173
     0
291
     0
 45
0.0
1001
ACAD
1000
AcDbSavedByObjectVersion
1070
     0
  0
DICTIONARYVAR
  5
1F69
102
{ACAD_REACTORS
330
102
102
}
330
102
100
DictionaryVariables
280
     0
  1
1:1
  0
DICTIONARYVAR
  5
1F68
102
{ACAD_REACTORS
330
102
102
}
330
102
100
DictionaryVariables
280
     0
  1
STANDARD
  0
DICTIONARYVAR
  5
1F67
102
{ACAD_REACTORS
330
102
102
}
330
102
100
DictionaryVariables
280
     0
  1
STANDARD
  0
DICTIONARYVAR
  5
3233
102
{ACAD_REACTORS
330
102
102
}
330
102
100
DictionaryVariables
280
     0
  1
Imperial24
  0
DICTIONARYVAR
  5
3234
102
{ACAD_REACTORS
330
102
102
}
330
102
100
DictionaryVariables
280
     0
  1
Imperial24
  0
DICTIONARYVAR
  5
103
102
{ACAD_REACTORS
330
102
102
}
330
102
100
DictionaryVariables
280
     0
  1
1
  0
DICTIONARYVAR
  5
1F6B
102
{ACAD_REACTORS
330
102
102
}
330
102
100
DictionaryVariables
280
     0
  1
0
  0
DICTIONARYVAR
  5
38EF
102
{ACAD_REACTORS
330
102
102
}
330
102
100
DictionaryVariables
280
     0
  1
1
  0
DICTIONARYVAR
  5
38F0
102
{ACAD_REACTORS
330
102
102
}
330
102
100
DictionaryVariables
280
     0
  1
15
  0
DICTIONARYVAR
  5
38EE
102
{ACAD_REACTORS
330
102
102
}
330
102
100
DictionaryVariables
280
     0
  1
0
  0
DICTIONARYVAR
  5
38ED
102
{ACAD_REACTORS
330
102
102
}
330
102
100
DictionaryVariables
280
     0
  1
0
  0
DICTIONARYVAR
  5
1F6A
102
{ACAD_REACTORS
330
102
102
}
330
102
100
DictionaryVariables
280
     0
  1
127
  0
DICTIONARYVAR
  5
41D7
102
{ACAD_REACTORS
330
102
102
}
330
102
100
DictionaryVariables
280
     0
  1
2
  0
DICTIONARY
  5
422F
330
2911
100
AcDbDictionary
280
     1
281
     1
  3
ACAD_XREC_ROUNDTRIP
360
4230
  0
DICTIONARY
  5
4233
330
342F
100
AcDbDictionary
280
     1
281
     1
  3
ACAD_XREC_ROUNDTRIP
360
4234
  0
DICTIONARY
  5
41DB
330
60
100
AcDbDictionary
280
     1
281
     1
  3
ACAD_XREC_ROUNDTRIP
360
41DC
  0
DICTIONARY
  5
424D
330
41D3
100
AcDbDictionary
280
     1
281
     1
  3
ACAD_XREC_ROUNDTRIP
360
424E
  0
DICTIONARY
  5
1EC3
330
1EC2
100
AcDbDictionary
280
     1
281
     1
  3
ACAD_XREC_ROUNDTRIP
360
41DE
  3
BUMPTILE
360
1EC5
  3
DIFFUSETILE
360
1EC4
  3
OPACITYTILE
360
1EC8
  3
REFLECTIONTILE
360
1EC7
  3
REFRACTIONTILE
360
1EC9
  3
SPECULARTILE
360
1EC6
  0
DICTIONARY
  5
1EBB
330
1EBA
100
AcDbDictionary
280
     1
281
     1
  3
ACAD_XREC_ROUNDTRIP
360
41DD
  3
BUMPTILE
360
1EBD
  3
DIFFUSETILE
360
1EBC
  3
OPACITYTILE
360
1EC0
  3
REFLECTIONTILE
360
1EBF
  3
REFRACTIONTILE
360
1EC1
  3
SPECULARTILE
360
1EBE
  0
DICTIONARY
  5
1ECB
330
1ECA
100
AcDbDictionary
280
     1
281
     1
  3
ACAD_XREC_ROUNDTRIP
360
41DF
  3
BUMPTILE
360
1ECD
  3
DIFFUSETILE
360
1ECC
  3
OPACITYTILE
360
1ED0
  3
REFLECTIONTILE
360
1ECF
  3
REFRACTIONTILE
360
1ED1
  3
SPECULARTILE
360
1ECE
  0
DICTIONARY
  5
422D
330
290F
100
AcDbDictionary
280
     1
281
     1
  3
ACAD_XREC_ROUNDTRIP
360
422E
  0
DICTIONARY
  5
4231
330
342E
100
AcDbDictionary
280
     1
281
     1
  3
ACAD_XREC_ROUNDTRIP
360
4232
  0
DICTIONARY
  5
1F28
330
1EE5
100
AcDbDictionary
280
     1
281
     1
  3
ACAD_ROUNDTRIP_2008_TABLESTYLE_CELLSTYLEMAP
360
41D8
  3
ACAD_XREC_ROUNDTRIP
360
4200
  0
DICTIONARY
  5
41EA
330
1ED8
100
AcDbDictionary
280
     1
281
     1
  3
ACAD_XREC_ROUNDTRIP
360
41EB
  0
DICTIONARY
  5
41EE
330
1EDA
100
AcDbDictionary
280
     1
281
     1
  3
ACAD_XREC_ROUNDTRIP
360
41EF
  0
DICTIONARY
  5
41EC
330
1ED9
100
AcDbDictionary
280
     1
281
     1
  3
ACAD_XREC_ROUNDTRIP
360
41ED
  0
DICTIONARY
  5
41E8
330
1ED7
100
AcDbDictionary
280
     1
281
     1
  3
ACAD_XREC_ROUNDTRIP
360
41E9
  0
DICTIONARY
  5
41F6
330
1EDE
100
AcDbDictionary
280
     1
281
     1
  3
ACAD_XREC_ROUNDTRIP
360
41F7
  0
DICTIONARY
  5
41FE
330
1EE2
100
AcDbDictionary
280
     1
281
     1
  3
ACAD_XREC_ROUNDTRIP
360
41FF
  0
DICTIONARY
  5
41F0
330
1EDB
100
AcDbDictionary
280
     1
281
     1
  3
ACAD_XREC_ROUNDTRIP
360
41F1
  0
DICTIONARY
  5
41F4
330
1EDD
100
AcDbDictionary
280
     1
281
     1
  3
ACAD_XREC_ROUNDTRIP
360
41F5
  0
DICTIONARY
  5
4205
330
1F6F
100
AcDbDictionary
280
     1
281
     1
  3
ACAD_XREC_ROUNDTRIP
360
4206
  0
DICTIONARY
  5
41FC
330
1EE1
100
AcDbDictionary
280
     1
281
     1
  3
ACAD_XREC_ROUNDTRIP
360
41FD
  0
DICTIONARY
  5
41E0
330
1ED3
100
AcDbDictionary
280
     1
281
     1
  3
ACAD_XREC_ROUNDTRIP
360
41E1
  0
DICTIONARY
  5
41E2
330
1ED4
100
AcDbDictionary
280
     1
281
     1
  3
ACAD_XREC_ROUNDTRIP
360
41E3
  0
DICTIONARY
  5
41E4
330
1ED5
100
AcDbDictionary
280
     1
281
     1
  3
ACAD_XREC_ROUNDTRIP
360
41E5
  0
DICTIONARY
  5
41E6
330
1ED6
100
AcDbDictionary
280
     1
281
     1
  3
ACAD_XREC_ROUNDTRIP
360
41E7
  0
DICTIONARY
  5
4221
330
2908
100
AcDbDictionary
280
     1
281
     1
  3
ACAD_XREC_ROUNDTRIP
360
4222
  0
DICTIONARY
  5
4201
330
1F6D
100
AcDbDictionary
280
     1
281
     1
  3
ACAD_XREC_ROUNDTRIP
360
4202
  0
DICTIONARY
  5
41FA
330
1EE0
100
AcDbDictionary
280
     1
281
     1
  3
ACAD_XREC_ROUNDTRIP
360
41FB
  0
DICTIONARY
  5
4203
330
1F6E
100
AcDbDictionary
280
     1
281
     1
  3
ACAD_XREC_ROUNDTRIP
360
4204
  0
DICTIONARY
  5
41F2
330
1EDC
100
AcDbDictionary
280
     1
281
     1
  3
ACAD_XREC_ROUNDTRIP
360
41F3
  0
DICTIONARY
  5
422B
330
290D
100
AcDbDictionary
280
     1
281
     1
  3
ACAD_XREC_ROUNDTRIP
360
422C
  0
DICTIONARY
  5
4229
330
290C
100
AcDbDictionary
280
     1
281
     1
  3
ACAD_XREC_ROUNDTRIP
360
422A
  0
DICTIONARY
  5
4223
330
2909
100
AcDbDictionary
280
     1
281
     1
  3
ACAD_XREC_ROUNDTRIP
360
4224
  0
DICTIONARY
  5
4225
330
290A
100
AcDbDictionary
280
     1
281
     1
  3
ACAD_XREC_ROUNDTRIP
360
4226
  0
DICTIONARY
  5
41F8
330
1EDF
100
AcDbDictionary
280
     1
281
     1
  3
ACAD_XREC_ROUNDTRIP
360
41F9
  0
DICTIONARY
  5
421F
330
2907
100
AcDbDictionary
280
     1
281
     1
  3
ACAD_XREC_ROUNDTRIP
360
4220
  0
DICTIONARY
  5
4227
330
290B
100
AcDbDictionary
280
     1
281
     1
  3
ACAD_XREC_ROUNDTRIP
360
4228
  0
XRECORD
  5
4230
102
{ACAD_REACTORS
330
422F
102
}
330
422F
100
AcDbXrecord
280
     1
102
DISPLAYNAME
  1
Imperial24
102
FLAGS
 90
        0
  0
XRECORD
  5
4234
102
{ACAD_REACTORS
330
4233
102
}
330
4233
100
AcDbXrecord
280
     1
102
DISPLAYNAME
  1
Metric50
102
FLAGS
 90
        0
  0
XRECORD
  5
41DC
102
{ACAD_REACTORS
330
41DB
102
}
330
41DB
100
AcDbXrecord
280
     1
102
SHADEPLOT
 70
     0
102
SHADEPLOTRESLEVEL
 70
     2
102
SHADEPLOTCUSTOMDPI
 70
   300
  0
XRECORD
  5
424E
102
{ACAD_REACTORS
330
424D
102
}
330
424D
100
AcDbXrecord
280
     1
102
SHADEPLOT
 70
     0
102
SHADEPLOTRESLEVEL
 70
     2
102
SHADEPLOTCUSTOMDPI
 70
   300
  0
XRECORD
  5
41DE
102
{ACAD_REACTORS
330
1EC3
102
}
330
1EC3
100
AcDbXrecord
280
     1
102
MATERIAL
148
0.0
149
0.0
149
0.0
 93
        0
 94
      127
282
     0
 72
     0
 77
     0
171
     0
175
     0
179
     0
273
     0
  0
XRECORD
  5
1EC5
102
{ACAD_REACTORS
330
1EC3
102
}
330
1EC3
100
AcDbXrecord
280
     1
270
     1
271
     1
  0
XRECORD
  5
1EC4
102
{ACAD_REACTORS
330
1EC3
102
}
330
1EC3
100
AcDbXrecord
280
     1
270
     1
271
     1
  0
XRECORD
  5
1EC8
102
{ACAD_REACTORS
330
1EC3
102
}
330
1EC3
100
AcDbXrecord
280
     1
270
     1
271
     1
  0
XRECORD
  5
1EC7
102
{ACAD_REACTORS
330
1EC3
102
}
330
1EC3
100
AcDbXrecord
280
     1
270
     1
271
     1
  0
XRECORD
  5
1EC9
102
{ACAD_REACTORS
330
1EC3
102
}
330
1EC3
100
AcDbXrecord
280
     1
270
     1
271
     1
  0
XRECORD
  5
1EC6
102
{ACAD_REACTORS
330
1EC3
102
}
330
1EC3
100
AcDbXrecord
280
     1
270
     1
271
     1
  0
XRECORD
  5
41DD
102
{ACAD_REACTORS
330
1EBB
102
}
330
1EBB
100
AcDbXrecord
280
     1
102
MATERIAL
148
0.0
149
0.0
149
0.0
 93
        0
 94
      127
282
     0
 72
     0
 77
     0
171
     0
175
     0
179
     0
273
     0
  0
XRECORD
  5
1EBD
102
{ACAD_REACTORS
330
1EBB
102
}
330
1EBB
100
AcDbXrecord
280
     1
270
     1
271
     1
  0
XRECORD
  5
1EBC
102
{ACAD_REACTORS
330
1EBB
102
}
330
1EBB
100
AcDbXrecord
280
     1
270
     1
271
     1
  0
XRECORD
  5
1EC0
102
{ACAD_REACTORS
330
1EBB
102
}
330
1EBB
100
AcDbXrecord
280
     1
270
     1
271
     1
  0
XRECORD
  5
1EBF
102
{ACAD_REACTORS
330
1EBB
102
}
330
1EBB
100
AcDbXrecord
280
     1
270
     1
271
     1
  0
XRECORD
  5
1EC1
102
{ACAD_REACTORS
330
1EBB
102
}
330
1EBB
100
AcDbXrecord
280
     1
270
     1
271
     1
  0
XRECORD
  5
1EBE
102
{ACAD_REACTORS
330
1EBB
102
}
330
1EBB
100
AcDbXrecord
280
     1
270
     1
271
     1
  0
XRECORD
  5
41DF
102
{ACAD_REACTORS
330
1ECB
102
}
330
1ECB
100
AcDbXrecord
280
     1
102
MATERIAL
148
0.0
149
0.0
149
0.0
 93
        0
 94
      127
282
     0
 72
     0
 77
     0
171
     0
175
     0
179
     0
273
     0
  0
XRECORD
  5
1ECD
102
{ACAD_REACTORS
330
1ECB
102
}
330
1ECB
100
AcDbXrecord
280
     1
270
     1
271
     1
  0
XRECORD
  5
1ECC
102
{ACAD_REACTORS
330
1ECB
102
}
330
1ECB
100
AcDbXrecord
280
     1
270
     1
271
     1
  0
XRECORD
  5
1ED0
102
{ACAD_REACTORS
330
1ECB
102
}
330
1ECB
100
AcDbXrecord
280
     1
270
     1
271
     1
  0
XRECORD
  5
1ECF
102
{ACAD_REACTORS
330
1ECB
102
}
330
1ECB
100
AcDbXrecord
280
     1
270
     1
271
     1
  0
XRECORD
  5
1ED1
102
{ACAD_REACTORS
330
1ECB
102
}
330
1ECB
100
AcDbXrecord
280
     1
270
     1
271
     1
  0
XRECORD
  5
1ECE
102
{ACAD_REACTORS
330
1ECB
102
}
330
1ECB
100
AcDbXrecord
280
     1
270
     1
271
     1
  0
XRECORD
  5
422E
102
{ACAD_REACTORS
330
422D
102
}
330
422D
100
AcDbXrecord
280
     1
102
DISPLAYNAME
  1
Imperial24
102
FLAGS
 90
        0
  0
XRECORD
  5
4232
102
{ACAD_REACTORS
330
4231
102
}
330
4231
100
AcDbXrecord
280
     1
102
DISPLAYNAME
  1
Metric50
102
FLAGS
 90
        0
  0
CELLSTYLEMAP
  5
41D8
102
{ACAD_REACTORS
330
1F28
102
}
330
1F28
100
AcDbCellStyleMap
 90
        3
300
CELLSTYLE
  1
TABLEFORMAT_BEGIN
 90
        5
170
     1
 91
        0
 92
    32768
 62
   257
 93
        1
300
CONTENTFORMAT
  1
CONTENTFORMAT_BEGIN
 90
        0
 91
        0
 92
      512
 93
        0
300

 40
0.0
140
1.0
 94
        5
 62
     0
340
16
144
0.25
309
CONTENTFORMAT_END
171
     1
301
MARGIN
  1
CELLMARGIN_BEGIN
 40
0.06
 40
0.06
 40
0.06
 40
0.06
 40
0.18
 40
0.18
309
CELLMARGIN_END
 94
        6
 95
        1
302
GRIDFORMAT
  1
GRIDFORMAT_BEGIN
 90
        0
 91
        1
 62
     0
 92
       -2
340
0
 93
        0
 40
0.045
309
GRIDFORMAT_END
 95
        2
302
GRIDFORMAT
  1
GRIDFORMAT_BEGIN
 90
        0
 91
        1
 62
     0
 92
       -2
340
0
 93
        0
 40
0.045
309
GRIDFORMAT_END
 95
        4
302
GRIDFORMAT
  1
GRIDFORMAT_BEGIN
 90
        0
 91
        1
 62
     0
 92
       -2
340
0
 93
        0
 40
0.045
309
GRIDFORMAT_END
 95
        8
302
GRIDFORMAT
  1
GRIDFORMAT_BEGIN
 90
        0
 91
        1
 62
     0
 92
       -2
340
0
 93
        0
 40
0.045
309
GRIDFORMAT_END
 95
       16
302
GRIDFORMAT
  1
GRIDFORMAT_BEGIN
 90
        0
 91
        1
 62
     0
 92
       -2
340
0
 93
        0
 40
0.045
309
GRIDFORMAT_END
 95
       32
302
GRIDFORMAT
  1
GRIDFORMAT_BEGIN
 90
        0
 91
        1
 62
     0
 92
       -2
340
0
 93
        0
 40
0.045
309
GRIDFORMAT_END
309
TABLEFORMAT_END
  1
CELLSTYLE_BEGIN
 90
        1
 91
        1
300
_TITLE
309
CELLSTYLE_END
300
CELLSTYLE
  1
TABLEFORMAT_BEGIN
 90
        5
170
     1
 91
        0
 92
        0
 62
   257
 93
        1
300
CONTENTFORMAT
  1
CONTENTFORMAT_BEGIN
 90
        0
 91
        0
 92
      512
 93
        0
300

 40
0.0
140
1.0
 94
        5
 62
     0
340
16
144
0.18
309
CONTENTFORMAT_END
171
     1
301
MARGIN
  1
CELLMARGIN_BEGIN
 40
0.06
 40
0.06
 40
0.06
 40
0.06
 40
0.18
 40
0.18
309
CELLMARGIN_END
 94
        6
 95
        1
302
GRIDFORMAT
  1
GRIDFORMAT_BEGIN
 90
        0
 91
        1
 62
     0
 92
       -2
340
0
 93
        0
 40
0.045
309
GRIDFORMAT_END
 95
        2
302
GRIDFORMAT
  1
GRIDFORMAT_BEGIN
 90
        0
 91
        1
 62
     0
 92
       -2
340
0
 93
        0
 40
0.045
309
GRIDFORMAT_END
 95
        4
302
GRIDFORMAT
  1
GRIDFORMAT_BEGIN
 90
        0
 91
        1
 62
     0
 92
       -2
340
0
 93
        0
 40
0.045
309
GRIDFORMAT_END
 95
        8
302
GRIDFORMAT
  1
GRIDFORMAT_BEGIN
 90
        0
 91
        1
 62
     0
 92
       -2
340
0
 93
        0
 40
0.045
309
GRIDFORMAT_END
 95
       16
302
GRIDFORMAT
  1
GRIDFORMAT_BEGIN
 90
        0
 91
        1
 62
     0
 92
       -2
340
0
 93
        0
 40
0.045
309
GRIDFORMAT_END
 95
       32
302
GRIDFORMAT
  1
GRIDFORMAT_BEGIN
 90
        0
 91
        1
 62
     0
 92
       -2
340
0
 93
        0
 40
0.045
309
GRIDFORMAT_END
309
TABLEFORMAT_END
  1
CELLSTYLE_BEGIN
 90
        2
 91
        1
300
_HEADER
309
CELLSTYLE_END
300
CELLSTYLE
  1
TABLEFORMAT_BEGIN
 90
        5
170
     1
 91
        0
 92
        0
 62
   257
 93
        1
300
CONTENTFORMAT
  1
CONTENTFORMAT_BEGIN
 90
        0
 91
        0
 92
      512
 93
        0
300

 40
0.0
140
1.0
 94
        2
 62
     0
340
16
144
0.18
309
CONTENTFORMAT_END
171
     1
301
MARGIN
  1
CELLMARGIN_BEGIN
 40
0.06
 40
0.06
 40
0.06
 40
0.06
 40
0.18
 40
0.18
309
CELLMARGIN_END
 94
        6
 95
        1
302
GRIDFORMAT
  1
GRIDFORMAT_BEGIN
 90
        0
 91
        1
 62
     0
 92
       -2
340
0
 93
        0
 40
0.045
309
GRIDFORMAT_END
 95
        2
302
GRIDFORMAT
  1
GRIDFORMAT_BEGIN
 90
        0
 91
        1
 62
     0
 92
       -2
340
0
 93
        0
 40
0.045
309
GRIDFORMAT_END
 95
        4
302
GRIDFORMAT
  1
GRIDFORMAT_BEGIN
 90
        0
 91
        1
 62
     0
 92
       -2
340
0
 93
        0
 40
0.045
309
GRIDFORMAT_END
 95
        8
302
GRIDFORMAT
  1
GRIDFORMAT_BEGIN
 90
        0
 91
        1
 62
     0
 92
       -2
340
0
 93
        0
 40
0.045
309
GRIDFORMAT_END
 95
       16
302
GRIDFORMAT
  1
GRIDFORMAT_BEGIN
 90
        0
 91
        1
 62
     0
 92
       -2
340
0
 93
        0
 40
0.045
309
GRIDFORMAT_END
 95
       32
302
GRIDFORMAT
  1
GRIDFORMAT_BEGIN
 90
        0
 91
        1
 62
     0
 92
       -2
340
0
 93
        0
 40
0.045
309
GRIDFORMAT_END
309
TABLEFORMAT_END
  1
CELLSTYLE_BEGIN
 90
        3
 91
        2
300
_DATA
309
CELLSTYLE_END
  0
XRECORD
  5
4200
102
{ACAD_REACTORS
330
1F28
102
}
330
1F28
100
AcDbXrecord
280
     1
102
ACAD_ROUNDTRIP_PRE2007_TABLESTYLE
 90
      512
 91
        0
  1

 92
      512
 93
        0
  2

 94
      512
 95
        0
  3

  0
XRECORD
  5
41EB
102
{ACAD_REACTORS
330
41EA
102
}
330
41EA
100
AcDbXrecord
280
     1
102
RTVSPost2010Prop28
280
     1
102
RTVSPost2010PropOp28
 70
     1
102
RTVSPost2010Prop29
280
     1
102
RTVSPost2010PropOp29
 70
     1
102
RTVSPost2010Prop30
280
     0
102
RTVSPost2010PropOp30
 70
     1
102
RTVSPost2010Prop31
280
     0
102
RTVSPost2010PropOp31
 70
     1
102
RTVSPost2010Prop32
280
     0
102
RTVSPost2010PropOp32
 70
     1
102
RTVSPost2010Prop33
280
     0
102
RTVSPost2010PropOp33
 70
     1
102
RTVSPost2010Prop34
280
     0
102
RTVSPost2010PropOp34
 70
     1
102
RTVSPost2010Prop35
280
     0
102
RTVSPost2010PropOp35
 70
     1
102
RTVSPost2010Prop36
280
     0
102
RTVSPost2010PropOp36
 70
     1
102
RTVSPost2010Prop37
 90
       50
102
RTVSPost2010PropOp37
 70
     1
102
RTVSPost2010Prop38
140
0.0
102
RTVSPost2010PropOp38
 70
     1
102
RTVSPost2010Prop39
140
1.0
102
RTVSPost2010PropOp39
 70
     1
102
RTVSPost2010Prop40
 90
        0
102
RTVSPost2010PropOp40
 70
     1
102
RTVSPost2010Prop41ColorIndex
 90
       18
102
RTVSPost2010Prop41ColorRGB
 90
        0
102
RTVSPost2010PropOp41
 70
     1
102
RTVSPost2010Prop42
 90
       50
102
RTVSPost2010PropOp42
 70
     1
102
RTVSPost2010Prop43
 90
        3
102
RTVSPost2010PropOp43
 70
     1
102
RTVSPost2010Prop44ColorIndex
 90
        5
102
RTVSPost2010Prop44ColorRGB
 90
      255
102
RTVSPost2010PropOp44
 70
     1
102
RTVSPost2010Prop45
280
     0
102
RTVSPost2010PropOp45
 70
     1
102
RTVSPost2010Prop46
 90
       50
102
RTVSPost2010PropOp46
 70
     1
102
RTVSPost2010Prop47
 90
       50
102
RTVSPost2010PropOp47
 70
     1
102
RTVSPost2010Prop48
 90
       50
102
RTVSPost2010PropOp48
 70
     1
102
RTVSPost2010Prop49
280
     0
102
RTVSPost2010PropOp49
 70
     1
102
RTVSPost2010Prop50
 90
       50
102
RTVSPost2010PropOp50
 70
     1
102
RTVSPost2010Prop51ColorIndex
 90
      256
102
RTVSPost2010Prop51ColorRGB
 90
-16777216
102
RTVSPost2010PropOp51
 70
     0
102
RTVSPost2010Prop52
140
1.0
102
RTVSPost2010PropOp52
 70
     0
102
RTVSPost2010Prop53
 90
        2
102
RTVSPost2010PropOp53
 70
     1
102
RTVSPost2010Prop54
  1
strokes_ogs.tif
102
RTVSPost2010PropOp54
 70
     1
102
RTVSPost2010Prop55
280
     0
102
RTVSPost2010PropOp55
 70
     1
102
RTVSPost2010Prop56
140
1.0
102
RTVSPost2010PropOp56
 70
     1
102
RTVSPost2010Prop57
140
1.0
102
RTVSPost2010PropOp57
 70
     1
102
RTVSPropertyOp0
 70
     1
102
RTVSPropertyOp1
 70
     1
102
RTVSPropertyOp2
 70
     1
102
RTVSPropertyOp3
 70
     1
102
RTVSPropertyOp4
 70
     1
102
RTVSPropertyOp5
 70
     1
102
RTVSPropertyOp6
 70
     1
102
RTVSPropertyOp7
 70
     1
102
RTVSPropertyOp8
 70
     1
102
RTVSPropertyOp9
 70
     1
102
RTVSPropertyOp10
 70
     1
102
RTVSPropertyOp11
 70
     1
102
RTVSPropertyOp12
 70
     1
102
RTVSPropertyOp13
 70
     1
102
RTVSPropertyOp14
 70
     1
102
RTVSPropertyOp15
 70
     1
102
RTVSPropertyOp16
 70
     1
102
RTVSPropertyOp17
 70
     1
102
RTVSPropertyOp18
 70
     1
102
RTVSPropertyOp19
 70
     1
102
RTVSPropertyOp20
 70
     1
102
RTVSPropertyOp21
 70
     1
102
RTVSPropertyOp22
 70
     1
102
RTVSPropertyOp23
 70
     1
102
RTVSPropertyOp24
 70
     1
102
RTVSPropertyOp25
 70
     1
102
RTVSPropertyOp26
 70
     1
102
RTVSPropertyOp27
 70
     1
102
RTVSPropertyOp28
 70
     1
102
RTVSPropertyOp29
 70
     1
102
RTVSPropertyOp30
 70
     1
102
RTVSPropertyOp31
 70
     1
102
RTVSPropertyOp32
 70
     1
102
RTVSPropertyOp33
 70
     1
102
RTVSPropertyOp34
 70
     1
102
RTVSPropertyOp35
 70
     1
102
RTVSPropertyOp36
 70
     1
102
RTVSPropertyOp37
 70
     1
102
RTVSPropertyOp38
 70
     1
102
RTVSPropertyOp39
 70
     1
102
RTVSPropertyOp40
 70
     1
102
RTVSPropertyOp41
 70
     1
102
RTVSPropertyOp42
 70
     1
102
RTVSPropertyOp43
 70
     1
102
RTVSPropertyOp44
 70
     1
102
RTVSPropertyOp45
 70
     1
102
RTVSPropertyOp46
 70
     1
102
RTVSPropertyOp47
 70
     1
102
RTVSPropertyOp48
 70
     1
102
RTVSPropertyOp49
 70
     1
102
RTVSPropertyOp50
 70
     1
102
RTVSPropertyOp51
 70
     0
102
RTVSPropertyOp52
 70
     0
102
RTVSPropertyOp53
 70
     1
102
RTVSPropertyOp54
 70
     1
102
RTVSPropertyOp55
 70
     1
102
RTVSPropertyOp56
 70
     1
102
RTVSPropertyOp57
 70
     1
102
RTVSPropertyOp58
 70
     1
102
RTVSPropertyOp59
 70
     1
102
RTVSPropertyOp60
 70
     1
102
RTVSPropertyOp61
 70
     1
102
RTVSPropertyOp62
 70
     1
  0
XRECORD
  5
41EF
102
{ACAD_REACTORS
330
41EE
102
}
330
41EE
100
AcDbXrecord
280
     1
102
RTVSPost2010Prop28
280
     0
102
RTVSPost2010PropOp28
 70
     1
102
RTVSPost2010Prop29
280
     1
102
RTVSPost2010PropOp29
 70
     1
102
RTVSPost2010Prop30
280
     1
102
RTVSPost2010PropOp30
 70
     1
102
RTVSPost2010Prop31
280
     0
102
RTVSPost2010PropOp31
 70
     1
102
RTVSPost2010Prop32
280
     0
102
RTVSPost2010PropOp32
 70
     1
102
RTVSPost2010Prop33
280
     0
102
RTVSPost2010PropOp33
 70
     1
102
RTVSPost2010Prop34
280
     0
102
RTVSPost2010PropOp34
 70
     1
102
RTVSPost2010Prop35
280
     0
102
RTVSPost2010PropOp35
 70
     1
102
RTVSPost2010Prop36
280
     0
102
RTVSPost2010PropOp36
 70
     1
102
RTVSPost2010Prop37
 90
       50
102
RTVSPost2010PropOp37
 70
     1
102
RTVSPost2010Prop38
140
0.0
102
RTVSPost2010PropOp38
 70
     1
102
RTVSPost2010Prop39
140
1.0
102
RTVSPost2010PropOp39
 70
     1
102
RTVSPost2010Prop40
 90
        0
102
RTVSPost2010PropOp40
 70
     1
102
RTVSPost2010Prop41ColorIndex
 90
       18
102
RTVSPost2010Prop41ColorRGB
 90
        0
102
RTVSPost2010PropOp41
 70
     1
102
RTVSPost2010Prop42
 90
       50
102
RTVSPost2010PropOp42
 70
     1
102
RTVSPost2010Prop43
 90
        3
102
RTVSPost2010PropOp43
 70
     1
102
RTVSPost2010Prop44ColorIndex
 90
        5
102
RTVSPost2010Prop44ColorRGB
 90
      255
102
RTVSPost2010PropOp44
 70
     1
102
RTVSPost2010Prop45
280
     0
102
RTVSPost2010PropOp45
 70
     1
102
RTVSPost2010Prop46
 90
       50
102
RTVSPost2010PropOp46
 70
     1
102
RTVSPost2010Prop47
 90
       50
102
RTVSPost2010PropOp47
 70
     1
102
RTVSPost2010Prop48
 90
       50
102
RTVSPost2010PropOp48
 70
     1
102
RTVSPost2010Prop49
280
     0
102
RTVSPost2010PropOp49
 70
     1
102
RTVSPost2010Prop50
 90
       50
102
RTVSPost2010PropOp50
 70
     1
102
RTVSPost2010Prop51ColorIndex
 90
      256
102
RTVSPost2010Prop51ColorRGB
 90
-16777216
102
RTVSPost2010PropOp51
 70
     0
102
RTVSPost2010Prop52
140
1.0
102
RTVSPost2010PropOp52
 70
     0
102
RTVSPost2010Prop53
 90
        2
102
RTVSPost2010PropOp53
 70
     1
102
RTVSPost2010Prop54
  1
strokes_ogs.tif
102
RTVSPost2010PropOp54
 70
     1
102
RTVSPost2010Prop55
280
     0
102
RTVSPost2010PropOp55
 70
     1
102
RTVSPost2010Prop56
140
1.0
102
RTVSPost2010PropOp56
 70
     1
102
RTVSPost2010Prop57
140
1.0
102
RTVSPost2010PropOp57
 70
     1
102
RTVSPropertyOp0
 70
     1
102
RTVSPropertyOp1
 70
     1
102
RTVSPropertyOp2
 70
     1
102
RTVSPropertyOp3
 70
     1
102
RTVSPropertyOp4
 70
     1
102
RTVSPropertyOp5
 70
     1
102
RTVSPropertyOp6
 70
     1
102
RTVSPropertyOp7
 70
     1
102
RTVSPropertyOp8
 70
     1
102
RTVSPropertyOp9
 70
     1
102
RTVSPropertyOp10
 70
     1
102
RTVSPropertyOp11
 70
     1
102
RTVSPropertyOp12
 70
     1
102
RTVSPropertyOp13
 70
     1
102
RTVSPropertyOp14
 70
     1
102
RTVSPropertyOp15
 70
     1
102
RTVSPropertyOp16
 70
     1
102
RTVSPropertyOp17
 70
     1
102
RTVSPropertyOp18
 70
     1
102
RTVSPropertyOp19
 70
     1
102
RTVSPropertyOp20
 70
     1
102
RTVSPropertyOp21
 70
     1
102
RTVSPropertyOp22
 70
     1
102
RTVSPropertyOp23
 70
     1
102
RTVSPropertyOp24
 70
     1
102
RTVSPropertyOp25
 70
     1
102
RTVSPropertyOp26
 70
     1
102
RTVSPropertyOp27
 70
     1
102
RTVSPropertyOp28
 70
     1
102
RTVSPropertyOp29
 70
     1
102
RTVSPropertyOp30
 70
     1
102
RTVSPropertyOp31
 70
     1
102
RTVSPropertyOp32
 70
     1
102
RTVSPropertyOp33
 70
     1
102
RTVSPropertyOp34
 70
     1
102
RTVSPropertyOp35
 70
     1
102
RTVSPropertyOp36
 70
     1
102
RTVSPropertyOp37
 70
     1
102
RTVSPropertyOp38
 70
     1
102
RTVSPropertyOp39
 70
     1
102
RTVSPropertyOp40
 70
     1
102
RTVSPropertyOp41
 70
     1
102
RTVSPropertyOp42
 70
     1
102
RTVSPropertyOp43
 70
     1
102
RTVSPropertyOp44
 70
     1
102
RTVSPropertyOp45
 70
     1
102
RTVSPropertyOp46
 70
     1
102
RTVSPropertyOp47
 70
     1
102
RTVSPropertyOp48
 70
     1
102
RTVSPropertyOp49
 70
     1
102
RTVSPropertyOp50
 70
     1
102
RTVSPropertyOp51
 70
     0
102
RTVSPropertyOp52
 70
     0
102
RTVSPropertyOp53
 70
     1
102
RTVSPropertyOp54
 70
     1
102
RTVSPropertyOp55
 70
     1
102
RTVSPropertyOp56
 70
     1
102
RTVSPropertyOp57
 70
     1
102
RTVSPropertyOp58
 70
     1
102
RTVSPropertyOp59
 70
     1
102
RTVSPropertyOp60
 70
     1
102
RTVSPropertyOp61
 70
     1
102
RTVSPropertyOp62
 70
     1
  0
XRECORD
  5
41ED
102
{ACAD_REACTORS
330
41EC
102
}
330
41EC
100
AcDbXrecord
280
     1
102
RTVSPost2010Prop28
280
     0
102
RTVSPost2010PropOp28
 70
     1
102
RTVSPost2010Prop29
280
     1
102
RTVSPost2010PropOp29
 70
     1
102
RTVSPost2010Prop30
280
     1
102
RTVSPost2010PropOp30
 70
     1
102
RTVSPost2010Prop31
280
     0
102
RTVSPost2010PropOp31
 70
     1
102
RTVSPost2010Prop32
280
     0
102
RTVSPost2010PropOp32
 70
     1
102
RTVSPost2010Prop33
280
     0
102
RTVSPost2010PropOp33
 70
     1
102
RTVSPost2010Prop34
280
     0
102
RTVSPost2010PropOp34
 70
     1
102
RTVSPost2010Prop35
280
     0
102
RTVSPost2010PropOp35
 70
     1
102
RTVSPost2010Prop36
280
     0
102
RTVSPost2010PropOp36
 70
     1
102
RTVSPost2010Prop37
 90
       50
102
RTVSPost2010PropOp37
 70
     1
102
RTVSPost2010Prop38
140
0.0
102
RTVSPost2010PropOp38
 70
     1
102
RTVSPost2010Prop39
140
1.0
102
RTVSPost2010PropOp39
 70
     1
102
RTVSPost2010Prop40
 90
        0
102
RTVSPost2010PropOp40
 70
     1
102
RTVSPost2010Prop41ColorIndex
 90
       18
102
RTVSPost2010Prop41ColorRGB
 90
        0
102
RTVSPost2010PropOp41
 70
     1
102
RTVSPost2010Prop42
 90
       50
102
RTVSPost2010PropOp42
 70
     1
102
RTVSPost2010Prop43
 90
        3
102
RTVSPost2010PropOp43
 70
     1
102
RTVSPost2010Prop44ColorIndex
 90
        5
102
RTVSPost2010Prop44ColorRGB
 90
      255
102
RTVSPost2010PropOp44
 70
     1
102
RTVSPost2010Prop45
280
     0
102
RTVSPost2010PropOp45
 70
     1
102
RTVSPost2010Prop46
 90
       50
102
RTVSPost2010PropOp46
 70
     1
102
RTVSPost2010Prop47
 90
       50
102
RTVSPost2010PropOp47
 70
     1
102
RTVSPost2010Prop48
 90
       50
102
RTVSPost2010PropOp48
 70
     1
102
RTVSPost2010Prop49
280
     0
102
RTVSPost2010PropOp49
 70
     1
102
RTVSPost2010Prop50
 90
       50
102
RTVSPost2010PropOp50
 70
     1
102
RTVSPost2010Prop51ColorIndex
 90
      256
102
RTVSPost2010Prop51ColorRGB
 90
-16777216
102
RTVSPost2010PropOp51
 70
     0
102
RTVSPost2010Prop52
140
1.0
102
RTVSPost2010PropOp52
 70
     0
102
RTVSPost2010Prop53
 90
        2
102
RTVSPost2010PropOp53
 70
     1
102
RTVSPost2010Prop54
  1
strokes_ogs.tif
102
RTVSPost2010PropOp54
 70
     1
102
RTVSPost2010Prop55
280
     0
102
RTVSPost2010PropOp55
 70
     1
102
RTVSPost2010Prop56
140
1.0
102
RTVSPost2010PropOp56
 70
     1
102
RTVSPost2010Prop57
140
1.0
102
RTVSPost2010PropOp57
 70
     1
102
RTVSPropertyOp0
 70
     1
102
RTVSPropertyOp1
 70
     1
102
RTVSPropertyOp2
 70
     1
102
RTVSPropertyOp3
 70
     1
102
RTVSPropertyOp4
 70
     1
102
RTVSPropertyOp5
 70
     1
102
RTVSPropertyOp6
 70
     1
102
RTVSPropertyOp7
 70
     1
102
RTVSPropertyOp8
 70
     1
102
RTVSPropertyOp9
 70
     1
102
RTVSPropertyOp10
 70
     1
102
RTVSPropertyOp11
 70
     1
102
RTVSPropertyOp12
 70
     1
102
RTVSPropertyOp13
 70
     1
102
RTVSPropertyOp14
 70
     1
102
RTVSPropertyOp15
 70
     1
102
RTVSPropertyOp16
 70
     1
102
RTVSPropertyOp17
 70
     1
102
RTVSPropertyOp18
 70
     1
102
RTVSPropertyOp19
 70
     1
102
RTVSPropertyOp20
 70
     1
102
RTVSPropertyOp21
 70
     1
102
RTVSPropertyOp22
 70
     1
102
RTVSPropertyOp23
 70
     1
102
RTVSPropertyOp24
 70
     1
102
RTVSPropertyOp25
 70
     1
102
RTVSPropertyOp26
 70
     1
102
RTVSPropertyOp27
 70
     1
102
RTVSPropertyOp28
 70
     1
102
RTVSPropertyOp29
 70
     1
102
RTVSPropertyOp30
 70
     1
102
RTVSPropertyOp31
 70
     1
102
RTVSPropertyOp32
 70
     1
102
RTVSPropertyOp33
 70
     1
102
RTVSPropertyOp34
 70
     1
102
RTVSPropertyOp35
 70
     1
102
RTVSPropertyOp36
 70
     1
102
RTVSPropertyOp37
 70
     1
102
RTVSPropertyOp38
 70
     1
102
RTVSPropertyOp39
 70
     1
102
RTVSPropertyOp40
 70
     1
102
RTVSPropertyOp41
 70
     1
102
RTVSPropertyOp42
 70
     1
102
RTVSPropertyOp43
 70
     1
102
RTVSPropertyOp44
 70
     1
102
RTVSPropertyOp45
 70
     1
102
RTVSPropertyOp46
 70
     1
102
RTVSPropertyOp47
 70
     1
102
RTVSPropertyOp48
 70
     1
102
RTVSPropertyOp49
 70
     1
102
RTVSPropertyOp50
 70
     1
102
RTVSPropertyOp51
 70
     0
102
RTVSPropertyOp52
 70
     0
102
RTVSPropertyOp53
 70
     1
102
RTVSPropertyOp54
 70
     1
102
RTVSPropertyOp55
 70
     1
102
RTVSPropertyOp56
 70
     1
102
RTVSPropertyOp57
 70
     1
102
RTVSPropertyOp58
 70
     1
102
RTVSPropertyOp59
 70
     1
102
RTVSPropertyOp60
 70
     1
102
RTVSPropertyOp61
 70
     1
102
RTVSPropertyOp62
 70
     1
  0
XRECORD
  5
41E9
102
{ACAD_REACTORS
330
41E8
102
}
330
41E8
100
AcDbXrecord
280
     1
102
RTVSPost2010Prop28
280
     0
102
RTVSPost2010PropOp28
 70
     1
102
RTVSPost2010Prop29
280
     1
102
RTVSPost2010PropOp29
 70
     1
102
RTVSPost2010Prop30
280
     1
102
RTVSPost2010PropOp30
 70
     1
102
RTVSPost2010Prop31
280
     0
102
RTVSPost2010PropOp31
 70
     1
102
RTVSPost2010Prop32
280
     0
102
RTVSPost2010PropOp32
 70
     1
102
RTVSPost2010Prop33
280
     0
102
RTVSPost2010PropOp33
 70
     1
102
RTVSPost2010Prop34
280
     0
102
RTVSPost2010PropOp34
 70
     1
102
RTVSPost2010Prop35
280
     0
102
RTVSPost2010PropOp35
 70
     1
102
RTVSPost2010Prop36
280
     0
102
RTVSPost2010PropOp36
 70
     1
102
RTVSPost2010Prop37
 90
       50
102
RTVSPost2010PropOp37
 70
     1
102
RTVSPost2010Prop38
140
0.0
102
RTVSPost2010PropOp38
 70
     1
102
RTVSPost2010Prop39
140
1.0
102
RTVSPost2010PropOp39
 70
     1
102
RTVSPost2010Prop40
 90
        0
102
RTVSPost2010PropOp40
 70
     1
102
RTVSPost2010Prop41ColorIndex
 90
       18
102
RTVSPost2010Prop41ColorRGB
 90
        0
102
RTVSPost2010PropOp41
 70
     1
102
RTVSPost2010Prop42
 90
       50
102
RTVSPost2010PropOp42
 70
     1
102
RTVSPost2010Prop43
 90
        3
102
RTVSPost2010PropOp43
 70
     1
102
RTVSPost2010Prop44ColorIndex
 90
        5
102
RTVSPost2010Prop44ColorRGB
 90
      255
102
RTVSPost2010PropOp44
 70
     1
102
RTVSPost2010Prop45
280
     0
102
RTVSPost2010PropOp45
 70
     1
102
RTVSPost2010Prop46
 90
       50
102
RTVSPost2010PropOp46
 70
     1
102
RTVSPost2010Prop47
 90
       50
102
RTVSPost2010PropOp47
 70
     1
102
RTVSPost2010Prop48
 90
       50
102
RTVSPost2010PropOp48
 70
     1
102
RTVSPost2010Prop49
280
     0
102
RTVSPost2010PropOp49
 70
     1
102
RTVSPost2010Prop50
 90
       50
102
RTVSPost2010PropOp50
 70
     1
102
RTVSPost2010Prop51ColorIndex
 90
      256
102
RTVSPost2010Prop51ColorRGB
 90
-16777216
102
RTVSPost2010PropOp51
 70
     0
102
RTVSPost2010Prop52
140
1.0
102
RTVSPost2010PropOp52
 70
     0
102
RTVSPost2010Prop53
 90
        2
102
RTVSPost2010PropOp53
 70
     1
102
RTVSPost2010Prop54
  1
strokes_ogs.tif
102
RTVSPost2010PropOp54
 70
     1
102
RTVSPost2010Prop55
280
     0
102
RTVSPost2010PropOp55
 70
     1
102
RTVSPost2010Prop56
140
1.0
102
RTVSPost2010PropOp56
 70
     1
102
RTVSPost2010Prop57
140
1.0
102
RTVSPost2010PropOp57
 70
     1
102
RTVSPropertyOp0
 70
     1
102
RTVSPropertyOp1
 70
     1
102
RTVSPropertyOp2
 70
     1
102
RTVSPropertyOp3
 70
     1
102
RTVSPropertyOp4
 70
     1
102
RTVSPropertyOp5
 70
     1
102
RTVSPropertyOp6
 70
     1
102
RTVSPropertyOp7
 70
     1
102
RTVSPropertyOp8
 70
     1
102
RTVSPropertyOp9
 70
     1
102
RTVSPropertyOp10
 70
     1
102
RTVSPropertyOp11
 70
     1
102
RTVSPropertyOp12
 70
     1
102
RTVSPropertyOp13
 70
     1
102
RTVSPropertyOp14
 70
     1
102
RTVSPropertyOp15
 70
     1
102
RTVSPropertyOp16
 70
     1
102
RTVSPropertyOp17
 70
     1
102
RTVSPropertyOp18
 70
     1
102
RTVSPropertyOp19
 70
     1
102
RTVSPropertyOp20
 70
     1
102
RTVSPropertyOp21
 70
     1
102
RTVSPropertyOp22
 70
     1
102
RTVSPropertyOp23
 70
     1
102
RTVSPropertyOp24
 70
     1
102
RTVSPropertyOp25
 70
     1
102
RTVSPropertyOp26
 70
     1
102
RTVSPropertyOp27
 70
     1
102
RTVSPropertyOp28
 70
     1
102
RTVSPropertyOp29
 70
     1
102
RTVSPropertyOp30
 70
     1
102
RTVSPropertyOp31
 70
     1
102
RTVSPropertyOp32
 70
     1
102
RTVSPropertyOp33
 70
     1
102
RTVSPropertyOp34
 70
     1
102
RTVSPropertyOp35
 70
     1
102
RTVSPropertyOp36
 70
     1
102
RTVSPropertyOp37
 70
     1
102
RTVSPropertyOp38
 70
     1
102
RTVSPropertyOp39
 70
     1
102
RTVSPropertyOp40
 70
     1
102
RTVSPropertyOp41
 70
     1
102
RTVSPropertyOp42
 70
     1
102
RTVSPropertyOp43
 70
     1
102
RTVSPropertyOp44
 70
     1
102
RTVSPropertyOp45
 70
     1
102
RTVSPropertyOp46
 70
     1
102
RTVSPropertyOp47
 70
     1
102
RTVSPropertyOp48
 70
     1
102
RTVSPropertyOp49
 70
     1
102
RTVSPropertyOp50
 70
     1
102
RTVSPropertyOp51
 70
     0
102
RTVSPropertyOp52
 70
     0
102
RTVSPropertyOp53
 70
     1
102
RTVSPropertyOp54
 70
     1
102
RTVSPropertyOp55
 70
     1
102
RTVSPropertyOp56
 70
     1
102
RTVSPropertyOp57
 70
     1
102
RTVSPropertyOp58
 70
     1
102
RTVSPropertyOp59
 70
     1
102
RTVSPropertyOp60
 70
     1
102
RTVSPropertyOp61
 70
     1
102
RTVSPropertyOp62
 70
     1
  0
XRECORD
  5
41F7
102
{ACAD_REACTORS
330
41F6
102
}
330
41F6
100
AcDbXrecord
280
     1
102
RTVSPost2010Prop28
280
     0
102
RTVSPost2010PropOp28
 70
     1
102
RTVSPost2010Prop29
280
     1
102
RTVSPost2010PropOp29
 70
     1
102
RTVSPost2010Prop30
280
     1
102
RTVSPost2010PropOp30
 70
     1
102
RTVSPost2010Prop31
280
     0
102
RTVSPost2010PropOp31
 70
     1
102
RTVSPost2010Prop32
280
     0
102
RTVSPost2010PropOp32
 70
     1
102
RTVSPost2010Prop33
280
     0
102
RTVSPost2010PropOp33
 70
     1
102
RTVSPost2010Prop34
280
     0
102
RTVSPost2010PropOp34
 70
     1
102
RTVSPost2010Prop35
280
     0
102
RTVSPost2010PropOp35
 70
     1
102
RTVSPost2010Prop36
280
     0
102
RTVSPost2010PropOp36
 70
     1
102
RTVSPost2010Prop37
 90
       50
102
RTVSPost2010PropOp37
 70
     1
102
RTVSPost2010Prop38
140
0.0
102
RTVSPost2010PropOp38
 70
     1
102
RTVSPost2010Prop39
140
1.0
102
RTVSPost2010PropOp39
 70
     1
102
RTVSPost2010Prop40
 90
        0
102
RTVSPost2010PropOp40
 70
     1
102
RTVSPost2010Prop41ColorIndex
 90
       18
102
RTVSPost2010Prop41ColorRGB
 90
        0
102
RTVSPost2010PropOp41
 70
     1
102
RTVSPost2010Prop42
 90
       50
102
RTVSPost2010PropOp42
 70
     1
102
RTVSPost2010Prop43
 90
        3
102
RTVSPost2010PropOp43
 70
     1
102
RTVSPost2010Prop44ColorIndex
 90
        5
102
RTVSPost2010Prop44ColorRGB
 90
      255
102
RTVSPost2010PropOp44
 70
     1
102
RTVSPost2010Prop45
280
     0
102
RTVSPost2010PropOp45
 70
     1
102
RTVSPost2010Prop46
 90
       50
102
RTVSPost2010PropOp46
 70
     1
102
RTVSPost2010Prop47
 90
       50
102
RTVSPost2010PropOp47
 70
     1
102
RTVSPost2010Prop48
 90
       50
102
RTVSPost2010PropOp48
 70
     1
102
RTVSPost2010Prop49
280
     0
102
RTVSPost2010PropOp49
 70
     1
102
RTVSPost2010Prop50
 90
       50
102
RTVSPost2010PropOp50
 70
     1
102
RTVSPost2010Prop51ColorIndex
 90
      256
102
RTVSPost2010Prop51ColorRGB
 90
-16777216
102
RTVSPost2010PropOp51
 70
     0
102
RTVSPost2010Prop52
140
1.0
102
RTVSPost2010PropOp52
 70
     0
102
RTVSPost2010Prop53
 90
        2
102
RTVSPost2010PropOp53
 70
     1
102
RTVSPost2010Prop54
  1
strokes_ogs.tif
102
RTVSPost2010PropOp54
 70
     1
102
RTVSPost2010Prop55
280
     0
102
RTVSPost2010PropOp55
 70
     1
102
RTVSPost2010Prop56
140
1.0
102
RTVSPost2010PropOp56
 70
     1
102
RTVSPost2010Prop57
140
1.0
102
RTVSPost2010PropOp57
 70
     1
102
RTVSPropertyOp0
 70
     1
102
RTVSPropertyOp1
 70
     1
102
RTVSPropertyOp2
 70
     1
102
RTVSPropertyOp3
 70
     1
102
RTVSPropertyOp4
 70
     1
102
RTVSPropertyOp5
 70
     1
102
RTVSPropertyOp6
 70
     1
102
RTVSPropertyOp7
 70
     1
102
RTVSPropertyOp8
 70
     1
102
RTVSPropertyOp9
 70
     1
102
RTVSPropertyOp10
 70
     1
102
RTVSPropertyOp11
 70
     1
102
RTVSPropertyOp12
 70
     1
102
RTVSPropertyOp13
 70
     1
102
RTVSPropertyOp14
 70
     1
102
RTVSPropertyOp15
 70
     1
102
RTVSPropertyOp16
 70
     1
102
RTVSPropertyOp17
 70
     1
102
RTVSPropertyOp18
 70
     1
102
RTVSPropertyOp19
 70
     1
102
RTVSPropertyOp20
 70
     1
102
RTVSPropertyOp21
 70
     1
102
RTVSPropertyOp22
 70
     1
102
RTVSPropertyOp23
 70
     1
102
RTVSPropertyOp24
 70
     1
102
RTVSPropertyOp25
 70
     1
102
RTVSPropertyOp26
 70
     1
102
RTVSPropertyOp27
 70
     1
102
RTVSPropertyOp28
 70
     1
102
RTVSPropertyOp29
 70
     1
102
RTVSPropertyOp30
 70
     1
102
RTVSPropertyOp31
 70
     1
102
RTVSPropertyOp32
 70
     1
102
RTVSPropertyOp33
 70
     1
102
RTVSPropertyOp34
 70
     1
102
RTVSPropertyOp35
 70
     1
102
RTVSPropertyOp36
 70
     1
102
RTVSPropertyOp37
 70
     1
102
RTVSPropertyOp38
 70
     1
102
RTVSPropertyOp39
 70
     1
102
RTVSPropertyOp40
 70
     1
102
RTVSPropertyOp41
 70
     1
102
RTVSPropertyOp42
 70
     1
102
RTVSPropertyOp43
 70
     1
102
RTVSPropertyOp44
 70
     1
102
RTVSPropertyOp45
 70
     1
102
RTVSPropertyOp46
 70
     1
102
RTVSPropertyOp47
 70
     1
102
RTVSPropertyOp48
 70
     1
102
RTVSPropertyOp49
 70
     1
102
RTVSPropertyOp50
 70
     1
102
RTVSPropertyOp51
 70
     0
102
RTVSPropertyOp52
 70
     0
102
RTVSPropertyOp53
 70
     1
102
RTVSPropertyOp54
 70
     1
102
RTVSPropertyOp55
 70
     1
102
RTVSPropertyOp56
 70
     1
102
RTVSPropertyOp57
 70
     1
102
RTVSPropertyOp58
 70
     1
102
RTVSPropertyOp59
 70
     1
102
RTVSPropertyOp60
 70
     1
102
RTVSPropertyOp61
 70
     1
102
RTVSPropertyOp62
 70
     1
  0
XRECORD
  5
41FF
102
{ACAD_REACTORS
330
41FE
102
}
330
41FE
100
AcDbXrecord
280
     1
102
RTVSPost2010Prop28
280
     0
102
RTVSPost2010PropOp28
 70
     1
102
RTVSPost2010Prop29
280
     1
102
RTVSPost2010PropOp29
 70
     1
102
RTVSPost2010Prop30
280
     1
102
RTVSPost2010PropOp30
 70
     1
102
RTVSPost2010Prop31
280
     0
102
RTVSPost2010PropOp31
 70
     1
102
RTVSPost2010Prop32
280
     0
102
RTVSPost2010PropOp32
 70
     1
102
RTVSPost2010Prop33
280
     0
102
RTVSPost2010PropOp33
 70
     1
102
RTVSPost2010Prop34
280
     0
102
RTVSPost2010PropOp34
 70
     1
102
RTVSPost2010Prop35
280
     0
102
RTVSPost2010PropOp35
 70
     1
102
RTVSPost2010Prop36
280
     0
102
RTVSPost2010PropOp36
 70
     1
102
RTVSPost2010Prop37
 90
       50
102
RTVSPost2010PropOp37
 70
     1
102
RTVSPost2010Prop38
140
0.0
102
RTVSPost2010PropOp38
 70
     1
102
RTVSPost2010Prop39
140
1.0
102
RTVSPost2010PropOp39
 70
     1
102
RTVSPost2010Prop40
 90
        0
102
RTVSPost2010PropOp40
 70
     1
102
RTVSPost2010Prop41ColorIndex
 90
       18
102
RTVSPost2010Prop41ColorRGB
 90
        0
102
RTVSPost2010PropOp41
 70
     1
102
RTVSPost2010Prop42
 90
       50
102
RTVSPost2010PropOp42
 70
     1
102
RTVSPost2010Prop43
 90
        3
102
RTVSPost2010PropOp43
 70
     1
102
RTVSPost2010Prop44ColorIndex
 90
        5
102
RTVSPost2010Prop44ColorRGB
 90
      255
102
RTVSPost2010PropOp44
 70
     1
102
RTVSPost2010Prop45
280
     0
102
RTVSPost2010PropOp45
 70
     1
102
RTVSPost2010Prop46
 90
       50
102
RTVSPost2010PropOp46
 70
     1
102
RTVSPost2010Prop47
 90
       50
102
RTVSPost2010PropOp47
 70
     1
102
RTVSPost2010Prop48
 90
       50
102
RTVSPost2010PropOp48
 70
     1
102
RTVSPost2010Prop49
280
     0
102
RTVSPost2010PropOp49
 70
     1
102
RTVSPost2010Prop50
 90
       50
102
RTVSPost2010PropOp50
 70
     1
102
RTVSPost2010Prop51ColorIndex
 90
      256
102
RTVSPost2010Prop51ColorRGB
 90
-16777216
102
RTVSPost2010PropOp51
 70
     0
102
RTVSPost2010Prop52
140
1.0
102
RTVSPost2010PropOp52
 70
     0
102
RTVSPost2010Prop53
 90
        2
102
RTVSPost2010PropOp53
 70
     1
102
RTVSPost2010Prop54
  1
strokes_ogs.tif
102
RTVSPost2010PropOp54
 70
     1
102
RTVSPost2010Prop55
280
     0
102
RTVSPost2010PropOp55
 70
     1
102
RTVSPost2010Prop56
140
1.0
102
RTVSPost2010PropOp56
 70
     1
102
RTVSPost2010Prop57
140
1.0
102
RTVSPost2010PropOp57
 70
     1
102
RTVSPropertyOp0
 70
     1
102
RTVSPropertyOp1
 70
     1
102
RTVSPropertyOp2
 70
     1
102
RTVSPropertyOp3
 70
     1
102
RTVSPropertyOp4
 70
     1
102
RTVSPropertyOp5
 70
     1
102
RTVSPropertyOp6
 70
     1
102
RTVSPropertyOp7
 70
     1
102
RTVSPropertyOp8
 70
     1
102
RTVSPropertyOp9
 70
     1
102
RTVSPropertyOp10
 70
     1
102
RTVSPropertyOp11
 70
     1
102
RTVSPropertyOp12
 70
     1
102
RTVSPropertyOp13
 70
     1
102
RTVSPropertyOp14
 70
     1
102
RTVSPropertyOp15
 70
     1
102
RTVSPropertyOp16
 70
     1
102
RTVSPropertyOp17
 70
     1
102
RTVSPropertyOp18
 70
     1
102
RTVSPropertyOp19
 70
     1
102
RTVSPropertyOp20
 70
     1
102
RTVSPropertyOp21
 70
     1
102
RTVSPropertyOp22
 70
     1
102
RTVSPropertyOp23
 70
     1
102
RTVSPropertyOp24
 70
     1
102
RTVSPropertyOp25
 70
     1
102
RTVSPropertyOp26
 70
     1
102
RTVSPropertyOp27
 70
     1
102
RTVSPropertyOp28
 70
     1
102
RTVSPropertyOp29
 70
     1
102
RTVSPropertyOp30
 70
     1
102
RTVSPropertyOp31
 70
     1
102
RTVSPropertyOp32
 70
     1
102
RTVSPropertyOp33
 70
     1
102
RTVSPropertyOp34
 70
     1
102
RTVSPropertyOp35
 70
     1
102
RTVSPropertyOp36
 70
     1
102
RTVSPropertyOp37
 70
     1
102
RTVSPropertyOp38
 70
     1
102
RTVSPropertyOp39
 70
     1
102
RTVSPropertyOp40
 70
     1
102
RTVSPropertyOp41
 70
     1
102
RTVSPropertyOp42
 70
     1
102
RTVSPropertyOp43
 70
     1
102
RTVSPropertyOp44
 70
     1
102
RTVSPropertyOp45
 70
     1
102
RTVSPropertyOp46
 70
     1
102
RTVSPropertyOp47
 70
     1
102
RTVSPropertyOp48
 70
     1
102
RTVSPropertyOp49
 70
     1
102
RTVSPropertyOp50
 70
     1
102
RTVSPropertyOp51
 70
     0
102
RTVSPropertyOp52
 70
     0
102
RTVSPropertyOp53
 70
     1
102
RTVSPropertyOp54
 70
     1
102
RTVSPropertyOp55
 70
     1
102
RTVSPropertyOp56
 70
     1
102
RTVSPropertyOp57
 70
     1
102
RTVSPropertyOp58
 70
     1
102
RTVSPropertyOp59
 70
     1
102
RTVSPropertyOp60
 70
     1
102
RTVSPropertyOp61
 70
     1
102
RTVSPropertyOp62
 70
     1
  0
XRECORD
  5
41F1
102
{ACAD_REACTORS
330
41F0
102
}
330
41F0
100
AcDbXrecord
280
     1
102
RTVSPost2010Prop28
280
     0
102
RTVSPost2010PropOp28
 70
     1
102
RTVSPost2010Prop29
280
     1
102
RTVSPost2010PropOp29
 70
     1
102
RTVSPost2010Prop30
280
     1
102
RTVSPost2010PropOp30
 70
     1
102
RTVSPost2010Prop31
280
     0
102
RTVSPost2010PropOp31
 70
     1
102
RTVSPost2010Prop32
280
     0
102
RTVSPost2010PropOp32
 70
     1
102
RTVSPost2010Prop33
280
     0
102
RTVSPost2010PropOp33
 70
     1
102
RTVSPost2010Prop34
280
     0
102
RTVSPost2010PropOp34
 70
     1
102
RTVSPost2010Prop35
280
     0
102
RTVSPost2010PropOp35
 70
     1
102
RTVSPost2010Prop36
280
     0
102
RTVSPost2010PropOp36
 70
     1
102
RTVSPost2010Prop37
 90
       50
102
RTVSPost2010PropOp37
 70
     1
102
RTVSPost2010Prop38
140
0.0
102
RTVSPost2010PropOp38
 70
     1
102
RTVSPost2010Prop39
140
1.0
102
RTVSPost2010PropOp39
 70
     1
102
RTVSPost2010Prop40
 90
        0
102
RTVSPost2010PropOp40
 70
     1
102
RTVSPost2010Prop41ColorIndex
 90
       18
102
RTVSPost2010Prop41ColorRGB
 90
        0
102
RTVSPost2010PropOp41
 70
     1
102
RTVSPost2010Prop42
 90
       50
102
RTVSPost2010PropOp42
 70
     1
102
RTVSPost2010Prop43
 90
        3
102
RTVSPost2010PropOp43
 70
     1
102
RTVSPost2010Prop44ColorIndex
 90
        5
102
RTVSPost2010Prop44ColorRGB
 90
      255
102
RTVSPost2010PropOp44
 70
     1
102
RTVSPost2010Prop45
280
     0
102
RTVSPost2010PropOp45
 70
     1
102
RTVSPost2010Prop46
 90
       50
102
RTVSPost2010PropOp46
 70
     1
102
RTVSPost2010Prop47
 90
       50
102
RTVSPost2010PropOp47
 70
     1
102
RTVSPost2010Prop48
 90
       50
102
RTVSPost2010PropOp48
 70
     1
102
RTVSPost2010Prop49
280
     0
102
RTVSPost2010PropOp49
 70
     1
102
RTVSPost2010Prop50
 90
       50
102
RTVSPost2010PropOp50
 70
     1
102
RTVSPost2010Prop51ColorIndex
 90
      256
102
RTVSPost2010Prop51ColorRGB
 90
-16777216
102
RTVSPost2010PropOp51
 70
     0
102
RTVSPost2010Prop52
140
1.0
102
RTVSPost2010PropOp52
 70
     0
102
RTVSPost2010Prop53
 90
        2
102
RTVSPost2010PropOp53
 70
     1
102
RTVSPost2010Prop54
  1
strokes_ogs.tif
102
RTVSPost2010PropOp54
 70
     1
102
RTVSPost2010Prop55
280
     0
102
RTVSPost2010PropOp55
 70
     1
102
RTVSPost2010Prop56
140
1.0
102
RTVSPost2010PropOp56
 70
     1
102
RTVSPost2010Prop57
140
1.0
102
RTVSPost2010PropOp57
 70
     1
102
RTVSPropertyOp0
 70
     1
102
RTVSPropertyOp1
 70
     1
102
RTVSPropertyOp2
 70
     1
102
RTVSPropertyOp3
 70
     1
102
RTVSPropertyOp4
 70
     1
102
RTVSPropertyOp5
 70
     1
102
RTVSPropertyOp6
 70
     1
102
RTVSPropertyOp7
 70
     1
102
RTVSPropertyOp8
 70
     1
102
RTVSPropertyOp9
 70
     1
102
RTVSPropertyOp10
 70
     1
102
RTVSPropertyOp11
 70
     1
102
RTVSPropertyOp12
 70
     1
102
RTVSPropertyOp13
 70
     1
102
RTVSPropertyOp14
 70
     1
102
RTVSPropertyOp15
 70
     1
102
RTVSPropertyOp16
 70
     1
102
RTVSPropertyOp17
 70
     1
102
RTVSPropertyOp18
 70
     1
102
RTVSPropertyOp19
 70
     1
102
RTVSPropertyOp20
 70
     1
102
RTVSPropertyOp21
 70
     1
102
RTVSPropertyOp22
 70
     1
102
RTVSPropertyOp23
 70
     1
102
RTVSPropertyOp24
 70
     1
102
RTVSPropertyOp25
 70
     1
102
RTVSPropertyOp26
 70
     1
102
RTVSPropertyOp27
 70
     1
102
RTVSPropertyOp28
 70
     1
102
RTVSPropertyOp29
 70
     1
102
RTVSPropertyOp30
 70
     1
102
RTVSPropertyOp31
 70
     1
102
RTVSPropertyOp32
 70
     1
102
RTVSPropertyOp33
 70
     1
102
RTVSPropertyOp34
 70
     1
102
RTVSPropertyOp35
 70
     1
102
RTVSPropertyOp36
 70
     1
102
RTVSPropertyOp37
 70
     1
102
RTVSPropertyOp38
 70
     1
102
RTVSPropertyOp39
 70
     1
102
RTVSPropertyOp40
 70
     1
102
RTVSPropertyOp41
 70
     1
102
RTVSPropertyOp42
 70
     1
102
RTVSPropertyOp43
 70
     1
102
RTVSPropertyOp44
 70
     1
102
RTVSPropertyOp45
 70
     1
102
RTVSPropertyOp46
 70
     1
102
RTVSPropertyOp47
 70
     1
102
RTVSPropertyOp48
 70
     1
102
RTVSPropertyOp49
 70
     1
102
RTVSPropertyOp50
 70
     1
102
RTVSPropertyOp51
 70
     0
102
RTVSPropertyOp52
 70
     0
102
RTVSPropertyOp53
 70
     1
102
RTVSPropertyOp54
 70
     1
102
RTVSPropertyOp55
 70
     1
102
RTVSPropertyOp56
 70
     1
102
RTVSPropertyOp57
 70
     1
102
RTVSPropertyOp58
 70
     1
102
RTVSPropertyOp59
 70
     1
102
RTVSPropertyOp60
 70
     1
102
RTVSPropertyOp61
 70
     1
102
RTVSPropertyOp62
 70
     1
  0
XRECORD
  5
41F5
102
{ACAD_REACTORS
330
41F4
102
}
330
41F4
100
AcDbXrecord
280
     1
102
RTVSPost2010Prop28
280
     0
102
RTVSPost2010PropOp28
 70
     1
102
RTVSPost2010Prop29
280
     1
102
RTVSPost2010PropOp29
 70
     1
102
RTVSPost2010Prop30
280
     1
102
RTVSPost2010PropOp30
 70
     1
102
RTVSPost2010Prop31
280
     0
102
RTVSPost2010PropOp31
 70
     1
102
RTVSPost2010Prop32
280
     0
102
RTVSPost2010PropOp32
 70
     1
102
RTVSPost2010Prop33
280
     0
102
RTVSPost2010PropOp33
 70
     1
102
RTVSPost2010Prop34
280
     0
102
RTVSPost2010PropOp34
 70
     1
102
RTVSPost2010Prop35
280
     0
102
RTVSPost2010PropOp35
 70
     1
102
RTVSPost2010Prop36
280
     0
102
RTVSPost2010PropOp36
 70
     1
102
RTVSPost2010Prop37
 90
       50
102
RTVSPost2010PropOp37
 70
     1
102
RTVSPost2010Prop38
140
0.0
102
RTVSPost2010PropOp38
 70
     1
102
RTVSPost2010Prop39
140
1.0
102
RTVSPost2010PropOp39
 70
     1
102
RTVSPost2010Prop40
 90
        0
102
RTVSPost2010PropOp40
 70
     1
102
RTVSPost2010Prop41ColorIndex
 90
       18
102
RTVSPost2010Prop41ColorRGB
 90
        0
102
RTVSPost2010PropOp41
 70
     1
102
RTVSPost2010Prop42
 90
       50
102
RTVSPost2010PropOp42
 70
     1
102
RTVSPost2010Prop43
 90
        3
102
RTVSPost2010PropOp43
 70
     1
102
RTVSPost2010Prop44ColorIndex
 90
        5
102
RTVSPost2010Prop44ColorRGB
 90
      255
102
RTVSPost2010PropOp44
 70
     1
102
RTVSPost2010Prop45
280
     0
102
RTVSPost2010PropOp45
 70
     1
102
RTVSPost2010Prop46
 90
       50
102
RTVSPost2010PropOp46
 70
     1
102
RTVSPost2010Prop47
 90
       50
102
RTVSPost2010PropOp47
 70
     1
102
RTVSPost2010Prop48
 90
       50
102
RTVSPost2010PropOp48
 70
     1
102
RTVSPost2010Prop49
280
     0
102
RTVSPost2010PropOp49
 70
     1
102
RTVSPost2010Prop50
 90
       50
102
RTVSPost2010PropOp50
 70
     1
102
RTVSPost2010Prop51ColorIndex
 90
      256
102
RTVSPost2010Prop51ColorRGB
 90
-16777216
102
RTVSPost2010PropOp51
 70
     0
102
RTVSPost2010Prop52
140
1.0
102
RTVSPost2010PropOp52
 70
     0
102
RTVSPost2010Prop53
 90
        2
102
RTVSPost2010PropOp53
 70
     1
102
RTVSPost2010Prop54
  1
strokes_ogs.tif
102
RTVSPost2010PropOp54
 70
     1
102
RTVSPost2010Prop55
280
     0
102
RTVSPost2010PropOp55
 70
     1
102
RTVSPost2010Prop56
140
1.0
102
RTVSPost2010PropOp56
 70
     1
102
RTVSPost2010Prop57
140
1.0
102
RTVSPost2010PropOp57
 70
     1
102
RTVSPropertyOp0
 70
     1
102
RTVSPropertyOp1
 70
     1
102
RTVSPropertyOp2
 70
     1
102
RTVSPropertyOp3
 70
     1
102
RTVSPropertyOp4
 70
     1
102
RTVSPropertyOp5
 70
     1
102
RTVSPropertyOp6
 70
     1
102
RTVSPropertyOp7
 70
     1
102
RTVSPropertyOp8
 70
     1
102
RTVSPropertyOp9
 70
     1
102
RTVSPropertyOp10
 70
     1
102
RTVSPropertyOp11
 70
     1
102
RTVSPropertyOp12
 70
     1
102
RTVSPropertyOp13
 70
     1
102
RTVSPropertyOp14
 70
     1
102
RTVSPropertyOp15
 70
     1
102
RTVSPropertyOp16
 70
     1
102
RTVSPropertyOp17
 70
     1
102
RTVSPropertyOp18
 70
     1
102
RTVSPropertyOp19
 70
     1
102
RTVSPropertyOp20
 70
     1
102
RTVSPropertyOp21
 70
     1
102
RTVSPropertyOp22
 70
     1
102
RTVSPropertyOp23
 70
     1
102
RTVSPropertyOp24
 70
     1
102
RTVSPropertyOp25
 70
     1
102
RTVSPropertyOp26
 70
     1
102
RTVSPropertyOp27
 70
     1
102
RTVSPropertyOp28
 70
     1
102
RTVSPropertyOp29
 70
     1
102
RTVSPropertyOp30
 70
     1
102
RTVSPropertyOp31
 70
     1
102
RTVSPropertyOp32
 70
     1
102
RTVSPropertyOp33
 70
     1
102
RTVSPropertyOp34
 70
     1
102
RTVSPropertyOp35
 70
     1
102
RTVSPropertyOp36
 70
     1
102
RTVSPropertyOp37
 70
     1
102
RTVSPropertyOp38
 70
     1
102
RTVSPropertyOp39
 70
     1
102
RTVSPropertyOp40
 70
     1
102
RTVSPropertyOp41
 70
     1
102
RTVSPropertyOp42
 70
     1
102
RTVSPropertyOp43
 70
     1
102
RTVSPropertyOp44
 70
     1
102
RTVSPropertyOp45
 70
     1
102
RTVSPropertyOp46
 70
     1
102
RTVSPropertyOp47
 70
     1
102
RTVSPropertyOp48
 70
     1
102
RTVSPropertyOp49
 70
     1
102
RTVSPropertyOp50
 70
     1
102
RTVSPropertyOp51
 70
     0
102
RTVSPropertyOp52
 70
     0
102
RTVSPropertyOp53
 70
     1
102
RTVSPropertyOp54
 70
     1
102
RTVSPropertyOp55
 70
     1
102
RTVSPropertyOp56
 70
     1
102
RTVSPropertyOp57
 70
     1
102
RTVSPropertyOp58
 70
     1
102
RTVSPropertyOp59
 70
     1
102
RTVSPropertyOp60
 70
     1
102
RTVSPropertyOp61
 70
     1
102
RTVSPropertyOp62
 70
     1
  0
XRECORD
  5
4206
102
{ACAD_REACTORS
330
4205
102
}
330
4205
100
AcDbXrecord
280
     1
102
RTVSPost2010Prop28
280
     0
102
RTVSPost2010PropOp28
 70
     1
102
RTVSPost2010Prop29
280
     1
102
RTVSPost2010PropOp29
 70
     1
102
RTVSPost2010Prop30
280
     1
102
RTVSPost2010PropOp30
 70
     1
102
RTVSPost2010Prop31
280
     0
102
RTVSPost2010PropOp31
 70
     1
102
RTVSPost2010Prop32
280
     0
102
RTVSPost2010PropOp32
 70
     1
102
RTVSPost2010Prop33
280
     0
102
RTVSPost2010PropOp33
 70
     1
102
RTVSPost2010Prop34
280
     0
102
RTVSPost2010PropOp34
 70
     1
102
RTVSPost2010Prop35
280
     0
102
RTVSPost2010PropOp35
 70
     1
102
RTVSPost2010Prop36
280
     0
102
RTVSPost2010PropOp36
 70
     1
102
RTVSPost2010Prop37
 90
       50
102
RTVSPost2010PropOp37
 70
     1
102
RTVSPost2010Prop38
140
0.0
102
RTVSPost2010PropOp38
 70
     1
102
RTVSPost2010Prop39
140
1.0
102
RTVSPost2010PropOp39
 70
     1
102
RTVSPost2010Prop40
 90
        0
102
RTVSPost2010PropOp40
 70
     1
102
RTVSPost2010Prop41ColorIndex
 90
       18
102
RTVSPost2010Prop41ColorRGB
 90
        0
102
RTVSPost2010PropOp41
 70
     1
102
RTVSPost2010Prop42
 90
       50
102
RTVSPost2010PropOp42
 70
     1
102
RTVSPost2010Prop43
 90
        3
102
RTVSPost2010PropOp43
 70
     1
102
RTVSPost2010Prop44ColorIndex
 90
        5
102
RTVSPost2010Prop44ColorRGB
 90
      255
102
RTVSPost2010PropOp44
 70
     1
102
RTVSPost2010Prop45
280
     0
102
RTVSPost2010PropOp45
 70
     1
102
RTVSPost2010Prop46
 90
       50
102
RTVSPost2010PropOp46
 70
     1
102
RTVSPost2010Prop47
 90
       50
102
RTVSPost2010PropOp47
 70
     1
102
RTVSPost2010Prop48
 90
       50
102
RTVSPost2010PropOp48
 70
     1
102
RTVSPost2010Prop49
280
     0
102
RTVSPost2010PropOp49
 70
     1
102
RTVSPost2010Prop50
 90
       50
102
RTVSPost2010PropOp50
 70
     1
102
RTVSPost2010Prop51ColorIndex
 90
      256
102
RTVSPost2010Prop51ColorRGB
 90
-16777216
102
RTVSPost2010PropOp51
 70
     0
102
RTVSPost2010Prop52
140
1.0
102
RTVSPost2010PropOp52
 70
     0
102
RTVSPost2010Prop53
 90
        2
102
RTVSPost2010PropOp53
 70
     1
102
RTVSPost2010Prop54
  1
strokes_ogs.tif
102
RTVSPost2010PropOp54
 70
     1
102
RTVSPost2010Prop55
280
     0
102
RTVSPost2010PropOp55
 70
     1
102
RTVSPost2010Prop56
140
1.0
102
RTVSPost2010PropOp56
 70
     1
102
RTVSPost2010Prop57
140
1.0
102
RTVSPost2010PropOp57
 70
     1
102
RTVSPropertyOp0
 70
     0
102
RTVSPropertyOp1
 70
     0
102
RTVSPropertyOp2
 70
     0
102
RTVSPropertyOp3
 70
     0
102
RTVSPropertyOp4
 70
     0
102
RTVSPropertyOp5
 70
     0
102
RTVSPropertyOp6
 70
     0
102
RTVSPropertyOp7
 70
     0
102
RTVSPropertyOp8
 70
     0
102
RTVSPropertyOp9
 70
     0
102
RTVSPropertyOp10
 70
     0
102
RTVSPropertyOp11
 70
     0
102
RTVSPropertyOp12
 70
     0
102
RTVSPropertyOp13
 70
     0
102
RTVSPropertyOp14
 70
     2
102
RTVSPropertyOp15
 70
     0
102
RTVSPropertyOp16
 70
     0
102
RTVSPropertyOp17
 70
     0
102
RTVSPropertyOp18
 70
     0
102
RTVSPropertyOp19
 70
     0
102
RTVSPropertyOp20
 70
     0
102
RTVSPropertyOp21
 70
     0
102
RTVSPropertyOp22
 70
     0
102
RTVSPropertyOp23
 70
     0
102
RTVSPropertyOp24
 70
     0
102
RTVSPropertyOp25
 70
     0
102
RTVSPropertyOp26
 70
     0
102
RTVSPropertyOp27
 70
     0
102
RTVSPropertyOp28
 70
     1
102
RTVSPropertyOp29
 70
     1
102
RTVSPropertyOp30
 70
     1
102
RTVSPropertyOp31
 70
     1
102
RTVSPropertyOp32
 70
     1
102
RTVSPropertyOp33
 70
     1
102
RTVSPropertyOp34
 70
     1
102
RTVSPropertyOp35
 70
     1
102
RTVSPropertyOp36
 70
     1
102
RTVSPropertyOp37
 70
     1
102
RTVSPropertyOp38
 70
     1
102
RTVSPropertyOp39
 70
     1
102
RTVSPropertyOp40
 70
     1
102
RTVSPropertyOp41
 70
     1
102
RTVSPropertyOp42
 70
     1
102
RTVSPropertyOp43
 70
     1
102
RTVSPropertyOp44
 70
     1
102
RTVSPropertyOp45
 70
     1
102
RTVSPropertyOp46
 70
     1
102
RTVSPropertyOp47
 70
     1
102
RTVSPropertyOp48
 70
     1
102
RTVSPropertyOp49
 70
     1
102
RTVSPropertyOp50
 70
     1
102
RTVSPropertyOp51
 70
     0
102
RTVSPropertyOp52
 70
     0
102
RTVSPropertyOp53
 70
     1
102
RTVSPropertyOp54
 70
     1
102
RTVSPropertyOp55
 70
     1
102
RTVSPropertyOp56
 70
     1
102
RTVSPropertyOp57
 70
     1
102
RTVSPropertyOp58
 70
     1
102
RTVSPropertyOp59
 70
     1
102
RTVSPropertyOp60
 70
     1
102
RTVSPropertyOp61
 70
     1
102
RTVSPropertyOp62
 70
     1
  0
XRECORD
  5
41FD
102
{ACAD_REACTORS
330
41FC
102
}
330
41FC
100
AcDbXrecord
280
     1
102
RTVSPost2010Prop28
280
     0
102
RTVSPost2010PropOp28
 70
     1
102
RTVSPost2010Prop29
280
     1
102
RTVSPost2010PropOp29
 70
     1
102
RTVSPost2010Prop30
280
     1
102
RTVSPost2010PropOp30
 70
     1
102
RTVSPost2010Prop31
280
     0
102
RTVSPost2010PropOp31
 70
     1
102
RTVSPost2010Prop32
280
     0
102
RTVSPost2010PropOp32
 70
     1
102
RTVSPost2010Prop33
280
     0
102
RTVSPost2010PropOp33
 70
     1
102
RTVSPost2010Prop34
280
     0
102
RTVSPost2010PropOp34
 70
     1
102
RTVSPost2010Prop35
280
     0
102
RTVSPost2010PropOp35
 70
     1
102
RTVSPost2010Prop36
280
     0
102
RTVSPost2010PropOp36
 70
     1
102
RTVSPost2010Prop37
 90
       50
102
RTVSPost2010PropOp37
 70
     1
102
RTVSPost2010Prop38
140
0.0
102
RTVSPost2010PropOp38
 70
     1
102
RTVSPost2010Prop39
140
1.0
102
RTVSPost2010PropOp39
 70
     1
102
RTVSPost2010Prop40
 90
        0
102
RTVSPost2010PropOp40
 70
     1
102
RTVSPost2010Prop41ColorIndex
 90
       18
102
RTVSPost2010Prop41ColorRGB
 90
        0
102
RTVSPost2010PropOp41
 70
     1
102
RTVSPost2010Prop42
 90
       50
102
RTVSPost2010PropOp42
 70
     1
102
RTVSPost2010Prop43
 90
        3
102
RTVSPost2010PropOp43
 70
     1
102
RTVSPost2010Prop44ColorIndex
 90
        5
102
RTVSPost2010Prop44ColorRGB
 90
      255
102
RTVSPost2010PropOp44
 70
     1
102
RTVSPost2010Prop45
280
     0
102
RTVSPost2010PropOp45
 70
     1
102
RTVSPost2010Prop46
 90
       50
102
RTVSPost2010PropOp46
 70
     1
102
RTVSPost2010Prop47
 90
       50
102
RTVSPost2010PropOp47
 70
     1
102
RTVSPost2010Prop48
 90
       50
102
RTVSPost2010PropOp48
 70
     1
102
RTVSPost2010Prop49
280
     0
102
RTVSPost2010PropOp49
 70
     1
102
RTVSPost2010Prop50
 90
       50
102
RTVSPost2010PropOp50
 70
     1
102
RTVSPost2010Prop51ColorIndex
 90
      256
102
RTVSPost2010Prop51ColorRGB
 90
-16777216
102
RTVSPost2010PropOp51
 70
     0
102
RTVSPost2010Prop52
140
1.0
102
RTVSPost2010PropOp52
 70
     0
102
RTVSPost2010Prop53
 90
        2
102
RTVSPost2010PropOp53
 70
     1
102
RTVSPost2010Prop54
  1
strokes_ogs.tif
102
RTVSPost2010PropOp54
 70
     1
102
RTVSPost2010Prop55
280
     0
102
RTVSPost2010PropOp55
 70
     1
102
RTVSPost2010Prop56
140
1.0
102
RTVSPost2010PropOp56
 70
     1
102
RTVSPost2010Prop57
140
1.0
102
RTVSPost2010PropOp57
 70
     1
102
RTVSPropertyOp0
 70
     1
102
RTVSPropertyOp1
 70
     1
102
RTVSPropertyOp2
 70
     1
102
RTVSPropertyOp3
 70
     1
102
RTVSPropertyOp4
 70
     1
102
RTVSPropertyOp5
 70
     1
102
RTVSPropertyOp6
 70
     1
102
RTVSPropertyOp7
 70
     1
102
RTVSPropertyOp8
 70
     1
102
RTVSPropertyOp9
 70
     1
102
RTVSPropertyOp10
 70
     1
102
RTVSPropertyOp11
 70
     1
102
RTVSPropertyOp12
 70
     1
102
RTVSPropertyOp13
 70
     1
102
RTVSPropertyOp14
 70
     1
102
RTVSPropertyOp15
 70
     1
102
RTVSPropertyOp16
 70
     1
102
RTVSPropertyOp17
 70
     1
102
RTVSPropertyOp18
 70
     1
102
RTVSPropertyOp19
 70
     1
102
RTVSPropertyOp20
 70
     1
102
RTVSPropertyOp21
 70
     1
102
RTVSPropertyOp22
 70
     1
102
RTVSPropertyOp23
 70
     1
102
RTVSPropertyOp24
 70
     1
102
RTVSPropertyOp25
 70
     1
102
RTVSPropertyOp26
 70
     1
102
RTVSPropertyOp27
 70
     1
102
RTVSPropertyOp28
 70
     1
102
RTVSPropertyOp29
 70
     1
102
RTVSPropertyOp30
 70
     1
102
RTVSPropertyOp31
 70
     1
102
RTVSPropertyOp32
 70
     1
102
RTVSPropertyOp33
 70
     1
102
RTVSPropertyOp34
 70
     1
102
RTVSPropertyOp35
 70
     1
102
RTVSPropertyOp36
 70
     1
102
RTVSPropertyOp37
 70
     1
102
RTVSPropertyOp38
 70
     1
102
RTVSPropertyOp39
 70
     1
102
RTVSPropertyOp40
 70
     1
102
RTVSPropertyOp41
 70
     1
102
RTVSPropertyOp42
 70
     1
102
RTVSPropertyOp43
 70
     1
102
RTVSPropertyOp44
 70
     1
102
RTVSPropertyOp45
 70
     1
102
RTVSPropertyOp46
 70
     1
102
RTVSPropertyOp47
 70
     1
102
RTVSPropertyOp48
 70
     1
102
RTVSPropertyOp49
 70
     1
102
RTVSPropertyOp50
 70
     1
102
RTVSPropertyOp51
 70
     0
102
RTVSPropertyOp52
 70
     0
102
RTVSPropertyOp53
 70
     1
102
RTVSPropertyOp54
 70
     1
102
RTVSPropertyOp55
 70
     1
102
RTVSPropertyOp56
 70
     1
102
RTVSPropertyOp57
 70
     1
102
RTVSPropertyOp58
 70
     1
102
RTVSPropertyOp59
 70
     1
102
RTVSPropertyOp60
 70
     1
102
RTVSPropertyOp61
 70
     1
102
RTVSPropertyOp62
 70
     1
  0
XRECORD
  5
41E1
102
{ACAD_REACTORS
330
41E0
102
}
330
41E0
100
AcDbXrecord
280
     1
102
RTVSPost2010Prop28
280
     0
102
RTVSPost2010PropOp28
 70
     1
102
RTVSPost2010Prop29
280
     1
102
RTVSPost2010PropOp29
 70
     1
102
RTVSPost2010Prop30
280
     1
102
RTVSPost2010PropOp30
 70
     1
102
RTVSPost2010Prop31
280
     0
102
RTVSPost2010PropOp31
 70
     1
102
RTVSPost2010Prop32
280
     0
102
RTVSPost2010PropOp32
 70
     1
102
RTVSPost2010Prop33
280
     0
102
RTVSPost2010PropOp33
 70
     1
102
RTVSPost2010Prop34
280
     0
102
RTVSPost2010PropOp34
 70
     1
102
RTVSPost2010Prop35
280
     0
102
RTVSPost2010PropOp35
 70
     1
102
RTVSPost2010Prop36
280
     0
102
RTVSPost2010PropOp36
 70
     1
102
RTVSPost2010Prop37
 90
       50
102
RTVSPost2010PropOp37
 70
     1
102
RTVSPost2010Prop38
140
0.0
102
RTVSPost2010PropOp38
 70
     1
102
RTVSPost2010Prop39
140
1.0
102
RTVSPost2010PropOp39
 70
     1
102
RTVSPost2010Prop40
 90
        0
102
RTVSPost2010PropOp40
 70
     1
102
RTVSPost2010Prop41ColorIndex
 90
       18
102
RTVSPost2010Prop41ColorRGB
 90
        0
102
RTVSPost2010PropOp41
 70
     1
102
RTVSPost2010Prop42
 90
       50
102
RTVSPost2010PropOp42
 70
     1
102
RTVSPost2010Prop43
 90
        3
102
RTVSPost2010PropOp43
 70
     1
102
RTVSPost2010Prop44ColorIndex
 90
        5
102
RTVSPost2010Prop44ColorRGB
 90
      255
102
RTVSPost2010PropOp44
 70
     1
102
RTVSPost2010Prop45
280
     0
102
RTVSPost2010PropOp45
 70
     1
102
RTVSPost2010Prop46
 90
       50
102
RTVSPost2010PropOp46
 70
     1
102
RTVSPost2010Prop47
 90
       50
102
RTVSPost2010PropOp47
 70
     1
102
RTVSPost2010Prop48
 90
       50
102
RTVSPost2010PropOp48
 70
     1
102
RTVSPost2010Prop49
280
     0
102
RTVSPost2010PropOp49
 70
     1
102
RTVSPost2010Prop50
 90
       50
102
RTVSPost2010PropOp50
 70
     1
102
RTVSPost2010Prop51ColorIndex
 90
      256
102
RTVSPost2010Prop51ColorRGB
 90
-16777216
102
RTVSPost2010PropOp51
 70
     0
102
RTVSPost2010Prop52
140
1.0
102
RTVSPost2010PropOp52
 70
     0
102
RTVSPost2010Prop53
 90
        2
102
RTVSPost2010PropOp53
 70
     1
102
RTVSPost2010Prop54
  1
strokes_ogs.tif
102
RTVSPost2010PropOp54
 70
     1
102
RTVSPost2010Prop55
280
     0
102
RTVSPost2010PropOp55
 70
     1
102
RTVSPost2010Prop56
140
1.0
102
RTVSPost2010PropOp56
 70
     1
102
RTVSPost2010Prop57
140
1.0
102
RTVSPost2010PropOp57
 70
     1
102
RTVSPropertyOp0
 70
     1
102
RTVSPropertyOp1
 70
     1
102
RTVSPropertyOp2
 70
     1
102
RTVSPropertyOp3
 70
     1
102
RTVSPropertyOp4
 70
     1
102
RTVSPropertyOp5
 70
     1
102
RTVSPropertyOp6
 70
     1
102
RTVSPropertyOp7
 70
     1
102
RTVSPropertyOp8
 70
     1
102
RTVSPropertyOp9
 70
     1
102
RTVSPropertyOp10
 70
     1
102
RTVSPropertyOp11
 70
     1
102
RTVSPropertyOp12
 70
     1
102
RTVSPropertyOp13
 70
     1
102
RTVSPropertyOp14
 70
     1
102
RTVSPropertyOp15
 70
     1
102
RTVSPropertyOp16
 70
     1
102
RTVSPropertyOp17
 70
     1
102
RTVSPropertyOp18
 70
     1
102
RTVSPropertyOp19
 70
     1
102
RTVSPropertyOp20
 70
     1
102
RTVSPropertyOp21
 70
     1
102
RTVSPropertyOp22
 70
     1
102
RTVSPropertyOp23
 70
     1
102
RTVSPropertyOp24
 70
     1
102
RTVSPropertyOp25
 70
     1
102
RTVSPropertyOp26
 70
     1
102
RTVSPropertyOp27
 70
     1
102
RTVSPropertyOp28
 70
     1
102
RTVSPropertyOp29
 70
     1
102
RTVSPropertyOp30
 70
     1
102
RTVSPropertyOp31
 70
     1
102
RTVSPropertyOp32
 70
     1
102
RTVSPropertyOp33
 70
     1
102
RTVSPropertyOp34
 70
     1
102
RTVSPropertyOp35
 70
     1
102
RTVSPropertyOp36
 70
     1
102
RTVSPropertyOp37
 70
     1
102
RTVSPropertyOp38
 70
     1
102
RTVSPropertyOp39
 70
     1
102
RTVSPropertyOp40
 70
     1
102
RTVSPropertyOp41
 70
     1
102
RTVSPropertyOp42
 70
     1
102
RTVSPropertyOp43
 70
     1
102
RTVSPropertyOp44
 70
     1
102
RTVSPropertyOp45
 70
     1
102
RTVSPropertyOp46
 70
     1
102
RTVSPropertyOp47
 70
     1
102
RTVSPropertyOp48
 70
     1
102
RTVSPropertyOp49
 70
     1
102
RTVSPropertyOp50
 70
     1
102
RTVSPropertyOp51
 70
     0
102
RTVSPropertyOp52
 70
     0
102
RTVSPropertyOp53
 70
     1
102
RTVSPropertyOp54
 70
     1
102
RTVSPropertyOp55
 70
     1
102
RTVSPropertyOp56
 70
     1
102
RTVSPropertyOp57
 70
     1
102
RTVSPropertyOp58
 70
     1
102
RTVSPropertyOp59
 70
     1
102
RTVSPropertyOp60
 70
     1
102
RTVSPropertyOp61
 70
     1
102
RTVSPropertyOp62
 70
     1
  0
XRECORD
  5
41E3
102
{ACAD_REACTORS
330
41E2
102
}
330
41E2
100
AcDbXrecord
280
     1
102
RTVSPost2010Prop28
280
     0
102
RTVSPost2010PropOp28
 70
     1
102
RTVSPost2010Prop29
280
     1
102
RTVSPost2010PropOp29
 70
     1
102
RTVSPost2010Prop30
280
     1
102
RTVSPost2010PropOp30
 70
     1
102
RTVSPost2010Prop31
280
     0
102
RTVSPost2010PropOp31
 70
     1
102
RTVSPost2010Prop32
280
     0
102
RTVSPost2010PropOp32
 70
     1
102
RTVSPost2010Prop33
280
     0
102
RTVSPost2010PropOp33
 70
     1
102
RTVSPost2010Prop34
280
     0
102
RTVSPost2010PropOp34
 70
     1
102
RTVSPost2010Prop35
280
     0
102
RTVSPost2010PropOp35
 70
     1
102
RTVSPost2010Prop36
280
     0
102
RTVSPost2010PropOp36
 70
     1
102
RTVSPost2010Prop37
 90
       50
102
RTVSPost2010PropOp37
 70
     1
102
RTVSPost2010Prop38
140
0.0
102
RTVSPost2010PropOp38
 70
     1
102
RTVSPost2010Prop39
140
1.0
102
RTVSPost2010PropOp39
 70
     1
102
RTVSPost2010Prop40
 90
        0
102
RTVSPost2010PropOp40
 70
     1
102
RTVSPost2010Prop41ColorIndex
 90
       18
102
RTVSPost2010Prop41ColorRGB
 90
        0
102
RTVSPost2010PropOp41
 70
     1
102
RTVSPost2010Prop42
 90
       50
102
RTVSPost2010PropOp42
 70
     1
102
RTVSPost2010Prop43
 90
        3
102
RTVSPost2010PropOp43
 70
     1
102
RTVSPost2010Prop44ColorIndex
 90
        5
102
RTVSPost2010Prop44ColorRGB
 90
      255
102
RTVSPost2010PropOp44
 70
     1
102
RTVSPost2010Prop45
280
     0
102
RTVSPost2010PropOp45
 70
     1
102
RTVSPost2010Prop46
 90
       50
102
RTVSPost2010PropOp46
 70
     1
102
RTVSPost2010Prop47
 90
       50
102
RTVSPost2010PropOp47
 70
     1
102
RTVSPost2010Prop48
 90
       50
102
RTVSPost2010PropOp48
 70
     1
102
RTVSPost2010Prop49
280
     0
102
RTVSPost2010PropOp49
 70
     1
102
RTVSPost2010Prop50
 90
       50
102
RTVSPost2010PropOp50
 70
     1
102
RTVSPost2010Prop51ColorIndex
 90
      256
102
RTVSPost2010Prop51ColorRGB
 90
-16777216
102
RTVSPost2010PropOp51
 70
     0
102
RTVSPost2010Prop52
140
1.0
102
RTVSPost2010PropOp52
 70
     0
102
RTVSPost2010Prop53
 90
        2
102
RTVSPost2010PropOp53
 70
     1
102
RTVSPost2010Prop54
  1
strokes_ogs.tif
102
RTVSPost2010PropOp54
 70
     1
102
RTVSPost2010Prop55
280
     0
102
RTVSPost2010PropOp55
 70
     1
102
RTVSPost2010Prop56
140
1.0
102
RTVSPost2010PropOp56
 70
     1
102
RTVSPost2010Prop57
140
1.0
102
RTVSPost2010PropOp57
 70
     1
102
RTVSPropertyOp0
 70
     1
102
RTVSPropertyOp1
 70
     1
102
RTVSPropertyOp2
 70
     1
102
RTVSPropertyOp3
 70
     1
102
RTVSPropertyOp4
 70
     1
102
RTVSPropertyOp5
 70
     1
102
RTVSPropertyOp6
 70
     1
102
RTVSPropertyOp7
 70
     1
102
RTVSPropertyOp8
 70
     1
102
RTVSPropertyOp9
 70
     1
102
RTVSPropertyOp10
 70
     1
102
RTVSPropertyOp11
 70
     1
102
RTVSPropertyOp12
 70
     1
102
RTVSPropertyOp13
 70
     1
102
RTVSPropertyOp14
 70
     1
102
RTVSPropertyOp15
 70
     1
102
RTVSPropertyOp16
 70
     1
102
RTVSPropertyOp17
 70
     1
102
RTVSPropertyOp18
 70
     1
102
RTVSPropertyOp19
 70
     1
102
RTVSPropertyOp20
 70
     1
102
RTVSPropertyOp21
 70
     1
102
RTVSPropertyOp22
 70
     1
102
RTVSPropertyOp23
 70
     1
102
RTVSPropertyOp24
 70
     1
102
RTVSPropertyOp25
 70
     1
102
RTVSPropertyOp26
 70
     1
102
RTVSPropertyOp27
 70
     1
102
RTVSPropertyOp28
 70
     1
102
RTVSPropertyOp29
 70
     1
102
RTVSPropertyOp30
 70
     1
102
RTVSPropertyOp31
 70
     1
102
RTVSPropertyOp32
 70
     1
102
RTVSPropertyOp33
 70
     1
102
RTVSPropertyOp34
 70
     1
102
RTVSPropertyOp35
 70
     1
102
RTVSPropertyOp36
 70
     1
102
RTVSPropertyOp37
 70
     1
102
RTVSPropertyOp38
 70
     1
102
RTVSPropertyOp39
 70
     1
102
RTVSPropertyOp40
 70
     1
102
RTVSPropertyOp41
 70
     1
102
RTVSPropertyOp42
 70
     1
102
RTVSPropertyOp43
 70
     1
102
RTVSPropertyOp44
 70
     1
102
RTVSPropertyOp45
 70
     1
102
RTVSPropertyOp46
 70
     1
102
RTVSPropertyOp47
 70
     1
102
RTVSPropertyOp48
 70
     1
102
RTVSPropertyOp49
 70
     1
102
RTVSPropertyOp50
 70
     1
102
RTVSPropertyOp51
 70
     0
102
RTVSPropertyOp52
 70
     0
102
RTVSPropertyOp53
 70
     1
102
RTVSPropertyOp54
 70
     1
102
RTVSPropertyOp55
 70
     1
102
RTVSPropertyOp56
 70
     1
102
RTVSPropertyOp57
 70
     1
102
RTVSPropertyOp58
 70
     1
102
RTVSPropertyOp59
 70
     1
102
RTVSPropertyOp60
 70
     1
102
RTVSPropertyOp61
 70
     1
102
RTVSPropertyOp62
 70
     1
  0
XRECORD
  5
41E5
102
{ACAD_REACTORS
330
41E4
102
}
330
41E4
100
AcDbXrecord
280
     1
102
RTVSPost2010Prop28
280
     0
102
RTVSPost2010PropOp28
 70
     1
102
RTVSPost2010Prop29
280
     1
102
RTVSPost2010PropOp29
 70
     1
102
RTVSPost2010Prop30
280
     1
102
RTVSPost2010PropOp30
 70
     1
102
RTVSPost2010Prop31
280
     0
102
RTVSPost2010PropOp31
 70
     1
102
RTVSPost2010Prop32
280
     0
102
RTVSPost2010PropOp32
 70
     1
102
RTVSPost2010Prop33
280
     0
102
RTVSPost2010PropOp33
 70
     1
102
RTVSPost2010Prop34
280
     0
102
RTVSPost2010PropOp34
 70
     1
102
RTVSPost2010Prop35
280
     0
102
RTVSPost2010PropOp35
 70
     1
102
RTVSPost2010Prop36
280
     0
102
RTVSPost2010PropOp36
 70
     1
102
RTVSPost2010Prop37
 90
       50
102
RTVSPost2010PropOp37
 70
     1
102
RTVSPost2010Prop38
140
0.0
102
RTVSPost2010PropOp38
 70
     1
102
RTVSPost2010Prop39
140
1.0
102
RTVSPost2010PropOp39
 70
     1
102
RTVSPost2010Prop40
 90
        0
102
RTVSPost2010PropOp40
 70
     1
102
RTVSPost2010Prop41ColorIndex
 90
       18
102
RTVSPost2010Prop41ColorRGB
 90
        0
102
RTVSPost2010PropOp41
 70
     1
102
RTVSPost2010Prop42
 90
       50
102
RTVSPost2010PropOp42
 70
     1
102
RTVSPost2010Prop43
 90
        3
102
RTVSPost2010PropOp43
 70
     1
102
RTVSPost2010Prop44ColorIndex
 90
        5
102
RTVSPost2010Prop44ColorRGB
 90
      255
102
RTVSPost2010PropOp44
 70
     1
102
RTVSPost2010Prop45
280
     0
102
RTVSPost2010PropOp45
 70
     1
102
RTVSPost2010Prop46
 90
       50
102
RTVSPost2010PropOp46
 70
     1
102
RTVSPost2010Prop47
 90
       50
102
RTVSPost2010PropOp47
 70
     1
102
RTVSPost2010Prop48
 90
       50
102
RTVSPost2010PropOp48
 70
     1
102
RTVSPost2010Prop49
280
     0
102
RTVSPost2010PropOp49
 70
     1
102
RTVSPost2010Prop50
 90
       50
102
RTVSPost2010PropOp50
 70
     1
102
RTVSPost2010Prop51ColorIndex
 90
      256
102
RTVSPost2010Prop51ColorRGB
 90
-16777216
102
RTVSPost2010PropOp51
 70
     0
102
RTVSPost2010Prop52
140
1.0
102
RTVSPost2010PropOp52
 70
     0
102
RTVSPost2010Prop53
 90
        2
102
RTVSPost2010PropOp53
 70
     1
102
RTVSPost2010Prop54
  1
strokes_ogs.tif
102
RTVSPost2010PropOp54
 70
     1
102
RTVSPost2010Prop55
280
     0
102
RTVSPost2010PropOp55
 70
     1
102
RTVSPost2010Prop56
140
1.0
102
RTVSPost2010PropOp56
 70
     1
102
RTVSPost2010Prop57
140
1.0
102
RTVSPost2010PropOp57
 70
     1
102
RTVSPropertyOp0
 70
     1
102
RTVSPropertyOp1
 70
     1
102
RTVSPropertyOp2
 70
     1
102
RTVSPropertyOp3
 70
     1
102
RTVSPropertyOp4
 70
     1
102
RTVSPropertyOp5
 70
     1
102
RTVSPropertyOp6
 70
     1
102
RTVSPropertyOp7
 70
     1
102
RTVSPropertyOp8
 70
     1
102
RTVSPropertyOp9
 70
     1
102
RTVSPropertyOp10
 70
     1
102
RTVSPropertyOp11
 70
     1
102
RTVSPropertyOp12
 70
     1
102
RTVSPropertyOp13
 70
     1
102
RTVSPropertyOp14
 70
     1
102
RTVSPropertyOp15
 70
     1
102
RTVSPropertyOp16
 70
     1
102
RTVSPropertyOp17
 70
     1
102
RTVSPropertyOp18
 70
     1
102
RTVSPropertyOp19
 70
     1
102
RTVSPropertyOp20
 70
     1
102
RTVSPropertyOp21
 70
     1
102
RTVSPropertyOp22
 70
     1
102
RTVSPropertyOp23
 70
     1
102
RTVSPropertyOp24
 70
     1
102
RTVSPropertyOp25
 70
     1
102
RTVSPropertyOp26
 70
     1
102
RTVSPropertyOp27
 70
     1
102
RTVSPropertyOp28
 70
     1
102
RTVSPropertyOp29
 70
     1
102
RTVSPropertyOp30
 70
     1
102
RTVSPropertyOp31
 70
     1
102
RTVSPropertyOp32
 70
     1
102
RTVSPropertyOp33
 70
     1
102
RTVSPropertyOp34
 70
     1
102
RTVSPropertyOp35
 70
     1
102
RTVSPropertyOp36
 70
     1
102
RTVSPropertyOp37
 70
     1
102
RTVSPropertyOp38
 70
     1
102
RTVSPropertyOp39
 70
     1
102
RTVSPropertyOp40
 70
     1
102
RTVSPropertyOp41
 70
     1
102
RTVSPropertyOp42
 70
     1
102
RTVSPropertyOp43
 70
     1
102
RTVSPropertyOp44
 70
     1
102
RTVSPropertyOp45
 70
     1
102
RTVSPropertyOp46
 70
     1
102
RTVSPropertyOp47
 70
     1
102
RTVSPropertyOp48
 70
     1
102
RTVSPropertyOp49
 70
     1
102
RTVSPropertyOp50
 70
     1
102
RTVSPropertyOp51
 70
     0
102
RTVSPropertyOp52
 70
     0
102
RTVSPropertyOp53
 70
     1
102
RTVSPropertyOp54
 70
     1
102
RTVSPropertyOp55
 70
     1
102
RTVSPropertyOp56
 70
     1
102
RTVSPropertyOp57
 70
     1
102
RTVSPropertyOp58
 70
     1
102
RTVSPropertyOp59
 70
     1
102
RTVSPropertyOp60
 70
     1
102
RTVSPropertyOp61
 70
     1
102
RTVSPropertyOp62
 70
     1
  0
XRECORD
  5
41E7
102
{ACAD_REACTORS
330
41E6
102
}
330
41E6
100
AcDbXrecord
280
     1
102
RTVSPost2010Prop28
280
     0
102
RTVSPost2010PropOp28
 70
     1
102
RTVSPost2010Prop29
280
     1
102
RTVSPost2010PropOp29
 70
     1
102
RTVSPost2010Prop30
280
     1
102
RTVSPost2010PropOp30
 70
     1
102
RTVSPost2010Prop31
280
     0
102
RTVSPost2010PropOp31
 70
     1
102
RTVSPost2010Prop32
280
     0
102
RTVSPost2010PropOp32
 70
     1
102
RTVSPost2010Prop33
280
     0
102
RTVSPost2010PropOp33
 70
     1
102
RTVSPost2010Prop34
280
     0
102
RTVSPost2010PropOp34
 70
     1
102
RTVSPost2010Prop35
280
     0
102
RTVSPost2010PropOp35
 70
     1
102
RTVSPost2010Prop36
280
     0
102
RTVSPost2010PropOp36
 70
     1
102
RTVSPost2010Prop37
 90
       50
102
RTVSPost2010PropOp37
 70
     1
102
RTVSPost2010Prop38
140
0.0
102
RTVSPost2010PropOp38
 70
     1
102
RTVSPost2010Prop39
140
1.0
102
RTVSPost2010PropOp39
 70
     1
102
RTVSPost2010Prop40
 90
        0
102
RTVSPost2010PropOp40
 70
     1
102
RTVSPost2010Prop41ColorIndex
 90
       18
102
RTVSPost2010Prop41ColorRGB
 90
        0
102
RTVSPost2010PropOp41
 70
     1
102
RTVSPost2010Prop42
 90
       50
102
RTVSPost2010PropOp42
 70
     1
102
RTVSPost2010Prop43
 90
        3
102
RTVSPost2010PropOp43
 70
     1
102
RTVSPost2010Prop44ColorIndex
 90
        5
102
RTVSPost2010Prop44ColorRGB
 90
      255
102
RTVSPost2010PropOp44
 70
     1
102
RTVSPost2010Prop45
280
     0
102
RTVSPost2010PropOp45
 70
     1
102
RTVSPost2010Prop46
 90
       50
102
RTVSPost2010PropOp46
 70
     1
102
RTVSPost2010Prop47
 90
       50
102
RTVSPost2010PropOp47
 70
     1
102
RTVSPost2010Prop48
 90
       50
102
RTVSPost2010PropOp48
 70
     1
102
RTVSPost2010Prop49
280
     0
102
RTVSPost2010PropOp49
 70
     1
102
RTVSPost2010Prop50
 90
       50
102
RTVSPost2010PropOp50
 70
     1
102
RTVSPost2010Prop51ColorIndex
 90
      256
102
RTVSPost2010Prop51ColorRGB
 90
-16777216
102
RTVSPost2010PropOp51
 70
     0
102
RTVSPost2010Prop52
140
1.0
102
RTVSPost2010PropOp52
 70
     0
102
RTVSPost2010Prop53
 90
        2
102
RTVSPost2010PropOp53
 70
     1
102
RTVSPost2010Prop54
  1
strokes_ogs.tif
102
RTVSPost2010PropOp54
 70
     1
102
RTVSPost2010Prop55
280
     0
102
RTVSPost2010PropOp55
 70
     1
102
RTVSPost2010Prop56
140
1.0
102
RTVSPost2010PropOp56
 70
     1
102
RTVSPost2010Prop57
140
1.0
102
RTVSPost2010PropOp57
 70
     1
102
RTVSPropertyOp0
 70
     1
102
RTVSPropertyOp1
 70
     1
102
RTVSPropertyOp2
 70
     1
102
RTVSPropertyOp3
 70
     1
102
RTVSPropertyOp4
 70
     1
102
RTVSPropertyOp5
 70
     1
102
RTVSPropertyOp6
 70
     1
102
RTVSPropertyOp7
 70
     1
102
RTVSPropertyOp8
 70
     1
102
RTVSPropertyOp9
 70
     1
102
RTVSPropertyOp10
 70
     1
102
RTVSPropertyOp11
 70
     1
102
RTVSPropertyOp12
 70
     1
102
RTVSPropertyOp13
 70
     1
102
RTVSPropertyOp14
 70
     1
102
RTVSPropertyOp15
 70
     1
102
RTVSPropertyOp16
 70
     1
102
RTVSPropertyOp17
 70
     1
102
RTVSPropertyOp18
 70
     1
102
RTVSPropertyOp19
 70
     1
102
RTVSPropertyOp20
 70
     1
102
RTVSPropertyOp21
 70
     1
102
RTVSPropertyOp22
 70
     1
102
RTVSPropertyOp23
 70
     1
102
RTVSPropertyOp24
 70
     1
102
RTVSPropertyOp25
 70
     1
102
RTVSPropertyOp26
 70
     1
102
RTVSPropertyOp27
 70
     1
102
RTVSPropertyOp28
 70
     1
102
RTVSPropertyOp29
 70
     1
102
RTVSPropertyOp30
 70
     1
102
RTVSPropertyOp31
 70
     1
102
RTVSPropertyOp32
 70
     1
102
RTVSPropertyOp33
 70
     1
102
RTVSPropertyOp34
 70
     1
102
RTVSPropertyOp35
 70
     1
102
RTVSPropertyOp36
 70
     1
102
RTVSPropertyOp37
 70
     1
102
RTVSPropertyOp38
 70
     1
102
RTVSPropertyOp39
 70
     1
102
RTVSPropertyOp40
 70
     1
102
RTVSPropertyOp41
 70
     1
102
RTVSPropertyOp42
 70
     1
102
RTVSPropertyOp43
 70
     1
102
RTVSPropertyOp44
 70
     1
102
RTVSPropertyOp45
 70
     1
102
RTVSPropertyOp46
 70
     1
102
RTVSPropertyOp47
 70
     1
102
RTVSPropertyOp48
 70
     1
102
RTVSPropertyOp49
 70
     1
102
RTVSPropertyOp50
 70
     1
102
RTVSPropertyOp51
 70
     0
102
RTVSPropertyOp52
 70
     0
102
RTVSPropertyOp53
 70
     1
102
RTVSPropertyOp54
 70
     1
102
RTVSPropertyOp55
 70
     1
102
RTVSPropertyOp56
 70
     1
102
RTVSPropertyOp57
 70
     1
102
RTVSPropertyOp58
 70
     1
102
RTVSPropertyOp59
 70
     1
102
RTVSPropertyOp60
 70
     1
102
RTVSPropertyOp61
 70
     1
102
RTVSPropertyOp62
 70
     1
  0
XRECORD
  5
4222
102
{ACAD_REACTORS
330
4221
102
}
330
4221
100
AcDbXrecord
280
     1
102
RTVSPost2010Prop28
280
     0
102
RTVSPost2010PropOp28
 70
     1
102
RTVSPost2010Prop29
280
     1
102
RTVSPost2010PropOp29
 70
     1
102
RTVSPost2010Prop30
280
     1
102
RTVSPost2010PropOp30
 70
     1
102
RTVSPost2010Prop31
280
     0
102
RTVSPost2010PropOp31
 70
     1
102
RTVSPost2010Prop32
280
     0
102
RTVSPost2010PropOp32
 70
     1
102
RTVSPost2010Prop33
280
     0
102
RTVSPost2010PropOp33
 70
     1
102
RTVSPost2010Prop34
280
     0
102
RTVSPost2010PropOp34
 70
     1
102
RTVSPost2010Prop35
280
     0
102
RTVSPost2010PropOp35
 70
     1
102
RTVSPost2010Prop36
280
     0
102
RTVSPost2010PropOp36
 70
     1
102
RTVSPost2010Prop37
 90
       50
102
RTVSPost2010PropOp37
 70
     1
102
RTVSPost2010Prop38
140
0.0
102
RTVSPost2010PropOp38
 70
     1
102
RTVSPost2010Prop39
140
1.0
102
RTVSPost2010PropOp39
 70
     1
102
RTVSPost2010Prop40
 90
        0
102
RTVSPost2010PropOp40
 70
     1
102
RTVSPost2010Prop41ColorIndex
 90
       18
102
RTVSPost2010Prop41ColorRGB
 90
        0
102
RTVSPost2010PropOp41
 70
     1
102
RTVSPost2010Prop42
 90
       50
102
RTVSPost2010PropOp42
 70
     1
102
RTVSPost2010Prop43
 90
        3
102
RTVSPost2010PropOp43
 70
     1
102
RTVSPost2010Prop44ColorIndex
 90
        5
102
RTVSPost2010Prop44ColorRGB
 90
      255
102
RTVSPost2010PropOp44
 70
     1
102
RTVSPost2010Prop45
280
     0
102
RTVSPost2010PropOp45
 70
     1
102
RTVSPost2010Prop46
 90
       50
102
RTVSPost2010PropOp46
 70
     1
102
RTVSPost2010Prop47
 90
       50
102
RTVSPost2010PropOp47
 70
     1
102
RTVSPost2010Prop48
 90
       50
102
RTVSPost2010PropOp48
 70
     1
102
RTVSPost2010Prop49
280
     0
102
RTVSPost2010PropOp49
 70
     1
102
RTVSPost2010Prop50
 90
       50
102
RTVSPost2010PropOp50
 70
     1
102
RTVSPost2010Prop51ColorIndex
 90
      256
102
RTVSPost2010Prop51ColorRGB
 90
-16777216
102
RTVSPost2010PropOp51
 70
     0
102
RTVSPost2010Prop52
140
1.0
102
RTVSPost2010PropOp52
 70
     0
102
RTVSPost2010Prop53
 90
        2
102
RTVSPost2010PropOp53
 70
     1
102
RTVSPost2010Prop54
  1
strokes_ogs.tif
102
RTVSPost2010PropOp54
 70
     1
102
RTVSPost2010Prop55
280
     0
102
RTVSPost2010PropOp55
 70
     1
102
RTVSPost2010Prop56
140
1.0
102
RTVSPost2010PropOp56
 70
     1
102
RTVSPost2010Prop57
140
1.0
102
RTVSPost2010PropOp57
 70
     1
102
RTVSPropertyOp0
 70
     1
102
RTVSPropertyOp1
 70
     1
102
RTVSPropertyOp2
 70
     1
102
RTVSPropertyOp3
 70
     1
102
RTVSPropertyOp4
 70
     1
102
RTVSPropertyOp5
 70
     1
102
RTVSPropertyOp6
 70
     1
102
RTVSPropertyOp7
 70
     1
102
RTVSPropertyOp8
 70
     1
102
RTVSPropertyOp9
 70
     1
102
RTVSPropertyOp10
 70
     1
102
RTVSPropertyOp11
 70
     1
102
RTVSPropertyOp12
 70
     1
102
RTVSPropertyOp13
 70
     1
102
RTVSPropertyOp14
 70
     1
102
RTVSPropertyOp15
 70
     1
102
RTVSPropertyOp16
 70
     1
102
RTVSPropertyOp17
 70
     1
102
RTVSPropertyOp18
 70
     1
102
RTVSPropertyOp19
 70
     1
102
RTVSPropertyOp20
 70
     1
102
RTVSPropertyOp21
 70
     1
102
RTVSPropertyOp22
 70
     1
102
RTVSPropertyOp23
 70
     1
102
RTVSPropertyOp24
 70
     1
102
RTVSPropertyOp25
 70
     1
102
RTVSPropertyOp26
 70
     1
102
RTVSPropertyOp27
 70
     1
102
RTVSPropertyOp28
 70
     1
102
RTVSPropertyOp29
 70
     1
102
RTVSPropertyOp30
 70
     1
102
RTVSPropertyOp31
 70
     1
102
RTVSPropertyOp32
 70
     1
102
RTVSPropertyOp33
 70
     1
102
RTVSPropertyOp34
 70
     1
102
RTVSPropertyOp35
 70
     1
102
RTVSPropertyOp36
 70
     1
102
RTVSPropertyOp37
 70
     1
102
RTVSPropertyOp38
 70
     1
102
RTVSPropertyOp39
 70
     1
102
RTVSPropertyOp40
 70
     1
102
RTVSPropertyOp41
 70
     1
102
RTVSPropertyOp42
 70
     1
102
RTVSPropertyOp43
 70
     1
102
RTVSPropertyOp44
 70
     1
102
RTVSPropertyOp45
 70
     1
102
RTVSPropertyOp46
 70
     1
102
RTVSPropertyOp47
 70
     1
102
RTVSPropertyOp48
 70
     1
102
RTVSPropertyOp49
 70
     1
102
RTVSPropertyOp50
 70
     1
102
RTVSPropertyOp51
 70
     0
102
RTVSPropertyOp52
 70
     0
102
RTVSPropertyOp53
 70
     1
102
RTVSPropertyOp54
 70
     1
102
RTVSPropertyOp55
 70
     1
102
RTVSPropertyOp56
 70
     1
102
RTVSPropertyOp57
 70
     1
102
RTVSPropertyOp58
 70
     1
102
RTVSPropertyOp59
 70
     1
102
RTVSPropertyOp60
 70
     1
102
RTVSPropertyOp61
 70
     1
102
RTVSPropertyOp62
 70
     1
  0
XRECORD
  5
4202
102
{ACAD_REACTORS
330
4201
102
}
330
4201
100
AcDbXrecord
280
     1
102
RTVSPost2010Prop28
280
     0
102
RTVSPost2010PropOp28
 70
     1
102
RTVSPost2010Prop29
280
     1
102
RTVSPost2010PropOp29
 70
     1
102
RTVSPost2010Prop30
280
     1
102
RTVSPost2010PropOp30
 70
     1
102
RTVSPost2010Prop31
280
     0
102
RTVSPost2010PropOp31
 70
     1
102
RTVSPost2010Prop32
280
     0
102
RTVSPost2010PropOp32
 70
     1
102
RTVSPost2010Prop33
280
     0
102
RTVSPost2010PropOp33
 70
     1
102
RTVSPost2010Prop34
280
     0
102
RTVSPost2010PropOp34
 70
     1
102
RTVSPost2010Prop35
280
     0
102
RTVSPost2010PropOp35
 70
     1
102
RTVSPost2010Prop36
280
     0
102
RTVSPost2010PropOp36
 70
     1
102
RTVSPost2010Prop37
 90
       50
102
RTVSPost2010PropOp37
 70
     1
102
RTVSPost2010Prop38
140
0.0
102
RTVSPost2010PropOp38
 70
     1
102
RTVSPost2010Prop39
140
1.0
102
RTVSPost2010PropOp39
 70
     1
102
RTVSPost2010Prop40
 90
        0
102
RTVSPost2010PropOp40
 70
     1
102
RTVSPost2010Prop41ColorIndex
 90
       18
102
RTVSPost2010Prop41ColorRGB
 90
        0
102
RTVSPost2010PropOp41
 70
     1
102
RTVSPost2010Prop42
 90
       50
102
RTVSPost2010PropOp42
 70
     1
102
RTVSPost2010Prop43
 90
        3
102
RTVSPost2010PropOp43
 70
     1
102
RTVSPost2010Prop44ColorIndex
 90
        5
102
RTVSPost2010Prop44ColorRGB
 90
      255
102
RTVSPost2010PropOp44
 70
     1
102
RTVSPost2010Prop45
280
     0
102
RTVSPost2010PropOp45
 70
     1
102
RTVSPost2010Prop46
 90
       50
102
RTVSPost2010PropOp46
 70
     1
102
RTVSPost2010Prop47
 90
       50
102
RTVSPost2010PropOp47
 70
     1
102
RTVSPost2010Prop48
 90
       50
102
RTVSPost2010PropOp48
 70
     1
102
RTVSPost2010Prop49
280
     0
102
RTVSPost2010PropOp49
 70
     1
102
RTVSPost2010Prop50
 90
       50
102
RTVSPost2010PropOp50
 70
     1
102
RTVSPost2010Prop51ColorIndex
 90
      256
102
RTVSPost2010Prop51ColorRGB
 90
-16777216
102
RTVSPost2010PropOp51
 70
     0
102
RTVSPost2010Prop52
140
1.0
102
RTVSPost2010PropOp52
 70
     0
102
RTVSPost2010Prop53
 90
        2
102
RTVSPost2010PropOp53
 70
     1
102
RTVSPost2010Prop54
  1
strokes_ogs.tif
102
RTVSPost2010PropOp54
 70
     1
102
RTVSPost2010Prop55
280
     0
102
RTVSPost2010PropOp55
 70
     1
102
RTVSPost2010Prop56
140
1.0
102
RTVSPost2010PropOp56
 70
     1
102
RTVSPost2010Prop57
140
1.0
102
RTVSPost2010PropOp57
 70
     1
102
RTVSPropertyOp0
 70
     0
102
RTVSPropertyOp1
 70
     0
102
RTVSPropertyOp2
 70
     0
102
RTVSPropertyOp3
 70
     0
102
RTVSPropertyOp4
 70
     0
102
RTVSPropertyOp5
 70
     0
102
RTVSPropertyOp6
 70
     0
102
RTVSPropertyOp7
 70
     0
102
RTVSPropertyOp8
 70
     0
102
RTVSPropertyOp9
 70
     0
102
RTVSPropertyOp10
 70
     0
102
RTVSPropertyOp11
 70
     0
102
RTVSPropertyOp12
 70
     0
102
RTVSPropertyOp13
 70
     0
102
RTVSPropertyOp14
 70
     2
102
RTVSPropertyOp15
 70
     0
102
RTVSPropertyOp16
 70
     0
102
RTVSPropertyOp17
 70
     0
102
RTVSPropertyOp18
 70
     0
102
RTVSPropertyOp19
 70
     0
102
RTVSPropertyOp20
 70
     0
102
RTVSPropertyOp21
 70
     0
102
RTVSPropertyOp22
 70
     0
102
RTVSPropertyOp23
 70
     0
102
RTVSPropertyOp24
 70
     0
102
RTVSPropertyOp25
 70
     0
102
RTVSPropertyOp26
 70
     0
102
RTVSPropertyOp27
 70
     0
102
RTVSPropertyOp28
 70
     1
102
RTVSPropertyOp29
 70
     1
102
RTVSPropertyOp30
 70
     1
102
RTVSPropertyOp31
 70
     1
102
RTVSPropertyOp32
 70
     1
102
RTVSPropertyOp33
 70
     1
102
RTVSPropertyOp34
 70
     1
102
RTVSPropertyOp35
 70
     1
102
RTVSPropertyOp36
 70
     1
102
RTVSPropertyOp37
 70
     1
102
RTVSPropertyOp38
 70
     1
102
RTVSPropertyOp39
 70
     1
102
RTVSPropertyOp40
 70
     1
102
RTVSPropertyOp41
 70
     1
102
RTVSPropertyOp42
 70
     1
102
RTVSPropertyOp43
 70
     1
102
RTVSPropertyOp44
 70
     1
102
RTVSPropertyOp45
 70
     1
102
RTVSPropertyOp46
 70
     1
102
RTVSPropertyOp47
 70
     1
102
RTVSPropertyOp48
 70
     1
102
RTVSPropertyOp49
 70
     1
102
RTVSPropertyOp50
 70
     1
102
RTVSPropertyOp51
 70
     0
102
RTVSPropertyOp52
 70
     0
102
RTVSPropertyOp53
 70
     1
102
RTVSPropertyOp54
 70
     1
102
RTVSPropertyOp55
 70
     1
102
RTVSPropertyOp56
 70
     1
102
RTVSPropertyOp57
 70
     1
102
RTVSPropertyOp58
 70
     1
102
RTVSPropertyOp59
 70
     1
102
RTVSPropertyOp60
 70
     1
102
RTVSPropertyOp61
 70
     1
102
RTVSPropertyOp62
 70
     1
  0
XRECORD
  5
41FB
102
{ACAD_REACTORS
330
41FA
102
}
330
41FA
100
AcDbXrecord
280
     1
102
RTVSPost2010Prop28
280
     0
102
RTVSPost2010PropOp28
 70
     1
102
RTVSPost2010Prop29
280
     1
102
RTVSPost2010PropOp29
 70
     1
102
RTVSPost2010Prop30
280
     1
102
RTVSPost2010PropOp30
 70
     1
102
RTVSPost2010Prop31
280
     0
102
RTVSPost2010PropOp31
 70
     1
102
RTVSPost2010Prop32
280
     0
102
RTVSPost2010PropOp32
 70
     1
102
RTVSPost2010Prop33
280
     0
102
RTVSPost2010PropOp33
 70
     1
102
RTVSPost2010Prop34
280
     0
102
RTVSPost2010PropOp34
 70
     1
102
RTVSPost2010Prop35
280
     0
102
RTVSPost2010PropOp35
 70
     1
102
RTVSPost2010Prop36
280
     0
102
RTVSPost2010PropOp36
 70
     1
102
RTVSPost2010Prop37
 90
       50
102
RTVSPost2010PropOp37
 70
     1
102
RTVSPost2010Prop38
140
0.0
102
RTVSPost2010PropOp38
 70
     1
102
RTVSPost2010Prop39
140
1.0
102
RTVSPost2010PropOp39
 70
     1
102
RTVSPost2010Prop40
 90
        0
102
RTVSPost2010PropOp40
 70
     1
102
RTVSPost2010Prop41ColorIndex
 90
       18
102
RTVSPost2010Prop41ColorRGB
 90
        0
102
RTVSPost2010PropOp41
 70
     1
102
RTVSPost2010Prop42
 90
       50
102
RTVSPost2010PropOp42
 70
     1
102
RTVSPost2010Prop43
 90
        3
102
RTVSPost2010PropOp43
 70
     1
102
RTVSPost2010Prop44ColorIndex
 90
        5
102
RTVSPost2010Prop44ColorRGB
 90
      255
102
RTVSPost2010PropOp44
 70
     1
102
RTVSPost2010Prop45
280
     0
102
RTVSPost2010PropOp45
 70
     1
102
RTVSPost2010Prop46
 90
       50
102
RTVSPost2010PropOp46
 70
     1
102
RTVSPost2010Prop47
 90
       50
102
RTVSPost2010PropOp47
 70
     1
102
RTVSPost2010Prop48
 90
       50
102
RTVSPost2010PropOp48
 70
     1
102
RTVSPost2010Prop49
280
     0
102
RTVSPost2010PropOp49
 70
     1
102
RTVSPost2010Prop50
 90
       50
102
RTVSPost2010PropOp50
 70
     1
102
RTVSPost2010Prop51ColorIndex
 90
      256
102
RTVSPost2010Prop51ColorRGB
 90
-16777216
102
RTVSPost2010PropOp51
 70
     0
102
RTVSPost2010Prop52
140
1.0
102
RTVSPost2010PropOp52
 70
     0
102
RTVSPost2010Prop53
 90
        2
102
RTVSPost2010PropOp53
 70
     1
102
RTVSPost2010Prop54
  1
strokes_ogs.tif
102
RTVSPost2010PropOp54
 70
     1
102
RTVSPost2010Prop55
280
     0
102
RTVSPost2010PropOp55
 70
     1
102
RTVSPost2010Prop56
140
1.0
102
RTVSPost2010PropOp56
 70
     1
102
RTVSPost2010Prop57
140
1.0
102
RTVSPost2010PropOp57
 70
     1
102
RTVSPropertyOp0
 70
     1
102
RTVSPropertyOp1
 70
     1
102
RTVSPropertyOp2
 70
     1
102
RTVSPropertyOp3
 70
     1
102
RTVSPropertyOp4
 70
     1
102
RTVSPropertyOp5
 70
     1
102
RTVSPropertyOp6
 70
     1
102
RTVSPropertyOp7
 70
     1
102
RTVSPropertyOp8
 70
     1
102
RTVSPropertyOp9
 70
     1
102
RTVSPropertyOp10
 70
     1
102
RTVSPropertyOp11
 70
     1
102
RTVSPropertyOp12
 70
     1
102
RTVSPropertyOp13
 70
     1
102
RTVSPropertyOp14
 70
     1
102
RTVSPropertyOp15
 70
     1
102
RTVSPropertyOp16
 70
     1
102
RTVSPropertyOp17
 70
     1
102
RTVSPropertyOp18
 70
     1
102
RTVSPropertyOp19
 70
     1
102
RTVSPropertyOp20
 70
     1
102
RTVSPropertyOp21
 70
     1
102
RTVSPropertyOp22
 70
     1
102
RTVSPropertyOp23
 70
     1
102
RTVSPropertyOp24
 70
     1
102
RTVSPropertyOp25
 70
     1
102
RTVSPropertyOp26
 70
     1
102
RTVSPropertyOp27
 70
     1
102
RTVSPropertyOp28
 70
     1
102
RTVSPropertyOp29
 70
     1
102
RTVSPropertyOp30
 70
     1
102
RTVSPropertyOp31
 70
     1
102
RTVSPropertyOp32
 70
     1
102
RTVSPropertyOp33
 70
     1
102
RTVSPropertyOp34
 70
     1
102
RTVSPropertyOp35
 70
     1
102
RTVSPropertyOp36
 70
     1
102
RTVSPropertyOp37
 70
     1
102
RTVSPropertyOp38
 70
     1
102
RTVSPropertyOp39
 70
     1
102
RTVSPropertyOp40
 70
     1
102
RTVSPropertyOp41
 70
     1
102
RTVSPropertyOp42
 70
     1
102
RTVSPropertyOp43
 70
     1
102
RTVSPropertyOp44
 70
     1
102
RTVSPropertyOp45
 70
     1
102
RTVSPropertyOp46
 70
     1
102
RTVSPropertyOp47
 70
     1
102
RTVSPropertyOp48
 70
     1
102
RTVSPropertyOp49
 70
     1
102
RTVSPropertyOp50
 70
     1
102
RTVSPropertyOp51
 70
     0
102
RTVSPropertyOp52
 70
     0
102
RTVSPropertyOp53
 70
     1
102
RTVSPropertyOp54
 70
     1
102
RTVSPropertyOp55
 70
     1
102
RTVSPropertyOp56
 70
     1
102
RTVSPropertyOp57
 70
     1
102
RTVSPropertyOp58
 70
     1
102
RTVSPropertyOp59
 70
     1
102
RTVSPropertyOp60
 70
     1
102
RTVSPropertyOp61
 70
     1
102
RTVSPropertyOp62
 70
     1
  0
XRECORD
  5
4204
102
{ACAD_REACTORS
330
4203
102
}
330
4203
100
AcDbXrecord
280
     1
102
RTVSPost2010Prop28
280
     0
102
RTVSPost2010PropOp28
 70
     1
102
RTVSPost2010Prop29
280
     1
102
RTVSPost2010PropOp29
 70
     1
102
RTVSPost2010Prop30
280
     1
102
RTVSPost2010PropOp30
 70
     1
102
RTVSPost2010Prop31
280
     0
102
RTVSPost2010PropOp31
 70
     1
102
RTVSPost2010Prop32
280
     0
102
RTVSPost2010PropOp32
 70
     1
102
RTVSPost2010Prop33
280
     0
102
RTVSPost2010PropOp33
 70
     1
102
RTVSPost2010Prop34
280
     0
102
RTVSPost2010PropOp34
 70
     1
102
RTVSPost2010Prop35
280
     0
102
RTVSPost2010PropOp35
 70
     1
102
RTVSPost2010Prop36
280
     0
102
RTVSPost2010PropOp36
 70
     1
102
RTVSPost2010Prop37
 90
       50
102
RTVSPost2010PropOp37
 70
     1
102
RTVSPost2010Prop38
140
0.0
102
RTVSPost2010PropOp38
 70
     1
102
RTVSPost2010Prop39
140
1.0
102
RTVSPost2010PropOp39
 70
     1
102
RTVSPost2010Prop40
 90
        0
102
RTVSPost2010PropOp40
 70
     1
102
RTVSPost2010Prop41ColorIndex
 90
       18
102
RTVSPost2010Prop41ColorRGB
 90
        0
102
RTVSPost2010PropOp41
 70
     1
102
RTVSPost2010Prop42
 90
       50
102
RTVSPost2010PropOp42
 70
     1
102
RTVSPost2010Prop43
 90
        3
102
RTVSPost2010PropOp43
 70
     1
102
RTVSPost2010Prop44ColorIndex
 90
        5
102
RTVSPost2010Prop44ColorRGB
 90
      255
102
RTVSPost2010PropOp44
 70
     1
102
RTVSPost2010Prop45
280
     0
102
RTVSPost2010PropOp45
 70
     1
102
RTVSPost2010Prop46
 90
       50
102
RTVSPost2010PropOp46
 70
     1
102
RTVSPost2010Prop47
 90
       50
102
RTVSPost2010PropOp47
 70
     1
102
RTVSPost2010Prop48
 90
       50
102
RTVSPost2010PropOp48
 70
     1
102
RTVSPost2010Prop49
280
     0
102
RTVSPost2010PropOp49
 70
     1
102
RTVSPost2010Prop50
 90
       50
102
RTVSPost2010PropOp50
 70
     1
102
RTVSPost2010Prop51ColorIndex
 90
      256
102
RTVSPost2010Prop51ColorRGB
 90
-16777216
102
RTVSPost2010PropOp51
 70
     0
102
RTVSPost2010Prop52
140
1.0
102
RTVSPost2010PropOp52
 70
     0
102
RTVSPost2010Prop53
 90
        2
102
RTVSPost2010PropOp53
 70
     1
102
RTVSPost2010Prop54
  1
strokes_ogs.tif
102
RTVSPost2010PropOp54
 70
     1
102
RTVSPost2010Prop55
280
     0
102
RTVSPost2010PropOp55
 70
     1
102
RTVSPost2010Prop56
140
1.0
102
RTVSPost2010PropOp56
 70
     1
102
RTVSPost2010Prop57
140
1.0
102
RTVSPost2010PropOp57
 70
     1
102
RTVSPropertyOp0
 70
     0
102
RTVSPropertyOp1
 70
     0
102
RTVSPropertyOp2
 70
     0
102
RTVSPropertyOp3
 70
     0
102
RTVSPropertyOp4
 70
     0
102
RTVSPropertyOp5
 70
     0
102
RTVSPropertyOp6
 70
     0
102
RTVSPropertyOp7
 70
     0
102
RTVSPropertyOp8
 70
     0
102
RTVSPropertyOp9
 70
     0
102
RTVSPropertyOp10
 70
     0
102
RTVSPropertyOp11
 70
     0
102
RTVSPropertyOp12
 70
     0
102
RTVSPropertyOp13
 70
     0
102
RTVSPropertyOp14
 70
     2
102
RTVSPropertyOp15
 70
     0
102
RTVSPropertyOp16
 70
     0
102
RTVSPropertyOp17
 70
     0
102
RTVSPropertyOp18
 70
     0
102
RTVSPropertyOp19
 70
     0
102
RTVSPropertyOp20
 70
     0
102
RTVSPropertyOp21
 70
     0
102
RTVSPropertyOp22
 70
     0
102
RTVSPropertyOp23
 70
     0
102
RTVSPropertyOp24
 70
     0
102
RTVSPropertyOp25
 70
     0
102
RTVSPropertyOp26
 70
     0
102
RTVSPropertyOp27
 70
     0
102
RTVSPropertyOp28
 70
     1
102
RTVSPropertyOp29
 70
     1
102
RTVSPropertyOp30
 70
     1
102
RTVSPropertyOp31
 70
     1
102
RTVSPropertyOp32
 70
     1
102
RTVSPropertyOp33
 70
     1
102
RTVSPropertyOp34
 70
     1
102
RTVSPropertyOp35
 70
     1
102
RTVSPropertyOp36
 70
     1
102
RTVSPropertyOp37
 70
     1
102
RTVSPropertyOp38
 70
     1
102
RTVSPropertyOp39
 70
     1
102
RTVSPropertyOp40
 70
     1
102
RTVSPropertyOp41
 70
     1
102
RTVSPropertyOp42
 70
     1
102
RTVSPropertyOp43
 70
     1
102
RTVSPropertyOp44
 70
     1
102
RTVSPropertyOp45
 70
     1
102
RTVSPropertyOp46
 70
     1
102
RTVSPropertyOp47
 70
     1
102
RTVSPropertyOp48
 70
     1
102
RTVSPropertyOp49
 70
     1
102
RTVSPropertyOp50
 70
     1
102
RTVSPropertyOp51
 70
     0
102
RTVSPropertyOp52
 70
     0
102
RTVSPropertyOp53
 70
     1
102
RTVSPropertyOp54
 70
     1
102
RTVSPropertyOp55
 70
     1
102
RTVSPropertyOp56
 70
     1
102
RTVSPropertyOp57
 70
     1
102
RTVSPropertyOp58
 70
     1
102
RTVSPropertyOp59
 70
     1
102
RTVSPropertyOp60
 70
     1
102
RTVSPropertyOp61
 70
     1
102
RTVSPropertyOp62
 70
     1
  0
XRECORD
  5
41F3
102
{ACAD_REACTORS
330
41F2
102
}
330
41F2
100
AcDbXrecord
280
     1
102
RTVSPost2010Prop28
280
     0
102
RTVSPost2010PropOp28
 70
     1
102
RTVSPost2010Prop29
280
     1
102
RTVSPost2010PropOp29
 70
     1
102
RTVSPost2010Prop30
280
     1
102
RTVSPost2010PropOp30
 70
     1
102
RTVSPost2010Prop31
280
     0
102
RTVSPost2010PropOp31
 70
     1
102
RTVSPost2010Prop32
280
     0
102
RTVSPost2010PropOp32
 70
     1
102
RTVSPost2010Prop33
280
     0
102
RTVSPost2010PropOp33
 70
     1
102
RTVSPost2010Prop34
280
     0
102
RTVSPost2010PropOp34
 70
     1
102
RTVSPost2010Prop35
280
     0
102
RTVSPost2010PropOp35
 70
     1
102
RTVSPost2010Prop36
280
     0
102
RTVSPost2010PropOp36
 70
     1
102
RTVSPost2010Prop37
 90
       50
102
RTVSPost2010PropOp37
 70
     1
102
RTVSPost2010Prop38
140
0.0
102
RTVSPost2010PropOp38
 70
     1
102
RTVSPost2010Prop39
140
1.0
102
RTVSPost2010PropOp39
 70
     1
102
RTVSPost2010Prop40
 90
        0
102
RTVSPost2010PropOp40
 70
     1
102
RTVSPost2010Prop41ColorIndex
 90
       18
102
RTVSPost2010Prop41ColorRGB
 90
        0
102
RTVSPost2010PropOp41
 70
     1
102
RTVSPost2010Prop42
 90
       50
102
RTVSPost2010PropOp42
 70
     1
102
RTVSPost2010Prop43
 90
        3
102
RTVSPost2010PropOp43
 70
     1
102
RTVSPost2010Prop44ColorIndex
 90
        5
102
RTVSPost2010Prop44ColorRGB
 90
      255
102
RTVSPost2010PropOp44
 70
     1
102
RTVSPost2010Prop45
280
     0
102
RTVSPost2010PropOp45
 70
     1
102
RTVSPost2010Prop46
 90
       50
102
RTVSPost2010PropOp46
 70
     1
102
RTVSPost2010Prop47
 90
       50
102
RTVSPost2010PropOp47
 70
     1
102
RTVSPost2010Prop48
 90
       50
102
RTVSPost2010PropOp48
 70
     1
102
RTVSPost2010Prop49
280
     0
102
RTVSPost2010PropOp49
 70
     1
102
RTVSPost2010Prop50
 90
       50
102
RTVSPost2010PropOp50
 70
     1
102
RTVSPost2010Prop51ColorIndex
 90
      256
102
RTVSPost2010Prop51ColorRGB
 90
-16777216
102
RTVSPost2010PropOp51
 70
     0
102
RTVSPost2010Prop52
140
1.0
102
RTVSPost2010PropOp52
 70
     0
102
RTVSPost2010Prop53
 90
        2
102
RTVSPost2010PropOp53
 70
     1
102
RTVSPost2010Prop54
  1
strokes_ogs.tif
102
RTVSPost2010PropOp54
 70
     1
102
RTVSPost2010Prop55
280
     0
102
RTVSPost2010PropOp55
 70
     1
102
RTVSPost2010Prop56
140
1.0
102
RTVSPost2010PropOp56
 70
     1
102
RTVSPost2010Prop57
140
1.0
102
RTVSPost2010PropOp57
 70
     1
102
RTVSPropertyOp0
 70
     1
102
RTVSPropertyOp1
 70
     1
102
RTVSPropertyOp2
 70
     1
102
RTVSPropertyOp3
 70
     1
102
RTVSPropertyOp4
 70
     1
102
RTVSPropertyOp5
 70
     1
102
RTVSPropertyOp6
 70
     1
102
RTVSPropertyOp7
 70
     1
102
RTVSPropertyOp8
 70
     1
102
RTVSPropertyOp9
 70
     1
102
RTVSPropertyOp10
 70
     1
102
RTVSPropertyOp11
 70
     1
102
RTVSPropertyOp12
 70
     1
102
RTVSPropertyOp13
 70
     1
102
RTVSPropertyOp14
 70
     1
102
RTVSPropertyOp15
 70
     1
102
RTVSPropertyOp16
 70
     1
102
RTVSPropertyOp17
 70
     1
102
RTVSPropertyOp18
 70
     1
102
RTVSPropertyOp19
 70
     1
102
RTVSPropertyOp20
 70
     1
102
RTVSPropertyOp21
 70
     1
102
RTVSPropertyOp22
 70
     1
102
RTVSPropertyOp23
 70
     1
102
RTVSPropertyOp24
 70
     1
102
RTVSPropertyOp25
 70
     1
102
RTVSPropertyOp26
 70
     1
102
RTVSPropertyOp27
 70
     1
102
RTVSPropertyOp28
 70
     1
102
RTVSPropertyOp29
 70
     1
102
RTVSPropertyOp30
 70
     1
102
RTVSPropertyOp31
 70
     1
102
RTVSPropertyOp32
 70
     1
102
RTVSPropertyOp33
 70
     1
102
RTVSPropertyOp34
 70
     1
102
RTVSPropertyOp35
 70
     1
102
RTVSPropertyOp36
 70
     1
102
RTVSPropertyOp37
 70
     1
102
RTVSPropertyOp38
 70
     1
102
RTVSPropertyOp39
 70
     1
102
RTVSPropertyOp40
 70
     1
102
RTVSPropertyOp41
 70
     1
102
RTVSPropertyOp42
 70
     1
102
RTVSPropertyOp43
 70
     1
102
RTVSPropertyOp44
 70
     1
102
RTVSPropertyOp45
 70
     1
102
RTVSPropertyOp46
 70
     1
102
RTVSPropertyOp47
 70
     1
102
RTVSPropertyOp48
 70
     1
102
RTVSPropertyOp49
 70
     1
102
RTVSPropertyOp50
 70
     1
102
RTVSPropertyOp51
 70
     0
102
RTVSPropertyOp52
 70
     0
102
RTVSPropertyOp53
 70
     1
102
RTVSPropertyOp54
 70
     1
102
RTVSPropertyOp55
 70
     1
102
RTVSPropertyOp56
 70
     1
102
RTVSPropertyOp57
 70
     1
102
RTVSPropertyOp58
 70
     1
102
RTVSPropertyOp59
 70
     1
102
RTVSPropertyOp60
 70
     1
102
RTVSPropertyOp61
 70
     1
102
RTVSPropertyOp62
 70
     1
  0
XRECORD
  5
422C
102
{ACAD_REACTORS
330
422B
102
}
330
422B
100
AcDbXrecord
280
     1
102
RTVSPost2010Prop28
280
     0
102
RTVSPost2010PropOp28
 70
     1
102
RTVSPost2010Prop29
280
     1
102
RTVSPost2010PropOp29
 70
     1
102
RTVSPost2010Prop30
280
     1
102
RTVSPost2010PropOp30
 70
     1
102
RTVSPost2010Prop31
280
     0
102
RTVSPost2010PropOp31
 70
     1
102
RTVSPost2010Prop32
280
     0
102
RTVSPost2010PropOp32
 70
     1
102
RTVSPost2010Prop33
280
     0
102
RTVSPost2010PropOp33
 70
     1
102
RTVSPost2010Prop34
280
     0
102
RTVSPost2010PropOp34
 70
     1
102
RTVSPost2010Prop35
280
     0
102
RTVSPost2010PropOp35
 70
     1
102
RTVSPost2010Prop36
280
     0
102
RTVSPost2010PropOp36
 70
     1
102
RTVSPost2010Prop37
 90
       50
102
RTVSPost2010PropOp37
 70
     1
102
RTVSPost2010Prop38
140
0.0
102
RTVSPost2010PropOp38
 70
     1
102
RTVSPost2010Prop39
140
1.0
102
RTVSPost2010PropOp39
 70
     1
102
RTVSPost2010Prop40
 90
        0
102
RTVSPost2010PropOp40
 70
     1
102
RTVSPost2010Prop41ColorIndex
 90
       18
102
RTVSPost2010Prop41ColorRGB
 90
        0
102
RTVSPost2010PropOp41
 70
     1
102
RTVSPost2010Prop42
 90
       50
102
RTVSPost2010PropOp42
 70
     1
102
RTVSPost2010Prop43
 90
        3
102
RTVSPost2010PropOp43
 70
     1
102
RTVSPost2010Prop44ColorIndex
 90
        5
102
RTVSPost2010Prop44ColorRGB
 90
      255
102
RTVSPost2010PropOp44
 70
     1
102
RTVSPost2010Prop45
280
     0
102
RTVSPost2010PropOp45
 70
     1
102
RTVSPost2010Prop46
 90
       50
102
RTVSPost2010PropOp46
 70
     1
102
RTVSPost2010Prop47
 90
       50
102
RTVSPost2010PropOp47
 70
     1
102
RTVSPost2010Prop48
 90
       50
102
RTVSPost2010PropOp48
 70
     1
102
RTVSPost2010Prop49
280
     0
102
RTVSPost2010PropOp49
 70
     1
102
RTVSPost2010Prop50
 90
       50
102
RTVSPost2010PropOp50
 70
     1
102
RTVSPost2010Prop51ColorIndex
 90
      256
102
RTVSPost2010Prop51ColorRGB
 90
-16777216
102
RTVSPost2010PropOp51
 70
     0
102
RTVSPost2010Prop52
140
1.0
102
RTVSPost2010PropOp52
 70
     0
102
RTVSPost2010Prop53
 90
        2
102
RTVSPost2010PropOp53
 70
     1
102
RTVSPost2010Prop54
  1
strokes_ogs.tif
102
RTVSPost2010PropOp54
 70
     1
102
RTVSPost2010Prop55
280
     0
102
RTVSPost2010PropOp55
 70
     1
102
RTVSPost2010Prop56
140
1.0
102
RTVSPost2010PropOp56
 70
     1
102
RTVSPost2010Prop57
140
1.0
102
RTVSPost2010PropOp57
 70
     1
102
RTVSPropertyOp0
 70
     1
102
RTVSPropertyOp1
 70
     1
102
RTVSPropertyOp2
 70
     1
102
RTVSPropertyOp3
 70
     1
102
RTVSPropertyOp4
 70
     1
102
RTVSPropertyOp5
 70
     1
102
RTVSPropertyOp6
 70
     1
102
RTVSPropertyOp7
 70
     1
102
RTVSPropertyOp8
 70
     1
102
RTVSPropertyOp9
 70
     1
102
RTVSPropertyOp10
 70
     1
102
RTVSPropertyOp11
 70
     1
102
RTVSPropertyOp12
 70
     1
102
RTVSPropertyOp13
 70
     1
102
RTVSPropertyOp14
 70
     1
102
RTVSPropertyOp15
 70
     1
102
RTVSPropertyOp16
 70
     1
102
RTVSPropertyOp17
 70
     1
102
RTVSPropertyOp18
 70
     1
102
RTVSPropertyOp19
 70
     1
102
RTVSPropertyOp20
 70
     1
102
RTVSPropertyOp21
 70
     1
102
RTVSPropertyOp22
 70
     1
102
RTVSPropertyOp23
 70
     1
102
RTVSPropertyOp24
 70
     1
102
RTVSPropertyOp25
 70
     1
102
RTVSPropertyOp26
 70
     1
102
RTVSPropertyOp27
 70
     1
102
RTVSPropertyOp28
 70
     1
102
RTVSPropertyOp29
 70
     1
102
RTVSPropertyOp30
 70
     1
102
RTVSPropertyOp31
 70
     1
102
RTVSPropertyOp32
 70
     1
102
RTVSPropertyOp33
 70
     1
102
RTVSPropertyOp34
 70
     1
102
RTVSPropertyOp35
 70
     1
102
RTVSPropertyOp36
 70
     1
102
RTVSPropertyOp37
 70
     1
102
RTVSPropertyOp38
 70
     1
102
RTVSPropertyOp39
 70
     1
102
RTVSPropertyOp40
 70
     1
102
RTVSPropertyOp41
 70
     1
102
RTVSPropertyOp42
 70
     1
102
RTVSPropertyOp43
 70
     1
102
RTVSPropertyOp44
 70
     1
102
RTVSPropertyOp45
 70
     1
102
RTVSPropertyOp46
 70
     1
102
RTVSPropertyOp47
 70
     1
102
RTVSPropertyOp48
 70
     1
102
RTVSPropertyOp49
 70
     1
102
RTVSPropertyOp50
 70
     1
102
RTVSPropertyOp51
 70
     0
102
RTVSPropertyOp52
 70
     0
102
RTVSPropertyOp53
 70
     1
102
RTVSPropertyOp54
 70
     1
102
RTVSPropertyOp55
 70
     1
102
RTVSPropertyOp56
 70
     1
102
RTVSPropertyOp57
 70
     1
102
RTVSPropertyOp58
 70
     1
102
RTVSPropertyOp59
 70
     1
102
RTVSPropertyOp60
 70
     1
102
RTVSPropertyOp61
 70
     1
102
RTVSPropertyOp62
 70
     1
  0
XRECORD
  5
422A
102
{ACAD_REACTORS
330
4229
102
}
330
4229
100
AcDbXrecord
280
     1
102
RTVSPost2010Prop28
280
     0
102
RTVSPost2010PropOp28
 70
     1
102
RTVSPost2010Prop29
280
     1
102
RTVSPost2010PropOp29
 70
     1
102
RTVSPost2010Prop30
280
     1
102
RTVSPost2010PropOp30
 70
     1
102
RTVSPost2010Prop31
280
     0
102
RTVSPost2010PropOp31
 70
     1
102
RTVSPost2010Prop32
280
     0
102
RTVSPost2010PropOp32
 70
     1
102
RTVSPost2010Prop33
280
     0
102
RTVSPost2010PropOp33
 70
     1
102
RTVSPost2010Prop34
280
     0
102
RTVSPost2010PropOp34
 70
     1
102
RTVSPost2010Prop35
280
     0
102
RTVSPost2010PropOp35
 70
     1
102
RTVSPost2010Prop36
280
     0
102
RTVSPost2010PropOp36
 70
     1
102
RTVSPost2010Prop37
 90
       50
102
RTVSPost2010PropOp37
 70
     1
102
RTVSPost2010Prop38
140
0.0
102
RTVSPost2010PropOp38
 70
     1
102
RTVSPost2010Prop39
140
1.0
102
RTVSPost2010PropOp39
 70
     1
102
RTVSPost2010Prop40
 90
        0
102
RTVSPost2010PropOp40
 70
     1
102
RTVSPost2010Prop41ColorIndex
 90
       18
102
RTVSPost2010Prop41ColorRGB
 90
        0
102
RTVSPost2010PropOp41
 70
     1
102
RTVSPost2010Prop42
 90
       50
102
RTVSPost2010PropOp42
 70
     1
102
RTVSPost2010Prop43
 90
        3
102
RTVSPost2010PropOp43
 70
     1
102
RTVSPost2010Prop44ColorIndex
 90
        5
102
RTVSPost2010Prop44ColorRGB
 90
      255
102
RTVSPost2010PropOp44
 70
     1
102
RTVSPost2010Prop45
280
     0
102
RTVSPost2010PropOp45
 70
     1
102
RTVSPost2010Prop46
 90
       50
102
RTVSPost2010PropOp46
 70
     1
102
RTVSPost2010Prop47
 90
       50
102
RTVSPost2010PropOp47
 70
     1
102
RTVSPost2010Prop48
 90
       50
102
RTVSPost2010PropOp48
 70
     1
102
RTVSPost2010Prop49
280
     0
102
RTVSPost2010PropOp49
 70
     1
102
RTVSPost2010Prop50
 90
       50
102
RTVSPost2010PropOp50
 70
     1
102
RTVSPost2010Prop51ColorIndex
 90
      256
102
RTVSPost2010Prop51ColorRGB
 90
-16777216
102
RTVSPost2010PropOp51
 70
     0
102
RTVSPost2010Prop52
140
1.0
102
RTVSPost2010PropOp52
 70
     0
102
RTVSPost2010Prop53
 90
        2
102
RTVSPost2010PropOp53
 70
     1
102
RTVSPost2010Prop54
  1
strokes_ogs.tif
102
RTVSPost2010PropOp54
 70
     1
102
RTVSPost2010Prop55
280
     0
102
RTVSPost2010PropOp55
 70
     1
102
RTVSPost2010Prop56
140
1.0
102
RTVSPost2010PropOp56
 70
     1
102
RTVSPost2010Prop57
140
1.0
102
RTVSPost2010PropOp57
 70
     1
102
RTVSPropertyOp0
 70
     1
102
RTVSPropertyOp1
 70
     1
102
RTVSPropertyOp2
 70
     1
102
RTVSPropertyOp3
 70
     1
102
RTVSPropertyOp4
 70
     1
102
RTVSPropertyOp5
 70
     1
102
RTVSPropertyOp6
 70
     1
102
RTVSPropertyOp7
 70
     1
102
RTVSPropertyOp8
 70
     1
102
RTVSPropertyOp9
 70
     1
102
RTVSPropertyOp10
 70
     1
102
RTVSPropertyOp11
 70
     1
102
RTVSPropertyOp12
 70
     1
102
RTVSPropertyOp13
 70
     1
102
RTVSPropertyOp14
 70
     1
102
RTVSPropertyOp15
 70
     1
102
RTVSPropertyOp16
 70
     1
102
RTVSPropertyOp17
 70
     1
102
RTVSPropertyOp18
 70
     1
102
RTVSPropertyOp19
 70
     1
102
RTVSPropertyOp20
 70
     1
102
RTVSPropertyOp21
 70
     1
102
RTVSPropertyOp22
 70
     1
102
RTVSPropertyOp23
 70
     1
102
RTVSPropertyOp24
 70
     1
102
RTVSPropertyOp25
 70
     1
102
RTVSPropertyOp26
 70
     1
102
RTVSPropertyOp27
 70
     1
102
RTVSPropertyOp28
 70
     1
102
RTVSPropertyOp29
 70
     1
102
RTVSPropertyOp30
 70
     1
102
RTVSPropertyOp31
 70
     1
102
RTVSPropertyOp32
 70
     1
102
RTVSPropertyOp33
 70
     1
102
RTVSPropertyOp34
 70
     1
102
RTVSPropertyOp35
 70
     1
102
RTVSPropertyOp36
 70
     1
102
RTVSPropertyOp37
 70
     1
102
RTVSPropertyOp38
 70
     1
102
RTVSPropertyOp39
 70
     1
102
RTVSPropertyOp40
 70
     1
102
RTVSPropertyOp41
 70
     1
102
RTVSPropertyOp42
 70
     1
102
RTVSPropertyOp43
 70
     1
102
RTVSPropertyOp44
 70
     1
102
RTVSPropertyOp45
 70
     1
102
RTVSPropertyOp46
 70
     1
102
RTVSPropertyOp47
 70
     1
102
RTVSPropertyOp48
 70
     1
102
RTVSPropertyOp49
 70
     1
102
RTVSPropertyOp50
 70
     1
102
RTVSPropertyOp51
 70
     0
102
RTVSPropertyOp52
 70
     0
102
RTVSPropertyOp53
 70
     1
102
RTVSPropertyOp54
 70
     1
102
RTVSPropertyOp55
 70
     1
102
RTVSPropertyOp56
 70
     1
102
RTVSPropertyOp57
 70
     1
102
RTVSPropertyOp58
 70
     1
102
RTVSPropertyOp59
 70
     1
102
RTVSPropertyOp60
 70
     1
102
RTVSPropertyOp61
 70
     1
102
RTVSPropertyOp62
 70
     1
  0
XRECORD
  5
4224
102
{ACAD_REACTORS
330
4223
102
}
330
4223
100
AcDbXrecord
280
     1
102
RTVSPost2010Prop28
280
     0
102
RTVSPost2010PropOp28
 70
     1
102
RTVSPost2010Prop29
280
     1
102
RTVSPost2010PropOp29
 70
     1
102
RTVSPost2010Prop30
280
     1
102
RTVSPost2010PropOp30
 70
     1
102
RTVSPost2010Prop31
280
     0
102
RTVSPost2010PropOp31
 70
     1
102
RTVSPost2010Prop32
280
     0
102
RTVSPost2010PropOp32
 70
     1
102
RTVSPost2010Prop33
280
     0
102
RTVSPost2010PropOp33
 70
     1
102
RTVSPost2010Prop34
280
     0
102
RTVSPost2010PropOp34
 70
     1
102
RTVSPost2010Prop35
280
     0
102
RTVSPost2010PropOp35
 70
     1
102
RTVSPost2010Prop36
280
     0
102
RTVSPost2010PropOp36
 70
     1
102
RTVSPost2010Prop37
 90
       50
102
RTVSPost2010PropOp37
 70
     1
102
RTVSPost2010Prop38
140
0.0
102
RTVSPost2010PropOp38
 70
     1
102
RTVSPost2010Prop39
140
1.0
102
RTVSPost2010PropOp39
 70
     1
102
RTVSPost2010Prop40
 90
        0
102
RTVSPost2010PropOp40
 70
     1
102
RTVSPost2010Prop41ColorIndex
 90
       18
102
RTVSPost2010Prop41ColorRGB
 90
        0
102
RTVSPost2010PropOp41
 70
     1
102
RTVSPost2010Prop42
 90
       50
102
RTVSPost2010PropOp42
 70
     1
102
RTVSPost2010Prop43
 90
        3
102
RTVSPost2010PropOp43
 70
     1
102
RTVSPost2010Prop44ColorIndex
 90
        5
102
RTVSPost2010Prop44ColorRGB
 90
      255
102
RTVSPost2010PropOp44
 70
     1
102
RTVSPost2010Prop45
280
     0
102
RTVSPost2010PropOp45
 70
     1
102
RTVSPost2010Prop46
 90
       50
102
RTVSPost2010PropOp46
 70
     1
102
RTVSPost2010Prop47
 90
       50
102
RTVSPost2010PropOp47
 70
     1
102
RTVSPost2010Prop48
 90
       50
102
RTVSPost2010PropOp48
 70
     1
102
RTVSPost2010Prop49
280
     0
102
RTVSPost2010PropOp49
 70
     1
102
RTVSPost2010Prop50
 90
       50
102
RTVSPost2010PropOp50
 70
     1
102
RTVSPost2010Prop51ColorIndex
 90
      256
102
RTVSPost2010Prop51ColorRGB
 90
-16777216
102
RTVSPost2010PropOp51
 70
     0
102
RTVSPost2010Prop52
140
1.0
102
RTVSPost2010PropOp52
 70
     0
102
RTVSPost2010Prop53
 90
        2
102
RTVSPost2010PropOp53
 70
     1
102
RTVSPost2010Prop54
  1
strokes_ogs.tif
102
RTVSPost2010PropOp54
 70
     1
102
RTVSPost2010Prop55
280
     0
102
RTVSPost2010PropOp55
 70
     1
102
RTVSPost2010Prop56
140
1.0
102
RTVSPost2010PropOp56
 70
     1
102
RTVSPost2010Prop57
140
1.0
102
RTVSPost2010PropOp57
 70
     1
102
RTVSPropertyOp0
 70
     1
102
RTVSPropertyOp1
 70
     1
102
RTVSPropertyOp2
 70
     1
102
RTVSPropertyOp3
 70
     1
102
RTVSPropertyOp4
 70
     1
102
RTVSPropertyOp5
 70
     1
102
RTVSPropertyOp6
 70
     1
102
RTVSPropertyOp7
 70
     1
102
RTVSPropertyOp8
 70
     1
102
RTVSPropertyOp9
 70
     1
102
RTVSPropertyOp10
 70
     1
102
RTVSPropertyOp11
 70
     1
102
RTVSPropertyOp12
 70
     1
102
RTVSPropertyOp13
 70
     1
102
RTVSPropertyOp14
 70
     1
102
RTVSPropertyOp15
 70
     1
102
RTVSPropertyOp16
 70
     1
102
RTVSPropertyOp17
 70
     1
102
RTVSPropertyOp18
 70
     1
102
RTVSPropertyOp19
 70
     1
102
RTVSPropertyOp20
 70
     1
102
RTVSPropertyOp21
 70
     1
102
RTVSPropertyOp22
 70
     1
102
RTVSPropertyOp23
 70
     1
102
RTVSPropertyOp24
 70
     1
102
RTVSPropertyOp25
 70
     1
102
RTVSPropertyOp26
 70
     1
102
RTVSPropertyOp27
 70
     1
102
RTVSPropertyOp28
 70
     1
102
RTVSPropertyOp29
 70
     1
102
RTVSPropertyOp30
 70
     1
102
RTVSPropertyOp31
 70
     1
102
RTVSPropertyOp32
 70
     1
102
RTVSPropertyOp33
 70
     1
102
RTVSPropertyOp34
 70
     1
102
RTVSPropertyOp35
 70
     1
102
RTVSPropertyOp36
 70
     1
102
RTVSPropertyOp37
 70
     1
102
RTVSPropertyOp38
 70
     1
102
RTVSPropertyOp39
 70
     1
102
RTVSPropertyOp40
 70
     1
102
RTVSPropertyOp41
 70
     1
102
RTVSPropertyOp42
 70
     1
102
RTVSPropertyOp43
 70
     1
102
RTVSPropertyOp44
 70
     1
102
RTVSPropertyOp45
 70
     1
102
RTVSPropertyOp46
 70
     1
102
RTVSPropertyOp47
 70
     1
102
RTVSPropertyOp48
 70
     1
102
RTVSPropertyOp49
 70
     1
102
RTVSPropertyOp50
 70
     1
102
RTVSPropertyOp51
 70
     0
102
RTVSPropertyOp52
 70
     0
102
RTVSPropertyOp53
 70
     1
102
RTVSPropertyOp54
 70
     1
102
RTVSPropertyOp55
 70
     1
102
RTVSPropertyOp56
 70
     1
102
RTVSPropertyOp57
 70
     1
102
RTVSPropertyOp58
 70
     1
102
RTVSPropertyOp59
 70
     1
102
RTVSPropertyOp60
 70
     1
102
RTVSPropertyOp61
 70
     1
102
RTVSPropertyOp62
 70
     1
  0
XRECORD
  5
4226
102
{ACAD_REACTORS
330
4225
102
}
330
4225
100
AcDbXrecord
280
     1
102
RTVSPost2010Prop28
280
     0
102
RTVSPost2010PropOp28
 70
     1
102
RTVSPost2010Prop29
280
     1
102
RTVSPost2010PropOp29
 70
     1
102
RTVSPost2010Prop30
280
     1
102
RTVSPost2010PropOp30
 70
     1
102
RTVSPost2010Prop31
280
     0
102
RTVSPost2010PropOp31
 70
     1
102
RTVSPost2010Prop32
280
     0
102
RTVSPost2010PropOp32
 70
     1
102
RTVSPost2010Prop33
280
     0
102
RTVSPost2010PropOp33
 70
     1
102
RTVSPost2010Prop34
280
     0
102
RTVSPost2010PropOp34
 70
     1
102
RTVSPost2010Prop35
280
     0
102
RTVSPost2010PropOp35
 70
     1
102
RTVSPost2010Prop36
280
     0
102
RTVSPost2010PropOp36
 70
     1
102
RTVSPost2010Prop37
 90
       50
102
RTVSPost2010PropOp37
 70
     1
102
RTVSPost2010Prop38
140
0.0
102
RTVSPost2010PropOp38
 70
     1
102
RTVSPost2010Prop39
140
1.0
102
RTVSPost2010PropOp39
 70
     1
102
RTVSPost2010Prop40
 90
        0
102
RTVSPost2010PropOp40
 70
     1
102
RTVSPost2010Prop41ColorIndex
 90
       18
102
RTVSPost2010Prop41ColorRGB
 90
        0
102
RTVSPost2010PropOp41
 70
     1
102
RTVSPost2010Prop42
 90
       50
102
RTVSPost2010PropOp42
 70
     1
102
RTVSPost2010Prop43
 90
        3
102
RTVSPost2010PropOp43
 70
     1
102
RTVSPost2010Prop44ColorIndex
 90
        5
102
RTVSPost2010Prop44ColorRGB
 90
      255
102
RTVSPost2010PropOp44
 70
     1
102
RTVSPost2010Prop45
280
     0
102
RTVSPost2010PropOp45
 70
     1
102
RTVSPost2010Prop46
 90
       50
102
RTVSPost2010PropOp46
 70
     1
102
RTVSPost2010Prop47
 90
       50
102
RTVSPost2010PropOp47
 70
     1
102
RTVSPost2010Prop48
 90
       50
102
RTVSPost2010PropOp48
 70
     1
102
RTVSPost2010Prop49
280
     0
102
RTVSPost2010PropOp49
 70
     1
102
RTVSPost2010Prop50
 90
       50
102
RTVSPost2010PropOp50
 70
     1
102
RTVSPost2010Prop51ColorIndex
 90
      256
102
RTVSPost2010Prop51ColorRGB
 90
-16777216
102
RTVSPost2010PropOp51
 70
     0
102
RTVSPost2010Prop52
140
1.0
102
RTVSPost2010PropOp52
 70
     0
102
RTVSPost2010Prop53
 90
        2
102
RTVSPost2010PropOp53
 70
     1
102
RTVSPost2010Prop54
  1
strokes_ogs.tif
102
RTVSPost2010PropOp54
 70
     1
102
RTVSPost2010Prop55
280
     0
102
RTVSPost2010PropOp55
 70
     1
102
RTVSPost2010Prop56
140
1.0
102
RTVSPost2010PropOp56
 70
     1
102
RTVSPost2010Prop57
140
1.0
102
RTVSPost2010PropOp57
 70
     1
102
RTVSPropertyOp0
 70
     1
102
RTVSPropertyOp1
 70
     1
102
RTVSPropertyOp2
 70
     1
102
RTVSPropertyOp3
 70
     1
102
RTVSPropertyOp4
 70
     1
102
RTVSPropertyOp5
 70
     1
102
RTVSPropertyOp6
 70
     1
102
RTVSPropertyOp7
 70
     1
102
RTVSPropertyOp8
 70
     1
102
RTVSPropertyOp9
 70
     1
102
RTVSPropertyOp10
 70
     1
102
RTVSPropertyOp11
 70
     1
102
RTVSPropertyOp12
 70
     1
102
RTVSPropertyOp13
 70
     1
102
RTVSPropertyOp14
 70
     1
102
RTVSPropertyOp15
 70
     1
102
RTVSPropertyOp16
 70
     1
102
RTVSPropertyOp17
 70
     1
102
RTVSPropertyOp18
 70
     1
102
RTVSPropertyOp19
 70
     1
102
RTVSPropertyOp20
 70
     1
102
RTVSPropertyOp21
 70
     1
102
RTVSPropertyOp22
 70
     1
102
RTVSPropertyOp23
 70
     1
102
RTVSPropertyOp24
 70
     1
102
RTVSPropertyOp25
 70
     1
102
RTVSPropertyOp26
 70
     1
102
RTVSPropertyOp27
 70
     1
102
RTVSPropertyOp28
 70
     1
102
RTVSPropertyOp29
 70
     1
102
RTVSPropertyOp30
 70
     1
102
RTVSPropertyOp31
 70
     1
102
RTVSPropertyOp32
 70
     1
102
RTVSPropertyOp33
 70
     1
102
RTVSPropertyOp34
 70
     1
102
RTVSPropertyOp35
 70
     1
102
RTVSPropertyOp36
 70
     1
102
RTVSPropertyOp37
 70
     1
102
RTVSPropertyOp38
 70
     1
102
RTVSPropertyOp39
 70
     1
102
RTVSPropertyOp40
 70
     1
102
RTVSPropertyOp41
 70
     1
102
RTVSPropertyOp42
 70
     1
102
RTVSPropertyOp43
 70
     1
102
RTVSPropertyOp44
 70
     1
102
RTVSPropertyOp45
 70
     1
102
RTVSPropertyOp46
 70
     1
102
RTVSPropertyOp47
 70
     1
102
RTVSPropertyOp48
 70
     1
102
RTVSPropertyOp49
 70
     1
102
RTVSPropertyOp50
 70
     1
102
RTVSPropertyOp51
 70
     0
102
RTVSPropertyOp52
 70
     0
102
RTVSPropertyOp53
 70
     1
102
RTVSPropertyOp54
 70
     1
102
RTVSPropertyOp55
 70
     1
102
RTVSPropertyOp56
 70
     1
102
RTVSPropertyOp57
 70
     1
102
RTVSPropertyOp58
 70
     1
102
RTVSPropertyOp59
 70
     1
102
RTVSPropertyOp60
 70
     1
102
RTVSPropertyOp61
 70
     1
102
RTVSPropertyOp62
 70
     1
  0
XRECORD
  5
41F9
102
{ACAD_REACTORS
330
41F8
102
}
330
41F8
100
AcDbXrecord
280
     1
102
RTVSPost2010Prop28
280
     0
102
RTVSPost2010PropOp28
 70
     1
102
RTVSPost2010Prop29
280
     1
102
RTVSPost2010PropOp29
 70
     1
102
RTVSPost2010Prop30
280
     1
102
RTVSPost2010PropOp30
 70
     1
102
RTVSPost2010Prop31
280
     0
102
RTVSPost2010PropOp31
 70
     1
102
RTVSPost2010Prop32
280
     0
102
RTVSPost2010PropOp32
 70
     1
102
RTVSPost2010Prop33
280
     0
102
RTVSPost2010PropOp33
 70
     1
102
RTVSPost2010Prop34
280
     0
102
RTVSPost2010PropOp34
 70
     1
102
RTVSPost2010Prop35
280
     0
102
RTVSPost2010PropOp35
 70
     1
102
RTVSPost2010Prop36
280
     0
102
RTVSPost2010PropOp36
 70
     1
102
RTVSPost2010Prop37
 90
       50
102
RTVSPost2010PropOp37
 70
     1
102
RTVSPost2010Prop38
140
0.0
102
RTVSPost2010PropOp38
 70
     1
102
RTVSPost2010Prop39
140
1.0
102
RTVSPost2010PropOp39
 70
     1
102
RTVSPost2010Prop40
 90
        0
102
RTVSPost2010PropOp40
 70
     1
102
RTVSPost2010Prop41ColorIndex
 90
       18
102
RTVSPost2010Prop41ColorRGB
 90
        0
102
RTVSPost2010PropOp41
 70
     1
102
RTVSPost2010Prop42
 90
       50
102
RTVSPost2010PropOp42
 70
     1
102
RTVSPost2010Prop43
 90
        3
102
RTVSPost2010PropOp43
 70
     1
102
RTVSPost2010Prop44ColorIndex
 90
        5
102
RTVSPost2010Prop44ColorRGB
 90
      255
102
RTVSPost2010PropOp44
 70
     1
102
RTVSPost2010Prop45
280
     0
102
RTVSPost2010PropOp45
 70
     1
102
RTVSPost2010Prop46
 90
       50
102
RTVSPost2010PropOp46
 70
     1
102
RTVSPost2010Prop47
 90
       50
102
RTVSPost2010PropOp47
 70
     1
102
RTVSPost2010Prop48
 90
       50
102
RTVSPost2010PropOp48
 70
     1
102
RTVSPost2010Prop49
280
     0
102
RTVSPost2010PropOp49
 70
     1
102
RTVSPost2010Prop50
 90
       50
102
RTVSPost2010PropOp50
 70
     1
102
RTVSPost2010Prop51ColorIndex
 90
      256
102
RTVSPost2010Prop51ColorRGB
 90
-16777216
102
RTVSPost2010PropOp51
 70
     0
102
RTVSPost2010Prop52
140
1.0
102
RTVSPost2010PropOp52
 70
     0
102
RTVSPost2010Prop53
 90
        2
102
RTVSPost2010PropOp53
 70
     1
102
RTVSPost2010Prop54
  1
strokes_ogs.tif
102
RTVSPost2010PropOp54
 70
     1
102
RTVSPost2010Prop55
280
     0
102
RTVSPost2010PropOp55
 70
     1
102
RTVSPost2010Prop56
140
1.0
102
RTVSPost2010PropOp56
 70
     1
102
RTVSPost2010Prop57
140
1.0
102
RTVSPost2010PropOp57
 70
     1
102
RTVSPropertyOp0
 70
     1
102
RTVSPropertyOp1
 70
     1
102
RTVSPropertyOp2
 70
     1
102
RTVSPropertyOp3
 70
     1
102
RTVSPropertyOp4
 70
     1
102
RTVSPropertyOp5
 70
     1
102
RTVSPropertyOp6
 70
     1
102
RTVSPropertyOp7
 70
     1
102
RTVSPropertyOp8
 70
     1
102
RTVSPropertyOp9
 70
     1
102
RTVSPropertyOp10
 70
     1
102
RTVSPropertyOp11
 70
     1
102
RTVSPropertyOp12
 70
     1
102
RTVSPropertyOp13
 70
     1
102
RTVSPropertyOp14
 70
     1
102
RTVSPropertyOp15
 70
     1
102
RTVSPropertyOp16
 70
     1
102
RTVSPropertyOp17
 70
     1
102
RTVSPropertyOp18
 70
     1
102
RTVSPropertyOp19
 70
     1
102
RTVSPropertyOp20
 70
     1
102
RTVSPropertyOp21
 70
     1
102
RTVSPropertyOp22
 70
     1
102
RTVSPropertyOp23
 70
     1
102
RTVSPropertyOp24
 70
     1
102
RTVSPropertyOp25
 70
     1
102
RTVSPropertyOp26
 70
     1
102
RTVSPropertyOp27
 70
     1
102
RTVSPropertyOp28
 70
     1
102
RTVSPropertyOp29
 70
     1
102
RTVSPropertyOp30
 70
     1
102
RTVSPropertyOp31
 70
     1
102
RTVSPropertyOp32
 70
     1
102
RTVSPropertyOp33
 70
     1
102
RTVSPropertyOp34
 70
     1
102
RTVSPropertyOp35
 70
     1
102
RTVSPropertyOp36
 70
     1
102
RTVSPropertyOp37
 70
     1
102
RTVSPropertyOp38
 70
     1
102
RTVSPropertyOp39
 70
     1
102
RTVSPropertyOp40
 70
     1
102
RTVSPropertyOp41
 70
     1
102
RTVSPropertyOp42
 70
     1
102
RTVSPropertyOp43
 70
     1
102
RTVSPropertyOp44
 70
     1
102
RTVSPropertyOp45
 70
     1
102
RTVSPropertyOp46
 70
     1
102
RTVSPropertyOp47
 70
     1
102
RTVSPropertyOp48
 70
     1
102
RTVSPropertyOp49
 70
     1
102
RTVSPropertyOp50
 70
     1
102
RTVSPropertyOp51
 70
     0
102
RTVSPropertyOp52
 70
     0
102
RTVSPropertyOp53
 70
     1
102
RTVSPropertyOp54
 70
     1
102
RTVSPropertyOp55
 70
     1
102
RTVSPropertyOp56
 70
     1
102
RTVSPropertyOp57
 70
     1
102
RTVSPropertyOp58
 70
     1
102
RTVSPropertyOp59
 70
     1
102
RTVSPropertyOp60
 70
     1
102
RTVSPropertyOp61
 70
     1
102
RTVSPropertyOp62
 70
     1
  0
XRECORD
  5
4220
102
{ACAD_REACTORS
330
421F
102
}
330
421F
100
AcDbXrecord
280
     1
102
RTVSPost2010Prop28
280
     0
102
RTVSPost2010PropOp28
 70
     1
102
RTVSPost2010Prop29
280
     1
102
RTVSPost2010PropOp29
 70
     1
102
RTVSPost2010Prop30
280
     1
102
RTVSPost2010PropOp30
 70
     1
102
RTVSPost2010Prop31
280
     0
102
RTVSPost2010PropOp31
 70
     1
102
RTVSPost2010Prop32
280
     0
102
RTVSPost2010PropOp32
 70
     1
102
RTVSPost2010Prop33
280
     0
102
RTVSPost2010PropOp33
 70
     1
102
RTVSPost2010Prop34
280
     0
102
RTVSPost2010PropOp34
 70
     1
102
RTVSPost2010Prop35
280
     0
102
RTVSPost2010PropOp35
 70
     1
102
RTVSPost2010Prop36
280
     0
102
RTVSPost2010PropOp36
 70
     1
102
RTVSPost2010Prop37
 90
       50
102
RTVSPost2010PropOp37
 70
     1
102
RTVSPost2010Prop38
140
0.0
102
RTVSPost2010PropOp38
 70
     1
102
RTVSPost2010Prop39
140
1.0
102
RTVSPost2010PropOp39
 70
     1
102
RTVSPost2010Prop40
 90
        0
102
RTVSPost2010PropOp40
 70
     1
102
RTVSPost2010Prop41ColorIndex
 90
       18
102
RTVSPost2010Prop41ColorRGB
 90
        0
102
RTVSPost2010PropOp41
 70
     1
102
RTVSPost2010Prop42
 90
       50
102
RTVSPost2010PropOp42
 70
     1
102
RTVSPost2010Prop43
 90
        3
102
RTVSPost2010PropOp43
 70
     1
102
RTVSPost2010Prop44ColorIndex
 90
        5
102
RTVSPost2010Prop44ColorRGB
 90
      255
102
RTVSPost2010PropOp44
 70
     1
102
RTVSPost2010Prop45
280
     0
102
RTVSPost2010PropOp45
 70
     1
102
RTVSPost2010Prop46
 90
       50
102
RTVSPost2010PropOp46
 70
     1
102
RTVSPost2010Prop47
 90
       50
102
RTVSPost2010PropOp47
 70
     1
102
RTVSPost2010Prop48
 90
       50
102
RTVSPost2010PropOp48
 70
     1
102
RTVSPost2010Prop49
280
     0
102
RTVSPost2010PropOp49
 70
     1
102
RTVSPost2010Prop50
 90
       50
102
RTVSPost2010PropOp50
 70
     1
102
RTVSPost2010Prop51ColorIndex
 90
      256
102
RTVSPost2010Prop51ColorRGB
 90
-16777216
102
RTVSPost2010PropOp51
 70
     0
102
RTVSPost2010Prop52
140
1.0
102
RTVSPost2010PropOp52
 70
     0
102
RTVSPost2010Prop53
 90
        2
102
RTVSPost2010PropOp53
 70
     1
102
RTVSPost2010Prop54
  1
strokes_ogs.tif
102
RTVSPost2010PropOp54
 70
     1
102
RTVSPost2010Prop55
280
     0
102
RTVSPost2010PropOp55
 70
     1
102
RTVSPost2010Prop56
140
1.0
102
RTVSPost2010PropOp56
 70
     1
102
RTVSPost2010Prop57
140
1.0
102
RTVSPost2010PropOp57
 70
     1
102
RTVSPropertyOp0
 70
     1
102
RTVSPropertyOp1
 70
     1
102
RTVSPropertyOp2
 70
     1
102
RTVSPropertyOp3
 70
     1
102
RTVSPropertyOp4
 70
     1
102
RTVSPropertyOp5
 70
     1
102
RTVSPropertyOp6
 70
     1
102
RTVSPropertyOp7
 70
     1
102
RTVSPropertyOp8
 70
     1
102
RTVSPropertyOp9
 70
     1
102
RTVSPropertyOp10
 70
     1
102
RTVSPropertyOp11
 70
     1
102
RTVSPropertyOp12
 70
     1
102
RTVSPropertyOp13
 70
     1
102
RTVSPropertyOp14
 70
     1
102
RTVSPropertyOp15
 70
     1
102
RTVSPropertyOp16
 70
     1
102
RTVSPropertyOp17
 70
     1
102
RTVSPropertyOp18
 70
     1
102
RTVSPropertyOp19
 70
     1
102
RTVSPropertyOp20
 70
     1
102
RTVSPropertyOp21
 70
     1
102
RTVSPropertyOp22
 70
     1
102
RTVSPropertyOp23
 70
     1
102
RTVSPropertyOp24
 70
     1
102
RTVSPropertyOp25
 70
     1
102
RTVSPropertyOp26
 70
     1
102
RTVSPropertyOp27
 70
     1
102
RTVSPropertyOp28
 70
     1
102
RTVSPropertyOp29
 70
     1
102
RTVSPropertyOp30
 70
     1
102
RTVSPropertyOp31
 70
     1
102
RTVSPropertyOp32
 70
     1
102
RTVSPropertyOp33
 70
     1
102
RTVSPropertyOp34
 70
     1
102
RTVSPropertyOp35
 70
     1
102
RTVSPropertyOp36
 70
     1
102
RTVSPropertyOp37
 70
     1
102
RTVSPropertyOp38
 70
     1
102
RTVSPropertyOp39
 70
     1
102
RTVSPropertyOp40
 70
     1
102
RTVSPropertyOp41
 70
     1
102
RTVSPropertyOp42
 70
     1
102
RTVSPropertyOp43
 70
     1
102
RTVSPropertyOp44
 70
     1
102
RTVSPropertyOp45
 70
     1
102
RTVSPropertyOp46
 70
     1
102
RTVSPropertyOp47
 70
     1
102
RTVSPropertyOp48
 70
     1
102
RTVSPropertyOp49
 70
     1
102
RTVSPropertyOp50
 70
     1
102
RTVSPropertyOp51
 70
     0
102
RTVSPropertyOp52
 70
     0
102
RTVSPropertyOp53
 70
     1
102
RTVSPropertyOp54
 70
     1
102
RTVSPropertyOp55
 70
     1
102
RTVSPropertyOp56
 70
     1
102
RTVSPropertyOp57
 70
     1
102
RTVSPropertyOp58
 70
     1
102
RTVSPropertyOp59
 70
     1
102
RTVSPropertyOp60
 70
     1
102
RTVSPropertyOp61
 70
     1
102
RTVSPropertyOp62
 70
     1
  0
XRECORD
  5
4228
102
{ACAD_REACTORS
330
4227
102
}
330
4227
100
AcDbXrecord
280
     1
102
RTVSPost2010Prop28
280
     0
102
RTVSPost2010PropOp28
 70
     1
102
RTVSPost2010Prop29
280
     1
102
RTVSPost2010PropOp29
 70
     1
102
RTVSPost2010Prop30
280
     1
102
RTVSPost2010PropOp30
 70
     1
102
RTVSPost2010Prop31
280
     0
102
RTVSPost2010PropOp31
 70
     1
102
RTVSPost2010Prop32
280
     0
102
RTVSPost2010PropOp32
 70
     1
102
RTVSPost2010Prop33
280
     0
102
RTVSPost2010PropOp33
 70
     1
102
RTVSPost2010Prop34
280
     0
102
RTVSPost2010PropOp34
 70
     1
102
RTVSPost2010Prop35
280
     0
102
RTVSPost2010PropOp35
 70
     1
102
RTVSPost2010Prop36
280
     0
102
RTVSPost2010PropOp36
 70
     1
102
RTVSPost2010Prop37
 90
       50
102
RTVSPost2010PropOp37
 70
     1
102
RTVSPost2010Prop38
140
0.0
102
RTVSPost2010PropOp38
 70
     1
102
RTVSPost2010Prop39
140
1.0
102
RTVSPost2010PropOp39
 70
     1
102
RTVSPost2010Prop40
 90
        0
102
RTVSPost2010PropOp40
 70
     1
102
RTVSPost2010Prop41ColorIndex
 90
       18
102
RTVSPost2010Prop41ColorRGB
 90
        0
102
RTVSPost2010PropOp41
 70
     1
102
RTVSPost2010Prop42
 90
       50
102
RTVSPost2010PropOp42
 70
     1
102
RTVSPost2010Prop43
 90
        3
102
RTVSPost2010PropOp43
 70
     1
102
RTVSPost2010Prop44ColorIndex
 90
        5
102
RTVSPost2010Prop44ColorRGB
 90
      255
102
RTVSPost2010PropOp44
 70
     1
102
RTVSPost2010Prop45
280
     0
102
RTVSPost2010PropOp45
 70
     1
102
RTVSPost2010Prop46
 90
       50
102
RTVSPost2010PropOp46
 70
     1
102
RTVSPost2010Prop47
 90
       50
102
RTVSPost2010PropOp47
 70
     1
102
RTVSPost2010Prop48
 90
       50
102
RTVSPost2010PropOp48
 70
     1
102
RTVSPost2010Prop49
280
     0
102
RTVSPost2010PropOp49
 70
     1
102
RTVSPost2010Prop50
 90
       50
102
RTVSPost2010PropOp50
 70
     1
102
RTVSPost2010Prop51ColorIndex
 90
      256
102
RTVSPost2010Prop51ColorRGB
 90
-16777216
102
RTVSPost2010PropOp51
 70
     0
102
RTVSPost2010Prop52
140
1.0
102
RTVSPost2010PropOp52
 70
     0
102
RTVSPost2010Prop53
 90
        2
102
RTVSPost2010PropOp53
 70
     1
102
RTVSPost2010Prop54
  1
strokes_ogs.tif
102
RTVSPost2010PropOp54
 70
     1
102
RTVSPost2010Prop55
280
     0
102
RTVSPost2010PropOp55
 70
     1
102
RTVSPost2010Prop56
140
1.0
102
RTVSPost2010PropOp56
 70
     1
102
RTVSPost2010Prop57
140
1.0
102
RTVSPost2010PropOp57
 70
     1
102
RTVSPropertyOp0
 70
     1
102
RTVSPropertyOp1
 70
     1
102
RTVSPropertyOp2
 70
     1
102
RTVSPropertyOp3
 70
     1
102
RTVSPropertyOp4
 70
     1
102
RTVSPropertyOp5
 70
     1
102
RTVSPropertyOp6
 70
     1
102
RTVSPropertyOp7
 70
     1
102
RTVSPropertyOp8
 70
     1
102
RTVSPropertyOp9
 70
     1
102
RTVSPropertyOp10
 70
     1
102
RTVSPropertyOp11
 70
     1
102
RTVSPropertyOp12
 70
     1
102
RTVSPropertyOp13
 70
     1
102
RTVSPropertyOp14
 70
     1
102
RTVSPropertyOp15
 70
     1
102
RTVSPropertyOp16
 70
     1
102
RTVSPropertyOp17
 70
     1
102
RTVSPropertyOp18
 70
     1
102
RTVSPropertyOp19
 70
     1
102
RTVSPropertyOp20
 70
     1
102
RTVSPropertyOp21
 70
     1
102
RTVSPropertyOp22
 70
     1
102
RTVSPropertyOp23
 70
     1
102
RTVSPropertyOp24
 70
     1
102
RTVSPropertyOp25
 70
     1
102
RTVSPropertyOp26
 70
     1
102
RTVSPropertyOp27
 70
     1
102
RTVSPropertyOp28
 70
     1
102
RTVSPropertyOp29
 70
     1
102
RTVSPropertyOp30
 70
     1
102
RTVSPropertyOp31
 70
     1
102
RTVSPropertyOp32
 70
     1
102
RTVSPropertyOp33
 70
     1
102
RTVSPropertyOp34
 70
     1
102
RTVSPropertyOp35
 70
     1
102
RTVSPropertyOp36
 70
     1
102
RTVSPropertyOp37
 70
     1
102
RTVSPropertyOp38
 70
     1
102
RTVSPropertyOp39
 70
     1
102
RTVSPropertyOp40
 70
     1
102
RTVSPropertyOp41
 70
     1
102
RTVSPropertyOp42
 70
     1
102
RTVSPropertyOp43
 70
     1
102
RTVSPropertyOp44
 70
     1
102
RTVSPropertyOp45
 70
     1
102
RTVSPropertyOp46
 70
     1
102
RTVSPropertyOp47
 70
     1
102
RTVSPropertyOp48
 70
     1
102
RTVSPropertyOp49
 70
     1
102
RTVSPropertyOp50
 70
     1
102
RTVSPropertyOp51
 70
     0
102
RTVSPropertyOp52
 70
     0
102
RTVSPropertyOp53
 70
     1
102
RTVSPropertyOp54
 70
     1
102
RTVSPropertyOp55
 70
     1
102
RTVSPropertyOp56
 70
     1
102
RTVSPropertyOp57
 70
     1
102
RTVSPropertyOp58
 70
     1
102
RTVSPropertyOp59
 70
     1
102
RTVSPropertyOp60
 70
     1
102
RTVSPropertyOp61
 70
     1
102
RTVSPropertyOp62
 70
     1
  0
ENDSEC
  0
EOF
