  0
SECTION
  2
HEADER
  9
$ACADVER
  1
AC1015
  9
$ACADMAINTVER
 70
    20
  9
$DWGCODEPAGE
  3
ANSI_932
  9
$INSBASE
 10
0.0
 20
0.0
 30
0.0
  9
$EXTMIN
 10
26.6968262808
 20
21.4031722453
 30
0.0
  9
$EXTMAX
 10
746.590569138
 20
414.049490706
 30
0.0
  9
$LIMMIN
 10
0.0
 20
0.0
  9
$LIMMAX
 10
297.0
 20
210.0
  9
$ORTHOMODE
 70
     0
  9
$REGENMODE
 70
     1
  9
$FILLMODE
 70
     1
  9
$QTEXTMODE
 70
     0
  9
$MIRRTEXT
 70
     0
  9
$LTSCALE
 40
2.0
  9
$ATTMODE
 70
     1
  9
$TEXTSIZE
 40
2.0
  9
$TRACEWID
 40
1.0
  9
$TEXTSTYLE
  7
STANDARD
  9
$CLAYER
  8
0
  9
$CELTYPE
  6
BYLAYER
  9
$CECOLOR
 62
   256
  9
$CELTSCALE
 40
1.0
  9
$DISPSILH
 70
     0
  9
$DIMSCALE
 40
2.0
  9
$DIMASZ
 40
1.8
  9
$DIMEXO
 40
0.625
  9
$DIMDLI
 40
3.75
  9
$DIMRND
 40
0.0
  9
$DIMDLE
 40
0.0
  9
$DIMEXE
 40
0.8
  9
$DIMTP
 40
0.0
  9
$DIMTM
 40
0.0
  9
$DIMTXT
 40
1.8
  9
$DIMCEN
 40
2.5
  9
$DIMTSZ
 40
0.0
  9
$DIMTOL
 70
     0
  9
$DIMLIM
 70
     0
  9
$DIMTIH
 70
     0
  9
$DIMTOH
 70
     0
  9
$DIMSE1
 70
     0
  9
$DIMSE2
 70
     0
  9
$DIMTAD
 70
     1
  9
$DIMZIN
 70
     8
  9
$DIMBLK
  1

  9
$DIMASO
 70
     1
  9
$DIMSHO
 70
     1
  9
$DIMPOST
  1

  9
$DIMAPOST
  1

  9
$DIMALT
 70
     0
  9
$DIMALTD
 70
     4
  9
$DIMALTF
 40
0.0394
  9
$DIMLFAC
 40
1.0
  9
$DIMTOFL
 70
     1
  9
$DIMTVP
 40
0.0
  9
$DIMTIX
 70
     0
  9
$DIMSOXD
 70
     0
  9
$DIMSAH
 70
     0
  9
$DIMBLK1
  1

  9
$DIMBLK2
  1

  9
$DIMSTYLE
  2
STANDARD
  9
$DIMCLRD
 70
     0
  9
$DIMCLRE
 70
     0
  9
$DIMCLRT
 70
     0
  9
$DIMTFAC
 40
1.0
  9
$DIMGAP
 40
0.75
  9
$DIMJUST
 70
     0
  9
$DIMSD1
 70
     0
  9
$DIMSD2
 70
     0
  9
$DIMTOLJ
 70
     1
  9
$DIMTZIN
 70
     0
  9
$DIMALTZ
 70
     0
  9
$DIMALTTZ
 70
     0
  9
$DIMUPT
 70
     0
  9
$DIMDEC
 70
     2
  9
$DIMTDEC
 70
     2
  9
$DIMALTU
 70
     8
  9
$DIMALTTD
 70
     4
  9
$DIMTXSTY
  7
STANDARD
  9
$DIMAUNIT
 70
     0
  9
$DIMADEC
 70
     2
  9
$DIMALTRND
 40
0.0
  9
$DIMAZIN
 70
     0
  9
$DIMDSEP
 70
    46
  9
$DIMATFIT
 70
     3
  9
$DIMFRAC
 70
     0
  9
$DIMLDRBLK
  1

  9
$DIMLUNIT
 70
     6
  9
$DIMLWD
 70
    -2
  9
$DIMLWE
 70
    -2
  9
$DIMTMOVE
 70
     0
  9
$LUNITS
 70
     2
  9
$LUPREC
 70
     3
  9
$SKETCHINC
 40
1.0
  9
$FILLETRAD
 40
10.0
  9
$AUNITS
 70
     0
  9
$AUPREC
 70
     2
  9
$MENU
  1
.
  9
$ELEVATION
 40
0.0
  9
$PELEVATION
 40
0.0
  9
$THICKNESS
 40
0.0
  9
$LIMCHECK
 70
     0
  9
$CHAMFERA
 40
0.0
  9
$CHAMFERB
 40
0.0
  9
$CHAMFERC
 40
20.0
  9
$CHAMFERD
 40
0.0
  9
$SKPOLY
 70
     0
  9
$TDCREATE
 40
2453753.372523148
  9
$TDUCREATE
 40
2453752.997528936
  9
$TDUPDATE
 40
2459857.663275463
  9
$TDUUPDATE
 40
2459857.288275463
  9
$TDINDWG
 40
0.4717377199
  9
$TDUSRTIMER
 40
0.4717375347
  9
$USRTIMER
 70
     1
  9
$ANGBASE
 50
0.0
  9
$ANGDIR
 70
     0
  9
$PDMODE
 70
     0
  9
$PDSIZE
 40
-10.0
  9
$PLINEWID
 40
0.0
  9
$SPLFRAME
 70
     0
  9
$SPLINETYPE
 70
     6
  9
$SPLINESEGS
 70
     8
  9
$HANDSEED
  5
293A
  9
$SURFTAB1
 70
     6
  9
$SURFTAB2
 70
     6
  9
$SURFTYPE
 70
     6
  9
$SURFU
 70
     6
  9
$SURFV
 70
     6
  9
$UCSBASE
  2

  9
$UCSNAME
  2

  9
$UCSORG
 10
0.0
 20
0.0
 30
0.0
  9
$UCSXDIR
 10
1.0
 20
0.0
 30
0.0
  9
$UCSYDIR
 10
0.0
 20
1.0
 30
0.0
  9
$UCSORTHOREF
  2

  9
$UCSORTHOVIEW
 70
     0
  9
$UCSORGTOP
 10
0.0
 20
0.0
 30
0.0
  9
$UCSORGBOTTOM
 10
0.0
 20
0.0
 30
0.0
  9
$UCSORGLEFT
 10
0.0
 20
0.0
 30
0.0
  9
$UCSORGRIGHT
 10
0.0
 20
0.0
 30
0.0
  9
$UCSORGFRONT
 10
0.0
 20
0.0
 30
0.0
  9
$UCSORGBACK
 10
0.0
 20
0.0
 30
0.0
  9
$PUCSBASE
  2

  9
$PUCSNAME
  2

  9
$PUCSORG
 10
0.0
 20
0.0
 30
0.0
  9
$PUCSXDIR
 10
1.0
 20
0.0
 30
0.0
  9
$PUCSYDIR
 10
0.0
 20
1.0
 30
0.0
  9
$PUCSORTHOREF
  2

  9
$PUCSORTHOVIEW
 70
     0
  9
$PUCSORGTOP
 10
0.0
 20
0.0
 30
0.0
  9
$PUCSORGBOTTOM
 10
0.0
 20
0.0
 30
0.0
  9
$PUCSORGLEFT
 10
0.0
 20
0.0
 30
0.0
  9
$PUCSORGRIGHT
 10
0.0
 20
0.0
 30
0.0
  9
$PUCSORGFRONT
 10
0.0
 20
0.0
 30
0.0
  9
$PUCSORGBACK
 10
0.0
 20
0.0
 30
0.0
  9
$USERI1
 70
     0
  9
$USERI2
 70
     0
  9
$USERI3
 70
     0
  9
$USERI4
 70
     0
  9
$USERI5
 70
     0
  9
$USERR1
 40
0.0
  9
$USERR2
 40
0.0
  9
$USERR3
 40
0.0
  9
$USERR4
 40
0.0
  9
$USERR5
 40
0.0
  9
$WORLDVIEW
 70
     1
  9
$SHADEDGE
 70
     3
  9
$SHADEDIF
 70
    70
  9
$TILEMODE
 70
     1
  9
$MAXACTVP
 70
    48
  9
$PINSBASE
 10
0.0
 20
0.0
 30
0.0
  9
$PLIMCHECK
 70
     0
  9
$PEXTMIN
 10
0.0
 20
0.0
 30
0.0
  9
$PEXTMAX
 10
0.0
 20
0.0
 30
0.0
  9
$PLIMMIN
 10
0.0
 20
0.0
  9
$PLIMMAX
 10
12.0
 20
9.0
  9
$UNITMODE
 70
     0
  9
$VISRETAIN
 70
     1
  9
$PLINEGEN
 70
     0
  9
$PSLTSCALE
 70
     1
  9
$TREEDEPTH
 70
  3020
  9
$CMLSTYLE
  2
STANDARD
  9
$CMLJUST
 70
     0
  9
$CMLSCALE
 40
1.0
  9
$PROXYGRAPHICS
 70
     1
  9
$MEASUREMENT
 70
     0
  9
$CELWEIGHT
370
    -1
  9
$ENDCAPS
280
     0
  9
$JOINSTYLE
280
     0
  9
$LWDISPLAY
290
     0
  9
$INSUNITS
 70
     0
  9
$HYPERLINKBASE
  1

  9
$STYLESHEET
  1
SEKKEI.CTB
  9
$XEDIT
290
     1
  9
$CEPSNTYPE
380
     0
  9
$PSTYLEMODE
290
     1
  9
$FINGERPRINTGUID
  2
{6385560B-F4B1-4644-A7C2-A3E32AC3D232}
  9
$VERSIONGUID
  2
{C4329D1A-BB02-8548-BFF7-C812BA4F2DD0}
  9
$EXTNAMES
290
     1
  9
$PSVPSCALE
 40
0.0
  9
$OLESTARTUP
290
     0
  0
ENDSEC
  0
SECTION
  2
CLASSES
  0
CLASS
  1
DICTIONARYVAR
  2
AcDbDictionaryVar
  3
ObjectDBX Classes
 90
        0
280
     0
281
     0
  0
CLASS
  1
ACDBDICTIONARYWDFLT
  2
AcDbDictionaryWithDefault
  3
ObjectDBX Classes
 90
        0
280
     0
281
     0
  0
CLASS
  1
MATERIAL
  2
AcDbMaterial
  3
ObjectDBX Classes
 90
     1153
280
     0
281
     0
  0
CLASS
  1
VISUALSTYLE
  2
AcDbVisualStyle
  3
ObjectDBX Classes
 90
     4095
280
     0
281
     0
  0
CLASS
  1
TABLESTYLE
  2
AcDbTableStyle
  3
ObjectDBX Classes
 90
     4095
280
     0
281
     0
  0
CLASS
  1
SCALE
  2
AcDbScale
  3
ObjectDBX Classes
 90
     1153
280
     0
281
     0
  0
CLASS
  1
MLEADERSTYLE
  2
AcDbMLeaderStyle
  3
ACDB_MLEADERSTYLE_CLASS
 90
     4095
280
     0
281
     0
  0
CLASS
  1
CELLSTYLEMAP
  2
AcDbCellStyleMap
  3
ObjectDBX Classes
 90
     1152
280
     0
281
     0
  0
CLASS
  1
ACDBPLACEHOLDER
  2
AcDbPlaceHolder
  3
ObjectDBX Classes
 90
        0
280
     0
281
     0
  0
CLASS
  1
LAYOUT
  2
AcDbLayout
  3
ObjectDBX Classes
 90
        0
280
     0
281
     0
  0
CLASS
  1
ACAD_EVALUATION_GRAPH
  2
AcDbEvalGraph
  3
ObjectDBX Classes
 90
    33921
280
     0
281
     0
  0
CLASS
  1
ACAECUSTOBJ
  2
AcAeEditorObj
  3
AcAeEditorObj
 90
    33792
280
     0
281
     0
  0
CLASS
  1
ACDB_DYNAMICBLOCKPURGEPREVENTER_VERSION
  2
AcDbDynamicBlockPurgePreventer
  3
ObjectDBX Classes
 90
    33921
280
     0
281
     0
  0
CLASS
  1
ACDBSECTIONVIEWSTYLE
  2
AcDbSectionViewStyle
  3
ObjectDBX Classes
 90
     1025
280
     0
281
     0
  0
CLASS
  1
ACDBDETAILVIEWSTYLE
  2
AcDbDetailViewStyle
  3
ObjectDBX Classes
 90
     1025
280
     0
281
     0
  0
CLASS
  1
SORTENTSTABLE
  2
AcDbSortentsTable
  3
ObjectDBX Classes
 90
    32768
280
     0
281
     0
  0
ENDSEC
  0
SECTION
  2
TABLES
  0
TABLE
  2
VPORT
  5
6E
102
{ACAD_XDICTIONARY
360
1C84
102
}
330
0
100
AcDbSymbolTable
 70
     1
  0
VPORT
  5
1A5B
330
6E
100
AcDbSymbolTableRecord
100
AcDbViewportTableRecord
  2
*Active
 70
     0
 10
0.0
 20
0.0
 11
1.0
 21
1.0
 12
431.0977464808
 22
217.7244263802
 13
0.0
 23
0.0
 14
10.0
 24
10.0
 15
10.0
 25
10.0
 16
0.0
 26
0.0
 36
1.0
 17
0.0
 27
0.0
 37
0.0
 40
369.6767396775
 41
1.9558823529
 42
50.0
 43
0.0
 44
0.0
 50
0.0
 51
0.0
 71
     0
 72
   100
 73
     1
 74
     3
 75
     0
 76
     0
 77
     0
 78
     0
281
     0
 65
     1
110
0.0
120
0.0
130
0.0
111
1.0
121
0.0
131
0.0
112
0.0
122
1.0
132
0.0
 79
     0
146
0.0
1001
ACAD_NAV_VCDISPLAY
1070
     3
  0
ENDTAB
  0
TABLE
  2
LTYPE
  5
69
330
0
100
AcDbSymbolTable
 70
     3
  0
LTYPE
  5
6A
330
69
100
AcDbSymbolTableRecord
100
AcDbLinetypeTableRecord
  2
BYBLOCK
 70
     0
  3

 72
    65
 73
     0
 40
0.0
  0
LTYPE
  5
6B
330
69
100
AcDbSymbolTableRecord
100
AcDbLinetypeTableRecord
  2
BYLAYER
 70
     0
  3

 72
    65
 73
     0
 40
0.0
  0
LTYPE
  5
8
330
69
100
AcDbSymbolTableRecord
100
AcDbLinetypeTableRecord
  2
CONTINUOUS
 70
     0
  3
Solid line
 72
    65
 73
     0
 40
0.0
  0
LTYPE
  5
27C
330
69
100
AcDbSymbolTableRecord
100
AcDbLinetypeTableRecord
  2
sekkei(A2)
 70
     0
  3
center(A2)  ____ _ ____ _ ____ _ ____ _ ____ _ 
 72
    65
 73
     4
 40
14.2875
 49
9.525
 74
     0
 49
-1.5875
 74
     0
 49
1.5875
 74
     0
 49
-1.5875
 74
     0
  0
LTYPE
  5
2B4
330
69
100
AcDbSymbolTableRecord
100
AcDbLinetypeTableRecord
  2
HIDDEN2
 70
     0
  3
Hidden (.5x) _ _ _ _ _ _ _ _ _ _ _ _ _ _ _ _ _
 72
    65
 73
     2
 40
4.7625
 49
3.175
 74
     0
 49
-1.5875
 74
     0
  0
ENDTAB
  0
TABLE
  2
LAYER
  5
66
102
{ACAD_XDICTIONARY
360
1AB6
102
}
330
0
100
AcDbSymbolTable
 70
     9
  0
LAYER
  5
5E
102
{ACAD_XDICTIONARY
360
1C6F
102
}
330
66
100
AcDbSymbolTableRecord
100
AcDbLayerTableRecord
  2
0
 70
     0
 62
     7
  6
CONTINUOUS
370
    -3
390
5
  0
LAYER
  5
3E
102
{ACAD_XDICTIONARY
360
1C71
102
}
330
66
100
AcDbSymbolTableRecord
100
AcDbLayerTableRecord
  2
CENTER
 70
     0
 62
     3
  6
sekkei(A2)
370
    -3
390
5
  0
LAYER
  5
135
330
66
100
AcDbSymbolTableRecord
100
AcDbLayerTableRecord
  2
DEFPOINTS
 70
     0
 62
     7
  6
CONTINUOUS
290
     0
370
    -3
390
5
  0
LAYER
  5
2B5
102
{ACAD_XDICTIONARY
360
1C77
102
}
330
66
100
AcDbSymbolTableRecord
100
AcDbLayerTableRecord
  2
HIDS
 70
     0
 62
     1
  6
HIDDEN2
370
    -3
390
5
  0
LAYER
  5
3FA
102
{ACAD_XDICTIONARY
360
1C7B
102
}
330
66
100
AcDbSymbolTableRecord
100
AcDbLayerTableRecord
  2
TITLE
 70
     0
 62
     4
  6
CONTINUOUS
290
     0
370
    -3
390
5
  0
LAYER
  5
1AB3
102
{ACAD_XDICTIONARY
360
1AB4
102
}
330
66
100
AcDbSymbolTableRecord
100
AcDbLayerTableRecord
  2
TITLE_C
 70
     0
 62
     4
  6
CONTINUOUS
370
    -3
390
5
1001
AcAecLayerStandard
1000

1000

  0
ENDTAB
  0
TABLE
  2
STYLE
  5
67
330
0
100
AcDbSymbolTable
 70
     1
  0
STYLE
  5
16
330
67
100
AcDbSymbolTableRecord
100
AcDbTextStyleTableRecord
  2
STANDARD
 70
     0
 40
0.0
 41
1.0
 50
0.0
 71
     0
 42
2.0
  3
simplex.shx
  4
extfont.shx
  0
ENDTAB
  0
TABLE
  2
VIEW
  5
6C
330
0
100
AcDbSymbolTable
 70
     0
  0
ENDTAB
  0
TABLE
  2
UCS
  5
6D
330
0
100
AcDbSymbolTable
 70
     0
  0
ENDTAB
  0
TABLE
  2
APPID
  5
70
330
0
100
AcDbSymbolTable
 70
    10
  0
APPID
  5
71
330
70
100
AcDbSymbolTableRecord
100
AcDbRegAppTableRecord
  2
ACAD
 70
     0
  0
APPID
  5
1AB5
330
70
100
AcDbSymbolTableRecord
100
AcDbRegAppTableRecord
  2
AcAecLayerStandard
 70
     0
  0
APPID
  5
1ACC
330
70
100
AcDbSymbolTableRecord
100
AcDbRegAppTableRecord
  2
ACAD_EXEMPT_FROM_CAD_STANDARDS
 70
     0
  0
APPID
  5
1CCA
330
70
100
AcDbSymbolTableRecord
100
AcDbRegAppTableRecord
  2
ACAD_MLEADERVER
 70
     0
  0
APPID
  5
220A
330
70
100
AcDbSymbolTableRecord
100
AcDbRegAppTableRecord
  2
AcadAnnoAV
 70
     0
  0
APPID
  5
2230
330
70
100
AcDbSymbolTableRecord
100
AcDbRegAppTableRecord
  2
ACAUTHENVIRON
 70
     0
  0
APPID
  5
2234
330
70
100
AcDbSymbolTableRecord
100
AcDbRegAppTableRecord
  2
AcDbDynamicBlockTrueName
 70
     0
  0
APPID
  5
2235
330
70
100
AcDbSymbolTableRecord
100
AcDbRegAppTableRecord
  2
AcDbDynamicBlockGUID
 70
     0
  0
APPID
  5
2237
330
70
100
AcDbSymbolTableRecord
100
AcDbRegAppTableRecord
  2
AcDbBlockRepETag
 70
     0
  0
APPID
  5
2330
330
70
100
AcDbSymbolTableRecord
100
AcDbRegAppTableRecord
  2
ACAD_NAV_VCDISPLAY
 70
     0
  0
ENDTAB
  0
TABLE
  2
DIMSTYLE
  5
72
330
0
100
AcDbSymbolTable
 70
     2
100
AcDbDimStyleTable
 71
     1
340
73
  0
DIMSTYLE
105
73
330
72
100
AcDbSymbolTableRecord
100
AcDbDimStyleTableRecord
  2
STANDARD
 70
     0
 40
2.0
 41
1.8
 42
0.625
 43
3.75
 44
0.8
 73
     0
 74
     0
 77
     1
 78
     8
140
1.8
141
2.5
143
0.0394
147
0.75
171
     4
172
     1
179
     2
271
     2
272
     2
273
     8
274
     4
277
     6
340
16
  0
ENDTAB
  0
TABLE
  2
BLOCK_RECORD
  5
1
330
0
100
AcDbSymbolTable
 70
    61
  0
BLOCK_RECORD
  5
2
330
1
100
AcDbSymbolTableRecord
100
AcDbBlockTableRecord
  2
*MODEL_SPACE
340
60
  0
BLOCK_RECORD
  5
28D2
330
1
100
AcDbSymbolTableRecord
100
AcDbBlockTableRecord
  2
*Paper_Space
340
28D3
  0
BLOCK_RECORD
  5
BC1
330
1
100
AcDbSymbolTableRecord
100
AcDbBlockTableRecord
  2
*D1
340
0
  0
BLOCK_RECORD
  5
BCD
330
1
100
AcDbSymbolTableRecord
100
AcDbBlockTableRecord
  2
*D2
340
0
  0
BLOCK_RECORD
  5
BD9
330
1
100
AcDbSymbolTableRecord
100
AcDbBlockTableRecord
  2
*D3
340
0
  0
BLOCK_RECORD
  5
BE5
330
1
100
AcDbSymbolTableRecord
100
AcDbBlockTableRecord
  2
*D4
340
0
  0
BLOCK_RECORD
  5
BF1
330
1
100
AcDbSymbolTableRecord
100
AcDbBlockTableRecord
  2
*D5
340
0
  0
BLOCK_RECORD
  5
BFD
330
1
100
AcDbSymbolTableRecord
100
AcDbBlockTableRecord
  2
*D6
340
0
  0
BLOCK_RECORD
  5
C09
330
1
100
AcDbSymbolTableRecord
100
AcDbBlockTableRecord
  2
*D7
340
0
  0
BLOCK_RECORD
  5
C21
330
1
100
AcDbSymbolTableRecord
100
AcDbBlockTableRecord
  2
*D8
340
0
  0
BLOCK_RECORD
  5
C2D
330
1
100
AcDbSymbolTableRecord
100
AcDbBlockTableRecord
  2
*D9
340
0
  0
BLOCK_RECORD
  5
C3B
330
1
100
AcDbSymbolTableRecord
100
AcDbBlockTableRecord
  2
*D10
340
0
  0
BLOCK_RECORD
  5
C47
330
1
100
AcDbSymbolTableRecord
100
AcDbBlockTableRecord
  2
*D11
340
0
  0
BLOCK_RECORD
  5
C53
330
1
100
AcDbSymbolTableRecord
100
AcDbBlockTableRecord
  2
*D12
340
0
  0
BLOCK_RECORD
  5
C5F
330
1
100
AcDbSymbolTableRecord
100
AcDbBlockTableRecord
  2
*D13
340
0
  0
BLOCK_RECORD
  5
C6B
330
1
100
AcDbSymbolTableRecord
100
AcDbBlockTableRecord
  2
*D14
340
0
  0
BLOCK_RECORD
  5
C77
330
1
100
AcDbSymbolTableRecord
100
AcDbBlockTableRecord
  2
*D15
340
0
  0
BLOCK_RECORD
  5
C83
330
1
100
AcDbSymbolTableRecord
100
AcDbBlockTableRecord
  2
*D16
340
0
  0
BLOCK_RECORD
  5
C8F
330
1
100
AcDbSymbolTableRecord
100
AcDbBlockTableRecord
  2
*D17
340
0
  0
BLOCK_RECORD
  5
15DA
330
1
100
AcDbSymbolTableRecord
100
AcDbBlockTableRecord
  2
*D21
340
0
  0
BLOCK_RECORD
  5
15E7
330
1
100
AcDbSymbolTableRecord
100
AcDbBlockTableRecord
  2
*D22
340
0
  0
BLOCK_RECORD
  5
15F3
330
1
100
AcDbSymbolTableRecord
100
AcDbBlockTableRecord
  2
*D23
340
0
  0
BLOCK_RECORD
  5
15FF
330
1
100
AcDbSymbolTableRecord
100
AcDbBlockTableRecord
  2
*D24
340
0
  0
ENDTAB
  0
ENDSEC
  0
SECTION
  2
BLOCKS
  0
BLOCK
  5
5D
330
2
100
AcDbEntity
  8
0
100
AcDbBlockBegin
  2
*MODEL_SPACE
 70
     0
 10
0.0
 20
0.0
 30
0.0
  3
*MODEL_SPACE
  1

  0
ENDBLK
  5
5F
330
2
100
AcDbEntity
  8
0
100
AcDbBlockEnd
  0
BLOCK
  5
28D4
330
28D2
100
AcDbEntity
 67
     1
  8
0
100
AcDbBlockBegin
  2
*Paper_Space
 70
     0
 10
0.0
 20
0.0
 30
0.0
  3
*Paper_Space
  1

  0
ENDBLK
  5
28D5
330
28D2
100
AcDbEntity
 67
     1
  8
0
100
AcDbBlockEnd
  0
BLOCK
  5
BCB
330
BC1
100
AcDbEntity
  8
0
100
AcDbBlockBegin
  2
*D1
 70
     1
 10
0.0
 20
0.0
 30
0.0
  3
*D1
  1

  0
POINT
  5
169A
330
BC1
100
AcDbEntity
  8
DEFPOINTS
 62
     0
100
AcDbPoint
 10
343.7647000991
 20
170.2134266883
 30
0.0
  0
POINT
  5
169B
330
BC1
100
AcDbEntity
  8
DEFPOINTS
 62
     0
100
AcDbPoint
 10
465.7647050991
 20
135.2134266883
 30
0.0
  0
POINT
  5
169C
330
BC1
100
AcDbEntity
  8
DEFPOINTS
 62
     0
100
AcDbPoint
 10
465.7647050991
 20
231.9385767189
 30
0.0
  0
ENDBLK
  5
BCC
330
BC1
100
AcDbEntity
  8
0
100
AcDbBlockEnd
  0
BLOCK
  5
BD7
330
BCD
100
AcDbEntity
  8
0
100
AcDbBlockBegin
  2
*D2
 70
     1
 10
0.0
 20
0.0
 30
0.0
  3
*D2
  1

  0
POINT
  5
16B5
330
BCD
100
AcDbEntity
  8
DEFPOINTS
 62
     0
100
AcDbPoint
 10
391.7647020991
 20
197.4009286883
 30
0.0
  0
POINT
  5
16B6
330
BCD
100
AcDbEntity
  8
DEFPOINTS
 62
     0
100
AcDbPoint
 10
343.7647000991
 20
170.2134266883
 30
0.0
  0
POINT
  5
16B7
330
BCD
100
AcDbEntity
  8
DEFPOINTS
 62
     0
100
AcDbPoint
 10
343.7647000991
 20
219.9498361127
 30
0.0
  0
ENDBLK
  5
BD8
330
BCD
100
AcDbEntity
  8
0
100
AcDbBlockEnd
  0
BLOCK
  5
BE3
330
BD9
100
AcDbEntity
  8
0
100
AcDbBlockBegin
  2
*D3
 70
     1
 10
0.0
 20
0.0
 30
0.0
  3
*D3
  1

  0
POINT
  5
1648
330
BD9
100
AcDbEntity
  8
DEFPOINTS
 62
     0
100
AcDbPoint
 10
48.6148516157
 20
142.5134286883
 30
0.0
  0
POINT
  5
1649
330
BD9
100
AcDbEntity
  8
DEFPOINTS
 62
     0
100
AcDbPoint
 10
279.1148376157
 20
140.7134176883
 30
0.0
  0
POINT
  5
164A
330
BD9
100
AcDbEntity
  8
DEFPOINTS
 62
     0
100
AcDbPoint
 10
279.1148376157
 20
231.9385767189
 30
0.0
  0
ENDBLK
  5
BE4
330
BD9
100
AcDbEntity
  8
0
100
AcDbBlockEnd
  0
BLOCK
  5
BEF
330
BE5
100
AcDbEntity
  8
0
100
AcDbBlockBegin
  2
*D4
 70
     1
 10
0.0
 20
0.0
 30
0.0
  3
*D4
  1

  0
POINT
  5
163F
330
BE5
100
AcDbEntity
  8
DEFPOINTS
 62
     0
100
AcDbPoint
 10
228.6148376157
 20
177.2134176883
 30
0.0
  0
POINT
  5
1640
330
BE5
100
AcDbEntity
  8
DEFPOINTS
 62
     0
100
AcDbPoint
 10
48.6148516157
 20
142.5134286883
 30
0.0
  0
POINT
  5
1641
330
BE5
100
AcDbEntity
  8
DEFPOINTS
 62
     0
100
AcDbPoint
 10
48.6148516157
 20
219.9498361127
 30
0.0
  0
ENDBLK
  5
BF0
330
BE5
100
AcDbEntity
  8
0
100
AcDbBlockEnd
  0
BLOCK
  5
BFB
330
BF1
100
AcDbEntity
  8
0
100
AcDbBlockBegin
  2
*D5
 70
     1
 10
0.0
 20
0.0
 30
0.0
  3
*D5
  1

  0
POINT
  5
FF0
330
BF1
100
AcDbEntity
  8
DEFPOINTS
 62
     0
100
AcDbPoint
 10
53.6148266157
 20
147.5134206883
 30
0.0
  0
POINT
  5
FF1
330
BF1
100
AcDbEntity
  8
DEFPOINTS
 62
     0
100
AcDbPoint
 10
53.6148266157
 20
53.5134176883
 30
0.0
  0
POINT
  5
FF2
330
BF1
100
AcDbEntity
  8
DEFPOINTS
 62
     0
100
AcDbPoint
 10
31.7968262808
 20
53.5134176883
 30
0.0
  0
ENDBLK
  5
BFC
330
BF1
100
AcDbEntity
  8
0
100
AcDbBlockEnd
  0
BLOCK
  5
C07
330
BFD
100
AcDbEntity
  8
0
100
AcDbBlockBegin
  2
*D6
 70
     1
 10
0.0
 20
0.0
 30
0.0
  3
*D6
  1

  0
POINT
  5
FF9
330
BFD
100
AcDbEntity
  8
DEFPOINTS
 62
     0
100
AcDbPoint
 10
268.6148376157
 20
52.2134176883
 30
0.0
  0
POINT
  5
FFA
330
BFD
100
AcDbEntity
  8
DEFPOINTS
 62
     0
100
AcDbPoint
 10
268.6148376157
 20
170.2134176883
 30
0.0
  0
POINT
  5
FFB
330
BFD
100
AcDbEntity
  8
DEFPOINTS
 62
     0
100
AcDbPoint
 10
308.202670236
 20
170.2134176883
 30
0.0
  0
ENDBLK
  5
C08
330
BFD
100
AcDbEntity
  8
0
100
AcDbBlockEnd
  0
BLOCK
  5
C13
330
C09
100
AcDbEntity
  8
0
100
AcDbBlockBegin
  2
*D7
 70
     1
 10
0.0
 20
0.0
 30
0.0
  3
*D7
  1

  0
POINT
  5
100B
330
C09
100
AcDbEntity
  8
DEFPOINTS
 62
     0
100
AcDbPoint
 10
178.1148376157
 20
81.7134066883
 30
0.0
  0
POINT
  5
100C
330
C09
100
AcDbEntity
  8
DEFPOINTS
 62
     0
100
AcDbPoint
 10
279.1148376157
 20
81.7134176883
 30
0.0
  0
POINT
  5
100D
330
C09
100
AcDbEntity
  8
DEFPOINTS
 62
     0
100
AcDbPoint
 10
279.1148376157
 20
23.0031722453
 30
0.0
  0
ENDBLK
  5
C14
330
C09
100
AcDbEntity
  8
0
100
AcDbBlockEnd
  0
BLOCK
  5
C2B
330
C21
100
AcDbEntity
  8
0
100
AcDbBlockBegin
  2
*D8
 70
     1
 10
0.0
 20
0.0
 30
0.0
  3
*D8
  1

  0
POINT
  5
1078
330
C21
100
AcDbEntity
  8
DEFPOINTS
 62
     0
100
AcDbPoint
 10
188.6148376157
 20
54.4134146883
 30
0.0
  0
POINT
  5
1079
330
C21
100
AcDbEntity
  8
DEFPOINTS
 62
     0
100
AcDbPoint
 10
268.6148376157
 20
54.4134196883
 30
0.0
  0
POINT
  5
107A
330
C21
100
AcDbEntity
  8
DEFPOINTS
 62
     0
100
AcDbPoint
 10
268.6148376157
 20
35.0107053266
 30
0.0
  0
ENDBLK
  5
C2C
330
C21
100
AcDbEntity
  8
0
100
AcDbBlockEnd
  0
BLOCK
  5
C39
330
C2D
100
AcDbEntity
  8
0
100
AcDbBlockBegin
  2
*D9
 70
     1
 10
0.0
 20
0.0
 30
0.0
  3
*D9
  1

  0
POINT
  5
1028
330
C2D
100
AcDbEntity
  8
DEFPOINTS
 62
     0
100
AcDbPoint
 10
353.7647000991
 20
53.7134226883
 30
0.0
  0
POINT
  5
1029
330
C2D
100
AcDbEntity
  8
DEFPOINTS
 62
     0
100
AcDbPoint
 10
343.7647000991
 20
52.2134226883
 30
0.0
  0
POINT
  5
102A
330
C2D
100
AcDbEntity
  8
DEFPOINTS
 62
     0
100
AcDbPoint
 10
343.7647000991
 20
35.0107033266
 30
0.0
  0
ENDBLK
  5
C3A
330
C2D
100
AcDbEntity
  8
0
100
AcDbBlockEnd
  0
BLOCK
  5
C45
330
C3B
100
AcDbEntity
  8
0
100
AcDbBlockBegin
  2
*D10
 70
     1
 10
0.0
 20
0.0
 30
0.0
  3
*D10
  1

  0
POINT
  5
1636
330
C3B
100
AcDbEntity
  8
DEFPOINTS
 62
     0
100
AcDbPoint
 10
228.6148376157
 20
177.2134176883
 30
0.0
  0
POINT
  5
1637
330
C3B
100
AcDbEntity
  8
DEFPOINTS
 62
     0
100
AcDbPoint
 10
279.1148376157
 20
140.7134176883
 30
0.0
  0
POINT
  5
1638
330
C3B
100
AcDbEntity
  8
DEFPOINTS
 62
     0
100
AcDbPoint
 10
279.1148376157
 20
219.9498361127
 30
0.0
  0
ENDBLK
  5
C46
330
C3B
100
AcDbEntity
  8
0
100
AcDbBlockEnd
  0
BLOCK
  5
C51
330
C47
100
AcDbEntity
  8
0
100
AcDbBlockBegin
  2
*D11
 70
     1
 10
0.0
 20
0.0
 30
0.0
  3
*D11
  1

  0
POINT
  5
1043
330
C47
100
AcDbEntity
  8
DEFPOINTS
 62
     0
100
AcDbPoint
 10
198.1148376157
 20
126.2134176883
 30
0.0
  0
POINT
  5
1044
330
C47
100
AcDbEntity
  8
DEFPOINTS
 62
     0
100
AcDbPoint
 10
205.9443666157
 20
100.5134166883
 30
0.0
  0
POINT
  5
1045
330
C47
100
AcDbEntity
  8
DEFPOINTS
 62
     0
100
AcDbPoint
 10
194.9411700667
 20
100.5134166883
 30
0.0
  0
ENDBLK
  5
C52
330
C47
100
AcDbEntity
  8
0
100
AcDbBlockEnd
  0
BLOCK
  5
C5D
330
C53
100
AcDbEntity
  8
0
100
AcDbBlockBegin
  2
*D12
 70
     1
 10
0.0
 20
0.0
 30
0.0
  3
*D12
  1

  0
POINT
  5
1031
330
C53
100
AcDbEntity
  8
DEFPOINTS
 62
     0
100
AcDbPoint
 10
259.1148376157
 20
126.2134176883
 30
0.0
  0
POINT
  5
1032
330
C53
100
AcDbEntity
  8
DEFPOINTS
 62
     0
100
AcDbPoint
 10
275.4148406157
 20
161.2134176883
 30
0.0
  0
POINT
  5
1033
330
C53
100
AcDbEntity
  8
DEFPOINTS
 62
     0
100
AcDbPoint
 10
296.3151539075
 20
161.2134176883
 30
0.0
  0
ENDBLK
  5
C5E
330
C53
100
AcDbEntity
  8
0
100
AcDbBlockEnd
  0
BLOCK
  5
C69
330
C5F
100
AcDbEntity
  8
0
100
AcDbBlockBegin
  2
*D13
 70
     1
 10
0.0
 20
0.0
 30
0.0
  3
*D13
  1

  0
POINT
  5
1002
330
C5F
100
AcDbEntity
  8
DEFPOINTS
 62
     0
100
AcDbPoint
 10
259.1148376157
 20
126.2134176883
 30
0.0
  0
POINT
  5
1003
330
C5F
100
AcDbEntity
  8
DEFPOINTS
 62
     0
100
AcDbPoint
 10
275.4148406157
 20
61.2134176883
 30
0.0
  0
POINT
  5
1004
330
C5F
100
AcDbEntity
  8
DEFPOINTS
 62
     0
100
AcDbPoint
 10
296.3151539075
 20
61.2134176883
 30
0.0
  0
ENDBLK
  5
C6A
330
C5F
100
AcDbEntity
  8
0
100
AcDbBlockEnd
  0
BLOCK
  5
C75
330
C6B
100
AcDbEntity
  8
0
100
AcDbBlockBegin
  2
*D14
 70
     1
 10
0.0
 20
0.0
 30
0.0
  3
*D14
  1

  0
POINT
  5
1067
330
C6B
100
AcDbEntity
  8
DEFPOINTS
 62
     0
100
AcDbPoint
 10
465.7647050991
 20
117.2134266883
 30
0.0
  0
POINT
  5
1068
330
C6B
100
AcDbEntity
  8
DEFPOINTS
 62
     0
100
AcDbPoint
 10
465.7647050991
 20
135.2134266883
 30
0.0
  0
POINT
  5
1069
330
C6B
100
AcDbEntity
  8
DEFPOINTS
 62
     0
100
AcDbPoint
 10
483.31500013
 20
135.2134266883
 30
0.0
  0
ENDBLK
  5
C76
330
C6B
100
AcDbEntity
  8
0
100
AcDbBlockEnd
  0
BLOCK
  5
C81
330
C77
100
AcDbEntity
  8
0
100
AcDbBlockBegin
  2
*D15
 70
     1
 10
0.0
 20
0.0
 30
0.0
  3
*D15
  1

  0
POINT
  5
1A54
330
C77
100
AcDbEntity
  8
DEFPOINTS
 62
     0
100
AcDbPoint
 10
438.7646980991
 20
126.2134266883
 30
0.0
  0
POINT
  5
1A55
330
C77
100
AcDbEntity
  8
DEFPOINTS
 62
     0
100
AcDbPoint
 10
465.7647050991
 20
135.2134266883
 30
0.0
  0
POINT
  5
1A56
330
C77
100
AcDbEntity
  8
DEFPOINTS
 62
     0
100
AcDbPoint
 10
465.7647050991
 20
196.103005675
 30
0.0
  0
ENDBLK
  5
C82
330
C77
100
AcDbEntity
  8
0
100
AcDbBlockEnd
  0
BLOCK
  5
C8D
330
C83
100
AcDbEntity
  8
0
100
AcDbBlockBegin
  2
*D16
 70
     1
 10
0.0
 20
0.0
 30
0.0
  3
*D16
  1

  0
POINT
  5
16AC
330
C83
100
AcDbEntity
  8
DEFPOINTS
 62
     0
100
AcDbPoint
 10
391.7647020991
 20
197.4009286883
 30
0.0
  0
POINT
  5
16AD
330
C83
100
AcDbEntity
  8
DEFPOINTS
 62
     0
100
AcDbPoint
 10
465.7647050991
 20
135.2134266883
 30
0.0
  0
POINT
  5
16AE
330
C83
100
AcDbEntity
  8
DEFPOINTS
 62
     0
100
AcDbPoint
 10
465.7647050991
 20
219.9498361127
 30
0.0
  0
ENDBLK
  5
C8E
330
C83
100
AcDbEntity
  8
0
100
AcDbBlockEnd
  0
BLOCK
  5
C99
330
C8F
100
AcDbEntity
  8
0
100
AcDbBlockBegin
  2
*D17
 70
     1
 10
0.0
 20
0.0
 30
0.0
  3
*D17
  1

  0
POINT
  5
1A4B
330
C8F
100
AcDbEntity
  8
DEFPOINTS
 62
     0
100
AcDbPoint
 10
435.7646980991
 20
136.2134266883
 30
0.0
  0
POINT
  5
1A4C
330
C8F
100
AcDbEntity
  8
DEFPOINTS
 62
     0
100
AcDbPoint
 10
465.7647050991
 20
135.2134266883
 30
0.0
  0
POINT
  5
1A4D
330
C8F
100
AcDbEntity
  8
DEFPOINTS
 62
     0
100
AcDbPoint
 10
465.7647050991
 20
208.0131567768
 30
0.0
  0
ENDBLK
  5
C9A
330
C8F
100
AcDbEntity
  8
0
100
AcDbBlockEnd
  0
BLOCK
  5
15E5
330
15DA
100
AcDbEntity
  8
0
100
AcDbBlockBegin
  2
*D21
 70
     1
 10
0.0
 20
0.0
 30
0.0
  3
*D21
  1

  0
POINT
  5
1651
330
15DA
100
AcDbEntity
  8
DEFPOINTS
 62
     0
100
AcDbPoint
 10
96.6148236157
 20
191.0134286883
 30
0.0
  0
POINT
  5
1652
330
15DA
100
AcDbEntity
  8
DEFPOINTS
 62
     0
100
AcDbPoint
 10
48.6148516157
 20
142.5134286883
 30
0.0
  0
POINT
  5
1653
330
15DA
100
AcDbEntity
  8
DEFPOINTS
 62
     0
100
AcDbPoint
 10
48.6148516157
 20
208.0131567768
 30
0.0
  0
ENDBLK
  5
15E6
330
15DA
100
AcDbEntity
  8
0
100
AcDbBlockEnd
  0
BLOCK
  5
15F1
330
15E7
100
AcDbEntity
  8
0
100
AcDbBlockBegin
  2
*D22
 70
     1
 10
0.0
 20
0.0
 30
0.0
  3
*D22
  1

  0
POINT
  5
161B
330
15E7
100
AcDbEntity
  8
DEFPOINTS
 62
     0
100
AcDbPoint
 10
145.6148306157
 20
192.0134286883
 30
0.0
  0
POINT
  5
161C
330
15E7
100
AcDbEntity
  8
DEFPOINTS
 62
     0
100
AcDbPoint
 10
144.1148306157
 20
145.5134136883
 30
0.0
  0
POINT
  5
161D
330
15E7
100
AcDbEntity
  8
DEFPOINTS
 62
     0
100
AcDbPoint
 10
162.4162561128
 20
145.5134136883
 30
0.0
  0
ENDBLK
  5
15F2
330
15E7
100
AcDbEntity
  8
0
100
AcDbBlockEnd
  0
BLOCK
  5
15FD
330
15F3
100
AcDbEntity
  8
0
100
AcDbBlockBegin
  2
*D23
 70
     1
 10
0.0
 20
0.0
 30
0.0
  3
*D23
  1

  0
POINT
  5
165A
330
15F3
100
AcDbEntity
  8
DEFPOINTS
 62
     0
100
AcDbPoint
 10
95.7398236157
 20
164.5134136883
 30
0.0
  0
POINT
  5
165B
330
15F3
100
AcDbEntity
  8
DEFPOINTS
 62
     0
100
AcDbPoint
 10
95.7398236157
 20
185.5134136883
 30
0.0
  0
POINT
  5
165C
330
15F3
100
AcDbEntity
  8
DEFPOINTS
 62
     0
100
AcDbPoint
 10
74.4175046618
 20
185.5134136883
 30
0.0
  0
ENDBLK
  5
15FE
330
15F3
100
AcDbEntity
  8
0
100
AcDbBlockEnd
  0
BLOCK
  5
1609
330
15FF
100
AcDbEntity
  8
0
100
AcDbBlockBegin
  2
*D24
 70
     1
 10
0.0
 20
0.0
 30
0.0
  3
*D24
  1

  0
POINT
  5
162D
330
15FF
100
AcDbEntity
  8
DEFPOINTS
 62
     0
100
AcDbPoint
 10
96.6148236157
 20
191.0134286883
 30
0.0
  0
POINT
  5
162E
330
15FF
100
AcDbEntity
  8
DEFPOINTS
 62
     0
100
AcDbPoint
 10
146.6148306157
 20
191.0134286883
 30
0.0
  0
POINT
  5
162F
330
15FF
100
AcDbEntity
  8
DEFPOINTS
 62
     0
100
AcDbPoint
 10
146.6148306157
 20
208.0131567768
 30
0.0
  0
ENDBLK
  5
160A
330
15FF
100
AcDbEntity
  8
0
100
AcDbBlockEnd
  0
ENDSEC
  0
SECTION
  2
ENTITIES
  0
LINE
  5
615
330
2
100
AcDbEntity
  8
CENTER
100
AcDbLine
 10
41.6148526157
 20
333.049490706
 30
0.0
 11
284.8579205479
 21
333.049490706
 31
0.0
  0
LINE
  5
616
330
2
100
AcDbEntity
  8
0
100
AcDbLine
 10
365.6641850991
 20
53.5134216883
 30
0.0
 11
417.8652120991
 21
53.5134216883
 31
0.0
  0
LINE
  5
617
330
2
100
AcDbEntity
  8
CENTER
100
AcDbLine
 10
336.7647040991
 20
100.5134176883
 30
0.0
 11
445.7647020991
 21
100.5134176883
 31
0.0
  0
LINE
  5
618
330
2
100
AcDbEntity
  8
0
100
AcDbLine
 10
365.7647250991
 20
55.5134216883
 30
0.0
 11
417.7646950991
 21
55.5134216883
 31
0.0
  0
LINE
  5
619
330
2
100
AcDbEntity
  8
0
100
AcDbLine
 10
426.9981770991
 20
81.7134216883
 30
0.0
 11
356.7647250991
 21
81.7134216883
 31
0.0
  0
LINE
  5
61A
330
2
100
AcDbEntity
  8
0
100
AcDbLine
 10
426.9981770991
 20
140.7134176883
 30
0.0
 11
356.7647250991
 21
140.7134176883
 31
0.0
  0
LINE
  5
61B
330
2
100
AcDbEntity
  8
0
100
AcDbLine
 10
425.8170630991
 20
58.1619616883
 30
0.0
 11
355.7297850991
 21
56.9383416883
 31
0.0
  0
LINE
  5
61C
330
2
100
AcDbEntity
  8
0
100
AcDbLine
 10
425.8170480991
 20
164.2648556883
 30
0.0
 11
355.7298130991
 21
165.4879536883
 31
0.0
  0
LINE
  5
61D
330
2
100
AcDbEntity
  8
CENTER
100
AcDbLine
 10
336.7647040991
 20
126.2134176883
 30
0.0
 11
472.7647100991
 21
126.2134176883
 31
0.0
  0
LINE
  5
61E
330
2
100
AcDbEntity
  8
0
100
AcDbLine
 10
343.7647040991
 20
170.2134176883
 30
0.0
 11
343.7647040991
 21
52.2134216883
 31
0.0
  0
ARC
  5
620
330
2
100
AcDbEntity
  8
0
100
AcDbCircle
 10
352.2300550991
 20
54.2134216883
 30
0.0
 40
2.0
100
AcDbArc
 50
270.0
 51
345.0
  0
ARC
  5
621
330
2
100
AcDbEntity
  8
0
100
AcDbCircle
 10
352.2647040991
 20
53.7134216883
 30
0.0
 40
1.5
100
AcDbArc
 50
270.0
 51
0.0
  0
ARC
  5
622
330
2
100
AcDbEntity
  8
0
100
AcDbCircle
 10
365.6641850991
 20
60.5134216883
 30
0.0
 40
7.0
100
AcDbArc
 50
225.000107
 51
270.0
  0
LINE
  5
623
330
2
100
AcDbEntity
  8
0
100
AcDbLine
 10
352.2300550991
 20
52.2134216883
 30
0.0
 11
343.7647040991
 21
52.2134216883
 31
0.0
  0
LINE
  5
624
330
2
100
AcDbEntity
  8
HIDS
100
AcDbLine
 10
343.7647040991
 20
56.9634216883
 30
0.0
 11
353.7647040991
 21
56.9634216883
 31
0.0
  0
LINE
  5
625
330
2
100
AcDbEntity
  8
HIDS
100
AcDbLine
 10
343.7647040991
 20
65.4634216883
 30
0.0
 11
353.7647040991
 21
65.4634216883
 31
0.0
  0
LINE
  5
626
330
2
100
AcDbEntity
  8
CENTER
100
AcDbLine
 10
340.2647040991
 20
61.2134216883
 30
0.0
 11
357.2647040991
 21
61.2134216883
 31
0.0
  0
LINE
  5
627
330
2
100
AcDbEntity
  8
0
100
AcDbLine
 10
353.7647040991
 20
78.7134336883
 30
0.0
 11
353.7647040991
 21
53.7134216883
 31
0.0
  0
ARC
  5
628
330
2
100
AcDbEntity
  8
0
100
AcDbCircle
 10
357.3401460991
 20
53.9660016883
 30
0.0
 40
3.0
100
AcDbArc
 50
91.000458
 51
165.000198
  0
LINE
  5
629
330
2
100
AcDbEntity
  8
0
100
AcDbLine
 10
354.1619040991
 20
53.6957816883
 30
0.0
 11
354.4423550991
 21
54.7424516883
 31
0.0
  0
ARC
  5
62A
330
2
100
AcDbEntity
  8
0
100
AcDbCircle
 10
355.7647230991
 20
54.9386616883
 30
0.0
 40
2.0
100
AcDbArc
 50
91.000641
 51
180.0
  0
LINE
  5
62B
330
2
100
AcDbEntity
  8
0
100
AcDbLine
 10
360.7144550991
 20
55.5636616883
 30
0.0
 11
359.2778250991
 21
57.0002716883
 31
0.0
  0
ARC
  5
62C
330
2
100
AcDbEntity
  8
0
100
AcDbCircle
 10
365.7647020991
 20
58.5134216883
 30
0.0
 40
3.0
100
AcDbArc
 50
208.811905
 51
270.0
  0
ARC
  5
62D
330
2
100
AcDbEntity
  8
0
100
AcDbCircle
 10
356.7647250991
 20
78.7134406883
 30
0.0
 40
3.0
100
AcDbArc
 50
90.0
 51
180.0
  0
LINE
  5
62E
330
2
100
AcDbEntity
  8
0
100
AcDbLine
 10
353.7647040991
 20
168.2134106883
 30
0.0
 11
353.7647040991
 21
143.7134106883
 31
0.0
  0
ARC
  5
62F
330
2
100
AcDbEntity
  8
0
100
AcDbCircle
 10
356.7647020991
 20
143.7134176883
 30
0.0
 40
3.0
100
AcDbArc
 50
180.0
 51
270.0
  0
LINE
  5
630
330
2
100
AcDbEntity
  8
HIDS
100
AcDbLine
 10
343.7647040991
 20
165.4634176883
 30
0.0
 11
353.7647040991
 21
165.4634176883
 31
0.0
  0
LINE
  5
631
330
2
100
AcDbEntity
  8
HIDS
100
AcDbLine
 10
343.7647040991
 20
156.9634176883
 30
0.0
 11
353.7647040991
 21
156.9634176883
 31
0.0
  0
LINE
  5
632
330
2
100
AcDbEntity
  8
CENTER
100
AcDbLine
 10
340.2647040991
 20
161.2134176883
 30
0.0
 11
357.2647040991
 21
161.2134176883
 31
0.0
  0
LINE
  5
633
330
2
100
AcDbEntity
  8
0
100
AcDbLine
 10
352.2300550991
 20
170.2134176883
 30
0.0
 11
343.7647040991
 21
170.2134176883
 31
0.0
  0
ARC
  5
634
330
2
100
AcDbEntity
  8
0
100
AcDbCircle
 10
357.3402750991
 20
168.4603206883
 30
0.0
 40
3.0
100
AcDbArc
 50
195.000504
 51
269.000488
  0
ARC
  5
635
330
2
100
AcDbEntity
  8
0
100
AcDbCircle
 10
355.7646830991
 20
167.4876646883
 30
0.0
 40
2.0
100
AcDbArc
 50
180.0
 51
269.00061
  0
ARC
  5
636
330
2
100
AcDbEntity
  8
0
100
AcDbCircle
 10
352.2300630991
 20
168.2134106883
 30
0.0
 40
2.0
100
AcDbArc
 50
15.00047
 51
90.0
  0
LINE
  5
637
330
2
100
AcDbEntity
  8
0
100
AcDbLine
 10
354.1619140991
 20
168.7310646883
 30
0.0
 11
354.4425130991
 21
167.6838236883
 31
0.0
  0
ARC
  5
638
330
2
100
AcDbEntity
  8
0
100
AcDbCircle
 10
351.7647160991
 20
168.2134106883
 30
0.0
 40
2.0
100
AcDbArc
 50
0.0
 51
90.0
  0
LINE
  5
639
330
2
100
AcDbEntity
  8
0
100
AcDbLine
 10
438.7647020991
 20
74.4129116883
 30
0.0
 11
438.7647020991
 21
117.2134176883
 31
0.0
  0
ARC
  5
63A
330
2
100
AcDbEntity
  8
0
100
AcDbCircle
 10
391.7647020991
 20
100.5134176883
 30
0.0
 40
45.0
100
AcDbArc
 50
325.307892
 51
20.459709
  0
ARC
  5
63B
330
2
100
AcDbEntity
  8
0
100
AcDbCircle
 10
430.7647250991
 20
100.7134256883
 30
0.0
 40
2.0
100
AcDbArc
 50
90.0
 51
180.0
  0
LINE
  5
63C
330
2
100
AcDbEntity
  8
0
100
AcDbLine
 10
428.7647020991
 20
161.2652976883
 30
0.0
 11
428.7647020991
 21
61.1615016883
 31
0.0
  0
LINE
  5
63D
330
2
100
AcDbEntity
  8
CENTER
100
AcDbLine
 10
391.7647020991
 20
46.5134216883
 30
0.0
 11
391.7647020991
 21
197.4009286883
 31
0.0
  0
ARC
  5
63E
330
2
100
AcDbEntity
  8
0
100
AcDbCircle
 10
417.8652120991
 20
60.5134216883
 30
0.0
 40
7.0
100
AcDbArc
 50
270.0
 51
315.0
  0
LINE
  5
63F
330
2
100
AcDbEntity
  8
0
100
AcDbLine
 10
422.8149570991
 20
55.5636716883
 30
0.0
 11
425.4060750991
 21
58.1548016883
 31
0.0
  0
ARC
  5
640
330
2
100
AcDbEntity
  8
0
100
AcDbCircle
 10
417.7647020991
 20
58.5134216883
 30
0.0
 40
3.0
100
AcDbArc
 50
270.0
 51
351.56189
  0
LINE
  5
641
330
2
100
AcDbEntity
  8
0
100
AcDbLine
 10
436.7144550991
 20
69.4631716883
 30
0.0
 11
428.7647020991
 21
61.5134216883
 31
0.0
  0
ARC
  5
642
330
2
100
AcDbEntity
  8
0
100
AcDbCircle
 10
425.7647020991
 20
61.1615016883
 30
0.0
 40
3.0
100
AcDbArc
 50
271.000313
 51
0.0
  0
ARC
  5
643
330
2
100
AcDbEntity
  8
0
100
AcDbCircle
 10
431.7647020991
 20
74.4129016883
 30
0.0
 40
7.0
100
AcDbArc
 50
315.000118
 51
0.0
  0
LINE
  5
644
330
2
100
AcDbEntity
  8
0
100
AcDbLine
 10
441.7647250991
 20
123.2134176883
 30
0.0
 11
465.7647100991
 21
123.2134176883
 31
0.0
  0
LINE
  5
645
330
2
100
AcDbEntity
  8
0
100
AcDbLine
 10
441.7647020991
 20
129.2134176883
 30
0.0
 11
465.7647100991
 21
129.2134176883
 31
0.0
  0
LINE
  5
646
330
2
100
AcDbEntity
  8
0
100
AcDbLine
 10
435.7647020991
 20
117.2134176883
 30
0.0
 11
465.7647100991
 21
117.2134176883
 31
0.0
  0
LINE
  5
647
330
2
100
AcDbEntity
  8
0
100
AcDbLine
 10
435.7647020991
 20
135.2134176883
 30
0.0
 11
465.7647100991
 21
135.2134176883
 31
0.0
  0
ARC
  5
648
330
2
100
AcDbEntity
  8
0
100
AcDbCircle
 10
432.7647020991
 20
148.7134106883
 30
0.0
 40
1.0
100
AcDbArc
 50
0.0
 51
90.0
  0
ARC
  5
649
330
2
100
AcDbEntity
  8
0
100
AcDbCircle
 10
441.7647020991
 20
126.2134176883
 30
0.0
 40
3.0
100
AcDbArc
 50
90.0
 51
270.0
  0
LINE
  5
64A
330
2
100
AcDbEntity
  8
0
100
AcDbLine
 10
435.7647020991
 20
136.2134176883
 30
0.0
 11
435.7647020991
 21
116.2134176883
 31
0.0
  0
LINE
  5
64B
330
2
100
AcDbEntity
  8
0
100
AcDbLine
 10
433.7647020991
 20
148.7134106883
 30
0.0
 11
433.7647020991
 21
103.7134106883
 31
0.0
  0
ARC
  5
64C
330
2
100
AcDbEntity
  8
0
100
AcDbCircle
 10
432.7647020991
 20
103.7134146883
 30
0.0
 40
1.0
100
AcDbArc
 50
270.0
 51
0.0
  0
LINE
  5
64D
330
2
100
AcDbEntity
  8
0
100
AcDbLine
 10
430.7647250991
 20
102.7134146883
 30
0.0
 11
432.7647020991
 21
102.7134146883
 31
0.0
  0
LINE
  5
64E
330
2
100
AcDbEntity
  8
0
100
AcDbLine
 10
433.7647020991
 20
116.2134176883
 30
0.0
 11
435.7647020991
 21
116.2134176883
 31
0.0
  0
LINE
  5
64F
330
2
100
AcDbEntity
  8
0
100
AcDbLine
 10
433.7647020991
 20
136.2134176883
 30
0.0
 11
435.7647020991
 21
136.2134176883
 31
0.0
  0
ARC
  5
650
330
2
100
AcDbEntity
  8
0
100
AcDbCircle
 10
425.7647250991
 20
161.2652976883
 30
0.0
 40
3.0
100
AcDbArc
 50
0.0
 51
89.000359
  0
ARC
  5
651
330
2
100
AcDbEntity
  8
0
100
AcDbCircle
 10
430.7647020991
 20
151.7134176883
 30
0.0
 40
2.0
100
AcDbArc
 50
180.0
 51
270.0
  0
LINE
  5
652
330
2
100
AcDbEntity
  8
0
100
AcDbLine
 10
430.7647250991
 20
149.7134176883
 30
0.0
 11
432.7647020991
 21
149.7134176883
 31
0.0
  0
LINE
  5
653
330
2
100
AcDbEntity
  8
0
100
AcDbLine
 10
465.7647100991
 20
117.2134176883
 30
0.0
 11
465.7647100991
 21
135.2134176883
 31
0.0
  0
LINE
  5
655
330
2
100
AcDbEntity
  8
0
100
AcDbLine
 10
682.590569138
 20
66.1041116883
 30
0.0
 11
611.590569138
 21
66.1041116883
 31
0.0
  0
LINE
  5
656
330
2
100
AcDbEntity
  8
0
100
AcDbLine
 10
682.590569138
 20
134.9227226883
 30
0.0
 11
612.090569138
 21
134.9227226883
 31
0.0
  0
LINE
  5
657
330
2
100
AcDbEntity
  8
0
100
AcDbLine
 10
612.090569138
 20
55.5134216883
 30
0.0
 11
682.590569138
 21
55.5134216883
 31
0.0
  0
LINE
  5
658
330
2
100
AcDbEntity
  8
0
100
AcDbLine
 10
682.590569138
 20
145.5134206883
 30
0.0
 11
603.247948138
 21
145.5134206883
 31
0.0
  0
LINE
  5
659
330
2
100
AcDbEntity
  8
CENTER
100
AcDbLine
 10
746.590569138
 20
100.5134176883
 30
0.0
 11
580.585564138
 21
100.5134176883
 31
0.0
  0
LINE
  5
65A
330
2
100
AcDbEntity
  8
0
100
AcDbLine
 10
610.090569138
 20
138.1133126883
 30
0.0
 11
610.090569138
 21
65.5134516883
 31
0.0
  0
LINE
  5
65B
330
2
100
AcDbEntity
  8
CENTER
100
AcDbLine
 10
559.590569138
 20
177.2134176883
 30
0.0
 11
559.590569138
 21
45.2134216883
 31
0.0
  0
LINE
  5
65C
330
2
100
AcDbEntity
  8
0
100
AcDbLine
 10
509.090569138
 20
81.7134216883
 30
0.0
 11
509.090569138
 21
140.7134176883
 31
0.0
  0
LINE
  5
65D
330
2
100
AcDbEntity
  8
0
100
AcDbLine
 10
577.883172138
 20
59.1201216883
 30
0.0
 11
592.832055138
 21
69.6066926883
 31
0.0
  0
LINE
  5
65E
330
2
100
AcDbEntity
  8
0
100
AcDbLine
 10
599.590569138
 20
52.2134216883
 30
0.0
 11
519.590569138
 21
52.2134216883
 31
0.0
  0
ARC
  5
65F
330
2
100
AcDbEntity
  8
0
100
AcDbCircle
 10
519.590569138
 20
61.2134216883
 30
0.0
 40
9.0
100
AcDbArc
 50
184.120102
 51
270.0
  0
LINE
  5
660
330
2
100
AcDbEntity
  8
0
100
AcDbLine
 10
575.011651138
 20
58.2134216883
 30
0.0
 11
544.169457138
 21
58.2134216883
 31
0.0
  0
LINE
  5
661
330
2
100
AcDbEntity
  8
0
100
AcDbLine
 10
541.297967138
 20
59.1201416883
 30
0.0
 11
509.090569138
 21
81.7134216883
 31
0.0
  0
LINE
  5
662
330
2
100
AcDbEntity
  8
0
100
AcDbLine
 10
510.613869138
 20
60.5668616883
 30
0.0
 11
509.090569138
 21
81.7134216883
 31
0.0
  0
CIRCLE
  5
664
330
2
100
AcDbEntity
  8
0
100
AcDbCircle
 10
519.590569138
 20
61.2134216883
 30
0.0
 40
4.25
  0
ARC
  5
666
330
2
100
AcDbEntity
  8
0
100
AcDbCircle
 10
544.169457138
 20
63.2134216883
 30
0.0
 40
5.0
100
AcDbArc
 50
234.9505
 51
270.0
  0
ARC
  5
667
330
2
100
AcDbEntity
  8
0
100
AcDbCircle
 10
575.011651138
 20
63.2134216883
 30
0.0
 40
5.0
100
AcDbArc
 50
270.0
 51
305.049591
  0
ARC
  5
6AD
330
2
100
AcDbEntity
  8
0
100
AcDbCircle
 10
599.590569138
 20
61.2134216883
 30
0.0
 40
9.0
100
AcDbArc
 50
270.0
 51
355.879913
  0
LINE
  5
6AE
330
2
100
AcDbEntity
  8
0
100
AcDbLine
 10
595.703454138
 20
70.5134206883
 30
0.0
 11
605.090569138
 21
70.5134206883
 31
0.0
  0
CIRCLE
  5
6AF
330
2
100
AcDbEntity
  8
0
100
AcDbCircle
 10
599.590569138
 20
61.2134216883
 30
0.0
 40
4.25
  0
ARC
  5
6B2
330
2
100
AcDbEntity
  8
0
100
AcDbCircle
 10
595.703454138
 20
65.5134326883
 30
0.0
 40
5.0
100
AcDbArc
 50
90.0
 51
125.049698
  0
LINE
  5
6B3
330
2
100
AcDbEntity
  8
0
100
AcDbLine
 10
610.090569138
 20
57.5134216883
 30
0.0
 11
610.090569138
 21
65.5134516883
 31
0.0
  0
LINE
  5
6B4
330
2
100
AcDbEntity
  8
0
100
AcDbLine
 10
608.567254138
 20
60.5668616883
 30
0.0
 11
609.135369138
 21
68.4527426883
 31
0.0
  0
ARC
  5
6B5
330
2
100
AcDbEntity
  8
0
100
AcDbCircle
 10
612.090569138
 20
57.5134216883
 30
0.0
 40
2.0
100
AcDbArc
 50
180.0
 51
270.0
  0
ARC
  5
6B6
330
2
100
AcDbEntity
  8
0
100
AcDbCircle
 10
605.090569138
 20
65.5134516883
 30
0.0
 40
5.0
100
AcDbArc
 50
0.0
 51
90.0
  0
LINE
  5
6B7
330
2
100
AcDbEntity
  8
0
100
AcDbLine
 10
577.883172138
 20
163.3067106883
 30
0.0
 11
607.961968138
 21
142.2066126883
 31
0.0
  0
LINE
  5
6B8
330
2
100
AcDbEntity
  8
0
100
AcDbLine
 10
599.590569138
 20
170.2134176883
 30
0.0
 11
519.590569138
 21
170.2134176883
 31
0.0
  0
LINE
  5
6B9
330
2
100
AcDbEntity
  8
CENTER
100
AcDbLine
 10
590.090569138
 20
126.2134176883
 30
0.0
 11
529.090569138
 21
126.2134176883
 31
0.0
  0
LINE
  5
6BA
330
2
100
AcDbEntity
  8
0
100
AcDbLine
 10
541.298058138
 20
163.3067026883
 30
0.0
 11
509.090569138
 21
140.7134176883
 31
0.0
  0
CIRCLE
  5
6BB
330
2
100
AcDbEntity
  8
0
100
AcDbCircle
 10
559.590569138
 20
126.2134176883
 30
0.0
 40
23.5
  0
LINE
  5
6BC
330
2
100
AcDbEntity
  8
0
100
AcDbLine
 10
510.613869138
 20
161.8600546883
 30
0.0
 11
509.090569138
 21
140.7134176883
 31
0.0
  0
ARC
  5
6BD
330
2
100
AcDbEntity
  8
0
100
AcDbCircle
 10
559.590569138
 20
126.2134176883
 30
0.0
 40
9.0
100
AcDbArc
 50
199.471207
 51
160.528793
  0
LINE
  5
6BE
330
2
100
AcDbEntity
  8
0
100
AcDbLine
 10
548.090569138
 20
129.2134176883
 30
0.0
 11
548.090569138
 21
123.2134176883
 31
0.0
  0
LINE
  5
6BF
330
2
100
AcDbEntity
  8
0
100
AcDbLine
 10
554.090569138
 20
129.2134176883
 30
0.0
 11
554.090569138
 21
123.2134176883
 31
0.0
  0
LINE
  5
6C0
330
2
100
AcDbEntity
  8
0
100
AcDbLine
 10
548.090569138
 20
123.2134176883
 30
0.0
 11
554.090569138
 21
123.2134176883
 31
0.0
  0
LINE
  5
6C1
330
2
100
AcDbEntity
  8
0
100
AcDbLine
 10
548.090569138
 20
129.2134176883
 30
0.0
 11
554.090569138
 21
129.2134176883
 31
0.0
  0
LINE
  5
6C2
330
2
100
AcDbEntity
  8
0
100
AcDbLine
 10
544.169457138
 20
164.2134176883
 30
0.0
 11
575.011651138
 21
164.2134176883
 31
0.0
  0
CIRCLE
  5
6C4
330
2
100
AcDbEntity
  8
0
100
AcDbCircle
 10
519.590569138
 20
161.2134176883
 30
0.0
 40
4.25
  0
ARC
  5
6C6
330
2
100
AcDbEntity
  8
0
100
AcDbCircle
 10
519.590569138
 20
161.2134176883
 30
0.0
 40
9.0
100
AcDbArc
 50
90.0
 51
175.879898
  0
ARC
  5
6C7
330
2
100
AcDbEntity
  8
0
100
AcDbCircle
 10
544.169457138
 20
159.2134176883
 30
0.0
 40
5.0
100
AcDbArc
 50
90.0
 51
125.0495
  0
ARC
  5
6C8
330
2
100
AcDbEntity
  8
0
100
AcDbCircle
 10
575.011773138
 20
159.2134176883
 30
0.0
 40
5.0
100
AcDbArc
 50
54.95071
 51
90.0
  0
LINE
  5
6C9
330
2
100
AcDbEntity
  8
0
100
AcDbLine
 10
608.567254138
 20
161.8600546883
 30
0.0
 11
609.744774138
 21
145.5134206883
 31
0.0
  0
ARC
  5
6CA
330
2
100
AcDbEntity
  8
0
100
AcDbCircle
 10
605.090569138
 20
138.1133126883
 30
0.0
 40
5.0
100
AcDbArc
 50
0.0
 51
54.950691
  0
ARC
  5
6CB
330
2
100
AcDbEntity
  8
0
100
AcDbCircle
 10
599.590569138
 20
161.2134176883
 30
0.0
 40
9.0
100
AcDbArc
 50
4.120102
 51
90.0
  0
CIRCLE
  5
6CC
330
2
100
AcDbEntity
  8
0
100
AcDbCircle
 10
599.590569138
 20
161.2134176883
 30
0.0
 40
4.25
  0
LINE
  5
6CD
330
2
100
AcDbEntity
  8
CENTER
100
AcDbLine
 10
592.790566138
 20
161.2134176883
 30
0.0
 11
606.390572138
 21
161.2134176883
 31
0.0
  0
LINE
  5
6CE
330
2
100
AcDbEntity
  8
CENTER
100
AcDbLine
 10
599.590569138
 20
154.4134146883
 30
0.0
 11
599.590569138
 21
168.0134206883
 31
0.0
  0
LINE
  5
6CF
330
2
100
AcDbEntity
  8
0
100
AcDbLine
 10
739.590569138
 20
142.5134286883
 30
0.0
 11
739.590569138
 21
58.5134016883
 31
0.0
  0
LINE
  5
6D0
330
2
100
AcDbEntity
  8
0
100
AcDbLine
 10
692.090569138
 20
147.5134206883
 30
0.0
 11
692.090569138
 21
53.5134216883
 31
0.0
  0
LINE
  5
6D1
330
2
100
AcDbEntity
  8
0
100
AcDbLine
 10
682.590569138
 20
55.5134216883
 30
0.0
 11
682.590569138
 21
145.5134206883
 31
0.0
  0
ARC
  5
6D2
330
2
100
AcDbEntity
  8
0
100
AcDbCircle
 10
734.590569138
 20
58.5134216883
 30
0.0
 40
5.0
100
AcDbArc
 50
270.0
 51
0.0
  0
LINE
  5
6D3
330
2
100
AcDbEntity
  8
0
100
AcDbLine
 10
734.590569138
 20
53.5134216883
 30
0.0
 11
692.090569138
 21
53.5134216883
 31
0.0
  0
LINE
  5
6D4
330
2
100
AcDbEntity
  8
0
100
AcDbLine
 10
692.090569138
 20
71.5134206883
 30
0.0
 11
736.065575138
 21
71.5134206883
 31
0.0
  0
LINE
  5
6D5
330
2
100
AcDbEntity
  8
0
100
AcDbLine
 10
692.090569138
 20
55.5134216883
 30
0.0
 11
682.590569138
 21
55.5134216883
 31
0.0
  0
LINE
  5
6D6
330
2
100
AcDbEntity
  8
0
100
AcDbLine
 10
682.590569138
 20
66.1041116883
 30
0.0
 11
692.090569138
 21
66.1041116883
 31
0.0
  0
ARC
  5
6D7
330
2
100
AcDbEntity
  8
0
100
AcDbCircle
 10
734.590569138
 20
142.5134516883
 30
0.0
 40
5.0
100
AcDbArc
 50
0.0
 51
90.0
  0
LINE
  5
6DC
330
2
100
AcDbEntity
  8
0
100
AcDbLine
 10
734.590569138
 20
147.5134206883
 30
0.0
 11
692.090569138
 21
147.5134206883
 31
0.0
  0
LINE
  5
6DD
330
2
100
AcDbEntity
  8
0
100
AcDbLine
 10
692.090569138
 20
129.5134206883
 30
0.0
 11
736.065575138
 21
129.5134206883
 31
0.0
  0
LINE
  5
6DE
330
2
100
AcDbEntity
  8
0
100
AcDbLine
 10
682.590569138
 20
134.9227226883
 30
0.0
 11
692.090569138
 21
134.9227226883
 31
0.0
  0
LINE
  5
6DF
330
2
100
AcDbEntity
  8
0
100
AcDbLine
 10
692.090569138
 20
145.5134206883
 30
0.0
 11
682.590569138
 21
145.5134206883
 31
0.0
  0
LINE
  5
6E6
330
2
100
AcDbEntity
  8
0
100
AcDbLine
 10
176.0879816157
 20
288.049490706
 30
0.0
 11
105.6148376157
 21
288.049490706
 31
0.0
  0
LINE
  5
6E7
330
2
100
AcDbEntity
  8
0
100
AcDbLine
 10
105.6148376157
 20
304.049490706
 30
0.0
 11
176.2317196157
 21
304.049490706
 31
0.0
  0
LINE
  5
6E8
330
2
100
AcDbEntity
  8
0
100
AcDbLine
 10
105.6148376157
 20
362.049490706
 30
0.0
 11
184.9573976157
 21
362.049490706
 31
0.0
  0
LINE
  5
6E9
330
2
100
AcDbEntity
  8
0
100
AcDbLine
 10
175.9570316157
 20
378.049490706
 30
0.0
 11
105.6148376157
 21
378.049490706
 31
0.0
  0
LINE
  5
6EA
330
2
100
AcDbEntity
  8
0
100
AcDbLine
 10
276.9400476157
 20
368.101843706
 30
0.0
 11
279.1148376157
 21
285.049490706
 31
0.0
  0
LINE
  5
6EB
330
2
100
AcDbEntity
  8
0
100
AcDbLine
 10
184.9573976157
 20
360.049490706
 30
0.0
 11
184.9573976157
 21
296.584494706
 31
0.0
  0
LINE
  5
6EC
330
2
100
AcDbEntity
  8
0
100
AcDbLine
 10
245.6148376157
 20
365.049490706
 30
0.0
 11
245.6148376157
 21
297.049490706
 31
0.0
  0
LINE
  5
6ED
330
2
100
AcDbEntity
  8
0
100
AcDbLine
 10
211.6148376157
 20
365.049490706
 30
0.0
 11
211.6148376157
 21
297.049490706
 31
0.0
  0
LINE
  5
6EE
330
2
100
AcDbEntity
  8
0
100
AcDbLine
 10
176.8579096157
 20
333.049490706
 30
0.0
 11
178.1148376157
 21
285.049490706
 31
0.0
  0
LINE
  5
6EF
330
2
100
AcDbEntity
  8
CENTER
100
AcDbLine
 10
228.6148376157
 20
414.049490706
 30
0.0
 11
228.6148376157
 21
278.049490706
 31
0.0
  0
ARC
  5
6F0
330
2
100
AcDbEntity
  8
0
100
AcDbCircle
 10
203.1148376157
 20
372.049490706
 30
0.0
 40
2.0
100
AcDbArc
 50
270.0
 51
0.0
  0
LINE
  5
6F1
330
2
100
AcDbEntity
  8
0
100
AcDbLine
 10
274.9407196157
 20
370.049490706
 30
0.0
 11
180.0631716157
 21
370.049490706
 31
0.0
  0
ARC
  5
6F2
330
2
100
AcDbEntity
  8
0
100
AcDbCircle
 10
251.1148526157
 20
374.049490706
 30
0.0
 40
1.0
100
AcDbArc
 50
0.0
 51
90.0
  0
ARC
  5
6F3
330
2
100
AcDbEntity
  8
0
100
AcDbCircle
 10
206.1148676157
 20
374.049490706
 30
0.0
 40
1.0
100
AcDbArc
 50
90.0
 51
180.0
  0
LINE
  5
6F4
330
2
100
AcDbEntity
  8
0
100
AcDbLine
 10
251.1148526157
 20
375.049490706
 30
0.0
 11
206.1148376157
 21
375.049490706
 31
0.0
  0
LINE
  5
6F5
330
2
100
AcDbEntity
  8
0
100
AcDbLine
 10
237.0998536157
 20
407.049490706
 30
0.0
 11
237.0998536157
 21
380.049490706
 31
0.0
  0
LINE
  5
6F6
330
2
100
AcDbEntity
  8
0
100
AcDbLine
 10
240.1148376157
 20
407.049490706
 30
0.0
 11
240.1148376157
 21
380.049490706
 31
0.0
  0
LINE
  5
6F7
330
2
100
AcDbEntity
  8
0
100
AcDbLine
 10
219.6148376157
 20
377.049490706
 30
0.0
 11
219.6148376157
 21
407.049490706
 31
0.0
  0
LINE
  5
6F8
330
2
100
AcDbEntity
  8
0
100
AcDbLine
 10
240.1148376157
 20
407.049490706
 30
0.0
 11
219.6148376157
 21
407.049490706
 31
0.0
  0
LINE
  5
6F9
330
2
100
AcDbEntity
  8
0
100
AcDbLine
 10
218.6148376157
 20
377.049490706
 30
0.0
 11
238.6148376157
 21
377.049490706
 31
0.0
  0
LINE
  5
6FA
330
2
100
AcDbEntity
  8
0
100
AcDbLine
 10
240.1148376157
 20
380.049490706
 30
0.0
 11
237.0998536157
 21
380.049490706
 31
0.0
  0
LINE
  5
6FB
330
2
100
AcDbEntity
  8
0
100
AcDbLine
 10
238.6148376157
 20
375.049490706
 30
0.0
 11
238.6148376157
 21
377.049490706
 31
0.0
  0
LINE
  5
6FC
330
2
100
AcDbEntity
  8
0
100
AcDbLine
 10
237.6148376157
 20
377.049490706
 30
0.0
 11
237.6148376157
 21
380.049490706
 31
0.0
  0
LINE
  5
6FD
330
2
100
AcDbEntity
  8
0
100
AcDbLine
 10
218.6148376157
 20
375.049490706
 30
0.0
 11
218.6148376157
 21
377.049490706
 31
0.0
  0
ARC
  5
6FE
330
2
100
AcDbEntity
  8
0
100
AcDbCircle
 10
274.9407196157
 20
368.049490706
 30
0.0
 40
2.0
100
AcDbArc
 50
1.5
 51
90.0
  0
ARC
  5
6FF
330
2
100
AcDbEntity
  8
0
100
AcDbCircle
 10
254.1148376157
 20
372.049490706
 30
0.0
 40
2.0
100
AcDbArc
 50
180.0
 51
270.0
  0
LINE
  5
700
330
2
100
AcDbEntity
  8
0
100
AcDbLine
 10
252.1148526157
 20
374.049490706
 30
0.0
 11
252.1148526157
 21
372.049490706
 31
0.0
  0
LINE
  5
701
330
2
100
AcDbEntity
  8
0
100
AcDbLine
 10
205.1148376157
 20
374.049490706
 30
0.0
 11
205.1148376157
 21
372.049490706
 31
0.0
  0
LINE
  5
702
330
2
100
AcDbEntity
  8
0
100
AcDbLine
 10
177.9563596157
 20
376.101843706
 30
0.0
 11
178.0638426157
 21
371.997137706
 31
0.0
  0
ARC
  5
703
330
2
100
AcDbEntity
  8
0
100
AcDbCircle
 10
175.9570316157
 20
376.049490706
 30
0.0
 40
2.0
100
AcDbArc
 50
1.5
 51
90.0
  0
LINE
  5
704
330
2
100
AcDbEntity
  8
0
100
AcDbLine
 10
177.9054256157
 20
362.052222706
 30
0.0
 11
178.0638426157
 21
368.101843706
 31
0.0
  0
ARC
  5
705
330
2
100
AcDbEntity
  8
0
100
AcDbCircle
 10
180.0631716157
 20
368.049490706
 30
0.0
 40
2.0
100
AcDbArc
 50
90.0
 51
178.5
  0
ARC
  5
706
330
2
100
AcDbEntity
  8
0
100
AcDbCircle
 10
180.0631716157
 20
372.049490706
 30
0.0
 40
2.0
100
AcDbArc
 50
181.5
 51
270.0
  0
LINE
  5
707
330
2
100
AcDbEntity
  8
0
100
AcDbLine
 10
179.9060366157
 20
295.049490706
 30
0.0
 11
276.9046786157
 21
295.049490706
 31
0.0
  0
LINE
  5
708
330
2
100
AcDbEntity
  8
0
100
AcDbLine
 10
178.1148376157
 20
285.049490706
 30
0.0
 11
279.1148376157
 21
285.049490706
 31
0.0
  0
LINE
  5
709
330
2
100
AcDbEntity
  8
CENTER
100
AcDbLine
 10
268.6148376157
 20
281.549490706
 30
0.0
 11
268.6148376157
 21
298.549490706
 31
0.0
  0
LINE
  5
70A
330
2
100
AcDbEntity
  8
0
100
AcDbLine
 10
211.4729006157
 20
296.309500706
 30
0.0
 11
245.7567746157
 21
296.309500706
 31
0.0
  0
LINE
  5
70B
330
2
100
AcDbEntity
  8
HIDS
100
AcDbLine
 10
264.3648376157
 20
295.049490706
 30
0.0
 11
264.3648376157
 21
285.049490706
 31
0.0
  0
LINE
  5
70C
330
2
100
AcDbEntity
  8
HIDS
100
AcDbLine
 10
272.8648376157
 20
295.049490706
 30
0.0
 11
272.8648376157
 21
285.049490706
 31
0.0
  0
ARC
  5
70D
330
2
100
AcDbEntity
  8
0
100
AcDbCircle
 10
276.9046786157
 20
293.049490706
 30
0.0
 40
2.0
100
AcDbArc
 50
1.5
 51
90.0
  0
ARC
  5
70E
330
2
100
AcDbEntity
  8
0
100
AcDbCircle
 10
247.6148376157
 20
297.049490706
 30
0.0
 40
2.0
100
AcDbArc
 50
180.0
 51
270.0
  0
ARC
  5
70F
330
2
100
AcDbEntity
  8
0
100
AcDbCircle
 10
209.6148376157
 20
297.049490706
 30
0.0
 40
2.0
100
AcDbArc
 50
270.0
 51
0.0
  0
LINE
  5
710
330
2
100
AcDbEntity
  8
CENTER
100
AcDbLine
 10
188.6148376157
 20
281.549490706
 30
0.0
 11
188.6148376157
 21
298.549490706
 31
0.0
  0
LINE
  5
711
330
2
100
AcDbEntity
  8
HIDS
100
AcDbLine
 10
192.8648376157
 20
295.049490706
 30
0.0
 11
192.8648376157
 21
285.049490706
 31
0.0
  0
LINE
  5
712
330
2
100
AcDbEntity
  8
HIDS
100
AcDbLine
 10
184.3648376157
 20
295.049490706
 30
0.0
 11
184.3648376157
 21
285.049490706
 31
0.0
  0
ARC
  5
713
330
2
100
AcDbEntity
  8
0
100
AcDbCircle
 10
179.9060366157
 20
293.049490706
 30
0.0
 40
2.0
100
AcDbArc
 50
90.0
 51
181.5
  0
ARC
  5
714
330
2
100
AcDbEntity
  8
0
100
AcDbCircle
 10
176.0879816157
 20
286.049490706
 30
0.0
 40
2.0
100
AcDbArc
 50
1.5
 51
90.0
  0
LINE
  5
715
330
2
100
AcDbEntity
  8
0
100
AcDbLine
 10
48.6148676157
 20
375.049490706
 30
0.0
 11
48.6148376157
 21
291.049460706
 31
0.0
  0
LINE
  5
716
330
2
100
AcDbEntity
  8
0
100
AcDbLine
 10
96.1148376157
 20
380.049490706
 30
0.0
 11
96.1148376157
 21
286.049490706
 31
0.0
  0
ARC
  5
719
330
2
100
AcDbEntity
  8
0
100
AcDbCircle
 10
53.6148676157
 20
375.049490706
 30
0.0
 40
5.0
100
AcDbArc
 50
90.0
 51
180.0
  0
LINE
  5
71A
330
2
100
AcDbEntity
  8
0
100
AcDbLine
 10
105.6148376157
 20
358.049490706
 30
0.0
 11
105.6148376157
 21
378.049490706
 31
0.0
  0
LINE
  5
71B
330
2
100
AcDbEntity
  8
0
100
AcDbLine
 10
53.6148376157
 20
380.049490706
 30
0.0
 11
96.1148376157
 21
380.049490706
 31
0.0
  0
LINE
  5
71C
330
2
100
AcDbEntity
  8
0
100
AcDbLine
 10
96.1148376157
 20
378.049490706
 30
0.0
 11
105.6148376157
 21
378.049490706
 31
0.0
  0
LINE
  5
71D
330
2
100
AcDbEntity
  8
0
100
AcDbLine
 10
96.1148376157
 20
362.049490706
 30
0.0
 11
52.1398006157
 21
362.049490706
 31
0.0
  0
LINE
  5
71E
330
2
100
AcDbEntity
  8
0
100
AcDbLine
 10
105.6148376157
 20
362.049490706
 30
0.0
 11
96.1148376157
 21
362.049490706
 31
0.0
  0
ARC
  5
72A
330
2
100
AcDbEntity
  8
0
100
AcDbCircle
 10
53.6148376157
 20
291.049490706
 30
0.0
 40
5.0
100
AcDbArc
 50
180.0
 51
270.0
  0
LINE
  5
72B
330
2
100
AcDbEntity
  8
0
100
AcDbLine
 10
53.6148376157
 20
286.049490706
 30
0.0
 11
96.1148376157
 21
286.049490706
 31
0.0
  0
LINE
  5
72C
330
2
100
AcDbEntity
  8
0
100
AcDbLine
 10
96.1148376157
 20
304.049490706
 30
0.0
 11
52.1398006157
 21
304.049490706
 31
0.0
  0
LINE
  5
72D
330
2
100
AcDbEntity
  8
0
100
AcDbLine
 10
105.6148376157
 20
288.049490706
 30
0.0
 11
105.6148376157
 21
308.049490706
 31
0.0
  0
LINE
  5
72F
330
2
100
AcDbEntity
  8
0
100
AcDbLine
 10
105.6148376157
 20
304.049490706
 30
0.0
 11
96.1148376157
 21
304.049490706
 31
0.0
  0
LINE
  5
730
330
2
100
AcDbEntity
  8
0
100
AcDbLine
 10
96.1148376157
 20
288.049490706
 30
0.0
 11
105.6148376157
 21
288.049490706
 31
0.0
  0
LINE
  5
739
330
2
100
AcDbEntity
  8
CENTER
100
AcDbLine
 10
512.790566138
 20
161.2134176883
 30
0.0
 11
526.390572138
 21
161.2134176883
 31
0.0
  0
LINE
  5
73A
330
2
100
AcDbEntity
  8
CENTER
100
AcDbLine
 10
519.590569138
 20
154.4134146883
 30
0.0
 11
519.590569138
 21
168.0134206883
 31
0.0
  0
LINE
  5
73B
330
2
100
AcDbEntity
  8
CENTER
100
AcDbLine
 10
512.790566138
 20
61.2134216883
 30
0.0
 11
526.390572138
 21
61.2134216883
 31
0.0
  0
LINE
  5
73C
330
2
100
AcDbEntity
  8
CENTER
100
AcDbLine
 10
519.590569138
 20
54.4134186883
 30
0.0
 11
519.590569138
 21
68.0134246883
 31
0.0
  0
LINE
  5
73D
330
2
100
AcDbEntity
  8
CENTER
100
AcDbLine
 10
592.790566138
 20
61.2134216883
 30
0.0
 11
606.390572138
 21
61.2134216883
 31
0.0
  0
LINE
  5
73E
330
2
100
AcDbEntity
  8
CENTER
100
AcDbLine
 10
599.590569138
 20
54.4134186883
 30
0.0
 11
599.590569138
 21
68.0134246883
 31
0.0
  0
LINE
  5
7E1
330
2
100
AcDbEntity
  8
0
100
AcDbLine
 10
202.6148376157
 20
166.2134176883
 30
0.0
 11
254.6148376157
 21
166.2134176883
 31
0.0
  0
CIRCLE
  5
7E2
330
2
100
AcDbEntity
  8
0
100
AcDbCircle
 10
228.6148376157
 20
126.2134176883
 30
0.0
 40
23.5
  0
LINE
  5
7E3
330
2
100
AcDbEntity
  8
0
100
AcDbLine
 10
254.6148376157
 20
56.2134156883
 30
0.0
 11
202.6148376157
 21
56.2134156883
 31
0.0
  0
LINE
  5
7E4
330
2
100
AcDbEntity
  8
CENTER
100
AcDbLine
 10
198.1148376157
 20
126.2134176883
 30
0.0
 11
259.1148376157
 21
126.2134176883
 31
0.0
  0
LINE
  5
7E5
330
2
100
AcDbEntity
  8
0
100
AcDbLine
 10
188.6148376157
 20
170.2134176883
 30
0.0
 11
268.6148376157
 21
170.2134176883
 31
0.0
  0
LINE
  5
7E6
330
2
100
AcDbEntity
  8
0
100
AcDbLine
 10
188.6148376157
 20
52.2134156883
 30
0.0
 11
268.6148376157
 21
52.2134156883
 31
0.0
  0
ARC
  5
7E7
330
2
100
AcDbEntity
  8
0
100
AcDbCircle
 10
228.6148376157
 20
111.2134176883
 30
0.0
 40
50.5
100
AcDbArc
 50
18.1038
 51
161.896194
  0
ARC
  5
7E8
330
2
100
AcDbEntity
  8
0
100
AcDbCircle
 10
228.6148376157
 20
111.2134176883
 30
0.0
 40
50.5
100
AcDbArc
 50
198.103806
 51
341.89621
  0
LINE
  5
7E9
330
2
100
AcDbEntity
  8
0
100
AcDbLine
 10
182.6218416157
 20
147.6088726883
 30
0.0
 11
180.6148376157
 21
126.9057776883
 31
0.0
  0
LINE
  5
7EA
330
2
100
AcDbEntity
  8
0
100
AcDbLine
 10
179.6380316157
 20
161.8600476883
 30
0.0
 11
178.1148376157
 21
140.7134176883
 31
0.0
  0
ARC
  5
7EB
330
2
100
AcDbEntity
  8
0
100
AcDbCircle
 10
53.6148516157
 20
142.5134436883
 30
0.0
 40
5.0
100
AcDbArc
 50
90.0
 51
180.0
  0
LINE
  5
7EC
330
2
100
AcDbEntity
  8
0
100
AcDbLine
 10
96.1148306157
 20
147.5134136883
 30
0.0
 11
96.1148306157
 21
53.5134156883
 31
0.0
  0
LINE
  5
7ED
330
2
100
AcDbEntity
  8
0
100
AcDbLine
 10
105.6148306157
 20
55.5134156883
 30
0.0
 11
105.6148306157
 21
145.5134136883
 31
0.0
  0
LINE
  5
7EE
330
2
100
AcDbEntity
  8
CENTER
100
AcDbLine
 10
41.6148391157
 20
100.5134176883
 30
0.0
 11
205.9443666157
 21
100.5134176883
 31
0.0
  0
LINE
  5
7EF
330
2
100
AcDbEntity
  8
0
100
AcDbLine
 10
176.1148376157
 20
55.5134156883
 30
0.0
 11
105.6148306157
 21
55.5134156883
 31
0.0
  0
LINE
  5
7F0
330
2
100
AcDbEntity
  8
0
100
AcDbLine
 10
105.6148306157
 20
134.9227156883
 30
0.0
 11
176.1148376157
 21
134.9227156883
 31
0.0
  0
LINE
  5
7F1
330
2
100
AcDbEntity
  8
0
100
AcDbLine
 10
105.6148306157
 20
66.1041056883
 30
0.0
 11
176.6148376157
 21
66.1041056883
 31
0.0
  0
LINE
  5
7F2
330
2
100
AcDbEntity
  8
0
100
AcDbLine
 10
48.6148516157
 20
142.5134286883
 30
0.0
 11
48.6148266157
 21
58.5134056883
 31
0.0
  0
LINE
  5
7F3
330
2
100
AcDbEntity
  8
0
100
AcDbLine
 10
96.1148306157
 20
71.5134156883
 30
0.0
 11
52.1398276157
 21
71.5134156883
 31
0.0
  0
LINE
  5
7F4
330
2
100
AcDbEntity
  8
0
100
AcDbLine
 10
53.6148266157
 20
53.5134156883
 30
0.0
 11
96.1148306157
 21
53.5134156883
 31
0.0
  0
ARC
  5
7F5
330
2
100
AcDbEntity
  8
0
100
AcDbCircle
 10
53.6148256157
 20
58.5134156883
 30
0.0
 40
5.0
100
AcDbArc
 50
180.0
 51
270.0
  0
LINE
  5
7F6
330
2
100
AcDbEntity
  8
0
100
AcDbLine
 10
96.1148306157
 20
55.5134156883
 30
0.0
 11
105.6148306157
 21
55.5134156883
 31
0.0
  0
LINE
  5
7F7
330
2
100
AcDbEntity
  8
0
100
AcDbLine
 10
105.6148306157
 20
66.1041156883
 30
0.0
 11
96.1148306157
 21
66.1041156883
 31
0.0
  0
LINE
  5
7F8
330
2
100
AcDbEntity
  8
0
100
AcDbLine
 10
96.1148306157
 20
129.5134136883
 30
0.0
 11
52.1398286157
 21
129.5134136883
 31
0.0
  0
LINE
  5
7F9
330
2
100
AcDbEntity
  8
0
100
AcDbLine
 10
105.6148306157
 20
134.9227156883
 30
0.0
 11
96.1148306157
 21
134.9227156883
 31
0.0
  0
LINE
  5
7FA
330
2
100
AcDbEntity
  8
0
100
AcDbLine
 10
182.6218416157
 20
74.8179956883
 30
0.0
 11
180.6147316157
 21
95.5213786883
 31
0.0
  0
LINE
  5
7FB
330
2
100
AcDbEntity
  8
0
100
AcDbLine
 10
178.1148376157
 20
140.7134176883
 30
0.0
 11
178.1148376157
 21
81.7134066883
 31
0.0
  0
ARC
  5
7FC
330
2
100
AcDbEntity
  8
0
100
AcDbCircle
 10
188.6148376157
 20
61.2134156883
 30
0.0
 40
9.0
100
AcDbArc
 50
184.120102
 51
270.0
  0
LINE
  5
7FD
330
2
100
AcDbEntity
  8
CENTER
100
AcDbLine
 10
181.8148416157
 20
61.2134156883
 30
0.0
 11
195.4148336157
 21
61.2134156883
 31
0.0
  0
CIRCLE
  5
7FE
330
2
100
AcDbEntity
  8
0
100
AcDbCircle
 10
188.6148376157
 20
61.2134156883
 30
0.0
 40
4.25
  0
ARC
  5
7FF
330
2
100
AcDbEntity
  8
0
100
AcDbCircle
 10
188.6148376157
 20
61.2134156883
 30
0.0
 40
9.0
100
AcDbArc
 50
0.0
 51
94.120163
  0
LINE
  5
800
330
2
100
AcDbEntity
  8
CENTER
100
AcDbLine
 10
188.6148376157
 20
54.4134196883
 30
0.0
 11
188.6148376157
 21
68.0134116883
 31
0.0
  0
ARC
  5
801
330
2
100
AcDbEntity
  8
0
100
AcDbCircle
 10
183.1148376157
 20
65.5134456883
 30
0.0
 40
5.0
100
AcDbArc
 50
143.994797
 51
180.0
  0
LINE
  5
802
330
2
100
AcDbEntity
  8
0
100
AcDbLine
 10
179.6380316157
 20
60.5668556883
 30
0.0
 11
178.1148376157
 21
81.7134146883
 31
0.0
  0
ARC
  5
803
330
2
100
AcDbEntity
  8
0
100
AcDbCircle
 10
176.1148376157
 20
57.5134156883
 30
0.0
 40
2.0
100
AcDbArc
 50
270.0
 51
0.0
  0
LINE
  5
804
330
2
100
AcDbEntity
  8
0
100
AcDbLine
 10
178.1148376157
 20
57.5134156883
 30
0.0
 11
178.1148376157
 21
65.5134456883
 31
0.0
  0
ARC
  5
805
330
2
100
AcDbEntity
  8
0
100
AcDbCircle
 10
187.6089326157
 20
75.1772356883
 30
0.0
 40
5.0
100
AcDbArc
 50
184.120499
 51
274.120209
  0
ARC
  5
806
330
2
100
AcDbEntity
  8
0
100
AcDbCircle
 10
202.6148376157
 20
61.2134156883
 30
0.0
 40
5.0
100
AcDbArc
 50
180.0
 51
270.0
  0
LINE
  5
807
330
2
100
AcDbEntity
  8
0
100
AcDbLine
 10
180.6148376157
 20
126.9056026883
 30
0.0
 11
180.6148376157
 21
95.5208976883
 31
0.0
  0
LINE
  5
808
330
2
100
AcDbEntity
  8
0
100
AcDbLine
 10
105.6148306157
 20
145.5134136883
 30
0.0
 11
178.4605416157
 21
145.5134136883
 31
0.0
  0
LINE
  5
809
330
2
100
AcDbEntity
  8
0
100
AcDbLine
 10
53.6148266157
 20
147.5134136883
 30
0.0
 11
96.1148306157
 21
147.5134136883
 31
0.0
  0
LINE
  5
80C
330
2
100
AcDbEntity
  8
0
100
AcDbLine
 10
96.1148306157
 20
145.5134136883
 30
0.0
 11
105.6148306157
 21
145.5134136883
 31
0.0
  0
LINE
  5
815
330
2
100
AcDbEntity
  8
CENTER
100
AcDbLine
 10
181.8148416157
 20
161.2134176883
 30
0.0
 11
195.4148336157
 21
161.2134176883
 31
0.0
  0
CIRCLE
  5
816
330
2
100
AcDbEntity
  8
0
100
AcDbCircle
 10
188.6148376157
 20
161.2134176883
 30
0.0
 40
4.25
  0
ARC
  5
817
330
2
100
AcDbEntity
  8
0
100
AcDbCircle
 10
188.6148376157
 20
161.2134176883
 30
0.0
 40
9.0
100
AcDbArc
 50
265.879333
 51
0.0
  0
LINE
  5
818
330
2
100
AcDbEntity
  8
CENTER
100
AcDbLine
 10
188.6148376157
 20
154.4134216883
 30
0.0
 11
188.6148376157
 21
168.0134136883
 31
0.0
  0
ARC
  5
819
330
2
100
AcDbEntity
  8
0
100
AcDbCircle
 10
187.6089326157
 20
147.2495966883
 30
0.0
 40
5.0
100
AcDbArc
 50
85.879799
 51
175.879501
  0
ARC
  5
81A
330
2
100
AcDbEntity
  8
0
100
AcDbCircle
 10
188.6148376157
 20
161.2134176883
 30
0.0
 40
9.0
100
AcDbArc
 50
90.0
 51
175.879898
  0
ARC
  5
81B
330
2
100
AcDbEntity
  8
0
100
AcDbCircle
 10
202.6148376157
 20
161.2134176883
 30
0.0
 40
5.0
100
AcDbArc
 50
90.0
 51
180.0
  0
LINE
  5
81C
330
2
100
AcDbEntity
  8
0
100
AcDbLine
 10
277.5915376157
 20
161.8600476883
 30
0.0
 11
279.1148376157
 21
140.7134176883
 31
0.0
  0
LINE
  5
81D
330
2
100
AcDbEntity
  8
0
100
AcDbLine
 10
274.6077426157
 20
147.6088726883
 30
0.0
 11
276.6148376157
 21
126.9057776883
 31
0.0
  0
LINE
  5
81E
330
2
100
AcDbEntity
  8
CENTER
100
AcDbLine
 10
228.6148376157
 20
177.2134176883
 30
0.0
 11
228.6148376157
 21
45.2134156883
 31
0.0
  0
LINE
  5
81F
330
2
100
AcDbEntity
  8
0
100
AcDbLine
 10
274.6077426157
 20
74.8179956883
 30
0.0
 11
276.6149446157
 21
95.5213786883
 31
0.0
  0
LINE
  5
820
330
2
100
AcDbEntity
  8
0
100
AcDbLine
 10
279.1148376157
 20
81.7134146883
 30
0.0
 11
279.1148376157
 21
140.7134176883
 31
0.0
  0
LINE
  5
821
330
2
100
AcDbEntity
  8
0
100
AcDbLine
 10
214.6148376157
 20
62.6928056883
 30
0.0
 11
214.6148376157
 21
57.4187856883
 31
0.0
  0
LINE
  5
822
330
2
100
AcDbEntity
  8
0
100
AcDbLine
 10
242.6148376157
 20
62.6928056883
 30
0.0
 11
242.6148376157
 21
57.4187856883
 31
0.0
  0
ARC
  5
823
330
2
100
AcDbEntity
  8
0
100
AcDbCircle
 10
268.6148376157
 20
61.2134156883
 30
0.0
 40
9.0
100
AcDbArc
 50
270.0
 51
355.879913
  0
LINE
  5
824
330
2
100
AcDbEntity
  8
CENTER
100
AcDbLine
 10
261.8148416157
 20
61.2134156883
 30
0.0
 11
275.4148336157
 21
61.2134156883
 31
0.0
  0
ARC
  5
825
330
2
100
AcDbEntity
  8
0
100
AcDbCircle
 10
269.6207436157
 20
75.1772356883
 30
0.0
 40
5.0
100
AcDbArc
 50
265.879791
 51
355.879486
  0
LINE
  5
826
330
2
100
AcDbEntity
  8
CENTER
100
AcDbLine
 10
268.6148376157
 20
54.4134196883
 30
0.0
 11
268.6148376157
 21
68.0134116883
 31
0.0
  0
ARC
  5
827
330
2
100
AcDbEntity
  8
0
100
AcDbCircle
 10
268.6148376157
 20
61.2134156883
 30
0.0
 40
9.0
100
AcDbArc
 50
85.879837
 51
180.0
  0
ARC
  5
828
330
2
100
AcDbEntity
  8
0
100
AcDbCircle
 10
254.6148376157
 20
61.2134156883
 30
0.0
 40
5.0
100
AcDbArc
 50
270.0
 51
0.0
  0
CIRCLE
  5
829
330
2
100
AcDbEntity
  8
0
100
AcDbCircle
 10
268.6148376157
 20
61.2134156883
 30
0.0
 40
4.25
  0
LINE
  5
82A
330
2
100
AcDbEntity
  8
0
100
AcDbLine
 10
277.5915376157
 20
60.5668556883
 30
0.0
 11
279.1148376157
 21
81.7134146883
 31
0.0
  0
ARC
  5
86B
330
2
100
AcDbEntity
  8
HIDS
100
AcDbCircle
 10
228.6148376157
 20
126.2134176883
 30
0.0
 40
9.0
100
AcDbArc
 50
19.47121
 51
340.528809
  0
LINE
  5
86C
330
2
100
AcDbEntity
  8
HIDS
100
AcDbLine
 10
234.1148376157
 20
123.2134336883
 30
0.0
 11
234.1148376157
 21
129.2134336883
 31
0.0
  0
LINE
  5
86D
330
2
100
AcDbEntity
  8
HIDS
100
AcDbLine
 10
240.1148376157
 20
123.2134566883
 30
0.0
 11
240.1148376157
 21
129.2134566883
 31
0.0
  0
LINE
  5
86E
330
2
100
AcDbEntity
  8
HIDS
100
AcDbLine
 10
240.1148376157
 20
123.2134566883
 30
0.0
 11
234.1148376157
 21
123.2134336883
 31
0.0
  0
LINE
  5
86F
330
2
100
AcDbEntity
  8
HIDS
100
AcDbLine
 10
240.1148376157
 20
129.2134566883
 30
0.0
 11
234.1148376157
 21
129.2134336883
 31
0.0
  0
LINE
  5
870
330
2
100
AcDbEntity
  8
0
100
AcDbLine
 10
276.6148376157
 20
126.9057776883
 30
0.0
 11
276.6148376157
 21
95.5213826883
 31
0.0
  0
LINE
  5
871
330
2
100
AcDbEntity
  8
0
100
AcDbLine
 10
214.6148376157
 20
165.2822126883
 30
0.0
 11
214.6148376157
 21
159.7340246883
 31
0.0
  0
LINE
  5
872
330
2
100
AcDbEntity
  8
0
100
AcDbLine
 10
242.6148376157
 20
165.2822126883
 30
0.0
 11
242.6148376157
 21
159.7340326883
 31
0.0
  0
LINE
  5
873
330
2
100
AcDbEntity
  8
CENTER
100
AcDbLine
 10
261.8148416157
 20
161.2134176883
 30
0.0
 11
275.4148336157
 21
161.2134176883
 31
0.0
  0
ARC
  5
874
330
2
100
AcDbEntity
  8
0
100
AcDbCircle
 10
269.6207436157
 20
147.2495966883
 30
0.0
 40
5.0
100
AcDbArc
 50
4.120544
 51
94.120201
  0
ARC
  5
875
330
2
100
AcDbEntity
  8
0
100
AcDbCircle
 10
268.6148376157
 20
161.2134176883
 30
0.0
 40
9.0
100
AcDbArc
 50
4.120065
 51
90.0
  0
LINE
  5
876
330
2
100
AcDbEntity
  8
CENTER
100
AcDbLine
 10
268.6148376157
 20
154.4134216883
 30
0.0
 11
268.6148376157
 21
168.0134136883
 31
0.0
  0
CIRCLE
  5
877
330
2
100
AcDbEntity
  8
0
100
AcDbCircle
 10
268.6148376157
 20
161.2134176883
 30
0.0
 40
4.25
  0
ARC
  5
878
330
2
100
AcDbEntity
  8
0
100
AcDbCircle
 10
268.6148376157
 20
161.2134176883
 30
0.0
 40
9.0
100
AcDbArc
 50
180.0
 51
274.120697
  0
ARC
  5
879
330
2
100
AcDbEntity
  8
0
100
AcDbCircle
 10
254.6148376157
 20
161.2134176883
 30
0.0
 40
5.0
100
AcDbArc
 50
0.0
 51
90.0
  0
TEXT
  5
88B
330
2
100
AcDbEntity
  8
TITLE
100
AcDbText
 10
339.6783729494
 20
347.4548800508
 30
0.0
 40
5.0
  1
HFM-18L-10~240-S90WK
100
AcDbText
  0
TEXT
  5
88C
330
2
100
AcDbEntity
  8
TITLE
100
AcDbText
 10
339.6783729494
 20
355.4548800508
 30
0.0
 40
5.0
  1
HFM-18L-10~240-S90K
100
AcDbText
  0
TEXT
  5
88D
330
2
100
AcDbEntity
  8
TITLE
100
AcDbText
 10
339.6783729494
 20
363.4548800508
 30
0.0
 40
5.0
  1
HFM-18L-10~240-S60WK
100
AcDbText
  0
TEXT
  5
88E
330
2
100
AcDbEntity
  8
TITLE
100
AcDbText
 10
339.6783729494
 20
371.4548800508
 30
0.0
 40
5.0
  1
HFM-18L-10~240-S60K
100
AcDbText
  0
TEXT
  5
88F
330
2
100
AcDbEntity
  8
TITLE
100
AcDbText
 10
339.6783729494
 20
379.4548800508
 30
0.0
 40
5.0
  1
HFM-18L-10~240-T90WK
100
AcDbText
  0
SPLINE
  5
147A
330
2
100
AcDbEntity
  8
0
100
AcDbSpline
210
0.0
220
0.0
230
1.0
 70
     8
 71
     3
 72
    11
 73
     7
 74
     0
 42
0.000000001
 43
0.0000000001
 40
0.0
 40
0.0
 40
0.0
 40
0.0
 40
0.4601364636755307
 40
1.04988694485363
 40
1.713742833862792
 40
2.320347933405154
 40
2.320347933405154
 40
2.320347933405154
 40
2.320347933405176
 10
688.3780691384811
 20
190.5964356882672
 30
0.0
 10
688.4004867955886
 20
190.751459127947
 30
0.0
 10
688.4516368508222
 20
191.1051739458646
 30
0.0
 10
688.8875220123558
 20
191.5299016174663
 30
0.0
 10
689.4925727273633
 20
191.7490887974321
 30
0.0
 10
689.9177573515387
 20
191.6800974978215
 30
0.0
 10
690.1203089611901
 20
191.6658772256448
 30
0.0
  0
ARC
  5
147B
330
2
100
AcDbEntity
  8
0
100
AcDbCircle
 10
690.1975798916
 20
190.5195484125
 30
0.0
 40
1.3
100
AcDbArc
 50
5.0
 51
74.1191499917
  0
ARC
  5
147C
330
2
100
AcDbEntity
  8
0
100
AcDbCircle
 10
685.9835583844
 20
190.5195484125
 30
0.0
 40
1.3
100
AcDbArc
 50
105.8808500083
 51
175.0
  0
SPLINE
  5
147D
330
2
100
AcDbEntity
  8
0
100
AcDbSpline
210
0.0
220
0.0
230
1.0
 70
     8
 71
     3
 72
    11
 73
     7
 74
     0
 42
0.000000001
 43
0.0000000001
 40
0.0
 40
0.0
 40
0.0
 40
0.0
 40
0.4601364636755307
 40
1.04988694485363
 40
1.713742833862792
 40
2.320347933405154
 40
2.320347933405154
 40
2.320347933405154
 40
2.320347933405176
 10
687.8030691375711
 20
190.5964356882672
 30
0.0
 10
687.7806514804631
 20
190.751459127947
 30
0.0
 10
687.7295014252299
 20
191.1051739458646
 30
0.0
 10
687.2936162636963
 20
191.5299016174663
 30
0.0
 10
686.6885655486887
 20
191.7490887974321
 30
0.0
 10
686.2633809245131
 20
191.6800974978215
 30
0.0
 10
686.060829314862
 20
191.6658772256448
 30
0.0
  0
LINE
  5
147E
330
2
100
AcDbEntity
  8
0
100
AcDbLine
 10
684.090569138
 20
189.5134356883
 30
0.0
 11
684.090569138
 21
191.5134356883
 31
0.0
  0
LINE
  5
147F
330
2
100
AcDbEntity
  8
CENTER
100
AcDbLine
 10
666.590569138
 20
140.6239246883
 30
0.0
 11
666.590569138
 21
197.4009356883
 31
0.0
  0
LINE
  5
1480
330
2
100
AcDbEntity
  8
0
100
AcDbLine
 10
691.590576138
 20
191.0134356883
 30
0.0
 11
691.590576138
 21
149.0134206883
 31
0.0
  0
LINE
  5
1481
330
2
100
AcDbEntity
  8
0
100
AcDbLine
 10
649.090569138
 20
189.5134356883
 30
0.0
 11
649.090569138
 21
191.5134356883
 31
0.0
  0
ARC
  5
1482
330
2
100
AcDbEntity
  8
0
100
AcDbCircle
 10
647.1975798916
 20
190.5195484125
 30
0.0
 40
1.3
100
AcDbArc
 50
5.0
 51
74.1191499917
  0
SPLINE
  5
1483
330
2
100
AcDbEntity
  8
0
100
AcDbSpline
210
0.0
220
0.0
230
1.0
 70
     8
 71
     3
 72
    11
 73
     7
 74
     0
 42
0.000000001
 43
0.0000000001
 40
0.0
 40
0.0
 40
0.0
 40
0.0
 40
0.4601364636755307
 40
1.04988694485363
 40
1.713742833862792
 40
2.320347933405154
 40
2.320347933405154
 40
2.320347933405154
 40
2.320347933405176
 10
645.3780691384809
 20
190.5964356882672
 30
0.0
 10
645.4004867955887
 20
190.751459127947
 30
0.0
 10
645.4516368508222
 20
191.1051739458646
 30
0.0
 10
645.8875220123557
 20
191.5299016174663
 30
0.0
 10
646.4925727273629
 20
191.7490887974321
 30
0.0
 10
646.917757351539
 20
191.6800974978215
 30
0.0
 10
647.1203089611897
 20
191.6658772256448
 30
0.0
  0
ARC
  5
1484
330
2
100
AcDbEntity
  8
0
100
AcDbCircle
 10
642.9835583844
 20
190.5195484125
 30
0.0
 40
1.3
100
AcDbArc
 50
105.8808500083
 51
175.0
  0
SPLINE
  5
1485
330
2
100
AcDbEntity
  8
0
100
AcDbSpline
210
0.0
220
0.0
230
1.0
 70
     8
 71
     3
 72
    11
 73
     7
 74
     0
 42
0.000000001
 43
0.0000000001
 40
0.0
 40
0.0
 40
0.0
 40
0.0
 40
0.4601364636755307
 40
1.04988694485363
 40
1.713742833862792
 40
2.320347933405154
 40
2.320347933405154
 40
2.320347933405154
 40
2.320347933405176
 10
644.8030691375707
 20
190.5964356882672
 30
0.0
 10
644.7806514804629
 20
190.751459127947
 30
0.0
 10
644.7295014252297
 20
191.1051739458646
 30
0.0
 10
644.2936162636961
 20
191.5299016174663
 30
0.0
 10
643.6885655486888
 20
191.7490887974321
 30
0.0
 10
643.2633809245128
 20
191.6800974978215
 30
0.0
 10
643.0608293148617
 20
191.6658772256448
 30
0.0
  0
LINE
  5
1486
330
2
100
AcDbEntity
  8
0
100
AcDbLine
 10
641.590569138
 20
191.0134356883
 30
0.0
 11
641.590569138
 21
149.0134206883
 31
0.0
  0
LINE
  5
14B9
330
2
100
AcDbEntity
  8
CENTER
100
AcDbLine
 10
696.6341761192
 20
175.0134206883
 30
0.0
 11
636.5469621568
 21
175.0134206883
 31
0.0
  0
LINE
  5
14BA
330
2
100
AcDbEntity
  8
0
100
AcDbLine
 10
690.090576138
 20
147.0134206883
 30
0.0
 11
643.590569138
 21
147.0134206883
 31
0.0
  0
LINE
  5
14BB
330
2
100
AcDbEntity
  8
0
100
AcDbLine
 10
691.590576138
 20
159.0134206883
 30
0.0
 11
641.590569138
 21
159.0134206883
 31
0.0
  0
LINE
  5
14BC
330
2
100
AcDbEntity
  8
0
100
AcDbLine
 10
691.590576138
 20
149.0134206883
 30
0.0
 11
641.590569138
 21
149.0134206883
 31
0.0
  0
LINE
  5
14BD
330
2
100
AcDbEntity
  8
0
100
AcDbLine
 10
691.590576138
 20
160.0134206883
 30
0.0
 11
641.590569138
 21
160.0134206883
 31
0.0
  0
LINE
  5
14BF
330
2
100
AcDbEntity
  8
0
100
AcDbLine
 10
643.590569138
 20
147.0134206883
 30
0.0
 11
641.590569138
 21
149.0134206883
 31
0.0
  0
LINE
  5
14C0
330
2
100
AcDbEntity
  8
0
100
AcDbLine
 10
644.090569138
 20
147.0134206883
 30
0.0
 11
644.090569138
 21
145.5134206883
 31
0.0
  0
LINE
  5
14C1
330
2
100
AcDbEntity
  8
0
100
AcDbLine
 10
649.090569138
 20
189.5134356883
 30
0.0
 11
641.590569138
 21
189.5134356883
 31
0.0
  0
LINE
  5
14C2
330
2
100
AcDbEntity
  8
0
100
AcDbLine
 10
641.590569138
 20
189.5134356883
 30
0.0
 11
641.6885052769
 21
190.6328508781
 31
0.0
  0
LINE
  5
14C3
330
2
100
AcDbEntity
  8
0
100
AcDbLine
 10
648.590569138
 20
189.5134356883
 30
0.0
 11
648.4926329991
 21
190.6328508781
 31
0.0
  0
LINE
  5
14C4
330
2
100
AcDbEntity
  8
0
100
AcDbLine
 10
644.8030691376
 20
190.5964356883
 30
0.0
 11
645.3780691385
 21
190.5964356883
 31
0.0
  0
LINE
  5
14C5
330
2
100
AcDbEntity
  8
0
100
AcDbLine
 10
690.090576138
 20
147.0134206883
 30
0.0
 11
690.090576138
 21
145.5134206883
 31
0.0
  0
LINE
  5
14C6
330
2
100
AcDbEntity
  8
0
100
AcDbLine
 10
691.590576138
 20
149.0134206883
 30
0.0
 11
689.590576138
 21
147.0134206883
 31
0.0
  0
LINE
  5
14C7
330
2
100
AcDbEntity
  8
0
100
AcDbLine
 10
692.465576138
 20
164.5134206883
 30
0.0
 11
690.465576138
 21
164.5134206883
 31
0.0
  0
LINE
  5
14C8
330
2
100
AcDbEntity
  8
0
100
AcDbLine
 10
684.090569138
 20
189.5134356883
 30
0.0
 11
691.590569138
 21
189.5134356883
 31
0.0
  0
LINE
  5
14C9
330
2
100
AcDbEntity
  8
0
100
AcDbLine
 10
692.465576138
 20
185.5134206883
 30
0.0
 11
690.465576138
 21
185.5134206883
 31
0.0
  0
LINE
  5
14CA
330
2
100
AcDbEntity
  8
0
100
AcDbLine
 10
684.590569138
 20
189.5134356883
 30
0.0
 11
684.6885052769
 21
190.6328508781
 31
0.0
  0
LINE
  5
14CB
330
2
100
AcDbEntity
  8
0
100
AcDbLine
 10
688.3780691385
 20
190.5964356883
 30
0.0
 11
687.8030691376
 21
190.5964356883
 31
0.0
  0
LINE
  5
14CC
330
2
100
AcDbEntity
  8
0
100
AcDbLine
 10
691.590569138
 20
189.5134356883
 30
0.0
 11
691.4926329991
 21
190.6328508781
 31
0.0
  0
LINE
  5
14CD
330
2
100
AcDbEntity
  8
0
100
AcDbLine
 10
144.6146326157
 20
350.549490706
 30
0.0
 11
144.6146326157
 21
315.549490706
 31
0.0
  0
LINE
  5
14CE
330
2
100
AcDbEntity
  8
0
100
AcDbLine
 10
146.6148306157
 20
356.049490706
 30
0.0
 11
146.6146326157
 21
310.049490706
 31
0.0
  0
LINE
  5
14CF
330
2
100
AcDbEntity
  8
CENTER
100
AcDbLine
 10
121.6148306157
 20
303.0058837248
 30
0.0
 11
121.6148306157
 21
363.0930976873
 31
0.0
  0
LINE
  5
14D0
330
2
100
AcDbEntity
  8
0
100
AcDbLine
 10
98.6147236157
 20
350.549490706
 30
0.0
 11
98.6147236157
 21
315.549490706
 31
0.0
  0
LINE
  5
14D1
330
2
100
AcDbEntity
  8
0
100
AcDbLine
 10
96.6147236157
 20
310.049490706
 30
0.0
 11
96.6147236157
 21
356.049490706
 31
0.0
  0
LINE
  5
14D2
330
2
100
AcDbEntity
  8
0
100
AcDbLine
 10
139.1146326157
 20
310.049490706
 30
0.0
 11
104.1147236157
 21
310.049490706
 31
0.0
  0
LINE
  5
14D6
330
2
100
AcDbEntity
  8
0
100
AcDbLine
 10
98.6147236157
 20
308.049490706
 30
0.0
 11
144.6146326157
 21
308.049490706
 31
0.0
  0
LINE
  5
14DE
330
2
100
AcDbEntity
  8
0
100
AcDbLine
 10
96.6147236157
 20
310.049490706
 30
0.0
 11
98.6147236157
 21
308.049490706
 31
0.0
  0
ARC
  5
14DF
330
2
100
AcDbEntity
  8
0
100
AcDbCircle
 10
98.0850236157
 20
313.579098706
 30
0.0
 40
1.742199999999999
100
AcDbArc
 50
269.9986903345
 51
0.0013096655
  0
CIRCLE
  5
14E0
330
2
100
AcDbEntity
  8
0
100
AcDbCircle
 10
100.1147236157
 20
311.549398706
 30
0.0
 40
3.500000000000028
  0
LINE
  5
14E1
330
2
100
AcDbEntity
  8
0
100
AcDbLine
 10
100.1147236157
 20
315.549490706
 30
0.0
 11
96.6147236157
 21
315.549490706
 31
0.0
  0
ARC
  5
14E2
330
2
100
AcDbEntity
  8
0
100
AcDbCircle
 10
98.0850236157
 20
309.519698706
 30
0.0
 40
1.742199999999999
100
AcDbArc
 50
359.9986903345
 51
90.0013096655
  0
ARC
  5
14E3
330
2
100
AcDbEntity
  8
0
100
AcDbCircle
 10
100.1147236157
 20
311.549398706
 30
0.0
 40
2.049999999999998
100
AcDbArc
 50
171.938039916
 51
180.0
  0
ARC
  5
14E4
330
2
100
AcDbEntity
  8
0
100
AcDbCircle
 10
100.1147236157
 20
311.549398706
 30
0.0
 40
2.049999999999998
100
AcDbArc
 50
180.0
 51
188.061960084
  0
ARC
  5
14E5
330
2
100
AcDbEntity
  8
0
100
AcDbCircle
 10
102.1444236157
 20
313.579098706
 30
0.0
 40
1.742199999999999
100
AcDbArc
 50
179.9986903345
 51
270.0013096655
  0
ARC
  5
14E6
330
2
100
AcDbEntity
  8
0
100
AcDbCircle
 10
100.1147236157
 20
311.549398706
 30
0.0
 40
4.0
100
AcDbArc
 50
0.0
 51
90.0
  0
LINE
  5
14E7
330
2
100
AcDbEntity
  8
0
100
AcDbLine
 10
104.1147236157
 20
311.549398706
 30
0.0
 11
104.1147236157
 21
308.049490706
 31
0.0
  0
ARC
  5
14E8
330
2
100
AcDbEntity
  8
0
100
AcDbCircle
 10
100.1147236157
 20
311.549398706
 30
0.0
 40
2.049999999999998
100
AcDbArc
 50
0.0
 51
8.061960084
  0
ARC
  5
14E9
330
2
100
AcDbEntity
  8
0
100
AcDbCircle
 10
102.1444236157
 20
309.519698706
 30
0.0
 40
1.742199999999999
100
AcDbArc
 50
89.9986903345
 51
180.0013096655
  0
ARC
  5
14EA
330
2
100
AcDbEntity
  8
0
100
AcDbCircle
 10
100.1147236157
 20
311.549398706
 30
0.0
 40
2.049999999999998
100
AcDbArc
 50
351.938039916
 51
0.0
  0
ARC
  5
14EB
330
2
100
AcDbEntity
  8
0
100
AcDbCircle
 10
100.1147236157
 20
311.549398706
 30
0.0
 40
2.049999999999998
100
AcDbArc
 50
261.938039916
 51
270.0
  0
ARC
  5
14EC
330
2
100
AcDbEntity
  8
0
100
AcDbCircle
 10
100.1147236157
 20
311.549398706
 30
0.0
 40
2.049999999999998
100
AcDbArc
 50
270.0
 51
278.061960084
  0
ARC
  5
14ED
330
2
100
AcDbEntity
  8
0
100
AcDbCircle
 10
100.1147236157
 20
311.549398706
 30
0.0
 40
2.049999999999998
100
AcDbArc
 50
90.0
 51
98.061960084
  0
ARC
  5
14EE
330
2
100
AcDbEntity
  8
0
100
AcDbCircle
 10
100.1147236157
 20
311.549398706
 30
0.0
 40
2.049999999999998
100
AcDbArc
 50
81.938039916
 51
90.0
  0
ARC
  5
14F6
330
2
100
AcDbEntity
  8
0
100
AcDbCircle
 10
143.1148306157
 20
311.549398706
 30
0.0
 40
4.0
100
AcDbArc
 50
90.0
 51
180.0
  0
ARC
  5
14F7
330
2
100
AcDbEntity
  8
0
100
AcDbCircle
 10
145.1445306157
 20
313.579098706
 30
0.0
 40
1.742199999999999
100
AcDbArc
 50
179.9986903345
 51
270.0013096655
  0
ARC
  5
14F8
330
2
100
AcDbEntity
  8
0
100
AcDbCircle
 10
141.0851306157
 20
313.579098706
 30
0.0
 40
1.742199999999999
100
AcDbArc
 50
269.9986903345
 51
0.0013096655
  0
CIRCLE
  5
14F9
330
2
100
AcDbEntity
  8
0
100
AcDbCircle
 10
143.1148306157
 20
311.549398706
 30
0.0
 40
3.500000000000028
  0
LINE
  5
14FA
330
2
100
AcDbEntity
  8
0
100
AcDbLine
 10
144.6146326157
 20
308.049490706
 30
0.0
 11
146.6146326157
 21
310.049490706
 31
0.0
  0
LINE
  5
14FB
330
2
100
AcDbEntity
  8
0
100
AcDbLine
 10
146.6146326157
 20
310.049490706
 30
0.0
 11
144.6146326157
 21
308.049490706
 31
0.0
  0
ARC
  5
14FC
330
2
100
AcDbEntity
  8
0
100
AcDbCircle
 10
143.1148306157
 20
311.549398706
 30
0.0
 40
2.049999999999998
100
AcDbArc
 50
0.0
 51
8.061960084
  0
ARC
  5
14FD
330
2
100
AcDbEntity
  8
0
100
AcDbCircle
 10
145.1445306157
 20
309.519698706
 30
0.0
 40
1.742199999999999
100
AcDbArc
 50
89.9986903345
 51
180.0013096655
  0
ARC
  5
14FE
330
2
100
AcDbEntity
  8
0
100
AcDbCircle
 10
143.1148306157
 20
311.549398706
 30
0.0
 40
2.049999999999998
100
AcDbArc
 50
351.938039916
 51
0.0
  0
ARC
  5
14FF
330
2
100
AcDbEntity
  8
0
100
AcDbCircle
 10
143.1148306157
 20
311.549398706
 30
0.0
 40
2.049999999999998
100
AcDbArc
 50
261.938039916
 51
270.0
  0
ARC
  5
1500
330
2
100
AcDbEntity
  8
0
100
AcDbCircle
 10
143.1148306157
 20
311.549398706
 30
0.0
 40
2.049999999999998
100
AcDbArc
 50
270.0
 51
278.061960084
  0
ARC
  5
1501
330
2
100
AcDbEntity
  8
0
100
AcDbCircle
 10
143.1148306157
 20
311.549398706
 30
0.0
 40
2.049999999999998
100
AcDbArc
 50
171.938039916
 51
180.0
  0
ARC
  5
1502
330
2
100
AcDbEntity
  8
0
100
AcDbCircle
 10
143.1148306157
 20
311.549398706
 30
0.0
 40
2.049999999999998
100
AcDbArc
 50
180.0
 51
188.061960084
  0
LINE
  5
1503
330
2
100
AcDbEntity
  8
0
100
AcDbLine
 10
139.1146326157
 20
311.549398706
 30
0.0
 11
139.1146326157
 21
308.049490706
 31
0.0
  0
ARC
  5
1504
330
2
100
AcDbEntity
  8
0
100
AcDbCircle
 10
141.0851306157
 20
309.519698706
 30
0.0
 40
1.742199999999999
100
AcDbArc
 50
359.9986903345
 51
90.0013096655
  0
LINE
  5
1505
330
2
100
AcDbEntity
  8
0
100
AcDbLine
 10
143.1146326157
 20
315.549490706
 30
0.0
 11
146.6146326157
 21
315.549490706
 31
0.0
  0
ARC
  5
1506
330
2
100
AcDbEntity
  8
0
100
AcDbCircle
 10
143.1148306157
 20
311.549398706
 30
0.0
 40
2.049999999999998
100
AcDbArc
 50
90.0
 51
98.061960084
  0
ARC
  5
1507
330
2
100
AcDbEntity
  8
0
100
AcDbCircle
 10
143.1148306157
 20
311.549398706
 30
0.0
 40
2.049999999999998
100
AcDbArc
 50
81.938039916
 51
90.0
  0
LINE
  5
1508
330
2
100
AcDbEntity
  8
0
100
AcDbLine
 10
98.6147236157
 20
358.049490706
 30
0.0
 11
144.6146326157
 21
358.049490706
 31
0.0
  0
LINE
  5
1509
330
2
100
AcDbEntity
  8
0
100
AcDbLine
 10
139.1146326157
 20
356.049490706
 30
0.0
 11
104.1147236157
 21
356.049490706
 31
0.0
  0
LINE
  5
150B
330
2
100
AcDbEntity
  8
0
100
AcDbLine
 10
96.6147236157
 20
356.049490706
 30
0.0
 11
98.6147236157
 21
358.049490706
 31
0.0
  0
LINE
  5
150C
330
2
100
AcDbEntity
  8
0
100
AcDbLine
 10
96.6147236157
 20
356.049490706
 30
0.0
 11
98.6147236157
 21
358.049490706
 31
0.0
  0
ARC
  5
150D
330
2
100
AcDbEntity
  8
0
100
AcDbCircle
 10
98.0850236157
 20
352.519790706
 30
0.0
 40
1.742199999999999
100
AcDbArc
 50
359.9986903345
 51
90.0013096655
  0
LINE
  5
150E
330
2
100
AcDbEntity
  8
0
100
AcDbLine
 10
100.1147236157
 20
350.549490706
 30
0.0
 11
96.6147236157
 21
350.549490706
 31
0.0
  0
CIRCLE
  5
150F
330
2
100
AcDbEntity
  8
0
100
AcDbCircle
 10
100.1147236157
 20
354.549490706
 30
0.0
 40
3.500000000000028
  0
ARC
  5
1510
330
2
100
AcDbEntity
  8
0
100
AcDbCircle
 10
98.0850236157
 20
356.579190706
 30
0.0
 40
1.742199999999999
100
AcDbArc
 50
269.9986903345
 51
0.0013096655
  0
ARC
  5
1511
330
2
100
AcDbEntity
  8
0
100
AcDbCircle
 10
100.1147236157
 20
354.549490706
 30
0.0
 40
2.049999999999998
100
AcDbArc
 50
180.0
 51
188.061960084
  0
ARC
  5
1512
330
2
100
AcDbEntity
  8
0
100
AcDbCircle
 10
100.1147236157
 20
354.549490706
 30
0.0
 40
2.049999999999998
100
AcDbArc
 50
171.938039916
 51
180.0
  0
LINE
  5
1513
330
2
100
AcDbEntity
  8
0
100
AcDbLine
 10
104.1147236157
 20
354.549490706
 30
0.0
 11
104.1147236157
 21
358.049306706
 31
0.0
  0
ARC
  5
1514
330
2
100
AcDbEntity
  8
0
100
AcDbCircle
 10
100.1147236157
 20
354.549490706
 30
0.0
 40
2.049999999999998
100
AcDbArc
 50
90.0
 51
98.061960084
  0
ARC
  5
1515
330
2
100
AcDbEntity
  8
0
100
AcDbCircle
 10
100.1147236157
 20
354.549490706
 30
0.0
 40
2.049999999999998
100
AcDbArc
 50
81.938039916
 51
90.0
  0
ARC
  5
1516
330
2
100
AcDbEntity
  8
0
100
AcDbCircle
 10
102.1444236157
 20
352.519790706
 30
0.0
 40
1.742199999999999
100
AcDbArc
 50
89.9986903345
 51
180.0013096655
  0
ARC
  5
1517
330
2
100
AcDbEntity
  8
0
100
AcDbCircle
 10
100.1147236157
 20
354.549490706
 30
0.0
 40
2.049999999999998
100
AcDbArc
 50
351.938039916
 51
0.0
  0
ARC
  5
1518
330
2
100
AcDbEntity
  8
0
100
AcDbCircle
 10
100.1147236157
 20
354.549490706
 30
0.0
 40
2.049999999999998
100
AcDbArc
 50
0.0
 51
8.061960084
  0
ARC
  5
1519
330
2
100
AcDbEntity
  8
0
100
AcDbCircle
 10
100.1147236157
 20
354.549490706
 30
0.0
 40
2.049999999999998
100
AcDbArc
 50
261.938039916
 51
270.0
  0
ARC
  5
151A
330
2
100
AcDbEntity
  8
0
100
AcDbCircle
 10
100.1147236157
 20
354.549490706
 30
0.0
 40
2.049999999999998
100
AcDbArc
 50
270.0
 51
278.061960084
  0
ARC
  5
151B
330
2
100
AcDbEntity
  8
0
100
AcDbCircle
 10
102.1444236157
 20
356.579190706
 30
0.0
 40
1.742199999999999
100
AcDbArc
 50
179.9986903345
 51
270.0013096655
  0
ARC
  5
151C
330
2
100
AcDbEntity
  8
0
100
AcDbCircle
 10
100.1147236157
 20
354.549490706
 30
0.0
 40
4.0
100
AcDbArc
 50
270.0
 51
0.0
  0
ARC
  5
151D
330
2
100
AcDbEntity
  8
0
100
AcDbCircle
 10
143.1148306157
 20
354.549490706
 30
0.0
 40
4.0
100
AcDbArc
 50
180.0
 51
270.0
  0
LINE
  5
151E
330
2
100
AcDbEntity
  8
0
100
AcDbLine
 10
146.6148306157
 20
356.049490706
 30
0.0
 11
144.6146326157
 21
358.049490706
 31
0.0
  0
LINE
  5
151F
330
2
100
AcDbEntity
  8
0
100
AcDbLine
 10
146.6146326157
 20
356.049490706
 30
0.0
 11
144.6146326157
 21
358.049490706
 31
0.0
  0
LINE
  5
1520
330
2
100
AcDbEntity
  8
0
100
AcDbLine
 10
146.6146326157
 20
356.049490706
 30
0.0
 11
144.6146326157
 21
358.049490706
 31
0.0
  0
LINE
  5
1521
330
2
100
AcDbEntity
  8
0
100
AcDbLine
 10
139.1146326157
 20
354.549490706
 30
0.0
 11
139.1146326157
 21
358.049306706
 31
0.0
  0
CIRCLE
  5
1522
330
2
100
AcDbEntity
  8
0
100
AcDbCircle
 10
143.1148306157
 20
354.549490706
 30
0.0
 40
3.500000000000028
  0
LINE
  5
1523
330
2
100
AcDbEntity
  8
0
100
AcDbLine
 10
143.1146326157
 20
350.549490706
 30
0.0
 11
146.6146326157
 21
350.549490706
 31
0.0
  0
ARC
  5
1524
330
2
100
AcDbEntity
  8
0
100
AcDbCircle
 10
143.1148306157
 20
354.549490706
 30
0.0
 40
2.049999999999998
100
AcDbArc
 50
90.0
 51
98.061960084
  0
ARC
  5
1525
330
2
100
AcDbEntity
  8
0
100
AcDbCircle
 10
143.1148306157
 20
354.549490706
 30
0.0
 40
2.049999999999998
100
AcDbArc
 50
81.938039916
 51
90.0
  0
ARC
  5
1526
330
2
100
AcDbEntity
  8
0
100
AcDbCircle
 10
145.1445306157
 20
352.519790706
 30
0.0
 40
1.742199999999999
100
AcDbArc
 50
89.9986903345
 51
180.0013096655
  0
ARC
  5
1527
330
2
100
AcDbEntity
  8
0
100
AcDbCircle
 10
143.1148306157
 20
354.549490706
 30
0.0
 40
2.049999999999998
100
AcDbArc
 50
351.938039916
 51
0.0
  0
ARC
  5
1528
330
2
100
AcDbEntity
  8
0
100
AcDbCircle
 10
143.1148306157
 20
354.549490706
 30
0.0
 40
2.049999999999998
100
AcDbArc
 50
0.0
 51
8.061960084
  0
ARC
  5
1529
330
2
100
AcDbEntity
  8
0
100
AcDbCircle
 10
143.1148306157
 20
354.549490706
 30
0.0
 40
2.049999999999998
100
AcDbArc
 50
261.938039916
 51
270.0
  0
ARC
  5
152A
330
2
100
AcDbEntity
  8
0
100
AcDbCircle
 10
143.1148306157
 20
354.549490706
 30
0.0
 40
2.049999999999998
100
AcDbArc
 50
270.0
 51
278.061960084
  0
ARC
  5
152B
330
2
100
AcDbEntity
  8
0
100
AcDbCircle
 10
145.1445306157
 20
356.579190706
 30
0.0
 40
1.742199999999999
100
AcDbArc
 50
179.9986903345
 51
270.0013096655
  0
ARC
  5
152C
330
2
100
AcDbEntity
  8
0
100
AcDbCircle
 10
143.1148306157
 20
354.549490706
 30
0.0
 40
2.049999999999998
100
AcDbArc
 50
180.0
 51
188.061960084
  0
ARC
  5
152D
330
2
100
AcDbEntity
  8
0
100
AcDbCircle
 10
143.1148306157
 20
354.549490706
 30
0.0
 40
2.049999999999998
100
AcDbArc
 50
171.938039916
 51
180.0
  0
ARC
  5
152E
330
2
100
AcDbEntity
  8
0
100
AcDbCircle
 10
141.0851306157
 20
356.579190706
 30
0.0
 40
1.742199999999999
100
AcDbArc
 50
269.9986903345
 51
0.0013096655
  0
ARC
  5
152F
330
2
100
AcDbEntity
  8
0
100
AcDbCircle
 10
141.0851306157
 20
352.519790706
 30
0.0
 40
1.742199999999999
100
AcDbArc
 50
359.9986903345
 51
90.0013096655
  0
LINE
  5
1540
330
2
100
AcDbEntity
  8
0
100
AcDbLine
 10
686.752660322
 20
192.0134356883
 30
0.0
 11
646.4284779541
 21
192.0134356883
 31
0.0
  0
LINE
  5
1541
330
2
100
AcDbEntity
  8
0
100
AcDbLine
 10
684.090569138
 20
191.0134356883
 30
0.0
 11
649.090569138
 21
191.0134356883
 31
0.0
  0
ARC
  5
1542
330
2
100
AcDbEntity
  8
0
100
AcDbCircle
 10
645.090569138
 20
183.1134356883
 30
0.0
 40
9.0
100
AcDbArc
 50
74.1191499917
 51
105.8808500083
  0
LINE
  5
1543
330
2
100
AcDbEntity
  8
0
100
AcDbLine
 10
642.590569138
 20
192.0134356883
 30
0.0
 11
641.590569138
 21
191.0134356883
 31
0.0
  0
LINE
  5
1544
330
2
100
AcDbEntity
  8
0
100
AcDbLine
 10
643.752660322
 20
192.0134356883
 30
0.0
 11
642.590569138
 21
192.0134356883
 31
0.0
  0
LINE
  5
1545
330
2
100
AcDbEntity
  8
0
100
AcDbLine
 10
643.0608293149
 20
191.6658772256
 30
0.0
 11
643.040569138
 21
191.8768539711
 31
0.0
  0
LINE
  5
1546
330
2
100
AcDbEntity
  8
0
100
AcDbLine
 10
649.590569138
 20
192.0134356883
 30
0.0
 11
649.090569138
 21
191.5134356883
 31
0.0
  0
LINE
  5
1547
330
2
100
AcDbEntity
  8
0
100
AcDbLine
 10
647.1203089612
 20
191.6658772256
 30
0.0
 11
647.140569138
 21
191.8768539711
 31
0.0
  0
LINE
  5
1548
330
2
100
AcDbEntity
  8
0
100
AcDbLine
 10
649.090569138
 20
191.5134356883
 30
0.0
 11
648.0355465276
 21
191.5134356883
 31
0.0
  0
LINE
  5
1549
330
2
100
AcDbEntity
  8
0
100
AcDbLine
 10
683.590569138
 20
192.0134356883
 30
0.0
 11
684.090569138
 21
191.5134356883
 31
0.0
  0
LINE
  5
154A
330
2
100
AcDbEntity
  8
0
100
AcDbLine
 10
689.4284779541
 20
192.0134356883
 30
0.0
 11
690.590569138
 21
192.0134356883
 31
0.0
  0
LINE
  5
154B
330
2
100
AcDbEntity
  8
0
100
AcDbLine
 10
690.1203089612
 20
191.6658772256
 30
0.0
 11
690.140569138
 21
191.8768539711
 31
0.0
  0
LINE
  5
154C
330
2
100
AcDbEntity
  8
0
100
AcDbLine
 10
684.090569138
 20
191.5134356883
 30
0.0
 11
685.1455917484
 21
191.5134356883
 31
0.0
  0
LINE
  5
154D
330
2
100
AcDbEntity
  8
0
100
AcDbLine
 10
686.0608293149
 20
191.6658772256
 30
0.0
 11
686.040569138
 21
191.8768539711
 31
0.0
  0
ARC
  5
154E
330
2
100
AcDbEntity
  8
0
100
AcDbCircle
 10
688.090569138
 20
183.1134356883
 30
0.0
 40
9.0
100
AcDbArc
 50
74.1191499917
 51
105.8808500083
  0
LINE
  5
154F
330
2
100
AcDbEntity
  8
0
100
AcDbLine
 10
690.590569138
 20
192.0134356883
 30
0.0
 11
691.590569138
 21
191.0134356883
 31
0.0
  0
LINE
  5
15A9
330
2
100
AcDbEntity
  8
CENTER
100
AcDbLine
 10
121.6148306157
 20
140.6239176883
 30
0.0
 11
121.6148306157
 21
197.4009286883
 31
0.0
  0
LINE
  5
15AA
330
2
100
AcDbEntity
  8
0
100
AcDbLine
 10
101.4527394317
 20
192.0134286883
 30
0.0
 11
141.7769217996
 21
192.0134286883
 31
0.0
  0
LINE
  5
15AB
330
2
100
AcDbEntity
  8
0
100
AcDbLine
 10
104.1148306157
 20
191.0134286883
 30
0.0
 11
139.1148306157
 21
191.0134286883
 31
0.0
  0
LINE
  5
15AC
330
2
100
AcDbEntity
  8
0
100
AcDbLine
 10
98.1148236157
 20
147.0134136883
 30
0.0
 11
144.6148306157
 21
147.0134136883
 31
0.0
  0
LINE
  5
15AD
330
2
100
AcDbEntity
  8
0
100
AcDbLine
 10
96.6148236157
 20
159.0134136883
 30
0.0
 11
146.6148306157
 21
159.0134136883
 31
0.0
  0
LINE
  5
15AE
330
2
100
AcDbEntity
  8
0
100
AcDbLine
 10
96.6148236157
 20
149.0134136883
 30
0.0
 11
146.6148306157
 21
149.0134136883
 31
0.0
  0
LINE
  5
15AF
330
2
100
AcDbEntity
  8
0
100
AcDbLine
 10
96.6148236157
 20
160.0134136883
 30
0.0
 11
146.6148306157
 21
160.0134136883
 31
0.0
  0
LINE
  5
15B0
330
2
100
AcDbEntity
  8
CENTER
100
AcDbLine
 10
91.5712236345
 20
175.0134136883
 30
0.0
 11
151.6584375969
 21
175.0134136883
 31
0.0
  0
LINE
  5
15B1
330
2
100
AcDbEntity
  8
0
100
AcDbLine
 10
96.6148236157
 20
191.0134286883
 30
0.0
 11
96.6148236157
 21
149.0134136883
 31
0.0
  0
LINE
  5
15B2
330
2
100
AcDbEntity
  8
0
100
AcDbLine
 10
96.6148236157
 20
149.0134136883
 30
0.0
 11
98.6148236157
 21
147.0134136883
 31
0.0
  0
LINE
  5
15B3
330
2
100
AcDbEntity
  8
0
100
AcDbLine
 10
98.1148236157
 20
147.0134136883
 30
0.0
 11
98.1148236157
 21
145.5134136883
 31
0.0
  0
ARC
  5
15B4
330
2
100
AcDbEntity
  8
0
100
AcDbCircle
 10
100.1148306157
 20
183.1134286883
 30
0.0
 40
9.0
100
AcDbArc
 50
74.1191499917
 51
105.8808500083
  0
LINE
  5
15B5
330
2
100
AcDbEntity
  8
0
100
AcDbLine
 10
104.1148306157
 20
189.5134286883
 30
0.0
 11
96.6148306157
 21
189.5134286883
 31
0.0
  0
SPLINE
  5
15B6
330
2
100
AcDbEntity
  8
0
100
AcDbSpline
210
0.0
220
0.0
230
1.0
 70
     8
 71
     3
 72
    11
 73
     7
 74
     0
 42
0.000000001
 43
0.0000000001
 40
0.0
 40
0.0
 40
0.0
 40
0.0
 40
0.4601364636755307
 40
1.04988694485363
 40
1.713742833862792
 40
2.320347933405154
 40
2.320347933405154
 40
2.320347933405154
 40
2.320347933405176
 10
100.4023306161197
 20
190.5964286882671
 30
0.0
 10
100.4247482732276
 20
190.7514521279471
 30
0.0
 10
100.4758983284607
 20
191.1051669458646
 30
0.0
 10
100.9117834899944
 20
191.5298946174663
 30
0.0
 10
101.5168342050018
 20
191.7490817974321
 30
0.0
 10
101.9420188291776
 20
191.6800904978215
 30
0.0
 10
102.1445704388287
 20
191.6658702256448
 30
0.0
  0
LINE
  5
15B7
330
2
100
AcDbEntity
  8
0
100
AcDbLine
 10
95.7398236157
 20
164.5134136883
 30
0.0
 11
97.7398236157
 21
164.5134136883
 31
0.0
  0
LINE
  5
15B8
330
2
100
AcDbEntity
  8
0
100
AcDbLine
 10
97.6148306157
 20
192.0134286883
 30
0.0
 11
96.6148306157
 21
191.0134286883
 31
0.0
  0
LINE
  5
15B9
330
2
100
AcDbEntity
  8
0
100
AcDbLine
 10
98.0850907925
 20
191.6658702256
 30
0.0
 11
98.0648306157
 21
191.8768469711
 31
0.0
  0
LINE
  5
15BA
330
2
100
AcDbEntity
  8
0
100
AcDbLine
 10
98.7769217996
 20
192.0134286883
 30
0.0
 11
97.6148306157
 21
192.0134286883
 31
0.0
  0
LINE
  5
15BB
330
2
100
AcDbEntity
  8
0
100
AcDbLine
 10
99.8273306152
 20
190.5964286883
 30
0.0
 11
100.4023306161
 21
190.5964286883
 31
0.0
  0
LINE
  5
15BC
330
2
100
AcDbEntity
  8
0
100
AcDbLine
 10
95.7398236157
 20
185.5134136883
 30
0.0
 11
97.7398236157
 21
185.5134136883
 31
0.0
  0
LINE
  5
15BD
330
2
100
AcDbEntity
  8
0
100
AcDbLine
 10
96.6148306157
 20
189.5134286883
 30
0.0
 11
96.7127667546
 21
190.6328438781
 31
0.0
  0
SPLINE
  5
15BE
330
2
100
AcDbEntity
  8
0
100
AcDbSpline
210
0.0
220
0.0
230
1.0
 70
     8
 71
     3
 72
    11
 73
     7
 74
     0
 42
0.000000001
 43
0.0000000001
 40
0.0
 40
0.0
 40
0.0
 40
0.0
 40
0.4601364636755307
 40
1.04988694485363
 40
1.713742833862792
 40
2.320347933405154
 40
2.320347933405154
 40
2.320347933405154
 40
2.320347933405176
 10
99.82733061520958
 20
190.5964286882671
 30
0.0
 10
99.80491295810178
 20
190.7514521279471
 30
0.0
 10
99.7537629028684
 20
191.1051669458646
 30
0.0
 10
99.31787774133489
 20
191.5298946174663
 30
0.0
 10
98.71282702632743
 20
191.7490817974321
 30
0.0
 10
98.28764240215162
 20
191.6800904978215
 30
0.0
 10
98.0850907925005
 20
191.6658702256448
 30
0.0
  0
ARC
  5
15BF
330
2
100
AcDbEntity
  8
0
100
AcDbCircle
 10
98.0078198621
 20
190.5195414125
 30
0.0
 40
1.3
100
AcDbArc
 50
105.8808500083
 51
175.0
  0
LINE
  5
15C0
330
2
100
AcDbEntity
  8
0
100
AcDbLine
 10
104.1148306157
 20
191.5134286883
 30
0.0
 11
103.0598080053
 21
191.5134286883
 31
0.0
  0
LINE
  5
15C1
330
2
100
AcDbEntity
  8
0
100
AcDbLine
 10
102.1445704388
 20
191.6658702256
 30
0.0
 11
102.1648306157
 21
191.8768469711
 31
0.0
  0
LINE
  5
15C2
330
2
100
AcDbEntity
  8
0
100
AcDbLine
 10
104.6148306157
 20
192.0134286883
 30
0.0
 11
104.1148306157
 21
191.5134286883
 31
0.0
  0
LINE
  5
15C3
330
2
100
AcDbEntity
  8
0
100
AcDbLine
 10
103.6148306157
 20
189.5134286883
 30
0.0
 11
103.5168944768
 21
190.6328438781
 31
0.0
  0
ARC
  5
15C4
330
2
100
AcDbEntity
  8
0
100
AcDbCircle
 10
102.2218413693
 20
190.5195414125
 30
0.0
 40
1.3
100
AcDbArc
 50
5.0
 51
74.1191499917
  0
LINE
  5
15C5
330
2
100
AcDbEntity
  8
0
100
AcDbLine
 10
104.1148306157
 20
189.5134286883
 30
0.0
 11
104.1148306157
 21
191.5134286883
 31
0.0
  0
LINE
  5
15C7
330
2
100
AcDbEntity
  8
0
100
AcDbLine
 10
146.6148306157
 20
191.0134286883
 30
0.0
 11
146.6148306157
 21
149.0134136883
 31
0.0
  0
LINE
  5
15C8
330
2
100
AcDbEntity
  8
0
100
AcDbLine
 10
144.6148306157
 20
147.0134136883
 30
0.0
 11
146.6148306157
 21
149.0134136883
 31
0.0
  0
LINE
  5
15C9
330
2
100
AcDbEntity
  8
0
100
AcDbLine
 10
144.1148306157
 20
147.0134136883
 30
0.0
 11
144.1148306157
 21
145.5134136883
 31
0.0
  0
LINE
  5
15CA
330
2
100
AcDbEntity
  8
0
100
AcDbLine
 10
145.6148306157
 20
192.0134286883
 30
0.0
 11
146.6148306157
 21
191.0134286883
 31
0.0
  0
LINE
  5
15CB
330
2
100
AcDbEntity
  8
0
100
AcDbLine
 10
139.1148306157
 20
189.5134286883
 30
0.0
 11
146.6148306157
 21
189.5134286883
 31
0.0
  0
ARC
  5
15CC
330
2
100
AcDbEntity
  8
0
100
AcDbCircle
 10
145.2218413693
 20
190.5195414125
 30
0.0
 40
1.3
100
AcDbArc
 50
5.0
 51
74.1191499917
  0
LINE
  5
15CD
330
2
100
AcDbEntity
  8
0
100
AcDbLine
 10
141.0850907925
 20
191.6658702256
 30
0.0
 11
141.0648306157
 21
191.8768469711
 31
0.0
  0
LINE
  5
15CE
330
2
100
AcDbEntity
  8
0
100
AcDbLine
 10
139.1148306157
 20
191.5134286883
 30
0.0
 11
140.169853226
 21
191.5134286883
 31
0.0
  0
LINE
  5
15CF
330
2
100
AcDbEntity
  8
0
100
AcDbLine
 10
138.6148306157
 20
192.0134286883
 30
0.0
 11
139.1148306157
 21
191.5134286883
 31
0.0
  0
LINE
  5
15D0
330
2
100
AcDbEntity
  8
0
100
AcDbLine
 10
145.1445704388
 20
191.6658702256
 30
0.0
 11
145.1648306157
 21
191.8768469711
 31
0.0
  0
ARC
  5
15D1
330
2
100
AcDbEntity
  8
0
100
AcDbCircle
 10
143.1148306157
 20
183.1134286883
 30
0.0
 40
9.0
100
AcDbArc
 50
74.1191499917
 51
105.8808500083
  0
LINE
  5
15D2
330
2
100
AcDbEntity
  8
0
100
AcDbLine
 10
144.4527394317
 20
192.0134286883
 30
0.0
 11
145.6148306157
 21
192.0134286883
 31
0.0
  0
LINE
  5
15D3
330
2
100
AcDbEntity
  8
0
100
AcDbLine
 10
139.6148306157
 20
189.5134286883
 30
0.0
 11
139.7127667546
 21
190.6328438781
 31
0.0
  0
LINE
  5
15D4
330
2
100
AcDbEntity
  8
0
100
AcDbLine
 10
143.4023306161
 20
190.5964286883
 30
0.0
 11
142.8273306152
 21
190.5964286883
 31
0.0
  0
SPLINE
  5
15D5
330
2
100
AcDbEntity
  8
0
100
AcDbSpline
210
0.0
220
0.0
230
1.0
 70
     8
 71
     3
 72
    11
 73
     7
 74
     0
 42
0.000000001
 43
0.0000000001
 40
0.0
 40
0.0
 40
0.0
 40
0.0
 40
0.4601364636755307
 40
1.04988694485363
 40
1.713742833862792
 40
2.320347933405154
 40
2.320347933405154
 40
2.320347933405154
 40
2.320347933405176
 10
142.8273306152098
 20
190.5964286882671
 30
0.0
 10
142.8049129581019
 20
190.7514521279471
 30
0.0
 10
142.7537629028686
 20
191.1051669458646
 30
0.0
 10
142.317877741335
 20
191.5298946174663
 30
0.0
 10
141.7128270263276
 20
191.7490817974321
 30
0.0
 10
141.2876424021517
 20
191.6800904978215
 30
0.0
 10
141.0850907925007
 20
191.6658702256448
 30
0.0
  0
ARC
  5
15D6
330
2
100
AcDbEntity
  8
0
100
AcDbCircle
 10
141.0078198621
 20
190.5195414125
 30
0.0
 40
1.3
100
AcDbArc
 50
105.8808500083
 51
175.0
  0
LINE
  5
15D7
330
2
100
AcDbEntity
  8
0
100
AcDbLine
 10
139.1148306157
 20
189.5134286883
 30
0.0
 11
139.1148306157
 21
191.5134286883
 31
0.0
  0
SPLINE
  5
15D8
330
2
100
AcDbEntity
  8
0
100
AcDbSpline
210
0.0
220
0.0
230
1.0
 70
     8
 71
     3
 72
    11
 73
     7
 74
     0
 42
0.000000001
 43
0.0000000001
 40
0.0
 40
0.0
 40
0.0
 40
0.0
 40
0.4601364636755307
 40
1.04988694485363
 40
1.713742833862792
 40
2.320347933405154
 40
2.320347933405154
 40
2.320347933405154
 40
2.320347933405176
 10
143.4023306161198
 20
190.5964286882671
 30
0.0
 10
143.4247482732277
 20
190.7514521279471
 30
0.0
 10
143.4758983284609
 20
191.1051669458646
 30
0.0
 10
143.9117834899946
 20
191.5298946174663
 30
0.0
 10
144.5168342050019
 20
191.7490817974321
 30
0.0
 10
144.9420188291778
 20
191.6800904978215
 30
0.0
 10
145.1445704388288
 20
191.6658702256448
 30
0.0
  0
LINE
  5
15D9
330
2
100
AcDbEntity
  8
0
100
AcDbLine
 10
146.6148306157
 20
189.5134286883
 30
0.0
 11
146.5168944768
 21
190.6328438781
 31
0.0
  0
LINE
  5
16B8
330
2
100
AcDbEntity
  8
CENTER
100
AcDbLine
 10
361.7210951179
 20
175.0134136883
 30
0.0
 11
421.8083090803
 21
175.0134136883
 31
0.0
  0
LINE
  5
16B9
330
2
100
AcDbEntity
  8
0
100
AcDbLine
 10
416.7646870991
 20
191.0134286883
 30
0.0
 11
416.7646870991
 21
164.4228291714
 31
0.0
  0
LINE
  5
16BA
330
2
100
AcDbEntity
  8
0
100
AcDbLine
 10
366.7647020991
 20
191.0134286883
 30
0.0
 11
366.7647020991
 21
165.2953829489
 31
0.0
  0
LINE
  5
16BB
330
2
100
AcDbEntity
  8
0
100
AcDbLine
 10
371.6026109152
 20
192.0134286883
 30
0.0
 11
411.9267932831
 21
192.0134286883
 31
0.0
  0
LINE
  5
16BC
330
2
100
AcDbEntity
  8
0
100
AcDbLine
 10
374.2647020991
 20
191.0134286883
 30
0.0
 11
409.2647020991
 21
191.0134286883
 31
0.0
  0
LINE
  5
16BD
330
2
100
AcDbEntity
  8
0
100
AcDbLine
 10
374.2647020991
 20
191.5134286883
 30
0.0
 11
373.2096794887
 21
191.5134286883
 31
0.0
  0
LINE
  5
16BE
330
2
100
AcDbEntity
  8
0
100
AcDbLine
 10
374.2647020991
 20
189.5134286883
 30
0.0
 11
366.7647020991
 21
189.5134286883
 31
0.0
  0
LINE
  5
16BF
330
2
100
AcDbEntity
  8
0
100
AcDbLine
 10
367.7647020991
 20
192.0134286883
 30
0.0
 11
366.7647020991
 21
191.0134286883
 31
0.0
  0
LINE
  5
16C0
330
2
100
AcDbEntity
  8
0
100
AcDbLine
 10
366.7647020991
 20
189.5134286883
 30
0.0
 11
366.862638238
 21
190.6328438781
 31
0.0
  0
ARC
  5
16C1
330
2
100
AcDbEntity
  8
0
100
AcDbCircle
 10
368.1576913455
 20
190.5195414125
 30
0.0
 40
1.3
100
AcDbArc
 50
105.8808500083
 51
175.0
  0
LINE
  5
16C2
330
2
100
AcDbEntity
  8
0
100
AcDbLine
 10
372.2944419223
 20
191.6658702256
 30
0.0
 11
372.3147020991
 21
191.8768469711
 31
0.0
  0
LINE
  5
16C3
330
2
100
AcDbEntity
  8
0
100
AcDbLine
 10
368.234962276
 20
191.6658702256
 30
0.0
 11
368.2147020991
 21
191.8768469711
 31
0.0
  0
ARC
  5
16C4
330
2
100
AcDbEntity
  8
0
100
AcDbCircle
 10
370.2647020991
 20
183.1134286883
 30
0.0
 40
9.0
100
AcDbArc
 50
74.1191499917
 51
105.8808500083
  0
LINE
  5
16C5
330
2
100
AcDbEntity
  8
0
100
AcDbLine
 10
368.9267932831
 20
192.0134286883
 30
0.0
 11
367.7647020991
 21
192.0134286883
 31
0.0
  0
LINE
  5
16C6
330
2
100
AcDbEntity
  8
0
100
AcDbLine
 10
373.7647020991
 20
189.5134286883
 30
0.0
 11
373.6667659602
 21
190.6328438781
 31
0.0
  0
LINE
  5
16C7
330
2
100
AcDbEntity
  8
0
100
AcDbLine
 10
369.9772020987
 20
190.5964286883
 30
0.0
 11
370.5522020996
 21
190.5964286883
 31
0.0
  0
ARC
  5
16C8
330
2
100
AcDbEntity
  8
0
100
AcDbCircle
 10
372.3717128527
 20
190.5195414125
 30
0.0
 40
1.3
100
AcDbArc
 50
5.0
 51
74.1191499917
  0
SPLINE
  5
16C9
330
2
100
AcDbEntity
  8
0
100
AcDbSpline
210
0.0
220
0.0
230
1.0
 70
     8
 71
     3
 72
    11
 73
     7
 74
     0
 42
0.000000001
 43
0.0000000001
 40
0.0
 40
0.0
 40
0.0
 40
0.0
 40
0.4601364636755307
 40
1.04988694485363
 40
1.713742833862792
 40
2.320347933405154
 40
2.320347933405154
 40
2.320347933405154
 40
2.320347933405176
 10
370.5522020995837
 20
190.5964286882671
 30
0.0
 10
370.5746197566915
 20
190.7514521279471
 30
0.0
 10
370.6257698119248
 20
191.1051669458647
 30
0.0
 10
371.0616549734584
 20
191.5298946174663
 30
0.0
 10
371.6667056884659
 20
191.7490817974322
 30
0.0
 10
372.0918903126417
 20
191.6800904978216
 30
0.0
 10
372.2944419222928
 20
191.6658702256449
 30
0.0
  0
SPLINE
  5
16CA
330
2
100
AcDbEntity
  8
0
100
AcDbSpline
210
0.0
220
0.0
230
1.0
 70
     8
 71
     3
 72
    11
 73
     7
 74
     0
 42
0.000000001
 43
0.0000000001
 40
0.0
 40
0.0
 40
0.0
 40
0.0
 40
0.4601364636755307
 40
1.04988694485363
 40
1.713742833862792
 40
2.320347933405154
 40
2.320347933405154
 40
2.320347933405154
 40
2.320347933405176
 10
369.9772020986736
 20
190.5964286882671
 30
0.0
 10
369.9547844415657
 20
190.7514521279471
 30
0.0
 10
369.9036343863324
 20
191.1051669458647
 30
0.0
 10
369.4677492247989
 20
191.5298946174663
 30
0.0
 10
368.8626985097915
 20
191.7490817974322
 30
0.0
 10
368.4375138856156
 20
191.6800904978216
 30
0.0
 10
368.2349622759645
 20
191.6658702256449
 30
0.0
  0
LINE
  5
16CB
330
2
100
AcDbEntity
  8
0
100
AcDbLine
 10
374.7647020991
 20
192.0134286883
 30
0.0
 11
374.2647020991
 21
191.5134286883
 31
0.0
  0
LINE
  5
16CC
330
2
100
AcDbEntity
  8
0
100
AcDbLine
 10
374.2647020991
 20
189.5134286883
 30
0.0
 11
374.2647020991
 21
191.5134286883
 31
0.0
  0
LINE
  5
16CD
330
2
100
AcDbEntity
  8
0
100
AcDbLine
 10
409.2647020991
 20
189.5134286883
 30
0.0
 11
416.7647020991
 21
189.5134286883
 31
0.0
  0
ARC
  5
16CE
330
2
100
AcDbEntity
  8
0
100
AcDbCircle
 10
411.1576913455
 20
190.5195414125
 30
0.0
 40
1.3
100
AcDbArc
 50
105.8808500083
 51
175.0
  0
LINE
  5
16CF
330
2
100
AcDbEntity
  8
0
100
AcDbLine
 10
409.2647020991
 20
191.5134286883
 30
0.0
 11
410.3197247095
 21
191.5134286883
 31
0.0
  0
LINE
  5
16D0
330
2
100
AcDbEntity
  8
0
100
AcDbLine
 10
408.7647020991
 20
192.0134286883
 30
0.0
 11
409.2647020991
 21
191.5134286883
 31
0.0
  0
LINE
  5
16D1
330
2
100
AcDbEntity
  8
0
100
AcDbLine
 10
409.7647020991
 20
189.5134286883
 30
0.0
 11
409.862638238
 21
190.6328438781
 31
0.0
  0
LINE
  5
16D2
330
2
100
AcDbEntity
  8
0
100
AcDbLine
 10
409.2647020991
 20
189.5134286883
 30
0.0
 11
409.2647020991
 21
191.5134286883
 31
0.0
  0
LINE
  5
16D3
330
2
100
AcDbEntity
  8
0
100
AcDbLine
 10
415.7647020991
 20
192.0134286883
 30
0.0
 11
416.7647020991
 21
191.0134286883
 31
0.0
  0
LINE
  5
16D4
330
2
100
AcDbEntity
  8
0
100
AcDbLine
 10
415.2944419223
 20
191.6658702256
 30
0.0
 11
415.3147020991
 21
191.8768469711
 31
0.0
  0
LINE
  5
16D5
330
2
100
AcDbEntity
  8
0
100
AcDbLine
 10
411.234962276
 20
191.6658702256
 30
0.0
 11
411.2147020991
 21
191.8768469711
 31
0.0
  0
LINE
  5
16D6
330
2
100
AcDbEntity
  8
0
100
AcDbLine
 10
414.6026109152
 20
192.0134286883
 30
0.0
 11
415.7647020991
 21
192.0134286883
 31
0.0
  0
ARC
  5
16D7
330
2
100
AcDbEntity
  8
0
100
AcDbCircle
 10
413.2647020991
 20
183.1134286883
 30
0.0
 40
9.0
100
AcDbArc
 50
74.1191499917
 51
105.8808500083
  0
LINE
  5
16D8
330
2
100
AcDbEntity
  8
0
100
AcDbLine
 10
416.7647020991
 20
189.5134286883
 30
0.0
 11
416.6667659602
 21
190.6328438781
 31
0.0
  0
LINE
  5
16D9
330
2
100
AcDbEntity
  8
0
100
AcDbLine
 10
413.5522020996
 20
190.5964286883
 30
0.0
 11
412.9772020987
 21
190.5964286883
 31
0.0
  0
SPLINE
  5
16DA
330
2
100
AcDbEntity
  8
0
100
AcDbSpline
210
0.0
220
0.0
230
1.0
 70
     8
 71
     3
 72
    11
 73
     7
 74
     0
 42
0.000000001
 43
0.0000000001
 40
0.0
 40
0.0
 40
0.0
 40
0.0
 40
0.4601364636755307
 40
1.04988694485363
 40
1.713742833862792
 40
2.320347933405154
 40
2.320347933405154
 40
2.320347933405154
 40
2.320347933405176
 10
413.5522020995838
 20
190.5964286882671
 30
0.0
 10
413.5746197566914
 20
190.7514521279471
 30
0.0
 10
413.625769811925
 20
191.1051669458647
 30
0.0
 10
414.0616549734584
 20
191.5298946174663
 30
0.0
 10
414.6667056884656
 20
191.7490817974322
 30
0.0
 10
415.0918903126417
 20
191.6800904978216
 30
0.0
 10
415.2944419222929
 20
191.6658702256449
 30
0.0
  0
SPLINE
  5
16DB
330
2
100
AcDbEntity
  8
0
100
AcDbSpline
210
0.0
220
0.0
230
1.0
 70
     8
 71
     3
 72
    11
 73
     7
 74
     0
 42
0.000000001
 43
0.0000000001
 40
0.0
 40
0.0
 40
0.0
 40
0.0
 40
0.4601364636755307
 40
1.04988694485363
 40
1.713742833862792
 40
2.320347933405154
 40
2.320347933405154
 40
2.320347933405154
 40
2.320347933405176
 10
412.9772020986737
 20
190.5964286882671
 30
0.0
 10
412.9547844415657
 20
190.7514521279471
 30
0.0
 10
412.9036343863326
 20
191.1051669458647
 30
0.0
 10
412.467749224799
 20
191.5298946174663
 30
0.0
 10
411.8626985097916
 20
191.7490817974322
 30
0.0
 10
411.4375138856157
 20
191.6800904978216
 30
0.0
 10
411.2349622759646
 20
191.6658702256449
 30
0.0
  0
ARC
  5
16DC
330
2
100
AcDbEntity
  8
0
100
AcDbCircle
 10
415.3717128527
 20
190.5195414125
 30
0.0
 40
1.3
100
AcDbArc
 50
5.0
 51
74.1191499917
  0
TEXT
  5
1AC8
330
2
100
AcDbEntity
  8
TITLE_C
100
AcDbText
 10
339.7881265372
 20
310.891077503
 30
0.0
 40
5.0
  1
HF18L010～240-CSMR60WKX
100
AcDbText
  0
TEXT
  5
1AC9
330
2
100
AcDbEntity
  8
TITLE_C
100
AcDbText
 10
339.7881265372
 20
318.891077503
 30
0.0
 40
5.0
  1
HF18L010～240-CSMR60NK
100
AcDbText
  0
TEXT
  5
1ACA
330
2
100
AcDbEntity
  8
TITLE_C
100
AcDbText
 10
339.7881265372
 20
326.891077503
 30
0.0
 40
5.0
  1
HF18L010～240-CTMR90WK
100
AcDbText
  0
TEXT
  5
1ACB
330
2
100
AcDbEntity
  8
TITLE_C
100
AcDbText
 10
339.7881265372
 20
334.891077503
 30
0.0
 40
5.0
  1
HF18L010～240-CTMR90NKX
100
AcDbText
  0
TEXT
  5
2325
330
2
100
AcDbEntity
  8
TITLE_C
100
AcDbText
 10
339.7881265372
 20
295.3338052902
 30
0.0
 40
5.0
  1
HF18L010～240-CSMR90NK
100
AcDbText
  0
TEXT
  5
2326
330
2
100
AcDbEntity
  8
TITLE_C
100
AcDbText
 10
339.7881265372
 20
303.3338052902
 30
0.0
 40
5.0
  1
HF18L010～240-CSMR60WK
100
AcDbText
  0
TEXT
  5
2327
330
2
100
AcDbEntity
  8
TITLE_C
100
AcDbText
 10
339.7881265372
 20
280.2126014851
 30
0.0
 40
5.0
  1
HF18L010～240-CSMR90WK
100
AcDbText
  0
TEXT
  5
2328
330
2
100
AcDbEntity
  8
TITLE_C
100
AcDbText
 10
339.7881265372
 20
288.2126014851
 30
0.0
 40
5.0
  1
HF18L010～240-CSMR90WKX
100
AcDbText
  0
LINE
  5
27F0
330
2
100
AcDbEntity
  8
0
100
AcDbLine
 10
560.356774138
 20
91.9859356883
 30
0.0
 11
562.093072138
 21
91.9859356883
 31
0.0
  0
LINE
  5
27F1
330
2
100
AcDbEntity
  8
0
100
AcDbLine
 10
556.426079138
 20
93.2094076883
 30
0.0
 11
563.090081138
 21
93.2094076883
 31
0.0
  0
LINE
  5
27F2
330
2
100
AcDbEntity
  8
0
100
AcDbLine
 10
550.386773138
 20
89.0183836883
 30
0.0
 11
550.386773138
 21
87.9250646883
 31
0.0
  0
LINE
  5
27F3
330
2
100
AcDbEntity
  8
0
100
AcDbLine
 10
547.549386138
 20
90.9488486883
 30
0.0
 11
547.549386138
 21
85.1900526883
 31
0.0
  0
LINE
  5
27F4
330
2
100
AcDbEntity
  8
0
100
AcDbLine
 10
546.430077138
 20
91.6602286883
 30
0.0
 11
546.430077138
 21
84.5105136883
 31
0.0
  0
LINE
  5
27F5
330
2
100
AcDbEntity
  8
0
100
AcDbLine
 10
560.356774138
 20
91.9859356883
 30
0.0
 11
560.356774138
 21
84.3067246883
 31
0.0
  0
LINE
  5
27F6
330
2
100
AcDbEntity
  8
0
100
AcDbLine
 10
559.107293138
 20
91.9859356883
 30
0.0
 11
559.107293138
 21
84.3067246883
 31
0.0
  0
LINE
  5
27F7
330
2
100
AcDbEntity
  8
0
100
AcDbLine
 10
553.094079138
 20
89.0183836883
 30
0.0
 11
553.094079138
 21
83.2134136883
 31
0.0
  0
LINE
  5
27F8
330
2
100
AcDbEntity
  8
0
100
AcDbLine
 10
552.130883138
 20
83.2134136883
 30
0.0
 11
553.094079138
 21
83.2134136883
 31
0.0
  0
ARC
  5
27F9
330
2
100
AcDbEntity
  8
0
100
AcDbCircle
 10
550.048379138
 20
86.4673116883
 30
0.0
 40
2.0825
100
AcDbArc
 50
270.000214
 51
0.000109
  0
LINE
  5
27FA
330
2
100
AcDbEntity
  8
0
100
AcDbLine
 10
546.430077138
 20
84.5105136883
 30
0.0
 11
547.715584138
 21
83.2134136883
 31
0.0
  0
LINE
  5
27FB
330
2
100
AcDbEntity
  8
0
100
AcDbLine
 10
552.130883138
 20
84.0102346883
 30
0.0
 11
551.181176138
 21
83.2134136883
 31
0.0
  0
LINE
  5
27FC
330
2
100
AcDbEntity
  8
0
100
AcDbLine
 10
552.130883138
 20
87.7168126883
 30
0.0
 11
552.130883138
 21
87.9250646883
 31
0.0
  0
LINE
  5
27FD
330
2
100
AcDbEntity
  8
0
100
AcDbLine
 10
552.130883138
 20
87.9250646883
 30
0.0
 11
552.130883138
 21
86.4673116883
 31
0.0
  0
LINE
  5
27FE
330
2
100
AcDbEntity
  8
0
100
AcDbLine
 10
552.130883138
 20
84.0102346883
 30
0.0
 11
552.130883138
 21
83.2134136883
 31
0.0
  0
LINE
  5
27FF
330
2
100
AcDbEntity
  8
0
100
AcDbLine
 10
552.130883138
 20
86.4120026883
 30
0.0
 11
552.130883138
 21
86.4673116883
 31
0.0
  0
LINE
  5
2800
330
2
100
AcDbEntity
  8
0
100
AcDbLine
 10
552.130883138
 20
86.4673116883
 30
0.0
 11
552.130883138
 21
86.8838236883
 31
0.0
  0
LINE
  5
2801
330
2
100
AcDbEntity
  8
0
100
AcDbLine
 10
550.048379138
 20
84.3848226883
 30
0.0
 11
549.631875138
 21
84.3848226883
 31
0.0
  0
LINE
  5
2802
330
2
100
AcDbEntity
  8
0
100
AcDbLine
 10
552.130883138
 20
86.8838236883
 30
0.0
 11
552.130883138
 21
87.7168126883
 31
0.0
  0
LINE
  5
2803
330
2
100
AcDbEntity
  8
0
100
AcDbLine
 10
549.631875138
 20
84.3848226883
 30
0.0
 11
548.798882138
 21
84.3848226883
 31
0.0
  0
LINE
  5
2804
330
2
100
AcDbEntity
  8
0
100
AcDbLine
 10
552.130883138
 20
87.9250646883
 30
0.0
 11
550.386773138
 21
87.9250646883
 31
0.0
  0
LINE
  5
2805
330
2
100
AcDbEntity
  8
0
100
AcDbLine
 10
547.549386138
 20
85.1900526883
 30
0.0
 11
548.313882138
 21
84.3848226883
 31
0.0
  0
LINE
  5
2806
330
2
100
AcDbEntity
  8
0
100
AcDbLine
 10
548.798882138
 20
84.3848226883
 30
0.0
 11
548.313882138
 21
84.3848226883
 31
0.0
  0
LINE
  5
2807
330
2
100
AcDbEntity
  8
0
100
AcDbLine
 10
551.181176138
 20
83.2134136883
 30
0.0
 11
547.715584138
 21
83.2134136883
 31
0.0
  0
LINE
  5
2808
330
2
100
AcDbEntity
  8
0
100
AcDbLine
 10
558.612664138
 20
84.3067246883
 30
0.0
 11
559.107293138
 21
84.3067246883
 31
0.0
  0
LINE
  5
2809
330
2
100
AcDbEntity
  8
0
100
AcDbLine
 10
558.612664138
 20
83.2134136883
 30
0.0
 11
560.773278138
 21
83.2134136883
 31
0.0
  0
LINE
  5
280A
330
2
100
AcDbEntity
  8
0
100
AcDbLine
 10
560.773278138
 20
84.3067246883
 30
0.0
 11
560.773278138
 21
83.2134136883
 31
0.0
  0
LINE
  5
280B
330
2
100
AcDbEntity
  8
0
100
AcDbLine
 10
558.612664138
 20
84.3067246883
 30
0.0
 11
558.612664138
 21
83.2134136883
 31
0.0
  0
LINE
  5
280C
330
2
100
AcDbEntity
  8
0
100
AcDbLine
 10
560.356774138
 20
84.3067246883
 30
0.0
 11
560.773278138
 21
84.3067246883
 31
0.0
  0
LINE
  5
280D
330
2
100
AcDbEntity
  8
0
100
AcDbLine
 10
550.386773138
 20
89.0183836883
 30
0.0
 11
553.094079138
 21
89.0183836883
 31
0.0
  0
LINE
  5
280E
330
2
100
AcDbEntity
  8
0
100
AcDbLine
 10
552.130883138
 20
91.1269036883
 30
0.0
 11
553.094079138
 21
91.1269036883
 31
0.0
  0
LINE
  5
280F
330
2
100
AcDbEntity
  8
0
100
AcDbLine
 10
552.120873138
 20
93.2094076883
 30
0.0
 11
553.094079138
 21
92.1294286883
 31
0.0
  0
LINE
  5
2810
330
2
100
AcDbEntity
  8
0
100
AcDbLine
 10
547.639886138
 20
93.2094076883
 30
0.0
 11
546.430077138
 21
91.6602286883
 31
0.0
  0
LINE
  5
2811
330
2
100
AcDbEntity
  8
0
100
AcDbLine
 10
552.130883138
 20
91.2844656883
 30
0.0
 11
552.130883138
 21
91.1269036883
 31
0.0
  0
LINE
  5
2812
330
2
100
AcDbEntity
  8
0
100
AcDbLine
 10
547.639886138
 20
93.2094076883
 30
0.0
 11
552.120873138
 21
93.2094076883
 31
0.0
  0
LINE
  5
2813
330
2
100
AcDbEntity
  8
0
100
AcDbLine
 10
552.130883138
 20
91.2844656883
 30
0.0
 11
551.500375138
 21
91.8818096883
 31
0.0
  0
LINE
  5
2814
330
2
100
AcDbEntity
  8
0
100
AcDbLine
 10
548.301781138
 20
91.8818096883
 30
0.0
 11
547.549386138
 21
90.9488486883
 31
0.0
  0
LINE
  5
2815
330
2
100
AcDbEntity
  8
0
100
AcDbLine
 10
551.512978138
 20
91.8818096883
 30
0.0
 11
548.301781138
 21
91.8818096883
 31
0.0
  0
LINE
  5
2816
330
2
100
AcDbEntity
  8
0
100
AcDbLine
 10
556.426079138
 20
91.1269036883
 30
0.0
 11
557.165765138
 21
91.1269036883
 31
0.0
  0
LINE
  5
2817
330
2
100
AcDbEntity
  8
0
100
AcDbLine
 10
553.094079138
 20
92.1294286883
 30
0.0
 11
553.094079138
 21
91.1269036883
 31
0.0
  0
LINE
  5
2818
330
2
100
AcDbEntity
  8
0
100
AcDbLine
 10
556.426079138
 20
91.1269036883
 30
0.0
 11
556.426079138
 21
93.2094076883
 31
0.0
  0
LINE
  5
2819
330
2
100
AcDbEntity
  8
0
100
AcDbLine
 10
559.107293138
 20
91.9859356883
 30
0.0
 11
557.523675138
 21
91.9859356883
 31
0.0
  0
LINE
  5
281A
330
2
100
AcDbEntity
  8
0
100
AcDbLine
 10
557.523675138
 20
91.9859356883
 30
0.0
 11
557.165765138
 21
91.1269036883
 31
0.0
  0
ARC
  5
281B
330
2
100
AcDbEntity
  8
0
100
AcDbCircle
 10
570.417870138
 20
90.5412026883
 30
0.0
 40
2.668203
100
AcDbArc
 50
286.018127
 51
90.00351
  0
LINE
  5
281C
330
2
100
AcDbEntity
  8
0
100
AcDbLine
 10
566.916680138
 20
91.9859356883
 30
0.0
 11
566.916680138
 21
84.2546616883
 31
0.0
  0
LINE
  5
281D
330
2
100
AcDbEntity
  8
0
100
AcDbLine
 10
571.550164138
 20
83.2134136883
 30
0.0
 11
573.086083138
 21
83.2134136883
 31
0.0
  0
LINE
  5
281E
330
2
100
AcDbEntity
  8
0
100
AcDbLine
 10
571.154076138
 20
87.9765936883
 30
0.0
 11
572.805566138
 21
84.2546616883
 31
0.0
  0
LINE
  5
281F
330
2
100
AcDbEntity
  8
0
100
AcDbLine
 10
568.517571138
 20
83.2134136883
 30
0.0
 11
566.422082138
 21
83.2134136883
 31
0.0
  0
LINE
  5
2820
330
2
100
AcDbEntity
  8
0
100
AcDbLine
 10
566.422082138
 20
84.2546616883
 30
0.0
 11
566.916680138
 21
84.2546616883
 31
0.0
  0
LINE
  5
2821
330
2
100
AcDbEntity
  8
0
100
AcDbLine
 10
566.422082138
 20
84.2546616883
 30
0.0
 11
566.422082138
 21
83.2134136883
 31
0.0
  0
LINE
  5
2822
330
2
100
AcDbEntity
  8
0
100
AcDbLine
 10
568.061974138
 20
87.8860136883
 30
0.0
 11
570.194878138
 21
87.8860136883
 31
0.0
  0
LINE
  5
2823
330
2
100
AcDbEntity
  8
0
100
AcDbLine
 10
568.517571138
 20
84.2546616883
 30
0.0
 11
568.517571138
 21
83.2134136883
 31
0.0
  0
LINE
  5
2824
330
2
100
AcDbEntity
  8
0
100
AcDbLine
 10
571.550164138
 20
84.2546616883
 30
0.0
 11
571.550164138
 21
83.2134136883
 31
0.0
  0
LINE
  5
2825
330
2
100
AcDbEntity
  8
0
100
AcDbLine
 10
571.550164138
 20
84.2546616883
 30
0.0
 11
571.757775138
 21
84.2546616883
 31
0.0
  0
LINE
  5
2826
330
2
100
AcDbEntity
  8
0
100
AcDbLine
 10
568.061974138
 20
84.2546616883
 30
0.0
 11
568.517571138
 21
84.2546616883
 31
0.0
  0
LINE
  5
2827
330
2
100
AcDbEntity
  8
0
100
AcDbLine
 10
570.194878138
 20
87.8860136883
 30
0.0
 11
571.757775138
 21
84.2546616883
 31
0.0
  0
LINE
  5
2828
330
2
100
AcDbEntity
  8
0
100
AcDbLine
 10
568.061974138
 20
87.8860136883
 30
0.0
 11
568.061974138
 21
84.2546616883
 31
0.0
  0
LINE
  5
2829
330
2
100
AcDbEntity
  8
0
100
AcDbLine
 10
573.086083138
 20
84.2546616883
 30
0.0
 11
573.086083138
 21
83.2134136883
 31
0.0
  0
LINE
  5
282A
330
2
100
AcDbEntity
  8
0
100
AcDbLine
 10
572.805566138
 20
84.2546616883
 30
0.0
 11
573.086083138
 21
84.2546616883
 31
0.0
  0
ARC
  5
282B
330
2
100
AcDbEntity
  8
0
100
AcDbCircle
 10
570.417870138
 20
90.5412026883
 30
0.0
 40
1.627785999999999
100
AcDbArc
 50
277.414726
 51
62.41185
  0
LINE
  5
282C
330
2
100
AcDbEntity
  8
0
100
AcDbLine
 10
566.422082138
 20
91.9859356883
 30
0.0
 11
566.916680138
 21
91.9859356883
 31
0.0
  0
LINE
  5
282D
330
2
100
AcDbEntity
  8
0
100
AcDbLine
 10
566.422082138
 20
93.2094076883
 30
0.0
 11
570.417870138
 21
93.2094076883
 31
0.0
  0
LINE
  5
282E
330
2
100
AcDbEntity
  8
0
100
AcDbLine
 10
562.093072138
 20
91.9859356883
 30
0.0
 11
562.394982138
 21
91.1269036883
 31
0.0
  0
LINE
  5
282F
330
2
100
AcDbEntity
  8
0
100
AcDbLine
 10
566.422082138
 20
93.2094076883
 30
0.0
 11
566.422082138
 21
91.9859356883
 31
0.0
  0
LINE
  5
2830
330
2
100
AcDbEntity
  8
0
100
AcDbLine
 10
562.394982138
 20
91.1269036883
 30
0.0
 11
563.090081138
 21
91.1269036883
 31
0.0
  0
LINE
  5
2831
330
2
100
AcDbEntity
  8
0
100
AcDbLine
 10
563.090081138
 20
91.1269036883
 30
0.0
 11
563.090081138
 21
93.2094076883
 31
0.0
  0
LINE
  5
2832
330
2
100
AcDbEntity
  8
0
100
AcDbLine
 10
568.061974138
 20
91.9859356883
 30
0.0
 11
571.171685138
 21
91.9839136883
 31
0.0
  0
LINE
  5
2833
330
2
100
AcDbEntity
  8
0
100
AcDbLine
 10
568.061974138
 20
91.9859356883
 30
0.0
 11
568.061974138
 21
88.9270326883
 31
0.0
  0
LINE
  5
2834
330
2
100
AcDbEntity
  8
0
100
AcDbLine
 10
570.627892138
 20
88.9270326883
 30
0.0
 11
568.061974138
 21
88.9270326883
 31
0.0
  0
ENDSEC
  0
SECTION
  2
OBJECTS
  0
DICTIONARY
  5
7
330
0
100
AcDbDictionary
281
     1
  3
ACAD_CIP_PREVIOUS_PRODUCT_INFO
350
2324
  3
ACAD_COLOR
350
1A8A
  3
ACAD_DETAILVIEWSTYLE
350
2320
  3
ACAD_GROUP
350
75
  3
ACAD_LAYOUT
350
61
  3
ACAD_MATERIAL
350
1A5D
  3
ACAD_MLEADERSTYLE
350
1AAF
  3
ACAD_MLINESTYLE
350
76
  3
ACAD_PLOTSETTINGS
350
77
  3
ACAD_PLOTSTYLENAME
350
6
  3
ACAD_SCALELIST
350
1A8D
  3
ACAD_SECTIONVIEWSTYLE
350
231E
  3
ACAD_TABLESTYLE
350
1A8B
  3
ACAD_VISUALSTYLE
350
1A76
  3
AcadDim
350
480
  3
ACDB_RECOMPOSE_DATA
350
28D9
  3
AcDbVariableDictionary
350
102
  3
DWGPROPS
350
28DA
  0
DICTIONARY
  5
1C84
330
6E
100
AcDbDictionary
280
     1
281
     1
  0
DICTIONARY
  5
1AB6
330
66
100
AcDbDictionary
280
     1
281
     1
  3
ACAD_LAYERSTATES
360
1AB7
  0
DICTIONARY
  5
1C6F
330
5E
100
AcDbDictionary
280
     1
281
     1
  3
ADSK_XREC_LAYER_RECONCILED
360
1C70
  0
DICTIONARY
  5
1C71
330
3E
100
AcDbDictionary
280
     1
281
     1
  3
ADSK_XREC_LAYER_RECONCILED
360
1C72
  0
DICTIONARY
  5
1C77
330
2B5
100
AcDbDictionary
280
     1
281
     1
  3
ADSK_XREC_LAYER_RECONCILED
360
1C78
  0
DICTIONARY
  5
1C7B
330
3FA
100
AcDbDictionary
280
     1
281
     1
  3
ADSK_XREC_LAYER_RECONCILED
360
1C7C
  0
DICTIONARY
  5
1AB4
330
1AB3
100
AcDbDictionary
280
     1
281
     1
  3
ADSK_XREC_LAYER_RECONCILED
360
1C7D
  0
XRECORD
  5
2324
102
{ACAD_REACTORS
330
7
102
}
330
7
100
AcDbXrecord
280
     1
300
ACD
300
2020
300
87224ACD_2020_0F
  0
DICTIONARY
  5
1A8A
102
{ACAD_REACTORS
330
7
102
}
330
7
100
AcDbDictionary
281
     1
  0
DICTIONARY
  5
2320
102
{ACAD_REACTORS
330
7
102
}
330
7
100
AcDbDictionary
281
     1
  3
Imperial24
350
2321
  0
DICTIONARY
  5
75
102
{ACAD_REACTORS
330
7
102
}
330
7
100
AcDbDictionary
281
     1
  0
DICTIONARY
  5
61
102
{ACAD_REACTORS
330
7
102
}
330
7
100
AcDbDictionary
281
     1
  3
Model
350
60
  3
レイアウト1
350
28D3
  0
DICTIONARY
  5
1A5D
102
{ACAD_REACTORS
330
7
102
}
330
7
100
AcDbDictionary
281
     1
  3
ByBlock
350
1A66
  3
ByLayer
350
1A5E
  3
Global
350
1A6E
  0
DICTIONARY
  5
1AAF
102
{ACAD_REACTORS
330
7
102
}
330
7
100
AcDbDictionary
281
     1
  3
Standard
350
1AB0
  0
DICTIONARY
  5
76
102
{ACAD_REACTORS
330
7
102
}
330
7
100
AcDbDictionary
281
     1
  3
STANDARD
350
78
  0
DICTIONARY
  5
77
102
{ACAD_REACTORS
330
7
102
}
330
7
100
AcDbDictionary
281
     1
  0
ACDBDICTIONARYWDFLT
  5
6
102
{ACAD_REACTORS
330
7
102
}
330
7
100
AcDbDictionary
281
     1
  3
Normal
350
5
100
AcDbDictionaryWithDefault
340
5
  0
DICTIONARY
  5
1A8D
102
{ACAD_REACTORS
330
7
102
}
330
7
100
AcDbDictionary
281
     1
  3
A0
350
1A8E
  3
A1
350
1A8F
  3
A2
350
1A90
  3
A3
350
1A91
  3
A4
350
1A92
  3
A5
350
1A93
  3
A6
350
1A94
  3
A7
350
1A95
  3
A8
350
1A96
  3
A9
350
1A97
  3
B0
350
1A98
  3
B1
350
1A99
  3
B2
350
1A9A
  3
B3
350
1A9B
  3
B4
350
1A9C
  3
B5
350
1A9D
  3
B6
350
1A9E
  3
B7
350
1A9F
  3
B8
350
1AA0
  3
B9
350
1AA1
  3
C0
350
1AA2
  3
C1
350
1AA3
  3
C2
350
1AA4
  3
C3
350
1AA5
  3
C4
350
1AA6
  3
C5
350
1AA7
  3
C6
350
1AA8
  3
C7
350
1AA9
  3
C8
350
1AAA
  3
C9
350
1AAB
  3
D0
350
1AAC
  3
D1
350
1AAD
  3
D2
350
1AAE
  0
DICTIONARY
  5
231E
102
{ACAD_REACTORS
330
7
102
}
330
7
100
AcDbDictionary
281
     1
  3
Imperial24
350
231F
  0
DICTIONARY
  5
1A8B
102
{ACAD_REACTORS
330
7
102
}
330
7
100
AcDbDictionary
281
     1
  3
Standard
350
1A8C
  0
DICTIONARY
  5
1A76
102
{ACAD_REACTORS
330
7
102
}
330
7
100
AcDbDictionary
281
     1
  3
2dWireframe
350
1A7C
  3
3D Hidden
350
1A7E
  3
3dWireframe
350
1A7D
  3
Basic
350
1A7B
  3
Brighten
350
1A82
  3
ColorChange
350
1A86
  3
Conceptual
350
1A7F
  3
Dim
350
1A81
  3
EdgeColorOff
350
1A89
  3
Facepattern
350
1A85
  3
Flat
350
1A77
  3
FlatWithEdges
350
1A78
  3
Gouraud
350
1A79
  3
GouraudWithEdges
350
1A7A
  3
Hidden
350
2318
  3
JitterOff
350
1A87
  3
Linepattern
350
1A84
  3
OverhangOff
350
1A88
  3
Realistic
350
1A80
  3
Shaded
350
231D
  3
Shaded with edges
350
231C
  3
Shades of Gray
350
2319
  3
Sketchy
350
231A
  3
Thicken
350
1A83
  3
Wireframe
350
2317
  3
X-Ray
350
231B
  0
XRECORD
  5
480
102
{ACAD_REACTORS
330
7
102
}
330
7
100
AcDbXrecord
280
     1
 90
   990106
  3

 60
     0
 61
     0
 62
     1
 63
     3
 64
     1
 65
     0
 66
     0
 67
     3
 68
     1
 69
     0
 70
     0
 71
     0
 72
     0
 40
0.0
170
     2
340
0
  0
XRECORD
  5
28D9
102
{ACAD_REACTORS
330
7
102
}
330
7
100
AcDbXrecord
280
     1
 90
        1
330
1A8C
  0
DICTIONARY
  5
102
102
{ACAD_REACTORS
330
7
102
}
330
7
100
AcDbDictionary
281
     1
  3
CANNOSCALE
350
1CE1
  3
CMLEADERSTYLE
350
1CE0
  3
CTABLESTYLE
350
1CDF
  3
CVIEWDETAILSTYLE
350
23A4
  3
CVIEWSECTIONSTYLE
350
23A5
  3
DIMASSOC
350
103
  3
INDEXCTL
350
1CE3
  3
SORTENTS
350
1CE2
  3
XCLIPFRAME
350
28D7
  0
XRECORD
  5
28DA
102
{ACAD_REACTORS
330
7
102
}
330
7
100
AcDbXrecord
280
     1
  1
DWGPROPS COOKIE
  2

  3

  4

  6

  7

  8
ykitaga
  9

300
=
301
=
302
=
303
=
304
=
305
=
306
=
307
=
308
=
309
=
 40
0.4717377199
 41
2453753.372523148
 42
2459857.663275463
  1

 90
        0
  0
DICTIONARY
  5
1AB7
102
{ACAD_REACTORS
330
1AB6
102
}
330
1AB6
100
AcDbDictionary
281
     1
  0
XRECORD
  5
1C70
102
{ACAD_REACTORS
330
1C6F
102
}
330
1C6F
100
AcDbXrecord
280
     1
290
     1
  0
XRECORD
  5
1C72
102
{ACAD_REACTORS
330
1C71
102
}
330
1C71
100
AcDbXrecord
280
     1
290
     1
  0
XRECORD
  5
1C78
102
{ACAD_REACTORS
330
1C77
102
}
330
1C77
100
AcDbXrecord
280
     1
290
     1
  0
XRECORD
  5
1C7C
102
{ACAD_REACTORS
330
1C7B
102
}
330
1C7B
100
AcDbXrecord
280
     1
290
     1
  0
XRECORD
  5
1C7D
102
{ACAD_REACTORS
330
1AB4
102
}
330
1AB4
100
AcDbXrecord
280
     1
290
     1
  0
ACDBDETAILVIEWSTYLE
  5
2321
102
{ACAD_XDICTIONARY
360
2926
102
}
102
{ACAD_REACTORS
330
2320
102
}
330
2320
100
AcDbModelDocViewStyle
 70
     0
  3
Imperial24
290
     0
100
AcDbDetailViewStyle
 70
     0
 71
     0
 90
        3
 71
     1
340
16
 40
0.24
340
0
 40
0.24
300

 40
0.36
280
     3
 71
     2
340
8
 90
       25
 71
     3
340
16
 40
0.24
 90
        1
 40
0.75
 90
        1
300
%<\AcVar ViewType \f "%tc1">% %<\AcVar ViewDetailId>%\PSCALE %<\AcVar ViewScale \f "%sn">%
 71
     4
340
8
 90
       25
340
8
 90
       25
280
     0
  0
LAYOUT
  5
60
102
{ACAD_XDICTIONARY
360
1AD5
102
}
102
{ACAD_REACTORS
330
61
102
}
330
61
100
AcDbPlotSettings
  1

  2
Canon LBP-1420
  4
A4
  6

 40
5.873749733
 41
5.8737478256
 42
5.8737487793
 43
5.8737487793
 44
209.9733276367
 45
296.925994873
 46
0.0
 47
5.37
 48
0.0
 49
0.0
140
0.0
141
0.0
142
1.0
143
0.088099941
 70
 11956
 72
     1
 73
     1
 74
     1
  7
Sekkei.ctb
 75
     0
147
11.3507453947
148
-88.9740150773
149
-101.3630682339
100
AcDbLayout
  1
Model
 70
     1
 71
     0
 10
0.0
 20
0.0
 11
12.0
 21
9.0
 12
0.0
 22
0.0
 32
0.0
 14
0.0
 24
0.0
 34
0.0
 15
0.0
 25
0.0
 35
0.0
146
0.0
 13
0.0
 23
0.0
 33
0.0
 16
1.0
 26
0.0
 36
0.0
 17
0.0
 27
1.0
 37
0.0
 76
     0
330
2
331
1A5B
  0
LAYOUT
  5
28D3
102
{ACAD_XDICTIONARY
360
2938
102
}
102
{ACAD_REACTORS
330
61
102
}
330
61
100
AcDbPlotSettings
  1

  2
LBP8610
  4

  6

 40
0.0
 41
0.0
 42
0.0
 43
0.0
 44
0.0
 45
0.0
 46
0.0
 47
0.0
 48
0.0
 49
0.0
140
0.0
141
0.0
142
1.0
143
1.0
 70
   688
 72
     0
 73
     0
 74
     5
  7

 75
    16
147
1.0
148
0.0
149
0.0
100
AcDbLayout
  1
レイアウト1
 70
     1
 71
     1
 10
0.0
 20
0.0
 11
12.0
 21
9.0
 12
0.0
 22
0.0
 32
0.0
 14
0.0
 24
0.0
 34
0.0
 15
0.0
 25
0.0
 35
0.0
146
0.0
 13
0.0
 23
0.0
 33
0.0
 16
1.0
 26
0.0
 36
0.0
 17
0.0
 27
1.0
 37
0.0
 76
     0
330
28D2
  0
MATERIAL
  5
1A66
102
{ACAD_XDICTIONARY
360
1A67
102
}
102
{ACAD_REACTORS
330
1A5D
102
}
330
1A5D
100
AcDbMaterial
  1
ByBlock
 72
     0
 43
0.0208333333
 43
0.0
 43
0.0
 43
0.0
 43
0.0
 43
0.0208333333
 43
0.0
 43
0.0
 43
0.0
 43
0.0
 43
1.0
 43
0.0
 43
0.0
 43
0.0
 43
0.0
 43
1.0
 77
     0
 47
0.0208333333
 47
0.0
 47
0.0
 47
0.0
 47
0.0
 47
0.0208333333
 47
0.0
 47
0.0
 47
0.0
 47
0.0
 47
1.0
 47
0.0
 47
0.0
 47
0.0
 47
0.0
 47
1.0
171
     0
 49
0.0208333333
 49
0.0
 49
0.0
 49
0.0
 49
0.0
 49
0.0208333333
 49
0.0
 49
0.0
 49
0.0
 49
0.0
 49
1.0
 49
0.0
 49
0.0
 49
0.0
 49
0.0
 49
1.0
175
     0
142
0.0208333333
142
0.0
142
0.0
142
0.0
142
0.0
142
0.0208333333
142
0.0
142
0.0
142
0.0
142
0.0
142
1.0
142
0.0
142
0.0
142
0.0
142
0.0
142
1.0
179
     0
144
0.0208333333
144
0.0
144
0.0
144
0.0
144
0.0
144
0.0208333333
144
0.0
144
0.0
144
0.0
144
0.0
144
1.0
144
0.0
144
0.0
144
0.0
144
0.0
144
1.0
147
0.0208333333
147
0.0
147
0.0
147
0.0
147
0.0
147
0.0208333333
147
0.0
147
0.0
147
0.0
147
0.0
147
1.0
147
0.0
147
0.0
147
0.0
147
0.0
147
1.0
  0
MATERIAL
  5
1A5E
102
{ACAD_XDICTIONARY
360
1A5F
102
}
102
{ACAD_REACTORS
330
1A5D
102
}
330
1A5D
100
AcDbMaterial
  1
ByLayer
 72
     0
 43
0.0208333333
 43
0.0
 43
0.0
 43
0.0
 43
0.0
 43
0.0208333333
 43
0.0
 43
0.0
 43
0.0
 43
0.0
 43
1.0
 43
0.0
 43
0.0
 43
0.0
 43
0.0
 43
1.0
 77
     0
 47
0.0208333333
 47
0.0
 47
0.0
 47
0.0
 47
0.0
 47
0.0208333333
 47
0.0
 47
0.0
 47
0.0
 47
0.0
 47
1.0
 47
0.0
 47
0.0
 47
0.0
 47
0.0
 47
1.0
171
     0
 49
0.0208333333
 49
0.0
 49
0.0
 49
0.0
 49
0.0
 49
0.0208333333
 49
0.0
 49
0.0
 49
0.0
 49
0.0
 49
1.0
 49
0.0
 49
0.0
 49
0.0
 49
0.0
 49
1.0
175
     0
142
0.0208333333
142
0.0
142
0.0
142
0.0
142
0.0
142
0.0208333333
142
0.0
142
0.0
142
0.0
142
0.0
142
1.0
142
0.0
142
0.0
142
0.0
142
0.0
142
1.0
179
     0
144
0.0208333333
144
0.0
144
0.0
144
0.0
144
0.0
144
0.0208333333
144
0.0
144
0.0
144
0.0
144
0.0
144
1.0
144
0.0
144
0.0
144
0.0
144
0.0
144
1.0
147
0.0208333333
147
0.0
147
0.0
147
0.0
147
0.0
147
0.0208333333
147
0.0
147
0.0
147
0.0
147
0.0
147
1.0
147
0.0
147
0.0
147
0.0
147
0.0
147
1.0
  0
MATERIAL
  5
1A6E
102
{ACAD_XDICTIONARY
360
1A6F
102
}
102
{ACAD_REACTORS
330
1A5D
102
}
330
1A5D
100
AcDbMaterial
  1
Global
 72
     0
 43
0.0208333333
 43
0.0
 43
0.0
 43
0.0
 43
0.0
 43
0.0208333333
 43
0.0
 43
0.0
 43
0.0
 43
0.0
 43
1.0
 43
0.0
 43
0.0
 43
0.0
 43
0.0
 43
1.0
 77
     0
 47
0.0208333333
 47
0.0
 47
0.0
 47
0.0
 47
0.0
 47
0.0208333333
 47
0.0
 47
0.0
 47
0.0
 47
0.0
 47
1.0
 47
0.0
 47
0.0
 47
0.0
 47
0.0
 47
1.0
171
     0
 49
0.0208333333
 49
0.0
 49
0.0
 49
0.0
 49
0.0
 49
0.0208333333
 49
0.0
 49
0.0
 49
0.0
 49
0.0
 49
1.0
 49
0.0
 49
0.0
 49
0.0
 49
0.0
 49
1.0
175
     0
142
0.0208333333
142
0.0
142
0.0
142
0.0
142
0.0
142
0.0208333333
142
0.0
142
0.0
142
0.0
142
0.0
142
1.0
142
0.0
142
0.0
142
0.0
142
0.0
142
1.0
179
     0
144
0.0208333333
144
0.0
144
0.0
144
0.0
144
0.0
144
0.0208333333
144
0.0
144
0.0
144
0.0
144
0.0
144
1.0
144
0.0
144
0.0
144
0.0
144
0.0
144
1.0
147
0.0208333333
147
0.0
147
0.0
147
0.0
147
0.0
147
0.0208333333
147
0.0
147
0.0
147
0.0
147
0.0
147
1.0
147
0.0
147
0.0
147
0.0
147
0.0
147
1.0
  0
MLEADERSTYLE
  5
1AB0
102
{ACAD_REACTORS
330
1AAF
102
}
330
1AAF
100
AcDbMLeaderStyle
170
     2
171
     1
172
     0
 90
        2
 40
0.0
 41
0.0
173
     1
 91
-1056964608
340
6A
 92
       -2
290
     1
 42
0.09
291
     1
 43
0.36
  3
Standard
 44
0.18
300

342
16
174
     1
178
     6
175
     1
176
     0
 93
-1056964608
 45
0.18
292
     0
297
     0
 46
0.18
 94
-1056964608
 47
1.0
 49
1.0
140
1.0
293
     1
141
0.0
294
     1
177
     0
142
1.0
295
     0
296
     0
143
0.125
1001
ACAD_MLEADERVER
1070
     2
  0
MLINESTYLE
  5
78
102
{ACAD_REACTORS
330
76
102
}
330
76
100
AcDbMlineStyle
  2
STANDARD
 70
     0
  3

 62
     0
 51
90.0
 52
90.0
 71
     2
 49
0.5
 62
   256
  6
BYLAYER
 49
-0.5
 62
   256
  6
BYLAYER
  0
ACDBPLACEHOLDER
  5
5
102
{ACAD_REACTORS
330
6
102
}
330
6
  0
SCALE
  5
1A8E
102
{ACAD_REACTORS
330
1A8D
102
}
330
1A8D
100
AcDbScale
 70
     0
300
1:1
140
1.0
141
1.0
290
     1
  0
SCALE
  5
1A8F
102
{ACAD_REACTORS
330
1A8D
102
}
330
1A8D
100
AcDbScale
 70
     0
300
1:2
140
1.0
141
2.0
290
     0
  0
SCALE
  5
1A90
102
{ACAD_REACTORS
330
1A8D
102
}
330
1A8D
100
AcDbScale
 70
     0
300
1:4
140
1.0
141
4.0
290
     0
  0
SCALE
  5
1A91
102
{ACAD_REACTORS
330
1A8D
102
}
330
1A8D
100
AcDbScale
 70
     0
300
1:5
140
1.0
141
5.0
290
     0
  0
SCALE
  5
1A92
102
{ACAD_REACTORS
330
1A8D
102
}
330
1A8D
100
AcDbScale
 70
     0
300
1:8
140
1.0
141
8.0
290
     0
  0
SCALE
  5
1A93
102
{ACAD_REACTORS
330
1A8D
102
}
330
1A8D
100
AcDbScale
 70
     0
300
1:10
140
1.0
141
10.0
290
     0
  0
SCALE
  5
1A94
102
{ACAD_REACTORS
330
1A8D
102
}
330
1A8D
100
AcDbScale
 70
     0
300
1:16
140
1.0
141
16.0
290
     0
  0
SCALE
  5
1A95
102
{ACAD_REACTORS
330
1A8D
102
}
330
1A8D
100
AcDbScale
 70
     0
300
1:20
140
1.0
141
20.0
290
     0
  0
SCALE
  5
1A96
102
{ACAD_REACTORS
330
1A8D
102
}
330
1A8D
100
AcDbScale
 70
     0
300
1:30
140
1.0
141
30.0
290
     0
  0
SCALE
  5
1A97
102
{ACAD_REACTORS
330
1A8D
102
}
330
1A8D
100
AcDbScale
 70
     0
300
1:40
140
1.0
141
40.0
290
     0
  0
SCALE
  5
1A98
102
{ACAD_REACTORS
330
1A8D
102
}
330
1A8D
100
AcDbScale
 70
     0
300
1:50
140
1.0
141
50.0
290
     0
  0
SCALE
  5
1A99
102
{ACAD_REACTORS
330
1A8D
102
}
330
1A8D
100
AcDbScale
 70
     0
300
1:100
140
1.0
141
100.0
290
     0
  0
SCALE
  5
1A9A
102
{ACAD_REACTORS
330
1A8D
102
}
330
1A8D
100
AcDbScale
 70
     0
300
2:1
140
2.0
141
1.0
290
     0
  0
SCALE
  5
1A9B
102
{ACAD_REACTORS
330
1A8D
102
}
330
1A8D
100
AcDbScale
 70
     0
300
4:1
140
4.0
141
1.0
290
     0
  0
SCALE
  5
1A9C
102
{ACAD_REACTORS
330
1A8D
102
}
330
1A8D
100
AcDbScale
 70
     0
300
8:1
140
8.0
141
1.0
290
     0
  0
SCALE
  5
1A9D
102
{ACAD_REACTORS
330
1A8D
102
}
330
1A8D
100
AcDbScale
 70
     0
300
10:1
140
10.0
141
1.0
290
     0
  0
SCALE
  5
1A9E
102
{ACAD_REACTORS
330
1A8D
102
}
330
1A8D
100
AcDbScale
 70
     0
300
100:1
140
100.0
141
1.0
290
     0
  0
SCALE
  5
1A9F
102
{ACAD_REACTORS
330
1A8D
102
}
330
1A8D
100
AcDbScale
 70
     0
300
1/128" = 1'-0"
140
0.0078125
141
12.0
290
     0
  0
SCALE
  5
1AA0
102
{ACAD_REACTORS
330
1A8D
102
}
330
1A8D
100
AcDbScale
 70
     0
300
1/64" = 1'-0"
140
0.015625
141
12.0
290
     0
  0
SCALE
  5
1AA1
102
{ACAD_REACTORS
330
1A8D
102
}
330
1A8D
100
AcDbScale
 70
     0
300
1/32" = 1'-0"
140
0.03125
141
12.0
290
     0
  0
SCALE
  5
1AA2
102
{ACAD_REACTORS
330
1A8D
102
}
330
1A8D
100
AcDbScale
 70
     0
300
1/16" = 1'-0"
140
0.0625
141
12.0
290
     0
  0
SCALE
  5
1AA3
102
{ACAD_REACTORS
330
1A8D
102
}
330
1A8D
100
AcDbScale
 70
     0
300
3/32" = 1'-0"
140
0.09375
141
12.0
290
     0
  0
SCALE
  5
1AA4
102
{ACAD_REACTORS
330
1A8D
102
}
330
1A8D
100
AcDbScale
 70
     0
300
1/8" = 1'-0"
140
0.125
141
12.0
290
     0
  0
SCALE
  5
1AA5
102
{ACAD_REACTORS
330
1A8D
102
}
330
1A8D
100
AcDbScale
 70
     0
300
3/16" = 1'-0"
140
0.1875
141
12.0
290
     0
  0
SCALE
  5
1AA6
102
{ACAD_REACTORS
330
1A8D
102
}
330
1A8D
100
AcDbScale
 70
     0
300
1/4" = 1'-0"
140
0.25
141
12.0
290
     0
  0
SCALE
  5
1AA7
102
{ACAD_REACTORS
330
1A8D
102
}
330
1A8D
100
AcDbScale
 70
     0
300
3/8" = 1'-0"
140
0.375
141
12.0
290
     0
  0
SCALE
  5
1AA8
102
{ACAD_REACTORS
330
1A8D
102
}
330
1A8D
100
AcDbScale
 70
     0
300
1/2" = 1'-0"
140
0.5
141
12.0
290
     0
  0
SCALE
  5
1AA9
102
{ACAD_REACTORS
330
1A8D
102
}
330
1A8D
100
AcDbScale
 70
     0
300
3/4" = 1'-0"
140
0.75
141
12.0
290
     0
  0
SCALE
  5
1AAA
102
{ACAD_REACTORS
330
1A8D
102
}
330
1A8D
100
AcDbScale
 70
     0
300
1" = 1'-0"
140
1.0
141
12.0
290
     0
  0
SCALE
  5
1AAB
102
{ACAD_REACTORS
330
1A8D
102
}
330
1A8D
100
AcDbScale
 70
     0
300
1-1/2" = 1'-0"
140
1.5
141
12.0
290
     0
  0
SCALE
  5
1AAC
102
{ACAD_REACTORS
330
1A8D
102
}
330
1A8D
100
AcDbScale
 70
     0
300
3" = 1'-0"
140
3.0
141
12.0
290
     0
  0
SCALE
  5
1AAD
102
{ACAD_REACTORS
330
1A8D
102
}
330
1A8D
100
AcDbScale
 70
     0
300
6" = 1'-0"
140
6.0
141
12.0
290
     0
  0
SCALE
  5
1AAE
102
{ACAD_REACTORS
330
1A8D
102
}
330
1A8D
100
AcDbScale
 70
     0
300
1'-0" = 1'-0"
140
12.0
141
12.0
290
     0
  0
ACDBSECTIONVIEWSTYLE
  5
231F
102
{ACAD_XDICTIONARY
360
2924
102
}
102
{ACAD_REACTORS
330
231E
102
}
330
231E
100
AcDbModelDocViewStyle
 70
     0
  3
Imperial24
290
     0
100
AcDbSectionViewStyle
 70
     0
 71
     0
 90
       78
 71
     1
340
16
 40
0.24
340
0
340
0
 40
0.24
300
I, O, Q, S, X, Z
 40
0.48
 90
        3
 40
0.18
 90
        1
 71
     2
340
8
 90
       25
340
8
 90
       50
 40
0.24
 40
0.0
 40
0.24
 71
     3
340
16
 40
0.24
 90
        1
 40
0.75
 90
        1
300
%<\AcVar ViewType \f "%tc1">% %<\AcVar ViewSectionStartId>%-%<\AcVar ViewSectionEndId>%\PSCALE %<\AcVar ViewScale \f "%sn">%
 71
     4
300
ANSI31
 40
1.0
 90
        0
290
     0
290
     0
 90
        6
 40
0.0
 40
1.5707963268
 40
0.2617993878
 40
1.308996939
 40
-0.2617993878
 40
1.8325957146
  0
TABLESTYLE
  5
1A8C
102
{ACAD_XDICTIONARY
360
1C7E
102
}
102
{ACAD_REACTORS
330
1A8B
102
}
330
1A8B
100
AcDbTableStyle
  3
Standard
 70
     0
 71
     0
 40
0.06
 41
0.06
280
     0
281
     0
  7
STANDARD
140
0.18
170
     2
 62
     0
 63
     7
283
     0
274
    -2
284
     1
 64
     0
275
    -2
285
     1
 65
     0
276
    -2
286
     1
 66
     0
277
    -2
287
     1
 67
     0
278
    -2
288
     1
 68
     0
279
    -2
289
     1
 69
     0
  7
STANDARD
140
0.25
170
     5
 62
     0
 63
     7
283
     0
274
    -2
284
     1
 64
     0
275
    -2
285
     1
 65
     0
276
    -2
286
     1
 66
     0
277
    -2
287
     1
 67
     0
278
    -2
288
     1
 68
     0
279
    -2
289
     1
 69
     0
  7
STANDARD
140
0.18
170
     5
 62
     0
 63
     7
283
     0
274
    -2
284
     1
 64
     0
275
    -2
285
     1
 65
     0
276
    -2
286
     1
 66
     0
277
    -2
287
     1
 67
     0
278
    -2
288
     1
 68
     0
279
    -2
289
     1
 69
     0
  0
VISUALSTYLE
  5
1A7C
102
{ACAD_XDICTIONARY
360
28E9
102
}
102
{ACAD_REACTORS
330
1A76
102
}
330
1A76
100
AcDbVisualStyle
  2
2dWireframe
 70
     4
 71
     0
 72
     2
 73
     0
 90
        0
 40
-0.6
 41
-30.0
 62
     5
 63
     7
 74
     1
 91
        4
 64
     7
 65
   257
 75
     1
175
     1
 42
1.0
 92
        0
 66
   257
 43
1.0
 76
     1
 77
     6
 78
     2
 67
     7
 79
     5
170
     0
171
     0
290
     0
174
     0
 93
        1
 44
0.0
173
     0
291
     0
 45
0.0
1001
ACAD
1000
AcDbSavedByObjectVersion
1070
     0
  0
VISUALSTYLE
  5
1A7E
102
{ACAD_XDICTIONARY
360
28ED
102
}
102
{ACAD_REACTORS
330
1A76
102
}
330
1A76
100
AcDbVisualStyle
  2
3D Hidden
 70
     6
 71
     1
 72
     2
 73
     2
 90
        0
 40
-0.6
 41
-30.0
 62
     5
 63
     7
 74
     2
 91
        2
 64
     7
 65
   257
 75
     2
175
     1
 42
179.0
 92
        0
 66
   257
 43
1.0
 76
     1
 77
     6
 78
     2
 67
     7
 79
     3
170
     0
171
     0
290
     0
174
     0
 93
        1
 44
0.0
173
     0
291
     0
 45
0.0
1001
ACAD
1000
AcDbSavedByObjectVersion
1070
     0
  0
VISUALSTYLE
  5
1A7D
102
{ACAD_XDICTIONARY
360
28EB
102
}
102
{ACAD_REACTORS
330
1A76
102
}
330
1A76
100
AcDbVisualStyle
  2
3dWireframe
 70
     5
 71
     0
 72
     2
 73
     0
 90
        0
 40
-0.6
 41
-30.0
 62
     5
 63
     7
 74
     1
 91
        4
 64
     7
 65
   257
 75
     1
175
     1
 42
1.0
 92
        0
 66
   257
 43
1.0
 76
     1
 77
     6
 78
     2
 67
     7
 79
     5
170
     0
171
     0
290
     0
174
     0
 93
        1
 44
0.0
173
     0
291
     0
 45
0.0
1001
ACAD
1000
AcDbSavedByObjectVersion
1070
     0
  0
VISUALSTYLE
  5
1A7B
102
{ACAD_XDICTIONARY
360
28E7
102
}
102
{ACAD_REACTORS
330
1A76
102
}
330
1A76
100
AcDbVisualStyle
  2
Basic
 70
     7
 71
     1
 72
     0
 73
     1
 90
        0
 40
-0.6
 41
-30.0
 62
     5
 63
     7
 74
     0
 91
        4
 64
     7
 65
   257
 75
     1
175
     1
 42
1.0
 92
        8
 66
     7
 43
1.0
 76
     1
 77
     6
 78
     2
 67
     7
 79
     5
170
     0
171
     0
290
     0
174
     0
 93
        1
 44
0.0
173
     0
291
     1
 45
0.0
1001
ACAD
1000
AcDbSavedByObjectVersion
1070
     0
  0
VISUALSTYLE
  5
1A82
102
{ACAD_XDICTIONARY
360
28F5
102
}
102
{ACAD_REACTORS
330
1A76
102
}
330
1A76
100
AcDbVisualStyle
  2
Brighten
 70
    12
 71
     2
 72
     2
 73
     0
 90
        0
 40
-0.6
 41
-30.0
 62
     5
 63
     7
 74
     1
 91
        4
 64
     7
 65
   257
 75
     1
175
     1
 42
1.0
 92
        8
 66
     7
 43
1.0
 76
     1
 77
     6
 78
     2
 67
     7
 79
     5
170
     0
171
     0
290
     0
174
     0
 93
        1
 44
50.0
173
     0
291
     1
 45
0.0
1001
ACAD
1000
AcDbSavedByObjectVersion
1070
     0
  0
VISUALSTYLE
  5
1A86
102
{ACAD_XDICTIONARY
360
28FD
102
}
102
{ACAD_REACTORS
330
1A76
102
}
330
1A76
100
AcDbVisualStyle
  2
ColorChange
 70
    16
 71
     2
 72
     2
 73
     3
 90
        0
 40
-0.6
 41
-30.0
 62
     5
 63
     8
 74
     1
 91
        4
 64
     7
 65
   257
 75
     1
175
     1
 42
1.0
 92
        8
 66
     8
 43
1.0
 76
     1
 77
     6
 78
     2
 67
     7
 79
     5
170
     0
171
     0
290
     0
174
     0
 93
        1
 44
0.0
173
     0
291
     1
 45
0.0
1001
ACAD
1000
AcDbSavedByObjectVersion
1070
     0
  0
VISUALSTYLE
  5
1A7F
102
{ACAD_XDICTIONARY
360
28EF
102
}
102
{ACAD_REACTORS
330
1A76
102
}
330
1A76
100
AcDbVisualStyle
  2
Conceptual
 70
     9
 71
     3
 72
     2
 73
     0
 90
        0
 40
-0.6
 41
-30.0
 62
     5
 63
     7
 74
     2
 91
        2
 64
     7
 65
   257
 75
     1
175
     1
 42
179.0
 92
        8
 66
     7
 43
1.0
 76
     1
 77
     6
 78
     2
 67
     7
 79
     3
170
     0
171
     0
290
     0
174
     0
 93
        1
 44
0.0
173
     0
291
     0
 45
0.0
1001
ACAD
1000
AcDbSavedByObjectVersion
1070
     0
  0
VISUALSTYLE
  5
1A81
102
{ACAD_XDICTIONARY
360
28F3
102
}
102
{ACAD_REACTORS
330
1A76
102
}
330
1A76
100
AcDbVisualStyle
  2
Dim
 70
    11
 71
     2
 72
     2
 73
     0
 90
        0
 40
-0.6
 41
-30.0
 62
     5
 63
     7
 74
     1
 91
        4
 64
     7
 65
   257
 75
     1
175
     1
 42
1.0
 92
        8
 66
     7
 43
1.0
 76
     1
 77
     6
 78
     2
 67
     7
 79
     5
170
     0
171
     0
290
     0
174
     0
 93
        1
 44
-50.0
173
     0
291
     1
 45
0.0
1001
ACAD
1000
AcDbSavedByObjectVersion
1070
     0
  0
VISUALSTYLE
  5
1A89
102
{ACAD_XDICTIONARY
360
2903
102
}
102
{ACAD_REACTORS
330
1A76
102
}
330
1A76
100
AcDbVisualStyle
  2
EdgeColorOff
 70
    22
 71
     2
 72
     2
 73
     0
 90
        0
 40
-0.6
 41
-30.0
 62
     5
 63
     7
 74
     1
 91
        4
 64
     7
 65
   257
 75
     1
175
     1
 42
1.0
 92
        8
 66
     7
 43
1.0
 76
     1
 77
     6
 78
     2
 67
     7
 79
     5
170
     0
171
     0
290
     0
174
     0
 93
        1
 44
0.0
173
     0
291
     1
 45
0.0
1001
ACAD
1000
AcDbSavedByObjectVersion
1070
     0
  0
VISUALSTYLE
  5
1A85
102
{ACAD_XDICTIONARY
360
28FB
102
}
102
{ACAD_REACTORS
330
1A76
102
}
330
1A76
100
AcDbVisualStyle
  2
Facepattern
 70
    15
 71
     2
 72
     2
 73
     0
 90
        0
 40
-0.6
 41
-30.0
 62
     5
 63
     7
 74
     1
 91
        4
 64
     7
 65
   257
 75
     1
175
     1
 42
1.0
 92
        8
 66
     7
 43
1.0
 76
     1
 77
     6
 78
     2
 67
     7
 79
     5
170
     0
171
     0
290
     0
174
     0
 93
        1
 44
0.0
173
     0
291
     1
 45
0.0
1001
ACAD
1000
AcDbSavedByObjectVersion
1070
     0
  0
VISUALSTYLE
  5
1A77
102
{ACAD_XDICTIONARY
360
28DF
102
}
102
{ACAD_REACTORS
330
1A76
102
}
330
1A76
100
AcDbVisualStyle
  2
Flat
 70
     0
 71
     2
 72
     1
 73
     1
 90
        2
 40
-0.6
 41
30.0
 62
     5
 63
     7
 74
     0
 91
        4
 64
     7
 65
   257
 75
     1
175
     1
 42
1.0
 92
        8
 66
     7
 43
1.0
 76
     1
 77
     6
 78
     2
 67
     7
 79
     5
170
     0
171
     0
290
     0
174
     0
 93
       13
 44
0.0
173
     0
291
     1
 45
0.0
1001
ACAD
1000
AcDbSavedByObjectVersion
1070
     0
  0
VISUALSTYLE
  5
1A78
102
{ACAD_XDICTIONARY
360
28E1
102
}
102
{ACAD_REACTORS
330
1A76
102
}
330
1A76
100
AcDbVisualStyle
  2
FlatWithEdges
 70
     1
 71
     2
 72
     1
 73
     1
 90
        2
 40
-0.6
 41
30.0
 62
     5
 63
     7
 74
     1
 91
        4
 64
     7
 65
   257
 75
     1
175
     1
 42
1.0
 92
        0
 66
   257
 43
1.0
 76
     1
 77
     6
 78
     2
 67
     7
 79
     5
170
     0
171
     0
290
     0
174
     0
 93
       13
 44
0.0
173
     0
291
     1
 45
0.0
1001
ACAD
1000
AcDbSavedByObjectVersion
1070
     0
  0
VISUALSTYLE
  5
1A79
102
{ACAD_XDICTIONARY
360
28E3
102
}
102
{ACAD_REACTORS
330
1A76
102
}
330
1A76
100
AcDbVisualStyle
  2
Gouraud
 70
     2
 71
     2
 72
     2
 73
     1
 90
        2
 40
-0.6
 41
30.0
 62
     5
 63
     7
 74
     0
 91
        4
 64
     7
 65
   257
 75
     1
175
     1
 42
1.0
 92
        0
 66
     7
 43
1.0
 76
     1
 77
     6
 78
     2
 67
     7
 79
     5
170
     0
171
     0
290
     0
174
     0
 93
       13
 44
0.0
173
     0
291
     1
 45
0.0
1001
ACAD
1000
AcDbSavedByObjectVersion
1070
     0
  0
VISUALSTYLE
  5
1A7A
102
{ACAD_XDICTIONARY
360
28E5
102
}
102
{ACAD_REACTORS
330
1A76
102
}
330
1A76
100
AcDbVisualStyle
  2
GouraudWithEdges
 70
     3
 71
     2
 72
     2
 73
     1
 90
        2
 40
-0.6
 41
30.0
 62
     5
 63
     7
 74
     1
 91
        4
 64
     7
 65
   257
 75
     1
175
     1
 42
1.0
 92
        0
 66
   257
 43
1.0
 76
     1
 77
     6
 78
     2
 67
     7
 79
     5
170
     0
171
     0
290
     0
174
     0
 93
       13
 44
0.0
173
     0
291
     1
 45
0.0
1001
ACAD
1000
AcDbSavedByObjectVersion
1070
     0
  0
VISUALSTYLE
  5
2318
102
{ACAD_XDICTIONARY
360
2918
102
}
102
{ACAD_REACTORS
330
1A76
102
}
330
1A76
100
AcDbVisualStyle
  2
Hidden
 70
     6
 71
     1
 72
     2
 73
     2
 90
        0
 40
-0.6
 41
-30.0
 62
     5
 63
     7
 74
     2
 91
        2
 64
     7
 65
   257
 75
     2
175
     1
 42
40.0
 92
        0
 66
   257
 43
1.0
 76
     1
 77
     6
 78
     2
 67
     7
 79
     3
170
     0
171
     0
290
     0
174
     0
 93
        1
 44
0.0
173
     0
291
     0
 45
0.0
1001
ACAD
1000
AcDbSavedByObjectVersion
1070
     0
  0
VISUALSTYLE
  5
1A87
102
{ACAD_XDICTIONARY
360
28FF
102
}
102
{ACAD_REACTORS
330
1A76
102
}
330
1A76
100
AcDbVisualStyle
  2
JitterOff
 70
    20
 71
     2
 72
     2
 73
     0
 90
        0
 40
-0.6
 41
-30.0
 62
     5
 63
     7
 74
     1
 91
        4
 64
     7
 65
   257
 75
     1
175
     1
 42
1.0
 92
       10
 66
     7
 43
1.0
 76
     1
 77
     6
 78
     2
 67
     7
 79
     5
170
     0
171
     0
290
     0
174
     0
 93
        1
 44
0.0
173
     0
291
     1
 45
0.0
1001
ACAD
1000
AcDbSavedByObjectVersion
1070
     0
  0
VISUALSTYLE
  5
1A84
102
{ACAD_XDICTIONARY
360
28F9
102
}
102
{ACAD_REACTORS
330
1A76
102
}
330
1A76
100
AcDbVisualStyle
  2
Linepattern
 70
    14
 71
     2
 72
     2
 73
     0
 90
        0
 40
-0.6
 41
-30.0
 62
     5
 63
     7
 74
     1
 91
        4
 64
     7
 65
   257
 75
     7
175
     7
 42
1.0
 92
        8
 66
     7
 43
1.0
 76
     1
 77
     6
 78
     2
 67
     7
 79
     5
170
     0
171
     0
290
     0
174
     0
 93
        1
 44
0.0
173
     0
291
     1
 45
0.0
1001
ACAD
1000
AcDbSavedByObjectVersion
1070
     0
  0
VISUALSTYLE
  5
1A88
102
{ACAD_XDICTIONARY
360
2901
102
}
102
{ACAD_REACTORS
330
1A76
102
}
330
1A76
100
AcDbVisualStyle
  2
OverhangOff
 70
    21
 71
     2
 72
     2
 73
     0
 90
        0
 40
-0.6
 41
-30.0
 62
     5
 63
     7
 74
     1
 91
        4
 64
     7
 65
   257
 75
     1
175
     1
 42
1.0
 92
        9
 66
     7
 43
1.0
 76
     1
 77
     6
 78
     2
 67
     7
 79
     5
170
     0
171
     0
290
     0
174
     0
 93
        1
 44
0.0
173
     0
291
     1
 45
0.0
1001
ACAD
1000
AcDbSavedByObjectVersion
1070
     0
  0
VISUALSTYLE
  5
1A80
102
{ACAD_XDICTIONARY
360
28F1
102
}
102
{ACAD_REACTORS
330
1A76
102
}
330
1A76
100
AcDbVisualStyle
  2
Realistic
 70
     8
 71
     2
 72
     2
 73
     0
 90
        0
 40
-0.6
 41
-30.0
 62
     5
 63
     7
 74
     1
 91
        0
 64
     7
 65
   257
 75
     1
175
     1
 42
1.0
 92
        8
 66
     8
 43
1.0
 76
     1
 77
     6
 78
     2
 67
     7
 79
     5
170
     0
171
     0
290
     0
174
     0
 93
       13
 44
0.0
173
     0
291
     0
 45
0.0
1001
ACAD
1000
AcDbSavedByObjectVersion
1070
     0
  0
VISUALSTYLE
  5
231D
102
{ACAD_XDICTIONARY
360
2922
102
}
102
{ACAD_REACTORS
330
1A76
102
}
330
1A76
100
AcDbVisualStyle
  2
Shaded
 70
    27
 71
     2
 72
     2
 73
     1
 90
        2
 40
-0.6
 41
30.0
 62
     5
 63
     7
 74
     0
 91
        4
 64
     7
 65
   257
 75
     1
175
     1
 42
1.0
 92
        8
 66
   257
 43
1.0
 76
     1
 77
     6
 78
     2
 67
     8
 79
     3
170
     0
171
     0
290
     0
174
     0
 93
        5
 44
0.0
173
     0
291
     0
 45
0.0
1001
ACAD
1000
AcDbSavedByObjectVersion
1070
     0
  0
VISUALSTYLE
  5
231C
102
{ACAD_XDICTIONARY
360
2920
102
}
102
{ACAD_REACTORS
330
1A76
102
}
330
1A76
100
AcDbVisualStyle
  2
Shaded with edges
 70
    26
 71
     2
 72
     2
 73
     1
 90
        2
 40
-0.6
 41
30.0
 62
     5
 63
     7
 74
     1
 91
        2
 64
     7
 65
   257
 75
     2
175
     1
 42
1.0
 92
        8
 66
   257
 43
1.0
 76
     1
 77
     6
 78
     2
 67
     7
 79
     3
170
     0
171
     0
290
     0
174
     0
 93
        5
 44
0.0
173
     0
291
     0
 45
0.0
1001
ACAD
1000
AcDbSavedByObjectVersion
1070
     0
  0
VISUALSTYLE
  5
2319
102
{ACAD_XDICTIONARY
360
291A
102
}
102
{ACAD_REACTORS
330
1A76
102
}
330
1A76
100
AcDbVisualStyle
  2
Shades of Gray
 70
    23
 71
     2
 72
     2
 73
     3
 90
        0
 40
-0.6
 41
-30.0
 62
     5
 63
     7
 74
     2
 91
        2
 64
     7
 65
     7
 75
     1
175
     1
 42
40.0
 92
        8
 66
     7
 43
1.0
 76
     1
 77
     6
 78
     2
 67
     7
 79
     3
170
     0
171
     0
290
     0
174
     0
 93
        1
 44
0.0
173
     0
291
     0
 45
0.0
1001
ACAD
1000
AcDbSavedByObjectVersion
1070
     0
  0
VISUALSTYLE
  5
231A
102
{ACAD_XDICTIONARY
360
291C
102
}
102
{ACAD_REACTORS
330
1A76
102
}
330
1A76
100
AcDbVisualStyle
  2
Sketchy
 70
    24
 71
     1
 72
     2
 73
     2
 90
        0
 40
-0.6
 41
-30.0
 62
     5
 63
     7
 74
     2
 91
        2
 64
     7
 65
     7
 75
     1
175
     1
 42
40.0
 92
       11
 66
     7
 43
1.0
 76
     1
 77
     6
 78
     2
 67
     7
 79
     6
170
     0
171
     0
290
     0
174
     0
 93
        1
 44
0.0
173
     0
291
     0
 45
0.0
1001
ACAD
1000
AcDbSavedByObjectVersion
1070
     0
  0
VISUALSTYLE
  5
1A83
102
{ACAD_XDICTIONARY
360
28F7
102
}
102
{ACAD_REACTORS
330
1A76
102
}
330
1A76
100
AcDbVisualStyle
  2
Thicken
 70
    13
 71
     2
 72
     2
 73
     0
 90
        0
 40
-0.6
 41
-30.0
 62
     5
 63
     7
 74
     1
 91
        4
 64
     7
 65
   257
 75
     1
175
     1
 42
1.0
 92
       12
 66
     7
 43
1.0
 76
     1
 77
     6
 78
     2
 67
     7
 79
     5
170
     0
171
     0
290
     0
174
     0
 93
        1
 44
0.0
173
     0
291
     1
 45
0.0
1001
ACAD
1000
AcDbSavedByObjectVersion
1070
     0
  0
VISUALSTYLE
  5
2317
102
{ACAD_XDICTIONARY
360
2916
102
}
102
{ACAD_REACTORS
330
1A76
102
}
330
1A76
100
AcDbVisualStyle
  2
Wireframe
 70
     5
 71
     0
 72
     2
 73
     0
 90
        0
 40
-0.6
 41
-30.0
 62
     5
 63
     7
 74
     1
 91
        4
 64
     7
 65
   257
 75
     1
175
     1
 42
1.0
 92
        0
 66
   257
 43
1.0
 76
     1
 77
     6
 78
     2
 67
     7
 79
     3
170
     0
171
     0
290
     0
174
     0
 93
        1
 44
0.0
173
     0
291
     0
 45
0.0
1001
ACAD
1000
AcDbSavedByObjectVersion
1070
     0
  0
VISUALSTYLE
  5
231B
102
{ACAD_XDICTIONARY
360
291E
102
}
102
{ACAD_REACTORS
330
1A76
102
}
330
1A76
100
AcDbVisualStyle
  2
X-Ray
 70
    25
 71
     2
 72
     2
 73
     1
 90
        1
 40
0.5
 41
-30.0
 62
     5
 63
     7
 74
     1
 91
        0
 64
     7
 65
   257
 75
     1
175
     1
 42
1.0
 92
        8
 66
     7
 43
1.0
 76
     1
 77
     6
 78
     2
 67
     7
 79
     3
170
     0
171
     0
290
     0
174
     0
 93
       13
 44
0.0
173
     0
291
     0
 45
0.0
1001
ACAD
1000
AcDbSavedByObjectVersion
1070
     0
  0
DICTIONARYVAR
  5
1CE1
102
{ACAD_REACTORS
330
102
102
}
330
102
100
DictionaryVariables
280
     0
  1
1:1
  0
DICTIONARYVAR
  5
1CE0
102
{ACAD_REACTORS
330
102
102
}
330
102
100
DictionaryVariables
280
     0
  1
STANDARD
  0
DICTIONARYVAR
  5
1CDF
102
{ACAD_REACTORS
330
102
102
}
330
102
100
DictionaryVariables
280
     0
  1
STANDARD
  0
DICTIONARYVAR
  5
23A4
102
{ACAD_REACTORS
330
102
102
}
330
102
100
DictionaryVariables
280
     0
  1
Imperial24
  0
DICTIONARYVAR
  5
23A5
102
{ACAD_REACTORS
330
102
102
}
330
102
100
DictionaryVariables
280
     0
  1
Imperial24
  0
DICTIONARYVAR
  5
103
102
{ACAD_REACTORS
330
102
102
}
330
102
100
DictionaryVariables
280
     0
  1
1
  0
DICTIONARYVAR
  5
1CE3
102
{ACAD_REACTORS
330
102
102
}
330
102
100
DictionaryVariables
280
     0
  1
0
  0
DICTIONARYVAR
  5
1CE2
102
{ACAD_REACTORS
330
102
102
}
330
102
100
DictionaryVariables
280
     0
  1
127
  0
DICTIONARYVAR
  5
28D7
102
{ACAD_REACTORS
330
102
102
}
330
102
100
DictionaryVariables
280
     0
  1
2
  0
DICTIONARY
  5
2926
330
2321
100
AcDbDictionary
280
     1
281
     1
  3
ACAD_XREC_ROUNDTRIP
360
2927
  0
DICTIONARY
  5
1AD5
330
60
100
AcDbDictionary
280
     1
281
     1
  3
ACAD_XREC_ROUNDTRIP
360
28DB
  3
ADSK_XREC_LAYOUTTHUMBNAIL
360
1AD6
  0
DICTIONARY
  5
2938
330
28D3
100
AcDbDictionary
280
     1
281
     1
  3
ACAD_XREC_ROUNDTRIP
360
2939
  0
DICTIONARY
  5
1A67
330
1A66
100
AcDbDictionary
280
     1
281
     1
  3
ACAD_XREC_ROUNDTRIP
360
28DD
  3
BUMPTILE
360
1A69
  3
DIFFUSETILE
360
1A68
  3
OPACITYTILE
360
1A6C
  3
REFLECTIONTILE
360
1A6B
  3
REFRACTIONTILE
360
1A6D
  3
SPECULARTILE
360
1A6A
  0
DICTIONARY
  5
1A5F
330
1A5E
100
AcDbDictionary
280
     1
281
     1
  3
ACAD_XREC_ROUNDTRIP
360
28DC
  3
BUMPTILE
360
1A61
  3
DIFFUSETILE
360
1A60
  3
OPACITYTILE
360
1A64
  3
REFLECTIONTILE
360
1A63
  3
REFRACTIONTILE
360
1A65
  3
SPECULARTILE
360
1A62
  0
DICTIONARY
  5
1A6F
330
1A6E
100
AcDbDictionary
280
     1
281
     1
  3
ACAD_XREC_ROUNDTRIP
360
28DE
  3
BUMPTILE
360
1A71
  3
DIFFUSETILE
360
1A70
  3
OPACITYTILE
360
1A74
  3
REFLECTIONTILE
360
1A73
  3
REFRACTIONTILE
360
1A75
  3
SPECULARTILE
360
1A72
  0
DICTIONARY
  5
2924
330
231F
100
AcDbDictionary
280
     1
281
     1
  3
ACAD_XREC_ROUNDTRIP
360
2925
  0
DICTIONARY
  5
1C7E
330
1A8C
100
AcDbDictionary
280
     1
281
     1
  3
ACAD_ROUNDTRIP_2008_TABLESTYLE_CELLSTYLEMAP
360
28D8
  3
ACAD_XREC_ROUNDTRIP
360
2905
  0
DICTIONARY
  5
28E9
330
1A7C
100
AcDbDictionary
280
     1
281
     1
  3
ACAD_XREC_ROUNDTRIP
360
28EA
  0
DICTIONARY
  5
28ED
330
1A7E
100
AcDbDictionary
280
     1
281
     1
  3
ACAD_XREC_ROUNDTRIP
360
28EE
  0
DICTIONARY
  5
28EB
330
1A7D
100
AcDbDictionary
280
     1
281
     1
  3
ACAD_XREC_ROUNDTRIP
360
28EC
  0
DICTIONARY
  5
28E7
330
1A7B
100
AcDbDictionary
280
     1
281
     1
  3
ACAD_XREC_ROUNDTRIP
360
28E8
  0
DICTIONARY
  5
28F5
330
1A82
100
AcDbDictionary
280
     1
281
     1
  3
ACAD_XREC_ROUNDTRIP
360
28F6
  0
DICTIONARY
  5
28FD
330
1A86
100
AcDbDictionary
280
     1
281
     1
  3
ACAD_XREC_ROUNDTRIP
360
28FE
  0
DICTIONARY
  5
28EF
330
1A7F
100
AcDbDictionary
280
     1
281
     1
  3
ACAD_XREC_ROUNDTRIP
360
28F0
  0
DICTIONARY
  5
28F3
330
1A81
100
AcDbDictionary
280
     1
281
     1
  3
ACAD_XREC_ROUNDTRIP
360
28F4
  0
DICTIONARY
  5
2903
330
1A89
100
AcDbDictionary
280
     1
281
     1
  3
ACAD_XREC_ROUNDTRIP
360
2904
  0
DICTIONARY
  5
28FB
330
1A85
100
AcDbDictionary
280
     1
281
     1
  3
ACAD_XREC_ROUNDTRIP
360
28FC
  0
DICTIONARY
  5
28DF
330
1A77
100
AcDbDictionary
280
     1
281
     1
  3
ACAD_XREC_ROUNDTRIP
360
28E0
  0
DICTIONARY
  5
28E1
330
1A78
100
AcDbDictionary
280
     1
281
     1
  3
ACAD_XREC_ROUNDTRIP
360
28E2
  0
DICTIONARY
  5
28E3
330
1A79
100
AcDbDictionary
280
     1
281
     1
  3
ACAD_XREC_ROUNDTRIP
360
28E4
  0
DICTIONARY
  5
28E5
330
1A7A
100
AcDbDictionary
280
     1
281
     1
  3
ACAD_XREC_ROUNDTRIP
360
28E6
  0
DICTIONARY
  5
2918
330
2318
100
AcDbDictionary
280
     1
281
     1
  3
ACAD_XREC_ROUNDTRIP
360
2919
  0
DICTIONARY
  5
28FF
330
1A87
100
AcDbDictionary
280
     1
281
     1
  3
ACAD_XREC_ROUNDTRIP
360
2900
  0
DICTIONARY
  5
28F9
330
1A84
100
AcDbDictionary
280
     1
281
     1
  3
ACAD_XREC_ROUNDTRIP
360
28FA
  0
DICTIONARY
  5
2901
330
1A88
100
AcDbDictionary
280
     1
281
     1
  3
ACAD_XREC_ROUNDTRIP
360
2902
  0
DICTIONARY
  5
28F1
330
1A80
100
AcDbDictionary
280
     1
281
     1
  3
ACAD_XREC_ROUNDTRIP
360
28F2
  0
DICTIONARY
  5
2922
330
231D
100
AcDbDictionary
280
     1
281
     1
  3
ACAD_XREC_ROUNDTRIP
360
2923
  0
DICTIONARY
  5
2920
330
231C
100
AcDbDictionary
280
     1
281
     1
  3
ACAD_XREC_ROUNDTRIP
360
2921
  0
DICTIONARY
  5
291A
330
2319
100
AcDbDictionary
280
     1
281
     1
  3
ACAD_XREC_ROUNDTRIP
360
291B
  0
DICTIONARY
  5
291C
330
231A
100
AcDbDictionary
280
     1
281
     1
  3
ACAD_XREC_ROUNDTRIP
360
291D
  0
DICTIONARY
  5
28F7
330
1A83
100
AcDbDictionary
280
     1
281
     1
  3
ACAD_XREC_ROUNDTRIP
360
28F8
  0
DICTIONARY
  5
2916
330
2317
100
AcDbDictionary
280
     1
281
     1
  3
ACAD_XREC_ROUNDTRIP
360
2917
  0
DICTIONARY
  5
291E
330
231B
100
AcDbDictionary
280
     1
281
     1
  3
ACAD_XREC_ROUNDTRIP
360
291F
  0
XRECORD
  5
2927
102
{ACAD_REACTORS
330
2926
102
}
330
2926
100
AcDbXrecord
280
     1
102
DISPLAYNAME
  1
Imperial24
102
FLAGS
 90
        0
  0
XRECORD
  5
28DB
102
{ACAD_REACTORS
330
1AD5
102
}
330
1AD5
100
AcDbXrecord
280
     1
102
SHADEPLOT
 70
     0
102
SHADEPLOTRESLEVEL
 70
     2
102
SHADEPLOTCUSTOMDPI
 70
   300
  0
XRECORD
  5
1AD6
102
{ACAD_REACTORS
330
1AD5
102
}
330
1AD5
100
AcDbXrecord
280
     1
310
2800000000010000840000000100080000000000008400000100000001000000000100000000000000000000FFFFFF00000000FF000000FF000000FF000000FF000000FF000000FF000000FF000000FF000000FF330000FF660000FF990000FFCC0000FFFF0000FF003300FF333300FF663300FF993300FFCC3300FFFF3300
310
FF006600FF336600FF666600FF996600FFCC6600FFFF6600FF009900FF339900FF669900FF999900FFCC9900FFFF9900FF00CC00FF33CC00FF66CC00FF99CC00FFCCCC00FFFFCC00FF00FF00FF33FF00FF66FF00FF99FF00FFCCFF00FFFFFF00FF000033FF330033FF660033FF990033FFCC0033FFFF0033FF003333FF3333
310
33FF663333FF993333FFCC3333FFFF3333FF006633FF336633FF666633FF996633FFCC6633FFFF6633FF009933FF339933FF669933FF999933FFCC9933FFFF9933FF00CC33FF33CC33FF66CC33FF99CC33FFCCCC33FFFFCC33FF00FF33FF33FF33FF66FF33FF99FF33FFCCFF33FFFFFF33FF000066FF330066FF660066FF99
310
0066FFCC0066FFFF0066FF003366FF333366FF663366FF993366FFCC3366FFFF3366FF006666FF336666FF666666FF996666FFCC6666FFFF6666FF009966FF339966FF669966FF999966FFCC9966FFFF9966FF00CC66FF33CC66FF66CC66FF99CC66FFCCCC66FFFFCC66FF00FF66FF33FF66FF66FF66FF99FF66FFCCFF66FF
310
FFFF66FF000099FF330099FF660099FF990099FFCC0099FFFF0099FF003399FF333399FF663399FF993399FFCC3399FFFF3399FF006699FF336699FF666699FF996699FFCC6699FFFF6699FF009999FF339999FF669999FF999999FFCC9999FFFF9999FF00CC99FF33CC99FF66CC99FF99CC99FFCCCC99FFFFCC99FF00FF99
310
FF33FF99FF66FF99FF99FF99FFCCFF99FFFFFF99FF0000CCFF3300CCFF6600CCFF9900CCFFCC00CCFFFF00CCFF0033CCFF3333CCFF6633CCFF9933CCFFCC33CCFFFF33CCFF0066CCFF3366CCFF6666CCFF9966CCFFCC66CCFFFF66CCFF0099CCFF3399CCFF6699CCFF9999CCFFCC99CCFFFF99CCFF00CCCCFF33CCCCFF66CC
310
CCFF99CCCCFFCCCCCCFFFFCCCCFF00FFCCFF33FFCCFF66FFCCFF99FFCCFFCCFFCCFFFFFFCCFF0000FFFF3300FFFF6600FFFF9900FFFFCC00FFFFFF00FFFF0033FFFF3333FFFF6633FFFF9933FFFFCC33FFFFFF33FFFF0066FFFF3366FFFF6666FFFF9966FFFFCC66FFFFFF66FFFF0099FFFF3399FFFF6699FFFF9999FFFFCC
310
99FFFFFF99FFFF00CCFFFF33CCFFFF66CCFFFF99CCFFFFCCCCFFFFFFCCFFFF00FFFFFF33FFFFFF66FFFFFF99FFFFFFCCFFFFFFFFFFFFFF000000FF0D0D0DFF1A1A1AFF282828FF353535FF434343FF505050FF5D5D5DFF6B6B6BFF787878FF868686FF939393FFA1A1A1FFAEAEAEFFBBBBBBFFC9C9C9FFD6D6D6FFE4E4E4FF
310
F1F1F1FFFFFFFFFF000000FF000000FF000000FF000000FF000000FF000000FF000000FF000000FF000000FF000000FF00000000000000000000000000000000000000000000000000000000000000000000000000000000000000000000000000000000000000000000000000000000000000002D00000000000000000000
310
0000000000000000000000000000000000002D000000000000000000000000000000000000000000000000000000000000000000000000000000000000000000000000000000000000000000000000000000000000000000000000000000000000000000000000000000000000000000000000000000000000000000000000
310
000000000000000000000000000000000000000000000000000000000000000000000000000000000000000000000000000000000000000000000000000000000000000000000000000000000000000000000000000000000000000000000000000000000000000000000000000000000000000000002D2D2D2D2D2D2D2D2D
310
2D2D2D2D2D2D2D2D2D2D2D2D2D2D2D2D2D2D2D2D2D00000000000000000000000000000000000000000000000000000000000000000000000000000000000000000000000000000000000000000000000000000000000000000000000000000000000000000000000000000000000000000000000000000000000000000000
310
0000000000000000000000000000000000000000000000000000000000000000000000000000000000000000000000000000000000000000000000000000000000000000000000000000000000000000000000000000000000000000000000000000000000000000000000000000000000000000000000002D000000000000
310
000000000000002D2D2D0000000000000000000000002D0000000000000000000000000000000000000000000000000000000000000000000000000000000000000000000000000000000000000000000000000000000000000000000000000000000000000000000000000000000000000000000000000000000000000000
310
00000000000000000000000000000000000000000000000000000000000000000000000000000000000000000000000000000000000000000000000000000000000000000000000000000000000000000000000000000000000000000000000000000000000000000000000000000000000000000000000000002D00000000
310
0000000000000000000000000000000000000000000000002D000000000000000000000000000000000000000000000000000000000000000000000000000000000000000000000000000000000000000000000000000000000000000000000000000000000000000000000000000000000000000000000000000000000000
310
000000000000000000000000000000000000000000000000000000000000000000000000000000000000000000000000000000000000000000000000000000000000000000000000000000000000000000000000000000000000000000000000000000000000000000000000000000000000000000000000000000002D0000
310
2D2D2D2D2D2D2D2D2D2D2D2D2D2D2D2D2D2D2D2D2D2D2D2D00002D002D2D2D2D2D2D2D2D0000000000002D2D2D2D2D2D2D2D0000000000000000000000000000000000000000000000000000000000000000000000000000000000000000000000000000000000000000000000000000000000000000000000000000000000
310
0000000000000000000000000000000000000000000000000000000000000000000000000000000000000000000000000000000000000000000000000000000000000000000000000000000000000000000000000000000000000000000000000000000000000000000000000000000000000000000000000000000000002D
310
00002D000000000000000000002D2D2D0000000000000000002D00002D2D002D2D2D2D2D2D0000000000000000002D2D2D2D0000000000000000000000000000000000000000000000000000000000000000000000000000000000000000000000000000000000000000000000000000000000000000000000000000000000
310
00000000000000000000000000000000000000000000000000000000000000000000000000000000000000000000000000000000000000000000000000000000000000000000000000000000000000000000000000000000000000000000000000000000000000000000000000000000000000000000000000000000000000
310
002D00002D000000000000000000002D2D000000000000000000002D00002D2D00002D002D2D2D0000000000000000002D2D2D2D000000000000000000000000000000000000000000000000000000000000000000000000000000000000000000000000000000000000000000000000000000000000000000000000000000
310
00000000000000000000000000000000000000000000000000000000000000000000000000000000000000000000000000000000000000000000000000000000000000000000000000000000000000000000000000000000000000000000000000000000000000000000000000000000000000000000000000000000000000
310
0000002D00002D000000000000000000000028000000000000000000002D00002D00000000000000000000000000000000002D00002D00000000000000000000280000000000000000000000000000000000000000000000000000000000000000000000000000000000000000000028000000000000000000000000000000
310
00000000000000000000000000000000000000000000000000000000000000000000000000000000000000000000000000000000000000000000000000000000000000000000000000000000000000000000000000000000000000000000000000000000000000000000000000000000000000000000000000000000000000
310
00000000002D00002D000000000000000000000028000000000000000000002D002D2D00000000000000000000000000000000002D00002D0000000000000000000028000000000000000000000000000000000000000000000000000000000000000000000000000000000000000000002800000000000000000000000000
310
0000000000000000000000000000000000000000000000000000000000000000000000000000000000000000000000000000000000000000000000000000000000000000000000000000000000000000000000000000000000000000002D2D2D2D2D2D2DF5F5F5F5F5F5F5F5F5F5F5F5000000000000000000000000000000
310
000000000000002D00002DF5F5F5F5F5F5F5F5F5F5F528F5F5F5F5F5F5F5F5F5F52D2D2D2D2D2D2D2D2D2D2D2D2D00000000000000002DF5F52DF50000F5F5F5F5F5F5F528F5F5F5F5F5F5F500000000000000000000000000000000000000000000000000000000F5F5F5F5F5F5F5F5F5F5F5F5F5F5F5F5F5F5F5F5F5F5F5
310
F500000000000000000000000000000000000000000000000000F5F5F5F5F5F5F5F5F5F5F5F5F500000000000000000000000000000000000000000000000000000000000000000000000000000000000000000000000000000000000000002D0000000000F50000000000000000000000F5F5F5F5F5F5F5F5F5F5F5F5F5F5
310
F5F5F5F5F5F5F5F5F52D00002D000000F5F5F5F5F5F5F5F528F5F5F5F5F5F5F50000002D2D2D2D000000000000002D000000000000000000BEBEBE2DF5F5F5F5F5F5F5F5F5F528F5F5F5F5F5F5F5F5F50000000000000000000000000000000000000000000000000000280000000000000000000028000000000000000000
310
0000280000F5F5F5F5F5F5F5F5F5F5F5F5F5F5F5F5F5F5F5F5F5F5F5F50000000000000000000000F500000000000000000000000000000000000000000000000000000000000000000000000000000000000000000000000000000000000000002D00000000F5000000000000000000000000F50000F50000000000000000
310
00000000000000000000F52DF5F528000000F5000000F500000028000000F50000F5000000F52D002D000000000000002D000000000000000000F50000F5F500F500F5000000000028F5F5F5F5F5F5F5F5F5F50000000000000000000000000000000000000000000000F5F5280000000000F5F5F5F5F5F5F5F5F5F5F5F500
310
0000000028F5F5F5F5000000000000000000000000000000000000F50000F5000000000000000000000000F5000000000000000000000000000000000000000000000000000000000000000000000000000000000000000000000000000000000000002D00000000F5000000000000000000000000F50000F5000000000000
310
000000000000000000000000002DF5F528F5F5F500000000F5F5F5F528F5F5F5F5000000F5F5F528F52D2D2D2D2D2D2D00002D000000000000000028282828F5280000F500000000000028000000000000F500F5F5F500000000000000000000000000000000000000000000282828282800F5F50000000000280000000000
310
00F500002828282828F500000000000000000000000000000000000000F50000F5000000000000000000000000F5000000000000000000000000000000000000000000000000000000000000000000000000000000000000000000000000000000000000002D00000000F5000000000000000000000000F5F5F5F5F5F5F5F5
310
F5F5F5F5F5F5F5F5F5F5F5F5F5F5F52DF50028F50000000000F5F500000028000000F5F500000000F5F500002D000000002D00002D000000000000000000BEBEBEF50000000000000000000028000000000000000000F5F5F5000000000000000000000000000000000000000000F500280000F50000000000000028000000
310
00000000F5F500002800F5F5F5F5F5F5F5F5F5F5F5F5F5F5F5F5F5F5F5F5F5F5F5F5F5000000000000000000000000F5000000000000000000000000000000000000000000000000000000000000000000000000000000000000000000000000000000000000002D00000000F5F5F5F5F5F5F5F5F5F5F5F5F5F50000F50000
310
00000000000000000000000000000000002DF5002800000000F5F50000000000280000000000F5F5000000F500002D000000002D00002D000000000000000000F50000F50000000000000000000028000000000000000000F500F5F50000000000000000000000000000000000000000F50028F5F500000000000000002800
310
0000000000000000F5F528F500F500000000000000000000000000000000000000F50000F5F5F5F5F5F5F5F5F5F5F5F5F5F5000000000000000000000000000000000000000000000000000000000000000000000000000000000000000000000000000000000000002D00000000F5000000000000000000000000F50000F5
310
000000000000000000000000000000000000002D00F5F50000F5F5000000000000002800000000000000F5F500F500F52D000000002D00002D000000000000000000F50000F50000000000000000000028000000000000000000F500F5F500000000000000000000000000000000000000F50000F500000000000000000000
310
280000000000000000000000000000F500000000000000000000000000000000000000F50000F5000000000000000000000000F5000000000000000000000000000000000000000000000000000000000000000000000000000000000000000000000000000000000000002D00000000F5000000000000000000000000F500
310
00F5000000000000000000000000000000000000002D00F50000F500000000000000000028000000000000000000F500F5F52D000000002D00002D000000000000000000F50000F5F500000000000000000028000000000000000000F50000F500000000000000000000000000000000000000F5F5F5000000000000000000
310
0000280000000000000000000000000000F500000000000000000000000000000000000000F50000F5000000000000000000000000F5000000000000000000000000000000000000000000000000000000000000000000000000000000000000000000000000000000000000002D00000000F5000000000000000000000000
310
F50000F5000000000000000000000000000000000000002D00F50000F50000000000000000002800000000000000000000F500F52D000000002D00002D000000000000000000F50000F5F5F5F5F5F5F5F5F5F5F528F5F5F5F5F5F5F5F5F5F50000F500000000000000000000000000000000000000F5000000000000000000
310
00000000280000000000000000000000000000F500000000000000000000000000000000000000F50000F5000000000000000000000000F5000000000000000000000000000000000000000000000000000000000000000000000000000000000000000000000000000000000000002D00000000F500000000000000000000
310
0000F50000F500000000000000000000000000000000000000F500F500F5000000000000F5F5F5F5F500F5F500000000000000F500F5F5000000002D00002D000000000000000000F5000000F500000000000000000028000000000000000000F5F500F500000000000000000000000000000000000000F500000000000000
310
000000F5F5F5F5F5F5F5F500000000000000000000F500000000000000000000000000000000000000F50000F5000000000000000000000000F5000000000000000000000000000000000000000000000000000000000000000000000000000000000000000000000000000000000000002D00000000F50000000000000000
310
00000000F50000F500000000000000000000000000000000000000F5F50000F5000000000000F5F5F500F500F5F50000000000000000F5F5F5000000002D00002D000000000000000000F50000000000000000000000000028000000000000000000F5F500F500000000000000000000000000000000000000F50000000000
310
0000000000F5F5F5F5F500F5F500000000000000000000F500000000000000000000000000000000000000F50000F5000000000000000000000000F5000000000000000000000000000000000000000000000000000000000000000000000000000000000000000000000000000000000000002D00000000F5000000000000
310
000000000000F50000F500000000000000000000000000000000000000F5F500F500000000000000F5F5F5F5F5F5F5F5F500000000000000F5F5F500002D2D2D00002D000000000000000000F50000000000000000000000000028000000000000000000F5F500F500000000000000000000000000000000000000F5000000
310
00000000000000F5F5F5F5F5F5F5F5F5000000000000000000F500000000000000000000000000000000000000F50000F5000000000000000000000000F5000000000000000000000000000000000000000000000000000000000000000000000000000000000000000000000000000000000000002D00000000F500000000
310
0000000000000000F50000F500000000000000000000000000000000000000F5F500F50000000000000000000000280000F5000000000000000000F5F500002D2D2D00002D000000000000000000F50000000000000000000000000028000000000000000000F500F5F500000000000000000000000000000000000000F500
310
000000000000000000F5F500F5F5F5F5F500000000000000000000F500000000000000000000000000000000000000F50000F5000000000000000000000000F50000000000000000000000000000000000000000000000000000000000000000000000000000000000000000000000000000000000002D2D00000000F50000
310
00000000000000000000F50000F500000000000000000000000000000000000000F5F5F500000000000000000000000028000000000000000000000000F5F50000002D2D00002D000000000000000000F50000000000000000000000000028000000000000000000F5F5F5F500000000000000000000000000000000000000
310
F500000000000000000000000000280000000000000000000000000000F500000000000000000000000000000000000000F50000F5000000000000000000000000F50000000000000000000000000000000000000000000000000000000000000000000000000000000000000000000000000000000000002D2D00002828F5
310
2828282828282828282828282828282828282828282828282828282828282828282828F5F52828282D2D2D2D00000000000028000000000000000000000000F5F5000000002D00002D000000000000002828F52828282828282828282828282828282828282828282828F5F5F5F52828000000000000000000000000000000
310
0000F500000000000000000000000000280000000000282828282828282828F528282828282828282828282828282828282828F52828F5282828282828282828282828F5282800000000000000000000000000000000000000000000000000000000000000000000000000000000000000000000000000000000002D000000
310
00F5000000000000000000000000F50000F500000000000000000000000000000000000000F5F50000002D00000000000000000028F50000000000000000000000F5F5000000002D00002D000000000000000000F50000000000000000000000000028000000000000000000F5F5F5F5000000000000000000000000000000
310
00000000F500000000000000000000000000F5F500000000000000000000000000F500000000000000000000000000000000000000F50000F5000000000000000000000000F5000000000000000000000000000000000000000000000000000000000000000000000000000000000000000000000000000000000000002D00
310
000000F5000000000000000000000000F50000F500000000000000000000000000000000000000F5F500002D2D000000000000F5F5F52800F5F5000000000000000000F5F5000000002D002D2D000000000000000000F50000000000000000000000000028000000000000000000F5F5F5F500000000000000000000000000
310
000000000000F500000000000000000000F5F5F52800F5F50000000000000000000000F500000000000000000000000000000000000000F50000F5000000000000000000000000F500000000000000000000000000000000000000000000000000000000000000000000000000000000000000000000000000000000000000
310
2D00000000F5000000000000000000000000F50000F500000000000000000000000000000000000000F5F500002D2D0000000000F500000028000000F5F500000000000000F5F5000000002D002D2D000000000000000000F50000000000000000000000000028000000000000000000F5F5F5F50000000000000000000000
310
0000000000000000F5000000000000000000F500000028000000F5F5000000000000000000F500000000000000000000000000000000000000F50000F5000000000000000000000000F50000000000000000000000000000000000000000000000000000000000000000000000000000000000000000000000000000000000
310
00002D00000000F5000000000000000000000000F50000F500000000000000000000000000000000000000F5F500002D2D00000000F5000000002800000000F500000000000000F5F5000000002D002D2D000000000000000000F50000000000000000000000000028000000000000000000F5F5F5F5F5F5F5F5F5F5F52D2D
310
2D2D2D2D000000000000F50000000000000000F5000000002800000000F5000000000000000000F500000000000000000000000000000000000000F50000F5000000000000000000000000F5000000000000000000000000000000000000000000000000000000000000000000000000000000000000000000000000000000
310
000000002D00000000F5000000000000000000000000F50000F500000000000000000000000000000000000000F5F500002D2D000000F5000000BEBEBE0000000000F5000000000000F5F5000000002D00002D000000000000000000F50000000000000000000000000028000000000000000000F500F50000000000000000
310
F500002D2D2D000000000000F500000000000000F50000000000F50000000000F50000000000000000F500000000000000000000000000000000000000F50000F5000000000000000000000000F500000000000000000000000000000000000000000000000000000000000000000000000000000000000000000000000000
310
0000000000002D00000000F5000000000000000000000000F50000F500000000000000000000000000000000000000F5F50000002D000000F5000000BE0028BEBEBE0000F5000000000000F5F5000000002D00002D000000000000000000F50000000000000000000000000028000000000000000000F500F500F5F5F5F5F5
310
F5F5F500002D2D2D000000000000F500000000000000F50000F5F5F528F5F5000000F50000000000000000F500000000000000000000000000000000000000F50000F5000000000000000000000000F50000000000000000000000000000000000000000000000000000000000000000000000000000000000000000000000
310
00000000000000002D00000000F5000000000000000000000000F50000F500000000000000000000000000000000000000F5F5F500002D2D282828282828BE2828BE28BE282828282D2D2D2D2D2D2D2D2D2D2D2D00002D000000000000002828F52828282828282828282828282828282828282828282828F528F52D28F528
310
28282828F528282D2D2D000000000000F500000000002828F52828F528F52828F5282828F52828280000000000F500000000000000000000000000000000000000F50000F5000000000000000000000000F5000000000000000000000000000000000000000000000000000000000000000000000000000000000000000000
310
000000000000000000002D00000000F5F5F5F5F5F5F5F5F5F5F5F5F5F50000F500000000000000000000000000000000000000F5F500F50000000000F5000000BE00BEBEBEBE0000F5000000000000F5F5000000002D00002D000000000000000000F50000000000000000000000000028000000000000000000F500F52DF5
310
F5F5F5F5F5F5F500002D2D2D000000000000F500000000000000F50000F5F5F52800F5000000F50000000000000000F500000000000000000000000000000000000000F50000F5F5F5F5F5F5F5F5F5F5F5F5F5F500000000000000000000000000000000000000000000000000000000000000000000000000000000000000
310
0000000000000000000000002D00000000F5000000000000000000000000F5F5F5F5F5F5F5F5F5F5F5F5F5F5F5F5F5F5F5F5F5F5F5F5F500F50000000000F500000000BEBE0000000000F50000000000F5F5F5000000002D00002D000000000000000000F50000000000000000000000000028000000000000000000F500F5
310
2DF5F5F5F5F5F5F52D2D2D2D2D2D000000000000F500000000000000F500000000F5F5F500000000F50000000000000000F5F5F5F5F5F5F5F5F5F5F5F5F5F5F5F5F5F5F5F5F5F5F5F5000000000000000000000000F50000000000000000000000000000000000000000000000000000000000000000000000000000000000
310
00000000000000000000000000002D00000000F5000000000000000000000000F50000F500000000000000000000000000000000000000F5F50000F50000000000F5000000002800000000F5000000000000F5F5F5000000002D00002D000000000000000000F50000000000000000000000000028000000000000000000F5
310
002D2D000000000000002D0000000000000000000000F50000000000000000F5000000002800000000F50000000000000000F5F500000000000000000000000000000000000000F50000F5000000000000000000000000F5000000000000000000000000000000000000000000000000000000000000000000000000000000
310
000000000000000000000000000000002D000000002D000000000000000000000000F50000F500000028000000000000000000000000000000F500F500F5000000000000F50000002800000000F50000000000F500F52D00002D2D2D00002D000000000000000000F5000000F5F5F5F5F5F5F5F5F5F528F5F5F5F5F5F5F5F5
310
F5F5002D2D000000000000002D0000000000000000000000F5000000000000000000F50000002800000000F50000000000000000F50000000000000000000000000000000028000000F50000F5000000000000000000000000F500000000000000000000000000000000000000000000000000000000000000000000000000
310
0000000000000000000000000000000000002D000000002DF50000000000000000000000F5F5F5F5F5F5F528F5F5F5F5F5F5F52D2D2D2D2DF5F5F5F5F5F50000F5000000000000F5F500280000F5F5000000000000F500F52D00002D2D2D00002D000000000000000000F50000F500F5000000000000000028000000000000
310
000000F5002D2D000000000000002D0000000000000000000000F5F5F50000000000000000F5F500280000F5F500000000000000F5F5F5F5F5F5F5F5F5F5F5F5F5F5F5F5F5F5F528F5F5F5F5F5F5F50000000000000000000000F5000000000000000000000000000000000000000000000000000000000000000000000000
310
00000000000000000000000000000000000000002D2D2D2D2D2D2DF5F5F5F5F5F5F5F5F5F5F5F5F5F5F5F5F5F5F5F5F5F5F5F5F5F5F50000002D000000F500F50000F50000000000000000F528F5F500000000000000F500F5F52D00002D2D2D00002D000000000000000000F50000F5F50000000000000000002800000000
310
0000000000F5F52D2D000000000000002D0000000000000000000000F50000F5000000000000000000F5F5F5F50000000000000000F5000000F50000000000000000F5F5F5F5F5F5F5F5F5F5F5F5F5F5F5F5F5F5F5F5F5F5F5F5F5F5F500000000000000000000000000000000000000000000000000000000000000000000
310
0000000000000000000000000000000000000000000000000000002D000000000000000000000000F50000000000002800000000000000F50000002D000000F50000F50000F5F5000000000000002800000000000000F5F500F500002D000000002D00002D000000000000000000F50000F500000000000000000000280000
310
00000000000000F5002D2D000000000000002D0000000000000000000000F5000000F5F5000000000000000028000000000000000000F500000000F50000000000000000F500000000000028000000000000F50000000000000000000000000000000000000000000000000000000000000000000000000000000000000000
310
00000000000000000000000000000000000000000000000000000000002D000000000000000000000000F50000000000002800000000000000F50000002D00000000F5002800000000F5F50000000000280000000000F5F5000000F500002D000000002D00002D000000000000000000BEBEBEBE0000000000000000000028
310
000000000000000000F5F52D2D000000000000002D000000000000000000000000F500280000F5000000000000002800000000000000F5F500002800F5000000000000000000F500000000000028000000000000F5000000000000000000000000000000000000000000000000000000000000000000000000000000000000
310
000000000000000000000000000000000000000000000000000000000000002D000000000000000000000000F5F5F5F5F5F5F5F5F5F5F5F5F5F5F5F50000002D00000000F50028F50000000000F5F500000028000000F5F500000000F5F500002D000000002D00002D000000000000000000F50000F5000000000000000000
310
0028000000000000000000F5002D2D000000000000002D000000000000000000000000F50028000000F5F5000000000028000000000000F5000000002800F5000000000000000000F5F5F5F5F5F5F5F5F5F5F5F5F5F5F500000000000000000000000000000000000000000000000000000000000000000000000000000000
310
0000000000000000000000000000000000000000000000000000000000000000002D000000000000000000000000F50000000000002800000000000000F500002D2D00000000F5F528F5F5F500000000F5F5F5F528F5F5F5F5000000F5F5F528F52D2D2D2D2D2D2D00002D00000000000000002828282828F5000000000000
310
000000280000000000000000F5F5F52D2D000000000000002D0000000000000000000000002828282828000000F5F50000002800000000F5F50000002828282828000000000000000000F500000000000028000000000000F50000000000000000000000000000000000000000000000000000000000000000000000000000
310
00000000000000000000000000000000000000000000000000000000000000000000002D0000000000002D2D2D2D2D2DF5F500000000002800000000000000F500002D2D0000000000F528000000F5F5F5F5F5F5F5F528F5F5F5F5F5F5F5000000F5F5002D000000000000002D000000000000000000BEBEBEF5F5F5F5F5F5
310
F5F5F5F5F528F5F5F5F5F5F5F5F5F5F5002D2D000000000000002D00000000000000000000000000F528000000000000F5F5F5F5F5F5F5F5F5F500000000000028F500000000000000000000F500000000000028000000000000F5000000000000000000000000000000000000000000000000000000000000000000000000
310
000000000000000000000000000000000000000000000000000000000000000000000000002D0000000000002D0000000000F50000000000002800000000000000F500002D2D000000000000F5F5F5F5F5F5F5F5F5F5F5F528F5F5F5F5F5F5F5F5F5F52D2D2D2D2D2D2D2D2D2D2D2D2D00000000000000002DF5F5F5F5F500
310
F500000000000028000000000000F5000000002D2D000000000000002D000000000000000000000000000028F5F5F5F5F5F5F5F5F5F5F5F5F5F5F5F5F5F5F5F5F5F5280000000000000000000000F500000000000028000000000000F500000000000000000000000000000000000000000000000000000000000000000000
310
0000000000000000000000000000000000000000000000000000000000000000000000000000002D00000000002D2D0000000000F50000000000002800000000000000F500002D2D00000000000000000000000000000000000028000000000000000000000000002D00000000000000000000000000000000002D0000F5F5
310
0000F500000000000028000000000000F5000000002D2D000000000000002D00000000000000000000000000000000000000000000000000280000000000000000000000000000000000000000000000F500000000000028000000000000F50000000000000000000000000000000000000000000000000000000000000000
310
00000000000000000000000000000000000000000000000000000000000000000000000000000000002D00000000002D2D0000000028F52828282828282828282828282828F52800002D0000000000000000000000000000000000002D000000000000000000000000002D00000000000000000000000000000000002D0000
310
00002828F528282828282828282828282828F5280000002D2D000000000000002D00000000000000000000000000000000000000000000000000280000000000000000000000000000000000000000002828282828282828282828282828282828280000000000000000000000000000000000000000000000000000000000
310
000000000000000000000000000000000000000000000000000000000000000000000000000000000000002D00000000002D2D0000000000F50000000000002800000000000000F50000002D0000000000000000000000000000000000002D000000000000000000000000002D00000000000000000000000000000000002D
310
000000000000F500000000000028000000000000F5000000002D2D000000000000002D00000000000000000000000000000000000000000000000000000000000000000000000000000000000000000000000000F500000000000028000000000000F500000000000000000000000000000000000000000000000000000000
310
0000000000000000000000000000000000000000000000000000000000000000000000000000000000000000002D0000000000002D0000000000F50000000000002800000000000000F50000002D0000000000000000000000000000000000002D000000000000000000000000002D00000000000000000000000000000000
310
002D000000000000F500000000000028000000000000F5000000002D2D000000000000002D00000000000000000000000000000000000000000000000000000000000000000000000000000000000000000000000000F500000000000028000000000000F50000000000000000000000000000000000000000000000000000
310
00000000000000000000000000000000000000000000000000000000000000000000000000000000000000000000002D0000000000002D2D2D2D2D2DF5F5F500000000280000000000F5F5F50000002D0000000000000000000000000000000000002D000000000000000000000000002D0000000000000000000000000000
310
0000002D000000000000F5F500000000002800000000F500F5000000002D2D000000000000002D00000000000000000000000000000000000000000000000000000000000000000000000000000000000000000000000000F5F500000000002800000000F5F5F5000000000000000000000000000000000000000000000000
310
000000000000000000000000000000000000000000000000000000000000000000000000000000000000000000000000002D000000000000000000000000F5F5F5F5F5F5F5F5F5F5F5F5F5F5F5F52D2D2D2D0000000000000000000000000000000000002D000000000000000000000000002D000000000000000000000000
310
00000000002D0000000000F5F5F5F5F5F5F5F5F5F5F5F5F5F5F5F5F50000002D2D000000000000002D000000000000000000000000000000000000000000000000000000000000000000000000000000000000000000000000F5F5F5F5F5F5F5F5F5F5F5F5F5F5F5F500000000000000000000000000000000000000000000
310
0000000000000000000000000000000000000000000000000000000000000000000000000000000000000000000000000000002D0000000000000000000000002DF5F500000000280000000000F5F52D000000000000000000000000000000000000000000002D000000000000000000000000002D00000000000000000000
310
000000000000002D000000000000F5F500000000002800000000F500F5000000002D2D2D2D2D2D2D2D2D2D00000000000000000000000000000000000000000000000000000000000000000000000000000000000000000000000000F5F500000000002800000000F5F5000000000000000000000000000000000000000000
310
00000000000000000000000000000000000000000000000000000000000000000000000000000000000000000000000000000000002D0000000000000000000000002D00000000000028000000000000002D000000000000000000000000000000000000000000002D000000000000000000000000002D0000000000000000
310
0000000000000000002D000000000000000000000000002D00000000000000000000002D2D2D002D2D00002D2D00000000000000000000000000000000000000000000000000000000000000000000000000000000000000000000000000000000000000000000000000000000000000000000000000000000000000000000
310
000000000000000000000000000000000000000000000000000000000000000000000000000000000000000000000000000000000000002D0000000000000000000000002D00000000000000000000000000002D000000000000000000000000000000000000000000002D000000000000000000000000002D000000000000
310
00000000000000000000002D000000000000000000000000002D00000000000000000000002D0000002D2D2D00002D0000000000000000000000000000000000000000000000000000000000000000000000000000000000000000000000000000000000000000000000000000000000000000000000000000000000000000
310
0000000000000000000000000000000000000000000000000000000000000000000000000000000000000000000000000000000000000000002D0000000000000000000000002D00000000000000000000000000002D000000000000000000000000000000000000000000002D000000000000000000000000002D00000000
310
000000000000000000000000002D000000000000000000000000002D00000000000000000000002D00000000000000002D000000000000000000000000000000000000000000000000000000000000000000000000000000000000000000000000000000000000000000000000000000000000000000000000000000000000
310
00000000000000000000000000000000000000000000000000000000000000000000000000000000000000000000000000000000000000000000002D2D2D2D2D2D2D2D2D2D2D2D2D2D2D2D2D2D2D2D2D2D2D2D2D2D2D2D2D000000000000000000000000000000000000000000002D000000000000000000000000002D0000
310
0000000000000000000000000000002D000000000000000000000000002D00000000000000000000002D2D2D2D2D2D2D2D2D2D00000000000000000000000000000000000000000000000000000000000000000000000000000000000000000000000000000000000000000000000000000000000000000000000000000000
310
000000000000000000000000000000000000000000000000000000000000000000000000000000000000000000000000000000000000000000000000002D00000000002D2D00000000000000000000002D2D2D2D000000000000000000000000000000000000000000000000000000002D000000000000000000000000002D
310
00000000000000000000000000000000002D000000000000000000000000002D0000000000000000000000000000002D2D0000002D0000000000000000000000000000000000000000000000000000000000000000000000000000000000000000000000000000000000000000000000000000000000000000000000000000
310
0000000000000000000000000000000000000000000000000000000000000000000000000000000000000000000000000000000000000000000000000000002D00000000000000000000000000000000000000000000000000000000000000000000000000000000000000000000000000002D000000000000000000000000
310
002D00000000000000000000000000000000002D000000000000000000000000002D00000000000000000000000000000000000000002D000000000000000000000000000000000000000000000000000000000000000000000000000000000000000000000000000000000000000000000000000000000000000000000000
310
00000000000000000000000000000000000000000000000000000000000000000000000000000000000000000000000000000000000000000000000000000000002D2D2D2D2D2D2D2D2D2D2D2D2D2D2D2D2D2D2D2D2D2D2D2D2D2D2D2D2D2D2D2D2D2D2D2D2D2D2D2D2D2D2D2D2D2D2D2D2D2D2D2D2D2D2D2D2D2D2D2D2D2D
310
2D2D2D2D00000000000000000000000000000000002D2D2D2D2D2D2D2D2D2D2D2D2D2D2D2D2D2D2D2D2D2D2D2D2D2D2D2D2D2D2D2D2D2D2D2D00000000000000000000000000000000000000000000000000000000000000000000000000000000000000000000000000000000000000000000000000000000000000000000
310
000000000000000000000000000000000000000000000000000000000000000000000000000000000000000000000000000000000000000000000000000000000000002D00000000000000000000000000000000000000000000002D2D2D0000000000000000000000000000000000000000000000002D000000002D2D2D2D
310
00000000002D00000000000000000000000000000000002D00000000002D2D2D00000000002D0000000000000000002D2D0000000000000000002D0000000000000000000000000000000000000000000000000000000000000000000000000000000000000000000000000000000000000000000000000000000000000000
310
0000000000000000000000000000000000000000000000000000000000000000000000000000000000000000000000000000000000000000000000000000000000000000002D00000000000000000000000000000000000000000000002D2D2D00000000000000000000000000000000000000000000000000000000002D2D
310
2D2D00000000002D00000000000000000000000000000000002D0000000000002D2D0000000000000000000000000000002D2D0000000000000000002D000000000000000000000000000000000000000000000000000000000000000000000000000000000000000000000000000000000000000000000000000000000000
310
00000000000000000000000000000000000000000000000000000000000000000000000000000000000000000000000000000000000000000000000000000000000000000000002D2D000000000000000000000000000000000000000000000000000000000000000000000000000000000000000000000000000000000000
310
00000000000000002D2D00000000000000000000000000000000002D2D00000000000000000000000000000000000000000000000000000000000000002D2D00000000000000000000000000000000000000000000000000000000000000000000000000000000000000000000000000000000000000000000000000000000
310
000000000000000000000000000000000000000000000000000000000000000000000000000000000000000000000000000000000000000000000000000000000000000000000000002D2D2D2D2D2D2D2D2D2D2D2D2D2D2D2D2D2D2D2D2D2D2D2D2D2D2D2D2D2D2D2D2D2D2D2D2D2D2D2D2D2D2D2D2D2D2D2D2D2D2D2D2D2D
310
2D2D2D2D2D2D2D2D2D2D2D2D00000000000000000000000000000000002D2D2D2D2D2D2D2D2D2D2D2D2D2D2D2D2D2D2D2D2D2D2D2D2D2D2D2D2D2D2D2D2D2D2D2D0000000000000000000000000000000000000000000000000000000000000000000000000000000000000000000000000000000000000000000000000000
310
0000000000000000000000000000000000000000000000000000000000000000000000000000000000000000000000000000000000000000000000000000000000000000000000000000000000000000000000000000000000000000000000000000000000000000002D2D2D2D2D0000000000000000000000000000000000
310
00000000000000000000000000000000000000000000000000000000000000000000000000000000000000000000002D2D2D2D00000000000000000000000000000000000000000000000000000000000000000000000000000000000000000000000000000000000000000000000000000000000000000000000000000000
310
00000000000000000000000000000000000000000000000000000000000000000000000000000000000000000000000000000000000000000000000000000000000000000000000000000000000000000000000000000000000000000000000000000000000000000000000000000000000000000000000000000000000000
310
00000000000000000000000000000000000000000000000000000000000000000000000000000000000000000000000000000000000000000000000000000000000000000000000000000000000000000000000000000000000000000000000000000000000000000000000000000000000000000000000000000000000000
310
00000000000000000000000000000000000000000000000000000000000000000000000000000000000000000000000000000000000000000000000000000000000000000000000000000000000000000000000000000000000000000000000000000000000000000000000000000000000000000000000000000000000000
310
00000000000000000000000000000000000000000000000000000000000000000000000000000000000000000000000000000000000000000000000000000000000000000000000000000000000000000000000000000000000000000000000000000000000000000000000000000000000000000000000000000000000000
310
00000000000000000000000000000000000000000000000000000000000000000000000000000000000000000000000000000000000000000000000000000000000000000000000000000000000000000000000000000000000000000000000000000000000000000000000000000000000000000000000000000000000000
310
00000000000000000000000000000000000000000000000000000000000000000000000000000000000000000000000000000000000000000000000000000000000000000000000000000000000000000000000000000000000000000000000000000000000000000000000000000000000000000000000000000000000000
310
00000000000000000000000000000000000000000000000000000000000000000000000000000000000000000000000000000000000000000000000000000000000000000000000000000000000000000000000000000000000000000000000000000000000000000000000000000000000000000000000000000000000000
310
00000000000000000000000000000000000000000000000000000000000000000000000000000000000000000000000000000000000000000000000000000000000000000000000000000000000000000000000000000000000000000000000000000000000000000000000000000000000000000000000000000000000000
310
00000000000000000000000000000000000000000000000000000000000000000000000000000000000000000000000000000000000000000000000000000000000000000000000000000000000000000000000000000000000000000000000000000000000000000000000000000000000000000000000000000000000000
310
00000000000000000000000000000000000000000000000000000000000000000000000000000000000000000000000000000000000000000000000000000000000000000000000000000000000000000000000000000000000000000000000000000000000000000000000000000000000000000000000000000000000000
310
00000000000000000000000000000000000000000000000000000000000000000000000000000000000000000000000000000000000000000000000000000000000000000000000000000000000000000000000000000000000000000000000000000000000000000000000000000000000000000000000000000000000000
310
00000000000000000000000000000000000000000000000000000000000000000000000000000000000000000000000000000000000000000000000000000000000000000000000000000000000000000000000000000000000000000000000000000000000000000000000000000000000000000000000000000000000000
310
00000000000000000000000000000000000000000000000000000000000000000000000000000000000000000000000000000000000000000000000000000000000000000000000000000000000000000000000000000000000000000000000000000000000000000000000000000000000000000000000000000000000000
310
00000000000000000000000000000000000000000000000000000000000000000000000000000000000000000000000000000000000000000000000000000000000000000000000000000000000000000000000000000000000000000000000000000000000000000000000000000000000000000000000000000000000000
310
00000000000000000000000000000000000000000000000000000000000000000000000000000000000000000000000000000000000000000000000000000000000000000000000000000000000000000000000000000000000000000000000000000000000000000000000000000000000000000000000000000000000000
310
00000000000000000000000000000000000000000000000000000000000000000000000000000000000000000000000000000000000000000000000000000000000000000000000000000000000000000000000000000000000000000000000000000000000000000000000000000000000000000000000000000000000000
310
00000000000000000000000000000000000000000000000000000000000000000000000000000000000000000000000000000000000000000000000000000000000000000000000000000000000000000000000000000000000000000000000000000000000000000000000000000000000000000000000000000000000000
310
00000000000000000000000000000000000000000000000000000000000000000000000000000000000000000000000000000000000000000000000000000000000000000000000000000000000000000000000000000000000000000000000000000000000000000000000000000000000000000000000000000000000000
310
00000000000000000000000000000000000000000000000000000000000000000000000000000000000000000000000000000000000000000000000000000000000000000000000000000000000000000000000000000000000000000000000000000000000000000000000000000000000000000000000000000000000000
310
00000000000000000000000000000000000000000000000000000000000000000000000000000000000000000000000000000000000000000000000000000000000000000000000000000000000000000000000000000000000000000000000000000000000000000000000000000000000000000000000000000000000000
310
00000000000000000000000000000000000000000000000000000000000000000000000000000000000000000000000000000000000000000000000000000000000000000000000000000000000000000000000000000000000000000000000000000000000000000000000000000000000000000000000000000000000000
310
00000000000000000000000000000000000000000028000000000000000000000000000000000000000000000000000000000000000000000000000000000000000000000000000000000000000000000000000000000000000000000000000000000000000000000000000000000000000000000000000000000000000000
310
00000000000000000000000000000000000000000000000000000000000000000000000000000000000000000000000000000000000000000000000000000000000000000000000000000000000000000000000000000000000000000000000000000000000000000000000000000000000000000000000000000000000000
310
00000000000000000000BE2800BE00000000000000000028000000000000000000BE28BE0000000000000000000000000000000000002D2D2D2D2D2D2D2D2D2D2D2D2D2D2D2D2D002D2D2D2D2D2D2D2D2D2D2D2D00000000000000000000000000000000000000000000000000000000000000000000000000000000000000
310
00000000000000000000000000000000000000000000000000000000000000000000000000000000000000000000000000000000000000000000000000000000000000000000000000000000000000000000000000000000000000000000000000000000000000000000000000000000000000000000000000000000000000
310
00000000000000000000F5F5BE28F5BEF5F5F5F5F5F5F5F5F5F5F5F5F5F5F5F5F5F5F5BE28BEF5F5000000000000000000000000000000002D2D2D2D2D2D2D2D2D2D2D2D2D2D2D2D2D2D2D2D2D2D2D2D2D2D2D2D2D000000000000000000000000000000000000000000000000000000000000000000000000000000000000
310
0000000000000000000000000000000000000000000000000000000000000000000000000000000000000000000000000000000000000000000000000000000000000000000000000000000000000000000000000000000000000000000000000000000000000000F5F5F5F5F5F5F5F5F5F5F5F5F5F5F5F5F5F5F5F5F5F5F5
310
F5F5F5F5F5F5F5F5F5F5F5F5F5F5BE2800BE00000000000000000028000000000000000000BE28BE00F5000000000000000000000000000000002D2D2D2D2D2D2D2D2D2D2D002D2D2D2D00002D2D2D2D2D2D2D2D2D2D2D2D2D0000000000000000000000000000000000000000000000000000000000000000000000000000
310
000000000000000000000000000000000000000000000000000000000000000000000000000000000000000000000000000000000000000000000000000000000000000000000000000000000000000000000000000000000000000000000000000000000000000000F5000000000000000000000000F50000F50000000000
310
0000000000000000000000000000F5F5BE2800BE00000000000000000028000000000000000000BE28BEF5F5000000000000000000000000000000002D2D2D2D2D2D2D2D2D2D2D2D2D2D2D2D2D2D2D2D2D2D2D2D2D2D2D2D2D002D000000000000000000000000000000000000000000000000000000000000000000000000
310
0000000000000000000000000000000000000000000000000000000000000000000000000000000000000000000000000000000000000000000000000000000000000000000000000000000000000000000000000000000000000000000000000000000000000000000000F5000000000000000000000000F50000F5000000
310
00000000000000000000000000000000F5F5F528F5BEF5F5F5F5F5F5F5F5F5F5F5F5F5F5F5F5F5F5F5BE28F5F5F5000000000000000000000000000000002D2D2D2D2D2D2D2D2D2D2D002D2D2D2D00002D2D2D2D2D2D2D2D2D2D2D2D2D00000000000000000000000000000000000000000000000000000000000000000000
310
00000000000000000000000000000000000000000000000000000000000000000000000000000000000000000000000000000000000000000000000000000000000000000000000000000000000000000000000000000000000000000000000000000000000000000000000000F5000000000000000000000000F50000F500
310
000000000000000000000000000000000000F5F5F52800000000F500F5F5F5F5F5F5F5F5F5F5F5F5000000002800F5F5000000000000000000000000000000002D2D2D2D2D2D2D2D2D2D2D2D2D2D2D2D2D2D2D2D2D2D2D2D2D2D2D2D2D00000000000000000000000000000000000000000000000000000000000000000000
310
000000000000000000000000000000000000000000000000000000000000000000000000000000000000000000000000000000000000000000000000000000000000000000000000000000000000000000000000000000000000000000000000000000000000000000000000000000F5000000000000000000000000F50000
310
F500000000000000000000000000000000000000F500F5000000000000F5F5000000002800000000F50000000000000000F5000000000000000000000000000000002D2D2D2D2D2D002D2D2D2D002D2D2D2D00002D2D2D2D2D2D2D2D2D2D2D2D00000000000000000000000000000000000000000000000000000000000000
310
0000000000000000000000000000000000000000000000000000000000000000000000000000000000000000000000000000000000000000000000000000000000000000000000000000000000000000000000000000000000000000000000000000000000000000000000000000000000F5F5F5F5F5F5F5F5F5F5F5F5F5F5
310
F5F5F5F5F5F528F5F5F5F5F5F5F5F5F5F5F5F5F5F5F5F500F500000000000000F5000000002800000000F50000000000000000F5000000000000000000000000000000002D2D2D2D2D2D2D2D2D2D2D2D2D2D2D2D2D2D2D2D2D2D2D2D2D2D2D2D2D2D0000000000000000000000000000000000000000000000000000000000
310
00000000000000000000000000000000000000000000000000000000000000000000000000000000000000000000000000000000000000000000000000000000000000000000000000000000000000000000000000000000000000000000000000000000000000000000000000000000000000F50000000000000000000000
310
00F5F5F5F5F5F5F5F5F5F5F5F5F5F5F5F500000000000000F500F500000000000000F5000000002800000000F50000000000000000F5000000000000000000000000000000002D2D2D2D2D2D002D2D2D2D002D2D2D2D2D002D2D2D2D2D2D2D2D2D2D2D2D000000000000000000000000000000000000000000000000000000
310
000000000000000000000000000000000000000000000000000000000000000000000000000000000000000000000000000000000000000000000000000000000000000000000000000000000000000000000000000000000000000000000000000000000000000000000000000000000000000000F5000000000000000000
310
000000F5F5F5F50000002800000000F5F5F5F500000000000000F500F500000000000000F5000000002800000000F50000000000000000F5000000000000000000000000000000002D2D2D2D2D2D2D2D2D2D2D2D2D2D2D2D2D2D2D2D2D2D2D2D2D2D2D2D2D2D2D000000000000000000000000000000000000000000000000
310
0000000000000000000000000000000000000000000000000000000000000000000000000000000000000000000000000000000000000000000000000000000000000000000000000000000000000000000000000000000000000000000000000000000000000000000000000000000000000000000000F500000000000000
310
0000000000F5F5F500000000280000000000F5F5F500000000000000F500F500000000000000F5000000002800000000F50000000000000000F5000000000000000000000000000000002D2D2D2D2D2D2D2D2D2D2D2D2D2D2D2D2D002D2D2D2D2D2D2D2D2D2D2D2D2D00000000000000000000000000000000000000000000
310
00000000000000000000000000000000000000000000000000000000000000000000000000000000000000000000000000000000000000000000000000000000000000000000000000000000000000000000000000000000000000000000000000000000000000000000000000000000000000000000000000F50000000000
310
00000000000000F5F5000000000028000000000000F5F500000000000000F500F500000000000000F5000000002800000000F50000000000000000F5000000000000000000000000000000002D2D2D2D2D2D2D2D2D2D2D2D2D2D2D2D2D002D2D2D2D2D2D2D2D2D2D2D2D000000000000000000000000000000000000000000
310
000000000000000000000000000000000000000000000000000000000000000000000000000000000000000000000000000000000000000000000000000000000000000000000000000000000000000000000000000000000000000000000000000000000000000000000000000000000000000000000000000000F5000000
310
000000000000000000F5F5000000000028000000000000F5F500000000000000F500F500000000000000F5000000002800000000F50000000000000000F5000000000000000000000000000000002D2D2D2D2D2D2D2D2D2D2D2D2D2D2D2D2D2D2D2D2D2D2D2D2D2D2D2D2D2D00000000000000000000000000000000000000
310
0000000000000000000000000000000000000000000000000000000000000000000000000000000000000000000000000000000000000000000000000000000000000000000000000000000000000000000000000000000000000000000000000000000000000000000000000000000000000000000000000000000000F500
310
0000000000000000000000F5F5000000000028000000000000F5F500000000000000F500F500000000000000F5000000002800000000F500000000000000F500000000000000000000000000000000002D2D2D2D2D2D2D2D2D2D2D002D2D2D2D2D002D2D2D2D2D2D2D2D2D2D2D2D0000000000000000000000000000000000
310
00000000000000000000000000000000000000000000000000000000000000000000000000000000000000000000000000000000000000000000000000000000000000000000000000000000000000000000000000000000000000000000000000000000000000000000000000000000000000000000000000000000000000
310
F5000000000000000000000000F5F5000000000028000000000000F5F500000000000000F500F500000000000000F5000000002800000000F500000000000000F500000000000000000000000000000000002D2D2D2D2D2D2D2D2D2D2D2D2D2D2D2D2D2D2D2D2D2D2D2D2D2D2D2D2D00000000000000000000000000000000
310
00000000000000000000000000000000000000000000000000000000000000000000000000000000000000000000000000000000000000000000000000000000000000000000000000000000000000000000000000000000000000000000000000000000000000000000000000000000000000000000000000000000000000
310
2828F5282828282828282828282828F5F5282828282828282828282828F5F528282828282828F528F528282828282828F5282828282828282828F528282828282828F528282800000000000000000000000000002D2D2D2D2D2D2D2D2D2D2D002D2D2D2D00002D2D2D2D2D2D2D2D2D2D2D2D2D000000000000000000000000
310
00000000000000000000000000000000000000000000000000000000000000000000000000000000000000000000000000000000000000000000000000000000000000000000000000000000000000000000000000000000000000000000000000000000000000000000000000000000000000000000000000000000000000
310
00000000F5000000000000000000000000F5F5000000000028000000000000F5F5000000000000000000F500000000000000F5000000002800000000F500000000000000F500000000000000000000000000000000002D2D2D2D2D2D2D2D2D2D2D2D2D2D2D2D2D2D2D2D2D2D2D2D2D2D2D2D2D002D00000000000000000000
310
00000000000000000000000000000000000000000000000000000000000000000000000000000000000000000000000000000000000000000000000000000000000000000000000000000000000000000000000000000000000000000000000000000000000000000000000000000000000000000000000000000000000000
310
000000000000F5000000000000000000000000F5F5000000000028000000000000F5F5000000000000000000F500000000000000F5000000002800000000F500000000000000F500000000000000000000000000000000002D2D2D2D2D2D002D2D2D2D002D2D2D2D2D002D2D2D2D2D2D2D2D2D2D2D2D2D0000000000000000
310
00000000000000000000000000000000000000000000000000000000000000000000000000000000000000000000000000000000000000000000000000000000000000000000000000000000000000000000000000000000000000000000000000000000000000000000000000000000000000000000000000000000000000
310
0000000000000000F5000000000000000000000000F5F5000000000028000000000000F5F5000000000000000000F500000000000000F5000000002800000000F500000000000000F5000000000000000000000000000000000000000000000000000000000000000000000000000000000000000000000000000000000000
310
00000000000000000000000000000000000000000000000000000000000000000000000000000000000000000000000000000000000000000000000000000000000000000000000000000000000000000000000000000000000000000000000000000000000000000000000000000000000000000000000000000000000000
310
00000000000000000000F5000000000000000000000000F5F5F500000000280000000000F5F5F5000000000000000000F500000000000000F5000000002800000000F500000000000000F500000000000000000000000000000000002D2D2D2D2D00002D2D2D2D002D2D2D2D2D2D2D2D00002D2D2D2D2D2D2D000000000000
310
00000000000000000000000000000000000000000000000000000000000000000000000000000000000000000000000000000000000000000000000000000000000000000000000000000000000000000000000000000000000000000000000000000000000000000000000000000000000000000000000000000000000000
310
000000000000000000000000F5000000000000000000000000F5F5F5F50000002800000000F5F5F5F5000000000000000000F500000000000000F5000000002800000000F500000000000000F500000000000000000000000000000000002D2D2D2D2D2D2D2D2D2D2D2D2D2D2D2D2D2D2D2D2D2D2D2D2D2D2D2D2D00000000
310
00000000000000000000000000000000000000000000000000000000000000000000000000000000000000000000000000000000000000000000000000000000000000000000000000000000000000000000000000000000000000000000000000000000000000000000000000000000000000000000000000000000000000
310
0000000000000000000000000000F5000000000000000000000000F5F5F5F5F5F5F5F5F5F5F5F5F5F5F5F5000000000000000000F500000000000000F5000000002800000000F500000000000000F500000000000000000000000000000000002D2D2D2D2D00002D2D2D2D002D2D00002D2D2D2D00002D2D2D2D2D2D000000
310
00000000000000000000000000000000000000000000000000000000000000000000000000000000000000000000000000000000000000000000000000000000000000000000000000000000000000000000000000000000000000000000000000000000000000000000000000000000000000000000000000000000000000
310
00000000000000000000000000000000F5000000000000000000000000F5F5F5F5F5F5F5F5F5F5F5F5F5F5F5F5000000000000000000F500000000000000F5000000002800000000F500000000000000F500000000000000000000000000000000002D2D2D2D2D2D2D2D2D2D2D2D2D2D2D2D2D2D2D2D2D2D2D2D2D2D2D0000
310
00000000000000000000000000000000000000000000000000000000000000000000000000000000000000000000000000000000000000000000000000000000000000000000000000000000000000000000000000000000000000000000000000000000000000000000000000000000000000000000000000000000000000
310
000000000000000000000000000000000000F5F5F5F5F5F5F5F5F5F5F5F5F5F5F5F5F5F5F5F528F5F5F5F5F5F5F5F5F5F5F5F5F5F5F5F5F5F500000000000000F5000000002800000000F500000000000000F500000000000000000000000000000000002D2D2D2D2D00002D2D2D2D002D2D00002D2D2D2D00002D2D2D2D2D
310
2D2D0000000000000000000000000000000000000000000000000000000000000000000000000000000000000000000000000000000000000000000000000000000000000000000000000000000000000000000000000000000000000000000000000000000000000000000000000000000000000000000000000000000000
310
0000000000000000000000000000000000000000F5000000000000000000000000F50000F500000000000000000000000000000000000000F5F50000000000000000F5000000002800000000F500000000000000F500000000000000000000000000000000002D2D2D2D2D2D2D2D2D2D2D2D2D2D2D2D2D2D2D2D2D2D2D2D2D
310
2D2D2D2D000000000000000000000000000000000000000000000000000000000000000000000000000000000000000000000000000000000000000000000000000000000000000000000000000000000000000000000000000000000000000000000000000000000000000000000000000000000000000000000000000000
310
00000000000000000000000000000000000000000000F5000000000000000000000000F50000F500000000000000000000000000000000000000F5F5F5F5F5F5F5F5F5F5F5F5F5F5F5F5F5F5F5F5F5F5F5F5F5F5F5F5F5F5000000000000000000000000000000002D2D2D2D2D002D2D2D2D00002D2D2D002D2D2D2D00002D
310
2D2D2D2D2D2D00000000000000000000000000000000000000000000000000000000000000000000000000000000000000000000000000000000000000000000000000000000000000000000000000000000000000000000000000000000000000000000000000000000000000000000000000000000000000000000000000
310
000000000000000000000000000000000000000000000000F5000000000000000000000000F50000F500000000000000000000000000000000000000F5F5F500000000F5F5F500000000002800000000F5F5F5F500000000F500000000000000000000000000000000002D2D2D2D2D2D2D2D2D2D2D2D2D2D2D2D2D2D2D2D2D
310
2D2D2D2D2D2D2D000000000000000000000000000000000000000000000000000000000000000000000000000000000000000000000000000000000000000000000000000000000000000000000000000000000000000000000000000000000000000000000000000000000000000000000000000000000000000000000000
310
0000000000000000000000000000000000000000000000000000F5000000000000000000000000F50000F5000000000000000000000000000000000000F5F5F5000000000000F5F5F5F5F5F5F5F5F5F5F5F5F5F5F500000000000000000000000000000000000000000000002D2D2D2D2D002D2D2D2D00002D2D2D2D2D2D2D
310
2D00002D2D2D2D2D2D00000000000000000000000000000000000000000000000000000000000000000000000000000000000000000000000000000000000000000000000000000000000000000000000000000000000000000000000000000000000000000000000000000000000000000000000000000000000000000000
310
0000000000000000000000000000000000000000000000000000000000F5F5F5F5F5F5F5F5F5F5F5F5F5F5F5F5F5F5F5F5F5F5F5F5F5F5F5F5F5F5F5F5F5F5F5F50000000000000000000000F500002800F5F50000000000000000000000000000000000000000000000000000002D2D2D2D2D00002D2D2D2D002D2D2D2D2D
310
2D2D2D00002D2D2D2D2D2D2D00000000000000000000000000000000000000000000000000000000000000000000000000000000000000000000000000000000000000000000000000000000000000000000000000000000000000000000000000000000000000000000000000000000000000000000000000000000000000
310
000000000000000000000000000000000000000000000000000000000000000000000000000000000000000000000000000000000000000000000000000000000000000000000000000000000000F500002800F5F50000000000000000000000000000000000000000000000000000002D2D2D2D2D2D2D2D2D2D2D2D2D2D2D
310
2D2D2D2D2D2D2D2D2D2D2D2D2D2D0000000000000000000000000000000000000000000000000000000000000000000000000000000000000000000000000000000000000000000000000000000000000000000000000000000000000000000000000000000000000000000000000000000000000000000000000000000000
310
0000000000000000000000000000000000000000000000000000000000000000000000000000000000000000000000000000000000000000000000000000000000000000000000000000000000000000F500002800F5F500000000000000000000000000000000000000000000000000000000000000000000000000000000
310
00000000000000000000000000000000000000000000000000000000000000000000000000000000000000000000000000000000000000000000000000000000000000000000000000000000000000000000000000000000000000000000000000000000000000000000000000000000000000000000000000000000000000
310
00000000000000000000000000000000000000000000000000000000000000000000000000000000000000000000000000000000000000000000000000000000000000000000000000000000000000000000F500002800F5F50000000000000000000000000000000000000000000000000000000000000000000000000000
310
00000000000000000000000000000000000000000000000000000000000000000000000000000000000000000000000000000000000000000000000000000000000000000000000000000000000000000000000000000000000000000000000000000000000000000000000000000000000000000000000000000000000000
310
000000000000000000000000000000000000000000000000000000000000000000000000000000000000000000000000000000000000000000000000000000000000000000000000000000000000000000000000F500002800F5F5000000000000000000000000000000000000000000000000000000000000000000000000
310
00000000000000000000000000000000000000000000000000000000000000000000000000000000000000000000000000000000000000000000000000000000000000000000000000000000000000000000000000000000000000000000000000000000000000000000000000000000000000000000000000000000000000
310
0000000000000000000000000000000000000000000000000000000000000000000000000000000000000000000000000000000000000000000000000000000000000000000000000000000000000000000000000000F500002800F5F500000000000000000000000000000000000000000000000000000000000000000000
310
00000000000000000000000000000000000000000000000000000000000000000000000000000000000000000000000000000000000000000000000000000000000000000000000000000000000000000000000000000000000000000000000000000000000000000000000000000000000000000000000000000000000000
310
00000000000000000000000000000000000000000000000000000000000000000000000000000000000000000000000000000000000000000000000000000000000000000000000000000000000000000000000000000000F500002800F5F50000000000000000000000000000000000000000000000000000000000000000
310
00000000000000000000000000000000000000000000000000000000000000000000000000000000000000000000000000000000000000000000000000000000000000000000000000000000000000000000000000000000000000000000000000000000000000000000000000000000000000000000000000000000000000
310
000000000000000000000000000000000000000000000000000000000000000000000000000000000000000000000000000000000000000000000000000000000000000000000000000000000000000000000000000000000000F500002800F5F5000000000000000000000000000000000000000000000000000000000000
310
00000000000000000000000000000000000000000000000000000000000000000000000000000000000000000000000000000000000000000000000000000000000000000000000000000000000000000000000000000000000000000000000000000000000000000000000000000000000000000000000000000000000000
310
0000000000000000000000000000000000000000000000000000000000000000000000000000000000000000000000000000000000000000000000000000000000000000000000000000000000000000000000000000000000000000F5F5F5F5F5F5F500000000000000000000000000000000000000000000000000000000
310
00000000000000000000000000000000000000000000000000000000000000000000000000000000000000000000000000000000000000000000000000000000000000000000000000000000000000000000000000000000000000000000000000000000000000000000000000000000000000000000000000000000000000
310
00000000000000000000000000000000000000000000000000000000000000000000000000000000000000000000000000000000000000000000000000000000000000000000000000000000000000000000000000000000000000000000000000280000000000000000000000000000000000000000000000000000000000
310
00000000000000000000000000000000000000000000000000000000000000000000000000000000000000000000000000000000000000000000000000000000000000000000000000000000000000000000000000000000000000000000000000000000000000000000000000000000000000000000000000000000000000
310
00000000000000000000000000000000000000000000000000000000000000000000000000000000000000000000000000000000000000000000000000000000000000000000000000000000000000000000000000000000000000000000000000000028000000000000000000000000000000000000000000000000000000
310
00000000000000000000000000000000000000000000000000000000000000000000000000000000000000000000000000000000000000000000000000000000000000000000000000000000000000000000000000000000000000000000000000000000000000000000000000000000000000000000000000000000000000
310
00000000000000000000000000000000000000000000000000000000000000000000000000000000000000000000000000000000000000000000000000000000000000000000000000000000000000000000000000000000000000000000000000000000000000000000000000000000000000000000000000000000000000
310
00000000000000000000000000000000000000000000000000000000000000000000000000000000000000000000000000000000000000000000000000000000000000000000000000000000000000000000000000000000000000000000000000000000000000000000000000000000000000000000000000000000000000
310
00000000000000000000000000000000000000000000000000000000000000000000000000000000000000000000000000000000000000000000000000000000000000000000000000000000000000000000000000000000000000000000000000000000000000000000000000000000000000000000000000000000000000
310
00000000000000000000000000000000000000000000000000000000000000000000000000000000000000000000000000000000000000000000000000000000000000000000000000000000000000000000000000000000000000000000000000000000000000000000000000000000000000000000000000000000000000
310
00000000000000000000000000000000000000000000000000000000000000000000000000000000000000000000000000000000000000000000000000000000000000000000000000000000000000000000000000000000000000000000000000000000000000000000000000000000000000000000000000000000000000
310
00000000000000000000000000000000000000000000000000000000000000000000000000000000000000000000000000000000000000000000000000000000000000000000000000000000000000000000000000000000000000000000000000000000000000000000000000000000000000000000000000000000000000
310
00000000000000000000000000000000000000000000000000000000000000000000000000000000000000000000000000000000000000000000000000000000000000000000000000000000000000000000000000000000000000000000000000000000000000000000000000000000000000000000000000000000000000
310
00000000000000000000000000000000000000000000000000000000000000000000000000000000000000000000000000000000000000000000000000000000000000000000000000000000000000000000000000000000000000000000000000000000000000000000000000000000000000000000000000000000000000
310
00000000000000000000000000000000000000000000000000000000000000000000000000000000000000000000000000000000000000000000000000000000000000000000000000000000000000000000000000000000000000000000000000000000000000000000000000000000000000000000000000000000000000
310
00000000000000000000000000000000000000000000000000000000000000000000000000000000000000000000000000000000000000000000000000000000000000000000000000000000000000000000000000000000000000000000000000000000000000000000000000000000000000000000000000000000000000
310
00000000000000000000000000000000000000000000000000000000000000000000000000000000000000000000000000000000000000000000000000000000000000000000000000000000000000000000000000000000000000000000000000000000000000000000000000000000000000000000000000000000000000
310
00000000000000000000000000000000000000000000000000000000000000000000000000000000000000000000000000000000000000000000000000000000000000000000000000000000000000000000000000000000000000000000000000000000000000000000000000000000000000000000000000000000000000
310
00000000000000000000000000000000000000000000000000000000000000000000000000000000000000000000000000000000000000000000000000000000000000000000000000000000000000000000000000000000000000000000000000000000000000000000000000000000000000000000000000000000000000
310
00000000000000000000000000000000000000000000000000000000000000000000000000000000000000000000000000000000000000000000000000000000000000000000000000000000000000000000000000000000000000000000000000000000000000000000000000000000000000000000000000000000000000
310
00000000000000000000000000000000000000000000000000000000000000000000000000000000000000000000000000000000000000000000000000000000000000000000000000000000000000000000000000000000000000000000000000000000000000000000000000000000000000000000000000000000000000
310
00000000000000000000000000000000000000000000000000000000000000000000000000000000000000000000000000000000000000000000000000000000000000000000000000000000000000000000000000000000000000000000000000000000000000000000000000000000000000000000000000000000000000
310
00000000000000000000000000000000000000000000000000000000000000000000000000000000000000000000000000000000000000000000000000000000000000000000000000000000000000000000000000000000000000000000000000000000000000000000000000000000000000000000000000000000000000
310
00000000000000000000000000000000000000000000000000000000000000000000000000000000000000000000000000000000000000000000000000000000000000000000000000000000000000000000000000000000000000000000000000000000000000000000000000000000000000000000000000000000000000
310
00000000000000000000000000000000000000000000000000000000000000000000000000000000000000000000000000000000000000000000000000000000000000000000000000000000000000000000000000000000000000000000000000000000000000000000000000000000000000000000000000000000000000
310
00000000000000000000000000000000000000000000000000000000000000000000000000000000000000000000000000000000000000000000000000000000000000000000000000000000000000000000000000000000000000000000000000000000000000000000000000000000000000000000000000000000000000
310
00000000000000000000000000000000000000000000000000000000000000000000000000000000000000000000000000000000000000000000000000000000000000000000000000000000000000000000000000000000000000000000000000000000000000000000000000000000000000000000000000000000000000
310
00000000000000000000000000000000000000000000000000000000000000000000000000000000000000000000000000000000000000000000000000000000000000000000000000000000000000000000000000000000000000000000000000000000000000000000000000000000000000000000000000000000000000
310
00000000000000000000000000000000000000000000000000000000000000000000000000000000000000000000000000000000000000000000000000000000000000000000000000000000000000000000000000000000000000000000000000000000000000000000000000000000000000000000000000000000000000
310
00000000000000000000000000000000000000000000000000000000000000000000000000000000000000000000000000000000000000000000000000000000000000000000000000000000000000000000000000000000000000000000000000000000000000000000000000000000000000000000000000000000000000
310
00000000000000000000000000000000000000000000000000000000000000000000000000000000000000000000000000000000000000000000000000000000000000000000000000000000000000000000000000000000000000000000000000000000000000000000000000000000000000000000000000000000000000
310
00000000000000000000000000000000000000000000000000000000000000000000000000000000000000000000000000000000000000000000000000000000000000000000000000000000000000000000000000000000000000000000000000000000000000000000000000000000000000000000000000000000000000
310
00000000000000000000000000000000000000000000000000000000000000000000000000000000000000000000000000000000000000000000000000000000000000000000000000000000000000000000000000000000000000000000000000000000000000000000000000000000000000000000000000000000000000
310
00000000000000000000000000000000000000000000000000000000000000000000000000000000000000000000000000000000000000000000000000000000000000000000000000000000000000000000000000000000000000000000000000000000000000000000000000000000000000000000000000000000000000
310
00000000000000000000000000000000000000000000000000000000000000000000000000000000000000000000000000000000000000000000000000000000000000000000000000000000000000000000000000000000000000000000000000000000000000000000000000000000000000000000000000000000000000
310
00000000000000000000000000000000000000000000000000000000000000000000000000000000000000000000000000000000000000000000000000000000000000000000000000000000000000000000000000000000000000000000000000000000000000000000000000000000000000000000000000000000000000
310
00000000000000000000000000000000000000000000000000000000000000000000000000000000000000000000000000000000000000000000000000000000000000000000000000000000000000000000000000000000000000000000000000000000000000000000000000000000000000000000000000000000000000
310
00000000000000000000000000000000000000000000000000000000000000000000000000000000000000000000000000000000000000000000000000000000000000000000000000000000000000000000000000000000000000000000000000000000000000000000000000000000000000000000000000000000000000
310
00000000000000000000000000000000000000000000000000000000000000000000000000000000000000000000000000000000000000000000000000000000000000000000000000000000000000000000000000000000000000000000000000000000000000000000000000000000000000000000000000000000000000
310
00000000000000000000000000000000000000000000000000000000000000000000000000000000000000000000000000000000000000000000000000000000000000000000000000000000000000000000000000000000000000000000000000000000000000000000000000000000000000000000000000000000000000
310
00000000000000000000000000000000000000000000000000000000000000000000000000000000000000000000000000000000000000000000000000000000000000000000000000000000000000000000000000000000000000000000000000000000000000000000000000000000000000000000000000000000000000
310
00000000000000000000000000000000000000000000000000000000000000000000000000000000000000000000000000000000000000000000000000000000000000000000000000000000000000000000000000000000000000000000000000000000000000000000000000000000000000000000000000000000000000
310
00000000000000000000000000000000000000000000000000000000000000000000000000000000000000000000000000000000000000000000000000000000000000000000000000000000000000000000000000000000000000000000000000000000000000000000000000000000000000000000000000000000000000
310
00000000000000000000000000000000000000000000000000000000000000000000000000000000000000000000000000000000000000000000000000000000000000000000000000000000000000000000000000000000000000000000000000000000000000000000000000000000000000000000000000000000000000
310
00000000000000000000000000000000000000000000000000000000000000000000000000000000000000000000000000000000000000000000000000000000000000000000000000000000000000000000000000000000000000000000000000000000000000000000000000000000000000000000000000000000000000
310
00000000000000000000000000000000000000000000000000000000000000000000000000000000000000000000000000000000000000000000000000000000000000000000000000000000000000000000000000000000000000000000000000000000000000000000000000000000000000000000000000000000000000
310
00000000000000000000000000000000000000000000000000000000000000000000000000000000000000000000000000000000000000000000
  0
XRECORD
  5
2939
102
{ACAD_REACTORS
330
2938
102
}
330
2938
100
AcDbXrecord
280
     1
102
SHADEPLOT
 70
     0
102
SHADEPLOTRESLEVEL
 70
     2
102
SHADEPLOTCUSTOMDPI
 70
   300
  0
XRECORD
  5
28DD
102
{ACAD_REACTORS
330
1A67
102
}
330
1A67
100
AcDbXrecord
280
     1
102
MATERIAL
148
0.0
149
0.0
149
0.0
 93
        0
 94
      127
282
     0
 72
     0
 77
     0
171
     0
175
     0
179
     0
273
     0
  0
XRECORD
  5
1A69
102
{ACAD_REACTORS
330
1A67
102
}
330
1A67
100
AcDbXrecord
280
     1
270
     1
271
     1
  0
XRECORD
  5
1A68
102
{ACAD_REACTORS
330
1A67
102
}
330
1A67
100
AcDbXrecord
280
     1
270
     1
271
     1
  0
XRECORD
  5
1A6C
102
{ACAD_REACTORS
330
1A67
102
}
330
1A67
100
AcDbXrecord
280
     1
270
     1
271
     1
  0
XRECORD
  5
1A6B
102
{ACAD_REACTORS
330
1A67
102
}
330
1A67
100
AcDbXrecord
280
     1
270
     1
271
     1
  0
XRECORD
  5
1A6D
102
{ACAD_REACTORS
330
1A67
102
}
330
1A67
100
AcDbXrecord
280
     1
270
     1
271
     1
  0
XRECORD
  5
1A6A
102
{ACAD_REACTORS
330
1A67
102
}
330
1A67
100
AcDbXrecord
280
     1
270
     1
271
     1
  0
XRECORD
  5
28DC
102
{ACAD_REACTORS
330
1A5F
102
}
330
1A5F
100
AcDbXrecord
280
     1
102
MATERIAL
148
0.0
149
0.0
149
0.0
 93
        0
 94
      127
282
     0
 72
     0
 77
     0
171
     0
175
     0
179
     0
273
     0
  0
XRECORD
  5
1A61
102
{ACAD_REACTORS
330
1A5F
102
}
330
1A5F
100
AcDbXrecord
280
     1
270
     1
271
     1
  0
XRECORD
  5
1A60
102
{ACAD_REACTORS
330
1A5F
102
}
330
1A5F
100
AcDbXrecord
280
     1
270
     1
271
     1
  0
XRECORD
  5
1A64
102
{ACAD_REACTORS
330
1A5F
102
}
330
1A5F
100
AcDbXrecord
280
     1
270
     1
271
     1
  0
XRECORD
  5
1A63
102
{ACAD_REACTORS
330
1A5F
102
}
330
1A5F
100
AcDbXrecord
280
     1
270
     1
271
     1
  0
XRECORD
  5
1A65
102
{ACAD_REACTORS
330
1A5F
102
}
330
1A5F
100
AcDbXrecord
280
     1
270
     1
271
     1
  0
XRECORD
  5
1A62
102
{ACAD_REACTORS
330
1A5F
102
}
330
1A5F
100
AcDbXrecord
280
     1
270
     1
271
     1
  0
XRECORD
  5
28DE
102
{ACAD_REACTORS
330
1A6F
102
}
330
1A6F
100
AcDbXrecord
280
     1
102
MATERIAL
148
0.0
149
0.0
149
0.0
 93
        0
 94
      127
282
     0
 72
     0
 77
     0
171
     0
175
     0
179
     0
273
     0
  0
XRECORD
  5
1A71
102
{ACAD_REACTORS
330
1A6F
102
}
330
1A6F
100
AcDbXrecord
280
     1
270
     1
271
     1
  0
XRECORD
  5
1A70
102
{ACAD_REACTORS
330
1A6F
102
}
330
1A6F
100
AcDbXrecord
280
     1
270
     1
271
     1
  0
XRECORD
  5
1A74
102
{ACAD_REACTORS
330
1A6F
102
}
330
1A6F
100
AcDbXrecord
280
     1
270
     1
271
     1
  0
XRECORD
  5
1A73
102
{ACAD_REACTORS
330
1A6F
102
}
330
1A6F
100
AcDbXrecord
280
     1
270
     1
271
     1
  0
XRECORD
  5
1A75
102
{ACAD_REACTORS
330
1A6F
102
}
330
1A6F
100
AcDbXrecord
280
     1
270
     1
271
     1
  0
XRECORD
  5
1A72
102
{ACAD_REACTORS
330
1A6F
102
}
330
1A6F
100
AcDbXrecord
280
     1
270
     1
271
     1
  0
XRECORD
  5
2925
102
{ACAD_REACTORS
330
2924
102
}
330
2924
100
AcDbXrecord
280
     1
102
DISPLAYNAME
  1
Imperial24
102
FLAGS
 90
        0
  0
CELLSTYLEMAP
  5
28D8
102
{ACAD_REACTORS
330
1C7E
102
}
330
1C7E
100
AcDbCellStyleMap
 90
        3
300
CELLSTYLE
  1
TABLEFORMAT_BEGIN
 90
        5
170
     1
 91
        0
 92
    32768
 62
   257
 93
        1
300
CONTENTFORMAT
  1
CONTENTFORMAT_BEGIN
 90
        0
 91
        0
 92
      512
 93
        0
300

 40
0.0
140
1.0
 94
        5
 62
     0
340
16
144
0.25
309
CONTENTFORMAT_END
171
     1
301
MARGIN
  1
CELLMARGIN_BEGIN
 40
0.06
 40
0.06
 40
0.06
 40
0.06
 40
0.18
 40
0.18
309
CELLMARGIN_END
 94
        6
 95
        1
302
GRIDFORMAT
  1
GRIDFORMAT_BEGIN
 90
        0
 91
        1
 62
     0
 92
       -2
340
0
 93
        0
 40
0.045
309
GRIDFORMAT_END
 95
        2
302
GRIDFORMAT
  1
GRIDFORMAT_BEGIN
 90
        0
 91
        1
 62
     0
 92
       -2
340
0
 93
        0
 40
0.045
309
GRIDFORMAT_END
 95
        4
302
GRIDFORMAT
  1
GRIDFORMAT_BEGIN
 90
        0
 91
        1
 62
     0
 92
       -2
340
0
 93
        0
 40
0.045
309
GRIDFORMAT_END
 95
        8
302
GRIDFORMAT
  1
GRIDFORMAT_BEGIN
 90
        0
 91
        1
 62
     0
 92
       -2
340
0
 93
        0
 40
0.045
309
GRIDFORMAT_END
 95
       16
302
GRIDFORMAT
  1
GRIDFORMAT_BEGIN
 90
        0
 91
        1
 62
     0
 92
       -2
340
0
 93
        0
 40
0.045
309
GRIDFORMAT_END
 95
       32
302
GRIDFORMAT
  1
GRIDFORMAT_BEGIN
 90
        0
 91
        1
 62
     0
 92
       -2
340
0
 93
        0
 40
0.045
309
GRIDFORMAT_END
309
TABLEFORMAT_END
  1
CELLSTYLE_BEGIN
 90
        1
 91
        1
300
_TITLE
309
CELLSTYLE_END
300
CELLSTYLE
  1
TABLEFORMAT_BEGIN
 90
        5
170
     1
 91
        0
 92
        0
 62
   257
 93
        1
300
CONTENTFORMAT
  1
CONTENTFORMAT_BEGIN
 90
        0
 91
        0
 92
      512
 93
        0
300

 40
0.0
140
1.0
 94
        5
 62
     0
340
16
144
0.18
309
CONTENTFORMAT_END
171
     1
301
MARGIN
  1
CELLMARGIN_BEGIN
 40
0.06
 40
0.06
 40
0.06
 40
0.06
 40
0.18
 40
0.18
309
CELLMARGIN_END
 94
        6
 95
        1
302
GRIDFORMAT
  1
GRIDFORMAT_BEGIN
 90
        0
 91
        1
 62
     0
 92
       -2
340
0
 93
        0
 40
0.045
309
GRIDFORMAT_END
 95
        2
302
GRIDFORMAT
  1
GRIDFORMAT_BEGIN
 90
        0
 91
        1
 62
     0
 92
       -2
340
0
 93
        0
 40
0.045
309
GRIDFORMAT_END
 95
        4
302
GRIDFORMAT
  1
GRIDFORMAT_BEGIN
 90
        0
 91
        1
 62
     0
 92
       -2
340
0
 93
        0
 40
0.045
309
GRIDFORMAT_END
 95
        8
302
GRIDFORMAT
  1
GRIDFORMAT_BEGIN
 90
        0
 91
        1
 62
     0
 92
       -2
340
0
 93
        0
 40
0.045
309
GRIDFORMAT_END
 95
       16
302
GRIDFORMAT
  1
GRIDFORMAT_BEGIN
 90
        0
 91
        1
 62
     0
 92
       -2
340
0
 93
        0
 40
0.045
309
GRIDFORMAT_END
 95
       32
302
GRIDFORMAT
  1
GRIDFORMAT_BEGIN
 90
        0
 91
        1
 62
     0
 92
       -2
340
0
 93
        0
 40
0.045
309
GRIDFORMAT_END
309
TABLEFORMAT_END
  1
CELLSTYLE_BEGIN
 90
        2
 91
        1
300
_HEADER
309
CELLSTYLE_END
300
CELLSTYLE
  1
TABLEFORMAT_BEGIN
 90
        5
170
     1
 91
        0
 92
        0
 62
   257
 93
        1
300
CONTENTFORMAT
  1
CONTENTFORMAT_BEGIN
 90
        0
 91
        0
 92
      512
 93
        0
300

 40
0.0
140
1.0
 94
        2
 62
     0
340
16
144
0.18
309
CONTENTFORMAT_END
171
     1
301
MARGIN
  1
CELLMARGIN_BEGIN
 40
0.06
 40
0.06
 40
0.06
 40
0.06
 40
0.18
 40
0.18
309
CELLMARGIN_END
 94
        6
 95
        1
302
GRIDFORMAT
  1
GRIDFORMAT_BEGIN
 90
        0
 91
        1
 62
     0
 92
       -2
340
0
 93
        0
 40
0.045
309
GRIDFORMAT_END
 95
        2
302
GRIDFORMAT
  1
GRIDFORMAT_BEGIN
 90
        0
 91
        1
 62
     0
 92
       -2
340
0
 93
        0
 40
0.045
309
GRIDFORMAT_END
 95
        4
302
GRIDFORMAT
  1
GRIDFORMAT_BEGIN
 90
        0
 91
        1
 62
     0
 92
       -2
340
0
 93
        0
 40
0.045
309
GRIDFORMAT_END
 95
        8
302
GRIDFORMAT
  1
GRIDFORMAT_BEGIN
 90
        0
 91
        1
 62
     0
 92
       -2
340
0
 93
        0
 40
0.045
309
GRIDFORMAT_END
 95
       16
302
GRIDFORMAT
  1
GRIDFORMAT_BEGIN
 90
        0
 91
        1
 62
     0
 92
       -2
340
0
 93
        0
 40
0.045
309
GRIDFORMAT_END
 95
       32
302
GRIDFORMAT
  1
GRIDFORMAT_BEGIN
 90
        0
 91
        1
 62
     0
 92
       -2
340
0
 93
        0
 40
0.045
309
GRIDFORMAT_END
309
TABLEFORMAT_END
  1
CELLSTYLE_BEGIN
 90
        3
 91
        2
300
_DATA
309
CELLSTYLE_END
  0
XRECORD
  5
2905
102
{ACAD_REACTORS
330
1C7E
102
}
330
1C7E
100
AcDbXrecord
280
     1
102
ACAD_ROUNDTRIP_PRE2007_TABLESTYLE
 90
      512
 91
        0
  1

 92
      512
 93
        0
  2

 94
      512
 95
        0
  3

  0
XRECORD
  5
28EA
102
{ACAD_REACTORS
330
28E9
102
}
330
28E9
100
AcDbXrecord
280
     1
102
RTVSPost2010Prop28
280
     1
102
RTVSPost2010PropOp28
 70
     1
102
RTVSPost2010Prop29
280
     1
102
RTVSPost2010PropOp29
 70
     1
102
RTVSPost2010Prop30
280
     0
102
RTVSPost2010PropOp30
 70
     1
102
RTVSPost2010Prop31
280
     0
102
RTVSPost2010PropOp31
 70
     1
102
RTVSPost2010Prop32
280
     0
102
RTVSPost2010PropOp32
 70
     1
102
RTVSPost2010Prop33
280
     0
102
RTVSPost2010PropOp33
 70
     1
102
RTVSPost2010Prop34
280
     0
102
RTVSPost2010PropOp34
 70
     1
102
RTVSPost2010Prop35
280
     0
102
RTVSPost2010PropOp35
 70
     1
102
RTVSPost2010Prop36
280
     0
102
RTVSPost2010PropOp36
 70
     1
102
RTVSPost2010Prop37
 90
       50
102
RTVSPost2010PropOp37
 70
     1
102
RTVSPost2010Prop38
140
0.0
102
RTVSPost2010PropOp38
 70
     1
102
RTVSPost2010Prop39
140
1.0
102
RTVSPost2010PropOp39
 70
     1
102
RTVSPost2010Prop40
 90
        0
102
RTVSPost2010PropOp40
 70
     1
102
RTVSPost2010Prop41ColorIndex
 90
       18
102
RTVSPost2010Prop41ColorRGB
 90
        0
102
RTVSPost2010PropOp41
 70
     1
102
RTVSPost2010Prop42
 90
       50
102
RTVSPost2010PropOp42
 70
     1
102
RTVSPost2010Prop43
 90
        3
102
RTVSPost2010PropOp43
 70
     1
102
RTVSPost2010Prop44ColorIndex
 90
        5
102
RTVSPost2010Prop44ColorRGB
 90
      255
102
RTVSPost2010PropOp44
 70
     1
102
RTVSPost2010Prop45
280
     0
102
RTVSPost2010PropOp45
 70
     1
102
RTVSPost2010Prop46
 90
       50
102
RTVSPost2010PropOp46
 70
     1
102
RTVSPost2010Prop47
 90
       50
102
RTVSPost2010PropOp47
 70
     1
102
RTVSPost2010Prop48
 90
       50
102
RTVSPost2010PropOp48
 70
     1
102
RTVSPost2010Prop49
280
     0
102
RTVSPost2010PropOp49
 70
     1
102
RTVSPost2010Prop50
 90
       50
102
RTVSPost2010PropOp50
 70
     1
102
RTVSPost2010Prop51ColorIndex
 90
      256
102
RTVSPost2010Prop51ColorRGB
 90
-16777216
102
RTVSPost2010PropOp51
 70
     0
102
RTVSPost2010Prop52
140
1.0
102
RTVSPost2010PropOp52
 70
     0
102
RTVSPost2010Prop53
 90
        2
102
RTVSPost2010PropOp53
 70
     1
102
RTVSPost2010Prop54
  1
strokes_ogs.tif
102
RTVSPost2010PropOp54
 70
     1
102
RTVSPost2010Prop55
280
     0
102
RTVSPost2010PropOp55
 70
     1
102
RTVSPost2010Prop56
140
1.0
102
RTVSPost2010PropOp56
 70
     1
102
RTVSPost2010Prop57
140
1.0
102
RTVSPost2010PropOp57
 70
     1
102
RTVSPropertyOp0
 70
     1
102
RTVSPropertyOp1
 70
     1
102
RTVSPropertyOp2
 70
     1
102
RTVSPropertyOp3
 70
     1
102
RTVSPropertyOp4
 70
     1
102
RTVSPropertyOp5
 70
     1
102
RTVSPropertyOp6
 70
     1
102
RTVSPropertyOp7
 70
     1
102
RTVSPropertyOp8
 70
     1
102
RTVSPropertyOp9
 70
     1
102
RTVSPropertyOp10
 70
     1
102
RTVSPropertyOp11
 70
     1
102
RTVSPropertyOp12
 70
     1
102
RTVSPropertyOp13
 70
     1
102
RTVSPropertyOp14
 70
     1
102
RTVSPropertyOp15
 70
     1
102
RTVSPropertyOp16
 70
     1
102
RTVSPropertyOp17
 70
     1
102
RTVSPropertyOp18
 70
     1
102
RTVSPropertyOp19
 70
     1
102
RTVSPropertyOp20
 70
     1
102
RTVSPropertyOp21
 70
     1
102
RTVSPropertyOp22
 70
     1
102
RTVSPropertyOp23
 70
     1
102
RTVSPropertyOp24
 70
     1
102
RTVSPropertyOp25
 70
     1
102
RTVSPropertyOp26
 70
     1
102
RTVSPropertyOp27
 70
     1
102
RTVSPropertyOp28
 70
     1
102
RTVSPropertyOp29
 70
     1
102
RTVSPropertyOp30
 70
     1
102
RTVSPropertyOp31
 70
     1
102
RTVSPropertyOp32
 70
     1
102
RTVSPropertyOp33
 70
     1
102
RTVSPropertyOp34
 70
     1
102
RTVSPropertyOp35
 70
     1
102
RTVSPropertyOp36
 70
     1
102
RTVSPropertyOp37
 70
     1
102
RTVSPropertyOp38
 70
     1
102
RTVSPropertyOp39
 70
     1
102
RTVSPropertyOp40
 70
     1
102
RTVSPropertyOp41
 70
     1
102
RTVSPropertyOp42
 70
     1
102
RTVSPropertyOp43
 70
     1
102
RTVSPropertyOp44
 70
     1
102
RTVSPropertyOp45
 70
     1
102
RTVSPropertyOp46
 70
     1
102
RTVSPropertyOp47
 70
     1
102
RTVSPropertyOp48
 70
     1
102
RTVSPropertyOp49
 70
     1
102
RTVSPropertyOp50
 70
     1
102
RTVSPropertyOp51
 70
     0
102
RTVSPropertyOp52
 70
     0
102
RTVSPropertyOp53
 70
     1
102
RTVSPropertyOp54
 70
     1
102
RTVSPropertyOp55
 70
     1
102
RTVSPropertyOp56
 70
     1
102
RTVSPropertyOp57
 70
     1
102
RTVSPropertyOp58
 70
     1
102
RTVSPropertyOp59
 70
     1
102
RTVSPropertyOp60
 70
     1
102
RTVSPropertyOp61
 70
     1
102
RTVSPropertyOp62
 70
     1
  0
XRECORD
  5
28EE
102
{ACAD_REACTORS
330
28ED
102
}
330
28ED
100
AcDbXrecord
280
     1
102
RTVSPost2010Prop28
280
     0
102
RTVSPost2010PropOp28
 70
     1
102
RTVSPost2010Prop29
280
     1
102
RTVSPost2010PropOp29
 70
     1
102
RTVSPost2010Prop30
280
     1
102
RTVSPost2010PropOp30
 70
     1
102
RTVSPost2010Prop31
280
     0
102
RTVSPost2010PropOp31
 70
     1
102
RTVSPost2010Prop32
280
     0
102
RTVSPost2010PropOp32
 70
     1
102
RTVSPost2010Prop33
280
     0
102
RTVSPost2010PropOp33
 70
     1
102
RTVSPost2010Prop34
280
     0
102
RTVSPost2010PropOp34
 70
     1
102
RTVSPost2010Prop35
280
     0
102
RTVSPost2010PropOp35
 70
     1
102
RTVSPost2010Prop36
280
     0
102
RTVSPost2010PropOp36
 70
     1
102
RTVSPost2010Prop37
 90
       50
102
RTVSPost2010PropOp37
 70
     1
102
RTVSPost2010Prop38
140
0.0
102
RTVSPost2010PropOp38
 70
     1
102
RTVSPost2010Prop39
140
1.0
102
RTVSPost2010PropOp39
 70
     1
102
RTVSPost2010Prop40
 90
        0
102
RTVSPost2010PropOp40
 70
     1
102
RTVSPost2010Prop41ColorIndex
 90
       18
102
RTVSPost2010Prop41ColorRGB
 90
        0
102
RTVSPost2010PropOp41
 70
     1
102
RTVSPost2010Prop42
 90
       50
102
RTVSPost2010PropOp42
 70
     1
102
RTVSPost2010Prop43
 90
        3
102
RTVSPost2010PropOp43
 70
     1
102
RTVSPost2010Prop44ColorIndex
 90
        5
102
RTVSPost2010Prop44ColorRGB
 90
      255
102
RTVSPost2010PropOp44
 70
     1
102
RTVSPost2010Prop45
280
     0
102
RTVSPost2010PropOp45
 70
     1
102
RTVSPost2010Prop46
 90
       50
102
RTVSPost2010PropOp46
 70
     1
102
RTVSPost2010Prop47
 90
       50
102
RTVSPost2010PropOp47
 70
     1
102
RTVSPost2010Prop48
 90
       50
102
RTVSPost2010PropOp48
 70
     1
102
RTVSPost2010Prop49
280
     0
102
RTVSPost2010PropOp49
 70
     1
102
RTVSPost2010Prop50
 90
       50
102
RTVSPost2010PropOp50
 70
     1
102
RTVSPost2010Prop51ColorIndex
 90
      256
102
RTVSPost2010Prop51ColorRGB
 90
-16777216
102
RTVSPost2010PropOp51
 70
     0
102
RTVSPost2010Prop52
140
1.0
102
RTVSPost2010PropOp52
 70
     0
102
RTVSPost2010Prop53
 90
        2
102
RTVSPost2010PropOp53
 70
     1
102
RTVSPost2010Prop54
  1
strokes_ogs.tif
102
RTVSPost2010PropOp54
 70
     1
102
RTVSPost2010Prop55
280
     0
102
RTVSPost2010PropOp55
 70
     1
102
RTVSPost2010Prop56
140
1.0
102
RTVSPost2010PropOp56
 70
     1
102
RTVSPost2010Prop57
140
1.0
102
RTVSPost2010PropOp57
 70
     1
102
RTVSPropertyOp0
 70
     1
102
RTVSPropertyOp1
 70
     1
102
RTVSPropertyOp2
 70
     1
102
RTVSPropertyOp3
 70
     1
102
RTVSPropertyOp4
 70
     1
102
RTVSPropertyOp5
 70
     1
102
RTVSPropertyOp6
 70
     1
102
RTVSPropertyOp7
 70
     1
102
RTVSPropertyOp8
 70
     1
102
RTVSPropertyOp9
 70
     1
102
RTVSPropertyOp10
 70
     1
102
RTVSPropertyOp11
 70
     1
102
RTVSPropertyOp12
 70
     1
102
RTVSPropertyOp13
 70
     1
102
RTVSPropertyOp14
 70
     1
102
RTVSPropertyOp15
 70
     1
102
RTVSPropertyOp16
 70
     1
102
RTVSPropertyOp17
 70
     1
102
RTVSPropertyOp18
 70
     1
102
RTVSPropertyOp19
 70
     1
102
RTVSPropertyOp20
 70
     1
102
RTVSPropertyOp21
 70
     1
102
RTVSPropertyOp22
 70
     1
102
RTVSPropertyOp23
 70
     1
102
RTVSPropertyOp24
 70
     1
102
RTVSPropertyOp25
 70
     1
102
RTVSPropertyOp26
 70
     1
102
RTVSPropertyOp27
 70
     1
102
RTVSPropertyOp28
 70
     1
102
RTVSPropertyOp29
 70
     1
102
RTVSPropertyOp30
 70
     1
102
RTVSPropertyOp31
 70
     1
102
RTVSPropertyOp32
 70
     1
102
RTVSPropertyOp33
 70
     1
102
RTVSPropertyOp34
 70
     1
102
RTVSPropertyOp35
 70
     1
102
RTVSPropertyOp36
 70
     1
102
RTVSPropertyOp37
 70
     1
102
RTVSPropertyOp38
 70
     1
102
RTVSPropertyOp39
 70
     1
102
RTVSPropertyOp40
 70
     1
102
RTVSPropertyOp41
 70
     1
102
RTVSPropertyOp42
 70
     1
102
RTVSPropertyOp43
 70
     1
102
RTVSPropertyOp44
 70
     1
102
RTVSPropertyOp45
 70
     1
102
RTVSPropertyOp46
 70
     1
102
RTVSPropertyOp47
 70
     1
102
RTVSPropertyOp48
 70
     1
102
RTVSPropertyOp49
 70
     1
102
RTVSPropertyOp50
 70
     1
102
RTVSPropertyOp51
 70
     0
102
RTVSPropertyOp52
 70
     0
102
RTVSPropertyOp53
 70
     1
102
RTVSPropertyOp54
 70
     1
102
RTVSPropertyOp55
 70
     1
102
RTVSPropertyOp56
 70
     1
102
RTVSPropertyOp57
 70
     1
102
RTVSPropertyOp58
 70
     1
102
RTVSPropertyOp59
 70
     1
102
RTVSPropertyOp60
 70
     1
102
RTVSPropertyOp61
 70
     1
102
RTVSPropertyOp62
 70
     1
  0
XRECORD
  5
28EC
102
{ACAD_REACTORS
330
28EB
102
}
330
28EB
100
AcDbXrecord
280
     1
102
RTVSPost2010Prop28
280
     0
102
RTVSPost2010PropOp28
 70
     1
102
RTVSPost2010Prop29
280
     1
102
RTVSPost2010PropOp29
 70
     1
102
RTVSPost2010Prop30
280
     1
102
RTVSPost2010PropOp30
 70
     1
102
RTVSPost2010Prop31
280
     0
102
RTVSPost2010PropOp31
 70
     1
102
RTVSPost2010Prop32
280
     0
102
RTVSPost2010PropOp32
 70
     1
102
RTVSPost2010Prop33
280
     0
102
RTVSPost2010PropOp33
 70
     1
102
RTVSPost2010Prop34
280
     0
102
RTVSPost2010PropOp34
 70
     1
102
RTVSPost2010Prop35
280
     0
102
RTVSPost2010PropOp35
 70
     1
102
RTVSPost2010Prop36
280
     0
102
RTVSPost2010PropOp36
 70
     1
102
RTVSPost2010Prop37
 90
       50
102
RTVSPost2010PropOp37
 70
     1
102
RTVSPost2010Prop38
140
0.0
102
RTVSPost2010PropOp38
 70
     1
102
RTVSPost2010Prop39
140
1.0
102
RTVSPost2010PropOp39
 70
     1
102
RTVSPost2010Prop40
 90
        0
102
RTVSPost2010PropOp40
 70
     1
102
RTVSPost2010Prop41ColorIndex
 90
       18
102
RTVSPost2010Prop41ColorRGB
 90
        0
102
RTVSPost2010PropOp41
 70
     1
102
RTVSPost2010Prop42
 90
       50
102
RTVSPost2010PropOp42
 70
     1
102
RTVSPost2010Prop43
 90
        3
102
RTVSPost2010PropOp43
 70
     1
102
RTVSPost2010Prop44ColorIndex
 90
        5
102
RTVSPost2010Prop44ColorRGB
 90
      255
102
RTVSPost2010PropOp44
 70
     1
102
RTVSPost2010Prop45
280
     0
102
RTVSPost2010PropOp45
 70
     1
102
RTVSPost2010Prop46
 90
       50
102
RTVSPost2010PropOp46
 70
     1
102
RTVSPost2010Prop47
 90
       50
102
RTVSPost2010PropOp47
 70
     1
102
RTVSPost2010Prop48
 90
       50
102
RTVSPost2010PropOp48
 70
     1
102
RTVSPost2010Prop49
280
     0
102
RTVSPost2010PropOp49
 70
     1
102
RTVSPost2010Prop50
 90
       50
102
RTVSPost2010PropOp50
 70
     1
102
RTVSPost2010Prop51ColorIndex
 90
      256
102
RTVSPost2010Prop51ColorRGB
 90
-16777216
102
RTVSPost2010PropOp51
 70
     0
102
RTVSPost2010Prop52
140
1.0
102
RTVSPost2010PropOp52
 70
     0
102
RTVSPost2010Prop53
 90
        2
102
RTVSPost2010PropOp53
 70
     1
102
RTVSPost2010Prop54
  1
strokes_ogs.tif
102
RTVSPost2010PropOp54
 70
     1
102
RTVSPost2010Prop55
280
     0
102
RTVSPost2010PropOp55
 70
     1
102
RTVSPost2010Prop56
140
1.0
102
RTVSPost2010PropOp56
 70
     1
102
RTVSPost2010Prop57
140
1.0
102
RTVSPost2010PropOp57
 70
     1
102
RTVSPropertyOp0
 70
     1
102
RTVSPropertyOp1
 70
     1
102
RTVSPropertyOp2
 70
     1
102
RTVSPropertyOp3
 70
     1
102
RTVSPropertyOp4
 70
     1
102
RTVSPropertyOp5
 70
     1
102
RTVSPropertyOp6
 70
     1
102
RTVSPropertyOp7
 70
     1
102
RTVSPropertyOp8
 70
     1
102
RTVSPropertyOp9
 70
     1
102
RTVSPropertyOp10
 70
     1
102
RTVSPropertyOp11
 70
     1
102
RTVSPropertyOp12
 70
     1
102
RTVSPropertyOp13
 70
     1
102
RTVSPropertyOp14
 70
     1
102
RTVSPropertyOp15
 70
     1
102
RTVSPropertyOp16
 70
     1
102
RTVSPropertyOp17
 70
     1
102
RTVSPropertyOp18
 70
     1
102
RTVSPropertyOp19
 70
     1
102
RTVSPropertyOp20
 70
     1
102
RTVSPropertyOp21
 70
     1
102
RTVSPropertyOp22
 70
     1
102
RTVSPropertyOp23
 70
     1
102
RTVSPropertyOp24
 70
     1
102
RTVSPropertyOp25
 70
     1
102
RTVSPropertyOp26
 70
     1
102
RTVSPropertyOp27
 70
     1
102
RTVSPropertyOp28
 70
     1
102
RTVSPropertyOp29
 70
     1
102
RTVSPropertyOp30
 70
     1
102
RTVSPropertyOp31
 70
     1
102
RTVSPropertyOp32
 70
     1
102
RTVSPropertyOp33
 70
     1
102
RTVSPropertyOp34
 70
     1
102
RTVSPropertyOp35
 70
     1
102
RTVSPropertyOp36
 70
     1
102
RTVSPropertyOp37
 70
     1
102
RTVSPropertyOp38
 70
     1
102
RTVSPropertyOp39
 70
     1
102
RTVSPropertyOp40
 70
     1
102
RTVSPropertyOp41
 70
     1
102
RTVSPropertyOp42
 70
     1
102
RTVSPropertyOp43
 70
     1
102
RTVSPropertyOp44
 70
     1
102
RTVSPropertyOp45
 70
     1
102
RTVSPropertyOp46
 70
     1
102
RTVSPropertyOp47
 70
     1
102
RTVSPropertyOp48
 70
     1
102
RTVSPropertyOp49
 70
     1
102
RTVSPropertyOp50
 70
     1
102
RTVSPropertyOp51
 70
     0
102
RTVSPropertyOp52
 70
     0
102
RTVSPropertyOp53
 70
     1
102
RTVSPropertyOp54
 70
     1
102
RTVSPropertyOp55
 70
     1
102
RTVSPropertyOp56
 70
     1
102
RTVSPropertyOp57
 70
     1
102
RTVSPropertyOp58
 70
     1
102
RTVSPropertyOp59
 70
     1
102
RTVSPropertyOp60
 70
     1
102
RTVSPropertyOp61
 70
     1
102
RTVSPropertyOp62
 70
     1
  0
XRECORD
  5
28E8
102
{ACAD_REACTORS
330
28E7
102
}
330
28E7
100
AcDbXrecord
280
     1
102
RTVSPost2010Prop28
280
     0
102
RTVSPost2010PropOp28
 70
     1
102
RTVSPost2010Prop29
280
     1
102
RTVSPost2010PropOp29
 70
     1
102
RTVSPost2010Prop30
280
     1
102
RTVSPost2010PropOp30
 70
     1
102
RTVSPost2010Prop31
280
     0
102
RTVSPost2010PropOp31
 70
     1
102
RTVSPost2010Prop32
280
     0
102
RTVSPost2010PropOp32
 70
     1
102
RTVSPost2010Prop33
280
     0
102
RTVSPost2010PropOp33
 70
     1
102
RTVSPost2010Prop34
280
     0
102
RTVSPost2010PropOp34
 70
     1
102
RTVSPost2010Prop35
280
     0
102
RTVSPost2010PropOp35
 70
     1
102
RTVSPost2010Prop36
280
     0
102
RTVSPost2010PropOp36
 70
     1
102
RTVSPost2010Prop37
 90
       50
102
RTVSPost2010PropOp37
 70
     1
102
RTVSPost2010Prop38
140
0.0
102
RTVSPost2010PropOp38
 70
     1
102
RTVSPost2010Prop39
140
1.0
102
RTVSPost2010PropOp39
 70
     1
102
RTVSPost2010Prop40
 90
        0
102
RTVSPost2010PropOp40
 70
     1
102
RTVSPost2010Prop41ColorIndex
 90
       18
102
RTVSPost2010Prop41ColorRGB
 90
        0
102
RTVSPost2010PropOp41
 70
     1
102
RTVSPost2010Prop42
 90
       50
102
RTVSPost2010PropOp42
 70
     1
102
RTVSPost2010Prop43
 90
        3
102
RTVSPost2010PropOp43
 70
     1
102
RTVSPost2010Prop44ColorIndex
 90
        5
102
RTVSPost2010Prop44ColorRGB
 90
      255
102
RTVSPost2010PropOp44
 70
     1
102
RTVSPost2010Prop45
280
     0
102
RTVSPost2010PropOp45
 70
     1
102
RTVSPost2010Prop46
 90
       50
102
RTVSPost2010PropOp46
 70
     1
102
RTVSPost2010Prop47
 90
       50
102
RTVSPost2010PropOp47
 70
     1
102
RTVSPost2010Prop48
 90
       50
102
RTVSPost2010PropOp48
 70
     1
102
RTVSPost2010Prop49
280
     0
102
RTVSPost2010PropOp49
 70
     1
102
RTVSPost2010Prop50
 90
       50
102
RTVSPost2010PropOp50
 70
     1
102
RTVSPost2010Prop51ColorIndex
 90
      256
102
RTVSPost2010Prop51ColorRGB
 90
-16777216
102
RTVSPost2010PropOp51
 70
     0
102
RTVSPost2010Prop52
140
1.0
102
RTVSPost2010PropOp52
 70
     0
102
RTVSPost2010Prop53
 90
        2
102
RTVSPost2010PropOp53
 70
     1
102
RTVSPost2010Prop54
  1
strokes_ogs.tif
102
RTVSPost2010PropOp54
 70
     1
102
RTVSPost2010Prop55
280
     0
102
RTVSPost2010PropOp55
 70
     1
102
RTVSPost2010Prop56
140
1.0
102
RTVSPost2010PropOp56
 70
     1
102
RTVSPost2010Prop57
140
1.0
102
RTVSPost2010PropOp57
 70
     1
102
RTVSPropertyOp0
 70
     1
102
RTVSPropertyOp1
 70
     1
102
RTVSPropertyOp2
 70
     1
102
RTVSPropertyOp3
 70
     1
102
RTVSPropertyOp4
 70
     1
102
RTVSPropertyOp5
 70
     1
102
RTVSPropertyOp6
 70
     1
102
RTVSPropertyOp7
 70
     1
102
RTVSPropertyOp8
 70
     1
102
RTVSPropertyOp9
 70
     1
102
RTVSPropertyOp10
 70
     1
102
RTVSPropertyOp11
 70
     1
102
RTVSPropertyOp12
 70
     1
102
RTVSPropertyOp13
 70
     1
102
RTVSPropertyOp14
 70
     1
102
RTVSPropertyOp15
 70
     1
102
RTVSPropertyOp16
 70
     1
102
RTVSPropertyOp17
 70
     1
102
RTVSPropertyOp18
 70
     1
102
RTVSPropertyOp19
 70
     1
102
RTVSPropertyOp20
 70
     1
102
RTVSPropertyOp21
 70
     1
102
RTVSPropertyOp22
 70
     1
102
RTVSPropertyOp23
 70
     1
102
RTVSPropertyOp24
 70
     1
102
RTVSPropertyOp25
 70
     1
102
RTVSPropertyOp26
 70
     1
102
RTVSPropertyOp27
 70
     1
102
RTVSPropertyOp28
 70
     1
102
RTVSPropertyOp29
 70
     1
102
RTVSPropertyOp30
 70
     1
102
RTVSPropertyOp31
 70
     1
102
RTVSPropertyOp32
 70
     1
102
RTVSPropertyOp33
 70
     1
102
RTVSPropertyOp34
 70
     1
102
RTVSPropertyOp35
 70
     1
102
RTVSPropertyOp36
 70
     1
102
RTVSPropertyOp37
 70
     1
102
RTVSPropertyOp38
 70
     1
102
RTVSPropertyOp39
 70
     1
102
RTVSPropertyOp40
 70
     1
102
RTVSPropertyOp41
 70
     1
102
RTVSPropertyOp42
 70
     1
102
RTVSPropertyOp43
 70
     1
102
RTVSPropertyOp44
 70
     1
102
RTVSPropertyOp45
 70
     1
102
RTVSPropertyOp46
 70
     1
102
RTVSPropertyOp47
 70
     1
102
RTVSPropertyOp48
 70
     1
102
RTVSPropertyOp49
 70
     1
102
RTVSPropertyOp50
 70
     1
102
RTVSPropertyOp51
 70
     0
102
RTVSPropertyOp52
 70
     0
102
RTVSPropertyOp53
 70
     1
102
RTVSPropertyOp54
 70
     1
102
RTVSPropertyOp55
 70
     1
102
RTVSPropertyOp56
 70
     1
102
RTVSPropertyOp57
 70
     1
102
RTVSPropertyOp58
 70
     1
102
RTVSPropertyOp59
 70
     1
102
RTVSPropertyOp60
 70
     1
102
RTVSPropertyOp61
 70
     1
102
RTVSPropertyOp62
 70
     1
  0
XRECORD
  5
28F6
102
{ACAD_REACTORS
330
28F5
102
}
330
28F5
100
AcDbXrecord
280
     1
102
RTVSPost2010Prop28
280
     0
102
RTVSPost2010PropOp28
 70
     1
102
RTVSPost2010Prop29
280
     1
102
RTVSPost2010PropOp29
 70
     1
102
RTVSPost2010Prop30
280
     1
102
RTVSPost2010PropOp30
 70
     1
102
RTVSPost2010Prop31
280
     0
102
RTVSPost2010PropOp31
 70
     1
102
RTVSPost2010Prop32
280
     0
102
RTVSPost2010PropOp32
 70
     1
102
RTVSPost2010Prop33
280
     0
102
RTVSPost2010PropOp33
 70
     1
102
RTVSPost2010Prop34
280
     0
102
RTVSPost2010PropOp34
 70
     1
102
RTVSPost2010Prop35
280
     0
102
RTVSPost2010PropOp35
 70
     1
102
RTVSPost2010Prop36
280
     0
102
RTVSPost2010PropOp36
 70
     1
102
RTVSPost2010Prop37
 90
       50
102
RTVSPost2010PropOp37
 70
     1
102
RTVSPost2010Prop38
140
0.0
102
RTVSPost2010PropOp38
 70
     1
102
RTVSPost2010Prop39
140
1.0
102
RTVSPost2010PropOp39
 70
     1
102
RTVSPost2010Prop40
 90
        0
102
RTVSPost2010PropOp40
 70
     1
102
RTVSPost2010Prop41ColorIndex
 90
       18
102
RTVSPost2010Prop41ColorRGB
 90
        0
102
RTVSPost2010PropOp41
 70
     1
102
RTVSPost2010Prop42
 90
       50
102
RTVSPost2010PropOp42
 70
     1
102
RTVSPost2010Prop43
 90
        3
102
RTVSPost2010PropOp43
 70
     1
102
RTVSPost2010Prop44ColorIndex
 90
        5
102
RTVSPost2010Prop44ColorRGB
 90
      255
102
RTVSPost2010PropOp44
 70
     1
102
RTVSPost2010Prop45
280
     0
102
RTVSPost2010PropOp45
 70
     1
102
RTVSPost2010Prop46
 90
       50
102
RTVSPost2010PropOp46
 70
     1
102
RTVSPost2010Prop47
 90
       50
102
RTVSPost2010PropOp47
 70
     1
102
RTVSPost2010Prop48
 90
       50
102
RTVSPost2010PropOp48
 70
     1
102
RTVSPost2010Prop49
280
     0
102
RTVSPost2010PropOp49
 70
     1
102
RTVSPost2010Prop50
 90
       50
102
RTVSPost2010PropOp50
 70
     1
102
RTVSPost2010Prop51ColorIndex
 90
      256
102
RTVSPost2010Prop51ColorRGB
 90
-16777216
102
RTVSPost2010PropOp51
 70
     0
102
RTVSPost2010Prop52
140
1.0
102
RTVSPost2010PropOp52
 70
     0
102
RTVSPost2010Prop53
 90
        2
102
RTVSPost2010PropOp53
 70
     1
102
RTVSPost2010Prop54
  1
strokes_ogs.tif
102
RTVSPost2010PropOp54
 70
     1
102
RTVSPost2010Prop55
280
     0
102
RTVSPost2010PropOp55
 70
     1
102
RTVSPost2010Prop56
140
1.0
102
RTVSPost2010PropOp56
 70
     1
102
RTVSPost2010Prop57
140
1.0
102
RTVSPost2010PropOp57
 70
     1
102
RTVSPropertyOp0
 70
     1
102
RTVSPropertyOp1
 70
     1
102
RTVSPropertyOp2
 70
     1
102
RTVSPropertyOp3
 70
     1
102
RTVSPropertyOp4
 70
     1
102
RTVSPropertyOp5
 70
     1
102
RTVSPropertyOp6
 70
     1
102
RTVSPropertyOp7
 70
     1
102
RTVSPropertyOp8
 70
     1
102
RTVSPropertyOp9
 70
     1
102
RTVSPropertyOp10
 70
     1
102
RTVSPropertyOp11
 70
     1
102
RTVSPropertyOp12
 70
     1
102
RTVSPropertyOp13
 70
     1
102
RTVSPropertyOp14
 70
     1
102
RTVSPropertyOp15
 70
     1
102
RTVSPropertyOp16
 70
     1
102
RTVSPropertyOp17
 70
     1
102
RTVSPropertyOp18
 70
     1
102
RTVSPropertyOp19
 70
     1
102
RTVSPropertyOp20
 70
     1
102
RTVSPropertyOp21
 70
     1
102
RTVSPropertyOp22
 70
     1
102
RTVSPropertyOp23
 70
     1
102
RTVSPropertyOp24
 70
     1
102
RTVSPropertyOp25
 70
     1
102
RTVSPropertyOp26
 70
     1
102
RTVSPropertyOp27
 70
     1
102
RTVSPropertyOp28
 70
     1
102
RTVSPropertyOp29
 70
     1
102
RTVSPropertyOp30
 70
     1
102
RTVSPropertyOp31
 70
     1
102
RTVSPropertyOp32
 70
     1
102
RTVSPropertyOp33
 70
     1
102
RTVSPropertyOp34
 70
     1
102
RTVSPropertyOp35
 70
     1
102
RTVSPropertyOp36
 70
     1
102
RTVSPropertyOp37
 70
     1
102
RTVSPropertyOp38
 70
     1
102
RTVSPropertyOp39
 70
     1
102
RTVSPropertyOp40
 70
     1
102
RTVSPropertyOp41
 70
     1
102
RTVSPropertyOp42
 70
     1
102
RTVSPropertyOp43
 70
     1
102
RTVSPropertyOp44
 70
     1
102
RTVSPropertyOp45
 70
     1
102
RTVSPropertyOp46
 70
     1
102
RTVSPropertyOp47
 70
     1
102
RTVSPropertyOp48
 70
     1
102
RTVSPropertyOp49
 70
     1
102
RTVSPropertyOp50
 70
     1
102
RTVSPropertyOp51
 70
     0
102
RTVSPropertyOp52
 70
     0
102
RTVSPropertyOp53
 70
     1
102
RTVSPropertyOp54
 70
     1
102
RTVSPropertyOp55
 70
     1
102
RTVSPropertyOp56
 70
     1
102
RTVSPropertyOp57
 70
     1
102
RTVSPropertyOp58
 70
     1
102
RTVSPropertyOp59
 70
     1
102
RTVSPropertyOp60
 70
     1
102
RTVSPropertyOp61
 70
     1
102
RTVSPropertyOp62
 70
     1
  0
XRECORD
  5
28FE
102
{ACAD_REACTORS
330
28FD
102
}
330
28FD
100
AcDbXrecord
280
     1
102
RTVSPost2010Prop28
280
     0
102
RTVSPost2010PropOp28
 70
     1
102
RTVSPost2010Prop29
280
     1
102
RTVSPost2010PropOp29
 70
     1
102
RTVSPost2010Prop30
280
     1
102
RTVSPost2010PropOp30
 70
     1
102
RTVSPost2010Prop31
280
     0
102
RTVSPost2010PropOp31
 70
     1
102
RTVSPost2010Prop32
280
     0
102
RTVSPost2010PropOp32
 70
     1
102
RTVSPost2010Prop33
280
     0
102
RTVSPost2010PropOp33
 70
     1
102
RTVSPost2010Prop34
280
     0
102
RTVSPost2010PropOp34
 70
     1
102
RTVSPost2010Prop35
280
     0
102
RTVSPost2010PropOp35
 70
     1
102
RTVSPost2010Prop36
280
     0
102
RTVSPost2010PropOp36
 70
     1
102
RTVSPost2010Prop37
 90
       50
102
RTVSPost2010PropOp37
 70
     1
102
RTVSPost2010Prop38
140
0.0
102
RTVSPost2010PropOp38
 70
     1
102
RTVSPost2010Prop39
140
1.0
102
RTVSPost2010PropOp39
 70
     1
102
RTVSPost2010Prop40
 90
        0
102
RTVSPost2010PropOp40
 70
     1
102
RTVSPost2010Prop41ColorIndex
 90
       18
102
RTVSPost2010Prop41ColorRGB
 90
        0
102
RTVSPost2010PropOp41
 70
     1
102
RTVSPost2010Prop42
 90
       50
102
RTVSPost2010PropOp42
 70
     1
102
RTVSPost2010Prop43
 90
        3
102
RTVSPost2010PropOp43
 70
     1
102
RTVSPost2010Prop44ColorIndex
 90
        5
102
RTVSPost2010Prop44ColorRGB
 90
      255
102
RTVSPost2010PropOp44
 70
     1
102
RTVSPost2010Prop45
280
     0
102
RTVSPost2010PropOp45
 70
     1
102
RTVSPost2010Prop46
 90
       50
102
RTVSPost2010PropOp46
 70
     1
102
RTVSPost2010Prop47
 90
       50
102
RTVSPost2010PropOp47
 70
     1
102
RTVSPost2010Prop48
 90
       50
102
RTVSPost2010PropOp48
 70
     1
102
RTVSPost2010Prop49
280
     0
102
RTVSPost2010PropOp49
 70
     1
102
RTVSPost2010Prop50
 90
       50
102
RTVSPost2010PropOp50
 70
     1
102
RTVSPost2010Prop51ColorIndex
 90
      256
102
RTVSPost2010Prop51ColorRGB
 90
-16777216
102
RTVSPost2010PropOp51
 70
     0
102
RTVSPost2010Prop52
140
1.0
102
RTVSPost2010PropOp52
 70
     0
102
RTVSPost2010Prop53
 90
        2
102
RTVSPost2010PropOp53
 70
     1
102
RTVSPost2010Prop54
  1
strokes_ogs.tif
102
RTVSPost2010PropOp54
 70
     1
102
RTVSPost2010Prop55
280
     0
102
RTVSPost2010PropOp55
 70
     1
102
RTVSPost2010Prop56
140
1.0
102
RTVSPost2010PropOp56
 70
     1
102
RTVSPost2010Prop57
140
1.0
102
RTVSPost2010PropOp57
 70
     1
102
RTVSPropertyOp0
 70
     1
102
RTVSPropertyOp1
 70
     1
102
RTVSPropertyOp2
 70
     1
102
RTVSPropertyOp3
 70
     1
102
RTVSPropertyOp4
 70
     1
102
RTVSPropertyOp5
 70
     1
102
RTVSPropertyOp6
 70
     1
102
RTVSPropertyOp7
 70
     1
102
RTVSPropertyOp8
 70
     1
102
RTVSPropertyOp9
 70
     1
102
RTVSPropertyOp10
 70
     1
102
RTVSPropertyOp11
 70
     1
102
RTVSPropertyOp12
 70
     1
102
RTVSPropertyOp13
 70
     1
102
RTVSPropertyOp14
 70
     1
102
RTVSPropertyOp15
 70
     1
102
RTVSPropertyOp16
 70
     1
102
RTVSPropertyOp17
 70
     1
102
RTVSPropertyOp18
 70
     1
102
RTVSPropertyOp19
 70
     1
102
RTVSPropertyOp20
 70
     1
102
RTVSPropertyOp21
 70
     1
102
RTVSPropertyOp22
 70
     1
102
RTVSPropertyOp23
 70
     1
102
RTVSPropertyOp24
 70
     1
102
RTVSPropertyOp25
 70
     1
102
RTVSPropertyOp26
 70
     1
102
RTVSPropertyOp27
 70
     1
102
RTVSPropertyOp28
 70
     1
102
RTVSPropertyOp29
 70
     1
102
RTVSPropertyOp30
 70
     1
102
RTVSPropertyOp31
 70
     1
102
RTVSPropertyOp32
 70
     1
102
RTVSPropertyOp33
 70
     1
102
RTVSPropertyOp34
 70
     1
102
RTVSPropertyOp35
 70
     1
102
RTVSPropertyOp36
 70
     1
102
RTVSPropertyOp37
 70
     1
102
RTVSPropertyOp38
 70
     1
102
RTVSPropertyOp39
 70
     1
102
RTVSPropertyOp40
 70
     1
102
RTVSPropertyOp41
 70
     1
102
RTVSPropertyOp42
 70
     1
102
RTVSPropertyOp43
 70
     1
102
RTVSPropertyOp44
 70
     1
102
RTVSPropertyOp45
 70
     1
102
RTVSPropertyOp46
 70
     1
102
RTVSPropertyOp47
 70
     1
102
RTVSPropertyOp48
 70
     1
102
RTVSPropertyOp49
 70
     1
102
RTVSPropertyOp50
 70
     1
102
RTVSPropertyOp51
 70
     0
102
RTVSPropertyOp52
 70
     0
102
RTVSPropertyOp53
 70
     1
102
RTVSPropertyOp54
 70
     1
102
RTVSPropertyOp55
 70
     1
102
RTVSPropertyOp56
 70
     1
102
RTVSPropertyOp57
 70
     1
102
RTVSPropertyOp58
 70
     1
102
RTVSPropertyOp59
 70
     1
102
RTVSPropertyOp60
 70
     1
102
RTVSPropertyOp61
 70
     1
102
RTVSPropertyOp62
 70
     1
  0
XRECORD
  5
28F0
102
{ACAD_REACTORS
330
28EF
102
}
330
28EF
100
AcDbXrecord
280
     1
102
RTVSPost2010Prop28
280
     0
102
RTVSPost2010PropOp28
 70
     1
102
RTVSPost2010Prop29
280
     1
102
RTVSPost2010PropOp29
 70
     1
102
RTVSPost2010Prop30
280
     1
102
RTVSPost2010PropOp30
 70
     1
102
RTVSPost2010Prop31
280
     0
102
RTVSPost2010PropOp31
 70
     1
102
RTVSPost2010Prop32
280
     0
102
RTVSPost2010PropOp32
 70
     1
102
RTVSPost2010Prop33
280
     0
102
RTVSPost2010PropOp33
 70
     1
102
RTVSPost2010Prop34
280
     0
102
RTVSPost2010PropOp34
 70
     1
102
RTVSPost2010Prop35
280
     0
102
RTVSPost2010PropOp35
 70
     1
102
RTVSPost2010Prop36
280
     0
102
RTVSPost2010PropOp36
 70
     1
102
RTVSPost2010Prop37
 90
       50
102
RTVSPost2010PropOp37
 70
     1
102
RTVSPost2010Prop38
140
0.0
102
RTVSPost2010PropOp38
 70
     1
102
RTVSPost2010Prop39
140
1.0
102
RTVSPost2010PropOp39
 70
     1
102
RTVSPost2010Prop40
 90
        0
102
RTVSPost2010PropOp40
 70
     1
102
RTVSPost2010Prop41ColorIndex
 90
       18
102
RTVSPost2010Prop41ColorRGB
 90
        0
102
RTVSPost2010PropOp41
 70
     1
102
RTVSPost2010Prop42
 90
       50
102
RTVSPost2010PropOp42
 70
     1
102
RTVSPost2010Prop43
 90
        3
102
RTVSPost2010PropOp43
 70
     1
102
RTVSPost2010Prop44ColorIndex
 90
        5
102
RTVSPost2010Prop44ColorRGB
 90
      255
102
RTVSPost2010PropOp44
 70
     1
102
RTVSPost2010Prop45
280
     0
102
RTVSPost2010PropOp45
 70
     1
102
RTVSPost2010Prop46
 90
       50
102
RTVSPost2010PropOp46
 70
     1
102
RTVSPost2010Prop47
 90
       50
102
RTVSPost2010PropOp47
 70
     1
102
RTVSPost2010Prop48
 90
       50
102
RTVSPost2010PropOp48
 70
     1
102
RTVSPost2010Prop49
280
     0
102
RTVSPost2010PropOp49
 70
     1
102
RTVSPost2010Prop50
 90
       50
102
RTVSPost2010PropOp50
 70
     1
102
RTVSPost2010Prop51ColorIndex
 90
      256
102
RTVSPost2010Prop51ColorRGB
 90
-16777216
102
RTVSPost2010PropOp51
 70
     0
102
RTVSPost2010Prop52
140
1.0
102
RTVSPost2010PropOp52
 70
     0
102
RTVSPost2010Prop53
 90
        2
102
RTVSPost2010PropOp53
 70
     1
102
RTVSPost2010Prop54
  1
strokes_ogs.tif
102
RTVSPost2010PropOp54
 70
     1
102
RTVSPost2010Prop55
280
     0
102
RTVSPost2010PropOp55
 70
     1
102
RTVSPost2010Prop56
140
1.0
102
RTVSPost2010PropOp56
 70
     1
102
RTVSPost2010Prop57
140
1.0
102
RTVSPost2010PropOp57
 70
     1
102
RTVSPropertyOp0
 70
     1
102
RTVSPropertyOp1
 70
     1
102
RTVSPropertyOp2
 70
     1
102
RTVSPropertyOp3
 70
     1
102
RTVSPropertyOp4
 70
     1
102
RTVSPropertyOp5
 70
     1
102
RTVSPropertyOp6
 70
     1
102
RTVSPropertyOp7
 70
     1
102
RTVSPropertyOp8
 70
     1
102
RTVSPropertyOp9
 70
     1
102
RTVSPropertyOp10
 70
     1
102
RTVSPropertyOp11
 70
     1
102
RTVSPropertyOp12
 70
     1
102
RTVSPropertyOp13
 70
     1
102
RTVSPropertyOp14
 70
     1
102
RTVSPropertyOp15
 70
     1
102
RTVSPropertyOp16
 70
     1
102
RTVSPropertyOp17
 70
     1
102
RTVSPropertyOp18
 70
     1
102
RTVSPropertyOp19
 70
     1
102
RTVSPropertyOp20
 70
     1
102
RTVSPropertyOp21
 70
     1
102
RTVSPropertyOp22
 70
     1
102
RTVSPropertyOp23
 70
     1
102
RTVSPropertyOp24
 70
     1
102
RTVSPropertyOp25
 70
     1
102
RTVSPropertyOp26
 70
     1
102
RTVSPropertyOp27
 70
     1
102
RTVSPropertyOp28
 70
     1
102
RTVSPropertyOp29
 70
     1
102
RTVSPropertyOp30
 70
     1
102
RTVSPropertyOp31
 70
     1
102
RTVSPropertyOp32
 70
     1
102
RTVSPropertyOp33
 70
     1
102
RTVSPropertyOp34
 70
     1
102
RTVSPropertyOp35
 70
     1
102
RTVSPropertyOp36
 70
     1
102
RTVSPropertyOp37
 70
     1
102
RTVSPropertyOp38
 70
     1
102
RTVSPropertyOp39
 70
     1
102
RTVSPropertyOp40
 70
     1
102
RTVSPropertyOp41
 70
     1
102
RTVSPropertyOp42
 70
     1
102
RTVSPropertyOp43
 70
     1
102
RTVSPropertyOp44
 70
     1
102
RTVSPropertyOp45
 70
     1
102
RTVSPropertyOp46
 70
     1
102
RTVSPropertyOp47
 70
     1
102
RTVSPropertyOp48
 70
     1
102
RTVSPropertyOp49
 70
     1
102
RTVSPropertyOp50
 70
     1
102
RTVSPropertyOp51
 70
     0
102
RTVSPropertyOp52
 70
     0
102
RTVSPropertyOp53
 70
     1
102
RTVSPropertyOp54
 70
     1
102
RTVSPropertyOp55
 70
     1
102
RTVSPropertyOp56
 70
     1
102
RTVSPropertyOp57
 70
     1
102
RTVSPropertyOp58
 70
     1
102
RTVSPropertyOp59
 70
     1
102
RTVSPropertyOp60
 70
     1
102
RTVSPropertyOp61
 70
     1
102
RTVSPropertyOp62
 70
     1
  0
XRECORD
  5
28F4
102
{ACAD_REACTORS
330
28F3
102
}
330
28F3
100
AcDbXrecord
280
     1
102
RTVSPost2010Prop28
280
     0
102
RTVSPost2010PropOp28
 70
     1
102
RTVSPost2010Prop29
280
     1
102
RTVSPost2010PropOp29
 70
     1
102
RTVSPost2010Prop30
280
     1
102
RTVSPost2010PropOp30
 70
     1
102
RTVSPost2010Prop31
280
     0
102
RTVSPost2010PropOp31
 70
     1
102
RTVSPost2010Prop32
280
     0
102
RTVSPost2010PropOp32
 70
     1
102
RTVSPost2010Prop33
280
     0
102
RTVSPost2010PropOp33
 70
     1
102
RTVSPost2010Prop34
280
     0
102
RTVSPost2010PropOp34
 70
     1
102
RTVSPost2010Prop35
280
     0
102
RTVSPost2010PropOp35
 70
     1
102
RTVSPost2010Prop36
280
     0
102
RTVSPost2010PropOp36
 70
     1
102
RTVSPost2010Prop37
 90
       50
102
RTVSPost2010PropOp37
 70
     1
102
RTVSPost2010Prop38
140
0.0
102
RTVSPost2010PropOp38
 70
     1
102
RTVSPost2010Prop39
140
1.0
102
RTVSPost2010PropOp39
 70
     1
102
RTVSPost2010Prop40
 90
        0
102
RTVSPost2010PropOp40
 70
     1
102
RTVSPost2010Prop41ColorIndex
 90
       18
102
RTVSPost2010Prop41ColorRGB
 90
        0
102
RTVSPost2010PropOp41
 70
     1
102
RTVSPost2010Prop42
 90
       50
102
RTVSPost2010PropOp42
 70
     1
102
RTVSPost2010Prop43
 90
        3
102
RTVSPost2010PropOp43
 70
     1
102
RTVSPost2010Prop44ColorIndex
 90
        5
102
RTVSPost2010Prop44ColorRGB
 90
      255
102
RTVSPost2010PropOp44
 70
     1
102
RTVSPost2010Prop45
280
     0
102
RTVSPost2010PropOp45
 70
     1
102
RTVSPost2010Prop46
 90
       50
102
RTVSPost2010PropOp46
 70
     1
102
RTVSPost2010Prop47
 90
       50
102
RTVSPost2010PropOp47
 70
     1
102
RTVSPost2010Prop48
 90
       50
102
RTVSPost2010PropOp48
 70
     1
102
RTVSPost2010Prop49
280
     0
102
RTVSPost2010PropOp49
 70
     1
102
RTVSPost2010Prop50
 90
       50
102
RTVSPost2010PropOp50
 70
     1
102
RTVSPost2010Prop51ColorIndex
 90
      256
102
RTVSPost2010Prop51ColorRGB
 90
-16777216
102
RTVSPost2010PropOp51
 70
     0
102
RTVSPost2010Prop52
140
1.0
102
RTVSPost2010PropOp52
 70
     0
102
RTVSPost2010Prop53
 90
        2
102
RTVSPost2010PropOp53
 70
     1
102
RTVSPost2010Prop54
  1
strokes_ogs.tif
102
RTVSPost2010PropOp54
 70
     1
102
RTVSPost2010Prop55
280
     0
102
RTVSPost2010PropOp55
 70
     1
102
RTVSPost2010Prop56
140
1.0
102
RTVSPost2010PropOp56
 70
     1
102
RTVSPost2010Prop57
140
1.0
102
RTVSPost2010PropOp57
 70
     1
102
RTVSPropertyOp0
 70
     1
102
RTVSPropertyOp1
 70
     1
102
RTVSPropertyOp2
 70
     1
102
RTVSPropertyOp3
 70
     1
102
RTVSPropertyOp4
 70
     1
102
RTVSPropertyOp5
 70
     1
102
RTVSPropertyOp6
 70
     1
102
RTVSPropertyOp7
 70
     1
102
RTVSPropertyOp8
 70
     1
102
RTVSPropertyOp9
 70
     1
102
RTVSPropertyOp10
 70
     1
102
RTVSPropertyOp11
 70
     1
102
RTVSPropertyOp12
 70
     1
102
RTVSPropertyOp13
 70
     1
102
RTVSPropertyOp14
 70
     1
102
RTVSPropertyOp15
 70
     1
102
RTVSPropertyOp16
 70
     1
102
RTVSPropertyOp17
 70
     1
102
RTVSPropertyOp18
 70
     1
102
RTVSPropertyOp19
 70
     1
102
RTVSPropertyOp20
 70
     1
102
RTVSPropertyOp21
 70
     1
102
RTVSPropertyOp22
 70
     1
102
RTVSPropertyOp23
 70
     1
102
RTVSPropertyOp24
 70
     1
102
RTVSPropertyOp25
 70
     1
102
RTVSPropertyOp26
 70
     1
102
RTVSPropertyOp27
 70
     1
102
RTVSPropertyOp28
 70
     1
102
RTVSPropertyOp29
 70
     1
102
RTVSPropertyOp30
 70
     1
102
RTVSPropertyOp31
 70
     1
102
RTVSPropertyOp32
 70
     1
102
RTVSPropertyOp33
 70
     1
102
RTVSPropertyOp34
 70
     1
102
RTVSPropertyOp35
 70
     1
102
RTVSPropertyOp36
 70
     1
102
RTVSPropertyOp37
 70
     1
102
RTVSPropertyOp38
 70
     1
102
RTVSPropertyOp39
 70
     1
102
RTVSPropertyOp40
 70
     1
102
RTVSPropertyOp41
 70
     1
102
RTVSPropertyOp42
 70
     1
102
RTVSPropertyOp43
 70
     1
102
RTVSPropertyOp44
 70
     1
102
RTVSPropertyOp45
 70
     1
102
RTVSPropertyOp46
 70
     1
102
RTVSPropertyOp47
 70
     1
102
RTVSPropertyOp48
 70
     1
102
RTVSPropertyOp49
 70
     1
102
RTVSPropertyOp50
 70
     1
102
RTVSPropertyOp51
 70
     0
102
RTVSPropertyOp52
 70
     0
102
RTVSPropertyOp53
 70
     1
102
RTVSPropertyOp54
 70
     1
102
RTVSPropertyOp55
 70
     1
102
RTVSPropertyOp56
 70
     1
102
RTVSPropertyOp57
 70
     1
102
RTVSPropertyOp58
 70
     1
102
RTVSPropertyOp59
 70
     1
102
RTVSPropertyOp60
 70
     1
102
RTVSPropertyOp61
 70
     1
102
RTVSPropertyOp62
 70
     1
  0
XRECORD
  5
2904
102
{ACAD_REACTORS
330
2903
102
}
330
2903
100
AcDbXrecord
280
     1
102
RTVSPost2010Prop28
280
     0
102
RTVSPost2010PropOp28
 70
     1
102
RTVSPost2010Prop29
280
     1
102
RTVSPost2010PropOp29
 70
     1
102
RTVSPost2010Prop30
280
     1
102
RTVSPost2010PropOp30
 70
     1
102
RTVSPost2010Prop31
280
     0
102
RTVSPost2010PropOp31
 70
     1
102
RTVSPost2010Prop32
280
     0
102
RTVSPost2010PropOp32
 70
     1
102
RTVSPost2010Prop33
280
     0
102
RTVSPost2010PropOp33
 70
     1
102
RTVSPost2010Prop34
280
     0
102
RTVSPost2010PropOp34
 70
     1
102
RTVSPost2010Prop35
280
     0
102
RTVSPost2010PropOp35
 70
     1
102
RTVSPost2010Prop36
280
     0
102
RTVSPost2010PropOp36
 70
     1
102
RTVSPost2010Prop37
 90
       50
102
RTVSPost2010PropOp37
 70
     1
102
RTVSPost2010Prop38
140
0.0
102
RTVSPost2010PropOp38
 70
     1
102
RTVSPost2010Prop39
140
1.0
102
RTVSPost2010PropOp39
 70
     1
102
RTVSPost2010Prop40
 90
        0
102
RTVSPost2010PropOp40
 70
     1
102
RTVSPost2010Prop41ColorIndex
 90
       18
102
RTVSPost2010Prop41ColorRGB
 90
        0
102
RTVSPost2010PropOp41
 70
     1
102
RTVSPost2010Prop42
 90
       50
102
RTVSPost2010PropOp42
 70
     1
102
RTVSPost2010Prop43
 90
        3
102
RTVSPost2010PropOp43
 70
     1
102
RTVSPost2010Prop44ColorIndex
 90
        5
102
RTVSPost2010Prop44ColorRGB
 90
      255
102
RTVSPost2010PropOp44
 70
     1
102
RTVSPost2010Prop45
280
     0
102
RTVSPost2010PropOp45
 70
     1
102
RTVSPost2010Prop46
 90
       50
102
RTVSPost2010PropOp46
 70
     1
102
RTVSPost2010Prop47
 90
       50
102
RTVSPost2010PropOp47
 70
     1
102
RTVSPost2010Prop48
 90
       50
102
RTVSPost2010PropOp48
 70
     1
102
RTVSPost2010Prop49
280
     0
102
RTVSPost2010PropOp49
 70
     1
102
RTVSPost2010Prop50
 90
       50
102
RTVSPost2010PropOp50
 70
     1
102
RTVSPost2010Prop51ColorIndex
 90
      256
102
RTVSPost2010Prop51ColorRGB
 90
-16777216
102
RTVSPost2010PropOp51
 70
     0
102
RTVSPost2010Prop52
140
1.0
102
RTVSPost2010PropOp52
 70
     0
102
RTVSPost2010Prop53
 90
        2
102
RTVSPost2010PropOp53
 70
     1
102
RTVSPost2010Prop54
  1
strokes_ogs.tif
102
RTVSPost2010PropOp54
 70
     1
102
RTVSPost2010Prop55
280
     0
102
RTVSPost2010PropOp55
 70
     1
102
RTVSPost2010Prop56
140
1.0
102
RTVSPost2010PropOp56
 70
     1
102
RTVSPost2010Prop57
140
1.0
102
RTVSPost2010PropOp57
 70
     1
102
RTVSPropertyOp0
 70
     0
102
RTVSPropertyOp1
 70
     0
102
RTVSPropertyOp2
 70
     0
102
RTVSPropertyOp3
 70
     0
102
RTVSPropertyOp4
 70
     0
102
RTVSPropertyOp5
 70
     0
102
RTVSPropertyOp6
 70
     0
102
RTVSPropertyOp7
 70
     0
102
RTVSPropertyOp8
 70
     0
102
RTVSPropertyOp9
 70
     0
102
RTVSPropertyOp10
 70
     0
102
RTVSPropertyOp11
 70
     0
102
RTVSPropertyOp12
 70
     0
102
RTVSPropertyOp13
 70
     0
102
RTVSPropertyOp14
 70
     2
102
RTVSPropertyOp15
 70
     0
102
RTVSPropertyOp16
 70
     0
102
RTVSPropertyOp17
 70
     0
102
RTVSPropertyOp18
 70
     0
102
RTVSPropertyOp19
 70
     0
102
RTVSPropertyOp20
 70
     0
102
RTVSPropertyOp21
 70
     0
102
RTVSPropertyOp22
 70
     0
102
RTVSPropertyOp23
 70
     0
102
RTVSPropertyOp24
 70
     0
102
RTVSPropertyOp25
 70
     0
102
RTVSPropertyOp26
 70
     0
102
RTVSPropertyOp27
 70
     0
102
RTVSPropertyOp28
 70
     1
102
RTVSPropertyOp29
 70
     1
102
RTVSPropertyOp30
 70
     1
102
RTVSPropertyOp31
 70
     1
102
RTVSPropertyOp32
 70
     1
102
RTVSPropertyOp33
 70
     1
102
RTVSPropertyOp34
 70
     1
102
RTVSPropertyOp35
 70
     1
102
RTVSPropertyOp36
 70
     1
102
RTVSPropertyOp37
 70
     1
102
RTVSPropertyOp38
 70
     1
102
RTVSPropertyOp39
 70
     1
102
RTVSPropertyOp40
 70
     1
102
RTVSPropertyOp41
 70
     1
102
RTVSPropertyOp42
 70
     1
102
RTVSPropertyOp43
 70
     1
102
RTVSPropertyOp44
 70
     1
102
RTVSPropertyOp45
 70
     1
102
RTVSPropertyOp46
 70
     1
102
RTVSPropertyOp47
 70
     1
102
RTVSPropertyOp48
 70
     1
102
RTVSPropertyOp49
 70
     1
102
RTVSPropertyOp50
 70
     1
102
RTVSPropertyOp51
 70
     0
102
RTVSPropertyOp52
 70
     0
102
RTVSPropertyOp53
 70
     1
102
RTVSPropertyOp54
 70
     1
102
RTVSPropertyOp55
 70
     1
102
RTVSPropertyOp56
 70
     1
102
RTVSPropertyOp57
 70
     1
102
RTVSPropertyOp58
 70
     1
102
RTVSPropertyOp59
 70
     1
102
RTVSPropertyOp60
 70
     1
102
RTVSPropertyOp61
 70
     1
102
RTVSPropertyOp62
 70
     1
  0
XRECORD
  5
28FC
102
{ACAD_REACTORS
330
28FB
102
}
330
28FB
100
AcDbXrecord
280
     1
102
RTVSPost2010Prop28
280
     0
102
RTVSPost2010PropOp28
 70
     1
102
RTVSPost2010Prop29
280
     1
102
RTVSPost2010PropOp29
 70
     1
102
RTVSPost2010Prop30
280
     1
102
RTVSPost2010PropOp30
 70
     1
102
RTVSPost2010Prop31
280
     0
102
RTVSPost2010PropOp31
 70
     1
102
RTVSPost2010Prop32
280
     0
102
RTVSPost2010PropOp32
 70
     1
102
RTVSPost2010Prop33
280
     0
102
RTVSPost2010PropOp33
 70
     1
102
RTVSPost2010Prop34
280
     0
102
RTVSPost2010PropOp34
 70
     1
102
RTVSPost2010Prop35
280
     0
102
RTVSPost2010PropOp35
 70
     1
102
RTVSPost2010Prop36
280
     0
102
RTVSPost2010PropOp36
 70
     1
102
RTVSPost2010Prop37
 90
       50
102
RTVSPost2010PropOp37
 70
     1
102
RTVSPost2010Prop38
140
0.0
102
RTVSPost2010PropOp38
 70
     1
102
RTVSPost2010Prop39
140
1.0
102
RTVSPost2010PropOp39
 70
     1
102
RTVSPost2010Prop40
 90
        0
102
RTVSPost2010PropOp40
 70
     1
102
RTVSPost2010Prop41ColorIndex
 90
       18
102
RTVSPost2010Prop41ColorRGB
 90
        0
102
RTVSPost2010PropOp41
 70
     1
102
RTVSPost2010Prop42
 90
       50
102
RTVSPost2010PropOp42
 70
     1
102
RTVSPost2010Prop43
 90
        3
102
RTVSPost2010PropOp43
 70
     1
102
RTVSPost2010Prop44ColorIndex
 90
        5
102
RTVSPost2010Prop44ColorRGB
 90
      255
102
RTVSPost2010PropOp44
 70
     1
102
RTVSPost2010Prop45
280
     0
102
RTVSPost2010PropOp45
 70
     1
102
RTVSPost2010Prop46
 90
       50
102
RTVSPost2010PropOp46
 70
     1
102
RTVSPost2010Prop47
 90
       50
102
RTVSPost2010PropOp47
 70
     1
102
RTVSPost2010Prop48
 90
       50
102
RTVSPost2010PropOp48
 70
     1
102
RTVSPost2010Prop49
280
     0
102
RTVSPost2010PropOp49
 70
     1
102
RTVSPost2010Prop50
 90
       50
102
RTVSPost2010PropOp50
 70
     1
102
RTVSPost2010Prop51ColorIndex
 90
      256
102
RTVSPost2010Prop51ColorRGB
 90
-16777216
102
RTVSPost2010PropOp51
 70
     0
102
RTVSPost2010Prop52
140
1.0
102
RTVSPost2010PropOp52
 70
     0
102
RTVSPost2010Prop53
 90
        2
102
RTVSPost2010PropOp53
 70
     1
102
RTVSPost2010Prop54
  1
strokes_ogs.tif
102
RTVSPost2010PropOp54
 70
     1
102
RTVSPost2010Prop55
280
     0
102
RTVSPost2010PropOp55
 70
     1
102
RTVSPost2010Prop56
140
1.0
102
RTVSPost2010PropOp56
 70
     1
102
RTVSPost2010Prop57
140
1.0
102
RTVSPost2010PropOp57
 70
     1
102
RTVSPropertyOp0
 70
     1
102
RTVSPropertyOp1
 70
     1
102
RTVSPropertyOp2
 70
     1
102
RTVSPropertyOp3
 70
     1
102
RTVSPropertyOp4
 70
     1
102
RTVSPropertyOp5
 70
     1
102
RTVSPropertyOp6
 70
     1
102
RTVSPropertyOp7
 70
     1
102
RTVSPropertyOp8
 70
     1
102
RTVSPropertyOp9
 70
     1
102
RTVSPropertyOp10
 70
     1
102
RTVSPropertyOp11
 70
     1
102
RTVSPropertyOp12
 70
     1
102
RTVSPropertyOp13
 70
     1
102
RTVSPropertyOp14
 70
     1
102
RTVSPropertyOp15
 70
     1
102
RTVSPropertyOp16
 70
     1
102
RTVSPropertyOp17
 70
     1
102
RTVSPropertyOp18
 70
     1
102
RTVSPropertyOp19
 70
     1
102
RTVSPropertyOp20
 70
     1
102
RTVSPropertyOp21
 70
     1
102
RTVSPropertyOp22
 70
     1
102
RTVSPropertyOp23
 70
     1
102
RTVSPropertyOp24
 70
     1
102
RTVSPropertyOp25
 70
     1
102
RTVSPropertyOp26
 70
     1
102
RTVSPropertyOp27
 70
     1
102
RTVSPropertyOp28
 70
     1
102
RTVSPropertyOp29
 70
     1
102
RTVSPropertyOp30
 70
     1
102
RTVSPropertyOp31
 70
     1
102
RTVSPropertyOp32
 70
     1
102
RTVSPropertyOp33
 70
     1
102
RTVSPropertyOp34
 70
     1
102
RTVSPropertyOp35
 70
     1
102
RTVSPropertyOp36
 70
     1
102
RTVSPropertyOp37
 70
     1
102
RTVSPropertyOp38
 70
     1
102
RTVSPropertyOp39
 70
     1
102
RTVSPropertyOp40
 70
     1
102
RTVSPropertyOp41
 70
     1
102
RTVSPropertyOp42
 70
     1
102
RTVSPropertyOp43
 70
     1
102
RTVSPropertyOp44
 70
     1
102
RTVSPropertyOp45
 70
     1
102
RTVSPropertyOp46
 70
     1
102
RTVSPropertyOp47
 70
     1
102
RTVSPropertyOp48
 70
     1
102
RTVSPropertyOp49
 70
     1
102
RTVSPropertyOp50
 70
     1
102
RTVSPropertyOp51
 70
     0
102
RTVSPropertyOp52
 70
     0
102
RTVSPropertyOp53
 70
     1
102
RTVSPropertyOp54
 70
     1
102
RTVSPropertyOp55
 70
     1
102
RTVSPropertyOp56
 70
     1
102
RTVSPropertyOp57
 70
     1
102
RTVSPropertyOp58
 70
     1
102
RTVSPropertyOp59
 70
     1
102
RTVSPropertyOp60
 70
     1
102
RTVSPropertyOp61
 70
     1
102
RTVSPropertyOp62
 70
     1
  0
XRECORD
  5
28E0
102
{ACAD_REACTORS
330
28DF
102
}
330
28DF
100
AcDbXrecord
280
     1
102
RTVSPost2010Prop28
280
     0
102
RTVSPost2010PropOp28
 70
     1
102
RTVSPost2010Prop29
280
     1
102
RTVSPost2010PropOp29
 70
     1
102
RTVSPost2010Prop30
280
     1
102
RTVSPost2010PropOp30
 70
     1
102
RTVSPost2010Prop31
280
     0
102
RTVSPost2010PropOp31
 70
     1
102
RTVSPost2010Prop32
280
     0
102
RTVSPost2010PropOp32
 70
     1
102
RTVSPost2010Prop33
280
     0
102
RTVSPost2010PropOp33
 70
     1
102
RTVSPost2010Prop34
280
     0
102
RTVSPost2010PropOp34
 70
     1
102
RTVSPost2010Prop35
280
     0
102
RTVSPost2010PropOp35
 70
     1
102
RTVSPost2010Prop36
280
     0
102
RTVSPost2010PropOp36
 70
     1
102
RTVSPost2010Prop37
 90
       50
102
RTVSPost2010PropOp37
 70
     1
102
RTVSPost2010Prop38
140
0.0
102
RTVSPost2010PropOp38
 70
     1
102
RTVSPost2010Prop39
140
1.0
102
RTVSPost2010PropOp39
 70
     1
102
RTVSPost2010Prop40
 90
        0
102
RTVSPost2010PropOp40
 70
     1
102
RTVSPost2010Prop41ColorIndex
 90
       18
102
RTVSPost2010Prop41ColorRGB
 90
        0
102
RTVSPost2010PropOp41
 70
     1
102
RTVSPost2010Prop42
 90
       50
102
RTVSPost2010PropOp42
 70
     1
102
RTVSPost2010Prop43
 90
        3
102
RTVSPost2010PropOp43
 70
     1
102
RTVSPost2010Prop44ColorIndex
 90
        5
102
RTVSPost2010Prop44ColorRGB
 90
      255
102
RTVSPost2010PropOp44
 70
     1
102
RTVSPost2010Prop45
280
     0
102
RTVSPost2010PropOp45
 70
     1
102
RTVSPost2010Prop46
 90
       50
102
RTVSPost2010PropOp46
 70
     1
102
RTVSPost2010Prop47
 90
       50
102
RTVSPost2010PropOp47
 70
     1
102
RTVSPost2010Prop48
 90
       50
102
RTVSPost2010PropOp48
 70
     1
102
RTVSPost2010Prop49
280
     0
102
RTVSPost2010PropOp49
 70
     1
102
RTVSPost2010Prop50
 90
       50
102
RTVSPost2010PropOp50
 70
     1
102
RTVSPost2010Prop51ColorIndex
 90
      256
102
RTVSPost2010Prop51ColorRGB
 90
-16777216
102
RTVSPost2010PropOp51
 70
     0
102
RTVSPost2010Prop52
140
1.0
102
RTVSPost2010PropOp52
 70
     0
102
RTVSPost2010Prop53
 90
        2
102
RTVSPost2010PropOp53
 70
     1
102
RTVSPost2010Prop54
  1
strokes_ogs.tif
102
RTVSPost2010PropOp54
 70
     1
102
RTVSPost2010Prop55
280
     0
102
RTVSPost2010PropOp55
 70
     1
102
RTVSPost2010Prop56
140
1.0
102
RTVSPost2010PropOp56
 70
     1
102
RTVSPost2010Prop57
140
1.0
102
RTVSPost2010PropOp57
 70
     1
102
RTVSPropertyOp0
 70
     1
102
RTVSPropertyOp1
 70
     1
102
RTVSPropertyOp2
 70
     1
102
RTVSPropertyOp3
 70
     1
102
RTVSPropertyOp4
 70
     1
102
RTVSPropertyOp5
 70
     1
102
RTVSPropertyOp6
 70
     1
102
RTVSPropertyOp7
 70
     1
102
RTVSPropertyOp8
 70
     1
102
RTVSPropertyOp9
 70
     1
102
RTVSPropertyOp10
 70
     1
102
RTVSPropertyOp11
 70
     1
102
RTVSPropertyOp12
 70
     1
102
RTVSPropertyOp13
 70
     1
102
RTVSPropertyOp14
 70
     1
102
RTVSPropertyOp15
 70
     1
102
RTVSPropertyOp16
 70
     1
102
RTVSPropertyOp17
 70
     1
102
RTVSPropertyOp18
 70
     1
102
RTVSPropertyOp19
 70
     1
102
RTVSPropertyOp20
 70
     1
102
RTVSPropertyOp21
 70
     1
102
RTVSPropertyOp22
 70
     1
102
RTVSPropertyOp23
 70
     1
102
RTVSPropertyOp24
 70
     1
102
RTVSPropertyOp25
 70
     1
102
RTVSPropertyOp26
 70
     1
102
RTVSPropertyOp27
 70
     1
102
RTVSPropertyOp28
 70
     1
102
RTVSPropertyOp29
 70
     1
102
RTVSPropertyOp30
 70
     1
102
RTVSPropertyOp31
 70
     1
102
RTVSPropertyOp32
 70
     1
102
RTVSPropertyOp33
 70
     1
102
RTVSPropertyOp34
 70
     1
102
RTVSPropertyOp35
 70
     1
102
RTVSPropertyOp36
 70
     1
102
RTVSPropertyOp37
 70
     1
102
RTVSPropertyOp38
 70
     1
102
RTVSPropertyOp39
 70
     1
102
RTVSPropertyOp40
 70
     1
102
RTVSPropertyOp41
 70
     1
102
RTVSPropertyOp42
 70
     1
102
RTVSPropertyOp43
 70
     1
102
RTVSPropertyOp44
 70
     1
102
RTVSPropertyOp45
 70
     1
102
RTVSPropertyOp46
 70
     1
102
RTVSPropertyOp47
 70
     1
102
RTVSPropertyOp48
 70
     1
102
RTVSPropertyOp49
 70
     1
102
RTVSPropertyOp50
 70
     1
102
RTVSPropertyOp51
 70
     0
102
RTVSPropertyOp52
 70
     0
102
RTVSPropertyOp53
 70
     1
102
RTVSPropertyOp54
 70
     1
102
RTVSPropertyOp55
 70
     1
102
RTVSPropertyOp56
 70
     1
102
RTVSPropertyOp57
 70
     1
102
RTVSPropertyOp58
 70
     1
102
RTVSPropertyOp59
 70
     1
102
RTVSPropertyOp60
 70
     1
102
RTVSPropertyOp61
 70
     1
102
RTVSPropertyOp62
 70
     1
  0
XRECORD
  5
28E2
102
{ACAD_REACTORS
330
28E1
102
}
330
28E1
100
AcDbXrecord
280
     1
102
RTVSPost2010Prop28
280
     0
102
RTVSPost2010PropOp28
 70
     1
102
RTVSPost2010Prop29
280
     1
102
RTVSPost2010PropOp29
 70
     1
102
RTVSPost2010Prop30
280
     1
102
RTVSPost2010PropOp30
 70
     1
102
RTVSPost2010Prop31
280
     0
102
RTVSPost2010PropOp31
 70
     1
102
RTVSPost2010Prop32
280
     0
102
RTVSPost2010PropOp32
 70
     1
102
RTVSPost2010Prop33
280
     0
102
RTVSPost2010PropOp33
 70
     1
102
RTVSPost2010Prop34
280
     0
102
RTVSPost2010PropOp34
 70
     1
102
RTVSPost2010Prop35
280
     0
102
RTVSPost2010PropOp35
 70
     1
102
RTVSPost2010Prop36
280
     0
102
RTVSPost2010PropOp36
 70
     1
102
RTVSPost2010Prop37
 90
       50
102
RTVSPost2010PropOp37
 70
     1
102
RTVSPost2010Prop38
140
0.0
102
RTVSPost2010PropOp38
 70
     1
102
RTVSPost2010Prop39
140
1.0
102
RTVSPost2010PropOp39
 70
     1
102
RTVSPost2010Prop40
 90
        0
102
RTVSPost2010PropOp40
 70
     1
102
RTVSPost2010Prop41ColorIndex
 90
       18
102
RTVSPost2010Prop41ColorRGB
 90
        0
102
RTVSPost2010PropOp41
 70
     1
102
RTVSPost2010Prop42
 90
       50
102
RTVSPost2010PropOp42
 70
     1
102
RTVSPost2010Prop43
 90
        3
102
RTVSPost2010PropOp43
 70
     1
102
RTVSPost2010Prop44ColorIndex
 90
        5
102
RTVSPost2010Prop44ColorRGB
 90
      255
102
RTVSPost2010PropOp44
 70
     1
102
RTVSPost2010Prop45
280
     0
102
RTVSPost2010PropOp45
 70
     1
102
RTVSPost2010Prop46
 90
       50
102
RTVSPost2010PropOp46
 70
     1
102
RTVSPost2010Prop47
 90
       50
102
RTVSPost2010PropOp47
 70
     1
102
RTVSPost2010Prop48
 90
       50
102
RTVSPost2010PropOp48
 70
     1
102
RTVSPost2010Prop49
280
     0
102
RTVSPost2010PropOp49
 70
     1
102
RTVSPost2010Prop50
 90
       50
102
RTVSPost2010PropOp50
 70
     1
102
RTVSPost2010Prop51ColorIndex
 90
      256
102
RTVSPost2010Prop51ColorRGB
 90
-16777216
102
RTVSPost2010PropOp51
 70
     0
102
RTVSPost2010Prop52
140
1.0
102
RTVSPost2010PropOp52
 70
     0
102
RTVSPost2010Prop53
 90
        2
102
RTVSPost2010PropOp53
 70
     1
102
RTVSPost2010Prop54
  1
strokes_ogs.tif
102
RTVSPost2010PropOp54
 70
     1
102
RTVSPost2010Prop55
280
     0
102
RTVSPost2010PropOp55
 70
     1
102
RTVSPost2010Prop56
140
1.0
102
RTVSPost2010PropOp56
 70
     1
102
RTVSPost2010Prop57
140
1.0
102
RTVSPost2010PropOp57
 70
     1
102
RTVSPropertyOp0
 70
     1
102
RTVSPropertyOp1
 70
     1
102
RTVSPropertyOp2
 70
     1
102
RTVSPropertyOp3
 70
     1
102
RTVSPropertyOp4
 70
     1
102
RTVSPropertyOp5
 70
     1
102
RTVSPropertyOp6
 70
     1
102
RTVSPropertyOp7
 70
     1
102
RTVSPropertyOp8
 70
     1
102
RTVSPropertyOp9
 70
     1
102
RTVSPropertyOp10
 70
     1
102
RTVSPropertyOp11
 70
     1
102
RTVSPropertyOp12
 70
     1
102
RTVSPropertyOp13
 70
     1
102
RTVSPropertyOp14
 70
     1
102
RTVSPropertyOp15
 70
     1
102
RTVSPropertyOp16
 70
     1
102
RTVSPropertyOp17
 70
     1
102
RTVSPropertyOp18
 70
     1
102
RTVSPropertyOp19
 70
     1
102
RTVSPropertyOp20
 70
     1
102
RTVSPropertyOp21
 70
     1
102
RTVSPropertyOp22
 70
     1
102
RTVSPropertyOp23
 70
     1
102
RTVSPropertyOp24
 70
     1
102
RTVSPropertyOp25
 70
     1
102
RTVSPropertyOp26
 70
     1
102
RTVSPropertyOp27
 70
     1
102
RTVSPropertyOp28
 70
     1
102
RTVSPropertyOp29
 70
     1
102
RTVSPropertyOp30
 70
     1
102
RTVSPropertyOp31
 70
     1
102
RTVSPropertyOp32
 70
     1
102
RTVSPropertyOp33
 70
     1
102
RTVSPropertyOp34
 70
     1
102
RTVSPropertyOp35
 70
     1
102
RTVSPropertyOp36
 70
     1
102
RTVSPropertyOp37
 70
     1
102
RTVSPropertyOp38
 70
     1
102
RTVSPropertyOp39
 70
     1
102
RTVSPropertyOp40
 70
     1
102
RTVSPropertyOp41
 70
     1
102
RTVSPropertyOp42
 70
     1
102
RTVSPropertyOp43
 70
     1
102
RTVSPropertyOp44
 70
     1
102
RTVSPropertyOp45
 70
     1
102
RTVSPropertyOp46
 70
     1
102
RTVSPropertyOp47
 70
     1
102
RTVSPropertyOp48
 70
     1
102
RTVSPropertyOp49
 70
     1
102
RTVSPropertyOp50
 70
     1
102
RTVSPropertyOp51
 70
     0
102
RTVSPropertyOp52
 70
     0
102
RTVSPropertyOp53
 70
     1
102
RTVSPropertyOp54
 70
     1
102
RTVSPropertyOp55
 70
     1
102
RTVSPropertyOp56
 70
     1
102
RTVSPropertyOp57
 70
     1
102
RTVSPropertyOp58
 70
     1
102
RTVSPropertyOp59
 70
     1
102
RTVSPropertyOp60
 70
     1
102
RTVSPropertyOp61
 70
     1
102
RTVSPropertyOp62
 70
     1
  0
XRECORD
  5
28E4
102
{ACAD_REACTORS
330
28E3
102
}
330
28E3
100
AcDbXrecord
280
     1
102
RTVSPost2010Prop28
280
     0
102
RTVSPost2010PropOp28
 70
     1
102
RTVSPost2010Prop29
280
     1
102
RTVSPost2010PropOp29
 70
     1
102
RTVSPost2010Prop30
280
     1
102
RTVSPost2010PropOp30
 70
     1
102
RTVSPost2010Prop31
280
     0
102
RTVSPost2010PropOp31
 70
     1
102
RTVSPost2010Prop32
280
     0
102
RTVSPost2010PropOp32
 70
     1
102
RTVSPost2010Prop33
280
     0
102
RTVSPost2010PropOp33
 70
     1
102
RTVSPost2010Prop34
280
     0
102
RTVSPost2010PropOp34
 70
     1
102
RTVSPost2010Prop35
280
     0
102
RTVSPost2010PropOp35
 70
     1
102
RTVSPost2010Prop36
280
     0
102
RTVSPost2010PropOp36
 70
     1
102
RTVSPost2010Prop37
 90
       50
102
RTVSPost2010PropOp37
 70
     1
102
RTVSPost2010Prop38
140
0.0
102
RTVSPost2010PropOp38
 70
     1
102
RTVSPost2010Prop39
140
1.0
102
RTVSPost2010PropOp39
 70
     1
102
RTVSPost2010Prop40
 90
        0
102
RTVSPost2010PropOp40
 70
     1
102
RTVSPost2010Prop41ColorIndex
 90
       18
102
RTVSPost2010Prop41ColorRGB
 90
        0
102
RTVSPost2010PropOp41
 70
     1
102
RTVSPost2010Prop42
 90
       50
102
RTVSPost2010PropOp42
 70
     1
102
RTVSPost2010Prop43
 90
        3
102
RTVSPost2010PropOp43
 70
     1
102
RTVSPost2010Prop44ColorIndex
 90
        5
102
RTVSPost2010Prop44ColorRGB
 90
      255
102
RTVSPost2010PropOp44
 70
     1
102
RTVSPost2010Prop45
280
     0
102
RTVSPost2010PropOp45
 70
     1
102
RTVSPost2010Prop46
 90
       50
102
RTVSPost2010PropOp46
 70
     1
102
RTVSPost2010Prop47
 90
       50
102
RTVSPost2010PropOp47
 70
     1
102
RTVSPost2010Prop48
 90
       50
102
RTVSPost2010PropOp48
 70
     1
102
RTVSPost2010Prop49
280
     0
102
RTVSPost2010PropOp49
 70
     1
102
RTVSPost2010Prop50
 90
       50
102
RTVSPost2010PropOp50
 70
     1
102
RTVSPost2010Prop51ColorIndex
 90
      256
102
RTVSPost2010Prop51ColorRGB
 90
-16777216
102
RTVSPost2010PropOp51
 70
     0
102
RTVSPost2010Prop52
140
1.0
102
RTVSPost2010PropOp52
 70
     0
102
RTVSPost2010Prop53
 90
        2
102
RTVSPost2010PropOp53
 70
     1
102
RTVSPost2010Prop54
  1
strokes_ogs.tif
102
RTVSPost2010PropOp54
 70
     1
102
RTVSPost2010Prop55
280
     0
102
RTVSPost2010PropOp55
 70
     1
102
RTVSPost2010Prop56
140
1.0
102
RTVSPost2010PropOp56
 70
     1
102
RTVSPost2010Prop57
140
1.0
102
RTVSPost2010PropOp57
 70
     1
102
RTVSPropertyOp0
 70
     1
102
RTVSPropertyOp1
 70
     1
102
RTVSPropertyOp2
 70
     1
102
RTVSPropertyOp3
 70
     1
102
RTVSPropertyOp4
 70
     1
102
RTVSPropertyOp5
 70
     1
102
RTVSPropertyOp6
 70
     1
102
RTVSPropertyOp7
 70
     1
102
RTVSPropertyOp8
 70
     1
102
RTVSPropertyOp9
 70
     1
102
RTVSPropertyOp10
 70
     1
102
RTVSPropertyOp11
 70
     1
102
RTVSPropertyOp12
 70
     1
102
RTVSPropertyOp13
 70
     1
102
RTVSPropertyOp14
 70
     1
102
RTVSPropertyOp15
 70
     1
102
RTVSPropertyOp16
 70
     1
102
RTVSPropertyOp17
 70
     1
102
RTVSPropertyOp18
 70
     1
102
RTVSPropertyOp19
 70
     1
102
RTVSPropertyOp20
 70
     1
102
RTVSPropertyOp21
 70
     1
102
RTVSPropertyOp22
 70
     1
102
RTVSPropertyOp23
 70
     1
102
RTVSPropertyOp24
 70
     1
102
RTVSPropertyOp25
 70
     1
102
RTVSPropertyOp26
 70
     1
102
RTVSPropertyOp27
 70
     1
102
RTVSPropertyOp28
 70
     1
102
RTVSPropertyOp29
 70
     1
102
RTVSPropertyOp30
 70
     1
102
RTVSPropertyOp31
 70
     1
102
RTVSPropertyOp32
 70
     1
102
RTVSPropertyOp33
 70
     1
102
RTVSPropertyOp34
 70
     1
102
RTVSPropertyOp35
 70
     1
102
RTVSPropertyOp36
 70
     1
102
RTVSPropertyOp37
 70
     1
102
RTVSPropertyOp38
 70
     1
102
RTVSPropertyOp39
 70
     1
102
RTVSPropertyOp40
 70
     1
102
RTVSPropertyOp41
 70
     1
102
RTVSPropertyOp42
 70
     1
102
RTVSPropertyOp43
 70
     1
102
RTVSPropertyOp44
 70
     1
102
RTVSPropertyOp45
 70
     1
102
RTVSPropertyOp46
 70
     1
102
RTVSPropertyOp47
 70
     1
102
RTVSPropertyOp48
 70
     1
102
RTVSPropertyOp49
 70
     1
102
RTVSPropertyOp50
 70
     1
102
RTVSPropertyOp51
 70
     0
102
RTVSPropertyOp52
 70
     0
102
RTVSPropertyOp53
 70
     1
102
RTVSPropertyOp54
 70
     1
102
RTVSPropertyOp55
 70
     1
102
RTVSPropertyOp56
 70
     1
102
RTVSPropertyOp57
 70
     1
102
RTVSPropertyOp58
 70
     1
102
RTVSPropertyOp59
 70
     1
102
RTVSPropertyOp60
 70
     1
102
RTVSPropertyOp61
 70
     1
102
RTVSPropertyOp62
 70
     1
  0
XRECORD
  5
28E6
102
{ACAD_REACTORS
330
28E5
102
}
330
28E5
100
AcDbXrecord
280
     1
102
RTVSPost2010Prop28
280
     0
102
RTVSPost2010PropOp28
 70
     1
102
RTVSPost2010Prop29
280
     1
102
RTVSPost2010PropOp29
 70
     1
102
RTVSPost2010Prop30
280
     1
102
RTVSPost2010PropOp30
 70
     1
102
RTVSPost2010Prop31
280
     0
102
RTVSPost2010PropOp31
 70
     1
102
RTVSPost2010Prop32
280
     0
102
RTVSPost2010PropOp32
 70
     1
102
RTVSPost2010Prop33
280
     0
102
RTVSPost2010PropOp33
 70
     1
102
RTVSPost2010Prop34
280
     0
102
RTVSPost2010PropOp34
 70
     1
102
RTVSPost2010Prop35
280
     0
102
RTVSPost2010PropOp35
 70
     1
102
RTVSPost2010Prop36
280
     0
102
RTVSPost2010PropOp36
 70
     1
102
RTVSPost2010Prop37
 90
       50
102
RTVSPost2010PropOp37
 70
     1
102
RTVSPost2010Prop38
140
0.0
102
RTVSPost2010PropOp38
 70
     1
102
RTVSPost2010Prop39
140
1.0
102
RTVSPost2010PropOp39
 70
     1
102
RTVSPost2010Prop40
 90
        0
102
RTVSPost2010PropOp40
 70
     1
102
RTVSPost2010Prop41ColorIndex
 90
       18
102
RTVSPost2010Prop41ColorRGB
 90
        0
102
RTVSPost2010PropOp41
 70
     1
102
RTVSPost2010Prop42
 90
       50
102
RTVSPost2010PropOp42
 70
     1
102
RTVSPost2010Prop43
 90
        3
102
RTVSPost2010PropOp43
 70
     1
102
RTVSPost2010Prop44ColorIndex
 90
        5
102
RTVSPost2010Prop44ColorRGB
 90
      255
102
RTVSPost2010PropOp44
 70
     1
102
RTVSPost2010Prop45
280
     0
102
RTVSPost2010PropOp45
 70
     1
102
RTVSPost2010Prop46
 90
       50
102
RTVSPost2010PropOp46
 70
     1
102
RTVSPost2010Prop47
 90
       50
102
RTVSPost2010PropOp47
 70
     1
102
RTVSPost2010Prop48
 90
       50
102
RTVSPost2010PropOp48
 70
     1
102
RTVSPost2010Prop49
280
     0
102
RTVSPost2010PropOp49
 70
     1
102
RTVSPost2010Prop50
 90
       50
102
RTVSPost2010PropOp50
 70
     1
102
RTVSPost2010Prop51ColorIndex
 90
      256
102
RTVSPost2010Prop51ColorRGB
 90
-16777216
102
RTVSPost2010PropOp51
 70
     0
102
RTVSPost2010Prop52
140
1.0
102
RTVSPost2010PropOp52
 70
     0
102
RTVSPost2010Prop53
 90
        2
102
RTVSPost2010PropOp53
 70
     1
102
RTVSPost2010Prop54
  1
strokes_ogs.tif
102
RTVSPost2010PropOp54
 70
     1
102
RTVSPost2010Prop55
280
     0
102
RTVSPost2010PropOp55
 70
     1
102
RTVSPost2010Prop56
140
1.0
102
RTVSPost2010PropOp56
 70
     1
102
RTVSPost2010Prop57
140
1.0
102
RTVSPost2010PropOp57
 70
     1
102
RTVSPropertyOp0
 70
     1
102
RTVSPropertyOp1
 70
     1
102
RTVSPropertyOp2
 70
     1
102
RTVSPropertyOp3
 70
     1
102
RTVSPropertyOp4
 70
     1
102
RTVSPropertyOp5
 70
     1
102
RTVSPropertyOp6
 70
     1
102
RTVSPropertyOp7
 70
     1
102
RTVSPropertyOp8
 70
     1
102
RTVSPropertyOp9
 70
     1
102
RTVSPropertyOp10
 70
     1
102
RTVSPropertyOp11
 70
     1
102
RTVSPropertyOp12
 70
     1
102
RTVSPropertyOp13
 70
     1
102
RTVSPropertyOp14
 70
     1
102
RTVSPropertyOp15
 70
     1
102
RTVSPropertyOp16
 70
     1
102
RTVSPropertyOp17
 70
     1
102
RTVSPropertyOp18
 70
     1
102
RTVSPropertyOp19
 70
     1
102
RTVSPropertyOp20
 70
     1
102
RTVSPropertyOp21
 70
     1
102
RTVSPropertyOp22
 70
     1
102
RTVSPropertyOp23
 70
     1
102
RTVSPropertyOp24
 70
     1
102
RTVSPropertyOp25
 70
     1
102
RTVSPropertyOp26
 70
     1
102
RTVSPropertyOp27
 70
     1
102
RTVSPropertyOp28
 70
     1
102
RTVSPropertyOp29
 70
     1
102
RTVSPropertyOp30
 70
     1
102
RTVSPropertyOp31
 70
     1
102
RTVSPropertyOp32
 70
     1
102
RTVSPropertyOp33
 70
     1
102
RTVSPropertyOp34
 70
     1
102
RTVSPropertyOp35
 70
     1
102
RTVSPropertyOp36
 70
     1
102
RTVSPropertyOp37
 70
     1
102
RTVSPropertyOp38
 70
     1
102
RTVSPropertyOp39
 70
     1
102
RTVSPropertyOp40
 70
     1
102
RTVSPropertyOp41
 70
     1
102
RTVSPropertyOp42
 70
     1
102
RTVSPropertyOp43
 70
     1
102
RTVSPropertyOp44
 70
     1
102
RTVSPropertyOp45
 70
     1
102
RTVSPropertyOp46
 70
     1
102
RTVSPropertyOp47
 70
     1
102
RTVSPropertyOp48
 70
     1
102
RTVSPropertyOp49
 70
     1
102
RTVSPropertyOp50
 70
     1
102
RTVSPropertyOp51
 70
     0
102
RTVSPropertyOp52
 70
     0
102
RTVSPropertyOp53
 70
     1
102
RTVSPropertyOp54
 70
     1
102
RTVSPropertyOp55
 70
     1
102
RTVSPropertyOp56
 70
     1
102
RTVSPropertyOp57
 70
     1
102
RTVSPropertyOp58
 70
     1
102
RTVSPropertyOp59
 70
     1
102
RTVSPropertyOp60
 70
     1
102
RTVSPropertyOp61
 70
     1
102
RTVSPropertyOp62
 70
     1
  0
XRECORD
  5
2919
102
{ACAD_REACTORS
330
2918
102
}
330
2918
100
AcDbXrecord
280
     1
102
RTVSPost2010Prop28
280
     0
102
RTVSPost2010PropOp28
 70
     1
102
RTVSPost2010Prop29
280
     1
102
RTVSPost2010PropOp29
 70
     1
102
RTVSPost2010Prop30
280
     1
102
RTVSPost2010PropOp30
 70
     1
102
RTVSPost2010Prop31
280
     0
102
RTVSPost2010PropOp31
 70
     1
102
RTVSPost2010Prop32
280
     0
102
RTVSPost2010PropOp32
 70
     1
102
RTVSPost2010Prop33
280
     0
102
RTVSPost2010PropOp33
 70
     1
102
RTVSPost2010Prop34
280
     0
102
RTVSPost2010PropOp34
 70
     1
102
RTVSPost2010Prop35
280
     0
102
RTVSPost2010PropOp35
 70
     1
102
RTVSPost2010Prop36
280
     0
102
RTVSPost2010PropOp36
 70
     1
102
RTVSPost2010Prop37
 90
       50
102
RTVSPost2010PropOp37
 70
     1
102
RTVSPost2010Prop38
140
0.0
102
RTVSPost2010PropOp38
 70
     1
102
RTVSPost2010Prop39
140
1.0
102
RTVSPost2010PropOp39
 70
     1
102
RTVSPost2010Prop40
 90
        0
102
RTVSPost2010PropOp40
 70
     1
102
RTVSPost2010Prop41ColorIndex
 90
       18
102
RTVSPost2010Prop41ColorRGB
 90
        0
102
RTVSPost2010PropOp41
 70
     1
102
RTVSPost2010Prop42
 90
       50
102
RTVSPost2010PropOp42
 70
     1
102
RTVSPost2010Prop43
 90
        3
102
RTVSPost2010PropOp43
 70
     1
102
RTVSPost2010Prop44ColorIndex
 90
        5
102
RTVSPost2010Prop44ColorRGB
 90
      255
102
RTVSPost2010PropOp44
 70
     1
102
RTVSPost2010Prop45
280
     0
102
RTVSPost2010PropOp45
 70
     1
102
RTVSPost2010Prop46
 90
       50
102
RTVSPost2010PropOp46
 70
     1
102
RTVSPost2010Prop47
 90
       50
102
RTVSPost2010PropOp47
 70
     1
102
RTVSPost2010Prop48
 90
       50
102
RTVSPost2010PropOp48
 70
     1
102
RTVSPost2010Prop49
280
     0
102
RTVSPost2010PropOp49
 70
     1
102
RTVSPost2010Prop50
 90
       50
102
RTVSPost2010PropOp50
 70
     1
102
RTVSPost2010Prop51ColorIndex
 90
      256
102
RTVSPost2010Prop51ColorRGB
 90
-16777216
102
RTVSPost2010PropOp51
 70
     0
102
RTVSPost2010Prop52
140
1.0
102
RTVSPost2010PropOp52
 70
     0
102
RTVSPost2010Prop53
 90
        2
102
RTVSPost2010PropOp53
 70
     1
102
RTVSPost2010Prop54
  1
strokes_ogs.tif
102
RTVSPost2010PropOp54
 70
     1
102
RTVSPost2010Prop55
280
     0
102
RTVSPost2010PropOp55
 70
     1
102
RTVSPost2010Prop56
140
1.0
102
RTVSPost2010PropOp56
 70
     1
102
RTVSPost2010Prop57
140
1.0
102
RTVSPost2010PropOp57
 70
     1
102
RTVSPropertyOp0
 70
     1
102
RTVSPropertyOp1
 70
     1
102
RTVSPropertyOp2
 70
     1
102
RTVSPropertyOp3
 70
     1
102
RTVSPropertyOp4
 70
     1
102
RTVSPropertyOp5
 70
     1
102
RTVSPropertyOp6
 70
     1
102
RTVSPropertyOp7
 70
     1
102
RTVSPropertyOp8
 70
     1
102
RTVSPropertyOp9
 70
     1
102
RTVSPropertyOp10
 70
     1
102
RTVSPropertyOp11
 70
     1
102
RTVSPropertyOp12
 70
     1
102
RTVSPropertyOp13
 70
     1
102
RTVSPropertyOp14
 70
     1
102
RTVSPropertyOp15
 70
     1
102
RTVSPropertyOp16
 70
     1
102
RTVSPropertyOp17
 70
     1
102
RTVSPropertyOp18
 70
     1
102
RTVSPropertyOp19
 70
     1
102
RTVSPropertyOp20
 70
     1
102
RTVSPropertyOp21
 70
     1
102
RTVSPropertyOp22
 70
     1
102
RTVSPropertyOp23
 70
     1
102
RTVSPropertyOp24
 70
     1
102
RTVSPropertyOp25
 70
     1
102
RTVSPropertyOp26
 70
     1
102
RTVSPropertyOp27
 70
     1
102
RTVSPropertyOp28
 70
     1
102
RTVSPropertyOp29
 70
     1
102
RTVSPropertyOp30
 70
     1
102
RTVSPropertyOp31
 70
     1
102
RTVSPropertyOp32
 70
     1
102
RTVSPropertyOp33
 70
     1
102
RTVSPropertyOp34
 70
     1
102
RTVSPropertyOp35
 70
     1
102
RTVSPropertyOp36
 70
     1
102
RTVSPropertyOp37
 70
     1
102
RTVSPropertyOp38
 70
     1
102
RTVSPropertyOp39
 70
     1
102
RTVSPropertyOp40
 70
     1
102
RTVSPropertyOp41
 70
     1
102
RTVSPropertyOp42
 70
     1
102
RTVSPropertyOp43
 70
     1
102
RTVSPropertyOp44
 70
     1
102
RTVSPropertyOp45
 70
     1
102
RTVSPropertyOp46
 70
     1
102
RTVSPropertyOp47
 70
     1
102
RTVSPropertyOp48
 70
     1
102
RTVSPropertyOp49
 70
     1
102
RTVSPropertyOp50
 70
     1
102
RTVSPropertyOp51
 70
     0
102
RTVSPropertyOp52
 70
     0
102
RTVSPropertyOp53
 70
     1
102
RTVSPropertyOp54
 70
     1
102
RTVSPropertyOp55
 70
     1
102
RTVSPropertyOp56
 70
     1
102
RTVSPropertyOp57
 70
     1
102
RTVSPropertyOp58
 70
     1
102
RTVSPropertyOp59
 70
     1
102
RTVSPropertyOp60
 70
     1
102
RTVSPropertyOp61
 70
     1
102
RTVSPropertyOp62
 70
     1
  0
XRECORD
  5
2900
102
{ACAD_REACTORS
330
28FF
102
}
330
28FF
100
AcDbXrecord
280
     1
102
RTVSPost2010Prop28
280
     0
102
RTVSPost2010PropOp28
 70
     1
102
RTVSPost2010Prop29
280
     1
102
RTVSPost2010PropOp29
 70
     1
102
RTVSPost2010Prop30
280
     1
102
RTVSPost2010PropOp30
 70
     1
102
RTVSPost2010Prop31
280
     0
102
RTVSPost2010PropOp31
 70
     1
102
RTVSPost2010Prop32
280
     0
102
RTVSPost2010PropOp32
 70
     1
102
RTVSPost2010Prop33
280
     0
102
RTVSPost2010PropOp33
 70
     1
102
RTVSPost2010Prop34
280
     0
102
RTVSPost2010PropOp34
 70
     1
102
RTVSPost2010Prop35
280
     0
102
RTVSPost2010PropOp35
 70
     1
102
RTVSPost2010Prop36
280
     0
102
RTVSPost2010PropOp36
 70
     1
102
RTVSPost2010Prop37
 90
       50
102
RTVSPost2010PropOp37
 70
     1
102
RTVSPost2010Prop38
140
0.0
102
RTVSPost2010PropOp38
 70
     1
102
RTVSPost2010Prop39
140
1.0
102
RTVSPost2010PropOp39
 70
     1
102
RTVSPost2010Prop40
 90
        0
102
RTVSPost2010PropOp40
 70
     1
102
RTVSPost2010Prop41ColorIndex
 90
       18
102
RTVSPost2010Prop41ColorRGB
 90
        0
102
RTVSPost2010PropOp41
 70
     1
102
RTVSPost2010Prop42
 90
       50
102
RTVSPost2010PropOp42
 70
     1
102
RTVSPost2010Prop43
 90
        3
102
RTVSPost2010PropOp43
 70
     1
102
RTVSPost2010Prop44ColorIndex
 90
        5
102
RTVSPost2010Prop44ColorRGB
 90
      255
102
RTVSPost2010PropOp44
 70
     1
102
RTVSPost2010Prop45
280
     0
102
RTVSPost2010PropOp45
 70
     1
102
RTVSPost2010Prop46
 90
       50
102
RTVSPost2010PropOp46
 70
     1
102
RTVSPost2010Prop47
 90
       50
102
RTVSPost2010PropOp47
 70
     1
102
RTVSPost2010Prop48
 90
       50
102
RTVSPost2010PropOp48
 70
     1
102
RTVSPost2010Prop49
280
     0
102
RTVSPost2010PropOp49
 70
     1
102
RTVSPost2010Prop50
 90
       50
102
RTVSPost2010PropOp50
 70
     1
102
RTVSPost2010Prop51ColorIndex
 90
      256
102
RTVSPost2010Prop51ColorRGB
 90
-16777216
102
RTVSPost2010PropOp51
 70
     0
102
RTVSPost2010Prop52
140
1.0
102
RTVSPost2010PropOp52
 70
     0
102
RTVSPost2010Prop53
 90
        2
102
RTVSPost2010PropOp53
 70
     1
102
RTVSPost2010Prop54
  1
strokes_ogs.tif
102
RTVSPost2010PropOp54
 70
     1
102
RTVSPost2010Prop55
280
     0
102
RTVSPost2010PropOp55
 70
     1
102
RTVSPost2010Prop56
140
1.0
102
RTVSPost2010PropOp56
 70
     1
102
RTVSPost2010Prop57
140
1.0
102
RTVSPost2010PropOp57
 70
     1
102
RTVSPropertyOp0
 70
     0
102
RTVSPropertyOp1
 70
     0
102
RTVSPropertyOp2
 70
     0
102
RTVSPropertyOp3
 70
     0
102
RTVSPropertyOp4
 70
     0
102
RTVSPropertyOp5
 70
     0
102
RTVSPropertyOp6
 70
     0
102
RTVSPropertyOp7
 70
     0
102
RTVSPropertyOp8
 70
     0
102
RTVSPropertyOp9
 70
     0
102
RTVSPropertyOp10
 70
     0
102
RTVSPropertyOp11
 70
     0
102
RTVSPropertyOp12
 70
     0
102
RTVSPropertyOp13
 70
     0
102
RTVSPropertyOp14
 70
     2
102
RTVSPropertyOp15
 70
     0
102
RTVSPropertyOp16
 70
     0
102
RTVSPropertyOp17
 70
     0
102
RTVSPropertyOp18
 70
     0
102
RTVSPropertyOp19
 70
     0
102
RTVSPropertyOp20
 70
     0
102
RTVSPropertyOp21
 70
     0
102
RTVSPropertyOp22
 70
     0
102
RTVSPropertyOp23
 70
     0
102
RTVSPropertyOp24
 70
     0
102
RTVSPropertyOp25
 70
     0
102
RTVSPropertyOp26
 70
     0
102
RTVSPropertyOp27
 70
     0
102
RTVSPropertyOp28
 70
     1
102
RTVSPropertyOp29
 70
     1
102
RTVSPropertyOp30
 70
     1
102
RTVSPropertyOp31
 70
     1
102
RTVSPropertyOp32
 70
     1
102
RTVSPropertyOp33
 70
     1
102
RTVSPropertyOp34
 70
     1
102
RTVSPropertyOp35
 70
     1
102
RTVSPropertyOp36
 70
     1
102
RTVSPropertyOp37
 70
     1
102
RTVSPropertyOp38
 70
     1
102
RTVSPropertyOp39
 70
     1
102
RTVSPropertyOp40
 70
     1
102
RTVSPropertyOp41
 70
     1
102
RTVSPropertyOp42
 70
     1
102
RTVSPropertyOp43
 70
     1
102
RTVSPropertyOp44
 70
     1
102
RTVSPropertyOp45
 70
     1
102
RTVSPropertyOp46
 70
     1
102
RTVSPropertyOp47
 70
     1
102
RTVSPropertyOp48
 70
     1
102
RTVSPropertyOp49
 70
     1
102
RTVSPropertyOp50
 70
     1
102
RTVSPropertyOp51
 70
     0
102
RTVSPropertyOp52
 70
     0
102
RTVSPropertyOp53
 70
     1
102
RTVSPropertyOp54
 70
     1
102
RTVSPropertyOp55
 70
     1
102
RTVSPropertyOp56
 70
     1
102
RTVSPropertyOp57
 70
     1
102
RTVSPropertyOp58
 70
     1
102
RTVSPropertyOp59
 70
     1
102
RTVSPropertyOp60
 70
     1
102
RTVSPropertyOp61
 70
     1
102
RTVSPropertyOp62
 70
     1
  0
XRECORD
  5
28FA
102
{ACAD_REACTORS
330
28F9
102
}
330
28F9
100
AcDbXrecord
280
     1
102
RTVSPost2010Prop28
280
     0
102
RTVSPost2010PropOp28
 70
     1
102
RTVSPost2010Prop29
280
     1
102
RTVSPost2010PropOp29
 70
     1
102
RTVSPost2010Prop30
280
     1
102
RTVSPost2010PropOp30
 70
     1
102
RTVSPost2010Prop31
280
     0
102
RTVSPost2010PropOp31
 70
     1
102
RTVSPost2010Prop32
280
     0
102
RTVSPost2010PropOp32
 70
     1
102
RTVSPost2010Prop33
280
     0
102
RTVSPost2010PropOp33
 70
     1
102
RTVSPost2010Prop34
280
     0
102
RTVSPost2010PropOp34
 70
     1
102
RTVSPost2010Prop35
280
     0
102
RTVSPost2010PropOp35
 70
     1
102
RTVSPost2010Prop36
280
     0
102
RTVSPost2010PropOp36
 70
     1
102
RTVSPost2010Prop37
 90
       50
102
RTVSPost2010PropOp37
 70
     1
102
RTVSPost2010Prop38
140
0.0
102
RTVSPost2010PropOp38
 70
     1
102
RTVSPost2010Prop39
140
1.0
102
RTVSPost2010PropOp39
 70
     1
102
RTVSPost2010Prop40
 90
        0
102
RTVSPost2010PropOp40
 70
     1
102
RTVSPost2010Prop41ColorIndex
 90
       18
102
RTVSPost2010Prop41ColorRGB
 90
        0
102
RTVSPost2010PropOp41
 70
     1
102
RTVSPost2010Prop42
 90
       50
102
RTVSPost2010PropOp42
 70
     1
102
RTVSPost2010Prop43
 90
        3
102
RTVSPost2010PropOp43
 70
     1
102
RTVSPost2010Prop44ColorIndex
 90
        5
102
RTVSPost2010Prop44ColorRGB
 90
      255
102
RTVSPost2010PropOp44
 70
     1
102
RTVSPost2010Prop45
280
     0
102
RTVSPost2010PropOp45
 70
     1
102
RTVSPost2010Prop46
 90
       50
102
RTVSPost2010PropOp46
 70
     1
102
RTVSPost2010Prop47
 90
       50
102
RTVSPost2010PropOp47
 70
     1
102
RTVSPost2010Prop48
 90
       50
102
RTVSPost2010PropOp48
 70
     1
102
RTVSPost2010Prop49
280
     0
102
RTVSPost2010PropOp49
 70
     1
102
RTVSPost2010Prop50
 90
       50
102
RTVSPost2010PropOp50
 70
     1
102
RTVSPost2010Prop51ColorIndex
 90
      256
102
RTVSPost2010Prop51ColorRGB
 90
-16777216
102
RTVSPost2010PropOp51
 70
     0
102
RTVSPost2010Prop52
140
1.0
102
RTVSPost2010PropOp52
 70
     0
102
RTVSPost2010Prop53
 90
        2
102
RTVSPost2010PropOp53
 70
     1
102
RTVSPost2010Prop54
  1
strokes_ogs.tif
102
RTVSPost2010PropOp54
 70
     1
102
RTVSPost2010Prop55
280
     0
102
RTVSPost2010PropOp55
 70
     1
102
RTVSPost2010Prop56
140
1.0
102
RTVSPost2010PropOp56
 70
     1
102
RTVSPost2010Prop57
140
1.0
102
RTVSPost2010PropOp57
 70
     1
102
RTVSPropertyOp0
 70
     1
102
RTVSPropertyOp1
 70
     1
102
RTVSPropertyOp2
 70
     1
102
RTVSPropertyOp3
 70
     1
102
RTVSPropertyOp4
 70
     1
102
RTVSPropertyOp5
 70
     1
102
RTVSPropertyOp6
 70
     1
102
RTVSPropertyOp7
 70
     1
102
RTVSPropertyOp8
 70
     1
102
RTVSPropertyOp9
 70
     1
102
RTVSPropertyOp10
 70
     1
102
RTVSPropertyOp11
 70
     1
102
RTVSPropertyOp12
 70
     1
102
RTVSPropertyOp13
 70
     1
102
RTVSPropertyOp14
 70
     1
102
RTVSPropertyOp15
 70
     1
102
RTVSPropertyOp16
 70
     1
102
RTVSPropertyOp17
 70
     1
102
RTVSPropertyOp18
 70
     1
102
RTVSPropertyOp19
 70
     1
102
RTVSPropertyOp20
 70
     1
102
RTVSPropertyOp21
 70
     1
102
RTVSPropertyOp22
 70
     1
102
RTVSPropertyOp23
 70
     1
102
RTVSPropertyOp24
 70
     1
102
RTVSPropertyOp25
 70
     1
102
RTVSPropertyOp26
 70
     1
102
RTVSPropertyOp27
 70
     1
102
RTVSPropertyOp28
 70
     1
102
RTVSPropertyOp29
 70
     1
102
RTVSPropertyOp30
 70
     1
102
RTVSPropertyOp31
 70
     1
102
RTVSPropertyOp32
 70
     1
102
RTVSPropertyOp33
 70
     1
102
RTVSPropertyOp34
 70
     1
102
RTVSPropertyOp35
 70
     1
102
RTVSPropertyOp36
 70
     1
102
RTVSPropertyOp37
 70
     1
102
RTVSPropertyOp38
 70
     1
102
RTVSPropertyOp39
 70
     1
102
RTVSPropertyOp40
 70
     1
102
RTVSPropertyOp41
 70
     1
102
RTVSPropertyOp42
 70
     1
102
RTVSPropertyOp43
 70
     1
102
RTVSPropertyOp44
 70
     1
102
RTVSPropertyOp45
 70
     1
102
RTVSPropertyOp46
 70
     1
102
RTVSPropertyOp47
 70
     1
102
RTVSPropertyOp48
 70
     1
102
RTVSPropertyOp49
 70
     1
102
RTVSPropertyOp50
 70
     1
102
RTVSPropertyOp51
 70
     0
102
RTVSPropertyOp52
 70
     0
102
RTVSPropertyOp53
 70
     1
102
RTVSPropertyOp54
 70
     1
102
RTVSPropertyOp55
 70
     1
102
RTVSPropertyOp56
 70
     1
102
RTVSPropertyOp57
 70
     1
102
RTVSPropertyOp58
 70
     1
102
RTVSPropertyOp59
 70
     1
102
RTVSPropertyOp60
 70
     1
102
RTVSPropertyOp61
 70
     1
102
RTVSPropertyOp62
 70
     1
  0
XRECORD
  5
2902
102
{ACAD_REACTORS
330
2901
102
}
330
2901
100
AcDbXrecord
280
     1
102
RTVSPost2010Prop28
280
     0
102
RTVSPost2010PropOp28
 70
     1
102
RTVSPost2010Prop29
280
     1
102
RTVSPost2010PropOp29
 70
     1
102
RTVSPost2010Prop30
280
     1
102
RTVSPost2010PropOp30
 70
     1
102
RTVSPost2010Prop31
280
     0
102
RTVSPost2010PropOp31
 70
     1
102
RTVSPost2010Prop32
280
     0
102
RTVSPost2010PropOp32
 70
     1
102
RTVSPost2010Prop33
280
     0
102
RTVSPost2010PropOp33
 70
     1
102
RTVSPost2010Prop34
280
     0
102
RTVSPost2010PropOp34
 70
     1
102
RTVSPost2010Prop35
280
     0
102
RTVSPost2010PropOp35
 70
     1
102
RTVSPost2010Prop36
280
     0
102
RTVSPost2010PropOp36
 70
     1
102
RTVSPost2010Prop37
 90
       50
102
RTVSPost2010PropOp37
 70
     1
102
RTVSPost2010Prop38
140
0.0
102
RTVSPost2010PropOp38
 70
     1
102
RTVSPost2010Prop39
140
1.0
102
RTVSPost2010PropOp39
 70
     1
102
RTVSPost2010Prop40
 90
        0
102
RTVSPost2010PropOp40
 70
     1
102
RTVSPost2010Prop41ColorIndex
 90
       18
102
RTVSPost2010Prop41ColorRGB
 90
        0
102
RTVSPost2010PropOp41
 70
     1
102
RTVSPost2010Prop42
 90
       50
102
RTVSPost2010PropOp42
 70
     1
102
RTVSPost2010Prop43
 90
        3
102
RTVSPost2010PropOp43
 70
     1
102
RTVSPost2010Prop44ColorIndex
 90
        5
102
RTVSPost2010Prop44ColorRGB
 90
      255
102
RTVSPost2010PropOp44
 70
     1
102
RTVSPost2010Prop45
280
     0
102
RTVSPost2010PropOp45
 70
     1
102
RTVSPost2010Prop46
 90
       50
102
RTVSPost2010PropOp46
 70
     1
102
RTVSPost2010Prop47
 90
       50
102
RTVSPost2010PropOp47
 70
     1
102
RTVSPost2010Prop48
 90
       50
102
RTVSPost2010PropOp48
 70
     1
102
RTVSPost2010Prop49
280
     0
102
RTVSPost2010PropOp49
 70
     1
102
RTVSPost2010Prop50
 90
       50
102
RTVSPost2010PropOp50
 70
     1
102
RTVSPost2010Prop51ColorIndex
 90
      256
102
RTVSPost2010Prop51ColorRGB
 90
-16777216
102
RTVSPost2010PropOp51
 70
     0
102
RTVSPost2010Prop52
140
1.0
102
RTVSPost2010PropOp52
 70
     0
102
RTVSPost2010Prop53
 90
        2
102
RTVSPost2010PropOp53
 70
     1
102
RTVSPost2010Prop54
  1
strokes_ogs.tif
102
RTVSPost2010PropOp54
 70
     1
102
RTVSPost2010Prop55
280
     0
102
RTVSPost2010PropOp55
 70
     1
102
RTVSPost2010Prop56
140
1.0
102
RTVSPost2010PropOp56
 70
     1
102
RTVSPost2010Prop57
140
1.0
102
RTVSPost2010PropOp57
 70
     1
102
RTVSPropertyOp0
 70
     0
102
RTVSPropertyOp1
 70
     0
102
RTVSPropertyOp2
 70
     0
102
RTVSPropertyOp3
 70
     0
102
RTVSPropertyOp4
 70
     0
102
RTVSPropertyOp5
 70
     0
102
RTVSPropertyOp6
 70
     0
102
RTVSPropertyOp7
 70
     0
102
RTVSPropertyOp8
 70
     0
102
RTVSPropertyOp9
 70
     0
102
RTVSPropertyOp10
 70
     0
102
RTVSPropertyOp11
 70
     0
102
RTVSPropertyOp12
 70
     0
102
RTVSPropertyOp13
 70
     0
102
RTVSPropertyOp14
 70
     2
102
RTVSPropertyOp15
 70
     0
102
RTVSPropertyOp16
 70
     0
102
RTVSPropertyOp17
 70
     0
102
RTVSPropertyOp18
 70
     0
102
RTVSPropertyOp19
 70
     0
102
RTVSPropertyOp20
 70
     0
102
RTVSPropertyOp21
 70
     0
102
RTVSPropertyOp22
 70
     0
102
RTVSPropertyOp23
 70
     0
102
RTVSPropertyOp24
 70
     0
102
RTVSPropertyOp25
 70
     0
102
RTVSPropertyOp26
 70
     0
102
RTVSPropertyOp27
 70
     0
102
RTVSPropertyOp28
 70
     1
102
RTVSPropertyOp29
 70
     1
102
RTVSPropertyOp30
 70
     1
102
RTVSPropertyOp31
 70
     1
102
RTVSPropertyOp32
 70
     1
102
RTVSPropertyOp33
 70
     1
102
RTVSPropertyOp34
 70
     1
102
RTVSPropertyOp35
 70
     1
102
RTVSPropertyOp36
 70
     1
102
RTVSPropertyOp37
 70
     1
102
RTVSPropertyOp38
 70
     1
102
RTVSPropertyOp39
 70
     1
102
RTVSPropertyOp40
 70
     1
102
RTVSPropertyOp41
 70
     1
102
RTVSPropertyOp42
 70
     1
102
RTVSPropertyOp43
 70
     1
102
RTVSPropertyOp44
 70
     1
102
RTVSPropertyOp45
 70
     1
102
RTVSPropertyOp46
 70
     1
102
RTVSPropertyOp47
 70
     1
102
RTVSPropertyOp48
 70
     1
102
RTVSPropertyOp49
 70
     1
102
RTVSPropertyOp50
 70
     1
102
RTVSPropertyOp51
 70
     0
102
RTVSPropertyOp52
 70
     0
102
RTVSPropertyOp53
 70
     1
102
RTVSPropertyOp54
 70
     1
102
RTVSPropertyOp55
 70
     1
102
RTVSPropertyOp56
 70
     1
102
RTVSPropertyOp57
 70
     1
102
RTVSPropertyOp58
 70
     1
102
RTVSPropertyOp59
 70
     1
102
RTVSPropertyOp60
 70
     1
102
RTVSPropertyOp61
 70
     1
102
RTVSPropertyOp62
 70
     1
  0
XRECORD
  5
28F2
102
{ACAD_REACTORS
330
28F1
102
}
330
28F1
100
AcDbXrecord
280
     1
102
RTVSPost2010Prop28
280
     0
102
RTVSPost2010PropOp28
 70
     1
102
RTVSPost2010Prop29
280
     1
102
RTVSPost2010PropOp29
 70
     1
102
RTVSPost2010Prop30
280
     1
102
RTVSPost2010PropOp30
 70
     1
102
RTVSPost2010Prop31
280
     0
102
RTVSPost2010PropOp31
 70
     1
102
RTVSPost2010Prop32
280
     0
102
RTVSPost2010PropOp32
 70
     1
102
RTVSPost2010Prop33
280
     0
102
RTVSPost2010PropOp33
 70
     1
102
RTVSPost2010Prop34
280
     0
102
RTVSPost2010PropOp34
 70
     1
102
RTVSPost2010Prop35
280
     0
102
RTVSPost2010PropOp35
 70
     1
102
RTVSPost2010Prop36
280
     0
102
RTVSPost2010PropOp36
 70
     1
102
RTVSPost2010Prop37
 90
       50
102
RTVSPost2010PropOp37
 70
     1
102
RTVSPost2010Prop38
140
0.0
102
RTVSPost2010PropOp38
 70
     1
102
RTVSPost2010Prop39
140
1.0
102
RTVSPost2010PropOp39
 70
     1
102
RTVSPost2010Prop40
 90
        0
102
RTVSPost2010PropOp40
 70
     1
102
RTVSPost2010Prop41ColorIndex
 90
       18
102
RTVSPost2010Prop41ColorRGB
 90
        0
102
RTVSPost2010PropOp41
 70
     1
102
RTVSPost2010Prop42
 90
       50
102
RTVSPost2010PropOp42
 70
     1
102
RTVSPost2010Prop43
 90
        3
102
RTVSPost2010PropOp43
 70
     1
102
RTVSPost2010Prop44ColorIndex
 90
        5
102
RTVSPost2010Prop44ColorRGB
 90
      255
102
RTVSPost2010PropOp44
 70
     1
102
RTVSPost2010Prop45
280
     0
102
RTVSPost2010PropOp45
 70
     1
102
RTVSPost2010Prop46
 90
       50
102
RTVSPost2010PropOp46
 70
     1
102
RTVSPost2010Prop47
 90
       50
102
RTVSPost2010PropOp47
 70
     1
102
RTVSPost2010Prop48
 90
       50
102
RTVSPost2010PropOp48
 70
     1
102
RTVSPost2010Prop49
280
     0
102
RTVSPost2010PropOp49
 70
     1
102
RTVSPost2010Prop50
 90
       50
102
RTVSPost2010PropOp50
 70
     1
102
RTVSPost2010Prop51ColorIndex
 90
      256
102
RTVSPost2010Prop51ColorRGB
 90
-16777216
102
RTVSPost2010PropOp51
 70
     0
102
RTVSPost2010Prop52
140
1.0
102
RTVSPost2010PropOp52
 70
     0
102
RTVSPost2010Prop53
 90
        2
102
RTVSPost2010PropOp53
 70
     1
102
RTVSPost2010Prop54
  1
strokes_ogs.tif
102
RTVSPost2010PropOp54
 70
     1
102
RTVSPost2010Prop55
280
     0
102
RTVSPost2010PropOp55
 70
     1
102
RTVSPost2010Prop56
140
1.0
102
RTVSPost2010PropOp56
 70
     1
102
RTVSPost2010Prop57
140
1.0
102
RTVSPost2010PropOp57
 70
     1
102
RTVSPropertyOp0
 70
     1
102
RTVSPropertyOp1
 70
     1
102
RTVSPropertyOp2
 70
     1
102
RTVSPropertyOp3
 70
     1
102
RTVSPropertyOp4
 70
     1
102
RTVSPropertyOp5
 70
     1
102
RTVSPropertyOp6
 70
     1
102
RTVSPropertyOp7
 70
     1
102
RTVSPropertyOp8
 70
     1
102
RTVSPropertyOp9
 70
     1
102
RTVSPropertyOp10
 70
     1
102
RTVSPropertyOp11
 70
     1
102
RTVSPropertyOp12
 70
     1
102
RTVSPropertyOp13
 70
     1
102
RTVSPropertyOp14
 70
     1
102
RTVSPropertyOp15
 70
     1
102
RTVSPropertyOp16
 70
     1
102
RTVSPropertyOp17
 70
     1
102
RTVSPropertyOp18
 70
     1
102
RTVSPropertyOp19
 70
     1
102
RTVSPropertyOp20
 70
     1
102
RTVSPropertyOp21
 70
     1
102
RTVSPropertyOp22
 70
     1
102
RTVSPropertyOp23
 70
     1
102
RTVSPropertyOp24
 70
     1
102
RTVSPropertyOp25
 70
     1
102
RTVSPropertyOp26
 70
     1
102
RTVSPropertyOp27
 70
     1
102
RTVSPropertyOp28
 70
     1
102
RTVSPropertyOp29
 70
     1
102
RTVSPropertyOp30
 70
     1
102
RTVSPropertyOp31
 70
     1
102
RTVSPropertyOp32
 70
     1
102
RTVSPropertyOp33
 70
     1
102
RTVSPropertyOp34
 70
     1
102
RTVSPropertyOp35
 70
     1
102
RTVSPropertyOp36
 70
     1
102
RTVSPropertyOp37
 70
     1
102
RTVSPropertyOp38
 70
     1
102
RTVSPropertyOp39
 70
     1
102
RTVSPropertyOp40
 70
     1
102
RTVSPropertyOp41
 70
     1
102
RTVSPropertyOp42
 70
     1
102
RTVSPropertyOp43
 70
     1
102
RTVSPropertyOp44
 70
     1
102
RTVSPropertyOp45
 70
     1
102
RTVSPropertyOp46
 70
     1
102
RTVSPropertyOp47
 70
     1
102
RTVSPropertyOp48
 70
     1
102
RTVSPropertyOp49
 70
     1
102
RTVSPropertyOp50
 70
     1
102
RTVSPropertyOp51
 70
     0
102
RTVSPropertyOp52
 70
     0
102
RTVSPropertyOp53
 70
     1
102
RTVSPropertyOp54
 70
     1
102
RTVSPropertyOp55
 70
     1
102
RTVSPropertyOp56
 70
     1
102
RTVSPropertyOp57
 70
     1
102
RTVSPropertyOp58
 70
     1
102
RTVSPropertyOp59
 70
     1
102
RTVSPropertyOp60
 70
     1
102
RTVSPropertyOp61
 70
     1
102
RTVSPropertyOp62
 70
     1
  0
XRECORD
  5
2923
102
{ACAD_REACTORS
330
2922
102
}
330
2922
100
AcDbXrecord
280
     1
102
RTVSPost2010Prop28
280
     0
102
RTVSPost2010PropOp28
 70
     1
102
RTVSPost2010Prop29
280
     1
102
RTVSPost2010PropOp29
 70
     1
102
RTVSPost2010Prop30
280
     1
102
RTVSPost2010PropOp30
 70
     1
102
RTVSPost2010Prop31
280
     0
102
RTVSPost2010PropOp31
 70
     1
102
RTVSPost2010Prop32
280
     0
102
RTVSPost2010PropOp32
 70
     1
102
RTVSPost2010Prop33
280
     0
102
RTVSPost2010PropOp33
 70
     1
102
RTVSPost2010Prop34
280
     0
102
RTVSPost2010PropOp34
 70
     1
102
RTVSPost2010Prop35
280
     0
102
RTVSPost2010PropOp35
 70
     1
102
RTVSPost2010Prop36
280
     0
102
RTVSPost2010PropOp36
 70
     1
102
RTVSPost2010Prop37
 90
       50
102
RTVSPost2010PropOp37
 70
     1
102
RTVSPost2010Prop38
140
0.0
102
RTVSPost2010PropOp38
 70
     1
102
RTVSPost2010Prop39
140
1.0
102
RTVSPost2010PropOp39
 70
     1
102
RTVSPost2010Prop40
 90
        0
102
RTVSPost2010PropOp40
 70
     1
102
RTVSPost2010Prop41ColorIndex
 90
       18
102
RTVSPost2010Prop41ColorRGB
 90
        0
102
RTVSPost2010PropOp41
 70
     1
102
RTVSPost2010Prop42
 90
       50
102
RTVSPost2010PropOp42
 70
     1
102
RTVSPost2010Prop43
 90
        3
102
RTVSPost2010PropOp43
 70
     1
102
RTVSPost2010Prop44ColorIndex
 90
        5
102
RTVSPost2010Prop44ColorRGB
 90
      255
102
RTVSPost2010PropOp44
 70
     1
102
RTVSPost2010Prop45
280
     0
102
RTVSPost2010PropOp45
 70
     1
102
RTVSPost2010Prop46
 90
       50
102
RTVSPost2010PropOp46
 70
     1
102
RTVSPost2010Prop47
 90
       50
102
RTVSPost2010PropOp47
 70
     1
102
RTVSPost2010Prop48
 90
       50
102
RTVSPost2010PropOp48
 70
     1
102
RTVSPost2010Prop49
280
     0
102
RTVSPost2010PropOp49
 70
     1
102
RTVSPost2010Prop50
 90
       50
102
RTVSPost2010PropOp50
 70
     1
102
RTVSPost2010Prop51ColorIndex
 90
      256
102
RTVSPost2010Prop51ColorRGB
 90
-16777216
102
RTVSPost2010PropOp51
 70
     0
102
RTVSPost2010Prop52
140
1.0
102
RTVSPost2010PropOp52
 70
     0
102
RTVSPost2010Prop53
 90
        2
102
RTVSPost2010PropOp53
 70
     1
102
RTVSPost2010Prop54
  1
strokes_ogs.tif
102
RTVSPost2010PropOp54
 70
     1
102
RTVSPost2010Prop55
280
     0
102
RTVSPost2010PropOp55
 70
     1
102
RTVSPost2010Prop56
140
1.0
102
RTVSPost2010PropOp56
 70
     1
102
RTVSPost2010Prop57
140
1.0
102
RTVSPost2010PropOp57
 70
     1
102
RTVSPropertyOp0
 70
     1
102
RTVSPropertyOp1
 70
     1
102
RTVSPropertyOp2
 70
     1
102
RTVSPropertyOp3
 70
     1
102
RTVSPropertyOp4
 70
     1
102
RTVSPropertyOp5
 70
     1
102
RTVSPropertyOp6
 70
     1
102
RTVSPropertyOp7
 70
     1
102
RTVSPropertyOp8
 70
     1
102
RTVSPropertyOp9
 70
     1
102
RTVSPropertyOp10
 70
     1
102
RTVSPropertyOp11
 70
     1
102
RTVSPropertyOp12
 70
     1
102
RTVSPropertyOp13
 70
     1
102
RTVSPropertyOp14
 70
     1
102
RTVSPropertyOp15
 70
     1
102
RTVSPropertyOp16
 70
     1
102
RTVSPropertyOp17
 70
     1
102
RTVSPropertyOp18
 70
     1
102
RTVSPropertyOp19
 70
     1
102
RTVSPropertyOp20
 70
     1
102
RTVSPropertyOp21
 70
     1
102
RTVSPropertyOp22
 70
     1
102
RTVSPropertyOp23
 70
     1
102
RTVSPropertyOp24
 70
     1
102
RTVSPropertyOp25
 70
     1
102
RTVSPropertyOp26
 70
     1
102
RTVSPropertyOp27
 70
     1
102
RTVSPropertyOp28
 70
     1
102
RTVSPropertyOp29
 70
     1
102
RTVSPropertyOp30
 70
     1
102
RTVSPropertyOp31
 70
     1
102
RTVSPropertyOp32
 70
     1
102
RTVSPropertyOp33
 70
     1
102
RTVSPropertyOp34
 70
     1
102
RTVSPropertyOp35
 70
     1
102
RTVSPropertyOp36
 70
     1
102
RTVSPropertyOp37
 70
     1
102
RTVSPropertyOp38
 70
     1
102
RTVSPropertyOp39
 70
     1
102
RTVSPropertyOp40
 70
     1
102
RTVSPropertyOp41
 70
     1
102
RTVSPropertyOp42
 70
     1
102
RTVSPropertyOp43
 70
     1
102
RTVSPropertyOp44
 70
     1
102
RTVSPropertyOp45
 70
     1
102
RTVSPropertyOp46
 70
     1
102
RTVSPropertyOp47
 70
     1
102
RTVSPropertyOp48
 70
     1
102
RTVSPropertyOp49
 70
     1
102
RTVSPropertyOp50
 70
     1
102
RTVSPropertyOp51
 70
     0
102
RTVSPropertyOp52
 70
     0
102
RTVSPropertyOp53
 70
     1
102
RTVSPropertyOp54
 70
     1
102
RTVSPropertyOp55
 70
     1
102
RTVSPropertyOp56
 70
     1
102
RTVSPropertyOp57
 70
     1
102
RTVSPropertyOp58
 70
     1
102
RTVSPropertyOp59
 70
     1
102
RTVSPropertyOp60
 70
     1
102
RTVSPropertyOp61
 70
     1
102
RTVSPropertyOp62
 70
     1
  0
XRECORD
  5
2921
102
{ACAD_REACTORS
330
2920
102
}
330
2920
100
AcDbXrecord
280
     1
102
RTVSPost2010Prop28
280
     0
102
RTVSPost2010PropOp28
 70
     1
102
RTVSPost2010Prop29
280
     1
102
RTVSPost2010PropOp29
 70
     1
102
RTVSPost2010Prop30
280
     1
102
RTVSPost2010PropOp30
 70
     1
102
RTVSPost2010Prop31
280
     0
102
RTVSPost2010PropOp31
 70
     1
102
RTVSPost2010Prop32
280
     0
102
RTVSPost2010PropOp32
 70
     1
102
RTVSPost2010Prop33
280
     0
102
RTVSPost2010PropOp33
 70
     1
102
RTVSPost2010Prop34
280
     0
102
RTVSPost2010PropOp34
 70
     1
102
RTVSPost2010Prop35
280
     0
102
RTVSPost2010PropOp35
 70
     1
102
RTVSPost2010Prop36
280
     0
102
RTVSPost2010PropOp36
 70
     1
102
RTVSPost2010Prop37
 90
       50
102
RTVSPost2010PropOp37
 70
     1
102
RTVSPost2010Prop38
140
0.0
102
RTVSPost2010PropOp38
 70
     1
102
RTVSPost2010Prop39
140
1.0
102
RTVSPost2010PropOp39
 70
     1
102
RTVSPost2010Prop40
 90
        0
102
RTVSPost2010PropOp40
 70
     1
102
RTVSPost2010Prop41ColorIndex
 90
       18
102
RTVSPost2010Prop41ColorRGB
 90
        0
102
RTVSPost2010PropOp41
 70
     1
102
RTVSPost2010Prop42
 90
       50
102
RTVSPost2010PropOp42
 70
     1
102
RTVSPost2010Prop43
 90
        3
102
RTVSPost2010PropOp43
 70
     1
102
RTVSPost2010Prop44ColorIndex
 90
        5
102
RTVSPost2010Prop44ColorRGB
 90
      255
102
RTVSPost2010PropOp44
 70
     1
102
RTVSPost2010Prop45
280
     0
102
RTVSPost2010PropOp45
 70
     1
102
RTVSPost2010Prop46
 90
       50
102
RTVSPost2010PropOp46
 70
     1
102
RTVSPost2010Prop47
 90
       50
102
RTVSPost2010PropOp47
 70
     1
102
RTVSPost2010Prop48
 90
       50
102
RTVSPost2010PropOp48
 70
     1
102
RTVSPost2010Prop49
280
     0
102
RTVSPost2010PropOp49
 70
     1
102
RTVSPost2010Prop50
 90
       50
102
RTVSPost2010PropOp50
 70
     1
102
RTVSPost2010Prop51ColorIndex
 90
      256
102
RTVSPost2010Prop51ColorRGB
 90
-16777216
102
RTVSPost2010PropOp51
 70
     0
102
RTVSPost2010Prop52
140
1.0
102
RTVSPost2010PropOp52
 70
     0
102
RTVSPost2010Prop53
 90
        2
102
RTVSPost2010PropOp53
 70
     1
102
RTVSPost2010Prop54
  1
strokes_ogs.tif
102
RTVSPost2010PropOp54
 70
     1
102
RTVSPost2010Prop55
280
     0
102
RTVSPost2010PropOp55
 70
     1
102
RTVSPost2010Prop56
140
1.0
102
RTVSPost2010PropOp56
 70
     1
102
RTVSPost2010Prop57
140
1.0
102
RTVSPost2010PropOp57
 70
     1
102
RTVSPropertyOp0
 70
     1
102
RTVSPropertyOp1
 70
     1
102
RTVSPropertyOp2
 70
     1
102
RTVSPropertyOp3
 70
     1
102
RTVSPropertyOp4
 70
     1
102
RTVSPropertyOp5
 70
     1
102
RTVSPropertyOp6
 70
     1
102
RTVSPropertyOp7
 70
     1
102
RTVSPropertyOp8
 70
     1
102
RTVSPropertyOp9
 70
     1
102
RTVSPropertyOp10
 70
     1
102
RTVSPropertyOp11
 70
     1
102
RTVSPropertyOp12
 70
     1
102
RTVSPropertyOp13
 70
     1
102
RTVSPropertyOp14
 70
     1
102
RTVSPropertyOp15
 70
     1
102
RTVSPropertyOp16
 70
     1
102
RTVSPropertyOp17
 70
     1
102
RTVSPropertyOp18
 70
     1
102
RTVSPropertyOp19
 70
     1
102
RTVSPropertyOp20
 70
     1
102
RTVSPropertyOp21
 70
     1
102
RTVSPropertyOp22
 70
     1
102
RTVSPropertyOp23
 70
     1
102
RTVSPropertyOp24
 70
     1
102
RTVSPropertyOp25
 70
     1
102
RTVSPropertyOp26
 70
     1
102
RTVSPropertyOp27
 70
     1
102
RTVSPropertyOp28
 70
     1
102
RTVSPropertyOp29
 70
     1
102
RTVSPropertyOp30
 70
     1
102
RTVSPropertyOp31
 70
     1
102
RTVSPropertyOp32
 70
     1
102
RTVSPropertyOp33
 70
     1
102
RTVSPropertyOp34
 70
     1
102
RTVSPropertyOp35
 70
     1
102
RTVSPropertyOp36
 70
     1
102
RTVSPropertyOp37
 70
     1
102
RTVSPropertyOp38
 70
     1
102
RTVSPropertyOp39
 70
     1
102
RTVSPropertyOp40
 70
     1
102
RTVSPropertyOp41
 70
     1
102
RTVSPropertyOp42
 70
     1
102
RTVSPropertyOp43
 70
     1
102
RTVSPropertyOp44
 70
     1
102
RTVSPropertyOp45
 70
     1
102
RTVSPropertyOp46
 70
     1
102
RTVSPropertyOp47
 70
     1
102
RTVSPropertyOp48
 70
     1
102
RTVSPropertyOp49
 70
     1
102
RTVSPropertyOp50
 70
     1
102
RTVSPropertyOp51
 70
     0
102
RTVSPropertyOp52
 70
     0
102
RTVSPropertyOp53
 70
     1
102
RTVSPropertyOp54
 70
     1
102
RTVSPropertyOp55
 70
     1
102
RTVSPropertyOp56
 70
     1
102
RTVSPropertyOp57
 70
     1
102
RTVSPropertyOp58
 70
     1
102
RTVSPropertyOp59
 70
     1
102
RTVSPropertyOp60
 70
     1
102
RTVSPropertyOp61
 70
     1
102
RTVSPropertyOp62
 70
     1
  0
XRECORD
  5
291B
102
{ACAD_REACTORS
330
291A
102
}
330
291A
100
AcDbXrecord
280
     1
102
RTVSPost2010Prop28
280
     0
102
RTVSPost2010PropOp28
 70
     1
102
RTVSPost2010Prop29
280
     1
102
RTVSPost2010PropOp29
 70
     1
102
RTVSPost2010Prop30
280
     1
102
RTVSPost2010PropOp30
 70
     1
102
RTVSPost2010Prop31
280
     0
102
RTVSPost2010PropOp31
 70
     1
102
RTVSPost2010Prop32
280
     0
102
RTVSPost2010PropOp32
 70
     1
102
RTVSPost2010Prop33
280
     0
102
RTVSPost2010PropOp33
 70
     1
102
RTVSPost2010Prop34
280
     0
102
RTVSPost2010PropOp34
 70
     1
102
RTVSPost2010Prop35
280
     0
102
RTVSPost2010PropOp35
 70
     1
102
RTVSPost2010Prop36
280
     0
102
RTVSPost2010PropOp36
 70
     1
102
RTVSPost2010Prop37
 90
       50
102
RTVSPost2010PropOp37
 70
     1
102
RTVSPost2010Prop38
140
0.0
102
RTVSPost2010PropOp38
 70
     1
102
RTVSPost2010Prop39
140
1.0
102
RTVSPost2010PropOp39
 70
     1
102
RTVSPost2010Prop40
 90
        0
102
RTVSPost2010PropOp40
 70
     1
102
RTVSPost2010Prop41ColorIndex
 90
       18
102
RTVSPost2010Prop41ColorRGB
 90
        0
102
RTVSPost2010PropOp41
 70
     1
102
RTVSPost2010Prop42
 90
       50
102
RTVSPost2010PropOp42
 70
     1
102
RTVSPost2010Prop43
 90
        3
102
RTVSPost2010PropOp43
 70
     1
102
RTVSPost2010Prop44ColorIndex
 90
        5
102
RTVSPost2010Prop44ColorRGB
 90
      255
102
RTVSPost2010PropOp44
 70
     1
102
RTVSPost2010Prop45
280
     0
102
RTVSPost2010PropOp45
 70
     1
102
RTVSPost2010Prop46
 90
       50
102
RTVSPost2010PropOp46
 70
     1
102
RTVSPost2010Prop47
 90
       50
102
RTVSPost2010PropOp47
 70
     1
102
RTVSPost2010Prop48
 90
       50
102
RTVSPost2010PropOp48
 70
     1
102
RTVSPost2010Prop49
280
     0
102
RTVSPost2010PropOp49
 70
     1
102
RTVSPost2010Prop50
 90
       50
102
RTVSPost2010PropOp50
 70
     1
102
RTVSPost2010Prop51ColorIndex
 90
      256
102
RTVSPost2010Prop51ColorRGB
 90
-16777216
102
RTVSPost2010PropOp51
 70
     0
102
RTVSPost2010Prop52
140
1.0
102
RTVSPost2010PropOp52
 70
     0
102
RTVSPost2010Prop53
 90
        2
102
RTVSPost2010PropOp53
 70
     1
102
RTVSPost2010Prop54
  1
strokes_ogs.tif
102
RTVSPost2010PropOp54
 70
     1
102
RTVSPost2010Prop55
280
     0
102
RTVSPost2010PropOp55
 70
     1
102
RTVSPost2010Prop56
140
1.0
102
RTVSPost2010PropOp56
 70
     1
102
RTVSPost2010Prop57
140
1.0
102
RTVSPost2010PropOp57
 70
     1
102
RTVSPropertyOp0
 70
     1
102
RTVSPropertyOp1
 70
     1
102
RTVSPropertyOp2
 70
     1
102
RTVSPropertyOp3
 70
     1
102
RTVSPropertyOp4
 70
     1
102
RTVSPropertyOp5
 70
     1
102
RTVSPropertyOp6
 70
     1
102
RTVSPropertyOp7
 70
     1
102
RTVSPropertyOp8
 70
     1
102
RTVSPropertyOp9
 70
     1
102
RTVSPropertyOp10
 70
     1
102
RTVSPropertyOp11
 70
     1
102
RTVSPropertyOp12
 70
     1
102
RTVSPropertyOp13
 70
     1
102
RTVSPropertyOp14
 70
     1
102
RTVSPropertyOp15
 70
     1
102
RTVSPropertyOp16
 70
     1
102
RTVSPropertyOp17
 70
     1
102
RTVSPropertyOp18
 70
     1
102
RTVSPropertyOp19
 70
     1
102
RTVSPropertyOp20
 70
     1
102
RTVSPropertyOp21
 70
     1
102
RTVSPropertyOp22
 70
     1
102
RTVSPropertyOp23
 70
     1
102
RTVSPropertyOp24
 70
     1
102
RTVSPropertyOp25
 70
     1
102
RTVSPropertyOp26
 70
     1
102
RTVSPropertyOp27
 70
     1
102
RTVSPropertyOp28
 70
     1
102
RTVSPropertyOp29
 70
     1
102
RTVSPropertyOp30
 70
     1
102
RTVSPropertyOp31
 70
     1
102
RTVSPropertyOp32
 70
     1
102
RTVSPropertyOp33
 70
     1
102
RTVSPropertyOp34
 70
     1
102
RTVSPropertyOp35
 70
     1
102
RTVSPropertyOp36
 70
     1
102
RTVSPropertyOp37
 70
     1
102
RTVSPropertyOp38
 70
     1
102
RTVSPropertyOp39
 70
     1
102
RTVSPropertyOp40
 70
     1
102
RTVSPropertyOp41
 70
     1
102
RTVSPropertyOp42
 70
     1
102
RTVSPropertyOp43
 70
     1
102
RTVSPropertyOp44
 70
     1
102
RTVSPropertyOp45
 70
     1
102
RTVSPropertyOp46
 70
     1
102
RTVSPropertyOp47
 70
     1
102
RTVSPropertyOp48
 70
     1
102
RTVSPropertyOp49
 70
     1
102
RTVSPropertyOp50
 70
     1
102
RTVSPropertyOp51
 70
     0
102
RTVSPropertyOp52
 70
     0
102
RTVSPropertyOp53
 70
     1
102
RTVSPropertyOp54
 70
     1
102
RTVSPropertyOp55
 70
     1
102
RTVSPropertyOp56
 70
     1
102
RTVSPropertyOp57
 70
     1
102
RTVSPropertyOp58
 70
     1
102
RTVSPropertyOp59
 70
     1
102
RTVSPropertyOp60
 70
     1
102
RTVSPropertyOp61
 70
     1
102
RTVSPropertyOp62
 70
     1
  0
XRECORD
  5
291D
102
{ACAD_REACTORS
330
291C
102
}
330
291C
100
AcDbXrecord
280
     1
102
RTVSPost2010Prop28
280
     0
102
RTVSPost2010PropOp28
 70
     1
102
RTVSPost2010Prop29
280
     1
102
RTVSPost2010PropOp29
 70
     1
102
RTVSPost2010Prop30
280
     1
102
RTVSPost2010PropOp30
 70
     1
102
RTVSPost2010Prop31
280
     0
102
RTVSPost2010PropOp31
 70
     1
102
RTVSPost2010Prop32
280
     0
102
RTVSPost2010PropOp32
 70
     1
102
RTVSPost2010Prop33
280
     0
102
RTVSPost2010PropOp33
 70
     1
102
RTVSPost2010Prop34
280
     0
102
RTVSPost2010PropOp34
 70
     1
102
RTVSPost2010Prop35
280
     0
102
RTVSPost2010PropOp35
 70
     1
102
RTVSPost2010Prop36
280
     0
102
RTVSPost2010PropOp36
 70
     1
102
RTVSPost2010Prop37
 90
       50
102
RTVSPost2010PropOp37
 70
     1
102
RTVSPost2010Prop38
140
0.0
102
RTVSPost2010PropOp38
 70
     1
102
RTVSPost2010Prop39
140
1.0
102
RTVSPost2010PropOp39
 70
     1
102
RTVSPost2010Prop40
 90
        0
102
RTVSPost2010PropOp40
 70
     1
102
RTVSPost2010Prop41ColorIndex
 90
       18
102
RTVSPost2010Prop41ColorRGB
 90
        0
102
RTVSPost2010PropOp41
 70
     1
102
RTVSPost2010Prop42
 90
       50
102
RTVSPost2010PropOp42
 70
     1
102
RTVSPost2010Prop43
 90
        3
102
RTVSPost2010PropOp43
 70
     1
102
RTVSPost2010Prop44ColorIndex
 90
        5
102
RTVSPost2010Prop44ColorRGB
 90
      255
102
RTVSPost2010PropOp44
 70
     1
102
RTVSPost2010Prop45
280
     0
102
RTVSPost2010PropOp45
 70
     1
102
RTVSPost2010Prop46
 90
       50
102
RTVSPost2010PropOp46
 70
     1
102
RTVSPost2010Prop47
 90
       50
102
RTVSPost2010PropOp47
 70
     1
102
RTVSPost2010Prop48
 90
       50
102
RTVSPost2010PropOp48
 70
     1
102
RTVSPost2010Prop49
280
     0
102
RTVSPost2010PropOp49
 70
     1
102
RTVSPost2010Prop50
 90
       50
102
RTVSPost2010PropOp50
 70
     1
102
RTVSPost2010Prop51ColorIndex
 90
      256
102
RTVSPost2010Prop51ColorRGB
 90
-16777216
102
RTVSPost2010PropOp51
 70
     0
102
RTVSPost2010Prop52
140
1.0
102
RTVSPost2010PropOp52
 70
     0
102
RTVSPost2010Prop53
 90
        2
102
RTVSPost2010PropOp53
 70
     1
102
RTVSPost2010Prop54
  1
strokes_ogs.tif
102
RTVSPost2010PropOp54
 70
     1
102
RTVSPost2010Prop55
280
     0
102
RTVSPost2010PropOp55
 70
     1
102
RTVSPost2010Prop56
140
1.0
102
RTVSPost2010PropOp56
 70
     1
102
RTVSPost2010Prop57
140
1.0
102
RTVSPost2010PropOp57
 70
     1
102
RTVSPropertyOp0
 70
     1
102
RTVSPropertyOp1
 70
     1
102
RTVSPropertyOp2
 70
     1
102
RTVSPropertyOp3
 70
     1
102
RTVSPropertyOp4
 70
     1
102
RTVSPropertyOp5
 70
     1
102
RTVSPropertyOp6
 70
     1
102
RTVSPropertyOp7
 70
     1
102
RTVSPropertyOp8
 70
     1
102
RTVSPropertyOp9
 70
     1
102
RTVSPropertyOp10
 70
     1
102
RTVSPropertyOp11
 70
     1
102
RTVSPropertyOp12
 70
     1
102
RTVSPropertyOp13
 70
     1
102
RTVSPropertyOp14
 70
     1
102
RTVSPropertyOp15
 70
     1
102
RTVSPropertyOp16
 70
     1
102
RTVSPropertyOp17
 70
     1
102
RTVSPropertyOp18
 70
     1
102
RTVSPropertyOp19
 70
     1
102
RTVSPropertyOp20
 70
     1
102
RTVSPropertyOp21
 70
     1
102
RTVSPropertyOp22
 70
     1
102
RTVSPropertyOp23
 70
     1
102
RTVSPropertyOp24
 70
     1
102
RTVSPropertyOp25
 70
     1
102
RTVSPropertyOp26
 70
     1
102
RTVSPropertyOp27
 70
     1
102
RTVSPropertyOp28
 70
     1
102
RTVSPropertyOp29
 70
     1
102
RTVSPropertyOp30
 70
     1
102
RTVSPropertyOp31
 70
     1
102
RTVSPropertyOp32
 70
     1
102
RTVSPropertyOp33
 70
     1
102
RTVSPropertyOp34
 70
     1
102
RTVSPropertyOp35
 70
     1
102
RTVSPropertyOp36
 70
     1
102
RTVSPropertyOp37
 70
     1
102
RTVSPropertyOp38
 70
     1
102
RTVSPropertyOp39
 70
     1
102
RTVSPropertyOp40
 70
     1
102
RTVSPropertyOp41
 70
     1
102
RTVSPropertyOp42
 70
     1
102
RTVSPropertyOp43
 70
     1
102
RTVSPropertyOp44
 70
     1
102
RTVSPropertyOp45
 70
     1
102
RTVSPropertyOp46
 70
     1
102
RTVSPropertyOp47
 70
     1
102
RTVSPropertyOp48
 70
     1
102
RTVSPropertyOp49
 70
     1
102
RTVSPropertyOp50
 70
     1
102
RTVSPropertyOp51
 70
     0
102
RTVSPropertyOp52
 70
     0
102
RTVSPropertyOp53
 70
     1
102
RTVSPropertyOp54
 70
     1
102
RTVSPropertyOp55
 70
     1
102
RTVSPropertyOp56
 70
     1
102
RTVSPropertyOp57
 70
     1
102
RTVSPropertyOp58
 70
     1
102
RTVSPropertyOp59
 70
     1
102
RTVSPropertyOp60
 70
     1
102
RTVSPropertyOp61
 70
     1
102
RTVSPropertyOp62
 70
     1
  0
XRECORD
  5
28F8
102
{ACAD_REACTORS
330
28F7
102
}
330
28F7
100
AcDbXrecord
280
     1
102
RTVSPost2010Prop28
280
     0
102
RTVSPost2010PropOp28
 70
     1
102
RTVSPost2010Prop29
280
     1
102
RTVSPost2010PropOp29
 70
     1
102
RTVSPost2010Prop30
280
     1
102
RTVSPost2010PropOp30
 70
     1
102
RTVSPost2010Prop31
280
     0
102
RTVSPost2010PropOp31
 70
     1
102
RTVSPost2010Prop32
280
     0
102
RTVSPost2010PropOp32
 70
     1
102
RTVSPost2010Prop33
280
     0
102
RTVSPost2010PropOp33
 70
     1
102
RTVSPost2010Prop34
280
     0
102
RTVSPost2010PropOp34
 70
     1
102
RTVSPost2010Prop35
280
     0
102
RTVSPost2010PropOp35
 70
     1
102
RTVSPost2010Prop36
280
     0
102
RTVSPost2010PropOp36
 70
     1
102
RTVSPost2010Prop37
 90
       50
102
RTVSPost2010PropOp37
 70
     1
102
RTVSPost2010Prop38
140
0.0
102
RTVSPost2010PropOp38
 70
     1
102
RTVSPost2010Prop39
140
1.0
102
RTVSPost2010PropOp39
 70
     1
102
RTVSPost2010Prop40
 90
        0
102
RTVSPost2010PropOp40
 70
     1
102
RTVSPost2010Prop41ColorIndex
 90
       18
102
RTVSPost2010Prop41ColorRGB
 90
        0
102
RTVSPost2010PropOp41
 70
     1
102
RTVSPost2010Prop42
 90
       50
102
RTVSPost2010PropOp42
 70
     1
102
RTVSPost2010Prop43
 90
        3
102
RTVSPost2010PropOp43
 70
     1
102
RTVSPost2010Prop44ColorIndex
 90
        5
102
RTVSPost2010Prop44ColorRGB
 90
      255
102
RTVSPost2010PropOp44
 70
     1
102
RTVSPost2010Prop45
280
     0
102
RTVSPost2010PropOp45
 70
     1
102
RTVSPost2010Prop46
 90
       50
102
RTVSPost2010PropOp46
 70
     1
102
RTVSPost2010Prop47
 90
       50
102
RTVSPost2010PropOp47
 70
     1
102
RTVSPost2010Prop48
 90
       50
102
RTVSPost2010PropOp48
 70
     1
102
RTVSPost2010Prop49
280
     0
102
RTVSPost2010PropOp49
 70
     1
102
RTVSPost2010Prop50
 90
       50
102
RTVSPost2010PropOp50
 70
     1
102
RTVSPost2010Prop51ColorIndex
 90
      256
102
RTVSPost2010Prop51ColorRGB
 90
-16777216
102
RTVSPost2010PropOp51
 70
     0
102
RTVSPost2010Prop52
140
1.0
102
RTVSPost2010PropOp52
 70
     0
102
RTVSPost2010Prop53
 90
        2
102
RTVSPost2010PropOp53
 70
     1
102
RTVSPost2010Prop54
  1
strokes_ogs.tif
102
RTVSPost2010PropOp54
 70
     1
102
RTVSPost2010Prop55
280
     0
102
RTVSPost2010PropOp55
 70
     1
102
RTVSPost2010Prop56
140
1.0
102
RTVSPost2010PropOp56
 70
     1
102
RTVSPost2010Prop57
140
1.0
102
RTVSPost2010PropOp57
 70
     1
102
RTVSPropertyOp0
 70
     1
102
RTVSPropertyOp1
 70
     1
102
RTVSPropertyOp2
 70
     1
102
RTVSPropertyOp3
 70
     1
102
RTVSPropertyOp4
 70
     1
102
RTVSPropertyOp5
 70
     1
102
RTVSPropertyOp6
 70
     1
102
RTVSPropertyOp7
 70
     1
102
RTVSPropertyOp8
 70
     1
102
RTVSPropertyOp9
 70
     1
102
RTVSPropertyOp10
 70
     1
102
RTVSPropertyOp11
 70
     1
102
RTVSPropertyOp12
 70
     1
102
RTVSPropertyOp13
 70
     1
102
RTVSPropertyOp14
 70
     1
102
RTVSPropertyOp15
 70
     1
102
RTVSPropertyOp16
 70
     1
102
RTVSPropertyOp17
 70
     1
102
RTVSPropertyOp18
 70
     1
102
RTVSPropertyOp19
 70
     1
102
RTVSPropertyOp20
 70
     1
102
RTVSPropertyOp21
 70
     1
102
RTVSPropertyOp22
 70
     1
102
RTVSPropertyOp23
 70
     1
102
RTVSPropertyOp24
 70
     1
102
RTVSPropertyOp25
 70
     1
102
RTVSPropertyOp26
 70
     1
102
RTVSPropertyOp27
 70
     1
102
RTVSPropertyOp28
 70
     1
102
RTVSPropertyOp29
 70
     1
102
RTVSPropertyOp30
 70
     1
102
RTVSPropertyOp31
 70
     1
102
RTVSPropertyOp32
 70
     1
102
RTVSPropertyOp33
 70
     1
102
RTVSPropertyOp34
 70
     1
102
RTVSPropertyOp35
 70
     1
102
RTVSPropertyOp36
 70
     1
102
RTVSPropertyOp37
 70
     1
102
RTVSPropertyOp38
 70
     1
102
RTVSPropertyOp39
 70
     1
102
RTVSPropertyOp40
 70
     1
102
RTVSPropertyOp41
 70
     1
102
RTVSPropertyOp42
 70
     1
102
RTVSPropertyOp43
 70
     1
102
RTVSPropertyOp44
 70
     1
102
RTVSPropertyOp45
 70
     1
102
RTVSPropertyOp46
 70
     1
102
RTVSPropertyOp47
 70
     1
102
RTVSPropertyOp48
 70
     1
102
RTVSPropertyOp49
 70
     1
102
RTVSPropertyOp50
 70
     1
102
RTVSPropertyOp51
 70
     0
102
RTVSPropertyOp52
 70
     0
102
RTVSPropertyOp53
 70
     1
102
RTVSPropertyOp54
 70
     1
102
RTVSPropertyOp55
 70
     1
102
RTVSPropertyOp56
 70
     1
102
RTVSPropertyOp57
 70
     1
102
RTVSPropertyOp58
 70
     1
102
RTVSPropertyOp59
 70
     1
102
RTVSPropertyOp60
 70
     1
102
RTVSPropertyOp61
 70
     1
102
RTVSPropertyOp62
 70
     1
  0
XRECORD
  5
2917
102
{ACAD_REACTORS
330
2916
102
}
330
2916
100
AcDbXrecord
280
     1
102
RTVSPost2010Prop28
280
     0
102
RTVSPost2010PropOp28
 70
     1
102
RTVSPost2010Prop29
280
     1
102
RTVSPost2010PropOp29
 70
     1
102
RTVSPost2010Prop30
280
     1
102
RTVSPost2010PropOp30
 70
     1
102
RTVSPost2010Prop31
280
     0
102
RTVSPost2010PropOp31
 70
     1
102
RTVSPost2010Prop32
280
     0
102
RTVSPost2010PropOp32
 70
     1
102
RTVSPost2010Prop33
280
     0
102
RTVSPost2010PropOp33
 70
     1
102
RTVSPost2010Prop34
280
     0
102
RTVSPost2010PropOp34
 70
     1
102
RTVSPost2010Prop35
280
     0
102
RTVSPost2010PropOp35
 70
     1
102
RTVSPost2010Prop36
280
     0
102
RTVSPost2010PropOp36
 70
     1
102
RTVSPost2010Prop37
 90
       50
102
RTVSPost2010PropOp37
 70
     1
102
RTVSPost2010Prop38
140
0.0
102
RTVSPost2010PropOp38
 70
     1
102
RTVSPost2010Prop39
140
1.0
102
RTVSPost2010PropOp39
 70
     1
102
RTVSPost2010Prop40
 90
        0
102
RTVSPost2010PropOp40
 70
     1
102
RTVSPost2010Prop41ColorIndex
 90
       18
102
RTVSPost2010Prop41ColorRGB
 90
        0
102
RTVSPost2010PropOp41
 70
     1
102
RTVSPost2010Prop42
 90
       50
102
RTVSPost2010PropOp42
 70
     1
102
RTVSPost2010Prop43
 90
        3
102
RTVSPost2010PropOp43
 70
     1
102
RTVSPost2010Prop44ColorIndex
 90
        5
102
RTVSPost2010Prop44ColorRGB
 90
      255
102
RTVSPost2010PropOp44
 70
     1
102
RTVSPost2010Prop45
280
     0
102
RTVSPost2010PropOp45
 70
     1
102
RTVSPost2010Prop46
 90
       50
102
RTVSPost2010PropOp46
 70
     1
102
RTVSPost2010Prop47
 90
       50
102
RTVSPost2010PropOp47
 70
     1
102
RTVSPost2010Prop48
 90
       50
102
RTVSPost2010PropOp48
 70
     1
102
RTVSPost2010Prop49
280
     0
102
RTVSPost2010PropOp49
 70
     1
102
RTVSPost2010Prop50
 90
       50
102
RTVSPost2010PropOp50
 70
     1
102
RTVSPost2010Prop51ColorIndex
 90
      256
102
RTVSPost2010Prop51ColorRGB
 90
-16777216
102
RTVSPost2010PropOp51
 70
     0
102
RTVSPost2010Prop52
140
1.0
102
RTVSPost2010PropOp52
 70
     0
102
RTVSPost2010Prop53
 90
        2
102
RTVSPost2010PropOp53
 70
     1
102
RTVSPost2010Prop54
  1
strokes_ogs.tif
102
RTVSPost2010PropOp54
 70
     1
102
RTVSPost2010Prop55
280
     0
102
RTVSPost2010PropOp55
 70
     1
102
RTVSPost2010Prop56
140
1.0
102
RTVSPost2010PropOp56
 70
     1
102
RTVSPost2010Prop57
140
1.0
102
RTVSPost2010PropOp57
 70
     1
102
RTVSPropertyOp0
 70
     1
102
RTVSPropertyOp1
 70
     1
102
RTVSPropertyOp2
 70
     1
102
RTVSPropertyOp3
 70
     1
102
RTVSPropertyOp4
 70
     1
102
RTVSPropertyOp5
 70
     1
102
RTVSPropertyOp6
 70
     1
102
RTVSPropertyOp7
 70
     1
102
RTVSPropertyOp8
 70
     1
102
RTVSPropertyOp9
 70
     1
102
RTVSPropertyOp10
 70
     1
102
RTVSPropertyOp11
 70
     1
102
RTVSPropertyOp12
 70
     1
102
RTVSPropertyOp13
 70
     1
102
RTVSPropertyOp14
 70
     1
102
RTVSPropertyOp15
 70
     1
102
RTVSPropertyOp16
 70
     1
102
RTVSPropertyOp17
 70
     1
102
RTVSPropertyOp18
 70
     1
102
RTVSPropertyOp19
 70
     1
102
RTVSPropertyOp20
 70
     1
102
RTVSPropertyOp21
 70
     1
102
RTVSPropertyOp22
 70
     1
102
RTVSPropertyOp23
 70
     1
102
RTVSPropertyOp24
 70
     1
102
RTVSPropertyOp25
 70
     1
102
RTVSPropertyOp26
 70
     1
102
RTVSPropertyOp27
 70
     1
102
RTVSPropertyOp28
 70
     1
102
RTVSPropertyOp29
 70
     1
102
RTVSPropertyOp30
 70
     1
102
RTVSPropertyOp31
 70
     1
102
RTVSPropertyOp32
 70
     1
102
RTVSPropertyOp33
 70
     1
102
RTVSPropertyOp34
 70
     1
102
RTVSPropertyOp35
 70
     1
102
RTVSPropertyOp36
 70
     1
102
RTVSPropertyOp37
 70
     1
102
RTVSPropertyOp38
 70
     1
102
RTVSPropertyOp39
 70
     1
102
RTVSPropertyOp40
 70
     1
102
RTVSPropertyOp41
 70
     1
102
RTVSPropertyOp42
 70
     1
102
RTVSPropertyOp43
 70
     1
102
RTVSPropertyOp44
 70
     1
102
RTVSPropertyOp45
 70
     1
102
RTVSPropertyOp46
 70
     1
102
RTVSPropertyOp47
 70
     1
102
RTVSPropertyOp48
 70
     1
102
RTVSPropertyOp49
 70
     1
102
RTVSPropertyOp50
 70
     1
102
RTVSPropertyOp51
 70
     0
102
RTVSPropertyOp52
 70
     0
102
RTVSPropertyOp53
 70
     1
102
RTVSPropertyOp54
 70
     1
102
RTVSPropertyOp55
 70
     1
102
RTVSPropertyOp56
 70
     1
102
RTVSPropertyOp57
 70
     1
102
RTVSPropertyOp58
 70
     1
102
RTVSPropertyOp59
 70
     1
102
RTVSPropertyOp60
 70
     1
102
RTVSPropertyOp61
 70
     1
102
RTVSPropertyOp62
 70
     1
  0
XRECORD
  5
291F
102
{ACAD_REACTORS
330
291E
102
}
330
291E
100
AcDbXrecord
280
     1
102
RTVSPost2010Prop28
280
     0
102
RTVSPost2010PropOp28
 70
     1
102
RTVSPost2010Prop29
280
     1
102
RTVSPost2010PropOp29
 70
     1
102
RTVSPost2010Prop30
280
     1
102
RTVSPost2010PropOp30
 70
     1
102
RTVSPost2010Prop31
280
     0
102
RTVSPost2010PropOp31
 70
     1
102
RTVSPost2010Prop32
280
     0
102
RTVSPost2010PropOp32
 70
     1
102
RTVSPost2010Prop33
280
     0
102
RTVSPost2010PropOp33
 70
     1
102
RTVSPost2010Prop34
280
     0
102
RTVSPost2010PropOp34
 70
     1
102
RTVSPost2010Prop35
280
     0
102
RTVSPost2010PropOp35
 70
     1
102
RTVSPost2010Prop36
280
     0
102
RTVSPost2010PropOp36
 70
     1
102
RTVSPost2010Prop37
 90
       50
102
RTVSPost2010PropOp37
 70
     1
102
RTVSPost2010Prop38
140
0.0
102
RTVSPost2010PropOp38
 70
     1
102
RTVSPost2010Prop39
140
1.0
102
RTVSPost2010PropOp39
 70
     1
102
RTVSPost2010Prop40
 90
        0
102
RTVSPost2010PropOp40
 70
     1
102
RTVSPost2010Prop41ColorIndex
 90
       18
102
RTVSPost2010Prop41ColorRGB
 90
        0
102
RTVSPost2010PropOp41
 70
     1
102
RTVSPost2010Prop42
 90
       50
102
RTVSPost2010PropOp42
 70
     1
102
RTVSPost2010Prop43
 90
        3
102
RTVSPost2010PropOp43
 70
     1
102
RTVSPost2010Prop44ColorIndex
 90
        5
102
RTVSPost2010Prop44ColorRGB
 90
      255
102
RTVSPost2010PropOp44
 70
     1
102
RTVSPost2010Prop45
280
     0
102
RTVSPost2010PropOp45
 70
     1
102
RTVSPost2010Prop46
 90
       50
102
RTVSPost2010PropOp46
 70
     1
102
RTVSPost2010Prop47
 90
       50
102
RTVSPost2010PropOp47
 70
     1
102
RTVSPost2010Prop48
 90
       50
102
RTVSPost2010PropOp48
 70
     1
102
RTVSPost2010Prop49
280
     0
102
RTVSPost2010PropOp49
 70
     1
102
RTVSPost2010Prop50
 90
       50
102
RTVSPost2010PropOp50
 70
     1
102
RTVSPost2010Prop51ColorIndex
 90
      256
102
RTVSPost2010Prop51ColorRGB
 90
-16777216
102
RTVSPost2010PropOp51
 70
     0
102
RTVSPost2010Prop52
140
1.0
102
RTVSPost2010PropOp52
 70
     0
102
RTVSPost2010Prop53
 90
        2
102
RTVSPost2010PropOp53
 70
     1
102
RTVSPost2010Prop54
  1
strokes_ogs.tif
102
RTVSPost2010PropOp54
 70
     1
102
RTVSPost2010Prop55
280
     0
102
RTVSPost2010PropOp55
 70
     1
102
RTVSPost2010Prop56
140
1.0
102
RTVSPost2010PropOp56
 70
     1
102
RTVSPost2010Prop57
140
1.0
102
RTVSPost2010PropOp57
 70
     1
102
RTVSPropertyOp0
 70
     1
102
RTVSPropertyOp1
 70
     1
102
RTVSPropertyOp2
 70
     1
102
RTVSPropertyOp3
 70
     1
102
RTVSPropertyOp4
 70
     1
102
RTVSPropertyOp5
 70
     1
102
RTVSPropertyOp6
 70
     1
102
RTVSPropertyOp7
 70
     1
102
RTVSPropertyOp8
 70
     1
102
RTVSPropertyOp9
 70
     1
102
RTVSPropertyOp10
 70
     1
102
RTVSPropertyOp11
 70
     1
102
RTVSPropertyOp12
 70
     1
102
RTVSPropertyOp13
 70
     1
102
RTVSPropertyOp14
 70
     1
102
RTVSPropertyOp15
 70
     1
102
RTVSPropertyOp16
 70
     1
102
RTVSPropertyOp17
 70
     1
102
RTVSPropertyOp18
 70
     1
102
RTVSPropertyOp19
 70
     1
102
RTVSPropertyOp20
 70
     1
102
RTVSPropertyOp21
 70
     1
102
RTVSPropertyOp22
 70
     1
102
RTVSPropertyOp23
 70
     1
102
RTVSPropertyOp24
 70
     1
102
RTVSPropertyOp25
 70
     1
102
RTVSPropertyOp26
 70
     1
102
RTVSPropertyOp27
 70
     1
102
RTVSPropertyOp28
 70
     1
102
RTVSPropertyOp29
 70
     1
102
RTVSPropertyOp30
 70
     1
102
RTVSPropertyOp31
 70
     1
102
RTVSPropertyOp32
 70
     1
102
RTVSPropertyOp33
 70
     1
102
RTVSPropertyOp34
 70
     1
102
RTVSPropertyOp35
 70
     1
102
RTVSPropertyOp36
 70
     1
102
RTVSPropertyOp37
 70
     1
102
RTVSPropertyOp38
 70
     1
102
RTVSPropertyOp39
 70
     1
102
RTVSPropertyOp40
 70
     1
102
RTVSPropertyOp41
 70
     1
102
RTVSPropertyOp42
 70
     1
102
RTVSPropertyOp43
 70
     1
102
RTVSPropertyOp44
 70
     1
102
RTVSPropertyOp45
 70
     1
102
RTVSPropertyOp46
 70
     1
102
RTVSPropertyOp47
 70
     1
102
RTVSPropertyOp48
 70
     1
102
RTVSPropertyOp49
 70
     1
102
RTVSPropertyOp50
 70
     1
102
RTVSPropertyOp51
 70
     0
102
RTVSPropertyOp52
 70
     0
102
RTVSPropertyOp53
 70
     1
102
RTVSPropertyOp54
 70
     1
102
RTVSPropertyOp55
 70
     1
102
RTVSPropertyOp56
 70
     1
102
RTVSPropertyOp57
 70
     1
102
RTVSPropertyOp58
 70
     1
102
RTVSPropertyOp59
 70
     1
102
RTVSPropertyOp60
 70
     1
102
RTVSPropertyOp61
 70
     1
102
RTVSPropertyOp62
 70
     1
  0
ENDSEC
  0
EOF
