  0
SECTION
  2
HEADER
  9
$ACADVER
  1
AC1015
  9
$ACADMAINTVER
 70
    20
  9
$DWGCODEPAGE
  3
ANSI_932
  9
$INSBASE
 10
0.0
 20
0.0
 30
0.0
  9
$EXTMIN
 10
21.5888478851
 20
24.3082072204
 30
0.0
  9
$EXTMAX
 10
684.0430011232
 20
436.8730327653
 30
0.0
  9
$LIMMIN
 10
0.0
 20
0.0
  9
$LIMMAX
 10
297.0
 20
210.0
  9
$ORTHOMODE
 70
     0
  9
$REGENMODE
 70
     1
  9
$FILLMODE
 70
     1
  9
$QTEXTMODE
 70
     0
  9
$MIRRTEXT
 70
     0
  9
$LTSCALE
 40
2.0
  9
$ATTMODE
 70
     1
  9
$TEXTSIZE
 40
2.0
  9
$TRACEWID
 40
1.0
  9
$TEXTSTYLE
  7
STANDARD
  9
$CLAYER
  8
0
  9
$CELTYPE
  6
BYLAYER
  9
$CECOLOR
 62
   256
  9
$CELTSCALE
 40
1.0
  9
$DISPSILH
 70
     0
  9
$DIMSCALE
 40
2.0
  9
$DIMASZ
 40
1.8
  9
$DIMEXO
 40
0.625
  9
$DIMDLI
 40
3.75
  9
$DIMRND
 40
0.0
  9
$DIMDLE
 40
0.0
  9
$DIMEXE
 40
0.8
  9
$DIMTP
 40
0.0
  9
$DIMTM
 40
0.0
  9
$DIMTXT
 40
1.8
  9
$DIMCEN
 40
2.5
  9
$DIMTSZ
 40
0.0
  9
$DIMTOL
 70
     0
  9
$DIMLIM
 70
     0
  9
$DIMTIH
 70
     0
  9
$DIMTOH
 70
     0
  9
$DIMSE1
 70
     0
  9
$DIMSE2
 70
     0
  9
$DIMTAD
 70
     1
  9
$DIMZIN
 70
     8
  9
$DIMBLK
  1

  9
$DIMASO
 70
     1
  9
$DIMSHO
 70
     1
  9
$DIMPOST
  1

  9
$DIMAPOST
  1

  9
$DIMALT
 70
     0
  9
$DIMALTD
 70
     4
  9
$DIMALTF
 40
0.0394
  9
$DIMLFAC
 40
1.0
  9
$DIMTOFL
 70
     1
  9
$DIMTVP
 40
0.0
  9
$DIMTIX
 70
     0
  9
$DIMSOXD
 70
     0
  9
$DIMSAH
 70
     0
  9
$DIMBLK1
  1

  9
$DIMBLK2
  1

  9
$DIMSTYLE
  2
STANDARD
  9
$DIMCLRD
 70
     0
  9
$DIMCLRE
 70
     0
  9
$DIMCLRT
 70
     0
  9
$DIMTFAC
 40
1.0
  9
$DIMGAP
 40
0.75
  9
$DIMJUST
 70
     0
  9
$DIMSD1
 70
     0
  9
$DIMSD2
 70
     0
  9
$DIMTOLJ
 70
     1
  9
$DIMTZIN
 70
     0
  9
$DIMALTZ
 70
     0
  9
$DIMALTTZ
 70
     0
  9
$DIMUPT
 70
     0
  9
$DIMDEC
 70
     2
  9
$DIMTDEC
 70
     2
  9
$DIMALTU
 70
     8
  9
$DIMALTTD
 70
     4
  9
$DIMTXSTY
  7
STANDARD
  9
$DIMAUNIT
 70
     0
  9
$DIMADEC
 70
     2
  9
$DIMALTRND
 40
0.0
  9
$DIMAZIN
 70
     0
  9
$DIMDSEP
 70
    46
  9
$DIMATFIT
 70
     3
  9
$DIMFRAC
 70
     0
  9
$DIMLDRBLK
  1

  9
$DIMLUNIT
 70
     6
  9
$DIMLWD
 70
    -2
  9
$DIMLWE
 70
    -2
  9
$DIMTMOVE
 70
     0
  9
$LUNITS
 70
     2
  9
$LUPREC
 70
     3
  9
$SKETCHINC
 40
1.0
  9
$FILLETRAD
 40
10.0
  9
$AUNITS
 70
     0
  9
$AUPREC
 70
     2
  9
$MENU
  1
.
  9
$ELEVATION
 40
0.0
  9
$PELEVATION
 40
0.0
  9
$THICKNESS
 40
0.0
  9
$LIMCHECK
 70
     0
  9
$CHAMFERA
 40
0.0
  9
$CHAMFERB
 40
0.0
  9
$CHAMFERC
 40
20.0
  9
$CHAMFERD
 40
0.0
  9
$SKPOLY
 70
     0
  9
$TDCREATE
 40
2453753.372916667
  9
$TDUCREATE
 40
2453752.997927327
  9
$TDUPDATE
 40
2459857.663530093
  9
$TDUUPDATE
 40
2459857.288530093
  9
$TDINDWG
 40
0.5699944792
  9
$TDUSRTIMER
 40
0.5699942940
  9
$USRTIMER
 70
     1
  9
$ANGBASE
 50
0.0
  9
$ANGDIR
 70
     0
  9
$PDMODE
 70
     0
  9
$PDSIZE
 40
-10.0
  9
$PLINEWID
 40
0.0
  9
$SPLFRAME
 70
     0
  9
$SPLINETYPE
 70
     6
  9
$SPLINESEGS
 70
     8
  9
$HANDSEED
  5
3413
  9
$SURFTAB1
 70
     6
  9
$SURFTAB2
 70
     6
  9
$SURFTYPE
 70
     6
  9
$SURFU
 70
     6
  9
$SURFV
 70
     6
  9
$UCSBASE
  2

  9
$UCSNAME
  2

  9
$UCSORG
 10
0.0
 20
0.0
 30
0.0
  9
$UCSXDIR
 10
1.0
 20
0.0
 30
0.0
  9
$UCSYDIR
 10
0.0
 20
1.0
 30
0.0
  9
$UCSORTHOREF
  2

  9
$UCSORTHOVIEW
 70
     0
  9
$UCSORGTOP
 10
0.0
 20
0.0
 30
0.0
  9
$UCSORGBOTTOM
 10
0.0
 20
0.0
 30
0.0
  9
$UCSORGLEFT
 10
0.0
 20
0.0
 30
0.0
  9
$UCSORGRIGHT
 10
0.0
 20
0.0
 30
0.0
  9
$UCSORGFRONT
 10
0.0
 20
0.0
 30
0.0
  9
$UCSORGBACK
 10
0.0
 20
0.0
 30
0.0
  9
$PUCSBASE
  2

  9
$PUCSNAME
  2

  9
$PUCSORG
 10
0.0
 20
0.0
 30
0.0
  9
$PUCSXDIR
 10
1.0
 20
0.0
 30
0.0
  9
$PUCSYDIR
 10
0.0
 20
1.0
 30
0.0
  9
$PUCSORTHOREF
  2

  9
$PUCSORTHOVIEW
 70
     0
  9
$PUCSORGTOP
 10
0.0
 20
0.0
 30
0.0
  9
$PUCSORGBOTTOM
 10
0.0
 20
0.0
 30
0.0
  9
$PUCSORGLEFT
 10
0.0
 20
0.0
 30
0.0
  9
$PUCSORGRIGHT
 10
0.0
 20
0.0
 30
0.0
  9
$PUCSORGFRONT
 10
0.0
 20
0.0
 30
0.0
  9
$PUCSORGBACK
 10
0.0
 20
0.0
 30
0.0
  9
$USERI1
 70
     0
  9
$USERI2
 70
     0
  9
$USERI3
 70
     0
  9
$USERI4
 70
     0
  9
$USERI5
 70
     0
  9
$USERR1
 40
0.0
  9
$USERR2
 40
0.0
  9
$USERR3
 40
0.0
  9
$USERR4
 40
0.0
  9
$USERR5
 40
0.0
  9
$WORLDVIEW
 70
     1
  9
$SHADEDGE
 70
     3
  9
$SHADEDIF
 70
    70
  9
$TILEMODE
 70
     1
  9
$MAXACTVP
 70
    48
  9
$PINSBASE
 10
0.0
 20
0.0
 30
0.0
  9
$PLIMCHECK
 70
     0
  9
$PEXTMIN
 10
0.0
 20
0.0
 30
0.0
  9
$PEXTMAX
 10
0.0
 20
0.0
 30
0.0
  9
$PLIMMIN
 10
0.0
 20
0.0
  9
$PLIMMAX
 10
12.0
 20
9.0
  9
$UNITMODE
 70
     0
  9
$VISRETAIN
 70
     1
  9
$PLINEGEN
 70
     0
  9
$PSLTSCALE
 70
     1
  9
$TREEDEPTH
 70
  3020
  9
$CMLSTYLE
  2
STANDARD
  9
$CMLJUST
 70
     0
  9
$CMLSCALE
 40
1.0
  9
$PROXYGRAPHICS
 70
     1
  9
$MEASUREMENT
 70
     0
  9
$CELWEIGHT
370
    -1
  9
$ENDCAPS
280
     0
  9
$JOINSTYLE
280
     0
  9
$LWDISPLAY
290
     0
  9
$INSUNITS
 70
     0
  9
$HYPERLINKBASE
  1

  9
$STYLESHEET
  1
SEKKEI.CTB
  9
$XEDIT
290
     1
  9
$CEPSNTYPE
380
     0
  9
$PSTYLEMODE
290
     1
  9
$FINGERPRINTGUID
  2
{6385560B-F4B1-4644-A7C2-A3E32AC3D232}
  9
$VERSIONGUID
  2
{00EB1D3B-4011-B44F-AB63-A43E51FA0F39}
  9
$EXTNAMES
290
     1
  9
$PSVPSCALE
 40
0.0
  9
$OLESTARTUP
290
     0
  0
ENDSEC
  0
SECTION
  2
CLASSES
  0
CLASS
  1
DICTIONARYVAR
  2
AcDbDictionaryVar
  3
ObjectDBX Classes
 90
        0
280
     0
281
     0
  0
CLASS
  1
ACDBDICTIONARYWDFLT
  2
AcDbDictionaryWithDefault
  3
ObjectDBX Classes
 90
        0
280
     0
281
     0
  0
CLASS
  1
MATERIAL
  2
AcDbMaterial
  3
ObjectDBX Classes
 90
     1153
280
     0
281
     0
  0
CLASS
  1
VISUALSTYLE
  2
AcDbVisualStyle
  3
ObjectDBX Classes
 90
     4095
280
     0
281
     0
  0
CLASS
  1
TABLESTYLE
  2
AcDbTableStyle
  3
ObjectDBX Classes
 90
     4095
280
     0
281
     0
  0
CLASS
  1
SCALE
  2
AcDbScale
  3
ObjectDBX Classes
 90
     1153
280
     0
281
     0
  0
CLASS
  1
MLEADERSTYLE
  2
AcDbMLeaderStyle
  3
ACDB_MLEADERSTYLE_CLASS
 90
     4095
280
     0
281
     0
  0
CLASS
  1
CELLSTYLEMAP
  2
AcDbCellStyleMap
  3
ObjectDBX Classes
 90
     1152
280
     0
281
     0
  0
CLASS
  1
ACAD_EVALUATION_GRAPH
  2
AcDbEvalGraph
  3
ObjectDBX Classes
 90
    33921
280
     0
281
     0
  0
CLASS
  1
ACAECUSTOBJ
  2
AcAeEditorObj
  3
AcAeEditorObj
 90
    33792
280
     0
281
     0
  0
CLASS
  1
ACDB_DYNAMICBLOCKPURGEPREVENTER_VERSION
  2
AcDbDynamicBlockPurgePreventer
  3
ObjectDBX Classes
 90
    33921
280
     0
281
     0
  0
CLASS
  1
ACDBPLACEHOLDER
  2
AcDbPlaceHolder
  3
ObjectDBX Classes
 90
        0
280
     0
281
     0
  0
CLASS
  1
LAYOUT
  2
AcDbLayout
  3
ObjectDBX Classes
 90
        0
280
     0
281
     0
  0
CLASS
  1
ACDBSECTIONVIEWSTYLE
  2
AcDbSectionViewStyle
  3
ObjectDBX Classes
 90
     1025
280
     0
281
     0
  0
CLASS
  1
ACDBDETAILVIEWSTYLE
  2
AcDbDetailViewStyle
  3
ObjectDBX Classes
 90
     1025
280
     0
281
     0
  0
ENDSEC
  0
SECTION
  2
TABLES
  0
TABLE
  2
VPORT
  5
6E
102
{ACAD_XDICTIONARY
360
20B9
102
}
330
0
100
AcDbSymbolTable
 70
     1
  0
VPORT
  5
1DAD
330
6E
100
AcDbSymbolTableRecord
100
AcDbViewportTableRecord
  2
*Active
 70
     0
 10
0.0
 20
0.0
 11
1.0
 21
1.0
 12
399.521895598
 22
230.5926195344
 13
0.0
 23
0.0
 14
10.0
 24
10.0
 15
10.0
 25
10.0
 16
0.0
 26
0.0
 36
1.0
 17
0.0
 27
0.0
 37
0.0
 40
388.4227015135
 41
1.9558823529
 42
50.0
 43
0.0
 44
0.0
 50
0.0
 51
0.0
 71
     0
 72
   100
 73
     1
 74
     3
 75
     0
 76
     0
 77
     0
 78
     0
281
     0
 65
     1
110
0.0
120
0.0
130
0.0
111
1.0
121
0.0
131
0.0
112
0.0
122
1.0
132
0.0
 79
     0
146
0.0
1001
ACAD_NAV_VCDISPLAY
1070
     3
  0
ENDTAB
  0
TABLE
  2
LTYPE
  5
69
330
0
100
AcDbSymbolTable
 70
     3
  0
LTYPE
  5
6A
330
69
100
AcDbSymbolTableRecord
100
AcDbLinetypeTableRecord
  2
BYBLOCK
 70
     0
  3

 72
    65
 73
     0
 40
0.0
  0
LTYPE
  5
6B
330
69
100
AcDbSymbolTableRecord
100
AcDbLinetypeTableRecord
  2
BYLAYER
 70
     0
  3

 72
    65
 73
     0
 40
0.0
  0
LTYPE
  5
8
330
69
100
AcDbSymbolTableRecord
100
AcDbLinetypeTableRecord
  2
CONTINUOUS
 70
     0
  3
Solid line
 72
    65
 73
     0
 40
0.0
  0
LTYPE
  5
27C
330
69
100
AcDbSymbolTableRecord
100
AcDbLinetypeTableRecord
  2
sekkei(A2)
 70
     0
  3
center(A2)  ____ _ ____ _ ____ _ ____ _ ____ _ 
 72
    65
 73
     4
 40
14.2875
 49
9.525
 74
     0
 49
-1.5875
 74
     0
 49
1.5875
 74
     0
 49
-1.5875
 74
     0
  0
LTYPE
  5
2B4
330
69
100
AcDbSymbolTableRecord
100
AcDbLinetypeTableRecord
  2
HIDDEN2
 70
     0
  3
Hidden (.5x) _ _ _ _ _ _ _ _ _ _ _ _ _ _ _ _ _
 72
    65
 73
     2
 40
4.7625
 49
3.175
 74
     0
 49
-1.5875
 74
     0
  0
ENDTAB
  0
TABLE
  2
LAYER
  5
66
102
{ACAD_XDICTIONARY
360
1E08
102
}
330
0
100
AcDbSymbolTable
 70
     9
  0
LAYER
  5
5E
102
{ACAD_XDICTIONARY
360
1E46
102
}
330
66
100
AcDbSymbolTableRecord
100
AcDbLayerTableRecord
  2
0
 70
     0
 62
     7
  6
CONTINUOUS
370
    -3
390
5
  0
LAYER
  5
3E
102
{ACAD_XDICTIONARY
360
1E48
102
}
330
66
100
AcDbSymbolTableRecord
100
AcDbLayerTableRecord
  2
CENTER
 70
     0
 62
     3
  6
sekkei(A2)
370
    -3
390
5
  0
LAYER
  5
135
330
66
100
AcDbSymbolTableRecord
100
AcDbLayerTableRecord
  2
DEFPOINTS
 70
     0
 62
     7
  6
CONTINUOUS
290
     0
370
    -3
390
5
  0
LAYER
  5
2B5
102
{ACAD_XDICTIONARY
360
1E4E
102
}
330
66
100
AcDbSymbolTableRecord
100
AcDbLayerTableRecord
  2
HIDS
 70
     0
 62
     1
  6
HIDDEN2
370
    -3
390
5
  0
LAYER
  5
3FA
102
{ACAD_XDICTIONARY
360
1E52
102
}
330
66
100
AcDbSymbolTableRecord
100
AcDbLayerTableRecord
  2
TITLE
 70
     0
 62
     4
  6
CONTINUOUS
290
     0
370
    -3
390
5
  0
LAYER
  5
1E05
102
{ACAD_XDICTIONARY
360
1E06
102
}
330
66
100
AcDbSymbolTableRecord
100
AcDbLayerTableRecord
  2
TITLE_C
 70
     0
 62
     4
  6
CONTINUOUS
370
    -3
390
5
1001
AcAecLayerStandard
1000

1000

  0
ENDTAB
  0
TABLE
  2
STYLE
  5
67
330
0
100
AcDbSymbolTable
 70
     1
  0
STYLE
  5
16
330
67
100
AcDbSymbolTableRecord
100
AcDbTextStyleTableRecord
  2
STANDARD
 70
     0
 40
0.0
 41
1.0
 50
0.0
 71
     0
 42
2.0
  3
simplex.shx
  4
extfont.shx
  0
ENDTAB
  0
TABLE
  2
VIEW
  5
6C
330
0
100
AcDbSymbolTable
 70
     0
  0
ENDTAB
  0
TABLE
  2
UCS
  5
6D
330
0
100
AcDbSymbolTable
 70
     0
  0
ENDTAB
  0
TABLE
  2
APPID
  5
70
330
0
100
AcDbSymbolTable
 70
    10
  0
APPID
  5
71
330
70
100
AcDbSymbolTableRecord
100
AcDbRegAppTableRecord
  2
ACAD
 70
     0
  0
APPID
  5
1E07
330
70
100
AcDbSymbolTableRecord
100
AcDbRegAppTableRecord
  2
AcAecLayerStandard
 70
     0
  0
APPID
  5
1EB6
330
70
100
AcDbSymbolTableRecord
100
AcDbRegAppTableRecord
  2
ACAD_EXEMPT_FROM_CAD_STANDARDS
 70
     0
  0
APPID
  5
2107
330
70
100
AcDbSymbolTableRecord
100
AcDbRegAppTableRecord
  2
ACAD_MLEADERVER
 70
     0
  0
APPID
  5
2862
330
70
100
AcDbSymbolTableRecord
100
AcDbRegAppTableRecord
  2
AcadAnnoAV
 70
     0
  0
APPID
  5
2888
330
70
100
AcDbSymbolTableRecord
100
AcDbRegAppTableRecord
  2
ACAUTHENVIRON
 70
     0
  0
APPID
  5
288C
330
70
100
AcDbSymbolTableRecord
100
AcDbRegAppTableRecord
  2
AcDbDynamicBlockTrueName
 70
     0
  0
APPID
  5
288D
330
70
100
AcDbSymbolTableRecord
100
AcDbRegAppTableRecord
  2
AcDbDynamicBlockGUID
 70
     0
  0
APPID
  5
288F
330
70
100
AcDbSymbolTableRecord
100
AcDbRegAppTableRecord
  2
AcDbBlockRepETag
 70
     0
  0
APPID
  5
2EF2
330
70
100
AcDbSymbolTableRecord
100
AcDbRegAppTableRecord
  2
ACAD_NAV_VCDISPLAY
 70
     0
  0
ENDTAB
  0
TABLE
  2
DIMSTYLE
  5
72
330
0
100
AcDbSymbolTable
 70
     2
100
AcDbDimStyleTable
 71
     1
340
73
  0
DIMSTYLE
105
73
330
72
100
AcDbSymbolTableRecord
100
AcDbDimStyleTableRecord
  2
STANDARD
 70
     0
 40
2.0
 41
1.8
 42
0.625
 43
3.75
 44
0.8
 73
     0
 74
     0
 77
     1
 78
     8
140
1.8
141
2.5
143
0.0394
147
0.75
171
     4
172
     1
179
     2
271
     2
272
     2
273
     8
274
     4
277
     6
340
16
  0
ENDTAB
  0
TABLE
  2
BLOCK_RECORD
  5
1
330
0
100
AcDbSymbolTable
 70
    70
  0
BLOCK_RECORD
  5
2
330
1
100
AcDbSymbolTableRecord
100
AcDbBlockTableRecord
  2
*MODEL_SPACE
340
60
  0
BLOCK_RECORD
  5
33A3
330
1
100
AcDbSymbolTableRecord
100
AcDbBlockTableRecord
  2
*Paper_Space
340
33A4
  0
BLOCK_RECORD
  5
BAC
330
1
100
AcDbSymbolTableRecord
100
AcDbBlockTableRecord
  2
*D1
340
0
  0
BLOCK_RECORD
  5
BB8
330
1
100
AcDbSymbolTableRecord
100
AcDbBlockTableRecord
  2
*D2
340
0
  0
BLOCK_RECORD
  5
BC4
330
1
100
AcDbSymbolTableRecord
100
AcDbBlockTableRecord
  2
*D3
340
0
  0
BLOCK_RECORD
  5
BD0
330
1
100
AcDbSymbolTableRecord
100
AcDbBlockTableRecord
  2
*D4
340
0
  0
BLOCK_RECORD
  5
BDC
330
1
100
AcDbSymbolTableRecord
100
AcDbBlockTableRecord
  2
*D5
340
0
  0
BLOCK_RECORD
  5
BE8
330
1
100
AcDbSymbolTableRecord
100
AcDbBlockTableRecord
  2
*D6
340
0
  0
BLOCK_RECORD
  5
BF4
330
1
100
AcDbSymbolTableRecord
100
AcDbBlockTableRecord
  2
*D7
340
0
  0
BLOCK_RECORD
  5
C0C
330
1
100
AcDbSymbolTableRecord
100
AcDbBlockTableRecord
  2
*D8
340
0
  0
BLOCK_RECORD
  5
C18
330
1
100
AcDbSymbolTableRecord
100
AcDbBlockTableRecord
  2
*D9
340
0
  0
BLOCK_RECORD
  5
C26
330
1
100
AcDbSymbolTableRecord
100
AcDbBlockTableRecord
  2
*D10
340
0
  0
BLOCK_RECORD
  5
C32
330
1
100
AcDbSymbolTableRecord
100
AcDbBlockTableRecord
  2
*D11
340
0
  0
BLOCK_RECORD
  5
C3E
330
1
100
AcDbSymbolTableRecord
100
AcDbBlockTableRecord
  2
*D12
340
0
  0
BLOCK_RECORD
  5
C4A
330
1
100
AcDbSymbolTableRecord
100
AcDbBlockTableRecord
  2
*D13
340
0
  0
BLOCK_RECORD
  5
C56
330
1
100
AcDbSymbolTableRecord
100
AcDbBlockTableRecord
  2
*D14
340
0
  0
BLOCK_RECORD
  5
C62
330
1
100
AcDbSymbolTableRecord
100
AcDbBlockTableRecord
  2
*D15
340
0
  0
BLOCK_RECORD
  5
C6E
330
1
100
AcDbSymbolTableRecord
100
AcDbBlockTableRecord
  2
*D16
340
0
  0
BLOCK_RECORD
  5
C7A
330
1
100
AcDbSymbolTableRecord
100
AcDbBlockTableRecord
  2
*D17
340
0
  0
BLOCK_RECORD
  5
1695
330
1
100
AcDbSymbolTableRecord
100
AcDbBlockTableRecord
  2
*D20
340
0
  0
BLOCK_RECORD
  5
16A1
330
1
100
AcDbSymbolTableRecord
100
AcDbBlockTableRecord
  2
*D21
340
0
  0
BLOCK_RECORD
  5
16AD
330
1
100
AcDbSymbolTableRecord
100
AcDbBlockTableRecord
  2
*D22
340
0
  0
BLOCK_RECORD
  5
16B9
330
1
100
AcDbSymbolTableRecord
100
AcDbBlockTableRecord
  2
*D23
340
0
  0
ENDTAB
  0
ENDSEC
  0
SECTION
  2
BLOCKS
  0
BLOCK
  5
5D
330
2
100
AcDbEntity
  8
0
100
AcDbBlockBegin
  2
*MODEL_SPACE
 70
     0
 10
0.0
 20
0.0
 30
0.0
  3
*MODEL_SPACE
  1

  0
ENDBLK
  5
5F
330
2
100
AcDbEntity
  8
0
100
AcDbBlockEnd
  0
BLOCK
  5
33A5
330
33A3
100
AcDbEntity
 67
     1
  8
0
100
AcDbBlockBegin
  2
*Paper_Space
 70
     0
 10
0.0
 20
0.0
 30
0.0
  3
*Paper_Space
  1

  0
ENDBLK
  5
33A6
330
33A3
100
AcDbEntity
 67
     1
  8
0
100
AcDbBlockEnd
  0
BLOCK
  5
BB6
330
BAC
100
AcDbEntity
  8
0
100
AcDbBlockBegin
  2
*D1
 70
     1
 10
0.0
 20
0.0
 30
0.0
  3
*D1
  1

  0
POINT
  5
1736
330
BAC
100
AcDbEntity
  8
DEFPOINTS
 62
     0
100
AcDbPoint
 10
306.435497121
 20
173.1184646634
 30
0.0
  0
POINT
  5
1737
330
BAC
100
AcDbEntity
  8
DEFPOINTS
 62
     0
100
AcDbPoint
 10
428.435502121
 20
138.1184646634
 30
0.0
  0
POINT
  5
1738
330
BAC
100
AcDbEntity
  8
DEFPOINTS
 62
     0
100
AcDbPoint
 10
428.435502121
 20
234.8436156941
 30
0.0
  0
ENDBLK
  5
BB7
330
BAC
100
AcDbEntity
  8
0
100
AcDbBlockEnd
  0
BLOCK
  5
BC2
330
BB8
100
AcDbEntity
  8
0
100
AcDbBlockBegin
  2
*D2
 70
     1
 10
0.0
 20
0.0
 30
0.0
  3
*D2
  1

  0
POINT
  5
1751
330
BB8
100
AcDbEntity
  8
DEFPOINTS
 62
     0
100
AcDbPoint
 10
354.435499121
 20
200.3059706634
 30
0.0
  0
POINT
  5
1752
330
BB8
100
AcDbEntity
  8
DEFPOINTS
 62
     0
100
AcDbPoint
 10
306.435497121
 20
173.1184646634
 30
0.0
  0
POINT
  5
1753
330
BB8
100
AcDbEntity
  8
DEFPOINTS
 62
     0
100
AcDbPoint
 10
306.435497121
 20
222.8548750878
 30
0.0
  0
ENDBLK
  5
BC3
330
BB8
100
AcDbEntity
  8
0
100
AcDbBlockEnd
  0
BLOCK
  5
BCE
330
BC4
100
AcDbEntity
  8
0
100
AcDbBlockBegin
  2
*D3
 70
     1
 10
0.0
 20
0.0
 30
0.0
  3
*D3
  1

  0
POINT
  5
1701
330
BC4
100
AcDbEntity
  8
DEFPOINTS
 62
     0
100
AcDbPoint
 10
43.9653982199
 20
138.4184556634
 30
0.0
  0
POINT
  5
1702
330
BC4
100
AcDbEntity
  8
DEFPOINTS
 62
     0
100
AcDbPoint
 10
237.9654052199
 20
143.6184526634
 30
0.0
  0
POINT
  5
1703
330
BC4
100
AcDbEntity
  8
DEFPOINTS
 62
     0
100
AcDbPoint
 10
237.9654052199
 20
234.8436156941
 30
0.0
  0
ENDBLK
  5
BCF
330
BC4
100
AcDbEntity
  8
0
100
AcDbBlockEnd
  0
BLOCK
  5
BDA
330
BD0
100
AcDbEntity
  8
0
100
AcDbBlockBegin
  2
*D4
 70
     1
 10
0.0
 20
0.0
 30
0.0
  3
*D4
  1

  0
POINT
  5
16F8
330
BD0
100
AcDbEntity
  8
DEFPOINTS
 62
     0
100
AcDbPoint
 10
187.4654052199
 20
180.1184526634
 30
0.0
  0
POINT
  5
16F9
330
BD0
100
AcDbEntity
  8
DEFPOINTS
 62
     0
100
AcDbPoint
 10
43.9653982199
 20
138.4184556634
 30
0.0
  0
POINT
  5
16FA
330
BD0
100
AcDbEntity
  8
DEFPOINTS
 62
     0
100
AcDbPoint
 10
43.9653982199
 20
222.8548750878
 30
0.0
  0
ENDBLK
  5
BDB
330
BD0
100
AcDbEntity
  8
0
100
AcDbBlockEnd
  0
BLOCK
  5
BE6
330
BDC
100
AcDbEntity
  8
0
100
AcDbBlockBegin
  2
*D5
 70
     1
 10
0.0
 20
0.0
 30
0.0
  3
*D5
  1

  0
POINT
  5
F47
330
BDC
100
AcDbEntity
  8
DEFPOINTS
 62
     0
100
AcDbPoint
 10
48.5068482199
 20
148.4184556634
 30
0.0
  0
POINT
  5
F48
330
BDC
100
AcDbEntity
  8
DEFPOINTS
 62
     0
100
AcDbPoint
 10
48.5068482199
 20
58.4184516634
 30
0.0
  0
POINT
  5
F49
330
BDC
100
AcDbEntity
  8
DEFPOINTS
 62
     0
100
AcDbPoint
 10
26.6888478851
 20
58.4184516634
 30
0.0
  0
ENDBLK
  5
BE7
330
BDC
100
AcDbEntity
  8
0
100
AcDbBlockEnd
  0
BLOCK
  5
BF2
330
BE8
100
AcDbEntity
  8
0
100
AcDbBlockBegin
  2
*D6
 70
     1
 10
0.0
 20
0.0
 30
0.0
  3
*D6
  1

  0
POINT
  5
F23
330
BE8
100
AcDbEntity
  8
DEFPOINTS
 62
     0
100
AcDbPoint
 10
227.4654052199
 20
55.1184526634
 30
0.0
  0
POINT
  5
F24
330
BE8
100
AcDbEntity
  8
DEFPOINTS
 62
     0
100
AcDbPoint
 10
227.4654052199
 20
173.1184526634
 30
0.0
  0
POINT
  5
F25
330
BE8
100
AcDbEntity
  8
DEFPOINTS
 62
     0
100
AcDbPoint
 10
267.0532378402
 20
173.1184526634
 30
0.0
  0
ENDBLK
  5
BF3
330
BE8
100
AcDbEntity
  8
0
100
AcDbBlockEnd
  0
BLOCK
  5
BFE
330
BF4
100
AcDbEntity
  8
0
100
AcDbBlockBegin
  2
*D7
 70
     1
 10
0.0
 20
0.0
 30
0.0
  3
*D7
  1

  0
POINT
  5
F6D
330
BF4
100
AcDbEntity
  8
DEFPOINTS
 62
     0
100
AcDbPoint
 10
136.9654052199
 20
84.6184416634
 30
0.0
  0
POINT
  5
F6E
330
BF4
100
AcDbEntity
  8
DEFPOINTS
 62
     0
100
AcDbPoint
 10
237.9654052199
 20
84.6184526634
 30
0.0
  0
POINT
  5
F6F
330
BF4
100
AcDbEntity
  8
DEFPOINTS
 62
     0
100
AcDbPoint
 10
237.9654052199
 20
25.9082072204
 30
0.0
  0
ENDBLK
  5
BFF
330
BF4
100
AcDbEntity
  8
0
100
AcDbBlockEnd
  0
BLOCK
  5
C16
330
C0C
100
AcDbEntity
  8
0
100
AcDbBlockBegin
  2
*D8
 70
     1
 10
0.0
 20
0.0
 30
0.0
  3
*D8
  1

  0
POINT
  5
1013
330
C0C
100
AcDbEntity
  8
DEFPOINTS
 62
     0
100
AcDbPoint
 10
147.4654052199
 20
57.3184496634
 30
0.0
  0
POINT
  5
1014
330
C0C
100
AcDbEntity
  8
DEFPOINTS
 62
     0
100
AcDbPoint
 10
227.4654052199
 20
57.3184516634
 30
0.0
  0
POINT
  5
1015
330
C0C
100
AcDbEntity
  8
DEFPOINTS
 62
     0
100
AcDbPoint
 10
227.4654052199
 20
37.9157403018
 30
0.0
  0
ENDBLK
  5
C17
330
C0C
100
AcDbEntity
  8
0
100
AcDbBlockEnd
  0
BLOCK
  5
C24
330
C18
100
AcDbEntity
  8
0
100
AcDbBlockBegin
  2
*D9
 70
     1
 10
0.0
 20
0.0
 30
0.0
  3
*D9
  1

  0
POINT
  5
FCC
330
C18
100
AcDbEntity
  8
DEFPOINTS
 62
     0
100
AcDbPoint
 10
316.435497121
 20
56.6184606634
 30
0.0
  0
POINT
  5
FCD
330
C18
100
AcDbEntity
  8
DEFPOINTS
 62
     0
100
AcDbPoint
 10
306.435497121
 20
55.1184606634
 30
0.0
  0
POINT
  5
FCE
330
C18
100
AcDbEntity
  8
DEFPOINTS
 62
     0
100
AcDbPoint
 10
306.435497121
 20
37.9157413018
 30
0.0
  0
ENDBLK
  5
C25
330
C18
100
AcDbEntity
  8
0
100
AcDbBlockEnd
  0
BLOCK
  5
C30
330
C26
100
AcDbEntity
  8
0
100
AcDbBlockBegin
  2
*D10
 70
     1
 10
0.0
 20
0.0
 30
0.0
  3
*D10
  1

  0
POINT
  5
16EF
330
C26
100
AcDbEntity
  8
DEFPOINTS
 62
     0
100
AcDbPoint
 10
187.4654052199
 20
180.1184526634
 30
0.0
  0
POINT
  5
16F0
330
C26
100
AcDbEntity
  8
DEFPOINTS
 62
     0
100
AcDbPoint
 10
237.9654052199
 20
143.6184526634
 30
0.0
  0
POINT
  5
16F1
330
C26
100
AcDbEntity
  8
DEFPOINTS
 62
     0
100
AcDbPoint
 10
237.9654052199
 20
222.8548750878
 30
0.0
  0
ENDBLK
  5
C31
330
C26
100
AcDbEntity
  8
0
100
AcDbBlockEnd
  0
BLOCK
  5
C3C
330
C32
100
AcDbEntity
  8
0
100
AcDbBlockBegin
  2
*D11
 70
     1
 10
0.0
 20
0.0
 30
0.0
  3
*D11
  1

  0
POINT
  5
F88
330
C32
100
AcDbEntity
  8
DEFPOINTS
 62
     0
100
AcDbPoint
 10
156.9654052199
 20
129.1184526634
 30
0.0
  0
POINT
  5
F89
330
C32
100
AcDbEntity
  8
DEFPOINTS
 62
     0
100
AcDbPoint
 10
159.3521012199
 20
103.4184516634
 30
0.0
  0
POINT
  5
F8A
330
C32
100
AcDbEntity
  8
DEFPOINTS
 62
     0
100
AcDbPoint
 10
154.9935851624
 20
103.4184516634
 30
0.0
  0
ENDBLK
  5
C3D
330
C32
100
AcDbEntity
  8
0
100
AcDbBlockEnd
  0
BLOCK
  5
C48
330
C3E
100
AcDbEntity
  8
0
100
AcDbBlockBegin
  2
*D12
 70
     1
 10
0.0
 20
0.0
 30
0.0
  3
*D12
  1

  0
POINT
  5
F76
330
C3E
100
AcDbEntity
  8
DEFPOINTS
 62
     0
100
AcDbPoint
 10
217.9654052199
 20
129.1184526634
 30
0.0
  0
POINT
  5
F77
330
C3E
100
AcDbEntity
  8
DEFPOINTS
 62
     0
100
AcDbPoint
 10
234.2654082199
 20
164.1184526634
 30
0.0
  0
POINT
  5
F78
330
C3E
100
AcDbEntity
  8
DEFPOINTS
 62
     0
100
AcDbPoint
 10
255.1657215118
 20
164.1184526634
 30
0.0
  0
ENDBLK
  5
C49
330
C3E
100
AcDbEntity
  8
0
100
AcDbBlockEnd
  0
BLOCK
  5
C54
330
C4A
100
AcDbEntity
  8
0
100
AcDbBlockBegin
  2
*D13
 70
     1
 10
0.0
 20
0.0
 30
0.0
  3
*D13
  1

  0
POINT
  5
F7F
330
C4A
100
AcDbEntity
  8
DEFPOINTS
 62
     0
100
AcDbPoint
 10
217.9654052199
 20
129.1184526634
 30
0.0
  0
POINT
  5
F80
330
C4A
100
AcDbEntity
  8
DEFPOINTS
 62
     0
100
AcDbPoint
 10
234.2654082199
 20
64.1184526634
 30
0.0
  0
POINT
  5
F81
330
C4A
100
AcDbEntity
  8
DEFPOINTS
 62
     0
100
AcDbPoint
 10
255.1657215118
 20
64.1184526634
 30
0.0
  0
ENDBLK
  5
C55
330
C4A
100
AcDbEntity
  8
0
100
AcDbBlockEnd
  0
BLOCK
  5
C60
330
C56
100
AcDbEntity
  8
0
100
AcDbBlockBegin
  2
*D14
 70
     1
 10
0.0
 20
0.0
 30
0.0
  3
*D14
  1

  0
POINT
  5
FE7
330
C56
100
AcDbEntity
  8
DEFPOINTS
 62
     0
100
AcDbPoint
 10
428.435502121
 20
120.1184646634
 30
0.0
  0
POINT
  5
FE8
330
C56
100
AcDbEntity
  8
DEFPOINTS
 62
     0
100
AcDbPoint
 10
428.435502121
 20
138.1184646634
 30
0.0
  0
POINT
  5
FE9
330
C56
100
AcDbEntity
  8
DEFPOINTS
 62
     0
100
AcDbPoint
 10
445.9857971519
 20
138.1184646634
 30
0.0
  0
ENDBLK
  5
C61
330
C56
100
AcDbEntity
  8
0
100
AcDbBlockEnd
  0
BLOCK
  5
C6C
330
C62
100
AcDbEntity
  8
0
100
AcDbBlockBegin
  2
*D15
 70
     1
 10
0.0
 20
0.0
 30
0.0
  3
*D15
  1

  0
POINT
  5
1DA6
330
C62
100
AcDbEntity
  8
DEFPOINTS
 62
     0
100
AcDbPoint
 10
401.435495121
 20
129.1184646634
 30
0.0
  0
POINT
  5
1DA7
330
C62
100
AcDbEntity
  8
DEFPOINTS
 62
     0
100
AcDbPoint
 10
428.435502121
 20
138.1184646634
 30
0.0
  0
POINT
  5
1DA8
330
C62
100
AcDbEntity
  8
DEFPOINTS
 62
     0
100
AcDbPoint
 10
428.435502121
 20
199.0080476502
 30
0.0
  0
ENDBLK
  5
C6D
330
C62
100
AcDbEntity
  8
0
100
AcDbBlockEnd
  0
BLOCK
  5
C78
330
C6E
100
AcDbEntity
  8
0
100
AcDbBlockBegin
  2
*D16
 70
     1
 10
0.0
 20
0.0
 30
0.0
  3
*D16
  1

  0
POINT
  5
1748
330
C6E
100
AcDbEntity
  8
DEFPOINTS
 62
     0
100
AcDbPoint
 10
354.435499121
 20
200.3059706634
 30
0.0
  0
POINT
  5
1749
330
C6E
100
AcDbEntity
  8
DEFPOINTS
 62
     0
100
AcDbPoint
 10
428.435502121
 20
138.1184646634
 30
0.0
  0
POINT
  5
174A
330
C6E
100
AcDbEntity
  8
DEFPOINTS
 62
     0
100
AcDbPoint
 10
428.435502121
 20
222.8548750878
 30
0.0
  0
ENDBLK
  5
C79
330
C6E
100
AcDbEntity
  8
0
100
AcDbBlockEnd
  0
BLOCK
  5
C84
330
C7A
100
AcDbEntity
  8
0
100
AcDbBlockBegin
  2
*D17
 70
     1
 10
0.0
 20
0.0
 30
0.0
  3
*D17
  1

  0
POINT
  5
1D9D
330
C7A
100
AcDbEntity
  8
DEFPOINTS
 62
     0
100
AcDbPoint
 10
398.435495121
 20
139.1184646634
 30
0.0
  0
POINT
  5
1D9E
330
C7A
100
AcDbEntity
  8
DEFPOINTS
 62
     0
100
AcDbPoint
 10
428.435502121
 20
138.1184646634
 30
0.0
  0
POINT
  5
1D9F
330
C7A
100
AcDbEntity
  8
DEFPOINTS
 62
     0
100
AcDbPoint
 10
428.435502121
 20
210.918198752
 30
0.0
  0
ENDBLK
  5
C85
330
C7A
100
AcDbEntity
  8
0
100
AcDbBlockEnd
  0
BLOCK
  5
169F
330
1695
100
AcDbEntity
  8
0
100
AcDbBlockBegin
  2
*D20
 70
     1
 10
0.0
 20
0.0
 30
0.0
  3
*D20
  1

  0
POINT
  5
170B
330
1695
100
AcDbEntity
  8
DEFPOINTS
 62
     0
100
AcDbPoint
 10
55.4653902199
 20
193.9184706634
 30
0.0
  0
POINT
  5
170C
330
1695
100
AcDbEntity
  8
DEFPOINTS
 62
     0
100
AcDbPoint
 10
43.9653982199
 20
138.4184556634
 30
0.0
  0
POINT
  5
170D
330
1695
100
AcDbEntity
  8
DEFPOINTS
 62
     0
100
AcDbPoint
 10
43.9653982199
 20
210.918198752
 30
0.0
  0
ENDBLK
  5
16A0
330
1695
100
AcDbEntity
  8
0
100
AcDbBlockEnd
  0
BLOCK
  5
16AB
330
16A1
100
AcDbEntity
  8
0
100
AcDbBlockBegin
  2
*D21
 70
     1
 10
0.0
 20
0.0
 30
0.0
  3
*D21
  1

  0
POINT
  5
16D4
330
16A1
100
AcDbEntity
  8
DEFPOINTS
 62
     0
100
AcDbPoint
 10
55.4653902199
 20
193.9184706634
 30
0.0
  0
POINT
  5
16D5
330
16A1
100
AcDbEntity
  8
DEFPOINTS
 62
     0
100
AcDbPoint
 10
105.4653972199
 20
193.9184706634
 30
0.0
  0
POINT
  5
16D6
330
16A1
100
AcDbEntity
  8
DEFPOINTS
 62
     0
100
AcDbPoint
 10
105.4653972199
 20
210.918198752
 30
0.0
  0
ENDBLK
  5
16AC
330
16A1
100
AcDbEntity
  8
0
100
AcDbBlockEnd
  0
BLOCK
  5
16B7
330
16AD
100
AcDbEntity
  8
0
100
AcDbBlockBegin
  2
*D22
 70
     1
 10
0.0
 20
0.0
 30
0.0
  3
*D22
  1

  0
POINT
  5
16DD
330
16AD
100
AcDbEntity
  8
DEFPOINTS
 62
     0
100
AcDbPoint
 10
54.5903902199
 20
167.4184556634
 30
0.0
  0
POINT
  5
16DE
330
16AD
100
AcDbEntity
  8
DEFPOINTS
 62
     0
100
AcDbPoint
 10
54.5903902199
 20
188.4184556634
 30
0.0
  0
POINT
  5
16DF
330
16AD
100
AcDbEntity
  8
DEFPOINTS
 62
     0
100
AcDbPoint
 10
30.7709448926
 20
188.4184556634
 30
0.0
  0
ENDBLK
  5
16B8
330
16AD
100
AcDbEntity
  8
0
100
AcDbBlockEnd
  0
BLOCK
  5
16C3
330
16B9
100
AcDbEntity
  8
0
100
AcDbBlockBegin
  2
*D23
 70
     1
 10
0.0
 20
0.0
 30
0.0
  3
*D23
  1

  0
POINT
  5
16E6
330
16B9
100
AcDbEntity
  8
DEFPOINTS
 62
     0
100
AcDbPoint
 10
104.4653972199
 20
194.9184706634
 30
0.0
  0
POINT
  5
16E7
330
16B9
100
AcDbEntity
  8
DEFPOINTS
 62
     0
100
AcDbPoint
 10
102.9653972199
 20
148.4184556634
 30
0.0
  0
POINT
  5
16E8
330
16B9
100
AcDbEntity
  8
DEFPOINTS
 62
     0
100
AcDbPoint
 10
121.2668227171
 20
148.4184556634
 30
0.0
  0
ENDBLK
  5
16C4
330
16B9
100
AcDbEntity
  8
0
100
AcDbBlockEnd
  0
ENDSEC
  0
SECTION
  2
ENTITIES
  0
LINE
  5
60D
330
2
100
AcDbEntity
  8
CENTER
100
AcDbLine
 10
36.9654052199
 20
326.3380702907
 30
0.0
 11
243.708488318
 21
326.3380702907
 31
0.0
  0
LINE
  5
60E
330
2
100
AcDbEntity
  8
CENTER
100
AcDbLine
 10
299.435499121
 20
103.4184556634
 30
0.0
 11
406.435499121
 21
103.4184556634
 31
0.0
  0
LINE
  5
60F
330
2
100
AcDbEntity
  8
0
100
AcDbLine
 10
328.435518121
 20
58.4184566634
 30
0.0
 11
380.435491121
 21
58.4184566634
 31
0.0
  0
LINE
  5
610
330
2
100
AcDbEntity
  8
0
100
AcDbLine
 10
389.497488121
 20
84.6184566634
 30
0.0
 11
319.435520121
 21
84.6184566634
 31
0.0
  0
LINE
  5
611
330
2
100
AcDbEntity
  8
0
100
AcDbLine
 10
389.497488121
 20
143.6184526634
 30
0.0
 11
319.435520121
 21
143.6184526634
 31
0.0
  0
LINE
  5
612
330
2
100
AcDbEntity
  8
0
100
AcDbLine
 10
388.487859121
 20
61.0670066634
 30
0.0
 11
318.400579121
 21
59.8433766634
 31
0.0
  0
LINE
  5
613
330
2
100
AcDbEntity
  8
0
100
AcDbLine
 10
388.487836121
 20
167.1698976634
 30
0.0
 11
318.400609121
 21
168.3929886634
 31
0.0
  0
LINE
  5
614
330
2
100
AcDbEntity
  8
CENTER
100
AcDbLine
 10
299.435499121
 20
129.1184526634
 30
0.0
 11
435.435506121
 21
129.1184526634
 31
0.0
  0
LINE
  5
615
330
2
100
AcDbEntity
  8
0
100
AcDbLine
 10
306.435499121
 20
173.1184526634
 30
0.0
 11
306.435499121
 21
55.1184566634
 31
0.0
  0
LINE
  5
616
330
2
100
AcDbEntity
  8
CENTER
100
AcDbLine
 10
354.435499121
 20
51.4184566634
 30
0.0
 11
354.435499121
 21
200.3059706634
 31
0.0
  0
ARC
  5
618
330
2
100
AcDbEntity
  8
0
100
AcDbCircle
 10
314.900850121
 20
57.1184566634
 30
0.0
 40
2.0
100
AcDbArc
 50
270.0
 51
345.000092
  0
ARC
  5
619
330
2
100
AcDbEntity
  8
0
100
AcDbCircle
 10
314.935499121
 20
56.6184566634
 30
0.0
 40
1.5
100
AcDbArc
 50
270.0
 51
0.0
  0
LINE
  5
61A
330
2
100
AcDbEntity
  8
0
100
AcDbLine
 10
314.900850121
 20
55.1184566634
 30
0.0
 11
306.435499121
 21
55.1184566634
 31
0.0
  0
LINE
  5
61B
330
2
100
AcDbEntity
  8
0
100
AcDbLine
 10
316.435499121
 20
81.6184686634
 30
0.0
 11
316.435499121
 21
56.6184566634
 31
0.0
  0
LINE
  5
61C
330
2
100
AcDbEntity
  8
HIDS
100
AcDbLine
 10
306.435499121
 20
59.8684566634
 30
0.0
 11
316.435499121
 21
59.8684566634
 31
0.0
  0
LINE
  5
61D
330
2
100
AcDbEntity
  8
HIDS
100
AcDbLine
 10
306.435499121
 20
68.3684566634
 30
0.0
 11
316.435499121
 21
68.3684566634
 31
0.0
  0
LINE
  5
61E
330
2
100
AcDbEntity
  8
CENTER
100
AcDbLine
 10
302.935499121
 20
64.1184566634
 30
0.0
 11
319.935499121
 21
64.1184566634
 31
0.0
  0
ARC
  5
61F
330
2
100
AcDbEntity
  8
0
100
AcDbCircle
 10
320.010938121
 20
56.8710366634
 30
0.0
 40
3.0
100
AcDbArc
 50
91.000526
 51
165.000198
  0
ARC
  5
620
330
2
100
AcDbEntity
  8
0
100
AcDbCircle
 10
318.435508121
 20
57.8436866634
 30
0.0
 40
2.0
100
AcDbArc
 50
91.000633
 51
180.0
  0
LINE
  5
621
330
2
100
AcDbEntity
  8
0
100
AcDbLine
 10
316.832698121
 20
56.6008166634
 30
0.0
 11
317.113149121
 21
57.6474766634
 31
0.0
  0
ARC
  5
622
330
2
100
AcDbEntity
  8
0
100
AcDbCircle
 10
328.435499121
 20
61.4184566634
 30
0.0
 40
3.0
100
AcDbArc
 50
208.811905
 51
270.0
  0
ARC
  5
623
330
2
100
AcDbEntity
  8
0
100
AcDbCircle
 10
319.435520121
 20
81.6184756634
 30
0.0
 40
3.0
100
AcDbArc
 50
90.0
 51
180.0
  0
LINE
  5
624
330
2
100
AcDbEntity
  8
0
100
AcDbLine
 10
316.435499121
 20
171.1184526634
 30
0.0
 11
316.435499121
 21
146.6184456634
 31
0.0
  0
ARC
  5
625
330
2
100
AcDbEntity
  8
0
100
AcDbCircle
 10
319.435499121
 20
146.6184526634
 30
0.0
 40
3.0
100
AcDbArc
 50
180.0
 51
270.0
  0
ARC
  5
626
330
2
100
AcDbEntity
  8
0
100
AcDbCircle
 10
314.900857121
 20
171.1184456634
 30
0.0
 40
2.0
100
AcDbArc
 50
15.0005
 51
90.0
  0
ARC
  5
627
330
2
100
AcDbEntity
  8
0
100
AcDbCircle
 10
314.435510121
 20
171.1184456634
 30
0.0
 40
2.0
100
AcDbArc
 50
0.0
 51
90.0
  0
LINE
  5
628
330
2
100
AcDbEntity
  8
HIDS
100
AcDbLine
 10
306.435499121
 20
168.3684526634
 30
0.0
 11
316.435499121
 21
168.3684526634
 31
0.0
  0
LINE
  5
629
330
2
100
AcDbEntity
  8
HIDS
100
AcDbLine
 10
306.435499121
 20
159.8684526634
 30
0.0
 11
316.435499121
 21
159.8684526634
 31
0.0
  0
LINE
  5
62A
330
2
100
AcDbEntity
  8
CENTER
100
AcDbLine
 10
302.935499121
 20
164.1184526634
 30
0.0
 11
319.935499121
 21
164.1184526634
 31
0.0
  0
LINE
  5
62B
330
2
100
AcDbEntity
  8
0
100
AcDbLine
 10
314.900850121
 20
173.1184526634
 30
0.0
 11
306.435499121
 21
173.1184526634
 31
0.0
  0
ARC
  5
62C
330
2
100
AcDbEntity
  8
0
100
AcDbCircle
 10
320.011058121
 20
171.3653556634
 30
0.0
 40
3.0
100
AcDbArc
 50
195.000504
 51
269.00061
  0
ARC
  5
62D
330
2
100
AcDbEntity
  8
0
100
AcDbCircle
 10
318.435480121
 20
170.3926996634
 30
0.0
 40
2.0
100
AcDbArc
 50
180.0
 51
269.00061
  0
LINE
  5
62E
330
2
100
AcDbEntity
  8
0
100
AcDbLine
 10
316.832698121
 20
171.6360996634
 30
0.0
 11
317.113309121
 21
170.5888666634
 31
0.0
  0
ARC
  5
62F
330
2
100
AcDbEntity
  8
0
100
AcDbCircle
 10
354.435499121
 20
103.4184556634
 30
0.0
 40
45.0
100
AcDbArc
 50
325.307892
 51
20.459709
  0
ARC
  5
630
330
2
100
AcDbEntity
  8
0
100
AcDbCircle
 10
393.435522121
 20
103.6184646634
 30
0.0
 40
2.0
100
AcDbArc
 50
90.0
 51
180.0
  0
LINE
  5
631
330
2
100
AcDbEntity
  8
0
100
AcDbLine
 10
391.435499121
 20
164.1703326634
 30
0.0
 11
391.435499121
 21
64.0665366634
 31
0.0
  0
ARC
  5
632
330
2
100
AcDbEntity
  8
0
100
AcDbCircle
 10
380.435499121
 20
61.4184566634
 30
0.0
 40
3.0
100
AcDbArc
 50
270.0
 51
351.56189
  0
ARC
  5
633
330
2
100
AcDbEntity
  8
0
100
AcDbCircle
 10
388.435499121
 20
64.0665366634
 30
0.0
 40
3.0
100
AcDbArc
 50
271.000313
 51
0.0
  0
ARC
  5
634
330
2
100
AcDbEntity
  8
0
100
AcDbCircle
 10
395.435499121
 20
151.6184456634
 30
0.0
 40
1.0
100
AcDbArc
 50
0.0
 51
90.0
  0
LINE
  5
635
330
2
100
AcDbEntity
  8
0
100
AcDbLine
 10
398.435499121
 20
120.1184526634
 30
0.0
 11
428.435506121
 21
120.1184526634
 31
0.0
  0
LINE
  5
636
330
2
100
AcDbEntity
  8
0
100
AcDbLine
 10
398.435499121
 20
138.1184526634
 30
0.0
 11
428.435506121
 21
138.1184526634
 31
0.0
  0
LINE
  5
637
330
2
100
AcDbEntity
  8
0
100
AcDbLine
 10
398.435499121
 20
139.1184526634
 30
0.0
 11
398.435499121
 21
119.1184526634
 31
0.0
  0
LINE
  5
638
330
2
100
AcDbEntity
  8
0
100
AcDbLine
 10
396.435499121
 20
151.6184456634
 30
0.0
 11
396.435499121
 21
106.6184496634
 31
0.0
  0
ARC
  5
639
330
2
100
AcDbEntity
  8
0
100
AcDbCircle
 10
395.435499121
 20
106.6184526634
 30
0.0
 40
1.0
100
AcDbArc
 50
270.0
 51
0.0
  0
LINE
  5
63A
330
2
100
AcDbEntity
  8
0
100
AcDbLine
 10
393.435522121
 20
105.6184526634
 30
0.0
 11
395.435499121
 21
105.6184526634
 31
0.0
  0
LINE
  5
63B
330
2
100
AcDbEntity
  8
0
100
AcDbLine
 10
396.435499121
 20
119.1184526634
 30
0.0
 11
398.435499121
 21
119.1184526634
 31
0.0
  0
LINE
  5
63C
330
2
100
AcDbEntity
  8
0
100
AcDbLine
 10
396.435499121
 20
139.1184526634
 30
0.0
 11
398.435499121
 21
139.1184526634
 31
0.0
  0
ARC
  5
63D
330
2
100
AcDbEntity
  8
0
100
AcDbCircle
 10
404.435499121
 20
129.1184526634
 30
0.0
 40
3.0
100
AcDbArc
 50
90.0
 51
270.0
  0
LINE
  5
63E
330
2
100
AcDbEntity
  8
0
100
AcDbLine
 10
428.435506121
 20
120.1184526634
 30
0.0
 11
428.435506121
 21
138.1184526634
 31
0.0
  0
LINE
  5
63F
330
2
100
AcDbEntity
  8
0
100
AcDbLine
 10
404.435522121
 20
126.1184526634
 30
0.0
 11
428.435506121
 21
126.1184526634
 31
0.0
  0
LINE
  5
640
330
2
100
AcDbEntity
  8
0
100
AcDbLine
 10
404.435499121
 20
132.1184526634
 30
0.0
 11
428.435506121
 21
132.1184526634
 31
0.0
  0
ARC
  5
641
330
2
100
AcDbEntity
  8
0
100
AcDbCircle
 10
393.435499121
 20
154.6184526634
 30
0.0
 40
2.0
100
AcDbArc
 50
180.0
 51
270.0
  0
LINE
  5
642
330
2
100
AcDbEntity
  8
0
100
AcDbLine
 10
393.435522121
 20
152.6184526634
 30
0.0
 11
395.435499121
 21
152.6184526634
 31
0.0
  0
ARC
  5
643
330
2
100
AcDbEntity
  8
0
100
AcDbCircle
 10
388.435522121
 20
164.1703326634
 30
0.0
 40
3.0
100
AcDbArc
 50
0.0
 51
89.000359
  0
LINE
  5
645
330
2
100
AcDbEntity
  8
0
100
AcDbLine
 10
656.5430011232
 20
69.0091466634
 30
0.0
 11
585.5430011232
 21
69.0091466634
 31
0.0
  0
LINE
  5
646
330
2
100
AcDbEntity
  8
0
100
AcDbLine
 10
656.5430011232
 20
137.8277576634
 30
0.0
 11
586.0430011232
 21
137.8277576634
 31
0.0
  0
LINE
  5
647
330
2
100
AcDbEntity
  8
0
100
AcDbLine
 10
586.0430011232
 20
58.4184566634
 30
0.0
 11
656.5430011232
 21
58.4184566634
 31
0.0
  0
LINE
  5
648
330
2
100
AcDbEntity
  8
0
100
AcDbLine
 10
656.5430011232
 20
148.4184556634
 30
0.0
 11
577.2003801232
 21
148.4184556634
 31
0.0
  0
LINE
  5
649
330
2
100
AcDbEntity
  8
CENTER
100
AcDbLine
 10
684.0430011232
 20
103.4184556634
 30
0.0
 11
564.9479091232
 21
103.4184556634
 31
0.0
  0
LINE
  5
64A
330
2
100
AcDbEntity
  8
0
100
AcDbLine
 10
584.0430011232
 20
141.0183476634
 30
0.0
 11
584.0430011232
 21
68.4184866634
 31
0.0
  0
LINE
  5
64B
330
2
100
AcDbEntity
  8
CENTER
100
AcDbLine
 10
533.5430011232
 20
180.1184526634
 30
0.0
 11
533.5430011232
 21
48.1184566634
 31
0.0
  0
LINE
  5
64C
330
2
100
AcDbEntity
  8
0
100
AcDbLine
 10
483.0430011232
 20
84.6184566634
 30
0.0
 11
483.0430011232
 21
143.6184526634
 31
0.0
  0
LINE
  5
64D
330
2
100
AcDbEntity
  8
0
100
AcDbLine
 10
548.9640831232
 20
61.1184566634
 30
0.0
 11
518.1218891232
 21
61.1184566634
 31
0.0
  0
LINE
  5
64E
330
2
100
AcDbEntity
  8
0
100
AcDbLine
 10
573.5430011232
 20
55.1184566634
 30
0.0
 11
493.5430011232
 21
55.1184566634
 31
0.0
  0
ARC
  5
64F
330
2
100
AcDbEntity
  8
0
100
AcDbCircle
 10
493.5430011232
 20
64.1184566634
 30
0.0
 40
9.0
100
AcDbArc
 50
184.120102
 51
270.0
  0
LINE
  5
650
330
2
100
AcDbEntity
  8
0
100
AcDbLine
 10
515.2503991232
 20
62.0251766634
 30
0.0
 11
483.0430011232
 21
84.6184566634
 31
0.0
  0
LINE
  5
651
330
2
100
AcDbEntity
  8
0
100
AcDbLine
 10
484.5663011232
 20
63.4718966634
 30
0.0
 11
483.0430011232
 21
84.6184566634
 31
0.0
  0
LINE
  5
652
330
2
100
AcDbEntity
  8
CENTER
100
AcDbLine
 10
500.5430011232
 20
64.1184566634
 30
0.0
 11
486.6680011232
 21
64.1184566634
 31
0.0
  0
CIRCLE
  5
653
330
2
100
AcDbEntity
  8
0
100
AcDbCircle
 10
493.5430011232
 20
64.1184566634
 30
0.0
 40
4.25
  0
LINE
  5
654
330
2
100
AcDbEntity
  8
CENTER
100
AcDbLine
 10
493.5430011232
 20
70.8184576634
 30
0.0
 11
493.5430011232
 21
57.3184566634
 31
0.0
  0
ARC
  5
655
330
2
100
AcDbEntity
  8
0
100
AcDbCircle
 10
518.1218891232
 20
66.1184566634
 30
0.0
 40
5.0
100
AcDbArc
 50
234.9505
 51
270.0
  0
ARC
  5
684
330
2
100
AcDbEntity
  8
0
100
AcDbCircle
 10
573.5430011232
 20
64.1184566634
 30
0.0
 40
9.0
100
AcDbArc
 50
270.0
 51
355.879913
  0
LINE
  5
685
330
2
100
AcDbEntity
  8
0
100
AcDbLine
 10
569.6558861232
 20
73.4184556634
 30
0.0
 11
579.0430011232
 21
73.4184556634
 31
0.0
  0
CIRCLE
  5
686
330
2
100
AcDbEntity
  8
0
100
AcDbCircle
 10
573.5430011232
 20
64.1184566634
 30
0.0
 40
4.25
  0
LINE
  5
687
330
2
100
AcDbEntity
  8
CENTER
100
AcDbLine
 10
566.5430011232
 20
64.1184566634
 30
0.0
 11
580.4180011232
 21
64.1184566634
 31
0.0
  0
LINE
  5
688
330
2
100
AcDbEntity
  8
0
100
AcDbLine
 10
551.8356041232
 20
62.0251666634
 30
0.0
 11
566.7844871232
 21
72.5117276634
 31
0.0
  0
ARC
  5
689
330
2
100
AcDbEntity
  8
0
100
AcDbCircle
 10
548.9640831232
 20
66.1184566634
 30
0.0
 40
5.0
100
AcDbArc
 50
270.0
 51
305.049591
  0
LINE
  5
68A
330
2
100
AcDbEntity
  8
CENTER
100
AcDbLine
 10
573.5430011232
 20
70.8184576634
 30
0.0
 11
573.5430011232
 21
57.3184566634
 31
0.0
  0
ARC
  5
68B
330
2
100
AcDbEntity
  8
0
100
AcDbCircle
 10
569.6558861232
 20
68.4184676634
 30
0.0
 40
5.0
100
AcDbArc
 50
90.0
 51
125.049698
  0
LINE
  5
6A3
330
2
100
AcDbEntity
  8
0
100
AcDbLine
 10
584.0430011232
 20
60.4184566634
 30
0.0
 11
584.0430011232
 21
68.4184866634
 31
0.0
  0
LINE
  5
6A4
330
2
100
AcDbEntity
  8
0
100
AcDbLine
 10
582.5196861232
 20
63.4718966634
 30
0.0
 11
583.0878011232
 21
71.3577776634
 31
0.0
  0
ARC
  5
6A5
330
2
100
AcDbEntity
  8
0
100
AcDbCircle
 10
586.0430011232
 20
60.4184566634
 30
0.0
 40
2.0
100
AcDbArc
 50
180.0
 51
270.0
  0
ARC
  5
6A6
330
2
100
AcDbEntity
  8
0
100
AcDbCircle
 10
579.0430011232
 20
68.4184866634
 30
0.0
 40
5.0
100
AcDbArc
 50
0.0
 51
90.0
  0
ARC
  5
6A7
330
2
100
AcDbEntity
  8
0
100
AcDbCircle
 10
533.5430011232
 20
129.1184526634
 30
0.0
 40
9.0
100
AcDbArc
 50
199.471207
 51
160.528793
  0
LINE
  5
6A8
330
2
100
AcDbEntity
  8
0
100
AcDbLine
 10
518.1218891232
 20
167.1184526634
 30
0.0
 11
548.9640831232
 21
167.1184526634
 31
0.0
  0
CIRCLE
  5
6A9
330
2
100
AcDbEntity
  8
0
100
AcDbCircle
 10
533.5430011232
 20
129.1184526634
 30
0.0
 40
23.5
  0
LINE
  5
6AA
330
2
100
AcDbEntity
  8
0
100
AcDbLine
 10
573.5430011232
 20
173.1184526634
 30
0.0
 11
493.5430011232
 21
173.1184526634
 31
0.0
  0
LINE
  5
6AB
330
2
100
AcDbEntity
  8
CENTER
100
AcDbLine
 10
564.0430011232
 20
129.1184526634
 30
0.0
 11
503.0430011232
 21
129.1184526634
 31
0.0
  0
LINE
  5
6AC
330
2
100
AcDbEntity
  8
0
100
AcDbLine
 10
515.2504901232
 20
166.2117376634
 30
0.0
 11
483.0430011232
 21
143.6184526634
 31
0.0
  0
LINE
  5
6AD
330
2
100
AcDbEntity
  8
0
100
AcDbLine
 10
484.5663011232
 20
164.7650896634
 30
0.0
 11
483.0430011232
 21
143.6184526634
 31
0.0
  0
LINE
  5
6AE
330
2
100
AcDbEntity
  8
0
100
AcDbLine
 10
522.0430011232
 20
132.1184526634
 30
0.0
 11
522.0430011232
 21
126.1184526634
 31
0.0
  0
LINE
  5
6AF
330
2
100
AcDbEntity
  8
0
100
AcDbLine
 10
528.0430011232
 20
132.1184526634
 30
0.0
 11
528.0430011232
 21
126.1184526634
 31
0.0
  0
LINE
  5
6B0
330
2
100
AcDbEntity
  8
0
100
AcDbLine
 10
522.0430011232
 20
126.1184526634
 30
0.0
 11
528.0430011232
 21
126.1184526634
 31
0.0
  0
LINE
  5
6B1
330
2
100
AcDbEntity
  8
0
100
AcDbLine
 10
522.0430011232
 20
132.1184526634
 30
0.0
 11
528.0430011232
 21
132.1184526634
 31
0.0
  0
ARC
  5
6B2
330
2
100
AcDbEntity
  8
0
100
AcDbCircle
 10
493.5430011232
 20
164.1184526634
 30
0.0
 40
9.0
100
AcDbArc
 50
90.0
 51
175.879898
  0
LINE
  5
6B3
330
2
100
AcDbEntity
  8
CENTER
100
AcDbLine
 10
500.5430011232
 20
164.1184526634
 30
0.0
 11
486.6680011232
 21
164.1184526634
 31
0.0
  0
CIRCLE
  5
6B4
330
2
100
AcDbEntity
  8
0
100
AcDbCircle
 10
493.5430011232
 20
164.1184526634
 30
0.0
 40
4.25
  0
LINE
  5
6B5
330
2
100
AcDbEntity
  8
CENTER
100
AcDbLine
 10
493.5430011232
 20
157.4184556634
 30
0.0
 11
493.5430011232
 21
170.9184556634
 31
0.0
  0
ARC
  5
6B6
330
2
100
AcDbEntity
  8
0
100
AcDbCircle
 10
518.1218891232
 20
162.1184526634
 30
0.0
 40
5.0
100
AcDbArc
 50
90.0
 51
125.0495
  0
LINE
  5
6B7
330
2
100
AcDbEntity
  8
0
100
AcDbLine
 10
551.8356041232
 20
166.2117456634
 30
0.0
 11
581.9144001232
 21
145.1116476634
 31
0.0
  0
LINE
  5
6B8
330
2
100
AcDbEntity
  8
0
100
AcDbLine
 10
582.5196861232
 20
164.7650896634
 30
0.0
 11
583.6972071232
 21
148.4184556634
 31
0.0
  0
ARC
  5
6B9
330
2
100
AcDbEntity
  8
0
100
AcDbCircle
 10
579.0430011232
 20
141.0183476634
 30
0.0
 40
5.0
100
AcDbArc
 50
0.0
 51
54.950691
  0
ARC
  5
6BA
330
2
100
AcDbEntity
  8
0
100
AcDbCircle
 10
573.5430011232
 20
164.1184526634
 30
0.0
 40
9.0
100
AcDbArc
 50
4.120102
 51
90.0
  0
CIRCLE
  5
6BB
330
2
100
AcDbEntity
  8
0
100
AcDbCircle
 10
573.5430011232
 20
164.1184526634
 30
0.0
 40
4.25
  0
LINE
  5
6BC
330
2
100
AcDbEntity
  8
CENTER
100
AcDbLine
 10
566.5430011232
 20
164.1184526634
 30
0.0
 11
580.4180011232
 21
164.1184526634
 31
0.0
  0
ARC
  5
6BD
330
2
100
AcDbEntity
  8
0
100
AcDbCircle
 10
548.9642051232
 20
162.1184526634
 30
0.0
 40
5.0
100
AcDbArc
 50
54.95071
 51
90.0
  0
LINE
  5
6BE
330
2
100
AcDbEntity
  8
CENTER
100
AcDbLine
 10
573.5430011232
 20
157.4184556634
 30
0.0
 11
573.5430011232
 21
170.9184556634
 31
0.0
  0
LINE
  5
6BF
330
2
100
AcDbEntity
  8
0
100
AcDbLine
 10
676.5430011232
 20
145.4184556634
 30
0.0
 11
676.5430011232
 21
61.4184566634
 31
0.0
  0
LINE
  5
6C0
330
2
100
AcDbEntity
  8
0
100
AcDbLine
 10
677.0430011232
 20
68.4184556634
 30
0.0
 11
677.0430011232
 21
138.4184556634
 31
0.0
  0
LINE
  5
6C1
330
2
100
AcDbEntity
  8
0
100
AcDbLine
 10
656.5430011232
 20
58.4184566634
 30
0.0
 11
656.5430011232
 21
148.4184556634
 31
0.0
  0
ARC
  5
6C2
330
2
100
AcDbEntity
  8
0
100
AcDbCircle
 10
677.0430011232
 20
67.9184556634
 30
0.0
 40
0.5
100
AcDbArc
 50
90.0
 51
180.0
  0
LINE
  5
6C3
330
2
100
AcDbEntity
  8
0
100
AcDbLine
 10
656.5430011232
 20
69.0091566634
 30
0.0
 11
674.7930011232
 21
69.0091566634
 31
0.0
  0
LINE
  5
6C4
330
2
100
AcDbEntity
  8
0
100
AcDbLine
 10
672.5015891232
 20
58.4184566634
 30
0.0
 11
656.5430011232
 21
58.4184566634
 31
0.0
  0
ARC
  5
6C5
330
2
100
AcDbEntity
  8
0
100
AcDbCircle
 10
672.5014971232
 20
62.4184466634
 30
0.0
 40
4.0
100
AcDbArc
 50
270.0
 51
330.000397
  0
LINE
  5
6C6
330
2
100
AcDbEntity
  8
0
100
AcDbLine
 10
675.9656091232
 20
60.4184666634
 30
0.0
 11
676.5430011232
 21
61.4184566634
 31
0.0
  0
ARC
  5
6C7
330
2
100
AcDbEntity
  8
0
100
AcDbCircle
 10
677.0430011232
 20
138.9184556634
 30
0.0
 40
0.5
100
AcDbArc
 50
180.0
 51
270.0
  0
LINE
  5
6CD
330
2
100
AcDbEntity
  8
0
100
AcDbLine
 10
656.5430011232
 20
137.8277576634
 30
0.0
 11
674.7930011232
 21
137.8277576634
 31
0.0
  0
LINE
  5
6CE
330
2
100
AcDbEntity
  8
0
100
AcDbLine
 10
672.5015891232
 20
148.4184556634
 30
0.0
 11
656.5430011232
 21
148.4184556634
 31
0.0
  0
LINE
  5
6D1
330
2
100
AcDbEntity
  8
0
100
AcDbLine
 10
675.9656091232
 20
146.4184486634
 30
0.0
 11
676.5430011232
 21
145.4184556634
 31
0.0
  0
ARC
  5
6D2
330
2
100
AcDbEntity
  8
0
100
AcDbCircle
 10
672.5014971232
 20
144.4184636634
 30
0.0
 40
4.0
100
AcDbArc
 50
29.999599
 51
90.0
  0
LINE
  5
6D6
330
2
100
AcDbEntity
  8
0
100
AcDbLine
 10
134.9385492199
 20
281.3380852907
 30
0.0
 11
64.4654052199
 21
281.3380852907
 31
0.0
  0
LINE
  5
6D7
330
2
100
AcDbEntity
  8
0
100
AcDbLine
 10
64.4654052199
 20
297.3380852907
 30
0.0
 11
135.0822872199
 21
297.3380852907
 31
0.0
  0
LINE
  5
6D8
330
2
100
AcDbEntity
  8
0
100
AcDbLine
 10
64.4654052199
 20
355.3380702907
 30
0.0
 11
143.8079642199
 21
355.3380702907
 31
0.0
  0
LINE
  5
6D9
330
2
100
AcDbEntity
  8
0
100
AcDbLine
 10
134.8075982199
 20
371.3380702907
 30
0.0
 11
64.4654052199
 21
371.3380702907
 31
0.0
  0
LINE
  5
6DA
330
2
100
AcDbEntity
  8
0
100
AcDbLine
 10
235.7906152199
 20
361.3904232907
 30
0.0
 11
237.9654052199
 21
278.3380852907
 31
0.0
  0
LINE
  5
6DB
330
2
100
AcDbEntity
  8
0
100
AcDbLine
 10
143.8079642199
 20
353.3380702907
 30
0.0
 11
143.8079642199
 21
289.8730592907
 31
0.0
  0
LINE
  5
6DC
330
2
100
AcDbEntity
  8
0
100
AcDbLine
 10
204.4654052199
 20
358.3380702907
 30
0.0
 11
204.4654052199
 21
290.3380852907
 31
0.0
  0
LINE
  5
6DD
330
2
100
AcDbEntity
  8
0
100
AcDbLine
 10
170.4654052199
 20
358.3380702907
 30
0.0
 11
170.4654052199
 21
290.3380852907
 31
0.0
  0
LINE
  5
6DE
330
2
100
AcDbEntity
  8
0
100
AcDbLine
 10
135.7084772199
 20
326.3380702907
 30
0.0
 11
136.9654052199
 21
278.3380852907
 31
0.0
  0
LINE
  5
6DF
330
2
100
AcDbEntity
  8
CENTER
100
AcDbLine
 10
187.4654052199
 20
407.3380702907
 30
0.0
 11
187.4654052199
 21
271.3380852907
 31
0.0
  0
LINE
  5
6E0
330
2
100
AcDbEntity
  8
0
100
AcDbLine
 10
177.4654052199
 20
370.3380702907
 30
0.0
 11
197.4654052199
 21
370.3380702907
 31
0.0
  0
LINE
  5
6E1
330
2
100
AcDbEntity
  8
0
100
AcDbLine
 10
198.9654052199
 20
400.3380702907
 30
0.0
 11
178.4654052199
 21
400.3380702907
 31
0.0
  0
LINE
  5
6E2
330
2
100
AcDbEntity
  8
0
100
AcDbLine
 10
209.9654202199
 20
368.3380702907
 30
0.0
 11
164.9654052199
 21
368.3380702907
 31
0.0
  0
LINE
  5
6E3
330
2
100
AcDbEntity
  8
0
100
AcDbLine
 10
233.7913022199
 20
363.3380702907
 30
0.0
 11
138.9137382199
 21
363.3380702907
 31
0.0
  0
ARC
  5
6E4
330
2
100
AcDbEntity
  8
0
100
AcDbCircle
 10
209.9654202199
 20
367.3380702907
 30
0.0
 40
1.0
100
AcDbArc
 50
0.0
 51
90.0
  0
LINE
  5
6E5
330
2
100
AcDbEntity
  8
0
100
AcDbLine
 10
195.9504212199
 20
400.3380702907
 30
0.0
 11
195.9504212199
 21
373.3380702907
 31
0.0
  0
LINE
  5
6E6
330
2
100
AcDbEntity
  8
0
100
AcDbLine
 10
198.9654052199
 20
400.3380702907
 30
0.0
 11
198.9654052199
 21
373.3380702907
 31
0.0
  0
LINE
  5
6E7
330
2
100
AcDbEntity
  8
0
100
AcDbLine
 10
198.9654052199
 20
373.3380702907
 30
0.0
 11
195.9504212199
 21
373.3380702907
 31
0.0
  0
LINE
  5
6E8
330
2
100
AcDbEntity
  8
0
100
AcDbLine
 10
197.4654052199
 20
368.3380702907
 30
0.0
 11
197.4654052199
 21
370.3380702907
 31
0.0
  0
LINE
  5
6E9
330
2
100
AcDbEntity
  8
0
100
AcDbLine
 10
196.4654052199
 20
370.3380702907
 30
0.0
 11
196.4654052199
 21
373.3380702907
 31
0.0
  0
ARC
  5
6EA
330
2
100
AcDbEntity
  8
0
100
AcDbCircle
 10
233.7913022199
 20
361.3380702907
 30
0.0
 40
2.0
100
AcDbArc
 50
1.5
 51
90.0
  0
ARC
  5
6EB
330
2
100
AcDbEntity
  8
0
100
AcDbCircle
 10
212.9654052199
 20
365.3380702907
 30
0.0
 40
2.0
100
AcDbArc
 50
180.0
 51
270.0
  0
LINE
  5
6EC
330
2
100
AcDbEntity
  8
0
100
AcDbLine
 10
210.9654202199
 20
367.3380702907
 30
0.0
 11
210.9654202199
 21
365.3380702907
 31
0.0
  0
LINE
  5
6ED
330
2
100
AcDbEntity
  8
0
100
AcDbLine
 10
136.8069272199
 20
369.3904232907
 30
0.0
 11
136.9144102199
 21
365.2857172907
 31
0.0
  0
ARC
  5
6EE
330
2
100
AcDbEntity
  8
0
100
AcDbCircle
 10
164.9654352199
 20
367.3380702907
 30
0.0
 40
1.0
100
AcDbArc
 50
90.0
 51
180.0
  0
LINE
  5
6EF
330
2
100
AcDbEntity
  8
0
100
AcDbLine
 10
178.4654052199
 20
370.3380702907
 30
0.0
 11
178.4654052199
 21
400.3380702907
 31
0.0
  0
LINE
  5
6F0
330
2
100
AcDbEntity
  8
0
100
AcDbLine
 10
177.4654052199
 20
368.3380702907
 30
0.0
 11
177.4654052199
 21
370.3380702907
 31
0.0
  0
ARC
  5
6F1
330
2
100
AcDbEntity
  8
0
100
AcDbCircle
 10
134.8075982199
 20
369.3380702907
 30
0.0
 40
2.0
100
AcDbArc
 50
1.5
 51
90.0
  0
ARC
  5
6F2
330
2
100
AcDbEntity
  8
0
100
AcDbCircle
 10
161.9654052199
 20
365.3380702907
 30
0.0
 40
2.0
100
AcDbArc
 50
270.0
 51
0.0
  0
LINE
  5
6F3
330
2
100
AcDbEntity
  8
0
100
AcDbLine
 10
163.9654052199
 20
367.3380702907
 30
0.0
 11
163.9654052199
 21
365.3380702907
 31
0.0
  0
LINE
  5
6F4
330
2
100
AcDbEntity
  8
0
100
AcDbLine
 10
136.7559932199
 20
355.3408172907
 30
0.0
 11
136.9144102199
 21
361.3904232907
 31
0.0
  0
ARC
  5
6F5
330
2
100
AcDbEntity
  8
0
100
AcDbCircle
 10
138.9137382199
 20
361.3380702907
 30
0.0
 40
2.0
100
AcDbArc
 50
90.0
 51
178.5
  0
ARC
  5
6F6
330
2
100
AcDbEntity
  8
0
100
AcDbCircle
 10
138.9137382199
 20
365.3380702907
 30
0.0
 40
2.0
100
AcDbArc
 50
181.5
 51
270.0
  0
LINE
  5
6F7
330
2
100
AcDbEntity
  8
0
100
AcDbLine
 10
170.3234672199
 20
289.5980652907
 30
0.0
 11
204.6073422199
 21
289.5980652907
 31
0.0
  0
LINE
  5
6F8
330
2
100
AcDbEntity
  8
0
100
AcDbLine
 10
138.7566032199
 20
288.3380852907
 30
0.0
 11
235.7552452199
 21
288.3380852907
 31
0.0
  0
LINE
  5
6F9
330
2
100
AcDbEntity
  8
0
100
AcDbLine
 10
136.9654052199
 20
278.3380852907
 30
0.0
 11
237.9654052199
 21
278.3380852907
 31
0.0
  0
LINE
  5
6FA
330
2
100
AcDbEntity
  8
CENTER
100
AcDbLine
 10
227.4654052199
 20
274.8380852907
 30
0.0
 11
227.4654052199
 21
291.8380852907
 31
0.0
  0
ARC
  5
6FB
330
2
100
AcDbEntity
  8
0
100
AcDbCircle
 10
235.7552452199
 20
286.3380852907
 30
0.0
 40
2.0
100
AcDbArc
 50
1.5
 51
90.0
  0
LINE
  5
6FC
330
2
100
AcDbEntity
  8
HIDS
100
AcDbLine
 10
223.2154052199
 20
288.3380852907
 30
0.0
 11
223.2154052199
 21
278.3380852907
 31
0.0
  0
LINE
  5
6FD
330
2
100
AcDbEntity
  8
HIDS
100
AcDbLine
 10
231.7154052199
 20
288.3380852907
 30
0.0
 11
231.7154052199
 21
278.3380852907
 31
0.0
  0
ARC
  5
6FE
330
2
100
AcDbEntity
  8
0
100
AcDbCircle
 10
206.4654052199
 20
290.3380852907
 30
0.0
 40
2.0
100
AcDbArc
 50
180.0
 51
270.0
  0
LINE
  5
6FF
330
2
100
AcDbEntity
  8
CENTER
100
AcDbLine
 10
147.4654052199
 20
274.8380852907
 30
0.0
 11
147.4654052199
 21
291.8380852907
 31
0.0
  0
ARC
  5
700
330
2
100
AcDbEntity
  8
0
100
AcDbCircle
 10
168.4654052199
 20
290.3380852907
 30
0.0
 40
2.0
100
AcDbArc
 50
270.0
 51
0.0
  0
LINE
  5
701
330
2
100
AcDbEntity
  8
HIDS
100
AcDbLine
 10
151.7154052199
 20
288.3380852907
 30
0.0
 11
151.7154052199
 21
278.3380852907
 31
0.0
  0
LINE
  5
702
330
2
100
AcDbEntity
  8
HIDS
100
AcDbLine
 10
143.2154052199
 20
288.3380852907
 30
0.0
 11
143.2154052199
 21
278.3380852907
 31
0.0
  0
ARC
  5
703
330
2
100
AcDbEntity
  8
0
100
AcDbCircle
 10
138.7566032199
 20
286.3380852907
 30
0.0
 40
2.0
100
AcDbArc
 50
90.0
 51
181.5
  0
ARC
  5
704
330
2
100
AcDbEntity
  8
0
100
AcDbCircle
 10
134.9385492199
 20
279.3380852907
 30
0.0
 40
2.0
100
AcDbArc
 50
1.5
 51
90.0
  0
LINE
  5
705
330
2
100
AcDbEntity
  8
0
100
AcDbLine
 10
64.4654052199
 20
281.3380852907
 30
0.0
 11
64.4654052199
 21
301.3380702907
 31
0.0
  0
LINE
  5
706
330
2
100
AcDbEntity
  8
0
100
AcDbLine
 10
44.4654052199
 20
368.3380702907
 30
0.0
 11
44.4654052199
 21
284.3380852907
 31
0.0
  0
LINE
  5
707
330
2
100
AcDbEntity
  8
0
100
AcDbLine
 10
43.9654052199
 20
291.3380852907
 30
0.0
 11
43.9654052199
 21
361.3380702907
 31
0.0
  0
ARC
  5
70A
330
2
100
AcDbEntity
  8
0
100
AcDbCircle
 10
43.9654052199
 20
361.8380702907
 30
0.0
 40
0.5
100
AcDbArc
 50
270.0
 51
0.0
  0
LINE
  5
70B
330
2
100
AcDbEntity
  8
0
100
AcDbLine
 10
64.4654052199
 20
351.3380702907
 30
0.0
 11
64.4654052199
 21
371.3380702907
 31
0.0
  0
LINE
  5
70C
330
2
100
AcDbEntity
  8
0
100
AcDbLine
 10
48.5068482199
 20
371.3380702907
 30
0.0
 11
64.4654052199
 21
371.3380702907
 31
0.0
  0
ARC
  5
70D
330
2
100
AcDbEntity
  8
0
100
AcDbCircle
 10
48.5068782199
 20
367.3380852907
 30
0.0
 40
4.0
100
AcDbArc
 50
90.0
 51
150.000397
  0
LINE
  5
70E
330
2
100
AcDbEntity
  8
0
100
AcDbLine
 10
45.0427672199
 20
369.3380552907
 30
0.0
 11
44.4654052199
 21
368.3380702907
 31
0.0
  0
LINE
  5
70F
330
2
100
AcDbEntity
  8
0
100
AcDbLine
 10
64.4654052199
 20
355.3380702907
 30
0.0
 11
46.2154052199
 21
355.3380702907
 31
0.0
  0
ARC
  5
71B
330
2
100
AcDbEntity
  8
0
100
AcDbCircle
 10
43.9654052199
 20
290.8380852907
 30
0.0
 40
0.5
100
AcDbArc
 50
0.0
 51
90.0
  0
LINE
  5
71C
330
2
100
AcDbEntity
  8
0
100
AcDbLine
 10
64.4654052199
 20
297.3380852907
 30
0.0
 11
46.2154052199
 21
297.3380852907
 31
0.0
  0
LINE
  5
71E
330
2
100
AcDbEntity
  8
0
100
AcDbLine
 10
48.5068482199
 20
281.3380852907
 30
0.0
 11
64.4654052199
 21
281.3380852907
 31
0.0
  0
LINE
  5
71F
330
2
100
AcDbEntity
  8
0
100
AcDbLine
 10
45.0427672199
 20
283.3380852907
 30
0.0
 11
44.4654052199
 21
284.3380852907
 31
0.0
  0
ARC
  5
720
330
2
100
AcDbEntity
  8
0
100
AcDbCircle
 10
48.5068782199
 20
285.3380552907
 30
0.0
 40
4.0
100
AcDbArc
 50
209.999599
 51
270.0
  0
ARC
  5
7CA
330
2
100
AcDbEntity
  8
HIDS
100
AcDbCircle
 10
187.4654052199
 20
129.1184526634
 30
0.0
 40
9.0
100
AcDbArc
 50
19.47121
 51
340.528809
  0
LINE
  5
7CB
330
2
100
AcDbEntity
  8
CENTER
100
AcDbLine
 10
156.9654052199
 20
129.1184526634
 30
0.0
 11
217.9654052199
 21
129.1184526634
 31
0.0
  0
LINE
  5
7CC
330
2
100
AcDbEntity
  8
0
100
AcDbLine
 10
147.4653972199
 20
173.1184526634
 30
0.0
 11
227.4654052199
 21
173.1184526634
 31
0.0
  0
LINE
  5
7CD
330
2
100
AcDbEntity
  8
0
100
AcDbLine
 10
161.4653972199
 20
169.1184526634
 30
0.0
 11
213.4654052199
 21
169.1184526634
 31
0.0
  0
ARC
  5
7CE
330
2
100
AcDbEntity
  8
0
100
AcDbCircle
 10
187.4654052199
 20
114.1184526634
 30
0.0
 40
50.5
100
AcDbArc
 50
18.1038
 51
161.896194
  0
CIRCLE
  5
7CF
330
2
100
AcDbEntity
  8
0
100
AcDbCircle
 10
187.4654052199
 20
129.1184526634
 30
0.0
 40
23.5
  0
LINE
  5
7D5
330
2
100
AcDbEntity
  8
0
100
AcDbLine
 10
147.4653972199
 20
55.1184516634
 30
0.0
 11
227.4654052199
 21
55.1184516634
 31
0.0
  0
LINE
  5
7D6
330
2
100
AcDbEntity
  8
0
100
AcDbLine
 10
213.4654052199
 20
59.1184516634
 30
0.0
 11
161.4653972199
 21
59.1184516634
 31
0.0
  0
ARC
  5
7D7
330
2
100
AcDbEntity
  8
0
100
AcDbCircle
 10
187.4654052199
 20
114.1184526634
 30
0.0
 40
50.5
100
AcDbArc
 50
198.103806
 51
341.89621
  0
LINE
  5
7D8
330
2
100
AcDbEntity
  8
0
100
AcDbLine
 10
141.4725002199
 20
150.5139146634
 30
0.0
 11
139.4653972199
 21
129.8108126634
 31
0.0
  0
LINE
  5
7D9
330
2
100
AcDbEntity
  8
0
100
AcDbLine
 10
138.4885982199
 20
164.7650816634
 30
0.0
 11
136.9653972199
 21
143.6184526634
 31
0.0
  0
LINE
  5
7DA
330
2
100
AcDbEntity
  8
0
100
AcDbLine
 10
44.4653982199
 20
145.4184556634
 30
0.0
 11
44.4653982199
 21
61.4184516634
 31
0.0
  0
LINE
  5
7DB
330
2
100
AcDbEntity
  8
0
100
AcDbLine
 10
64.4653972199
 20
58.4184516634
 30
0.0
 11
64.4653972199
 21
148.4184556634
 31
0.0
  0
LINE
  5
7DC
330
2
100
AcDbEntity
  8
CENTER
100
AcDbLine
 10
36.9653982199
 20
103.4184516634
 30
0.0
 11
159.3521012199
 21
103.4184516634
 31
0.0
  0
LINE
  5
7DD
330
2
100
AcDbEntity
  8
0
100
AcDbLine
 10
134.9653972199
 20
58.4184516634
 30
0.0
 11
64.4653972199
 21
58.4184516634
 31
0.0
  0
LINE
  5
7DE
330
2
100
AcDbEntity
  8
0
100
AcDbLine
 10
64.4653972199
 20
137.8277496634
 30
0.0
 11
134.9653972199
 21
137.8277496634
 31
0.0
  0
LINE
  5
7DF
330
2
100
AcDbEntity
  8
0
100
AcDbLine
 10
64.4653972199
 20
69.0091416634
 30
0.0
 11
135.4653972199
 21
69.0091416634
 31
0.0
  0
LINE
  5
7E0
330
2
100
AcDbEntity
  8
0
100
AcDbLine
 10
43.9653982199
 20
68.4184516634
 30
0.0
 11
43.9653982199
 21
138.4184556634
 31
0.0
  0
LINE
  5
7E1
330
2
100
AcDbEntity
  8
0
100
AcDbLine
 10
48.5068482199
 20
58.4184516634
 30
0.0
 11
64.4653972199
 21
58.4184516634
 31
0.0
  0
LINE
  5
7E2
330
2
100
AcDbEntity
  8
0
100
AcDbLine
 10
64.4653972199
 20
69.0091516634
 30
0.0
 11
46.2153982199
 21
69.0091516634
 31
0.0
  0
ARC
  5
7E3
330
2
100
AcDbEntity
  8
0
100
AcDbCircle
 10
48.5068582199
 20
62.4184416634
 30
0.0
 40
4.0
100
AcDbArc
 50
209.999603
 51
270.0
  0
LINE
  5
7E4
330
2
100
AcDbEntity
  8
0
100
AcDbLine
 10
45.0427412199
 20
60.4184616634
 30
0.0
 11
44.4653982199
 21
61.4184516634
 31
0.0
  0
ARC
  5
7E5
330
2
100
AcDbEntity
  8
0
100
AcDbCircle
 10
43.9653972199
 20
67.9184516634
 30
0.0
 40
0.5
100
AcDbArc
 50
0.0
 51
90.0
  0
LINE
  5
7E6
330
2
100
AcDbEntity
  8
0
100
AcDbLine
 10
64.4653972199
 20
137.8277496634
 30
0.0
 11
46.2153982199
 21
137.8277496634
 31
0.0
  0
ARC
  5
7E7
330
2
100
AcDbEntity
  8
0
100
AcDbCircle
 10
43.9653972199
 20
138.9184556634
 30
0.0
 40
0.5
100
AcDbArc
 50
270.0
 51
0.0
  0
LINE
  5
7E8
330
2
100
AcDbEntity
  8
0
100
AcDbLine
 10
138.4885982199
 20
63.4718916634
 30
0.0
 11
136.9653972199
 21
84.6184526634
 31
0.0
  0
LINE
  5
7E9
330
2
100
AcDbEntity
  8
0
100
AcDbLine
 10
141.4725002199
 20
77.7230326634
 30
0.0
 11
139.4652982199
 21
98.4264126634
 31
0.0
  0
ARC
  5
7EA
330
2
100
AcDbEntity
  8
0
100
AcDbCircle
 10
147.4653972199
 20
64.1184516634
 30
0.0
 40
9.0
100
AcDbArc
 50
184.120102
 51
270.0
  0
ARC
  5
7EB
330
2
100
AcDbEntity
  8
0
100
AcDbCircle
 10
141.9653972199
 20
68.4184816634
 30
0.0
 40
5.0
100
AcDbArc
 50
143.994797
 51
180.0
  0
LINE
  5
7EC
330
2
100
AcDbEntity
  8
0
100
AcDbLine
 10
136.9653972199
 20
60.4184516634
 30
0.0
 11
136.9653972199
 21
68.4184816634
 31
0.0
  0
ARC
  5
7ED
330
2
100
AcDbEntity
  8
0
100
AcDbCircle
 10
134.9653972199
 20
60.4184516634
 30
0.0
 40
2.0
100
AcDbArc
 50
270.0
 51
0.0
  0
ARC
  5
7EE
330
2
100
AcDbEntity
  8
0
100
AcDbCircle
 10
161.4653972199
 20
64.1184516634
 30
0.0
 40
5.0
100
AcDbArc
 50
180.0
 51
270.0
  0
LINE
  5
7EF
330
2
100
AcDbEntity
  8
CENTER
100
AcDbLine
 10
147.4653972199
 20
70.8184506634
 30
0.0
 11
147.4653972199
 21
57.3184516634
 31
0.0
  0
ARC
  5
7F0
330
2
100
AcDbEntity
  8
0
100
AcDbCircle
 10
147.4653972199
 20
64.1184516634
 30
0.0
 40
9.0
100
AcDbArc
 50
0.0
 51
94.120163
  0
LINE
  5
7F1
330
2
100
AcDbEntity
  8
CENTER
100
AcDbLine
 10
154.4653972199
 20
64.1184516634
 30
0.0
 11
140.5903972199
 21
64.1184516634
 31
0.0
  0
CIRCLE
  5
7F2
330
2
100
AcDbEntity
  8
0
100
AcDbCircle
 10
147.4653972199
 20
64.1184516634
 30
0.0
 40
4.25
  0
ARC
  5
7F3
330
2
100
AcDbEntity
  8
0
100
AcDbCircle
 10
146.4595002199
 20
78.0822716634
 30
0.0
 40
5.0
100
AcDbArc
 50
184.120499
 51
274.120209
  0
LINE
  5
7F4
330
2
100
AcDbEntity
  8
0
100
AcDbLine
 10
173.4654052199
 20
65.5978416634
 30
0.0
 11
173.4654052199
 21
60.3238216634
 31
0.0
  0
LINE
  5
7F5
330
2
100
AcDbEntity
  8
0
100
AcDbLine
 10
139.4653972199
 20
129.8106446634
 30
0.0
 11
139.4653972199
 21
98.4259316634
 31
0.0
  0
LINE
  5
7F6
330
2
100
AcDbEntity
  8
0
100
AcDbLine
 10
136.9653972199
 20
143.6184526634
 30
0.0
 11
136.9653972199
 21
84.6184406634
 31
0.0
  0
LINE
  5
809
330
2
100
AcDbEntity
  8
0
100
AcDbLine
 10
64.4653972199
 20
148.4184556634
 30
0.0
 11
137.3111612199
 21
148.4184556634
 31
0.0
  0
LINE
  5
80A
330
2
100
AcDbEntity
  8
0
100
AcDbLine
 10
48.5068482199
 20
148.4184556634
 30
0.0
 11
64.4653972199
 21
148.4184556634
 31
0.0
  0
ARC
  5
80E
330
2
100
AcDbEntity
  8
0
100
AcDbCircle
 10
48.5068582199
 20
144.4184626634
 30
0.0
 40
4.0
100
AcDbArc
 50
90.0
 51
150.000397
  0
LINE
  5
80F
330
2
100
AcDbEntity
  8
0
100
AcDbLine
 10
45.0427412199
 20
146.4184396634
 30
0.0
 11
44.4653982199
 21
145.4184556634
 31
0.0
  0
ARC
  5
817
330
2
100
AcDbEntity
  8
0
100
AcDbCircle
 10
147.4653972199
 20
164.1184526634
 30
0.0
 40
9.0
100
AcDbArc
 50
90.0
 51
175.879898
  0
ARC
  5
818
330
2
100
AcDbEntity
  8
0
100
AcDbCircle
 10
161.4653972199
 20
164.1184526634
 30
0.0
 40
5.0
100
AcDbArc
 50
90.0
 51
180.0
  0
LINE
  5
819
330
2
100
AcDbEntity
  8
CENTER
100
AcDbLine
 10
147.4653972199
 20
157.4184556634
 30
0.0
 11
147.4653972199
 21
170.9184556634
 31
0.0
  0
CIRCLE
  5
81A
330
2
100
AcDbEntity
  8
0
100
AcDbCircle
 10
147.4653972199
 20
164.1184526634
 30
0.0
 40
4.25
  0
ARC
  5
81B
330
2
100
AcDbEntity
  8
0
100
AcDbCircle
 10
147.4653972199
 20
164.1184526634
 30
0.0
 40
9.0
100
AcDbArc
 50
265.879333
 51
0.0
  0
ARC
  5
81C
330
2
100
AcDbEntity
  8
0
100
AcDbCircle
 10
146.4595002199
 20
150.1546306634
 30
0.0
 40
5.0
100
AcDbArc
 50
85.879799
 51
175.879501
  0
LINE
  5
81D
330
2
100
AcDbEntity
  8
CENTER
100
AcDbLine
 10
154.4653972199
 20
164.1184526634
 30
0.0
 11
140.5903972199
 21
164.1184526634
 31
0.0
  0
LINE
  5
81E
330
2
100
AcDbEntity
  8
0
100
AcDbLine
 10
173.4654052199
 20
168.1872536634
 30
0.0
 11
173.4654052199
 21
162.6390596634
 31
0.0
  0
LINE
  5
81F
330
2
100
AcDbEntity
  8
0
100
AcDbLine
 10
236.4421052199
 20
164.7650816634
 30
0.0
 11
237.9654052199
 21
143.6184526634
 31
0.0
  0
LINE
  5
820
330
2
100
AcDbEntity
  8
0
100
AcDbLine
 10
233.4582942199
 20
150.5139146634
 30
0.0
 11
235.4654052199
 21
129.8108126634
 31
0.0
  0
LINE
  5
821
330
2
100
AcDbEntity
  8
CENTER
100
AcDbLine
 10
187.4654052199
 20
180.1184526634
 30
0.0
 11
187.4654052199
 21
48.1184516634
 31
0.0
  0
LINE
  5
822
330
2
100
AcDbEntity
  8
0
100
AcDbLine
 10
236.4421052199
 20
63.4718916634
 30
0.0
 11
237.9654052199
 21
84.6184526634
 31
0.0
  0
LINE
  5
823
330
2
100
AcDbEntity
  8
0
100
AcDbLine
 10
233.4582942199
 20
77.7230326634
 30
0.0
 11
235.4654962199
 21
98.4264126634
 31
0.0
  0
ARC
  5
824
330
2
100
AcDbEntity
  8
0
100
AcDbCircle
 10
227.4654052199
 20
64.1184516634
 30
0.0
 40
9.0
100
AcDbArc
 50
85.879837
 51
180.0
  0
LINE
  5
825
330
2
100
AcDbEntity
  8
0
100
AcDbLine
 10
201.4654052199
 20
65.5978416634
 30
0.0
 11
201.4654052199
 21
60.3238216634
 31
0.0
  0
ARC
  5
826
330
2
100
AcDbEntity
  8
0
100
AcDbCircle
 10
213.4654052199
 20
64.1184516634
 30
0.0
 40
5.0
100
AcDbArc
 50
270.0
 51
0.0
  0
ARC
  5
827
330
2
100
AcDbEntity
  8
0
100
AcDbCircle
 10
227.4654052199
 20
64.1184516634
 30
0.0
 40
9.0
100
AcDbArc
 50
270.0
 51
355.879913
  0
LINE
  5
828
330
2
100
AcDbEntity
  8
CENTER
100
AcDbLine
 10
227.4654052199
 20
70.8184506634
 30
0.0
 11
227.4654052199
 21
57.3184516634
 31
0.0
  0
LINE
  5
829
330
2
100
AcDbEntity
  8
CENTER
100
AcDbLine
 10
220.4654052199
 20
64.1184516634
 30
0.0
 11
234.3404052199
 21
64.1184516634
 31
0.0
  0
CIRCLE
  5
82A
330
2
100
AcDbEntity
  8
0
100
AcDbCircle
 10
227.4654052199
 20
64.1184516634
 30
0.0
 40
4.25
  0
ARC
  5
82B
330
2
100
AcDbEntity
  8
0
100
AcDbCircle
 10
228.4712952199
 20
78.0822716634
 30
0.0
 40
5.0
100
AcDbArc
 50
265.879791
 51
355.879486
  0
LINE
  5
855
330
2
100
AcDbEntity
  8
HIDS
100
AcDbLine
 10
198.9654052199
 20
126.1184906634
 30
0.0
 11
198.9654052199
 21
132.1184906634
 31
0.0
  0
LINE
  5
856
330
2
100
AcDbEntity
  8
HIDS
100
AcDbLine
 10
192.9654052199
 20
126.1184746634
 30
0.0
 11
192.9654052199
 21
132.1184746634
 31
0.0
  0
LINE
  5
857
330
2
100
AcDbEntity
  8
HIDS
100
AcDbLine
 10
198.9654052199
 20
126.1184906634
 30
0.0
 11
192.9654052199
 21
126.1184746634
 31
0.0
  0
LINE
  5
858
330
2
100
AcDbEntity
  8
HIDS
100
AcDbLine
 10
198.9654052199
 20
132.1184906634
 30
0.0
 11
192.9654052199
 21
132.1184746634
 31
0.0
  0
LINE
  5
859
330
2
100
AcDbEntity
  8
0
100
AcDbLine
 10
237.9654052199
 20
84.6184526634
 30
0.0
 11
237.9654052199
 21
143.6184526634
 31
0.0
  0
LINE
  5
85A
330
2
100
AcDbEntity
  8
0
100
AcDbLine
 10
235.4654052199
 20
129.8108126634
 30
0.0
 11
235.4654052199
 21
98.4264166634
 31
0.0
  0
ARC
  5
85B
330
2
100
AcDbEntity
  8
0
100
AcDbCircle
 10
227.4654052199
 20
164.1184526634
 30
0.0
 40
9.0
100
AcDbArc
 50
180.0
 51
274.120697
  0
LINE
  5
85C
330
2
100
AcDbEntity
  8
0
100
AcDbLine
 10
201.4654052199
 20
168.1872536634
 30
0.0
 11
201.4654052199
 21
162.6390746634
 31
0.0
  0
ARC
  5
85D
330
2
100
AcDbEntity
  8
0
100
AcDbCircle
 10
213.4654052199
 20
164.1184526634
 30
0.0
 40
5.0
100
AcDbArc
 50
0.0
 51
90.0
  0
LINE
  5
85E
330
2
100
AcDbEntity
  8
CENTER
100
AcDbLine
 10
227.4654052199
 20
157.4184556634
 30
0.0
 11
227.4654052199
 21
170.9184556634
 31
0.0
  0
CIRCLE
  5
85F
330
2
100
AcDbEntity
  8
0
100
AcDbCircle
 10
227.4654052199
 20
164.1184526634
 30
0.0
 40
4.25
  0
ARC
  5
860
330
2
100
AcDbEntity
  8
0
100
AcDbCircle
 10
228.4712952199
 20
150.1546306634
 30
0.0
 40
5.0
100
AcDbArc
 50
4.120544
 51
94.120201
  0
LINE
  5
861
330
2
100
AcDbEntity
  8
CENTER
100
AcDbLine
 10
220.4654052199
 20
164.1184526634
 30
0.0
 11
234.3404052199
 21
164.1184526634
 31
0.0
  0
ARC
  5
862
330
2
100
AcDbEntity
  8
0
100
AcDbCircle
 10
227.4654052199
 20
164.1184526634
 30
0.0
 40
9.0
100
AcDbArc
 50
4.120065
 51
90.0
  0
TEXT
  5
875
330
2
100
AcDbEntity
  8
TITLE
100
AcDbText
 10
300.5071915274
 20
399.8730327653
 30
0.0
 40
5.0
  1
HFM-18L-10~240-T90K
100
AcDbText
  0
TEXT
  5
876
330
2
100
AcDbEntity
  8
TITLE
100
AcDbText
 10
300.5071915274
 20
407.8730327653
 30
0.0
 40
5.0
  1
HFM-18L-10~240-T60WK
100
AcDbText
  0
TEXT
  5
877
330
2
100
AcDbEntity
  8
TITLE
100
AcDbText
 10
300.5071915274
 20
415.8730327653
 30
0.0
 40
5.0
  1
HFM-18L-80~240-T60K
100
AcDbText
  0
TEXT
  5
878
330
2
100
AcDbEntity
  8
TITLE
100
AcDbText
 10
300.5071915274
 20
423.8730327653
 30
0.0
 40
5.0
  1
HFM-18L-160~240-T40WK
100
AcDbText
  0
TEXT
  5
879
330
2
100
AcDbEntity
  8
TITLE
100
AcDbText
 10
300.5071915274
 20
431.8730327653
 30
0.0
 40
5.0
  1
HFM-18L-160~240-T40K
100
AcDbText
  0
TEXT
  5
87A
330
2
100
AcDbEntity
  8
TITLE
100
AcDbText
 10
300.5071915274
 20
391.8730327653
 30
0.0
 40
5.0
  1
HFM-18L-160~240-S40K
100
AcDbText
  0
TEXT
  5
87B
330
2
100
AcDbEntity
  8
TITLE
100
AcDbText
 10
300.5071915274
 20
383.8730327653
 30
0.0
 40
5.0
  1
HFM-18L-160~240-S40WK
100
AcDbText
  0
ARC
  5
14F3
330
2
100
AcDbEntity
  8
0
100
AcDbCircle
 10
332.935499121
 20
186.0184706634
 30
0.0
 40
9.0
100
AcDbArc
 50
74.1191499917
 51
105.8808500083
  0
SPLINE
  5
14F4
330
2
100
AcDbEntity
  8
0
100
AcDbSpline
210
0.0
220
0.0
230
1.0
 70
     8
 71
     3
 72
    11
 73
     7
 74
     0
 42
0.000000001
 43
0.0000000001
 40
0.0
 40
0.0
 40
0.0
 40
0.0
 40
0.4601364636755307
 40
1.04988694485363
 40
1.713742833862792
 40
2.320347933405154
 40
2.320347933405154
 40
2.320347933405154
 40
2.320347933405175
 10
333.2229991214417
 20
193.5014706633991
 30
0.0
 10
333.2454167785495
 20
193.656494103079
 30
0.0
 10
333.2965668337828
 20
194.0102089209966
 30
0.0
 10
333.7324519953164
 20
194.4349365925982
 30
0.0
 10
334.3375027103239
 20
194.654123772564
 30
0.0
 10
334.7626873344997
 20
194.5851324729535
 30
0.0
 10
334.9652389441508
 20
194.5709122007768
 30
0.0
  0
LINE
  5
14F5
330
2
100
AcDbEntity
  8
0
100
AcDbLine
 10
336.935499121
 20
192.4184706634
 30
0.0
 11
329.435499121
 21
192.4184706634
 31
0.0
  0
LINE
  5
14FB
330
2
100
AcDbEntity
  8
CENTER
100
AcDbLine
 10
324.3918921398
 20
177.9184556634
 30
0.0
 11
384.4791061022
 21
177.9184556634
 31
0.0
  0
LINE
  5
1562
330
2
100
AcDbEntity
  8
0
100
AcDbLine
 10
329.435499121
 20
193.9184706634
 30
0.0
 11
329.435499121
 21
168.2004189867
 31
0.0
  0
LINE
  5
1565
330
2
100
AcDbEntity
  8
0
100
AcDbLine
 10
331.597590305
 20
194.9184706634
 30
0.0
 11
330.435499121
 21
194.9184706634
 31
0.0
  0
LINE
  5
1566
330
2
100
AcDbEntity
  8
0
100
AcDbLine
 10
329.435499121
 20
192.4184706634
 30
0.0
 11
329.5334352599
 21
193.5378858532
 31
0.0
  0
ARC
  5
1567
330
2
100
AcDbEntity
  8
0
100
AcDbCircle
 10
330.8284883674
 20
193.4245833876
 30
0.0
 40
1.3
100
AcDbArc
 50
105.8808500083
 51
175.0
  0
LINE
  5
1568
330
2
100
AcDbEntity
  8
0
100
AcDbLine
 10
330.9057592978
 20
194.5709122008
 30
0.0
 11
330.885499121
 21
194.7818889462
 31
0.0
  0
LINE
  5
1569
330
2
100
AcDbEntity
  8
0
100
AcDbLine
 10
332.6479991205
 20
193.5014706634
 30
0.0
 11
333.2229991214
 21
193.5014706634
 31
0.0
  0
SPLINE
  5
156A
330
2
100
AcDbEntity
  8
0
100
AcDbSpline
210
0.0
220
0.0
230
1.0
 70
     8
 71
     3
 72
    11
 73
     7
 74
     0
 42
0.000000001
 43
0.0000000001
 40
0.0
 40
0.0
 40
0.0
 40
0.0
 40
0.4601364636755307
 40
1.04988694485363
 40
1.713742833862792
 40
2.320347933405154
 40
2.320347933405154
 40
2.320347933405154
 40
2.320347933405175
 10
332.6479991205316
 20
193.5014706633991
 30
0.0
 10
332.6255814634237
 20
193.656494103079
 30
0.0
 10
332.5744314081904
 20
194.0102089209966
 30
0.0
 10
332.1385462466569
 20
194.4349365925982
 30
0.0
 10
331.5334955316495
 20
194.654123772564
 30
0.0
 10
331.1083109074737
 20
194.5851324729535
 30
0.0
 10
330.9057592978226
 20
194.5709122007768
 30
0.0
  0
LINE
  5
156B
330
2
100
AcDbEntity
  8
0
100
AcDbLine
 10
330.435499121
 20
194.9184706634
 30
0.0
 11
329.435499121
 21
193.9184706634
 31
0.0
  0
LINE
  5
156D
330
2
100
AcDbEntity
  8
0
100
AcDbLine
 10
97.9651992199
 20
349.3380702907
 30
0.0
 11
62.9652902199
 21
349.3380702907
 31
0.0
  0
LINE
  5
156E
330
2
100
AcDbEntity
  8
0
100
AcDbLine
 10
97.9651992199
 20
303.3380702907
 30
0.0
 11
62.9652902199
 21
303.3380702907
 31
0.0
  0
LINE
  5
156F
330
2
100
AcDbEntity
  8
0
100
AcDbLine
 10
57.4652902199
 20
351.3380702907
 30
0.0
 11
103.4651992199
 21
351.3380702907
 31
0.0
  0
LINE
  5
1570
330
2
100
AcDbEntity
  8
0
100
AcDbLine
 10
57.4652902199
 20
301.3380702907
 30
0.0
 11
103.4651992199
 21
301.3380702907
 31
0.0
  0
LINE
  5
1572
330
2
100
AcDbEntity
  8
0
100
AcDbLine
 10
55.4652902199
 20
303.3380702907
 30
0.0
 11
55.4652902199
 21
349.3380702907
 31
0.0
  0
LINE
  5
1573
330
2
100
AcDbEntity
  8
0
100
AcDbLine
 10
57.4652902199
 20
343.8380702907
 30
0.0
 11
57.4652902199
 21
308.8380702907
 31
0.0
  0
LINE
  5
1574
330
2
100
AcDbEntity
  8
CENTER
100
AcDbLine
 10
80.4653972199
 20
296.2944633095
 30
0.0
 11
80.4653972199
 21
356.3816772719
 31
0.0
  0
ARC
  5
1575
330
2
100
AcDbEntity
  8
0
100
AcDbCircle
 10
58.9652902199
 20
304.8379782907
 30
0.0
 40
4.0
100
AcDbArc
 50
0.0
 51
90.0
  0
ARC
  5
1576
330
2
100
AcDbEntity
  8
0
100
AcDbCircle
 10
56.9355902199
 20
302.8082782907
 30
0.0
 40
1.742199999999999
100
AcDbArc
 50
359.9986903345
 51
90.0013096655
  0
LINE
  5
1577
330
2
100
AcDbEntity
  8
0
100
AcDbLine
 10
58.9652902199
 20
308.8380702907
 30
0.0
 11
55.4652902199
 21
308.8380702907
 31
0.0
  0
CIRCLE
  5
1578
330
2
100
AcDbEntity
  8
0
100
AcDbCircle
 10
58.9652902199
 20
304.8379782907
 30
0.0
 40
3.500000000000028
  0
ARC
  5
1579
330
2
100
AcDbEntity
  8
0
100
AcDbCircle
 10
56.9355902199
 20
306.8676782907
 30
0.0
 40
1.742199999999999
100
AcDbArc
 50
269.9986903345
 51
0.0013096655
  0
ARC
  5
157A
330
2
100
AcDbEntity
  8
0
100
AcDbCircle
 10
58.9652902199
 20
304.8379782907
 30
0.0
 40
2.049999999999998
100
AcDbArc
 50
180.0
 51
188.061960084
  0
LINE
  5
157B
330
2
100
AcDbEntity
  8
0
100
AcDbLine
 10
55.4652902199
 20
303.3380702907
 30
0.0
 11
57.4652902199
 21
301.3380702907
 31
0.0
  0
ARC
  5
157C
330
2
100
AcDbEntity
  8
0
100
AcDbCircle
 10
58.9652902199
 20
304.8379782907
 30
0.0
 40
2.049999999999998
100
AcDbArc
 50
171.938039916
 51
180.0
  0
ARC
  5
157D
330
2
100
AcDbEntity
  8
0
100
AcDbCircle
 10
58.9652902199
 20
304.8379782907
 30
0.0
 40
2.049999999999998
100
AcDbArc
 50
270.0
 51
278.061960084
  0
ARC
  5
157E
330
2
100
AcDbEntity
  8
0
100
AcDbCircle
 10
58.9652902199
 20
304.8379782907
 30
0.0
 40
2.049999999999998
100
AcDbArc
 50
261.938039916
 51
270.0
  0
ARC
  5
157F
330
2
100
AcDbEntity
  8
0
100
AcDbCircle
 10
58.9652902199
 20
304.8379782907
 30
0.0
 40
2.049999999999998
100
AcDbArc
 50
351.938039916
 51
0.0
  0
ARC
  5
1580
330
2
100
AcDbEntity
  8
0
100
AcDbCircle
 10
60.9949902199
 20
302.8082782907
 30
0.0
 40
1.742199999999999
100
AcDbArc
 50
89.9986903345
 51
180.0013096655
  0
ARC
  5
1581
330
2
100
AcDbEntity
  8
0
100
AcDbCircle
 10
58.9652902199
 20
304.8379782907
 30
0.0
 40
2.049999999999998
100
AcDbArc
 50
81.938039916
 51
90.0
  0
ARC
  5
1582
330
2
100
AcDbEntity
  8
0
100
AcDbCircle
 10
58.9652902199
 20
304.8379782907
 30
0.0
 40
2.049999999999998
100
AcDbArc
 50
90.0
 51
98.061960084
  0
ARC
  5
1583
330
2
100
AcDbEntity
  8
0
100
AcDbCircle
 10
58.9652902199
 20
304.8379782907
 30
0.0
 40
2.049999999999998
100
AcDbArc
 50
0.0
 51
8.061960084
  0
ARC
  5
1584
330
2
100
AcDbEntity
  8
0
100
AcDbCircle
 10
60.9949902199
 20
306.8676782907
 30
0.0
 40
1.742199999999999
100
AcDbArc
 50
179.9986903345
 51
270.0013096655
  0
LINE
  5
1585
330
2
100
AcDbEntity
  8
0
100
AcDbLine
 10
62.9652902199
 20
304.8379782907
 30
0.0
 11
62.9652902199
 21
301.3380702907
 31
0.0
  0
ARC
  5
1586
330
2
100
AcDbEntity
  8
0
100
AcDbCircle
 10
58.9652902199
 20
347.8380702907
 30
0.0
 40
4.0
100
AcDbArc
 50
270.0
 51
0.0
  0
ARC
  5
1587
330
2
100
AcDbEntity
  8
0
100
AcDbCircle
 10
60.9949902199
 20
349.8677702907
 30
0.0
 40
1.742199999999999
100
AcDbArc
 50
179.9986903345
 51
270.0013096655
  0
ARC
  5
1588
330
2
100
AcDbEntity
  8
0
100
AcDbCircle
 10
56.9355902199
 20
349.8677702907
 30
0.0
 40
1.742199999999999
100
AcDbArc
 50
269.9986903345
 51
0.0013096655
  0
CIRCLE
  5
1589
330
2
100
AcDbEntity
  8
0
100
AcDbCircle
 10
58.9652902199
 20
347.8380702907
 30
0.0
 40
3.500000000000028
  0
LINE
  5
158A
330
2
100
AcDbEntity
  8
0
100
AcDbLine
 10
58.9652902199
 20
343.8380702907
 30
0.0
 11
55.4652902199
 21
343.8380702907
 31
0.0
  0
ARC
  5
158B
330
2
100
AcDbEntity
  8
0
100
AcDbCircle
 10
56.9355902199
 20
345.8083702907
 30
0.0
 40
1.742199999999999
100
AcDbArc
 50
359.9986903345
 51
90.0013096655
  0
ARC
  5
158C
330
2
100
AcDbEntity
  8
0
100
AcDbCircle
 10
58.9652902199
 20
347.8380702907
 30
0.0
 40
2.049999999999998
100
AcDbArc
 50
171.938039916
 51
180.0
  0
ARC
  5
158D
330
2
100
AcDbEntity
  8
0
100
AcDbCircle
 10
58.9652902199
 20
347.8380702907
 30
0.0
 40
2.049999999999998
100
AcDbArc
 50
180.0
 51
188.061960084
  0
ARC
  5
158E
330
2
100
AcDbEntity
  8
0
100
AcDbCircle
 10
58.9652902199
 20
347.8380702907
 30
0.0
 40
2.049999999999998
100
AcDbArc
 50
270.0
 51
278.061960084
  0
ARC
  5
158F
330
2
100
AcDbEntity
  8
0
100
AcDbCircle
 10
58.9652902199
 20
347.8380702907
 30
0.0
 40
2.049999999999998
100
AcDbArc
 50
261.938039916
 51
270.0
  0
ARC
  5
1590
330
2
100
AcDbEntity
  8
0
100
AcDbCircle
 10
58.9652902199
 20
347.8380702907
 30
0.0
 40
2.049999999999998
100
AcDbArc
 50
0.0
 51
8.061960084
  0
ARC
  5
1591
330
2
100
AcDbEntity
  8
0
100
AcDbCircle
 10
58.9652902199
 20
347.8380702907
 30
0.0
 40
2.049999999999998
100
AcDbArc
 50
351.938039916
 51
0.0
  0
ARC
  5
1592
330
2
100
AcDbEntity
  8
0
100
AcDbCircle
 10
60.9949902199
 20
345.8083702907
 30
0.0
 40
1.742199999999999
100
AcDbArc
 50
89.9986903345
 51
180.0013096655
  0
LINE
  5
1593
330
2
100
AcDbEntity
  8
0
100
AcDbLine
 10
55.4652902199
 20
349.3380702907
 30
0.0
 11
57.4652902199
 21
351.3380702907
 31
0.0
  0
LINE
  5
1594
330
2
100
AcDbEntity
  8
0
100
AcDbLine
 10
55.4652902199
 20
349.3380702907
 30
0.0
 11
57.4652902199
 21
351.3380702907
 31
0.0
  0
ARC
  5
1595
330
2
100
AcDbEntity
  8
0
100
AcDbCircle
 10
58.9652902199
 20
347.8380702907
 30
0.0
 40
2.049999999999998
100
AcDbArc
 50
81.938039916
 51
90.0
  0
ARC
  5
1596
330
2
100
AcDbEntity
  8
0
100
AcDbCircle
 10
58.9652902199
 20
347.8380702907
 30
0.0
 40
2.049999999999998
100
AcDbArc
 50
90.0
 51
98.061960084
  0
LINE
  5
1597
330
2
100
AcDbEntity
  8
0
100
AcDbLine
 10
62.9652902199
 20
347.8380702907
 30
0.0
 11
62.9652902199
 21
351.3378862907
 31
0.0
  0
LINE
  5
1598
330
2
100
AcDbEntity
  8
0
100
AcDbLine
 10
105.4653972199
 20
349.3380702907
 30
0.0
 11
105.4651992199
 21
303.3380702907
 31
0.0
  0
LINE
  5
1599
330
2
100
AcDbEntity
  8
0
100
AcDbLine
 10
103.4651992199
 20
343.8380702907
 30
0.0
 11
103.4651992199
 21
308.8380702907
 31
0.0
  0
ARC
  5
159A
330
2
100
AcDbEntity
  8
0
100
AcDbCircle
 10
99.9356972199
 20
302.8082782907
 30
0.0
 40
1.742199999999999
100
AcDbArc
 50
359.9986903345
 51
90.0013096655
  0
ARC
  5
159B
330
2
100
AcDbEntity
  8
0
100
AcDbCircle
 10
101.9653972199
 20
304.8379782907
 30
0.0
 40
4.0
100
AcDbArc
 50
90.0
 51
180.0
  0
CIRCLE
  5
159C
330
2
100
AcDbEntity
  8
0
100
AcDbCircle
 10
101.9653972199
 20
304.8379782907
 30
0.0
 40
3.500000000000028
  0
ARC
  5
159D
330
2
100
AcDbEntity
  8
0
100
AcDbCircle
 10
99.9356972199
 20
306.8676782907
 30
0.0
 40
1.742199999999999
100
AcDbArc
 50
269.9986903345
 51
0.0013096655
  0
LINE
  5
159E
330
2
100
AcDbEntity
  8
0
100
AcDbLine
 10
97.9651992199
 20
304.8379782907
 30
0.0
 11
97.9651992199
 21
301.3380702907
 31
0.0
  0
ARC
  5
159F
330
2
100
AcDbEntity
  8
0
100
AcDbCircle
 10
101.9653972199
 20
304.8379782907
 30
0.0
 40
2.049999999999998
100
AcDbArc
 50
180.0
 51
188.061960084
  0
ARC
  5
15A0
330
2
100
AcDbEntity
  8
0
100
AcDbCircle
 10
101.9653972199
 20
304.8379782907
 30
0.0
 40
2.049999999999998
100
AcDbArc
 50
171.938039916
 51
180.0
  0
ARC
  5
15A1
330
2
100
AcDbEntity
  8
0
100
AcDbCircle
 10
101.9653972199
 20
304.8379782907
 30
0.0
 40
2.049999999999998
100
AcDbArc
 50
270.0
 51
278.061960084
  0
ARC
  5
15A2
330
2
100
AcDbEntity
  8
0
100
AcDbCircle
 10
101.9653972199
 20
304.8379782907
 30
0.0
 40
2.049999999999998
100
AcDbArc
 50
261.938039916
 51
270.0
  0
ARC
  5
15A3
330
2
100
AcDbEntity
  8
0
100
AcDbCircle
 10
101.9653972199
 20
304.8379782907
 30
0.0
 40
2.049999999999998
100
AcDbArc
 50
351.938039916
 51
0.0
  0
ARC
  5
15A4
330
2
100
AcDbEntity
  8
0
100
AcDbCircle
 10
103.9950972199
 20
302.8082782907
 30
0.0
 40
1.742199999999999
100
AcDbArc
 50
89.9986903345
 51
180.0013096655
  0
LINE
  5
15A5
330
2
100
AcDbEntity
  8
0
100
AcDbLine
 10
105.4651992199
 20
303.3380702907
 30
0.0
 11
103.4651992199
 21
301.3380702907
 31
0.0
  0
LINE
  5
15A6
330
2
100
AcDbEntity
  8
0
100
AcDbLine
 10
103.4651992199
 20
301.3380702907
 30
0.0
 11
105.4651992199
 21
303.3380702907
 31
0.0
  0
ARC
  5
15A7
330
2
100
AcDbEntity
  8
0
100
AcDbCircle
 10
101.9653972199
 20
304.8379782907
 30
0.0
 40
2.049999999999998
100
AcDbArc
 50
81.938039916
 51
90.0
  0
ARC
  5
15A8
330
2
100
AcDbEntity
  8
0
100
AcDbCircle
 10
101.9653972199
 20
304.8379782907
 30
0.0
 40
2.049999999999998
100
AcDbArc
 50
90.0
 51
98.061960084
  0
LINE
  5
15A9
330
2
100
AcDbEntity
  8
0
100
AcDbLine
 10
101.9651992199
 20
308.8380702907
 30
0.0
 11
105.4651992199
 21
308.8380702907
 31
0.0
  0
ARC
  5
15AA
330
2
100
AcDbEntity
  8
0
100
AcDbCircle
 10
101.9653972199
 20
304.8379782907
 30
0.0
 40
2.049999999999998
100
AcDbArc
 50
0.0
 51
8.061960084
  0
ARC
  5
15AB
330
2
100
AcDbEntity
  8
0
100
AcDbCircle
 10
103.9950972199
 20
306.8676782907
 30
0.0
 40
1.742199999999999
100
AcDbArc
 50
179.9986903345
 51
270.0013096655
  0
ARC
  5
15AC
330
2
100
AcDbEntity
  8
0
100
AcDbCircle
 10
99.9356972199
 20
345.8083702907
 30
0.0
 40
1.742199999999999
100
AcDbArc
 50
359.9986903345
 51
90.0013096655
  0
ARC
  5
15AD
330
2
100
AcDbEntity
  8
0
100
AcDbCircle
 10
99.9356972199
 20
349.8677702907
 30
0.0
 40
1.742199999999999
100
AcDbArc
 50
269.9986903345
 51
0.0013096655
  0
ARC
  5
15AE
330
2
100
AcDbEntity
  8
0
100
AcDbCircle
 10
101.9653972199
 20
347.8380702907
 30
0.0
 40
4.0
100
AcDbArc
 50
180.0
 51
270.0
  0
CIRCLE
  5
15AF
330
2
100
AcDbEntity
  8
0
100
AcDbCircle
 10
101.9653972199
 20
347.8380702907
 30
0.0
 40
3.500000000000028
  0
LINE
  5
15B0
330
2
100
AcDbEntity
  8
0
100
AcDbLine
 10
97.9651992199
 20
347.8380702907
 30
0.0
 11
97.9651992199
 21
351.3378862907
 31
0.0
  0
ARC
  5
15B1
330
2
100
AcDbEntity
  8
0
100
AcDbCircle
 10
101.9653972199
 20
347.8380702907
 30
0.0
 40
2.049999999999998
100
AcDbArc
 50
171.938039916
 51
180.0
  0
ARC
  5
15B2
330
2
100
AcDbEntity
  8
0
100
AcDbCircle
 10
101.9653972199
 20
347.8380702907
 30
0.0
 40
2.049999999999998
100
AcDbArc
 50
180.0
 51
188.061960084
  0
ARC
  5
15B3
330
2
100
AcDbEntity
  8
0
100
AcDbCircle
 10
103.9950972199
 20
349.8677702907
 30
0.0
 40
1.742199999999999
100
AcDbArc
 50
179.9986903345
 51
270.0013096655
  0
ARC
  5
15B4
330
2
100
AcDbEntity
  8
0
100
AcDbCircle
 10
101.9653972199
 20
347.8380702907
 30
0.0
 40
2.049999999999998
100
AcDbArc
 50
270.0
 51
278.061960084
  0
ARC
  5
15B5
330
2
100
AcDbEntity
  8
0
100
AcDbCircle
 10
101.9653972199
 20
347.8380702907
 30
0.0
 40
2.049999999999998
100
AcDbArc
 50
261.938039916
 51
270.0
  0
ARC
  5
15B6
330
2
100
AcDbEntity
  8
0
100
AcDbCircle
 10
101.9653972199
 20
347.8380702907
 30
0.0
 40
2.049999999999998
100
AcDbArc
 50
0.0
 51
8.061960084
  0
ARC
  5
15B7
330
2
100
AcDbEntity
  8
0
100
AcDbCircle
 10
101.9653972199
 20
347.8380702907
 30
0.0
 40
2.049999999999998
100
AcDbArc
 50
351.938039916
 51
0.0
  0
ARC
  5
15B8
330
2
100
AcDbEntity
  8
0
100
AcDbCircle
 10
103.9950972199
 20
345.8083702907
 30
0.0
 40
1.742199999999999
100
AcDbArc
 50
89.9986903345
 51
180.0013096655
  0
LINE
  5
15B9
330
2
100
AcDbEntity
  8
0
100
AcDbLine
 10
101.9651992199
 20
343.8380702907
 30
0.0
 11
105.4651992199
 21
343.8380702907
 31
0.0
  0
ARC
  5
15BA
330
2
100
AcDbEntity
  8
0
100
AcDbCircle
 10
101.9653972199
 20
347.8380702907
 30
0.0
 40
2.049999999999998
100
AcDbArc
 50
81.938039916
 51
90.0
  0
ARC
  5
15BB
330
2
100
AcDbEntity
  8
0
100
AcDbCircle
 10
101.9653972199
 20
347.8380702907
 30
0.0
 40
2.049999999999998
100
AcDbArc
 50
90.0
 51
98.061960084
  0
LINE
  5
15BC
330
2
100
AcDbEntity
  8
0
100
AcDbLine
 10
105.4651992199
 20
349.3380702907
 30
0.0
 11
103.4651992199
 21
351.3380702907
 31
0.0
  0
LINE
  5
15BD
330
2
100
AcDbEntity
  8
0
100
AcDbLine
 10
105.4651992199
 20
349.3380702907
 30
0.0
 11
103.4651992199
 21
351.3380702907
 31
0.0
  0
LINE
  5
15BE
330
2
100
AcDbEntity
  8
0
100
AcDbLine
 10
105.4653972199
 20
349.3380702907
 30
0.0
 11
103.4651992199
 21
351.3380702907
 31
0.0
  0
ARC
  5
15BF
330
2
100
AcDbEntity
  8
0
100
AcDbCircle
 10
373.8284883674
 20
193.4245833876
 30
0.0
 40
1.3
100
AcDbArc
 50
105.8808500083
 51
175.0
  0
LINE
  5
15C0
330
2
100
AcDbEntity
  8
0
100
AcDbLine
 10
371.935499121
 20
192.4184706634
 30
0.0
 11
379.435499121
 21
192.4184706634
 31
0.0
  0
LINE
  5
15C1
330
2
100
AcDbEntity
  8
0
100
AcDbLine
 10
334.273407937
 20
194.9184706634
 30
0.0
 11
374.597590305
 21
194.9184706634
 31
0.0
  0
LINE
  5
15C3
330
2
100
AcDbEntity
  8
0
100
AcDbLine
 10
336.935499121
 20
193.9184706634
 30
0.0
 11
371.935499121
 21
193.9184706634
 31
0.0
  0
LINE
  5
15C4
330
2
100
AcDbEntity
  8
0
100
AcDbLine
 10
336.435499121
 20
192.4184706634
 30
0.0
 11
336.3375629821
 21
193.5378858532
 31
0.0
  0
LINE
  5
15C5
330
2
100
AcDbEntity
  8
0
100
AcDbLine
 10
336.935499121
 20
192.4184706634
 30
0.0
 11
336.935499121
 21
194.4184706634
 31
0.0
  0
LINE
  5
15C6
330
2
100
AcDbEntity
  8
0
100
AcDbLine
 10
337.435499121
 20
194.9184706634
 30
0.0
 11
336.935499121
 21
194.4184706634
 31
0.0
  0
LINE
  5
15C7
330
2
100
AcDbEntity
  8
0
100
AcDbLine
 10
334.9652389442
 20
194.5709122008
 30
0.0
 11
334.985499121
 21
194.7818889462
 31
0.0
  0
LINE
  5
15C8
330
2
100
AcDbEntity
  8
0
100
AcDbLine
 10
336.935499121
 20
194.4184706634
 30
0.0
 11
335.8804765106
 21
194.4184706634
 31
0.0
  0
ARC
  5
15C9
330
2
100
AcDbEntity
  8
0
100
AcDbCircle
 10
335.0425098746
 20
193.4245833876
 30
0.0
 40
1.3
100
AcDbArc
 50
5.0
 51
74.1191499917
  0
LINE
  5
15CA
330
2
100
AcDbEntity
  8
0
100
AcDbLine
 10
371.435499121
 20
194.9184706634
 30
0.0
 11
371.935499121
 21
194.4184706634
 31
0.0
  0
LINE
  5
15CB
330
2
100
AcDbEntity
  8
0
100
AcDbLine
 10
371.935499121
 20
192.4184706634
 30
0.0
 11
371.935499121
 21
194.4184706634
 31
0.0
  0
LINE
  5
15CC
330
2
100
AcDbEntity
  8
0
100
AcDbLine
 10
372.435499121
 20
192.4184706634
 30
0.0
 11
372.5334352599
 21
193.5378858532
 31
0.0
  0
LINE
  5
15CD
330
2
100
AcDbEntity
  8
0
100
AcDbLine
 10
371.935499121
 20
194.4184706634
 30
0.0
 11
372.9905217314
 21
194.4184706634
 31
0.0
  0
LINE
  5
15CE
330
2
100
AcDbEntity
  8
0
100
AcDbLine
 10
379.435484121
 20
193.9184706634
 30
0.0
 11
379.435484121
 21
167.3278701034
 31
0.0
  0
LINE
  5
15D1
330
2
100
AcDbEntity
  8
0
100
AcDbLine
 10
377.273407937
 20
194.9184706634
 30
0.0
 11
378.435499121
 21
194.9184706634
 31
0.0
  0
ARC
  5
15D2
330
2
100
AcDbEntity
  8
0
100
AcDbCircle
 10
375.935499121
 20
186.0184706634
 30
0.0
 40
9.0
100
AcDbArc
 50
74.1191499917
 51
105.8808500083
  0
SPLINE
  5
15D3
330
2
100
AcDbEntity
  8
0
100
AcDbSpline
210
0.0
220
0.0
230
1.0
 70
     8
 71
     3
 72
    11
 73
     7
 74
     0
 42
0.000000001
 43
0.0000000001
 40
0.0
 40
0.0
 40
0.0
 40
0.0
 40
0.4601364636755307
 40
1.04988694485363
 40
1.713742833862792
 40
2.320347933405154
 40
2.320347933405154
 40
2.320347933405154
 40
2.320347933405175
 10
376.2229991214419
 20
193.5014706633991
 30
0.0
 10
376.2454167785497
 20
193.656494103079
 30
0.0
 10
376.2965668337831
 20
194.0102089209966
 30
0.0
 10
376.7324519953165
 20
194.4349365925982
 30
0.0
 10
377.337502710324
 20
194.654123772564
 30
0.0
 10
377.7626873344999
 20
194.5851324729535
 30
0.0
 10
377.9652389441508
 20
194.5709122007768
 30
0.0
  0
LINE
  5
15D4
330
2
100
AcDbEntity
  8
0
100
AcDbLine
 10
376.2229991214
 20
193.5014706634
 30
0.0
 11
375.6479991205
 21
193.5014706634
 31
0.0
  0
LINE
  5
15D5
330
2
100
AcDbEntity
  8
0
100
AcDbLine
 10
377.9652389442
 20
194.5709122008
 30
0.0
 11
377.985499121
 21
194.7818889462
 31
0.0
  0
LINE
  5
15D6
330
2
100
AcDbEntity
  8
0
100
AcDbLine
 10
373.9057592978
 20
194.5709122008
 30
0.0
 11
373.885499121
 21
194.7818889462
 31
0.0
  0
SPLINE
  5
15D7
330
2
100
AcDbEntity
  8
0
100
AcDbSpline
210
0.0
220
0.0
230
1.0
 70
     8
 71
     3
 72
    11
 73
     7
 74
     0
 42
0.000000001
 43
0.0000000001
 40
0.0
 40
0.0
 40
0.0
 40
0.0
 40
0.4601364636755307
 40
1.04988694485363
 40
1.713742833862792
 40
2.320347933405154
 40
2.320347933405154
 40
2.320347933405154
 40
2.320347933405175
 10
375.6479991205317
 20
193.5014706633991
 30
0.0
 10
375.6255814634238
 20
193.656494103079
 30
0.0
 10
375.5744314081907
 20
194.0102089209966
 30
0.0
 10
375.138546246657
 20
194.4349365925982
 30
0.0
 10
374.5334955316496
 20
194.654123772564
 30
0.0
 10
374.1083109074738
 20
194.5851324729535
 30
0.0
 10
373.9057592978227
 20
194.5709122007768
 30
0.0
  0
LINE
  5
15D8
330
2
100
AcDbEntity
  8
0
100
AcDbLine
 10
378.435499121
 20
194.9184706634
 30
0.0
 11
379.435499121
 21
193.9184706634
 31
0.0
  0
ARC
  5
15D9
330
2
100
AcDbEntity
  8
0
100
AcDbCircle
 10
378.0425098746
 20
193.4245833876
 30
0.0
 40
1.3
100
AcDbArc
 50
5.0
 51
74.1191499917
  0
LINE
  5
15DA
330
2
100
AcDbEntity
  8
0
100
AcDbLine
 10
379.435499121
 20
192.4184706634
 30
0.0
 11
379.3375629821
 21
193.5378858532
 31
0.0
  0
LINE
  5
1663
330
2
100
AcDbEntity
  8
CENTER
100
AcDbLine
 10
80.4653972199
 20
143.5289596634
 30
0.0
 11
80.4653972199
 21
200.3059706634
 31
0.0
  0
LINE
  5
1665
330
2
100
AcDbEntity
  8
0
100
AcDbLine
 10
103.303306036
 20
194.9184706634
 30
0.0
 11
104.4653972199
 21
194.9184706634
 31
0.0
  0
LINE
  5
1666
330
2
100
AcDbEntity
  8
0
100
AcDbLine
 10
97.9653972199
 20
192.4184706634
 30
0.0
 11
105.4653972199
 21
192.4184706634
 31
0.0
  0
ARC
  5
1667
330
2
100
AcDbEntity
  8
0
100
AcDbCircle
 10
101.9653972199
 20
186.0184706634
 30
0.0
 40
9.0
100
AcDbArc
 50
74.1191499917
 51
105.8808500083
  0
LINE
  5
1668
330
2
100
AcDbEntity
  8
0
100
AcDbLine
 10
103.4653972199
 20
149.9184556634
 30
0.0
 11
105.4653972199
 21
151.9184556634
 31
0.0
  0
LINE
  5
166A
330
2
100
AcDbEntity
  8
CENTER
100
AcDbLine
 10
50.4217902387
 20
177.9184556634
 30
0.0
 11
110.5090042011
 21
177.9184556634
 31
0.0
  0
LINE
  5
166B
330
2
100
AcDbEntity
  8
0
100
AcDbLine
 10
55.4653902199
 20
162.9184556634
 30
0.0
 11
105.4653972199
 21
162.9184556634
 31
0.0
  0
LINE
  5
166C
330
2
100
AcDbEntity
  8
0
100
AcDbLine
 10
55.4653902199
 20
151.9184556634
 30
0.0
 11
105.4653972199
 21
151.9184556634
 31
0.0
  0
LINE
  5
166D
330
2
100
AcDbEntity
  8
0
100
AcDbLine
 10
55.4653902199
 20
161.9184556634
 30
0.0
 11
105.4653972199
 21
161.9184556634
 31
0.0
  0
SPLINE
  5
166E
330
2
100
AcDbEntity
  8
0
100
AcDbSpline
210
0.0
220
0.0
230
1.0
 70
     8
 71
     3
 72
    11
 73
     7
 74
     0
 42
0.000000001
 43
0.0000000001
 40
0.0
 40
0.0
 40
0.0
 40
0.0
 40
0.4601364636755307
 40
1.04988694485363
 40
1.713742833862792
 40
2.320347933405154
 40
2.320347933405154
 40
2.320347933405154
 40
2.320347933405175
 10
102.2528972203919
 20
193.5014706633991
 30
0.0
 10
102.2753148774998
 20
193.656494103079
 30
0.0
 10
102.3264649327331
 20
194.0102089209966
 30
0.0
 10
102.7623500942667
 20
194.4349365925982
 30
0.0
 10
103.3674008092741
 20
194.654123772564
 30
0.0
 10
103.79258543345
 20
194.5851324729534
 30
0.0
 10
103.995137043101
 20
194.5709122007768
 30
0.0
  0
LINE
  5
166F
330
2
100
AcDbEntity
  8
0
100
AcDbLine
 10
55.4653902199
 20
193.9184706634
 30
0.0
 11
55.4653902199
 21
151.9184556634
 31
0.0
  0
LINE
  5
1670
330
2
100
AcDbEntity
  8
0
100
AcDbLine
 10
56.9653902199
 20
149.9184556634
 30
0.0
 11
103.4653972199
 21
149.9184556634
 31
0.0
  0
LINE
  5
1671
330
2
100
AcDbEntity
  8
0
100
AcDbLine
 10
55.4653902199
 20
151.9184556634
 30
0.0
 11
57.4653902199
 21
149.9184556634
 31
0.0
  0
LINE
  5
1672
330
2
100
AcDbEntity
  8
0
100
AcDbLine
 10
56.9653902199
 20
149.9184556634
 30
0.0
 11
56.9653902199
 21
148.4184556634
 31
0.0
  0
LINE
  5
1673
330
2
100
AcDbEntity
  8
0
100
AcDbLine
 10
102.9653972199
 20
149.9184556634
 30
0.0
 11
102.9653972199
 21
148.4184556634
 31
0.0
  0
LINE
  5
1674
330
2
100
AcDbEntity
  8
0
100
AcDbLine
 10
62.9653972199
 20
193.9184706634
 30
0.0
 11
97.9653972199
 21
193.9184706634
 31
0.0
  0
LINE
  5
1675
330
2
100
AcDbEntity
  8
0
100
AcDbLine
 10
60.303306036
 20
194.9184706634
 30
0.0
 11
100.6274884039
 21
194.9184706634
 31
0.0
  0
LINE
  5
1676
330
2
100
AcDbEntity
  8
0
100
AcDbLine
 10
54.5903902199
 20
167.4184556634
 30
0.0
 11
56.5903902199
 21
167.4184556634
 31
0.0
  0
LINE
  5
1677
330
2
100
AcDbEntity
  8
0
100
AcDbLine
 10
54.5903902199
 20
188.4184556634
 30
0.0
 11
56.5903902199
 21
188.4184556634
 31
0.0
  0
LINE
  5
1678
330
2
100
AcDbEntity
  8
0
100
AcDbLine
 10
57.6274884039
 20
194.9184706634
 30
0.0
 11
56.4653972199
 21
194.9184706634
 31
0.0
  0
ARC
  5
1679
330
2
100
AcDbEntity
  8
0
100
AcDbCircle
 10
58.9653972199
 20
186.0184706634
 30
0.0
 40
9.0
100
AcDbArc
 50
74.1191499917
 51
105.8808500083
  0
LINE
  5
167A
330
2
100
AcDbEntity
  8
0
100
AcDbLine
 10
62.9653972199
 20
192.4184706634
 30
0.0
 11
55.4653972199
 21
192.4184706634
 31
0.0
  0
LINE
  5
167B
330
2
100
AcDbEntity
  8
0
100
AcDbLine
 10
55.4653972199
 20
192.4184706634
 30
0.0
 11
55.5633333588
 21
193.5378858532
 31
0.0
  0
ARC
  5
167C
330
2
100
AcDbEntity
  8
0
100
AcDbCircle
 10
56.8583864663
 20
193.4245833876
 30
0.0
 40
1.3
100
AcDbArc
 50
105.8808500083
 51
175.0
  0
LINE
  5
167D
330
2
100
AcDbEntity
  8
0
100
AcDbLine
 10
56.4653972199
 20
194.9184706634
 30
0.0
 11
55.4653972199
 21
193.9184706634
 31
0.0
  0
LINE
  5
167E
330
2
100
AcDbEntity
  8
0
100
AcDbLine
 10
62.9653972199
 20
192.4184706634
 30
0.0
 11
62.9653972199
 21
194.4184706634
 31
0.0
  0
LINE
  5
167F
330
2
100
AcDbEntity
  8
0
100
AcDbLine
 10
63.4653972199
 20
194.9184706634
 30
0.0
 11
62.9653972199
 21
194.4184706634
 31
0.0
  0
SPLINE
  5
1680
330
2
100
AcDbEntity
  8
0
100
AcDbSpline
210
0.0
220
0.0
230
1.0
 70
     8
 71
     3
 72
    11
 73
     7
 74
     0
 42
0.000000001
 43
0.0000000001
 40
0.0
 40
0.0
 40
0.0
 40
0.0
 40
0.4601364636755307
 40
1.04988694485363
 40
1.713742833862792
 40
2.320347933405154
 40
2.320347933405154
 40
2.320347933405154
 40
2.320347933405175
 10
59.25289722039186
 20
193.5014706633991
 30
0.0
 10
59.27531487749972
 20
193.656494103079
 30
0.0
 10
59.32646493273288
 20
194.0102089209966
 30
0.0
 10
59.76235009426654
 20
194.4349365925982
 30
0.0
 10
60.36740080927398
 20
194.654123772564
 30
0.0
 10
60.79258543344979
 20
194.5851324729534
 30
0.0
 10
60.99513704310091
 20
194.5709122007768
 30
0.0
  0
LINE
  5
1681
330
2
100
AcDbEntity
  8
0
100
AcDbLine
 10
62.4653972199
 20
192.4184706634
 30
0.0
 11
62.367461081
 21
193.5378858532
 31
0.0
  0
LINE
  5
1682
330
2
100
AcDbEntity
  8
0
100
AcDbLine
 10
60.9951370431
 20
194.5709122008
 30
0.0
 11
61.0153972199
 21
194.7818889462
 31
0.0
  0
LINE
  5
1683
330
2
100
AcDbEntity
  8
0
100
AcDbLine
 10
58.6778972195
 20
193.5014706634
 30
0.0
 11
59.2528972204
 21
193.5014706634
 31
0.0
  0
LINE
  5
1684
330
2
100
AcDbEntity
  8
0
100
AcDbLine
 10
56.9356573968
 20
194.5709122008
 30
0.0
 11
56.9153972199
 21
194.7818889462
 31
0.0
  0
SPLINE
  5
1685
330
2
100
AcDbEntity
  8
0
100
AcDbSpline
210
0.0
220
0.0
230
1.0
 70
     8
 71
     3
 72
    11
 73
     7
 74
     0
 42
0.000000001
 43
0.0000000001
 40
0.0
 40
0.0
 40
0.0
 40
0.0
 40
0.4601364636755307
 40
1.04988694485363
 40
1.713742833862792
 40
2.320347933405154
 40
2.320347933405154
 40
2.320347933405154
 40
2.320347933405175
 10
58.67789721948174
 20
193.5014706633991
 30
0.0
 10
58.65547956237396
 20
193.656494103079
 30
0.0
 10
58.60432950714056
 20
194.0102089209966
 30
0.0
 10
58.16844434560704
 20
194.4349365925982
 30
0.0
 10
57.56339363059959
 20
194.654123772564
 30
0.0
 10
57.13820900642378
 20
194.5851324729534
 30
0.0
 10
56.93565739677268
 20
194.5709122007768
 30
0.0
  0
LINE
  5
1686
330
2
100
AcDbEntity
  8
0
100
AcDbLine
 10
62.9653972199
 20
194.4184706634
 30
0.0
 11
61.9103746096
 21
194.4184706634
 31
0.0
  0
ARC
  5
1687
330
2
100
AcDbEntity
  8
0
100
AcDbCircle
 10
61.0724079735
 20
193.4245833876
 30
0.0
 40
1.3
100
AcDbArc
 50
5.0
 51
74.1191499917
  0
LINE
  5
1688
330
2
100
AcDbEntity
  8
0
100
AcDbLine
 10
102.2528972204
 20
193.5014706634
 30
0.0
 11
101.6778972195
 21
193.5014706634
 31
0.0
  0
LINE
  5
1689
330
2
100
AcDbEntity
  8
0
100
AcDbLine
 10
97.9653972199
 20
192.4184706634
 30
0.0
 11
97.9653972199
 21
194.4184706634
 31
0.0
  0
LINE
  5
168A
330
2
100
AcDbEntity
  8
0
100
AcDbLine
 10
97.4653972199
 20
194.9184706634
 30
0.0
 11
97.9653972199
 21
194.4184706634
 31
0.0
  0
LINE
  5
168B
330
2
100
AcDbEntity
  8
0
100
AcDbLine
 10
97.9653972199
 20
194.4184706634
 30
0.0
 11
99.0204198303
 21
194.4184706634
 31
0.0
  0
ARC
  5
168C
330
2
100
AcDbEntity
  8
0
100
AcDbCircle
 10
99.8583864663
 20
193.4245833876
 30
0.0
 40
1.3
100
AcDbArc
 50
105.8808500083
 51
175.0
  0
LINE
  5
168D
330
2
100
AcDbEntity
  8
0
100
AcDbLine
 10
99.9356573968
 20
194.5709122008
 30
0.0
 11
99.9153972199
 21
194.7818889462
 31
0.0
  0
LINE
  5
168E
330
2
100
AcDbEntity
  8
0
100
AcDbLine
 10
98.4653972199
 20
192.4184706634
 30
0.0
 11
98.5633333588
 21
193.5378858532
 31
0.0
  0
SPLINE
  5
168F
330
2
100
AcDbEntity
  8
0
100
AcDbSpline
210
0.0
220
0.0
230
1.0
 70
     8
 71
     3
 72
    11
 73
     7
 74
     0
 42
0.000000001
 43
0.0000000001
 40
0.0
 40
0.0
 40
0.0
 40
0.0
 40
0.4601364636755307
 40
1.04988694485363
 40
1.713742833862792
 40
2.320347933405154
 40
2.320347933405154
 40
2.320347933405154
 40
2.320347933405175
 10
101.6778972194819
 20
193.5014706633991
 30
0.0
 10
101.655479562374
 20
193.656494103079
 30
0.0
 10
101.6043295071408
 20
194.0102089209966
 30
0.0
 10
101.1684443456071
 20
194.4349365925982
 30
0.0
 10
100.5633936305998
 20
194.654123772564
 30
0.0
 10
100.1382090064239
 20
194.5851324729534
 30
0.0
 10
99.93565739677293
 20
194.5709122007768
 30
0.0
  0
LINE
  5
1690
330
2
100
AcDbEntity
  8
0
100
AcDbLine
 10
105.4653972199
 20
193.9184706634
 30
0.0
 11
105.4653972199
 21
151.9184556634
 31
0.0
  0
LINE
  5
1691
330
2
100
AcDbEntity
  8
0
100
AcDbLine
 10
103.9951370431
 20
194.5709122008
 30
0.0
 11
104.0153972199
 21
194.7818889462
 31
0.0
  0
ARC
  5
1692
330
2
100
AcDbEntity
  8
0
100
AcDbCircle
 10
104.0724079735
 20
193.4245833876
 30
0.0
 40
1.3
100
AcDbArc
 50
5.0
 51
74.1191499917
  0
LINE
  5
1693
330
2
100
AcDbEntity
  8
0
100
AcDbLine
 10
105.4653972199
 20
192.4184706634
 30
0.0
 11
105.367461081
 21
193.5378858532
 31
0.0
  0
LINE
  5
1694
330
2
100
AcDbEntity
  8
0
100
AcDbLine
 10
104.4653972199
 20
194.9184706634
 30
0.0
 11
105.4653972199
 21
193.9184706634
 31
0.0
  0
SPLINE
  5
1BBE
330
2
100
AcDbEntity
  8
0
100
AcDbSpline
210
0.0
220
0.0
230
1.0
 70
     8
 71
     3
 72
    11
 73
     7
 74
     0
 42
0.000000001
 43
0.0000000001
 40
0.0
 40
0.0
 40
0.0
 40
0.0
 40
0.4601364636755307
 40
1.04988694485363
 40
1.713742833862792
 40
2.320347933405154
 40
2.320347933405154
 40
2.320347933405154
 40
2.320347933405175
 10
662.3305011236682
 20
193.5014706633991
 30
0.0
 10
662.3529187807762
 20
193.656494103079
 30
0.0
 10
662.4040688360096
 20
194.0102089209966
 30
0.0
 10
662.8399539975433
 20
194.4349365925982
 30
0.0
 10
663.4450047125507
 20
194.654123772564
 30
0.0
 10
663.8701893367262
 20
194.5851324729535
 30
0.0
 10
664.0727409463774
 20
194.5709122007768
 30
0.0
  0
ARC
  5
1BBF
330
2
100
AcDbEntity
  8
0
100
AcDbCircle
 10
664.1500118768
 20
193.4245833876
 30
0.0
 40
1.3
100
AcDbArc
 50
5.0
 51
74.1191499917
  0
ARC
  5
1BC0
330
2
100
AcDbEntity
  8
0
100
AcDbCircle
 10
659.9359903696
 20
193.4245833876
 30
0.0
 40
1.3
100
AcDbArc
 50
105.8808500083
 51
175.0
  0
SPLINE
  5
1BC1
330
2
100
AcDbEntity
  8
0
100
AcDbSpline
210
0.0
220
0.0
230
1.0
 70
     8
 71
     3
 72
    11
 73
     7
 74
     0
 42
0.000000001
 43
0.0000000001
 40
0.0
 40
0.0
 40
0.0
 40
0.0
 40
0.4601364636755307
 40
1.04988694485363
 40
1.713742833862792
 40
2.320347933405154
 40
2.320347933405154
 40
2.320347933405154
 40
2.320347933405175
 10
661.7555011227584
 20
193.5014706633991
 30
0.0
 10
661.7330834656504
 20
193.656494103079
 30
0.0
 10
661.6819334104173
 20
194.0102089209966
 30
0.0
 10
661.2460482488835
 20
194.4349365925982
 30
0.0
 10
660.6409975338763
 20
194.654123772564
 30
0.0
 10
660.2158129097004
 20
194.5851324729535
 30
0.0
 10
660.0132613000494
 20
194.5709122007768
 30
0.0
  0
LINE
  5
1BC2
330
2
100
AcDbEntity
  8
0
100
AcDbLine
 10
658.0430011232
 20
192.4184706634
 30
0.0
 11
658.0430011232
 21
194.4184706634
 31
0.0
  0
LINE
  5
1BC3
330
2
100
AcDbEntity
  8
CENTER
100
AcDbLine
 10
640.5430011232
 20
143.5289596634
 30
0.0
 11
640.5430011232
 21
200.3059706634
 31
0.0
  0
LINE
  5
1BC4
330
2
100
AcDbEntity
  8
0
100
AcDbLine
 10
665.5430081232
 20
193.9184706634
 30
0.0
 11
665.5430081232
 21
151.9184556634
 31
0.0
  0
LINE
  5
1BC5
330
2
100
AcDbEntity
  8
0
100
AcDbLine
 10
623.0430011232
 20
192.4184706634
 30
0.0
 11
623.0430011232
 21
194.4184706634
 31
0.0
  0
ARC
  5
1BC6
330
2
100
AcDbEntity
  8
0
100
AcDbCircle
 10
621.1500118768
 20
193.4245833876
 30
0.0
 40
1.3
100
AcDbArc
 50
5.0
 51
74.1191499917
  0
SPLINE
  5
1BC7
330
2
100
AcDbEntity
  8
0
100
AcDbSpline
210
0.0
220
0.0
230
1.0
 70
     8
 71
     3
 72
    11
 73
     7
 74
     0
 42
0.000000001
 43
0.0000000001
 40
0.0
 40
0.0
 40
0.0
 40
0.0
 40
0.4601364636755307
 40
1.04988694485363
 40
1.713742833862792
 40
2.320347933405154
 40
2.320347933405154
 40
2.320347933405154
 40
2.320347933405175
 10
619.3305011236682
 20
193.5014706633991
 30
0.0
 10
619.3529187807761
 20
193.656494103079
 30
0.0
 10
619.4040688360094
 20
194.0102089209966
 30
0.0
 10
619.839953997543
 20
194.4349365925982
 30
0.0
 10
620.4450047125503
 20
194.654123772564
 30
0.0
 10
620.8701893367262
 20
194.5851324729535
 30
0.0
 10
621.0727409463772
 20
194.5709122007768
 30
0.0
  0
ARC
  5
1BC8
330
2
100
AcDbEntity
  8
0
100
AcDbCircle
 10
616.9359903696
 20
193.4245833876
 30
0.0
 40
1.3
100
AcDbArc
 50
105.8808500083
 51
175.0
  0
SPLINE
  5
1BC9
330
2
100
AcDbEntity
  8
0
100
AcDbSpline
210
0.0
220
0.0
230
1.0
 70
     8
 71
     3
 72
    11
 73
     7
 74
     0
 42
0.000000001
 43
0.0000000001
 40
0.0
 40
0.0
 40
0.0
 40
0.0
 40
0.4601364636755307
 40
1.04988694485363
 40
1.713742833862792
 40
2.320347933405154
 40
2.320347933405154
 40
2.320347933405154
 40
2.320347933405175
 10
618.7555011227582
 20
193.5014706633991
 30
0.0
 10
618.7330834656502
 20
193.656494103079
 30
0.0
 10
618.681933410417
 20
194.0102089209966
 30
0.0
 10
618.2460482488833
 20
194.4349365925982
 30
0.0
 10
617.6409975338761
 20
194.654123772564
 30
0.0
 10
617.2158129097002
 20
194.5851324729535
 30
0.0
 10
617.0132613000491
 20
194.5709122007768
 30
0.0
  0
LINE
  5
1BCA
330
2
100
AcDbEntity
  8
0
100
AcDbLine
 10
615.5430011232
 20
193.9184706634
 30
0.0
 11
615.5430011232
 21
151.9184556634
 31
0.0
  0
LINE
  5
1BFD
330
2
100
AcDbEntity
  8
CENTER
100
AcDbLine
 10
670.5866081044
 20
177.9184556634
 30
0.0
 11
610.499394142
 21
177.9184556634
 31
0.0
  0
LINE
  5
1BFE
330
2
100
AcDbEntity
  8
0
100
AcDbLine
 10
664.0430081232
 20
149.9184556634
 30
0.0
 11
617.5430011232
 21
149.9184556634
 31
0.0
  0
LINE
  5
1BFF
330
2
100
AcDbEntity
  8
0
100
AcDbLine
 10
665.5430081232
 20
161.9184556634
 30
0.0
 11
615.5430011232
 21
161.9184556634
 31
0.0
  0
LINE
  5
1C00
330
2
100
AcDbEntity
  8
0
100
AcDbLine
 10
665.5430081232
 20
151.9184556634
 30
0.0
 11
615.5430011232
 21
151.9184556634
 31
0.0
  0
LINE
  5
1C01
330
2
100
AcDbEntity
  8
0
100
AcDbLine
 10
665.5430081232
 20
162.9184556634
 30
0.0
 11
615.5430011232
 21
162.9184556634
 31
0.0
  0
LINE
  5
1C03
330
2
100
AcDbEntity
  8
0
100
AcDbLine
 10
617.5430011232
 20
149.9184556634
 30
0.0
 11
615.5430011232
 21
151.9184556634
 31
0.0
  0
LINE
  5
1C04
330
2
100
AcDbEntity
  8
0
100
AcDbLine
 10
618.0430011232
 20
149.9184556634
 30
0.0
 11
618.0430011232
 21
148.4184556634
 31
0.0
  0
LINE
  5
1C05
330
2
100
AcDbEntity
  8
0
100
AcDbLine
 10
623.0430011232
 20
192.4184706634
 30
0.0
 11
615.5430011232
 21
192.4184706634
 31
0.0
  0
LINE
  5
1C06
330
2
100
AcDbEntity
  8
0
100
AcDbLine
 10
615.5430011232
 20
192.4184706634
 30
0.0
 11
615.6409372621
 21
193.5378858532
 31
0.0
  0
LINE
  5
1C07
330
2
100
AcDbEntity
  8
0
100
AcDbLine
 10
622.5430011232
 20
192.4184706634
 30
0.0
 11
622.4450649843
 21
193.5378858532
 31
0.0
  0
LINE
  5
1C08
330
2
100
AcDbEntity
  8
0
100
AcDbLine
 10
618.7555011228
 20
193.5014706634
 30
0.0
 11
619.3305011237
 21
193.5014706634
 31
0.0
  0
LINE
  5
1C09
330
2
100
AcDbEntity
  8
0
100
AcDbLine
 10
664.0430081232
 20
149.9184556634
 30
0.0
 11
664.0430081232
 21
148.4184556634
 31
0.0
  0
LINE
  5
1C0A
330
2
100
AcDbEntity
  8
0
100
AcDbLine
 10
665.5430081232
 20
151.9184556634
 30
0.0
 11
663.5430081232
 21
149.9184556634
 31
0.0
  0
LINE
  5
1C0B
330
2
100
AcDbEntity
  8
0
100
AcDbLine
 10
666.4180081232
 20
167.4184556634
 30
0.0
 11
664.4180081232
 21
167.4184556634
 31
0.0
  0
LINE
  5
1C0C
330
2
100
AcDbEntity
  8
0
100
AcDbLine
 10
658.0430011232
 20
192.4184706634
 30
0.0
 11
665.5430011232
 21
192.4184706634
 31
0.0
  0
LINE
  5
1C0D
330
2
100
AcDbEntity
  8
0
100
AcDbLine
 10
666.4180081232
 20
188.4184556634
 30
0.0
 11
664.4180081232
 21
188.4184556634
 31
0.0
  0
LINE
  5
1C0E
330
2
100
AcDbEntity
  8
0
100
AcDbLine
 10
658.5430011232
 20
192.4184706634
 30
0.0
 11
658.6409372621
 21
193.5378858532
 31
0.0
  0
LINE
  5
1C0F
330
2
100
AcDbEntity
  8
0
100
AcDbLine
 10
662.3305011237
 20
193.5014706634
 30
0.0
 11
661.7555011228
 21
193.5014706634
 31
0.0
  0
LINE
  5
1C10
330
2
100
AcDbEntity
  8
0
100
AcDbLine
 10
665.5430011232
 20
192.4184706634
 30
0.0
 11
665.4450649843
 21
193.5378858532
 31
0.0
  0
LINE
  5
1C84
330
2
100
AcDbEntity
  8
0
100
AcDbLine
 10
660.7050923072
 20
194.9184706634
 30
0.0
 11
620.3809099392
 21
194.9184706634
 31
0.0
  0
LINE
  5
1C85
330
2
100
AcDbEntity
  8
0
100
AcDbLine
 10
658.0430011232
 20
193.9184706634
 30
0.0
 11
623.0430011232
 21
193.9184706634
 31
0.0
  0
ARC
  5
1C86
330
2
100
AcDbEntity
  8
0
100
AcDbCircle
 10
619.0430011232
 20
186.0184706634
 30
0.0
 40
9.0
100
AcDbArc
 50
74.1191499917
 51
105.8808500083
  0
LINE
  5
1C87
330
2
100
AcDbEntity
  8
0
100
AcDbLine
 10
616.5430011232
 20
194.9184706634
 30
0.0
 11
615.5430011232
 21
193.9184706634
 31
0.0
  0
LINE
  5
1C88
330
2
100
AcDbEntity
  8
0
100
AcDbLine
 10
617.7050923072
 20
194.9184706634
 30
0.0
 11
616.5430011232
 21
194.9184706634
 31
0.0
  0
LINE
  5
1C89
330
2
100
AcDbEntity
  8
0
100
AcDbLine
 10
617.0132613
 20
194.5709122008
 30
0.0
 11
616.9930011232
 21
194.7818889462
 31
0.0
  0
LINE
  5
1C8A
330
2
100
AcDbEntity
  8
0
100
AcDbLine
 10
623.5430011232
 20
194.9184706634
 30
0.0
 11
623.0430011232
 21
194.4184706634
 31
0.0
  0
LINE
  5
1C8B
330
2
100
AcDbEntity
  8
0
100
AcDbLine
 10
621.0727409464
 20
194.5709122008
 30
0.0
 11
621.0930011232
 21
194.7818889462
 31
0.0
  0
LINE
  5
1C8C
330
2
100
AcDbEntity
  8
0
100
AcDbLine
 10
623.0430011232
 20
194.4184706634
 30
0.0
 11
621.9879785128
 21
194.4184706634
 31
0.0
  0
LINE
  5
1C8D
330
2
100
AcDbEntity
  8
0
100
AcDbLine
 10
657.5430011232
 20
194.9184706634
 30
0.0
 11
658.0430011232
 21
194.4184706634
 31
0.0
  0
LINE
  5
1C8E
330
2
100
AcDbEntity
  8
0
100
AcDbLine
 10
663.3809099392
 20
194.9184706634
 30
0.0
 11
664.5430011232
 21
194.9184706634
 31
0.0
  0
LINE
  5
1C8F
330
2
100
AcDbEntity
  8
0
100
AcDbLine
 10
664.0727409464
 20
194.5709122008
 30
0.0
 11
664.0930011232
 21
194.7818889462
 31
0.0
  0
LINE
  5
1C90
330
2
100
AcDbEntity
  8
0
100
AcDbLine
 10
658.0430011232
 20
194.4184706634
 30
0.0
 11
659.0980237336
 21
194.4184706634
 31
0.0
  0
LINE
  5
1C91
330
2
100
AcDbEntity
  8
0
100
AcDbLine
 10
660.0132613
 20
194.5709122008
 30
0.0
 11
659.9930011232
 21
194.7818889462
 31
0.0
  0
ARC
  5
1C92
330
2
100
AcDbEntity
  8
0
100
AcDbCircle
 10
662.0430011232
 20
186.0184706634
 30
0.0
 40
9.0
100
AcDbArc
 50
74.1191499917
 51
105.8808500083
  0
LINE
  5
1C93
330
2
100
AcDbEntity
  8
0
100
AcDbLine
 10
664.5430011232
 20
194.9184706634
 30
0.0
 11
665.5430011232
 21
193.9184706634
 31
0.0
  0
TEXT
  5
1E2E
330
2
100
AcDbEntity
  8
TITLE_C
100
AcDbText
 10
300.4753840251
 20
325.7297323139
 30
0.0
 40
5.0
  1
HF18L010～240-CTMR60WK
100
AcDbText
  0
TEXT
  5
1E2F
330
2
100
AcDbEntity
  8
TITLE_C
100
AcDbText
 10
300.4753840251
 20
333.7297323139
 30
0.0
 40
5.0
  1
HF18L010～240-CTMR60NKX
100
AcDbText
  0
TEXT
  5
1E30
330
2
100
AcDbEntity
  8
TITLE_C
100
AcDbText
 10
300.4753840251
 20
350.5584024866
 30
0.0
 40
5.0
  1
HF18L010～240-CTMR40WK
100
AcDbText
  0
TEXT
  5
1E31
330
2
100
AcDbEntity
  8
TITLE_C
100
AcDbText
 10
300.4753840251
 20
358.5584024866
 30
0.0
 40
5.0
  1
HF18L010～240-CTMR40NKX
100
AcDbText
  0
TEXT
  5
215A
330
2
100
AcDbEntity
  8
TITLE_C
100
AcDbText
 10
300.4622561148
 20
309.5766358308
 30
0.0
 40
5.0
  1
HF18L010~240-CSMR40NK
100
AcDbText
  0
TEXT
  5
29B9
330
2
100
AcDbEntity
  8
TITLE_C
100
AcDbText
 10
300.1436623089
 20
366.2936392732
 30
0.0
 40
5.0
  1
HF18L010～240-CTMR40NK
100
AcDbText
  0
TEXT
  5
29BA
330
2
100
AcDbEntity
  8
TITLE_C
100
AcDbText
 10
300.4753840251
 20
342.3382299628
 30
0.0
 40
5.0
  1
HF18L010～240-CTMR60NK
100
AcDbText
  0
TEXT
  5
2AD0
330
2
100
AcDbEntity
  8
TITLE_C
100
AcDbText
 10
300.4753840251
 20
317.5864081495
 30
0.0
 40
5.0
  1
HF18L010～240-CTMR90NK
100
AcDbText
  0
TEXT
  5
2F10
330
2
100
AcDbEntity
  8
TITLE_C
100
AcDbText
 10
300.4622561148
 20
303.0751427302
 30
0.0
 40
5.0
  1
HF18L010~240-CSMR40WKX
100
AcDbText
  0
TEXT
  5
2F11
330
2
100
AcDbEntity
  8
TITLE_C
100
AcDbText
 10
300.4622561148
 20
295.8087686171
 30
0.0
 40
5.0
  1
HF18L010~240-CSMR40WK
100
AcDbText
  0
LINE
  5
32B9
330
2
100
AcDbEntity
  8
0
100
AcDbLine
 10
534.3092061232
 20
94.8909706634
 30
0.0
 11
536.0455041232
 21
94.8909706634
 31
0.0
  0
LINE
  5
32BA
330
2
100
AcDbEntity
  8
0
100
AcDbLine
 10
530.3785111232
 20
96.1144426634
 30
0.0
 11
537.0425131232
 21
96.1144426634
 31
0.0
  0
LINE
  5
32BB
330
2
100
AcDbEntity
  8
0
100
AcDbLine
 10
524.3392051232
 20
91.9234186634
 30
0.0
 11
524.3392051232
 21
90.8300996634
 31
0.0
  0
LINE
  5
32BC
330
2
100
AcDbEntity
  8
0
100
AcDbLine
 10
521.5018181232
 20
93.8538836634
 30
0.0
 11
521.5018181232
 21
88.0950876634
 31
0.0
  0
LINE
  5
32BD
330
2
100
AcDbEntity
  8
0
100
AcDbLine
 10
520.3825091232
 20
94.5652636634
 30
0.0
 11
520.3825091232
 21
87.4155486634
 31
0.0
  0
LINE
  5
32BE
330
2
100
AcDbEntity
  8
0
100
AcDbLine
 10
534.3092061232
 20
94.8909706634
 30
0.0
 11
534.3092061232
 21
87.2117596634
 31
0.0
  0
LINE
  5
32BF
330
2
100
AcDbEntity
  8
0
100
AcDbLine
 10
533.0597251232
 20
94.8909706634
 30
0.0
 11
533.0597251232
 21
87.2117596634
 31
0.0
  0
LINE
  5
32C0
330
2
100
AcDbEntity
  8
0
100
AcDbLine
 10
527.0465111232
 20
91.9234186634
 30
0.0
 11
527.0465111232
 21
86.1184486634
 31
0.0
  0
LINE
  5
32C1
330
2
100
AcDbEntity
  8
0
100
AcDbLine
 10
526.0833151232
 20
86.1184486634
 30
0.0
 11
527.0465111232
 21
86.1184486634
 31
0.0
  0
ARC
  5
32C2
330
2
100
AcDbEntity
  8
0
100
AcDbCircle
 10
524.0008111232
 20
89.3723466634
 30
0.0
 40
2.0825
100
AcDbArc
 50
270.000214
 51
0.000109
  0
LINE
  5
32C3
330
2
100
AcDbEntity
  8
0
100
AcDbLine
 10
520.3825091232
 20
87.4155486634
 30
0.0
 11
521.6680161232
 21
86.1184486634
 31
0.0
  0
LINE
  5
32C4
330
2
100
AcDbEntity
  8
0
100
AcDbLine
 10
526.0833151232
 20
86.9152696634
 30
0.0
 11
525.1336081232
 21
86.1184486634
 31
0.0
  0
LINE
  5
32C5
330
2
100
AcDbEntity
  8
0
100
AcDbLine
 10
526.0833151232
 20
90.6218476634
 30
0.0
 11
526.0833151232
 21
90.8300996634
 31
0.0
  0
LINE
  5
32C6
330
2
100
AcDbEntity
  8
0
100
AcDbLine
 10
526.0833151232
 20
90.8300996634
 30
0.0
 11
526.0833151232
 21
89.3723466634
 31
0.0
  0
LINE
  5
32C7
330
2
100
AcDbEntity
  8
0
100
AcDbLine
 10
526.0833151232
 20
86.9152696634
 30
0.0
 11
526.0833151232
 21
86.1184486634
 31
0.0
  0
LINE
  5
32C8
330
2
100
AcDbEntity
  8
0
100
AcDbLine
 10
526.0833151232
 20
89.3170376634
 30
0.0
 11
526.0833151232
 21
89.3723466634
 31
0.0
  0
LINE
  5
32C9
330
2
100
AcDbEntity
  8
0
100
AcDbLine
 10
526.0833151232
 20
89.3723466634
 30
0.0
 11
526.0833151232
 21
89.7888586634
 31
0.0
  0
LINE
  5
32CA
330
2
100
AcDbEntity
  8
0
100
AcDbLine
 10
524.0008111232
 20
87.2898576634
 30
0.0
 11
523.5843071232
 21
87.2898576634
 31
0.0
  0
LINE
  5
32CB
330
2
100
AcDbEntity
  8
0
100
AcDbLine
 10
526.0833151232
 20
89.7888586634
 30
0.0
 11
526.0833151232
 21
90.6218476634
 31
0.0
  0
LINE
  5
32CC
330
2
100
AcDbEntity
  8
0
100
AcDbLine
 10
523.5843071232
 20
87.2898576634
 30
0.0
 11
522.7513141232
 21
87.2898576634
 31
0.0
  0
LINE
  5
32CD
330
2
100
AcDbEntity
  8
0
100
AcDbLine
 10
526.0833151232
 20
90.8300996634
 30
0.0
 11
524.3392051232
 21
90.8300996634
 31
0.0
  0
LINE
  5
32CE
330
2
100
AcDbEntity
  8
0
100
AcDbLine
 10
521.5018181232
 20
88.0950876634
 30
0.0
 11
522.2663141232
 21
87.2898576634
 31
0.0
  0
LINE
  5
32CF
330
2
100
AcDbEntity
  8
0
100
AcDbLine
 10
522.7513141232
 20
87.2898576634
 30
0.0
 11
522.2663141232
 21
87.2898576634
 31
0.0
  0
LINE
  5
32D0
330
2
100
AcDbEntity
  8
0
100
AcDbLine
 10
525.1336081232
 20
86.1184486634
 30
0.0
 11
521.6680161232
 21
86.1184486634
 31
0.0
  0
LINE
  5
32D1
330
2
100
AcDbEntity
  8
0
100
AcDbLine
 10
532.5650961232
 20
87.2117596634
 30
0.0
 11
533.0597251232
 21
87.2117596634
 31
0.0
  0
LINE
  5
32D2
330
2
100
AcDbEntity
  8
0
100
AcDbLine
 10
532.5650961232
 20
86.1184486634
 30
0.0
 11
534.7257101232
 21
86.1184486634
 31
0.0
  0
LINE
  5
32D3
330
2
100
AcDbEntity
  8
0
100
AcDbLine
 10
534.7257101232
 20
87.2117596634
 30
0.0
 11
534.7257101232
 21
86.1184486634
 31
0.0
  0
LINE
  5
32D4
330
2
100
AcDbEntity
  8
0
100
AcDbLine
 10
532.5650961232
 20
87.2117596634
 30
0.0
 11
532.5650961232
 21
86.1184486634
 31
0.0
  0
LINE
  5
32D5
330
2
100
AcDbEntity
  8
0
100
AcDbLine
 10
534.3092061232
 20
87.2117596634
 30
0.0
 11
534.7257101232
 21
87.2117596634
 31
0.0
  0
LINE
  5
32D6
330
2
100
AcDbEntity
  8
0
100
AcDbLine
 10
524.3392051232
 20
91.9234186634
 30
0.0
 11
527.0465111232
 21
91.9234186634
 31
0.0
  0
LINE
  5
32D7
330
2
100
AcDbEntity
  8
0
100
AcDbLine
 10
526.0833151232
 20
94.0319386634
 30
0.0
 11
527.0465111232
 21
94.0319386634
 31
0.0
  0
LINE
  5
32D8
330
2
100
AcDbEntity
  8
0
100
AcDbLine
 10
526.0733051232
 20
96.1144426634
 30
0.0
 11
527.0465111232
 21
95.0344636634
 31
0.0
  0
LINE
  5
32D9
330
2
100
AcDbEntity
  8
0
100
AcDbLine
 10
521.5923181232
 20
96.1144426634
 30
0.0
 11
520.3825091232
 21
94.5652636634
 31
0.0
  0
LINE
  5
32DA
330
2
100
AcDbEntity
  8
0
100
AcDbLine
 10
526.0833151232
 20
94.1895006634
 30
0.0
 11
526.0833151232
 21
94.0319386634
 31
0.0
  0
LINE
  5
32DB
330
2
100
AcDbEntity
  8
0
100
AcDbLine
 10
521.5923181232
 20
96.1144426634
 30
0.0
 11
526.0733051232
 21
96.1144426634
 31
0.0
  0
LINE
  5
32DC
330
2
100
AcDbEntity
  8
0
100
AcDbLine
 10
526.0833151232
 20
94.1895006634
 30
0.0
 11
525.4528071232
 21
94.7868446634
 31
0.0
  0
LINE
  5
32DD
330
2
100
AcDbEntity
  8
0
100
AcDbLine
 10
522.2542131232
 20
94.7868446634
 30
0.0
 11
521.5018181232
 21
93.8538836634
 31
0.0
  0
LINE
  5
32DE
330
2
100
AcDbEntity
  8
0
100
AcDbLine
 10
525.4654101232
 20
94.7868446634
 30
0.0
 11
522.2542131232
 21
94.7868446634
 31
0.0
  0
LINE
  5
32DF
330
2
100
AcDbEntity
  8
0
100
AcDbLine
 10
530.3785111232
 20
94.0319386634
 30
0.0
 11
531.1181971232
 21
94.0319386634
 31
0.0
  0
LINE
  5
32E0
330
2
100
AcDbEntity
  8
0
100
AcDbLine
 10
527.0465111232
 20
95.0344636634
 30
0.0
 11
527.0465111232
 21
94.0319386634
 31
0.0
  0
LINE
  5
32E1
330
2
100
AcDbEntity
  8
0
100
AcDbLine
 10
530.3785111232
 20
94.0319386634
 30
0.0
 11
530.3785111232
 21
96.1144426634
 31
0.0
  0
LINE
  5
32E2
330
2
100
AcDbEntity
  8
0
100
AcDbLine
 10
533.0597251232
 20
94.8909706634
 30
0.0
 11
531.4761071232
 21
94.8909706634
 31
0.0
  0
LINE
  5
32E3
330
2
100
AcDbEntity
  8
0
100
AcDbLine
 10
531.4761071232
 20
94.8909706634
 30
0.0
 11
531.1181971232
 21
94.0319386634
 31
0.0
  0
ARC
  5
32E4
330
2
100
AcDbEntity
  8
0
100
AcDbCircle
 10
544.3703021232
 20
93.4462376634
 30
0.0
 40
2.668203
100
AcDbArc
 50
286.018127
 51
90.00351
  0
LINE
  5
32E5
330
2
100
AcDbEntity
  8
0
100
AcDbLine
 10
540.8691121232
 20
94.8909706634
 30
0.0
 11
540.8691121232
 21
87.1596966634
 31
0.0
  0
LINE
  5
32E6
330
2
100
AcDbEntity
  8
0
100
AcDbLine
 10
545.5025961232
 20
86.1184486634
 30
0.0
 11
547.0385151232
 21
86.1184486634
 31
0.0
  0
LINE
  5
32E7
330
2
100
AcDbEntity
  8
0
100
AcDbLine
 10
545.1065081232
 20
90.8816286634
 30
0.0
 11
546.7579981232
 21
87.1596966634
 31
0.0
  0
LINE
  5
32E8
330
2
100
AcDbEntity
  8
0
100
AcDbLine
 10
542.4700031232
 20
86.1184486634
 30
0.0
 11
540.3745141232
 21
86.1184486634
 31
0.0
  0
LINE
  5
32E9
330
2
100
AcDbEntity
  8
0
100
AcDbLine
 10
540.3745141232
 20
87.1596966634
 30
0.0
 11
540.8691121232
 21
87.1596966634
 31
0.0
  0
LINE
  5
32EA
330
2
100
AcDbEntity
  8
0
100
AcDbLine
 10
540.3745141232
 20
87.1596966634
 30
0.0
 11
540.3745141232
 21
86.1184486634
 31
0.0
  0
LINE
  5
32EB
330
2
100
AcDbEntity
  8
0
100
AcDbLine
 10
542.0144061232
 20
90.7910486634
 30
0.0
 11
544.1473101232
 21
90.7910486634
 31
0.0
  0
LINE
  5
32EC
330
2
100
AcDbEntity
  8
0
100
AcDbLine
 10
542.4700031232
 20
87.1596966634
 30
0.0
 11
542.4700031232
 21
86.1184486634
 31
0.0
  0
LINE
  5
32ED
330
2
100
AcDbEntity
  8
0
100
AcDbLine
 10
545.5025961232
 20
87.1596966634
 30
0.0
 11
545.5025961232
 21
86.1184486634
 31
0.0
  0
LINE
  5
32EE
330
2
100
AcDbEntity
  8
0
100
AcDbLine
 10
545.5025961232
 20
87.1596966634
 30
0.0
 11
545.7102071232
 21
87.1596966634
 31
0.0
  0
LINE
  5
32EF
330
2
100
AcDbEntity
  8
0
100
AcDbLine
 10
542.0144061232
 20
87.1596966634
 30
0.0
 11
542.4700031232
 21
87.1596966634
 31
0.0
  0
LINE
  5
32F0
330
2
100
AcDbEntity
  8
0
100
AcDbLine
 10
544.1473101232
 20
90.7910486634
 30
0.0
 11
545.7102071232
 21
87.1596966634
 31
0.0
  0
LINE
  5
32F1
330
2
100
AcDbEntity
  8
0
100
AcDbLine
 10
542.0144061232
 20
90.7910486634
 30
0.0
 11
542.0144061232
 21
87.1596966634
 31
0.0
  0
LINE
  5
32F2
330
2
100
AcDbEntity
  8
0
100
AcDbLine
 10
547.0385151232
 20
87.1596966634
 30
0.0
 11
547.0385151232
 21
86.1184486634
 31
0.0
  0
LINE
  5
32F3
330
2
100
AcDbEntity
  8
0
100
AcDbLine
 10
546.7579981232
 20
87.1596966634
 30
0.0
 11
547.0385151232
 21
87.1596966634
 31
0.0
  0
ARC
  5
32F4
330
2
100
AcDbEntity
  8
0
100
AcDbCircle
 10
544.3703021232
 20
93.4462376634
 30
0.0
 40
1.627785999999999
100
AcDbArc
 50
277.414726
 51
62.41185
  0
LINE
  5
32F5
330
2
100
AcDbEntity
  8
0
100
AcDbLine
 10
540.3745141232
 20
94.8909706634
 30
0.0
 11
540.8691121232
 21
94.8909706634
 31
0.0
  0
LINE
  5
32F6
330
2
100
AcDbEntity
  8
0
100
AcDbLine
 10
540.3745141232
 20
96.1144426634
 30
0.0
 11
544.3703021232
 21
96.1144426634
 31
0.0
  0
LINE
  5
32F7
330
2
100
AcDbEntity
  8
0
100
AcDbLine
 10
536.0455041232
 20
94.8909706634
 30
0.0
 11
536.3474141232
 21
94.0319386634
 31
0.0
  0
LINE
  5
32F8
330
2
100
AcDbEntity
  8
0
100
AcDbLine
 10
540.3745141232
 20
96.1144426634
 30
0.0
 11
540.3745141232
 21
94.8909706634
 31
0.0
  0
LINE
  5
32F9
330
2
100
AcDbEntity
  8
0
100
AcDbLine
 10
536.3474141232
 20
94.0319386634
 30
0.0
 11
537.0425131232
 21
94.0319386634
 31
0.0
  0
LINE
  5
32FA
330
2
100
AcDbEntity
  8
0
100
AcDbLine
 10
537.0425131232
 20
94.0319386634
 30
0.0
 11
537.0425131232
 21
96.1144426634
 31
0.0
  0
LINE
  5
32FB
330
2
100
AcDbEntity
  8
0
100
AcDbLine
 10
542.0144061232
 20
94.8909706634
 30
0.0
 11
545.1241171232
 21
94.8889486634
 31
0.0
  0
LINE
  5
32FC
330
2
100
AcDbEntity
  8
0
100
AcDbLine
 10
542.0144061232
 20
94.8909706634
 30
0.0
 11
542.0144061232
 21
91.8320676634
 31
0.0
  0
LINE
  5
32FD
330
2
100
AcDbEntity
  8
0
100
AcDbLine
 10
544.5803241232
 20
91.8320676634
 30
0.0
 11
542.0144061232
 21
91.8320676634
 31
0.0
  0
ENDSEC
  0
SECTION
  2
OBJECTS
  0
DICTIONARY
  5
7
330
0
100
AcDbDictionary
281
     1
  3
ACAD_CIP_PREVIOUS_PRODUCT_INFO
350
2EE6
  3
ACAD_COLOR
350
1DDC
  3
ACAD_DETAILVIEWSTYLE
350
2EE2
  3
ACAD_GROUP
350
75
  3
ACAD_LAYOUT
350
61
  3
ACAD_MATERIAL
350
1DAF
  3
ACAD_MLEADERSTYLE
350
1E01
  3
ACAD_MLINESTYLE
350
76
  3
ACAD_PLOTSETTINGS
350
77
  3
ACAD_PLOTSTYLENAME
350
6
  3
ACAD_SCALELIST
350
1DDF
  3
ACAD_SECTIONVIEWSTYLE
350
2EE0
  3
ACAD_TABLESTYLE
350
1DDD
  3
ACAD_VISUALSTYLE
350
1DC8
  3
AcadDim
350
480
  3
ACDB_RECOMPOSE_DATA
350
33AA
  3
AcDbVariableDictionary
350
102
  3
DWGPROPS
350
33AB
  0
DICTIONARY
  5
20B9
330
6E
100
AcDbDictionary
280
     1
281
     1
  0
DICTIONARY
  5
1E08
330
66
100
AcDbDictionary
280
     1
281
     1
  3
ACAD_LAYERSTATES
360
1E09
  0
DICTIONARY
  5
1E46
330
5E
100
AcDbDictionary
280
     1
281
     1
  3
ADSK_XREC_LAYER_RECONCILED
360
1E47
  0
DICTIONARY
  5
1E48
330
3E
100
AcDbDictionary
280
     1
281
     1
  3
ADSK_XREC_LAYER_RECONCILED
360
1E49
  0
DICTIONARY
  5
1E4E
330
2B5
100
AcDbDictionary
280
     1
281
     1
  3
ADSK_XREC_LAYER_RECONCILED
360
1E4F
  0
DICTIONARY
  5
1E52
330
3FA
100
AcDbDictionary
280
     1
281
     1
  3
ADSK_XREC_LAYER_RECONCILED
360
1E53
  0
DICTIONARY
  5
1E06
330
1E05
100
AcDbDictionary
280
     1
281
     1
  3
ADSK_XREC_LAYER_RECONCILED
360
1E54
  0
XRECORD
  5
2EE6
102
{ACAD_REACTORS
330
7
102
}
330
7
100
AcDbXrecord
280
     1
300
ACD
300
2020
300
87224ACD_2020_0F
  0
DICTIONARY
  5
1DDC
102
{ACAD_REACTORS
330
7
102
}
330
7
100
AcDbDictionary
281
     1
  0
DICTIONARY
  5
2EE2
102
{ACAD_REACTORS
330
7
102
}
330
7
100
AcDbDictionary
281
     1
  3
Imperial24
350
2EE3
  0
DICTIONARY
  5
75
102
{ACAD_REACTORS
330
7
102
}
330
7
100
AcDbDictionary
281
     1
  0
DICTIONARY
  5
61
102
{ACAD_REACTORS
330
7
102
}
330
7
100
AcDbDictionary
281
     1
  3
Model
350
60
  3
レイアウト1
350
33A4
  0
DICTIONARY
  5
1DAF
102
{ACAD_REACTORS
330
7
102
}
330
7
100
AcDbDictionary
281
     1
  3
ByBlock
350
1DB8
  3
ByLayer
350
1DB0
  3
Global
350
1DC0
  0
DICTIONARY
  5
1E01
102
{ACAD_REACTORS
330
7
102
}
330
7
100
AcDbDictionary
281
     1
  3
Standard
350
1E02
  0
DICTIONARY
  5
76
102
{ACAD_REACTORS
330
7
102
}
330
7
100
AcDbDictionary
281
     1
  3
STANDARD
350
78
  0
DICTIONARY
  5
77
102
{ACAD_REACTORS
330
7
102
}
330
7
100
AcDbDictionary
281
     1
  0
ACDBDICTIONARYWDFLT
  5
6
102
{ACAD_REACTORS
330
7
102
}
330
7
100
AcDbDictionary
281
     1
  3
Normal
350
5
100
AcDbDictionaryWithDefault
340
5
  0
DICTIONARY
  5
1DDF
102
{ACAD_REACTORS
330
7
102
}
330
7
100
AcDbDictionary
281
     1
  3
A0
350
1DE0
  3
A1
350
1DE1
  3
A2
350
1DE2
  3
A3
350
1DE3
  3
A4
350
1DE4
  3
A5
350
1DE5
  3
A6
350
1DE6
  3
A7
350
1DE7
  3
A8
350
1DE8
  3
A9
350
1DE9
  3
B0
350
1DEA
  3
B1
350
1DEB
  3
B2
350
1DEC
  3
B3
350
1DED
  3
B4
350
1DEE
  3
B5
350
1DEF
  3
B6
350
1DF0
  3
B7
350
1DF1
  3
B8
350
1DF2
  3
B9
350
1DF3
  3
C0
350
1DF4
  3
C1
350
1DF5
  3
C2
350
1DF6
  3
C3
350
1DF7
  3
C4
350
1DF8
  3
C5
350
1DF9
  3
C6
350
1DFA
  3
C7
350
1DFB
  3
C8
350
1DFC
  3
C9
350
1DFD
  3
D0
350
1DFE
  3
D1
350
1DFF
  3
D2
350
1E00
  0
DICTIONARY
  5
2EE0
102
{ACAD_REACTORS
330
7
102
}
330
7
100
AcDbDictionary
281
     1
  3
Imperial24
350
2EE1
  0
DICTIONARY
  5
1DDD
102
{ACAD_REACTORS
330
7
102
}
330
7
100
AcDbDictionary
281
     1
  3
Standard
350
1DDE
  0
DICTIONARY
  5
1DC8
102
{ACAD_REACTORS
330
7
102
}
330
7
100
AcDbDictionary
281
     1
  3
2dWireframe
350
1DCE
  3
3D Hidden
350
1DD0
  3
3dWireframe
350
1DCF
  3
Basic
350
1DCD
  3
Brighten
350
1DD4
  3
ColorChange
350
1DD8
  3
Conceptual
350
1DD1
  3
Dim
350
1DD3
  3
EdgeColorOff
350
1DDB
  3
Facepattern
350
1DD7
  3
Flat
350
1DC9
  3
FlatWithEdges
350
1DCA
  3
Gouraud
350
1DCB
  3
GouraudWithEdges
350
1DCC
  3
Hidden
350
2EDA
  3
JitterOff
350
1DD9
  3
Linepattern
350
1DD6
  3
OverhangOff
350
1DDA
  3
Realistic
350
1DD2
  3
Shaded
350
2EDF
  3
Shaded with edges
350
2EDE
  3
Shades of Gray
350
2EDB
  3
Sketchy
350
2EDC
  3
Thicken
350
1DD5
  3
Wireframe
350
2ED9
  3
X-Ray
350
2EDD
  0
XRECORD
  5
480
102
{ACAD_REACTORS
330
7
102
}
330
7
100
AcDbXrecord
280
     1
 90
   990106
  3

 60
     0
 61
     0
 62
     1
 63
     3
 64
     1
 65
     0
 66
     0
 67
     3
 68
     1
 69
     0
 70
     0
 71
     0
 72
     0
 40
0.0
170
     2
340
0
  0
XRECORD
  5
33AA
102
{ACAD_REACTORS
330
7
102
}
330
7
100
AcDbXrecord
280
     1
 90
        1
330
1DDE
  0
DICTIONARY
  5
102
102
{ACAD_REACTORS
330
7
102
}
330
7
100
AcDbDictionary
281
     1
  3
CANNOSCALE
350
211E
  3
CMLEADERSTYLE
350
211D
  3
CTABLESTYLE
350
211C
  3
CVIEWDETAILSTYLE
350
2F84
  3
CVIEWSECTIONSTYLE
350
2F85
  3
DIMASSOC
350
103
  3
INDEXCTL
350
2120
  3
SORTENTS
350
211F
  3
XCLIPFRAME
350
33A8
  0
XRECORD
  5
33AB
102
{ACAD_REACTORS
330
7
102
}
330
7
100
AcDbXrecord
280
     1
  1
DWGPROPS COOKIE
  2

  3

  4

  6

  7

  8
ykitaga
  9

300
=
301
=
302
=
303
=
304
=
305
=
306
=
307
=
308
=
309
=
 40
0.5699944792
 41
2453753.372916667
 42
2459857.663530093
  1

 90
        0
  0
DICTIONARY
  5
1E09
102
{ACAD_REACTORS
330
1E08
102
}
330
1E08
100
AcDbDictionary
281
     1
  0
XRECORD
  5
1E47
102
{ACAD_REACTORS
330
1E46
102
}
330
1E46
100
AcDbXrecord
280
     1
290
     1
  0
XRECORD
  5
1E49
102
{ACAD_REACTORS
330
1E48
102
}
330
1E48
100
AcDbXrecord
280
     1
290
     1
  0
XRECORD
  5
1E4F
102
{ACAD_REACTORS
330
1E4E
102
}
330
1E4E
100
AcDbXrecord
280
     1
290
     1
  0
XRECORD
  5
1E53
102
{ACAD_REACTORS
330
1E52
102
}
330
1E52
100
AcDbXrecord
280
     1
290
     1
  0
XRECORD
  5
1E54
102
{ACAD_REACTORS
330
1E06
102
}
330
1E06
100
AcDbXrecord
280
     1
290
     1
  0
ACDBDETAILVIEWSTYLE
  5
2EE3
102
{ACAD_XDICTIONARY
360
3407
102
}
102
{ACAD_REACTORS
330
2EE2
102
}
330
2EE2
100
AcDbModelDocViewStyle
 70
     0
  3
Imperial24
290
     0
100
AcDbDetailViewStyle
 70
     0
 71
     0
 90
        3
 71
     1
340
16
 40
0.24
340
0
 40
0.24
300

 40
0.36
280
     3
 71
     2
340
8
 90
       25
 71
     3
340
16
 40
0.24
 90
        1
 40
0.75
 90
        1
300
%<\AcVar ViewType \f "%tc1">% %<\AcVar ViewDetailId>%\PSCALE %<\AcVar ViewScale \f "%sn">%
 71
     4
340
8
 90
       25
340
8
 90
       25
280
     0
  0
LAYOUT
  5
60
102
{ACAD_XDICTIONARY
360
1E3B
102
}
102
{ACAD_REACTORS
330
61
102
}
330
61
100
AcDbPlotSettings
  1

  2
Canon LBP-1420
  4
A4
  6

 40
5.873749733
 41
5.8737478256
 42
5.8737487793
 43
5.8737487793
 44
209.9733276367
 45
296.925994873
 46
0.0
 47
5.37
 48
0.0
 49
0.0
140
0.0
141
0.0
142
1.0
143
0.088099941
 70
 11956
 72
     1
 73
     1
 74
     1
  7
Sekkei.ctb
 75
     0
147
11.3507453947
148
-88.9740150773
149
-101.3630682339
100
AcDbLayout
  1
Model
 70
     1
 71
     0
 10
0.0
 20
0.0
 11
12.0
 21
9.0
 12
0.0
 22
0.0
 32
0.0
 14
0.0
 24
0.0
 34
0.0
 15
0.0
 25
0.0
 35
0.0
146
0.0
 13
0.0
 23
0.0
 33
0.0
 16
1.0
 26
0.0
 36
0.0
 17
0.0
 27
1.0
 37
0.0
 76
     0
330
2
331
1DAD
  0
LAYOUT
  5
33A4
102
{ACAD_XDICTIONARY
360
3411
102
}
102
{ACAD_REACTORS
330
61
102
}
330
61
100
AcDbPlotSettings
  1

  2
LBP8610
  4

  6

 40
0.0
 41
0.0
 42
0.0
 43
0.0
 44
0.0
 45
0.0
 46
0.0
 47
0.0
 48
0.0
 49
0.0
140
0.0
141
0.0
142
1.0
143
1.0
 70
   688
 72
     0
 73
     0
 74
     5
  7

 75
    16
147
1.0
148
0.0
149
0.0
100
AcDbLayout
  1
レイアウト1
 70
     1
 71
     1
 10
0.0
 20
0.0
 11
12.0
 21
9.0
 12
0.0
 22
0.0
 32
0.0
 14
0.0
 24
0.0
 34
0.0
 15
0.0
 25
0.0
 35
0.0
146
0.0
 13
0.0
 23
0.0
 33
0.0
 16
1.0
 26
0.0
 36
0.0
 17
0.0
 27
1.0
 37
0.0
 76
     0
330
33A3
  0
MATERIAL
  5
1DB8
102
{ACAD_XDICTIONARY
360
1DB9
102
}
102
{ACAD_REACTORS
330
1DAF
102
}
330
1DAF
100
AcDbMaterial
  1
ByBlock
 72
     0
 43
0.0208333333
 43
0.0
 43
0.0
 43
0.0
 43
0.0
 43
0.0208333333
 43
0.0
 43
0.0
 43
0.0
 43
0.0
 43
1.0
 43
0.0
 43
0.0
 43
0.0
 43
0.0
 43
1.0
 77
     0
 47
0.0208333333
 47
0.0
 47
0.0
 47
0.0
 47
0.0
 47
0.0208333333
 47
0.0
 47
0.0
 47
0.0
 47
0.0
 47
1.0
 47
0.0
 47
0.0
 47
0.0
 47
0.0
 47
1.0
171
     0
 49
0.0208333333
 49
0.0
 49
0.0
 49
0.0
 49
0.0
 49
0.0208333333
 49
0.0
 49
0.0
 49
0.0
 49
0.0
 49
1.0
 49
0.0
 49
0.0
 49
0.0
 49
0.0
 49
1.0
175
     0
142
0.0208333333
142
0.0
142
0.0
142
0.0
142
0.0
142
0.0208333333
142
0.0
142
0.0
142
0.0
142
0.0
142
1.0
142
0.0
142
0.0
142
0.0
142
0.0
142
1.0
179
     0
144
0.0208333333
144
0.0
144
0.0
144
0.0
144
0.0
144
0.0208333333
144
0.0
144
0.0
144
0.0
144
0.0
144
1.0
144
0.0
144
0.0
144
0.0
144
0.0
144
1.0
147
0.0208333333
147
0.0
147
0.0
147
0.0
147
0.0
147
0.0208333333
147
0.0
147
0.0
147
0.0
147
0.0
147
1.0
147
0.0
147
0.0
147
0.0
147
0.0
147
1.0
  0
MATERIAL
  5
1DB0
102
{ACAD_XDICTIONARY
360
1DB1
102
}
102
{ACAD_REACTORS
330
1DAF
102
}
330
1DAF
100
AcDbMaterial
  1
ByLayer
 72
     0
 43
0.0208333333
 43
0.0
 43
0.0
 43
0.0
 43
0.0
 43
0.0208333333
 43
0.0
 43
0.0
 43
0.0
 43
0.0
 43
1.0
 43
0.0
 43
0.0
 43
0.0
 43
0.0
 43
1.0
 77
     0
 47
0.0208333333
 47
0.0
 47
0.0
 47
0.0
 47
0.0
 47
0.0208333333
 47
0.0
 47
0.0
 47
0.0
 47
0.0
 47
1.0
 47
0.0
 47
0.0
 47
0.0
 47
0.0
 47
1.0
171
     0
 49
0.0208333333
 49
0.0
 49
0.0
 49
0.0
 49
0.0
 49
0.0208333333
 49
0.0
 49
0.0
 49
0.0
 49
0.0
 49
1.0
 49
0.0
 49
0.0
 49
0.0
 49
0.0
 49
1.0
175
     0
142
0.0208333333
142
0.0
142
0.0
142
0.0
142
0.0
142
0.0208333333
142
0.0
142
0.0
142
0.0
142
0.0
142
1.0
142
0.0
142
0.0
142
0.0
142
0.0
142
1.0
179
     0
144
0.0208333333
144
0.0
144
0.0
144
0.0
144
0.0
144
0.0208333333
144
0.0
144
0.0
144
0.0
144
0.0
144
1.0
144
0.0
144
0.0
144
0.0
144
0.0
144
1.0
147
0.0208333333
147
0.0
147
0.0
147
0.0
147
0.0
147
0.0208333333
147
0.0
147
0.0
147
0.0
147
0.0
147
1.0
147
0.0
147
0.0
147
0.0
147
0.0
147
1.0
  0
MATERIAL
  5
1DC0
102
{ACAD_XDICTIONARY
360
1DC1
102
}
102
{ACAD_REACTORS
330
1DAF
102
}
330
1DAF
100
AcDbMaterial
  1
Global
 72
     0
 43
0.0208333333
 43
0.0
 43
0.0
 43
0.0
 43
0.0
 43
0.0208333333
 43
0.0
 43
0.0
 43
0.0
 43
0.0
 43
1.0
 43
0.0
 43
0.0
 43
0.0
 43
0.0
 43
1.0
 77
     0
 47
0.0208333333
 47
0.0
 47
0.0
 47
0.0
 47
0.0
 47
0.0208333333
 47
0.0
 47
0.0
 47
0.0
 47
0.0
 47
1.0
 47
0.0
 47
0.0
 47
0.0
 47
0.0
 47
1.0
171
     0
 49
0.0208333333
 49
0.0
 49
0.0
 49
0.0
 49
0.0
 49
0.0208333333
 49
0.0
 49
0.0
 49
0.0
 49
0.0
 49
1.0
 49
0.0
 49
0.0
 49
0.0
 49
0.0
 49
1.0
175
     0
142
0.0208333333
142
0.0
142
0.0
142
0.0
142
0.0
142
0.0208333333
142
0.0
142
0.0
142
0.0
142
0.0
142
1.0
142
0.0
142
0.0
142
0.0
142
0.0
142
1.0
179
     0
144
0.0208333333
144
0.0
144
0.0
144
0.0
144
0.0
144
0.0208333333
144
0.0
144
0.0
144
0.0
144
0.0
144
1.0
144
0.0
144
0.0
144
0.0
144
0.0
144
1.0
147
0.0208333333
147
0.0
147
0.0
147
0.0
147
0.0
147
0.0208333333
147
0.0
147
0.0
147
0.0
147
0.0
147
1.0
147
0.0
147
0.0
147
0.0
147
0.0
147
1.0
  0
MLEADERSTYLE
  5
1E02
102
{ACAD_REACTORS
330
1E01
102
}
330
1E01
100
AcDbMLeaderStyle
170
     2
171
     1
172
     0
 90
        2
 40
0.0
 41
0.0
173
     1
 91
-1056964608
340
6A
 92
       -2
290
     1
 42
0.09
291
     1
 43
0.36
  3
Standard
 44
0.18
300

342
16
174
     1
178
     6
175
     1
176
     0
 93
-1056964608
 45
0.18
292
     0
297
     0
 46
0.18
 94
-1056964608
 47
1.0
 49
1.0
140
1.0
293
     1
141
0.0
294
     1
177
     0
142
1.0
295
     0
296
     0
143
0.125
1001
ACAD_MLEADERVER
1070
     2
  0
MLINESTYLE
  5
78
102
{ACAD_REACTORS
330
76
102
}
330
76
100
AcDbMlineStyle
  2
STANDARD
 70
     0
  3

 62
     0
 51
90.0
 52
90.0
 71
     2
 49
0.5
 62
   256
  6
BYLAYER
 49
-0.5
 62
   256
  6
BYLAYER
  0
ACDBPLACEHOLDER
  5
5
102
{ACAD_REACTORS
330
6
102
}
330
6
  0
SCALE
  5
1DE0
102
{ACAD_REACTORS
330
1DDF
102
}
330
1DDF
100
AcDbScale
 70
     0
300
1:1
140
1.0
141
1.0
290
     1
  0
SCALE
  5
1DE1
102
{ACAD_REACTORS
330
1DDF
102
}
330
1DDF
100
AcDbScale
 70
     0
300
1:2
140
1.0
141
2.0
290
     0
  0
SCALE
  5
1DE2
102
{ACAD_REACTORS
330
1DDF
102
}
330
1DDF
100
AcDbScale
 70
     0
300
1:4
140
1.0
141
4.0
290
     0
  0
SCALE
  5
1DE3
102
{ACAD_REACTORS
330
1DDF
102
}
330
1DDF
100
AcDbScale
 70
     0
300
1:5
140
1.0
141
5.0
290
     0
  0
SCALE
  5
1DE4
102
{ACAD_REACTORS
330
1DDF
102
}
330
1DDF
100
AcDbScale
 70
     0
300
1:8
140
1.0
141
8.0
290
     0
  0
SCALE
  5
1DE5
102
{ACAD_REACTORS
330
1DDF
102
}
330
1DDF
100
AcDbScale
 70
     0
300
1:10
140
1.0
141
10.0
290
     0
  0
SCALE
  5
1DE6
102
{ACAD_REACTORS
330
1DDF
102
}
330
1DDF
100
AcDbScale
 70
     0
300
1:16
140
1.0
141
16.0
290
     0
  0
SCALE
  5
1DE7
102
{ACAD_REACTORS
330
1DDF
102
}
330
1DDF
100
AcDbScale
 70
     0
300
1:20
140
1.0
141
20.0
290
     0
  0
SCALE
  5
1DE8
102
{ACAD_REACTORS
330
1DDF
102
}
330
1DDF
100
AcDbScale
 70
     0
300
1:30
140
1.0
141
30.0
290
     0
  0
SCALE
  5
1DE9
102
{ACAD_REACTORS
330
1DDF
102
}
330
1DDF
100
AcDbScale
 70
     0
300
1:40
140
1.0
141
40.0
290
     0
  0
SCALE
  5
1DEA
102
{ACAD_REACTORS
330
1DDF
102
}
330
1DDF
100
AcDbScale
 70
     0
300
1:50
140
1.0
141
50.0
290
     0
  0
SCALE
  5
1DEB
102
{ACAD_REACTORS
330
1DDF
102
}
330
1DDF
100
AcDbScale
 70
     0
300
1:100
140
1.0
141
100.0
290
     0
  0
SCALE
  5
1DEC
102
{ACAD_REACTORS
330
1DDF
102
}
330
1DDF
100
AcDbScale
 70
     0
300
2:1
140
2.0
141
1.0
290
     0
  0
SCALE
  5
1DED
102
{ACAD_REACTORS
330
1DDF
102
}
330
1DDF
100
AcDbScale
 70
     0
300
4:1
140
4.0
141
1.0
290
     0
  0
SCALE
  5
1DEE
102
{ACAD_REACTORS
330
1DDF
102
}
330
1DDF
100
AcDbScale
 70
     0
300
8:1
140
8.0
141
1.0
290
     0
  0
SCALE
  5
1DEF
102
{ACAD_REACTORS
330
1DDF
102
}
330
1DDF
100
AcDbScale
 70
     0
300
10:1
140
10.0
141
1.0
290
     0
  0
SCALE
  5
1DF0
102
{ACAD_REACTORS
330
1DDF
102
}
330
1DDF
100
AcDbScale
 70
     0
300
100:1
140
100.0
141
1.0
290
     0
  0
SCALE
  5
1DF1
102
{ACAD_REACTORS
330
1DDF
102
}
330
1DDF
100
AcDbScale
 70
     0
300
1/128" = 1'-0"
140
0.0078125
141
12.0
290
     0
  0
SCALE
  5
1DF2
102
{ACAD_REACTORS
330
1DDF
102
}
330
1DDF
100
AcDbScale
 70
     0
300
1/64" = 1'-0"
140
0.015625
141
12.0
290
     0
  0
SCALE
  5
1DF3
102
{ACAD_REACTORS
330
1DDF
102
}
330
1DDF
100
AcDbScale
 70
     0
300
1/32" = 1'-0"
140
0.03125
141
12.0
290
     0
  0
SCALE
  5
1DF4
102
{ACAD_REACTORS
330
1DDF
102
}
330
1DDF
100
AcDbScale
 70
     0
300
1/16" = 1'-0"
140
0.0625
141
12.0
290
     0
  0
SCALE
  5
1DF5
102
{ACAD_REACTORS
330
1DDF
102
}
330
1DDF
100
AcDbScale
 70
     0
300
3/32" = 1'-0"
140
0.09375
141
12.0
290
     0
  0
SCALE
  5
1DF6
102
{ACAD_REACTORS
330
1DDF
102
}
330
1DDF
100
AcDbScale
 70
     0
300
1/8" = 1'-0"
140
0.125
141
12.0
290
     0
  0
SCALE
  5
1DF7
102
{ACAD_REACTORS
330
1DDF
102
}
330
1DDF
100
AcDbScale
 70
     0
300
3/16" = 1'-0"
140
0.1875
141
12.0
290
     0
  0
SCALE
  5
1DF8
102
{ACAD_REACTORS
330
1DDF
102
}
330
1DDF
100
AcDbScale
 70
     0
300
1/4" = 1'-0"
140
0.25
141
12.0
290
     0
  0
SCALE
  5
1DF9
102
{ACAD_REACTORS
330
1DDF
102
}
330
1DDF
100
AcDbScale
 70
     0
300
3/8" = 1'-0"
140
0.375
141
12.0
290
     0
  0
SCALE
  5
1DFA
102
{ACAD_REACTORS
330
1DDF
102
}
330
1DDF
100
AcDbScale
 70
     0
300
1/2" = 1'-0"
140
0.5
141
12.0
290
     0
  0
SCALE
  5
1DFB
102
{ACAD_REACTORS
330
1DDF
102
}
330
1DDF
100
AcDbScale
 70
     0
300
3/4" = 1'-0"
140
0.75
141
12.0
290
     0
  0
SCALE
  5
1DFC
102
{ACAD_REACTORS
330
1DDF
102
}
330
1DDF
100
AcDbScale
 70
     0
300
1" = 1'-0"
140
1.0
141
12.0
290
     0
  0
SCALE
  5
1DFD
102
{ACAD_REACTORS
330
1DDF
102
}
330
1DDF
100
AcDbScale
 70
     0
300
1-1/2" = 1'-0"
140
1.5
141
12.0
290
     0
  0
SCALE
  5
1DFE
102
{ACAD_REACTORS
330
1DDF
102
}
330
1DDF
100
AcDbScale
 70
     0
300
3" = 1'-0"
140
3.0
141
12.0
290
     0
  0
SCALE
  5
1DFF
102
{ACAD_REACTORS
330
1DDF
102
}
330
1DDF
100
AcDbScale
 70
     0
300
6" = 1'-0"
140
6.0
141
12.0
290
     0
  0
SCALE
  5
1E00
102
{ACAD_REACTORS
330
1DDF
102
}
330
1DDF
100
AcDbScale
 70
     0
300
1'-0" = 1'-0"
140
12.0
141
12.0
290
     0
  0
ACDBSECTIONVIEWSTYLE
  5
2EE1
102
{ACAD_XDICTIONARY
360
3405
102
}
102
{ACAD_REACTORS
330
2EE0
102
}
330
2EE0
100
AcDbModelDocViewStyle
 70
     0
  3
Imperial24
290
     0
100
AcDbSectionViewStyle
 70
     0
 71
     0
 90
       78
 71
     1
340
16
 40
0.24
340
0
340
0
 40
0.24
300
I, O, Q, S, X, Z
 40
0.48
 90
        3
 40
0.18
 90
        1
 71
     2
340
8
 90
       25
340
8
 90
       50
 40
0.24
 40
0.0
 40
0.24
 71
     3
340
16
 40
0.24
 90
        1
 40
0.75
 90
        1
300
%<\AcVar ViewType \f "%tc1">% %<\AcVar ViewSectionStartId>%-%<\AcVar ViewSectionEndId>%\PSCALE %<\AcVar ViewScale \f "%sn">%
 71
     4
300
ANSI31
 40
1.0
 90
        0
290
     0
290
     0
 90
        6
 40
0.0
 40
1.5707963268
 40
0.2617993878
 40
1.308996939
 40
-0.2617993878
 40
1.8325957146
  0
TABLESTYLE
  5
1DDE
102
{ACAD_XDICTIONARY
360
20B3
102
}
102
{ACAD_REACTORS
330
1DDD
102
}
330
1DDD
100
AcDbTableStyle
  3
Standard
 70
     0
 71
     0
 40
0.06
 41
0.06
280
     0
281
     0
  7
STANDARD
140
0.18
170
     2
 62
     0
 63
     7
283
     0
274
    -2
284
     1
 64
     0
275
    -2
285
     1
 65
     0
276
    -2
286
     1
 66
     0
277
    -2
287
     1
 67
     0
278
    -2
288
     1
 68
     0
279
    -2
289
     1
 69
     0
  7
STANDARD
140
0.25
170
     5
 62
     0
 63
     7
283
     0
274
    -2
284
     1
 64
     0
275
    -2
285
     1
 65
     0
276
    -2
286
     1
 66
     0
277
    -2
287
     1
 67
     0
278
    -2
288
     1
 68
     0
279
    -2
289
     1
 69
     0
  7
STANDARD
140
0.18
170
     5
 62
     0
 63
     7
283
     0
274
    -2
284
     1
 64
     0
275
    -2
285
     1
 65
     0
276
    -2
286
     1
 66
     0
277
    -2
287
     1
 67
     0
278
    -2
288
     1
 68
     0
279
    -2
289
     1
 69
     0
  0
VISUALSTYLE
  5
1DCE
102
{ACAD_XDICTIONARY
360
33BA
102
}
102
{ACAD_REACTORS
330
1DC8
102
}
330
1DC8
100
AcDbVisualStyle
  2

 70
     4
 71
     0
 72
     2
 73
     0
 90
        0
 40
-0.6
 41
-30.0
 62
     5
 63
     7
 74
     1
 91
        4
 64
     7
 65
   257
 75
     1
175
     1
 42
1.0
 92
        0
 66
   257
 43
1.0
 76
     1
 77
     6
 78
     2
 67
     7
 79
     5
170
     0
171
     0
290
     0
174
     0
 93
        1
 44
0.0
173
     0
291
     0
 45
0.0
1001
ACAD
1000
AcDbSavedByObjectVersion
1070
     0
  0
VISUALSTYLE
  5
1DD0
102
{ACAD_XDICTIONARY
360
33BE
102
}
102
{ACAD_REACTORS
330
1DC8
102
}
330
1DC8
100
AcDbVisualStyle
  2

 70
     6
 71
     1
 72
     2
 73
     2
 90
        0
 40
-0.6
 41
-30.0
 62
     5
 63
     7
 74
     2
 91
        2
 64
     7
 65
   257
 75
     2
175
     1
 42
179.0
 92
        0
 66
   257
 43
1.0
 76
     1
 77
     6
 78
     2
 67
     7
 79
     3
170
     0
171
     0
290
     0
174
     0
 93
        1
 44
0.0
173
     0
291
     0
 45
0.0
1001
ACAD
1000
AcDbSavedByObjectVersion
1070
     0
  0
VISUALSTYLE
  5
1DCF
102
{ACAD_XDICTIONARY
360
33BC
102
}
102
{ACAD_REACTORS
330
1DC8
102
}
330
1DC8
100
AcDbVisualStyle
  2

 70
     5
 71
     0
 72
     2
 73
     0
 90
        0
 40
-0.6
 41
-30.0
 62
     5
 63
     7
 74
     1
 91
        4
 64
     7
 65
   257
 75
     1
175
     1
 42
1.0
 92
        0
 66
   257
 43
1.0
 76
     1
 77
     6
 78
     2
 67
     7
 79
     5
170
     0
171
     0
290
     0
174
     0
 93
        1
 44
0.0
173
     0
291
     0
 45
0.0
1001
ACAD
1000
AcDbSavedByObjectVersion
1070
     0
  0
VISUALSTYLE
  5
1DCD
102
{ACAD_XDICTIONARY
360
33B8
102
}
102
{ACAD_REACTORS
330
1DC8
102
}
330
1DC8
100
AcDbVisualStyle
  2

 70
     7
 71
     1
 72
     0
 73
     1
 90
        0
 40
-0.6
 41
-30.0
 62
     5
 63
     7
 74
     0
 91
        4
 64
     7
 65
   257
 75
     1
175
     1
 42
1.0
 92
        8
 66
     7
 43
1.0
 76
     1
 77
     6
 78
     2
 67
     7
 79
     5
170
     0
171
     0
290
     0
174
     0
 93
        1
 44
0.0
173
     0
291
     1
 45
0.0
1001
ACAD
1000
AcDbSavedByObjectVersion
1070
     0
  0
VISUALSTYLE
  5
1DD4
102
{ACAD_XDICTIONARY
360
33C6
102
}
102
{ACAD_REACTORS
330
1DC8
102
}
330
1DC8
100
AcDbVisualStyle
  2

 70
    12
 71
     2
 72
     2
 73
     0
 90
        0
 40
-0.6
 41
-30.0
 62
     5
 63
     7
 74
     1
 91
        4
 64
     7
 65
   257
 75
     1
175
     1
 42
1.0
 92
        8
 66
     7
 43
1.0
 76
     1
 77
     6
 78
     2
 67
     7
 79
     5
170
     0
171
     0
290
     0
174
     0
 93
        1
 44
50.0
173
     0
291
     1
 45
0.0
1001
ACAD
1000
AcDbSavedByObjectVersion
1070
     0
  0
VISUALSTYLE
  5
1DD8
102
{ACAD_XDICTIONARY
360
33CE
102
}
102
{ACAD_REACTORS
330
1DC8
102
}
330
1DC8
100
AcDbVisualStyle
  2

 70
    16
 71
     2
 72
     2
 73
     3
 90
        0
 40
-0.6
 41
-30.0
 62
     5
 63
     8
 74
     1
 91
        4
 64
     7
 65
   257
 75
     1
175
     1
 42
1.0
 92
        8
 66
     8
 43
1.0
 76
     1
 77
     6
 78
     2
 67
     7
 79
     5
170
     0
171
     0
290
     0
174
     0
 93
        1
 44
0.0
173
     0
291
     1
 45
0.0
1001
ACAD
1000
AcDbSavedByObjectVersion
1070
     0
  0
VISUALSTYLE
  5
1DD1
102
{ACAD_XDICTIONARY
360
33C0
102
}
102
{ACAD_REACTORS
330
1DC8
102
}
330
1DC8
100
AcDbVisualStyle
  2

 70
     9
 71
     3
 72
     2
 73
     0
 90
        0
 40
-0.6
 41
-30.0
 62
     5
 63
     7
 74
     2
 91
        2
 64
     7
 65
   257
 75
     1
175
     1
 42
179.0
 92
        8
 66
     7
 43
1.0
 76
     1
 77
     6
 78
     2
 67
     7
 79
     3
170
     0
171
     0
290
     0
174
     0
 93
        1
 44
0.0
173
     0
291
     0
 45
0.0
1001
ACAD
1000
AcDbSavedByObjectVersion
1070
     0
  0
VISUALSTYLE
  5
1DD3
102
{ACAD_XDICTIONARY
360
33C4
102
}
102
{ACAD_REACTORS
330
1DC8
102
}
330
1DC8
100
AcDbVisualStyle
  2

 70
    11
 71
     2
 72
     2
 73
     0
 90
        0
 40
-0.6
 41
-30.0
 62
     5
 63
     7
 74
     1
 91
        4
 64
     7
 65
   257
 75
     1
175
     1
 42
1.0
 92
        8
 66
     7
 43
1.0
 76
     1
 77
     6
 78
     2
 67
     7
 79
     5
170
     0
171
     0
290
     0
174
     0
 93
        1
 44
-50.0
173
     0
291
     1
 45
0.0
1001
ACAD
1000
AcDbSavedByObjectVersion
1070
     0
  0
VISUALSTYLE
  5
1DDB
102
{ACAD_XDICTIONARY
360
33D4
102
}
102
{ACAD_REACTORS
330
1DC8
102
}
330
1DC8
100
AcDbVisualStyle
  2

 70
    22
 71
     2
 72
     2
 73
     0
 90
        0
 40
-0.6
 41
-30.0
 62
     5
 63
     7
 74
     1
 91
        4
 64
     7
 65
   257
 75
     1
175
     1
 42
1.0
 92
        8
 66
     7
 43
1.0
 76
     1
 77
     6
 78
     2
 67
     7
 79
     5
170
     0
171
     0
290
     0
174
     0
 93
        1
 44
0.0
173
     0
291
     1
 45
0.0
1001
ACAD
1000
AcDbSavedByObjectVersion
1070
     0
  0
VISUALSTYLE
  5
1DD7
102
{ACAD_XDICTIONARY
360
33CC
102
}
102
{ACAD_REACTORS
330
1DC8
102
}
330
1DC8
100
AcDbVisualStyle
  2

 70
    15
 71
     2
 72
     2
 73
     0
 90
        0
 40
-0.6
 41
-30.0
 62
     5
 63
     7
 74
     1
 91
        4
 64
     7
 65
   257
 75
     1
175
     1
 42
1.0
 92
        8
 66
     7
 43
1.0
 76
     1
 77
     6
 78
     2
 67
     7
 79
     5
170
     0
171
     0
290
     0
174
     0
 93
        1
 44
0.0
173
     0
291
     1
 45
0.0
1001
ACAD
1000
AcDbSavedByObjectVersion
1070
     0
  0
VISUALSTYLE
  5
1DC9
102
{ACAD_XDICTIONARY
360
33B0
102
}
102
{ACAD_REACTORS
330
1DC8
102
}
330
1DC8
100
AcDbVisualStyle
  2

 70
     0
 71
     2
 72
     1
 73
     1
 90
        2
 40
-0.6
 41
30.0
 62
     5
 63
     7
 74
     0
 91
        4
 64
     7
 65
   257
 75
     1
175
     1
 42
1.0
 92
        8
 66
     7
 43
1.0
 76
     1
 77
     6
 78
     2
 67
     7
 79
     5
170
     0
171
     0
290
     0
174
     0
 93
       13
 44
0.0
173
     0
291
     1
 45
0.0
1001
ACAD
1000
AcDbSavedByObjectVersion
1070
     0
  0
VISUALSTYLE
  5
1DCA
102
{ACAD_XDICTIONARY
360
33B2
102
}
102
{ACAD_REACTORS
330
1DC8
102
}
330
1DC8
100
AcDbVisualStyle
  2

 70
     1
 71
     2
 72
     1
 73
     1
 90
        2
 40
-0.6
 41
30.0
 62
     5
 63
     7
 74
     1
 91
        4
 64
     7
 65
   257
 75
     1
175
     1
 42
1.0
 92
        0
 66
   257
 43
1.0
 76
     1
 77
     6
 78
     2
 67
     7
 79
     5
170
     0
171
     0
290
     0
174
     0
 93
       13
 44
0.0
173
     0
291
     1
 45
0.0
1001
ACAD
1000
AcDbSavedByObjectVersion
1070
     0
  0
VISUALSTYLE
  5
1DCB
102
{ACAD_XDICTIONARY
360
33B4
102
}
102
{ACAD_REACTORS
330
1DC8
102
}
330
1DC8
100
AcDbVisualStyle
  2

 70
     2
 71
     2
 72
     2
 73
     1
 90
        2
 40
-0.6
 41
30.0
 62
     5
 63
     7
 74
     0
 91
        4
 64
     7
 65
   257
 75
     1
175
     1
 42
1.0
 92
        0
 66
     7
 43
1.0
 76
     1
 77
     6
 78
     2
 67
     7
 79
     5
170
     0
171
     0
290
     0
174
     0
 93
       13
 44
0.0
173
     0
291
     1
 45
0.0
1001
ACAD
1000
AcDbSavedByObjectVersion
1070
     0
  0
VISUALSTYLE
  5
1DCC
102
{ACAD_XDICTIONARY
360
33B6
102
}
102
{ACAD_REACTORS
330
1DC8
102
}
330
1DC8
100
AcDbVisualStyle
  2

 70
     3
 71
     2
 72
     2
 73
     1
 90
        2
 40
-0.6
 41
30.0
 62
     5
 63
     7
 74
     1
 91
        4
 64
     7
 65
   257
 75
     1
175
     1
 42
1.0
 92
        0
 66
   257
 43
1.0
 76
     1
 77
     6
 78
     2
 67
     7
 79
     5
170
     0
171
     0
290
     0
174
     0
 93
       13
 44
0.0
173
     0
291
     1
 45
0.0
1001
ACAD
1000
AcDbSavedByObjectVersion
1070
     0
  0
VISUALSTYLE
  5
2EDA
102
{ACAD_XDICTIONARY
360
33F9
102
}
102
{ACAD_REACTORS
330
1DC8
102
}
330
1DC8
100
AcDbVisualStyle
  2
Hidden
 70
     6
 71
     1
 72
     2
 73
     2
 90
        0
 40
-0.6
 41
-30.0
 62
     5
 63
     7
 74
     2
 91
        2
 64
     7
 65
   257
 75
     2
175
     1
 42
40.0
 92
        0
 66
   257
 43
1.0
 76
     1
 77
     6
 78
     2
 67
     7
 79
     3
170
     0
171
     0
290
     0
174
     0
 93
        1
 44
0.0
173
     0
291
     0
 45
0.0
1001
ACAD
1000
AcDbSavedByObjectVersion
1070
     0
  0
VISUALSTYLE
  5
1DD9
102
{ACAD_XDICTIONARY
360
33D0
102
}
102
{ACAD_REACTORS
330
1DC8
102
}
330
1DC8
100
AcDbVisualStyle
  2

 70
    20
 71
     2
 72
     2
 73
     0
 90
        0
 40
-0.6
 41
-30.0
 62
     5
 63
     7
 74
     1
 91
        4
 64
     7
 65
   257
 75
     1
175
     1
 42
1.0
 92
       10
 66
     7
 43
1.0
 76
     1
 77
     6
 78
     2
 67
     7
 79
     5
170
     0
171
     0
290
     0
174
     0
 93
        1
 44
0.0
173
     0
291
     1
 45
0.0
1001
ACAD
1000
AcDbSavedByObjectVersion
1070
     0
  0
VISUALSTYLE
  5
1DD6
102
{ACAD_XDICTIONARY
360
33CA
102
}
102
{ACAD_REACTORS
330
1DC8
102
}
330
1DC8
100
AcDbVisualStyle
  2

 70
    14
 71
     2
 72
     2
 73
     0
 90
        0
 40
-0.6
 41
-30.0
 62
     5
 63
     7
 74
     1
 91
        4
 64
     7
 65
   257
 75
     7
175
     7
 42
1.0
 92
        8
 66
     7
 43
1.0
 76
     1
 77
     6
 78
     2
 67
     7
 79
     5
170
     0
171
     0
290
     0
174
     0
 93
        1
 44
0.0
173
     0
291
     1
 45
0.0
1001
ACAD
1000
AcDbSavedByObjectVersion
1070
     0
  0
VISUALSTYLE
  5
1DDA
102
{ACAD_XDICTIONARY
360
33D2
102
}
102
{ACAD_REACTORS
330
1DC8
102
}
330
1DC8
100
AcDbVisualStyle
  2

 70
    21
 71
     2
 72
     2
 73
     0
 90
        0
 40
-0.6
 41
-30.0
 62
     5
 63
     7
 74
     1
 91
        4
 64
     7
 65
   257
 75
     1
175
     1
 42
1.0
 92
        9
 66
     7
 43
1.0
 76
     1
 77
     6
 78
     2
 67
     7
 79
     5
170
     0
171
     0
290
     0
174
     0
 93
        1
 44
0.0
173
     0
291
     1
 45
0.0
1001
ACAD
1000
AcDbSavedByObjectVersion
1070
     0
  0
VISUALSTYLE
  5
1DD2
102
{ACAD_XDICTIONARY
360
33C2
102
}
102
{ACAD_REACTORS
330
1DC8
102
}
330
1DC8
100
AcDbVisualStyle
  2

 70
     8
 71
     2
 72
     2
 73
     0
 90
        0
 40
-0.6
 41
-30.0
 62
     5
 63
     7
 74
     1
 91
        0
 64
     7
 65
   257
 75
     1
175
     1
 42
1.0
 92
        8
 66
     8
 43
1.0
 76
     1
 77
     6
 78
     2
 67
     7
 79
     5
170
     0
171
     0
290
     0
174
     0
 93
       13
 44
0.0
173
     0
291
     0
 45
0.0
1001
ACAD
1000
AcDbSavedByObjectVersion
1070
     0
  0
VISUALSTYLE
  5
2EDF
102
{ACAD_XDICTIONARY
360
3403
102
}
102
{ACAD_REACTORS
330
1DC8
102
}
330
1DC8
100
AcDbVisualStyle
  2
Shaded
 70
    27
 71
     2
 72
     2
 73
     1
 90
        2
 40
-0.6
 41
30.0
 62
     5
 63
     7
 74
     0
 91
        4
 64
     7
 65
   257
 75
     1
175
     1
 42
1.0
 92
        8
 66
   257
 43
1.0
 76
     1
 77
     6
 78
     2
 67
     8
 79
     3
170
     0
171
     0
290
     0
174
     0
 93
        5
 44
0.0
173
     0
291
     0
 45
0.0
1001
ACAD
1000
AcDbSavedByObjectVersion
1070
     0
  0
VISUALSTYLE
  5
2EDE
102
{ACAD_XDICTIONARY
360
3401
102
}
102
{ACAD_REACTORS
330
1DC8
102
}
330
1DC8
100
AcDbVisualStyle
  2
Shaded with edges
 70
    26
 71
     2
 72
     2
 73
     1
 90
        2
 40
-0.6
 41
30.0
 62
     5
 63
     7
 74
     1
 91
        2
 64
     7
 65
   257
 75
     2
175
     1
 42
1.0
 92
        8
 66
   257
 43
1.0
 76
     1
 77
     6
 78
     2
 67
     7
 79
     3
170
     0
171
     0
290
     0
174
     0
 93
        5
 44
0.0
173
     0
291
     0
 45
0.0
1001
ACAD
1000
AcDbSavedByObjectVersion
1070
     0
  0
VISUALSTYLE
  5
2EDB
102
{ACAD_XDICTIONARY
360
33FB
102
}
102
{ACAD_REACTORS
330
1DC8
102
}
330
1DC8
100
AcDbVisualStyle
  2
Shades of Gray
 70
    23
 71
     2
 72
     2
 73
     3
 90
        0
 40
-0.6
 41
-30.0
 62
     5
 63
     7
 74
     2
 91
        2
 64
     7
 65
     7
 75
     1
175
     1
 42
40.0
 92
        8
 66
     7
 43
1.0
 76
     1
 77
     6
 78
     2
 67
     7
 79
     3
170
     0
171
     0
290
     0
174
     0
 93
        1
 44
0.0
173
     0
291
     0
 45
0.0
1001
ACAD
1000
AcDbSavedByObjectVersion
1070
     0
  0
VISUALSTYLE
  5
2EDC
102
{ACAD_XDICTIONARY
360
33FD
102
}
102
{ACAD_REACTORS
330
1DC8
102
}
330
1DC8
100
AcDbVisualStyle
  2
Sketchy
 70
    24
 71
     1
 72
     2
 73
     2
 90
        0
 40
-0.6
 41
-30.0
 62
     5
 63
     7
 74
     2
 91
        2
 64
     7
 65
     7
 75
     1
175
     1
 42
40.0
 92
       11
 66
     7
 43
1.0
 76
     1
 77
     6
 78
     2
 67
     7
 79
     6
170
     0
171
     0
290
     0
174
     0
 93
        1
 44
0.0
173
     0
291
     0
 45
0.0
1001
ACAD
1000
AcDbSavedByObjectVersion
1070
     0
  0
VISUALSTYLE
  5
1DD5
102
{ACAD_XDICTIONARY
360
33C8
102
}
102
{ACAD_REACTORS
330
1DC8
102
}
330
1DC8
100
AcDbVisualStyle
  2

 70
    13
 71
     2
 72
     2
 73
     0
 90
        0
 40
-0.6
 41
-30.0
 62
     5
 63
     7
 74
     1
 91
        4
 64
     7
 65
   257
 75
     1
175
     1
 42
1.0
 92
       12
 66
     7
 43
1.0
 76
     1
 77
     6
 78
     2
 67
     7
 79
     5
170
     0
171
     0
290
     0
174
     0
 93
        1
 44
0.0
173
     0
291
     1
 45
0.0
1001
ACAD
1000
AcDbSavedByObjectVersion
1070
     0
  0
VISUALSTYLE
  5
2ED9
102
{ACAD_XDICTIONARY
360
33F7
102
}
102
{ACAD_REACTORS
330
1DC8
102
}
330
1DC8
100
AcDbVisualStyle
  2
Wireframe
 70
     5
 71
     0
 72
     2
 73
     0
 90
        0
 40
-0.6
 41
-30.0
 62
     5
 63
     7
 74
     1
 91
        4
 64
     7
 65
   257
 75
     1
175
     1
 42
1.0
 92
        0
 66
   257
 43
1.0
 76
     1
 77
     6
 78
     2
 67
     7
 79
     3
170
     0
171
     0
290
     0
174
     0
 93
        1
 44
0.0
173
     0
291
     0
 45
0.0
1001
ACAD
1000
AcDbSavedByObjectVersion
1070
     0
  0
VISUALSTYLE
  5
2EDD
102
{ACAD_XDICTIONARY
360
33FF
102
}
102
{ACAD_REACTORS
330
1DC8
102
}
330
1DC8
100
AcDbVisualStyle
  2
X-Ray
 70
    25
 71
     2
 72
     2
 73
     1
 90
        1
 40
0.5
 41
-30.0
 62
     5
 63
     7
 74
     1
 91
        0
 64
     7
 65
   257
 75
     1
175
     1
 42
1.0
 92
        8
 66
     7
 43
1.0
 76
     1
 77
     6
 78
     2
 67
     7
 79
     3
170
     0
171
     0
290
     0
174
     0
 93
       13
 44
0.0
173
     0
291
     0
 45
0.0
1001
ACAD
1000
AcDbSavedByObjectVersion
1070
     0
  0
DICTIONARYVAR
  5
211E
102
{ACAD_REACTORS
330
102
102
}
330
102
100
DictionaryVariables
280
     0
  1
1:1
  0
DICTIONARYVAR
  5
211D
102
{ACAD_REACTORS
330
102
102
}
330
102
100
DictionaryVariables
280
     0
  1
STANDARD
  0
DICTIONARYVAR
  5
211C
102
{ACAD_REACTORS
330
102
102
}
330
102
100
DictionaryVariables
280
     0
  1
STANDARD
  0
DICTIONARYVAR
  5
2F84
102
{ACAD_REACTORS
330
102
102
}
330
102
100
DictionaryVariables
280
     0
  1
Imperial24
  0
DICTIONARYVAR
  5
2F85
102
{ACAD_REACTORS
330
102
102
}
330
102
100
DictionaryVariables
280
     0
  1
Imperial24
  0
DICTIONARYVAR
  5
103
102
{ACAD_REACTORS
330
102
102
}
330
102
100
DictionaryVariables
280
     0
  1
1
  0
DICTIONARYVAR
  5
2120
102
{ACAD_REACTORS
330
102
102
}
330
102
100
DictionaryVariables
280
     0
  1
0
  0
DICTIONARYVAR
  5
211F
102
{ACAD_REACTORS
330
102
102
}
330
102
100
DictionaryVariables
280
     0
  1
127
  0
DICTIONARYVAR
  5
33A8
102
{ACAD_REACTORS
330
102
102
}
330
102
100
DictionaryVariables
280
     0
  1
2
  0
DICTIONARY
  5
3407
330
2EE3
100
AcDbDictionary
280
     1
281
     1
  3
ACAD_XREC_ROUNDTRIP
360
3408
  0
DICTIONARY
  5
1E3B
330
60
100
AcDbDictionary
280
     1
281
     1
  3
ACAD_XREC_ROUNDTRIP
360
33AC
  3
ADSK_XREC_LAYOUTTHUMBNAIL
360
1E3C
  0
DICTIONARY
  5
3411
330
33A4
100
AcDbDictionary
280
     1
281
     1
  3
ACAD_XREC_ROUNDTRIP
360
3412
  0
DICTIONARY
  5
1DB9
330
1DB8
100
AcDbDictionary
280
     1
281
     1
  3
ACAD_XREC_ROUNDTRIP
360
33AE
  3
BUMPTILE
360
1DBB
  3
DIFFUSETILE
360
1DBA
  3
OPACITYTILE
360
1DBE
  3
REFLECTIONTILE
360
1DBD
  3
REFRACTIONTILE
360
1DBF
  3
SPECULARTILE
360
1DBC
  0
DICTIONARY
  5
1DB1
330
1DB0
100
AcDbDictionary
280
     1
281
     1
  3
ACAD_XREC_ROUNDTRIP
360
33AD
  3
BUMPTILE
360
1DB3
  3
DIFFUSETILE
360
1DB2
  3
OPACITYTILE
360
1DB6
  3
REFLECTIONTILE
360
1DB5
  3
REFRACTIONTILE
360
1DB7
  3
SPECULARTILE
360
1DB4
  0
DICTIONARY
  5
1DC1
330
1DC0
100
AcDbDictionary
280
     1
281
     1
  3
ACAD_XREC_ROUNDTRIP
360
33AF
  3
BUMPTILE
360
1DC3
  3
DIFFUSETILE
360
1DC2
  3
OPACITYTILE
360
1DC6
  3
REFLECTIONTILE
360
1DC5
  3
REFRACTIONTILE
360
1DC7
  3
SPECULARTILE
360
1DC4
  0
DICTIONARY
  5
3405
330
2EE1
100
AcDbDictionary
280
     1
281
     1
  3
ACAD_XREC_ROUNDTRIP
360
3406
  0
DICTIONARY
  5
20B3
330
1DDE
100
AcDbDictionary
280
     1
281
     1
  3
ACAD_ROUNDTRIP_2008_TABLESTYLE_CELLSTYLEMAP
360
33A9
  3
ACAD_XREC_ROUNDTRIP
360
33D6
  0
DICTIONARY
  5
33BA
330
1DCE
100
AcDbDictionary
280
     1
281
     1
  3
ACAD_XREC_ROUNDTRIP
360
33BB
  0
DICTIONARY
  5
33BE
330
1DD0
100
AcDbDictionary
280
     1
281
     1
  3
ACAD_XREC_ROUNDTRIP
360
33BF
  0
DICTIONARY
  5
33BC
330
1DCF
100
AcDbDictionary
280
     1
281
     1
  3
ACAD_XREC_ROUNDTRIP
360
33BD
  0
DICTIONARY
  5
33B8
330
1DCD
100
AcDbDictionary
280
     1
281
     1
  3
ACAD_XREC_ROUNDTRIP
360
33B9
  0
DICTIONARY
  5
33C6
330
1DD4
100
AcDbDictionary
280
     1
281
     1
  3
ACAD_XREC_ROUNDTRIP
360
33C7
  0
DICTIONARY
  5
33CE
330
1DD8
100
AcDbDictionary
280
     1
281
     1
  3
ACAD_XREC_ROUNDTRIP
360
33CF
  0
DICTIONARY
  5
33C0
330
1DD1
100
AcDbDictionary
280
     1
281
     1
  3
ACAD_XREC_ROUNDTRIP
360
33C1
  0
DICTIONARY
  5
33C4
330
1DD3
100
AcDbDictionary
280
     1
281
     1
  3
ACAD_XREC_ROUNDTRIP
360
33C5
  0
DICTIONARY
  5
33D4
330
1DDB
100
AcDbDictionary
280
     1
281
     1
  3
ACAD_XREC_ROUNDTRIP
360
33D5
  0
DICTIONARY
  5
33CC
330
1DD7
100
AcDbDictionary
280
     1
281
     1
  3
ACAD_XREC_ROUNDTRIP
360
33CD
  0
DICTIONARY
  5
33B0
330
1DC9
100
AcDbDictionary
280
     1
281
     1
  3
ACAD_XREC_ROUNDTRIP
360
33B1
  0
DICTIONARY
  5
33B2
330
1DCA
100
AcDbDictionary
280
     1
281
     1
  3
ACAD_XREC_ROUNDTRIP
360
33B3
  0
DICTIONARY
  5
33B4
330
1DCB
100
AcDbDictionary
280
     1
281
     1
  3
ACAD_XREC_ROUNDTRIP
360
33B5
  0
DICTIONARY
  5
33B6
330
1DCC
100
AcDbDictionary
280
     1
281
     1
  3
ACAD_XREC_ROUNDTRIP
360
33B7
  0
DICTIONARY
  5
33F9
330
2EDA
100
AcDbDictionary
280
     1
281
     1
  3
ACAD_XREC_ROUNDTRIP
360
33FA
  0
DICTIONARY
  5
33D0
330
1DD9
100
AcDbDictionary
280
     1
281
     1
  3
ACAD_XREC_ROUNDTRIP
360
33D1
  0
DICTIONARY
  5
33CA
330
1DD6
100
AcDbDictionary
280
     1
281
     1
  3
ACAD_XREC_ROUNDTRIP
360
33CB
  0
DICTIONARY
  5
33D2
330
1DDA
100
AcDbDictionary
280
     1
281
     1
  3
ACAD_XREC_ROUNDTRIP
360
33D3
  0
DICTIONARY
  5
33C2
330
1DD2
100
AcDbDictionary
280
     1
281
     1
  3
ACAD_XREC_ROUNDTRIP
360
33C3
  0
DICTIONARY
  5
3403
330
2EDF
100
AcDbDictionary
280
     1
281
     1
  3
ACAD_XREC_ROUNDTRIP
360
3404
  0
DICTIONARY
  5
3401
330
2EDE
100
AcDbDictionary
280
     1
281
     1
  3
ACAD_XREC_ROUNDTRIP
360
3402
  0
DICTIONARY
  5
33FB
330
2EDB
100
AcDbDictionary
280
     1
281
     1
  3
ACAD_XREC_ROUNDTRIP
360
33FC
  0
DICTIONARY
  5
33FD
330
2EDC
100
AcDbDictionary
280
     1
281
     1
  3
ACAD_XREC_ROUNDTRIP
360
33FE
  0
DICTIONARY
  5
33C8
330
1DD5
100
AcDbDictionary
280
     1
281
     1
  3
ACAD_XREC_ROUNDTRIP
360
33C9
  0
DICTIONARY
  5
33F7
330
2ED9
100
AcDbDictionary
280
     1
281
     1
  3
ACAD_XREC_ROUNDTRIP
360
33F8
  0
DICTIONARY
  5
33FF
330
2EDD
100
AcDbDictionary
280
     1
281
     1
  3
ACAD_XREC_ROUNDTRIP
360
3400
  0
XRECORD
  5
3408
102
{ACAD_REACTORS
330
3407
102
}
330
3407
100
AcDbXrecord
280
     1
102
DISPLAYNAME
  1
Imperial24
102
FLAGS
 90
        0
  0
XRECORD
  5
33AC
102
{ACAD_REACTORS
330
1E3B
102
}
330
1E3B
100
AcDbXrecord
280
     1
102
SHADEPLOT
 70
     0
102
SHADEPLOTRESLEVEL
 70
     2
102
SHADEPLOTCUSTOMDPI
 70
   300
  0
XRECORD
  5
1E3C
102
{ACAD_REACTORS
330
1E3B
102
}
330
1E3B
100
AcDbXrecord
280
     1
310
2800000000010000840000000100080000000000008400000100000001000000000100000000000000000000FFFFFF00000000000000000000000000000000000000000000000000000000000000000000000000330000006600000099000000CC000000FF00000000330000333300006633000099330000CC330000FF3300
310
0000660000336600006666000099660000CC660000FF66000000990000339900006699000099990000CC990000FF99000000CC000033CC000066CC000099CC0000CCCC0000FFCC000000FF000033FF000066FF000099FF0000CCFF0000FFFF000000003300330033006600330099003300CC003300FF003300003333003333
310
33006633330099333300CC333300FF333300006633FF336633FF666633FF996633FFCC6633FFFF6633FF009933FF339933FF669933FF999933FFCC9933FFFF9933FF00CC33FF33CC33FF66CC33FF99CC33F8CCCC33FFFFCC33FF00FF33FF33FF33FF66FF33FF99FF33FFCCFF33FFFFFF33FF000066FF330066FF660066FF99
310
0066FFCC0066FFFF0066FF003366FF333366FF663366FF993366FFCC3366FFFF3366FF006666FF336666FF666666FF996666FFCC6666FFFF6666FF009966FF339966FF669966FF999966FFCC9966FFFF9966FF00CC66FF33CC66FF66CC66FF99CC66FFCCCC66FFFFCC66FF00FF66FF33FF66FF66FF66FF99FF66FFCCFF66FF
310
FFFF66FF000099FF330099FF660099F8990099FFCC0099FFFF0099FF003399FF333399FF663399FF993399FFCC3399FFFF3399FF006699FF336699FA666699FF996699FECC6699FFFF6699FF009999FF339999FF669999FF999999FFCC9999FFFF9999FF00CC99FF33CC99FF66CC99FF99CC99FFCCCC99FDFFCC99FD00FF99
310
FF33FF99FF66FF99FF99FF99FFCCFF99FFFFFF99FF0000CCFF3300CCFF6600CCFF9900CCFFCC00CCFFFF00CCFF0033CCFF3333CCFF6633CCF29933CC62CC33CCECFF33CCFF0066CCFF3366CCFF6666CCFF9966CCFFCC66CCFFFF66CCFF0099CCFF3399CCFF6699CCFF9999CCFFCC99CCFFFF99CCFF00CCCCFF33CCCC0066CC
310
CC0299CCCC76CCCCCCE8FFCCCCFF00FFCCFF33FFCCFF66FFCCFF99FFCCFFCCFFCCFFFFFFCCFF0000FFFF3300FFFF6600FFFF9900FFFFCC00FFFFFF00FF000033FF003333FF006633FF179933FF71CC33FFF2FF33FFFF0066FFFF3366FFFF6666FFFF9966FFFFCC66FFFFFF66FFFF0099FFFF3399FFEB6699FF559999FF00CC
310
99FF00FF99FF0000CCFF0033CCFF0066CCFF0F99CCFF91CCCCFFE6FFCCFFFF00FFFFFF33FFFFFF66FFFFFF99FFFFE6CCFFFF69FFFFFF06000000000D0D0D001A1A1A00282828003535350043434300505050005D5D5D006B6B6B2778787889868686F5939393EDA1A1A164AEAEAE0FBBBBBB00C9C9C900D6D6D600E4E4E400
310
F1F1F100FFFFFF0000000000000000000000000000000000000000000000000000000000000000000000000000000000000000000000000000000000000000000000000000000000000000000000000000000000000000000000000000000000000000000000002D0000000000000000000000000000002D2D2D0000000000
310
000000000000000000002D0000000000000000000000000000000000000000000000000000000000000000000000000000000000000000000000000000000000000000000000000000000000000000000000000000000000000000000000000000000000000000000000000000000000000000000000000000000000000000
310
0000000000000000000000000000000000000000000000000000000000000000000000000000000000000000000000000000000000000000000000000000000000000000000000000000000000000000000000000000000000000000000000000000000000000000002D000000000000000000000000000000000000000000
310
0000000000000000000000002D000000000000000000000000000000000000000000000000000000000000000000000000000000000000000000000000000000000000000000000000000000000000000000000000000000000000000000000000000000000000000000000000000000000000000000000000000000000000
310
00000000000000000000000000000000000000000000000000000000000000000000000000000000000000000000000000000000000000000000000000000000000000000000000000000000000000000000000000000000000000000000000000000000000000000000002D0000002D2D2D2D2D2D2D2D2D2D2D2D2D2D2D2D
310
2D2D2D2D2D2D2D2D2D2D2D0000002D000000000000000000000000000000000000002D2D2D2D2D2D2D2D2D000000000000000000000000000000000000000000000000000000000000000000000000000000000000000000000000000000000000000000000000000000000000000000000000000000000000000000000000
310
000000000000000000000000000000000000000000000000000000000000000000000000000000000000000000000000000000000000000000000000000000000000000000000000000000000000000000000000000000000000000000000000000000000000000000000000002D0000002D2D000000000000000000002D2D
310
2D000000000000000000002D2D0000002D002D2D2D2D2D2D2D2D2D000000000000000000002D2D2D2D2D2D2D0000000000000000000000000000000000000000000000000000000000000000000000000000000000000000000000000000000000000000000000000000000000000000000000000000000000000000000000
310
0000000000000000000000000000000000000000000000000000000000000000000000000000000000000000000000000000000000000000000000000000000000000000000000000000000000000000000000000000000000000000000000000000000000000000000000000000002D0000002D0000000000000000000000
310
2D2D2D00000000000000000000002D0000002D2D00002D2D2D2D2D2D0000000000000000000000002D2D2D2D2D00000000000000000000000000000000000000000000000000000000000000000000000000000000000000000000000000000000000000000000000000000000000000000000000000000000000000000000
310
00000000000000000000000000000000000000000000000000000000000000000000000000000000000000000000000000000000000000000000000000000000000000000000000000000000000000000000000000000000000000000000000000000000000000000000000000000000002D0000002D000000000000000000
310
000000000000000000000000000000002D0000002D2D00000000000000000000000000000000000000002D0000002D0000000000000000000000000000000000000000000000000000000000000000000000000000000000000000000000000000000000000000000000000000000000000000000000000000000000000000
310
000000000000000000000000000000000000000000000000000000000000000000000000000000000000000000000000000000000000000000000000000000000000000000000000000000000000000000000000000000000000000000000000000000000000000000000000000000000000002D0000002D00000000000000
310
0000000000280000000000000000000000002D0000002D0000000000000000000000000000000000000000002D0000002D000000000000000000000000000000000000000000000000000000000000000000000000000000000000000000000000000000000000000000000000000000000000000000002800000000000000
310
0000000000000000000000000000000000000000000000000000000000000000000000000000000000000000000000000000000000000000000000000000000000000000000000000000000000000000000000000000000000000000000000000000000000000000000000000000000000000000002D0000002D0000000000
310
00000000000000280000000000000000000000002D00002D2D0000000000000000000000000000000000000000002D0000002D00000000000000000000002800000000000000000000000000000000000000000000000000000000000000000000000000000000000000000000000000000000000000000000280000000000
310
00000000000000000000000000000000000000000000000000000000000000000000000000000000000000000000000000000000000000000000000000000000000000000000000000000000000000000000000000000000000000000000000000000000000000000000000000000000000000000000002D0000002DF5F5F5
310
F5F5F5F5F5F5F5F5F528F5F5F5F5F5F5F5F5F5F5F5F52D2D2D2D2D2D2D2D2D2D2D2D2D2D2D00000000000000000000002DF5F5F52DF50000000000000000000028000000000000000000000000000000000000000000000000000000000000000000000000000000000000000000F5F5F5F5F5F5F5F5F5F5F5F5F5F5F5F5F5
310
F5F5F5F5F5F5F5F5F5F500000000000000000000000000000000000000000000000000000000000000000000000000000000000000000000000000000000000000000000000000000000000000000000000000002D2D2D2D2D2D2D2D2DF5F5F5F5F5F5F5F5F5F5F5F5F5F5F5F5F5F5F5F5F5F5F5F5F5F5F5F52D0000002D00
310
0000F5F5F5F5F5F5F5F5F528F5F5F5F5F5F5F5F5F50000002D002D002D00000000000000002D000000000000000000000000F500F5F52DF5F5F5F5F5F5F5F5F5F5F528F5F5F5F5F5F5F5F5F5000000000000000000000000000000000000000000000000000000000000000000000000280000000000000000000000002800
310
000000000000000000000028000000F5F5F5F5F5F5F5F5F5F5F5F5F5F5F5F5F5F5F5F5F5F5F5F5F5F5F5F5F5F50000000000000000000000000000000000000000000000000000000000000000000000000000000000002D0000000000F50000000000F500000000000000000000000000000000000000000000F52DF500F5
310
F5000000F5000000F5000000002800000000F5000000F5000000F52D00002D00000000000000002D000000000000000000000000BEBEBEBEF5F5F5F5F5F5F5F5F5F5F5F528F5F5F5F5F5F5F5F5F5F5F5000000000000000000000000000000000000000000000000000000000000000000F528000000000000F5F5F5F5F5F5
310
F5F5F5F5F5F5F500000000000028F500F5F5F500000000000000000000000000000000000000000000F50000000000F500000000000000000000000000000000000000000000000000000000000000000000000000000000002D0000000000F50000000000F500000000000000000000000000000000000000000000002D28
310
28F528F528F500000000F50000F5F528F5F50000F500000000F528F528F52D2D2D2D2D2D2D2D2D00002D00000000000000000000002828282828282800F50000000000000000280000000000000000F5F500F5000000000000000000000000000000000000000000000000000000000000F528F528F5280000F5F5F5F50000
310
00002800000000F5F5F50000002828282828F5F50000000000000000000000000000000000000000000000F50000000000F500000000000000000000000000000000000000000000000000000000000000000000000000000000002D0000000000F50000000000F50000000000000000000000000000000000000000000000
310
2DF50000F5F50000000000F5F5F5F50000280000F5F5F5F50000000000F5F50000F52D000000002D0000002D000000000000000000000000BEBEBEBEBE00000000000000000000002800000000000000000000F5F5000000000000000000000000000000000000000000000000000000000000F5000028000000F500000000
310
000000002800000000000000F5F5000000280000F5F50000000000000000000000000000000000000000000000F50000000000F500000000000000000000000000000000000000000000000000000000000000000000000000000000002D0000000000F5F5F5F5F5F5F5F5F5F5F5F5F5F5F5F5F5F5F5F5F5F5F5F5F5F5F5F5
310
F5F52DF50000F500000000F5F500000000000028000000000000F5F500000000280000F52D000000002D0000002D000000000000000000000000F5000000F50000000000000000000000280000000000000000000000F5000000000000000000000000000000000000000000000000000000000000F50000280000F5000000
310
00000000000028000000000000000000F5F5F52800F5F5F5F5F5F5F5F5F5F5F5F5F5F5F5F5F5F5F5F5F5F5F5F5F5F5F5F5F5F5F5F5F500000000000000000000000000000000000000000000000000000000000000000000000000000000002D0000000000F50000000000F500000000000000000000000000000000000000
310
000000002DF5000000000000F50000000000000000280000000000000000F5000000000000F52D000000002D0000002D000000000000000000000000F5000000F50000000000000000000000280000000000000000000000F5000000000000000000000000000000000000000000000000000000000000F5000000F5F50000
310
00000000000000002800000000000000000000F5F5F5F5F500F50000000000000000000000000000000000000000000000F50000000000F500000000000000000000000000000000000000000000000000000000000000000000000000000000002D0000000000F50000000000F50000000000000000000000000000000000
310
0000000000002D0000F50000F5F500000000000000000028000000000000000000F5F500F50000002D000000002D0000002D000000000000000000000000F5000000F50000000000000000000000280000000000000000000000F50000000000000000000000000000000000000000000000000000000000F5000000F50000
310
000000000000000000002800000000000000000000000000000000F50000000000000000000000000000000000000000000000F50000000000F500000000000000000000000000000000000000000000000000000000000000000000000000000000002D0000000000F50000000000F5000000000000000000000000000000
310
00000000000000002D00F50000F50000000000000000000000280000000000000000000000F500F5F5002D000000002D0000002D000000000000000000000000F5000000F50000000000000000000000280000000000000000000000F50000000000000000000000000000000000000000000000000000000000F50000F500
310
0000000000000000000000002800000000000000000000000000000000F50000000000000000000000000000000000000000000000F50000000000F500000000000000000000000000000000000000000000000000000000000000000000000000000000002D0000000000F50000000000F500000000000000000000000000
310
000000000000000000002D00F50000F5000000000000000000000028000000000000000000000000F500F5002D000000002D0000002D000000000000000000000000F50000F5F5F500000000000000000000280000000000000000000000F50000000000000000000000000000000000000000000000000000000000F5F5F5
310
00000000000000000000000000002800000000000000000000000000000000F50000000000000000000000000000000000000000000000F50000000000F500000000000000000000000000000000000000000000000000000000000000000000000000000000002D0000000000F50000000000F50000000000000000000000
310
0000000000000000000000002D00F500F50000000000000000F5F5F500F500F5F5F50000000000000000F500F5002D000000002D0000002D000000000000000000000000F5000000F5F5F5F5F5F5F5F5F5F5F5F528F5F5F5F5F5F5F5F5F5F5F5F5F500000000000000000000000000000000000000000000000000000000F5
310
000000000000000000000000F5F5F500F5F5F5F5F5F50000000000000000000000F50000000000000000000000000000000000000000000000F50000000000F500000000000000000000000000000000000000000000000000000000000000000000000000000000002D0000000000F50000000000F5000000000000000000
310
0000000000000000000000000000F500F500F50000000000000000F5F5F500F500F5F5F5000000000000000000F5F500F5000000002D0000002D000000000000000000000000F5000000000000000000000000000000280000000000000000000000F5F5000000000000000000000000000000000000000000000000000000
310
00F5000000000000000000000000F5F5F500F5F5F5F5F5F50000000000000000000000F50000000000000000000000000000000000000000000000F50000000000F500000000000000000000000000000000000000000000000000000000000000000000000000000000002D0000000000F50000000000F500000000000000
310
00000000000000000000000000000000F5F500F5000000000000000000F5F5F500F500F5F5F5000000000000000000F500F5F5000000002D0000002D000000000000000000000000F5000000000000000000000000000000280000000000000000000000F5F500000000000000000000000000000000000000000000000000
310
000000F5000000000000000000000000F5F5F500F50000F5F5000000000000000000000000F50000000000000000000000000000000000000000000000F50000000000F500000000000000000000000000000000000000000000000000000000000000000000000000000000002D0000000000F50000000000F50000000000
310
000000000000000000000000000000000000F5F500F5000000000000000000F5F5F5F5F5F5F5F5F500000000000000000000F5F5F50000002D2D0000002D000000000000000000000000F5000000000000000000000000000000280000000000000000000000F500F500000000000000000000000000000000000000000000
310
0000000000F5000000000000000000000000F5F5F5F5F5F5F5F5F5F50000000000000000000000F50000000000000000000000000000000000000000000000F50000000000F500000000000000000000000000000000000000000000000000000000000000000000000000000000002D0000000000F50000000000F5000000
310
0000000000000000000000000000000000000000F5F5F50000000000000000000000000000280000F50000000000000000000000F5F5F50000002D2D0000002D000000000000000000000000F5000000000000000000000000000000280000000000000000000000F500F50000000000000000000000000000000000000000
310
00000000000000F5000000000000000000000000F5F5F5F5F5F5F5F5F5000000000000000000000000F50000000000000000000000000000000000000000000000F50000000000F50000000000000000000000000000000000000000000000000000000000000000000000000000002D2D2D0000000000F50000000000F500
310
00000000000000000000000000000000000000000000F5F500000000000000000000000000000028000000000000000000000000000000F5F50000002D2D0000002D000000000000000000000000F5000000000000000000000000000000280000000000000000000000F5F5F5000000000000000000000000000000000000
310
000000000000000000F5000000000000000000000000000000002800000000000000000000000000000000F50000000000000000000000000000000000000000000000F50000000000F50000000000000000000000000000000000000000000000000000000000000000000000000000002D2D2D0000282828F52828282828
310
282828282828280028282828282828282828282828282828F5F5282828282D2D2D000000000000000028000000000000000000000000000000F5F5000000002D0000002D000000000000000000002828F5282828282828282828282828282828282828282828282828282828F528F528280000000000000000000000000000
310
0000000000000000000000F5000000000000000000000000000000002800000000000000000028282828282828F52828282828282828282828282828282828282828282828F52828282828F52828280000000000000000000000000000000000000000000000000000000000000000000000002D2D2D0000000000F5000000
310
0000F50000000000000000000000000000000000000000000000F5F5000000002D0000000000000000F5F528F5F500000000000000000000000000F5F5000000002D0000002D000000000000000000000000F5000000000000000000000000000000280000000000000000000000F5F5F5F500000000000000000000000000
310
00000000000000000000000000F50000000000000000000000000000F5F5F5F5F50000000000000000000000000000F50000000000000000000000000000000000000000000000F50000000000F500000000000000000000000000000000000000000000000000000000000000000000000000000000002D0000000000F500
310
00000000F50000000000000000000000000000000000000000000000F5F50000002D2D000000000000F5F50000280000F5000000000000000000000000F5F5000000002D00002D2D000000000000000000000000F5000000000000000000000000000000280000000000000000000000F5F5F5000000000000000000000000
310
000000000000000000000000000000F5000000000000000000000000F5F50000280000F500000000000000000000000000F50000000000000000000000000000000000000000000000F50000000000F500000000000000000000000000000000000000000000000000000000000000000000000000000000002D0000000000
310
F50000000000F50000000000000000000000000000000000000000000000F5F50000002D2D0000000000F50000000028000000F5F500000000000000000000F5F5000000002D00002D2D000000000000000000000000F5000000000000000000000000000000280000000000000000000000F5F5F500000000000000000000
310
0000000000000000000000000000000000F50000000000000000000000F50000000028000000F5F50000000000000000000000F50000000000000000000000000000000000000000000000F50000000000F500000000000000000000000000000000000000000000000000000000000000000000000000000000002D000000
310
0000F50000000000F50000000000000000000000000000000000000000000000F5F50000002D2D00000000F50000000000280000000000F5000000000000000000F5F5000000002D00002D2D000000000000000000000000F5000000000000000000000000000000280000000000000000000000F5F5F50000000000000000
310
00000000000000000000000000000000000000F500000000000000000000F50000000000280000000000F500000000000000000000F50000000000000000000000000000000000000000000000F50000000000F500000000000000000000000000000000000000000000000000000000000000000000000000000000002D00
310
00000000F50000000000F50000000000000000000000000000000000000000000000F5F50000002D2D00000000F50000000000280000000000F5000000000000000000F5F5000000002D00002D2D000000000000000000000000F5000000000000000000000000000000280000000000000000000000F5F5F5F5F5F5F5F5F5
310
F5F5F52D2D2D2D2D2D2D2D00000000000000000000F500000000000000000000F50000000000280000000000F500000000000000000000F50000000000000000000000000000000000000000000000F50000000000F50000000000000000000000000000000000000000000000000000000000000000000000000000000000
310
2D0000000000F50000000000F50000000000000000000000000000000000000000000000F5F50000002D2D00000000F5000000BEBE28000000000000F50000000000000000F5F5000000002D0000002D000000000000000000000000F5000000000000000000000000000000000000000000000000000000F500F5F5000000
310
0000000000F5000000002D2D0000000000000000000000F500000000000000000000F50000000000F5000000000000F5000000000000000000F50000000000000000000000000000000000000000000000F50000000000F5000000000000000000000000000000000000000000000000000000000000000000000000000000
310
00002D0000000000F50000000000F50000000000000000000000000000000000000000000000F5F5000000002D000000F500000000BE0028BEBEBEBE0000F50000000000000000F5F5000000002D0000002D000000000000000000000000F5000000000000000000000000000000280000000000000000000000F500F5F500
310
F5F5F5F5F5F5F5F5000000002D2D0000000000000000000000F5000000000000000000F50000F5F5F5F528F5F500000000F5000000000000000000F50000000000000000000000000000000000000000000000F50000000000F500000000000000000000000000000000000000000000000000000000000000000000000000
310
000000002D0000000000F50000000000F50000000000000000000000000000000000000000000000F5F5F50000002D2D2828F52828282828282828BE28BE2828F528282D2D2D2D2D2D2D2D2D2D2D2D2D2D00002D000000000000000000002828F5282828282828282828282828282828282828282828282828282828F528F5
310
F52D28F52828282828F5282800002D2D0000000000000000000000F5000000000000282828282828F528F5282828282828282828282828000000000000F50000000000000000000000000000000000000000000000F50000000000F50000000000000000000000000000000000000000000000000000000000000000000000
310
0000000000002D0000000000F50000000000F50000000000000000000000000000000000000000000000F5F500F5000000000000F500000000BEBE28BEBEBEBE0000F500000000000000F5F5F5000000002D0000002D000000000000000000000000F5000000000000000000000000000000280000000000000000000000F5
310
00F5F52DF5F5F5F5F5F5F5F5000000002D2D0000000000000000000000F5000000000000000000F50000F5F5F5002800F500000000F5000000000000000000F50000000000000000000000000000000000000000000000F50000000000F5000000000000000000000000000000000000000000000000000000000000000000
310
00000000000000002D0000000000F50000000000F50000000000000000000000000000000000000000000000F5F500F500000000000000F5000000000028000000000000F5000000000000F500F5F5000000002D0000002D000000000000000000000000F50000000000000000000000000000002800000000000000000000
310
00F500F5F52D00000000000000F5000000002D2D0000000000000000000000F500000000000000000000F500000000F5F5F50000000000F5000000000000000000F50000000000000000000000000000000000000000000000F50000000000F500000000000000000000000000000000000000000000000000000000000000
310
000000000000000000002D00000000002DF5F5F5F5F5F5F5F5F5F5F5F5F5F5F5F5F5F5F5F5F5F5F5F5F5F5F5F5F5F5F50000F5000000000000F50000000000280000000000F500000000000000F500F5F5000000002D0000002D000000000000000000000000F5000000000000000000000000000000280000000000000000
310
000000F500F5F52DF5F5F5F5F5F5F52D2D2D2D2D2D2D2D00000000000000000000F500000000000000000000F50000000000280000000000F500000000000000000000F5F5F5F5F5F5F5F5F5F5F5F5F5F5F5F5F5F5F5F5F5F5F5F5F5F5F5F5F5F5F50000000000000000000000000000000000000000000000000000000000
310
0000000000000000000000002D00000000002D0000000000F50000000000000000000000000000000000000000000000F5F50000F5000000000000F50000000000280000000000F5000000000000F500F500F5000000002D0000002D000000000000000000000000F500000000000000000000000000000028000000000000
310
0000000000F500F52D2D000000000000002D0000000000000000000000000000000000F500000000000000000000F50000000000280000000000F5000000000000000000F5F50000000000000000000000000000000000000000000000F50000000000F5000000000000000000000000000000000000000000000000000000
310
00000000000000000000000000002D00000000002D0000000000F50000000000280000000000000000000000000000000000F500F50000F5000000000000F5F50000002800000000F500000000000000F500F5002D0000002D2D0000002D000000000000000000000000F5000000F5F5F5F5F5F5F5F5F5F5F5F528F5F5F5F5
310
F5F5F5F5F5F5F5F500F52D2D000000000000002D0000000000000000000000000000000000F50000000000000000000000F5F50000002800000000F500000000000000000000F5000000000000000000000000000000000000280000000000F50000000000F500000000000000000000000000000000000000000000000000
310
000000000000000000000000000000002D00000000002DF500000000F50000000000280000000000000000000000000000000000F500F50000F50000000000000000F50000280000F5F500000000000000F50000F5002D0000002D2D0000002D000000000000000000000000F50000F5F5F500000000000000000000280000
310
000000000000000000F500F52D2D000000000000002D0000000000000000000000000000000000F5F5F50000000000000000000000F50000280000F5F50000000000000000000000F5000000000000000000000000000000000000280000000000F500000000F5F50000000000000000000000000000000000000000000000
310
00000000000000000000000000000000002D2D2D2D2D2D2D2D2DF5F5F5F5F5F5F5F5F5F5F5F5F5F5F5F5F5F52D2D2D2D2D2D2DF5F5F5F500F5000000F5F500000000000000F5F528F5F500000000000000F5F50000F5F5002D0000002D2D0000002D000000000000000000000000F5000000F5000000000000000000000028
310
0000000000000000000000F500F52D2D000000000000002D0000000000000000000000000000000000F50000F50000000000000000000000F5F5F5F5F50000000000000000000000F5F5F5F5F5F5F5F5F5F5F5F5F5F5F5F5F5F5F5F5F5F5F5F5F5F5F5F5F5F5F5F5F500000000000000000000000000000000000000000000
310
00000000000000000000000000000000000000000000000000002D0000F5F5F5F5F5F5F5F5F5F5F5F5F5F5F5F5F5F5000000002D00000000F50000F500000000F50000000000000000280000000000000000F5000000F50000002D000000002D0000002D000000000000000000000000F5000000F500000000000000000000
310
00280000000000000000000000F5F5F52D2D000000000000002D0000000000000000000000000000000000F5000000F5F50000000000000000000000280000000000000000000000F5F5000000F5000000000000000000F5F5F5F5F5F5F5F5F5F5F5F5F5F5F5F5F5F500000000000000000000000000000000000000000000
310
000000000000000000000000000000000000000000000000000000002D0000F500000000000000002800000000000000F5000000002D0000000000F500000000000000F5F500000000000028000000000000F5F500000000000000F52D000000002D0000002D000000000000000000000000F5000000F50000000000000000
310
000000280000000000000000000000F500F52D2D000000000000002D000000000000000000000000000000000000F500000000F5F50000000000000000002800000000000000000000F50000000000F5000000000000000000F500000000000000280000000000000000F50000000000000000000000000000000000000000
310
0000000000000000000000000000000000000000000000000000000000002D0000F500000000000000002800000000000000F5000000002D0000000000F50000F5000000000000F5F5F500000028000000F5F5F5000000000000280000F52D000000002D0000002D000000000000000000000000BEBEBEBEBE000000000000
310
0000000000280000000000000000000000F5F5002D2D000000000000002D000000000000000000000000000000000000F5000028000000F50000000000000000280000000000000000F5F50000280000F500000000000000000000F500000000000000280000000000000000F5000000000000000000000000000000000000
310
00000000000000000000000000000000000000000000000000000000000000002D0000F5F5F5F5F5F5F5F5F5F5F5F5F5F5F5F5F5F5000000002D0000000000F50000F5F5000000000000F500F5F5F528F5F5F500F5000000000000F5F50000F52D000000002D0000002D000000000000000000000000F5000000F500000000
310
000000000000002800000000000000000000F5F500002D2D000000000000002D000000000000000000000000000000000000F500002800000000F5F500000000000028000000000000F5F500000000280000F500000000000000000000F5F5F5F5F5F5F5F5F5F5F5F5F5F5F5F5F5F500000000000000000000000000000000
310
000000000000000000000000000000000000000000000000000000000000000000002D0000F500000000000000002800000000000000F50000002D2D0000000000282828282828F500000000F5000000002800000000F500000000F5282828282D2D2D2D2D2D2D2D2D00002D00000000000000000000002828282828282800
310
00000000000000000028000000000000000000F500F500002D2D000000000000002D000000000000000000000000000000000000F528F528F52800000000F5F5000000002800000000F5F50000000028282828282800000000000000000000F500000000000000280000000000000000F50000000000000000000000000000
310
000000000000000000000000000000000000000000000000000000000000002D2D2D2D2D2D2D2DF5F5000000000000002800000000000000F500002D2D2D00000000000000F5F5000000F5F5F5F5F5F5F5F5F528F5F5F5F5F5F5F5F5F5000000F5F500002D00000000000000002D000000000000000000000000BEBEBEBEF5
310
F5F5F5F5F5F5F5F5F5F5F528F5F5F5F5F5F5F5F5F5F5F50000002D2D000000000000002D0000000000000000000000000000000000000000F52800000000000000F5F5F5F5F5F5F5F5F5F5F50000000000000028F5000000000000000000000000F5000000000000002800000000000000F5F5000000000000000000000000
310
0000000000000000000000000000000000000000000000000000000000000000002D000000002D0000F500000000000000002800000000000000F500002D2D2D00000000000000002800000000000000000000000028000000000000000000000000F50000002D00000000000000002D000000000000000000000000F500F5
310
F5F5F5F500F5000000000000002800000000000000F50000000000002D2D000000000000002D00000000000000000000000000000000000000000028000000000000000000000000280000000000000000000000002800000000000000000000000000F500000000000000280000000000000000F500000000000000000000
310
000000000000000000000000000000000000000000000000000000000000000000002D2D000000002D0000F500000000000000002800000000000000F500002D2D2D0000000000000000F5F5F5F5F5F5F5F5F5F5F5F5F528F5F5F5F5F5F5F5F5F5F5F5F52D2D2D2D2D2D2D2D2D2D2D2D2D2D2D00000000000000000000002D
310
F5F5F5F5F50000F5000000000000002800000000000000F50000000000002D2D000000000000002D000000000000000000000000000000000000000000F5F5F5F5F5F5F5F5F5F5F5F5F5F5F5F5F5F5F5F5F5F5F5F5F5F5F500000000000000000000000000F500000000000000280000000000000000F50000000000000000
310
0000000000000000000000000000000000000000000000000000000000000000000000002D2D000000002D0028F528282828282828282828282828282828F528282D2D2D00000000000000000000000000000000000000000028000000000000000000000000000000002D0000000000000000000000000000000000000000
310
002D00000000002828F5282828282828282828282828282828F52800000000002D2D000000000000002D00000000000000000000000000000000000000000000000000000000000000000000280000000000000000000000000000000000000000000000000028282828282828282828282828282828282828280000000000
310
00000000000000000000000000000000000000000000000000000000000000000000000000002D2D000000002D0000F500000000000000002800000000000000F5000000002D0000000000000000000000000000000000000000002D000000000000000000000000000000002D000000000000000000000000000000000000
310
0000002D00000000000000F5000000000000002800000000000000F50000000000002D2D000000000000002D00000000000000000000000000000000000000000000000000000000000000000000280000000000000000000000000000000000000000000000000000F500000000000000280000000000000000F500000000
310
000000000000000000000000000000000000000000000000000000000000000000000000000000002D2D000000002D0000F500000000000000002800000000000000F5000000002D0000000000000000000000000000000000000000002D000000000000000000000000000000002D00000000000000000000000000000000
310
00000000002D00000000000000F5000000000000002800000000000000F50000000000002D2D000000000000002D00000000000000000000000000000000000000000000000000000000000000000000000000000000000000000000000000000000000000000000000000F500000000000000280000000000000000F50000
310
000000000000000000000000000000000000000000000000000000000000000000000000000000000000002D000000002D0000F500000000000000002800000000000000F5000000002D0000000000000000000000000000000000000000002D000000000000000000000000000000002D0000000000000000000000000000
310
000000000000002D00000000000000F5000000000000002800000000000000F50000000000002D2D000000000000002D00000000000000000000000000000000000000000000000000000000000000000000000000000000000000000000000000000000000000000000000000F500000000000000280000000000000000F5
310
0000000000000000000000000000000000000000000000000000000000000000000000000000000000000000002D2D2D2D2D2D2D2DF5F5F5000000000000280000000000F5F5F5000000002D0000000000000000000000000000000000000000002D000000000000000000000000000000002D000000000000000000000000
310
0000000000000000002D00000000000000F500F50000000000280000000000F500F50000000000002D2D000000000000002D00000000000000000000000000000000000000000000000000000000000000000000000000000000000000000000000000000000000000000000000000F5F5F5000000000028000000000000F5
310
F5F500000000000000000000000000000000000000000000000000000000000000000000000000000000000000000000000000002D0000F5F5F5F500000000002800000000F5F5F5F5000000002D0000000000000000000000000000000000000000002D000000000000000000000000000000002D00000000000000000000
310
00000000000000000000002D000000000000F5F5F5F5F5000000002800000000F5F5F5F5F500000000002D2D000000000000002D00000000000000000000000000000000000000000000000000000000000000000000000000000000000000000000000000000000000000000000000000F5F5F5F500000000280000000000
310
F5F5F5F500000000000000000000000000000000000000000000000000000000000000000000000000000000000000000000000000002D0000F5F5F5F5F5F5F5F5F5F5F5F5F5F5F5F5F5F52D2D2D2D2D2D00000000000000000000000000000000000000002D000000000000000000000000000000002D0000000000000000
310
000000000000000000000000002D00000000000000F5F5F5F5F5F5F5F5F5F5F5F5F5F5F5F5F50000000000002D2D000000000000002D00000000000000000000000000000000000000000000000000000000000000000000000000000000000000000000000000000000000000000000000000F5F5F5F5F5F5F5F5F5F5F5F5
310
F5F5F5F5F5F500000000000000000000000000000000000000000000000000000000000000000000000000000000000000000000000000002D00002D000000000000000028000000000000002D00000000000000000000000000000000000000000000000000002D000000000000000000000000000000002D000000000000
310
0000000000000000000000000000002D0000000000000000000000000000002800000000000000000000000000002D2D2D2D2D2D2D2D2D2D0000000000000000000000000000000000000000000000000000000000000000000000000000000000000000000000000000000000000000000000000000000000000000002800
310
000000000000000000000000000000000000000000000000000000000000000000000000000000000000000000000000000000000000000000002D00002D000000000000000028000000000000002D00000000000000000000000000000000000000000000000000002D000000000000000000000000000000002D00000000
310
00000000000000000000000000000000002D0000000000000000000000000000002D00000000000000000000000000002D2D00002D2D0000002D000000000000000000000000000000000000000000000000000000000000000000000000000000000000000000000000000000000000000000000000000000000000000000
310
2800000000000000000000000000000000000000000000000000000000000000000000000000000000000000000000000000000000000000000000002D00002D000000000000000000000000000000002D00000000000000000000000000000000000000000000000000002D000000000000000000000000000000002D0000
310
000000000000000000000000000000000000002D0000000000000000000000000000002D00000000000000000000000000002D0000002D2D2D00002D00000000000000000000000000000000000000000000000000000000000000000000000000000000000000000000000000000000000000000000000000000000000000
310
00000000000000000000000000000000000000000000000000000000000000000000000000000000000000000000000000000000000000000000000000002D00002D000000000000000000000000000000002D00000000000000000000000000000000000000000000000000002D000000000000000000000000000000002D
310
0000000000000000000000000000000000000000002D0000000000000000000000000000002D00000000000000000000000000002D00000000000000002D0000000000000000000000000000000000000000000000000000000000000000000000000000000000000000000000000000000000000000000000000000000000
310
000000000000000000000000000000000000000000000000000000000000000000000000000000000000000000000000000000000000000000002D2D2D2D2D2D2D2D2D2D2D2D2D2D2D2D2D2D2D2D2D2D2D2D2D2D2D00000000000000000000000000000000000000000000000000002D000000000000000000000000000000
310
002D0000000000000000000000000000000000000000002D0000000000000000000000000000002D00000000000000000000000000002D2D2D2D2D2D2D2D2D2D000000000000000000000000000000000000000000000000000000000000000000000000000000000000000000000000000000000000000000000000000000
310
000000000000000000000000000000000000000000000000000000000000000000000000000000000000000000000000000000000000000000000000002D2D2D2D002D00002D0000000000002D2D2D2D0000000000002D00000000000000000000000000000000000000000000000000002D00000000000000000000000000
310
0000002D0000000000000000000000000000000000000000002D0000000000000000000000000000002D00000000000000000000000000002D0000002D2D0000002D00000000000000000000000000000000000000000000000000000000000000000000000000000000000000000000000000000000000000000000000000
310
0000000000000000000000000000000000000000000000000000000000000000000000000000000000000000000000000000000000000000000000000000002D2D2D2D002D0000000000000000002D2D2D2D0000000000000000000000000000000000000000000000000000000000000000002D0000000000000000000000
310
00000000002D0000000000000000000000000000000000000000002D0000000000000000000000000000002D0000000000000000000000000000000000002D2D0000002D0000000000000000000000000000000000000000000000000000000000000000000000000000000000000000000000000000000000000000000000
310
000000000000000000000000000000000000000000000000000000000000000000000000000000000000000000000000000000000000000000000000000000000000000000002D000000000000000000000000000000000000000000000000000000000000000000000000000000000000000000002D000000000000000000
310
000000000000002D0000000000000000000000000000000000000000002D0000000000000000000000000000002D00000000000000000000000000000000000000000000002D000000000000000000000000000000000000000000000000000000000000000000000000000000000000000000000000000000000000000000
310
0000000000000000000000000000000000000000000000000000000000000000000000000000000000000000000000000000000000000000000000000000000000000000000000002D2D2D2D2D2D2D2D2D2D2D2D2D2D2D2D2D2D2D2D2D2D2D2D2D2D2D2D2D2D2D2D2D2D2D2D2D2D2D2D2D2D2D2D2D2D2D2D2D2D2D2D2D2D2D
310
2D2D2D2D2D2D2D2D2D2D0000000000000000000000000000000000000000002D2D2D2D2D2D2D2D2D2D2D2D2D2D2D2D2D2D2D2D2D2D2D2D2D2D2D2D2D2D2D2D2D2D2D2D2D2D2D2D2D00000000000000000000000000000000000000000000000000000000000000000000000000000000000000000000000000000000000000
310
00000000000000000000000000000000000000000000000000000000000000000000000000000000000000000000000000000000000000000000000000000000000000000000000000002D00000000000000000000000000000000000000002D2D2D2D2D2D0000000000000000000000000000000000000000000000000000
310
2D2D2D2D2D0000000000002D0000000000000000000000000000000000000000002D0000000000002D2D2D0000000000000000000000000000000000002D2D000000000000000000002D0000000000000000000000000000000000000000000000000000000000000000000000000000000000000000000000000000000000
310
000000000000000000000000000000000000000000000000000000000000000000000000000000000000000000000000000000000000000000000000000000000000000000000000000000002D00000000000000000000000000000000000000002D2D2D2D2D00000000000000000000000000000000000000000000000000
310
0000002D2D2D2D0000000000002D0000000000000000000000000000000000000000002D000000000000002D2D00000000000000000000000000000000002D2D2D000000000000000000002D000000000000000000000000000000000000000000000000000000000000000000000000000000000000000000000000000000
310
0000000000000000000000000000000000000000000000000000000000000000000000000000000000000000000000000000000000000000000000000000000000000000000000000000000000002D000000000000000000000000000000000000000000000000000000000000000000000000000000000000000000000000
310
0000000000000000000000000000002D0000000000000000000000000000000000000000002D0000000000000000000000000000000000000000000000000000000000000000000000000000002D00000000000000000000000000000000000000000000000000000000000000000000000000000000000000000000000000
310
00000000000000000000000000000000000000000000000000000000000000000000000000000000000000000000000000000000000000000000000000000000000000000000000000000000000000002D2D2D2D2D2D2D2D2D2D2D2D2D2D2D2D2D2D2D2D2D2D2D2D2D2D2D2D2D2D2D2D2D2D2D2D2D2D2D2D2D2D2D2D2D2D2D
310
2D2D2D2D2D2D2D2D2D2D2D2D2D2D2D2D2D2D0000000000000000000000000000000000000000002D2D2D2D2D2D2D2D2D2D2D2D2D2D2D2D2D2D2D2D2D2D2D2D2D2D2D2D2D2D2D2D2D2D2D2D2D2D2D2D2D0000000000000000000000000000000000000000000000000000000000000000000000000000000000000000000000
310
000000000000000000000000000000000000000000000000000000000000000000000000000000000000000000000000000000000000000000000000000000000000000000000000000000000000000000000000000000000000000000000000000000000000000000000000000000002D2D2D2D0000000000000000000000
310
0000000000000000000000000000000000000000000000000000000000000000000000000000000000000000000000000000000000000000000000002D2D2D2D000000000000000000000000000000000000000000000000000000000000000000000000000000000000000000000000000000000000000000000000000000
310
0000000000000000000000000000000000000000000000000000000000000000000000000000000000000000000000000000000000000000000000000000000000000000000000000000000000000000000000000000000000000000000000000000000000000000000000000000000000002D2D2D2D000000000000000000
310
00000000000000000000000000000000000000000000000000000000000000000000000000000000000000000000000000000000000000000000000000002D2D2D2D00000000000000000000000000000000000000000000000000000000000000000000000000000000000000000000000000000000000000000000000000
310
00000000000000000000000000000000000000000000000000000000000000000000000000000000000000000000000000000000000000000000000000000000000000000000000000000000000000000000000000000000000000000000000000000000000000000000000000000000000000000000000000000000000000
310
00000000000000000000000000000000000000000000000000000000000000000000000000000000000000000000000000000000000000000000000000000000000000000000000000000000000000000000000000000000000000000000000000000000000000000000000000000000000000000000000000000000000000
310
00000000000000000000000000000000000000000000000000000000000000000000000000000000000000000000000000000000000000000000000000000000000000000000000000000000000000000000000000000000000000000000000000000000000000000000000000000000000000000000000000000000000000
310
00000000000000000000000000000000000000000000000000000000000000000000000000000000000000000000000000000000000000000000000000000000000000000000000000000000000000000000000000000000000000000000000000000000000000000000000000000000000000000000000000000000000000
310
00000000000000000000000000000000000000000000000000000000000000000000000000000000000000000000000000000000000000000000000000000000000000000000000000000000000000000000000000000000000000000000000000000000000000000000000000000000000000000000000000000000000000
310
00000000000000000000000000000000000000000000000000000000000000000000000000000000000000000000000000000000000000000000000000000000000000000000000000000000000000000000000000000000000000000000000000000000000000000000000000000000000000000000000000000000000000
310
00000000000000000000000000000000000000000000000000000000000000000000000000000000000000000000000000000000000000000000000000000000000000000000000000000000000000000000000000000000000000000000000000000000000000000000000000000000000000000000000000000000000000
310
00000000000000000000000000000000000000000000000000000000000000000000000000000000000000000000000000000000000000000000000000000000000000000000000000000000000000000000000000000000000000000000000000000000000000000000000000000000000000000000000000000000000000
310
00000000000000000000000000000000000000000000000000000000000000000000000000000000000000000000000000000000000000000000000000000000000000000000000000000000000000000000000000000000000000000000000000000000000000000000000000000000000000000000000000000000000000
310
00000000000000000000000000000000000000000000000000000000000000000000000000000000000000000000000000000000000000000000000000000000000000000000000000000000000000000000000000000000000000000000000000000000000000000000000000000000000000000000000000000000000000
310
00000000000000000000000000000000000000000000000000000000000000000000000000000000000000000000000000000000000000000000000000000000000000000000000000000000000000000000000000000000000000000000000000000000000000000000000000000000000000000000000000000000000000
310
00000000000000000000000000000000000000000000000000000000000000000000000000000000000000000000000000000000000000000000000000000000000000000000000000000000000000000000000000000000000000000000000000000000000000000000000000000000000000000000000000000000000000
310
00000000000000000000000000000000000000000000000000000000000000000000000000000000000000000000000000000000000000000000000000000000000000000000000000000000000000000000000000000000000000000000000000000000000000000000000000000000000000000000000000000000000000
310
00000000000000000000000000000000000000000000000000000000000000000000000000000000000000000000000000000000000000000000000000000000000000000000000000000000000000000000000000000000000000000000000000000000000000000000000000000000000000000000000000000000000000
310
00000000000000000000000000000000000000000000000000000000000000000000000000000000000000000000000000000000000000000000000000000000000000000000000000000000000000000000000000000000000000000000000000000000000000000000000000000000000000000000000000000000000000
310
00000000000000000000000000000000000000000000000000000000000000000000000000000000000000000000000000000000000000000000000000000000000000000000000000000000000000000000000000000000000000000000000000000000000000000000000000000000000000000000000000000000000000
310
00000000000000000000000000000000000000000000000000000000000000000000000000000000000000000000000000000000000000000000000000000000000000000000000000000000000000000000000000000000000000000000000000000000000000000000000000000000000000000000000000000000000000
310
00000000000000000000000000000000000000000000000000000000000000000000000000000000000000000000000000000000000000000000000000000000000000000000000000000000000000000000000000000000000000000000000000000000000000000000000000000000000000000000000000000000000000
310
00000000000000000000000000000000000000000000000000000000000000000000000000000000000000000000000000000000000000000000000000000000000000000000000000000000000000000000000000000000000000000000000000000000000000000000000000000000000000000000000000000000000000
310
00000000000000000000000000000000000000000000000028000000000000000000000000000000000000000000000000000000000000000000000000000000000000000000000000000000000000000000000000000000000000000000000000000000000000000000000000000000000000000000000000000000000000
310
00000000000000000000000000000000000000000000000000000000000000000000000000000000000000000000000000000000000000000000000000000000000000000000000000000000000000000000000000000000000000000000000000000000000000000000000000000000000000000000000000000000000000
310
000000000000000000F5000000280000000000000000000000002800000000000000000000000028000000000000000000000000000000000000000000000000000000000000000000000000000000000000000000000000000000000000000000000000000000000000000000000000000000000000000000000000000000
310
00000000000000000000000000000000000000000000000000000000000000000000000000000000000000000000000000000000000000000000000000000000000000000000000000000000000000000000000000000000000000000000000000000000000000000000000000000000000000000000000000000000000000
310
00000000000000000000F5F5F5BEF528BEF5F5F5F5F5F5F5F5F5F5F5F5F5F5F5F5F5F5F5F5F5F5F5BE28F5BEF5F5000000000000000000000000000000000000000000000000000000000000000000000000000000000000000000000000000000000000000000000000000000000000000000000000000000000000000000
310
000000000000000000000000000000000000000000000000000000000000000000000000000000000000000000000000000000000000000000000000000000000000000000000000000000000000000000000000000000000000000000000000000000000000000000000000000000F5F5F5F5F5F5F5F5F5F5F5F5F5F5F5F5
310
F5F5F5F5F5F5F5F5F5F5F5F5F5F500BE0028BE0000000000000000000000280000000000000000000000BE2800BE00F500000000000000000000000000000000000000000000000000000000000000000000000000000000000000000000000000000000000000000000000000000000000000000000000000000000000000
310
00000000000000000000000000000000000000000000000000000000000000000000000000000000000000000000000000000000000000000000000000000000000000000000000000000000000000000000000000000000000000000000000000000000000000000000000000000000F50000000000F50000000000000000
310
000000000000000000000000000000F5F5BE0028BE0000000000000000000000280000000000000000000000BE2800BEF5F50000000000000000000000000000000000000000000000000000000000000000000000000000000000000000000000000000000000000000000000000000000000000000000000000000000000
310
000000000000000000000000000000000000000000000000000000000000000000000000000000000000000000000000000000000000000000000000000000000000000000000000000000000000000000000000000000000000000000000000000000000000000000000000000000000000F50000000000F5000000000000
310
0000000000000000000000000000000000F5F5F5F528BEF5F5F5F5F5F5F5F5F5F5F5F5F5F5F5F5F5F5F5F5F5F5F5BE28F5BEF5F5000000000000000000000000000000000000000000000000000000000000000000000000000000000000000000000000000000000000000000000000000000000000000000000000000000
310
0000000000000000000000000000000000000000000000000000000000000000000000000000000000000000000000000000000000000000000000000000000000000000000000000000000000000000000000000000000000000000000000000000000000000000000000000000000000000000F50000000000F500000000
310
00000000000000000000000000000000000000F5F500F5280000000000F5F5F5F5F5F5F5F5F5F5F5F5F5F5F50000000000280000F5F500000000000000000000000000000000000000000000000000000000000000000000000000000000000000000000000000000000000000000000000000000000000000000000000000
310
00000000000000000000000000000000000000000000000000000000000000000000000000000000000000000000000000000000000000000000000000000000000000000000000000000000000000000000000000000000000000000000000000000000000000000000000000000000000000000000F50000000000F50000
310
000000000000000000000000000000000000000000F50000F528000000000000F50000000000280000000000F500000000000028000000F50000000000000000000000000000000000000000000000000000000000000000000000000000000000000000000000000000000000000000000000000000000000000000000000
310
000000000000000000000000000000000000000000000000000000000000000000000000000000000000000000000000000000000000000000000000000000000000000000000000000000000000000000000000000000000000000000000000000000000000000000000000000000000000000000000000F5F5F5F5F5F5F5
310
F5F5F5F5F528F5F5F5F5F5F5F5F5F5F5F5F5F5F5F5F5F5F50000F500000000000000F50000000000280000000000F500000000000000000000F5000000000000000000000000000000000000002D2D2D002D2D2D2D2D2D2D2D2D2D2D2D2D2D2D00002D2D2D2D2D2D2D2D2D2D2D2D2D2D000000000000000000000000000000
310
0000000000000000000000000000000000000000000000000000000000000000000000000000000000000000000000000000000000000000000000000000000000000000000000000000000000000000000000000000000000000000000000000000000000000000000000000000000000000000000000000000F5000000F5
310
F5F50000000000280000000000F5F500000000000000000000F50000F500000000000000F50000000000280000000000F500000000000000000000F5000000000000000000000000000000000000002D2D2D2D2D2D2D002D2D2D2D2D2D2D2D2D2D2D2D2D2D2D2D2D2D2D2D2D2D2D2D2D2D2D00000000000000000000000000
310
00000000000000000000000000000000000000000000000000000000000000000000000000000000000000000000000000000000000000000000000000000000000000000000000000000000000000000000000000000000000000000000000000000000000000000000000000000000000000000000000000000000F50000
310
F5F5F5F5F5F5F5F5F528F5F5F5F5F5F5F5F5000000000000000000F50000F500000000000000F50000000000280000000000F500000000000000000000F5000000000000000000000000000000000000002D2D2D002D2D2D2D2D002D2D00002D2D2D2D2D00002D2D2D2D2D2D2D2D2D2D2D2D2D2D2D00000000000000000000
310
000000000000000000000000000000000000000000000000000000000000000000000000000000000000000000000000000000000000000000000000000000000000000000000000000000000000000000000000000000000000000000000000000000000000000000000000000000000000000000000000000000000000F5
310
0000F5F5F5F500000000002800000000F5F5F5F5000000000000000000F50000F500000000000000F50000000000280000000000F500000000000000000000F5000000000000000000000000000000000000002D2D2D2D2D2D2D002D2D2D2D2D2D2D2D2D2D2D2D2D2D2D2D2D2D2D2D2D2D2D2D2D2D002D0000000000000000
310
00000000000000000000000000000000000000000000000000000000000000000000000000000000000000000000000000000000000000000000000000000000000000000000000000000000000000000000000000000000000000000000000000000000000000000000000000000000000000000000000000000000000000
310
00F50000F5F5F5000000000000280000000000F5F5F5000000000000000000F50000F500000000000000F50000000000280000000000F500000000000000000000F5000000000000000000000000000000000000002D2D2D2D2D2D2D2D2D2D2D2D00002D2D2D2D2D00002D2D2D2D2D2D2D2D2D2D2D2D2D2D2D000000000000
310
00000000000000000000000000000000000000000000000000000000000000000000000000000000000000000000000000000000000000000000000000000000000000000000000000000000000000000000000000000000000000000000000000000000000000000000000000000000000000000000000000000000000000
310
000000F50000F5F50000000000000028000000000000F5F5000000000000000000F50000F500000000000000F50000000000280000000000F500000000000000000000F5000000000000000000000000000000000000002D2D2D2D2D2D2D002D2D2D2D2D2D002D2D2D2D2D2D2D2D2D2D2D2D2D2D2D2D2D2D2D000000000000
310
00000000000000000000000000000000000000000000000000000000000000000000000000000000000000000000000000000000000000000000000000000000000000000000000000000000000000000000000000000000000000000000000000000000000000000000000000000000000000000000000000000000000000
310
0000000000F50000F5F50000000000000028000000000000F5F5000000000000000000F50000F500000000000000F50000000000280000000000F500000000000000000000F5000000000000000000000000000000000000002D2D2D2D2D2D2D002D2D2D2D00002D2D2D2D2D00002D2D2D2D2D2D2D2D2D2D2D2D2D00000000
310
00000000000000000000000000000000000000000000000000000000000000000000000000000000000000000000000000000000000000000000000000000000000000000000000000000000000000000000000000000000000000000000000000000000000000000000000000000000000000000000000000000000000000
310
00000000000000F50000F5F50000000000000028000000000000F5F5000000000000000000F50000F500000000000000F50000000000280000000000F500000000000000000000F5000000000000000000000000000000000000002D2D2D002D2D2D2D2D2D2D2D002D2D2D2D2D2D00002D2D2D2D2D2D2D2D2D2D002D2D0000
310
00000000000000000000000000000000000000000000000000000000000000000000000000000000000000000000000000000000000000000000000000000000000000000000000000000000000000000000000000000000000000000000000000000000000000000000000000000000000000000000000000000000000000
310
000000000000000000F50000F5F50000000000000028000000000000F5F5000000000000000000F50000F500000000000000F50000000000280000000000F5000000000000000000F500000000000000000000000000000000000000002D2D2D2D2D2D2D002D2D2D2D2D2D2D2D2D2D2D2D2D2D2D2D2D2D2D2D2D2D2D2D2D2D
310
00000000000000000000000000000000000000000000000000000000000000000000000000000000000000000000000000000000000000000000000000000000000000000000000000000000000000000000000000000000000000000000000000000000000000000000000000000000000000000000000000000000000000
310
0000000000000000000000F50000F5F50000000000000028000000000000F5F5000000000000000000F50000F500000000000000F50000000000280000000000F5000000000000000000F500000000000000000000000000000000000000002D2D2D2D2D2D2D002D002D2D00002D2D2D2D2D00002D2D2D2D2D2D2D2D2D2D00
310
2D2D0000000000000000000000000000000000000000000000000000000000000000000000000000000000000000000000000000000000000000000000000000000000000000000000000000000000000000000000000000000000000000000000000000000000000000000000000000000000000000000000000000000000
310
00000000000000000000282828F52828F5F52828282828282828282828282828F5F5282828282828282828F52828F528282828280028F52828282828282828282828F5282828282828282828F528280000000000000000000000000000000000002D2D2D2D2D2D2D2D2D2D2D2D2D2D2D2D2D2D2D2D2D2D2D2D2D2D2D2D2D2D
310
2D2D2D2D000000000000000000000000000000000000000000000000000000000000000000000000000000000000000000000000000000000000000000000000000000000000000000000000000000000000000000000000000000000000000000000000000000000000000000000000000000000000000000000000000000
310
000000000000000000000000000000F50000F5F50000000000000028000000000000F5F5000000000000000000000000F500000000000000F50000000000280000000000F5000000000000000000F500000000000000000000000000000000000000002D2D2D2D2D2D2D002D2D2D2D2D002D2D2D2D2D00002D2D2D2D2D2D2D
310
2D2D2D2D2D2D00000000000000000000000000000000000000000000000000000000000000000000000000000000000000000000000000000000000000000000000000000000000000000000000000000000000000000000000000000000000000000000000000000000000000000000000000000000000000000000000000
310
0000000000000000000000000000000000F50000F5F50000000000000028000000000000F5F5000000000000000000000000F500000000000000F50000000000280000000000F5000000000000000000F500000000000000000000000000000000000000002D2D2D002D2D2D2D2D002D2D00002D2D2D2D2D00002D2D2D2D2D
310
2D2D2D2D2D002D2D2D2D000000000000000000000000000000000000000000000000000000000000000000000000000000000000000000000000000000000000000000000000000000000000000000000000000000000000000000000000000000000000000000000000000000000000000000000000000000000000000000
310
00000000000000000000000000000000000000F50000F5F50000000000000028000000000000F5F5000000000000000000000000F500000000000000F50000000000280000000000F5000000000000000000F500000000000000000000000000000000000000002D2D2D2D2D2D2D002D2D2D2D2D2D2D2D2D2D2D2D2D2D2D2D
310
2D2D2D2D2D2D2D2D2D2D002D00000000000000000000000000000000000000000000000000000000000000000000000000000000000000000000000000000000000000000000000000000000000000000000000000000000000000000000000000000000000000000000000000000000000000000000000000000000000000
310
000000000000000000000000000000000000000000F50000F5F50000000000000028000000000000F5F5000000000000000000000000F500000000000000F50000000000280000000000F5000000000000000000F500000000000000000000000000000000000000002D2D2D2D2D2D2D002D2D2D2D00002D2D2D2D2D00002D
310
2D2D2D2D2D2D2D2D2D002D2D2D2D0000000000000000000000000000000000000000000000000000000000000000000000000000000000000000000000000000000000000000000000000000000000000000000000000000000000000000000000000000000000000000000000000000000000000000000000000000000000
310
0000000000000000000000000000000000000000000000F50000F5F5F5000000000000280000000000F5F5F5000000000000000000000000F500000000000000F50000000000280000000000F5000000000000000000F500000000000000000000000000000000000000002D2D2D002D2D2D2D2D2D2D2D002D2D2D2D2D2D00
310
002D2D2D2D2D2D2D2D2D2D002D2D0000000000000000000000000000000000000000000000000000000000000000000000000000000000000000000000000000000000000000000000000000000000000000000000000000000000000000000000000000000000000000000000000000000000000000000000000000000000
310
00000000000000000000000000000000000000000000000000F50000F5F5F5F500000000002800000000F5F5F5F5000000000000000000000000F500000000000000F50000000000280000000000F5000000000000000000F500000000000000000000000000000000000000002D2D2D2D2D2D2D002D2D2D2D2D2D2D2D2D2D
310
2D2D2D2D2D2D2D2D2D2D2D2D2D2D2D2D000000000000000000000000000000000000000000000000000000000000000000000000000000000000000000000000000000000000000000000000000000000000000000000000000000000000000000000000000000000000000000000000000000000000000000000000000000
310
000000000000000000000000000000000000000000000000000000F50000F5F5F5F5F5F5F5F5F528F5F5F5F5F5F5F5F5000000000000000000000000F500000000000000F50000000000280000000000F5000000000000000000F500000000000000000000000000000000000000002D2D2D2D2D2D2D002D002D2D00002D2D
310
2D2D2D00002D2D2D2D2D2D2D2D2D2D002D2D00000000000000000000000000000000000000000000000000000000000000000000000000000000000000000000000000000000000000000000000000000000000000000000000000000000000000000000000000000000000000000000000000000000000000000000000000
310
0000000000000000000000000000000000000000000000000000000000F50000F5F5F5F5F5F5F5F5F528F5F5F5F5F5F5F5F5000000000000000000000000F500000000000000F50000000000280000000000F5000000000000000000F500000000000000000000000000000000000000002D2D2D002D2D2D2D2D2D2D2D2D2D
310
2D2D2D2D2D2D2D2D2D2D2D2D2D2D2D2D2D2D2D2D0000000000000000000000000000000000000000000000000000000000000000000000000000000000000000000000000000000000000000000000000000000000000000000000000000000000000000000000000000000000000000000000000000000000000000000000
310
00000000000000000000000000000000000000000000000000000000000000F5F5F5F5F5F5F5F5F5F5F5F528F5F5F5F5F5F5F5F5F5F5F5F5F5F5F5F5F5F5F5F5F500000000000000F50000000000280000000000F5000000000000000000F500000000000000000000000000000000000000002D2D2D2D2D2D2D002D2D2D2D
310
2D2D2D2D2D2D2D00002D2D2D2D2D2D2D2D2D2D2D2D2D000000000000000000000000000000000000000000000000000000000000000000000000000000000000000000000000000000000000000000000000000000000000000000000000000000000000000000000000000000000000000000000000000000000000000000
310
000000000000000000000000000000000000000000000000000000000000000000F50000000000F50000000000000000000000000000000000000000000000F5F5000000000000000000F50000000000280000000000F50000000000000000F5F500000000000000000000000000000000000000002D2D2D002D2D2D2D2D00
310
2D2D00002D2D2D2D2D00002D2D2D2D2D2D2D2D2D2D002D2D2D2D0000000000000000000000000000000000000000000000000000000000000000000000000000000000000000000000000000000000000000000000000000000000000000000000000000000000000000000000000000000000000000000000000000000000
310
0000000000000000000000000000000000000000000000000000000000000000000000F50000000000F50000000000000000000000000000000000000000000000F500F500000000000000000000000000002800000000000000000000000000F500F500000000000000000000000000000000000000002D2D2D2D2D2D2D00
310
2D2D2D2D2D2D002D2D2D2D2D2D2D2D2D2D2D2D2D2D2D2D2D2D2D002D000000000000000000000000000000000000000000000000000000000000000000000000000000000000000000000000000000000000000000000000000000000000000000000000000000000000000000000000000000000000000000000000000000
310
00000000000000000000000000000000000000000000000000000000000000000000000000F50000000000F5000000000000000000000000000000000000000000000000F5F5F5F5F5F5F5F5F5F5F5F5F5F5F5F5F5F5F5F5F5F5F5F5F5F5F5F5F5F5F5F50000000000000000000000000000000000000000002D2D2D2D2D2D
310
2D002D2D2D2D00002D2D2D2D2D00002D2D2D2D2D2D2D2D2D2D002D2D2D2D00000000000000000000000000000000000000000000000000000000000000000000000000000000000000000000000000000000000000000000000000000000000000000000000000000000000000000000000000000000000000000000000000
310
000000000000000000000000000000000000000000000000000000000000000000000000000000F50000000000F50000000000000000000000000000000000000000000000F500F50000000000F5F5F5F50000000000280000000000F5F5F5F50000000000000000000000000000000000000000000000000000002D2D2D00
310
2D2D2D2D2D2D2D2D002D2D2D2D2D2D00002D2D2D2D2D2D2D2D2D2D2D2D2D00000000000000000000000000000000000000000000000000000000000000000000000000000000000000000000000000000000000000000000000000000000000000000000000000000000000000000000000000000000000000000000000000
310
0000000000000000000000000000000000000000000000000000000000000000000000000000000000F5F500000000F500000000000000000000000000000000000000000000F5F5F500000000000000F5F5F5F5F5F5F5F5F5F5F5F5F5F5F5F5F5000000000000000000000000000000000000000000000000000000002D2D
310
2D2D2D2D2D2D2D2D2D2D2D2D2D2D2D2D2D2D2D2D2D2D2D2D2D2D2D2D2D2D2D2D0000000000000000000000000000000000000000000000000000000000000000000000000000000000000000000000000000000000000000000000000000000000000000000000000000000000000000000000000000000000000000000000
310
0000000000000000000000000000000000000000000000000000000000000000000000000000000000000000F5F5F5F5F5F5F5F5F5F5F5F5F5F5F5F5F5F5F5F5F5F5F5F5F5F5F5F5F5F500000000000000000000000000F50000280000F5F50000000000000000000000000000000000000000000000000000000000000000
310
2D2D2D2D2D2D2D002D2D002D00002D2D2D2D2D00002D2D2D2D2D2D002D2D2D2D2D2D000000000000000000000000000000000000000000000000000000000000000000000000000000000000000000000000000000000000000000000000000000000000000000000000000000000000000000000000000000000000000000
310
0000000000000000000000000000000000000000000000000000000000000000000000000000000000000000000000000000000000000000000000000000000000000000000000000000000000000000000000000000000000F50000280000F5F5000000000000000000000000000000000000000000000000000000000000
310
00000000000000000000000000000000000000000000000000000000000000000000000000000000000000000000000000000000000000000000000000000000000000000000000000000000000000000000000000000000000000000000000000000000000000000000000000000000000000000000000000000000000000
310
00000000000000000000000000000000000000000000000000000000000000000000000000000000000000000000000000000000000000000000000000000000000000000000000000000000000000000000000000000000000000F50000280000F5F500000000000000000000000000000000000000000000000000000000
310
00000000000000000000000000000000000000000000000000000000000000000000000000000000000000000000000000000000000000000000000000000000000000000000000000000000000000000000000000000000000000000000000000000000000000000000000000000000000000000000000000000000000000
310
000000000000000000000000000000000000000000000000000000000000000000000000000000000000000000000000000000000000000000000000000000000000000000000000000000000000000000000000000000000000000000F50000280000F5F50000000000000000000000000000000000000000000000000000
310
00000000000000000000000000000000000000000000000000000000000000000000000000000000000000000000000000000000000000000000000000000000000000000000000000000000000000000000000000000000000000000000000000000000000000000000000000000000000000000000000000000000000000
310
0000000000000000000000000000000000000000000000000000000000000000000000000000000000000000000000000000000000000000000000000000000000000000000000000000000000000000000000000000000000000000000000F50000280000F5F5000000000000000000000000000000000000000000000000
310
00000000000000002D2D2D2D2D2D2D2D2D2D2D2D2D2D2D2D2D2D2D2D2D2D2D2D2D2D2D2D2D2D2D2D2D2D2D000000000000000000000000000000000000000000000000000000000000000000000000000000000000000000000000000000000000000000000000000000000000000000000000000000000000000000000000
310
00000000000000000000000000000000000000000000000000000000000000000000000000000000000000000000000000000000000000000000000000000000000000000000000000000000000000000000000000000000000000000000000000F50000280000F5F500000000000000000000000000000000000000000000
310
000000000000000000002D2D2D2D002D002D2D2D2D0000002D2D2D2D2D2D2D2D2D2D2D00002D2D2D2D2D2D2D2D00000000000000000000000000000000000000000000000000000000000000000000000000000000000000000000000000000000000000000000000000000000000000000000000000000000000000000000
310
000000000000000000000000000000000000000000000000000000000000000000000000000000000000000000000000000000000000000000000000000000000000000000000000000000000000000000000000000000000000000000000000000000F50000280000F5F50000000000000000000000000000000000000000
310
0000000000000000000000002D2D2D2D2D2D00002D2D2D2D00002D2D2D2D00002D2D2D2D2D00002D2D2D2D2D002D000000000000000000000000000000000000000000000000000000000000000000000000000000000000000000000000000000000000000000000000000000000000000000000000000000000000000000
310
0000000000000000000000000000000000000000000000000000000000000000000000000000000000000000000000000000000000000000000000000000000000000000000000000000000000000000000000000000000000000000000000000000000000F50000280000F5F5000000000000000000000000000000000000
310
00000000000000000000000000002D2D2D2D2D2D2D2D2D2D2D2D2D2D2D2D2D2D2D2D002D2D2D2D2D2D2D2D2D2D2D2D0000000000000000000000000000000000000000000000000000000000000000000000000000000000000000000000000000000000000000000000000000000000000000000000000000000000000000
310
00000000000000000000000000000000000000000000000000000000000000000000000000000000000000000000000000000000000000000000000000000000000000000000000000000000000000000000000000000000000000000000000000000000000000F50000280000F5F500000000000000000000000000000000
310
000000000000000000000000000000002D2D2D2D002D002D2D2D2D0000002D2D2D2D00002D2D2D2D2D00002D2D2D2D2D2D2D0000000000000000000000000000000000000000000000000000000000000000000000000000000000000000000000000000000000000000000000000000000000000000000000000000000000
310
000000000000000000000000000000000000000000000000000000000000000000000000000000000000000000000000000000000000000000000000000000000000000000000000000000000000000000000000000000000000000000000000000000000000000000F5F5F5F5F5F5F5F50000000000000000000000000000
310
0000000000000000000000000000000000002D2D2D2D2D2D00002D2D2D2D00002D2D2D2D2D2D2D2D2D2D00002D2D2D2D2D2D0000000000000000000000000000000000000000000000000000000000000000000000000000000000000000000000000000000000000000000000000000000000000000000000000000000000
310
00000000000000000000000000000000000000000000000000000000000000000000000000000000000000000000000000000000000000000000000000000000000000000000000000000000000000000000000000000000000000000000000000000000000000000000000000002800000000000000000000000000000000
310
00000000000000000000000000000000000000002D2D2D2D2D2D2D2D2D2D2D2D2D2D2D2D2D2D2D2D002D2D2D2D2D2D2D2D2D2D2D000000000000000000000000000000000000000000000000000000000000000000000000000000000000000000000000000000000000000000000000000000000000000000000000000000
310
00000000000000000000000000000000000000000000000000000000000000000000000000000000000000000000000000000000000000000000000000000000000000000000000000000000000000000000000000000000000000000000000000000000000000000000000000000000280000000000000000000000000000
310
000000000000000000000000000000000000000000002D2D2D2D2D2D00002D2D2D2D00002D2D00002D2D002D2D00002D2D2D002D2D2D2D2D0000000000000000000000000000000000000000000000000000000000000000000000000000000000000000000000000000000000000000000000000000000000000000000000
310
00000000000000000000000000000000000000000000000000000000000000000000000000000000000000000000000000000000000000000000000000000000000000000000000000000000000000000000000000000000000000000000000000000000000000000000000000000000000000000000000000000000000000
310
0000000000000000000000000000000000000000000000002D2D2D2D2D2D2D2D2D2D2D2D2D2D2D2D2D2D2D2D2D2D2D2D2D2D2D2D2D2D2D2D2D00000000000000000000000000000000000000000000000000000000000000000000000000000000000000000000000000000000000000000000000000000000000000000000
310
00000000000000000000000000000000000000000000000000000000000000000000000000000000000000000000000000000000000000000000000000000000000000000000000000000000000000000000000000000000000000000000000000000000000000000000000000000000000000000000000000000000000000
310
00000000000000000000000000000000000000000000000000002D2D2D2D002D002D2D2D2D0000002D2D2D002D2D002D2D2D002D2D2D2D2D2D2D2D2D00000000000000000000000000000000000000000000000000000000000000000000000000000000000000000000000000000000000000000000000000000000000000
310
00000000000000000000000000000000000000000000000000000000000000000000000000000000000000000000000000000000000000000000000000000000000000000000000000000000000000000000000000000000000000000000000000000000000000000000000000000000000000000000000000000000000000
310
000000000000000000000000000000000000000000000000000000002D2D2D2D2D2D00002D2D2D2D00002D2D2D00002D2D2D2D2D00002D2D2D2D2D2D00000000000000000000000000000000000000000000000000000000000000000000000000000000000000000000000000000000000000000000000000000000000000
310
00000000000000000000000000000000000000000000000000000000000000000000000000000000000000000000000000000000000000000000000000000000000000000000000000000000000000000000000000000000000000000000000000000000000000000000000000000000000000000000000000000000000000
310
0000000000000000000000000000000000000000000000000000000000002D2D2D2D2D2D2D2D2D2D2D2D2D2D2D2D2D2D2D2D2D2D2D2D2D2D2D2D2D2D2D000000000000000000000000000000000000000000000000000000000000000000000000000000000000000000000000000000000000000000000000000000000000
310
00000000000000000000000000000000000000000000000000000000000000000000000000000000000000000000000000000000000000000000000000000000000000000000000000000000000000000000000000000000000000000000000000000000000000000000000000000000000000000000000000000000000000
310
00000000000000000000000000000000000000000000000000000000000000002D2D2D2D002D002D2D2D2D0000002D2D2D00002D2D2D2D2D002D2D2D2D2D2D2D000000000000000000000000000000000000000000000000000000000000000000000000000000000000000000000000000000000000000000000000000000
310
00000000000000000000000000000000000000000000000000000000000000000000000000000000000000000000000000000000000000000000000000000000000000000000000000000000000000000000000000000000000000000000000000000000000000000000000000000000000000000000000000000000000000
310
000000000000000000000000000000000000000000000000000000000000000000002D2D2D2D2D2D2D2D2D2D2D2D2D2D2D2D2D2D2D2D2D2D2D2D2D2D2D2D2D2D2D2D2D2D2D00000000000000000000000000000000000000000000000000000000000000000000000000000000000000000000000000000000000000000000
310
00000000000000000000000000000000000000000000000000000000000000000000000000000000000000000000000000000000000000000000000000000000000000000000000000000000000000000000000000000000000000000000000000000000000000000000000000000000000000000000000000000000000000
310
0000000000000000000000000000000000000000000000000000000000000000000000002D2D2D2D002D002D2D2D2D0000002D2D2D2D2D2D2D2D2D2D2D00002D2D2D2D2D2D2D2D0000000000000000000000000000000000000000000000000000000000000000000000000000000000000000000000000000000000000000
310
00000000000000000000000000000000000000000000000000000000000000000000000000000000000000000000000000000000000000000000000000000000000000000000000000000000000000000000000000000000000000000000000000000000000000000000000000000000000000000000000000000000000000
310
00000000000000000000000000000000000000000000000000000000000000000000000000002D2D2D2D2D2D00002D2D2D2D00002D2D2D2D00002D2D2D2D2D00002D002D2D2D2D0000000000000000000000000000000000000000000000000000000000000000000000000000000000000000000000000000000000000000
310
00000000000000000000000000000000000000000000000000000000000000000000000000000000000000000000000000000000000000000000
  0
XRECORD
  5
3412
102
{ACAD_REACTORS
330
3411
102
}
330
3411
100
AcDbXrecord
280
     1
102
SHADEPLOT
 70
     0
102
SHADEPLOTRESLEVEL
 70
     2
102
SHADEPLOTCUSTOMDPI
 70
   300
  0
XRECORD
  5
33AE
102
{ACAD_REACTORS
330
1DB9
102
}
330
1DB9
100
AcDbXrecord
280
     1
102
MATERIAL
148
0.0
149
0.0
149
0.0
 93
        0
 94
      127
282
     0
 72
     0
 77
     0
171
     0
175
     0
179
     0
273
     0
  0
XRECORD
  5
1DBB
102
{ACAD_REACTORS
330
1DB9
102
}
330
1DB9
100
AcDbXrecord
280
     1
270
     1
271
     1
  0
XRECORD
  5
1DBA
102
{ACAD_REACTORS
330
1DB9
102
}
330
1DB9
100
AcDbXrecord
280
     1
270
     1
271
     1
  0
XRECORD
  5
1DBE
102
{ACAD_REACTORS
330
1DB9
102
}
330
1DB9
100
AcDbXrecord
280
     1
270
     1
271
     1
  0
XRECORD
  5
1DBD
102
{ACAD_REACTORS
330
1DB9
102
}
330
1DB9
100
AcDbXrecord
280
     1
270
     1
271
     1
  0
XRECORD
  5
1DBF
102
{ACAD_REACTORS
330
1DB9
102
}
330
1DB9
100
AcDbXrecord
280
     1
270
     1
271
     1
  0
XRECORD
  5
1DBC
102
{ACAD_REACTORS
330
1DB9
102
}
330
1DB9
100
AcDbXrecord
280
     1
270
     1
271
     1
  0
XRECORD
  5
33AD
102
{ACAD_REACTORS
330
1DB1
102
}
330
1DB1
100
AcDbXrecord
280
     1
102
MATERIAL
148
0.0
149
0.0
149
0.0
 93
        0
 94
      127
282
     0
 72
     0
 77
     0
171
     0
175
     0
179
     0
273
     0
  0
XRECORD
  5
1DB3
102
{ACAD_REACTORS
330
1DB1
102
}
330
1DB1
100
AcDbXrecord
280
     1
270
     1
271
     1
  0
XRECORD
  5
1DB2
102
{ACAD_REACTORS
330
1DB1
102
}
330
1DB1
100
AcDbXrecord
280
     1
270
     1
271
     1
  0
XRECORD
  5
1DB6
102
{ACAD_REACTORS
330
1DB1
102
}
330
1DB1
100
AcDbXrecord
280
     1
270
     1
271
     1
  0
XRECORD
  5
1DB5
102
{ACAD_REACTORS
330
1DB1
102
}
330
1DB1
100
AcDbXrecord
280
     1
270
     1
271
     1
  0
XRECORD
  5
1DB7
102
{ACAD_REACTORS
330
1DB1
102
}
330
1DB1
100
AcDbXrecord
280
     1
270
     1
271
     1
  0
XRECORD
  5
1DB4
102
{ACAD_REACTORS
330
1DB1
102
}
330
1DB1
100
AcDbXrecord
280
     1
270
     1
271
     1
  0
XRECORD
  5
33AF
102
{ACAD_REACTORS
330
1DC1
102
}
330
1DC1
100
AcDbXrecord
280
     1
102
MATERIAL
148
0.0
149
0.0
149
0.0
 93
        0
 94
      127
282
     0
 72
     0
 77
     0
171
     0
175
     0
179
     0
273
     0
  0
XRECORD
  5
1DC3
102
{ACAD_REACTORS
330
1DC1
102
}
330
1DC1
100
AcDbXrecord
280
     1
270
     1
271
     1
  0
XRECORD
  5
1DC2
102
{ACAD_REACTORS
330
1DC1
102
}
330
1DC1
100
AcDbXrecord
280
     1
270
     1
271
     1
  0
XRECORD
  5
1DC6
102
{ACAD_REACTORS
330
1DC1
102
}
330
1DC1
100
AcDbXrecord
280
     1
270
     1
271
     1
  0
XRECORD
  5
1DC5
102
{ACAD_REACTORS
330
1DC1
102
}
330
1DC1
100
AcDbXrecord
280
     1
270
     1
271
     1
  0
XRECORD
  5
1DC7
102
{ACAD_REACTORS
330
1DC1
102
}
330
1DC1
100
AcDbXrecord
280
     1
270
     1
271
     1
  0
XRECORD
  5
1DC4
102
{ACAD_REACTORS
330
1DC1
102
}
330
1DC1
100
AcDbXrecord
280
     1
270
     1
271
     1
  0
XRECORD
  5
3406
102
{ACAD_REACTORS
330
3405
102
}
330
3405
100
AcDbXrecord
280
     1
102
DISPLAYNAME
  1
Imperial24
102
FLAGS
 90
        0
  0
CELLSTYLEMAP
  5
33A9
102
{ACAD_REACTORS
330
20B3
102
}
330
20B3
100
AcDbCellStyleMap
 90
        3
300
CELLSTYLE
  1
TABLEFORMAT_BEGIN
 90
        5
170
     1
 91
        0
 92
    32768
 62
   257
 93
        1
300
CONTENTFORMAT
  1
CONTENTFORMAT_BEGIN
 90
        0
 91
        0
 92
      512
 93
        0
300

 40
0.0
140
1.0
 94
        5
 62
     0
340
16
144
0.25
309
CONTENTFORMAT_END
171
     1
301
MARGIN
  1
CELLMARGIN_BEGIN
 40
0.06
 40
0.06
 40
0.06
 40
0.06
 40
0.18
 40
0.18
309
CELLMARGIN_END
 94
        6
 95
        1
302
GRIDFORMAT
  1
GRIDFORMAT_BEGIN
 90
        0
 91
        1
 62
     0
 92
       -2
340
0
 93
        0
 40
0.045
309
GRIDFORMAT_END
 95
        2
302
GRIDFORMAT
  1
GRIDFORMAT_BEGIN
 90
        0
 91
        1
 62
     0
 92
       -2
340
0
 93
        0
 40
0.045
309
GRIDFORMAT_END
 95
        4
302
GRIDFORMAT
  1
GRIDFORMAT_BEGIN
 90
        0
 91
        1
 62
     0
 92
       -2
340
0
 93
        0
 40
0.045
309
GRIDFORMAT_END
 95
        8
302
GRIDFORMAT
  1
GRIDFORMAT_BEGIN
 90
        0
 91
        1
 62
     0
 92
       -2
340
0
 93
        0
 40
0.045
309
GRIDFORMAT_END
 95
       16
302
GRIDFORMAT
  1
GRIDFORMAT_BEGIN
 90
        0
 91
        1
 62
     0
 92
       -2
340
0
 93
        0
 40
0.045
309
GRIDFORMAT_END
 95
       32
302
GRIDFORMAT
  1
GRIDFORMAT_BEGIN
 90
        0
 91
        1
 62
     0
 92
       -2
340
0
 93
        0
 40
0.045
309
GRIDFORMAT_END
309
TABLEFORMAT_END
  1
CELLSTYLE_BEGIN
 90
        1
 91
        1
300
_TITLE
309
CELLSTYLE_END
300
CELLSTYLE
  1
TABLEFORMAT_BEGIN
 90
        5
170
     1
 91
        0
 92
        0
 62
   257
 93
        1
300
CONTENTFORMAT
  1
CONTENTFORMAT_BEGIN
 90
        0
 91
        0
 92
      512
 93
        0
300

 40
0.0
140
1.0
 94
        5
 62
     0
340
16
144
0.18
309
CONTENTFORMAT_END
171
     1
301
MARGIN
  1
CELLMARGIN_BEGIN
 40
0.06
 40
0.06
 40
0.06
 40
0.06
 40
0.18
 40
0.18
309
CELLMARGIN_END
 94
        6
 95
        1
302
GRIDFORMAT
  1
GRIDFORMAT_BEGIN
 90
        0
 91
        1
 62
     0
 92
       -2
340
0
 93
        0
 40
0.045
309
GRIDFORMAT_END
 95
        2
302
GRIDFORMAT
  1
GRIDFORMAT_BEGIN
 90
        0
 91
        1
 62
     0
 92
       -2
340
0
 93
        0
 40
0.045
309
GRIDFORMAT_END
 95
        4
302
GRIDFORMAT
  1
GRIDFORMAT_BEGIN
 90
        0
 91
        1
 62
     0
 92
       -2
340
0
 93
        0
 40
0.045
309
GRIDFORMAT_END
 95
        8
302
GRIDFORMAT
  1
GRIDFORMAT_BEGIN
 90
        0
 91
        1
 62
     0
 92
       -2
340
0
 93
        0
 40
0.045
309
GRIDFORMAT_END
 95
       16
302
GRIDFORMAT
  1
GRIDFORMAT_BEGIN
 90
        0
 91
        1
 62
     0
 92
       -2
340
0
 93
        0
 40
0.045
309
GRIDFORMAT_END
 95
       32
302
GRIDFORMAT
  1
GRIDFORMAT_BEGIN
 90
        0
 91
        1
 62
     0
 92
       -2
340
0
 93
        0
 40
0.045
309
GRIDFORMAT_END
309
TABLEFORMAT_END
  1
CELLSTYLE_BEGIN
 90
        2
 91
        1
300
_HEADER
309
CELLSTYLE_END
300
CELLSTYLE
  1
TABLEFORMAT_BEGIN
 90
        5
170
     1
 91
        0
 92
        0
 62
   257
 93
        1
300
CONTENTFORMAT
  1
CONTENTFORMAT_BEGIN
 90
        0
 91
        0
 92
      512
 93
        0
300

 40
0.0
140
1.0
 94
        2
 62
     0
340
16
144
0.18
309
CONTENTFORMAT_END
171
     1
301
MARGIN
  1
CELLMARGIN_BEGIN
 40
0.06
 40
0.06
 40
0.06
 40
0.06
 40
0.18
 40
0.18
309
CELLMARGIN_END
 94
        6
 95
        1
302
GRIDFORMAT
  1
GRIDFORMAT_BEGIN
 90
        0
 91
        1
 62
     0
 92
       -2
340
0
 93
        0
 40
0.045
309
GRIDFORMAT_END
 95
        2
302
GRIDFORMAT
  1
GRIDFORMAT_BEGIN
 90
        0
 91
        1
 62
     0
 92
       -2
340
0
 93
        0
 40
0.045
309
GRIDFORMAT_END
 95
        4
302
GRIDFORMAT
  1
GRIDFORMAT_BEGIN
 90
        0
 91
        1
 62
     0
 92
       -2
340
0
 93
        0
 40
0.045
309
GRIDFORMAT_END
 95
        8
302
GRIDFORMAT
  1
GRIDFORMAT_BEGIN
 90
        0
 91
        1
 62
     0
 92
       -2
340
0
 93
        0
 40
0.045
309
GRIDFORMAT_END
 95
       16
302
GRIDFORMAT
  1
GRIDFORMAT_BEGIN
 90
        0
 91
        1
 62
     0
 92
       -2
340
0
 93
        0
 40
0.045
309
GRIDFORMAT_END
 95
       32
302
GRIDFORMAT
  1
GRIDFORMAT_BEGIN
 90
        0
 91
        1
 62
     0
 92
       -2
340
0
 93
        0
 40
0.045
309
GRIDFORMAT_END
309
TABLEFORMAT_END
  1
CELLSTYLE_BEGIN
 90
        3
 91
        2
300
_DATA
309
CELLSTYLE_END
  0
XRECORD
  5
33D6
102
{ACAD_REACTORS
330
20B3
102
}
330
20B3
100
AcDbXrecord
280
     1
102
ACAD_ROUNDTRIP_PRE2007_TABLESTYLE
 90
      512
 91
        0
  1

 92
      512
 93
        0
  2

 94
      512
 95
        0
  3

  0
XRECORD
  5
33BB
102
{ACAD_REACTORS
330
33BA
102
}
330
33BA
100
AcDbXrecord
280
     1
102
RTVSPost2010Prop28
280
     1
102
RTVSPost2010PropOp28
 70
     1
102
RTVSPost2010Prop29
280
     1
102
RTVSPost2010PropOp29
 70
     1
102
RTVSPost2010Prop30
280
     0
102
RTVSPost2010PropOp30
 70
     1
102
RTVSPost2010Prop31
280
     0
102
RTVSPost2010PropOp31
 70
     1
102
RTVSPost2010Prop32
280
     0
102
RTVSPost2010PropOp32
 70
     1
102
RTVSPost2010Prop33
280
     0
102
RTVSPost2010PropOp33
 70
     1
102
RTVSPost2010Prop34
280
     0
102
RTVSPost2010PropOp34
 70
     1
102
RTVSPost2010Prop35
280
     0
102
RTVSPost2010PropOp35
 70
     1
102
RTVSPost2010Prop36
280
     0
102
RTVSPost2010PropOp36
 70
     1
102
RTVSPost2010Prop37
 90
       50
102
RTVSPost2010PropOp37
 70
     1
102
RTVSPost2010Prop38
140
0.0
102
RTVSPost2010PropOp38
 70
     1
102
RTVSPost2010Prop39
140
1.0
102
RTVSPost2010PropOp39
 70
     1
102
RTVSPost2010Prop40
 90
        0
102
RTVSPost2010PropOp40
 70
     1
102
RTVSPost2010Prop41ColorIndex
 90
       18
102
RTVSPost2010Prop41ColorRGB
 90
        0
102
RTVSPost2010PropOp41
 70
     1
102
RTVSPost2010Prop42
 90
       50
102
RTVSPost2010PropOp42
 70
     1
102
RTVSPost2010Prop43
 90
        3
102
RTVSPost2010PropOp43
 70
     1
102
RTVSPost2010Prop44ColorIndex
 90
        5
102
RTVSPost2010Prop44ColorRGB
 90
      255
102
RTVSPost2010PropOp44
 70
     1
102
RTVSPost2010Prop45
280
     0
102
RTVSPost2010PropOp45
 70
     1
102
RTVSPost2010Prop46
 90
       50
102
RTVSPost2010PropOp46
 70
     1
102
RTVSPost2010Prop47
 90
       50
102
RTVSPost2010PropOp47
 70
     1
102
RTVSPost2010Prop48
 90
       50
102
RTVSPost2010PropOp48
 70
     1
102
RTVSPost2010Prop49
280
     0
102
RTVSPost2010PropOp49
 70
     1
102
RTVSPost2010Prop50
 90
       50
102
RTVSPost2010PropOp50
 70
     1
102
RTVSPost2010Prop51ColorIndex
 90
      256
102
RTVSPost2010Prop51ColorRGB
 90
-16777216
102
RTVSPost2010PropOp51
 70
     0
102
RTVSPost2010Prop52
140
1.0
102
RTVSPost2010PropOp52
 70
     0
102
RTVSPost2010Prop53
 90
        2
102
RTVSPost2010PropOp53
 70
     1
102
RTVSPost2010Prop54
  1
strokes_ogs.tif
102
RTVSPost2010PropOp54
 70
     1
102
RTVSPost2010Prop55
280
     0
102
RTVSPost2010PropOp55
 70
     1
102
RTVSPost2010Prop56
140
1.0
102
RTVSPost2010PropOp56
 70
     1
102
RTVSPost2010Prop57
140
1.0
102
RTVSPost2010PropOp57
 70
     1
102
RTVSPropertyOp0
 70
     1
102
RTVSPropertyOp1
 70
     1
102
RTVSPropertyOp2
 70
     1
102
RTVSPropertyOp3
 70
     1
102
RTVSPropertyOp4
 70
     1
102
RTVSPropertyOp5
 70
     1
102
RTVSPropertyOp6
 70
     1
102
RTVSPropertyOp7
 70
     1
102
RTVSPropertyOp8
 70
     1
102
RTVSPropertyOp9
 70
     1
102
RTVSPropertyOp10
 70
     1
102
RTVSPropertyOp11
 70
     1
102
RTVSPropertyOp12
 70
     1
102
RTVSPropertyOp13
 70
     1
102
RTVSPropertyOp14
 70
     1
102
RTVSPropertyOp15
 70
     1
102
RTVSPropertyOp16
 70
     1
102
RTVSPropertyOp17
 70
     1
102
RTVSPropertyOp18
 70
     1
102
RTVSPropertyOp19
 70
     1
102
RTVSPropertyOp20
 70
     1
102
RTVSPropertyOp21
 70
     1
102
RTVSPropertyOp22
 70
     1
102
RTVSPropertyOp23
 70
     1
102
RTVSPropertyOp24
 70
     1
102
RTVSPropertyOp25
 70
     1
102
RTVSPropertyOp26
 70
     1
102
RTVSPropertyOp27
 70
     1
102
RTVSPropertyOp28
 70
     1
102
RTVSPropertyOp29
 70
     1
102
RTVSPropertyOp30
 70
     1
102
RTVSPropertyOp31
 70
     1
102
RTVSPropertyOp32
 70
     1
102
RTVSPropertyOp33
 70
     1
102
RTVSPropertyOp34
 70
     1
102
RTVSPropertyOp35
 70
     1
102
RTVSPropertyOp36
 70
     1
102
RTVSPropertyOp37
 70
     1
102
RTVSPropertyOp38
 70
     1
102
RTVSPropertyOp39
 70
     1
102
RTVSPropertyOp40
 70
     1
102
RTVSPropertyOp41
 70
     1
102
RTVSPropertyOp42
 70
     1
102
RTVSPropertyOp43
 70
     1
102
RTVSPropertyOp44
 70
     1
102
RTVSPropertyOp45
 70
     1
102
RTVSPropertyOp46
 70
     1
102
RTVSPropertyOp47
 70
     1
102
RTVSPropertyOp48
 70
     1
102
RTVSPropertyOp49
 70
     1
102
RTVSPropertyOp50
 70
     1
102
RTVSPropertyOp51
 70
     0
102
RTVSPropertyOp52
 70
     0
102
RTVSPropertyOp53
 70
     1
102
RTVSPropertyOp54
 70
     1
102
RTVSPropertyOp55
 70
     1
102
RTVSPropertyOp56
 70
     1
102
RTVSPropertyOp57
 70
     1
102
RTVSPropertyOp58
 70
     1
102
RTVSPropertyOp59
 70
     1
102
RTVSPropertyOp60
 70
     1
102
RTVSPropertyOp61
 70
     1
102
RTVSPropertyOp62
 70
     1
  0
XRECORD
  5
33BF
102
{ACAD_REACTORS
330
33BE
102
}
330
33BE
100
AcDbXrecord
280
     1
102
RTVSPost2010Prop28
280
     0
102
RTVSPost2010PropOp28
 70
     1
102
RTVSPost2010Prop29
280
     1
102
RTVSPost2010PropOp29
 70
     1
102
RTVSPost2010Prop30
280
     1
102
RTVSPost2010PropOp30
 70
     1
102
RTVSPost2010Prop31
280
     0
102
RTVSPost2010PropOp31
 70
     1
102
RTVSPost2010Prop32
280
     0
102
RTVSPost2010PropOp32
 70
     1
102
RTVSPost2010Prop33
280
     0
102
RTVSPost2010PropOp33
 70
     1
102
RTVSPost2010Prop34
280
     0
102
RTVSPost2010PropOp34
 70
     1
102
RTVSPost2010Prop35
280
     0
102
RTVSPost2010PropOp35
 70
     1
102
RTVSPost2010Prop36
280
     0
102
RTVSPost2010PropOp36
 70
     1
102
RTVSPost2010Prop37
 90
       50
102
RTVSPost2010PropOp37
 70
     1
102
RTVSPost2010Prop38
140
0.0
102
RTVSPost2010PropOp38
 70
     1
102
RTVSPost2010Prop39
140
1.0
102
RTVSPost2010PropOp39
 70
     1
102
RTVSPost2010Prop40
 90
        0
102
RTVSPost2010PropOp40
 70
     1
102
RTVSPost2010Prop41ColorIndex
 90
       18
102
RTVSPost2010Prop41ColorRGB
 90
        0
102
RTVSPost2010PropOp41
 70
     1
102
RTVSPost2010Prop42
 90
       50
102
RTVSPost2010PropOp42
 70
     1
102
RTVSPost2010Prop43
 90
        3
102
RTVSPost2010PropOp43
 70
     1
102
RTVSPost2010Prop44ColorIndex
 90
        5
102
RTVSPost2010Prop44ColorRGB
 90
      255
102
RTVSPost2010PropOp44
 70
     1
102
RTVSPost2010Prop45
280
     0
102
RTVSPost2010PropOp45
 70
     1
102
RTVSPost2010Prop46
 90
       50
102
RTVSPost2010PropOp46
 70
     1
102
RTVSPost2010Prop47
 90
       50
102
RTVSPost2010PropOp47
 70
     1
102
RTVSPost2010Prop48
 90
       50
102
RTVSPost2010PropOp48
 70
     1
102
RTVSPost2010Prop49
280
     0
102
RTVSPost2010PropOp49
 70
     1
102
RTVSPost2010Prop50
 90
       50
102
RTVSPost2010PropOp50
 70
     1
102
RTVSPost2010Prop51ColorIndex
 90
      256
102
RTVSPost2010Prop51ColorRGB
 90
-16777216
102
RTVSPost2010PropOp51
 70
     0
102
RTVSPost2010Prop52
140
1.0
102
RTVSPost2010PropOp52
 70
     0
102
RTVSPost2010Prop53
 90
        2
102
RTVSPost2010PropOp53
 70
     1
102
RTVSPost2010Prop54
  1
strokes_ogs.tif
102
RTVSPost2010PropOp54
 70
     1
102
RTVSPost2010Prop55
280
     0
102
RTVSPost2010PropOp55
 70
     1
102
RTVSPost2010Prop56
140
1.0
102
RTVSPost2010PropOp56
 70
     1
102
RTVSPost2010Prop57
140
1.0
102
RTVSPost2010PropOp57
 70
     1
102
RTVSPropertyOp0
 70
     1
102
RTVSPropertyOp1
 70
     1
102
RTVSPropertyOp2
 70
     1
102
RTVSPropertyOp3
 70
     1
102
RTVSPropertyOp4
 70
     1
102
RTVSPropertyOp5
 70
     1
102
RTVSPropertyOp6
 70
     1
102
RTVSPropertyOp7
 70
     1
102
RTVSPropertyOp8
 70
     1
102
RTVSPropertyOp9
 70
     1
102
RTVSPropertyOp10
 70
     1
102
RTVSPropertyOp11
 70
     1
102
RTVSPropertyOp12
 70
     1
102
RTVSPropertyOp13
 70
     1
102
RTVSPropertyOp14
 70
     1
102
RTVSPropertyOp15
 70
     1
102
RTVSPropertyOp16
 70
     1
102
RTVSPropertyOp17
 70
     1
102
RTVSPropertyOp18
 70
     1
102
RTVSPropertyOp19
 70
     1
102
RTVSPropertyOp20
 70
     1
102
RTVSPropertyOp21
 70
     1
102
RTVSPropertyOp22
 70
     1
102
RTVSPropertyOp23
 70
     1
102
RTVSPropertyOp24
 70
     1
102
RTVSPropertyOp25
 70
     1
102
RTVSPropertyOp26
 70
     1
102
RTVSPropertyOp27
 70
     1
102
RTVSPropertyOp28
 70
     1
102
RTVSPropertyOp29
 70
     1
102
RTVSPropertyOp30
 70
     1
102
RTVSPropertyOp31
 70
     1
102
RTVSPropertyOp32
 70
     1
102
RTVSPropertyOp33
 70
     1
102
RTVSPropertyOp34
 70
     1
102
RTVSPropertyOp35
 70
     1
102
RTVSPropertyOp36
 70
     1
102
RTVSPropertyOp37
 70
     1
102
RTVSPropertyOp38
 70
     1
102
RTVSPropertyOp39
 70
     1
102
RTVSPropertyOp40
 70
     1
102
RTVSPropertyOp41
 70
     1
102
RTVSPropertyOp42
 70
     1
102
RTVSPropertyOp43
 70
     1
102
RTVSPropertyOp44
 70
     1
102
RTVSPropertyOp45
 70
     1
102
RTVSPropertyOp46
 70
     1
102
RTVSPropertyOp47
 70
     1
102
RTVSPropertyOp48
 70
     1
102
RTVSPropertyOp49
 70
     1
102
RTVSPropertyOp50
 70
     1
102
RTVSPropertyOp51
 70
     0
102
RTVSPropertyOp52
 70
     0
102
RTVSPropertyOp53
 70
     1
102
RTVSPropertyOp54
 70
     1
102
RTVSPropertyOp55
 70
     1
102
RTVSPropertyOp56
 70
     1
102
RTVSPropertyOp57
 70
     1
102
RTVSPropertyOp58
 70
     1
102
RTVSPropertyOp59
 70
     1
102
RTVSPropertyOp60
 70
     1
102
RTVSPropertyOp61
 70
     1
102
RTVSPropertyOp62
 70
     1
  0
XRECORD
  5
33BD
102
{ACAD_REACTORS
330
33BC
102
}
330
33BC
100
AcDbXrecord
280
     1
102
RTVSPost2010Prop28
280
     0
102
RTVSPost2010PropOp28
 70
     1
102
RTVSPost2010Prop29
280
     1
102
RTVSPost2010PropOp29
 70
     1
102
RTVSPost2010Prop30
280
     1
102
RTVSPost2010PropOp30
 70
     1
102
RTVSPost2010Prop31
280
     0
102
RTVSPost2010PropOp31
 70
     1
102
RTVSPost2010Prop32
280
     0
102
RTVSPost2010PropOp32
 70
     1
102
RTVSPost2010Prop33
280
     0
102
RTVSPost2010PropOp33
 70
     1
102
RTVSPost2010Prop34
280
     0
102
RTVSPost2010PropOp34
 70
     1
102
RTVSPost2010Prop35
280
     0
102
RTVSPost2010PropOp35
 70
     1
102
RTVSPost2010Prop36
280
     0
102
RTVSPost2010PropOp36
 70
     1
102
RTVSPost2010Prop37
 90
       50
102
RTVSPost2010PropOp37
 70
     1
102
RTVSPost2010Prop38
140
0.0
102
RTVSPost2010PropOp38
 70
     1
102
RTVSPost2010Prop39
140
1.0
102
RTVSPost2010PropOp39
 70
     1
102
RTVSPost2010Prop40
 90
        0
102
RTVSPost2010PropOp40
 70
     1
102
RTVSPost2010Prop41ColorIndex
 90
       18
102
RTVSPost2010Prop41ColorRGB
 90
        0
102
RTVSPost2010PropOp41
 70
     1
102
RTVSPost2010Prop42
 90
       50
102
RTVSPost2010PropOp42
 70
     1
102
RTVSPost2010Prop43
 90
        3
102
RTVSPost2010PropOp43
 70
     1
102
RTVSPost2010Prop44ColorIndex
 90
        5
102
RTVSPost2010Prop44ColorRGB
 90
      255
102
RTVSPost2010PropOp44
 70
     1
102
RTVSPost2010Prop45
280
     0
102
RTVSPost2010PropOp45
 70
     1
102
RTVSPost2010Prop46
 90
       50
102
RTVSPost2010PropOp46
 70
     1
102
RTVSPost2010Prop47
 90
       50
102
RTVSPost2010PropOp47
 70
     1
102
RTVSPost2010Prop48
 90
       50
102
RTVSPost2010PropOp48
 70
     1
102
RTVSPost2010Prop49
280
     0
102
RTVSPost2010PropOp49
 70
     1
102
RTVSPost2010Prop50
 90
       50
102
RTVSPost2010PropOp50
 70
     1
102
RTVSPost2010Prop51ColorIndex
 90
      256
102
RTVSPost2010Prop51ColorRGB
 90
-16777216
102
RTVSPost2010PropOp51
 70
     0
102
RTVSPost2010Prop52
140
1.0
102
RTVSPost2010PropOp52
 70
     0
102
RTVSPost2010Prop53
 90
        2
102
RTVSPost2010PropOp53
 70
     1
102
RTVSPost2010Prop54
  1
strokes_ogs.tif
102
RTVSPost2010PropOp54
 70
     1
102
RTVSPost2010Prop55
280
     0
102
RTVSPost2010PropOp55
 70
     1
102
RTVSPost2010Prop56
140
1.0
102
RTVSPost2010PropOp56
 70
     1
102
RTVSPost2010Prop57
140
1.0
102
RTVSPost2010PropOp57
 70
     1
102
RTVSPropertyOp0
 70
     1
102
RTVSPropertyOp1
 70
     1
102
RTVSPropertyOp2
 70
     1
102
RTVSPropertyOp3
 70
     1
102
RTVSPropertyOp4
 70
     1
102
RTVSPropertyOp5
 70
     1
102
RTVSPropertyOp6
 70
     1
102
RTVSPropertyOp7
 70
     1
102
RTVSPropertyOp8
 70
     1
102
RTVSPropertyOp9
 70
     1
102
RTVSPropertyOp10
 70
     1
102
RTVSPropertyOp11
 70
     1
102
RTVSPropertyOp12
 70
     1
102
RTVSPropertyOp13
 70
     1
102
RTVSPropertyOp14
 70
     1
102
RTVSPropertyOp15
 70
     1
102
RTVSPropertyOp16
 70
     1
102
RTVSPropertyOp17
 70
     1
102
RTVSPropertyOp18
 70
     1
102
RTVSPropertyOp19
 70
     1
102
RTVSPropertyOp20
 70
     1
102
RTVSPropertyOp21
 70
     1
102
RTVSPropertyOp22
 70
     1
102
RTVSPropertyOp23
 70
     1
102
RTVSPropertyOp24
 70
     1
102
RTVSPropertyOp25
 70
     1
102
RTVSPropertyOp26
 70
     1
102
RTVSPropertyOp27
 70
     1
102
RTVSPropertyOp28
 70
     1
102
RTVSPropertyOp29
 70
     1
102
RTVSPropertyOp30
 70
     1
102
RTVSPropertyOp31
 70
     1
102
RTVSPropertyOp32
 70
     1
102
RTVSPropertyOp33
 70
     1
102
RTVSPropertyOp34
 70
     1
102
RTVSPropertyOp35
 70
     1
102
RTVSPropertyOp36
 70
     1
102
RTVSPropertyOp37
 70
     1
102
RTVSPropertyOp38
 70
     1
102
RTVSPropertyOp39
 70
     1
102
RTVSPropertyOp40
 70
     1
102
RTVSPropertyOp41
 70
     1
102
RTVSPropertyOp42
 70
     1
102
RTVSPropertyOp43
 70
     1
102
RTVSPropertyOp44
 70
     1
102
RTVSPropertyOp45
 70
     1
102
RTVSPropertyOp46
 70
     1
102
RTVSPropertyOp47
 70
     1
102
RTVSPropertyOp48
 70
     1
102
RTVSPropertyOp49
 70
     1
102
RTVSPropertyOp50
 70
     1
102
RTVSPropertyOp51
 70
     0
102
RTVSPropertyOp52
 70
     0
102
RTVSPropertyOp53
 70
     1
102
RTVSPropertyOp54
 70
     1
102
RTVSPropertyOp55
 70
     1
102
RTVSPropertyOp56
 70
     1
102
RTVSPropertyOp57
 70
     1
102
RTVSPropertyOp58
 70
     1
102
RTVSPropertyOp59
 70
     1
102
RTVSPropertyOp60
 70
     1
102
RTVSPropertyOp61
 70
     1
102
RTVSPropertyOp62
 70
     1
  0
XRECORD
  5
33B9
102
{ACAD_REACTORS
330
33B8
102
}
330
33B8
100
AcDbXrecord
280
     1
102
RTVSPost2010Prop28
280
     0
102
RTVSPost2010PropOp28
 70
     1
102
RTVSPost2010Prop29
280
     1
102
RTVSPost2010PropOp29
 70
     1
102
RTVSPost2010Prop30
280
     1
102
RTVSPost2010PropOp30
 70
     1
102
RTVSPost2010Prop31
280
     0
102
RTVSPost2010PropOp31
 70
     1
102
RTVSPost2010Prop32
280
     0
102
RTVSPost2010PropOp32
 70
     1
102
RTVSPost2010Prop33
280
     0
102
RTVSPost2010PropOp33
 70
     1
102
RTVSPost2010Prop34
280
     0
102
RTVSPost2010PropOp34
 70
     1
102
RTVSPost2010Prop35
280
     0
102
RTVSPost2010PropOp35
 70
     1
102
RTVSPost2010Prop36
280
     0
102
RTVSPost2010PropOp36
 70
     1
102
RTVSPost2010Prop37
 90
       50
102
RTVSPost2010PropOp37
 70
     1
102
RTVSPost2010Prop38
140
0.0
102
RTVSPost2010PropOp38
 70
     1
102
RTVSPost2010Prop39
140
1.0
102
RTVSPost2010PropOp39
 70
     1
102
RTVSPost2010Prop40
 90
        0
102
RTVSPost2010PropOp40
 70
     1
102
RTVSPost2010Prop41ColorIndex
 90
       18
102
RTVSPost2010Prop41ColorRGB
 90
        0
102
RTVSPost2010PropOp41
 70
     1
102
RTVSPost2010Prop42
 90
       50
102
RTVSPost2010PropOp42
 70
     1
102
RTVSPost2010Prop43
 90
        3
102
RTVSPost2010PropOp43
 70
     1
102
RTVSPost2010Prop44ColorIndex
 90
        5
102
RTVSPost2010Prop44ColorRGB
 90
      255
102
RTVSPost2010PropOp44
 70
     1
102
RTVSPost2010Prop45
280
     0
102
RTVSPost2010PropOp45
 70
     1
102
RTVSPost2010Prop46
 90
       50
102
RTVSPost2010PropOp46
 70
     1
102
RTVSPost2010Prop47
 90
       50
102
RTVSPost2010PropOp47
 70
     1
102
RTVSPost2010Prop48
 90
       50
102
RTVSPost2010PropOp48
 70
     1
102
RTVSPost2010Prop49
280
     0
102
RTVSPost2010PropOp49
 70
     1
102
RTVSPost2010Prop50
 90
       50
102
RTVSPost2010PropOp50
 70
     1
102
RTVSPost2010Prop51ColorIndex
 90
      256
102
RTVSPost2010Prop51ColorRGB
 90
-16777216
102
RTVSPost2010PropOp51
 70
     0
102
RTVSPost2010Prop52
140
1.0
102
RTVSPost2010PropOp52
 70
     0
102
RTVSPost2010Prop53
 90
        2
102
RTVSPost2010PropOp53
 70
     1
102
RTVSPost2010Prop54
  1
strokes_ogs.tif
102
RTVSPost2010PropOp54
 70
     1
102
RTVSPost2010Prop55
280
     0
102
RTVSPost2010PropOp55
 70
     1
102
RTVSPost2010Prop56
140
1.0
102
RTVSPost2010PropOp56
 70
     1
102
RTVSPost2010Prop57
140
1.0
102
RTVSPost2010PropOp57
 70
     1
102
RTVSPropertyOp0
 70
     1
102
RTVSPropertyOp1
 70
     1
102
RTVSPropertyOp2
 70
     1
102
RTVSPropertyOp3
 70
     1
102
RTVSPropertyOp4
 70
     1
102
RTVSPropertyOp5
 70
     1
102
RTVSPropertyOp6
 70
     1
102
RTVSPropertyOp7
 70
     1
102
RTVSPropertyOp8
 70
     1
102
RTVSPropertyOp9
 70
     1
102
RTVSPropertyOp10
 70
     1
102
RTVSPropertyOp11
 70
     1
102
RTVSPropertyOp12
 70
     1
102
RTVSPropertyOp13
 70
     1
102
RTVSPropertyOp14
 70
     1
102
RTVSPropertyOp15
 70
     1
102
RTVSPropertyOp16
 70
     1
102
RTVSPropertyOp17
 70
     1
102
RTVSPropertyOp18
 70
     1
102
RTVSPropertyOp19
 70
     1
102
RTVSPropertyOp20
 70
     1
102
RTVSPropertyOp21
 70
     1
102
RTVSPropertyOp22
 70
     1
102
RTVSPropertyOp23
 70
     1
102
RTVSPropertyOp24
 70
     1
102
RTVSPropertyOp25
 70
     1
102
RTVSPropertyOp26
 70
     1
102
RTVSPropertyOp27
 70
     1
102
RTVSPropertyOp28
 70
     1
102
RTVSPropertyOp29
 70
     1
102
RTVSPropertyOp30
 70
     1
102
RTVSPropertyOp31
 70
     1
102
RTVSPropertyOp32
 70
     1
102
RTVSPropertyOp33
 70
     1
102
RTVSPropertyOp34
 70
     1
102
RTVSPropertyOp35
 70
     1
102
RTVSPropertyOp36
 70
     1
102
RTVSPropertyOp37
 70
     1
102
RTVSPropertyOp38
 70
     1
102
RTVSPropertyOp39
 70
     1
102
RTVSPropertyOp40
 70
     1
102
RTVSPropertyOp41
 70
     1
102
RTVSPropertyOp42
 70
     1
102
RTVSPropertyOp43
 70
     1
102
RTVSPropertyOp44
 70
     1
102
RTVSPropertyOp45
 70
     1
102
RTVSPropertyOp46
 70
     1
102
RTVSPropertyOp47
 70
     1
102
RTVSPropertyOp48
 70
     1
102
RTVSPropertyOp49
 70
     1
102
RTVSPropertyOp50
 70
     1
102
RTVSPropertyOp51
 70
     0
102
RTVSPropertyOp52
 70
     0
102
RTVSPropertyOp53
 70
     1
102
RTVSPropertyOp54
 70
     1
102
RTVSPropertyOp55
 70
     1
102
RTVSPropertyOp56
 70
     1
102
RTVSPropertyOp57
 70
     1
102
RTVSPropertyOp58
 70
     1
102
RTVSPropertyOp59
 70
     1
102
RTVSPropertyOp60
 70
     1
102
RTVSPropertyOp61
 70
     1
102
RTVSPropertyOp62
 70
     1
  0
XRECORD
  5
33C7
102
{ACAD_REACTORS
330
33C6
102
}
330
33C6
100
AcDbXrecord
280
     1
102
RTVSPost2010Prop28
280
     0
102
RTVSPost2010PropOp28
 70
     1
102
RTVSPost2010Prop29
280
     1
102
RTVSPost2010PropOp29
 70
     1
102
RTVSPost2010Prop30
280
     1
102
RTVSPost2010PropOp30
 70
     1
102
RTVSPost2010Prop31
280
     0
102
RTVSPost2010PropOp31
 70
     1
102
RTVSPost2010Prop32
280
     0
102
RTVSPost2010PropOp32
 70
     1
102
RTVSPost2010Prop33
280
     0
102
RTVSPost2010PropOp33
 70
     1
102
RTVSPost2010Prop34
280
     0
102
RTVSPost2010PropOp34
 70
     1
102
RTVSPost2010Prop35
280
     0
102
RTVSPost2010PropOp35
 70
     1
102
RTVSPost2010Prop36
280
     0
102
RTVSPost2010PropOp36
 70
     1
102
RTVSPost2010Prop37
 90
       50
102
RTVSPost2010PropOp37
 70
     1
102
RTVSPost2010Prop38
140
0.0
102
RTVSPost2010PropOp38
 70
     1
102
RTVSPost2010Prop39
140
1.0
102
RTVSPost2010PropOp39
 70
     1
102
RTVSPost2010Prop40
 90
        0
102
RTVSPost2010PropOp40
 70
     1
102
RTVSPost2010Prop41ColorIndex
 90
       18
102
RTVSPost2010Prop41ColorRGB
 90
        0
102
RTVSPost2010PropOp41
 70
     1
102
RTVSPost2010Prop42
 90
       50
102
RTVSPost2010PropOp42
 70
     1
102
RTVSPost2010Prop43
 90
        3
102
RTVSPost2010PropOp43
 70
     1
102
RTVSPost2010Prop44ColorIndex
 90
        5
102
RTVSPost2010Prop44ColorRGB
 90
      255
102
RTVSPost2010PropOp44
 70
     1
102
RTVSPost2010Prop45
280
     0
102
RTVSPost2010PropOp45
 70
     1
102
RTVSPost2010Prop46
 90
       50
102
RTVSPost2010PropOp46
 70
     1
102
RTVSPost2010Prop47
 90
       50
102
RTVSPost2010PropOp47
 70
     1
102
RTVSPost2010Prop48
 90
       50
102
RTVSPost2010PropOp48
 70
     1
102
RTVSPost2010Prop49
280
     0
102
RTVSPost2010PropOp49
 70
     1
102
RTVSPost2010Prop50
 90
       50
102
RTVSPost2010PropOp50
 70
     1
102
RTVSPost2010Prop51ColorIndex
 90
      256
102
RTVSPost2010Prop51ColorRGB
 90
-16777216
102
RTVSPost2010PropOp51
 70
     0
102
RTVSPost2010Prop52
140
1.0
102
RTVSPost2010PropOp52
 70
     0
102
RTVSPost2010Prop53
 90
        2
102
RTVSPost2010PropOp53
 70
     1
102
RTVSPost2010Prop54
  1
strokes_ogs.tif
102
RTVSPost2010PropOp54
 70
     1
102
RTVSPost2010Prop55
280
     0
102
RTVSPost2010PropOp55
 70
     1
102
RTVSPost2010Prop56
140
1.0
102
RTVSPost2010PropOp56
 70
     1
102
RTVSPost2010Prop57
140
1.0
102
RTVSPost2010PropOp57
 70
     1
102
RTVSPropertyOp0
 70
     1
102
RTVSPropertyOp1
 70
     1
102
RTVSPropertyOp2
 70
     1
102
RTVSPropertyOp3
 70
     1
102
RTVSPropertyOp4
 70
     1
102
RTVSPropertyOp5
 70
     1
102
RTVSPropertyOp6
 70
     1
102
RTVSPropertyOp7
 70
     1
102
RTVSPropertyOp8
 70
     1
102
RTVSPropertyOp9
 70
     1
102
RTVSPropertyOp10
 70
     1
102
RTVSPropertyOp11
 70
     1
102
RTVSPropertyOp12
 70
     1
102
RTVSPropertyOp13
 70
     1
102
RTVSPropertyOp14
 70
     1
102
RTVSPropertyOp15
 70
     1
102
RTVSPropertyOp16
 70
     1
102
RTVSPropertyOp17
 70
     1
102
RTVSPropertyOp18
 70
     1
102
RTVSPropertyOp19
 70
     1
102
RTVSPropertyOp20
 70
     1
102
RTVSPropertyOp21
 70
     1
102
RTVSPropertyOp22
 70
     1
102
RTVSPropertyOp23
 70
     1
102
RTVSPropertyOp24
 70
     1
102
RTVSPropertyOp25
 70
     1
102
RTVSPropertyOp26
 70
     1
102
RTVSPropertyOp27
 70
     1
102
RTVSPropertyOp28
 70
     1
102
RTVSPropertyOp29
 70
     1
102
RTVSPropertyOp30
 70
     1
102
RTVSPropertyOp31
 70
     1
102
RTVSPropertyOp32
 70
     1
102
RTVSPropertyOp33
 70
     1
102
RTVSPropertyOp34
 70
     1
102
RTVSPropertyOp35
 70
     1
102
RTVSPropertyOp36
 70
     1
102
RTVSPropertyOp37
 70
     1
102
RTVSPropertyOp38
 70
     1
102
RTVSPropertyOp39
 70
     1
102
RTVSPropertyOp40
 70
     1
102
RTVSPropertyOp41
 70
     1
102
RTVSPropertyOp42
 70
     1
102
RTVSPropertyOp43
 70
     1
102
RTVSPropertyOp44
 70
     1
102
RTVSPropertyOp45
 70
     1
102
RTVSPropertyOp46
 70
     1
102
RTVSPropertyOp47
 70
     1
102
RTVSPropertyOp48
 70
     1
102
RTVSPropertyOp49
 70
     1
102
RTVSPropertyOp50
 70
     1
102
RTVSPropertyOp51
 70
     0
102
RTVSPropertyOp52
 70
     0
102
RTVSPropertyOp53
 70
     1
102
RTVSPropertyOp54
 70
     1
102
RTVSPropertyOp55
 70
     1
102
RTVSPropertyOp56
 70
     1
102
RTVSPropertyOp57
 70
     1
102
RTVSPropertyOp58
 70
     1
102
RTVSPropertyOp59
 70
     1
102
RTVSPropertyOp60
 70
     1
102
RTVSPropertyOp61
 70
     1
102
RTVSPropertyOp62
 70
     1
  0
XRECORD
  5
33CF
102
{ACAD_REACTORS
330
33CE
102
}
330
33CE
100
AcDbXrecord
280
     1
102
RTVSPost2010Prop28
280
     0
102
RTVSPost2010PropOp28
 70
     1
102
RTVSPost2010Prop29
280
     1
102
RTVSPost2010PropOp29
 70
     1
102
RTVSPost2010Prop30
280
     1
102
RTVSPost2010PropOp30
 70
     1
102
RTVSPost2010Prop31
280
     0
102
RTVSPost2010PropOp31
 70
     1
102
RTVSPost2010Prop32
280
     0
102
RTVSPost2010PropOp32
 70
     1
102
RTVSPost2010Prop33
280
     0
102
RTVSPost2010PropOp33
 70
     1
102
RTVSPost2010Prop34
280
     0
102
RTVSPost2010PropOp34
 70
     1
102
RTVSPost2010Prop35
280
     0
102
RTVSPost2010PropOp35
 70
     1
102
RTVSPost2010Prop36
280
     0
102
RTVSPost2010PropOp36
 70
     1
102
RTVSPost2010Prop37
 90
       50
102
RTVSPost2010PropOp37
 70
     1
102
RTVSPost2010Prop38
140
0.0
102
RTVSPost2010PropOp38
 70
     1
102
RTVSPost2010Prop39
140
1.0
102
RTVSPost2010PropOp39
 70
     1
102
RTVSPost2010Prop40
 90
        0
102
RTVSPost2010PropOp40
 70
     1
102
RTVSPost2010Prop41ColorIndex
 90
       18
102
RTVSPost2010Prop41ColorRGB
 90
        0
102
RTVSPost2010PropOp41
 70
     1
102
RTVSPost2010Prop42
 90
       50
102
RTVSPost2010PropOp42
 70
     1
102
RTVSPost2010Prop43
 90
        3
102
RTVSPost2010PropOp43
 70
     1
102
RTVSPost2010Prop44ColorIndex
 90
        5
102
RTVSPost2010Prop44ColorRGB
 90
      255
102
RTVSPost2010PropOp44
 70
     1
102
RTVSPost2010Prop45
280
     0
102
RTVSPost2010PropOp45
 70
     1
102
RTVSPost2010Prop46
 90
       50
102
RTVSPost2010PropOp46
 70
     1
102
RTVSPost2010Prop47
 90
       50
102
RTVSPost2010PropOp47
 70
     1
102
RTVSPost2010Prop48
 90
       50
102
RTVSPost2010PropOp48
 70
     1
102
RTVSPost2010Prop49
280
     0
102
RTVSPost2010PropOp49
 70
     1
102
RTVSPost2010Prop50
 90
       50
102
RTVSPost2010PropOp50
 70
     1
102
RTVSPost2010Prop51ColorIndex
 90
      256
102
RTVSPost2010Prop51ColorRGB
 90
-16777216
102
RTVSPost2010PropOp51
 70
     0
102
RTVSPost2010Prop52
140
1.0
102
RTVSPost2010PropOp52
 70
     0
102
RTVSPost2010Prop53
 90
        2
102
RTVSPost2010PropOp53
 70
     1
102
RTVSPost2010Prop54
  1
strokes_ogs.tif
102
RTVSPost2010PropOp54
 70
     1
102
RTVSPost2010Prop55
280
     0
102
RTVSPost2010PropOp55
 70
     1
102
RTVSPost2010Prop56
140
1.0
102
RTVSPost2010PropOp56
 70
     1
102
RTVSPost2010Prop57
140
1.0
102
RTVSPost2010PropOp57
 70
     1
102
RTVSPropertyOp0
 70
     1
102
RTVSPropertyOp1
 70
     1
102
RTVSPropertyOp2
 70
     1
102
RTVSPropertyOp3
 70
     1
102
RTVSPropertyOp4
 70
     1
102
RTVSPropertyOp5
 70
     1
102
RTVSPropertyOp6
 70
     1
102
RTVSPropertyOp7
 70
     1
102
RTVSPropertyOp8
 70
     1
102
RTVSPropertyOp9
 70
     1
102
RTVSPropertyOp10
 70
     1
102
RTVSPropertyOp11
 70
     1
102
RTVSPropertyOp12
 70
     1
102
RTVSPropertyOp13
 70
     1
102
RTVSPropertyOp14
 70
     1
102
RTVSPropertyOp15
 70
     1
102
RTVSPropertyOp16
 70
     1
102
RTVSPropertyOp17
 70
     1
102
RTVSPropertyOp18
 70
     1
102
RTVSPropertyOp19
 70
     1
102
RTVSPropertyOp20
 70
     1
102
RTVSPropertyOp21
 70
     1
102
RTVSPropertyOp22
 70
     1
102
RTVSPropertyOp23
 70
     1
102
RTVSPropertyOp24
 70
     1
102
RTVSPropertyOp25
 70
     1
102
RTVSPropertyOp26
 70
     1
102
RTVSPropertyOp27
 70
     1
102
RTVSPropertyOp28
 70
     1
102
RTVSPropertyOp29
 70
     1
102
RTVSPropertyOp30
 70
     1
102
RTVSPropertyOp31
 70
     1
102
RTVSPropertyOp32
 70
     1
102
RTVSPropertyOp33
 70
     1
102
RTVSPropertyOp34
 70
     1
102
RTVSPropertyOp35
 70
     1
102
RTVSPropertyOp36
 70
     1
102
RTVSPropertyOp37
 70
     1
102
RTVSPropertyOp38
 70
     1
102
RTVSPropertyOp39
 70
     1
102
RTVSPropertyOp40
 70
     1
102
RTVSPropertyOp41
 70
     1
102
RTVSPropertyOp42
 70
     1
102
RTVSPropertyOp43
 70
     1
102
RTVSPropertyOp44
 70
     1
102
RTVSPropertyOp45
 70
     1
102
RTVSPropertyOp46
 70
     1
102
RTVSPropertyOp47
 70
     1
102
RTVSPropertyOp48
 70
     1
102
RTVSPropertyOp49
 70
     1
102
RTVSPropertyOp50
 70
     1
102
RTVSPropertyOp51
 70
     0
102
RTVSPropertyOp52
 70
     0
102
RTVSPropertyOp53
 70
     1
102
RTVSPropertyOp54
 70
     1
102
RTVSPropertyOp55
 70
     1
102
RTVSPropertyOp56
 70
     1
102
RTVSPropertyOp57
 70
     1
102
RTVSPropertyOp58
 70
     1
102
RTVSPropertyOp59
 70
     1
102
RTVSPropertyOp60
 70
     1
102
RTVSPropertyOp61
 70
     1
102
RTVSPropertyOp62
 70
     1
  0
XRECORD
  5
33C1
102
{ACAD_REACTORS
330
33C0
102
}
330
33C0
100
AcDbXrecord
280
     1
102
RTVSPost2010Prop28
280
     0
102
RTVSPost2010PropOp28
 70
     1
102
RTVSPost2010Prop29
280
     1
102
RTVSPost2010PropOp29
 70
     1
102
RTVSPost2010Prop30
280
     1
102
RTVSPost2010PropOp30
 70
     1
102
RTVSPost2010Prop31
280
     0
102
RTVSPost2010PropOp31
 70
     1
102
RTVSPost2010Prop32
280
     0
102
RTVSPost2010PropOp32
 70
     1
102
RTVSPost2010Prop33
280
     0
102
RTVSPost2010PropOp33
 70
     1
102
RTVSPost2010Prop34
280
     0
102
RTVSPost2010PropOp34
 70
     1
102
RTVSPost2010Prop35
280
     0
102
RTVSPost2010PropOp35
 70
     1
102
RTVSPost2010Prop36
280
     0
102
RTVSPost2010PropOp36
 70
     1
102
RTVSPost2010Prop37
 90
       50
102
RTVSPost2010PropOp37
 70
     1
102
RTVSPost2010Prop38
140
0.0
102
RTVSPost2010PropOp38
 70
     1
102
RTVSPost2010Prop39
140
1.0
102
RTVSPost2010PropOp39
 70
     1
102
RTVSPost2010Prop40
 90
        0
102
RTVSPost2010PropOp40
 70
     1
102
RTVSPost2010Prop41ColorIndex
 90
       18
102
RTVSPost2010Prop41ColorRGB
 90
        0
102
RTVSPost2010PropOp41
 70
     1
102
RTVSPost2010Prop42
 90
       50
102
RTVSPost2010PropOp42
 70
     1
102
RTVSPost2010Prop43
 90
        3
102
RTVSPost2010PropOp43
 70
     1
102
RTVSPost2010Prop44ColorIndex
 90
        5
102
RTVSPost2010Prop44ColorRGB
 90
      255
102
RTVSPost2010PropOp44
 70
     1
102
RTVSPost2010Prop45
280
     0
102
RTVSPost2010PropOp45
 70
     1
102
RTVSPost2010Prop46
 90
       50
102
RTVSPost2010PropOp46
 70
     1
102
RTVSPost2010Prop47
 90
       50
102
RTVSPost2010PropOp47
 70
     1
102
RTVSPost2010Prop48
 90
       50
102
RTVSPost2010PropOp48
 70
     1
102
RTVSPost2010Prop49
280
     0
102
RTVSPost2010PropOp49
 70
     1
102
RTVSPost2010Prop50
 90
       50
102
RTVSPost2010PropOp50
 70
     1
102
RTVSPost2010Prop51ColorIndex
 90
      256
102
RTVSPost2010Prop51ColorRGB
 90
-16777216
102
RTVSPost2010PropOp51
 70
     0
102
RTVSPost2010Prop52
140
1.0
102
RTVSPost2010PropOp52
 70
     0
102
RTVSPost2010Prop53
 90
        2
102
RTVSPost2010PropOp53
 70
     1
102
RTVSPost2010Prop54
  1
strokes_ogs.tif
102
RTVSPost2010PropOp54
 70
     1
102
RTVSPost2010Prop55
280
     0
102
RTVSPost2010PropOp55
 70
     1
102
RTVSPost2010Prop56
140
1.0
102
RTVSPost2010PropOp56
 70
     1
102
RTVSPost2010Prop57
140
1.0
102
RTVSPost2010PropOp57
 70
     1
102
RTVSPropertyOp0
 70
     1
102
RTVSPropertyOp1
 70
     1
102
RTVSPropertyOp2
 70
     1
102
RTVSPropertyOp3
 70
     1
102
RTVSPropertyOp4
 70
     1
102
RTVSPropertyOp5
 70
     1
102
RTVSPropertyOp6
 70
     1
102
RTVSPropertyOp7
 70
     1
102
RTVSPropertyOp8
 70
     1
102
RTVSPropertyOp9
 70
     1
102
RTVSPropertyOp10
 70
     1
102
RTVSPropertyOp11
 70
     1
102
RTVSPropertyOp12
 70
     1
102
RTVSPropertyOp13
 70
     1
102
RTVSPropertyOp14
 70
     1
102
RTVSPropertyOp15
 70
     1
102
RTVSPropertyOp16
 70
     1
102
RTVSPropertyOp17
 70
     1
102
RTVSPropertyOp18
 70
     1
102
RTVSPropertyOp19
 70
     1
102
RTVSPropertyOp20
 70
     1
102
RTVSPropertyOp21
 70
     1
102
RTVSPropertyOp22
 70
     1
102
RTVSPropertyOp23
 70
     1
102
RTVSPropertyOp24
 70
     1
102
RTVSPropertyOp25
 70
     1
102
RTVSPropertyOp26
 70
     1
102
RTVSPropertyOp27
 70
     1
102
RTVSPropertyOp28
 70
     1
102
RTVSPropertyOp29
 70
     1
102
RTVSPropertyOp30
 70
     1
102
RTVSPropertyOp31
 70
     1
102
RTVSPropertyOp32
 70
     1
102
RTVSPropertyOp33
 70
     1
102
RTVSPropertyOp34
 70
     1
102
RTVSPropertyOp35
 70
     1
102
RTVSPropertyOp36
 70
     1
102
RTVSPropertyOp37
 70
     1
102
RTVSPropertyOp38
 70
     1
102
RTVSPropertyOp39
 70
     1
102
RTVSPropertyOp40
 70
     1
102
RTVSPropertyOp41
 70
     1
102
RTVSPropertyOp42
 70
     1
102
RTVSPropertyOp43
 70
     1
102
RTVSPropertyOp44
 70
     1
102
RTVSPropertyOp45
 70
     1
102
RTVSPropertyOp46
 70
     1
102
RTVSPropertyOp47
 70
     1
102
RTVSPropertyOp48
 70
     1
102
RTVSPropertyOp49
 70
     1
102
RTVSPropertyOp50
 70
     1
102
RTVSPropertyOp51
 70
     0
102
RTVSPropertyOp52
 70
     0
102
RTVSPropertyOp53
 70
     1
102
RTVSPropertyOp54
 70
     1
102
RTVSPropertyOp55
 70
     1
102
RTVSPropertyOp56
 70
     1
102
RTVSPropertyOp57
 70
     1
102
RTVSPropertyOp58
 70
     1
102
RTVSPropertyOp59
 70
     1
102
RTVSPropertyOp60
 70
     1
102
RTVSPropertyOp61
 70
     1
102
RTVSPropertyOp62
 70
     1
  0
XRECORD
  5
33C5
102
{ACAD_REACTORS
330
33C4
102
}
330
33C4
100
AcDbXrecord
280
     1
102
RTVSPost2010Prop28
280
     0
102
RTVSPost2010PropOp28
 70
     1
102
RTVSPost2010Prop29
280
     1
102
RTVSPost2010PropOp29
 70
     1
102
RTVSPost2010Prop30
280
     1
102
RTVSPost2010PropOp30
 70
     1
102
RTVSPost2010Prop31
280
     0
102
RTVSPost2010PropOp31
 70
     1
102
RTVSPost2010Prop32
280
     0
102
RTVSPost2010PropOp32
 70
     1
102
RTVSPost2010Prop33
280
     0
102
RTVSPost2010PropOp33
 70
     1
102
RTVSPost2010Prop34
280
     0
102
RTVSPost2010PropOp34
 70
     1
102
RTVSPost2010Prop35
280
     0
102
RTVSPost2010PropOp35
 70
     1
102
RTVSPost2010Prop36
280
     0
102
RTVSPost2010PropOp36
 70
     1
102
RTVSPost2010Prop37
 90
       50
102
RTVSPost2010PropOp37
 70
     1
102
RTVSPost2010Prop38
140
0.0
102
RTVSPost2010PropOp38
 70
     1
102
RTVSPost2010Prop39
140
1.0
102
RTVSPost2010PropOp39
 70
     1
102
RTVSPost2010Prop40
 90
        0
102
RTVSPost2010PropOp40
 70
     1
102
RTVSPost2010Prop41ColorIndex
 90
       18
102
RTVSPost2010Prop41ColorRGB
 90
        0
102
RTVSPost2010PropOp41
 70
     1
102
RTVSPost2010Prop42
 90
       50
102
RTVSPost2010PropOp42
 70
     1
102
RTVSPost2010Prop43
 90
        3
102
RTVSPost2010PropOp43
 70
     1
102
RTVSPost2010Prop44ColorIndex
 90
        5
102
RTVSPost2010Prop44ColorRGB
 90
      255
102
RTVSPost2010PropOp44
 70
     1
102
RTVSPost2010Prop45
280
     0
102
RTVSPost2010PropOp45
 70
     1
102
RTVSPost2010Prop46
 90
       50
102
RTVSPost2010PropOp46
 70
     1
102
RTVSPost2010Prop47
 90
       50
102
RTVSPost2010PropOp47
 70
     1
102
RTVSPost2010Prop48
 90
       50
102
RTVSPost2010PropOp48
 70
     1
102
RTVSPost2010Prop49
280
     0
102
RTVSPost2010PropOp49
 70
     1
102
RTVSPost2010Prop50
 90
       50
102
RTVSPost2010PropOp50
 70
     1
102
RTVSPost2010Prop51ColorIndex
 90
      256
102
RTVSPost2010Prop51ColorRGB
 90
-16777216
102
RTVSPost2010PropOp51
 70
     0
102
RTVSPost2010Prop52
140
1.0
102
RTVSPost2010PropOp52
 70
     0
102
RTVSPost2010Prop53
 90
        2
102
RTVSPost2010PropOp53
 70
     1
102
RTVSPost2010Prop54
  1
strokes_ogs.tif
102
RTVSPost2010PropOp54
 70
     1
102
RTVSPost2010Prop55
280
     0
102
RTVSPost2010PropOp55
 70
     1
102
RTVSPost2010Prop56
140
1.0
102
RTVSPost2010PropOp56
 70
     1
102
RTVSPost2010Prop57
140
1.0
102
RTVSPost2010PropOp57
 70
     1
102
RTVSPropertyOp0
 70
     1
102
RTVSPropertyOp1
 70
     1
102
RTVSPropertyOp2
 70
     1
102
RTVSPropertyOp3
 70
     1
102
RTVSPropertyOp4
 70
     1
102
RTVSPropertyOp5
 70
     1
102
RTVSPropertyOp6
 70
     1
102
RTVSPropertyOp7
 70
     1
102
RTVSPropertyOp8
 70
     1
102
RTVSPropertyOp9
 70
     1
102
RTVSPropertyOp10
 70
     1
102
RTVSPropertyOp11
 70
     1
102
RTVSPropertyOp12
 70
     1
102
RTVSPropertyOp13
 70
     1
102
RTVSPropertyOp14
 70
     1
102
RTVSPropertyOp15
 70
     1
102
RTVSPropertyOp16
 70
     1
102
RTVSPropertyOp17
 70
     1
102
RTVSPropertyOp18
 70
     1
102
RTVSPropertyOp19
 70
     1
102
RTVSPropertyOp20
 70
     1
102
RTVSPropertyOp21
 70
     1
102
RTVSPropertyOp22
 70
     1
102
RTVSPropertyOp23
 70
     1
102
RTVSPropertyOp24
 70
     1
102
RTVSPropertyOp25
 70
     1
102
RTVSPropertyOp26
 70
     1
102
RTVSPropertyOp27
 70
     1
102
RTVSPropertyOp28
 70
     1
102
RTVSPropertyOp29
 70
     1
102
RTVSPropertyOp30
 70
     1
102
RTVSPropertyOp31
 70
     1
102
RTVSPropertyOp32
 70
     1
102
RTVSPropertyOp33
 70
     1
102
RTVSPropertyOp34
 70
     1
102
RTVSPropertyOp35
 70
     1
102
RTVSPropertyOp36
 70
     1
102
RTVSPropertyOp37
 70
     1
102
RTVSPropertyOp38
 70
     1
102
RTVSPropertyOp39
 70
     1
102
RTVSPropertyOp40
 70
     1
102
RTVSPropertyOp41
 70
     1
102
RTVSPropertyOp42
 70
     1
102
RTVSPropertyOp43
 70
     1
102
RTVSPropertyOp44
 70
     1
102
RTVSPropertyOp45
 70
     1
102
RTVSPropertyOp46
 70
     1
102
RTVSPropertyOp47
 70
     1
102
RTVSPropertyOp48
 70
     1
102
RTVSPropertyOp49
 70
     1
102
RTVSPropertyOp50
 70
     1
102
RTVSPropertyOp51
 70
     0
102
RTVSPropertyOp52
 70
     0
102
RTVSPropertyOp53
 70
     1
102
RTVSPropertyOp54
 70
     1
102
RTVSPropertyOp55
 70
     1
102
RTVSPropertyOp56
 70
     1
102
RTVSPropertyOp57
 70
     1
102
RTVSPropertyOp58
 70
     1
102
RTVSPropertyOp59
 70
     1
102
RTVSPropertyOp60
 70
     1
102
RTVSPropertyOp61
 70
     1
102
RTVSPropertyOp62
 70
     1
  0
XRECORD
  5
33D5
102
{ACAD_REACTORS
330
33D4
102
}
330
33D4
100
AcDbXrecord
280
     1
102
RTVSPost2010Prop28
280
     0
102
RTVSPost2010PropOp28
 70
     1
102
RTVSPost2010Prop29
280
     1
102
RTVSPost2010PropOp29
 70
     1
102
RTVSPost2010Prop30
280
     1
102
RTVSPost2010PropOp30
 70
     1
102
RTVSPost2010Prop31
280
     0
102
RTVSPost2010PropOp31
 70
     1
102
RTVSPost2010Prop32
280
     0
102
RTVSPost2010PropOp32
 70
     1
102
RTVSPost2010Prop33
280
     0
102
RTVSPost2010PropOp33
 70
     1
102
RTVSPost2010Prop34
280
     0
102
RTVSPost2010PropOp34
 70
     1
102
RTVSPost2010Prop35
280
     0
102
RTVSPost2010PropOp35
 70
     1
102
RTVSPost2010Prop36
280
     0
102
RTVSPost2010PropOp36
 70
     1
102
RTVSPost2010Prop37
 90
       50
102
RTVSPost2010PropOp37
 70
     1
102
RTVSPost2010Prop38
140
0.0
102
RTVSPost2010PropOp38
 70
     1
102
RTVSPost2010Prop39
140
1.0
102
RTVSPost2010PropOp39
 70
     1
102
RTVSPost2010Prop40
 90
        0
102
RTVSPost2010PropOp40
 70
     1
102
RTVSPost2010Prop41ColorIndex
 90
       18
102
RTVSPost2010Prop41ColorRGB
 90
        0
102
RTVSPost2010PropOp41
 70
     1
102
RTVSPost2010Prop42
 90
       50
102
RTVSPost2010PropOp42
 70
     1
102
RTVSPost2010Prop43
 90
        3
102
RTVSPost2010PropOp43
 70
     1
102
RTVSPost2010Prop44ColorIndex
 90
        5
102
RTVSPost2010Prop44ColorRGB
 90
      255
102
RTVSPost2010PropOp44
 70
     1
102
RTVSPost2010Prop45
280
     0
102
RTVSPost2010PropOp45
 70
     1
102
RTVSPost2010Prop46
 90
       50
102
RTVSPost2010PropOp46
 70
     1
102
RTVSPost2010Prop47
 90
       50
102
RTVSPost2010PropOp47
 70
     1
102
RTVSPost2010Prop48
 90
       50
102
RTVSPost2010PropOp48
 70
     1
102
RTVSPost2010Prop49
280
     0
102
RTVSPost2010PropOp49
 70
     1
102
RTVSPost2010Prop50
 90
       50
102
RTVSPost2010PropOp50
 70
     1
102
RTVSPost2010Prop51ColorIndex
 90
      256
102
RTVSPost2010Prop51ColorRGB
 90
-16777216
102
RTVSPost2010PropOp51
 70
     0
102
RTVSPost2010Prop52
140
1.0
102
RTVSPost2010PropOp52
 70
     0
102
RTVSPost2010Prop53
 90
        2
102
RTVSPost2010PropOp53
 70
     1
102
RTVSPost2010Prop54
  1
strokes_ogs.tif
102
RTVSPost2010PropOp54
 70
     1
102
RTVSPost2010Prop55
280
     0
102
RTVSPost2010PropOp55
 70
     1
102
RTVSPost2010Prop56
140
1.0
102
RTVSPost2010PropOp56
 70
     1
102
RTVSPost2010Prop57
140
1.0
102
RTVSPost2010PropOp57
 70
     1
102
RTVSPropertyOp0
 70
     0
102
RTVSPropertyOp1
 70
     0
102
RTVSPropertyOp2
 70
     0
102
RTVSPropertyOp3
 70
     0
102
RTVSPropertyOp4
 70
     0
102
RTVSPropertyOp5
 70
     0
102
RTVSPropertyOp6
 70
     0
102
RTVSPropertyOp7
 70
     0
102
RTVSPropertyOp8
 70
     0
102
RTVSPropertyOp9
 70
     0
102
RTVSPropertyOp10
 70
     0
102
RTVSPropertyOp11
 70
     0
102
RTVSPropertyOp12
 70
     0
102
RTVSPropertyOp13
 70
     0
102
RTVSPropertyOp14
 70
     2
102
RTVSPropertyOp15
 70
     0
102
RTVSPropertyOp16
 70
     0
102
RTVSPropertyOp17
 70
     0
102
RTVSPropertyOp18
 70
     0
102
RTVSPropertyOp19
 70
     0
102
RTVSPropertyOp20
 70
     0
102
RTVSPropertyOp21
 70
     0
102
RTVSPropertyOp22
 70
     0
102
RTVSPropertyOp23
 70
     0
102
RTVSPropertyOp24
 70
     0
102
RTVSPropertyOp25
 70
     0
102
RTVSPropertyOp26
 70
     0
102
RTVSPropertyOp27
 70
     0
102
RTVSPropertyOp28
 70
     1
102
RTVSPropertyOp29
 70
     1
102
RTVSPropertyOp30
 70
     1
102
RTVSPropertyOp31
 70
     1
102
RTVSPropertyOp32
 70
     1
102
RTVSPropertyOp33
 70
     1
102
RTVSPropertyOp34
 70
     1
102
RTVSPropertyOp35
 70
     1
102
RTVSPropertyOp36
 70
     1
102
RTVSPropertyOp37
 70
     1
102
RTVSPropertyOp38
 70
     1
102
RTVSPropertyOp39
 70
     1
102
RTVSPropertyOp40
 70
     1
102
RTVSPropertyOp41
 70
     1
102
RTVSPropertyOp42
 70
     1
102
RTVSPropertyOp43
 70
     1
102
RTVSPropertyOp44
 70
     1
102
RTVSPropertyOp45
 70
     1
102
RTVSPropertyOp46
 70
     1
102
RTVSPropertyOp47
 70
     1
102
RTVSPropertyOp48
 70
     1
102
RTVSPropertyOp49
 70
     1
102
RTVSPropertyOp50
 70
     1
102
RTVSPropertyOp51
 70
     0
102
RTVSPropertyOp52
 70
     0
102
RTVSPropertyOp53
 70
     1
102
RTVSPropertyOp54
 70
     1
102
RTVSPropertyOp55
 70
     1
102
RTVSPropertyOp56
 70
     1
102
RTVSPropertyOp57
 70
     1
102
RTVSPropertyOp58
 70
     1
102
RTVSPropertyOp59
 70
     1
102
RTVSPropertyOp60
 70
     1
102
RTVSPropertyOp61
 70
     1
102
RTVSPropertyOp62
 70
     1
  0
XRECORD
  5
33CD
102
{ACAD_REACTORS
330
33CC
102
}
330
33CC
100
AcDbXrecord
280
     1
102
RTVSPost2010Prop28
280
     0
102
RTVSPost2010PropOp28
 70
     1
102
RTVSPost2010Prop29
280
     1
102
RTVSPost2010PropOp29
 70
     1
102
RTVSPost2010Prop30
280
     1
102
RTVSPost2010PropOp30
 70
     1
102
RTVSPost2010Prop31
280
     0
102
RTVSPost2010PropOp31
 70
     1
102
RTVSPost2010Prop32
280
     0
102
RTVSPost2010PropOp32
 70
     1
102
RTVSPost2010Prop33
280
     0
102
RTVSPost2010PropOp33
 70
     1
102
RTVSPost2010Prop34
280
     0
102
RTVSPost2010PropOp34
 70
     1
102
RTVSPost2010Prop35
280
     0
102
RTVSPost2010PropOp35
 70
     1
102
RTVSPost2010Prop36
280
     0
102
RTVSPost2010PropOp36
 70
     1
102
RTVSPost2010Prop37
 90
       50
102
RTVSPost2010PropOp37
 70
     1
102
RTVSPost2010Prop38
140
0.0
102
RTVSPost2010PropOp38
 70
     1
102
RTVSPost2010Prop39
140
1.0
102
RTVSPost2010PropOp39
 70
     1
102
RTVSPost2010Prop40
 90
        0
102
RTVSPost2010PropOp40
 70
     1
102
RTVSPost2010Prop41ColorIndex
 90
       18
102
RTVSPost2010Prop41ColorRGB
 90
        0
102
RTVSPost2010PropOp41
 70
     1
102
RTVSPost2010Prop42
 90
       50
102
RTVSPost2010PropOp42
 70
     1
102
RTVSPost2010Prop43
 90
        3
102
RTVSPost2010PropOp43
 70
     1
102
RTVSPost2010Prop44ColorIndex
 90
        5
102
RTVSPost2010Prop44ColorRGB
 90
      255
102
RTVSPost2010PropOp44
 70
     1
102
RTVSPost2010Prop45
280
     0
102
RTVSPost2010PropOp45
 70
     1
102
RTVSPost2010Prop46
 90
       50
102
RTVSPost2010PropOp46
 70
     1
102
RTVSPost2010Prop47
 90
       50
102
RTVSPost2010PropOp47
 70
     1
102
RTVSPost2010Prop48
 90
       50
102
RTVSPost2010PropOp48
 70
     1
102
RTVSPost2010Prop49
280
     0
102
RTVSPost2010PropOp49
 70
     1
102
RTVSPost2010Prop50
 90
       50
102
RTVSPost2010PropOp50
 70
     1
102
RTVSPost2010Prop51ColorIndex
 90
      256
102
RTVSPost2010Prop51ColorRGB
 90
-16777216
102
RTVSPost2010PropOp51
 70
     0
102
RTVSPost2010Prop52
140
1.0
102
RTVSPost2010PropOp52
 70
     0
102
RTVSPost2010Prop53
 90
        2
102
RTVSPost2010PropOp53
 70
     1
102
RTVSPost2010Prop54
  1
strokes_ogs.tif
102
RTVSPost2010PropOp54
 70
     1
102
RTVSPost2010Prop55
280
     0
102
RTVSPost2010PropOp55
 70
     1
102
RTVSPost2010Prop56
140
1.0
102
RTVSPost2010PropOp56
 70
     1
102
RTVSPost2010Prop57
140
1.0
102
RTVSPost2010PropOp57
 70
     1
102
RTVSPropertyOp0
 70
     1
102
RTVSPropertyOp1
 70
     1
102
RTVSPropertyOp2
 70
     1
102
RTVSPropertyOp3
 70
     1
102
RTVSPropertyOp4
 70
     1
102
RTVSPropertyOp5
 70
     1
102
RTVSPropertyOp6
 70
     1
102
RTVSPropertyOp7
 70
     1
102
RTVSPropertyOp8
 70
     1
102
RTVSPropertyOp9
 70
     1
102
RTVSPropertyOp10
 70
     1
102
RTVSPropertyOp11
 70
     1
102
RTVSPropertyOp12
 70
     1
102
RTVSPropertyOp13
 70
     1
102
RTVSPropertyOp14
 70
     1
102
RTVSPropertyOp15
 70
     1
102
RTVSPropertyOp16
 70
     1
102
RTVSPropertyOp17
 70
     1
102
RTVSPropertyOp18
 70
     1
102
RTVSPropertyOp19
 70
     1
102
RTVSPropertyOp20
 70
     1
102
RTVSPropertyOp21
 70
     1
102
RTVSPropertyOp22
 70
     1
102
RTVSPropertyOp23
 70
     1
102
RTVSPropertyOp24
 70
     1
102
RTVSPropertyOp25
 70
     1
102
RTVSPropertyOp26
 70
     1
102
RTVSPropertyOp27
 70
     1
102
RTVSPropertyOp28
 70
     1
102
RTVSPropertyOp29
 70
     1
102
RTVSPropertyOp30
 70
     1
102
RTVSPropertyOp31
 70
     1
102
RTVSPropertyOp32
 70
     1
102
RTVSPropertyOp33
 70
     1
102
RTVSPropertyOp34
 70
     1
102
RTVSPropertyOp35
 70
     1
102
RTVSPropertyOp36
 70
     1
102
RTVSPropertyOp37
 70
     1
102
RTVSPropertyOp38
 70
     1
102
RTVSPropertyOp39
 70
     1
102
RTVSPropertyOp40
 70
     1
102
RTVSPropertyOp41
 70
     1
102
RTVSPropertyOp42
 70
     1
102
RTVSPropertyOp43
 70
     1
102
RTVSPropertyOp44
 70
     1
102
RTVSPropertyOp45
 70
     1
102
RTVSPropertyOp46
 70
     1
102
RTVSPropertyOp47
 70
     1
102
RTVSPropertyOp48
 70
     1
102
RTVSPropertyOp49
 70
     1
102
RTVSPropertyOp50
 70
     1
102
RTVSPropertyOp51
 70
     0
102
RTVSPropertyOp52
 70
     0
102
RTVSPropertyOp53
 70
     1
102
RTVSPropertyOp54
 70
     1
102
RTVSPropertyOp55
 70
     1
102
RTVSPropertyOp56
 70
     1
102
RTVSPropertyOp57
 70
     1
102
RTVSPropertyOp58
 70
     1
102
RTVSPropertyOp59
 70
     1
102
RTVSPropertyOp60
 70
     1
102
RTVSPropertyOp61
 70
     1
102
RTVSPropertyOp62
 70
     1
  0
XRECORD
  5
33B1
102
{ACAD_REACTORS
330
33B0
102
}
330
33B0
100
AcDbXrecord
280
     1
102
RTVSPost2010Prop28
280
     0
102
RTVSPost2010PropOp28
 70
     1
102
RTVSPost2010Prop29
280
     1
102
RTVSPost2010PropOp29
 70
     1
102
RTVSPost2010Prop30
280
     1
102
RTVSPost2010PropOp30
 70
     1
102
RTVSPost2010Prop31
280
     0
102
RTVSPost2010PropOp31
 70
     1
102
RTVSPost2010Prop32
280
     0
102
RTVSPost2010PropOp32
 70
     1
102
RTVSPost2010Prop33
280
     0
102
RTVSPost2010PropOp33
 70
     1
102
RTVSPost2010Prop34
280
     0
102
RTVSPost2010PropOp34
 70
     1
102
RTVSPost2010Prop35
280
     0
102
RTVSPost2010PropOp35
 70
     1
102
RTVSPost2010Prop36
280
     0
102
RTVSPost2010PropOp36
 70
     1
102
RTVSPost2010Prop37
 90
       50
102
RTVSPost2010PropOp37
 70
     1
102
RTVSPost2010Prop38
140
0.0
102
RTVSPost2010PropOp38
 70
     1
102
RTVSPost2010Prop39
140
1.0
102
RTVSPost2010PropOp39
 70
     1
102
RTVSPost2010Prop40
 90
        0
102
RTVSPost2010PropOp40
 70
     1
102
RTVSPost2010Prop41ColorIndex
 90
       18
102
RTVSPost2010Prop41ColorRGB
 90
        0
102
RTVSPost2010PropOp41
 70
     1
102
RTVSPost2010Prop42
 90
       50
102
RTVSPost2010PropOp42
 70
     1
102
RTVSPost2010Prop43
 90
        3
102
RTVSPost2010PropOp43
 70
     1
102
RTVSPost2010Prop44ColorIndex
 90
        5
102
RTVSPost2010Prop44ColorRGB
 90
      255
102
RTVSPost2010PropOp44
 70
     1
102
RTVSPost2010Prop45
280
     0
102
RTVSPost2010PropOp45
 70
     1
102
RTVSPost2010Prop46
 90
       50
102
RTVSPost2010PropOp46
 70
     1
102
RTVSPost2010Prop47
 90
       50
102
RTVSPost2010PropOp47
 70
     1
102
RTVSPost2010Prop48
 90
       50
102
RTVSPost2010PropOp48
 70
     1
102
RTVSPost2010Prop49
280
     0
102
RTVSPost2010PropOp49
 70
     1
102
RTVSPost2010Prop50
 90
       50
102
RTVSPost2010PropOp50
 70
     1
102
RTVSPost2010Prop51ColorIndex
 90
      256
102
RTVSPost2010Prop51ColorRGB
 90
-16777216
102
RTVSPost2010PropOp51
 70
     0
102
RTVSPost2010Prop52
140
1.0
102
RTVSPost2010PropOp52
 70
     0
102
RTVSPost2010Prop53
 90
        2
102
RTVSPost2010PropOp53
 70
     1
102
RTVSPost2010Prop54
  1
strokes_ogs.tif
102
RTVSPost2010PropOp54
 70
     1
102
RTVSPost2010Prop55
280
     0
102
RTVSPost2010PropOp55
 70
     1
102
RTVSPost2010Prop56
140
1.0
102
RTVSPost2010PropOp56
 70
     1
102
RTVSPost2010Prop57
140
1.0
102
RTVSPost2010PropOp57
 70
     1
102
RTVSPropertyOp0
 70
     1
102
RTVSPropertyOp1
 70
     1
102
RTVSPropertyOp2
 70
     1
102
RTVSPropertyOp3
 70
     1
102
RTVSPropertyOp4
 70
     1
102
RTVSPropertyOp5
 70
     1
102
RTVSPropertyOp6
 70
     1
102
RTVSPropertyOp7
 70
     1
102
RTVSPropertyOp8
 70
     1
102
RTVSPropertyOp9
 70
     1
102
RTVSPropertyOp10
 70
     1
102
RTVSPropertyOp11
 70
     1
102
RTVSPropertyOp12
 70
     1
102
RTVSPropertyOp13
 70
     1
102
RTVSPropertyOp14
 70
     1
102
RTVSPropertyOp15
 70
     1
102
RTVSPropertyOp16
 70
     1
102
RTVSPropertyOp17
 70
     1
102
RTVSPropertyOp18
 70
     1
102
RTVSPropertyOp19
 70
     1
102
RTVSPropertyOp20
 70
     1
102
RTVSPropertyOp21
 70
     1
102
RTVSPropertyOp22
 70
     1
102
RTVSPropertyOp23
 70
     1
102
RTVSPropertyOp24
 70
     1
102
RTVSPropertyOp25
 70
     1
102
RTVSPropertyOp26
 70
     1
102
RTVSPropertyOp27
 70
     1
102
RTVSPropertyOp28
 70
     1
102
RTVSPropertyOp29
 70
     1
102
RTVSPropertyOp30
 70
     1
102
RTVSPropertyOp31
 70
     1
102
RTVSPropertyOp32
 70
     1
102
RTVSPropertyOp33
 70
     1
102
RTVSPropertyOp34
 70
     1
102
RTVSPropertyOp35
 70
     1
102
RTVSPropertyOp36
 70
     1
102
RTVSPropertyOp37
 70
     1
102
RTVSPropertyOp38
 70
     1
102
RTVSPropertyOp39
 70
     1
102
RTVSPropertyOp40
 70
     1
102
RTVSPropertyOp41
 70
     1
102
RTVSPropertyOp42
 70
     1
102
RTVSPropertyOp43
 70
     1
102
RTVSPropertyOp44
 70
     1
102
RTVSPropertyOp45
 70
     1
102
RTVSPropertyOp46
 70
     1
102
RTVSPropertyOp47
 70
     1
102
RTVSPropertyOp48
 70
     1
102
RTVSPropertyOp49
 70
     1
102
RTVSPropertyOp50
 70
     1
102
RTVSPropertyOp51
 70
     0
102
RTVSPropertyOp52
 70
     0
102
RTVSPropertyOp53
 70
     1
102
RTVSPropertyOp54
 70
     1
102
RTVSPropertyOp55
 70
     1
102
RTVSPropertyOp56
 70
     1
102
RTVSPropertyOp57
 70
     1
102
RTVSPropertyOp58
 70
     1
102
RTVSPropertyOp59
 70
     1
102
RTVSPropertyOp60
 70
     1
102
RTVSPropertyOp61
 70
     1
102
RTVSPropertyOp62
 70
     1
  0
XRECORD
  5
33B3
102
{ACAD_REACTORS
330
33B2
102
}
330
33B2
100
AcDbXrecord
280
     1
102
RTVSPost2010Prop28
280
     0
102
RTVSPost2010PropOp28
 70
     1
102
RTVSPost2010Prop29
280
     1
102
RTVSPost2010PropOp29
 70
     1
102
RTVSPost2010Prop30
280
     1
102
RTVSPost2010PropOp30
 70
     1
102
RTVSPost2010Prop31
280
     0
102
RTVSPost2010PropOp31
 70
     1
102
RTVSPost2010Prop32
280
     0
102
RTVSPost2010PropOp32
 70
     1
102
RTVSPost2010Prop33
280
     0
102
RTVSPost2010PropOp33
 70
     1
102
RTVSPost2010Prop34
280
     0
102
RTVSPost2010PropOp34
 70
     1
102
RTVSPost2010Prop35
280
     0
102
RTVSPost2010PropOp35
 70
     1
102
RTVSPost2010Prop36
280
     0
102
RTVSPost2010PropOp36
 70
     1
102
RTVSPost2010Prop37
 90
       50
102
RTVSPost2010PropOp37
 70
     1
102
RTVSPost2010Prop38
140
0.0
102
RTVSPost2010PropOp38
 70
     1
102
RTVSPost2010Prop39
140
1.0
102
RTVSPost2010PropOp39
 70
     1
102
RTVSPost2010Prop40
 90
        0
102
RTVSPost2010PropOp40
 70
     1
102
RTVSPost2010Prop41ColorIndex
 90
       18
102
RTVSPost2010Prop41ColorRGB
 90
        0
102
RTVSPost2010PropOp41
 70
     1
102
RTVSPost2010Prop42
 90
       50
102
RTVSPost2010PropOp42
 70
     1
102
RTVSPost2010Prop43
 90
        3
102
RTVSPost2010PropOp43
 70
     1
102
RTVSPost2010Prop44ColorIndex
 90
        5
102
RTVSPost2010Prop44ColorRGB
 90
      255
102
RTVSPost2010PropOp44
 70
     1
102
RTVSPost2010Prop45
280
     0
102
RTVSPost2010PropOp45
 70
     1
102
RTVSPost2010Prop46
 90
       50
102
RTVSPost2010PropOp46
 70
     1
102
RTVSPost2010Prop47
 90
       50
102
RTVSPost2010PropOp47
 70
     1
102
RTVSPost2010Prop48
 90
       50
102
RTVSPost2010PropOp48
 70
     1
102
RTVSPost2010Prop49
280
     0
102
RTVSPost2010PropOp49
 70
     1
102
RTVSPost2010Prop50
 90
       50
102
RTVSPost2010PropOp50
 70
     1
102
RTVSPost2010Prop51ColorIndex
 90
      256
102
RTVSPost2010Prop51ColorRGB
 90
-16777216
102
RTVSPost2010PropOp51
 70
     0
102
RTVSPost2010Prop52
140
1.0
102
RTVSPost2010PropOp52
 70
     0
102
RTVSPost2010Prop53
 90
        2
102
RTVSPost2010PropOp53
 70
     1
102
RTVSPost2010Prop54
  1
strokes_ogs.tif
102
RTVSPost2010PropOp54
 70
     1
102
RTVSPost2010Prop55
280
     0
102
RTVSPost2010PropOp55
 70
     1
102
RTVSPost2010Prop56
140
1.0
102
RTVSPost2010PropOp56
 70
     1
102
RTVSPost2010Prop57
140
1.0
102
RTVSPost2010PropOp57
 70
     1
102
RTVSPropertyOp0
 70
     1
102
RTVSPropertyOp1
 70
     1
102
RTVSPropertyOp2
 70
     1
102
RTVSPropertyOp3
 70
     1
102
RTVSPropertyOp4
 70
     1
102
RTVSPropertyOp5
 70
     1
102
RTVSPropertyOp6
 70
     1
102
RTVSPropertyOp7
 70
     1
102
RTVSPropertyOp8
 70
     1
102
RTVSPropertyOp9
 70
     1
102
RTVSPropertyOp10
 70
     1
102
RTVSPropertyOp11
 70
     1
102
RTVSPropertyOp12
 70
     1
102
RTVSPropertyOp13
 70
     1
102
RTVSPropertyOp14
 70
     1
102
RTVSPropertyOp15
 70
     1
102
RTVSPropertyOp16
 70
     1
102
RTVSPropertyOp17
 70
     1
102
RTVSPropertyOp18
 70
     1
102
RTVSPropertyOp19
 70
     1
102
RTVSPropertyOp20
 70
     1
102
RTVSPropertyOp21
 70
     1
102
RTVSPropertyOp22
 70
     1
102
RTVSPropertyOp23
 70
     1
102
RTVSPropertyOp24
 70
     1
102
RTVSPropertyOp25
 70
     1
102
RTVSPropertyOp26
 70
     1
102
RTVSPropertyOp27
 70
     1
102
RTVSPropertyOp28
 70
     1
102
RTVSPropertyOp29
 70
     1
102
RTVSPropertyOp30
 70
     1
102
RTVSPropertyOp31
 70
     1
102
RTVSPropertyOp32
 70
     1
102
RTVSPropertyOp33
 70
     1
102
RTVSPropertyOp34
 70
     1
102
RTVSPropertyOp35
 70
     1
102
RTVSPropertyOp36
 70
     1
102
RTVSPropertyOp37
 70
     1
102
RTVSPropertyOp38
 70
     1
102
RTVSPropertyOp39
 70
     1
102
RTVSPropertyOp40
 70
     1
102
RTVSPropertyOp41
 70
     1
102
RTVSPropertyOp42
 70
     1
102
RTVSPropertyOp43
 70
     1
102
RTVSPropertyOp44
 70
     1
102
RTVSPropertyOp45
 70
     1
102
RTVSPropertyOp46
 70
     1
102
RTVSPropertyOp47
 70
     1
102
RTVSPropertyOp48
 70
     1
102
RTVSPropertyOp49
 70
     1
102
RTVSPropertyOp50
 70
     1
102
RTVSPropertyOp51
 70
     0
102
RTVSPropertyOp52
 70
     0
102
RTVSPropertyOp53
 70
     1
102
RTVSPropertyOp54
 70
     1
102
RTVSPropertyOp55
 70
     1
102
RTVSPropertyOp56
 70
     1
102
RTVSPropertyOp57
 70
     1
102
RTVSPropertyOp58
 70
     1
102
RTVSPropertyOp59
 70
     1
102
RTVSPropertyOp60
 70
     1
102
RTVSPropertyOp61
 70
     1
102
RTVSPropertyOp62
 70
     1
  0
XRECORD
  5
33B5
102
{ACAD_REACTORS
330
33B4
102
}
330
33B4
100
AcDbXrecord
280
     1
102
RTVSPost2010Prop28
280
     0
102
RTVSPost2010PropOp28
 70
     1
102
RTVSPost2010Prop29
280
     1
102
RTVSPost2010PropOp29
 70
     1
102
RTVSPost2010Prop30
280
     1
102
RTVSPost2010PropOp30
 70
     1
102
RTVSPost2010Prop31
280
     0
102
RTVSPost2010PropOp31
 70
     1
102
RTVSPost2010Prop32
280
     0
102
RTVSPost2010PropOp32
 70
     1
102
RTVSPost2010Prop33
280
     0
102
RTVSPost2010PropOp33
 70
     1
102
RTVSPost2010Prop34
280
     0
102
RTVSPost2010PropOp34
 70
     1
102
RTVSPost2010Prop35
280
     0
102
RTVSPost2010PropOp35
 70
     1
102
RTVSPost2010Prop36
280
     0
102
RTVSPost2010PropOp36
 70
     1
102
RTVSPost2010Prop37
 90
       50
102
RTVSPost2010PropOp37
 70
     1
102
RTVSPost2010Prop38
140
0.0
102
RTVSPost2010PropOp38
 70
     1
102
RTVSPost2010Prop39
140
1.0
102
RTVSPost2010PropOp39
 70
     1
102
RTVSPost2010Prop40
 90
        0
102
RTVSPost2010PropOp40
 70
     1
102
RTVSPost2010Prop41ColorIndex
 90
       18
102
RTVSPost2010Prop41ColorRGB
 90
        0
102
RTVSPost2010PropOp41
 70
     1
102
RTVSPost2010Prop42
 90
       50
102
RTVSPost2010PropOp42
 70
     1
102
RTVSPost2010Prop43
 90
        3
102
RTVSPost2010PropOp43
 70
     1
102
RTVSPost2010Prop44ColorIndex
 90
        5
102
RTVSPost2010Prop44ColorRGB
 90
      255
102
RTVSPost2010PropOp44
 70
     1
102
RTVSPost2010Prop45
280
     0
102
RTVSPost2010PropOp45
 70
     1
102
RTVSPost2010Prop46
 90
       50
102
RTVSPost2010PropOp46
 70
     1
102
RTVSPost2010Prop47
 90
       50
102
RTVSPost2010PropOp47
 70
     1
102
RTVSPost2010Prop48
 90
       50
102
RTVSPost2010PropOp48
 70
     1
102
RTVSPost2010Prop49
280
     0
102
RTVSPost2010PropOp49
 70
     1
102
RTVSPost2010Prop50
 90
       50
102
RTVSPost2010PropOp50
 70
     1
102
RTVSPost2010Prop51ColorIndex
 90
      256
102
RTVSPost2010Prop51ColorRGB
 90
-16777216
102
RTVSPost2010PropOp51
 70
     0
102
RTVSPost2010Prop52
140
1.0
102
RTVSPost2010PropOp52
 70
     0
102
RTVSPost2010Prop53
 90
        2
102
RTVSPost2010PropOp53
 70
     1
102
RTVSPost2010Prop54
  1
strokes_ogs.tif
102
RTVSPost2010PropOp54
 70
     1
102
RTVSPost2010Prop55
280
     0
102
RTVSPost2010PropOp55
 70
     1
102
RTVSPost2010Prop56
140
1.0
102
RTVSPost2010PropOp56
 70
     1
102
RTVSPost2010Prop57
140
1.0
102
RTVSPost2010PropOp57
 70
     1
102
RTVSPropertyOp0
 70
     1
102
RTVSPropertyOp1
 70
     1
102
RTVSPropertyOp2
 70
     1
102
RTVSPropertyOp3
 70
     1
102
RTVSPropertyOp4
 70
     1
102
RTVSPropertyOp5
 70
     1
102
RTVSPropertyOp6
 70
     1
102
RTVSPropertyOp7
 70
     1
102
RTVSPropertyOp8
 70
     1
102
RTVSPropertyOp9
 70
     1
102
RTVSPropertyOp10
 70
     1
102
RTVSPropertyOp11
 70
     1
102
RTVSPropertyOp12
 70
     1
102
RTVSPropertyOp13
 70
     1
102
RTVSPropertyOp14
 70
     1
102
RTVSPropertyOp15
 70
     1
102
RTVSPropertyOp16
 70
     1
102
RTVSPropertyOp17
 70
     1
102
RTVSPropertyOp18
 70
     1
102
RTVSPropertyOp19
 70
     1
102
RTVSPropertyOp20
 70
     1
102
RTVSPropertyOp21
 70
     1
102
RTVSPropertyOp22
 70
     1
102
RTVSPropertyOp23
 70
     1
102
RTVSPropertyOp24
 70
     1
102
RTVSPropertyOp25
 70
     1
102
RTVSPropertyOp26
 70
     1
102
RTVSPropertyOp27
 70
     1
102
RTVSPropertyOp28
 70
     1
102
RTVSPropertyOp29
 70
     1
102
RTVSPropertyOp30
 70
     1
102
RTVSPropertyOp31
 70
     1
102
RTVSPropertyOp32
 70
     1
102
RTVSPropertyOp33
 70
     1
102
RTVSPropertyOp34
 70
     1
102
RTVSPropertyOp35
 70
     1
102
RTVSPropertyOp36
 70
     1
102
RTVSPropertyOp37
 70
     1
102
RTVSPropertyOp38
 70
     1
102
RTVSPropertyOp39
 70
     1
102
RTVSPropertyOp40
 70
     1
102
RTVSPropertyOp41
 70
     1
102
RTVSPropertyOp42
 70
     1
102
RTVSPropertyOp43
 70
     1
102
RTVSPropertyOp44
 70
     1
102
RTVSPropertyOp45
 70
     1
102
RTVSPropertyOp46
 70
     1
102
RTVSPropertyOp47
 70
     1
102
RTVSPropertyOp48
 70
     1
102
RTVSPropertyOp49
 70
     1
102
RTVSPropertyOp50
 70
     1
102
RTVSPropertyOp51
 70
     0
102
RTVSPropertyOp52
 70
     0
102
RTVSPropertyOp53
 70
     1
102
RTVSPropertyOp54
 70
     1
102
RTVSPropertyOp55
 70
     1
102
RTVSPropertyOp56
 70
     1
102
RTVSPropertyOp57
 70
     1
102
RTVSPropertyOp58
 70
     1
102
RTVSPropertyOp59
 70
     1
102
RTVSPropertyOp60
 70
     1
102
RTVSPropertyOp61
 70
     1
102
RTVSPropertyOp62
 70
     1
  0
XRECORD
  5
33B7
102
{ACAD_REACTORS
330
33B6
102
}
330
33B6
100
AcDbXrecord
280
     1
102
RTVSPost2010Prop28
280
     0
102
RTVSPost2010PropOp28
 70
     1
102
RTVSPost2010Prop29
280
     1
102
RTVSPost2010PropOp29
 70
     1
102
RTVSPost2010Prop30
280
     1
102
RTVSPost2010PropOp30
 70
     1
102
RTVSPost2010Prop31
280
     0
102
RTVSPost2010PropOp31
 70
     1
102
RTVSPost2010Prop32
280
     0
102
RTVSPost2010PropOp32
 70
     1
102
RTVSPost2010Prop33
280
     0
102
RTVSPost2010PropOp33
 70
     1
102
RTVSPost2010Prop34
280
     0
102
RTVSPost2010PropOp34
 70
     1
102
RTVSPost2010Prop35
280
     0
102
RTVSPost2010PropOp35
 70
     1
102
RTVSPost2010Prop36
280
     0
102
RTVSPost2010PropOp36
 70
     1
102
RTVSPost2010Prop37
 90
       50
102
RTVSPost2010PropOp37
 70
     1
102
RTVSPost2010Prop38
140
0.0
102
RTVSPost2010PropOp38
 70
     1
102
RTVSPost2010Prop39
140
1.0
102
RTVSPost2010PropOp39
 70
     1
102
RTVSPost2010Prop40
 90
        0
102
RTVSPost2010PropOp40
 70
     1
102
RTVSPost2010Prop41ColorIndex
 90
       18
102
RTVSPost2010Prop41ColorRGB
 90
        0
102
RTVSPost2010PropOp41
 70
     1
102
RTVSPost2010Prop42
 90
       50
102
RTVSPost2010PropOp42
 70
     1
102
RTVSPost2010Prop43
 90
        3
102
RTVSPost2010PropOp43
 70
     1
102
RTVSPost2010Prop44ColorIndex
 90
        5
102
RTVSPost2010Prop44ColorRGB
 90
      255
102
RTVSPost2010PropOp44
 70
     1
102
RTVSPost2010Prop45
280
     0
102
RTVSPost2010PropOp45
 70
     1
102
RTVSPost2010Prop46
 90
       50
102
RTVSPost2010PropOp46
 70
     1
102
RTVSPost2010Prop47
 90
       50
102
RTVSPost2010PropOp47
 70
     1
102
RTVSPost2010Prop48
 90
       50
102
RTVSPost2010PropOp48
 70
     1
102
RTVSPost2010Prop49
280
     0
102
RTVSPost2010PropOp49
 70
     1
102
RTVSPost2010Prop50
 90
       50
102
RTVSPost2010PropOp50
 70
     1
102
RTVSPost2010Prop51ColorIndex
 90
      256
102
RTVSPost2010Prop51ColorRGB
 90
-16777216
102
RTVSPost2010PropOp51
 70
     0
102
RTVSPost2010Prop52
140
1.0
102
RTVSPost2010PropOp52
 70
     0
102
RTVSPost2010Prop53
 90
        2
102
RTVSPost2010PropOp53
 70
     1
102
RTVSPost2010Prop54
  1
strokes_ogs.tif
102
RTVSPost2010PropOp54
 70
     1
102
RTVSPost2010Prop55
280
     0
102
RTVSPost2010PropOp55
 70
     1
102
RTVSPost2010Prop56
140
1.0
102
RTVSPost2010PropOp56
 70
     1
102
RTVSPost2010Prop57
140
1.0
102
RTVSPost2010PropOp57
 70
     1
102
RTVSPropertyOp0
 70
     1
102
RTVSPropertyOp1
 70
     1
102
RTVSPropertyOp2
 70
     1
102
RTVSPropertyOp3
 70
     1
102
RTVSPropertyOp4
 70
     1
102
RTVSPropertyOp5
 70
     1
102
RTVSPropertyOp6
 70
     1
102
RTVSPropertyOp7
 70
     1
102
RTVSPropertyOp8
 70
     1
102
RTVSPropertyOp9
 70
     1
102
RTVSPropertyOp10
 70
     1
102
RTVSPropertyOp11
 70
     1
102
RTVSPropertyOp12
 70
     1
102
RTVSPropertyOp13
 70
     1
102
RTVSPropertyOp14
 70
     1
102
RTVSPropertyOp15
 70
     1
102
RTVSPropertyOp16
 70
     1
102
RTVSPropertyOp17
 70
     1
102
RTVSPropertyOp18
 70
     1
102
RTVSPropertyOp19
 70
     1
102
RTVSPropertyOp20
 70
     1
102
RTVSPropertyOp21
 70
     1
102
RTVSPropertyOp22
 70
     1
102
RTVSPropertyOp23
 70
     1
102
RTVSPropertyOp24
 70
     1
102
RTVSPropertyOp25
 70
     1
102
RTVSPropertyOp26
 70
     1
102
RTVSPropertyOp27
 70
     1
102
RTVSPropertyOp28
 70
     1
102
RTVSPropertyOp29
 70
     1
102
RTVSPropertyOp30
 70
     1
102
RTVSPropertyOp31
 70
     1
102
RTVSPropertyOp32
 70
     1
102
RTVSPropertyOp33
 70
     1
102
RTVSPropertyOp34
 70
     1
102
RTVSPropertyOp35
 70
     1
102
RTVSPropertyOp36
 70
     1
102
RTVSPropertyOp37
 70
     1
102
RTVSPropertyOp38
 70
     1
102
RTVSPropertyOp39
 70
     1
102
RTVSPropertyOp40
 70
     1
102
RTVSPropertyOp41
 70
     1
102
RTVSPropertyOp42
 70
     1
102
RTVSPropertyOp43
 70
     1
102
RTVSPropertyOp44
 70
     1
102
RTVSPropertyOp45
 70
     1
102
RTVSPropertyOp46
 70
     1
102
RTVSPropertyOp47
 70
     1
102
RTVSPropertyOp48
 70
     1
102
RTVSPropertyOp49
 70
     1
102
RTVSPropertyOp50
 70
     1
102
RTVSPropertyOp51
 70
     0
102
RTVSPropertyOp52
 70
     0
102
RTVSPropertyOp53
 70
     1
102
RTVSPropertyOp54
 70
     1
102
RTVSPropertyOp55
 70
     1
102
RTVSPropertyOp56
 70
     1
102
RTVSPropertyOp57
 70
     1
102
RTVSPropertyOp58
 70
     1
102
RTVSPropertyOp59
 70
     1
102
RTVSPropertyOp60
 70
     1
102
RTVSPropertyOp61
 70
     1
102
RTVSPropertyOp62
 70
     1
  0
XRECORD
  5
33FA
102
{ACAD_REACTORS
330
33F9
102
}
330
33F9
100
AcDbXrecord
280
     1
102
RTVSPost2010Prop28
280
     0
102
RTVSPost2010PropOp28
 70
     1
102
RTVSPost2010Prop29
280
     1
102
RTVSPost2010PropOp29
 70
     1
102
RTVSPost2010Prop30
280
     1
102
RTVSPost2010PropOp30
 70
     1
102
RTVSPost2010Prop31
280
     0
102
RTVSPost2010PropOp31
 70
     1
102
RTVSPost2010Prop32
280
     0
102
RTVSPost2010PropOp32
 70
     1
102
RTVSPost2010Prop33
280
     0
102
RTVSPost2010PropOp33
 70
     1
102
RTVSPost2010Prop34
280
     0
102
RTVSPost2010PropOp34
 70
     1
102
RTVSPost2010Prop35
280
     0
102
RTVSPost2010PropOp35
 70
     1
102
RTVSPost2010Prop36
280
     0
102
RTVSPost2010PropOp36
 70
     1
102
RTVSPost2010Prop37
 90
       50
102
RTVSPost2010PropOp37
 70
     1
102
RTVSPost2010Prop38
140
0.0
102
RTVSPost2010PropOp38
 70
     1
102
RTVSPost2010Prop39
140
1.0
102
RTVSPost2010PropOp39
 70
     1
102
RTVSPost2010Prop40
 90
        0
102
RTVSPost2010PropOp40
 70
     1
102
RTVSPost2010Prop41ColorIndex
 90
       18
102
RTVSPost2010Prop41ColorRGB
 90
        0
102
RTVSPost2010PropOp41
 70
     1
102
RTVSPost2010Prop42
 90
       50
102
RTVSPost2010PropOp42
 70
     1
102
RTVSPost2010Prop43
 90
        3
102
RTVSPost2010PropOp43
 70
     1
102
RTVSPost2010Prop44ColorIndex
 90
        5
102
RTVSPost2010Prop44ColorRGB
 90
      255
102
RTVSPost2010PropOp44
 70
     1
102
RTVSPost2010Prop45
280
     0
102
RTVSPost2010PropOp45
 70
     1
102
RTVSPost2010Prop46
 90
       50
102
RTVSPost2010PropOp46
 70
     1
102
RTVSPost2010Prop47
 90
       50
102
RTVSPost2010PropOp47
 70
     1
102
RTVSPost2010Prop48
 90
       50
102
RTVSPost2010PropOp48
 70
     1
102
RTVSPost2010Prop49
280
     0
102
RTVSPost2010PropOp49
 70
     1
102
RTVSPost2010Prop50
 90
       50
102
RTVSPost2010PropOp50
 70
     1
102
RTVSPost2010Prop51ColorIndex
 90
      256
102
RTVSPost2010Prop51ColorRGB
 90
-16777216
102
RTVSPost2010PropOp51
 70
     0
102
RTVSPost2010Prop52
140
1.0
102
RTVSPost2010PropOp52
 70
     0
102
RTVSPost2010Prop53
 90
        2
102
RTVSPost2010PropOp53
 70
     1
102
RTVSPost2010Prop54
  1
strokes_ogs.tif
102
RTVSPost2010PropOp54
 70
     1
102
RTVSPost2010Prop55
280
     0
102
RTVSPost2010PropOp55
 70
     1
102
RTVSPost2010Prop56
140
1.0
102
RTVSPost2010PropOp56
 70
     1
102
RTVSPost2010Prop57
140
1.0
102
RTVSPost2010PropOp57
 70
     1
102
RTVSPropertyOp0
 70
     1
102
RTVSPropertyOp1
 70
     1
102
RTVSPropertyOp2
 70
     1
102
RTVSPropertyOp3
 70
     1
102
RTVSPropertyOp4
 70
     1
102
RTVSPropertyOp5
 70
     1
102
RTVSPropertyOp6
 70
     1
102
RTVSPropertyOp7
 70
     1
102
RTVSPropertyOp8
 70
     1
102
RTVSPropertyOp9
 70
     1
102
RTVSPropertyOp10
 70
     1
102
RTVSPropertyOp11
 70
     1
102
RTVSPropertyOp12
 70
     1
102
RTVSPropertyOp13
 70
     1
102
RTVSPropertyOp14
 70
     1
102
RTVSPropertyOp15
 70
     1
102
RTVSPropertyOp16
 70
     1
102
RTVSPropertyOp17
 70
     1
102
RTVSPropertyOp18
 70
     1
102
RTVSPropertyOp19
 70
     1
102
RTVSPropertyOp20
 70
     1
102
RTVSPropertyOp21
 70
     1
102
RTVSPropertyOp22
 70
     1
102
RTVSPropertyOp23
 70
     1
102
RTVSPropertyOp24
 70
     1
102
RTVSPropertyOp25
 70
     1
102
RTVSPropertyOp26
 70
     1
102
RTVSPropertyOp27
 70
     1
102
RTVSPropertyOp28
 70
     1
102
RTVSPropertyOp29
 70
     1
102
RTVSPropertyOp30
 70
     1
102
RTVSPropertyOp31
 70
     1
102
RTVSPropertyOp32
 70
     1
102
RTVSPropertyOp33
 70
     1
102
RTVSPropertyOp34
 70
     1
102
RTVSPropertyOp35
 70
     1
102
RTVSPropertyOp36
 70
     1
102
RTVSPropertyOp37
 70
     1
102
RTVSPropertyOp38
 70
     1
102
RTVSPropertyOp39
 70
     1
102
RTVSPropertyOp40
 70
     1
102
RTVSPropertyOp41
 70
     1
102
RTVSPropertyOp42
 70
     1
102
RTVSPropertyOp43
 70
     1
102
RTVSPropertyOp44
 70
     1
102
RTVSPropertyOp45
 70
     1
102
RTVSPropertyOp46
 70
     1
102
RTVSPropertyOp47
 70
     1
102
RTVSPropertyOp48
 70
     1
102
RTVSPropertyOp49
 70
     1
102
RTVSPropertyOp50
 70
     1
102
RTVSPropertyOp51
 70
     0
102
RTVSPropertyOp52
 70
     0
102
RTVSPropertyOp53
 70
     1
102
RTVSPropertyOp54
 70
     1
102
RTVSPropertyOp55
 70
     1
102
RTVSPropertyOp56
 70
     1
102
RTVSPropertyOp57
 70
     1
102
RTVSPropertyOp58
 70
     1
102
RTVSPropertyOp59
 70
     1
102
RTVSPropertyOp60
 70
     1
102
RTVSPropertyOp61
 70
     1
102
RTVSPropertyOp62
 70
     1
  0
XRECORD
  5
33D1
102
{ACAD_REACTORS
330
33D0
102
}
330
33D0
100
AcDbXrecord
280
     1
102
RTVSPost2010Prop28
280
     0
102
RTVSPost2010PropOp28
 70
     1
102
RTVSPost2010Prop29
280
     1
102
RTVSPost2010PropOp29
 70
     1
102
RTVSPost2010Prop30
280
     1
102
RTVSPost2010PropOp30
 70
     1
102
RTVSPost2010Prop31
280
     0
102
RTVSPost2010PropOp31
 70
     1
102
RTVSPost2010Prop32
280
     0
102
RTVSPost2010PropOp32
 70
     1
102
RTVSPost2010Prop33
280
     0
102
RTVSPost2010PropOp33
 70
     1
102
RTVSPost2010Prop34
280
     0
102
RTVSPost2010PropOp34
 70
     1
102
RTVSPost2010Prop35
280
     0
102
RTVSPost2010PropOp35
 70
     1
102
RTVSPost2010Prop36
280
     0
102
RTVSPost2010PropOp36
 70
     1
102
RTVSPost2010Prop37
 90
       50
102
RTVSPost2010PropOp37
 70
     1
102
RTVSPost2010Prop38
140
0.0
102
RTVSPost2010PropOp38
 70
     1
102
RTVSPost2010Prop39
140
1.0
102
RTVSPost2010PropOp39
 70
     1
102
RTVSPost2010Prop40
 90
        0
102
RTVSPost2010PropOp40
 70
     1
102
RTVSPost2010Prop41ColorIndex
 90
       18
102
RTVSPost2010Prop41ColorRGB
 90
        0
102
RTVSPost2010PropOp41
 70
     1
102
RTVSPost2010Prop42
 90
       50
102
RTVSPost2010PropOp42
 70
     1
102
RTVSPost2010Prop43
 90
        3
102
RTVSPost2010PropOp43
 70
     1
102
RTVSPost2010Prop44ColorIndex
 90
        5
102
RTVSPost2010Prop44ColorRGB
 90
      255
102
RTVSPost2010PropOp44
 70
     1
102
RTVSPost2010Prop45
280
     0
102
RTVSPost2010PropOp45
 70
     1
102
RTVSPost2010Prop46
 90
       50
102
RTVSPost2010PropOp46
 70
     1
102
RTVSPost2010Prop47
 90
       50
102
RTVSPost2010PropOp47
 70
     1
102
RTVSPost2010Prop48
 90
       50
102
RTVSPost2010PropOp48
 70
     1
102
RTVSPost2010Prop49
280
     0
102
RTVSPost2010PropOp49
 70
     1
102
RTVSPost2010Prop50
 90
       50
102
RTVSPost2010PropOp50
 70
     1
102
RTVSPost2010Prop51ColorIndex
 90
      256
102
RTVSPost2010Prop51ColorRGB
 90
-16777216
102
RTVSPost2010PropOp51
 70
     0
102
RTVSPost2010Prop52
140
1.0
102
RTVSPost2010PropOp52
 70
     0
102
RTVSPost2010Prop53
 90
        2
102
RTVSPost2010PropOp53
 70
     1
102
RTVSPost2010Prop54
  1
strokes_ogs.tif
102
RTVSPost2010PropOp54
 70
     1
102
RTVSPost2010Prop55
280
     0
102
RTVSPost2010PropOp55
 70
     1
102
RTVSPost2010Prop56
140
1.0
102
RTVSPost2010PropOp56
 70
     1
102
RTVSPost2010Prop57
140
1.0
102
RTVSPost2010PropOp57
 70
     1
102
RTVSPropertyOp0
 70
     0
102
RTVSPropertyOp1
 70
     0
102
RTVSPropertyOp2
 70
     0
102
RTVSPropertyOp3
 70
     0
102
RTVSPropertyOp4
 70
     0
102
RTVSPropertyOp5
 70
     0
102
RTVSPropertyOp6
 70
     0
102
RTVSPropertyOp7
 70
     0
102
RTVSPropertyOp8
 70
     0
102
RTVSPropertyOp9
 70
     0
102
RTVSPropertyOp10
 70
     0
102
RTVSPropertyOp11
 70
     0
102
RTVSPropertyOp12
 70
     0
102
RTVSPropertyOp13
 70
     0
102
RTVSPropertyOp14
 70
     2
102
RTVSPropertyOp15
 70
     0
102
RTVSPropertyOp16
 70
     0
102
RTVSPropertyOp17
 70
     0
102
RTVSPropertyOp18
 70
     0
102
RTVSPropertyOp19
 70
     0
102
RTVSPropertyOp20
 70
     0
102
RTVSPropertyOp21
 70
     0
102
RTVSPropertyOp22
 70
     0
102
RTVSPropertyOp23
 70
     0
102
RTVSPropertyOp24
 70
     0
102
RTVSPropertyOp25
 70
     0
102
RTVSPropertyOp26
 70
     0
102
RTVSPropertyOp27
 70
     0
102
RTVSPropertyOp28
 70
     1
102
RTVSPropertyOp29
 70
     1
102
RTVSPropertyOp30
 70
     1
102
RTVSPropertyOp31
 70
     1
102
RTVSPropertyOp32
 70
     1
102
RTVSPropertyOp33
 70
     1
102
RTVSPropertyOp34
 70
     1
102
RTVSPropertyOp35
 70
     1
102
RTVSPropertyOp36
 70
     1
102
RTVSPropertyOp37
 70
     1
102
RTVSPropertyOp38
 70
     1
102
RTVSPropertyOp39
 70
     1
102
RTVSPropertyOp40
 70
     1
102
RTVSPropertyOp41
 70
     1
102
RTVSPropertyOp42
 70
     1
102
RTVSPropertyOp43
 70
     1
102
RTVSPropertyOp44
 70
     1
102
RTVSPropertyOp45
 70
     1
102
RTVSPropertyOp46
 70
     1
102
RTVSPropertyOp47
 70
     1
102
RTVSPropertyOp48
 70
     1
102
RTVSPropertyOp49
 70
     1
102
RTVSPropertyOp50
 70
     1
102
RTVSPropertyOp51
 70
     0
102
RTVSPropertyOp52
 70
     0
102
RTVSPropertyOp53
 70
     1
102
RTVSPropertyOp54
 70
     1
102
RTVSPropertyOp55
 70
     1
102
RTVSPropertyOp56
 70
     1
102
RTVSPropertyOp57
 70
     1
102
RTVSPropertyOp58
 70
     1
102
RTVSPropertyOp59
 70
     1
102
RTVSPropertyOp60
 70
     1
102
RTVSPropertyOp61
 70
     1
102
RTVSPropertyOp62
 70
     1
  0
XRECORD
  5
33CB
102
{ACAD_REACTORS
330
33CA
102
}
330
33CA
100
AcDbXrecord
280
     1
102
RTVSPost2010Prop28
280
     0
102
RTVSPost2010PropOp28
 70
     1
102
RTVSPost2010Prop29
280
     1
102
RTVSPost2010PropOp29
 70
     1
102
RTVSPost2010Prop30
280
     1
102
RTVSPost2010PropOp30
 70
     1
102
RTVSPost2010Prop31
280
     0
102
RTVSPost2010PropOp31
 70
     1
102
RTVSPost2010Prop32
280
     0
102
RTVSPost2010PropOp32
 70
     1
102
RTVSPost2010Prop33
280
     0
102
RTVSPost2010PropOp33
 70
     1
102
RTVSPost2010Prop34
280
     0
102
RTVSPost2010PropOp34
 70
     1
102
RTVSPost2010Prop35
280
     0
102
RTVSPost2010PropOp35
 70
     1
102
RTVSPost2010Prop36
280
     0
102
RTVSPost2010PropOp36
 70
     1
102
RTVSPost2010Prop37
 90
       50
102
RTVSPost2010PropOp37
 70
     1
102
RTVSPost2010Prop38
140
0.0
102
RTVSPost2010PropOp38
 70
     1
102
RTVSPost2010Prop39
140
1.0
102
RTVSPost2010PropOp39
 70
     1
102
RTVSPost2010Prop40
 90
        0
102
RTVSPost2010PropOp40
 70
     1
102
RTVSPost2010Prop41ColorIndex
 90
       18
102
RTVSPost2010Prop41ColorRGB
 90
        0
102
RTVSPost2010PropOp41
 70
     1
102
RTVSPost2010Prop42
 90
       50
102
RTVSPost2010PropOp42
 70
     1
102
RTVSPost2010Prop43
 90
        3
102
RTVSPost2010PropOp43
 70
     1
102
RTVSPost2010Prop44ColorIndex
 90
        5
102
RTVSPost2010Prop44ColorRGB
 90
      255
102
RTVSPost2010PropOp44
 70
     1
102
RTVSPost2010Prop45
280
     0
102
RTVSPost2010PropOp45
 70
     1
102
RTVSPost2010Prop46
 90
       50
102
RTVSPost2010PropOp46
 70
     1
102
RTVSPost2010Prop47
 90
       50
102
RTVSPost2010PropOp47
 70
     1
102
RTVSPost2010Prop48
 90
       50
102
RTVSPost2010PropOp48
 70
     1
102
RTVSPost2010Prop49
280
     0
102
RTVSPost2010PropOp49
 70
     1
102
RTVSPost2010Prop50
 90
       50
102
RTVSPost2010PropOp50
 70
     1
102
RTVSPost2010Prop51ColorIndex
 90
      256
102
RTVSPost2010Prop51ColorRGB
 90
-16777216
102
RTVSPost2010PropOp51
 70
     0
102
RTVSPost2010Prop52
140
1.0
102
RTVSPost2010PropOp52
 70
     0
102
RTVSPost2010Prop53
 90
        2
102
RTVSPost2010PropOp53
 70
     1
102
RTVSPost2010Prop54
  1
strokes_ogs.tif
102
RTVSPost2010PropOp54
 70
     1
102
RTVSPost2010Prop55
280
     0
102
RTVSPost2010PropOp55
 70
     1
102
RTVSPost2010Prop56
140
1.0
102
RTVSPost2010PropOp56
 70
     1
102
RTVSPost2010Prop57
140
1.0
102
RTVSPost2010PropOp57
 70
     1
102
RTVSPropertyOp0
 70
     1
102
RTVSPropertyOp1
 70
     1
102
RTVSPropertyOp2
 70
     1
102
RTVSPropertyOp3
 70
     1
102
RTVSPropertyOp4
 70
     1
102
RTVSPropertyOp5
 70
     1
102
RTVSPropertyOp6
 70
     1
102
RTVSPropertyOp7
 70
     1
102
RTVSPropertyOp8
 70
     1
102
RTVSPropertyOp9
 70
     1
102
RTVSPropertyOp10
 70
     1
102
RTVSPropertyOp11
 70
     1
102
RTVSPropertyOp12
 70
     1
102
RTVSPropertyOp13
 70
     1
102
RTVSPropertyOp14
 70
     1
102
RTVSPropertyOp15
 70
     1
102
RTVSPropertyOp16
 70
     1
102
RTVSPropertyOp17
 70
     1
102
RTVSPropertyOp18
 70
     1
102
RTVSPropertyOp19
 70
     1
102
RTVSPropertyOp20
 70
     1
102
RTVSPropertyOp21
 70
     1
102
RTVSPropertyOp22
 70
     1
102
RTVSPropertyOp23
 70
     1
102
RTVSPropertyOp24
 70
     1
102
RTVSPropertyOp25
 70
     1
102
RTVSPropertyOp26
 70
     1
102
RTVSPropertyOp27
 70
     1
102
RTVSPropertyOp28
 70
     1
102
RTVSPropertyOp29
 70
     1
102
RTVSPropertyOp30
 70
     1
102
RTVSPropertyOp31
 70
     1
102
RTVSPropertyOp32
 70
     1
102
RTVSPropertyOp33
 70
     1
102
RTVSPropertyOp34
 70
     1
102
RTVSPropertyOp35
 70
     1
102
RTVSPropertyOp36
 70
     1
102
RTVSPropertyOp37
 70
     1
102
RTVSPropertyOp38
 70
     1
102
RTVSPropertyOp39
 70
     1
102
RTVSPropertyOp40
 70
     1
102
RTVSPropertyOp41
 70
     1
102
RTVSPropertyOp42
 70
     1
102
RTVSPropertyOp43
 70
     1
102
RTVSPropertyOp44
 70
     1
102
RTVSPropertyOp45
 70
     1
102
RTVSPropertyOp46
 70
     1
102
RTVSPropertyOp47
 70
     1
102
RTVSPropertyOp48
 70
     1
102
RTVSPropertyOp49
 70
     1
102
RTVSPropertyOp50
 70
     1
102
RTVSPropertyOp51
 70
     0
102
RTVSPropertyOp52
 70
     0
102
RTVSPropertyOp53
 70
     1
102
RTVSPropertyOp54
 70
     1
102
RTVSPropertyOp55
 70
     1
102
RTVSPropertyOp56
 70
     1
102
RTVSPropertyOp57
 70
     1
102
RTVSPropertyOp58
 70
     1
102
RTVSPropertyOp59
 70
     1
102
RTVSPropertyOp60
 70
     1
102
RTVSPropertyOp61
 70
     1
102
RTVSPropertyOp62
 70
     1
  0
XRECORD
  5
33D3
102
{ACAD_REACTORS
330
33D2
102
}
330
33D2
100
AcDbXrecord
280
     1
102
RTVSPost2010Prop28
280
     0
102
RTVSPost2010PropOp28
 70
     1
102
RTVSPost2010Prop29
280
     1
102
RTVSPost2010PropOp29
 70
     1
102
RTVSPost2010Prop30
280
     1
102
RTVSPost2010PropOp30
 70
     1
102
RTVSPost2010Prop31
280
     0
102
RTVSPost2010PropOp31
 70
     1
102
RTVSPost2010Prop32
280
     0
102
RTVSPost2010PropOp32
 70
     1
102
RTVSPost2010Prop33
280
     0
102
RTVSPost2010PropOp33
 70
     1
102
RTVSPost2010Prop34
280
     0
102
RTVSPost2010PropOp34
 70
     1
102
RTVSPost2010Prop35
280
     0
102
RTVSPost2010PropOp35
 70
     1
102
RTVSPost2010Prop36
280
     0
102
RTVSPost2010PropOp36
 70
     1
102
RTVSPost2010Prop37
 90
       50
102
RTVSPost2010PropOp37
 70
     1
102
RTVSPost2010Prop38
140
0.0
102
RTVSPost2010PropOp38
 70
     1
102
RTVSPost2010Prop39
140
1.0
102
RTVSPost2010PropOp39
 70
     1
102
RTVSPost2010Prop40
 90
        0
102
RTVSPost2010PropOp40
 70
     1
102
RTVSPost2010Prop41ColorIndex
 90
       18
102
RTVSPost2010Prop41ColorRGB
 90
        0
102
RTVSPost2010PropOp41
 70
     1
102
RTVSPost2010Prop42
 90
       50
102
RTVSPost2010PropOp42
 70
     1
102
RTVSPost2010Prop43
 90
        3
102
RTVSPost2010PropOp43
 70
     1
102
RTVSPost2010Prop44ColorIndex
 90
        5
102
RTVSPost2010Prop44ColorRGB
 90
      255
102
RTVSPost2010PropOp44
 70
     1
102
RTVSPost2010Prop45
280
     0
102
RTVSPost2010PropOp45
 70
     1
102
RTVSPost2010Prop46
 90
       50
102
RTVSPost2010PropOp46
 70
     1
102
RTVSPost2010Prop47
 90
       50
102
RTVSPost2010PropOp47
 70
     1
102
RTVSPost2010Prop48
 90
       50
102
RTVSPost2010PropOp48
 70
     1
102
RTVSPost2010Prop49
280
     0
102
RTVSPost2010PropOp49
 70
     1
102
RTVSPost2010Prop50
 90
       50
102
RTVSPost2010PropOp50
 70
     1
102
RTVSPost2010Prop51ColorIndex
 90
      256
102
RTVSPost2010Prop51ColorRGB
 90
-16777216
102
RTVSPost2010PropOp51
 70
     0
102
RTVSPost2010Prop52
140
1.0
102
RTVSPost2010PropOp52
 70
     0
102
RTVSPost2010Prop53
 90
        2
102
RTVSPost2010PropOp53
 70
     1
102
RTVSPost2010Prop54
  1
strokes_ogs.tif
102
RTVSPost2010PropOp54
 70
     1
102
RTVSPost2010Prop55
280
     0
102
RTVSPost2010PropOp55
 70
     1
102
RTVSPost2010Prop56
140
1.0
102
RTVSPost2010PropOp56
 70
     1
102
RTVSPost2010Prop57
140
1.0
102
RTVSPost2010PropOp57
 70
     1
102
RTVSPropertyOp0
 70
     0
102
RTVSPropertyOp1
 70
     0
102
RTVSPropertyOp2
 70
     0
102
RTVSPropertyOp3
 70
     0
102
RTVSPropertyOp4
 70
     0
102
RTVSPropertyOp5
 70
     0
102
RTVSPropertyOp6
 70
     0
102
RTVSPropertyOp7
 70
     0
102
RTVSPropertyOp8
 70
     0
102
RTVSPropertyOp9
 70
     0
102
RTVSPropertyOp10
 70
     0
102
RTVSPropertyOp11
 70
     0
102
RTVSPropertyOp12
 70
     0
102
RTVSPropertyOp13
 70
     0
102
RTVSPropertyOp14
 70
     2
102
RTVSPropertyOp15
 70
     0
102
RTVSPropertyOp16
 70
     0
102
RTVSPropertyOp17
 70
     0
102
RTVSPropertyOp18
 70
     0
102
RTVSPropertyOp19
 70
     0
102
RTVSPropertyOp20
 70
     0
102
RTVSPropertyOp21
 70
     0
102
RTVSPropertyOp22
 70
     0
102
RTVSPropertyOp23
 70
     0
102
RTVSPropertyOp24
 70
     0
102
RTVSPropertyOp25
 70
     0
102
RTVSPropertyOp26
 70
     0
102
RTVSPropertyOp27
 70
     0
102
RTVSPropertyOp28
 70
     1
102
RTVSPropertyOp29
 70
     1
102
RTVSPropertyOp30
 70
     1
102
RTVSPropertyOp31
 70
     1
102
RTVSPropertyOp32
 70
     1
102
RTVSPropertyOp33
 70
     1
102
RTVSPropertyOp34
 70
     1
102
RTVSPropertyOp35
 70
     1
102
RTVSPropertyOp36
 70
     1
102
RTVSPropertyOp37
 70
     1
102
RTVSPropertyOp38
 70
     1
102
RTVSPropertyOp39
 70
     1
102
RTVSPropertyOp40
 70
     1
102
RTVSPropertyOp41
 70
     1
102
RTVSPropertyOp42
 70
     1
102
RTVSPropertyOp43
 70
     1
102
RTVSPropertyOp44
 70
     1
102
RTVSPropertyOp45
 70
     1
102
RTVSPropertyOp46
 70
     1
102
RTVSPropertyOp47
 70
     1
102
RTVSPropertyOp48
 70
     1
102
RTVSPropertyOp49
 70
     1
102
RTVSPropertyOp50
 70
     1
102
RTVSPropertyOp51
 70
     0
102
RTVSPropertyOp52
 70
     0
102
RTVSPropertyOp53
 70
     1
102
RTVSPropertyOp54
 70
     1
102
RTVSPropertyOp55
 70
     1
102
RTVSPropertyOp56
 70
     1
102
RTVSPropertyOp57
 70
     1
102
RTVSPropertyOp58
 70
     1
102
RTVSPropertyOp59
 70
     1
102
RTVSPropertyOp60
 70
     1
102
RTVSPropertyOp61
 70
     1
102
RTVSPropertyOp62
 70
     1
  0
XRECORD
  5
33C3
102
{ACAD_REACTORS
330
33C2
102
}
330
33C2
100
AcDbXrecord
280
     1
102
RTVSPost2010Prop28
280
     0
102
RTVSPost2010PropOp28
 70
     1
102
RTVSPost2010Prop29
280
     1
102
RTVSPost2010PropOp29
 70
     1
102
RTVSPost2010Prop30
280
     1
102
RTVSPost2010PropOp30
 70
     1
102
RTVSPost2010Prop31
280
     0
102
RTVSPost2010PropOp31
 70
     1
102
RTVSPost2010Prop32
280
     0
102
RTVSPost2010PropOp32
 70
     1
102
RTVSPost2010Prop33
280
     0
102
RTVSPost2010PropOp33
 70
     1
102
RTVSPost2010Prop34
280
     0
102
RTVSPost2010PropOp34
 70
     1
102
RTVSPost2010Prop35
280
     0
102
RTVSPost2010PropOp35
 70
     1
102
RTVSPost2010Prop36
280
     0
102
RTVSPost2010PropOp36
 70
     1
102
RTVSPost2010Prop37
 90
       50
102
RTVSPost2010PropOp37
 70
     1
102
RTVSPost2010Prop38
140
0.0
102
RTVSPost2010PropOp38
 70
     1
102
RTVSPost2010Prop39
140
1.0
102
RTVSPost2010PropOp39
 70
     1
102
RTVSPost2010Prop40
 90
        0
102
RTVSPost2010PropOp40
 70
     1
102
RTVSPost2010Prop41ColorIndex
 90
       18
102
RTVSPost2010Prop41ColorRGB
 90
        0
102
RTVSPost2010PropOp41
 70
     1
102
RTVSPost2010Prop42
 90
       50
102
RTVSPost2010PropOp42
 70
     1
102
RTVSPost2010Prop43
 90
        3
102
RTVSPost2010PropOp43
 70
     1
102
RTVSPost2010Prop44ColorIndex
 90
        5
102
RTVSPost2010Prop44ColorRGB
 90
      255
102
RTVSPost2010PropOp44
 70
     1
102
RTVSPost2010Prop45
280
     0
102
RTVSPost2010PropOp45
 70
     1
102
RTVSPost2010Prop46
 90
       50
102
RTVSPost2010PropOp46
 70
     1
102
RTVSPost2010Prop47
 90
       50
102
RTVSPost2010PropOp47
 70
     1
102
RTVSPost2010Prop48
 90
       50
102
RTVSPost2010PropOp48
 70
     1
102
RTVSPost2010Prop49
280
     0
102
RTVSPost2010PropOp49
 70
     1
102
RTVSPost2010Prop50
 90
       50
102
RTVSPost2010PropOp50
 70
     1
102
RTVSPost2010Prop51ColorIndex
 90
      256
102
RTVSPost2010Prop51ColorRGB
 90
-16777216
102
RTVSPost2010PropOp51
 70
     0
102
RTVSPost2010Prop52
140
1.0
102
RTVSPost2010PropOp52
 70
     0
102
RTVSPost2010Prop53
 90
        2
102
RTVSPost2010PropOp53
 70
     1
102
RTVSPost2010Prop54
  1
strokes_ogs.tif
102
RTVSPost2010PropOp54
 70
     1
102
RTVSPost2010Prop55
280
     0
102
RTVSPost2010PropOp55
 70
     1
102
RTVSPost2010Prop56
140
1.0
102
RTVSPost2010PropOp56
 70
     1
102
RTVSPost2010Prop57
140
1.0
102
RTVSPost2010PropOp57
 70
     1
102
RTVSPropertyOp0
 70
     1
102
RTVSPropertyOp1
 70
     1
102
RTVSPropertyOp2
 70
     1
102
RTVSPropertyOp3
 70
     1
102
RTVSPropertyOp4
 70
     1
102
RTVSPropertyOp5
 70
     1
102
RTVSPropertyOp6
 70
     1
102
RTVSPropertyOp7
 70
     1
102
RTVSPropertyOp8
 70
     1
102
RTVSPropertyOp9
 70
     1
102
RTVSPropertyOp10
 70
     1
102
RTVSPropertyOp11
 70
     1
102
RTVSPropertyOp12
 70
     1
102
RTVSPropertyOp13
 70
     1
102
RTVSPropertyOp14
 70
     1
102
RTVSPropertyOp15
 70
     1
102
RTVSPropertyOp16
 70
     1
102
RTVSPropertyOp17
 70
     1
102
RTVSPropertyOp18
 70
     1
102
RTVSPropertyOp19
 70
     1
102
RTVSPropertyOp20
 70
     1
102
RTVSPropertyOp21
 70
     1
102
RTVSPropertyOp22
 70
     1
102
RTVSPropertyOp23
 70
     1
102
RTVSPropertyOp24
 70
     1
102
RTVSPropertyOp25
 70
     1
102
RTVSPropertyOp26
 70
     1
102
RTVSPropertyOp27
 70
     1
102
RTVSPropertyOp28
 70
     1
102
RTVSPropertyOp29
 70
     1
102
RTVSPropertyOp30
 70
     1
102
RTVSPropertyOp31
 70
     1
102
RTVSPropertyOp32
 70
     1
102
RTVSPropertyOp33
 70
     1
102
RTVSPropertyOp34
 70
     1
102
RTVSPropertyOp35
 70
     1
102
RTVSPropertyOp36
 70
     1
102
RTVSPropertyOp37
 70
     1
102
RTVSPropertyOp38
 70
     1
102
RTVSPropertyOp39
 70
     1
102
RTVSPropertyOp40
 70
     1
102
RTVSPropertyOp41
 70
     1
102
RTVSPropertyOp42
 70
     1
102
RTVSPropertyOp43
 70
     1
102
RTVSPropertyOp44
 70
     1
102
RTVSPropertyOp45
 70
     1
102
RTVSPropertyOp46
 70
     1
102
RTVSPropertyOp47
 70
     1
102
RTVSPropertyOp48
 70
     1
102
RTVSPropertyOp49
 70
     1
102
RTVSPropertyOp50
 70
     1
102
RTVSPropertyOp51
 70
     0
102
RTVSPropertyOp52
 70
     0
102
RTVSPropertyOp53
 70
     1
102
RTVSPropertyOp54
 70
     1
102
RTVSPropertyOp55
 70
     1
102
RTVSPropertyOp56
 70
     1
102
RTVSPropertyOp57
 70
     1
102
RTVSPropertyOp58
 70
     1
102
RTVSPropertyOp59
 70
     1
102
RTVSPropertyOp60
 70
     1
102
RTVSPropertyOp61
 70
     1
102
RTVSPropertyOp62
 70
     1
  0
XRECORD
  5
3404
102
{ACAD_REACTORS
330
3403
102
}
330
3403
100
AcDbXrecord
280
     1
102
RTVSPost2010Prop28
280
     0
102
RTVSPost2010PropOp28
 70
     1
102
RTVSPost2010Prop29
280
     1
102
RTVSPost2010PropOp29
 70
     1
102
RTVSPost2010Prop30
280
     1
102
RTVSPost2010PropOp30
 70
     1
102
RTVSPost2010Prop31
280
     0
102
RTVSPost2010PropOp31
 70
     1
102
RTVSPost2010Prop32
280
     0
102
RTVSPost2010PropOp32
 70
     1
102
RTVSPost2010Prop33
280
     0
102
RTVSPost2010PropOp33
 70
     1
102
RTVSPost2010Prop34
280
     0
102
RTVSPost2010PropOp34
 70
     1
102
RTVSPost2010Prop35
280
     0
102
RTVSPost2010PropOp35
 70
     1
102
RTVSPost2010Prop36
280
     0
102
RTVSPost2010PropOp36
 70
     1
102
RTVSPost2010Prop37
 90
       50
102
RTVSPost2010PropOp37
 70
     1
102
RTVSPost2010Prop38
140
0.0
102
RTVSPost2010PropOp38
 70
     1
102
RTVSPost2010Prop39
140
1.0
102
RTVSPost2010PropOp39
 70
     1
102
RTVSPost2010Prop40
 90
        0
102
RTVSPost2010PropOp40
 70
     1
102
RTVSPost2010Prop41ColorIndex
 90
       18
102
RTVSPost2010Prop41ColorRGB
 90
        0
102
RTVSPost2010PropOp41
 70
     1
102
RTVSPost2010Prop42
 90
       50
102
RTVSPost2010PropOp42
 70
     1
102
RTVSPost2010Prop43
 90
        3
102
RTVSPost2010PropOp43
 70
     1
102
RTVSPost2010Prop44ColorIndex
 90
        5
102
RTVSPost2010Prop44ColorRGB
 90
      255
102
RTVSPost2010PropOp44
 70
     1
102
RTVSPost2010Prop45
280
     0
102
RTVSPost2010PropOp45
 70
     1
102
RTVSPost2010Prop46
 90
       50
102
RTVSPost2010PropOp46
 70
     1
102
RTVSPost2010Prop47
 90
       50
102
RTVSPost2010PropOp47
 70
     1
102
RTVSPost2010Prop48
 90
       50
102
RTVSPost2010PropOp48
 70
     1
102
RTVSPost2010Prop49
280
     0
102
RTVSPost2010PropOp49
 70
     1
102
RTVSPost2010Prop50
 90
       50
102
RTVSPost2010PropOp50
 70
     1
102
RTVSPost2010Prop51ColorIndex
 90
      256
102
RTVSPost2010Prop51ColorRGB
 90
-16777216
102
RTVSPost2010PropOp51
 70
     0
102
RTVSPost2010Prop52
140
1.0
102
RTVSPost2010PropOp52
 70
     0
102
RTVSPost2010Prop53
 90
        2
102
RTVSPost2010PropOp53
 70
     1
102
RTVSPost2010Prop54
  1
strokes_ogs.tif
102
RTVSPost2010PropOp54
 70
     1
102
RTVSPost2010Prop55
280
     0
102
RTVSPost2010PropOp55
 70
     1
102
RTVSPost2010Prop56
140
1.0
102
RTVSPost2010PropOp56
 70
     1
102
RTVSPost2010Prop57
140
1.0
102
RTVSPost2010PropOp57
 70
     1
102
RTVSPropertyOp0
 70
     1
102
RTVSPropertyOp1
 70
     1
102
RTVSPropertyOp2
 70
     1
102
RTVSPropertyOp3
 70
     1
102
RTVSPropertyOp4
 70
     1
102
RTVSPropertyOp5
 70
     1
102
RTVSPropertyOp6
 70
     1
102
RTVSPropertyOp7
 70
     1
102
RTVSPropertyOp8
 70
     1
102
RTVSPropertyOp9
 70
     1
102
RTVSPropertyOp10
 70
     1
102
RTVSPropertyOp11
 70
     1
102
RTVSPropertyOp12
 70
     1
102
RTVSPropertyOp13
 70
     1
102
RTVSPropertyOp14
 70
     1
102
RTVSPropertyOp15
 70
     1
102
RTVSPropertyOp16
 70
     1
102
RTVSPropertyOp17
 70
     1
102
RTVSPropertyOp18
 70
     1
102
RTVSPropertyOp19
 70
     1
102
RTVSPropertyOp20
 70
     1
102
RTVSPropertyOp21
 70
     1
102
RTVSPropertyOp22
 70
     1
102
RTVSPropertyOp23
 70
     1
102
RTVSPropertyOp24
 70
     1
102
RTVSPropertyOp25
 70
     1
102
RTVSPropertyOp26
 70
     1
102
RTVSPropertyOp27
 70
     1
102
RTVSPropertyOp28
 70
     1
102
RTVSPropertyOp29
 70
     1
102
RTVSPropertyOp30
 70
     1
102
RTVSPropertyOp31
 70
     1
102
RTVSPropertyOp32
 70
     1
102
RTVSPropertyOp33
 70
     1
102
RTVSPropertyOp34
 70
     1
102
RTVSPropertyOp35
 70
     1
102
RTVSPropertyOp36
 70
     1
102
RTVSPropertyOp37
 70
     1
102
RTVSPropertyOp38
 70
     1
102
RTVSPropertyOp39
 70
     1
102
RTVSPropertyOp40
 70
     1
102
RTVSPropertyOp41
 70
     1
102
RTVSPropertyOp42
 70
     1
102
RTVSPropertyOp43
 70
     1
102
RTVSPropertyOp44
 70
     1
102
RTVSPropertyOp45
 70
     1
102
RTVSPropertyOp46
 70
     1
102
RTVSPropertyOp47
 70
     1
102
RTVSPropertyOp48
 70
     1
102
RTVSPropertyOp49
 70
     1
102
RTVSPropertyOp50
 70
     1
102
RTVSPropertyOp51
 70
     0
102
RTVSPropertyOp52
 70
     0
102
RTVSPropertyOp53
 70
     1
102
RTVSPropertyOp54
 70
     1
102
RTVSPropertyOp55
 70
     1
102
RTVSPropertyOp56
 70
     1
102
RTVSPropertyOp57
 70
     1
102
RTVSPropertyOp58
 70
     1
102
RTVSPropertyOp59
 70
     1
102
RTVSPropertyOp60
 70
     1
102
RTVSPropertyOp61
 70
     1
102
RTVSPropertyOp62
 70
     1
  0
XRECORD
  5
3402
102
{ACAD_REACTORS
330
3401
102
}
330
3401
100
AcDbXrecord
280
     1
102
RTVSPost2010Prop28
280
     0
102
RTVSPost2010PropOp28
 70
     1
102
RTVSPost2010Prop29
280
     1
102
RTVSPost2010PropOp29
 70
     1
102
RTVSPost2010Prop30
280
     1
102
RTVSPost2010PropOp30
 70
     1
102
RTVSPost2010Prop31
280
     0
102
RTVSPost2010PropOp31
 70
     1
102
RTVSPost2010Prop32
280
     0
102
RTVSPost2010PropOp32
 70
     1
102
RTVSPost2010Prop33
280
     0
102
RTVSPost2010PropOp33
 70
     1
102
RTVSPost2010Prop34
280
     0
102
RTVSPost2010PropOp34
 70
     1
102
RTVSPost2010Prop35
280
     0
102
RTVSPost2010PropOp35
 70
     1
102
RTVSPost2010Prop36
280
     0
102
RTVSPost2010PropOp36
 70
     1
102
RTVSPost2010Prop37
 90
       50
102
RTVSPost2010PropOp37
 70
     1
102
RTVSPost2010Prop38
140
0.0
102
RTVSPost2010PropOp38
 70
     1
102
RTVSPost2010Prop39
140
1.0
102
RTVSPost2010PropOp39
 70
     1
102
RTVSPost2010Prop40
 90
        0
102
RTVSPost2010PropOp40
 70
     1
102
RTVSPost2010Prop41ColorIndex
 90
       18
102
RTVSPost2010Prop41ColorRGB
 90
        0
102
RTVSPost2010PropOp41
 70
     1
102
RTVSPost2010Prop42
 90
       50
102
RTVSPost2010PropOp42
 70
     1
102
RTVSPost2010Prop43
 90
        3
102
RTVSPost2010PropOp43
 70
     1
102
RTVSPost2010Prop44ColorIndex
 90
        5
102
RTVSPost2010Prop44ColorRGB
 90
      255
102
RTVSPost2010PropOp44
 70
     1
102
RTVSPost2010Prop45
280
     0
102
RTVSPost2010PropOp45
 70
     1
102
RTVSPost2010Prop46
 90
       50
102
RTVSPost2010PropOp46
 70
     1
102
RTVSPost2010Prop47
 90
       50
102
RTVSPost2010PropOp47
 70
     1
102
RTVSPost2010Prop48
 90
       50
102
RTVSPost2010PropOp48
 70
     1
102
RTVSPost2010Prop49
280
     0
102
RTVSPost2010PropOp49
 70
     1
102
RTVSPost2010Prop50
 90
       50
102
RTVSPost2010PropOp50
 70
     1
102
RTVSPost2010Prop51ColorIndex
 90
      256
102
RTVSPost2010Prop51ColorRGB
 90
-16777216
102
RTVSPost2010PropOp51
 70
     0
102
RTVSPost2010Prop52
140
1.0
102
RTVSPost2010PropOp52
 70
     0
102
RTVSPost2010Prop53
 90
        2
102
RTVSPost2010PropOp53
 70
     1
102
RTVSPost2010Prop54
  1
strokes_ogs.tif
102
RTVSPost2010PropOp54
 70
     1
102
RTVSPost2010Prop55
280
     0
102
RTVSPost2010PropOp55
 70
     1
102
RTVSPost2010Prop56
140
1.0
102
RTVSPost2010PropOp56
 70
     1
102
RTVSPost2010Prop57
140
1.0
102
RTVSPost2010PropOp57
 70
     1
102
RTVSPropertyOp0
 70
     1
102
RTVSPropertyOp1
 70
     1
102
RTVSPropertyOp2
 70
     1
102
RTVSPropertyOp3
 70
     1
102
RTVSPropertyOp4
 70
     1
102
RTVSPropertyOp5
 70
     1
102
RTVSPropertyOp6
 70
     1
102
RTVSPropertyOp7
 70
     1
102
RTVSPropertyOp8
 70
     1
102
RTVSPropertyOp9
 70
     1
102
RTVSPropertyOp10
 70
     1
102
RTVSPropertyOp11
 70
     1
102
RTVSPropertyOp12
 70
     1
102
RTVSPropertyOp13
 70
     1
102
RTVSPropertyOp14
 70
     1
102
RTVSPropertyOp15
 70
     1
102
RTVSPropertyOp16
 70
     1
102
RTVSPropertyOp17
 70
     1
102
RTVSPropertyOp18
 70
     1
102
RTVSPropertyOp19
 70
     1
102
RTVSPropertyOp20
 70
     1
102
RTVSPropertyOp21
 70
     1
102
RTVSPropertyOp22
 70
     1
102
RTVSPropertyOp23
 70
     1
102
RTVSPropertyOp24
 70
     1
102
RTVSPropertyOp25
 70
     1
102
RTVSPropertyOp26
 70
     1
102
RTVSPropertyOp27
 70
     1
102
RTVSPropertyOp28
 70
     1
102
RTVSPropertyOp29
 70
     1
102
RTVSPropertyOp30
 70
     1
102
RTVSPropertyOp31
 70
     1
102
RTVSPropertyOp32
 70
     1
102
RTVSPropertyOp33
 70
     1
102
RTVSPropertyOp34
 70
     1
102
RTVSPropertyOp35
 70
     1
102
RTVSPropertyOp36
 70
     1
102
RTVSPropertyOp37
 70
     1
102
RTVSPropertyOp38
 70
     1
102
RTVSPropertyOp39
 70
     1
102
RTVSPropertyOp40
 70
     1
102
RTVSPropertyOp41
 70
     1
102
RTVSPropertyOp42
 70
     1
102
RTVSPropertyOp43
 70
     1
102
RTVSPropertyOp44
 70
     1
102
RTVSPropertyOp45
 70
     1
102
RTVSPropertyOp46
 70
     1
102
RTVSPropertyOp47
 70
     1
102
RTVSPropertyOp48
 70
     1
102
RTVSPropertyOp49
 70
     1
102
RTVSPropertyOp50
 70
     1
102
RTVSPropertyOp51
 70
     0
102
RTVSPropertyOp52
 70
     0
102
RTVSPropertyOp53
 70
     1
102
RTVSPropertyOp54
 70
     1
102
RTVSPropertyOp55
 70
     1
102
RTVSPropertyOp56
 70
     1
102
RTVSPropertyOp57
 70
     1
102
RTVSPropertyOp58
 70
     1
102
RTVSPropertyOp59
 70
     1
102
RTVSPropertyOp60
 70
     1
102
RTVSPropertyOp61
 70
     1
102
RTVSPropertyOp62
 70
     1
  0
XRECORD
  5
33FC
102
{ACAD_REACTORS
330
33FB
102
}
330
33FB
100
AcDbXrecord
280
     1
102
RTVSPost2010Prop28
280
     0
102
RTVSPost2010PropOp28
 70
     1
102
RTVSPost2010Prop29
280
     1
102
RTVSPost2010PropOp29
 70
     1
102
RTVSPost2010Prop30
280
     1
102
RTVSPost2010PropOp30
 70
     1
102
RTVSPost2010Prop31
280
     0
102
RTVSPost2010PropOp31
 70
     1
102
RTVSPost2010Prop32
280
     0
102
RTVSPost2010PropOp32
 70
     1
102
RTVSPost2010Prop33
280
     0
102
RTVSPost2010PropOp33
 70
     1
102
RTVSPost2010Prop34
280
     0
102
RTVSPost2010PropOp34
 70
     1
102
RTVSPost2010Prop35
280
     0
102
RTVSPost2010PropOp35
 70
     1
102
RTVSPost2010Prop36
280
     0
102
RTVSPost2010PropOp36
 70
     1
102
RTVSPost2010Prop37
 90
       50
102
RTVSPost2010PropOp37
 70
     1
102
RTVSPost2010Prop38
140
0.0
102
RTVSPost2010PropOp38
 70
     1
102
RTVSPost2010Prop39
140
1.0
102
RTVSPost2010PropOp39
 70
     1
102
RTVSPost2010Prop40
 90
        0
102
RTVSPost2010PropOp40
 70
     1
102
RTVSPost2010Prop41ColorIndex
 90
       18
102
RTVSPost2010Prop41ColorRGB
 90
        0
102
RTVSPost2010PropOp41
 70
     1
102
RTVSPost2010Prop42
 90
       50
102
RTVSPost2010PropOp42
 70
     1
102
RTVSPost2010Prop43
 90
        3
102
RTVSPost2010PropOp43
 70
     1
102
RTVSPost2010Prop44ColorIndex
 90
        5
102
RTVSPost2010Prop44ColorRGB
 90
      255
102
RTVSPost2010PropOp44
 70
     1
102
RTVSPost2010Prop45
280
     0
102
RTVSPost2010PropOp45
 70
     1
102
RTVSPost2010Prop46
 90
       50
102
RTVSPost2010PropOp46
 70
     1
102
RTVSPost2010Prop47
 90
       50
102
RTVSPost2010PropOp47
 70
     1
102
RTVSPost2010Prop48
 90
       50
102
RTVSPost2010PropOp48
 70
     1
102
RTVSPost2010Prop49
280
     0
102
RTVSPost2010PropOp49
 70
     1
102
RTVSPost2010Prop50
 90
       50
102
RTVSPost2010PropOp50
 70
     1
102
RTVSPost2010Prop51ColorIndex
 90
      256
102
RTVSPost2010Prop51ColorRGB
 90
-16777216
102
RTVSPost2010PropOp51
 70
     0
102
RTVSPost2010Prop52
140
1.0
102
RTVSPost2010PropOp52
 70
     0
102
RTVSPost2010Prop53
 90
        2
102
RTVSPost2010PropOp53
 70
     1
102
RTVSPost2010Prop54
  1
strokes_ogs.tif
102
RTVSPost2010PropOp54
 70
     1
102
RTVSPost2010Prop55
280
     0
102
RTVSPost2010PropOp55
 70
     1
102
RTVSPost2010Prop56
140
1.0
102
RTVSPost2010PropOp56
 70
     1
102
RTVSPost2010Prop57
140
1.0
102
RTVSPost2010PropOp57
 70
     1
102
RTVSPropertyOp0
 70
     1
102
RTVSPropertyOp1
 70
     1
102
RTVSPropertyOp2
 70
     1
102
RTVSPropertyOp3
 70
     1
102
RTVSPropertyOp4
 70
     1
102
RTVSPropertyOp5
 70
     1
102
RTVSPropertyOp6
 70
     1
102
RTVSPropertyOp7
 70
     1
102
RTVSPropertyOp8
 70
     1
102
RTVSPropertyOp9
 70
     1
102
RTVSPropertyOp10
 70
     1
102
RTVSPropertyOp11
 70
     1
102
RTVSPropertyOp12
 70
     1
102
RTVSPropertyOp13
 70
     1
102
RTVSPropertyOp14
 70
     1
102
RTVSPropertyOp15
 70
     1
102
RTVSPropertyOp16
 70
     1
102
RTVSPropertyOp17
 70
     1
102
RTVSPropertyOp18
 70
     1
102
RTVSPropertyOp19
 70
     1
102
RTVSPropertyOp20
 70
     1
102
RTVSPropertyOp21
 70
     1
102
RTVSPropertyOp22
 70
     1
102
RTVSPropertyOp23
 70
     1
102
RTVSPropertyOp24
 70
     1
102
RTVSPropertyOp25
 70
     1
102
RTVSPropertyOp26
 70
     1
102
RTVSPropertyOp27
 70
     1
102
RTVSPropertyOp28
 70
     1
102
RTVSPropertyOp29
 70
     1
102
RTVSPropertyOp30
 70
     1
102
RTVSPropertyOp31
 70
     1
102
RTVSPropertyOp32
 70
     1
102
RTVSPropertyOp33
 70
     1
102
RTVSPropertyOp34
 70
     1
102
RTVSPropertyOp35
 70
     1
102
RTVSPropertyOp36
 70
     1
102
RTVSPropertyOp37
 70
     1
102
RTVSPropertyOp38
 70
     1
102
RTVSPropertyOp39
 70
     1
102
RTVSPropertyOp40
 70
     1
102
RTVSPropertyOp41
 70
     1
102
RTVSPropertyOp42
 70
     1
102
RTVSPropertyOp43
 70
     1
102
RTVSPropertyOp44
 70
     1
102
RTVSPropertyOp45
 70
     1
102
RTVSPropertyOp46
 70
     1
102
RTVSPropertyOp47
 70
     1
102
RTVSPropertyOp48
 70
     1
102
RTVSPropertyOp49
 70
     1
102
RTVSPropertyOp50
 70
     1
102
RTVSPropertyOp51
 70
     0
102
RTVSPropertyOp52
 70
     0
102
RTVSPropertyOp53
 70
     1
102
RTVSPropertyOp54
 70
     1
102
RTVSPropertyOp55
 70
     1
102
RTVSPropertyOp56
 70
     1
102
RTVSPropertyOp57
 70
     1
102
RTVSPropertyOp58
 70
     1
102
RTVSPropertyOp59
 70
     1
102
RTVSPropertyOp60
 70
     1
102
RTVSPropertyOp61
 70
     1
102
RTVSPropertyOp62
 70
     1
  0
XRECORD
  5
33FE
102
{ACAD_REACTORS
330
33FD
102
}
330
33FD
100
AcDbXrecord
280
     1
102
RTVSPost2010Prop28
280
     0
102
RTVSPost2010PropOp28
 70
     1
102
RTVSPost2010Prop29
280
     1
102
RTVSPost2010PropOp29
 70
     1
102
RTVSPost2010Prop30
280
     1
102
RTVSPost2010PropOp30
 70
     1
102
RTVSPost2010Prop31
280
     0
102
RTVSPost2010PropOp31
 70
     1
102
RTVSPost2010Prop32
280
     0
102
RTVSPost2010PropOp32
 70
     1
102
RTVSPost2010Prop33
280
     0
102
RTVSPost2010PropOp33
 70
     1
102
RTVSPost2010Prop34
280
     0
102
RTVSPost2010PropOp34
 70
     1
102
RTVSPost2010Prop35
280
     0
102
RTVSPost2010PropOp35
 70
     1
102
RTVSPost2010Prop36
280
     0
102
RTVSPost2010PropOp36
 70
     1
102
RTVSPost2010Prop37
 90
       50
102
RTVSPost2010PropOp37
 70
     1
102
RTVSPost2010Prop38
140
0.0
102
RTVSPost2010PropOp38
 70
     1
102
RTVSPost2010Prop39
140
1.0
102
RTVSPost2010PropOp39
 70
     1
102
RTVSPost2010Prop40
 90
        0
102
RTVSPost2010PropOp40
 70
     1
102
RTVSPost2010Prop41ColorIndex
 90
       18
102
RTVSPost2010Prop41ColorRGB
 90
        0
102
RTVSPost2010PropOp41
 70
     1
102
RTVSPost2010Prop42
 90
       50
102
RTVSPost2010PropOp42
 70
     1
102
RTVSPost2010Prop43
 90
        3
102
RTVSPost2010PropOp43
 70
     1
102
RTVSPost2010Prop44ColorIndex
 90
        5
102
RTVSPost2010Prop44ColorRGB
 90
      255
102
RTVSPost2010PropOp44
 70
     1
102
RTVSPost2010Prop45
280
     0
102
RTVSPost2010PropOp45
 70
     1
102
RTVSPost2010Prop46
 90
       50
102
RTVSPost2010PropOp46
 70
     1
102
RTVSPost2010Prop47
 90
       50
102
RTVSPost2010PropOp47
 70
     1
102
RTVSPost2010Prop48
 90
       50
102
RTVSPost2010PropOp48
 70
     1
102
RTVSPost2010Prop49
280
     0
102
RTVSPost2010PropOp49
 70
     1
102
RTVSPost2010Prop50
 90
       50
102
RTVSPost2010PropOp50
 70
     1
102
RTVSPost2010Prop51ColorIndex
 90
      256
102
RTVSPost2010Prop51ColorRGB
 90
-16777216
102
RTVSPost2010PropOp51
 70
     0
102
RTVSPost2010Prop52
140
1.0
102
RTVSPost2010PropOp52
 70
     0
102
RTVSPost2010Prop53
 90
        2
102
RTVSPost2010PropOp53
 70
     1
102
RTVSPost2010Prop54
  1
strokes_ogs.tif
102
RTVSPost2010PropOp54
 70
     1
102
RTVSPost2010Prop55
280
     0
102
RTVSPost2010PropOp55
 70
     1
102
RTVSPost2010Prop56
140
1.0
102
RTVSPost2010PropOp56
 70
     1
102
RTVSPost2010Prop57
140
1.0
102
RTVSPost2010PropOp57
 70
     1
102
RTVSPropertyOp0
 70
     1
102
RTVSPropertyOp1
 70
     1
102
RTVSPropertyOp2
 70
     1
102
RTVSPropertyOp3
 70
     1
102
RTVSPropertyOp4
 70
     1
102
RTVSPropertyOp5
 70
     1
102
RTVSPropertyOp6
 70
     1
102
RTVSPropertyOp7
 70
     1
102
RTVSPropertyOp8
 70
     1
102
RTVSPropertyOp9
 70
     1
102
RTVSPropertyOp10
 70
     1
102
RTVSPropertyOp11
 70
     1
102
RTVSPropertyOp12
 70
     1
102
RTVSPropertyOp13
 70
     1
102
RTVSPropertyOp14
 70
     1
102
RTVSPropertyOp15
 70
     1
102
RTVSPropertyOp16
 70
     1
102
RTVSPropertyOp17
 70
     1
102
RTVSPropertyOp18
 70
     1
102
RTVSPropertyOp19
 70
     1
102
RTVSPropertyOp20
 70
     1
102
RTVSPropertyOp21
 70
     1
102
RTVSPropertyOp22
 70
     1
102
RTVSPropertyOp23
 70
     1
102
RTVSPropertyOp24
 70
     1
102
RTVSPropertyOp25
 70
     1
102
RTVSPropertyOp26
 70
     1
102
RTVSPropertyOp27
 70
     1
102
RTVSPropertyOp28
 70
     1
102
RTVSPropertyOp29
 70
     1
102
RTVSPropertyOp30
 70
     1
102
RTVSPropertyOp31
 70
     1
102
RTVSPropertyOp32
 70
     1
102
RTVSPropertyOp33
 70
     1
102
RTVSPropertyOp34
 70
     1
102
RTVSPropertyOp35
 70
     1
102
RTVSPropertyOp36
 70
     1
102
RTVSPropertyOp37
 70
     1
102
RTVSPropertyOp38
 70
     1
102
RTVSPropertyOp39
 70
     1
102
RTVSPropertyOp40
 70
     1
102
RTVSPropertyOp41
 70
     1
102
RTVSPropertyOp42
 70
     1
102
RTVSPropertyOp43
 70
     1
102
RTVSPropertyOp44
 70
     1
102
RTVSPropertyOp45
 70
     1
102
RTVSPropertyOp46
 70
     1
102
RTVSPropertyOp47
 70
     1
102
RTVSPropertyOp48
 70
     1
102
RTVSPropertyOp49
 70
     1
102
RTVSPropertyOp50
 70
     1
102
RTVSPropertyOp51
 70
     0
102
RTVSPropertyOp52
 70
     0
102
RTVSPropertyOp53
 70
     1
102
RTVSPropertyOp54
 70
     1
102
RTVSPropertyOp55
 70
     1
102
RTVSPropertyOp56
 70
     1
102
RTVSPropertyOp57
 70
     1
102
RTVSPropertyOp58
 70
     1
102
RTVSPropertyOp59
 70
     1
102
RTVSPropertyOp60
 70
     1
102
RTVSPropertyOp61
 70
     1
102
RTVSPropertyOp62
 70
     1
  0
XRECORD
  5
33C9
102
{ACAD_REACTORS
330
33C8
102
}
330
33C8
100
AcDbXrecord
280
     1
102
RTVSPost2010Prop28
280
     0
102
RTVSPost2010PropOp28
 70
     1
102
RTVSPost2010Prop29
280
     1
102
RTVSPost2010PropOp29
 70
     1
102
RTVSPost2010Prop30
280
     1
102
RTVSPost2010PropOp30
 70
     1
102
RTVSPost2010Prop31
280
     0
102
RTVSPost2010PropOp31
 70
     1
102
RTVSPost2010Prop32
280
     0
102
RTVSPost2010PropOp32
 70
     1
102
RTVSPost2010Prop33
280
     0
102
RTVSPost2010PropOp33
 70
     1
102
RTVSPost2010Prop34
280
     0
102
RTVSPost2010PropOp34
 70
     1
102
RTVSPost2010Prop35
280
     0
102
RTVSPost2010PropOp35
 70
     1
102
RTVSPost2010Prop36
280
     0
102
RTVSPost2010PropOp36
 70
     1
102
RTVSPost2010Prop37
 90
       50
102
RTVSPost2010PropOp37
 70
     1
102
RTVSPost2010Prop38
140
0.0
102
RTVSPost2010PropOp38
 70
     1
102
RTVSPost2010Prop39
140
1.0
102
RTVSPost2010PropOp39
 70
     1
102
RTVSPost2010Prop40
 90
        0
102
RTVSPost2010PropOp40
 70
     1
102
RTVSPost2010Prop41ColorIndex
 90
       18
102
RTVSPost2010Prop41ColorRGB
 90
        0
102
RTVSPost2010PropOp41
 70
     1
102
RTVSPost2010Prop42
 90
       50
102
RTVSPost2010PropOp42
 70
     1
102
RTVSPost2010Prop43
 90
        3
102
RTVSPost2010PropOp43
 70
     1
102
RTVSPost2010Prop44ColorIndex
 90
        5
102
RTVSPost2010Prop44ColorRGB
 90
      255
102
RTVSPost2010PropOp44
 70
     1
102
RTVSPost2010Prop45
280
     0
102
RTVSPost2010PropOp45
 70
     1
102
RTVSPost2010Prop46
 90
       50
102
RTVSPost2010PropOp46
 70
     1
102
RTVSPost2010Prop47
 90
       50
102
RTVSPost2010PropOp47
 70
     1
102
RTVSPost2010Prop48
 90
       50
102
RTVSPost2010PropOp48
 70
     1
102
RTVSPost2010Prop49
280
     0
102
RTVSPost2010PropOp49
 70
     1
102
RTVSPost2010Prop50
 90
       50
102
RTVSPost2010PropOp50
 70
     1
102
RTVSPost2010Prop51ColorIndex
 90
      256
102
RTVSPost2010Prop51ColorRGB
 90
-16777216
102
RTVSPost2010PropOp51
 70
     0
102
RTVSPost2010Prop52
140
1.0
102
RTVSPost2010PropOp52
 70
     0
102
RTVSPost2010Prop53
 90
        2
102
RTVSPost2010PropOp53
 70
     1
102
RTVSPost2010Prop54
  1
strokes_ogs.tif
102
RTVSPost2010PropOp54
 70
     1
102
RTVSPost2010Prop55
280
     0
102
RTVSPost2010PropOp55
 70
     1
102
RTVSPost2010Prop56
140
1.0
102
RTVSPost2010PropOp56
 70
     1
102
RTVSPost2010Prop57
140
1.0
102
RTVSPost2010PropOp57
 70
     1
102
RTVSPropertyOp0
 70
     1
102
RTVSPropertyOp1
 70
     1
102
RTVSPropertyOp2
 70
     1
102
RTVSPropertyOp3
 70
     1
102
RTVSPropertyOp4
 70
     1
102
RTVSPropertyOp5
 70
     1
102
RTVSPropertyOp6
 70
     1
102
RTVSPropertyOp7
 70
     1
102
RTVSPropertyOp8
 70
     1
102
RTVSPropertyOp9
 70
     1
102
RTVSPropertyOp10
 70
     1
102
RTVSPropertyOp11
 70
     1
102
RTVSPropertyOp12
 70
     1
102
RTVSPropertyOp13
 70
     1
102
RTVSPropertyOp14
 70
     1
102
RTVSPropertyOp15
 70
     1
102
RTVSPropertyOp16
 70
     1
102
RTVSPropertyOp17
 70
     1
102
RTVSPropertyOp18
 70
     1
102
RTVSPropertyOp19
 70
     1
102
RTVSPropertyOp20
 70
     1
102
RTVSPropertyOp21
 70
     1
102
RTVSPropertyOp22
 70
     1
102
RTVSPropertyOp23
 70
     1
102
RTVSPropertyOp24
 70
     1
102
RTVSPropertyOp25
 70
     1
102
RTVSPropertyOp26
 70
     1
102
RTVSPropertyOp27
 70
     1
102
RTVSPropertyOp28
 70
     1
102
RTVSPropertyOp29
 70
     1
102
RTVSPropertyOp30
 70
     1
102
RTVSPropertyOp31
 70
     1
102
RTVSPropertyOp32
 70
     1
102
RTVSPropertyOp33
 70
     1
102
RTVSPropertyOp34
 70
     1
102
RTVSPropertyOp35
 70
     1
102
RTVSPropertyOp36
 70
     1
102
RTVSPropertyOp37
 70
     1
102
RTVSPropertyOp38
 70
     1
102
RTVSPropertyOp39
 70
     1
102
RTVSPropertyOp40
 70
     1
102
RTVSPropertyOp41
 70
     1
102
RTVSPropertyOp42
 70
     1
102
RTVSPropertyOp43
 70
     1
102
RTVSPropertyOp44
 70
     1
102
RTVSPropertyOp45
 70
     1
102
RTVSPropertyOp46
 70
     1
102
RTVSPropertyOp47
 70
     1
102
RTVSPropertyOp48
 70
     1
102
RTVSPropertyOp49
 70
     1
102
RTVSPropertyOp50
 70
     1
102
RTVSPropertyOp51
 70
     0
102
RTVSPropertyOp52
 70
     0
102
RTVSPropertyOp53
 70
     1
102
RTVSPropertyOp54
 70
     1
102
RTVSPropertyOp55
 70
     1
102
RTVSPropertyOp56
 70
     1
102
RTVSPropertyOp57
 70
     1
102
RTVSPropertyOp58
 70
     1
102
RTVSPropertyOp59
 70
     1
102
RTVSPropertyOp60
 70
     1
102
RTVSPropertyOp61
 70
     1
102
RTVSPropertyOp62
 70
     1
  0
XRECORD
  5
33F8
102
{ACAD_REACTORS
330
33F7
102
}
330
33F7
100
AcDbXrecord
280
     1
102
RTVSPost2010Prop28
280
     0
102
RTVSPost2010PropOp28
 70
     1
102
RTVSPost2010Prop29
280
     1
102
RTVSPost2010PropOp29
 70
     1
102
RTVSPost2010Prop30
280
     1
102
RTVSPost2010PropOp30
 70
     1
102
RTVSPost2010Prop31
280
     0
102
RTVSPost2010PropOp31
 70
     1
102
RTVSPost2010Prop32
280
     0
102
RTVSPost2010PropOp32
 70
     1
102
RTVSPost2010Prop33
280
     0
102
RTVSPost2010PropOp33
 70
     1
102
RTVSPost2010Prop34
280
     0
102
RTVSPost2010PropOp34
 70
     1
102
RTVSPost2010Prop35
280
     0
102
RTVSPost2010PropOp35
 70
     1
102
RTVSPost2010Prop36
280
     0
102
RTVSPost2010PropOp36
 70
     1
102
RTVSPost2010Prop37
 90
       50
102
RTVSPost2010PropOp37
 70
     1
102
RTVSPost2010Prop38
140
0.0
102
RTVSPost2010PropOp38
 70
     1
102
RTVSPost2010Prop39
140
1.0
102
RTVSPost2010PropOp39
 70
     1
102
RTVSPost2010Prop40
 90
        0
102
RTVSPost2010PropOp40
 70
     1
102
RTVSPost2010Prop41ColorIndex
 90
       18
102
RTVSPost2010Prop41ColorRGB
 90
        0
102
RTVSPost2010PropOp41
 70
     1
102
RTVSPost2010Prop42
 90
       50
102
RTVSPost2010PropOp42
 70
     1
102
RTVSPost2010Prop43
 90
        3
102
RTVSPost2010PropOp43
 70
     1
102
RTVSPost2010Prop44ColorIndex
 90
        5
102
RTVSPost2010Prop44ColorRGB
 90
      255
102
RTVSPost2010PropOp44
 70
     1
102
RTVSPost2010Prop45
280
     0
102
RTVSPost2010PropOp45
 70
     1
102
RTVSPost2010Prop46
 90
       50
102
RTVSPost2010PropOp46
 70
     1
102
RTVSPost2010Prop47
 90
       50
102
RTVSPost2010PropOp47
 70
     1
102
RTVSPost2010Prop48
 90
       50
102
RTVSPost2010PropOp48
 70
     1
102
RTVSPost2010Prop49
280
     0
102
RTVSPost2010PropOp49
 70
     1
102
RTVSPost2010Prop50
 90
       50
102
RTVSPost2010PropOp50
 70
     1
102
RTVSPost2010Prop51ColorIndex
 90
      256
102
RTVSPost2010Prop51ColorRGB
 90
-16777216
102
RTVSPost2010PropOp51
 70
     0
102
RTVSPost2010Prop52
140
1.0
102
RTVSPost2010PropOp52
 70
     0
102
RTVSPost2010Prop53
 90
        2
102
RTVSPost2010PropOp53
 70
     1
102
RTVSPost2010Prop54
  1
strokes_ogs.tif
102
RTVSPost2010PropOp54
 70
     1
102
RTVSPost2010Prop55
280
     0
102
RTVSPost2010PropOp55
 70
     1
102
RTVSPost2010Prop56
140
1.0
102
RTVSPost2010PropOp56
 70
     1
102
RTVSPost2010Prop57
140
1.0
102
RTVSPost2010PropOp57
 70
     1
102
RTVSPropertyOp0
 70
     1
102
RTVSPropertyOp1
 70
     1
102
RTVSPropertyOp2
 70
     1
102
RTVSPropertyOp3
 70
     1
102
RTVSPropertyOp4
 70
     1
102
RTVSPropertyOp5
 70
     1
102
RTVSPropertyOp6
 70
     1
102
RTVSPropertyOp7
 70
     1
102
RTVSPropertyOp8
 70
     1
102
RTVSPropertyOp9
 70
     1
102
RTVSPropertyOp10
 70
     1
102
RTVSPropertyOp11
 70
     1
102
RTVSPropertyOp12
 70
     1
102
RTVSPropertyOp13
 70
     1
102
RTVSPropertyOp14
 70
     1
102
RTVSPropertyOp15
 70
     1
102
RTVSPropertyOp16
 70
     1
102
RTVSPropertyOp17
 70
     1
102
RTVSPropertyOp18
 70
     1
102
RTVSPropertyOp19
 70
     1
102
RTVSPropertyOp20
 70
     1
102
RTVSPropertyOp21
 70
     1
102
RTVSPropertyOp22
 70
     1
102
RTVSPropertyOp23
 70
     1
102
RTVSPropertyOp24
 70
     1
102
RTVSPropertyOp25
 70
     1
102
RTVSPropertyOp26
 70
     1
102
RTVSPropertyOp27
 70
     1
102
RTVSPropertyOp28
 70
     1
102
RTVSPropertyOp29
 70
     1
102
RTVSPropertyOp30
 70
     1
102
RTVSPropertyOp31
 70
     1
102
RTVSPropertyOp32
 70
     1
102
RTVSPropertyOp33
 70
     1
102
RTVSPropertyOp34
 70
     1
102
RTVSPropertyOp35
 70
     1
102
RTVSPropertyOp36
 70
     1
102
RTVSPropertyOp37
 70
     1
102
RTVSPropertyOp38
 70
     1
102
RTVSPropertyOp39
 70
     1
102
RTVSPropertyOp40
 70
     1
102
RTVSPropertyOp41
 70
     1
102
RTVSPropertyOp42
 70
     1
102
RTVSPropertyOp43
 70
     1
102
RTVSPropertyOp44
 70
     1
102
RTVSPropertyOp45
 70
     1
102
RTVSPropertyOp46
 70
     1
102
RTVSPropertyOp47
 70
     1
102
RTVSPropertyOp48
 70
     1
102
RTVSPropertyOp49
 70
     1
102
RTVSPropertyOp50
 70
     1
102
RTVSPropertyOp51
 70
     0
102
RTVSPropertyOp52
 70
     0
102
RTVSPropertyOp53
 70
     1
102
RTVSPropertyOp54
 70
     1
102
RTVSPropertyOp55
 70
     1
102
RTVSPropertyOp56
 70
     1
102
RTVSPropertyOp57
 70
     1
102
RTVSPropertyOp58
 70
     1
102
RTVSPropertyOp59
 70
     1
102
RTVSPropertyOp60
 70
     1
102
RTVSPropertyOp61
 70
     1
102
RTVSPropertyOp62
 70
     1
  0
XRECORD
  5
3400
102
{ACAD_REACTORS
330
33FF
102
}
330
33FF
100
AcDbXrecord
280
     1
102
RTVSPost2010Prop28
280
     0
102
RTVSPost2010PropOp28
 70
     1
102
RTVSPost2010Prop29
280
     1
102
RTVSPost2010PropOp29
 70
     1
102
RTVSPost2010Prop30
280
     1
102
RTVSPost2010PropOp30
 70
     1
102
RTVSPost2010Prop31
280
     0
102
RTVSPost2010PropOp31
 70
     1
102
RTVSPost2010Prop32
280
     0
102
RTVSPost2010PropOp32
 70
     1
102
RTVSPost2010Prop33
280
     0
102
RTVSPost2010PropOp33
 70
     1
102
RTVSPost2010Prop34
280
     0
102
RTVSPost2010PropOp34
 70
     1
102
RTVSPost2010Prop35
280
     0
102
RTVSPost2010PropOp35
 70
     1
102
RTVSPost2010Prop36
280
     0
102
RTVSPost2010PropOp36
 70
     1
102
RTVSPost2010Prop37
 90
       50
102
RTVSPost2010PropOp37
 70
     1
102
RTVSPost2010Prop38
140
0.0
102
RTVSPost2010PropOp38
 70
     1
102
RTVSPost2010Prop39
140
1.0
102
RTVSPost2010PropOp39
 70
     1
102
RTVSPost2010Prop40
 90
        0
102
RTVSPost2010PropOp40
 70
     1
102
RTVSPost2010Prop41ColorIndex
 90
       18
102
RTVSPost2010Prop41ColorRGB
 90
        0
102
RTVSPost2010PropOp41
 70
     1
102
RTVSPost2010Prop42
 90
       50
102
RTVSPost2010PropOp42
 70
     1
102
RTVSPost2010Prop43
 90
        3
102
RTVSPost2010PropOp43
 70
     1
102
RTVSPost2010Prop44ColorIndex
 90
        5
102
RTVSPost2010Prop44ColorRGB
 90
      255
102
RTVSPost2010PropOp44
 70
     1
102
RTVSPost2010Prop45
280
     0
102
RTVSPost2010PropOp45
 70
     1
102
RTVSPost2010Prop46
 90
       50
102
RTVSPost2010PropOp46
 70
     1
102
RTVSPost2010Prop47
 90
       50
102
RTVSPost2010PropOp47
 70
     1
102
RTVSPost2010Prop48
 90
       50
102
RTVSPost2010PropOp48
 70
     1
102
RTVSPost2010Prop49
280
     0
102
RTVSPost2010PropOp49
 70
     1
102
RTVSPost2010Prop50
 90
       50
102
RTVSPost2010PropOp50
 70
     1
102
RTVSPost2010Prop51ColorIndex
 90
      256
102
RTVSPost2010Prop51ColorRGB
 90
-16777216
102
RTVSPost2010PropOp51
 70
     0
102
RTVSPost2010Prop52
140
1.0
102
RTVSPost2010PropOp52
 70
     0
102
RTVSPost2010Prop53
 90
        2
102
RTVSPost2010PropOp53
 70
     1
102
RTVSPost2010Prop54
  1
strokes_ogs.tif
102
RTVSPost2010PropOp54
 70
     1
102
RTVSPost2010Prop55
280
     0
102
RTVSPost2010PropOp55
 70
     1
102
RTVSPost2010Prop56
140
1.0
102
RTVSPost2010PropOp56
 70
     1
102
RTVSPost2010Prop57
140
1.0
102
RTVSPost2010PropOp57
 70
     1
102
RTVSPropertyOp0
 70
     1
102
RTVSPropertyOp1
 70
     1
102
RTVSPropertyOp2
 70
     1
102
RTVSPropertyOp3
 70
     1
102
RTVSPropertyOp4
 70
     1
102
RTVSPropertyOp5
 70
     1
102
RTVSPropertyOp6
 70
     1
102
RTVSPropertyOp7
 70
     1
102
RTVSPropertyOp8
 70
     1
102
RTVSPropertyOp9
 70
     1
102
RTVSPropertyOp10
 70
     1
102
RTVSPropertyOp11
 70
     1
102
RTVSPropertyOp12
 70
     1
102
RTVSPropertyOp13
 70
     1
102
RTVSPropertyOp14
 70
     1
102
RTVSPropertyOp15
 70
     1
102
RTVSPropertyOp16
 70
     1
102
RTVSPropertyOp17
 70
     1
102
RTVSPropertyOp18
 70
     1
102
RTVSPropertyOp19
 70
     1
102
RTVSPropertyOp20
 70
     1
102
RTVSPropertyOp21
 70
     1
102
RTVSPropertyOp22
 70
     1
102
RTVSPropertyOp23
 70
     1
102
RTVSPropertyOp24
 70
     1
102
RTVSPropertyOp25
 70
     1
102
RTVSPropertyOp26
 70
     1
102
RTVSPropertyOp27
 70
     1
102
RTVSPropertyOp28
 70
     1
102
RTVSPropertyOp29
 70
     1
102
RTVSPropertyOp30
 70
     1
102
RTVSPropertyOp31
 70
     1
102
RTVSPropertyOp32
 70
     1
102
RTVSPropertyOp33
 70
     1
102
RTVSPropertyOp34
 70
     1
102
RTVSPropertyOp35
 70
     1
102
RTVSPropertyOp36
 70
     1
102
RTVSPropertyOp37
 70
     1
102
RTVSPropertyOp38
 70
     1
102
RTVSPropertyOp39
 70
     1
102
RTVSPropertyOp40
 70
     1
102
RTVSPropertyOp41
 70
     1
102
RTVSPropertyOp42
 70
     1
102
RTVSPropertyOp43
 70
     1
102
RTVSPropertyOp44
 70
     1
102
RTVSPropertyOp45
 70
     1
102
RTVSPropertyOp46
 70
     1
102
RTVSPropertyOp47
 70
     1
102
RTVSPropertyOp48
 70
     1
102
RTVSPropertyOp49
 70
     1
102
RTVSPropertyOp50
 70
     1
102
RTVSPropertyOp51
 70
     0
102
RTVSPropertyOp52
 70
     0
102
RTVSPropertyOp53
 70
     1
102
RTVSPropertyOp54
 70
     1
102
RTVSPropertyOp55
 70
     1
102
RTVSPropertyOp56
 70
     1
102
RTVSPropertyOp57
 70
     1
102
RTVSPropertyOp58
 70
     1
102
RTVSPropertyOp59
 70
     1
102
RTVSPropertyOp60
 70
     1
102
RTVSPropertyOp61
 70
     1
102
RTVSPropertyOp62
 70
     1
  0
ENDSEC
  0
EOF
