  0
SECTION
  2
HEADER
  9
$ACADVER
  1
AC1015
  9
$ACADMAINTVER
 70
    20
  9
$DWGCODEPAGE
  3
ANSI_932
  9
$INSBASE
 10
0.0
 20
0.0
 30
0.0
  9
$EXTMIN
 10
23.573222595
 20
21.8265145957
 30
0.0
  9
$EXTMAX
 10
1059.163715593
 20
539.7305221787
 30
0.0
  9
$LIMMIN
 10
-132.1042283131
 20
-39.5810668291
  9
$LIMMAX
 10
805.0409502855
 20
539.5643795306
  9
$ORTHOMODE
 70
     1
  9
$REGENMODE
 70
     1
  9
$FILLMODE
 70
     1
  9
$QTEXTMODE
 70
     0
  9
$MIRRTEXT
 70
     0
  9
$LTSCALE
 40
3.0
  9
$ATTMODE
 70
     1
  9
$TEXTSIZE
 40
2.0
  9
$TRACEWID
 40
1.0
  9
$TEXTSTYLE
  7
STANDARD
  9
$CLAYER
  8
0
  9
$CELTYPE
  6
BYLAYER
  9
$CECOLOR
 62
   256
  9
$CELTSCALE
 40
1.0
  9
$DISPSILH
 70
     0
  9
$DIMSCALE
 40
3.0
  9
$DIMASZ
 40
1.8
  9
$DIMEXO
 40
0.625
  9
$DIMDLI
 40
3.75
  9
$DIMRND
 40
0.0
  9
$DIMDLE
 40
0.0
  9
$DIMEXE
 40
0.8
  9
$DIMTP
 40
0.0
  9
$DIMTM
 40
0.0
  9
$DIMTXT
 40
1.8
  9
$DIMCEN
 40
2.5
  9
$DIMTSZ
 40
0.0
  9
$DIMTOL
 70
     0
  9
$DIMLIM
 70
     0
  9
$DIMTIH
 70
     0
  9
$DIMTOH
 70
     0
  9
$DIMSE1
 70
     0
  9
$DIMSE2
 70
     0
  9
$DIMTAD
 70
     1
  9
$DIMZIN
 70
     8
  9
$DIMBLK
  1

  9
$DIMASO
 70
     1
  9
$DIMSHO
 70
     1
  9
$DIMPOST
  1

  9
$DIMAPOST
  1

  9
$DIMALT
 70
     0
  9
$DIMALTD
 70
     4
  9
$DIMALTF
 40
0.0394
  9
$DIMLFAC
 40
1.0
  9
$DIMTOFL
 70
     1
  9
$DIMTVP
 40
0.0
  9
$DIMTIX
 70
     0
  9
$DIMSOXD
 70
     0
  9
$DIMSAH
 70
     0
  9
$DIMBLK1
  1

  9
$DIMBLK2
  1

  9
$DIMSTYLE
  2
STANDARD
  9
$DIMCLRD
 70
     0
  9
$DIMCLRE
 70
     0
  9
$DIMCLRT
 70
     0
  9
$DIMTFAC
 40
1.0
  9
$DIMGAP
 40
0.75
  9
$DIMJUST
 70
     0
  9
$DIMSD1
 70
     0
  9
$DIMSD2
 70
     0
  9
$DIMTOLJ
 70
     1
  9
$DIMTZIN
 70
     0
  9
$DIMALTZ
 70
     0
  9
$DIMALTTZ
 70
     0
  9
$DIMUPT
 70
     0
  9
$DIMDEC
 70
     2
  9
$DIMTDEC
 70
     2
  9
$DIMALTU
 70
     8
  9
$DIMALTTD
 70
     4
  9
$DIMTXSTY
  7
STANDARD
  9
$DIMAUNIT
 70
     0
  9
$DIMADEC
 70
     2
  9
$DIMALTRND
 40
0.0
  9
$DIMAZIN
 70
     0
  9
$DIMDSEP
 70
    46
  9
$DIMATFIT
 70
     3
  9
$DIMFRAC
 70
     0
  9
$DIMLDRBLK
  1

  9
$DIMLUNIT
 70
     6
  9
$DIMLWD
 70
    -2
  9
$DIMLWE
 70
    -2
  9
$DIMTMOVE
 70
     0
  9
$LUNITS
 70
     2
  9
$LUPREC
 70
     3
  9
$SKETCHINC
 40
1.0
  9
$FILLETRAD
 40
10.0
  9
$AUNITS
 70
     0
  9
$AUPREC
 70
     2
  9
$MENU
  1
.
  9
$ELEVATION
 40
0.0
  9
$PELEVATION
 40
0.0
  9
$THICKNESS
 40
0.0
  9
$LIMCHECK
 70
     0
  9
$CHAMFERA
 40
0.0
  9
$CHAMFERB
 40
0.0
  9
$CHAMFERC
 40
20.0
  9
$CHAMFERD
 40
0.0
  9
$SKPOLY
 70
     0
  9
$TDCREATE
 40
2453754.485717593
  9
$TDUCREATE
 40
2453754.110723195
  9
$TDUPDATE
 40
2460248.333437500
  9
$TDUUPDATE
 40
2460247.958437500
  9
$TDINDWG
 40
-24.3847330440
  9
$TDUSRTIMER
 40
-24.3847334028
  9
$USRTIMER
 70
     1
  9
$ANGBASE
 50
0.0
  9
$ANGDIR
 70
     0
  9
$PDMODE
 70
     0
  9
$PDSIZE
 40
-10.0
  9
$PLINEWID
 40
0.0
  9
$SPLFRAME
 70
     0
  9
$SPLINETYPE
 70
     6
  9
$SPLINESEGS
 70
     8
  9
$HANDSEED
  5
3D5E
  9
$SURFTAB1
 70
     6
  9
$SURFTAB2
 70
     6
  9
$SURFTYPE
 70
     6
  9
$SURFU
 70
     6
  9
$SURFV
 70
     6
  9
$UCSBASE
  2

  9
$UCSNAME
  2

  9
$UCSORG
 10
0.0
 20
0.0
 30
0.0
  9
$UCSXDIR
 10
1.0
 20
0.0
 30
0.0
  9
$UCSYDIR
 10
0.0
 20
1.0
 30
0.0
  9
$UCSORTHOREF
  2

  9
$UCSORTHOVIEW
 70
     0
  9
$UCSORGTOP
 10
0.0
 20
0.0
 30
0.0
  9
$UCSORGBOTTOM
 10
0.0
 20
0.0
 30
0.0
  9
$UCSORGLEFT
 10
0.0
 20
0.0
 30
0.0
  9
$UCSORGRIGHT
 10
0.0
 20
0.0
 30
0.0
  9
$UCSORGFRONT
 10
0.0
 20
0.0
 30
0.0
  9
$UCSORGBACK
 10
0.0
 20
0.0
 30
0.0
  9
$PUCSBASE
  2

  9
$PUCSNAME
  2

  9
$PUCSORG
 10
0.0
 20
0.0
 30
0.0
  9
$PUCSXDIR
 10
1.0
 20
0.0
 30
0.0
  9
$PUCSYDIR
 10
0.0
 20
1.0
 30
0.0
  9
$PUCSORTHOREF
  2

  9
$PUCSORTHOVIEW
 70
     0
  9
$PUCSORGTOP
 10
0.0
 20
0.0
 30
0.0
  9
$PUCSORGBOTTOM
 10
0.0
 20
0.0
 30
0.0
  9
$PUCSORGLEFT
 10
0.0
 20
0.0
 30
0.0
  9
$PUCSORGRIGHT
 10
0.0
 20
0.0
 30
0.0
  9
$PUCSORGFRONT
 10
0.0
 20
0.0
 30
0.0
  9
$PUCSORGBACK
 10
0.0
 20
0.0
 30
0.0
  9
$USERI1
 70
     0
  9
$USERI2
 70
     0
  9
$USERI3
 70
     0
  9
$USERI4
 70
     0
  9
$USERI5
 70
     0
  9
$USERR1
 40
0.0
  9
$USERR2
 40
0.0
  9
$USERR3
 40
0.0
  9
$USERR4
 40
0.0
  9
$USERR5
 40
0.0
  9
$WORLDVIEW
 70
     1
  9
$SHADEDGE
 70
     3
  9
$SHADEDIF
 70
    70
  9
$TILEMODE
 70
     1
  9
$MAXACTVP
 70
    48
  9
$PINSBASE
 10
0.0
 20
0.0
 30
0.0
  9
$PLIMCHECK
 70
     0
  9
$PEXTMIN
 10
0.0
 20
0.0
 30
0.0
  9
$PEXTMAX
 10
0.0
 20
0.0
 30
0.0
  9
$PLIMMIN
 10
0.0
 20
0.0
  9
$PLIMMAX
 10
12.0
 20
9.0
  9
$UNITMODE
 70
     0
  9
$VISRETAIN
 70
     1
  9
$PLINEGEN
 70
     0
  9
$PSLTSCALE
 70
     1
  9
$TREEDEPTH
 70
  3020
  9
$CMLSTYLE
  2
STANDARD
  9
$CMLJUST
 70
     0
  9
$CMLSCALE
 40
1.0
  9
$PROXYGRAPHICS
 70
     1
  9
$MEASUREMENT
 70
     0
  9
$CELWEIGHT
370
    -1
  9
$ENDCAPS
280
     0
  9
$JOINSTYLE
280
     0
  9
$LWDISPLAY
290
     0
  9
$INSUNITS
 70
     0
  9
$HYPERLINKBASE
  1

  9
$STYLESHEET
  1
SEKKEI.CTB
  9
$XEDIT
290
     1
  9
$CEPSNTYPE
380
     0
  9
$PSTYLEMODE
290
     1
  9
$FINGERPRINTGUID
  2
{6385560B-F4B1-4644-A7C2-A3E32AC3D232}
  9
$VERSIONGUID
  2
{D899B3D0-5C7D-8041-AF3A-D32EBD48FC06}
  9
$EXTNAMES
290
     1
  9
$PSVPSCALE
 40
0.0
  9
$OLESTARTUP
290
     0
  0
ENDSEC
  0
SECTION
  2
CLASSES
  0
CLASS
  1
DICTIONARYVAR
  2
AcDbDictionaryVar
  3
ObjectDBX Classes
 90
        0
280
     0
281
     0
  0
CLASS
  1
ACDBDICTIONARYWDFLT
  2
AcDbDictionaryWithDefault
  3
ObjectDBX Classes
 90
        0
280
     0
281
     0
  0
CLASS
  1
MATERIAL
  2
AcDbMaterial
  3
ObjectDBX Classes
 90
     1153
280
     0
281
     0
  0
CLASS
  1
VISUALSTYLE
  2
AcDbVisualStyle
  3
ObjectDBX Classes
 90
     4095
280
     0
281
     0
  0
CLASS
  1
TABLESTYLE
  2
AcDbTableStyle
  3
ObjectDBX Classes
 90
     4095
280
     0
281
     0
  0
CLASS
  1
SCALE
  2
AcDbScale
  3
ObjectDBX Classes
 90
     1153
280
     0
281
     0
  0
CLASS
  1
MLEADERSTYLE
  2
AcDbMLeaderStyle
  3
ACDB_MLEADERSTYLE_CLASS
 90
     4095
280
     0
281
     0
  0
CLASS
  1
CELLSTYLEMAP
  2
AcDbCellStyleMap
  3
ObjectDBX Classes
 90
     1152
280
     0
281
     0
  0
CLASS
  1
ACAD_EVALUATION_GRAPH
  2
AcDbEvalGraph
  3
ObjectDBX Classes
 90
    33921
280
     0
281
     0
  0
CLASS
  1
ACAECUSTOBJ
  2
AcAeEditorObj
  3
AcAeEditorObj
 90
    33792
280
     0
281
     0
  0
CLASS
  1
ACDB_DYNAMICBLOCKPURGEPREVENTER_VERSION
  2
AcDbDynamicBlockPurgePreventer
  3
ObjectDBX Classes
 90
    33921
280
     0
281
     0
  0
CLASS
  1
SORTENTSTABLE
  2
AcDbSortentsTable
  3
ObjectDBX Classes
 90
    32768
280
     0
281
     0
  0
CLASS
  1
ACDBPLACEHOLDER
  2
AcDbPlaceHolder
  3
ObjectDBX Classes
 90
        0
280
     0
281
     0
  0
CLASS
  1
LAYOUT
  2
AcDbLayout
  3
ObjectDBX Classes
 90
        0
280
     0
281
     0
  0
CLASS
  1
ACDBSECTIONVIEWSTYLE
  2
AcDbSectionViewStyle
  3
ObjectDBX Classes
 90
     1025
280
     0
281
     0
  0
CLASS
  1
ACDBDETAILVIEWSTYLE
  2
AcDbDetailViewStyle
  3
ObjectDBX Classes
 90
     1025
280
     0
281
     0
  0
CLASS
  1
EXACXREFPANELOBJECT
  2
ExAcXREFPanelObject
  3
EXAC_ESW
 90
    33793
280
     0
281
     0
  0
CLASS
  1
NPOCOLLECTION
  2
AcDbImpNonPersistentObjectsCollection
  3
ObjectDBX Classes
 90
    33921
280
     0
281
     0
  0
ENDSEC
  0
SECTION
  2
TABLES
  0
TABLE
  2
VPORT
  5
6E
102
{ACAD_XDICTIONARY
360
258E
102
}
330
0
100
AcDbSymbolTable
 70
     1
  0
VPORT
  5
228D
330
6E
100
AcDbSymbolTableRecord
100
AcDbViewportTableRecord
  2
*Active
 70
     0
 10
0.0
 20
0.0
 11
1.0
 21
1.0
 12
785.6341480015
 22
280.770216926
 13
0.0
 23
0.0
 14
10.0
 24
10.0
 15
18.0
 25
18.0
 16
0.0
 26
0.0
 36
1.0
 17
0.0
 27
0.0
 37
0.0
 40
480.8519387059
 41
2.681547619
 42
50.0
 43
0.0
 44
0.0
 50
0.0
 51
0.0
 71
     0
 72
   100
 73
     1
 74
     3
 75
     0
 76
     0
 77
     0
 78
     0
281
     0
 65
     1
110
0.0
120
0.0
130
0.0
111
1.0
121
0.0
131
0.0
112
0.0
122
1.0
132
0.0
 79
     0
146
0.0
1001
ACAD_NAV_VCDISPLAY
1070
     3
  0
ENDTAB
  0
TABLE
  2
LTYPE
  5
69
330
0
100
AcDbSymbolTable
 70
     4
  0
LTYPE
  5
6A
330
69
100
AcDbSymbolTableRecord
100
AcDbLinetypeTableRecord
  2
BYBLOCK
 70
     0
  3

 72
    65
 73
     0
 40
0.0
  0
LTYPE
  5
6B
330
69
100
AcDbSymbolTableRecord
100
AcDbLinetypeTableRecord
  2
BYLAYER
 70
     0
  3

 72
    65
 73
     0
 40
0.0
  0
LTYPE
  5
8
330
69
100
AcDbSymbolTableRecord
100
AcDbLinetypeTableRecord
  2
CONTINUOUS
 70
     0
  3
Solid line
 72
    65
 73
     0
 40
0.0
  0
LTYPE
  5
27C
330
69
100
AcDbSymbolTableRecord
100
AcDbLinetypeTableRecord
  2
sekkei(A2)
 70
     0
  3
center(A2)  ____ _ ____ _ ____ _ ____ _ ____ _ 
 72
    65
 73
     4
 40
14.2875
 49
9.525
 74
     0
 49
-1.5875
 74
     0
 49
1.5875
 74
     0
 49
-1.5875
 74
     0
  0
LTYPE
  5
2B4
330
69
100
AcDbSymbolTableRecord
100
AcDbLinetypeTableRecord
  2
HIDDEN2
 70
     0
  3
Hidden (.5x) _ _ _ _ _ _ _ _ _ _ _ _ _ _ _ _ _
 72
    65
 73
     2
 40
4.7625
 49
3.175
 74
     0
 49
-1.5875
 74
     0
  0
LTYPE
  5
48F
330
69
100
AcDbSymbolTableRecord
100
AcDbLinetypeTableRecord
  2
sekkei_H
 70
     0
  3
Hidden-S _ _ _ _ _ _ _ _ _ _ _ _ _ _ _ _ _
 72
    65
 73
     2
 40
2.38125
 49
1.5875
 74
     0
 49
-0.79375
 74
     0
  0
ENDTAB
  0
TABLE
  2
LAYER
  5
66
102
{ACAD_XDICTIONARY
360
22E8
102
}
330
0
100
AcDbSymbolTable
 70
    10
  0
LAYER
  5
5E
102
{ACAD_XDICTIONARY
360
2577
102
}
330
66
100
AcDbSymbolTableRecord
100
AcDbLayerTableRecord
  2
0
 70
     0
 62
     7
  6
CONTINUOUS
370
    -3
390
5
  0
LAYER
  5
3E
102
{ACAD_XDICTIONARY
360
2579
102
}
330
66
100
AcDbSymbolTableRecord
100
AcDbLayerTableRecord
  2
CENTER
 70
     0
 62
     3
  6
sekkei(A2)
370
    -3
390
5
  0
LAYER
  5
135
330
66
100
AcDbSymbolTableRecord
100
AcDbLayerTableRecord
  2
DEFPOINTS
 70
     0
 62
     7
  6
CONTINUOUS
290
     0
370
    -3
390
5
  0
LAYER
  5
2B5
102
{ACAD_XDICTIONARY
360
257F
102
}
330
66
100
AcDbSymbolTableRecord
100
AcDbLayerTableRecord
  2
HIDS
 70
     0
 62
     1
  6
HIDDEN2
370
    -3
390
5
  0
LAYER
  5
2BA
102
{ACAD_XDICTIONARY
360
2581
102
}
330
66
100
AcDbSymbolTableRecord
100
AcDbLayerTableRecord
  2
HOJO
 70
     0
 62
     4
  6
CONTINUOUS
370
    -3
390
5
  0
LAYER
  5
3FA
102
{ACAD_XDICTIONARY
360
2585
102
}
330
66
100
AcDbSymbolTableRecord
100
AcDbLayerTableRecord
  2
TITLE
 70
     0
 62
     4
  6
CONTINUOUS
290
     0
370
    -3
390
5
  0
LAYER
  5
22E5
102
{ACAD_XDICTIONARY
360
22E6
102
}
330
66
100
AcDbSymbolTableRecord
100
AcDbLayerTableRecord
  2
TITLE_C
 70
     0
 62
     4
  6
CONTINUOUS
370
    -3
390
5
1001
AcAecLayerStandard
1000

1000

  0
ENDTAB
  0
TABLE
  2
STYLE
  5
67
330
0
100
AcDbSymbolTable
 70
     1
  0
STYLE
  5
16
330
67
100
AcDbSymbolTableRecord
100
AcDbTextStyleTableRecord
  2
STANDARD
 70
     0
 40
0.0
 41
1.0
 50
0.0
 71
     0
 42
2.0
  3
simplex.shx
  4
extfont.shx
  0
ENDTAB
  0
TABLE
  2
VIEW
  5
6C
330
0
100
AcDbSymbolTable
 70
     0
  0
ENDTAB
  0
TABLE
  2
UCS
  5
6D
330
0
100
AcDbSymbolTable
 70
     0
  0
ENDTAB
  0
TABLE
  2
APPID
  5
70
330
0
100
AcDbSymbolTable
 70
    10
  0
APPID
  5
71
330
70
100
AcDbSymbolTableRecord
100
AcDbRegAppTableRecord
  2
ACAD
 70
     0
  0
APPID
  5
22E7
330
70
100
AcDbSymbolTableRecord
100
AcDbRegAppTableRecord
  2
AcAecLayerStandard
 70
     0
  0
APPID
  5
2314
330
70
100
AcDbSymbolTableRecord
100
AcDbRegAppTableRecord
  2
ACAD_EXEMPT_FROM_CAD_STANDARDS
 70
     0
  0
APPID
  5
2611
330
70
100
AcDbSymbolTableRecord
100
AcDbRegAppTableRecord
  2
ACAD_MLEADERVER
 70
     0
  0
APPID
  5
30CB
330
70
100
AcDbSymbolTableRecord
100
AcDbRegAppTableRecord
  2
AcadAnnoAV
 70
     0
  0
APPID
  5
30F1
330
70
100
AcDbSymbolTableRecord
100
AcDbRegAppTableRecord
  2
ACAUTHENVIRON
 70
     0
  0
APPID
  5
30F5
330
70
100
AcDbSymbolTableRecord
100
AcDbRegAppTableRecord
  2
AcDbDynamicBlockTrueName
 70
     0
  0
APPID
  5
30F6
330
70
100
AcDbSymbolTableRecord
100
AcDbRegAppTableRecord
  2
AcDbDynamicBlockGUID
 70
     0
  0
APPID
  5
30F8
330
70
100
AcDbSymbolTableRecord
100
AcDbRegAppTableRecord
  2
AcDbBlockRepETag
 70
     0
  0
APPID
  5
3497
330
70
100
AcDbSymbolTableRecord
100
AcDbRegAppTableRecord
  2
ACAD_NAV_VCDISPLAY
 70
     0
  0
ENDTAB
  0
TABLE
  2
DIMSTYLE
  5
72
330
0
100
AcDbSymbolTable
 70
     2
100
AcDbDimStyleTable
 71
     1
340
73
  0
DIMSTYLE
105
73
330
72
100
AcDbSymbolTableRecord
100
AcDbDimStyleTableRecord
  2
STANDARD
 70
     0
 40
3.0
 41
1.8
 42
0.625
 43
3.75
 44
0.8
 73
     0
 74
     0
 77
     1
 78
     8
140
1.8
141
2.5
143
0.0394
147
0.75
171
     4
172
     1
179
     2
271
     2
272
     2
273
     8
274
     4
277
     6
340
16
  0
ENDTAB
  0
TABLE
  2
BLOCK_RECORD
  5
1
330
0
100
AcDbSymbolTable
 70
    79
  0
BLOCK_RECORD
  5
2
330
1
100
AcDbSymbolTableRecord
100
AcDbBlockTableRecord
  2
*MODEL_SPACE
340
60
  0
BLOCK_RECORD
  5
3CE6
330
1
100
AcDbSymbolTableRecord
100
AcDbBlockTableRecord
  2
*Paper_Space
340
3CE7
  0
BLOCK_RECORD
  5
A79
330
1
100
AcDbSymbolTableRecord
100
AcDbBlockTableRecord
  2
*D1
340
0
  0
BLOCK_RECORD
  5
A86
330
1
100
AcDbSymbolTableRecord
100
AcDbBlockTableRecord
  2
*D2
340
0
  0
BLOCK_RECORD
  5
A93
330
1
100
AcDbSymbolTableRecord
100
AcDbBlockTableRecord
  2
*D3
340
0
  0
BLOCK_RECORD
  5
AA0
330
1
100
AcDbSymbolTableRecord
100
AcDbBlockTableRecord
  2
*D4
340
0
  0
BLOCK_RECORD
  5
AB6
330
1
100
AcDbSymbolTableRecord
100
AcDbBlockTableRecord
  2
*D5
340
0
  0
BLOCK_RECORD
  5
B06
330
1
100
AcDbSymbolTableRecord
100
AcDbBlockTableRecord
  2
*D6
340
0
  0
BLOCK_RECORD
  5
B52
330
1
100
AcDbSymbolTableRecord
100
AcDbBlockTableRecord
  2
*D7
340
0
  0
BLOCK_RECORD
  5
B5F
330
1
100
AcDbSymbolTableRecord
100
AcDbBlockTableRecord
  2
*D8
340
0
  0
BLOCK_RECORD
  5
B6C
330
1
100
AcDbSymbolTableRecord
100
AcDbBlockTableRecord
  2
*D9
340
0
  0
BLOCK_RECORD
  5
B94
330
1
100
AcDbSymbolTableRecord
100
AcDbBlockTableRecord
  2
*D10
340
0
  0
BLOCK_RECORD
  5
BA1
330
1
100
AcDbSymbolTableRecord
100
AcDbBlockTableRecord
  2
*D11
340
0
  0
BLOCK_RECORD
  5
BC3
330
1
100
AcDbSymbolTableRecord
100
AcDbBlockTableRecord
  2
*D12
340
0
  0
BLOCK_RECORD
  5
BD0
330
1
100
AcDbSymbolTableRecord
100
AcDbBlockTableRecord
  2
*D13
340
0
  0
BLOCK_RECORD
  5
BDD
330
1
100
AcDbSymbolTableRecord
100
AcDbBlockTableRecord
  2
*D14
340
0
  0
BLOCK_RECORD
  5
BEA
330
1
100
AcDbSymbolTableRecord
100
AcDbBlockTableRecord
  2
*D15
340
0
  0
BLOCK_RECORD
  5
C00
330
1
100
AcDbSymbolTableRecord
100
AcDbBlockTableRecord
  2
*D16
340
0
  0
BLOCK_RECORD
  5
C0D
330
1
100
AcDbSymbolTableRecord
100
AcDbBlockTableRecord
  2
*D17
340
0
  0
BLOCK_RECORD
  5
C47
330
1
100
AcDbSymbolTableRecord
100
AcDbBlockTableRecord
  2
*D18
340
0
  0
BLOCK_RECORD
  5
C6C
330
1
100
AcDbSymbolTableRecord
100
AcDbBlockTableRecord
  2
*D19
340
0
  0
BLOCK_RECORD
  5
F8E
330
1
100
AcDbSymbolTableRecord
100
AcDbBlockTableRecord
  2
*D20
340
0
  0
BLOCK_RECORD
  5
FB4
330
1
100
AcDbSymbolTableRecord
100
AcDbBlockTableRecord
  2
*D21
340
0
  0
BLOCK_RECORD
  5
2184
330
1
100
AcDbSymbolTableRecord
100
AcDbBlockTableRecord
  2
*D28
340
0
  0
BLOCK_RECORD
  5
2190
330
1
100
AcDbSymbolTableRecord
100
AcDbBlockTableRecord
  2
*D29
340
0
  0
BLOCK_RECORD
  5
219C
330
1
100
AcDbSymbolTableRecord
100
AcDbBlockTableRecord
  2
*D30
340
0
  0
ENDTAB
  0
ENDSEC
  0
SECTION
  2
BLOCKS
  0
BLOCK
  5
5D
330
2
100
AcDbEntity
  8
0
100
AcDbBlockBegin
  2
*MODEL_SPACE
 70
     0
 10
0.0
 20
0.0
 30
0.0
  3
*MODEL_SPACE
  1

  0
ENDBLK
  5
5F
330
2
100
AcDbEntity
  8
0
100
AcDbBlockEnd
  0
BLOCK
  5
3CE8
330
3CE6
100
AcDbEntity
 67
     1
  8
0
100
AcDbBlockBegin
  2
*Paper_Space
 70
     0
 10
0.0
 20
0.0
 30
0.0
  3
*Paper_Space
  1

  0
ENDBLK
  5
3CE9
330
3CE6
100
AcDbEntity
 67
     1
  8
0
100
AcDbBlockEnd
  0
BLOCK
  5
A83
330
A79
100
AcDbEntity
  8
0
100
AcDbBlockBegin
  2
*D1
 70
     1
 10
0.0
 20
0.0
 30
0.0
  3
*D1
  1

  0
POINT
  5
E2C
330
A79
100
AcDbEntity
  8
DEFPOINTS
 62
     0
100
AcDbPoint
 10
346.437734045
 20
225.2817278507
 30
0.0
  0
POINT
  5
E2D
330
A79
100
AcDbEntity
  8
DEFPOINTS
 62
     0
100
AcDbPoint
 10
403.437826045
 20
200.2817278507
 30
0.0
  0
POINT
  5
E2E
330
A79
100
AcDbEntity
  8
DEFPOINTS
 62
     0
100
AcDbPoint
 10
403.437826045
 20
248.1840279512
 30
0.0
  0
ENDBLK
  5
A84
330
A79
100
AcDbEntity
  8
0
100
AcDbBlockEnd
  0
BLOCK
  5
A90
330
A86
100
AcDbEntity
  8
0
100
AcDbBlockBegin
  2
*D2
 70
     1
 10
0.0
 20
0.0
 30
0.0
  3
*D2
  1

  0
POINT
  5
E11
330
A86
100
AcDbEntity
  8
DEFPOINTS
 62
     0
100
AcDbPoint
 10
346.437734045
 20
225.2817278507
 30
0.0
  0
POINT
  5
E12
330
A86
100
AcDbEntity
  8
DEFPOINTS
 62
     0
100
AcDbPoint
 10
281.687750045
 20
185.2817278507
 30
0.0
  0
POINT
  5
E13
330
A86
100
AcDbEntity
  8
DEFPOINTS
 62
     0
100
AcDbPoint
 10
281.687750045
 20
248.1840279512
 30
0.0
  0
ENDBLK
  5
A91
330
A86
100
AcDbEntity
  8
0
100
AcDbBlockEnd
  0
BLOCK
  5
A9D
330
A93
100
AcDbEntity
  8
0
100
AcDbBlockBegin
  2
*D3
 70
     1
 10
0.0
 20
0.0
 30
0.0
  3
*D3
  1

  0
POINT
  5
E23
330
A93
100
AcDbEntity
  8
DEFPOINTS
 62
     0
100
AcDbPoint
 10
281.687750045
 20
185.2817278507
 30
0.0
  0
POINT
  5
E24
330
A93
100
AcDbEntity
  8
DEFPOINTS
 62
     0
100
AcDbPoint
 10
229.687734045
 20
154.7817278507
 30
0.0
  0
POINT
  5
E25
330
A93
100
AcDbEntity
  8
DEFPOINTS
 62
     0
100
AcDbPoint
 10
229.687734045
 20
248.1840279512
 30
0.0
  0
ENDBLK
  5
A9E
330
A93
100
AcDbEntity
  8
0
100
AcDbBlockEnd
  0
BLOCK
  5
AAA
330
AA0
100
AcDbEntity
  8
0
100
AcDbBlockBegin
  2
*D4
 70
     1
 10
0.0
 20
0.0
 30
0.0
  3
*D4
  1

  0
POINT
  5
E1A
330
AA0
100
AcDbEntity
  8
DEFPOINTS
 62
     0
100
AcDbPoint
 10
229.687734045
 20
154.7817278507
 30
0.0
  0
POINT
  5
E1B
330
AA0
100
AcDbEntity
  8
DEFPOINTS
 62
     0
100
AcDbPoint
 10
57.187733045
 20
151.7817118507
 30
0.0
  0
POINT
  5
E1C
330
AA0
100
AcDbEntity
  8
DEFPOINTS
 62
     0
100
AcDbPoint
 10
57.187733045
 20
248.1840279512
 30
0.0
  0
ENDBLK
  5
AAB
330
AA0
100
AcDbEntity
  8
0
100
AcDbBlockEnd
  0
BLOCK
  5
AC0
330
AB6
100
AcDbEntity
  8
0
100
AcDbBlockBegin
  2
*D5
 70
     1
 10
0.0
 20
0.0
 30
0.0
  3
*D5
  1

  0
POINT
  5
E08
330
AB6
100
AcDbEntity
  8
DEFPOINTS
 62
     0
100
AcDbPoint
 10
403.437826045
 20
200.2817278507
 30
0.0
  0
POINT
  5
E09
330
AB6
100
AcDbEntity
  8
DEFPOINTS
 62
     0
100
AcDbPoint
 10
57.187733045
 20
151.7817118507
 30
0.0
  0
POINT
  5
E0A
330
AB6
100
AcDbEntity
  8
DEFPOINTS
 62
     0
100
AcDbPoint
 10
57.187733045
 20
266.229601296
 30
0.0
  0
ENDBLK
  5
AC1
330
AB6
100
AcDbEntity
  8
0
100
AcDbBlockEnd
  0
BLOCK
  5
B10
330
B06
100
AcDbEntity
  8
0
100
AcDbBlockBegin
  2
*D6
 70
     1
 10
0.0
 20
0.0
 30
0.0
  3
*D6
  1

  0
POINT
  5
E35
330
B06
100
AcDbEntity
  8
DEFPOINTS
 62
     0
100
AcDbPoint
 10
62.187733045
 20
76.7817108507
 30
0.0
  0
POINT
  5
E36
330
B06
100
AcDbEntity
  8
DEFPOINTS
 62
     0
100
AcDbPoint
 10
62.187733045
 20
156.7817118507
 30
0.0
  0
POINT
  5
E37
330
B06
100
AcDbEntity
  8
DEFPOINTS
 62
     0
100
AcDbPoint
 10
31.223222595
 20
156.7817118507
 30
0.0
  0
ENDBLK
  5
B11
330
B06
100
AcDbEntity
  8
0
100
AcDbBlockEnd
  0
BLOCK
  5
B5C
330
B52
100
AcDbEntity
  8
0
100
AcDbBlockBegin
  2
*D7
 70
     1
 10
0.0
 20
0.0
 30
0.0
  3
*D7
  1

  0
POINT
  5
E76
330
B52
100
AcDbEntity
  8
DEFPOINTS
 62
     0
100
AcDbPoint
 10
391.465704888
 20
158.2817278507
 30
0.0
  0
POINT
  5
E77
330
B52
100
AcDbEntity
  8
DEFPOINTS
 62
     0
100
AcDbPoint
 10
400.597234045
 20
200.2817278507
 30
0.0
  0
POINT
  5
E78
330
B52
100
AcDbEntity
  8
DEFPOINTS
 62
     0
100
AcDbPoint
 10
429.1022706234
 20
200.2817278507
 30
0.0
  0
ENDBLK
  5
B5D
330
B52
100
AcDbEntity
  8
0
100
AcDbBlockEnd
  0
BLOCK
  5
B69
330
B5F
100
AcDbEntity
  8
0
100
AcDbBlockBegin
  2
*D8
 70
     1
 10
0.0
 20
0.0
 30
0.0
  3
*D8
  1

  0
POINT
  5
E47
330
B5F
100
AcDbEntity
  8
DEFPOINTS
 62
     0
100
AcDbPoint
 10
391.465704888
 20
158.2817278507
 30
0.0
  0
POINT
  5
E48
330
B5F
100
AcDbEntity
  8
DEFPOINTS
 62
     0
100
AcDbPoint
 10
400.597234045
 20
80.2817108507
 30
0.0
  0
POINT
  5
E49
330
B5F
100
AcDbEntity
  8
DEFPOINTS
 62
     0
100
AcDbPoint
 10
429.1022706234
 20
80.2817108507
 30
0.0
  0
ENDBLK
  5
B6A
330
B5F
100
AcDbEntity
  8
0
100
AcDbBlockEnd
  0
BLOCK
  5
B76
330
B6C
100
AcDbEntity
  8
0
100
AcDbBlockBegin
  2
*D9
 70
     1
 10
0.0
 20
0.0
 30
0.0
  3
*D9
  1

  0
POINT
  5
E3E
330
B6C
100
AcDbEntity
  8
DEFPOINTS
 62
     0
100
AcDbPoint
 10
391.437826045
 20
68.2817108507
 30
0.0
  0
POINT
  5
E3F
330
B6C
100
AcDbEntity
  8
DEFPOINTS
 62
     0
100
AcDbPoint
 10
391.437826045
 20
212.2817278507
 30
0.0
  0
POINT
  5
E40
330
B6C
100
AcDbEntity
  8
DEFPOINTS
 62
     0
100
AcDbPoint
 10
447.372492367
 20
212.2817278507
 30
0.0
  0
ENDBLK
  5
B77
330
B6C
100
AcDbEntity
  8
0
100
AcDbBlockEnd
  0
BLOCK
  5
B9E
330
B94
100
AcDbEntity
  8
0
100
AcDbBlockBegin
  2
*D10
 70
     1
 10
0.0
 20
0.0
 30
0.0
  3
*D10
  1

  0
POINT
  5
E59
330
B94
100
AcDbEntity
  8
DEFPOINTS
 62
     0
100
AcDbPoint
 10
301.437658045
 20
71.1223028507
 30
0.0
  0
POINT
  5
E5A
330
B94
100
AcDbEntity
  8
DEFPOINTS
 62
     0
100
AcDbPoint
 10
391.437826045
 20
71.1223028507
 30
0.0
  0
POINT
  5
E5B
330
B94
100
AcDbEntity
  8
DEFPOINTS
 62
     0
100
AcDbPoint
 10
391.437826045
 20
42.3735921899
 30
0.0
  0
ENDBLK
  5
B9F
330
B94
100
AcDbEntity
  8
0
100
AcDbBlockEnd
  0
BLOCK
  5
BAB
330
BA1
100
AcDbEntity
  8
0
100
AcDbBlockBegin
  2
*D11
 70
     1
 10
0.0
 20
0.0
 30
0.0
  3
*D11
  1

  0
POINT
  5
E50
330
BA1
100
AcDbEntity
  8
DEFPOINTS
 62
     0
100
AcDbPoint
 10
289.437658045
 20
80.2816908507
 30
0.0
  0
POINT
  5
E51
330
BA1
100
AcDbEntity
  8
DEFPOINTS
 62
     0
100
AcDbPoint
 10
403.437826045
 20
80.2817108507
 30
0.0
  0
POINT
  5
E52
330
BA1
100
AcDbEntity
  8
DEFPOINTS
 62
     0
100
AcDbPoint
 10
403.437826045
 20
24.2265145957
 30
0.0
  0
ENDBLK
  5
BAC
330
BA1
100
AcDbEntity
  8
0
100
AcDbBlockEnd
  0
BLOCK
  5
BCD
330
BC3
100
AcDbEntity
  8
0
100
AcDbBlockBegin
  2
*D12
 70
     1
 10
0.0
 20
0.0
 30
0.0
  3
*D12
  1

  0
POINT
  5
E6D
330
BC3
100
AcDbEntity
  8
DEFPOINTS
 62
     0
100
AcDbPoint
 10
301.4098432083
 20
158.2817278507
 30
0.0
  0
POINT
  5
E6E
330
BC3
100
AcDbEntity
  8
DEFPOINTS
 62
     0
100
AcDbPoint
 10
314.437734045
 20
116.7817318507
 30
0.0
  0
POINT
  5
E6F
330
BC3
100
AcDbEntity
  8
DEFPOINTS
 62
     0
100
AcDbPoint
 10
306.9665180563
 20
116.7817318507
 30
0.0
  0
ENDBLK
  5
BCE
330
BC3
100
AcDbEntity
  8
0
100
AcDbBlockEnd
  0
BLOCK
  5
BDA
330
BD0
100
AcDbEntity
  8
0
100
AcDbBlockBegin
  2
*D13
 70
     1
 10
0.0
 20
0.0
 30
0.0
  3
*D13
  1

  0
POINT
  5
F52
330
BD0
100
AcDbEntity
  8
DEFPOINTS
 62
     0
100
AcDbPoint
 10
610.1643919233
 20
158.2817278507
 30
0.0
  0
POINT
  5
F53
330
BD0
100
AcDbEntity
  8
DEFPOINTS
 62
     0
100
AcDbPoint
 10
645.1643989233
 20
169.2817048507
 30
0.0
  0
POINT
  5
F54
330
BD0
100
AcDbEntity
  8
DEFPOINTS
 62
     0
100
AcDbPoint
 10
645.1643989233
 20
212.1222257644
 30
0.0
  0
ENDBLK
  5
BDB
330
BD0
100
AcDbEntity
  8
0
100
AcDbBlockEnd
  0
BLOCK
  5
BE7
330
BDD
100
AcDbEntity
  8
0
100
AcDbBlockBegin
  2
*D14
 70
     1
 10
0.0
 20
0.0
 30
0.0
  3
*D14
  1

  0
POINT
  5
F60
330
BDD
100
AcDbEntity
  8
DEFPOINTS
 62
     0
100
AcDbPoint
 10
605.1643919233
 20
170.7817048507
 30
0.0
  0
POINT
  5
F61
330
BDD
100
AcDbEntity
  8
DEFPOINTS
 62
     0
100
AcDbPoint
 10
645.1643989233
 20
169.2817048507
 30
0.0
  0
POINT
  5
F62
330
BDD
100
AcDbEntity
  8
DEFPOINTS
 62
     0
100
AcDbPoint
 10
645.1643989233
 20
230.1089197042
 30
0.0
  0
ENDBLK
  5
BE8
330
BDD
100
AcDbEntity
  8
0
100
AcDbBlockEnd
  0
BLOCK
  5
BF4
330
BEA
100
AcDbEntity
  8
0
100
AcDbBlockBegin
  2
*D15
 70
     1
 10
0.0
 20
0.0
 30
0.0
  3
*D15
  1

  0
POINT
  5
F2B
330
BEA
100
AcDbEntity
  8
DEFPOINTS
 62
     0
100
AcDbPoint
 10
555.1643919233
 20
216.3401800646
 30
0.0
  0
POINT
  5
F2C
330
BEA
100
AcDbEntity
  8
DEFPOINTS
 62
     0
100
AcDbPoint
 10
645.1643989233
 20
169.2817048507
 30
0.0
  0
POINT
  5
F2D
330
BEA
100
AcDbEntity
  8
DEFPOINTS
 62
     0
100
AcDbPoint
 10
645.1643989233
 20
248.1840279512
 30
0.0
  0
ENDBLK
  5
BF5
330
BEA
100
AcDbEntity
  8
0
100
AcDbBlockEnd
  0
BLOCK
  5
C0A
330
C00
100
AcDbEntity
  8
0
100
AcDbBlockBegin
  2
*D16
 70
     1
 10
0.0
 20
0.0
 30
0.0
  3
*D16
  1

  0
POINT
  5
F22
330
C00
100
AcDbEntity
  8
DEFPOINTS
 62
     0
100
AcDbPoint
 10
555.1643919233
 20
216.3401800646
 30
0.0
  0
POINT
  5
F23
330
C00
100
AcDbEntity
  8
DEFPOINTS
 62
     0
100
AcDbPoint
 10
497.1645919233
 20
212.2817198507
 30
0.0
  0
POINT
  5
F24
330
C00
100
AcDbEntity
  8
DEFPOINTS
 62
     0
100
AcDbPoint
 10
497.1645919233
 20
248.1840279512
 30
0.0
  0
ENDBLK
  5
C0B
330
C00
100
AcDbEntity
  8
0
100
AcDbBlockEnd
  0
BLOCK
  5
C17
330
C0D
100
AcDbEntity
  8
0
100
AcDbBlockBegin
  2
*D17
 70
     1
 10
0.0
 20
0.0
 30
0.0
  3
*D17
  1

  0
POINT
  5
F34
330
C0D
100
AcDbEntity
  8
DEFPOINTS
 62
     0
100
AcDbPoint
 10
497.1645919233
 20
212.2817198507
 30
0.0
  0
POINT
  5
F35
330
C0D
100
AcDbEntity
  8
DEFPOINTS
 62
     0
100
AcDbPoint
 10
645.1643989233
 20
169.2817048507
 30
0.0
  0
POINT
  5
F36
330
C0D
100
AcDbEntity
  8
DEFPOINTS
 62
     0
100
AcDbPoint
 10
645.1643989233
 20
266.229601296
 30
0.0
  0
ENDBLK
  5
C18
330
C0D
100
AcDbEntity
  8
0
100
AcDbBlockEnd
  0
BLOCK
  5
C51
330
C47
100
AcDbEntity
  8
0
100
AcDbBlockBegin
  2
*D18
 70
     1
 10
0.0
 20
0.0
 30
0.0
  3
*D18
  1

  0
POINT
  5
F49
330
C47
100
AcDbEntity
  8
DEFPOINTS
 62
     0
100
AcDbPoint
 10
645.1643989233
 20
147.2817278507
 30
0.0
  0
POINT
  5
F4A
330
C47
100
AcDbEntity
  8
DEFPOINTS
 62
     0
100
AcDbPoint
 10
645.1643989233
 20
169.2817048507
 30
0.0
  0
POINT
  5
F4B
330
C47
100
AcDbEntity
  8
DEFPOINTS
 62
     0
100
AcDbPoint
 10
668.7211996269
 20
169.2817048507
 30
0.0
  0
ENDBLK
  5
C52
330
C47
100
AcDbEntity
  8
0
100
AcDbBlockEnd
  0
BLOCK
  5
C78
330
C6C
100
AcDbEntity
  8
0
100
AcDbBlockBegin
  2
*D19
 70
     1
 10
0.0
 20
0.0
 30
0.0
  3
*D19
  1

  0
POINT
  5
F3F
330
C6C
100
AcDbEntity
  8
DEFPOINTS
 62
     0
100
AcDbPoint
 10
509.1645919233
 20
70.2817438507
 30
0.0
  0
POINT
  5
F40
330
C6C
100
AcDbEntity
  8
DEFPOINTS
 62
     0
100
AcDbPoint
 10
497.1645919233
 20
68.2817438507
 30
0.0
  0
POINT
  5
F41
330
C6C
100
AcDbEntity
  8
DEFPOINTS
 62
     0
100
AcDbPoint
 10
497.1645919233
 20
42.3735921899
 30
0.0
  0
ENDBLK
  5
C79
330
C6C
100
AcDbEntity
  8
0
100
AcDbBlockEnd
  0
BLOCK
  5
F94
330
F8E
100
AcDbEntity
  8
0
100
AcDbBlockBegin
  2
*D20
 70
     1
 10
0.0
 20
0.0
 30
0.0
  3
*D20
  1

  0
POINT
  5
F99
330
F8E
100
AcDbEntity
  8
DEFPOINTS
 62
     0
100
AcDbPoint
 10
610.5530801437
 20
112.3433595036
 30
0.0
  0
POINT
  5
F9A
330
F8E
100
AcDbEntity
  8
DEFPOINTS
 62
     0
100
AcDbPoint
 10
499.7757037029
 20
143.2200961979
 30
0.0
  0
ENDBLK
  5
F95
330
F8E
100
AcDbEntity
  8
0
100
AcDbBlockEnd
  0
BLOCK
  5
FC0
330
FB4
100
AcDbEntity
  8
0
100
AcDbBlockBegin
  2
*D21
 70
     1
 10
0.0
 20
0.0
 30
0.0
  3
*D21
  1

  0
POINT
  5
FCA
330
FB4
100
AcDbEntity
  8
DEFPOINTS
 62
     0
100
AcDbPoint
 10
255.479533168
 20
127.7817278507
 30
0.0
  0
POINT
  5
FCB
330
FB4
100
AcDbEntity
  8
DEFPOINTS
 62
     0
100
AcDbPoint
 10
255.479533168
 20
116.7817278507
 30
0.0
  0
POINT
  5
FCC
330
FB4
100
AcDbEntity
  8
DEFPOINTS
 62
     0
100
AcDbPoint
 10
255.479533168
 20
116.7817278507
 30
0.0
  0
ENDBLK
  5
FC1
330
FB4
100
AcDbEntity
  8
0
100
AcDbBlockEnd
  0
BLOCK
  5
218E
330
2184
100
AcDbEntity
  8
0
100
AcDbBlockBegin
  2
*D28
 70
     1
 10
0.0
 20
0.0
 30
0.0
  3
*D28
  1

  0
POINT
  5
21D2
330
2184
100
AcDbEntity
  8
DEFPOINTS
 62
     0
100
AcDbPoint
 10
106.687727045
 20
186.2817098507
 30
0.0
  0
POINT
  5
21D3
330
2184
100
AcDbEntity
  8
DEFPOINTS
 62
     0
100
AcDbPoint
 10
57.187733045
 20
151.7817118507
 30
0.0
  0
POINT
  5
21D4
330
2184
100
AcDbEntity
  8
DEFPOINTS
 62
     0
100
AcDbPoint
 10
57.187733045
 20
230.1089197042
 30
0.0
  0
ENDBLK
  5
218F
330
2184
100
AcDbEntity
  8
0
100
AcDbBlockEnd
  0
BLOCK
  5
219A
330
2190
100
AcDbEntity
  8
0
100
AcDbBlockBegin
  2
*D29
 70
     1
 10
0.0
 20
0.0
 30
0.0
  3
*D29
  1

  0
POINT
  5
21B7
330
2190
100
AcDbEntity
  8
DEFPOINTS
 62
     0
100
AcDbPoint
 10
155.687734045
 20
187.2817098507
 30
0.0
  0
POINT
  5
21B8
330
2190
100
AcDbEntity
  8
DEFPOINTS
 62
     0
100
AcDbPoint
 10
154.187734045
 20
154.7817118507
 30
0.0
  0
POINT
  5
21B9
330
2190
100
AcDbEntity
  8
DEFPOINTS
 62
     0
100
AcDbPoint
 10
178.6446814535
 20
154.7817118507
 30
0.0
  0
ENDBLK
  5
219B
330
2190
100
AcDbEntity
  8
0
100
AcDbBlockEnd
  0
BLOCK
  5
21A6
330
219C
100
AcDbEntity
  8
0
100
AcDbBlockBegin
  2
*D30
 70
     1
 10
0.0
 20
0.0
 30
0.0
  3
*D30
  1

  0
POINT
  5
21DB
330
219C
100
AcDbEntity
  8
DEFPOINTS
 62
     0
100
AcDbPoint
 10
156.687734045
 20
186.2817098507
 30
0.0
  0
POINT
  5
21DC
330
219C
100
AcDbEntity
  8
DEFPOINTS
 62
     0
100
AcDbPoint
 10
106.687727045
 20
186.2817098507
 30
0.0
  0
POINT
  5
21DD
330
219C
100
AcDbEntity
  8
DEFPOINTS
 62
     0
100
AcDbPoint
 10
106.687727045
 20
230.1089197042
 30
0.0
  0
ENDBLK
  5
21A7
330
219C
100
AcDbEntity
  8
0
100
AcDbBlockEnd
  0
ENDSEC
  0
SECTION
  2
ENTITIES
  0
LINE
  5
678
330
2
100
AcDbEntity
  8
0
100
AcDbLine
 10
333.937734045
 20
428.5004584502
 30
0.0
 11
358.937734045
 21
428.5004584502
 31
0.0
  0
LINE
  5
679
330
2
100
AcDbEntity
  8
0
100
AcDbLine
 10
335.437734045
 20
468.5004734502
 30
0.0
 11
359.937734045
 21
468.5004734502
 31
0.0
  0
LINE
  5
67A
330
2
100
AcDbEntity
  8
0
100
AcDbLine
 10
321.244893045
 20
426.5004584502
 30
0.0
 11
371.630574045
 21
426.5004584502
 31
0.0
  0
LINE
  5
67B
330
2
100
AcDbEntity
  8
0
100
AcDbLine
 10
290.437734045
 20
332.5004584502
 30
0.0
 11
402.149221045
 21
332.5004584502
 31
0.0
  0
LINE
  5
67C
330
2
100
AcDbEntity
  8
0
100
AcDbLine
 10
403.437719045
 20
320.5004584502
 30
0.0
 11
289.437734045
 21
320.5004584502
 31
0.0
  0
LINE
  5
67D
330
2
100
AcDbEntity
  8
0
100
AcDbLine
 10
281.687734045
 20
410.5004584502
 30
0.0
 11
398.476522045
 21
410.5004584502
 31
0.0
  0
LINE
  5
67E
330
2
100
AcDbEntity
  8
CENTER
100
AcDbLine
 10
413.7759037583
 20
378.5004584502
 30
0.0
 11
44.187856045
 21
378.5004584502
 31
0.0
  0
ARC
  5
67F
330
2
100
AcDbEntity
  8
0
100
AcDbCircle
 10
756.913654593
 20
158.2817278507
 30
0.0
 40
11.0
100
AcDbArc
 50
195.826599
 51
164.173401
  0
LINE
  5
680
330
2
100
AcDbEntity
  8
0
100
AcDbLine
 10
743.413654593
 20
155.2817278507
 30
0.0
 11
749.413654593
 21
155.2817278507
 31
0.0
  0
LINE
  5
681
330
2
100
AcDbEntity
  8
0
100
AcDbLine
 10
743.413654593
 20
161.2817278507
 30
0.0
 11
749.413654593
 21
161.2817278507
 31
0.0
  0
LINE
  5
682
330
2
100
AcDbEntity
  8
0
100
AcDbLine
 10
775.351673593
 20
77.7817238507
 30
0.0
 11
738.475452593
 21
77.7817238507
 31
0.0
  0
LINE
  5
683
330
2
100
AcDbEntity
  8
0
100
AcDbLine
 10
775.351673593
 20
202.7817198507
 30
0.0
 11
738.475452593
 21
202.7817198507
 31
0.0
  0
LINE
  5
68A
330
2
100
AcDbEntity
  8
0
100
AcDbLine
 10
801.913471593
 20
68.2817238507
 30
0.0
 11
711.913669593
 21
68.2817238507
 31
0.0
  0
LINE
  5
68B
330
2
100
AcDbEntity
  8
0
100
AcDbLine
 10
711.913669593
 20
212.2817198507
 30
0.0
 11
801.913654593
 21
212.2817198507
 31
0.0
  0
LINE
  5
68C
330
2
100
AcDbEntity
  8
0
100
AcDbLine
 10
773.663654593
 20
97.7817238507
 30
0.0
 11
740.163654593
 21
97.7817238507
 31
0.0
  0
ARC
  5
68D
330
2
100
AcDbEntity
  8
0
100
AcDbCircle
 10
756.913654593
 20
158.2817278507
 30
0.0
 40
30.15
100
AcDbArc
 50
172.447296
 51
7.552612
  0
LINE
  5
68E
330
2
100
AcDbEntity
  8
0
100
AcDbLine
 10
773.663654593
 20
96.1817248507
 30
0.0
 11
740.163654593
 21
96.1817248507
 31
0.0
  0
ARC
  5
68F
330
2
100
AcDbEntity
  8
0
100
AcDbCircle
 10
756.913654593
 20
158.2817278507
 30
0.0
 40
31.75
100
AcDbArc
 50
7.552597
 51
172.447296
  0
CIRCLE
  5
690
330
2
100
AcDbEntity
  8
0
100
AcDbCircle
 10
756.913654593
 20
158.2817278507
 30
0.0
 40
27.5
  0
ARC
  5
691
330
2
100
AcDbEntity
  8
0
100
AcDbCircle
 10
756.913654593
 20
140.2817348507
 30
0.0
 40
60.0
100
AcDbArc
 50
228.189697
 51
311.810299
  0
ARC
  5
692
330
2
100
AcDbEntity
  8
0
100
AcDbCircle
 10
756.913654593
 20
140.2817348507
 30
0.0
 40
60.0
100
AcDbArc
 50
48.18961
 51
131.810394
  0
LINE
  5
693
330
2
100
AcDbEntity
  8
CENTER
100
AcDbLine
 10
801.9413894551
 20
158.2817278507
 30
0.0
 11
711.8857560253
 21
158.2817278507
 31
0.0
  0
ARC
  5
694
330
2
100
AcDbEntity
  8
0
100
AcDbCircle
 10
555.1643919233
 20
127.7817278507
 30
0.0
 40
57.5
100
AcDbArc
 50
242.540298
 51
299.460602
  0
ARC
  5
695
330
2
100
AcDbEntity
  8
0
100
AcDbCircle
 10
555.1643919233
 20
127.7817278507
 30
0.0
 40
57.25
100
AcDbArc
 50
243.004898
 51
298.995514
  0
LINE
  5
696
330
2
100
AcDbEntity
  8
0
100
AcDbLine
 10
511.0735919233
 20
100.2817238507
 30
0.0
 11
585.7741939233
 21
100.2817238507
 31
0.0
  0
LINE
  5
697
330
2
100
AcDbEntity
  8
0
100
AcDbLine
 10
511.0735919233
 20
180.2817048507
 30
0.0
 11
586.0971919233
 21
180.2817048507
 31
0.0
  0
LINE
  5
698
330
2
100
AcDbEntity
  8
0
100
AcDbLine
 10
586.1821909233
 20
77.7645838507
 30
0.0
 11
511.1297919233
 21
76.4542648507
 31
0.0
  0
LINE
  5
699
330
2
100
AcDbEntity
  8
0
100
AcDbLine
 10
586.1821909233
 20
202.7989018507
 30
0.0
 11
511.1297919233
 21
204.1086088507
 31
0.0
  0
LINE
  5
69A
330
2
100
AcDbEntity
  8
CENTER
100
AcDbLine
 10
484.1645919233
 20
158.2817278507
 30
0.0
 11
658.1643989233
 21
158.2817278507
 31
0.0
  0
LINE
  5
69B
330
2
100
AcDbEntity
  8
CENTER
100
AcDbLine
 10
484.1645919233
 20
127.7817278507
 30
0.0
 11
625.6643919233
 21
127.7817278507
 31
0.0
  0
LINE
  5
69C
330
2
100
AcDbEntity
  8
0
100
AcDbLine
 10
509.1645919233
 20
70.2817438507
 30
0.0
 11
509.1645919233
 21
210.2817198507
 31
0.0
  0
LINE
  5
69D
330
2
100
AcDbEntity
  8
0
100
AcDbLine
 10
497.1645919233
 20
212.2817198507
 30
0.0
 11
497.1645919233
 21
68.2817038507
 31
0.0
  0
LINE
  5
69E
330
2
100
AcDbEntity
  8
CENTER
100
AcDbLine
 10
555.1643919233
 20
57.2817278507
 30
0.0
 11
555.1643919233
 21
216.3401800646
 31
0.0
  0
ARC
  5
69F
330
2
100
AcDbEntity
  8
0
100
AcDbCircle
 10
511.1645919233
 20
74.4545828507
 30
0.0
 40
2.0
100
AcDbArc
 50
91.000633
 51
180.0
  0
ARC
  5
6A0
330
2
100
AcDbEntity
  8
0
100
AcDbCircle
 10
507.2463919233
 20
70.7817438507
 30
0.0
 40
2.5
100
AcDbArc
 50
270.0
 51
345.000214
  0
ARC
  5
6A1
330
2
100
AcDbEntity
  8
0
100
AcDbCircle
 10
507.1645919233
 20
70.2817438507
 30
0.0
 40
2.0
100
AcDbArc
 50
270.0
 51
0.0
  0
LINE
  5
6A2
330
2
100
AcDbEntity
  8
HIDS
  6
sekkei_H
100
AcDbLine
 10
497.1645919233
 20
74.7817048507
 30
0.0
 11
509.1645919233
 21
74.7817048507
 31
0.0
  0
LINE
  5
6A3
330
2
100
AcDbEntity
  8
CENTER
100
AcDbLine
 10
490.1645919233
 20
80.2817048507
 30
0.0
 11
516.1645919233
 21
80.2817048507
 31
0.0
  0
LINE
  5
6A4
330
2
100
AcDbEntity
  8
HIDS
  6
sekkei_H
100
AcDbLine
 10
497.1645919233
 20
85.7817048507
 30
0.0
 11
509.1645919233
 21
85.7817048507
 31
0.0
  0
LINE
  5
6A5
330
2
100
AcDbEntity
  8
0
100
AcDbLine
 10
507.2463919233
 20
68.2817438507
 30
0.0
 11
497.1645919233
 21
68.2817438507
 31
0.0
  0
LINE
  5
6A6
330
2
100
AcDbEntity
  8
0
100
AcDbLine
 10
509.6611909233
 20
70.1347038507
 30
0.0
 11
510.7703929233
 21
74.2745448507
 31
0.0
  0
ARC
  5
6A7
330
2
100
AcDbEntity
  8
0
100
AcDbCircle
 10
513.6681909233
 20
73.4981028507
 30
0.0
 40
3.0
100
AcDbArc
 50
91.000526
 51
165.000305
  0
ARC
  5
6AA
330
2
100
AcDbEntity
  8
0
100
AcDbCircle
 10
507.2463919233
 20
209.7817198507
 30
0.0
 40
2.5
100
AcDbArc
 50
15.00076
 51
90.0
  0
LINE
  5
6AB
330
2
100
AcDbEntity
  8
HIDS
  6
sekkei_H
100
AcDbLine
 10
497.1645919233
 20
194.7817198507
 30
0.0
 11
509.1645919233
 21
194.7817198507
 31
0.0
  0
LINE
  5
6AC
330
2
100
AcDbEntity
  8
HIDS
  6
sekkei_H
100
AcDbLine
 10
497.1645919233
 20
205.7817198507
 30
0.0
 11
509.1645919233
 21
205.7817198507
 31
0.0
  0
LINE
  5
6AD
330
2
100
AcDbEntity
  8
CENTER
100
AcDbLine
 10
490.1645919233
 20
200.2817198507
 30
0.0
 11
516.1645919233
 21
200.2817198507
 31
0.0
  0
ARC
  5
6AE
330
2
100
AcDbEntity
  8
0
100
AcDbCircle
 10
511.1645919233
 20
206.1083188507
 30
0.0
 40
2.0
100
AcDbArc
 50
180.0
 51
269.00061
  0
ARC
  5
6AF
330
2
100
AcDbEntity
  8
0
100
AcDbCircle
 10
507.1645919233
 20
210.2817198507
 30
0.0
 40
2.0
100
AcDbArc
 50
0.0
 51
90.0
  0
LINE
  5
6B0
330
2
100
AcDbEntity
  8
0
100
AcDbLine
 10
507.2463919233
 20
212.2817198507
 30
0.0
 11
497.1645919233
 21
212.2817198507
 31
0.0
  0
LINE
  5
6B1
330
2
100
AcDbEntity
  8
0
100
AcDbLine
 10
509.6611909233
 20
210.4287998507
 30
0.0
 11
510.7705929233
 21
206.2882808507
 31
0.0
  0
ARC
  5
6B2
330
2
100
AcDbEntity
  8
0
100
AcDbCircle
 10
513.6683909233
 20
207.0648008507
 30
0.0
 40
3.0
100
AcDbArc
 50
195.000702
 51
269.000488
  0
ARC
  5
6B3
330
2
100
AcDbEntity
  8
0
100
AcDbCircle
 10
555.1643919233
 20
127.7817278507
 30
0.0
 40
57.5
100
AcDbArc
 50
326.003231
 51
19.823891
  0
ARC
  5
6B4
330
2
100
AcDbEntity
  8
0
100
AcDbCircle
 10
555.1643919233
 20
127.7817278507
 30
0.0
 40
57.25
100
AcDbArc
 50
327.498112
 51
19.91411
  0
ARC
  5
6B5
330
2
100
AcDbEntity
  8
0
100
AcDbCircle
 10
596.1643919233
 20
125.8183338507
 30
0.0
 40
3.0
100
AcDbArc
 50
104.876099
 51
180.0
  0
LINE
  5
6B6
330
2
100
AcDbEntity
  8
0
100
AcDbLine
 10
593.1643919233
 20
100.0865638507
 30
0.0
 11
593.1643919233
 21
160.3517048507
 31
0.0
  0
LINE
  5
6B7
330
2
100
AcDbEntity
  8
0
100
AcDbLine
 10
587.1643919233
 20
78.7644028507
 30
0.0
 11
587.1643919233
 21
201.7990388507
 31
0.0
  0
LINE
  5
6B8
330
2
100
AcDbEntity
  8
0
100
AcDbLine
 10
704.413669593
 20
102.9014828507
 30
0.0
 11
704.413669593
 21
177.6619608507
 31
0.0
  0
LINE
  5
6B9
330
2
100
AcDbEntity
  8
0
100
AcDbLine
 10
699.913669593
 20
200.2817198507
 30
0.0
 11
699.913669593
 21
80.2817238507
 31
0.0
  0
LINE
  5
6BA
330
2
100
AcDbEntity
  8
0
100
AcDbLine
 10
727.025074593
 20
162.2445798507
 30
0.0
 11
721.328480593
 21
119.2790538507
 31
0.0
  0
LINE
  5
6BB
330
2
100
AcDbEntity
  8
0
100
AcDbLine
 10
725.439075593
 20
162.4548838507
 30
0.0
 11
719.742267593
 21
119.4893538507
 31
0.0
  0
LINE
  5
6BC
330
2
100
AcDbEntity
  8
0
100
AcDbLine
 10
706.913669593
 20
162.6424068507
 30
0.0
 11
706.913669593
 21
117.9210598507
 31
0.0
  0
ARC
  5
6BD
330
2
100
AcDbEntity
  8
0
100
AcDbCircle
 10
607.6643919233
 20
94.3330618507
 30
0.0
 40
5.0
100
AcDbArc
 50
147.498093
 51
180.0
  0
ARC
  5
6BE
330
2
100
AcDbEntity
  8
0
100
AcDbCircle
 10
590.1643919233
 20
93.8768848507
 30
0.0
 40
3.0
100
AcDbArc
 50
104.931801
 51
180.0
  0
ARC
  5
6BF
330
2
100
AcDbEntity
  8
0
100
AcDbCircle
 10
597.6643919233
 20
85.2817048507
 30
0.0
 40
5.0
100
AcDbArc
 50
270.0
 51
0.0
  0
LINE
  5
6C0
330
2
100
AcDbEntity
  8
0
100
AcDbLine
 10
597.6643919233
 20
80.2817048507
 30
0.0
 11
588.6133889233
 21
80.2817048507
 31
0.0
  0
ARC
  5
6C1
330
2
100
AcDbEntity
  8
0
100
AcDbCircle
 10
588.6133889233
 20
75.2817048507
 30
0.0
 40
5.0
100
AcDbArc
 50
90.0
 51
106.842003
  0
ARC
  5
6C2
330
2
100
AcDbEntity
  8
0
100
AcDbCircle
 10
555.1643919233
 20
127.7817278507
 30
0.0
 40
57.5
100
AcDbArc
 50
303.815613
 51
303.997314
  0
ARC
  5
6C3
330
2
100
AcDbEntity
  8
0
100
AcDbCircle
 10
555.1643919233
 20
127.7817278507
 30
0.0
 40
57.499821
100
AcDbArc
 50
303.815704
 51
303.996307
  0
ARC
  5
6C4
330
2
100
AcDbEntity
  8
0
100
AcDbCircle
 10
586.1643919233
 20
78.7644028507
 30
0.0
 40
1.0
100
AcDbArc
 50
271.000427
 51
0.0
  0
LINE
  5
6C5
330
2
100
AcDbEntity
  8
0
100
AcDbLine
 10
602.6643919233
 20
85.2817048507
 30
0.0
 11
602.6643919233
 21
94.3330618507
 31
0.0
  0
ARC
  5
6C6
330
2
100
AcDbEntity
  8
0
100
AcDbCircle
 10
590.1643919233
 20
100.0865638507
 30
0.0
 40
3.0
100
AcDbArc
 50
284.93158
 51
0.0
  0
LINE
  5
6C7
330
2
100
AcDbEntity
  8
0
100
AcDbLine
 10
590.9375929233
 20
97.1878818507
 30
0.0
 11
589.3915949233
 21
96.7755818507
 31
0.0
  0
ARC
  5
6C8
330
2
100
AcDbEntity
  8
0
100
AcDbCircle
 10
711.913669593
 20
80.2817238507
 30
0.0
 40
12.0
100
AcDbArc
 50
180.0
 51
270.0
  0
ARC
  5
6C9
330
2
100
AcDbEntity
  8
0
100
AcDbCircle
 10
736.913654593
 20
117.9210558507
 30
0.0
 40
30.0
100
AcDbArc
 50
180.0
 51
228.189606
  0
LINE
  5
6CA
330
2
100
AcDbEntity
  8
0
100
AcDbLine
 10
735.629474593
 20
78.6707638507
 30
0.0
 11
706.567463593
 21
98.7905238507
 31
0.0
  0
ARC
  5
6CB
330
2
100
AcDbEntity
  8
0
100
AcDbCircle
 10
740.163654593
 20
116.7817278507
 30
0.0
 40
19.0
100
AcDbArc
 50
172.447296
 51
270.0
  0
ARC
  5
6CC
330
2
100
AcDbEntity
  8
0
100
AcDbCircle
 10
740.163654593
 20
116.7817278507
 30
0.0
 40
20.6
100
AcDbArc
 50
172.447296
 51
270.0
  0
CIRCLE
  5
6CD
330
2
100
AcDbEntity
  8
0
100
AcDbCircle
 10
711.913669593
 20
80.2817238507
 30
0.0
 40
5.5
  0
LINE
  5
6D0
330
2
100
AcDbEntity
  8
0
100
AcDbLine
 10
736.913654593
 20
76.4412828507
 30
0.0
 11
736.913654593
 21
69.6207038507
 31
0.0
  0
ARC
  5
6D1
330
2
100
AcDbEntity
  8
0
100
AcDbCircle
 10
738.475452593
 20
82.7817238507
 30
0.0
 40
5.0
100
AcDbArc
 50
235.304794
 51
270.0
  0
ARC
  5
6D2
330
2
100
AcDbEntity
  8
0
100
AcDbCircle
 10
709.413471593
 20
102.9015238507
 30
0.0
 40
5.0
100
AcDbArc
 50
180.0
 51
235.305206
  0
ARC
  5
6DB
330
2
100
AcDbEntity
  8
0
100
AcDbCircle
 10
600.1643919233
 20
183.4745608507
 30
0.0
 40
3.0
100
AcDbArc
 50
0.0
 51
75.124413
  0
LINE
  5
6DC
330
2
100
AcDbEntity
  8
0
100
AcDbLine
 10
600.9347929233
 20
186.3740048507
 30
0.0
 11
589.3945929233
 21
189.4394038507
 31
0.0
  0
LINE
  5
6DD
330
2
100
AcDbEntity
  8
0
100
AcDbLine
 10
613.1643919233
 20
155.2817278507
 30
0.0
 11
645.1643989233
 21
155.2817278507
 31
0.0
  0
LINE
  5
6DE
330
2
100
AcDbEntity
  8
0
100
AcDbLine
 10
613.1643919233
 20
161.2817048507
 30
0.0
 11
645.1643989233
 21
161.2817048507
 31
0.0
  0
LINE
  5
6DF
330
2
100
AcDbEntity
  8
0
100
AcDbLine
 10
605.1643919233
 20
147.2817278507
 30
0.0
 11
645.1643989233
 21
147.2817278507
 31
0.0
  0
LINE
  5
6E0
330
2
100
AcDbEntity
  8
0
100
AcDbLine
 10
605.1643919233
 20
169.2817048507
 30
0.0
 11
645.1643989233
 21
169.2817048507
 31
0.0
  0
ARC
  5
6E1
330
2
100
AcDbEntity
  8
0
100
AcDbCircle
 10
613.1643919233
 20
158.2817278507
 30
0.0
 40
3.0
100
AcDbArc
 50
90.0
 51
270.0
  0
LINE
  5
6E2
330
2
100
AcDbEntity
  8
0
100
AcDbLine
 10
605.1643919233
 20
170.7817048507
 30
0.0
 11
605.1643919233
 21
145.7817278507
 31
0.0
  0
LINE
  5
6E3
330
2
100
AcDbEntity
  8
0
100
AcDbLine
 10
603.1643919233
 20
133.0888798507
 30
0.0
 11
603.1643919233
 21
183.4745608507
 31
0.0
  0
LINE
  5
6E4
330
2
100
AcDbEntity
  8
0
100
AcDbLine
 10
600.9347929233
 20
130.1894268507
 30
0.0
 11
595.3941889233
 21
128.7177708507
 31
0.0
  0
ARC
  5
6E5
330
2
100
AcDbEntity
  8
0
100
AcDbCircle
 10
600.1643919233
 20
133.0888798507
 30
0.0
 40
3.0
100
AcDbArc
 50
284.875793
 51
0.0
  0
LINE
  5
6E6
330
2
100
AcDbEntity
  8
0
100
AcDbLine
 10
603.1643919233
 20
145.7817278507
 30
0.0
 11
605.1643919233
 21
145.7817278507
 31
0.0
  0
LINE
  5
6E7
330
2
100
AcDbEntity
  8
0
100
AcDbLine
 10
603.1643919233
 20
170.7817048507
 30
0.0
 11
605.1643919233
 21
170.7817048507
 31
0.0
  0
LINE
  5
6E8
330
2
100
AcDbEntity
  8
0
100
AcDbLine
 10
645.1643989233
 20
147.2817278507
 30
0.0
 11
645.1643989233
 21
169.2817048507
 31
0.0
  0
ARC
  5
6E9
330
2
100
AcDbEntity
  8
0
100
AcDbCircle
 10
590.1643919233
 20
192.3388798507
 30
0.0
 40
3.0
100
AcDbArc
 50
180.0
 51
255.124603
  0
ARC
  5
6EA
330
2
100
AcDbEntity
  8
0
100
AcDbCircle
 10
586.1643919233
 20
201.7990388507
 30
0.0
 40
1.0
100
AcDbArc
 50
0.0
 51
89.000359
  0
LINE
  5
6EB
330
2
100
AcDbEntity
  8
0
100
AcDbLine
 10
706.567463593
 20
181.7729228507
 30
0.0
 11
735.629474593
 21
201.8926818507
 31
0.0
  0
LINE
  5
6EC
330
2
100
AcDbEntity
  8
0
100
AcDbLine
 10
743.413654593
 20
161.2817278507
 30
0.0
 11
743.413654593
 21
155.2817278507
 31
0.0
  0
ARC
  5
6ED
330
2
100
AcDbEntity
  8
0
100
AcDbCircle
 10
736.913654593
 20
162.6424068507
 30
0.0
 40
30.0
100
AcDbArc
 50
131.810394
 51
180.0
  0
ARC
  5
6EE
330
2
100
AcDbEntity
  8
0
100
AcDbCircle
 10
709.413669593
 20
177.6619838507
 30
0.0
 40
5.0
100
AcDbArc
 50
124.695503
 51
180.0
  0
ARC
  5
6EF
330
2
100
AcDbEntity
  8
0
100
AcDbCircle
 10
711.913669593
 20
200.2817198507
 30
0.0
 40
12.0
100
AcDbArc
 50
90.0
 51
180.0
  0
CIRCLE
  5
6F0
330
2
100
AcDbEntity
  8
0
100
AcDbCircle
 10
711.913669593
 20
200.2817198507
 30
0.0
 40
5.5
  0
LINE
  5
6F3
330
2
100
AcDbEntity
  8
0
100
AcDbLine
 10
736.913654593
 20
211.5366788507
 30
0.0
 11
736.913654593
 21
203.3400088507
 31
0.0
  0
ARC
  5
6F4
330
2
100
AcDbEntity
  8
0
100
AcDbCircle
 10
738.475452593
 20
197.7817198507
 30
0.0
 40
5.0
100
AcDbArc
 50
90.0
 51
124.695396
  0
LINE
  5
6F6
330
2
100
AcDbEntity
  8
0
100
AcDbLine
 10
399.976018045
 20
409.0397644502
 30
0.0
 11
401.959722045
 21
333.3027654502
 31
0.0
  0
LINE
  5
6F7
330
2
100
AcDbEntity
  8
0
100
AcDbLine
 10
366.437734045
 20
410.5004584502
 30
0.0
 11
366.437734045
 21
333.3027654502
 31
0.0
  0
LINE
  5
6F8
330
2
100
AcDbEntity
  8
0
100
AcDbLine
 10
357.020742045
 20
468.5004734502
 30
0.0
 11
357.020742045
 21
433.5004584502
 31
0.0
  0
LINE
  5
6F9
330
2
100
AcDbEntity
  8
0
100
AcDbLine
 10
359.937734045
 20
433.5004584502
 30
0.0
 11
359.937734045
 21
468.5004734502
 31
0.0
  0
ARC
  5
6FA
330
2
100
AcDbEntity
  8
0
100
AcDbCircle
 10
386.088887045
 20
413.5004584502
 30
0.0
 40
3.0
100
AcDbArc
 50
194.875682
 51
270.0
  0
ARC
  5
6FB
330
2
100
AcDbEntity
  8
0
100
AcDbCircle
 10
398.476415045
 20
409.0004584502
 30
0.0
 40
1.5
100
AcDbArc
 50
1.500198
 51
90.0
  0
ARC
  5
6FC
330
2
100
AcDbEntity
  8
0
100
AcDbCircle
 10
379.880819045
 20
413.5004584502
 30
0.0
 40
3.0
100
AcDbArc
 50
14.875687
 51
90.0
  0
LINE
  5
6FD
330
2
100
AcDbEntity
  8
0
100
AcDbLine
 10
382.780263045
 20
414.2706304502
 30
0.0
 11
383.189412045
 21
412.7303164502
 31
0.0
  0
ARC
  5
6FE
330
2
100
AcDbEntity
  8
0
100
AcDbCircle
 10
371.630574045
 20
423.5004584502
 30
0.0
 40
3.0
100
AcDbArc
 50
14.875687
 51
90.0
  0
LINE
  5
6FF
330
2
100
AcDbEntity
  8
0
100
AcDbLine
 10
357.437734045
 20
428.5004584502
 30
0.0
 11
357.437734045
 21
433.5004584502
 31
0.0
  0
LINE
  5
700
330
2
100
AcDbEntity
  8
0
100
AcDbLine
 10
357.020742045
 20
433.5004584502
 30
0.0
 11
359.937734045
 21
433.5004584502
 31
0.0
  0
LINE
  5
701
330
2
100
AcDbEntity
  8
0
100
AcDbLine
 10
358.937734045
 20
426.5004584502
 30
0.0
 11
358.937734045
 21
428.5004584502
 31
0.0
  0
LINE
  5
702
330
2
100
AcDbEntity
  8
0
100
AcDbLine
 10
376.593984045
 20
416.5004584502
 30
0.0
 11
374.530019045
 21
424.2706304502
 31
0.0
  0
LINE
  5
703
330
2
100
AcDbEntity
  8
0
100
AcDbLine
 10
376.593984045
 20
416.5004584502
 30
0.0
 11
379.880819045
 21
416.5004584502
 31
0.0
  0
LINE
  5
704
330
2
100
AcDbEntity
  8
CENTER
100
AcDbLine
 10
391.437795045
 20
313.5004584502
 30
0.0
 11
391.437795045
 21
339.5004584502
 31
0.0
  0
LINE
  5
705
330
2
100
AcDbEntity
  8
HIDS
  6
sekkei_H
100
AcDbLine
 10
396.937795045
 20
320.5004584502
 30
0.0
 11
396.937795045
 21
332.5004584502
 31
0.0
  0
LINE
  5
706
330
2
100
AcDbEntity
  8
0
100
AcDbLine
 10
403.437719045
 20
320.5004584502
 30
0.0
 11
403.148915045
 21
331.5266724502
 31
0.0
  0
ARC
  5
707
330
2
100
AcDbEntity
  8
0
100
AcDbCircle
 10
402.959127045
 20
333.3289794502
 30
0.0
 40
1.0
100
AcDbArc
 50
181.5004
 51
246.108803
  0
ARC
  5
708
330
2
100
AcDbEntity
  8
0
100
AcDbCircle
 10
402.149221045
 20
331.5004584502
 30
0.0
 40
1.0
100
AcDbArc
 50
1.500107
 51
90.0
  0
LINE
  5
709
330
2
100
AcDbEntity
  8
HIDS
  6
sekkei_H
100
AcDbLine
 10
385.937795045
 20
320.5004584502
 30
0.0
 11
385.937795045
 21
332.5004584502
 31
0.0
  0
LINE
  5
70A
330
2
100
AcDbEntity
  8
CENTER
100
AcDbLine
 10
1059.163715593
 20
116.7817238507
 30
0.0
 11
788.913685593
 21
116.7817238507
 31
0.0
  0
LINE
  5
70B
330
2
100
AcDbEntity
  8
0
100
AcDbLine
 10
987.663715593
 20
86.5327438507
 30
0.0
 11
881.663685593
 21
86.5327438507
 31
0.0
  0
LINE
  5
70C
330
2
100
AcDbEntity
  8
0
100
AcDbLine
 10
987.663715593
 20
147.0307048507
 30
0.0
 11
881.663685593
 21
147.0307048507
 31
0.0
  0
LINE
  5
70D
330
2
100
AcDbEntity
  8
0
100
AcDbLine
 10
987.663715593
 20
78.7817448507
 30
0.0
 11
873.663685593
 21
78.7817448507
 31
0.0
  0
LINE
  5
70E
330
2
100
AcDbEntity
  8
0
100
AcDbLine
 10
987.663715593
 20
154.7817048507
 30
0.0
 11
873.663685593
 21
154.7817048507
 31
0.0
  0
LINE
  5
70F
330
2
100
AcDbEntity
  8
0
100
AcDbLine
 10
873.663685593
 20
154.7817278507
 30
0.0
 11
873.663685593
 21
78.7817238507
 31
0.0
  0
LINE
  5
710
330
2
100
AcDbEntity
  8
0
100
AcDbLine
 10
829.663685593
 20
184.2817198507
 30
0.0
 11
829.663685593
 21
86.8690668507
 31
0.0
  0
LINE
  5
711
330
2
100
AcDbEntity
  8
0
100
AcDbLine
 10
881.663685593
 20
152.7817048507
 30
0.0
 11
881.663685593
 21
80.7817238507
 31
0.0
  0
LINE
  5
712
330
2
100
AcDbEntity
  8
0
100
AcDbLine
 10
821.663654593
 20
185.2817198507
 30
0.0
 11
821.663654593
 21
70.2817238507
 31
0.0
  0
LINE
  5
713
330
2
100
AcDbEntity
  8
0
100
AcDbLine
 10
821.663654593
 20
185.2818418507
 30
0.0
 11
821.663654593
 21
70.2818368507
 31
0.0
  0
LINE
  5
714
330
2
100
AcDbEntity
  8
0
100
AcDbLine
 10
814.663654593
 20
78.0316248507
 30
0.0
 11
814.663654593
 21
173.2817278507
 31
0.0
  0
LINE
  5
715
330
2
100
AcDbEntity
  8
0
100
AcDbLine
 10
792.498676593
 20
119.2790188507
 30
0.0
 11
786.802051593
 21
162.2445418507
 31
0.0
  0
LINE
  5
716
330
2
100
AcDbEntity
  8
0
100
AcDbLine
 10
794.084858593
 20
119.4893158507
 30
0.0
 11
788.388080593
 21
162.4548228507
 31
0.0
  0
LINE
  5
717
330
2
100
AcDbEntity
  8
0
100
AcDbLine
 10
806.913654593
 20
161.7817278507
 30
0.0
 11
806.913654593
 21
117.9210368507
 31
0.0
  0
LINE
  5
718
330
2
100
AcDbEntity
  8
CENTER
100
AcDbLine
 10
756.913654593
 20
225.2817198507
 30
0.0
 11
756.913654593
 21
55.2817238507
 31
0.0
  0
LINE
  5
719
330
2
100
AcDbEntity
  8
0
100
AcDbLine
 10
829.663685593
 20
97.1817248507
 30
0.0
 11
873.663685593
 21
97.1817248507
 31
0.0
  0
LINE
  5
71A
330
2
100
AcDbEntity
  8
0
100
AcDbLine
 10
829.663685593
 20
107.3817218507
 30
0.0
 11
873.663685593
 21
107.3817218507
 31
0.0
  0
LINE
  5
71B
330
2
100
AcDbEntity
  8
0
100
AcDbLine
 10
821.663685593
 20
76.9658438507
 30
0.0
 11
873.663685593
 21
78.7817238507
 31
0.0
  0
LINE
  5
71C
330
2
100
AcDbEntity
  8
0
100
AcDbLine
 10
798.740467593
 20
92.8926858507
 30
0.0
 11
778.197651593
 21
78.6707638507
 31
0.0
  0
ARC
  5
71E
330
2
100
AcDbEntity
  8
0
100
AcDbCircle
 10
773.663654593
 20
116.7817278507
 30
0.0
 40
19.0
100
AcDbArc
 50
270.0
 51
7.552399
  0
ARC
  5
71F
330
2
100
AcDbEntity
  8
0
100
AcDbCircle
 10
773.663654593
 20
116.7817278507
 30
0.0
 40
20.6
100
AcDbArc
 50
270.0
 51
7.552597
  0
LINE
  5
720
330
2
100
AcDbEntity
  8
0
100
AcDbLine
 10
776.913654593
 20
76.4412828507
 30
0.0
 11
776.913654593
 21
69.6207038507
 31
0.0
  0
ARC
  5
721
330
2
100
AcDbEntity
  8
0
100
AcDbCircle
 10
775.351673593
 20
82.7817238507
 30
0.0
 40
5.0
100
AcDbArc
 50
270.0
 51
304.69519
  0
ARC
  5
754
330
2
100
AcDbEntity
  8
0
100
AcDbCircle
 10
776.913654593
 20
117.9210368507
 30
0.0
 40
30.0
100
AcDbArc
 50
311.810299
 51
0.0
  0
LINE
  5
755
330
2
100
AcDbEntity
  8
0
100
AcDbLine
 10
816.674457593
 20
80.2542848507
 30
0.0
 11
821.663654593
 21
80.2817258507
 31
0.0
  0
LINE
  5
756
330
2
100
AcDbEntity
  8
0
100
AcDbLine
 10
816.099079593
 20
70.5317238507
 30
0.0
 11
821.663654593
 21
70.5317238507
 31
0.0
  0
ARC
  5
757
330
2
100
AcDbEntity
  8
0
100
AcDbCircle
 10
816.663654593
 20
82.2542638507
 30
0.0
 40
2.0
100
AcDbArc
 50
180.0
 51
270.315186
  0
CIRCLE
  5
758
330
2
100
AcDbEntity
  8
0
100
AcDbCircle
 10
801.913654593
 20
80.2817238507
 30
0.0
 40
5.5
  0
ARC
  5
75A
330
2
100
AcDbEntity
  8
0
100
AcDbCircle
 10
801.913654593
 20
80.2817238507
 30
0.0
 40
12.0
100
AcDbArc
 50
270.0
 51
358.060608
  0
LINE
  5
75B
330
2
100
AcDbEntity
  8
0
100
AcDbLine
 10
814.571674593
 20
79.4101248507
 30
0.0
 11
815.101276593
 21
71.4652038507
 31
0.0
  0
ARC
  5
75C
330
2
100
AcDbEntity
  8
0
100
AcDbCircle
 10
816.099079593
 20
71.5317238507
 30
0.0
 40
1.0
100
AcDbArc
 50
183.814194
 51
270.0
  0
ARC
  5
75D
330
2
100
AcDbEntity
  8
0
100
AcDbCircle
 10
814.072864593
 20
79.3768638507
 30
0.0
 40
0.5
100
AcDbArc
 50
3.81418
 51
90.0
  0
LINE
  5
75E
330
2
100
AcDbEntity
  8
0
100
AcDbLine
 10
814.072864593
 20
79.8768638507
 30
0.0
 11
813.870075593
 21
79.8768638507
 31
0.0
  0
LINE
  5
75F
330
2
100
AcDbEntity
  8
0
100
AcDbLine
 10
801.586658593
 20
93.7817238507
 30
0.0
 11
809.663654593
 21
93.7817238507
 31
0.0
  0
ARC
  5
760
330
2
100
AcDbEntity
  8
0
100
AcDbCircle
 10
801.586658593
 20
88.7817238507
 30
0.0
 40
5.0
100
AcDbArc
 50
90.0
 51
124.695396
  0
ARC
  5
761
330
2
100
AcDbEntity
  8
0
100
AcDbCircle
 10
809.663654593
 20
88.7817048507
 30
0.0
 40
5.0
100
AcDbArc
 50
0.0
 51
90.0
  0
ARC
  5
762
330
2
100
AcDbEntity
  8
0
100
AcDbCircle
 10
832.163685593
 20
74.8309888507
 30
0.0
 40
2.5
100
AcDbArc
 50
92.0
 51
180.0
  0
LINE
  5
763
330
2
100
AcDbEntity
  8
0
100
AcDbLine
 10
829.663685593
 20
72.7817238507
 30
0.0
 11
829.663685593
 21
74.8309888507
 31
0.0
  0
LINE
  5
764
330
2
100
AcDbEntity
  8
0
100
AcDbLine
 10
827.163685593
 20
70.2817238507
 30
0.0
 11
821.663685593
 21
70.2817238507
 31
0.0
  0
ARC
  5
765
330
2
100
AcDbEntity
  8
0
100
AcDbCircle
 10
827.163685593
 20
72.7817238507
 30
0.0
 40
2.5
100
AcDbArc
 50
270.0
 51
0.0
  0
LINE
  5
766
330
2
100
AcDbEntity
  8
0
100
AcDbLine
 10
828.538593593
 20
84.6277248507
 30
0.0
 11
821.663685593
 21
84.6277248507
 31
0.0
  0
LINE
  5
767
330
2
100
AcDbEntity
  8
0
100
AcDbLine
 10
815.116657593
 20
95.8217248507
 30
0.0
 11
821.663654593
 21
95.8217248507
 31
0.0
  0
ARC
  5
768
330
2
100
AcDbEntity
  8
0
100
AcDbCircle
 10
879.663685593
 20
80.7817448507
 30
0.0
 40
2.0
100
AcDbArc
 50
270.0
 51
0.0
  0
LINE
  5
769
330
2
100
AcDbEntity
  8
0
100
AcDbLine
 10
831.076801593
 20
168.0995298507
 30
0.0
 11
857.020252593
 21
155.5751158507
 31
0.0
  0
LINE
  5
76A
330
2
100
AcDbEntity
  8
0
100
AcDbLine
 10
832.076435593
 20
156.2339828507
 30
0.0
 11
873.663685593
 21
154.7817278507
 31
0.0
  0
LINE
  5
76B
330
2
100
AcDbEntity
  8
CENTER
100
AcDbLine
 10
863.436390593
 20
127.7817278507
 30
0.0
 11
789.719898593
 21
127.7817278507
 31
0.0
  0
LINE
  5
76C
330
2
100
AcDbEntity
  8
0
100
AcDbLine
 10
807.259662593
 20
181.7729228507
 30
0.0
 11
778.197651593
 21
201.8926818507
 31
0.0
  0
LINE
  5
76D
330
2
100
AcDbEntity
  8
0
100
AcDbLine
 10
813.913654593
 20
200.2816898507
 30
0.0
 11
813.913654593
 21
185.0317198507
 31
0.0
  0
LINE
  5
76E
330
2
100
AcDbEntity
  8
0
100
AcDbLine
 10
749.413654593
 20
161.2817278507
 30
0.0
 11
749.413654593
 21
155.2817278507
 31
0.0
  0
ARC
  5
76F
330
2
100
AcDbEntity
  8
0
100
AcDbCircle
 10
832.163685593
 20
158.7324568507
 30
0.0
 40
2.5
100
AcDbArc
 50
180.0
 51
268.0
  0
LINE
  5
770
330
2
100
AcDbEntity
  8
0
100
AcDbLine
 10
815.116657593
 20
159.7417268507
 30
0.0
 11
821.663654593
 21
159.7417268507
 31
0.0
  0
LINE
  5
771
330
2
100
AcDbEntity
  8
0
100
AcDbLine
 10
811.413654593
 20
175.2817278507
 30
0.0
 11
821.663654593
 21
175.2817278507
 31
0.0
  0
LINE
  5
772
330
2
100
AcDbEntity
  8
0
100
AcDbLine
 10
821.663654593
 20
185.0317198507
 30
0.0
 11
804.114460593
 21
185.0317198507
 31
0.0
  0
ARC
  5
773
330
2
100
AcDbEntity
  8
0
100
AcDbCircle
 10
776.913654593
 20
162.6424228507
 30
0.0
 40
30.0
100
AcDbArc
 50
358.328796
 51
48.18961
  0
ARC
  5
774
330
2
100
AcDbEntity
  8
0
100
AcDbCircle
 10
804.413654593
 20
177.6619458507
 30
0.0
 40
5.0
100
AcDbArc
 50
0.0
 51
55.304981
  0
ARC
  5
775
330
2
100
AcDbEntity
  8
0
100
AcDbCircle
 10
804.114277593
 20
190.0317198507
 30
0.0
 40
5.0
100
AcDbArc
 50
235.304794
 51
270.0
  0
ARC
  5
776
330
2
100
AcDbEntity
  8
0
100
AcDbCircle
 10
811.413654593
 20
177.2817278507
 30
0.0
 40
2.0
100
AcDbArc
 50
180.0
 51
270.0
  0
LINE
  5
777
330
2
100
AcDbEntity
  8
0
100
AcDbLine
 10
809.413654593
 20
177.2817278507
 30
0.0
 11
809.413654593
 21
177.6619608507
 31
0.0
  0
ARC
  5
778
330
2
100
AcDbEntity
  8
0
100
AcDbCircle
 10
816.663654593
 20
173.2817428507
 30
0.0
 40
2.0
100
AcDbArc
 50
90.0
 51
180.0
  0
ARC
  5
77A
330
2
100
AcDbEntity
  8
0
100
AcDbCircle
 10
832.163685593
 20
170.3509028507
 30
0.0
 40
2.5
100
AcDbArc
 50
180.0
 51
244.230682
  0
LINE
  5
77B
330
2
100
AcDbEntity
  8
0
100
AcDbLine
 10
828.663685593
 20
185.2817198507
 30
0.0
 11
821.663654593
 21
185.2817198507
 31
0.0
  0
ARC
  5
77C
330
2
100
AcDbEntity
  8
0
100
AcDbCircle
 10
828.663685593
 20
184.2817198507
 30
0.0
 40
1.0
100
AcDbArc
 50
0.0
 51
90.0
  0
LINE
  5
77D
330
2
100
AcDbEntity
  8
CENTER
100
AcDbLine
 10
812.253956593
 20
200.2817198507
 30
0.0
 11
791.573352593
 21
200.2817198507
 31
0.0
  0
LINE
  5
77E
330
2
100
AcDbEntity
  8
0
100
AcDbLine
 10
776.913654593
 20
211.5366788507
 30
0.0
 11
776.913654593
 21
203.3400088507
 31
0.0
  0
ARC
  5
77F
330
2
100
AcDbEntity
  8
0
100
AcDbCircle
 10
775.351673593
 20
197.7817198507
 30
0.0
 40
5.0
100
AcDbArc
 50
55.305019
 51
90.0
  0
ARC
  5
780
330
2
100
AcDbEntity
  8
0
100
AcDbCircle
 10
801.913654593
 20
200.2817198507
 30
0.0
 40
12.0
100
AcDbArc
 50
0.0
 51
90.0
  0
CIRCLE
  5
781
330
2
100
AcDbEntity
  8
0
100
AcDbCircle
 10
801.913654593
 20
200.2817198507
 30
0.0
 40
5.5
  0
LINE
  5
782
330
2
100
AcDbEntity
  8
CENTER
100
AcDbLine
 10
801.913654593
 20
210.6220218507
 30
0.0
 11
801.913654593
 21
189.9414178507
 31
0.0
  0
ARC
  5
783
330
2
100
AcDbEntity
  8
0
100
AcDbCircle
 10
858.107105593
 20
157.8264968507
 30
0.0
 40
2.5
100
AcDbArc
 50
244.230675
 51
268.0
  0
ARC
  5
784
330
2
100
AcDbEntity
  8
0
100
AcDbCircle
 10
879.663685593
 20
152.7817278507
 30
0.0
 40
2.0
100
AcDbArc
 50
0.0
 51
90.0
  0
LINE
  5
785
330
2
100
AcDbEntity
  8
0
100
AcDbLine
 10
987.663715593
 20
78.7817238507
 30
0.0
 11
987.663715593
 21
154.7817048507
 31
0.0
  0
LINE
  5
786
330
2
100
AcDbEntity
  8
0
100
AcDbLine
 10
1046.163715593
 20
81.7817028507
 30
0.0
 11
1046.163715593
 21
151.7817048507
 31
0.0
  0
LINE
  5
787
330
2
100
AcDbEntity
  8
0
100
AcDbLine
 10
997.163715593
 20
76.7817028507
 30
0.0
 11
997.163715593
 21
156.7817048507
 31
0.0
  0
LINE
  5
788
330
2
100
AcDbEntity
  8
0
100
AcDbLine
 10
1043.663715593
 20
92.7817048507
 30
0.0
 11
997.163715593
 21
92.7817048507
 31
0.0
  0
LINE
  5
789
330
2
100
AcDbEntity
  8
0
100
AcDbLine
 10
1041.163715593
 20
76.7817028507
 30
0.0
 11
997.163715593
 21
76.7817028507
 31
0.0
  0
LINE
  5
78A
330
2
100
AcDbEntity
  8
0
100
AcDbLine
 10
997.163715593
 20
86.5327018507
 30
0.0
 11
987.663715593
 21
86.5327018507
 31
0.0
  0
LINE
  5
78B
330
2
100
AcDbEntity
  8
0
100
AcDbLine
 10
997.163715593
 20
78.7817028507
 30
0.0
 11
987.663715593
 21
78.7817028507
 31
0.0
  0
ARC
  5
78C
330
2
100
AcDbEntity
  8
0
100
AcDbCircle
 10
1041.163715593
 20
81.7817028507
 30
0.0
 40
5.0
100
AcDbArc
 50
270.0
 51
0.0
  0
LINE
  5
78D
330
2
100
AcDbEntity
  8
0
100
AcDbLine
 10
1043.663715593
 20
142.7817048507
 30
0.0
 11
997.163715593
 21
142.7817048507
 31
0.0
  0
LINE
  5
78E
330
2
100
AcDbEntity
  8
0
100
AcDbLine
 10
1041.163715593
 20
156.7817048507
 30
0.0
 11
997.163715593
 21
156.7817048507
 31
0.0
  0
LINE
  5
78F
330
2
100
AcDbEntity
  8
0
100
AcDbLine
 10
997.163715593
 20
147.0307048507
 30
0.0
 11
987.663715593
 21
147.0307048507
 31
0.0
  0
LINE
  5
792
330
2
100
AcDbEntity
  8
0
100
AcDbLine
 10
997.163715593
 20
154.7817048507
 30
0.0
 11
987.663715593
 21
154.7817048507
 31
0.0
  0
ARC
  5
79B
330
2
100
AcDbEntity
  8
0
100
AcDbCircle
 10
1041.163715593
 20
151.7817048507
 30
0.0
 40
5.0
100
AcDbArc
 50
0.0
 51
90.0
  0
LINE
  5
79C
330
2
100
AcDbEntity
  8
0
100
AcDbLine
 10
156.687536045
 20
355.5004584502
 30
0.0
 11
221.687856045
 21
355.5004584502
 31
0.0
  0
LINE
  5
79D
330
2
100
AcDbEntity
  8
0
100
AcDbLine
 10
156.687734045
 20
401.5004584502
 30
0.0
 11
221.687856045
 21
401.5004584502
 31
0.0
  0
LINE
  5
79E
330
2
100
AcDbEntity
  8
0
100
AcDbLine
 10
115.687856045
 20
340.5004884502
 30
0.0
 11
229.687856045
 21
340.5004884502
 31
0.0
  0
LINE
  5
79F
330
2
100
AcDbEntity
  8
0
100
AcDbLine
 10
115.687856045
 20
416.5004584502
 30
0.0
 11
229.687856045
 21
416.5004584502
 31
0.0
  0
ARC
  5
7A0
330
2
100
AcDbEntity
  8
0
100
AcDbCircle
 10
260.857351045
 20
378.5004584502
 30
0.0
 40
15.0
100
AcDbArc
 50
130.747627
 51
229.252373
  0
LINE
  5
7A1
330
2
100
AcDbEntity
  8
0
100
AcDbLine
 10
229.687734045
 20
416.5004584502
 30
0.0
 11
229.687734045
 21
340.5004584502
 31
0.0
  0
LINE
  5
7A2
330
2
100
AcDbEntity
  8
0
100
AcDbLine
 10
229.687734045
 20
416.5004584502
 30
0.0
 11
229.687734045
 21
340.5004584502
 31
0.0
  0
LINE
  5
7A3
330
2
100
AcDbEntity
  8
0
100
AcDbLine
 10
273.687734045
 20
323.5004584502
 30
0.0
 11
273.687734045
 21
433.5004584502
 31
0.0
  0
ARC
  5
7A4
330
2
100
AcDbEntity
  8
0
100
AcDbCircle
 10
231.253316045
 20
380.0941474502
 30
0.0
 40
65.0
100
AcDbArc
 50
337.957932
 51
19.041382
  0
LINE
  5
7A5
330
2
100
AcDbEntity
  8
CENTER
100
AcDbLine
 10
346.437734045
 20
481.5004734502
 30
0.0
 11
346.437734045
 21
307.5004584502
 31
0.0
  0
LINE
  5
7A6
330
2
100
AcDbEntity
  8
0
100
AcDbLine
 10
326.437734045
 20
410.5004584502
 30
0.0
 11
326.437734045
 21
333.3027654502
 31
0.0
  0
LINE
  5
7A7
330
2
100
AcDbEntity
  8
0
100
AcDbLine
 10
281.687734045
 20
436.0004734502
 30
0.0
 11
281.687734045
 21
321.0004584502
 31
0.0
  0
LINE
  5
7A8
330
2
100
AcDbEntity
  8
0
100
AcDbLine
 10
272.819539045
 20
408.6064764502
 30
0.0
 11
251.066426045
 21
389.8643494502
 31
0.0
  0
LINE
  5
7A9
330
2
100
AcDbEntity
  8
0
100
AcDbLine
 10
271.274984045
 20
417.9527284502
 30
0.0
 11
229.687734045
 21
416.5004584502
 31
0.0
  0
LINE
  5
7AA
330
2
100
AcDbEntity
  8
0
100
AcDbLine
 10
335.437734045
 20
428.5004584502
 30
0.0
 11
335.437734045
 21
468.5004734502
 31
0.0
  0
ARC
  5
7AB
330
2
100
AcDbEntity
  8
0
100
AcDbCircle
 10
306.786580045
 20
413.5004584502
 30
0.0
 40
3.0
100
AcDbArc
 50
270.0
 51
345.124313
  0
LINE
  5
7AC
330
2
100
AcDbEntity
  8
0
100
AcDbLine
 10
333.937734045
 20
426.5004584502
 30
0.0
 11
333.937734045
 21
428.5004584502
 31
0.0
  0
ARC
  5
7AD
330
2
100
AcDbEntity
  8
0
100
AcDbCircle
 10
321.244893045
 20
423.5004584502
 30
0.0
 40
3.0
100
AcDbArc
 50
90.0
 51
165.124329
  0
LINE
  5
7AE
330
2
100
AcDbEntity
  8
0
100
AcDbLine
 10
316.281484045
 20
416.5004584502
 30
0.0
 11
318.345418045
 21
424.2706304502
 31
0.0
  0
LINE
  5
7AF
330
2
100
AcDbEntity
  8
0
100
AcDbLine
 10
316.281484045
 20
416.5004584502
 30
0.0
 11
312.994619045
 21
416.5004584502
 31
0.0
  0
ARC
  5
7B0
330
2
100
AcDbEntity
  8
0
100
AcDbCircle
 10
312.994619045
 20
413.5004584502
 30
0.0
 40
3.0
100
AcDbArc
 50
90.0
 51
165.124329
  0
LINE
  5
7B1
330
2
100
AcDbEntity
  8
0
100
AcDbLine
 10
310.095174045
 20
414.2706304502
 30
0.0
 11
309.686025045
 21
412.7303164502
 31
0.0
  0
ARC
  5
7B2
330
2
100
AcDbEntity
  8
0
100
AcDbCircle
 10
271.187734045
 20
410.5004584502
 30
0.0
 40
2.5
100
AcDbArc
 50
310.74762
 51
0.0
  0
ARC
  5
7B3
330
2
100
AcDbEntity
  8
0
100
AcDbCircle
 10
294.398915045
 20
409.0004584502
 30
0.0
 40
1.5
100
AcDbArc
 50
90.0
 51
178.499664
  0
ARC
  5
7B4
330
2
100
AcDbEntity
  8
0
100
AcDbCircle
 10
292.542134045
 20
415.5004584502
 30
0.0
 40
5.0
100
AcDbArc
 50
181.0002
 51
270.0
  0
LINE
  5
7B5
330
2
100
AcDbEntity
  8
0
100
AcDbLine
 10
287.048116045
 20
426.0004584502
 30
0.0
 11
281.687734045
 21
426.0004584502
 31
0.0
  0
LINE
  5
7B6
330
2
100
AcDbEntity
  8
0
100
AcDbLine
 10
286.205129045
 20
435.7504734502
 30
0.0
 11
281.687734045
 21
435.7504734502
 31
0.0
  0
LINE
  5
7B7
330
2
100
AcDbEntity
  8
0
100
AcDbLine
 10
287.204915045
 20
434.7679754502
 30
0.0
 11
287.542806045
 21
415.4132084502
 31
0.0
  0
ARC
  5
7B8
330
2
100
AcDbEntity
  8
0
100
AcDbCircle
 10
286.205007045
 20
434.7504584502
 30
0.0
 40
1.0
100
AcDbArc
 50
1.000702
 51
90.0
  0
LINE
  5
7B9
330
2
100
AcDbEntity
  8
0
100
AcDbLine
 10
276.187734045
 20
436.0004734502
 30
0.0
 11
281.687734045
 21
436.0004734502
 31
0.0
  0
ARC
  5
7BA
330
2
100
AcDbEntity
  8
0
100
AcDbCircle
 10
276.187734045
 20
433.5004584502
 30
0.0
 40
2.5
100
AcDbArc
 50
90.0
 51
180.0
  0
ARC
  5
7BB
330
2
100
AcDbEntity
  8
0
100
AcDbCircle
 10
271.187734045
 20
420.4512024502
 30
0.0
 40
2.5
100
AcDbArc
 50
272.0
 51
0.0
  0
LINE
  5
7BC
330
2
100
AcDbEntity
  8
0
100
AcDbLine
 10
292.899434045
 20
409.0397344502
 30
0.0
 11
292.696706045
 21
401.3004764502
 31
0.0
  0
LINE
  5
7BD
330
2
100
AcDbEntity
  8
0
100
AcDbLine
 10
221.687856045
 20
414.5004584502
 30
0.0
 11
221.687856045
 21
401.5004584502
 31
0.0
  0
ARC
  5
7BE
330
2
100
AcDbEntity
  8
0
100
AcDbCircle
 10
223.687856045
 20
414.5004584502
 30
0.0
 40
2.0
100
AcDbArc
 50
90.0
 51
180.0
  0
LINE
  5
7BF
330
2
100
AcDbEntity
  8
0
100
AcDbLine
 10
272.819539045
 20
348.3944704502
 30
0.0
 11
251.066426045
 21
367.1365974502
 31
0.0
  0
LINE
  5
7C0
330
2
100
AcDbEntity
  8
0
100
AcDbLine
 10
271.274984045
 20
339.0482184502
 30
0.0
 11
229.687734045
 21
340.5004584502
 31
0.0
  0
LINE
  5
7C1
330
2
100
AcDbEntity
  8
CENTER
100
AcDbLine
 10
301.437642045
 20
313.5004584502
 30
0.0
 11
301.437642045
 21
339.5004584502
 31
0.0
  0
LINE
  5
7C2
330
2
100
AcDbEntity
  8
0
100
AcDbLine
 10
291.502370045
 20
355.7004704502
 30
0.0
 11
290.918416045
 21
333.4057924502
 31
0.0
  0
LINE
  5
7C3
330
2
100
AcDbEntity
  8
0
100
AcDbLine
 10
288.954335045
 20
331.0004584502
 30
0.0
 11
281.687734045
 21
331.0004584502
 31
0.0
  0
LINE
  5
7C4
330
2
100
AcDbEntity
  8
0
100
AcDbLine
 10
290.391927045
 20
346.5004584502
 30
0.0
 11
281.687734045
 21
346.5004584502
 31
0.0
  0
LINE
  5
7C5
330
2
100
AcDbEntity
  8
0
100
AcDbLine
 10
288.937734045
 20
321.2504584502
 30
0.0
 11
281.687734045
 21
321.2504584502
 31
0.0
  0
LINE
  5
7C6
330
2
100
AcDbEntity
  8
0
100
AcDbLine
 10
284.187734045
 20
321.2504584502
 30
0.0
 11
281.687734045
 21
321.2504584502
 31
0.0
  0
LINE
  5
7C7
330
2
100
AcDbEntity
  8
HIDS
  6
sekkei_H
100
AcDbLine
 10
295.937642045
 20
320.5004584502
 30
0.0
 11
295.937642045
 21
332.5004584502
 31
0.0
  0
LINE
  5
7C8
330
2
100
AcDbEntity
  8
HIDS
  6
sekkei_H
100
AcDbLine
 10
306.937642045
 20
320.5004584502
 30
0.0
 11
306.937642045
 21
332.5004584502
 31
0.0
  0
LINE
  5
7C9
330
2
100
AcDbEntity
  8
0
100
AcDbLine
 10
289.437734045
 20
331.5004584502
 30
0.0
 11
289.437734045
 21
320.5004584502
 31
0.0
  0
ARC
  5
7CA
330
2
100
AcDbEntity
  8
0
100
AcDbCircle
 10
290.437734045
 20
331.5004584502
 30
0.0
 40
1.0
100
AcDbArc
 50
90.0
 51
180.0
  0
ARC
  5
7CB
330
2
100
AcDbEntity
  8
0
100
AcDbCircle
 10
289.918752045
 20
333.4319764502
 30
0.0
 40
1.0
100
AcDbArc
 50
285.039177
 51
358.499649
  0
ARC
  5
7CC
330
2
100
AcDbEntity
  8
0
100
AcDbCircle
 10
288.937734045
 20
320.7504584502
 30
0.0
 40
0.5
100
AcDbArc
 50
0.0
 51
90.0
  0
ARC
  5
7CD
330
2
100
AcDbEntity
  8
0
100
AcDbCircle
 10
271.187734045
 20
336.5497434502
 30
0.0
 40
2.5
100
AcDbArc
 50
0.0
 51
88.0
  0
ARC
  5
7CE
330
2
100
AcDbEntity
  8
0
100
AcDbCircle
 10
271.187734045
 20
346.5004884502
 30
0.0
 40
2.5
100
AcDbArc
 50
0.0
 51
49.25238
  0
LINE
  5
7CF
330
2
100
AcDbEntity
  8
0
100
AcDbLine
 10
276.187734045
 20
321.0004584502
 30
0.0
 11
281.687734045
 21
321.0004584502
 31
0.0
  0
ARC
  5
7D0
330
2
100
AcDbEntity
  8
0
100
AcDbCircle
 10
276.187734045
 20
323.5004584502
 30
0.0
 40
2.5
100
AcDbArc
 50
180.0
 51
270.0
  0
LINE
  5
7D1
330
2
100
AcDbEntity
  8
0
100
AcDbLine
 10
221.687856045
 20
355.5004584502
 30
0.0
 11
221.687856045
 21
342.5004584502
 31
0.0
  0
ARC
  5
7D2
330
2
100
AcDbEntity
  8
0
100
AcDbCircle
 10
223.687856045
 20
342.5004884502
 30
0.0
 40
2.0
100
AcDbArc
 50
180.0
 51
270.0
  0
LINE
  5
7D3
330
2
100
AcDbEntity
  8
0
100
AcDbLine
 10
57.187856045
 20
413.5004884502
 30
0.0
 11
57.187856045
 21
343.5004884502
 31
0.0
  0
LINE
  5
7D4
330
2
100
AcDbEntity
  8
0
100
AcDbLine
 10
106.187856045
 20
418.5004884502
 30
0.0
 11
106.187856045
 21
386.0004584502
 31
0.0
  0
LINE
  5
7D9
330
2
100
AcDbEntity
  8
0
100
AcDbLine
 10
59.687856045
 20
404.5004884502
 30
0.0
 11
106.187856045
 21
404.5004884502
 31
0.0
  0
LINE
  5
7DA
330
2
100
AcDbEntity
  8
0
100
AcDbLine
 10
62.187856045
 20
418.5004884502
 30
0.0
 11
106.187856045
 21
418.5004884502
 31
0.0
  0
LINE
  5
7DD
330
2
100
AcDbEntity
  8
0
100
AcDbLine
 10
106.687657045
 20
401.5004884502
 30
0.0
 11
106.187856045
 21
401.5004884502
 31
0.0
  0
LINE
  5
7DE
330
2
100
AcDbEntity
  8
0
100
AcDbLine
 10
115.687856045
 20
416.5004884502
 30
0.0
 11
106.187856045
 21
416.5004884502
 31
0.0
  0
LINE
  5
7DF
330
2
100
AcDbEntity
  8
0
100
AcDbLine
 10
115.687856045
 20
403.5004584502
 30
0.0
 11
115.687856045
 21
416.5004884502
 31
0.0
  0
ARC
  5
7E3
330
2
100
AcDbEntity
  8
0
100
AcDbCircle
 10
62.187856045
 20
413.5004884502
 30
0.0
 40
5.0
100
AcDbArc
 50
90.0
 51
180.0
  0
LINE
  5
7E4
330
2
100
AcDbEntity
  8
0
100
AcDbLine
 10
59.687856045
 20
354.5004884502
 30
0.0
 11
106.187856045
 21
354.5004884502
 31
0.0
  0
LINE
  5
7E5
330
2
100
AcDbEntity
  8
0
100
AcDbLine
 10
62.187856045
 20
338.5004884502
 30
0.0
 11
106.187856045
 21
338.5004884502
 31
0.0
  0
LINE
  5
7E8
330
2
100
AcDbEntity
  8
0
100
AcDbLine
 10
106.687627045
 20
355.5004884502
 30
0.0
 11
106.187856045
 21
355.5004884502
 31
0.0
  0
LINE
  5
7E9
330
2
100
AcDbEntity
  8
0
100
AcDbLine
 10
115.687856045
 20
340.5004884502
 30
0.0
 11
106.187856045
 21
340.5004884502
 31
0.0
  0
LINE
  5
7EA
330
2
100
AcDbEntity
  8
0
100
AcDbLine
 10
115.687856045
 20
340.5004884502
 30
0.0
 11
115.687856045
 21
353.5004584502
 31
0.0
  0
ARC
  5
7EC
330
2
100
AcDbEntity
  8
0
100
AcDbCircle
 10
106.187856045
 20
346.2306214502
 30
0.0
 40
3.0
100
AcDbArc
 50
0.0
 51
90.0
  0
ARC
  5
7ED
330
2
100
AcDbEntity
  8
0
100
AcDbCircle
 10
106.187856045
 20
346.2306214502
 30
0.0
 40
4.5
100
AcDbArc
 50
0.0
 51
90.0
  0
LINE
  5
7F0
330
2
100
AcDbEntity
  8
HOJO
100
AcDbLine
 10
109.187856045
 20
342.2306214502
 30
0.0
 11
110.687856045
 21
341.7306214502
 31
0.0
  0
LINE
  5
7F1
330
2
100
AcDbEntity
  8
0
100
AcDbLine
 10
110.687856045
 20
346.2306214502
 30
0.0
 11
110.687856045
 21
341.7306214502
 31
0.0
  0
LINE
  5
7F2
330
2
100
AcDbEntity
  8
0
100
AcDbLine
 10
109.187856045
 20
346.2306214502
 30
0.0
 11
109.187856045
 21
341.7306214502
 31
0.0
  0
LINE
  5
7F3
330
2
100
AcDbEntity
  8
0
100
AcDbLine
 10
107.687856045
 20
346.2306214502
 30
0.0
 11
107.687856045
 21
341.2149964502
 31
0.0
  0
ARC
  5
7F4
330
2
100
AcDbEntity
  8
0
100
AcDbCircle
 10
106.187856045
 20
346.2306214502
 30
0.0
 40
1.5
100
AcDbArc
 50
0.0
 51
90.0
  0
LINE
  5
7F5
330
2
100
AcDbEntity
  8
HOJO
100
AcDbLine
 10
107.687856045
 20
341.2306214502
 30
0.0
 11
109.187856045
 21
341.7306214502
 31
0.0
  0
ARC
  5
7F6
330
2
100
AcDbEntity
  8
0
100
AcDbCircle
 10
62.187856045
 20
343.5004884502
 30
0.0
 40
5.0
100
AcDbArc
 50
180.0
 51
270.0
  0
LINE
  5
8AC
330
2
100
AcDbEntity
  8
CENTER
100
AcDbLine
 10
711.913669593
 20
210.6220218507
 30
0.0
 11
711.913669593
 21
189.9414178507
 31
0.0
  0
LINE
  5
8AD
330
2
100
AcDbEntity
  8
CENTER
100
AcDbLine
 10
722.253971593
 20
200.2817198507
 30
0.0
 11
701.573367593
 21
200.2817198507
 31
0.0
  0
LINE
  5
8AE
330
2
100
AcDbEntity
  8
CENTER
100
AcDbLine
 10
711.913669593
 20
90.6220258507
 30
0.0
 11
711.913669593
 21
69.9414218507
 31
0.0
  0
LINE
  5
8AF
330
2
100
AcDbEntity
  8
CENTER
100
AcDbLine
 10
722.253971593
 20
80.2817238507
 30
0.0
 11
701.573367593
 21
80.2817238507
 31
0.0
  0
LINE
  5
8B0
330
2
100
AcDbEntity
  8
CENTER
100
AcDbLine
 10
801.913654593
 20
90.6220258507
 30
0.0
 11
801.913654593
 21
69.9414218507
 31
0.0
  0
LINE
  5
8B1
330
2
100
AcDbEntity
  8
CENTER
100
AcDbLine
 10
812.253956593
 20
80.2817238507
 30
0.0
 11
791.573352593
 21
80.2817238507
 31
0.0
  0
LINE
  5
984
330
2
100
AcDbEntity
  8
CENTER
100
AcDbLine
 10
292.278250045
 20
80.2817108507
 30
0.0
 11
310.597066045
 21
80.2817108507
 31
0.0
  0
LINE
  5
985
330
2
100
AcDbEntity
  8
CENTER
100
AcDbLine
 10
292.278250045
 20
200.2817278507
 30
0.0
 11
310.597066045
 21
200.2817278507
 31
0.0
  0
CIRCLE
  5
986
330
2
100
AcDbEntity
  8
0
100
AcDbCircle
 10
301.437658045
 20
200.2817278507
 30
0.0
 40
5.5
  0
ARC
  5
987
330
2
100
AcDbEntity
  8
0
100
AcDbCircle
 10
301.437658045
 20
200.2817278507
 30
0.0
 40
12.0
100
AcDbArc
 50
90.0
 51
180.0
  0
ARC
  5
988
330
2
100
AcDbEntity
  8
0
100
AcDbCircle
 10
300.437689045
 20
183.2817728507
 30
0.0
 40
6.0
100
AcDbArc
 50
90.0
 51
180.0
  0
ARC
  5
989
330
2
100
AcDbEntity
  8
0
100
AcDbCircle
 10
326.437734045
 20
162.6424298507
 30
0.0
 40
30.0
100
AcDbArc
 50
131.810394
 51
180.0
  0
LINE
  5
98A
330
2
100
AcDbEntity
  8
CENTER
100
AcDbLine
 10
213.4758467507
 20
127.7817318507
 30
0.0
 11
298.6453571421
 21
127.7817318507
 31
0.0
  0
CIRCLE
  5
98B
330
2
100
AcDbEntity
  8
0
100
AcDbCircle
 10
301.437658045
 20
80.2817108507
 30
0.0
 40
5.5
  0
ARC
  5
98C
330
2
100
AcDbEntity
  8
0
100
AcDbCircle
 10
326.437734045
 20
117.9210438507
 30
0.0
 40
30.0
100
AcDbArc
 50
180.0
 51
228.189697
  0
ARC
  5
98D
330
2
100
AcDbEntity
  8
0
100
AcDbCircle
 10
301.437658045
 20
80.2817108507
 30
0.0
 40
12.0
100
AcDbArc
 50
180.0
 51
270.0
  0
ARC
  5
98E
330
2
100
AcDbEntity
  8
0
100
AcDbCircle
 10
300.437658045
 20
97.2817318507
 30
0.0
 40
6.0
100
AcDbArc
 50
180.0
 51
270.0
  0
LINE
  5
98F
330
2
100
AcDbEntity
  8
CENTER
100
AcDbLine
 10
44.187733045
 20
116.7817318507
 30
0.0
 11
314.437734045
 21
116.7817318507
 31
0.0
  0
LINE
  5
990
330
2
100
AcDbEntity
  8
0
100
AcDbLine
 10
289.437658045
 20
200.2816968507
 30
0.0
 11
289.437658045
 21
80.2816908507
 31
0.0
  0
LINE
  5
991
330
2
100
AcDbEntity
  8
0
100
AcDbLine
 10
62.187733045
 20
156.7817118507
 30
0.0
 11
106.187734045
 21
156.7817118507
 31
0.0
  0
LINE
  5
992
330
2
100
AcDbEntity
  8
0
100
AcDbLine
 10
59.687733045
 20
142.7817118507
 30
0.0
 11
106.187734045
 21
142.7817118507
 31
0.0
  0
LINE
  5
993
330
2
100
AcDbEntity
  8
0
100
AcDbLine
 10
62.187733045
 20
76.7817108507
 30
0.0
 11
106.187734045
 21
76.7817108507
 31
0.0
  0
LINE
  5
994
330
2
100
AcDbEntity
  8
0
100
AcDbLine
 10
59.687733045
 20
92.7817108507
 30
0.0
 11
106.187734045
 21
92.7817108507
 31
0.0
  0
LINE
  5
995
330
2
100
AcDbEntity
  8
0
100
AcDbLine
 10
57.187733045
 20
81.7817108507
 30
0.0
 11
57.187733045
 21
151.7817118507
 31
0.0
  0
ARC
  5
996
330
2
100
AcDbEntity
  8
0
100
AcDbCircle
 10
62.187733045
 20
81.7817108507
 30
0.0
 40
5.0
100
AcDbArc
 50
180.0
 51
270.0
  0
ARC
  5
997
330
2
100
AcDbEntity
  8
0
100
AcDbCircle
 10
62.187733045
 20
151.7817118507
 30
0.0
 40
5.0
100
AcDbArc
 50
90.0
 51
180.0
  0
LINE
  5
998
330
2
100
AcDbEntity
  8
0
100
AcDbLine
 10
115.687734045
 20
154.7817118507
 30
0.0
 11
229.687734045
 21
154.7817118507
 31
0.0
  0
LINE
  5
999
330
2
100
AcDbEntity
  8
0
100
AcDbLine
 10
115.687734045
 20
78.7817508507
 30
0.0
 11
229.687734045
 21
78.7817508507
 31
0.0
  0
LINE
  5
99A
330
2
100
AcDbEntity
  8
0
100
AcDbLine
 10
115.687734045
 20
147.0307128507
 30
0.0
 11
221.687734045
 21
147.0307128507
 31
0.0
  0
LINE
  5
99B
330
2
100
AcDbEntity
  8
0
100
AcDbLine
 10
115.687734045
 20
86.5327498507
 30
0.0
 11
221.687734045
 21
86.5327498507
 31
0.0
  0
LINE
  5
99C
330
2
100
AcDbEntity
  8
0
100
AcDbLine
 10
106.187734045
 20
76.7817108507
 30
0.0
 11
106.187734045
 21
156.7817118507
 31
0.0
  0
LINE
  5
99D
330
2
100
AcDbEntity
  8
0
100
AcDbLine
 10
115.687734045
 20
78.7817308507
 30
0.0
 11
115.687734045
 21
154.7817118507
 31
0.0
  0
LINE
  5
99E
330
2
100
AcDbEntity
  8
0
100
AcDbLine
 10
106.187734045
 20
78.7817108507
 30
0.0
 11
115.687734045
 21
78.7817108507
 31
0.0
  0
LINE
  5
99F
330
2
100
AcDbEntity
  8
0
100
AcDbLine
 10
106.187734045
 20
86.5327118507
 30
0.0
 11
115.687734045
 21
86.5327118507
 31
0.0
  0
LINE
  5
9A4
330
2
100
AcDbEntity
  8
0
100
AcDbLine
 10
106.187734045
 20
154.7817118507
 30
0.0
 11
115.687734045
 21
154.7817118507
 31
0.0
  0
LINE
  5
9A6
330
2
100
AcDbEntity
  8
0
100
AcDbLine
 10
106.187734045
 20
147.0307128507
 30
0.0
 11
115.687734045
 21
147.0307128507
 31
0.0
  0
ARC
  5
9A7
330
2
100
AcDbEntity
  8
0
100
AcDbCircle
 10
106.187734045
 20
141.1508068507
 30
0.0
 40
3.0
100
AcDbArc
 50
0.0
 51
90.0
  0
ARC
  5
9A8
330
2
100
AcDbEntity
  8
0
100
AcDbCircle
 10
106.187734045
 20
141.1508068507
 30
0.0
 40
4.5
100
AcDbArc
 50
0.0
 51
90.0
  0
ARC
  5
9A9
330
2
100
AcDbEntity
  8
0
100
AcDbCircle
 10
106.187734045
 20
141.1508068507
 30
0.0
 40
1.5
100
AcDbArc
 50
0.0
 51
90.0
  0
LINE
  5
9AA
330
2
100
AcDbEntity
  8
0
100
AcDbLine
 10
109.187734045
 20
141.1508068507
 30
0.0
 11
109.187734045
 21
136.6508068507
 31
0.0
  0
LINE
  5
9AB
330
2
100
AcDbEntity
  8
0
100
AcDbLine
 10
110.687734045
 20
141.1508068507
 30
0.0
 11
110.687734045
 21
136.6508068507
 31
0.0
  0
LINE
  5
9AC
330
2
100
AcDbEntity
  8
HOJO
100
AcDbLine
 10
109.187734045
 20
137.1508068507
 30
0.0
 11
110.687734045
 21
136.6508068507
 31
0.0
  0
LINE
  5
9AD
330
2
100
AcDbEntity
  8
0
100
AcDbLine
 10
107.687734045
 20
141.1508068507
 30
0.0
 11
107.687734045
 21
136.1352128507
 31
0.0
  0
LINE
  5
9AE
330
2
100
AcDbEntity
  8
HOJO
100
AcDbLine
 10
107.687734045
 20
136.1508068507
 30
0.0
 11
109.187734045
 21
136.6508068507
 31
0.0
  0
LINE
  5
9B4
330
2
100
AcDbEntity
  8
0
100
AcDbLine
 10
296.437658045
 20
162.6424298507
 30
0.0
 11
296.437658045
 21
117.9210438507
 31
0.0
  0
LINE
  5
9B5
330
2
100
AcDbEntity
  8
0
100
AcDbLine
 10
294.437658045
 20
183.2817118507
 30
0.0
 11
294.437658045
 21
97.2817318507
 31
0.0
  0
LINE
  5
9B6
330
2
100
AcDbEntity
  8
0
100
AcDbLine
 10
281.687750045
 20
185.2817278507
 30
0.0
 11
281.687750045
 21
70.2817308507
 31
0.0
  0
LINE
  5
9B7
330
2
100
AcDbEntity
  8
0
100
AcDbLine
 10
221.687734045
 20
152.7817118507
 30
0.0
 11
221.687734045
 21
80.7817308507
 31
0.0
  0
LINE
  5
9B8
330
2
100
AcDbEntity
  8
0
100
AcDbLine
 10
273.687734045
 20
184.2817278507
 30
0.0
 11
273.687734045
 21
86.8690748507
 31
0.0
  0
LINE
  5
9B9
330
2
100
AcDbEntity
  8
0
100
AcDbLine
 10
229.687734045
 20
154.7817278507
 30
0.0
 11
229.687734045
 21
78.7817308507
 31
0.0
  0
LINE
  5
9BA
330
2
100
AcDbEntity
  8
0
100
AcDbLine
 10
281.687734045
 20
76.9658508507
 30
0.0
 11
229.687734045
 21
78.7817308507
 31
0.0
  0
LINE
  5
9BB
330
2
100
AcDbEntity
  8
0
100
AcDbLine
 10
229.687734045
 20
107.3817298507
 30
0.0
 11
273.687734045
 21
107.3817298507
 31
0.0
  0
LINE
  5
9BC
330
2
100
AcDbEntity
  8
0
100
AcDbLine
 10
229.687734045
 20
97.1817308507
 30
0.0
 11
273.687734045
 21
97.1817308507
 31
0.0
  0
ARC
  5
9BD
330
2
100
AcDbEntity
  8
0
100
AcDbCircle
 10
223.687734045
 20
80.7817508507
 30
0.0
 40
2.0
100
AcDbArc
 50
180.0
 51
270.0
  0
ARC
  5
9BE
330
2
100
AcDbEntity
  8
0
100
AcDbCircle
 10
271.187734045
 20
74.8309948507
 30
0.0
 40
2.5
100
AcDbArc
 50
0.0
 51
88.0
  0
ARC
  5
9BF
330
2
100
AcDbEntity
  8
0
100
AcDbCircle
 10
276.187734045
 20
72.7817308507
 30
0.0
 40
2.5
100
AcDbArc
 50
180.0
 51
270.0
  0
LINE
  5
9C0
330
2
100
AcDbEntity
  8
0
100
AcDbLine
 10
288.249868045
 20
71.4652108507
 30
0.0
 11
288.800314045
 21
79.7216308507
 31
0.0
  0
LINE
  5
9C1
330
2
100
AcDbEntity
  8
0
100
AcDbLine
 10
287.252111045
 20
70.5317108507
 30
0.0
 11
281.687750045
 21
70.5317108507
 31
0.0
  0
LINE
  5
9C2
330
2
100
AcDbEntity
  8
0
100
AcDbLine
 10
276.187734045
 20
70.2817308507
 30
0.0
 11
281.687734045
 21
70.2817308507
 31
0.0
  0
ARC
  5
9C3
330
2
100
AcDbEntity
  8
0
100
AcDbCircle
 10
287.252111045
 20
71.5317108507
 30
0.0
 40
1.0
100
AcDbArc
 50
270.0
 51
356.185791
  0
LINE
  5
9C4
330
2
100
AcDbEntity
  8
0
100
AcDbLine
 10
281.687750045
 20
80.2817108507
 30
0.0
 11
289.437658045
 21
80.2817108507
 31
0.0
  0
LINE
  5
9C5
330
2
100
AcDbEntity
  8
0
100
AcDbLine
 10
273.687734045
 20
72.7817308507
 30
0.0
 11
273.687734045
 21
74.8309948507
 31
0.0
  0
LINE
  5
9C6
330
2
100
AcDbEntity
  8
0
100
AcDbLine
 10
274.812811045
 20
84.6277298507
 30
0.0
 11
281.687734045
 21
84.6277298507
 31
0.0
  0
ARC
  5
9C7
330
2
100
AcDbEntity
  8
0
100
AcDbCircle
 10
289.399008045
 20
79.6817308507
 30
0.0
 40
0.6
100
AcDbArc
 50
90.0
 51
176.186096
  0
LINE
  5
9C8
330
2
100
AcDbEntity
  8
0
100
AcDbLine
 10
288.234533045
 20
95.8217518507
 30
0.0
 11
281.687750045
 21
95.8217518507
 31
0.0
  0
LINE
  5
9C9
330
2
100
AcDbEntity
  8
0
100
AcDbLine
 10
271.274984045
 20
156.2339908507
 30
0.0
 11
229.687734045
 21
154.7817278507
 31
0.0
  0
ARC
  5
9CA
330
2
100
AcDbEntity
  8
0
100
AcDbCircle
 10
223.687734045
 20
152.7817278507
 30
0.0
 40
2.0
100
AcDbArc
 50
90.0
 51
180.0
  0
LINE
  5
9CB
330
2
100
AcDbEntity
  8
0
100
AcDbLine
 10
272.274603045
 20
168.0995378507
 30
0.0
 11
246.331182045
 21
155.5751238507
 31
0.0
  0
ARC
  5
9CC
330
2
100
AcDbEntity
  8
0
100
AcDbCircle
 10
271.187734045
 20
158.7324648507
 30
0.0
 40
2.5
100
AcDbArc
 50
272.0
 51
0.0
  0
ARC
  5
9CD
330
2
100
AcDbEntity
  8
0
100
AcDbCircle
 10
245.244299045
 20
157.8265048507
 30
0.0
 40
2.5
100
AcDbArc
 50
272.0
 51
295.769318
  0
LINE
  5
9CE
330
2
100
AcDbEntity
  8
0
100
AcDbLine
 10
288.234533045
 20
159.7417498507
 30
0.0
 11
281.687750045
 21
159.7417498507
 31
0.0
  0
LINE
  5
9CF
330
2
100
AcDbEntity
  8
0
100
AcDbLine
 10
288.234533045
 20
175.2817118507
 30
0.0
 11
281.687750045
 21
175.2817118507
 31
0.0
  0
ARC
  5
9D0
330
2
100
AcDbEntity
  8
0
100
AcDbCircle
 10
271.187734045
 20
170.3509108507
 30
0.0
 40
2.5
100
AcDbArc
 50
295.769325
 51
0.0
  0
LINE
  5
9D1
330
2
100
AcDbEntity
  8
0
100
AcDbLine
 10
281.687750045
 20
185.0317118507
 30
0.0
 11
289.437658045
 21
185.0317118507
 31
0.0
  0
LINE
  5
9D2
330
2
100
AcDbEntity
  8
0
100
AcDbLine
 10
274.687734045
 20
185.2817278507
 30
0.0
 11
281.687750045
 21
185.2817278507
 31
0.0
  0
ARC
  5
9D3
330
2
100
AcDbEntity
  8
0
100
AcDbCircle
 10
274.687734045
 20
184.2817278507
 30
0.0
 40
1.0
100
AcDbArc
 50
90.0
 51
180.0
  0
LINE
  5
9D4
330
2
100
AcDbEntity
  8
CENTER
100
AcDbLine
 10
301.437658045
 20
209.4411358507
 30
0.0
 11
301.437658045
 21
191.1223198507
 31
0.0
  0
LINE
  5
9D5
330
2
100
AcDbEntity
  8
CENTER
100
AcDbLine
 10
391.437826045
 20
209.4411358507
 30
0.0
 11
391.437826045
 21
191.1223198507
 31
0.0
  0
CIRCLE
  5
9D6
330
2
100
AcDbEntity
  8
0
100
AcDbCircle
 10
391.437826045
 20
200.2817278507
 30
0.0
 40
5.5
  0
ARC
  5
9D7
330
2
100
AcDbEntity
  8
0
100
AcDbCircle
 10
391.437826045
 20
200.2817278507
 30
0.0
 40
11.0
100
AcDbArc
 50
180.0
 51
270.0
  0
LINE
  5
9D8
330
2
100
AcDbEntity
  8
CENTER
100
AcDbLine
 10
346.437734045
 20
225.2817278507
 30
0.0
 11
346.437734045
 21
55.2817108507
 31
0.0
  0
LINE
  5
9D9
330
2
100
AcDbEntity
  8
0
100
AcDbLine
 10
403.437826045
 20
200.2817278507
 30
0.0
 11
403.437826045
 21
80.2817108507
 31
0.0
  0
ARC
  5
9DA
330
2
100
AcDbEntity
  8
0
100
AcDbCircle
 10
301.437658045
 20
200.2817278507
 30
0.0
 40
11.0
100
AcDbArc
 50
270.0
 51
0.0
  0
ARC
  5
9DB
330
2
100
AcDbEntity
  8
0
100
AcDbCircle
 10
346.437734045
 20
140.2817428507
 30
0.0
 40
60.0
100
AcDbArc
 50
48.189621
 51
131.810394
  0
ARC
  5
9DC
330
2
100
AcDbEntity
  8
0
100
AcDbCircle
 10
391.437826045
 20
80.2817108507
 30
0.0
 40
12.0
100
AcDbArc
 50
270.0
 51
0.0
  0
LINE
  5
9DD
330
2
100
AcDbEntity
  8
0
100
AcDbLine
 10
396.437826045
 20
162.6423918507
 30
0.0
 11
396.437826045
 21
117.9210438507
 31
0.0
  0
LINE
  5
9DE
330
2
100
AcDbEntity
  8
0
100
AcDbLine
 10
377.912405045
 20
162.4548918507
 30
0.0
 11
383.608999045
 21
119.4893618507
 31
0.0
  0
LINE
  5
9DF
330
2
100
AcDbEntity
  8
0
100
AcDbLine
 10
376.326223045
 20
162.2445728507
 30
0.0
 11
382.023001045
 21
119.2790608507
 31
0.0
  0
LINE
  5
9E0
330
2
100
AcDbEntity
  8
0
100
AcDbLine
 10
398.437826045
 20
183.2817118507
 30
0.0
 11
398.437826045
 21
97.2817318507
 31
0.0
  0
LINE
  5
9E1
330
2
100
AcDbEntity
  8
0
100
AcDbLine
 10
309.266348045
 20
119.4893238507
 30
0.0
 11
314.963156045
 21
162.4548308507
 31
0.0
  0
LINE
  5
9E2
330
2
100
AcDbEntity
  8
0
100
AcDbLine
 10
310.852529045
 20
119.2790268507
 30
0.0
 11
316.549337045
 21
162.2445498507
 31
0.0
  0
ARC
  5
9E3
330
2
100
AcDbEntity
  8
0
100
AcDbCircle
 10
346.437734045
 20
140.2817428507
 30
0.0
 40
60.0
100
AcDbArc
 50
228.189697
 51
311.810303
  0
LINE
  5
9E4
330
2
100
AcDbEntity
  8
0
100
AcDbLine
 10
329.687734045
 20
96.1817308507
 30
0.0
 11
363.187734045
 21
96.1817308507
 31
0.0
  0
LINE
  5
9E5
330
2
100
AcDbEntity
  8
0
100
AcDbLine
 10
329.687734045
 20
97.7817318507
 30
0.0
 11
363.187734045
 21
97.7817318507
 31
0.0
  0
LINE
  5
9E6
330
2
100
AcDbEntity
  8
0
100
AcDbLine
 10
301.437734045
 20
68.2817108507
 30
0.0
 11
391.437826045
 21
68.2817108507
 31
0.0
  0
LINE
  5
9E7
330
2
100
AcDbEntity
  8
0
100
AcDbLine
 10
374.437826045
 20
73.2817108507
 30
0.0
 11
318.437734045
 21
73.2817108507
 31
0.0
  0
ARC
  5
9E8
330
2
100
AcDbEntity
  8
0
100
AcDbCircle
 10
301.437658045
 20
80.2817108507
 30
0.0
 40
11.0
100
AcDbArc
 50
0.0
 51
90.0
  0
LINE
  5
9E9
330
2
100
AcDbEntity
  8
CENTER
100
AcDbLine
 10
301.437658045
 20
89.4411188507
 30
0.0
 11
301.437658045
 21
71.1223028507
 31
0.0
  0
ARC
  5
9EA
330
2
100
AcDbEntity
  8
0
100
AcDbCircle
 10
318.437734045
 20
79.2817108507
 30
0.0
 40
6.0
100
AcDbArc
 50
180.0
 51
270.0
  0
LINE
  5
9EB
330
2
100
AcDbEntity
  8
0
100
AcDbLine
 10
312.437734045
 20
79.2817108507
 30
0.0
 11
312.437734045
 21
80.2817108507
 31
0.0
  0
ARC
  5
9EC
330
2
100
AcDbEntity
  8
0
100
AcDbCircle
 10
329.687734045
 20
116.7817348507
 30
0.0
 40
19.0
100
AcDbArc
 50
172.447601
 51
270.0
  0
ARC
  5
9ED
330
2
100
AcDbEntity
  8
0
100
AcDbCircle
 10
329.687734045
 20
116.7817348507
 30
0.0
 40
20.6
100
AcDbArc
 50
172.447403
 51
270.0
  0
LINE
  5
9EE
330
2
100
AcDbEntity
  8
0
100
AcDbLine
 10
300.437658045
 20
91.2817108507
 30
0.0
 11
301.437658045
 21
91.2817108507
 31
0.0
  0
ARC
  5
A18
330
2
100
AcDbEntity
  8
0
100
AcDbCircle
 10
392.437826045
 20
97.2817318507
 30
0.0
 40
6.0
100
AcDbArc
 50
270.0
 51
0.0
  0
ARC
  5
A19
330
2
100
AcDbEntity
  8
0
100
AcDbCircle
 10
391.437826045
 20
80.2817108507
 30
0.0
 40
11.0
100
AcDbArc
 50
90.0
 51
180.0
  0
ARC
  5
A1A
330
2
100
AcDbEntity
  8
0
100
AcDbCircle
 10
374.437826045
 20
79.2817108507
 30
0.0
 40
6.0
100
AcDbArc
 50
270.0
 51
0.0
  0
LINE
  5
A1B
330
2
100
AcDbEntity
  8
CENTER
100
AcDbLine
 10
391.437826045
 20
89.4411188507
 30
0.0
 11
391.437826045
 21
71.1223028507
 31
0.0
  0
LINE
  5
A1C
330
2
100
AcDbEntity
  8
CENTER
100
AcDbLine
 10
382.278418045
 20
80.2817108507
 30
0.0
 11
400.597234045
 21
80.2817108507
 31
0.0
  0
CIRCLE
  5
A1D
330
2
100
AcDbEntity
  8
0
100
AcDbCircle
 10
391.437826045
 20
80.2817108507
 30
0.0
 40
5.5
  0
LINE
  5
A1E
330
2
100
AcDbEntity
  8
0
100
AcDbLine
 10
380.437826045
 20
79.2817108507
 30
0.0
 11
380.437826045
 21
80.2816908507
 31
0.0
  0
ARC
  5
A1F
330
2
100
AcDbEntity
  8
0
100
AcDbCircle
 10
363.187734045
 20
116.7817348507
 30
0.0
 40
19.0
100
AcDbArc
 50
270.0
 51
7.5527
  0
ARC
  5
A20
330
2
100
AcDbEntity
  8
0
100
AcDbCircle
 10
363.187734045
 20
116.7817348507
 30
0.0
 40
20.6
100
AcDbArc
 50
270.0
 51
7.5527
  0
ARC
  5
A36
330
2
100
AcDbEntity
  8
0
100
AcDbCircle
 10
366.437826045
 20
117.9210558507
 30
0.0
 40
30.0
100
AcDbArc
 50
311.810551
 51
0.0
  0
LINE
  5
A37
330
2
100
AcDbEntity
  8
0
100
AcDbLine
 10
392.437826045
 20
91.2817108507
 30
0.0
 11
391.437826045
 21
91.2817108507
 31
0.0
  0
LINE
  5
A38
330
2
100
AcDbEntity
  8
CENTER
100
AcDbLine
 10
301.4098432083
 20
158.2817278507
 30
0.0
 11
391.465704888
 21
158.2817278507
 31
0.0
  0
CIRCLE
  5
A39
330
2
100
AcDbEntity
  8
0
100
AcDbCircle
 10
346.437734045
 20
158.2817278507
 30
0.0
 40
27.5
  0
ARC
  5
A3A
330
2
100
AcDbEntity
  8
0
100
AcDbCircle
 10
346.437734045
 20
158.2817278507
 30
0.0
 40
31.75
100
AcDbArc
 50
7.552697
 51
172.447403
  0
ARC
  5
A3B
330
2
100
AcDbEntity
  8
0
100
AcDbCircle
 10
346.437734045
 20
158.2817278507
 30
0.0
 40
30.15
100
AcDbArc
 50
172.447403
 51
7.552697
  0
ARC
  5
A3C
330
2
100
AcDbEntity
  8
HIDS
100
AcDbCircle
 10
346.437734045
 20
158.2817278507
 30
0.0
 40
11.0
100
AcDbArc
 50
15.826599
 51
344.1734
  0
LINE
  5
A3D
330
2
100
AcDbEntity
  8
0
100
AcDbLine
 10
300.437658045
 20
189.2817118507
 30
0.0
 11
301.437658045
 21
189.2817118507
 31
0.0
  0
ARC
  5
A3E
330
2
100
AcDbEntity
  8
0
100
AcDbCircle
 10
366.437826045
 20
162.6423918507
 30
0.0
 40
30.0
100
AcDbArc
 50
0.0
 51
48.189629
  0
LINE
  5
A3F
330
2
100
AcDbEntity
  8
HIDS
100
AcDbLine
 10
359.937734045
 20
161.2816898507
 30
0.0
 11
353.937734045
 21
161.2817118507
 31
0.0
  0
LINE
  5
A40
330
2
100
AcDbEntity
  8
HIDS
100
AcDbLine
 10
359.937734045
 20
155.2816898507
 30
0.0
 11
353.937734045
 21
155.2817278507
 31
0.0
  0
LINE
  5
A41
330
2
100
AcDbEntity
  8
HIDS
100
AcDbLine
 10
353.937734045
 20
155.2817278507
 30
0.0
 11
353.937734045
 21
161.2817118507
 31
0.0
  0
LINE
  5
A42
330
2
100
AcDbEntity
  8
HIDS
100
AcDbLine
 10
359.937734045
 20
155.2816898507
 30
0.0
 11
359.937734045
 21
161.2816898507
 31
0.0
  0
LINE
  5
A43
330
2
100
AcDbEntity
  8
0
100
AcDbLine
 10
392.437826045
 20
189.2817118507
 30
0.0
 11
391.437826045
 21
189.2817118507
 31
0.0
  0
ARC
  5
A44
330
2
100
AcDbEntity
  8
0
100
AcDbCircle
 10
392.437826045
 20
183.2817118507
 30
0.0
 40
6.0
100
AcDbArc
 50
0.0
 51
90.0
  0
ARC
  5
A45
330
2
100
AcDbEntity
  8
0
100
AcDbCircle
 10
391.437826045
 20
200.2817278507
 30
0.0
 40
12.0
100
AcDbArc
 50
0.0
 51
90.0
  0
LINE
  5
A46
330
2
100
AcDbEntity
  8
0
100
AcDbLine
 10
391.437826045
 20
212.2817278507
 30
0.0
 11
301.437658045
 21
212.2817278507
 31
0.0
  0
LINE
  5
A47
330
2
100
AcDbEntity
  8
0
100
AcDbLine
 10
318.437734045
 20
207.2817278507
 30
0.0
 11
374.437826045
 21
207.2817278507
 31
0.0
  0
ARC
  5
A48
330
2
100
AcDbEntity
  8
0
100
AcDbCircle
 10
318.437734045
 20
201.2817888507
 30
0.0
 40
6.0
100
AcDbArc
 50
90.0
 51
180.0
  0
LINE
  5
A49
330
2
100
AcDbEntity
  8
0
100
AcDbLine
 10
312.437734045
 20
201.2817278507
 30
0.0
 11
312.437734045
 21
200.2817278507
 31
0.0
  0
ARC
  5
A4A
330
2
100
AcDbEntity
  8
0
100
AcDbCircle
 10
374.437826045
 20
201.2817278507
 30
0.0
 40
6.0
100
AcDbArc
 50
0.0
 51
90.0
  0
LINE
  5
A4B
330
2
100
AcDbEntity
  8
CENTER
100
AcDbLine
 10
382.278418045
 20
200.2817278507
 30
0.0
 11
400.597234045
 21
200.2817278507
 31
0.0
  0
LINE
  5
A4C
330
2
100
AcDbEntity
  8
0
100
AcDbLine
 10
380.437826045
 20
201.2817278507
 30
0.0
 11
380.437826045
 21
200.2816968507
 31
0.0
  0
TEXT
  5
A62
330
2
100
AcDbEntity
  8
TITLE
100
AcDbText
 10
600.8386643618
 20
476.7305221787
 30
0.0
 40
7.0
  1
HFMN-22L-300~450-S40WT
 41
0.8
100
AcDbText
  0
TEXT
  5
A63
330
2
100
AcDbEntity
  8
TITLE
100
AcDbText
 10
600.8386643618
 20
487.9305221787
 30
0.0
 40
7.0
  1
HFMN-22L-300~450-S40T
 41
0.8
100
AcDbText
  0
TEXT
  5
A64
330
2
100
AcDbEntity
  8
TITLE
100
AcDbText
 10
600.8386643618
 20
499.1305221787
 30
0.0
 40
7.0
  1
HFMN-22L-300~900-S25WT
 41
0.8
100
AcDbText
  0
TEXT
  5
A65
330
2
100
AcDbEntity
  8
TITLE
100
AcDbText
 10
600.8386643618
 20
510.3305221787
 30
0.0
 40
7.0
  1
HFMN-22L-300~900-S25T
 41
0.8
100
AcDbText
  0
TEXT
  5
A66
330
2
100
AcDbEntity
  8
TITLE
100
AcDbText
 10
600.8386643618
 20
521.5305221787
 30
0.0
 40
7.0
  1
HFMN-22L-300~1800-S15WT
 41
0.8
100
AcDbText
  0
TEXT
  5
A67
330
2
100
AcDbEntity
  8
TITLE
100
AcDbText
 10
600.8386643618
 20
532.7305221787
 30
0.0
 40
7.0
  1
HFMN-22L-300~1800-S15T
 41
0.8
100
AcDbText
  0
TEXT
  5
A68
330
2
100
AcDbEntity
  8
TITLE
100
AcDbText
 10
462.7014103317
 20
510.3305221787
 30
0.0
 40
7.0
  1
HFMN-22L-300~900-T25T
 41
0.8
100
AcDbText
  0
TEXT
  5
A69
330
2
100
AcDbEntity
  8
TITLE
100
AcDbText
 10
462.7014103317
 20
476.7305221787
 30
0.0
 40
7.0
  1
HFMN-22L-300~450-T40WT
 41
0.8
100
AcDbText
  0
TEXT
  5
A6A
330
2
100
AcDbEntity
  8
TITLE
100
AcDbText
 10
462.7014103317
 20
487.9305221787
 30
0.0
 40
7.0
  1
HFMN-22L-300~450-T40T
 41
0.8
100
AcDbText
  0
TEXT
  5
A6B
330
2
100
AcDbEntity
  8
TITLE
100
AcDbText
 10
462.7014103317
 20
499.1305221787
 30
0.0
 40
7.0
  1
HFMN-22L-300~900-T25WT
 41
0.8
100
AcDbText
  0
TEXT
  5
A6C
330
2
100
AcDbEntity
  8
TITLE
100
AcDbText
 10
462.7014103317
 20
521.5305221787
 30
0.0
 40
7.0
  1
HFMN-22L-300~1800-T15WT
 41
0.8
100
AcDbText
  0
TEXT
  5
A6D
330
2
100
AcDbEntity
  8
TITLE
100
AcDbText
 10
462.7014103317
 20
532.7305221787
 30
0.0
 40
7.0
  1
HFMN-22L-300~1800-T15T
 41
0.8
100
AcDbText
  0
TEXT
  5
A6E
330
2
100
AcDbEntity
  8
TITLE
100
AcDbText
 10
462.7014103317
 20
465.5305221787
 30
0.0
 40
7.0
  1
HFMN-22L-300~450-T60T
 41
0.8
100
AcDbText
  0
TEXT
  5
A6F
330
2
100
AcDbEntity
  8
TITLE
100
AcDbText
 10
462.7014103317
 20
454.3305221787
 30
0.0
 40
7.0
  1
HFMN-22L-300~450-T60WT
 41
0.8
100
AcDbText
  0
TEXT
  5
A70
330
2
100
AcDbEntity
  8
TITLE
100
AcDbText
 10
600.8386643618
 20
454.3305221787
 30
0.0
 40
7.0
  1
HFMN-22L-300~450-S60WT
 41
0.8
100
AcDbText
  0
TEXT
  5
A71
330
2
100
AcDbEntity
  8
TITLE
100
AcDbText
 10
600.8386643618
 20
465.5305221787
 30
0.0
 40
7.0
  1
HFMN-22L-300~450-S60T
 41
0.8
100
AcDbText
  0
LINE
  5
2044
330
2
100
AcDbEntity
  8
CENTER
100
AcDbLine
 10
1009.607471593
 20
177.7817028507
 30
0.0
 11
937.7114126293
 21
177.7817028507
 31
0.0
  0
LINE
  5
20EF
330
2
100
AcDbEntity
  8
0
100
AcDbLine
 10
998.663707593
 20
184.2817028507
 30
0.0
 11
998.663722593
 21
168.2817048507
 31
0.0
  0
LINE
  5
20F0
330
2
100
AcDbEntity
  8
0
100
AcDbLine
 10
946.663715593
 20
186.2817028507
 30
0.0
 11
946.663715593
 21
158.2817048507
 31
0.0
  0
LINE
  5
20F1
330
2
100
AcDbEntity
  8
0
100
AcDbLine
 10
996.663722593
 20
186.2817028507
 30
0.0
 11
996.663722593
 21
158.2817048507
 31
0.0
  0
LINE
  5
20F2
330
2
100
AcDbEntity
  8
CENTER
100
AcDbLine
 10
971.663715593
 20
146.5880038507
 30
0.0
 11
971.663715593
 21
197.6692028507
 31
0.0
  0
LINE
  5
20F4
330
2
100
AcDbEntity
  8
0
100
AcDbLine
 10
998.663722593
 20
168.2817048507
 30
0.0
 11
946.663715593
 21
168.2817048507
 31
0.0
  0
LINE
  5
20F6
330
2
100
AcDbEntity
  8
0
100
AcDbLine
 10
996.663722593
 20
158.2817048507
 30
0.0
 11
946.663715593
 21
158.2817048507
 31
0.0
  0
LINE
  5
20F7
330
2
100
AcDbEntity
  8
0
100
AcDbLine
 10
995.163722593
 20
156.2817048507
 30
0.0
 11
948.663715593
 21
156.2817048507
 31
0.0
  0
LINE
  5
20F8
330
2
100
AcDbEntity
  8
0
100
AcDbLine
 10
948.663715593
 20
156.2817048507
 30
0.0
 11
946.663715593
 21
158.2817048507
 31
0.0
  0
LINE
  5
20F9
330
2
100
AcDbEntity
  8
0
100
AcDbLine
 10
949.163715593
 20
156.2817048507
 30
0.0
 11
949.163715593
 21
154.7817048507
 31
0.0
  0
LINE
  5
20FA
330
2
100
AcDbEntity
  8
0
100
AcDbLine
 10
996.663722593
 20
158.2817048507
 30
0.0
 11
994.663722593
 21
156.2817048507
 31
0.0
  0
LINE
  5
20FB
330
2
100
AcDbEntity
  8
0
100
AcDbLine
 10
995.163722593
 20
156.2817048507
 30
0.0
 11
995.163722593
 21
154.7817048507
 31
0.0
  0
LINE
  5
20FC
330
2
100
AcDbEntity
  8
0
100
AcDbLine
 10
951.5016244091
 20
187.2817028507
 30
0.0
 11
995.663715593
 21
187.2817028507
 31
0.0
  0
LINE
  5
20FD
330
2
100
AcDbEntity
  8
0
100
AcDbLine
 10
954.1637160216
 20
186.2817028507
 30
0.0
 11
996.663722593
 21
186.2817028507
 31
0.0
  0
LINE
  5
20FE
330
2
100
AcDbEntity
  8
0
100
AcDbLine
 10
954.1637160216
 20
184.7817028507
 30
0.0
 11
946.6637160216
 21
184.7817028507
 31
0.0
  0
LINE
  5
20FF
330
2
100
AcDbEntity
  8
0
100
AcDbLine
 10
954.1637160216
 20
186.7817028507
 30
0.0
 11
953.1086929827
 21
186.7817028507
 31
0.0
  0
ARC
  5
2100
330
2
100
AcDbEntity
  8
0
100
AcDbCircle
 10
950.163715593
 20
178.3817028507
 30
0.0
 40
9.0
100
AcDbArc
 50
74.1191499917
 51
105.8808500083
  0
SPLINE
  5
2101
330
2
100
AcDbEntity
  8
0
100
AcDbSpline
210
0.0
220
0.0
230
1.0
 70
     8
 71
     3
 72
    11
 73
     7
 74
     0
 42
0.000000001
 43
0.0000000001
 40
0.0
 40
0.0
 40
0.0
 40
0.0
 40
0.4601364636755307
 40
1.04988694485363
 40
1.713742833862792
 40
2.320347933405154
 40
2.320347933405154
 40
2.320347933405154
 40
2.320347933405175
 10
949.8762155925842
 20
185.8647028507408
 30
0.0
 10
949.8537979354761
 20
186.0197262904207
 30
0.0
 10
949.8026478802428
 20
186.3734411083382
 30
0.0
 10
949.3667627187093
 20
186.7981687799399
 30
0.0
 10
948.7617120037016
 20
187.0173559599057
 30
0.0
 10
948.3365273795261
 20
186.948364660295
 30
0.0
 10
948.133975769875
 20
186.9341443881184
 30
0.0
  0
LINE
  5
2102
330
2
100
AcDbEntity
  8
0
100
AcDbLine
 10
948.1339757699
 20
186.9341443881
 30
0.0
 11
948.113715593
 21
187.1451211336
 31
0.0
  0
LINE
  5
2103
330
2
100
AcDbEntity
  8
0
100
AcDbLine
 10
946.663715593
 20
184.7817028507
 30
0.0
 11
946.7616517319
 21
185.9011180406
 31
0.0
  0
ARC
  5
2104
330
2
100
AcDbEntity
  8
0
100
AcDbCircle
 10
948.0567048394
 20
185.787815575
 30
0.0
 40
1.3
100
AcDbArc
 50
105.8808500083
 51
175.0
  0
LINE
  5
2105
330
2
100
AcDbEntity
  8
0
100
AcDbLine
 10
946.663715593
 20
186.2817028507
 30
0.0
 11
947.663715593
 21
187.2817028507
 31
0.0
  0
LINE
  5
2106
330
2
100
AcDbEntity
  8
0
100
AcDbLine
 10
947.663715593
 20
187.2817028507
 30
0.0
 11
948.825806777
 21
187.2817028507
 31
0.0
  0
LINE
  5
2107
330
2
100
AcDbEntity
  8
0
100
AcDbLine
 10
953.663715593
 20
184.7817028507
 30
0.0
 11
953.5657794542
 21
185.9011180406
 31
0.0
  0
ARC
  5
2108
330
2
100
AcDbEntity
  8
0
100
AcDbCircle
 10
952.2707263466
 20
185.787815575
 30
0.0
 40
1.3
100
AcDbArc
 50
5.0
 51
74.1191499917
  0
LINE
  5
2109
330
2
100
AcDbEntity
  8
0
100
AcDbLine
 10
952.1934554162
 20
186.9341443881
 30
0.0
 11
952.213715593
 21
187.1451211336
 31
0.0
  0
LINE
  5
210A
330
2
100
AcDbEntity
  8
0
100
AcDbLine
 10
950.4512155935
 20
185.8647028507
 30
0.0
 11
949.8762155926
 21
185.8647028507
 31
0.0
  0
SPLINE
  5
210B
330
2
100
AcDbEntity
  8
0
100
AcDbSpline
210
0.0
220
0.0
230
1.0
 70
     8
 71
     3
 72
    11
 73
     7
 74
     0
 42
0.000000001
 43
0.0000000001
 40
0.0
 40
0.0
 40
0.0
 40
0.0
 40
0.4601364636755307
 40
1.04988694485363
 40
1.713742833862792
 40
2.320347933405154
 40
2.320347933405154
 40
2.320347933405154
 40
2.320347933405175
 10
950.4512155934939
 20
185.8647028507408
 30
0.0
 10
950.4736332506018
 20
186.0197262904207
 30
0.0
 10
950.5247833058353
 20
186.3734411083382
 30
0.0
 10
950.9606684673688
 20
186.7981687799399
 30
0.0
 10
951.5657191823759
 20
187.0173559599057
 30
0.0
 10
951.9909038065518
 20
186.948364660295
 30
0.0
 10
952.1934554162028
 20
186.9341443881184
 30
0.0
  0
LINE
  5
210C
330
2
100
AcDbEntity
  8
0
100
AcDbLine
 10
954.6637160216
 20
187.2817028507
 30
0.0
 11
954.1637160216
 21
186.7817028507
 31
0.0
  0
LINE
  5
210D
330
2
100
AcDbEntity
  8
0
100
AcDbLine
 10
954.1637160216
 20
184.7817028507
 30
0.0
 11
954.1637160216
 21
186.7817028507
 31
0.0
  0
LINE
  5
210E
330
2
100
AcDbEntity
  8
0
100
AcDbLine
 10
1002.163707593
 20
181.7817028507
 30
0.0
 11
1002.163707593
 21
173.7817028507
 31
0.0
  0
LINE
  5
210F
330
2
100
AcDbEntity
  8
0
100
AcDbLine
 10
1002.163722593
 20
173.7817028507
 30
0.0
 11
998.663722593
 21
172.2817028507
 31
0.0
  0
LINE
  5
2110
330
2
100
AcDbEntity
  8
0
100
AcDbLine
 10
1002.163707593
 20
181.7817028507
 30
0.0
 11
998.663707593
 21
183.2817028507
 31
0.0
  0
ARC
  5
2111
330
2
100
AcDbEntity
  8
0
100
AcDbCircle
 10
997.663707593
 20
184.2817028507
 30
0.0
 40
1.0
100
AcDbArc
 50
0.0
 51
90.0
  0
LINE
  5
2112
330
2
100
AcDbEntity
  8
0
100
AcDbLine
 10
997.663722593
 20
185.2817028507
 30
0.0
 11
996.663722593
 21
185.2817028507
 31
0.0
  0
LINE
  5
2113
330
2
100
AcDbEntity
  8
0
100
AcDbLine
 10
995.663722593
 20
187.2817028507
 30
0.0
 11
996.663722593
 21
186.2817028507
 31
0.0
  0
LINE
  5
215D
330
2
100
AcDbEntity
  8
CENTER
100
AcDbLine
 10
131.687734045
 20
146.5880108507
 30
0.0
 11
131.687734045
 21
197.6692098507
 31
0.0
  0
LINE
  5
215E
330
2
100
AcDbEntity
  8
0
100
AcDbLine
 10
106.687727045
 20
186.2817098507
 30
0.0
 11
106.687727045
 21
158.2817118507
 31
0.0
  0
LINE
  5
215F
330
2
100
AcDbEntity
  8
0
100
AcDbLine
 10
104.687742045
 20
184.2817098507
 30
0.0
 11
104.687727045
 21
168.2817118507
 31
0.0
  0
LINE
  5
2160
330
2
100
AcDbEntity
  8
0
100
AcDbLine
 10
156.687734045
 20
186.2817098507
 30
0.0
 11
156.687734045
 21
158.2817118507
 31
0.0
  0
LINE
  5
2162
330
2
100
AcDbEntity
  8
0
100
AcDbLine
 10
106.687727045
 20
158.2817118507
 30
0.0
 11
108.687727045
 21
156.2817118507
 31
0.0
  0
LINE
  5
2163
330
2
100
AcDbEntity
  8
0
100
AcDbLine
 10
106.687727045
 20
158.2817118507
 30
0.0
 11
156.687734045
 21
158.2817118507
 31
0.0
  0
LINE
  5
2164
330
2
100
AcDbEntity
  8
0
100
AcDbLine
 10
104.687727045
 20
168.2817118507
 30
0.0
 11
156.687734045
 21
168.2817118507
 31
0.0
  0
LINE
  5
2165
330
2
100
AcDbEntity
  8
0
100
AcDbLine
 10
108.187727045
 20
156.2817118507
 30
0.0
 11
154.687734045
 21
156.2817118507
 31
0.0
  0
LINE
  5
2166
330
2
100
AcDbEntity
  8
0
100
AcDbLine
 10
108.187727045
 20
156.2817118507
 30
0.0
 11
108.187727045
 21
154.7817118507
 31
0.0
  0
LINE
  5
2167
330
2
100
AcDbEntity
  8
0
100
AcDbLine
 10
154.687734045
 20
156.2817118507
 30
0.0
 11
156.687734045
 21
158.2817118507
 31
0.0
  0
LINE
  5
2168
330
2
100
AcDbEntity
  8
0
100
AcDbLine
 10
154.187734045
 20
156.2817118507
 30
0.0
 11
154.187734045
 21
154.7817118507
 31
0.0
  0
LINE
  5
2169
330
2
100
AcDbEntity
  8
CENTER
100
AcDbLine
 10
93.743978045
 20
177.7817098507
 30
0.0
 11
165.6400370087
 21
177.7817098507
 31
0.0
  0
LINE
  5
216A
330
2
100
AcDbEntity
  8
0
100
AcDbLine
 10
107.687727045
 20
187.2817098507
 30
0.0
 11
108.8498252289
 21
187.2817098507
 31
0.0
  0
SPLINE
  5
216B
330
2
100
AcDbEntity
  8
0
100
AcDbSpline
210
0.0
220
0.0
230
1.0
 70
     8
 71
     3
 72
    11
 73
     7
 74
     0
 42
0.000000001
 43
0.0000000001
 40
0.0
 40
0.0
 40
0.0
 40
0.0
 40
0.4601364636755307
 40
1.04988694485363
 40
1.713742833862792
 40
2.320347933405154
 40
2.320347933405154
 40
2.320347933405154
 40
2.320347933405175
 10
109.9002340445101
 20
185.8647098507408
 30
0.0
 10
109.8778163874023
 20
186.0197332904206
 30
0.0
 10
109.826666332169
 20
186.3734481083382
 30
0.0
 10
109.3907811706353
 20
186.7981757799399
 30
0.0
 10
108.785730455628
 20
187.0173629599057
 30
0.0
 10
108.3605458314521
 20
186.9483716602951
 30
0.0
 10
108.1579942218011
 20
186.9341513881184
 30
0.0
  0
ARC
  5
216C
330
2
100
AcDbEntity
  8
0
100
AcDbCircle
 10
110.187734045
 20
178.3817098507
 30
0.0
 40
9.0
100
AcDbArc
 50
74.1191499917
 51
105.8808500083
  0
LINE
  5
216D
330
2
100
AcDbEntity
  8
0
100
AcDbLine
 10
114.1877274735
 20
184.7817098507
 30
0.0
 11
106.6877274735
 21
184.7817098507
 31
0.0
  0
LINE
  5
216F
330
2
100
AcDbEntity
  8
0
100
AcDbLine
 10
101.187742045
 20
181.7817098507
 30
0.0
 11
104.687742045
 21
183.2817098507
 31
0.0
  0
LINE
  5
2170
330
2
100
AcDbEntity
  8
0
100
AcDbLine
 10
101.187727045
 20
173.7817098507
 30
0.0
 11
104.687727045
 21
172.2817098507
 31
0.0
  0
LINE
  5
2171
330
2
100
AcDbEntity
  8
0
100
AcDbLine
 10
101.187742045
 20
181.7817098507
 30
0.0
 11
101.187742045
 21
173.7817098507
 31
0.0
  0
LINE
  5
2172
330
2
100
AcDbEntity
  8
0
100
AcDbLine
 10
108.1579942218
 20
186.9341513881
 30
0.0
 11
108.137734045
 21
187.1451281336
 31
0.0
  0
ARC
  5
2173
330
2
100
AcDbEntity
  8
0
100
AcDbCircle
 10
105.687742045
 20
184.2817098507
 30
0.0
 40
1.0
100
AcDbArc
 50
90.0
 51
180.0
  0
LINE
  5
2174
330
2
100
AcDbEntity
  8
0
100
AcDbLine
 10
105.687727045
 20
185.2817098507
 30
0.0
 11
106.687727045
 21
185.2817098507
 31
0.0
  0
LINE
  5
2175
330
2
100
AcDbEntity
  8
0
100
AcDbLine
 10
106.687734045
 20
184.7817098507
 30
0.0
 11
106.7856701839
 21
185.9011250406
 31
0.0
  0
LINE
  5
2176
330
2
100
AcDbEntity
  8
0
100
AcDbLine
 10
106.687727045
 20
186.2817098507
 30
0.0
 11
107.687727045
 21
187.2817098507
 31
0.0
  0
LINE
  5
2177
330
2
100
AcDbEntity
  8
0
100
AcDbLine
 10
107.6877274735
 20
187.2817098507
 30
0.0
 11
106.687727045
 21
186.2817098507
 31
0.0
  0
ARC
  5
2178
330
2
100
AcDbEntity
  8
0
100
AcDbCircle
 10
108.0807232914
 20
185.787822575
 30
0.0
 40
1.3
100
AcDbArc
 50
105.8808500083
 51
175.0
  0
LINE
  5
2179
330
2
100
AcDbEntity
  8
0
100
AcDbLine
 10
114.1877274735
 20
186.2817098507
 30
0.0
 11
156.687741045
 21
186.2817098507
 31
0.0
  0
LINE
  5
217A
330
2
100
AcDbEntity
  8
0
100
AcDbLine
 10
111.525642861
 20
187.2817098507
 30
0.0
 11
155.687734045
 21
187.2817098507
 31
0.0
  0
LINE
  5
217B
330
2
100
AcDbEntity
  8
0
100
AcDbLine
 10
114.6877274735
 20
187.2817098507
 30
0.0
 11
114.1877274735
 21
186.7817098507
 31
0.0
  0
LINE
  5
217C
330
2
100
AcDbEntity
  8
0
100
AcDbLine
 10
114.1877274735
 20
184.7817098507
 30
0.0
 11
114.1877274735
 21
186.7817098507
 31
0.0
  0
SPLINE
  5
217D
330
2
100
AcDbEntity
  8
0
100
AcDbSpline
210
0.0
220
0.0
230
1.0
 70
     8
 71
     3
 72
    11
 73
     7
 74
     0
 42
0.000000001
 43
0.0000000001
 40
0.0
 40
0.0
 40
0.0
 40
0.0
 40
0.4601364636755307
 40
1.04988694485363
 40
1.713742833862792
 40
2.320347933405154
 40
2.320347933405154
 40
2.320347933405154
 40
2.320347933405175
 10
110.4752340454201
 20
185.8647098507408
 30
0.0
 10
110.497651702528
 20
186.0197332904206
 30
0.0
 10
110.5488017577613
 20
186.3734481083382
 30
0.0
 10
110.9846869192949
 20
186.7981757799399
 30
0.0
 10
111.5897376343023
 20
187.0173629599057
 30
0.0
 10
112.0149222584782
 20
186.9483716602951
 30
0.0
 10
112.2174738681292
 20
186.9341513881184
 30
0.0
  0
LINE
  5
217E
330
2
100
AcDbEntity
  8
0
100
AcDbLine
 10
110.4752340454
 20
185.8647098507
 30
0.0
 11
109.9002340445
 21
185.8647098507
 31
0.0
  0
LINE
  5
217F
330
2
100
AcDbEntity
  8
0
100
AcDbLine
 10
112.2174738681
 20
186.9341513881
 30
0.0
 11
112.237734045
 21
187.1451281336
 31
0.0
  0
LINE
  5
2180
330
2
100
AcDbEntity
  8
0
100
AcDbLine
 10
113.687734045
 20
184.7817098507
 30
0.0
 11
113.5897979061
 21
185.9011250406
 31
0.0
  0
LINE
  5
2181
330
2
100
AcDbEntity
  8
0
100
AcDbLine
 10
114.1877274735
 20
186.7817098507
 30
0.0
 11
113.1327114346
 21
186.7817098507
 31
0.0
  0
ARC
  5
2182
330
2
100
AcDbEntity
  8
0
100
AcDbCircle
 10
112.2947447986
 20
185.787822575
 30
0.0
 40
1.3
100
AcDbArc
 50
5.0
 51
74.1191499917
  0
LINE
  5
2183
330
2
100
AcDbEntity
  8
0
100
AcDbLine
 10
155.687741045
 20
187.2817098507
 30
0.0
 11
156.687741045
 21
186.2817098507
 31
0.0
  0
ARC
  5
220C
330
2
100
AcDbEntity
  8
0
100
AcDbCircle
 10
112.217457045
 20
359.0301584502
 30
0.0
 40
1.742199999999999
100
AcDbArc
 50
179.9986903345
 51
270.0013096655
  0
ARC
  5
220D
330
2
100
AcDbEntity
  8
0
100
AcDbCircle
 10
110.187757045
 20
357.0004584502
 30
0.0
 40
4.0
100
AcDbArc
 50
0.0
 51
90.0
  0
CIRCLE
  5
220E
330
2
100
AcDbEntity
  8
0
100
AcDbCircle
 10
110.187757045
 20
357.0004584502
 30
0.0
 40
3.500000000000028
  0
ARC
  5
220F
330
2
100
AcDbEntity
  8
0
100
AcDbCircle
 10
108.158057045
 20
359.0301584502
 30
0.0
 40
1.742199999999999
100
AcDbArc
 50
269.9986903345
 51
0.0013096655
  0
LINE
  5
2210
330
2
100
AcDbEntity
  8
0
100
AcDbLine
 10
106.687727045
 20
401.5004584502
 30
0.0
 11
106.687727045
 21
355.5004584502
 31
0.0
  0
LINE
  5
2211
330
2
100
AcDbEntity
  8
0
100
AcDbLine
 10
156.687627045
 20
401.5004584502
 30
0.0
 11
156.687627045
 21
355.5004584502
 31
0.0
  0
LINE
  5
2212
330
2
100
AcDbEntity
  8
0
100
AcDbLine
 10
155.287832045
 20
355.9004524502
 30
0.0
 11
155.287832045
 21
396.0004584502
 31
0.0
  0
LINE
  5
2213
330
2
100
AcDbEntity
  8
CENTER
100
AcDbLine
 10
131.687734045
 20
413.8896843944
 30
0.0
 11
131.687734045
 21
342.7504584502
 31
0.0
  0
LINE
  5
2214
330
2
100
AcDbEntity
  8
0
100
AcDbLine
 10
106.687727045
 20
355.5004584502
 30
0.0
 11
108.687727045
 21
353.5004584502
 31
0.0
  0
LINE
  5
2215
330
2
100
AcDbEntity
  8
0
100
AcDbLine
 10
106.687727045
 20
355.5004584502
 30
0.0
 11
108.687727045
 21
353.5004584502
 31
0.0
  0
ARC
  5
2216
330
2
100
AcDbEntity
  8
0
100
AcDbCircle
 10
108.158057045
 20
354.9707584502
 30
0.0
 40
1.742199999999999
100
AcDbArc
 50
359.9986903345
 51
90.0013096655
  0
ARC
  5
2217
330
2
100
AcDbEntity
  8
0
100
AcDbCircle
 10
110.187757045
 20
357.0004584502
 30
0.0
 40
2.049999999999998
100
AcDbArc
 50
171.938039916
 51
180.0
  0
ARC
  5
2218
330
2
100
AcDbEntity
  8
0
100
AcDbCircle
 10
110.187757045
 20
357.0004584502
 30
0.0
 40
2.049999999999998
100
AcDbArc
 50
180.0
 51
188.061960084
  0
LINE
  5
2219
330
2
100
AcDbEntity
  8
0
100
AcDbLine
 10
154.287832045
 20
354.9004524502
 30
0.0
 11
155.287832045
 21
355.9004524502
 31
0.0
  0
LINE
  5
221A
330
2
100
AcDbEntity
  8
0
100
AcDbLine
 10
156.687826045
 20
355.5004584502
 30
0.0
 11
154.687627045
 21
353.5004584502
 31
0.0
  0
LINE
  5
221B
330
2
100
AcDbEntity
  8
0
100
AcDbLine
 10
156.687627045
 20
355.5004584502
 30
0.0
 11
154.687627045
 21
353.5004584502
 31
0.0
  0
LINE
  5
221C
330
2
100
AcDbEntity
  8
0
100
AcDbLine
 10
156.687627045
 20
355.5004584502
 30
0.0
 11
154.687627045
 21
353.5004584502
 31
0.0
  0
LINE
  5
221D
330
2
100
AcDbEntity
  8
0
100
AcDbLine
 10
154.287832045
 20
354.9004524502
 30
0.0
 11
114.187727045
 21
354.9004524502
 31
0.0
  0
LINE
  5
221E
330
2
100
AcDbEntity
  8
0
100
AcDbLine
 10
108.687727045
 20
353.5004584502
 30
0.0
 11
154.687627045
 21
353.5004584502
 31
0.0
  0
ARC
  5
221F
330
2
100
AcDbEntity
  8
0
100
AcDbCircle
 10
110.187757045
 20
357.0004584502
 30
0.0
 40
2.049999999999998
100
AcDbArc
 50
0.0
 51
8.061960084
  0
ARC
  5
2220
330
2
100
AcDbEntity
  8
0
100
AcDbCircle
 10
110.187757045
 20
357.0004584502
 30
0.0
 40
2.049999999999998
100
AcDbArc
 50
270.0
 51
278.061960084
  0
ARC
  5
2221
330
2
100
AcDbEntity
  8
0
100
AcDbCircle
 10
110.187757045
 20
357.0004584502
 30
0.0
 40
2.049999999999998
100
AcDbArc
 50
261.938039916
 51
270.0
  0
ARC
  5
2222
330
2
100
AcDbEntity
  8
0
100
AcDbCircle
 10
110.187757045
 20
357.0004584502
 30
0.0
 40
2.049999999999998
100
AcDbArc
 50
351.938039916
 51
0.0
  0
ARC
  5
2223
330
2
100
AcDbEntity
  8
0
100
AcDbCircle
 10
112.217457045
 20
354.9707584502
 30
0.0
 40
1.742199999999999
100
AcDbArc
 50
89.9986903345
 51
180.0013096655
  0
LINE
  5
2224
330
2
100
AcDbEntity
  8
0
100
AcDbLine
 10
114.187727045
 20
357.0004584502
 30
0.0
 11
114.187727045
 21
353.5006574502
 31
0.0
  0
LINE
  5
2225
330
2
100
AcDbEntity
  8
0
100
AcDbLine
 10
106.687727045
 20
401.5004584502
 30
0.0
 11
108.687727045
 21
403.5004584502
 31
0.0
  0
LINE
  5
2226
330
2
100
AcDbEntity
  8
0
100
AcDbLine
 10
108.087721045
 20
401.1004494502
 30
0.0
 11
109.087728045
 21
402.1004494502
 31
0.0
  0
LINE
  5
2227
330
2
100
AcDbEntity
  8
0
100
AcDbLine
 10
110.187757045
 20
361.0004584502
 30
0.0
 11
106.687757045
 21
361.0004584502
 31
0.0
  0
LINE
  5
2228
330
2
100
AcDbEntity
  8
0
100
AcDbLine
 10
104.687727045
 20
372.0004584502
 30
0.0
 11
104.687727045
 21
385.0004584502
 31
0.0
  0
LINE
  5
2229
330
2
100
AcDbEntity
  8
0
100
AcDbLine
 10
101.187727045
 20
380.5004584502
 30
0.0
 11
101.187727045
 21
376.5004584502
 31
0.0
  0
LINE
  5
222A
330
2
100
AcDbEntity
  8
0
100
AcDbLine
 10
108.087721045
 20
401.1004494502
 30
0.0
 11
108.087728045
 21
361.0004584502
 31
0.0
  0
LINE
  5
222B
330
2
100
AcDbEntity
  8
0
100
AcDbLine
 10
104.687727045
 20
373.0004584502
 30
0.0
 11
101.187727045
 21
376.5004584502
 31
0.0
  0
LINE
  5
222C
330
2
100
AcDbEntity
  8
0
100
AcDbLine
 10
105.687727045
 20
371.0004584502
 30
0.0
 11
106.687727045
 21
371.0004584502
 31
0.0
  0
ARC
  5
222D
330
2
100
AcDbEntity
  8
0
100
AcDbCircle
 10
105.687727045
 20
372.0004584502
 30
0.0
 40
1.0
100
AcDbArc
 50
180.0
 51
270.0
  0
ARC
  5
222E
330
2
100
AcDbEntity
  8
0
100
AcDbCircle
 10
105.687742045
 20
385.0004584502
 30
0.0
 40
1.0
100
AcDbArc
 50
90.0
 51
180.0
  0
LINE
  5
222F
330
2
100
AcDbEntity
  8
0
100
AcDbLine
 10
101.187727045
 20
380.5004584502
 30
0.0
 11
104.687727045
 21
384.0004584502
 31
0.0
  0
LINE
  5
2230
330
2
100
AcDbEntity
  8
0
100
AcDbLine
 10
105.687727045
 20
386.0004584502
 30
0.0
 11
106.687727045
 21
386.0004584502
 31
0.0
  0
LINE
  5
2231
330
2
100
AcDbEntity
  8
0
100
AcDbLine
 10
149.187627045
 20
400.0004584502
 30
0.0
 11
149.187627045
 21
403.5004584502
 31
0.0
  0
CIRCLE
  5
2232
330
2
100
AcDbEntity
  8
0
100
AcDbCircle
 10
153.187826045
 20
400.0004584502
 30
0.0
 40
3.500000000000028
  0
LINE
  5
2233
330
2
100
AcDbEntity
  8
0
100
AcDbLine
 10
154.687627045
 20
403.5004584502
 30
0.0
 11
156.687627045
 21
401.5004584502
 31
0.0
  0
LINE
  5
2234
330
2
100
AcDbEntity
  8
0
100
AcDbLine
 10
156.687627045
 20
401.5004584502
 30
0.0
 11
154.687627045
 21
403.5004584502
 31
0.0
  0
ARC
  5
2235
330
2
100
AcDbEntity
  8
0
100
AcDbCircle
 10
155.217526045
 20
402.0301584502
 30
0.0
 40
1.742199999999999
100
AcDbArc
 50
179.9986903345
 51
270.0013096655
  0
ARC
  5
2236
330
2
100
AcDbEntity
  8
0
100
AcDbCircle
 10
155.217526045
 20
397.9707584502
 30
0.0
 40
1.742199999999999
100
AcDbArc
 50
89.9986903345
 51
180.0013096655
  0
LINE
  5
2237
330
2
100
AcDbEntity
  8
0
100
AcDbLine
 10
153.187627045
 20
396.0004584502
 30
0.0
 11
156.687627045
 21
396.0004584502
 31
0.0
  0
ARC
  5
2238
330
2
100
AcDbEntity
  8
0
100
AcDbCircle
 10
110.187757045
 20
357.0004584502
 30
0.0
 40
2.049999999999998
100
AcDbArc
 50
81.938039916
 51
90.0
  0
ARC
  5
2239
330
2
100
AcDbEntity
  8
0
100
AcDbCircle
 10
110.187757045
 20
357.0004584502
 30
0.0
 40
2.049999999999998
100
AcDbArc
 50
90.0
 51
98.061960084
  0
LINE
  5
223A
330
2
100
AcDbEntity
  8
0
100
AcDbLine
 10
109.087728045
 20
402.1004494502
 30
0.0
 11
149.187627045
 21
402.1004494502
 31
0.0
  0
ARC
  5
223B
330
2
100
AcDbEntity
  8
0
100
AcDbCircle
 10
153.187826045
 20
400.0004584502
 30
0.0
 40
2.049999999999998
100
AcDbArc
 50
270.0
 51
278.061960084
  0
ARC
  5
223C
330
2
100
AcDbEntity
  8
0
100
AcDbCircle
 10
151.158126045
 20
402.0301584502
 30
0.0
 40
1.742199999999999
100
AcDbArc
 50
269.9986903345
 51
0.0013096655
  0
ARC
  5
223D
330
2
100
AcDbEntity
  8
0
100
AcDbCircle
 10
151.158126045
 20
397.9707584502
 30
0.0
 40
1.742199999999999
100
AcDbArc
 50
359.9986903345
 51
90.0013096655
  0
ARC
  5
223E
330
2
100
AcDbEntity
  8
0
100
AcDbCircle
 10
153.187826045
 20
400.0004584502
 30
0.0
 40
2.049999999999998
100
AcDbArc
 50
180.0
 51
188.061960084
  0
ARC
  5
223F
330
2
100
AcDbEntity
  8
0
100
AcDbCircle
 10
153.187826045
 20
400.0004584502
 30
0.0
 40
2.049999999999998
100
AcDbArc
 50
171.938039916
 51
180.0
  0
ARC
  5
2240
330
2
100
AcDbEntity
  8
0
100
AcDbCircle
 10
153.187826045
 20
400.0004584502
 30
0.0
 40
2.049999999999998
100
AcDbArc
 50
261.938039916
 51
270.0
  0
ARC
  5
2241
330
2
100
AcDbEntity
  8
0
100
AcDbCircle
 10
153.187826045
 20
400.0004584502
 30
0.0
 40
4.0
100
AcDbArc
 50
180.0
 51
270.0
  0
ARC
  5
2242
330
2
100
AcDbEntity
  8
0
100
AcDbCircle
 10
153.187826045
 20
400.0004584502
 30
0.0
 40
2.049999999999998
100
AcDbArc
 50
81.938039916
 51
90.0
  0
ARC
  5
2243
330
2
100
AcDbEntity
  8
0
100
AcDbCircle
 10
153.187826045
 20
400.0004584502
 30
0.0
 40
2.049999999999998
100
AcDbArc
 50
90.0
 51
98.061960084
  0
ARC
  5
2244
330
2
100
AcDbEntity
  8
0
100
AcDbCircle
 10
153.187826045
 20
400.0004584502
 30
0.0
 40
2.049999999999998
100
AcDbArc
 50
351.938039916
 51
0.0
  0
ARC
  5
2245
330
2
100
AcDbEntity
  8
0
100
AcDbCircle
 10
153.187826045
 20
400.0004584502
 30
0.0
 40
2.049999999999998
100
AcDbArc
 50
0.0
 51
8.061960084
  0
LINE
  5
2246
330
2
100
AcDbEntity
  8
0
100
AcDbLine
 10
108.687727045
 20
403.5004584502
 30
0.0
 11
154.687627045
 21
403.5004584502
 31
0.0
  0
LINE
  5
2247
330
2
100
AcDbEntity
  8
0
100
AcDbLine
 10
106.187856045
 20
371.0004584502
 30
0.0
 11
106.187856045
 21
338.5004884502
 31
0.0
  0
TEXT
  5
2309
330
2
100
AcDbEntity
  8
TITLE_C
100
AcDbText
 10
600.7810440113
 20
432.1428560012
 30
0.0
 40
7.0
  1
HF22L300～18X-CSBL15NT
 41
0.8
100
AcDbText
  0
TEXT
  5
230A
330
2
100
AcDbEntity
  8
TITLE_C
100
AcDbText
 10
462.6437899812
 20
388.1947787646
 30
0.0
 40
7.0
  1
HF22L300～900-CTBL25NTX
 41
0.8
100
AcDbText
  0
TEXT
  5
230D
330
2
100
AcDbEntity
  8
TITLE_C
100
AcDbText
 10
462.6437899812
 20
376.9947787646
 30
0.0
 40
7.0
  1
HF22L300～900-CTBL25WT
 41
0.8
100
AcDbText
  0
TEXT
  5
230E
330
2
100
AcDbEntity
  8
TITLE_C
100
AcDbText
 10
462.6437899812
 20
410.7296863231
 30
0.0
 40
7.0
  1
HF22L300～18X-CTBL15WT
 41
0.8
100
AcDbText
  0
TEXT
  5
230F
330
2
100
AcDbEntity
  8
TITLE_C
100
AcDbText
 10
462.6437899812
 20
421.9296863231
 30
0.0
 40
7.0
  1
HF22L300～18X-CTBL15NTX
 41
0.8
100
AcDbText
  0
TEXT
  5
3270
330
2
100
AcDbEntity
  8
TITLE_C
100
AcDbText
 10
462.6437899812
 20
432.3702531209
 30
0.0
 40
7.0
  1
HF22L300～18X-CTBL15NT
 41
0.8
100
AcDbText
  0
TEXT
  5
3271
330
2
100
AcDbEntity
  8
TITLE_C
100
AcDbText
 10
462.6437899812
 20
399.8166454775
 30
0.0
 40
7.0
  1
HF22L300～900-CTBL25NT
 41
0.8
100
AcDbText
  0
TEXT
  5
34A7
330
2
100
AcDbEntity
  8
TITLE_C
100
AcDbText
 10
600.8505955243
 20
387.922709206
 30
0.0
 40
7.0
  1
HF22L300～900-CSBL25WTX
 41
0.8
100
AcDbText
  0
TEXT
  5
34A8
330
2
100
AcDbEntity
  8
TITLE_C
100
AcDbText
 10
600.8505955243
 20
376.722709206
 30
0.0
 40
7.0
  1
HF22L300～900-CSBL25WT
 41
0.8
100
AcDbText
  0
TEXT
  5
34A9
330
2
100
AcDbEntity
  8
TITLE_C
100
AcDbText
 10
600.8505955243
 20
410.4576167645
 30
0.0
 40
7.0
  1
HF22L300～18X-CSBL15WT
 41
0.8
100
AcDbText
  0
TEXT
  5
34AA
330
2
100
AcDbEntity
  8
TITLE_C
100
AcDbText
 10
600.8505955243
 20
421.6576167645
 30
0.0
 40
7.0
  1
HF22L300～18X-CSBL15WTX
 41
0.8
100
AcDbText
  0
TEXT
  5
34AB
330
2
100
AcDbEntity
  8
TITLE_C
100
AcDbText
 10
600.8505955243
 20
399.5445759189
 30
0.0
 40
7.0
  1
HF22L300～900-CSBL25NT
 41
0.8
100
AcDbText
  0
ENDSEC
  0
SECTION
  2
OBJECTS
  0
DICTIONARY
  5
7
330
0
100
AcDbDictionary
281
     1
  3
ACAD_CIP_PREVIOUS_PRODUCT_INFO
350
3496
  3
ACAD_COLOR
350
22BC
  3
ACAD_DETAILVIEWSTYLE
350
3492
  3
ACAD_GROUP
350
75
  3
ACAD_LAYOUT
350
61
  3
ACAD_MATERIAL
350
228F
  3
ACAD_MLEADERSTYLE
350
22E1
  3
ACAD_MLINESTYLE
350
76
  3
ACAD_PLOTSETTINGS
350
77
  3
ACAD_PLOTSTYLENAME
350
6
  3
ACAD_SCALELIST
350
22BF
  3
ACAD_SECTIONVIEWSTYLE
350
3490
  3
ACAD_TABLESTYLE
350
22BD
  3
ACAD_VISUALSTYLE
350
22A8
  3
AcadDim
350
480
  3
ACDB_RECOMPOSE_DATA
350
3CED
  3
AcDbVariableDictionary
350
102
  3
DWGPROPS
350
3CEE
  0
DICTIONARY
  5
258E
330
6E
100
AcDbDictionary
280
     1
281
     1
  0
DICTIONARY
  5
22E8
330
66
100
AcDbDictionary
280
     1
281
     1
  3
ACAD_LAYERSTATES
360
22E9
  0
DICTIONARY
  5
2577
330
5E
100
AcDbDictionary
280
     1
281
     1
  3
ADSK_XREC_LAYER_RECONCILED
360
2578
  0
DICTIONARY
  5
2579
330
3E
100
AcDbDictionary
280
     1
281
     1
  3
ADSK_XREC_LAYER_RECONCILED
360
257A
  0
DICTIONARY
  5
257F
330
2B5
100
AcDbDictionary
280
     1
281
     1
  3
ADSK_XREC_LAYER_RECONCILED
360
2580
  0
DICTIONARY
  5
2581
330
2BA
100
AcDbDictionary
280
     1
281
     1
  3
ADSK_XREC_LAYER_RECONCILED
360
2582
  0
DICTIONARY
  5
2585
330
3FA
100
AcDbDictionary
280
     1
281
     1
  3
ADSK_XREC_LAYER_RECONCILED
360
2586
  0
DICTIONARY
  5
22E6
330
22E5
100
AcDbDictionary
280
     1
281
     1
  3
ADSK_XREC_LAYER_RECONCILED
360
2587
  0
XRECORD
  5
3496
102
{ACAD_REACTORS
330
7
102
}
330
7
100
AcDbXrecord
280
     1
300
ACD
300
2020
300
87224ACD_2020_0F
  0
DICTIONARY
  5
22BC
102
{ACAD_REACTORS
330
7
102
}
330
7
100
AcDbDictionary
281
     1
  0
DICTIONARY
  5
3492
102
{ACAD_REACTORS
330
7
102
}
330
7
100
AcDbDictionary
281
     1
  3
Imperial24
350
3493
  0
DICTIONARY
  5
75
102
{ACAD_REACTORS
330
7
102
}
330
7
100
AcDbDictionary
281
     1
  0
DICTIONARY
  5
61
102
{ACAD_REACTORS
330
7
102
}
330
7
100
AcDbDictionary
281
     1
  3
Model
350
60
  3
レイアウト1
350
3CE7
  0
DICTIONARY
  5
228F
102
{ACAD_REACTORS
330
7
102
}
330
7
100
AcDbDictionary
281
     1
  3
ByBlock
350
2298
  3
ByLayer
350
2290
  3
Global
350
22A0
  0
DICTIONARY
  5
22E1
102
{ACAD_REACTORS
330
7
102
}
330
7
100
AcDbDictionary
281
     1
  3
Standard
350
22E2
  0
DICTIONARY
  5
76
102
{ACAD_REACTORS
330
7
102
}
330
7
100
AcDbDictionary
281
     1
  3
STANDARD
350
78
  0
DICTIONARY
  5
77
102
{ACAD_REACTORS
330
7
102
}
330
7
100
AcDbDictionary
281
     1
  0
ACDBDICTIONARYWDFLT
  5
6
102
{ACAD_REACTORS
330
7
102
}
330
7
100
AcDbDictionary
281
     1
  3
Normal
350
5
100
AcDbDictionaryWithDefault
340
5
  0
DICTIONARY
  5
22BF
102
{ACAD_REACTORS
330
7
102
}
330
7
100
AcDbDictionary
281
     1
  3
A0
350
22C0
  3
A1
350
22C1
  3
A2
350
22C2
  3
A3
350
22C3
  3
A4
350
22C4
  3
A5
350
22C5
  3
A6
350
22C6
  3
A7
350
22C7
  3
A8
350
22C8
  3
A9
350
22C9
  3
B0
350
22CA
  3
B1
350
22CB
  3
B2
350
22CC
  3
B3
350
22CD
  3
B4
350
22CE
  3
B5
350
22CF
  3
B6
350
22D0
  3
B7
350
22D1
  3
B8
350
22D2
  3
B9
350
22D3
  3
C0
350
22D4
  3
C1
350
22D5
  3
C2
350
22D6
  3
C3
350
22D7
  3
C4
350
22D8
  3
C5
350
22D9
  3
C6
350
22DA
  3
C7
350
22DB
  3
C8
350
22DC
  3
C9
350
22DD
  3
D0
350
22DE
  3
D1
350
22DF
  3
D2
350
22E0
  0
DICTIONARY
  5
3490
102
{ACAD_REACTORS
330
7
102
}
330
7
100
AcDbDictionary
281
     1
  3
Imperial24
350
3491
  0
DICTIONARY
  5
22BD
102
{ACAD_REACTORS
330
7
102
}
330
7
100
AcDbDictionary
281
     1
  3
Standard
350
22BE
  0
DICTIONARY
  5
22A8
102
{ACAD_REACTORS
330
7
102
}
330
7
100
AcDbDictionary
281
     1
  3
2dWireframe
350
22AE
  3
3D Hidden
350
22B0
  3
3dWireframe
350
22AF
  3
Basic
350
22AD
  3
Brighten
350
22B4
  3
ColorChange
350
22B8
  3
Conceptual
350
22B1
  3
Dim
350
22B3
  3
EdgeColorOff
350
22BB
  3
Facepattern
350
22B7
  3
Flat
350
22A9
  3
FlatWithEdges
350
22AA
  3
Gouraud
350
22AB
  3
GouraudWithEdges
350
22AC
  3
Hidden
350
348A
  3
JitterOff
350
22B9
  3
Linepattern
350
22B6
  3
OverhangOff
350
22BA
  3
Realistic
350
22B2
  3
Shaded
350
348F
  3
Shaded with edges
350
348E
  3
Shades of Gray
350
348B
  3
Sketchy
350
348C
  3
Thicken
350
22B5
  3
Wireframe
350
3489
  3
X-Ray
350
348D
  0
XRECORD
  5
480
102
{ACAD_REACTORS
330
7
102
}
330
7
100
AcDbXrecord
280
     1
 90
   990106
  3

 60
     0
 61
     0
 62
     1
 63
     3
 64
     1
 65
     0
 66
     0
 67
     3
 68
     1
 69
     0
 70
     0
 71
     0
 72
     0
 40
0.0
170
     2
340
0
  0
XRECORD
  5
3CED
102
{ACAD_REACTORS
330
7
102
}
330
7
100
AcDbXrecord
280
     1
 90
        1
330
22BE
  0
DICTIONARY
  5
102
102
{ACAD_REACTORS
330
7
102
}
330
7
100
AcDbDictionary
281
     1
  3
CANNOSCALE
350
2632
  3
CMLEADERSTYLE
350
2631
  3
CTABLESTYLE
350
2630
  3
CVIEWDETAILSTYLE
350
3498
  3
CVIEWSECTIONSTYLE
350
3499
  3
DIMASSOC
350
103
  3
INDEXCTL
350
2634
  3
LAYEREVAL
350
349C
  3
LAYERNOTIFY
350
349D
  3
LIGHTINGUNITS
350
349B
  3
MSLTSCALE
350
349A
  3
SORTENTS
350
2633
  3
XCLIPFRAME
350
3CEB
  0
XRECORD
  5
3CEE
102
{ACAD_REACTORS
330
7
102
}
330
7
100
AcDbXrecord
280
     1
  1
DWGPROPS COOKIE
  2

  3

  4

  6

  7

  8
ykitaga
  9

300
=
301
=
302
=
303
=
304
=
305
=
306
=
307
=
308
=
309
=
 40
-24.384733044
 41
2453754.485717593
 42
2460248.3334375
  1

 90
        0
  0
DICTIONARY
  5
22E9
102
{ACAD_REACTORS
330
22E8
102
}
330
22E8
100
AcDbDictionary
281
     1
  0
XRECORD
  5
2578
102
{ACAD_REACTORS
330
2577
102
}
330
2577
100
AcDbXrecord
280
     1
290
     1
  0
XRECORD
  5
257A
102
{ACAD_REACTORS
330
2579
102
}
330
2579
100
AcDbXrecord
280
     1
290
     1
  0
XRECORD
  5
2580
102
{ACAD_REACTORS
330
257F
102
}
330
257F
100
AcDbXrecord
280
     1
290
     1
  0
XRECORD
  5
2582
102
{ACAD_REACTORS
330
2581
102
}
330
2581
100
AcDbXrecord
280
     1
290
     1
  0
XRECORD
  5
2586
102
{ACAD_REACTORS
330
2585
102
}
330
2585
100
AcDbXrecord
280
     1
290
     1
  0
XRECORD
  5
2587
102
{ACAD_REACTORS
330
22E6
102
}
330
22E6
100
AcDbXrecord
280
     1
290
     1
  0
ACDBDETAILVIEWSTYLE
  5
3493
102
{ACAD_XDICTIONARY
360
3D4A
102
}
102
{ACAD_REACTORS
330
3492
102
}
330
3492
100
AcDbModelDocViewStyle
 70
     0
  3
Imperial24
290
     0
100
AcDbDetailViewStyle
 70
     0
 71
     0
 90
        3
 71
     1
340
16
 40
0.24
340
0
 40
0.24
300

 40
0.36
280
     3
 71
     2
340
8
 90
       25
 71
     3
340
16
 40
0.24
 90
        1
 40
0.75
 90
        1
300
%<\AcVar ViewType \f "%tc1">% %<\AcVar ViewDetailId>%\PSCALE %<\AcVar ViewScale \f "%sn">%
 71
     4
340
8
 90
       25
340
8
 90
       25
280
     0
  0
LAYOUT
  5
60
102
{ACAD_XDICTIONARY
360
231D
102
}
102
{ACAD_REACTORS
330
61
102
}
330
61
100
AcDbPlotSettings
  1

  2
Canon LBP-1420
  4
A4
  6

 40
5.873749733
 41
5.8737478256
 42
5.8737487793
 43
5.8737487793
 44
209.9733276367
 45
296.925994873
 46
0.0
 47
5.37
 48
0.0
 49
0.0
140
0.0
141
0.0
142
1.0
143
0.088099941
 70
 11956
 72
     1
 73
     1
 74
     1
  7
Sekkei.ctb
 75
     0
147
11.3507453947
148
-88.9740150773
149
-101.3630682339
100
AcDbLayout
  1
Model
 70
     1
 71
     0
 10
0.0
 20
0.0
 11
12.0
 21
9.0
 12
0.0
 22
0.0
 32
0.0
 14
0.0
 24
0.0
 34
0.0
 15
0.0
 25
0.0
 35
0.0
146
0.0
 13
0.0
 23
0.0
 33
0.0
 16
1.0
 26
0.0
 36
0.0
 17
0.0
 27
1.0
 37
0.0
 76
     0
330
2
331
228D
  0
LAYOUT
  5
3CE7
102
{ACAD_XDICTIONARY
360
3D5C
102
}
102
{ACAD_REACTORS
330
61
102
}
330
61
100
AcDbPlotSettings
  1

  2
LBP8610
  4

  6

 40
0.0
 41
0.0
 42
0.0
 43
0.0
 44
0.0
 45
0.0
 46
0.0
 47
0.0
 48
0.0
 49
0.0
140
0.0
141
0.0
142
1.0
143
1.0
 70
   688
 72
     0
 73
     0
 74
     5
  7

 75
    16
147
1.0
148
0.0
149
0.0
100
AcDbLayout
  1
レイアウト1
 70
     1
 71
     1
 10
0.0
 20
0.0
 11
12.0
 21
9.0
 12
0.0
 22
0.0
 32
0.0
 14
0.0
 24
0.0
 34
0.0
 15
0.0
 25
0.0
 35
0.0
146
0.0
 13
0.0
 23
0.0
 33
0.0
 16
1.0
 26
0.0
 36
0.0
 17
0.0
 27
1.0
 37
0.0
 76
     0
330
3CE6
  0
MATERIAL
  5
2298
102
{ACAD_XDICTIONARY
360
2299
102
}
102
{ACAD_REACTORS
330
228F
102
}
330
228F
100
AcDbMaterial
  1
ByBlock
 72
     0
 43
0.0208333333
 43
0.0
 43
0.0
 43
0.0
 43
0.0
 43
0.0208333333
 43
0.0
 43
0.0
 43
0.0
 43
0.0
 43
1.0
 43
0.0
 43
0.0
 43
0.0
 43
0.0
 43
1.0
 77
     0
 47
0.0208333333
 47
0.0
 47
0.0
 47
0.0
 47
0.0
 47
0.0208333333
 47
0.0
 47
0.0
 47
0.0
 47
0.0
 47
1.0
 47
0.0
 47
0.0
 47
0.0
 47
0.0
 47
1.0
171
     0
 49
0.0208333333
 49
0.0
 49
0.0
 49
0.0
 49
0.0
 49
0.0208333333
 49
0.0
 49
0.0
 49
0.0
 49
0.0
 49
1.0
 49
0.0
 49
0.0
 49
0.0
 49
0.0
 49
1.0
175
     0
142
0.0208333333
142
0.0
142
0.0
142
0.0
142
0.0
142
0.0208333333
142
0.0
142
0.0
142
0.0
142
0.0
142
1.0
142
0.0
142
0.0
142
0.0
142
0.0
142
1.0
179
     0
144
0.0208333333
144
0.0
144
0.0
144
0.0
144
0.0
144
0.0208333333
144
0.0
144
0.0
144
0.0
144
0.0
144
1.0
144
0.0
144
0.0
144
0.0
144
0.0
144
1.0
147
0.0208333333
147
0.0
147
0.0
147
0.0
147
0.0
147
0.0208333333
147
0.0
147
0.0
147
0.0
147
0.0
147
1.0
147
0.0
147
0.0
147
0.0
147
0.0
147
1.0
  0
MATERIAL
  5
2290
102
{ACAD_XDICTIONARY
360
2291
102
}
102
{ACAD_REACTORS
330
228F
102
}
330
228F
100
AcDbMaterial
  1
ByLayer
 72
     0
 43
0.0208333333
 43
0.0
 43
0.0
 43
0.0
 43
0.0
 43
0.0208333333
 43
0.0
 43
0.0
 43
0.0
 43
0.0
 43
1.0
 43
0.0
 43
0.0
 43
0.0
 43
0.0
 43
1.0
 77
     0
 47
0.0208333333
 47
0.0
 47
0.0
 47
0.0
 47
0.0
 47
0.0208333333
 47
0.0
 47
0.0
 47
0.0
 47
0.0
 47
1.0
 47
0.0
 47
0.0
 47
0.0
 47
0.0
 47
1.0
171
     0
 49
0.0208333333
 49
0.0
 49
0.0
 49
0.0
 49
0.0
 49
0.0208333333
 49
0.0
 49
0.0
 49
0.0
 49
0.0
 49
1.0
 49
0.0
 49
0.0
 49
0.0
 49
0.0
 49
1.0
175
     0
142
0.0208333333
142
0.0
142
0.0
142
0.0
142
0.0
142
0.0208333333
142
0.0
142
0.0
142
0.0
142
0.0
142
1.0
142
0.0
142
0.0
142
0.0
142
0.0
142
1.0
179
     0
144
0.0208333333
144
0.0
144
0.0
144
0.0
144
0.0
144
0.0208333333
144
0.0
144
0.0
144
0.0
144
0.0
144
1.0
144
0.0
144
0.0
144
0.0
144
0.0
144
1.0
147
0.0208333333
147
0.0
147
0.0
147
0.0
147
0.0
147
0.0208333333
147
0.0
147
0.0
147
0.0
147
0.0
147
1.0
147
0.0
147
0.0
147
0.0
147
0.0
147
1.0
  0
MATERIAL
  5
22A0
102
{ACAD_XDICTIONARY
360
22A1
102
}
102
{ACAD_REACTORS
330
228F
102
}
330
228F
100
AcDbMaterial
  1
Global
 72
     0
 43
0.0208333333
 43
0.0
 43
0.0
 43
0.0
 43
0.0
 43
0.0208333333
 43
0.0
 43
0.0
 43
0.0
 43
0.0
 43
1.0
 43
0.0
 43
0.0
 43
0.0
 43
0.0
 43
1.0
 77
     0
 47
0.0208333333
 47
0.0
 47
0.0
 47
0.0
 47
0.0
 47
0.0208333333
 47
0.0
 47
0.0
 47
0.0
 47
0.0
 47
1.0
 47
0.0
 47
0.0
 47
0.0
 47
0.0
 47
1.0
171
     0
 49
0.0208333333
 49
0.0
 49
0.0
 49
0.0
 49
0.0
 49
0.0208333333
 49
0.0
 49
0.0
 49
0.0
 49
0.0
 49
1.0
 49
0.0
 49
0.0
 49
0.0
 49
0.0
 49
1.0
175
     0
142
0.0208333333
142
0.0
142
0.0
142
0.0
142
0.0
142
0.0208333333
142
0.0
142
0.0
142
0.0
142
0.0
142
1.0
142
0.0
142
0.0
142
0.0
142
0.0
142
1.0
179
     0
144
0.0208333333
144
0.0
144
0.0
144
0.0
144
0.0
144
0.0208333333
144
0.0
144
0.0
144
0.0
144
0.0
144
1.0
144
0.0
144
0.0
144
0.0
144
0.0
144
1.0
147
0.0208333333
147
0.0
147
0.0
147
0.0
147
0.0
147
0.0208333333
147
0.0
147
0.0
147
0.0
147
0.0
147
1.0
147
0.0
147
0.0
147
0.0
147
0.0
147
1.0
  0
MLEADERSTYLE
  5
22E2
102
{ACAD_REACTORS
330
22E1
102
}
330
22E1
100
AcDbMLeaderStyle
170
     2
171
     1
172
     0
 90
        2
 40
0.0
 41
0.0
173
     1
 91
-1056964608
340
6A
 92
       -2
290
     1
 42
0.09
291
     1
 43
0.36
  3
Standard
 44
0.18
300

342
16
174
     1
178
     6
175
     1
176
     0
 93
-1056964608
 45
0.18
292
     0
297
     0
 46
0.18
 94
-1056964608
 47
1.0
 49
1.0
140
1.0
293
     1
141
0.0
294
     1
177
     0
142
1.0
295
     0
296
     0
143
0.125
1001
ACAD_MLEADERVER
1070
     2
  0
MLINESTYLE
  5
78
102
{ACAD_REACTORS
330
76
102
}
330
76
100
AcDbMlineStyle
  2
STANDARD
 70
     0
  3

 62
     0
 51
90.0
 52
90.0
 71
     2
 49
0.5
 62
   256
  6
BYLAYER
 49
-0.5
 62
   256
  6
BYLAYER
  0
ACDBPLACEHOLDER
  5
5
102
{ACAD_REACTORS
330
6
102
}
330
6
  0
SCALE
  5
22C0
102
{ACAD_REACTORS
330
22BF
102
}
330
22BF
100
AcDbScale
 70
     0
300
1:1
140
1.0
141
1.0
290
     1
  0
SCALE
  5
22C1
102
{ACAD_REACTORS
330
22BF
102
}
330
22BF
100
AcDbScale
 70
     0
300
1:2
140
1.0
141
2.0
290
     0
  0
SCALE
  5
22C2
102
{ACAD_REACTORS
330
22BF
102
}
330
22BF
100
AcDbScale
 70
     0
300
1:4
140
1.0
141
4.0
290
     0
  0
SCALE
  5
22C3
102
{ACAD_REACTORS
330
22BF
102
}
330
22BF
100
AcDbScale
 70
     0
300
1:5
140
1.0
141
5.0
290
     0
  0
SCALE
  5
22C4
102
{ACAD_REACTORS
330
22BF
102
}
330
22BF
100
AcDbScale
 70
     0
300
1:8
140
1.0
141
8.0
290
     0
  0
SCALE
  5
22C5
102
{ACAD_REACTORS
330
22BF
102
}
330
22BF
100
AcDbScale
 70
     0
300
1:10
140
1.0
141
10.0
290
     0
  0
SCALE
  5
22C6
102
{ACAD_REACTORS
330
22BF
102
}
330
22BF
100
AcDbScale
 70
     0
300
1:16
140
1.0
141
16.0
290
     0
  0
SCALE
  5
22C7
102
{ACAD_REACTORS
330
22BF
102
}
330
22BF
100
AcDbScale
 70
     0
300
1:20
140
1.0
141
20.0
290
     0
  0
SCALE
  5
22C8
102
{ACAD_REACTORS
330
22BF
102
}
330
22BF
100
AcDbScale
 70
     0
300
1:30
140
1.0
141
30.0
290
     0
  0
SCALE
  5
22C9
102
{ACAD_REACTORS
330
22BF
102
}
330
22BF
100
AcDbScale
 70
     0
300
1:40
140
1.0
141
40.0
290
     0
  0
SCALE
  5
22CA
102
{ACAD_REACTORS
330
22BF
102
}
330
22BF
100
AcDbScale
 70
     0
300
1:50
140
1.0
141
50.0
290
     0
  0
SCALE
  5
22CB
102
{ACAD_REACTORS
330
22BF
102
}
330
22BF
100
AcDbScale
 70
     0
300
1:100
140
1.0
141
100.0
290
     0
  0
SCALE
  5
22CC
102
{ACAD_REACTORS
330
22BF
102
}
330
22BF
100
AcDbScale
 70
     0
300
2:1
140
2.0
141
1.0
290
     0
  0
SCALE
  5
22CD
102
{ACAD_REACTORS
330
22BF
102
}
330
22BF
100
AcDbScale
 70
     0
300
4:1
140
4.0
141
1.0
290
     0
  0
SCALE
  5
22CE
102
{ACAD_REACTORS
330
22BF
102
}
330
22BF
100
AcDbScale
 70
     0
300
8:1
140
8.0
141
1.0
290
     0
  0
SCALE
  5
22CF
102
{ACAD_REACTORS
330
22BF
102
}
330
22BF
100
AcDbScale
 70
     0
300
10:1
140
10.0
141
1.0
290
     0
  0
SCALE
  5
22D0
102
{ACAD_REACTORS
330
22BF
102
}
330
22BF
100
AcDbScale
 70
     0
300
100:1
140
100.0
141
1.0
290
     0
  0
SCALE
  5
22D1
102
{ACAD_REACTORS
330
22BF
102
}
330
22BF
100
AcDbScale
 70
     0
300
1/128" = 1'-0"
140
0.0078125
141
12.0
290
     0
  0
SCALE
  5
22D2
102
{ACAD_REACTORS
330
22BF
102
}
330
22BF
100
AcDbScale
 70
     0
300
1/64" = 1'-0"
140
0.015625
141
12.0
290
     0
  0
SCALE
  5
22D3
102
{ACAD_REACTORS
330
22BF
102
}
330
22BF
100
AcDbScale
 70
     0
300
1/32" = 1'-0"
140
0.03125
141
12.0
290
     0
  0
SCALE
  5
22D4
102
{ACAD_REACTORS
330
22BF
102
}
330
22BF
100
AcDbScale
 70
     0
300
1/16" = 1'-0"
140
0.0625
141
12.0
290
     0
  0
SCALE
  5
22D5
102
{ACAD_REACTORS
330
22BF
102
}
330
22BF
100
AcDbScale
 70
     0
300
3/32" = 1'-0"
140
0.09375
141
12.0
290
     0
  0
SCALE
  5
22D6
102
{ACAD_REACTORS
330
22BF
102
}
330
22BF
100
AcDbScale
 70
     0
300
1/8" = 1'-0"
140
0.125
141
12.0
290
     0
  0
SCALE
  5
22D7
102
{ACAD_REACTORS
330
22BF
102
}
330
22BF
100
AcDbScale
 70
     0
300
3/16" = 1'-0"
140
0.1875
141
12.0
290
     0
  0
SCALE
  5
22D8
102
{ACAD_REACTORS
330
22BF
102
}
330
22BF
100
AcDbScale
 70
     0
300
1/4" = 1'-0"
140
0.25
141
12.0
290
     0
  0
SCALE
  5
22D9
102
{ACAD_REACTORS
330
22BF
102
}
330
22BF
100
AcDbScale
 70
     0
300
3/8" = 1'-0"
140
0.375
141
12.0
290
     0
  0
SCALE
  5
22DA
102
{ACAD_REACTORS
330
22BF
102
}
330
22BF
100
AcDbScale
 70
     0
300
1/2" = 1'-0"
140
0.5
141
12.0
290
     0
  0
SCALE
  5
22DB
102
{ACAD_REACTORS
330
22BF
102
}
330
22BF
100
AcDbScale
 70
     0
300
3/4" = 1'-0"
140
0.75
141
12.0
290
     0
  0
SCALE
  5
22DC
102
{ACAD_REACTORS
330
22BF
102
}
330
22BF
100
AcDbScale
 70
     0
300
1" = 1'-0"
140
1.0
141
12.0
290
     0
  0
SCALE
  5
22DD
102
{ACAD_REACTORS
330
22BF
102
}
330
22BF
100
AcDbScale
 70
     0
300
1-1/2" = 1'-0"
140
1.5
141
12.0
290
     0
  0
SCALE
  5
22DE
102
{ACAD_REACTORS
330
22BF
102
}
330
22BF
100
AcDbScale
 70
     0
300
3" = 1'-0"
140
3.0
141
12.0
290
     0
  0
SCALE
  5
22DF
102
{ACAD_REACTORS
330
22BF
102
}
330
22BF
100
AcDbScale
 70
     0
300
6" = 1'-0"
140
6.0
141
12.0
290
     0
  0
SCALE
  5
22E0
102
{ACAD_REACTORS
330
22BF
102
}
330
22BF
100
AcDbScale
 70
     0
300
1'-0" = 1'-0"
140
12.0
141
12.0
290
     0
  0
ACDBSECTIONVIEWSTYLE
  5
3491
102
{ACAD_XDICTIONARY
360
3D48
102
}
102
{ACAD_REACTORS
330
3490
102
}
330
3490
100
AcDbModelDocViewStyle
 70
     0
  3
Imperial24
290
     0
100
AcDbSectionViewStyle
 70
     0
 71
     0
 90
       78
 71
     1
340
16
 40
0.24
340
0
340
0
 40
0.24
300
I, O, Q, S, X, Z
 40
0.48
 90
        3
 40
0.18
 90
        1
 71
     2
340
8
 90
       25
340
8
 90
       50
 40
0.24
 40
0.0
 40
0.24
 71
     3
340
16
 40
0.24
 90
        1
 40
0.75
 90
        1
300
%<\AcVar ViewType \f "%tc1">% %<\AcVar ViewSectionStartId>%-%<\AcVar ViewSectionEndId>%\PSCALE %<\AcVar ViewScale \f "%sn">%
 71
     4
300
ANSI31
 40
1.0
 90
        0
290
     0
290
     0
 90
        6
 40
0.0
 40
1.5707963268
 40
0.2617993878
 40
1.308996939
 40
-0.2617993878
 40
1.8325957146
  0
TABLESTYLE
  5
22BE
102
{ACAD_XDICTIONARY
360
2588
102
}
102
{ACAD_REACTORS
330
22BD
102
}
330
22BD
100
AcDbTableStyle
  3
Standard
 70
     0
 71
     0
 40
0.06
 41
0.06
280
     0
281
     0
  7
STANDARD
140
0.18
170
     2
 62
     0
 63
     7
283
     0
274
    -2
284
     1
 64
     0
275
    -2
285
     1
 65
     0
276
    -2
286
     1
 66
     0
277
    -2
287
     1
 67
     0
278
    -2
288
     1
 68
     0
279
    -2
289
     1
 69
     0
  7
STANDARD
140
0.25
170
     5
 62
     0
 63
     7
283
     0
274
    -2
284
     1
 64
     0
275
    -2
285
     1
 65
     0
276
    -2
286
     1
 66
     0
277
    -2
287
     1
 67
     0
278
    -2
288
     1
 68
     0
279
    -2
289
     1
 69
     0
  7
STANDARD
140
0.18
170
     5
 62
     0
 63
     7
283
     0
274
    -2
284
     1
 64
     0
275
    -2
285
     1
 65
     0
276
    -2
286
     1
 66
     0
277
    -2
287
     1
 67
     0
278
    -2
288
     1
 68
     0
279
    -2
289
     1
 69
     0
  0
VISUALSTYLE
  5
22AE
102
{ACAD_XDICTIONARY
360
3CFD
102
}
102
{ACAD_REACTORS
330
22A8
102
}
330
22A8
100
AcDbVisualStyle
  2

 70
     4
 71
     0
 72
     2
 73
     0
 90
        0
 40
-0.6
 41
-30.0
 62
     5
 63
     7
 74
     1
 91
        4
 64
     7
 65
   257
 75
     1
175
     1
 42
1.0
 92
        0
 66
   257
 43
1.0
 76
     1
 77
     6
 78
     2
 67
     7
 79
     5
170
     0
171
     0
290
     0
174
     0
 93
        1
 44
0.0
173
     0
291
     0
 45
0.0
1001
ACAD
1000
AcDbSavedByObjectVersion
1070
     0
  0
VISUALSTYLE
  5
22B0
102
{ACAD_XDICTIONARY
360
3D01
102
}
102
{ACAD_REACTORS
330
22A8
102
}
330
22A8
100
AcDbVisualStyle
  2

 70
     6
 71
     1
 72
     2
 73
     2
 90
        0
 40
-0.6
 41
-30.0
 62
     5
 63
     7
 74
     2
 91
        2
 64
     7
 65
   257
 75
     2
175
     1
 42
179.0
 92
        0
 66
   257
 43
1.0
 76
     1
 77
     6
 78
     2
 67
     7
 79
     3
170
     0
171
     0
290
     0
174
     0
 93
        1
 44
0.0
173
     0
291
     0
 45
0.0
1001
ACAD
1000
AcDbSavedByObjectVersion
1070
     0
  0
VISUALSTYLE
  5
22AF
102
{ACAD_XDICTIONARY
360
3CFF
102
}
102
{ACAD_REACTORS
330
22A8
102
}
330
22A8
100
AcDbVisualStyle
  2

 70
     5
 71
     0
 72
     2
 73
     0
 90
        0
 40
-0.6
 41
-30.0
 62
     5
 63
     7
 74
     1
 91
        4
 64
     7
 65
   257
 75
     1
175
     1
 42
1.0
 92
        0
 66
   257
 43
1.0
 76
     1
 77
     6
 78
     2
 67
     7
 79
     5
170
     0
171
     0
290
     0
174
     0
 93
        1
 44
0.0
173
     0
291
     0
 45
0.0
1001
ACAD
1000
AcDbSavedByObjectVersion
1070
     0
  0
VISUALSTYLE
  5
22AD
102
{ACAD_XDICTIONARY
360
3CFB
102
}
102
{ACAD_REACTORS
330
22A8
102
}
330
22A8
100
AcDbVisualStyle
  2

 70
     7
 71
     1
 72
     0
 73
     1
 90
        0
 40
-0.6
 41
-30.0
 62
     5
 63
     7
 74
     0
 91
        4
 64
     7
 65
   257
 75
     1
175
     1
 42
1.0
 92
        8
 66
     7
 43
1.0
 76
     1
 77
     6
 78
     2
 67
     7
 79
     5
170
     0
171
     0
290
     0
174
     0
 93
        1
 44
0.0
173
     0
291
     1
 45
0.0
1001
ACAD
1000
AcDbSavedByObjectVersion
1070
     0
  0
VISUALSTYLE
  5
22B4
102
{ACAD_XDICTIONARY
360
3D09
102
}
102
{ACAD_REACTORS
330
22A8
102
}
330
22A8
100
AcDbVisualStyle
  2

 70
    12
 71
     2
 72
     2
 73
     0
 90
        0
 40
-0.6
 41
-30.0
 62
     5
 63
     7
 74
     1
 91
        4
 64
     7
 65
   257
 75
     1
175
     1
 42
1.0
 92
        8
 66
     7
 43
1.0
 76
     1
 77
     6
 78
     2
 67
     7
 79
     5
170
     0
171
     0
290
     0
174
     0
 93
        1
 44
50.0
173
     0
291
     1
 45
0.0
1001
ACAD
1000
AcDbSavedByObjectVersion
1070
     0
  0
VISUALSTYLE
  5
22B8
102
{ACAD_XDICTIONARY
360
3D11
102
}
102
{ACAD_REACTORS
330
22A8
102
}
330
22A8
100
AcDbVisualStyle
  2

 70
    16
 71
     2
 72
     2
 73
     3
 90
        0
 40
-0.6
 41
-30.0
 62
     5
 63
     8
 74
     1
 91
        4
 64
     7
 65
   257
 75
     1
175
     1
 42
1.0
 92
        8
 66
     8
 43
1.0
 76
     1
 77
     6
 78
     2
 67
     7
 79
     5
170
     0
171
     0
290
     0
174
     0
 93
        1
 44
0.0
173
     0
291
     1
 45
0.0
1001
ACAD
1000
AcDbSavedByObjectVersion
1070
     0
  0
VISUALSTYLE
  5
22B1
102
{ACAD_XDICTIONARY
360
3D03
102
}
102
{ACAD_REACTORS
330
22A8
102
}
330
22A8
100
AcDbVisualStyle
  2

 70
     9
 71
     3
 72
     2
 73
     0
 90
        0
 40
-0.6
 41
-30.0
 62
     5
 63
     7
 74
     2
 91
        2
 64
     7
 65
   257
 75
     1
175
     1
 42
179.0
 92
        8
 66
     7
 43
1.0
 76
     1
 77
     6
 78
     2
 67
     7
 79
     3
170
     0
171
     0
290
     0
174
     0
 93
        1
 44
0.0
173
     0
291
     0
 45
0.0
1001
ACAD
1000
AcDbSavedByObjectVersion
1070
     0
  0
VISUALSTYLE
  5
22B3
102
{ACAD_XDICTIONARY
360
3D07
102
}
102
{ACAD_REACTORS
330
22A8
102
}
330
22A8
100
AcDbVisualStyle
  2

 70
    11
 71
     2
 72
     2
 73
     0
 90
        0
 40
-0.6
 41
-30.0
 62
     5
 63
     7
 74
     1
 91
        4
 64
     7
 65
   257
 75
     1
175
     1
 42
1.0
 92
        8
 66
     7
 43
1.0
 76
     1
 77
     6
 78
     2
 67
     7
 79
     5
170
     0
171
     0
290
     0
174
     0
 93
        1
 44
-50.0
173
     0
291
     1
 45
0.0
1001
ACAD
1000
AcDbSavedByObjectVersion
1070
     0
  0
VISUALSTYLE
  5
22BB
102
{ACAD_XDICTIONARY
360
3D17
102
}
102
{ACAD_REACTORS
330
22A8
102
}
330
22A8
100
AcDbVisualStyle
  2

 70
    22
 71
     2
 72
     2
 73
     0
 90
        0
 40
-0.6
 41
-30.0
 62
     5
 63
     7
 74
     1
 91
        4
 64
     7
 65
   257
 75
     1
175
     1
 42
1.0
 92
        8
 66
     7
 43
1.0
 76
     1
 77
     6
 78
     2
 67
     7
 79
     5
170
     0
171
     0
290
     0
174
     0
 93
        1
 44
0.0
173
     0
291
     1
 45
0.0
1001
ACAD
1000
AcDbSavedByObjectVersion
1070
     0
  0
VISUALSTYLE
  5
22B7
102
{ACAD_XDICTIONARY
360
3D0F
102
}
102
{ACAD_REACTORS
330
22A8
102
}
330
22A8
100
AcDbVisualStyle
  2

 70
    15
 71
     2
 72
     2
 73
     0
 90
        0
 40
-0.6
 41
-30.0
 62
     5
 63
     7
 74
     1
 91
        4
 64
     7
 65
   257
 75
     1
175
     1
 42
1.0
 92
        8
 66
     7
 43
1.0
 76
     1
 77
     6
 78
     2
 67
     7
 79
     5
170
     0
171
     0
290
     0
174
     0
 93
        1
 44
0.0
173
     0
291
     1
 45
0.0
1001
ACAD
1000
AcDbSavedByObjectVersion
1070
     0
  0
VISUALSTYLE
  5
22A9
102
{ACAD_XDICTIONARY
360
3CF3
102
}
102
{ACAD_REACTORS
330
22A8
102
}
330
22A8
100
AcDbVisualStyle
  2

 70
     0
 71
     2
 72
     1
 73
     1
 90
        2
 40
-0.6
 41
30.0
 62
     5
 63
     7
 74
     0
 91
        4
 64
     7
 65
   257
 75
     1
175
     1
 42
1.0
 92
        8
 66
     7
 43
1.0
 76
     1
 77
     6
 78
     2
 67
     7
 79
     5
170
     0
171
     0
290
     0
174
     0
 93
       13
 44
0.0
173
     0
291
     1
 45
0.0
1001
ACAD
1000
AcDbSavedByObjectVersion
1070
     0
  0
VISUALSTYLE
  5
22AA
102
{ACAD_XDICTIONARY
360
3CF5
102
}
102
{ACAD_REACTORS
330
22A8
102
}
330
22A8
100
AcDbVisualStyle
  2

 70
     1
 71
     2
 72
     1
 73
     1
 90
        2
 40
-0.6
 41
30.0
 62
     5
 63
     7
 74
     1
 91
        4
 64
     7
 65
   257
 75
     1
175
     1
 42
1.0
 92
        0
 66
   257
 43
1.0
 76
     1
 77
     6
 78
     2
 67
     7
 79
     5
170
     0
171
     0
290
     0
174
     0
 93
       13
 44
0.0
173
     0
291
     1
 45
0.0
1001
ACAD
1000
AcDbSavedByObjectVersion
1070
     0
  0
VISUALSTYLE
  5
22AB
102
{ACAD_XDICTIONARY
360
3CF7
102
}
102
{ACAD_REACTORS
330
22A8
102
}
330
22A8
100
AcDbVisualStyle
  2

 70
     2
 71
     2
 72
     2
 73
     1
 90
        2
 40
-0.6
 41
30.0
 62
     5
 63
     7
 74
     0
 91
        4
 64
     7
 65
   257
 75
     1
175
     1
 42
1.0
 92
        0
 66
     7
 43
1.0
 76
     1
 77
     6
 78
     2
 67
     7
 79
     5
170
     0
171
     0
290
     0
174
     0
 93
       13
 44
0.0
173
     0
291
     1
 45
0.0
1001
ACAD
1000
AcDbSavedByObjectVersion
1070
     0
  0
VISUALSTYLE
  5
22AC
102
{ACAD_XDICTIONARY
360
3CF9
102
}
102
{ACAD_REACTORS
330
22A8
102
}
330
22A8
100
AcDbVisualStyle
  2

 70
     3
 71
     2
 72
     2
 73
     1
 90
        2
 40
-0.6
 41
30.0
 62
     5
 63
     7
 74
     1
 91
        4
 64
     7
 65
   257
 75
     1
175
     1
 42
1.0
 92
        0
 66
   257
 43
1.0
 76
     1
 77
     6
 78
     2
 67
     7
 79
     5
170
     0
171
     0
290
     0
174
     0
 93
       13
 44
0.0
173
     0
291
     1
 45
0.0
1001
ACAD
1000
AcDbSavedByObjectVersion
1070
     0
  0
VISUALSTYLE
  5
348A
102
{ACAD_XDICTIONARY
360
3D3C
102
}
102
{ACAD_REACTORS
330
22A8
102
}
330
22A8
100
AcDbVisualStyle
  2
Hidden
 70
     6
 71
     1
 72
     2
 73
     2
 90
        0
 40
-0.6
 41
-30.0
 62
     5
 63
     7
 74
     2
 91
        2
 64
     7
 65
   257
 75
     2
175
     1
 42
40.0
 92
        0
 66
   257
 43
1.0
 76
     1
 77
     6
 78
     2
 67
     7
 79
     3
170
     0
171
     0
290
     0
174
     0
 93
        1
 44
0.0
173
     0
291
     0
 45
0.0
1001
ACAD
1000
AcDbSavedByObjectVersion
1070
     0
  0
VISUALSTYLE
  5
22B9
102
{ACAD_XDICTIONARY
360
3D13
102
}
102
{ACAD_REACTORS
330
22A8
102
}
330
22A8
100
AcDbVisualStyle
  2

 70
    20
 71
     2
 72
     2
 73
     0
 90
        0
 40
-0.6
 41
-30.0
 62
     5
 63
     7
 74
     1
 91
        4
 64
     7
 65
   257
 75
     1
175
     1
 42
1.0
 92
       10
 66
     7
 43
1.0
 76
     1
 77
     6
 78
     2
 67
     7
 79
     5
170
     0
171
     0
290
     0
174
     0
 93
        1
 44
0.0
173
     0
291
     1
 45
0.0
1001
ACAD
1000
AcDbSavedByObjectVersion
1070
     0
  0
VISUALSTYLE
  5
22B6
102
{ACAD_XDICTIONARY
360
3D0D
102
}
102
{ACAD_REACTORS
330
22A8
102
}
330
22A8
100
AcDbVisualStyle
  2

 70
    14
 71
     2
 72
     2
 73
     0
 90
        0
 40
-0.6
 41
-30.0
 62
     5
 63
     7
 74
     1
 91
        4
 64
     7
 65
   257
 75
     7
175
     7
 42
1.0
 92
        8
 66
     7
 43
1.0
 76
     1
 77
     6
 78
     2
 67
     7
 79
     5
170
     0
171
     0
290
     0
174
     0
 93
        1
 44
0.0
173
     0
291
     1
 45
0.0
1001
ACAD
1000
AcDbSavedByObjectVersion
1070
     0
  0
VISUALSTYLE
  5
22BA
102
{ACAD_XDICTIONARY
360
3D15
102
}
102
{ACAD_REACTORS
330
22A8
102
}
330
22A8
100
AcDbVisualStyle
  2

 70
    21
 71
     2
 72
     2
 73
     0
 90
        0
 40
-0.6
 41
-30.0
 62
     5
 63
     7
 74
     1
 91
        4
 64
     7
 65
   257
 75
     1
175
     1
 42
1.0
 92
        9
 66
     7
 43
1.0
 76
     1
 77
     6
 78
     2
 67
     7
 79
     5
170
     0
171
     0
290
     0
174
     0
 93
        1
 44
0.0
173
     0
291
     1
 45
0.0
1001
ACAD
1000
AcDbSavedByObjectVersion
1070
     0
  0
VISUALSTYLE
  5
22B2
102
{ACAD_XDICTIONARY
360
3D05
102
}
102
{ACAD_REACTORS
330
22A8
102
}
330
22A8
100
AcDbVisualStyle
  2

 70
     8
 71
     2
 72
     2
 73
     0
 90
        0
 40
-0.6
 41
-30.0
 62
     5
 63
     7
 74
     1
 91
        0
 64
     7
 65
   257
 75
     1
175
     1
 42
1.0
 92
        8
 66
     8
 43
1.0
 76
     1
 77
     6
 78
     2
 67
     7
 79
     5
170
     0
171
     0
290
     0
174
     0
 93
       13
 44
0.0
173
     0
291
     0
 45
0.0
1001
ACAD
1000
AcDbSavedByObjectVersion
1070
     0
  0
VISUALSTYLE
  5
348F
102
{ACAD_XDICTIONARY
360
3D46
102
}
102
{ACAD_REACTORS
330
22A8
102
}
330
22A8
100
AcDbVisualStyle
  2
Shaded
 70
    27
 71
     2
 72
     2
 73
     1
 90
        2
 40
-0.6
 41
30.0
 62
     5
 63
     7
 74
     0
 91
        4
 64
     7
 65
   257
 75
     1
175
     1
 42
1.0
 92
        8
 66
   257
 43
1.0
 76
     1
 77
     6
 78
     2
 67
     8
 79
     3
170
     0
171
     0
290
     0
174
     0
 93
        5
 44
0.0
173
     0
291
     0
 45
0.0
1001
ACAD
1000
AcDbSavedByObjectVersion
1070
     0
  0
VISUALSTYLE
  5
348E
102
{ACAD_XDICTIONARY
360
3D44
102
}
102
{ACAD_REACTORS
330
22A8
102
}
330
22A8
100
AcDbVisualStyle
  2
Shaded with edges
 70
    26
 71
     2
 72
     2
 73
     1
 90
        2
 40
-0.6
 41
30.0
 62
     5
 63
     7
 74
     1
 91
        2
 64
     7
 65
   257
 75
     2
175
     1
 42
1.0
 92
        8
 66
   257
 43
1.0
 76
     1
 77
     6
 78
     2
 67
     7
 79
     3
170
     0
171
     0
290
     0
174
     0
 93
        5
 44
0.0
173
     0
291
     0
 45
0.0
1001
ACAD
1000
AcDbSavedByObjectVersion
1070
     0
  0
VISUALSTYLE
  5
348B
102
{ACAD_XDICTIONARY
360
3D3E
102
}
102
{ACAD_REACTORS
330
22A8
102
}
330
22A8
100
AcDbVisualStyle
  2
Shades of Gray
 70
    23
 71
     2
 72
     2
 73
     3
 90
        0
 40
-0.6
 41
-30.0
 62
     5
 63
     7
 74
     2
 91
        2
 64
     7
 65
     7
 75
     1
175
     1
 42
40.0
 92
        8
 66
     7
 43
1.0
 76
     1
 77
     6
 78
     2
 67
     7
 79
     3
170
     0
171
     0
290
     0
174
     0
 93
        1
 44
0.0
173
     0
291
     0
 45
0.0
1001
ACAD
1000
AcDbSavedByObjectVersion
1070
     0
  0
VISUALSTYLE
  5
348C
102
{ACAD_XDICTIONARY
360
3D40
102
}
102
{ACAD_REACTORS
330
22A8
102
}
330
22A8
100
AcDbVisualStyle
  2
Sketchy
 70
    24
 71
     1
 72
     2
 73
     2
 90
        0
 40
-0.6
 41
-30.0
 62
     5
 63
     7
 74
     2
 91
        2
 64
     7
 65
     7
 75
     1
175
     1
 42
40.0
 92
       11
 66
     7
 43
1.0
 76
     1
 77
     6
 78
     2
 67
     7
 79
     6
170
     0
171
     0
290
     0
174
     0
 93
        1
 44
0.0
173
     0
291
     0
 45
0.0
1001
ACAD
1000
AcDbSavedByObjectVersion
1070
     0
  0
VISUALSTYLE
  5
22B5
102
{ACAD_XDICTIONARY
360
3D0B
102
}
102
{ACAD_REACTORS
330
22A8
102
}
330
22A8
100
AcDbVisualStyle
  2

 70
    13
 71
     2
 72
     2
 73
     0
 90
        0
 40
-0.6
 41
-30.0
 62
     5
 63
     7
 74
     1
 91
        4
 64
     7
 65
   257
 75
     1
175
     1
 42
1.0
 92
       12
 66
     7
 43
1.0
 76
     1
 77
     6
 78
     2
 67
     7
 79
     5
170
     0
171
     0
290
     0
174
     0
 93
        1
 44
0.0
173
     0
291
     1
 45
0.0
1001
ACAD
1000
AcDbSavedByObjectVersion
1070
     0
  0
VISUALSTYLE
  5
3489
102
{ACAD_XDICTIONARY
360
3D3A
102
}
102
{ACAD_REACTORS
330
22A8
102
}
330
22A8
100
AcDbVisualStyle
  2
Wireframe
 70
     5
 71
     0
 72
     2
 73
     0
 90
        0
 40
-0.6
 41
-30.0
 62
     5
 63
     7
 74
     1
 91
        4
 64
     7
 65
   257
 75
     1
175
     1
 42
1.0
 92
        0
 66
   257
 43
1.0
 76
     1
 77
     6
 78
     2
 67
     7
 79
     3
170
     0
171
     0
290
     0
174
     0
 93
        1
 44
0.0
173
     0
291
     0
 45
0.0
1001
ACAD
1000
AcDbSavedByObjectVersion
1070
     0
  0
VISUALSTYLE
  5
348D
102
{ACAD_XDICTIONARY
360
3D42
102
}
102
{ACAD_REACTORS
330
22A8
102
}
330
22A8
100
AcDbVisualStyle
  2
X-Ray
 70
    25
 71
     2
 72
     2
 73
     1
 90
        1
 40
0.5
 41
-30.0
 62
     5
 63
     7
 74
     1
 91
        0
 64
     7
 65
   257
 75
     1
175
     1
 42
1.0
 92
        8
 66
     7
 43
1.0
 76
     1
 77
     6
 78
     2
 67
     7
 79
     3
170
     0
171
     0
290
     0
174
     0
 93
       13
 44
0.0
173
     0
291
     0
 45
0.0
1001
ACAD
1000
AcDbSavedByObjectVersion
1070
     0
  0
DICTIONARYVAR
  5
2632
102
{ACAD_REACTORS
330
102
102
}
330
102
100
DictionaryVariables
280
     0
  1
1:1
  0
DICTIONARYVAR
  5
2631
102
{ACAD_REACTORS
330
102
102
}
330
102
100
DictionaryVariables
280
     0
  1
STANDARD
  0
DICTIONARYVAR
  5
2630
102
{ACAD_REACTORS
330
102
102
}
330
102
100
DictionaryVariables
280
     0
  1
STANDARD
  0
DICTIONARYVAR
  5
3498
102
{ACAD_REACTORS
330
102
102
}
330
102
100
DictionaryVariables
280
     0
  1
Imperial24
  0
DICTIONARYVAR
  5
3499
102
{ACAD_REACTORS
330
102
102
}
330
102
100
DictionaryVariables
280
     0
  1
Imperial24
  0
DICTIONARYVAR
  5
103
102
{ACAD_REACTORS
330
102
102
}
330
102
100
DictionaryVariables
280
     0
  1
1
  0
DICTIONARYVAR
  5
2634
102
{ACAD_REACTORS
330
102
102
}
330
102
100
DictionaryVariables
280
     0
  1
0
  0
DICTIONARYVAR
  5
349C
102
{ACAD_REACTORS
330
102
102
}
330
102
100
DictionaryVariables
280
     0
  1
1
  0
DICTIONARYVAR
  5
349D
102
{ACAD_REACTORS
330
102
102
}
330
102
100
DictionaryVariables
280
     0
  1
15
  0
DICTIONARYVAR
  5
349B
102
{ACAD_REACTORS
330
102
102
}
330
102
100
DictionaryVariables
280
     0
  1
0
  0
DICTIONARYVAR
  5
349A
102
{ACAD_REACTORS
330
102
102
}
330
102
100
DictionaryVariables
280
     0
  1
0
  0
DICTIONARYVAR
  5
2633
102
{ACAD_REACTORS
330
102
102
}
330
102
100
DictionaryVariables
280
     0
  1
127
  0
DICTIONARYVAR
  5
3CEB
102
{ACAD_REACTORS
330
102
102
}
330
102
100
DictionaryVariables
280
     0
  1
2
  0
DICTIONARY
  5
3D4A
330
3493
100
AcDbDictionary
280
     1
281
     1
  3
ACAD_XREC_ROUNDTRIP
360
3D4B
  0
DICTIONARY
  5
231D
330
60
100
AcDbDictionary
280
     1
281
     1
  3
ACAD_XREC_ROUNDTRIP
360
3CEF
  3
ADSK_XREC_LAYOUTTHUMBNAIL
360
3714
  0
DICTIONARY
  5
3D5C
330
3CE7
100
AcDbDictionary
280
     1
281
     1
  3
ACAD_XREC_ROUNDTRIP
360
3D5D
  0
DICTIONARY
  5
2299
330
2298
100
AcDbDictionary
280
     1
281
     1
  3
ACAD_XREC_ROUNDTRIP
360
3CF1
  3
BUMPTILE
360
229B
  3
DIFFUSETILE
360
229A
  3
OPACITYTILE
360
229E
  3
REFLECTIONTILE
360
229D
  3
REFRACTIONTILE
360
229F
  3
SPECULARTILE
360
229C
  0
DICTIONARY
  5
2291
330
2290
100
AcDbDictionary
280
     1
281
     1
  3
ACAD_XREC_ROUNDTRIP
360
3CF0
  3
BUMPTILE
360
2293
  3
DIFFUSETILE
360
2292
  3
OPACITYTILE
360
2296
  3
REFLECTIONTILE
360
2295
  3
REFRACTIONTILE
360
2297
  3
SPECULARTILE
360
2294
  0
DICTIONARY
  5
22A1
330
22A0
100
AcDbDictionary
280
     1
281
     1
  3
ACAD_XREC_ROUNDTRIP
360
3CF2
  3
BUMPTILE
360
22A3
  3
DIFFUSETILE
360
22A2
  3
OPACITYTILE
360
22A6
  3
REFLECTIONTILE
360
22A5
  3
REFRACTIONTILE
360
22A7
  3
SPECULARTILE
360
22A4
  0
DICTIONARY
  5
3D48
330
3491
100
AcDbDictionary
280
     1
281
     1
  3
ACAD_XREC_ROUNDTRIP
360
3D49
  0
DICTIONARY
  5
2588
330
22BE
100
AcDbDictionary
280
     1
281
     1
  3
ACAD_ROUNDTRIP_2008_TABLESTYLE_CELLSTYLEMAP
360
3CEC
  3
ACAD_XREC_ROUNDTRIP
360
3D19
  0
DICTIONARY
  5
3CFD
330
22AE
100
AcDbDictionary
280
     1
281
     1
  3
ACAD_XREC_ROUNDTRIP
360
3CFE
  0
DICTIONARY
  5
3D01
330
22B0
100
AcDbDictionary
280
     1
281
     1
  3
ACAD_XREC_ROUNDTRIP
360
3D02
  0
DICTIONARY
  5
3CFF
330
22AF
100
AcDbDictionary
280
     1
281
     1
  3
ACAD_XREC_ROUNDTRIP
360
3D00
  0
DICTIONARY
  5
3CFB
330
22AD
100
AcDbDictionary
280
     1
281
     1
  3
ACAD_XREC_ROUNDTRIP
360
3CFC
  0
DICTIONARY
  5
3D09
330
22B4
100
AcDbDictionary
280
     1
281
     1
  3
ACAD_XREC_ROUNDTRIP
360
3D0A
  0
DICTIONARY
  5
3D11
330
22B8
100
AcDbDictionary
280
     1
281
     1
  3
ACAD_XREC_ROUNDTRIP
360
3D12
  0
DICTIONARY
  5
3D03
330
22B1
100
AcDbDictionary
280
     1
281
     1
  3
ACAD_XREC_ROUNDTRIP
360
3D04
  0
DICTIONARY
  5
3D07
330
22B3
100
AcDbDictionary
280
     1
281
     1
  3
ACAD_XREC_ROUNDTRIP
360
3D08
  0
DICTIONARY
  5
3D17
330
22BB
100
AcDbDictionary
280
     1
281
     1
  3
ACAD_XREC_ROUNDTRIP
360
3D18
  0
DICTIONARY
  5
3D0F
330
22B7
100
AcDbDictionary
280
     1
281
     1
  3
ACAD_XREC_ROUNDTRIP
360
3D10
  0
DICTIONARY
  5
3CF3
330
22A9
100
AcDbDictionary
280
     1
281
     1
  3
ACAD_XREC_ROUNDTRIP
360
3CF4
  0
DICTIONARY
  5
3CF5
330
22AA
100
AcDbDictionary
280
     1
281
     1
  3
ACAD_XREC_ROUNDTRIP
360
3CF6
  0
DICTIONARY
  5
3CF7
330
22AB
100
AcDbDictionary
280
     1
281
     1
  3
ACAD_XREC_ROUNDTRIP
360
3CF8
  0
DICTIONARY
  5
3CF9
330
22AC
100
AcDbDictionary
280
     1
281
     1
  3
ACAD_XREC_ROUNDTRIP
360
3CFA
  0
DICTIONARY
  5
3D3C
330
348A
100
AcDbDictionary
280
     1
281
     1
  3
ACAD_XREC_ROUNDTRIP
360
3D3D
  0
DICTIONARY
  5
3D13
330
22B9
100
AcDbDictionary
280
     1
281
     1
  3
ACAD_XREC_ROUNDTRIP
360
3D14
  0
DICTIONARY
  5
3D0D
330
22B6
100
AcDbDictionary
280
     1
281
     1
  3
ACAD_XREC_ROUNDTRIP
360
3D0E
  0
DICTIONARY
  5
3D15
330
22BA
100
AcDbDictionary
280
     1
281
     1
  3
ACAD_XREC_ROUNDTRIP
360
3D16
  0
DICTIONARY
  5
3D05
330
22B2
100
AcDbDictionary
280
     1
281
     1
  3
ACAD_XREC_ROUNDTRIP
360
3D06
  0
DICTIONARY
  5
3D46
330
348F
100
AcDbDictionary
280
     1
281
     1
  3
ACAD_XREC_ROUNDTRIP
360
3D47
  0
DICTIONARY
  5
3D44
330
348E
100
AcDbDictionary
280
     1
281
     1
  3
ACAD_XREC_ROUNDTRIP
360
3D45
  0
DICTIONARY
  5
3D3E
330
348B
100
AcDbDictionary
280
     1
281
     1
  3
ACAD_XREC_ROUNDTRIP
360
3D3F
  0
DICTIONARY
  5
3D40
330
348C
100
AcDbDictionary
280
     1
281
     1
  3
ACAD_XREC_ROUNDTRIP
360
3D41
  0
DICTIONARY
  5
3D0B
330
22B5
100
AcDbDictionary
280
     1
281
     1
  3
ACAD_XREC_ROUNDTRIP
360
3D0C
  0
DICTIONARY
  5
3D3A
330
3489
100
AcDbDictionary
280
     1
281
     1
  3
ACAD_XREC_ROUNDTRIP
360
3D3B
  0
DICTIONARY
  5
3D42
330
348D
100
AcDbDictionary
280
     1
281
     1
  3
ACAD_XREC_ROUNDTRIP
360
3D43
  0
XRECORD
  5
3D4B
102
{ACAD_REACTORS
330
3D4A
102
}
330
3D4A
100
AcDbXrecord
280
     1
102
DISPLAYNAME
  1
Imperial24
102
FLAGS
 90
        0
  0
XRECORD
  5
3CEF
102
{ACAD_REACTORS
330
231D
102
}
330
231D
100
AcDbXrecord
280
     1
102
SHADEPLOT
 70
     0
102
SHADEPLOTRESLEVEL
 70
     2
102
SHADEPLOTCUSTOMDPI
 70
   300
  0
XRECORD
  5
3714
102
{ACAD_REACTORS
330
231D
102
}
330
231D
100
AcDbXrecord
280
     1
310
2800000000010000840000000100080000000000008400000100000001000000000100000000000000000000FFFFFF00000000000000000000000000000000000000000000000000000000000000000000000000330000006600000099000000CC000000FF00000000330000333300006633000099330000CC330000FF3300
310
0000660000336600006666000099660000CC660000FF66000000990000339900006699000099990000CC990000FF99000000CC000033CC000066CC000099CC0000CCCC0000FFCC000000FF000033FF000066FF000099FF0000CCFF0000FFFF000000003300330033006600330099003300CC003300FF003300003333003333
310
33006633330099333300CC333300FF333300006633FF336633FF666633FF996633FFCC6633FFFF6633FF009933FF339933FF669933FF999933FFCC9933FFFF9933FF00CC33FF33CC33FF66CC33FF99CC33F8CCCC33FFFFCC33FF00FF33FF33FF33FF66FF33FF99FF33FFCCFF33FFFFFF33FF000066FF330066FF660066FF99
310
0066FFCC0066FFFF0066FF003366FF333366FF663366FF993366FFCC3366FFFF3366FF006666FF336666FF666666FF996666FFCC6666FFFF6666FF009966FF339966FF669966FF999966FFCC9966FFFF9966FF00CC66FF33CC66FF66CC66FF99CC66FFCCCC66FFFFCC66FF00FF66FF33FF66FF66FF66FF99FF66FFCCFF66FF
310
FFFF66FF000099FF330099FF660099F8990099FFCC0099FFFF0099FF003399FF333399FF663399FF993399FFCC3399FFFF3399FF0066991133669911666699FF996699FFCC6699FFFF6699FF009999FF339999FF669999FF999999FFCC9999FFFF9999FF00CC99FF33CC99FF66CC99FF99CC99FFCCCC9940FFCC990000FF99
310
4533FF99FF66FF99FF99FF99FFCCFF99FFFFFF99FF0000CCFF3300CCFF6600CCFF9900CCFFCC00CCFFFF00CCFF0033CCFF3333CC4C6633CC0D9933CC00CC33CC11FF33CCFF0066CCFF3366CCFF6666CCFF9966CCFFCC66CC0DFF66CC000099CCFF3399CCFF6699CCFF9999CCFFCC99CCFFFF99CC0000CCCC0033CCCC0066CC
310
CC0099CCCC40CCCCCCFFFFCCCCFF00FFCCFF33FFCC0B66FFCC0099FFCC00CCFFCC00FFFFCCFF0000FFFF3300FFFF6600FFFF9900FFFFCC00FF00FF00FF000033FF003333FF116633FFFF9933FFFFCC33FF0DFF33FF000066FF003366FF006666FF009966FF00CC66FFFFFF66FFFF0099FFFF3399FFFF6699FFFF9999FF00CC
310
99FF00FF99FF0000CCFF0033CCFF0066CCFF0099CCFF00CCCCFF00FFCCFF0000FFFF0033FFFF0066FFFF0099FFFFFFCCFFFFFFFFFFFFFF000000FF0D0D0D001A1A1A00282828003535350043434300505050005D5D5D006B6B6B00787878008686860093939300A1A1A100AEAEAE00BBBBBBFFC9C9C9FFD6D6D600E4E4E400
310
F1F1F100FFFFFF000000000000000000000000000000000000000000000000000000000000000000000000000000000000000000000000000000000000000000000000000000000000000000000000000000000000000000000000000000000000000000000000000000000000000000000000000000000000000000000000
310
00000000000000000000000000000000000000000000000000000000000000000000000000000000000000000000000000000000000000000000000000000000000000000000000000000000000000000000000000000000000000000000000000000000000000000000000000000000000000000000000000000000000000
310
00000000000000000000000000000000000000000000000000000000000000000000000000000000000000000000000000000000000000000000000000000000000000000000000000000000000000000000000000000000000000000000000000000000000000000000000000000000000000000000000000000000000000
310
00000000000000000000000000000000000000000000000000000000000000000000000000000000000000000000000000000000000000000000000000000000000000000000000000000000000000000000000000000000000000000000000000000000000000000000000000000000000000000000000000000000000000
310
00000000000000000000000000000000000000000000000000000000000000000000000000000000000000000000000000000000000000000000000000000000000000000000000000000000000000000000000000000000000000000000000000000000000000000000000000000000000000000000000000000000000000
310
00000000000000000000000000000000000000000000000000000000000000000000000000000000000000000000000000000000000000000000000000000000000000000000000000000000000000000000000000000000000000000000000000000000000000000000000000000000000000000000000000000000000000
310
0000000000000000000000000000000000000000000000000000000000000000000000000000000000000000000000000000000000000000000000000000000000000000000000000000000000000000000000000000000000000000000000000000000000000000000000000000000000000000000000002D2D2D2D2D2D2D
310
2D2D2D2D2D2D2D2D2D2D2D2D2D2D2D2D2D2D2D2D2D2D000000000000000000000000000000000000000000000000000000000000000000000000000000000000000000000000000000000000000000000000000000000000000000000000000000000000000000000000000000000000000000000000000000000000000000
310
00000000000000000000000000000000000000000000000000000000000000000000000000000000000000000000000000000000000000000000000000000000000000000000000000000000000000000000000000000000000000000000000000000000000000000000000000000000000000000000000000002D00000000
310
00000000000000002D2D2D0000000000000000000000002D00000000000000000000000000000000000000000000000000000000000000000000000000000000000000000000000000000000000000000000000000000000000000000000000000000000000000000000000000000000000000000000000000000000000000
310
000000000000000000000000000000000000000000000000000000000000000000000000000000000000000000000000000000000000000000000000000000000000000000000000000000000000000000000000000000000000000000000000000000000000000000000000000000000000000000000000000000002D0000
310
0000000000000000002D2D2D2D0000000000000000000000002D0000000000000000000000000000000000000000000000000000000000000000000000000000000000000000000000000000000000000000000000000000000000000000000000000000000000000000000000000000000000000000000000000000000000
310
0000000000000000000000000000000000000000000000000000000000000000000000000000000000000000000000000000000000000000000000000000000000000000000000000000000000000000000000000000000000000000000000000000000000000000000000000000000000000000000000000000000000002D
310
0000000000000000000000000000000000000000000000000000002D000000000000000000000000000000000000000000000000000000000000000000000000000000000000000000000000000000000000000000000000000000000000000000000000000000000000000000000000000000000000000000000000000000
310
00000000000000000000000000000000000000000000000000000000000000000000000000000000000000000000000000000000000000000000000000000000000000000000000000000000000000000000000000000000002D2D2D2D2D2D2D2D2D2D2D2D2D2D2D2D2D2D2D2D2D2D2D000000000000000000000000000000
310
002D00002D2D0000000000000000000000000000000000002D002D00002D00000000000000000000000000000000000000002D002D00002D2D00000000000000000000000000000000000000000000000000000000000000000000000000000000000000000000000000000000000000000000000000000000000000000000
310
000000000000000000000000000000000000000000000000000000000000000000000000000000000000000000000000000000000000000000000000000000000000000000000000000000000000000000000000000000000000002D002D2D2D2D2D2D2D2D2D002D2D2D2D2D2D2D2D2D2D0000000000000000000000000000
310
0000002D00002D2D2D2D2D2D2D2D2D2D2D2D2D2D2D2D2D2D2D2D2D2D2D00002D002D2D2D2D2D2D2D2D000000000000000000002D2D2D2D2D2D2D2D2D00000000000000000000000000000000000000000000000000000000000000000000000000000000000000000000000000000000000000000000000000000000000000
310
0000000000000000000000000000000000000000000000000000000000000000000000000000000000000000000000000000000000000000000000000000000000000000000000000000000000000000000000000000000000000000002D002D2D00002D2D2D2D00002D2D2D2D2D2D2D2D2D2D000000000000000000000000
310
00000000002D00002D0000000000000000002D2D2D0000000000000000002D00002D2D002D2D2D2D2D2D2D000000000000000000000000002D2D2D2D00000000000000000000000000000000000000000000000000000000000000000000000000000000000000000000000000000000000000000000000000000000000000
310
000000000000000000000000000000000000000000000000000000000000000000000000000000000000000000000000000000000000000000000000000000000000000000000000000000000000000000000000000000000000000000002D0000000000000000000000000000000000000000000000000000000000000000
310
000000000000002D00002D0000000000000000000028000000000000000000002D00002D2D0000000000000000000000000000000000000000002D00002D0000000000000000000000000000000000000000000000000000000000000000000000000000000000000000000000000000000000000000000000280000000000
310
0000000000000000000000000000000000000000000000000000000000000000000000000000000000000000000000000000000000000000000000000000000000000000000000000000000000000000000000000000000000000000000000002D000000000000000000000000000000000000000000000000000000000000
310
0000000000000000002D00002D0000000000000000000028000000000000000000002D00002D000000000000000000000000000000000000000000002D00002D000000000000000000002800000000000000000000000000000000000000000000000000000000000000000000000000000000000000000000000028000000
310
00000000000000000000000000000000000000000000000000000000000000000000000000000000000000000000000000000000000000000000000000000000000000000000000000000000000000000000000000000000000000000000000000002D00000000000000000000000000000000000000000000000000000000
310
00000000000000000000002D00002D0000000000000000000028000000000000000000002D00002D000000000000000000000000000000000000000000002D00002D00000000000000000000280000000000000000000000000000000000000000000000000000000000000000000000000000000000000000000000002800
310
000000000000000000000000000000000000000000000000000000000000000000000000000000000000000000000000000000000000000000000000000000000000000000000000000000000000000000000000000000000000000000000000000000002D0000000000000000000000000000000000000000000000000000
310
000000000000000000000000002D00002D0000000000000000000028000000000000000000002D002D2D000000000000000000000000000000000000000000002D00F52D0000000000000000000028000000000000000000000000000000000000000000000000000000000000000000000000000000000000000000000000
310
28000000000000000000000000000000000000000000000000000000000000000000000000000000000000000000000000000000000000000000000000000000000000000000000000000000000000000000000000000000000000000000000000000000002D00000000000000000000000000000000000000000000000000
310
00000000000000000000F5F5F5F5F52D00002DF5F5F5F5F5F5F5F5F5F5F5F5F5F5F5F5F5F5F5F5F52D2D2D2D2D2D2D2D2D2D2D2D2D2D2D00000000000000000000002DF5F52DF5000000000000000000280000000000000000000000000000000000000000000000000000000000000000000000000028F5F5F5F5F5F5F5F5
310
F5F528F5F5F5F5F5F5F5F5F5F528000000F5F5F5F5F50000000000000000000000000000000000000000000000000000000000000000000000000000000000000000000000000000000000000000000000000000000000000000000000000000000000000000002D0000000000000000000000000000000000000000000000
310
0000000000000000000000F5F5F5F5F5F52D00002D000000F5F5F5F5F5F5F5F5F5F5F5F5F5F5F50000002D2D2D2D0000000000000000002D2D0000000000000000000000BEBEBEF5F5F5000000000000F5F528F5000000000000000000000000000000000000000000000000000000000000000000000000280000000000F5
310
000000002800000000F5000000000028000000F5F5F5F5F5F50000000000000000000000000000000000000000000000000000000000000000000000000000000000000000000000000000000000000000002D2D2D2D2D2D2D2D2DF5F5F5F5F5F5F5F5F5F5F5F5F5F52DF5F5F5F5F5F5F5F5F5F5F5F5F5F5F5F5F5F5F5F5F5
310
F5F5F5F5F5F5F5F5F5F5F5F5F5F5F5F5F5F5002D00F528000000F500000000000028000000000000F5000000F52D002D0000000000000000002D000000000000000000000000F50000F5F5F5F5F5F5F5F5F5F5F528F5F5F5F5F5F5F5F500000000000000000000000000000000000000000000000000000000F52800000000
310
00F5F5F5F5F528F5F5F5F5F5F50000000028F50000F5F5F5F5F5F5F5F5F5F5F5F5F5F5F5F5F5F5F5F5F5F5F5F5F5F5F5F5F5F5F5F5F5F5F5F5F5F5F5F5F5F5F5F5F5F5F5F5F5F5F5F5F5F5F5F5000000000000002D2D0000000000F50000000000000000000000F500F5002D00000000000000000000000000000000000000
310
00000000F500F5000000000000000000000000F5F52DF5F528F5F5F500000000F5F5F5F5F5F5F500000000F528F528F52D2D2D2D2D2D2D2D2D00002D0000000000000000000028282828282828000000000000000000280000000000F5F5F5F5F5000000000000000000000000000000000000000000000000F52828282828
310
28F5F50000F5F5F528F5F5F5000000F500282828282828F5F5000000000000000000000000F500F500000000000000000000000000000000000000000000000000F500F50000000000000000000000F50000000000002D000000000000F50000000000000000000000F5F5F52DF5F5F5F5F5F5F5F5F5F5F5F5F5F5F5F5F5F5
310
F5F5F5F5F5F5F5F5F500000000000000000000F5F5F500F5000028F500000000F5F500000028000000F5F500000000F5F50000F500000000002D0000002D000000000000000000000000BEBEBEBE000000000000000000002800000000000000F50000F5F500000000000000000000000000000000000000000000F5000028
310
0000F50000F5F500000028000000F5F50000F5F50028000000F5F5F5F500000000000000000000F5F5F5F5F5F5F5F5F5F5F5F5F5F5F5F5F5F5F5F5F5F5F5F5F5F5F5F5F5F5F50000000000000000000000F50000000000002D000000000000F50000000000000000000000F500F52D00000000000000000000000000000000
310
0000000000000000F500F500000000000000000000F500F500F500F5F500000000F50000000000280000000000F500000000F50000F500000000002D0000002D000000000000000000000000F50000F5000000000000000000002800000000000000F5000000F500000000000000000000000000000000000000000000F500
310
002800F50000F50000000000280000000000F5000000F5280000F5F5F500F500000000000000000000F500F500000000000000000000000000000000000000000000000000F500F50000000000000000000000F50000000000002D000000000000F5F5F5F5F5F5F5F5F5F5F5F5F500F52D0000000000000000000000000000
310
00000000000000000000F500F500000000000000000000F500F500F500F5000000F5F500000000000028000000000000F5F50000F50000F500000000002D0000002D000000000000000000000000F50000F50000000000000000000028000000000000F5F5F50000F500000000000000000000000000000000000000000000
310
F50000F5F500F5F500000000000028000000000000F5F500F5F5F5F500F5F500F500000000000000000000F500F500000000000000000000000000000000000000000000000000F500F5F5F5F5F5F5F5F5F5F5F5F5F50000000000002D000000000000F50000000000000000000000F500F52D000000000000000000000000
310
000000000000000000000000F500F5F5F5F5F5F5F5F5F5F5F5F500F5F5F5F50000F5F500000000F5F5F5F5F5F5F5F5F500000000F5F500F500F500000000002D0000002D000000000000000000000000F50000F5000000000000000000002800000000000000F5F50000F50000000000000000000000000000000000000000
310
0000F500F500F5F500000000F5F5F5F528F5F5F5F500000000F5F500000000F5F500F5F5F5F5F5F5F5F5F5F5F5F500F500000000000000000000000000000000000000000000000000F500F50000000000000000000000F50000000000002D000000000000F50000000000000000000000F500F52D00000000000000000000
310
0000000000000000000000000000F500F500000000000000000000F500F500F5F50000F5000000F5F5F500000028000000F5F5F5000000F500F500F500000000002D0000002D000000000000000000000000F50000F5F5F5F5F5F5F5F5F5F5F528F5F5F5F5F5F5F5F5F50000F5000000000000000000000000000000000000
310
00000000F5F5F500F5000000F5F5F500000028000000F5F5F5000000F500000000F5F500F500000000000000000000F500F500000000000000000000000000000000000000000000000000F500F50000000000000000000000F50000000000002D000000000000F50000000000000000000000F5002D000000000000000000
310
00000000000000000000000000000000F500F5F5F5F5F5F52DF5F5F5F5F500F500F5F500F50000F5F5F500F5F5F5F5F500F5F5F500F5F5F50000F5F500F500000000002D0000002D000000000000000000000000F50000F5000000000000000000002800000000000000F5F5000000F5000000000000000000000000000000
310
000000000000F5F500F50000F5F5F500F5F5F500F5F5F5F5F500F5F5F50000F5000000F5F500F5F5F5F5F5F5F5F5F5F5F5F500F500000000000000000000000000000000000000000000000000F500F50000000000000000000000F50000000000002D000000000000F50000000000000000000000F5002D00000000000000
310
000000000000000000000000000000000000F500F500000000002D2D000000F500F500F5F500F50000F5F50000F5F5F500F500F5F5000000F5F50000F5F500F500000000002D0000002D000000000000000000000000F50000F5000000000000000000002800000000000000F5F5000000F500000000000000000000000000
310
0000000000000000F5F500F50000F5F50000F5F5F500F5F5F5F5F50000F5F50000F5000000F5F500F500000000000000000000F500F500000000000000000000000000000000000000000000000000F500F50000000000000000000000F500000000002D2D000000000000F50000000000000000000000F5002D0000000000
310
0000000000000000000000000000000000000000F500F500000000002D2D000000F500F500F5F5F5000000F5F50000F5F5F5F5F5F5F5F5F5000000F5F50000F500F50000002D2D2D0000002D000000000000000000000000F50000F5000000000000000000002800000000000000F5F5002D2D2DF500000000000000000000
310
00000000000000000000F5F5F5000000F5F50000F5F5F5F5F5F5F5F5F5000000F5F50000F50000F5F500F500000000000000000000F500F500000000000000000000000000000000000000000000000000F500F50000000000000000000000F500000000002D2D000000282828F52828282828282828282828F5282D002828
310
28282828282828282828282828282828282800282828F528F5282828282D2D28282828F528F528F5F5282D2D2D2D000000F5F500F5F5F5F5F500000000F5F50000F500F50000002D2D2D0000002D000000000000000000000000F50000F500000000000000000000280000000000002D2D2D2D000000F50000000000000000
310
000000000000000000000000F5F5F50000F5F500000000F5F5F5F5F5F5F500000028F5F52828F5F528F5F528F528282828282828282828F528F528280028282828282828282828282828282828282828280028F528F52828282828282828282828F528282800002D2D000000000000F50000000000000000000000F52DF500
310
000000000000000000000000000000000000000000000000F500F5000000002D2D00000000F500F500F5F500002DF5F5000000000000002800000000000000F5F50000F500F50000002D2D2D0000002D000000000000000000000000F50000F5000000000000000000002800002D2D2D2D00F5F5F5000000F5000000000000
310
0000000000000000000000000000F5F5F50000F5F5000000000000002800000000000000F5F5000000F500F5F500F500000000000000000000F500F500000000000000000000000000000000000000000000000000F500F50000000000000000000000F50000000000002D000000000000F50000000000000000000000F52D
310
F500000000000000000000000000000000000000000000002828F528F5282828282D2D28282828F528F528F5F528002DF500000000000000002800000000000000F5F50000F500F500000000002D0000002D000000000000000028282828F52828F52828282828282828282D2D2D2D2828282828F5F528F52828F528282800
310
00000000000000000000000000000000F5F5F50000F5F5000000000000002800000000000028282828282828282828282828282828282828280000F500F500000000000000000000000000000000000000000000000000F500F50000000000000000000000F50000000000002D000000000000F50000000000000000000000
310
2D2DF500000000000000000000000000000000000000000000000000F500F500000000002D2D000000F500F500F5F52D2D2DF5000000000000F5F5F5F5F50000000000F5000000F500F500000000002D0000002D000000000000000000000000F50000F500000000002D2D2D2D002800000000000000F5F5F5F50000F50000
310
000000000000000000000000000000000000F5F5F5000000F50000000000F5F528F5F5000000000000F5000000F500F5F500F500000000000000000000F500F500000000000000000000000000000000000000000000000000F500F50000000000000000000000F50000000000002D000000000000F5000000000000000000
310
00002D2DF500000000000000000000000000000000000000000000000000F500F500000000002D2D000000F500F500F5F52D2D2DF500000000F5F50000F5F500F500000000F5000000F500F500000000002D00002D2D000000000000000000000000F50000F500002D2D2D2D2D2D00002800000000000000F5F5F500F5F500
310
0000000000000000000000000000000000000000F5F5F5000000F5000000F5F5000028F500F50000000000F5000000F500F5F500F500000000000000000000F500F500000000000000000000000000000000000000000000000000F500F50000000000000000000000F50000000000002D000000000000F500000000000000
310
00000000F52DF500000000000000000000000000000000000000000000000000F500F500000000002D00000000F500F500F5F5002D2DF5000000F500F5F5F52800F5F5F5F50000F5000000F500F500000000002D00002D2D000000000000000000000000F50000F50000002D2D2D2D2D00002800000000000000F5F500F5F5
310
F5000000000000000000000000000000000000000000F5F5F5000000F50000F500F5F5F52800F5F5F5F5000000F5000000F500F5F500F500000000000000000000F500F500000000000000000000000000000000000000000000000000F500F50000000000000000000000F50000000000002D000000000000F5F5F5F5F5F5
310
F5F5F5F5F5F5F5F5F500000000000000000000000000000000000000000000000000F500F500000000000000000000F500F500F5F52D2D2D00F500F500F500000028000000F5F5F5F5F5000000F500F500000000002D00002D2D0000000000000000000000002D0000F50000002D2D2D000000002800000000000000F5F500
310
00F5F5000000000000000000000000000000000000000000F5F5F5000000F5F5F500F500000028000000F5F5F500F500000000F500F5F500F500000000000000000000F500F500000000000000000000000000000000000000000000000000F500F5F5F5F5F5F5F5F5F5F5F5F5F50000000000002D000000000000F5000000
310
0000000000000000F5F5F5F5F5F528F5F5F5F5F5F5F5F5F5F5F5F5F5F5F5F5F5F5F5F5F5F5F5F500000000000000000000F500F500F5F5002D2D00F500F5F5000000002800000000F5F5F5F5000000F500F500000000002D00002D2D000000000000000000000000F50000F5000000000000000000002800000000000000F5
310
F50000F5F5F5F5F5F5F5F5F5F52D2D2D2D2D2D2D000000000000F5F5F5000000F5F5F5F5000000002800000000F5F500F500000000F500F5F500F500000000000000000000F5F5F5F5F5F5F5F5F5F5F5F5F5F5F5F5F5F5F5F5F5F5F5F528F5F5F5F5F5F50000000000000000000000F50000000000002D2D00000000002D00
310
00000000000000000000F500F500000028000000000000000000000000000000000000000000F500F500000000000000000000F500F500F5F500002D00F500F5000000BEBEBE0000000000F5F5F5000000F500F500000000002D0000002D000000000000000000000000F50000F50000000000000000000028000000000000
310
00F5F50000F5000000000000000000F500000000002D000000000000F5F5F5000000F5F5F50000000000280000000000F500F500000000F500F5F500F500000000000000000000F500F500000000000000000000000000000000000000000028000000F500F50000000000000000000000F50000000000002D2D2D2D2D2D2D
310
2D2DF5F5F5F5F5F5F5F5F5F5F5F5F5F5F5F5F5F5F5F5F5F5F52D2D2D2D2D2DF5F5F5F5F5F5F5F5F5F5F52DF5F5F5F5F5F5F5F5F5F5F500F500F5F500002D00F5F5F5000000000028BEBEBE0000F5F500000000F500F500000000002D0000002D000000000000000000000000F50000F5000000000000000000002800000000
310
000000F5F50000F500F5F5F5F5F5F5F5F5F500000000002D000000000000F5F5F500000000F5F50000F5F5F528F5F5000000F5F5F500000000F500F5F500F5F5F5F5F5F5F5F5F5F5F5F5F5F5F5F5F5F5F5F5F5F5F5F5F5F5F5F5F5F5F5F5F5F5F5F5F5F5F5F5F5F5F5F5F5F5F5F5F5F5F5F5F5000000000000000000000000
310
00002D0000000000000000000000F5F5F5F5F5F5F5F5F5F5F5F5F5000000002D2D00000000000000000000002D0000F500F5F5F500F500F500F5F5F5F5002D2D2D28F5F5282828BE282828BEBE2828F5F52828282D2D2D2D2D2D2D2D2D2D2D00002D000000000000000028282828F52828F528282828282828282828282828
310
2828282800F5F52828F52DF5F5F5F5F5F5F5F5F528282800002D000000000000F5F5F528282828F5282828F528F52828282828282828F528282800F500F5F500F500F50000F5F500F50000000000000000000000000000000000000000F5F5F5F5F5F5F5F5F5F5F5F5F5000000000000000000000000000000000000000000
310
000000002D0000000000000000000000F50000000000280000000000F50000002D2D2D00000000000000000000002D000000F5000000F5F5F5F500F500F5F5F5000000F5F5F5000000BEBEBEBEBE000000F5F500000000F500F500000000002D0000002D000000000000000000000000F50000F50000000000000000000028
310
00000000000000F5000000F52DF500000000000000F500000000002D000000000000F5F5F500000000F5F5000000F5002800F5000000F5F5F5000000F5F500F5F500F5F500F5F50000F5000000000000000000000000000000000000000000F50000000000280000000000F500000000000000000000000000000000000000
310
0000000000002D00000000000000000000F5F5F5F5F5F5F5F5F5F5F5F5F5F50000002D2D2D00000000000000000000002D000000000000000000F5F500F500F5F5F50000000000F50000000000280000000000F5F500000000F500F500000000002D0000002D000000000000000000000000F50000F5000000000000000000
310
002800000000000000F5000000F52DF5F5F5F5F5F5F5F52D2D2D2D2D2D2D000000000000F5F5F50000000000F500000000F528F500000000F5F500000000F50000F5F500F5F5F50000000000000000000000000000000000000000000000000000F5F5F5F5F5F5F5F5F5F5F5F5F5F500000000000000000000000000000000
310
00000000000000002D00000000000000000000F5F50000000000280000000000F50000002D2D2D00000000000000000000002D0000000000000000F500F500F500F5F500F500000000F5F5000000002800000000F5F500000000F5F500F500000000002D0000002D000000000000000000000000F50000F500000000000000
310
0000002800000000000000F50000002D2D00000000000000002D00000000002D000000000000F5F500F500000000F5F5000000002800000000F5F500000000F50000F5F5F500F500F50000000000000000000000000000000000000000000000000000F50000000000280000000000F5F50000000000000000000000000000
310
000000000000000000002D00000000000000002828F5282828282828282828282828282828002D2D2D00000000000000000000002D000000000000000000F5F500F5F5F5F500F50000000000F5F50000000000000000F5F500000000F5F500F50000002D2D2D0000002D000000000000000000000000F50000F50000000000
310
00000000002800000000000000F50000002D2D00000000000000002D0000002D2D2D000000000000F5F5F5F50000000000F5F50000000000000000F5F500000000F500F5F5F5F500F5F5000000000000000000000000000000000000000000000000282828F52828282828282828282828F5F5282800000000000000000000
310
0000000000000000000000002D00000000000000000000F5F5F500000000280000000000F50000002D2D2D00000000000000000000002D00000000000000000000F500F500F5F50000F5F5000000F5F5F5F500280000F5F5F5000000F5F500F500F50000002D2D2D0000002D000000000000000000000000F50000F5F5F5F5
310
F5F5F5F5F5F5F528F5F5F5F5F5F5F5F50000F52D2D00000000000000002D0000002D2D2D000000000000F500F500F5F5000000F5F5F5F500280000F5F5F5000000F5F50000F5F500F500F500000000000000000000000000000000000000000000000000000000F5F500000000280000000000F5F500000000000000000000
310
00000000000000000000000000002D00000000000000000000F5F5F5F5000000280000000000F500000000002D00000000000000000000002D00000000000000000000F5F52DF5F5F50000F500F5F5000000F5F5F5F5F5F5F5000000F5F500F500F500F50000002D2D2D0000002D000000000000000000000000F50000F500
310
0000000000000000002800000000000000F500F5002D2D00000000000000002D0000002D2D2D000000000000F50000F5F500F5F5000000F5F5F528F5F5F5000000F5F500F5F5F5F5F5F5F5F5F5000000000000000000000000000000000000000000000000000000F5F5F5F5000000280000000000F5F50000000000000000
310
000000000000000000000000000000002D0000000000000000000000F5F5F5F5F5F5F5F5F5F5F5F5F52D2D2D2D2D2D00000000000000000000002D0000000000000000000000002D00F500F5F500000000F500000000F5F5F500000000F500000000F50000F500000000002D0000002D000000000000000000000000F50000
310
F5000000000000000000002800000000000000F5F5F5F52D2D00000000000000002D0000002D2D2D000000000000F500002800F50000F500000000F528F500000000F5000000F5280000F50000000000000000000000000000000000000000000000000000000000000000F5F5F5F5F5F5F5F5F5F5F5F5F500000000000000
310
0000000000000000000000000000000000002D00000000000000000000002D00000000002800000000002D00000000000000000000000000000000002D0000000000000000000000002D00F50000F50000000000F5F500000028000000F5F50000000000F50000F500000000002D0000002D000000000000000000000000F5
310
0000F50000000000000000000028000000000000F5F5F500002D2D00000000000000002D0000002D2D2D000000000000F50000280000F50000F5F500000028000000F5F5000000F500280000F50000000000000000000000000000000000000000000000000000000000000000000000000000280000000000000000000000
310
00000000000000000000000000000000000000002D00000000000000000000002D00000000002800000000002D00000000000000000000000000000000002D0000000000000000000000002D00F5000028F5000000000000F5F5F5F5F5F5F5000000000000F5F50000F500000000002D0000002D0000000000000000000000
310
00BEBEBEBE000000000000000000002800000000000000F50000002D2D00000000000000002D0000002D2D2D000000000000F5000028000000F5F50000F5F5F528F5F5F5000000F5F50000280000F5000000000000000000000000000000000000000000000000000000000000000000000000000028000000000000000000
310
000000000000000000000000000000000000000000002D00000000000000000000002D00000000000000000000002D00000000000000000000000000000000002D0000000000000000000000002D00F5F5F528F5F5F5000000000000002800000000000000F5282828282D2D2D2D2D2D2D2D2D00002D000000000000000000
310
002828282828F52800000000000000000028000000000000F5F50000002D2D00000000000000002D0000002D2D2D000000000000F52828282828280000F5F50000002800000000F5F5000028F528F5F52800000000000000000000000000000000000000000000000000000000000000000000000000000000000000000000
310
0000000000000000000000000000000000000000000000002D00000000000000000000002D00000000000000000000002D00000000000000000000000000000000002D0000000000000000000000002D000000F528000000F500000000000028000000000000F5000000F5F5002D0000000000000000002D00000000000000
310
0000000000BEBEF5F5F5F5F5F5F5F5F5F5F5F528F5F5F5F5F5F5F5000000002D2D00000000000000002D0000000000000000000000000000F5280000000000F5F5F5F5F528F5F5F5F5F5000000000028F500000000000000000000000000000000000000000000000000000000000000000000000000000000000000000000
310
00000000000000000000000000000000000000000000000000002D00000000000000000000002D00000000000000000000002D00000000000000000000000000000000002D0000000000000000000000002D0000000028000000F5F5F5F5F5F5F5F5F5F5F5F5F5F5F5000000F500002D0000000000000000002D2D00000000
310
00000000000000F5F500F500F500000000000000002800000000000000000000002D2D00000000000000002D000000000000000000000000000000280000000000F5000000002800000000F5000000000028000000000000000000000000000000000000000000000000000000000000000000000000000000000000000000
310
000000000000000000000000000000000000000000000000000000002D00000000000000000000002D00000000000000000000002D00000000000000000000000000000000002D0000000000000000000000002D00000000F5F5F5F5F5F5F5F5F5F5F5F5F5F5F5F5F5F5F5F5F5F52D2D2D2D2D2D2D2D2D2D2D2D2D2D2D0000
310
0000000000000000002DF5F500F50000000000000000002800000000000000000000002D2D2D2D2D2D2D2D2D2D2D000000000000000000000000000000F5F5F5F5F5F5F5F5F5F5F528F5F5F5F5F5F5F5F5F5F5F500000000000000000000000000000000000000000000000000000000000000000000000000000000000000
310
0000000000000000000000000000000000000000000000000000000000002D00000000000000000000002D00000000000000000000002D00000000000000000000000000000000002D0000000000000000000000002D00000000000000000000000000000028000000000000000000000000002D0000000000000000000000
310
00000000000000000000002D000000000000000000000000002D00000000000000000000002D000000002D2D2D00002D00000000000000000000000000000000000000000000000000002800000000000000000000000000000000000000000000000000000000000000000000000000000000000000000000000000000000
310
00000000000000000000000000000000000000000000000000000000000000002D00000000000000000000002D00000000000000000000002D00000000000000000000000000000000002D0000000000000000000000002D00000000000000000000000000000028000000000000000000000000002D000000000000000000
310
000000000000000000000000002D000000000000000000000000002D00000000000000000000002D000000002D2D2D00002D0000000000000000000000000000000000000000000000000000280000000000000000000000000000000000000000000000000000000000000000000000000000000000000000000000000000
310
000000000000000000000000000000000000000000000000000000000000000000002D00000000000000000000002D00000000000000000000002D00000000000000000000000000000000002D0000000000000000000000002D0000000000000000000000000000002D000000000000000000000000002D00000000000000
310
0000000000000000000000000000002D000000000000000000000000002D00000000000000000000002D0000000000000000002D000000000000000000000000000000000000000000000000000028000000000000000000000000000000000000000000000000000000000000000000000000000000000000000000000000
310
0000000000000000000000000000000000000000000000000000000000000000000000002D2D2D2D2D2D2D2D2D2D2D2D2D2D2D2D2D2D2D2D2D2D2D2D2D00000000000000000000000000000000002D0000000000000000000000002D0000000000000000000000000000002D000000000000000000000000002D0000000000
310
00000000000000000000000000000000002D000000000000000000000000002D00000000000000000000002D2D2D2D2D2D2D2D2D2D2D00000000000000000000000000000000000000000000000000000000000000000000000000000000000000000000000000000000000000000000000000000000000000000000000000
310
00000000000000000000000000000000000000000000000000000000000000000000000000002D0000002D2D2D2D2D0000002D0000002D2D2D2D2D0000002D00000000000000000000000000000000002D0000000000000000000000002D0000000000000000000000000000002D000000000000000000000000002D000000
310
000000000000000000000000000000000000002D000000000000000000000000002D00000000000000000000002D0000002D2D2D0000002D0000000000000000000000000000000000000000000000000000000000000000000000000000000000000000000000000000000000000000000000000000000000000000000000
310
000000000000000000000000000000000000000000000000000000000000000000000000000000002D0000002D2D2D2D2D000000000000002D2D2D2D2D0000000000000000000000000000000000000000002D0000000000000000000000002D0000000000000000000000000000002D000000000000000000000000002D00
310
0000000000000000000000000000000000000000002D000000000000000000000000002D000000000000000000000000000000002D2D0000002D000000000000000000000000000000000000000000000000000000000000000000000000000000000000000000000000000000000000000000000000000000000000000000
310
0000000000000000000000000000000000000000000000000000000000000000000000000000000000002D00000000000000000000000000000000000000000000000000000000000000000000000000000000002D0000000000000000000000002D0000000000000000000000000000002D00000000000000000000000000
310
2D000000000000000000000000000000000000000000002D000000000000000000000000002D0000000000000000000000000000000000000000002D00000000000000000000000000000000000000000000000000000000000000000000000000000000000000000000000000000000000000000000000000000000000000
310
00000000000000000000000000000000000000000000000000000000000000000000000000000000000000002D2D0000000000000000000000000000000000000000000000000000000000000000000000000000002D2D2D0000000000000000002D002D2D0000000000000000000000002D002D2D00000000000000000000
310
2D002D000000000000000000000000000000000000000000002D2D00000000000000000000002D2D2D000000000000000000000000000000000000002D2D0000000000000000000000000000000000000000000000000000000000000000000000000000000000000000000000000000000000000000000000000000000000
310
000000000000000000000000000000000000000000000000000000000000000000000000000000000000000000002D2D2D2D2D2D2D2D2D2D2D2D2D2D2D2D2D2D2D2D2D2D2D2D2D2D2D2D2D2D2D2D2D2D2D2D2D2D2D2D2D2D2D2D2D2D2D2D2D2D2D2D2D2D2D2D2D2D2D2D2D2D2D2D2D2D2D2D2D2D2D2D2D2D2D2D2D2D2D2D2D
310
2D2D2D2D2D000000000000000000000000000000000000000000002D2D2D2D2D2D2D2D2D2D2D2D2D2D2D2D2D2D2D2D2D2D2D2D2D2D2D2D2D2D2D2D2D2D2D2D2D000000000000000000000000000000000000000000000000000000000000000000000000000000000000000000000000000000000000000000000000000000
310
0000000000000000000000000000000000000000000000000000000000000000000000000000000000000000000000002D00000000000000000000000000000000002D2D2D2D002D00000000000000000000000000000000000000000000002D2D2D0000000000000000000000002D2D2D0000000000000000000000002D2D
310
2D00000000002D000000000000000000000000000000000000000000002D00000000002D2D2D0000000000000000000000000000002D2D2D0000000000000000002D00000000000000000000000000000000000000000000000000000000000000000000000000000000000000000000000000000000000000000000000000
310
00000000000000000000000000000000000000000000000000000000000000000000000000000000000000000000000000002D00000000000000000000000000000000000000000000000000000000000000000000000000000000000000000000000000000000000000000000000000000000000000000000000000000000
310
00000000000000002D000000000000000000000000000000000000000000002D00000000000000000000000000000000000000000000000000000000000000000000002D0000000000000000000000000000000000000000000000000000000000000000000000000000000000000000000000000000000000000000000000
310
000000000000000000000000000000000000000000000000000000000000000000000000000000000000000000000000000000002D0000000000000000000000000000000000000000000000000000000000000000000000000000000000000000000000000000000000000000000000000000000000000000000000000000
310
000000000000000000002D000000000000000000000000000000000000000000002D00000000000000000000000000000000000000000000000000000000000000000000002D000000000000000000000000000000000000000000000000000000000000000000000000000000000000000000000000000000000000000000
310
0000000000000000000000000000000000000000000000000000000000000000000000000000000000000000000000000000000000002D2D2D2D2D2D2D2D2D2D2D2D2D2D2D2D2D2D2D2D2D2D2D2D2D2D2D2D2D2D2D2D2D2D2D2D2D2D2D2D2D2D2D2D2D2D2D2D2D2D2D2D2D2D2D2D2D2D2D2D2D2D2D2D2D2D2D2D2D2D2D2D2D
310
2D2D2D2D2D2D2D2D2D2D2D2D2D000000000000000000000000000000000000000000002D2D2D2D2D2D2D2D2D2D2D2D2D2D2D2D2D2D2D2D2D2D2D2D2D2D2D2D2D2D2D2D2D2D2D2D2D00000000000000000000000000000000000000000000000000000000000000000000000000000000000000000000000000000000000000
310
00000000000000000000000000000000000000000000000000000000000000000000000000000000000000000000000000000000000000002D0000000000000000000000000000000000000000000000000000000000000000000000000000002D2D2D2D2D2D00000000000000000000000000000000000000000000000000
310
00000000000000000000000000002D000000000000000000000000000000000000000000002D000000000000000000000000000000002D2D2D000000000000000000000000000000002D0000000000000000000000000000000000000000000000000000000000000000000000000000000000000000000000000000000000
310
00000000000000000000000000000000000000000000000000000000000000000000000000000000000000000000000000000000000000000000000000000000000000000000000000000000000000000000000000000000000000000000000000002D2D2D2D2D2D0000000000000000000000000000000000000000000000
310
000000000000000000000000000000000000000000000000000000000000000000000000000000000000000000000000000000000000002D2D2D2D0000000000000000000000000000000000000000000000000000000000000000000000000000000000000000000000000000000000000000000000000000000000000000
310
00000000000000000000000000000000000000000000000000000000000000000000000000000000000000000000000000000000000000000000000000000000000000000000000000000000000000000000000000000000000000000000000000000000000000000000000000000000000000000000000000000000000000
310
00000000000000000000000000000000000000000000000000000000000000000000000000000000000000000000000000000000000000000000000000000000000000000000000000000000000000000000000000000000000000000000000000000000000000000000000000000000000000000000000000000000000000
310
00000000000000000000000000000000000000000000000000000000000000000000000000000000000000000000000000000000000000000000000000000000000000000000000000000000000000000000000000000000000000000000000000000000000000000000000000000000000000000000000000000000000000
310
00000000000000000000000000000000000000000000000000000000000000000000000000000000000000000000000000000000000000000000000000000000000000000000000000000000000000000000000000000000000000000000000000000000000000000000000000000000000000000000000000000000000000
310
00000000000000000000000000000000000000000000000000000000000000000000000000000000000000000000000000000000000000000000000000000000000000000000000000000000000000000000000000000000000000000000000000000000000000000000000000000000000000000000000000000000000000
310
00000000000000000000000000000000000000000000000000000000000000000000000000000000000000000000000000000000000000000000000000000000000000000000000000000000000000000000000000000000000000000000000000000000000000000000000000000000000000000000000000000000000000
310
00000000000000000000000000000000000000000000000000000000000000000000000000000000000000000000000000000000000000000000000000000000000000000000000000000000000000000000000000000000000000000000000000000000000000000000000000000000000000000000000000000000000000
310
00000000000000000000000000000000000000000000000000000000000000000000000000000000000000000000000000000000000000000000000000000000000000000000000000000000000000000000000000000000000000000000000000000000000000000000000000000000000000000000000000000000000000
310
00000000000000000000000000000000000000000000000000000000000000000000000000000000000000000000000000000000000000000000000000000000000000000000000000000000000000000000000000000000000000000000000000000000000000000000000000000000000000000000000000000000000000
310
00000000000000000000000000000000000000000000000000000000000000000000000000000000000000000000000000000000000000000000000000000000000000000000000000000000000000000000000000000000000000000000000000000000000000000000000000000000000000000000000000000000000000
310
00000000000000000000000000000000000000000000000000000000000000000000000000000000000000000000000000000000000000000000000000000000000000000000000000000000000000000000000000000000000000000000000000000000000000000000000000000000000000000000000000000000000000
310
00000000000000000000000000000000000000000000000000000000000000000000000000000000000000000000000000000000000000000000000000000000000000000000000000000000000000000000000000000000000000000000000000000000000000000000000000000000000000000000000000000000000000
310
00000000000000000000000000000000000000000000000000000000000000000000000000000000000000000000000000000000000000000000000000000000000000000000000000000000000000000000000000000000000000000000000000000000000000000000000000000000000000000000000000000000000000
310
00000000000000000000000000000000000000000000000000000000000000000000000000000000000000000000000000000000000000000000000000000000000000000000000000000000000000000000000000000000000000000000000000000000000000000000000000000000000000000000000000000000000000
310
00000000000000000000000000000000000000000000000000000000000000000000000000000000000000000000000000000000000000000000000000000000000000000000000000000000000000000000000000000000000000000000000000000000000000000000000000000000000000000000000000000000000000
310
00000000000000000000000000000000000028000000000000000000000000000000000000000000000000000000000000000000000000000000000000000000000000000000000000000000000000000000000000000000000000000000000000000000000000000000000000000000000000000000000000000000000000
310
00000000000000000000000000000000000000000000000000000000000000000000000000000000000000000000000000000000000000000000000000000000000000000000000000000000000000000000000000000000000000000000000000000000000000000000000000000000000000000000000000000000000000
310
00000000000000000028000000000000000000002800000000000000000000280000000000000000000000000000000000000000000000000000000000000000000000000000000000000000000000000000000000000000000000000000000000000000000000000000000000000000000000000000000000000000000000
310
00000000000000000000000000000000000000000000000000000000000000000000000000000000000000000000000000000000000000000000000000000000000000000000000000000000000000000000000000000000000000000000000000000000000000000000000000000000000000000000000000000000000000
310
00000000000000000000002800000000000000000000280000000000000000000028000000000000000000000000000000000000000000000000000000000000000000000000000000000000000000000000000000000000000000000000000000000000000000000000000000000000000000000000000000000000000000
310
00000000000000000000000000000000000000000000000000000000000000000000000000000000000000000000000000000000000000000000000000000000000000000000000000000000000000000000000000000000000000000000000000000000000000000000000000000000000000000000000000000000000000
310
000000000000F5F5F5F5F5BEF528BEF5F5F5F5F5F5F5F5F528F5F5F5F5F5F5F5F5BEF528BEF5F500000000000000000000000000000000000000000000000000000000000000000000000000000000000000000000000000000000000000000000000000000000000000000000000000000000000000000000000000000000
310
00000000000000000000000000000000000000000000000000000000000000000000000000000000000000000000000000000000000000000000000000000000000000000000000000000000000000000000000000000000000000000000000000000000000000000000000000000000000000000000000000000000000000
310
00000000000000F5F5F5F500F5BE0028BE000000000000000000280000000000000000BE0028BE00F50000000000000000000000000000000000000000000000000000000000000000000000000000000000000000000000000000000000000000000000000000000000000000000000000000000000000000000000000000
310
00000000000000000000000000000000000000000000000000000000000000000000000000000000000000000000000000000000000000000000000000000000000000000000000000000000000000000000000000000000000000000000000000000000000000000000000000000000000000000000000000000000000000
310
00000000000000000000F500F500F5BE0028BE000000000000000000280000000000000000BE0028BE00F5000000000000000000000000000000000000000000000000000000000000000000000000000000000000000000000000000000000000000000000000000000000000000000000000000000000000000000000000
310
00000000000000000000000000000000000000000000000000000000000000000000000000000000000000000000000000000000000000000000000000000000000000000000000000000000000000000000000000000000000000000000000000000000000000000000000000000000000000000000000000000000000000
310
0000000000000000000000F5F500F5F5F5BEF528BEF5F5F5F5F5F5F5F5F528F5F5F5F5F5F5F5F5BEF528BEF5F500000000000000000000000000000000000000000000000000000000000000000000000000000000000000000000000000000000000000000000000000000000000000000000000000000000000000000000
310
00000000000000000000000000000000000000000000000000000000000000000000000000000000000000000000000000000000000000000000000000000000000000000000000000000000000000000000000000000000000000000000000000000000000000000000000000000000000000000000000000000000000000
310
000000000000000000000000F500F500F500F50000280000000000F5000000002800000000F500000000002800F5000000000000000000000000000000000000000000000000000000000000000000000000000000000000000000000000000000000000000000000000000000000000000000000000000000000000000000
310
00000000000000000000000000000000000000000000000000000000000000000000000000000000000000000000000000000000000000000000000000000000000000000000000000000000000000000000000000000000000000F5F5F5F5F5F5F5F5F5F5F5F52DF5F5F5F5F5F5F5F5F5F5F5F5F5F5F5F5F5F5F5F5F5F5F5
310
F5F5F5F5F5F5F5F5F5F5F5F5F5F5F5F5F500F500F50000280000000000F5000000002800000000F500000000002800F500000000000000000000000000000000000000000000000000000000000000000000000000000000000000000000000000000000000000000000000000000000000000000000000000000000000000
310
0000000000000000000000000000000000000000000000000000000000000000000000000000000000000000000000000000000000000000000000000000000000000000000000000000000000000000000000000000000000000000F500000000000000000000F5F5F5F50000002800000000000000000000000000000000
310
0000000000F500F50000000000000000F500F500F5F5F50000000000000000F5000000002800000000F500000000000000F50000000000000000000000000000000000000000000000000000000000000000000000000000000000000000000000000000000000000000000000000000000000000000000000000000000000
310
00000000000000000000000000000000000000000000000000000000000000000000000000000000000000000000000000000000000000000000000000000000000000000000000000000000000000000000000000000000000000000000F50000000000000000000000F500F5000000280000000000000000000000000000
310
00000000000000F5F5F5000000000000000000F5F500F500F50000000000000000F5000000002800000000F500000000000000F5000000000000000000000000000000000000000000000000000000000000000000000000000000000000000000000000000000000000000000000000000000000000000000000000000000
310
000000000000000000000000000000000000000000000000000000000000000000000000000000000000000000000000000000000000000000000000000000000000000000000000000000000000000000000000000000000000000000000000F5F5F5F5F5F5F5F5F5F5F5F5F5F5F5F5F5F5F5F5F5F5F5F5F5000000000000
310
000000000000000000F500F50000000000000000F5F5F500F500F50000000000000000F5000000002800000000F500000000000000F500000000000000000000000000000000000000000000000000000000000000000000000000000000000000000000000000000000000000000000000000000000000000000000000000
310
0000000000000000000000000000000000000000000000000000000000000000000000000000000000000000000000000000000000000000000000000000000000000000000000000000000000000000000000000000000000000000000000000000F500000000000000000000F5F5F5F5F5F5F5F5F5F5F5F5F5F5F5F5F5F5
310
F5F5F5F5F5F5F5F5F5F5F5F500F500000000000000F50000F500F5F5F50000000000000000F5000000002800000000F500000000000000F50000000000000000000000000000000000000000000000000000000000000000000000000000000000000000000000000000000000000000000000000000000000000000000000
310
00000000000000000000000000000000000000000000000000000000000000000000000000000000000000000000000000000000000000000000000000000000000000000000000000000000000000000000000000000000000000000000000000000000F500000000000000000000F5F5F5F5000000280000000000F50000
310
000000000000000000000000000000F50000000000F5F5000000F500F5F5000000000000000000F5000000002800000000F500000000000000F5000000000000000000000000000000000000000000000000000000000000000000000000000000000000000000000000000000000000000000000000000000000000000000
310
000000000000000000000000000000000000000000000000000000000000000000000000000000000000000000000000000000000000000000000000000000000000000000000000000000000000000000000000000000000000000000000000000000000000F50000000000000000000000F5F500000000280000000000F5
310
0000000000000000000000000000000000F500000000F50000000000F500F5F5000000000000000000F5000000002800000000F500000000000000F500000000000000000000000000000000000000000000000000000000000000000000000000000000000000000000000000000000000000000000000000000000000000
310
0000000000000000000000000000000000000000000000000000000000000000000000000000000000000000000000000000000000000000000000000000000000000000000000000000000000000000000000000000000000000000000000000000000000000000F50000000000000000000000F500000000002800000000
310
00F50000000000000000000000000000000000F50000000000F500000000F500F5F5000000000000000000F5000000002800000000F500000000000000F50000000000000000000000000000000000000000000000000000000000000000000000000000000000000000000000000000000000000000000000000000000000
310
00000000000000000000000000000000000000000000000000000000000000000000000000000000000000000000000000000000000000000000000000000000000000000000000000000000000000000000000000000000000000000000000000000000000000000000F500000000000000000000F5F50000000000280000
310
000000F50000000000000000000000000000000000F50000000000F500000000F500F5F5000000000000000000F5000000000000000000F500000000000000F5000000000000000000000000000000000000000000000000000000000000000000000000000000000000000000000000000000000000000000000000000000
310
000000000000000000000000000000000000000000000000000000000000000000000000000000000000000000000000000000000000000000000000000000000000000000000000000000000000000000000000000000000000000000000000000000000000000000282828F528282828282828282828F5F5282828002828
310
2828282828F52828282828282828282828282828282828F52828282828F528282828F528F5F5282828282828282828F5282828282828282828F528282828282828F528282800000000000000000000002D2D2D2D2D2D2D2D2D2D2D2D2D2D2D2D2D002D2D2D2D2D2D2D2D2D2D0000000000002D2D2D2D2D2D2D2D2D2D2D2D2D
310
2D2D2D00002D2D2D2D2D2D2D2D2D2D0000000000000000000000000000000000000000000000000000000000000000000000000000000000000000000000000000000000000000000000000000000000000000000000000000000000000000000000000000000000000000000000F500000000000000000000F5F500000000
310
00000000000000F50000000000000000000000000000000000F50000000000F500000000F500F5F5000000000000000000F5000000002800000000F500000000000000F500000000000000000000000000002D2D2D2D2D2D002D2D2D2D2D2D2D2D2D2D2D2D2D2D2D2D2D2D2D2D2D0000000000002D2D2D2D2D2D002D2D2D2D
310
2D2D2D2D2D2D2D2D2D2D2D2D2D2D2D2D2D0000000000000000000000000000000000000000000000000000000000000000000000000000000000000000000000000000000000000000000000000000000000000000000000000000000000000000000000000000000000000000000000F500000000000000000000F5F50000
310
000000280000000000F50000000000000000000000000000000000F50000000000F500000000F500F5F5000000000000000000F5000000002800000000F500000000000000F500000000000000000000000000002D2D2D2D2D2D002D2D2D2D002D2D2D2D00002D2D2D2D2D2D2D2D2D2D2D00000000002D2D2D2D2D2D002D2D
310
2D2D002D002D2D00002D2D2D2D2D2D2D2D2D2D2D00000000000000000000000000000000000000000000000000000000000000000000000000000000000000000000000000000000000000000000000000000000000000000000000000000000000000000000000000000000000000000000F50000000000000000000000F5
310
0000000000280000000000F50000000000000000000000000000000000F500000000F50000000000F500F5F5000000000000000000F5000000002800000000F500000000000000F500000000000000000000000000002D2D2D2D2D2D2D2D2D2D2D2D2D2D2D2D2D2D2D2D2D2D2D2D2D2D2D2D2D2D000000002D2D2D2D2D2D2D
310
2D2D2D2D2D2D2D2D2D2D2D2D2D2D2D2D2D2D2D2D2D2D2D000000000000000000000000000000000000000000000000000000000000000000000000000000000000000000000000000000000000000000000000000000000000000000000000000000000000000000000000000000000000000000F500000000000000000000
310
00F500000000002800000000F5F50000000000000000000000000000000000F50000000000F500000000F500F5F5000000000000000000F5000000002800000000F500000000000000F500000000000000000000000000002D2D2D2D2D2D002D2D2D2D2D2D2D2D2D2D002D2D2D2D2D2D2D2D2D2D2D2D000000002D2D2D2D2D
310
2D002D2D2D2D2D2D2D2D2D2D002D2D2D2D2D2D2D2D2D2D2D2D000000000000000000000000000000000000000000000000000000000000000000000000000000000000000000000000000000000000000000000000000000000000000000000000000000000000000000000000000000000000000000F50000000000000000
310
000000F5000000000028000000F5F5F5F500000000000000000000000000000000F5000000000000F5F50000F500F5F5000000000000000000F5000000002800000000F500000000000000F500000000000000000000000000002D2D2D2D2D2D2D2D2D002D002D2D2D2D00002D002D2D2D2D2D2D2D2D0000000000002D2D2D
310
2D2D2D2D2D2D2D2D002D2D2D2D00002D2D2D2D2D2D2D2D2D2D0000000000000000000000000000000000000000000000000000000000000000000000000000000000000000000000000000000000000000000000000000000000000000000000000000000000000000000000000000000000000000000000F5000000000000
310
0000000000F5F5F5F5F5F5F5F5F5F5F5F5F5F5F5F5F5F5F5F5F5F5F5F5F5F5F5F5F500F50000000000000000F500F500F5F500F500000000000000F5000000002800000000F500000000000000F500000000000000000000000000002D2D2D2D2D2D002D2D2D2D2D2D2D2D2D2D2D2D2D2D2D2D2D2D2D2D2D0000000000002D
310
2D2D2D002D2D2D2D2D2D2D2D2D2D2D2D2D2D2D2D2D2D2D2D2D2D2D0000000000000000000000000000000000000000000000000000000000000000000000000000000000000000000000000000000000000000000000000000000000000000000000000000000000000000000000000000000000000000000000F5F5F5F5F5
310
F5F5F5F5F5F5F5F500F50000002800000000F5F5000000000000000000000000000000F500F5000000000000000000F5F500F50000F500000000000000F5000000002800000000F5000000000000F5F500000000000000000000000000002D2D2D2D2D2D002D2D2D2D002D2D2D2D2D002D2D2D2D2D2D2D2D2D2D2D00000000
310
002D2D2D2D2D2D002D2D2D2D002D2D2D2D00002D2D2D2D2D2D2D2D2D2D2D00000000000000000000000000000000000000000000000000000000000000000000000000000000000000000000000000000000000000000000000000000000000000000000000000000000000000000000000000000000000000000000F50000
310
000000000000000000F500F500000028000000000000000000000000000000000000000000F5F5F50000000000000000F500F500F5F5F5F5F5F5F5F5F5F5F5F5F5F5F5F528F5F5F5F5F5F5F5F5F5F5F5F5F500000000000000000000000000002D2D2D2D2D2D2D2D2D2D2D002D2D2D2D00002D2D2D2D2D2D2D2D2D2D000000
310
0000002D2D2D2D2D2D2D2D2D2D2D2D2D2D2D2D002D2D2D2D2D2D2D2D2D2D2D0000000000000000000000000000000000000000000000000000000000000000000000000000000000000000000000000000000000000000000000000000000000000000000000000000000000000000000000000000000000000000000000F5
310
0000000000000000000000F5F5F5F5F5F528F5F5F5F5F5F5F5F5F5F5F5F5F5F5F5F5F5F5F5F5F5F5F5F5F5F5F5F50000000000F5F500F5F500F500F5F5F5F50000000000000028000000000000F5F5F5F500F50000000000000000000000000000002D2D2D2D2D2D002D2D2D2D2D2D2D2D2D2D2D2D2D2D2D002D2D2D2D2D00
310
00000000002D2D2D2D2D2D002D2D2D2D2D2D2D2D2D2D2D2D2D2D2D002D2D2D2D2D00000000000000000000000000000000000000000000000000000000000000000000000000000000000000000000000000000000000000000000000000000000000000000000000000000000000000000000000000000000000000000000
310
0000F5F5F5F5F5F5F5F5F5F5F5F500000000000000000000000000000000000000000000000000000000F50000000000F5F5F5F5F5F5F500F5F500000000F5F500F5F50000000000280000000000F5F5F5F50000000000000000000000000000000000002D2D2D2D2D2D002D2D2D2D002D2D2D2D00002D2D2D2D002D2D2D2D
310
2D0000000000002D2D2D2D2D2D002D2D2D2D002D2D2D2D00002D2D2D2D002D2D2D2D2D0000000000000000000000000000000000000000000000000000000000000000000000000000000000000000000000000000000000000000000000000000000000000000000000000000000000000000000000000000000000000000
310
00000000000000000000000000000000000000000000000000000000000000000000000000000000000000000000000000000000000000F5F500F5F500000000000000F500F5000000002800000000F500F500000000000000000000000000000000000000002D2D2D2D2D2D2D2D2D2D2D2D2D2D2D2D002D2D2D2D2D2D2D2D
310
2D2D2D2D00000000002D2D2D2D2D2D2D2D2D2D2D2D2D2D2D2D2D2D2D2D2D2D2D2D2D2D2D2D2D2D00000000000000000000000000000000000000000000000000000000000000000000000000000000000000000000000000000000000000000000000000000000000000000000000000000000000000000000000000000000
310
00000000000000000000000000000000000000000000000000000000000000000000000000000000000000000000000000000000000000000000F500F5F50000000000000000F5F5F5F5F5F528F5F5F5F5F5F50000000000000000000000000000000000000000002D2D2D2D2D2D002D2D2D2D2D2D2D2D2D2D2D2D2D2D2D00
310
2D2D2D2D2D2D00000000002D2D2D2D2D2D002D2D2D2D2D2D2D2D2D002D2D2D2D2D002D2D2D2D2D2D2D0000000000000000000000000000000000000000000000000000000000000000000000000000000000000000000000000000000000000000000000000000000000000000000000000000000000000000000000000000
310
000000000000000000000000000000000000000000000000000000000000000000000000000000000000000000000000000000000000000000000000F500F5F50000000000000000000000F500002800F5000000000000000000000000000000000000000000000000002D2D2D2D2D2D2D2D2D2D2D002D2D2D2D00002D2D2D
310
2D2D2D2D2D2D2D2D00000000002D2D2D2D2D2D2D2D2D2D2D002D2D2D2D00002D2D2D2D2D2D2D2D2D2D0000000000000000000000000000000000000000000000000000000000000000000000000000000000000000000000000000000000000000000000000000000000000000000000000000000000000000000000000000
310
00000000000000000000000000000000000000000000000000000000000000000000000000000000000000000000000000000000000000000000000000F5F5F5F5F50000000000000000000000F500002800F5F50000000000000000000000000000000000000000000000002D2D2D2D2D2D002D2D2D2D2D2D2D2D2D2D2D2D
310
2D2D2D002D2D2D2D2D0000000000002D2D2D2D002D2D2D2D2D2D2D2D2D2D2D2D2D2D2D2D2D002D2D2D2D2D000000000000000000000000000000000000000000000000000000000000000000000000000000000000000000000000000000000000000000000000000000000000000000000000000000000000000000000000
310
00000000000000000000000000000000000000000000000000000000000000000000000000000000000000000000000000000000000000000000000000000000F50000000000000000000000000000F500002800F5F50000000000000000000000000000000000000000000000002D2D2D2D2D2D002D2D2D2D002D2D2D2D00
310
002D2D2D2D002D2D2D2D2D0000000000002D2D2D2D2D2D002D2D2D2D002D2D2D2D002D2D2D2D2D002D2D2D2D2D00000000000000000000000000000000000000000000000000000000000000000000000000000000000000000000000000000000000000000000000000000000000000000000000000000000000000000000
310
000000000000000000000000000000000000000000000000000000000000000000000000000000000000000000000000000000000000000000000000000000000000000000000000000000000000000000F500002800F5F5000000000000000000000000000000000000000000000000000000000000000000000000000000
310
00000000000000000000000000000000000000000000000000000000000000000000000000000000000000000000000000000000000000000000000000000000000000000000000000000000000000000000000000000000000000000000000000000000000000000000000000000000000000000000000000000000000000
310
0000000000000000000000000000000000000000000000000000000000000000000000000000000000000000000000000000000000000000000000000000000000000000000000000000000000000000000000F500002800F5F500000000000000000000000000000000000000000000000000000000000000000000000000
310
00000000000000000000000000000000000000000000000000000000000000000000000000000000000000000000000000000000000000000000000000000000000000000000000000000000000000000000000000000000000000000000000000000000000000000000000000000000000000000000000000000000000000
310
00000000000000000000000000000000000000000000000000000000000000000000000000000000000000000000000000000000000000000000000000000000000000000000000000000000000000000000000000F500002800F5F50000000000000000000000000000000000000000000000000000000000000000000000
310
00000000000000000000000000000000000000000000000000000000000000000000000000000000000000000000000000000000000000000000000000000000000000000000000000000000000000000000000000000000000000000000000000000000000000000000000000000000000000000000000000000000000000
310
000000000000000000000000000000000000000000000000000000000000000000000000000000000000000000000000000000000000000000000000000000000000000000000000000000000000000000000000000000F500002800F5F50000000000000000000000000000000000000000000000002D2D2D2D2D2D2D2D2D
310
2D2D2D2D2D2D2D2D2D2D2D2D2D2D2D2D2D2D2D2D2D2D0000002D2D2D2D2D2D2D2D2D2D2D2D2D2D2D2D2D2D2D2D2D2D2D2D2D2D2D2D2D2D2D0000000000000000000000000000000000000000000000000000000000000000000000000000000000000000000000000000000000000000000000000000000000000000000000
310
0000000000000000000000000000000000000000000000000000000000000000000000000000000000000000000000000000000000000000000000000000000000000000000000000000000000000000000000000000000000F500002800F5F50000000000000000000000000000000000000000000000002D2D2D2D2D2D00
310
002D2D2D00002D2D2D2D2D2D2D2D2D2D002D2D2D2D2D2D2D0000002D2D2D2D2D2D002D2D2D2D00002D2D2D2D2D2D2D2D2D2D002D2D2D2D2D2D2D000000000000000000000000000000000000000000000000000000000000000000000000000000000000000000000000000000000000000000000000000000000000000000
310
00000000000000000000000000000000000000000000000000000000000000000000000000000000000000000000000000000000000000000000000000000000000000000000000000000000000000000000000000000000000000F500002800F5F50000000000000000000000000000000000000000000000002D2D2D2D2D
310
2D00002D2D2D2D002D002D2D00002D2D002D00002D2D2D2D00000000002D2D2D2D2D2D002D2D2D2D2D002D002D2D00002D2D2D2D002D2D2D2D2D000000000000000000000000000000000000000000000000000000000000000000000000000000000000000000000000000000000000000000000000000000000000000000
310
000000000000000000000000000000000000000000000000000000000000000000000000000000000000000000000000000000000000000000000000000000000000000000000000000000000000000000000000000000000000000000F5F5F528F5F5F50000000000000000000000000000000000000000000000002D2D2D
310
2D2D2D2D2D2D2D2D2D2D2D2D2D2D2D2D2D2D2D2D2D2D2D2D2D2D00000000002D2D2D2D2D2D2D2D2D2D2D2D2D2D2D2D2D2D2D2D2D2D2D2D2D2D2D2D2D00000000000000000000000000000000000000000000000000000000000000000000000000000000000000000000000000000000000000000000000000000000000000
310
0000000000000000000000000000000000000000000000000000000000000000000000000000000000000000000000000000000000000000000000000000000000000000000000000000000000000000000000000000000000000000000000000000280000000000000000000000000000000000000000000000000000002D
310
2D2D2D2D2D00002D2D2D00002D2D2D2D00002D2D2D2D002D2D2D2D2D2D000000002D2D2D2D2D2D002D2D2D2D00002D2D2D2D00002D2D2D2D002D2D2D2D2D2D00000000000000000000000000000000000000000000000000000000000000000000000000000000000000000000000000000000000000000000000000000000
310
00000000000000000000000000000000000000000000000000000000000000000000000000000000000000000000000000000000000000000000000000000000000000000000000000000000000000000000000000000000000000000000000000000000280000000000000000000000000000000000000000000000000000
310
002D2D2D2D2D2D00002D2D2D2D002D2D2D2D00002D2D2D2D00002D2D2D2D2D2D0000002D2D2D2D2D2D002D2D2D2D2D002D2D2D2D00002D2D2D2D002D2D2D2D2D2D2D00000000000000000000000000000000000000000000000000000000000000000000000000000000000000000000000000000000000000000000000000
310
00000000000000000000000000000000000000000000000000000000000000000000000000000000000000000000000000000000000000000000000000000000000000000000000000000000000000000000000000000000000000000000000000000000000028000000000000000000000000000000000000000000000000
310
0000002D2D2D2D2D2D2D2D2D2D2D2D2D2D2D2D2D2D2D2D2D2D2D2D2D2D2D2D2D2D2D0000002D2D2D2D2D2D2D2D2D2D2D2D2D2D2D2D2D2D2D2D2D2D2D2D2D2D2D2D2D2D2D0000000000000000000000000000000000000000000000000000000000000000000000000000000000000000000000000000000000000000000000
310
00000000000000000000000000000000000000000000000000000000000000000000000000000000000000000000000000000000000000000000000000000000000000000000000000000000000000000000000000000000000000000000000000000000000000000000000000000000000000000000000000000000000000
310
00000000002D2D2D2D2D2D00002D2D2D00002D2D2D2D00002D2D2D2D002D2D2D2D2D2D2D0000002D2D2D2D2D2D002D2D2D2D00002D2D2D2D00002D2D2D2D002D2D2D2D2D2D2D000000000000000000000000000000000000000000000000000000000000000000000000000000000000000000000000000000000000000000
310
00000000000000000000000000000000000000000000000000000000000000000000000000000000000000000000000000000000000000000000000000000000000000000000000000000000000000000000000000000000000000000000000000000000000000000000000000000000000000000000000000000000000000
310
000000000000002D2D2D2D2D2D00002D2D2D2D002D2D2D2D2D2D2D2D2D2D00002D2D2D2D00000000002D2D2D2D2D2D002D2D2D2D2D002D2D2D2D2D2D2D2D2D2D002D2D2D2D2D000000000000000000000000000000000000000000000000000000000000000000000000000000000000000000000000000000000000000000
310
00000000000000000000000000000000000000000000000000000000000000000000000000000000000000000000000000000000000000000000000000000000000000000000000000000000000000000000000000000000000000000000000000000000000000000000000000000000000000000000000000000000000000
310
0000000000000000002D2D2D2D2D2D2D2D2D2D2D2D2D2D2D2D2D2D2D2D2D2D2D2D2D2D2D2D2D00000000002D2D2D2D2D2D2D2D2D2D2D2D2D2D2D2D2D2D2D2D2D2D2D2D2D2D2D2D2D00000000000000000000000000000000000000000000000000000000000000000000000000000000000000000000000000000000000000
310
00000000000000000000000000000000000000000000000000000000000000000000000000000000000000000000000000000000000000000000000000000000000000000000000000000000000000000000000000000000000000000000000000000000000000000000000000000000000000000000000000000000000000
310
00000000000000000000002D2D2D2D2D2D00002D2D2D00002D2D2D2D00002D2D2D2D002D2D2D2D2D2D000000002D2D2D2D2D2D00002D2D2D00002D2D2D2D00002D2D2D2D002D2D2D2D2D2D00000000000000000000000000000000000000000000000000000000000000000000000000000000000000000000000000000000
310
00000000000000000000000000000000000000000000000000000000000000000000000000000000000000000000000000000000000000000000000000000000000000000000000000000000000000000000000000000000000000000000000000000000000000000000000000000000000000000000000000000000000000
310
000000000000000000000000002D2D2D2D2D2D2D2D2D2D2D2D2D2D2D2D2D2D2D2D2D2D2D2D2D2D2D2D2D2D2D0000002D2D2D2D2D2D2D2D2D2D2D2D2D2D2D2D2D2D2D2D2D2D2D2D2D2D2D2D2D2D2D00000000000000000000000000000000000000000000000000000000000000000000000000000000000000000000000000
310
00000000000000000000000000000000000000000000000000000000000000000000000000000000000000000000000000000000000000000000000000000000000000000000000000000000000000000000000000000000000000000000000000000000000000000000000000000000000000000000000000000000000000
310
0000000000000000000000000000002D2D2D2D2D2D00002D2D2D00002D2D2D2D2D2D2D2D2D2D002D2D2D2D2D2D2D0000002D2D2D2D2D2D002D2D2D2D00002D2D2D2D2D2D2D2D2D2D002D2D2D2D2D2D2D0000000000000000000000000000000000000000000000000000000000000000000000000000000000000000000000
310
00000000000000000000000000000000000000000000000000000000000000000000000000000000000000000000000000000000000000000000000000000000000000000000000000000000000000000000000000000000000000000000000000000000000000000000000000000000000000000000000000000000000000
310
00000000000000000000000000000000002D2D2D2D2D2D00002D2D2D2D002D2D2D2D00002D2D2D2D00002D2D2D2D00000000002D2D2D2D2D2D002D2D2D2D2D002D2D2D2D00002D2D2D2D002D2D2D2D2D0000000000000000000000000000000000000000000000000000000000000000000000000000000000000000000000
310
00000000000000000000000000000000000000000000000000000000000000000000000000000000000000000000000000000000000000000000000000000000000000000000000000000000000000000000000000000000000000000000000000000000000000000000000000000000000000000000000000000000000000
310
000000000000000000000000000000000000002D2D2D2D2D2D2D2D2D2D2D2D2D2D2D2D2D2D2D2D2D2D2D2D2D2D2D2D2D00000000002D2D2D2D2D2D2D2D2D2D2D2D2D2D2D2D2D2D2D2D2D2D2D2D2D2D2D2D2D000000000000000000000000000000000000000000000000000000000000000000000000000000000000000000
310
00000000000000000000000000000000000000000000000000000000000000000000000000000000000000000000000000000000000000000000000000000000000000000000000000000000000000000000000000000000000000000000000000000000000000000000000000000000000000000000000000000000000000
310
0000000000000000000000000000000000000000002D2D2D2D2D2D00002D2D2D00002D2D2D2D00002D2D2D2D002D2D2D2D2D2D000000002D2D2D2D2D2D002D2D2D2D00002D2D2D2D002D2D2D2D2D002D2D2D2D2D2D000000000000000000000000000000000000000000000000000000000000000000000000000000000000
310
00000000000000000000000000000000000000000000000000000000000000000000000000000000000000000000000000000000000000000000000000000000000000000000000000000000000000000000000000000000000000000000000000000000000000000000000000000000000000000000000000000000000000
310
00000000000000000000000000000000000000000000002D2D2D2D2D2D00002D2D2D2D002D2D2D2D00002D2D2D2D2D00002D2D2D2D2D2D00002D2D2D2D2D2D002D2D2D2D2D002D2D2D2D00002D2D2D2D2D002D2D2D2D2D2D2D0000000000000000000000000000000000000000000000000000000000000000000000000000
310
00000000000000000000000000000000000000000000000000000000000000000000000000000000000000000000000000000000000000000000000000000000000000000000000000000000000000000000000000000000000000000000000000000000000000000000000000000000000000000000000000000000000000
310
000000000000000000000000000000000000000000000000002D2D2D2D2D2D2D2D2D2D2D2D2D2D2D2D2D2D2D2D2D2D2D2D2D2D2D2D2D2D2D2D00002D2D2D2D2D2D2D2D2D2D2D2D2D2D2D2D2D2D2D2D2D2D2D2D2D2D2D2D2D2D2D2D000000000000000000000000000000000000000000000000000000000000000000000000
310
00000000000000000000000000000000000000000000000000000000000000000000000000000000000000000000000000000000000000000000000000000000000000000000000000000000000000000000000000000000000000000000000000000000000000000000000000000000000000000000000000000000000000
310
0000000000000000000000000000000000000000000000000000002D2D2D2D2D2D00002D2D2D00002D2D2D2D00002D2D2D2D2D002D2D2D2D2D2D2D00002D2D2D2D2D2D00002D2D2D00002D2D2D2D00002D2D2D2D2D002D2D2D2D2D2D2D00000000000000000000000000000000000000000000000000000000000000000000
310
00000000000000000000000000000000000000000000000000000000000000000000000000000000000000000000000000000000000000000000000000000000000000000000000000000000000000000000000000000000000000000000000000000000000000000000000000000000000000000000000000000000000000
310
00000000000000000000000000000000000000000000000000000000002D2D2D2D2D2D2D2D2D2D2D2D2D2D2D2D2D2D2D2D2D2D2D2D2D2D2D2D2D2D000000002D2D2D2D2D2D2D2D2D2D2D2D2D2D2D2D2D2D2D2D2D2D2D2D2D2D2D2D2D2D00000000000000000000000000000000000000000000000000000000000000000000
310
00000000000000000000000000000000000000000000000000000000000000000000000000000000000000000000000000000000000000000000000000000000000000000000000000000000000000000000000000000000000000000000000000000000000000000000000000000000000000000000000000000000000000
310
000000000000000000000000000000000000000000000000000000000000002D2D2D2D2D2D00002D2D2D00002D2D2D2D2D2D2D2D2D2D2D002D2D2D2D2D2D0000002D2D2D2D2D2D002D2D2D2D00002D2D2D2D2D2D2D2D2D2D2D002D2D2D2D2D2D00000000000000000000000000000000000000000000000000000000000000
310
00000000000000000000000000000000000000000000000000000000000000000000000000000000000000000000000000000000000000000000000000000000000000000000000000000000000000000000000000000000000000000000000000000000000000000000000000000000000000000000000000000000000000
310
00000000000000000000000000000000000000000000000000000000000000000000000000000000000000000000000000000000000000000000000000000000000000000000000000000000000000000000000000000000000000000000000000000000000000000000000000000000000000000000000000000000000000
310
00000000000000000000000000000000000000000000000000000000000000000000000000000000000000000000000000000000000000000000000000000000000000000000000000000000000000000000000000000000000000000000000000000000000000000000000000000000000000000000000000000000000000
310
00000000000000000000000000000000000000000000000000000000000000000000000000000000000000000000000000000000000000000000000000000000000000000000000000000000000000000000000000000000000000000000000000000000000000000000000000000000000000000000000000000000000000
310
00000000000000000000000000000000000000000000000000000000000000000000000000000000000000000000000000000000000000000000000000000000000000000000000000000000000000000000000000000000000000000000000000000000000000000000000000000000000000000000000000000000000000
310
00000000000000000000000000000000000000000000000000000000000000000000000000000000000000000000000000000000000000000000000000000000000000000000000000000000000000000000000000000000000000000000000000000000000000000000000000000000000000000000000000000000000000
310
00000000000000000000000000000000000000000000000000000000000000000000000000000000000000000000000000000000000000000000
  0
XRECORD
  5
3D5D
102
{ACAD_REACTORS
330
3D5C
102
}
330
3D5C
100
AcDbXrecord
280
     1
102
SHADEPLOT
 70
     0
102
SHADEPLOTRESLEVEL
 70
     2
102
SHADEPLOTCUSTOMDPI
 70
   300
  0
XRECORD
  5
3CF1
102
{ACAD_REACTORS
330
2299
102
}
330
2299
100
AcDbXrecord
280
     1
102
MATERIAL
148
0.0
149
0.0
149
0.0
 93
        0
 94
      127
282
     0
 72
     0
 77
     0
171
     0
175
     0
179
     0
273
     0
  0
XRECORD
  5
229B
102
{ACAD_REACTORS
330
2299
102
}
330
2299
100
AcDbXrecord
280
     1
270
     1
271
     1
  0
XRECORD
  5
229A
102
{ACAD_REACTORS
330
2299
102
}
330
2299
100
AcDbXrecord
280
     1
270
     1
271
     1
  0
XRECORD
  5
229E
102
{ACAD_REACTORS
330
2299
102
}
330
2299
100
AcDbXrecord
280
     1
270
     1
271
     1
  0
XRECORD
  5
229D
102
{ACAD_REACTORS
330
2299
102
}
330
2299
100
AcDbXrecord
280
     1
270
     1
271
     1
  0
XRECORD
  5
229F
102
{ACAD_REACTORS
330
2299
102
}
330
2299
100
AcDbXrecord
280
     1
270
     1
271
     1
  0
XRECORD
  5
229C
102
{ACAD_REACTORS
330
2299
102
}
330
2299
100
AcDbXrecord
280
     1
270
     1
271
     1
  0
XRECORD
  5
3CF0
102
{ACAD_REACTORS
330
2291
102
}
330
2291
100
AcDbXrecord
280
     1
102
MATERIAL
148
0.0
149
0.0
149
0.0
 93
        0
 94
      127
282
     0
 72
     0
 77
     0
171
     0
175
     0
179
     0
273
     0
  0
XRECORD
  5
2293
102
{ACAD_REACTORS
330
2291
102
}
330
2291
100
AcDbXrecord
280
     1
270
     1
271
     1
  0
XRECORD
  5
2292
102
{ACAD_REACTORS
330
2291
102
}
330
2291
100
AcDbXrecord
280
     1
270
     1
271
     1
  0
XRECORD
  5
2296
102
{ACAD_REACTORS
330
2291
102
}
330
2291
100
AcDbXrecord
280
     1
270
     1
271
     1
  0
XRECORD
  5
2295
102
{ACAD_REACTORS
330
2291
102
}
330
2291
100
AcDbXrecord
280
     1
270
     1
271
     1
  0
XRECORD
  5
2297
102
{ACAD_REACTORS
330
2291
102
}
330
2291
100
AcDbXrecord
280
     1
270
     1
271
     1
  0
XRECORD
  5
2294
102
{ACAD_REACTORS
330
2291
102
}
330
2291
100
AcDbXrecord
280
     1
270
     1
271
     1
  0
XRECORD
  5
3CF2
102
{ACAD_REACTORS
330
22A1
102
}
330
22A1
100
AcDbXrecord
280
     1
102
MATERIAL
148
0.0
149
0.0
149
0.0
 93
        0
 94
      127
282
     0
 72
     0
 77
     0
171
     0
175
     0
179
     0
273
     0
  0
XRECORD
  5
22A3
102
{ACAD_REACTORS
330
22A1
102
}
330
22A1
100
AcDbXrecord
280
     1
270
     1
271
     1
  0
XRECORD
  5
22A2
102
{ACAD_REACTORS
330
22A1
102
}
330
22A1
100
AcDbXrecord
280
     1
270
     1
271
     1
  0
XRECORD
  5
22A6
102
{ACAD_REACTORS
330
22A1
102
}
330
22A1
100
AcDbXrecord
280
     1
270
     1
271
     1
  0
XRECORD
  5
22A5
102
{ACAD_REACTORS
330
22A1
102
}
330
22A1
100
AcDbXrecord
280
     1
270
     1
271
     1
  0
XRECORD
  5
22A7
102
{ACAD_REACTORS
330
22A1
102
}
330
22A1
100
AcDbXrecord
280
     1
270
     1
271
     1
  0
XRECORD
  5
22A4
102
{ACAD_REACTORS
330
22A1
102
}
330
22A1
100
AcDbXrecord
280
     1
270
     1
271
     1
  0
XRECORD
  5
3D49
102
{ACAD_REACTORS
330
3D48
102
}
330
3D48
100
AcDbXrecord
280
     1
102
DISPLAYNAME
  1
Imperial24
102
FLAGS
 90
        0
  0
CELLSTYLEMAP
  5
3CEC
102
{ACAD_REACTORS
330
2588
102
}
330
2588
100
AcDbCellStyleMap
 90
        3
300
CELLSTYLE
  1
TABLEFORMAT_BEGIN
 90
        5
170
     1
 91
        0
 92
    32768
 62
   257
 93
        1
300
CONTENTFORMAT
  1
CONTENTFORMAT_BEGIN
 90
        0
 91
        0
 92
      512
 93
        0
300

 40
0.0
140
1.0
 94
        5
 62
     0
340
16
144
0.25
309
CONTENTFORMAT_END
171
     1
301
MARGIN
  1
CELLMARGIN_BEGIN
 40
0.06
 40
0.06
 40
0.06
 40
0.06
 40
0.18
 40
0.18
309
CELLMARGIN_END
 94
        6
 95
        1
302
GRIDFORMAT
  1
GRIDFORMAT_BEGIN
 90
        0
 91
        1
 62
     0
 92
       -2
340
0
 93
        0
 40
0.045
309
GRIDFORMAT_END
 95
        2
302
GRIDFORMAT
  1
GRIDFORMAT_BEGIN
 90
        0
 91
        1
 62
     0
 92
       -2
340
0
 93
        0
 40
0.045
309
GRIDFORMAT_END
 95
        4
302
GRIDFORMAT
  1
GRIDFORMAT_BEGIN
 90
        0
 91
        1
 62
     0
 92
       -2
340
0
 93
        0
 40
0.045
309
GRIDFORMAT_END
 95
        8
302
GRIDFORMAT
  1
GRIDFORMAT_BEGIN
 90
        0
 91
        1
 62
     0
 92
       -2
340
0
 93
        0
 40
0.045
309
GRIDFORMAT_END
 95
       16
302
GRIDFORMAT
  1
GRIDFORMAT_BEGIN
 90
        0
 91
        1
 62
     0
 92
       -2
340
0
 93
        0
 40
0.045
309
GRIDFORMAT_END
 95
       32
302
GRIDFORMAT
  1
GRIDFORMAT_BEGIN
 90
        0
 91
        1
 62
     0
 92
       -2
340
0
 93
        0
 40
0.045
309
GRIDFORMAT_END
309
TABLEFORMAT_END
  1
CELLSTYLE_BEGIN
 90
        1
 91
        1
300
_TITLE
309
CELLSTYLE_END
300
CELLSTYLE
  1
TABLEFORMAT_BEGIN
 90
        5
170
     1
 91
        0
 92
        0
 62
   257
 93
        1
300
CONTENTFORMAT
  1
CONTENTFORMAT_BEGIN
 90
        0
 91
        0
 92
      512
 93
        0
300

 40
0.0
140
1.0
 94
        5
 62
     0
340
16
144
0.18
309
CONTENTFORMAT_END
171
     1
301
MARGIN
  1
CELLMARGIN_BEGIN
 40
0.06
 40
0.06
 40
0.06
 40
0.06
 40
0.18
 40
0.18
309
CELLMARGIN_END
 94
        6
 95
        1
302
GRIDFORMAT
  1
GRIDFORMAT_BEGIN
 90
        0
 91
        1
 62
     0
 92
       -2
340
0
 93
        0
 40
0.045
309
GRIDFORMAT_END
 95
        2
302
GRIDFORMAT
  1
GRIDFORMAT_BEGIN
 90
        0
 91
        1
 62
     0
 92
       -2
340
0
 93
        0
 40
0.045
309
GRIDFORMAT_END
 95
        4
302
GRIDFORMAT
  1
GRIDFORMAT_BEGIN
 90
        0
 91
        1
 62
     0
 92
       -2
340
0
 93
        0
 40
0.045
309
GRIDFORMAT_END
 95
        8
302
GRIDFORMAT
  1
GRIDFORMAT_BEGIN
 90
        0
 91
        1
 62
     0
 92
       -2
340
0
 93
        0
 40
0.045
309
GRIDFORMAT_END
 95
       16
302
GRIDFORMAT
  1
GRIDFORMAT_BEGIN
 90
        0
 91
        1
 62
     0
 92
       -2
340
0
 93
        0
 40
0.045
309
GRIDFORMAT_END
 95
       32
302
GRIDFORMAT
  1
GRIDFORMAT_BEGIN
 90
        0
 91
        1
 62
     0
 92
       -2
340
0
 93
        0
 40
0.045
309
GRIDFORMAT_END
309
TABLEFORMAT_END
  1
CELLSTYLE_BEGIN
 90
        2
 91
        1
300
_HEADER
309
CELLSTYLE_END
300
CELLSTYLE
  1
TABLEFORMAT_BEGIN
 90
        5
170
     1
 91
        0
 92
        0
 62
   257
 93
        1
300
CONTENTFORMAT
  1
CONTENTFORMAT_BEGIN
 90
        0
 91
        0
 92
      512
 93
        0
300

 40
0.0
140
1.0
 94
        2
 62
     0
340
16
144
0.18
309
CONTENTFORMAT_END
171
     1
301
MARGIN
  1
CELLMARGIN_BEGIN
 40
0.06
 40
0.06
 40
0.06
 40
0.06
 40
0.18
 40
0.18
309
CELLMARGIN_END
 94
        6
 95
        1
302
GRIDFORMAT
  1
GRIDFORMAT_BEGIN
 90
        0
 91
        1
 62
     0
 92
       -2
340
0
 93
        0
 40
0.045
309
GRIDFORMAT_END
 95
        2
302
GRIDFORMAT
  1
GRIDFORMAT_BEGIN
 90
        0
 91
        1
 62
     0
 92
       -2
340
0
 93
        0
 40
0.045
309
GRIDFORMAT_END
 95
        4
302
GRIDFORMAT
  1
GRIDFORMAT_BEGIN
 90
        0
 91
        1
 62
     0
 92
       -2
340
0
 93
        0
 40
0.045
309
GRIDFORMAT_END
 95
        8
302
GRIDFORMAT
  1
GRIDFORMAT_BEGIN
 90
        0
 91
        1
 62
     0
 92
       -2
340
0
 93
        0
 40
0.045
309
GRIDFORMAT_END
 95
       16
302
GRIDFORMAT
  1
GRIDFORMAT_BEGIN
 90
        0
 91
        1
 62
     0
 92
       -2
340
0
 93
        0
 40
0.045
309
GRIDFORMAT_END
 95
       32
302
GRIDFORMAT
  1
GRIDFORMAT_BEGIN
 90
        0
 91
        1
 62
     0
 92
       -2
340
0
 93
        0
 40
0.045
309
GRIDFORMAT_END
309
TABLEFORMAT_END
  1
CELLSTYLE_BEGIN
 90
        3
 91
        2
300
_DATA
309
CELLSTYLE_END
  0
XRECORD
  5
3D19
102
{ACAD_REACTORS
330
2588
102
}
330
2588
100
AcDbXrecord
280
     1
102
ACAD_ROUNDTRIP_PRE2007_TABLESTYLE
 90
      512
 91
        0
  1

 92
      512
 93
        0
  2

 94
      512
 95
        0
  3

  0
XRECORD
  5
3CFE
102
{ACAD_REACTORS
330
3CFD
102
}
330
3CFD
100
AcDbXrecord
280
     1
102
RTVSPost2010Prop28
280
     1
102
RTVSPost2010PropOp28
 70
     1
102
RTVSPost2010Prop29
280
     1
102
RTVSPost2010PropOp29
 70
     1
102
RTVSPost2010Prop30
280
     0
102
RTVSPost2010PropOp30
 70
     1
102
RTVSPost2010Prop31
280
     0
102
RTVSPost2010PropOp31
 70
     1
102
RTVSPost2010Prop32
280
     0
102
RTVSPost2010PropOp32
 70
     1
102
RTVSPost2010Prop33
280
     0
102
RTVSPost2010PropOp33
 70
     1
102
RTVSPost2010Prop34
280
     0
102
RTVSPost2010PropOp34
 70
     1
102
RTVSPost2010Prop35
280
     0
102
RTVSPost2010PropOp35
 70
     1
102
RTVSPost2010Prop36
280
     0
102
RTVSPost2010PropOp36
 70
     1
102
RTVSPost2010Prop37
 90
       50
102
RTVSPost2010PropOp37
 70
     1
102
RTVSPost2010Prop38
140
0.0
102
RTVSPost2010PropOp38
 70
     1
102
RTVSPost2010Prop39
140
1.0
102
RTVSPost2010PropOp39
 70
     1
102
RTVSPost2010Prop40
 90
        0
102
RTVSPost2010PropOp40
 70
     1
102
RTVSPost2010Prop41ColorIndex
 90
       18
102
RTVSPost2010Prop41ColorRGB
 90
        0
102
RTVSPost2010PropOp41
 70
     1
102
RTVSPost2010Prop42
 90
       50
102
RTVSPost2010PropOp42
 70
     1
102
RTVSPost2010Prop43
 90
        3
102
RTVSPost2010PropOp43
 70
     1
102
RTVSPost2010Prop44ColorIndex
 90
        5
102
RTVSPost2010Prop44ColorRGB
 90
      255
102
RTVSPost2010PropOp44
 70
     1
102
RTVSPost2010Prop45
280
     0
102
RTVSPost2010PropOp45
 70
     1
102
RTVSPost2010Prop46
 90
       50
102
RTVSPost2010PropOp46
 70
     1
102
RTVSPost2010Prop47
 90
       50
102
RTVSPost2010PropOp47
 70
     1
102
RTVSPost2010Prop48
 90
       50
102
RTVSPost2010PropOp48
 70
     1
102
RTVSPost2010Prop49
280
     0
102
RTVSPost2010PropOp49
 70
     1
102
RTVSPost2010Prop50
 90
       50
102
RTVSPost2010PropOp50
 70
     1
102
RTVSPost2010Prop51ColorIndex
 90
      256
102
RTVSPost2010Prop51ColorRGB
 90
-16777216
102
RTVSPost2010PropOp51
 70
     0
102
RTVSPost2010Prop52
140
1.0
102
RTVSPost2010PropOp52
 70
     0
102
RTVSPost2010Prop53
 90
        2
102
RTVSPost2010PropOp53
 70
     1
102
RTVSPost2010Prop54
  1
strokes_ogs.tif
102
RTVSPost2010PropOp54
 70
     1
102
RTVSPost2010Prop55
280
     0
102
RTVSPost2010PropOp55
 70
     1
102
RTVSPost2010Prop56
140
1.0
102
RTVSPost2010PropOp56
 70
     1
102
RTVSPost2010Prop57
140
1.0
102
RTVSPost2010PropOp57
 70
     1
102
RTVSPropertyOp0
 70
     1
102
RTVSPropertyOp1
 70
     1
102
RTVSPropertyOp2
 70
     1
102
RTVSPropertyOp3
 70
     1
102
RTVSPropertyOp4
 70
     1
102
RTVSPropertyOp5
 70
     1
102
RTVSPropertyOp6
 70
     1
102
RTVSPropertyOp7
 70
     1
102
RTVSPropertyOp8
 70
     1
102
RTVSPropertyOp9
 70
     1
102
RTVSPropertyOp10
 70
     1
102
RTVSPropertyOp11
 70
     1
102
RTVSPropertyOp12
 70
     1
102
RTVSPropertyOp13
 70
     1
102
RTVSPropertyOp14
 70
     1
102
RTVSPropertyOp15
 70
     1
102
RTVSPropertyOp16
 70
     1
102
RTVSPropertyOp17
 70
     1
102
RTVSPropertyOp18
 70
     1
102
RTVSPropertyOp19
 70
     1
102
RTVSPropertyOp20
 70
     1
102
RTVSPropertyOp21
 70
     1
102
RTVSPropertyOp22
 70
     1
102
RTVSPropertyOp23
 70
     1
102
RTVSPropertyOp24
 70
     1
102
RTVSPropertyOp25
 70
     1
102
RTVSPropertyOp26
 70
     1
102
RTVSPropertyOp27
 70
     1
102
RTVSPropertyOp28
 70
     1
102
RTVSPropertyOp29
 70
     1
102
RTVSPropertyOp30
 70
     1
102
RTVSPropertyOp31
 70
     1
102
RTVSPropertyOp32
 70
     1
102
RTVSPropertyOp33
 70
     1
102
RTVSPropertyOp34
 70
     1
102
RTVSPropertyOp35
 70
     1
102
RTVSPropertyOp36
 70
     1
102
RTVSPropertyOp37
 70
     1
102
RTVSPropertyOp38
 70
     1
102
RTVSPropertyOp39
 70
     1
102
RTVSPropertyOp40
 70
     1
102
RTVSPropertyOp41
 70
     1
102
RTVSPropertyOp42
 70
     1
102
RTVSPropertyOp43
 70
     1
102
RTVSPropertyOp44
 70
     1
102
RTVSPropertyOp45
 70
     1
102
RTVSPropertyOp46
 70
     1
102
RTVSPropertyOp47
 70
     1
102
RTVSPropertyOp48
 70
     1
102
RTVSPropertyOp49
 70
     1
102
RTVSPropertyOp50
 70
     1
102
RTVSPropertyOp51
 70
     0
102
RTVSPropertyOp52
 70
     0
102
RTVSPropertyOp53
 70
     1
102
RTVSPropertyOp54
 70
     1
102
RTVSPropertyOp55
 70
     1
102
RTVSPropertyOp56
 70
     1
102
RTVSPropertyOp57
 70
     1
102
RTVSPropertyOp58
 70
     1
102
RTVSPropertyOp59
 70
     1
102
RTVSPropertyOp60
 70
     1
102
RTVSPropertyOp61
 70
     1
102
RTVSPropertyOp62
 70
     1
  0
XRECORD
  5
3D02
102
{ACAD_REACTORS
330
3D01
102
}
330
3D01
100
AcDbXrecord
280
     1
102
RTVSPost2010Prop28
280
     0
102
RTVSPost2010PropOp28
 70
     1
102
RTVSPost2010Prop29
280
     1
102
RTVSPost2010PropOp29
 70
     1
102
RTVSPost2010Prop30
280
     1
102
RTVSPost2010PropOp30
 70
     1
102
RTVSPost2010Prop31
280
     0
102
RTVSPost2010PropOp31
 70
     1
102
RTVSPost2010Prop32
280
     0
102
RTVSPost2010PropOp32
 70
     1
102
RTVSPost2010Prop33
280
     0
102
RTVSPost2010PropOp33
 70
     1
102
RTVSPost2010Prop34
280
     0
102
RTVSPost2010PropOp34
 70
     1
102
RTVSPost2010Prop35
280
     0
102
RTVSPost2010PropOp35
 70
     1
102
RTVSPost2010Prop36
280
     0
102
RTVSPost2010PropOp36
 70
     1
102
RTVSPost2010Prop37
 90
       50
102
RTVSPost2010PropOp37
 70
     1
102
RTVSPost2010Prop38
140
0.0
102
RTVSPost2010PropOp38
 70
     1
102
RTVSPost2010Prop39
140
1.0
102
RTVSPost2010PropOp39
 70
     1
102
RTVSPost2010Prop40
 90
        0
102
RTVSPost2010PropOp40
 70
     1
102
RTVSPost2010Prop41ColorIndex
 90
       18
102
RTVSPost2010Prop41ColorRGB
 90
        0
102
RTVSPost2010PropOp41
 70
     1
102
RTVSPost2010Prop42
 90
       50
102
RTVSPost2010PropOp42
 70
     1
102
RTVSPost2010Prop43
 90
        3
102
RTVSPost2010PropOp43
 70
     1
102
RTVSPost2010Prop44ColorIndex
 90
        5
102
RTVSPost2010Prop44ColorRGB
 90
      255
102
RTVSPost2010PropOp44
 70
     1
102
RTVSPost2010Prop45
280
     0
102
RTVSPost2010PropOp45
 70
     1
102
RTVSPost2010Prop46
 90
       50
102
RTVSPost2010PropOp46
 70
     1
102
RTVSPost2010Prop47
 90
       50
102
RTVSPost2010PropOp47
 70
     1
102
RTVSPost2010Prop48
 90
       50
102
RTVSPost2010PropOp48
 70
     1
102
RTVSPost2010Prop49
280
     0
102
RTVSPost2010PropOp49
 70
     1
102
RTVSPost2010Prop50
 90
       50
102
RTVSPost2010PropOp50
 70
     1
102
RTVSPost2010Prop51ColorIndex
 90
      256
102
RTVSPost2010Prop51ColorRGB
 90
-16777216
102
RTVSPost2010PropOp51
 70
     0
102
RTVSPost2010Prop52
140
1.0
102
RTVSPost2010PropOp52
 70
     0
102
RTVSPost2010Prop53
 90
        2
102
RTVSPost2010PropOp53
 70
     1
102
RTVSPost2010Prop54
  1
strokes_ogs.tif
102
RTVSPost2010PropOp54
 70
     1
102
RTVSPost2010Prop55
280
     0
102
RTVSPost2010PropOp55
 70
     1
102
RTVSPost2010Prop56
140
1.0
102
RTVSPost2010PropOp56
 70
     1
102
RTVSPost2010Prop57
140
1.0
102
RTVSPost2010PropOp57
 70
     1
102
RTVSPropertyOp0
 70
     1
102
RTVSPropertyOp1
 70
     1
102
RTVSPropertyOp2
 70
     1
102
RTVSPropertyOp3
 70
     1
102
RTVSPropertyOp4
 70
     1
102
RTVSPropertyOp5
 70
     1
102
RTVSPropertyOp6
 70
     1
102
RTVSPropertyOp7
 70
     1
102
RTVSPropertyOp8
 70
     1
102
RTVSPropertyOp9
 70
     1
102
RTVSPropertyOp10
 70
     1
102
RTVSPropertyOp11
 70
     1
102
RTVSPropertyOp12
 70
     1
102
RTVSPropertyOp13
 70
     1
102
RTVSPropertyOp14
 70
     1
102
RTVSPropertyOp15
 70
     1
102
RTVSPropertyOp16
 70
     1
102
RTVSPropertyOp17
 70
     1
102
RTVSPropertyOp18
 70
     1
102
RTVSPropertyOp19
 70
     1
102
RTVSPropertyOp20
 70
     1
102
RTVSPropertyOp21
 70
     1
102
RTVSPropertyOp22
 70
     1
102
RTVSPropertyOp23
 70
     1
102
RTVSPropertyOp24
 70
     1
102
RTVSPropertyOp25
 70
     1
102
RTVSPropertyOp26
 70
     1
102
RTVSPropertyOp27
 70
     1
102
RTVSPropertyOp28
 70
     1
102
RTVSPropertyOp29
 70
     1
102
RTVSPropertyOp30
 70
     1
102
RTVSPropertyOp31
 70
     1
102
RTVSPropertyOp32
 70
     1
102
RTVSPropertyOp33
 70
     1
102
RTVSPropertyOp34
 70
     1
102
RTVSPropertyOp35
 70
     1
102
RTVSPropertyOp36
 70
     1
102
RTVSPropertyOp37
 70
     1
102
RTVSPropertyOp38
 70
     1
102
RTVSPropertyOp39
 70
     1
102
RTVSPropertyOp40
 70
     1
102
RTVSPropertyOp41
 70
     1
102
RTVSPropertyOp42
 70
     1
102
RTVSPropertyOp43
 70
     1
102
RTVSPropertyOp44
 70
     1
102
RTVSPropertyOp45
 70
     1
102
RTVSPropertyOp46
 70
     1
102
RTVSPropertyOp47
 70
     1
102
RTVSPropertyOp48
 70
     1
102
RTVSPropertyOp49
 70
     1
102
RTVSPropertyOp50
 70
     1
102
RTVSPropertyOp51
 70
     0
102
RTVSPropertyOp52
 70
     0
102
RTVSPropertyOp53
 70
     1
102
RTVSPropertyOp54
 70
     1
102
RTVSPropertyOp55
 70
     1
102
RTVSPropertyOp56
 70
     1
102
RTVSPropertyOp57
 70
     1
102
RTVSPropertyOp58
 70
     1
102
RTVSPropertyOp59
 70
     1
102
RTVSPropertyOp60
 70
     1
102
RTVSPropertyOp61
 70
     1
102
RTVSPropertyOp62
 70
     1
  0
XRECORD
  5
3D00
102
{ACAD_REACTORS
330
3CFF
102
}
330
3CFF
100
AcDbXrecord
280
     1
102
RTVSPost2010Prop28
280
     0
102
RTVSPost2010PropOp28
 70
     1
102
RTVSPost2010Prop29
280
     1
102
RTVSPost2010PropOp29
 70
     1
102
RTVSPost2010Prop30
280
     1
102
RTVSPost2010PropOp30
 70
     1
102
RTVSPost2010Prop31
280
     0
102
RTVSPost2010PropOp31
 70
     1
102
RTVSPost2010Prop32
280
     0
102
RTVSPost2010PropOp32
 70
     1
102
RTVSPost2010Prop33
280
     0
102
RTVSPost2010PropOp33
 70
     1
102
RTVSPost2010Prop34
280
     0
102
RTVSPost2010PropOp34
 70
     1
102
RTVSPost2010Prop35
280
     0
102
RTVSPost2010PropOp35
 70
     1
102
RTVSPost2010Prop36
280
     0
102
RTVSPost2010PropOp36
 70
     1
102
RTVSPost2010Prop37
 90
       50
102
RTVSPost2010PropOp37
 70
     1
102
RTVSPost2010Prop38
140
0.0
102
RTVSPost2010PropOp38
 70
     1
102
RTVSPost2010Prop39
140
1.0
102
RTVSPost2010PropOp39
 70
     1
102
RTVSPost2010Prop40
 90
        0
102
RTVSPost2010PropOp40
 70
     1
102
RTVSPost2010Prop41ColorIndex
 90
       18
102
RTVSPost2010Prop41ColorRGB
 90
        0
102
RTVSPost2010PropOp41
 70
     1
102
RTVSPost2010Prop42
 90
       50
102
RTVSPost2010PropOp42
 70
     1
102
RTVSPost2010Prop43
 90
        3
102
RTVSPost2010PropOp43
 70
     1
102
RTVSPost2010Prop44ColorIndex
 90
        5
102
RTVSPost2010Prop44ColorRGB
 90
      255
102
RTVSPost2010PropOp44
 70
     1
102
RTVSPost2010Prop45
280
     0
102
RTVSPost2010PropOp45
 70
     1
102
RTVSPost2010Prop46
 90
       50
102
RTVSPost2010PropOp46
 70
     1
102
RTVSPost2010Prop47
 90
       50
102
RTVSPost2010PropOp47
 70
     1
102
RTVSPost2010Prop48
 90
       50
102
RTVSPost2010PropOp48
 70
     1
102
RTVSPost2010Prop49
280
     0
102
RTVSPost2010PropOp49
 70
     1
102
RTVSPost2010Prop50
 90
       50
102
RTVSPost2010PropOp50
 70
     1
102
RTVSPost2010Prop51ColorIndex
 90
      256
102
RTVSPost2010Prop51ColorRGB
 90
-16777216
102
RTVSPost2010PropOp51
 70
     0
102
RTVSPost2010Prop52
140
1.0
102
RTVSPost2010PropOp52
 70
     0
102
RTVSPost2010Prop53
 90
        2
102
RTVSPost2010PropOp53
 70
     1
102
RTVSPost2010Prop54
  1
strokes_ogs.tif
102
RTVSPost2010PropOp54
 70
     1
102
RTVSPost2010Prop55
280
     0
102
RTVSPost2010PropOp55
 70
     1
102
RTVSPost2010Prop56
140
1.0
102
RTVSPost2010PropOp56
 70
     1
102
RTVSPost2010Prop57
140
1.0
102
RTVSPost2010PropOp57
 70
     1
102
RTVSPropertyOp0
 70
     1
102
RTVSPropertyOp1
 70
     1
102
RTVSPropertyOp2
 70
     1
102
RTVSPropertyOp3
 70
     1
102
RTVSPropertyOp4
 70
     1
102
RTVSPropertyOp5
 70
     1
102
RTVSPropertyOp6
 70
     1
102
RTVSPropertyOp7
 70
     1
102
RTVSPropertyOp8
 70
     1
102
RTVSPropertyOp9
 70
     1
102
RTVSPropertyOp10
 70
     1
102
RTVSPropertyOp11
 70
     1
102
RTVSPropertyOp12
 70
     1
102
RTVSPropertyOp13
 70
     1
102
RTVSPropertyOp14
 70
     1
102
RTVSPropertyOp15
 70
     1
102
RTVSPropertyOp16
 70
     1
102
RTVSPropertyOp17
 70
     1
102
RTVSPropertyOp18
 70
     1
102
RTVSPropertyOp19
 70
     1
102
RTVSPropertyOp20
 70
     1
102
RTVSPropertyOp21
 70
     1
102
RTVSPropertyOp22
 70
     1
102
RTVSPropertyOp23
 70
     1
102
RTVSPropertyOp24
 70
     1
102
RTVSPropertyOp25
 70
     1
102
RTVSPropertyOp26
 70
     1
102
RTVSPropertyOp27
 70
     1
102
RTVSPropertyOp28
 70
     1
102
RTVSPropertyOp29
 70
     1
102
RTVSPropertyOp30
 70
     1
102
RTVSPropertyOp31
 70
     1
102
RTVSPropertyOp32
 70
     1
102
RTVSPropertyOp33
 70
     1
102
RTVSPropertyOp34
 70
     1
102
RTVSPropertyOp35
 70
     1
102
RTVSPropertyOp36
 70
     1
102
RTVSPropertyOp37
 70
     1
102
RTVSPropertyOp38
 70
     1
102
RTVSPropertyOp39
 70
     1
102
RTVSPropertyOp40
 70
     1
102
RTVSPropertyOp41
 70
     1
102
RTVSPropertyOp42
 70
     1
102
RTVSPropertyOp43
 70
     1
102
RTVSPropertyOp44
 70
     1
102
RTVSPropertyOp45
 70
     1
102
RTVSPropertyOp46
 70
     1
102
RTVSPropertyOp47
 70
     1
102
RTVSPropertyOp48
 70
     1
102
RTVSPropertyOp49
 70
     1
102
RTVSPropertyOp50
 70
     1
102
RTVSPropertyOp51
 70
     0
102
RTVSPropertyOp52
 70
     0
102
RTVSPropertyOp53
 70
     1
102
RTVSPropertyOp54
 70
     1
102
RTVSPropertyOp55
 70
     1
102
RTVSPropertyOp56
 70
     1
102
RTVSPropertyOp57
 70
     1
102
RTVSPropertyOp58
 70
     1
102
RTVSPropertyOp59
 70
     1
102
RTVSPropertyOp60
 70
     1
102
RTVSPropertyOp61
 70
     1
102
RTVSPropertyOp62
 70
     1
  0
XRECORD
  5
3CFC
102
{ACAD_REACTORS
330
3CFB
102
}
330
3CFB
100
AcDbXrecord
280
     1
102
RTVSPost2010Prop28
280
     0
102
RTVSPost2010PropOp28
 70
     1
102
RTVSPost2010Prop29
280
     1
102
RTVSPost2010PropOp29
 70
     1
102
RTVSPost2010Prop30
280
     1
102
RTVSPost2010PropOp30
 70
     1
102
RTVSPost2010Prop31
280
     0
102
RTVSPost2010PropOp31
 70
     1
102
RTVSPost2010Prop32
280
     0
102
RTVSPost2010PropOp32
 70
     1
102
RTVSPost2010Prop33
280
     0
102
RTVSPost2010PropOp33
 70
     1
102
RTVSPost2010Prop34
280
     0
102
RTVSPost2010PropOp34
 70
     1
102
RTVSPost2010Prop35
280
     0
102
RTVSPost2010PropOp35
 70
     1
102
RTVSPost2010Prop36
280
     0
102
RTVSPost2010PropOp36
 70
     1
102
RTVSPost2010Prop37
 90
       50
102
RTVSPost2010PropOp37
 70
     1
102
RTVSPost2010Prop38
140
0.0
102
RTVSPost2010PropOp38
 70
     1
102
RTVSPost2010Prop39
140
1.0
102
RTVSPost2010PropOp39
 70
     1
102
RTVSPost2010Prop40
 90
        0
102
RTVSPost2010PropOp40
 70
     1
102
RTVSPost2010Prop41ColorIndex
 90
       18
102
RTVSPost2010Prop41ColorRGB
 90
        0
102
RTVSPost2010PropOp41
 70
     1
102
RTVSPost2010Prop42
 90
       50
102
RTVSPost2010PropOp42
 70
     1
102
RTVSPost2010Prop43
 90
        3
102
RTVSPost2010PropOp43
 70
     1
102
RTVSPost2010Prop44ColorIndex
 90
        5
102
RTVSPost2010Prop44ColorRGB
 90
      255
102
RTVSPost2010PropOp44
 70
     1
102
RTVSPost2010Prop45
280
     0
102
RTVSPost2010PropOp45
 70
     1
102
RTVSPost2010Prop46
 90
       50
102
RTVSPost2010PropOp46
 70
     1
102
RTVSPost2010Prop47
 90
       50
102
RTVSPost2010PropOp47
 70
     1
102
RTVSPost2010Prop48
 90
       50
102
RTVSPost2010PropOp48
 70
     1
102
RTVSPost2010Prop49
280
     0
102
RTVSPost2010PropOp49
 70
     1
102
RTVSPost2010Prop50
 90
       50
102
RTVSPost2010PropOp50
 70
     1
102
RTVSPost2010Prop51ColorIndex
 90
      256
102
RTVSPost2010Prop51ColorRGB
 90
-16777216
102
RTVSPost2010PropOp51
 70
     0
102
RTVSPost2010Prop52
140
1.0
102
RTVSPost2010PropOp52
 70
     0
102
RTVSPost2010Prop53
 90
        2
102
RTVSPost2010PropOp53
 70
     1
102
RTVSPost2010Prop54
  1
strokes_ogs.tif
102
RTVSPost2010PropOp54
 70
     1
102
RTVSPost2010Prop55
280
     0
102
RTVSPost2010PropOp55
 70
     1
102
RTVSPost2010Prop56
140
1.0
102
RTVSPost2010PropOp56
 70
     1
102
RTVSPost2010Prop57
140
1.0
102
RTVSPost2010PropOp57
 70
     1
102
RTVSPropertyOp0
 70
     1
102
RTVSPropertyOp1
 70
     1
102
RTVSPropertyOp2
 70
     1
102
RTVSPropertyOp3
 70
     1
102
RTVSPropertyOp4
 70
     1
102
RTVSPropertyOp5
 70
     1
102
RTVSPropertyOp6
 70
     1
102
RTVSPropertyOp7
 70
     1
102
RTVSPropertyOp8
 70
     1
102
RTVSPropertyOp9
 70
     1
102
RTVSPropertyOp10
 70
     1
102
RTVSPropertyOp11
 70
     1
102
RTVSPropertyOp12
 70
     1
102
RTVSPropertyOp13
 70
     1
102
RTVSPropertyOp14
 70
     1
102
RTVSPropertyOp15
 70
     1
102
RTVSPropertyOp16
 70
     1
102
RTVSPropertyOp17
 70
     1
102
RTVSPropertyOp18
 70
     1
102
RTVSPropertyOp19
 70
     1
102
RTVSPropertyOp20
 70
     1
102
RTVSPropertyOp21
 70
     1
102
RTVSPropertyOp22
 70
     1
102
RTVSPropertyOp23
 70
     1
102
RTVSPropertyOp24
 70
     1
102
RTVSPropertyOp25
 70
     1
102
RTVSPropertyOp26
 70
     1
102
RTVSPropertyOp27
 70
     1
102
RTVSPropertyOp28
 70
     1
102
RTVSPropertyOp29
 70
     1
102
RTVSPropertyOp30
 70
     1
102
RTVSPropertyOp31
 70
     1
102
RTVSPropertyOp32
 70
     1
102
RTVSPropertyOp33
 70
     1
102
RTVSPropertyOp34
 70
     1
102
RTVSPropertyOp35
 70
     1
102
RTVSPropertyOp36
 70
     1
102
RTVSPropertyOp37
 70
     1
102
RTVSPropertyOp38
 70
     1
102
RTVSPropertyOp39
 70
     1
102
RTVSPropertyOp40
 70
     1
102
RTVSPropertyOp41
 70
     1
102
RTVSPropertyOp42
 70
     1
102
RTVSPropertyOp43
 70
     1
102
RTVSPropertyOp44
 70
     1
102
RTVSPropertyOp45
 70
     1
102
RTVSPropertyOp46
 70
     1
102
RTVSPropertyOp47
 70
     1
102
RTVSPropertyOp48
 70
     1
102
RTVSPropertyOp49
 70
     1
102
RTVSPropertyOp50
 70
     1
102
RTVSPropertyOp51
 70
     0
102
RTVSPropertyOp52
 70
     0
102
RTVSPropertyOp53
 70
     1
102
RTVSPropertyOp54
 70
     1
102
RTVSPropertyOp55
 70
     1
102
RTVSPropertyOp56
 70
     1
102
RTVSPropertyOp57
 70
     1
102
RTVSPropertyOp58
 70
     1
102
RTVSPropertyOp59
 70
     1
102
RTVSPropertyOp60
 70
     1
102
RTVSPropertyOp61
 70
     1
102
RTVSPropertyOp62
 70
     1
  0
XRECORD
  5
3D0A
102
{ACAD_REACTORS
330
3D09
102
}
330
3D09
100
AcDbXrecord
280
     1
102
RTVSPost2010Prop28
280
     0
102
RTVSPost2010PropOp28
 70
     1
102
RTVSPost2010Prop29
280
     1
102
RTVSPost2010PropOp29
 70
     1
102
RTVSPost2010Prop30
280
     1
102
RTVSPost2010PropOp30
 70
     1
102
RTVSPost2010Prop31
280
     0
102
RTVSPost2010PropOp31
 70
     1
102
RTVSPost2010Prop32
280
     0
102
RTVSPost2010PropOp32
 70
     1
102
RTVSPost2010Prop33
280
     0
102
RTVSPost2010PropOp33
 70
     1
102
RTVSPost2010Prop34
280
     0
102
RTVSPost2010PropOp34
 70
     1
102
RTVSPost2010Prop35
280
     0
102
RTVSPost2010PropOp35
 70
     1
102
RTVSPost2010Prop36
280
     0
102
RTVSPost2010PropOp36
 70
     1
102
RTVSPost2010Prop37
 90
       50
102
RTVSPost2010PropOp37
 70
     1
102
RTVSPost2010Prop38
140
0.0
102
RTVSPost2010PropOp38
 70
     1
102
RTVSPost2010Prop39
140
1.0
102
RTVSPost2010PropOp39
 70
     1
102
RTVSPost2010Prop40
 90
        0
102
RTVSPost2010PropOp40
 70
     1
102
RTVSPost2010Prop41ColorIndex
 90
       18
102
RTVSPost2010Prop41ColorRGB
 90
        0
102
RTVSPost2010PropOp41
 70
     1
102
RTVSPost2010Prop42
 90
       50
102
RTVSPost2010PropOp42
 70
     1
102
RTVSPost2010Prop43
 90
        3
102
RTVSPost2010PropOp43
 70
     1
102
RTVSPost2010Prop44ColorIndex
 90
        5
102
RTVSPost2010Prop44ColorRGB
 90
      255
102
RTVSPost2010PropOp44
 70
     1
102
RTVSPost2010Prop45
280
     0
102
RTVSPost2010PropOp45
 70
     1
102
RTVSPost2010Prop46
 90
       50
102
RTVSPost2010PropOp46
 70
     1
102
RTVSPost2010Prop47
 90
       50
102
RTVSPost2010PropOp47
 70
     1
102
RTVSPost2010Prop48
 90
       50
102
RTVSPost2010PropOp48
 70
     1
102
RTVSPost2010Prop49
280
     0
102
RTVSPost2010PropOp49
 70
     1
102
RTVSPost2010Prop50
 90
       50
102
RTVSPost2010PropOp50
 70
     1
102
RTVSPost2010Prop51ColorIndex
 90
      256
102
RTVSPost2010Prop51ColorRGB
 90
-16777216
102
RTVSPost2010PropOp51
 70
     0
102
RTVSPost2010Prop52
140
1.0
102
RTVSPost2010PropOp52
 70
     0
102
RTVSPost2010Prop53
 90
        2
102
RTVSPost2010PropOp53
 70
     1
102
RTVSPost2010Prop54
  1
strokes_ogs.tif
102
RTVSPost2010PropOp54
 70
     1
102
RTVSPost2010Prop55
280
     0
102
RTVSPost2010PropOp55
 70
     1
102
RTVSPost2010Prop56
140
1.0
102
RTVSPost2010PropOp56
 70
     1
102
RTVSPost2010Prop57
140
1.0
102
RTVSPost2010PropOp57
 70
     1
102
RTVSPropertyOp0
 70
     1
102
RTVSPropertyOp1
 70
     1
102
RTVSPropertyOp2
 70
     1
102
RTVSPropertyOp3
 70
     1
102
RTVSPropertyOp4
 70
     1
102
RTVSPropertyOp5
 70
     1
102
RTVSPropertyOp6
 70
     1
102
RTVSPropertyOp7
 70
     1
102
RTVSPropertyOp8
 70
     1
102
RTVSPropertyOp9
 70
     1
102
RTVSPropertyOp10
 70
     1
102
RTVSPropertyOp11
 70
     1
102
RTVSPropertyOp12
 70
     1
102
RTVSPropertyOp13
 70
     1
102
RTVSPropertyOp14
 70
     1
102
RTVSPropertyOp15
 70
     1
102
RTVSPropertyOp16
 70
     1
102
RTVSPropertyOp17
 70
     1
102
RTVSPropertyOp18
 70
     1
102
RTVSPropertyOp19
 70
     1
102
RTVSPropertyOp20
 70
     1
102
RTVSPropertyOp21
 70
     1
102
RTVSPropertyOp22
 70
     1
102
RTVSPropertyOp23
 70
     1
102
RTVSPropertyOp24
 70
     1
102
RTVSPropertyOp25
 70
     1
102
RTVSPropertyOp26
 70
     1
102
RTVSPropertyOp27
 70
     1
102
RTVSPropertyOp28
 70
     1
102
RTVSPropertyOp29
 70
     1
102
RTVSPropertyOp30
 70
     1
102
RTVSPropertyOp31
 70
     1
102
RTVSPropertyOp32
 70
     1
102
RTVSPropertyOp33
 70
     1
102
RTVSPropertyOp34
 70
     1
102
RTVSPropertyOp35
 70
     1
102
RTVSPropertyOp36
 70
     1
102
RTVSPropertyOp37
 70
     1
102
RTVSPropertyOp38
 70
     1
102
RTVSPropertyOp39
 70
     1
102
RTVSPropertyOp40
 70
     1
102
RTVSPropertyOp41
 70
     1
102
RTVSPropertyOp42
 70
     1
102
RTVSPropertyOp43
 70
     1
102
RTVSPropertyOp44
 70
     1
102
RTVSPropertyOp45
 70
     1
102
RTVSPropertyOp46
 70
     1
102
RTVSPropertyOp47
 70
     1
102
RTVSPropertyOp48
 70
     1
102
RTVSPropertyOp49
 70
     1
102
RTVSPropertyOp50
 70
     1
102
RTVSPropertyOp51
 70
     0
102
RTVSPropertyOp52
 70
     0
102
RTVSPropertyOp53
 70
     1
102
RTVSPropertyOp54
 70
     1
102
RTVSPropertyOp55
 70
     1
102
RTVSPropertyOp56
 70
     1
102
RTVSPropertyOp57
 70
     1
102
RTVSPropertyOp58
 70
     1
102
RTVSPropertyOp59
 70
     1
102
RTVSPropertyOp60
 70
     1
102
RTVSPropertyOp61
 70
     1
102
RTVSPropertyOp62
 70
     1
  0
XRECORD
  5
3D12
102
{ACAD_REACTORS
330
3D11
102
}
330
3D11
100
AcDbXrecord
280
     1
102
RTVSPost2010Prop28
280
     0
102
RTVSPost2010PropOp28
 70
     1
102
RTVSPost2010Prop29
280
     1
102
RTVSPost2010PropOp29
 70
     1
102
RTVSPost2010Prop30
280
     1
102
RTVSPost2010PropOp30
 70
     1
102
RTVSPost2010Prop31
280
     0
102
RTVSPost2010PropOp31
 70
     1
102
RTVSPost2010Prop32
280
     0
102
RTVSPost2010PropOp32
 70
     1
102
RTVSPost2010Prop33
280
     0
102
RTVSPost2010PropOp33
 70
     1
102
RTVSPost2010Prop34
280
     0
102
RTVSPost2010PropOp34
 70
     1
102
RTVSPost2010Prop35
280
     0
102
RTVSPost2010PropOp35
 70
     1
102
RTVSPost2010Prop36
280
     0
102
RTVSPost2010PropOp36
 70
     1
102
RTVSPost2010Prop37
 90
       50
102
RTVSPost2010PropOp37
 70
     1
102
RTVSPost2010Prop38
140
0.0
102
RTVSPost2010PropOp38
 70
     1
102
RTVSPost2010Prop39
140
1.0
102
RTVSPost2010PropOp39
 70
     1
102
RTVSPost2010Prop40
 90
        0
102
RTVSPost2010PropOp40
 70
     1
102
RTVSPost2010Prop41ColorIndex
 90
       18
102
RTVSPost2010Prop41ColorRGB
 90
        0
102
RTVSPost2010PropOp41
 70
     1
102
RTVSPost2010Prop42
 90
       50
102
RTVSPost2010PropOp42
 70
     1
102
RTVSPost2010Prop43
 90
        3
102
RTVSPost2010PropOp43
 70
     1
102
RTVSPost2010Prop44ColorIndex
 90
        5
102
RTVSPost2010Prop44ColorRGB
 90
      255
102
RTVSPost2010PropOp44
 70
     1
102
RTVSPost2010Prop45
280
     0
102
RTVSPost2010PropOp45
 70
     1
102
RTVSPost2010Prop46
 90
       50
102
RTVSPost2010PropOp46
 70
     1
102
RTVSPost2010Prop47
 90
       50
102
RTVSPost2010PropOp47
 70
     1
102
RTVSPost2010Prop48
 90
       50
102
RTVSPost2010PropOp48
 70
     1
102
RTVSPost2010Prop49
280
     0
102
RTVSPost2010PropOp49
 70
     1
102
RTVSPost2010Prop50
 90
       50
102
RTVSPost2010PropOp50
 70
     1
102
RTVSPost2010Prop51ColorIndex
 90
      256
102
RTVSPost2010Prop51ColorRGB
 90
-16777216
102
RTVSPost2010PropOp51
 70
     0
102
RTVSPost2010Prop52
140
1.0
102
RTVSPost2010PropOp52
 70
     0
102
RTVSPost2010Prop53
 90
        2
102
RTVSPost2010PropOp53
 70
     1
102
RTVSPost2010Prop54
  1
strokes_ogs.tif
102
RTVSPost2010PropOp54
 70
     1
102
RTVSPost2010Prop55
280
     0
102
RTVSPost2010PropOp55
 70
     1
102
RTVSPost2010Prop56
140
1.0
102
RTVSPost2010PropOp56
 70
     1
102
RTVSPost2010Prop57
140
1.0
102
RTVSPost2010PropOp57
 70
     1
102
RTVSPropertyOp0
 70
     1
102
RTVSPropertyOp1
 70
     1
102
RTVSPropertyOp2
 70
     1
102
RTVSPropertyOp3
 70
     1
102
RTVSPropertyOp4
 70
     1
102
RTVSPropertyOp5
 70
     1
102
RTVSPropertyOp6
 70
     1
102
RTVSPropertyOp7
 70
     1
102
RTVSPropertyOp8
 70
     1
102
RTVSPropertyOp9
 70
     1
102
RTVSPropertyOp10
 70
     1
102
RTVSPropertyOp11
 70
     1
102
RTVSPropertyOp12
 70
     1
102
RTVSPropertyOp13
 70
     1
102
RTVSPropertyOp14
 70
     1
102
RTVSPropertyOp15
 70
     1
102
RTVSPropertyOp16
 70
     1
102
RTVSPropertyOp17
 70
     1
102
RTVSPropertyOp18
 70
     1
102
RTVSPropertyOp19
 70
     1
102
RTVSPropertyOp20
 70
     1
102
RTVSPropertyOp21
 70
     1
102
RTVSPropertyOp22
 70
     1
102
RTVSPropertyOp23
 70
     1
102
RTVSPropertyOp24
 70
     1
102
RTVSPropertyOp25
 70
     1
102
RTVSPropertyOp26
 70
     1
102
RTVSPropertyOp27
 70
     1
102
RTVSPropertyOp28
 70
     1
102
RTVSPropertyOp29
 70
     1
102
RTVSPropertyOp30
 70
     1
102
RTVSPropertyOp31
 70
     1
102
RTVSPropertyOp32
 70
     1
102
RTVSPropertyOp33
 70
     1
102
RTVSPropertyOp34
 70
     1
102
RTVSPropertyOp35
 70
     1
102
RTVSPropertyOp36
 70
     1
102
RTVSPropertyOp37
 70
     1
102
RTVSPropertyOp38
 70
     1
102
RTVSPropertyOp39
 70
     1
102
RTVSPropertyOp40
 70
     1
102
RTVSPropertyOp41
 70
     1
102
RTVSPropertyOp42
 70
     1
102
RTVSPropertyOp43
 70
     1
102
RTVSPropertyOp44
 70
     1
102
RTVSPropertyOp45
 70
     1
102
RTVSPropertyOp46
 70
     1
102
RTVSPropertyOp47
 70
     1
102
RTVSPropertyOp48
 70
     1
102
RTVSPropertyOp49
 70
     1
102
RTVSPropertyOp50
 70
     1
102
RTVSPropertyOp51
 70
     0
102
RTVSPropertyOp52
 70
     0
102
RTVSPropertyOp53
 70
     1
102
RTVSPropertyOp54
 70
     1
102
RTVSPropertyOp55
 70
     1
102
RTVSPropertyOp56
 70
     1
102
RTVSPropertyOp57
 70
     1
102
RTVSPropertyOp58
 70
     1
102
RTVSPropertyOp59
 70
     1
102
RTVSPropertyOp60
 70
     1
102
RTVSPropertyOp61
 70
     1
102
RTVSPropertyOp62
 70
     1
  0
XRECORD
  5
3D04
102
{ACAD_REACTORS
330
3D03
102
}
330
3D03
100
AcDbXrecord
280
     1
102
RTVSPost2010Prop28
280
     0
102
RTVSPost2010PropOp28
 70
     1
102
RTVSPost2010Prop29
280
     1
102
RTVSPost2010PropOp29
 70
     1
102
RTVSPost2010Prop30
280
     1
102
RTVSPost2010PropOp30
 70
     1
102
RTVSPost2010Prop31
280
     0
102
RTVSPost2010PropOp31
 70
     1
102
RTVSPost2010Prop32
280
     0
102
RTVSPost2010PropOp32
 70
     1
102
RTVSPost2010Prop33
280
     0
102
RTVSPost2010PropOp33
 70
     1
102
RTVSPost2010Prop34
280
     0
102
RTVSPost2010PropOp34
 70
     1
102
RTVSPost2010Prop35
280
     0
102
RTVSPost2010PropOp35
 70
     1
102
RTVSPost2010Prop36
280
     0
102
RTVSPost2010PropOp36
 70
     1
102
RTVSPost2010Prop37
 90
       50
102
RTVSPost2010PropOp37
 70
     1
102
RTVSPost2010Prop38
140
0.0
102
RTVSPost2010PropOp38
 70
     1
102
RTVSPost2010Prop39
140
1.0
102
RTVSPost2010PropOp39
 70
     1
102
RTVSPost2010Prop40
 90
        0
102
RTVSPost2010PropOp40
 70
     1
102
RTVSPost2010Prop41ColorIndex
 90
       18
102
RTVSPost2010Prop41ColorRGB
 90
        0
102
RTVSPost2010PropOp41
 70
     1
102
RTVSPost2010Prop42
 90
       50
102
RTVSPost2010PropOp42
 70
     1
102
RTVSPost2010Prop43
 90
        3
102
RTVSPost2010PropOp43
 70
     1
102
RTVSPost2010Prop44ColorIndex
 90
        5
102
RTVSPost2010Prop44ColorRGB
 90
      255
102
RTVSPost2010PropOp44
 70
     1
102
RTVSPost2010Prop45
280
     0
102
RTVSPost2010PropOp45
 70
     1
102
RTVSPost2010Prop46
 90
       50
102
RTVSPost2010PropOp46
 70
     1
102
RTVSPost2010Prop47
 90
       50
102
RTVSPost2010PropOp47
 70
     1
102
RTVSPost2010Prop48
 90
       50
102
RTVSPost2010PropOp48
 70
     1
102
RTVSPost2010Prop49
280
     0
102
RTVSPost2010PropOp49
 70
     1
102
RTVSPost2010Prop50
 90
       50
102
RTVSPost2010PropOp50
 70
     1
102
RTVSPost2010Prop51ColorIndex
 90
      256
102
RTVSPost2010Prop51ColorRGB
 90
-16777216
102
RTVSPost2010PropOp51
 70
     0
102
RTVSPost2010Prop52
140
1.0
102
RTVSPost2010PropOp52
 70
     0
102
RTVSPost2010Prop53
 90
        2
102
RTVSPost2010PropOp53
 70
     1
102
RTVSPost2010Prop54
  1
strokes_ogs.tif
102
RTVSPost2010PropOp54
 70
     1
102
RTVSPost2010Prop55
280
     0
102
RTVSPost2010PropOp55
 70
     1
102
RTVSPost2010Prop56
140
1.0
102
RTVSPost2010PropOp56
 70
     1
102
RTVSPost2010Prop57
140
1.0
102
RTVSPost2010PropOp57
 70
     1
102
RTVSPropertyOp0
 70
     1
102
RTVSPropertyOp1
 70
     1
102
RTVSPropertyOp2
 70
     1
102
RTVSPropertyOp3
 70
     1
102
RTVSPropertyOp4
 70
     1
102
RTVSPropertyOp5
 70
     1
102
RTVSPropertyOp6
 70
     1
102
RTVSPropertyOp7
 70
     1
102
RTVSPropertyOp8
 70
     1
102
RTVSPropertyOp9
 70
     1
102
RTVSPropertyOp10
 70
     1
102
RTVSPropertyOp11
 70
     1
102
RTVSPropertyOp12
 70
     1
102
RTVSPropertyOp13
 70
     1
102
RTVSPropertyOp14
 70
     1
102
RTVSPropertyOp15
 70
     1
102
RTVSPropertyOp16
 70
     1
102
RTVSPropertyOp17
 70
     1
102
RTVSPropertyOp18
 70
     1
102
RTVSPropertyOp19
 70
     1
102
RTVSPropertyOp20
 70
     1
102
RTVSPropertyOp21
 70
     1
102
RTVSPropertyOp22
 70
     1
102
RTVSPropertyOp23
 70
     1
102
RTVSPropertyOp24
 70
     1
102
RTVSPropertyOp25
 70
     1
102
RTVSPropertyOp26
 70
     1
102
RTVSPropertyOp27
 70
     1
102
RTVSPropertyOp28
 70
     1
102
RTVSPropertyOp29
 70
     1
102
RTVSPropertyOp30
 70
     1
102
RTVSPropertyOp31
 70
     1
102
RTVSPropertyOp32
 70
     1
102
RTVSPropertyOp33
 70
     1
102
RTVSPropertyOp34
 70
     1
102
RTVSPropertyOp35
 70
     1
102
RTVSPropertyOp36
 70
     1
102
RTVSPropertyOp37
 70
     1
102
RTVSPropertyOp38
 70
     1
102
RTVSPropertyOp39
 70
     1
102
RTVSPropertyOp40
 70
     1
102
RTVSPropertyOp41
 70
     1
102
RTVSPropertyOp42
 70
     1
102
RTVSPropertyOp43
 70
     1
102
RTVSPropertyOp44
 70
     1
102
RTVSPropertyOp45
 70
     1
102
RTVSPropertyOp46
 70
     1
102
RTVSPropertyOp47
 70
     1
102
RTVSPropertyOp48
 70
     1
102
RTVSPropertyOp49
 70
     1
102
RTVSPropertyOp50
 70
     1
102
RTVSPropertyOp51
 70
     0
102
RTVSPropertyOp52
 70
     0
102
RTVSPropertyOp53
 70
     1
102
RTVSPropertyOp54
 70
     1
102
RTVSPropertyOp55
 70
     1
102
RTVSPropertyOp56
 70
     1
102
RTVSPropertyOp57
 70
     1
102
RTVSPropertyOp58
 70
     1
102
RTVSPropertyOp59
 70
     1
102
RTVSPropertyOp60
 70
     1
102
RTVSPropertyOp61
 70
     1
102
RTVSPropertyOp62
 70
     1
  0
XRECORD
  5
3D08
102
{ACAD_REACTORS
330
3D07
102
}
330
3D07
100
AcDbXrecord
280
     1
102
RTVSPost2010Prop28
280
     0
102
RTVSPost2010PropOp28
 70
     1
102
RTVSPost2010Prop29
280
     1
102
RTVSPost2010PropOp29
 70
     1
102
RTVSPost2010Prop30
280
     1
102
RTVSPost2010PropOp30
 70
     1
102
RTVSPost2010Prop31
280
     0
102
RTVSPost2010PropOp31
 70
     1
102
RTVSPost2010Prop32
280
     0
102
RTVSPost2010PropOp32
 70
     1
102
RTVSPost2010Prop33
280
     0
102
RTVSPost2010PropOp33
 70
     1
102
RTVSPost2010Prop34
280
     0
102
RTVSPost2010PropOp34
 70
     1
102
RTVSPost2010Prop35
280
     0
102
RTVSPost2010PropOp35
 70
     1
102
RTVSPost2010Prop36
280
     0
102
RTVSPost2010PropOp36
 70
     1
102
RTVSPost2010Prop37
 90
       50
102
RTVSPost2010PropOp37
 70
     1
102
RTVSPost2010Prop38
140
0.0
102
RTVSPost2010PropOp38
 70
     1
102
RTVSPost2010Prop39
140
1.0
102
RTVSPost2010PropOp39
 70
     1
102
RTVSPost2010Prop40
 90
        0
102
RTVSPost2010PropOp40
 70
     1
102
RTVSPost2010Prop41ColorIndex
 90
       18
102
RTVSPost2010Prop41ColorRGB
 90
        0
102
RTVSPost2010PropOp41
 70
     1
102
RTVSPost2010Prop42
 90
       50
102
RTVSPost2010PropOp42
 70
     1
102
RTVSPost2010Prop43
 90
        3
102
RTVSPost2010PropOp43
 70
     1
102
RTVSPost2010Prop44ColorIndex
 90
        5
102
RTVSPost2010Prop44ColorRGB
 90
      255
102
RTVSPost2010PropOp44
 70
     1
102
RTVSPost2010Prop45
280
     0
102
RTVSPost2010PropOp45
 70
     1
102
RTVSPost2010Prop46
 90
       50
102
RTVSPost2010PropOp46
 70
     1
102
RTVSPost2010Prop47
 90
       50
102
RTVSPost2010PropOp47
 70
     1
102
RTVSPost2010Prop48
 90
       50
102
RTVSPost2010PropOp48
 70
     1
102
RTVSPost2010Prop49
280
     0
102
RTVSPost2010PropOp49
 70
     1
102
RTVSPost2010Prop50
 90
       50
102
RTVSPost2010PropOp50
 70
     1
102
RTVSPost2010Prop51ColorIndex
 90
      256
102
RTVSPost2010Prop51ColorRGB
 90
-16777216
102
RTVSPost2010PropOp51
 70
     0
102
RTVSPost2010Prop52
140
1.0
102
RTVSPost2010PropOp52
 70
     0
102
RTVSPost2010Prop53
 90
        2
102
RTVSPost2010PropOp53
 70
     1
102
RTVSPost2010Prop54
  1
strokes_ogs.tif
102
RTVSPost2010PropOp54
 70
     1
102
RTVSPost2010Prop55
280
     0
102
RTVSPost2010PropOp55
 70
     1
102
RTVSPost2010Prop56
140
1.0
102
RTVSPost2010PropOp56
 70
     1
102
RTVSPost2010Prop57
140
1.0
102
RTVSPost2010PropOp57
 70
     1
102
RTVSPropertyOp0
 70
     1
102
RTVSPropertyOp1
 70
     1
102
RTVSPropertyOp2
 70
     1
102
RTVSPropertyOp3
 70
     1
102
RTVSPropertyOp4
 70
     1
102
RTVSPropertyOp5
 70
     1
102
RTVSPropertyOp6
 70
     1
102
RTVSPropertyOp7
 70
     1
102
RTVSPropertyOp8
 70
     1
102
RTVSPropertyOp9
 70
     1
102
RTVSPropertyOp10
 70
     1
102
RTVSPropertyOp11
 70
     1
102
RTVSPropertyOp12
 70
     1
102
RTVSPropertyOp13
 70
     1
102
RTVSPropertyOp14
 70
     1
102
RTVSPropertyOp15
 70
     1
102
RTVSPropertyOp16
 70
     1
102
RTVSPropertyOp17
 70
     1
102
RTVSPropertyOp18
 70
     1
102
RTVSPropertyOp19
 70
     1
102
RTVSPropertyOp20
 70
     1
102
RTVSPropertyOp21
 70
     1
102
RTVSPropertyOp22
 70
     1
102
RTVSPropertyOp23
 70
     1
102
RTVSPropertyOp24
 70
     1
102
RTVSPropertyOp25
 70
     1
102
RTVSPropertyOp26
 70
     1
102
RTVSPropertyOp27
 70
     1
102
RTVSPropertyOp28
 70
     1
102
RTVSPropertyOp29
 70
     1
102
RTVSPropertyOp30
 70
     1
102
RTVSPropertyOp31
 70
     1
102
RTVSPropertyOp32
 70
     1
102
RTVSPropertyOp33
 70
     1
102
RTVSPropertyOp34
 70
     1
102
RTVSPropertyOp35
 70
     1
102
RTVSPropertyOp36
 70
     1
102
RTVSPropertyOp37
 70
     1
102
RTVSPropertyOp38
 70
     1
102
RTVSPropertyOp39
 70
     1
102
RTVSPropertyOp40
 70
     1
102
RTVSPropertyOp41
 70
     1
102
RTVSPropertyOp42
 70
     1
102
RTVSPropertyOp43
 70
     1
102
RTVSPropertyOp44
 70
     1
102
RTVSPropertyOp45
 70
     1
102
RTVSPropertyOp46
 70
     1
102
RTVSPropertyOp47
 70
     1
102
RTVSPropertyOp48
 70
     1
102
RTVSPropertyOp49
 70
     1
102
RTVSPropertyOp50
 70
     1
102
RTVSPropertyOp51
 70
     0
102
RTVSPropertyOp52
 70
     0
102
RTVSPropertyOp53
 70
     1
102
RTVSPropertyOp54
 70
     1
102
RTVSPropertyOp55
 70
     1
102
RTVSPropertyOp56
 70
     1
102
RTVSPropertyOp57
 70
     1
102
RTVSPropertyOp58
 70
     1
102
RTVSPropertyOp59
 70
     1
102
RTVSPropertyOp60
 70
     1
102
RTVSPropertyOp61
 70
     1
102
RTVSPropertyOp62
 70
     1
  0
XRECORD
  5
3D18
102
{ACAD_REACTORS
330
3D17
102
}
330
3D17
100
AcDbXrecord
280
     1
102
RTVSPost2010Prop28
280
     0
102
RTVSPost2010PropOp28
 70
     1
102
RTVSPost2010Prop29
280
     1
102
RTVSPost2010PropOp29
 70
     1
102
RTVSPost2010Prop30
280
     1
102
RTVSPost2010PropOp30
 70
     1
102
RTVSPost2010Prop31
280
     0
102
RTVSPost2010PropOp31
 70
     1
102
RTVSPost2010Prop32
280
     0
102
RTVSPost2010PropOp32
 70
     1
102
RTVSPost2010Prop33
280
     0
102
RTVSPost2010PropOp33
 70
     1
102
RTVSPost2010Prop34
280
     0
102
RTVSPost2010PropOp34
 70
     1
102
RTVSPost2010Prop35
280
     0
102
RTVSPost2010PropOp35
 70
     1
102
RTVSPost2010Prop36
280
     0
102
RTVSPost2010PropOp36
 70
     1
102
RTVSPost2010Prop37
 90
       50
102
RTVSPost2010PropOp37
 70
     1
102
RTVSPost2010Prop38
140
0.0
102
RTVSPost2010PropOp38
 70
     1
102
RTVSPost2010Prop39
140
1.0
102
RTVSPost2010PropOp39
 70
     1
102
RTVSPost2010Prop40
 90
        0
102
RTVSPost2010PropOp40
 70
     1
102
RTVSPost2010Prop41ColorIndex
 90
       18
102
RTVSPost2010Prop41ColorRGB
 90
        0
102
RTVSPost2010PropOp41
 70
     1
102
RTVSPost2010Prop42
 90
       50
102
RTVSPost2010PropOp42
 70
     1
102
RTVSPost2010Prop43
 90
        3
102
RTVSPost2010PropOp43
 70
     1
102
RTVSPost2010Prop44ColorIndex
 90
        5
102
RTVSPost2010Prop44ColorRGB
 90
      255
102
RTVSPost2010PropOp44
 70
     1
102
RTVSPost2010Prop45
280
     0
102
RTVSPost2010PropOp45
 70
     1
102
RTVSPost2010Prop46
 90
       50
102
RTVSPost2010PropOp46
 70
     1
102
RTVSPost2010Prop47
 90
       50
102
RTVSPost2010PropOp47
 70
     1
102
RTVSPost2010Prop48
 90
       50
102
RTVSPost2010PropOp48
 70
     1
102
RTVSPost2010Prop49
280
     0
102
RTVSPost2010PropOp49
 70
     1
102
RTVSPost2010Prop50
 90
       50
102
RTVSPost2010PropOp50
 70
     1
102
RTVSPost2010Prop51ColorIndex
 90
      256
102
RTVSPost2010Prop51ColorRGB
 90
-16777216
102
RTVSPost2010PropOp51
 70
     0
102
RTVSPost2010Prop52
140
1.0
102
RTVSPost2010PropOp52
 70
     0
102
RTVSPost2010Prop53
 90
        2
102
RTVSPost2010PropOp53
 70
     1
102
RTVSPost2010Prop54
  1
strokes_ogs.tif
102
RTVSPost2010PropOp54
 70
     1
102
RTVSPost2010Prop55
280
     0
102
RTVSPost2010PropOp55
 70
     1
102
RTVSPost2010Prop56
140
1.0
102
RTVSPost2010PropOp56
 70
     1
102
RTVSPost2010Prop57
140
1.0
102
RTVSPost2010PropOp57
 70
     1
102
RTVSPropertyOp0
 70
     0
102
RTVSPropertyOp1
 70
     0
102
RTVSPropertyOp2
 70
     0
102
RTVSPropertyOp3
 70
     0
102
RTVSPropertyOp4
 70
     0
102
RTVSPropertyOp5
 70
     0
102
RTVSPropertyOp6
 70
     0
102
RTVSPropertyOp7
 70
     0
102
RTVSPropertyOp8
 70
     0
102
RTVSPropertyOp9
 70
     0
102
RTVSPropertyOp10
 70
     0
102
RTVSPropertyOp11
 70
     0
102
RTVSPropertyOp12
 70
     0
102
RTVSPropertyOp13
 70
     0
102
RTVSPropertyOp14
 70
     2
102
RTVSPropertyOp15
 70
     0
102
RTVSPropertyOp16
 70
     0
102
RTVSPropertyOp17
 70
     0
102
RTVSPropertyOp18
 70
     0
102
RTVSPropertyOp19
 70
     0
102
RTVSPropertyOp20
 70
     0
102
RTVSPropertyOp21
 70
     0
102
RTVSPropertyOp22
 70
     0
102
RTVSPropertyOp23
 70
     0
102
RTVSPropertyOp24
 70
     0
102
RTVSPropertyOp25
 70
     0
102
RTVSPropertyOp26
 70
     0
102
RTVSPropertyOp27
 70
     0
102
RTVSPropertyOp28
 70
     1
102
RTVSPropertyOp29
 70
     1
102
RTVSPropertyOp30
 70
     1
102
RTVSPropertyOp31
 70
     1
102
RTVSPropertyOp32
 70
     1
102
RTVSPropertyOp33
 70
     1
102
RTVSPropertyOp34
 70
     1
102
RTVSPropertyOp35
 70
     1
102
RTVSPropertyOp36
 70
     1
102
RTVSPropertyOp37
 70
     1
102
RTVSPropertyOp38
 70
     1
102
RTVSPropertyOp39
 70
     1
102
RTVSPropertyOp40
 70
     1
102
RTVSPropertyOp41
 70
     1
102
RTVSPropertyOp42
 70
     1
102
RTVSPropertyOp43
 70
     1
102
RTVSPropertyOp44
 70
     1
102
RTVSPropertyOp45
 70
     1
102
RTVSPropertyOp46
 70
     1
102
RTVSPropertyOp47
 70
     1
102
RTVSPropertyOp48
 70
     1
102
RTVSPropertyOp49
 70
     1
102
RTVSPropertyOp50
 70
     1
102
RTVSPropertyOp51
 70
     0
102
RTVSPropertyOp52
 70
     0
102
RTVSPropertyOp53
 70
     1
102
RTVSPropertyOp54
 70
     1
102
RTVSPropertyOp55
 70
     1
102
RTVSPropertyOp56
 70
     1
102
RTVSPropertyOp57
 70
     1
102
RTVSPropertyOp58
 70
     1
102
RTVSPropertyOp59
 70
     1
102
RTVSPropertyOp60
 70
     1
102
RTVSPropertyOp61
 70
     1
102
RTVSPropertyOp62
 70
     1
  0
XRECORD
  5
3D10
102
{ACAD_REACTORS
330
3D0F
102
}
330
3D0F
100
AcDbXrecord
280
     1
102
RTVSPost2010Prop28
280
     0
102
RTVSPost2010PropOp28
 70
     1
102
RTVSPost2010Prop29
280
     1
102
RTVSPost2010PropOp29
 70
     1
102
RTVSPost2010Prop30
280
     1
102
RTVSPost2010PropOp30
 70
     1
102
RTVSPost2010Prop31
280
     0
102
RTVSPost2010PropOp31
 70
     1
102
RTVSPost2010Prop32
280
     0
102
RTVSPost2010PropOp32
 70
     1
102
RTVSPost2010Prop33
280
     0
102
RTVSPost2010PropOp33
 70
     1
102
RTVSPost2010Prop34
280
     0
102
RTVSPost2010PropOp34
 70
     1
102
RTVSPost2010Prop35
280
     0
102
RTVSPost2010PropOp35
 70
     1
102
RTVSPost2010Prop36
280
     0
102
RTVSPost2010PropOp36
 70
     1
102
RTVSPost2010Prop37
 90
       50
102
RTVSPost2010PropOp37
 70
     1
102
RTVSPost2010Prop38
140
0.0
102
RTVSPost2010PropOp38
 70
     1
102
RTVSPost2010Prop39
140
1.0
102
RTVSPost2010PropOp39
 70
     1
102
RTVSPost2010Prop40
 90
        0
102
RTVSPost2010PropOp40
 70
     1
102
RTVSPost2010Prop41ColorIndex
 90
       18
102
RTVSPost2010Prop41ColorRGB
 90
        0
102
RTVSPost2010PropOp41
 70
     1
102
RTVSPost2010Prop42
 90
       50
102
RTVSPost2010PropOp42
 70
     1
102
RTVSPost2010Prop43
 90
        3
102
RTVSPost2010PropOp43
 70
     1
102
RTVSPost2010Prop44ColorIndex
 90
        5
102
RTVSPost2010Prop44ColorRGB
 90
      255
102
RTVSPost2010PropOp44
 70
     1
102
RTVSPost2010Prop45
280
     0
102
RTVSPost2010PropOp45
 70
     1
102
RTVSPost2010Prop46
 90
       50
102
RTVSPost2010PropOp46
 70
     1
102
RTVSPost2010Prop47
 90
       50
102
RTVSPost2010PropOp47
 70
     1
102
RTVSPost2010Prop48
 90
       50
102
RTVSPost2010PropOp48
 70
     1
102
RTVSPost2010Prop49
280
     0
102
RTVSPost2010PropOp49
 70
     1
102
RTVSPost2010Prop50
 90
       50
102
RTVSPost2010PropOp50
 70
     1
102
RTVSPost2010Prop51ColorIndex
 90
      256
102
RTVSPost2010Prop51ColorRGB
 90
-16777216
102
RTVSPost2010PropOp51
 70
     0
102
RTVSPost2010Prop52
140
1.0
102
RTVSPost2010PropOp52
 70
     0
102
RTVSPost2010Prop53
 90
        2
102
RTVSPost2010PropOp53
 70
     1
102
RTVSPost2010Prop54
  1
strokes_ogs.tif
102
RTVSPost2010PropOp54
 70
     1
102
RTVSPost2010Prop55
280
     0
102
RTVSPost2010PropOp55
 70
     1
102
RTVSPost2010Prop56
140
1.0
102
RTVSPost2010PropOp56
 70
     1
102
RTVSPost2010Prop57
140
1.0
102
RTVSPost2010PropOp57
 70
     1
102
RTVSPropertyOp0
 70
     1
102
RTVSPropertyOp1
 70
     1
102
RTVSPropertyOp2
 70
     1
102
RTVSPropertyOp3
 70
     1
102
RTVSPropertyOp4
 70
     1
102
RTVSPropertyOp5
 70
     1
102
RTVSPropertyOp6
 70
     1
102
RTVSPropertyOp7
 70
     1
102
RTVSPropertyOp8
 70
     1
102
RTVSPropertyOp9
 70
     1
102
RTVSPropertyOp10
 70
     1
102
RTVSPropertyOp11
 70
     1
102
RTVSPropertyOp12
 70
     1
102
RTVSPropertyOp13
 70
     1
102
RTVSPropertyOp14
 70
     1
102
RTVSPropertyOp15
 70
     1
102
RTVSPropertyOp16
 70
     1
102
RTVSPropertyOp17
 70
     1
102
RTVSPropertyOp18
 70
     1
102
RTVSPropertyOp19
 70
     1
102
RTVSPropertyOp20
 70
     1
102
RTVSPropertyOp21
 70
     1
102
RTVSPropertyOp22
 70
     1
102
RTVSPropertyOp23
 70
     1
102
RTVSPropertyOp24
 70
     1
102
RTVSPropertyOp25
 70
     1
102
RTVSPropertyOp26
 70
     1
102
RTVSPropertyOp27
 70
     1
102
RTVSPropertyOp28
 70
     1
102
RTVSPropertyOp29
 70
     1
102
RTVSPropertyOp30
 70
     1
102
RTVSPropertyOp31
 70
     1
102
RTVSPropertyOp32
 70
     1
102
RTVSPropertyOp33
 70
     1
102
RTVSPropertyOp34
 70
     1
102
RTVSPropertyOp35
 70
     1
102
RTVSPropertyOp36
 70
     1
102
RTVSPropertyOp37
 70
     1
102
RTVSPropertyOp38
 70
     1
102
RTVSPropertyOp39
 70
     1
102
RTVSPropertyOp40
 70
     1
102
RTVSPropertyOp41
 70
     1
102
RTVSPropertyOp42
 70
     1
102
RTVSPropertyOp43
 70
     1
102
RTVSPropertyOp44
 70
     1
102
RTVSPropertyOp45
 70
     1
102
RTVSPropertyOp46
 70
     1
102
RTVSPropertyOp47
 70
     1
102
RTVSPropertyOp48
 70
     1
102
RTVSPropertyOp49
 70
     1
102
RTVSPropertyOp50
 70
     1
102
RTVSPropertyOp51
 70
     0
102
RTVSPropertyOp52
 70
     0
102
RTVSPropertyOp53
 70
     1
102
RTVSPropertyOp54
 70
     1
102
RTVSPropertyOp55
 70
     1
102
RTVSPropertyOp56
 70
     1
102
RTVSPropertyOp57
 70
     1
102
RTVSPropertyOp58
 70
     1
102
RTVSPropertyOp59
 70
     1
102
RTVSPropertyOp60
 70
     1
102
RTVSPropertyOp61
 70
     1
102
RTVSPropertyOp62
 70
     1
  0
XRECORD
  5
3CF4
102
{ACAD_REACTORS
330
3CF3
102
}
330
3CF3
100
AcDbXrecord
280
     1
102
RTVSPost2010Prop28
280
     0
102
RTVSPost2010PropOp28
 70
     1
102
RTVSPost2010Prop29
280
     1
102
RTVSPost2010PropOp29
 70
     1
102
RTVSPost2010Prop30
280
     1
102
RTVSPost2010PropOp30
 70
     1
102
RTVSPost2010Prop31
280
     0
102
RTVSPost2010PropOp31
 70
     1
102
RTVSPost2010Prop32
280
     0
102
RTVSPost2010PropOp32
 70
     1
102
RTVSPost2010Prop33
280
     0
102
RTVSPost2010PropOp33
 70
     1
102
RTVSPost2010Prop34
280
     0
102
RTVSPost2010PropOp34
 70
     1
102
RTVSPost2010Prop35
280
     0
102
RTVSPost2010PropOp35
 70
     1
102
RTVSPost2010Prop36
280
     0
102
RTVSPost2010PropOp36
 70
     1
102
RTVSPost2010Prop37
 90
       50
102
RTVSPost2010PropOp37
 70
     1
102
RTVSPost2010Prop38
140
0.0
102
RTVSPost2010PropOp38
 70
     1
102
RTVSPost2010Prop39
140
1.0
102
RTVSPost2010PropOp39
 70
     1
102
RTVSPost2010Prop40
 90
        0
102
RTVSPost2010PropOp40
 70
     1
102
RTVSPost2010Prop41ColorIndex
 90
       18
102
RTVSPost2010Prop41ColorRGB
 90
        0
102
RTVSPost2010PropOp41
 70
     1
102
RTVSPost2010Prop42
 90
       50
102
RTVSPost2010PropOp42
 70
     1
102
RTVSPost2010Prop43
 90
        3
102
RTVSPost2010PropOp43
 70
     1
102
RTVSPost2010Prop44ColorIndex
 90
        5
102
RTVSPost2010Prop44ColorRGB
 90
      255
102
RTVSPost2010PropOp44
 70
     1
102
RTVSPost2010Prop45
280
     0
102
RTVSPost2010PropOp45
 70
     1
102
RTVSPost2010Prop46
 90
       50
102
RTVSPost2010PropOp46
 70
     1
102
RTVSPost2010Prop47
 90
       50
102
RTVSPost2010PropOp47
 70
     1
102
RTVSPost2010Prop48
 90
       50
102
RTVSPost2010PropOp48
 70
     1
102
RTVSPost2010Prop49
280
     0
102
RTVSPost2010PropOp49
 70
     1
102
RTVSPost2010Prop50
 90
       50
102
RTVSPost2010PropOp50
 70
     1
102
RTVSPost2010Prop51ColorIndex
 90
      256
102
RTVSPost2010Prop51ColorRGB
 90
-16777216
102
RTVSPost2010PropOp51
 70
     0
102
RTVSPost2010Prop52
140
1.0
102
RTVSPost2010PropOp52
 70
     0
102
RTVSPost2010Prop53
 90
        2
102
RTVSPost2010PropOp53
 70
     1
102
RTVSPost2010Prop54
  1
strokes_ogs.tif
102
RTVSPost2010PropOp54
 70
     1
102
RTVSPost2010Prop55
280
     0
102
RTVSPost2010PropOp55
 70
     1
102
RTVSPost2010Prop56
140
1.0
102
RTVSPost2010PropOp56
 70
     1
102
RTVSPost2010Prop57
140
1.0
102
RTVSPost2010PropOp57
 70
     1
102
RTVSPropertyOp0
 70
     1
102
RTVSPropertyOp1
 70
     1
102
RTVSPropertyOp2
 70
     1
102
RTVSPropertyOp3
 70
     1
102
RTVSPropertyOp4
 70
     1
102
RTVSPropertyOp5
 70
     1
102
RTVSPropertyOp6
 70
     1
102
RTVSPropertyOp7
 70
     1
102
RTVSPropertyOp8
 70
     1
102
RTVSPropertyOp9
 70
     1
102
RTVSPropertyOp10
 70
     1
102
RTVSPropertyOp11
 70
     1
102
RTVSPropertyOp12
 70
     1
102
RTVSPropertyOp13
 70
     1
102
RTVSPropertyOp14
 70
     1
102
RTVSPropertyOp15
 70
     1
102
RTVSPropertyOp16
 70
     1
102
RTVSPropertyOp17
 70
     1
102
RTVSPropertyOp18
 70
     1
102
RTVSPropertyOp19
 70
     1
102
RTVSPropertyOp20
 70
     1
102
RTVSPropertyOp21
 70
     1
102
RTVSPropertyOp22
 70
     1
102
RTVSPropertyOp23
 70
     1
102
RTVSPropertyOp24
 70
     1
102
RTVSPropertyOp25
 70
     1
102
RTVSPropertyOp26
 70
     1
102
RTVSPropertyOp27
 70
     1
102
RTVSPropertyOp28
 70
     1
102
RTVSPropertyOp29
 70
     1
102
RTVSPropertyOp30
 70
     1
102
RTVSPropertyOp31
 70
     1
102
RTVSPropertyOp32
 70
     1
102
RTVSPropertyOp33
 70
     1
102
RTVSPropertyOp34
 70
     1
102
RTVSPropertyOp35
 70
     1
102
RTVSPropertyOp36
 70
     1
102
RTVSPropertyOp37
 70
     1
102
RTVSPropertyOp38
 70
     1
102
RTVSPropertyOp39
 70
     1
102
RTVSPropertyOp40
 70
     1
102
RTVSPropertyOp41
 70
     1
102
RTVSPropertyOp42
 70
     1
102
RTVSPropertyOp43
 70
     1
102
RTVSPropertyOp44
 70
     1
102
RTVSPropertyOp45
 70
     1
102
RTVSPropertyOp46
 70
     1
102
RTVSPropertyOp47
 70
     1
102
RTVSPropertyOp48
 70
     1
102
RTVSPropertyOp49
 70
     1
102
RTVSPropertyOp50
 70
     1
102
RTVSPropertyOp51
 70
     0
102
RTVSPropertyOp52
 70
     0
102
RTVSPropertyOp53
 70
     1
102
RTVSPropertyOp54
 70
     1
102
RTVSPropertyOp55
 70
     1
102
RTVSPropertyOp56
 70
     1
102
RTVSPropertyOp57
 70
     1
102
RTVSPropertyOp58
 70
     1
102
RTVSPropertyOp59
 70
     1
102
RTVSPropertyOp60
 70
     1
102
RTVSPropertyOp61
 70
     1
102
RTVSPropertyOp62
 70
     1
  0
XRECORD
  5
3CF6
102
{ACAD_REACTORS
330
3CF5
102
}
330
3CF5
100
AcDbXrecord
280
     1
102
RTVSPost2010Prop28
280
     0
102
RTVSPost2010PropOp28
 70
     1
102
RTVSPost2010Prop29
280
     1
102
RTVSPost2010PropOp29
 70
     1
102
RTVSPost2010Prop30
280
     1
102
RTVSPost2010PropOp30
 70
     1
102
RTVSPost2010Prop31
280
     0
102
RTVSPost2010PropOp31
 70
     1
102
RTVSPost2010Prop32
280
     0
102
RTVSPost2010PropOp32
 70
     1
102
RTVSPost2010Prop33
280
     0
102
RTVSPost2010PropOp33
 70
     1
102
RTVSPost2010Prop34
280
     0
102
RTVSPost2010PropOp34
 70
     1
102
RTVSPost2010Prop35
280
     0
102
RTVSPost2010PropOp35
 70
     1
102
RTVSPost2010Prop36
280
     0
102
RTVSPost2010PropOp36
 70
     1
102
RTVSPost2010Prop37
 90
       50
102
RTVSPost2010PropOp37
 70
     1
102
RTVSPost2010Prop38
140
0.0
102
RTVSPost2010PropOp38
 70
     1
102
RTVSPost2010Prop39
140
1.0
102
RTVSPost2010PropOp39
 70
     1
102
RTVSPost2010Prop40
 90
        0
102
RTVSPost2010PropOp40
 70
     1
102
RTVSPost2010Prop41ColorIndex
 90
       18
102
RTVSPost2010Prop41ColorRGB
 90
        0
102
RTVSPost2010PropOp41
 70
     1
102
RTVSPost2010Prop42
 90
       50
102
RTVSPost2010PropOp42
 70
     1
102
RTVSPost2010Prop43
 90
        3
102
RTVSPost2010PropOp43
 70
     1
102
RTVSPost2010Prop44ColorIndex
 90
        5
102
RTVSPost2010Prop44ColorRGB
 90
      255
102
RTVSPost2010PropOp44
 70
     1
102
RTVSPost2010Prop45
280
     0
102
RTVSPost2010PropOp45
 70
     1
102
RTVSPost2010Prop46
 90
       50
102
RTVSPost2010PropOp46
 70
     1
102
RTVSPost2010Prop47
 90
       50
102
RTVSPost2010PropOp47
 70
     1
102
RTVSPost2010Prop48
 90
       50
102
RTVSPost2010PropOp48
 70
     1
102
RTVSPost2010Prop49
280
     0
102
RTVSPost2010PropOp49
 70
     1
102
RTVSPost2010Prop50
 90
       50
102
RTVSPost2010PropOp50
 70
     1
102
RTVSPost2010Prop51ColorIndex
 90
      256
102
RTVSPost2010Prop51ColorRGB
 90
-16777216
102
RTVSPost2010PropOp51
 70
     0
102
RTVSPost2010Prop52
140
1.0
102
RTVSPost2010PropOp52
 70
     0
102
RTVSPost2010Prop53
 90
        2
102
RTVSPost2010PropOp53
 70
     1
102
RTVSPost2010Prop54
  1
strokes_ogs.tif
102
RTVSPost2010PropOp54
 70
     1
102
RTVSPost2010Prop55
280
     0
102
RTVSPost2010PropOp55
 70
     1
102
RTVSPost2010Prop56
140
1.0
102
RTVSPost2010PropOp56
 70
     1
102
RTVSPost2010Prop57
140
1.0
102
RTVSPost2010PropOp57
 70
     1
102
RTVSPropertyOp0
 70
     1
102
RTVSPropertyOp1
 70
     1
102
RTVSPropertyOp2
 70
     1
102
RTVSPropertyOp3
 70
     1
102
RTVSPropertyOp4
 70
     1
102
RTVSPropertyOp5
 70
     1
102
RTVSPropertyOp6
 70
     1
102
RTVSPropertyOp7
 70
     1
102
RTVSPropertyOp8
 70
     1
102
RTVSPropertyOp9
 70
     1
102
RTVSPropertyOp10
 70
     1
102
RTVSPropertyOp11
 70
     1
102
RTVSPropertyOp12
 70
     1
102
RTVSPropertyOp13
 70
     1
102
RTVSPropertyOp14
 70
     1
102
RTVSPropertyOp15
 70
     1
102
RTVSPropertyOp16
 70
     1
102
RTVSPropertyOp17
 70
     1
102
RTVSPropertyOp18
 70
     1
102
RTVSPropertyOp19
 70
     1
102
RTVSPropertyOp20
 70
     1
102
RTVSPropertyOp21
 70
     1
102
RTVSPropertyOp22
 70
     1
102
RTVSPropertyOp23
 70
     1
102
RTVSPropertyOp24
 70
     1
102
RTVSPropertyOp25
 70
     1
102
RTVSPropertyOp26
 70
     1
102
RTVSPropertyOp27
 70
     1
102
RTVSPropertyOp28
 70
     1
102
RTVSPropertyOp29
 70
     1
102
RTVSPropertyOp30
 70
     1
102
RTVSPropertyOp31
 70
     1
102
RTVSPropertyOp32
 70
     1
102
RTVSPropertyOp33
 70
     1
102
RTVSPropertyOp34
 70
     1
102
RTVSPropertyOp35
 70
     1
102
RTVSPropertyOp36
 70
     1
102
RTVSPropertyOp37
 70
     1
102
RTVSPropertyOp38
 70
     1
102
RTVSPropertyOp39
 70
     1
102
RTVSPropertyOp40
 70
     1
102
RTVSPropertyOp41
 70
     1
102
RTVSPropertyOp42
 70
     1
102
RTVSPropertyOp43
 70
     1
102
RTVSPropertyOp44
 70
     1
102
RTVSPropertyOp45
 70
     1
102
RTVSPropertyOp46
 70
     1
102
RTVSPropertyOp47
 70
     1
102
RTVSPropertyOp48
 70
     1
102
RTVSPropertyOp49
 70
     1
102
RTVSPropertyOp50
 70
     1
102
RTVSPropertyOp51
 70
     0
102
RTVSPropertyOp52
 70
     0
102
RTVSPropertyOp53
 70
     1
102
RTVSPropertyOp54
 70
     1
102
RTVSPropertyOp55
 70
     1
102
RTVSPropertyOp56
 70
     1
102
RTVSPropertyOp57
 70
     1
102
RTVSPropertyOp58
 70
     1
102
RTVSPropertyOp59
 70
     1
102
RTVSPropertyOp60
 70
     1
102
RTVSPropertyOp61
 70
     1
102
RTVSPropertyOp62
 70
     1
  0
XRECORD
  5
3CF8
102
{ACAD_REACTORS
330
3CF7
102
}
330
3CF7
100
AcDbXrecord
280
     1
102
RTVSPost2010Prop28
280
     0
102
RTVSPost2010PropOp28
 70
     1
102
RTVSPost2010Prop29
280
     1
102
RTVSPost2010PropOp29
 70
     1
102
RTVSPost2010Prop30
280
     1
102
RTVSPost2010PropOp30
 70
     1
102
RTVSPost2010Prop31
280
     0
102
RTVSPost2010PropOp31
 70
     1
102
RTVSPost2010Prop32
280
     0
102
RTVSPost2010PropOp32
 70
     1
102
RTVSPost2010Prop33
280
     0
102
RTVSPost2010PropOp33
 70
     1
102
RTVSPost2010Prop34
280
     0
102
RTVSPost2010PropOp34
 70
     1
102
RTVSPost2010Prop35
280
     0
102
RTVSPost2010PropOp35
 70
     1
102
RTVSPost2010Prop36
280
     0
102
RTVSPost2010PropOp36
 70
     1
102
RTVSPost2010Prop37
 90
       50
102
RTVSPost2010PropOp37
 70
     1
102
RTVSPost2010Prop38
140
0.0
102
RTVSPost2010PropOp38
 70
     1
102
RTVSPost2010Prop39
140
1.0
102
RTVSPost2010PropOp39
 70
     1
102
RTVSPost2010Prop40
 90
        0
102
RTVSPost2010PropOp40
 70
     1
102
RTVSPost2010Prop41ColorIndex
 90
       18
102
RTVSPost2010Prop41ColorRGB
 90
        0
102
RTVSPost2010PropOp41
 70
     1
102
RTVSPost2010Prop42
 90
       50
102
RTVSPost2010PropOp42
 70
     1
102
RTVSPost2010Prop43
 90
        3
102
RTVSPost2010PropOp43
 70
     1
102
RTVSPost2010Prop44ColorIndex
 90
        5
102
RTVSPost2010Prop44ColorRGB
 90
      255
102
RTVSPost2010PropOp44
 70
     1
102
RTVSPost2010Prop45
280
     0
102
RTVSPost2010PropOp45
 70
     1
102
RTVSPost2010Prop46
 90
       50
102
RTVSPost2010PropOp46
 70
     1
102
RTVSPost2010Prop47
 90
       50
102
RTVSPost2010PropOp47
 70
     1
102
RTVSPost2010Prop48
 90
       50
102
RTVSPost2010PropOp48
 70
     1
102
RTVSPost2010Prop49
280
     0
102
RTVSPost2010PropOp49
 70
     1
102
RTVSPost2010Prop50
 90
       50
102
RTVSPost2010PropOp50
 70
     1
102
RTVSPost2010Prop51ColorIndex
 90
      256
102
RTVSPost2010Prop51ColorRGB
 90
-16777216
102
RTVSPost2010PropOp51
 70
     0
102
RTVSPost2010Prop52
140
1.0
102
RTVSPost2010PropOp52
 70
     0
102
RTVSPost2010Prop53
 90
        2
102
RTVSPost2010PropOp53
 70
     1
102
RTVSPost2010Prop54
  1
strokes_ogs.tif
102
RTVSPost2010PropOp54
 70
     1
102
RTVSPost2010Prop55
280
     0
102
RTVSPost2010PropOp55
 70
     1
102
RTVSPost2010Prop56
140
1.0
102
RTVSPost2010PropOp56
 70
     1
102
RTVSPost2010Prop57
140
1.0
102
RTVSPost2010PropOp57
 70
     1
102
RTVSPropertyOp0
 70
     1
102
RTVSPropertyOp1
 70
     1
102
RTVSPropertyOp2
 70
     1
102
RTVSPropertyOp3
 70
     1
102
RTVSPropertyOp4
 70
     1
102
RTVSPropertyOp5
 70
     1
102
RTVSPropertyOp6
 70
     1
102
RTVSPropertyOp7
 70
     1
102
RTVSPropertyOp8
 70
     1
102
RTVSPropertyOp9
 70
     1
102
RTVSPropertyOp10
 70
     1
102
RTVSPropertyOp11
 70
     1
102
RTVSPropertyOp12
 70
     1
102
RTVSPropertyOp13
 70
     1
102
RTVSPropertyOp14
 70
     1
102
RTVSPropertyOp15
 70
     1
102
RTVSPropertyOp16
 70
     1
102
RTVSPropertyOp17
 70
     1
102
RTVSPropertyOp18
 70
     1
102
RTVSPropertyOp19
 70
     1
102
RTVSPropertyOp20
 70
     1
102
RTVSPropertyOp21
 70
     1
102
RTVSPropertyOp22
 70
     1
102
RTVSPropertyOp23
 70
     1
102
RTVSPropertyOp24
 70
     1
102
RTVSPropertyOp25
 70
     1
102
RTVSPropertyOp26
 70
     1
102
RTVSPropertyOp27
 70
     1
102
RTVSPropertyOp28
 70
     1
102
RTVSPropertyOp29
 70
     1
102
RTVSPropertyOp30
 70
     1
102
RTVSPropertyOp31
 70
     1
102
RTVSPropertyOp32
 70
     1
102
RTVSPropertyOp33
 70
     1
102
RTVSPropertyOp34
 70
     1
102
RTVSPropertyOp35
 70
     1
102
RTVSPropertyOp36
 70
     1
102
RTVSPropertyOp37
 70
     1
102
RTVSPropertyOp38
 70
     1
102
RTVSPropertyOp39
 70
     1
102
RTVSPropertyOp40
 70
     1
102
RTVSPropertyOp41
 70
     1
102
RTVSPropertyOp42
 70
     1
102
RTVSPropertyOp43
 70
     1
102
RTVSPropertyOp44
 70
     1
102
RTVSPropertyOp45
 70
     1
102
RTVSPropertyOp46
 70
     1
102
RTVSPropertyOp47
 70
     1
102
RTVSPropertyOp48
 70
     1
102
RTVSPropertyOp49
 70
     1
102
RTVSPropertyOp50
 70
     1
102
RTVSPropertyOp51
 70
     0
102
RTVSPropertyOp52
 70
     0
102
RTVSPropertyOp53
 70
     1
102
RTVSPropertyOp54
 70
     1
102
RTVSPropertyOp55
 70
     1
102
RTVSPropertyOp56
 70
     1
102
RTVSPropertyOp57
 70
     1
102
RTVSPropertyOp58
 70
     1
102
RTVSPropertyOp59
 70
     1
102
RTVSPropertyOp60
 70
     1
102
RTVSPropertyOp61
 70
     1
102
RTVSPropertyOp62
 70
     1
  0
XRECORD
  5
3CFA
102
{ACAD_REACTORS
330
3CF9
102
}
330
3CF9
100
AcDbXrecord
280
     1
102
RTVSPost2010Prop28
280
     0
102
RTVSPost2010PropOp28
 70
     1
102
RTVSPost2010Prop29
280
     1
102
RTVSPost2010PropOp29
 70
     1
102
RTVSPost2010Prop30
280
     1
102
RTVSPost2010PropOp30
 70
     1
102
RTVSPost2010Prop31
280
     0
102
RTVSPost2010PropOp31
 70
     1
102
RTVSPost2010Prop32
280
     0
102
RTVSPost2010PropOp32
 70
     1
102
RTVSPost2010Prop33
280
     0
102
RTVSPost2010PropOp33
 70
     1
102
RTVSPost2010Prop34
280
     0
102
RTVSPost2010PropOp34
 70
     1
102
RTVSPost2010Prop35
280
     0
102
RTVSPost2010PropOp35
 70
     1
102
RTVSPost2010Prop36
280
     0
102
RTVSPost2010PropOp36
 70
     1
102
RTVSPost2010Prop37
 90
       50
102
RTVSPost2010PropOp37
 70
     1
102
RTVSPost2010Prop38
140
0.0
102
RTVSPost2010PropOp38
 70
     1
102
RTVSPost2010Prop39
140
1.0
102
RTVSPost2010PropOp39
 70
     1
102
RTVSPost2010Prop40
 90
        0
102
RTVSPost2010PropOp40
 70
     1
102
RTVSPost2010Prop41ColorIndex
 90
       18
102
RTVSPost2010Prop41ColorRGB
 90
        0
102
RTVSPost2010PropOp41
 70
     1
102
RTVSPost2010Prop42
 90
       50
102
RTVSPost2010PropOp42
 70
     1
102
RTVSPost2010Prop43
 90
        3
102
RTVSPost2010PropOp43
 70
     1
102
RTVSPost2010Prop44ColorIndex
 90
        5
102
RTVSPost2010Prop44ColorRGB
 90
      255
102
RTVSPost2010PropOp44
 70
     1
102
RTVSPost2010Prop45
280
     0
102
RTVSPost2010PropOp45
 70
     1
102
RTVSPost2010Prop46
 90
       50
102
RTVSPost2010PropOp46
 70
     1
102
RTVSPost2010Prop47
 90
       50
102
RTVSPost2010PropOp47
 70
     1
102
RTVSPost2010Prop48
 90
       50
102
RTVSPost2010PropOp48
 70
     1
102
RTVSPost2010Prop49
280
     0
102
RTVSPost2010PropOp49
 70
     1
102
RTVSPost2010Prop50
 90
       50
102
RTVSPost2010PropOp50
 70
     1
102
RTVSPost2010Prop51ColorIndex
 90
      256
102
RTVSPost2010Prop51ColorRGB
 90
-16777216
102
RTVSPost2010PropOp51
 70
     0
102
RTVSPost2010Prop52
140
1.0
102
RTVSPost2010PropOp52
 70
     0
102
RTVSPost2010Prop53
 90
        2
102
RTVSPost2010PropOp53
 70
     1
102
RTVSPost2010Prop54
  1
strokes_ogs.tif
102
RTVSPost2010PropOp54
 70
     1
102
RTVSPost2010Prop55
280
     0
102
RTVSPost2010PropOp55
 70
     1
102
RTVSPost2010Prop56
140
1.0
102
RTVSPost2010PropOp56
 70
     1
102
RTVSPost2010Prop57
140
1.0
102
RTVSPost2010PropOp57
 70
     1
102
RTVSPropertyOp0
 70
     1
102
RTVSPropertyOp1
 70
     1
102
RTVSPropertyOp2
 70
     1
102
RTVSPropertyOp3
 70
     1
102
RTVSPropertyOp4
 70
     1
102
RTVSPropertyOp5
 70
     1
102
RTVSPropertyOp6
 70
     1
102
RTVSPropertyOp7
 70
     1
102
RTVSPropertyOp8
 70
     1
102
RTVSPropertyOp9
 70
     1
102
RTVSPropertyOp10
 70
     1
102
RTVSPropertyOp11
 70
     1
102
RTVSPropertyOp12
 70
     1
102
RTVSPropertyOp13
 70
     1
102
RTVSPropertyOp14
 70
     1
102
RTVSPropertyOp15
 70
     1
102
RTVSPropertyOp16
 70
     1
102
RTVSPropertyOp17
 70
     1
102
RTVSPropertyOp18
 70
     1
102
RTVSPropertyOp19
 70
     1
102
RTVSPropertyOp20
 70
     1
102
RTVSPropertyOp21
 70
     1
102
RTVSPropertyOp22
 70
     1
102
RTVSPropertyOp23
 70
     1
102
RTVSPropertyOp24
 70
     1
102
RTVSPropertyOp25
 70
     1
102
RTVSPropertyOp26
 70
     1
102
RTVSPropertyOp27
 70
     1
102
RTVSPropertyOp28
 70
     1
102
RTVSPropertyOp29
 70
     1
102
RTVSPropertyOp30
 70
     1
102
RTVSPropertyOp31
 70
     1
102
RTVSPropertyOp32
 70
     1
102
RTVSPropertyOp33
 70
     1
102
RTVSPropertyOp34
 70
     1
102
RTVSPropertyOp35
 70
     1
102
RTVSPropertyOp36
 70
     1
102
RTVSPropertyOp37
 70
     1
102
RTVSPropertyOp38
 70
     1
102
RTVSPropertyOp39
 70
     1
102
RTVSPropertyOp40
 70
     1
102
RTVSPropertyOp41
 70
     1
102
RTVSPropertyOp42
 70
     1
102
RTVSPropertyOp43
 70
     1
102
RTVSPropertyOp44
 70
     1
102
RTVSPropertyOp45
 70
     1
102
RTVSPropertyOp46
 70
     1
102
RTVSPropertyOp47
 70
     1
102
RTVSPropertyOp48
 70
     1
102
RTVSPropertyOp49
 70
     1
102
RTVSPropertyOp50
 70
     1
102
RTVSPropertyOp51
 70
     0
102
RTVSPropertyOp52
 70
     0
102
RTVSPropertyOp53
 70
     1
102
RTVSPropertyOp54
 70
     1
102
RTVSPropertyOp55
 70
     1
102
RTVSPropertyOp56
 70
     1
102
RTVSPropertyOp57
 70
     1
102
RTVSPropertyOp58
 70
     1
102
RTVSPropertyOp59
 70
     1
102
RTVSPropertyOp60
 70
     1
102
RTVSPropertyOp61
 70
     1
102
RTVSPropertyOp62
 70
     1
  0
XRECORD
  5
3D3D
102
{ACAD_REACTORS
330
3D3C
102
}
330
3D3C
100
AcDbXrecord
280
     1
102
RTVSPost2010Prop28
280
     0
102
RTVSPost2010PropOp28
 70
     1
102
RTVSPost2010Prop29
280
     1
102
RTVSPost2010PropOp29
 70
     1
102
RTVSPost2010Prop30
280
     1
102
RTVSPost2010PropOp30
 70
     1
102
RTVSPost2010Prop31
280
     0
102
RTVSPost2010PropOp31
 70
     1
102
RTVSPost2010Prop32
280
     0
102
RTVSPost2010PropOp32
 70
     1
102
RTVSPost2010Prop33
280
     0
102
RTVSPost2010PropOp33
 70
     1
102
RTVSPost2010Prop34
280
     0
102
RTVSPost2010PropOp34
 70
     1
102
RTVSPost2010Prop35
280
     0
102
RTVSPost2010PropOp35
 70
     1
102
RTVSPost2010Prop36
280
     0
102
RTVSPost2010PropOp36
 70
     1
102
RTVSPost2010Prop37
 90
       50
102
RTVSPost2010PropOp37
 70
     1
102
RTVSPost2010Prop38
140
0.0
102
RTVSPost2010PropOp38
 70
     1
102
RTVSPost2010Prop39
140
1.0
102
RTVSPost2010PropOp39
 70
     1
102
RTVSPost2010Prop40
 90
        0
102
RTVSPost2010PropOp40
 70
     1
102
RTVSPost2010Prop41ColorIndex
 90
       18
102
RTVSPost2010Prop41ColorRGB
 90
        0
102
RTVSPost2010PropOp41
 70
     1
102
RTVSPost2010Prop42
 90
       50
102
RTVSPost2010PropOp42
 70
     1
102
RTVSPost2010Prop43
 90
        3
102
RTVSPost2010PropOp43
 70
     1
102
RTVSPost2010Prop44ColorIndex
 90
        5
102
RTVSPost2010Prop44ColorRGB
 90
      255
102
RTVSPost2010PropOp44
 70
     1
102
RTVSPost2010Prop45
280
     0
102
RTVSPost2010PropOp45
 70
     1
102
RTVSPost2010Prop46
 90
       50
102
RTVSPost2010PropOp46
 70
     1
102
RTVSPost2010Prop47
 90
       50
102
RTVSPost2010PropOp47
 70
     1
102
RTVSPost2010Prop48
 90
       50
102
RTVSPost2010PropOp48
 70
     1
102
RTVSPost2010Prop49
280
     0
102
RTVSPost2010PropOp49
 70
     1
102
RTVSPost2010Prop50
 90
       50
102
RTVSPost2010PropOp50
 70
     1
102
RTVSPost2010Prop51ColorIndex
 90
      256
102
RTVSPost2010Prop51ColorRGB
 90
-16777216
102
RTVSPost2010PropOp51
 70
     0
102
RTVSPost2010Prop52
140
1.0
102
RTVSPost2010PropOp52
 70
     0
102
RTVSPost2010Prop53
 90
        2
102
RTVSPost2010PropOp53
 70
     1
102
RTVSPost2010Prop54
  1
strokes_ogs.tif
102
RTVSPost2010PropOp54
 70
     1
102
RTVSPost2010Prop55
280
     0
102
RTVSPost2010PropOp55
 70
     1
102
RTVSPost2010Prop56
140
1.0
102
RTVSPost2010PropOp56
 70
     1
102
RTVSPost2010Prop57
140
1.0
102
RTVSPost2010PropOp57
 70
     1
102
RTVSPropertyOp0
 70
     1
102
RTVSPropertyOp1
 70
     1
102
RTVSPropertyOp2
 70
     1
102
RTVSPropertyOp3
 70
     1
102
RTVSPropertyOp4
 70
     1
102
RTVSPropertyOp5
 70
     1
102
RTVSPropertyOp6
 70
     1
102
RTVSPropertyOp7
 70
     1
102
RTVSPropertyOp8
 70
     1
102
RTVSPropertyOp9
 70
     1
102
RTVSPropertyOp10
 70
     1
102
RTVSPropertyOp11
 70
     1
102
RTVSPropertyOp12
 70
     1
102
RTVSPropertyOp13
 70
     1
102
RTVSPropertyOp14
 70
     1
102
RTVSPropertyOp15
 70
     1
102
RTVSPropertyOp16
 70
     1
102
RTVSPropertyOp17
 70
     1
102
RTVSPropertyOp18
 70
     1
102
RTVSPropertyOp19
 70
     1
102
RTVSPropertyOp20
 70
     1
102
RTVSPropertyOp21
 70
     1
102
RTVSPropertyOp22
 70
     1
102
RTVSPropertyOp23
 70
     1
102
RTVSPropertyOp24
 70
     1
102
RTVSPropertyOp25
 70
     1
102
RTVSPropertyOp26
 70
     1
102
RTVSPropertyOp27
 70
     1
102
RTVSPropertyOp28
 70
     1
102
RTVSPropertyOp29
 70
     1
102
RTVSPropertyOp30
 70
     1
102
RTVSPropertyOp31
 70
     1
102
RTVSPropertyOp32
 70
     1
102
RTVSPropertyOp33
 70
     1
102
RTVSPropertyOp34
 70
     1
102
RTVSPropertyOp35
 70
     1
102
RTVSPropertyOp36
 70
     1
102
RTVSPropertyOp37
 70
     1
102
RTVSPropertyOp38
 70
     1
102
RTVSPropertyOp39
 70
     1
102
RTVSPropertyOp40
 70
     1
102
RTVSPropertyOp41
 70
     1
102
RTVSPropertyOp42
 70
     1
102
RTVSPropertyOp43
 70
     1
102
RTVSPropertyOp44
 70
     1
102
RTVSPropertyOp45
 70
     1
102
RTVSPropertyOp46
 70
     1
102
RTVSPropertyOp47
 70
     1
102
RTVSPropertyOp48
 70
     1
102
RTVSPropertyOp49
 70
     1
102
RTVSPropertyOp50
 70
     1
102
RTVSPropertyOp51
 70
     0
102
RTVSPropertyOp52
 70
     0
102
RTVSPropertyOp53
 70
     1
102
RTVSPropertyOp54
 70
     1
102
RTVSPropertyOp55
 70
     1
102
RTVSPropertyOp56
 70
     1
102
RTVSPropertyOp57
 70
     1
102
RTVSPropertyOp58
 70
     1
102
RTVSPropertyOp59
 70
     1
102
RTVSPropertyOp60
 70
     1
102
RTVSPropertyOp61
 70
     1
102
RTVSPropertyOp62
 70
     1
  0
XRECORD
  5
3D14
102
{ACAD_REACTORS
330
3D13
102
}
330
3D13
100
AcDbXrecord
280
     1
102
RTVSPost2010Prop28
280
     0
102
RTVSPost2010PropOp28
 70
     1
102
RTVSPost2010Prop29
280
     1
102
RTVSPost2010PropOp29
 70
     1
102
RTVSPost2010Prop30
280
     1
102
RTVSPost2010PropOp30
 70
     1
102
RTVSPost2010Prop31
280
     0
102
RTVSPost2010PropOp31
 70
     1
102
RTVSPost2010Prop32
280
     0
102
RTVSPost2010PropOp32
 70
     1
102
RTVSPost2010Prop33
280
     0
102
RTVSPost2010PropOp33
 70
     1
102
RTVSPost2010Prop34
280
     0
102
RTVSPost2010PropOp34
 70
     1
102
RTVSPost2010Prop35
280
     0
102
RTVSPost2010PropOp35
 70
     1
102
RTVSPost2010Prop36
280
     0
102
RTVSPost2010PropOp36
 70
     1
102
RTVSPost2010Prop37
 90
       50
102
RTVSPost2010PropOp37
 70
     1
102
RTVSPost2010Prop38
140
0.0
102
RTVSPost2010PropOp38
 70
     1
102
RTVSPost2010Prop39
140
1.0
102
RTVSPost2010PropOp39
 70
     1
102
RTVSPost2010Prop40
 90
        0
102
RTVSPost2010PropOp40
 70
     1
102
RTVSPost2010Prop41ColorIndex
 90
       18
102
RTVSPost2010Prop41ColorRGB
 90
        0
102
RTVSPost2010PropOp41
 70
     1
102
RTVSPost2010Prop42
 90
       50
102
RTVSPost2010PropOp42
 70
     1
102
RTVSPost2010Prop43
 90
        3
102
RTVSPost2010PropOp43
 70
     1
102
RTVSPost2010Prop44ColorIndex
 90
        5
102
RTVSPost2010Prop44ColorRGB
 90
      255
102
RTVSPost2010PropOp44
 70
     1
102
RTVSPost2010Prop45
280
     0
102
RTVSPost2010PropOp45
 70
     1
102
RTVSPost2010Prop46
 90
       50
102
RTVSPost2010PropOp46
 70
     1
102
RTVSPost2010Prop47
 90
       50
102
RTVSPost2010PropOp47
 70
     1
102
RTVSPost2010Prop48
 90
       50
102
RTVSPost2010PropOp48
 70
     1
102
RTVSPost2010Prop49
280
     0
102
RTVSPost2010PropOp49
 70
     1
102
RTVSPost2010Prop50
 90
       50
102
RTVSPost2010PropOp50
 70
     1
102
RTVSPost2010Prop51ColorIndex
 90
      256
102
RTVSPost2010Prop51ColorRGB
 90
-16777216
102
RTVSPost2010PropOp51
 70
     0
102
RTVSPost2010Prop52
140
1.0
102
RTVSPost2010PropOp52
 70
     0
102
RTVSPost2010Prop53
 90
        2
102
RTVSPost2010PropOp53
 70
     1
102
RTVSPost2010Prop54
  1
strokes_ogs.tif
102
RTVSPost2010PropOp54
 70
     1
102
RTVSPost2010Prop55
280
     0
102
RTVSPost2010PropOp55
 70
     1
102
RTVSPost2010Prop56
140
1.0
102
RTVSPost2010PropOp56
 70
     1
102
RTVSPost2010Prop57
140
1.0
102
RTVSPost2010PropOp57
 70
     1
102
RTVSPropertyOp0
 70
     0
102
RTVSPropertyOp1
 70
     0
102
RTVSPropertyOp2
 70
     0
102
RTVSPropertyOp3
 70
     0
102
RTVSPropertyOp4
 70
     0
102
RTVSPropertyOp5
 70
     0
102
RTVSPropertyOp6
 70
     0
102
RTVSPropertyOp7
 70
     0
102
RTVSPropertyOp8
 70
     0
102
RTVSPropertyOp9
 70
     0
102
RTVSPropertyOp10
 70
     0
102
RTVSPropertyOp11
 70
     0
102
RTVSPropertyOp12
 70
     0
102
RTVSPropertyOp13
 70
     0
102
RTVSPropertyOp14
 70
     2
102
RTVSPropertyOp15
 70
     0
102
RTVSPropertyOp16
 70
     0
102
RTVSPropertyOp17
 70
     0
102
RTVSPropertyOp18
 70
     0
102
RTVSPropertyOp19
 70
     0
102
RTVSPropertyOp20
 70
     0
102
RTVSPropertyOp21
 70
     0
102
RTVSPropertyOp22
 70
     0
102
RTVSPropertyOp23
 70
     0
102
RTVSPropertyOp24
 70
     0
102
RTVSPropertyOp25
 70
     0
102
RTVSPropertyOp26
 70
     0
102
RTVSPropertyOp27
 70
     0
102
RTVSPropertyOp28
 70
     1
102
RTVSPropertyOp29
 70
     1
102
RTVSPropertyOp30
 70
     1
102
RTVSPropertyOp31
 70
     1
102
RTVSPropertyOp32
 70
     1
102
RTVSPropertyOp33
 70
     1
102
RTVSPropertyOp34
 70
     1
102
RTVSPropertyOp35
 70
     1
102
RTVSPropertyOp36
 70
     1
102
RTVSPropertyOp37
 70
     1
102
RTVSPropertyOp38
 70
     1
102
RTVSPropertyOp39
 70
     1
102
RTVSPropertyOp40
 70
     1
102
RTVSPropertyOp41
 70
     1
102
RTVSPropertyOp42
 70
     1
102
RTVSPropertyOp43
 70
     1
102
RTVSPropertyOp44
 70
     1
102
RTVSPropertyOp45
 70
     1
102
RTVSPropertyOp46
 70
     1
102
RTVSPropertyOp47
 70
     1
102
RTVSPropertyOp48
 70
     1
102
RTVSPropertyOp49
 70
     1
102
RTVSPropertyOp50
 70
     1
102
RTVSPropertyOp51
 70
     0
102
RTVSPropertyOp52
 70
     0
102
RTVSPropertyOp53
 70
     1
102
RTVSPropertyOp54
 70
     1
102
RTVSPropertyOp55
 70
     1
102
RTVSPropertyOp56
 70
     1
102
RTVSPropertyOp57
 70
     1
102
RTVSPropertyOp58
 70
     1
102
RTVSPropertyOp59
 70
     1
102
RTVSPropertyOp60
 70
     1
102
RTVSPropertyOp61
 70
     1
102
RTVSPropertyOp62
 70
     1
  0
XRECORD
  5
3D0E
102
{ACAD_REACTORS
330
3D0D
102
}
330
3D0D
100
AcDbXrecord
280
     1
102
RTVSPost2010Prop28
280
     0
102
RTVSPost2010PropOp28
 70
     1
102
RTVSPost2010Prop29
280
     1
102
RTVSPost2010PropOp29
 70
     1
102
RTVSPost2010Prop30
280
     1
102
RTVSPost2010PropOp30
 70
     1
102
RTVSPost2010Prop31
280
     0
102
RTVSPost2010PropOp31
 70
     1
102
RTVSPost2010Prop32
280
     0
102
RTVSPost2010PropOp32
 70
     1
102
RTVSPost2010Prop33
280
     0
102
RTVSPost2010PropOp33
 70
     1
102
RTVSPost2010Prop34
280
     0
102
RTVSPost2010PropOp34
 70
     1
102
RTVSPost2010Prop35
280
     0
102
RTVSPost2010PropOp35
 70
     1
102
RTVSPost2010Prop36
280
     0
102
RTVSPost2010PropOp36
 70
     1
102
RTVSPost2010Prop37
 90
       50
102
RTVSPost2010PropOp37
 70
     1
102
RTVSPost2010Prop38
140
0.0
102
RTVSPost2010PropOp38
 70
     1
102
RTVSPost2010Prop39
140
1.0
102
RTVSPost2010PropOp39
 70
     1
102
RTVSPost2010Prop40
 90
        0
102
RTVSPost2010PropOp40
 70
     1
102
RTVSPost2010Prop41ColorIndex
 90
       18
102
RTVSPost2010Prop41ColorRGB
 90
        0
102
RTVSPost2010PropOp41
 70
     1
102
RTVSPost2010Prop42
 90
       50
102
RTVSPost2010PropOp42
 70
     1
102
RTVSPost2010Prop43
 90
        3
102
RTVSPost2010PropOp43
 70
     1
102
RTVSPost2010Prop44ColorIndex
 90
        5
102
RTVSPost2010Prop44ColorRGB
 90
      255
102
RTVSPost2010PropOp44
 70
     1
102
RTVSPost2010Prop45
280
     0
102
RTVSPost2010PropOp45
 70
     1
102
RTVSPost2010Prop46
 90
       50
102
RTVSPost2010PropOp46
 70
     1
102
RTVSPost2010Prop47
 90
       50
102
RTVSPost2010PropOp47
 70
     1
102
RTVSPost2010Prop48
 90
       50
102
RTVSPost2010PropOp48
 70
     1
102
RTVSPost2010Prop49
280
     0
102
RTVSPost2010PropOp49
 70
     1
102
RTVSPost2010Prop50
 90
       50
102
RTVSPost2010PropOp50
 70
     1
102
RTVSPost2010Prop51ColorIndex
 90
      256
102
RTVSPost2010Prop51ColorRGB
 90
-16777216
102
RTVSPost2010PropOp51
 70
     0
102
RTVSPost2010Prop52
140
1.0
102
RTVSPost2010PropOp52
 70
     0
102
RTVSPost2010Prop53
 90
        2
102
RTVSPost2010PropOp53
 70
     1
102
RTVSPost2010Prop54
  1
strokes_ogs.tif
102
RTVSPost2010PropOp54
 70
     1
102
RTVSPost2010Prop55
280
     0
102
RTVSPost2010PropOp55
 70
     1
102
RTVSPost2010Prop56
140
1.0
102
RTVSPost2010PropOp56
 70
     1
102
RTVSPost2010Prop57
140
1.0
102
RTVSPost2010PropOp57
 70
     1
102
RTVSPropertyOp0
 70
     1
102
RTVSPropertyOp1
 70
     1
102
RTVSPropertyOp2
 70
     1
102
RTVSPropertyOp3
 70
     1
102
RTVSPropertyOp4
 70
     1
102
RTVSPropertyOp5
 70
     1
102
RTVSPropertyOp6
 70
     1
102
RTVSPropertyOp7
 70
     1
102
RTVSPropertyOp8
 70
     1
102
RTVSPropertyOp9
 70
     1
102
RTVSPropertyOp10
 70
     1
102
RTVSPropertyOp11
 70
     1
102
RTVSPropertyOp12
 70
     1
102
RTVSPropertyOp13
 70
     1
102
RTVSPropertyOp14
 70
     1
102
RTVSPropertyOp15
 70
     1
102
RTVSPropertyOp16
 70
     1
102
RTVSPropertyOp17
 70
     1
102
RTVSPropertyOp18
 70
     1
102
RTVSPropertyOp19
 70
     1
102
RTVSPropertyOp20
 70
     1
102
RTVSPropertyOp21
 70
     1
102
RTVSPropertyOp22
 70
     1
102
RTVSPropertyOp23
 70
     1
102
RTVSPropertyOp24
 70
     1
102
RTVSPropertyOp25
 70
     1
102
RTVSPropertyOp26
 70
     1
102
RTVSPropertyOp27
 70
     1
102
RTVSPropertyOp28
 70
     1
102
RTVSPropertyOp29
 70
     1
102
RTVSPropertyOp30
 70
     1
102
RTVSPropertyOp31
 70
     1
102
RTVSPropertyOp32
 70
     1
102
RTVSPropertyOp33
 70
     1
102
RTVSPropertyOp34
 70
     1
102
RTVSPropertyOp35
 70
     1
102
RTVSPropertyOp36
 70
     1
102
RTVSPropertyOp37
 70
     1
102
RTVSPropertyOp38
 70
     1
102
RTVSPropertyOp39
 70
     1
102
RTVSPropertyOp40
 70
     1
102
RTVSPropertyOp41
 70
     1
102
RTVSPropertyOp42
 70
     1
102
RTVSPropertyOp43
 70
     1
102
RTVSPropertyOp44
 70
     1
102
RTVSPropertyOp45
 70
     1
102
RTVSPropertyOp46
 70
     1
102
RTVSPropertyOp47
 70
     1
102
RTVSPropertyOp48
 70
     1
102
RTVSPropertyOp49
 70
     1
102
RTVSPropertyOp50
 70
     1
102
RTVSPropertyOp51
 70
     0
102
RTVSPropertyOp52
 70
     0
102
RTVSPropertyOp53
 70
     1
102
RTVSPropertyOp54
 70
     1
102
RTVSPropertyOp55
 70
     1
102
RTVSPropertyOp56
 70
     1
102
RTVSPropertyOp57
 70
     1
102
RTVSPropertyOp58
 70
     1
102
RTVSPropertyOp59
 70
     1
102
RTVSPropertyOp60
 70
     1
102
RTVSPropertyOp61
 70
     1
102
RTVSPropertyOp62
 70
     1
  0
XRECORD
  5
3D16
102
{ACAD_REACTORS
330
3D15
102
}
330
3D15
100
AcDbXrecord
280
     1
102
RTVSPost2010Prop28
280
     0
102
RTVSPost2010PropOp28
 70
     1
102
RTVSPost2010Prop29
280
     1
102
RTVSPost2010PropOp29
 70
     1
102
RTVSPost2010Prop30
280
     1
102
RTVSPost2010PropOp30
 70
     1
102
RTVSPost2010Prop31
280
     0
102
RTVSPost2010PropOp31
 70
     1
102
RTVSPost2010Prop32
280
     0
102
RTVSPost2010PropOp32
 70
     1
102
RTVSPost2010Prop33
280
     0
102
RTVSPost2010PropOp33
 70
     1
102
RTVSPost2010Prop34
280
     0
102
RTVSPost2010PropOp34
 70
     1
102
RTVSPost2010Prop35
280
     0
102
RTVSPost2010PropOp35
 70
     1
102
RTVSPost2010Prop36
280
     0
102
RTVSPost2010PropOp36
 70
     1
102
RTVSPost2010Prop37
 90
       50
102
RTVSPost2010PropOp37
 70
     1
102
RTVSPost2010Prop38
140
0.0
102
RTVSPost2010PropOp38
 70
     1
102
RTVSPost2010Prop39
140
1.0
102
RTVSPost2010PropOp39
 70
     1
102
RTVSPost2010Prop40
 90
        0
102
RTVSPost2010PropOp40
 70
     1
102
RTVSPost2010Prop41ColorIndex
 90
       18
102
RTVSPost2010Prop41ColorRGB
 90
        0
102
RTVSPost2010PropOp41
 70
     1
102
RTVSPost2010Prop42
 90
       50
102
RTVSPost2010PropOp42
 70
     1
102
RTVSPost2010Prop43
 90
        3
102
RTVSPost2010PropOp43
 70
     1
102
RTVSPost2010Prop44ColorIndex
 90
        5
102
RTVSPost2010Prop44ColorRGB
 90
      255
102
RTVSPost2010PropOp44
 70
     1
102
RTVSPost2010Prop45
280
     0
102
RTVSPost2010PropOp45
 70
     1
102
RTVSPost2010Prop46
 90
       50
102
RTVSPost2010PropOp46
 70
     1
102
RTVSPost2010Prop47
 90
       50
102
RTVSPost2010PropOp47
 70
     1
102
RTVSPost2010Prop48
 90
       50
102
RTVSPost2010PropOp48
 70
     1
102
RTVSPost2010Prop49
280
     0
102
RTVSPost2010PropOp49
 70
     1
102
RTVSPost2010Prop50
 90
       50
102
RTVSPost2010PropOp50
 70
     1
102
RTVSPost2010Prop51ColorIndex
 90
      256
102
RTVSPost2010Prop51ColorRGB
 90
-16777216
102
RTVSPost2010PropOp51
 70
     0
102
RTVSPost2010Prop52
140
1.0
102
RTVSPost2010PropOp52
 70
     0
102
RTVSPost2010Prop53
 90
        2
102
RTVSPost2010PropOp53
 70
     1
102
RTVSPost2010Prop54
  1
strokes_ogs.tif
102
RTVSPost2010PropOp54
 70
     1
102
RTVSPost2010Prop55
280
     0
102
RTVSPost2010PropOp55
 70
     1
102
RTVSPost2010Prop56
140
1.0
102
RTVSPost2010PropOp56
 70
     1
102
RTVSPost2010Prop57
140
1.0
102
RTVSPost2010PropOp57
 70
     1
102
RTVSPropertyOp0
 70
     0
102
RTVSPropertyOp1
 70
     0
102
RTVSPropertyOp2
 70
     0
102
RTVSPropertyOp3
 70
     0
102
RTVSPropertyOp4
 70
     0
102
RTVSPropertyOp5
 70
     0
102
RTVSPropertyOp6
 70
     0
102
RTVSPropertyOp7
 70
     0
102
RTVSPropertyOp8
 70
     0
102
RTVSPropertyOp9
 70
     0
102
RTVSPropertyOp10
 70
     0
102
RTVSPropertyOp11
 70
     0
102
RTVSPropertyOp12
 70
     0
102
RTVSPropertyOp13
 70
     0
102
RTVSPropertyOp14
 70
     2
102
RTVSPropertyOp15
 70
     0
102
RTVSPropertyOp16
 70
     0
102
RTVSPropertyOp17
 70
     0
102
RTVSPropertyOp18
 70
     0
102
RTVSPropertyOp19
 70
     0
102
RTVSPropertyOp20
 70
     0
102
RTVSPropertyOp21
 70
     0
102
RTVSPropertyOp22
 70
     0
102
RTVSPropertyOp23
 70
     0
102
RTVSPropertyOp24
 70
     0
102
RTVSPropertyOp25
 70
     0
102
RTVSPropertyOp26
 70
     0
102
RTVSPropertyOp27
 70
     0
102
RTVSPropertyOp28
 70
     1
102
RTVSPropertyOp29
 70
     1
102
RTVSPropertyOp30
 70
     1
102
RTVSPropertyOp31
 70
     1
102
RTVSPropertyOp32
 70
     1
102
RTVSPropertyOp33
 70
     1
102
RTVSPropertyOp34
 70
     1
102
RTVSPropertyOp35
 70
     1
102
RTVSPropertyOp36
 70
     1
102
RTVSPropertyOp37
 70
     1
102
RTVSPropertyOp38
 70
     1
102
RTVSPropertyOp39
 70
     1
102
RTVSPropertyOp40
 70
     1
102
RTVSPropertyOp41
 70
     1
102
RTVSPropertyOp42
 70
     1
102
RTVSPropertyOp43
 70
     1
102
RTVSPropertyOp44
 70
     1
102
RTVSPropertyOp45
 70
     1
102
RTVSPropertyOp46
 70
     1
102
RTVSPropertyOp47
 70
     1
102
RTVSPropertyOp48
 70
     1
102
RTVSPropertyOp49
 70
     1
102
RTVSPropertyOp50
 70
     1
102
RTVSPropertyOp51
 70
     0
102
RTVSPropertyOp52
 70
     0
102
RTVSPropertyOp53
 70
     1
102
RTVSPropertyOp54
 70
     1
102
RTVSPropertyOp55
 70
     1
102
RTVSPropertyOp56
 70
     1
102
RTVSPropertyOp57
 70
     1
102
RTVSPropertyOp58
 70
     1
102
RTVSPropertyOp59
 70
     1
102
RTVSPropertyOp60
 70
     1
102
RTVSPropertyOp61
 70
     1
102
RTVSPropertyOp62
 70
     1
  0
XRECORD
  5
3D06
102
{ACAD_REACTORS
330
3D05
102
}
330
3D05
100
AcDbXrecord
280
     1
102
RTVSPost2010Prop28
280
     0
102
RTVSPost2010PropOp28
 70
     1
102
RTVSPost2010Prop29
280
     1
102
RTVSPost2010PropOp29
 70
     1
102
RTVSPost2010Prop30
280
     1
102
RTVSPost2010PropOp30
 70
     1
102
RTVSPost2010Prop31
280
     0
102
RTVSPost2010PropOp31
 70
     1
102
RTVSPost2010Prop32
280
     0
102
RTVSPost2010PropOp32
 70
     1
102
RTVSPost2010Prop33
280
     0
102
RTVSPost2010PropOp33
 70
     1
102
RTVSPost2010Prop34
280
     0
102
RTVSPost2010PropOp34
 70
     1
102
RTVSPost2010Prop35
280
     0
102
RTVSPost2010PropOp35
 70
     1
102
RTVSPost2010Prop36
280
     0
102
RTVSPost2010PropOp36
 70
     1
102
RTVSPost2010Prop37
 90
       50
102
RTVSPost2010PropOp37
 70
     1
102
RTVSPost2010Prop38
140
0.0
102
RTVSPost2010PropOp38
 70
     1
102
RTVSPost2010Prop39
140
1.0
102
RTVSPost2010PropOp39
 70
     1
102
RTVSPost2010Prop40
 90
        0
102
RTVSPost2010PropOp40
 70
     1
102
RTVSPost2010Prop41ColorIndex
 90
       18
102
RTVSPost2010Prop41ColorRGB
 90
        0
102
RTVSPost2010PropOp41
 70
     1
102
RTVSPost2010Prop42
 90
       50
102
RTVSPost2010PropOp42
 70
     1
102
RTVSPost2010Prop43
 90
        3
102
RTVSPost2010PropOp43
 70
     1
102
RTVSPost2010Prop44ColorIndex
 90
        5
102
RTVSPost2010Prop44ColorRGB
 90
      255
102
RTVSPost2010PropOp44
 70
     1
102
RTVSPost2010Prop45
280
     0
102
RTVSPost2010PropOp45
 70
     1
102
RTVSPost2010Prop46
 90
       50
102
RTVSPost2010PropOp46
 70
     1
102
RTVSPost2010Prop47
 90
       50
102
RTVSPost2010PropOp47
 70
     1
102
RTVSPost2010Prop48
 90
       50
102
RTVSPost2010PropOp48
 70
     1
102
RTVSPost2010Prop49
280
     0
102
RTVSPost2010PropOp49
 70
     1
102
RTVSPost2010Prop50
 90
       50
102
RTVSPost2010PropOp50
 70
     1
102
RTVSPost2010Prop51ColorIndex
 90
      256
102
RTVSPost2010Prop51ColorRGB
 90
-16777216
102
RTVSPost2010PropOp51
 70
     0
102
RTVSPost2010Prop52
140
1.0
102
RTVSPost2010PropOp52
 70
     0
102
RTVSPost2010Prop53
 90
        2
102
RTVSPost2010PropOp53
 70
     1
102
RTVSPost2010Prop54
  1
strokes_ogs.tif
102
RTVSPost2010PropOp54
 70
     1
102
RTVSPost2010Prop55
280
     0
102
RTVSPost2010PropOp55
 70
     1
102
RTVSPost2010Prop56
140
1.0
102
RTVSPost2010PropOp56
 70
     1
102
RTVSPost2010Prop57
140
1.0
102
RTVSPost2010PropOp57
 70
     1
102
RTVSPropertyOp0
 70
     1
102
RTVSPropertyOp1
 70
     1
102
RTVSPropertyOp2
 70
     1
102
RTVSPropertyOp3
 70
     1
102
RTVSPropertyOp4
 70
     1
102
RTVSPropertyOp5
 70
     1
102
RTVSPropertyOp6
 70
     1
102
RTVSPropertyOp7
 70
     1
102
RTVSPropertyOp8
 70
     1
102
RTVSPropertyOp9
 70
     1
102
RTVSPropertyOp10
 70
     1
102
RTVSPropertyOp11
 70
     1
102
RTVSPropertyOp12
 70
     1
102
RTVSPropertyOp13
 70
     1
102
RTVSPropertyOp14
 70
     1
102
RTVSPropertyOp15
 70
     1
102
RTVSPropertyOp16
 70
     1
102
RTVSPropertyOp17
 70
     1
102
RTVSPropertyOp18
 70
     1
102
RTVSPropertyOp19
 70
     1
102
RTVSPropertyOp20
 70
     1
102
RTVSPropertyOp21
 70
     1
102
RTVSPropertyOp22
 70
     1
102
RTVSPropertyOp23
 70
     1
102
RTVSPropertyOp24
 70
     1
102
RTVSPropertyOp25
 70
     1
102
RTVSPropertyOp26
 70
     1
102
RTVSPropertyOp27
 70
     1
102
RTVSPropertyOp28
 70
     1
102
RTVSPropertyOp29
 70
     1
102
RTVSPropertyOp30
 70
     1
102
RTVSPropertyOp31
 70
     1
102
RTVSPropertyOp32
 70
     1
102
RTVSPropertyOp33
 70
     1
102
RTVSPropertyOp34
 70
     1
102
RTVSPropertyOp35
 70
     1
102
RTVSPropertyOp36
 70
     1
102
RTVSPropertyOp37
 70
     1
102
RTVSPropertyOp38
 70
     1
102
RTVSPropertyOp39
 70
     1
102
RTVSPropertyOp40
 70
     1
102
RTVSPropertyOp41
 70
     1
102
RTVSPropertyOp42
 70
     1
102
RTVSPropertyOp43
 70
     1
102
RTVSPropertyOp44
 70
     1
102
RTVSPropertyOp45
 70
     1
102
RTVSPropertyOp46
 70
     1
102
RTVSPropertyOp47
 70
     1
102
RTVSPropertyOp48
 70
     1
102
RTVSPropertyOp49
 70
     1
102
RTVSPropertyOp50
 70
     1
102
RTVSPropertyOp51
 70
     0
102
RTVSPropertyOp52
 70
     0
102
RTVSPropertyOp53
 70
     1
102
RTVSPropertyOp54
 70
     1
102
RTVSPropertyOp55
 70
     1
102
RTVSPropertyOp56
 70
     1
102
RTVSPropertyOp57
 70
     1
102
RTVSPropertyOp58
 70
     1
102
RTVSPropertyOp59
 70
     1
102
RTVSPropertyOp60
 70
     1
102
RTVSPropertyOp61
 70
     1
102
RTVSPropertyOp62
 70
     1
  0
XRECORD
  5
3D47
102
{ACAD_REACTORS
330
3D46
102
}
330
3D46
100
AcDbXrecord
280
     1
102
RTVSPost2010Prop28
280
     0
102
RTVSPost2010PropOp28
 70
     1
102
RTVSPost2010Prop29
280
     1
102
RTVSPost2010PropOp29
 70
     1
102
RTVSPost2010Prop30
280
     1
102
RTVSPost2010PropOp30
 70
     1
102
RTVSPost2010Prop31
280
     0
102
RTVSPost2010PropOp31
 70
     1
102
RTVSPost2010Prop32
280
     0
102
RTVSPost2010PropOp32
 70
     1
102
RTVSPost2010Prop33
280
     0
102
RTVSPost2010PropOp33
 70
     1
102
RTVSPost2010Prop34
280
     0
102
RTVSPost2010PropOp34
 70
     1
102
RTVSPost2010Prop35
280
     0
102
RTVSPost2010PropOp35
 70
     1
102
RTVSPost2010Prop36
280
     0
102
RTVSPost2010PropOp36
 70
     1
102
RTVSPost2010Prop37
 90
       50
102
RTVSPost2010PropOp37
 70
     1
102
RTVSPost2010Prop38
140
0.0
102
RTVSPost2010PropOp38
 70
     1
102
RTVSPost2010Prop39
140
1.0
102
RTVSPost2010PropOp39
 70
     1
102
RTVSPost2010Prop40
 90
        0
102
RTVSPost2010PropOp40
 70
     1
102
RTVSPost2010Prop41ColorIndex
 90
       18
102
RTVSPost2010Prop41ColorRGB
 90
        0
102
RTVSPost2010PropOp41
 70
     1
102
RTVSPost2010Prop42
 90
       50
102
RTVSPost2010PropOp42
 70
     1
102
RTVSPost2010Prop43
 90
        3
102
RTVSPost2010PropOp43
 70
     1
102
RTVSPost2010Prop44ColorIndex
 90
        5
102
RTVSPost2010Prop44ColorRGB
 90
      255
102
RTVSPost2010PropOp44
 70
     1
102
RTVSPost2010Prop45
280
     0
102
RTVSPost2010PropOp45
 70
     1
102
RTVSPost2010Prop46
 90
       50
102
RTVSPost2010PropOp46
 70
     1
102
RTVSPost2010Prop47
 90
       50
102
RTVSPost2010PropOp47
 70
     1
102
RTVSPost2010Prop48
 90
       50
102
RTVSPost2010PropOp48
 70
     1
102
RTVSPost2010Prop49
280
     0
102
RTVSPost2010PropOp49
 70
     1
102
RTVSPost2010Prop50
 90
       50
102
RTVSPost2010PropOp50
 70
     1
102
RTVSPost2010Prop51ColorIndex
 90
      256
102
RTVSPost2010Prop51ColorRGB
 90
-16777216
102
RTVSPost2010PropOp51
 70
     0
102
RTVSPost2010Prop52
140
1.0
102
RTVSPost2010PropOp52
 70
     0
102
RTVSPost2010Prop53
 90
        2
102
RTVSPost2010PropOp53
 70
     1
102
RTVSPost2010Prop54
  1
strokes_ogs.tif
102
RTVSPost2010PropOp54
 70
     1
102
RTVSPost2010Prop55
280
     0
102
RTVSPost2010PropOp55
 70
     1
102
RTVSPost2010Prop56
140
1.0
102
RTVSPost2010PropOp56
 70
     1
102
RTVSPost2010Prop57
140
1.0
102
RTVSPost2010PropOp57
 70
     1
102
RTVSPropertyOp0
 70
     1
102
RTVSPropertyOp1
 70
     1
102
RTVSPropertyOp2
 70
     1
102
RTVSPropertyOp3
 70
     1
102
RTVSPropertyOp4
 70
     1
102
RTVSPropertyOp5
 70
     1
102
RTVSPropertyOp6
 70
     1
102
RTVSPropertyOp7
 70
     1
102
RTVSPropertyOp8
 70
     1
102
RTVSPropertyOp9
 70
     1
102
RTVSPropertyOp10
 70
     1
102
RTVSPropertyOp11
 70
     1
102
RTVSPropertyOp12
 70
     1
102
RTVSPropertyOp13
 70
     1
102
RTVSPropertyOp14
 70
     1
102
RTVSPropertyOp15
 70
     1
102
RTVSPropertyOp16
 70
     1
102
RTVSPropertyOp17
 70
     1
102
RTVSPropertyOp18
 70
     1
102
RTVSPropertyOp19
 70
     1
102
RTVSPropertyOp20
 70
     1
102
RTVSPropertyOp21
 70
     1
102
RTVSPropertyOp22
 70
     1
102
RTVSPropertyOp23
 70
     1
102
RTVSPropertyOp24
 70
     1
102
RTVSPropertyOp25
 70
     1
102
RTVSPropertyOp26
 70
     1
102
RTVSPropertyOp27
 70
     1
102
RTVSPropertyOp28
 70
     1
102
RTVSPropertyOp29
 70
     1
102
RTVSPropertyOp30
 70
     1
102
RTVSPropertyOp31
 70
     1
102
RTVSPropertyOp32
 70
     1
102
RTVSPropertyOp33
 70
     1
102
RTVSPropertyOp34
 70
     1
102
RTVSPropertyOp35
 70
     1
102
RTVSPropertyOp36
 70
     1
102
RTVSPropertyOp37
 70
     1
102
RTVSPropertyOp38
 70
     1
102
RTVSPropertyOp39
 70
     1
102
RTVSPropertyOp40
 70
     1
102
RTVSPropertyOp41
 70
     1
102
RTVSPropertyOp42
 70
     1
102
RTVSPropertyOp43
 70
     1
102
RTVSPropertyOp44
 70
     1
102
RTVSPropertyOp45
 70
     1
102
RTVSPropertyOp46
 70
     1
102
RTVSPropertyOp47
 70
     1
102
RTVSPropertyOp48
 70
     1
102
RTVSPropertyOp49
 70
     1
102
RTVSPropertyOp50
 70
     1
102
RTVSPropertyOp51
 70
     0
102
RTVSPropertyOp52
 70
     0
102
RTVSPropertyOp53
 70
     1
102
RTVSPropertyOp54
 70
     1
102
RTVSPropertyOp55
 70
     1
102
RTVSPropertyOp56
 70
     1
102
RTVSPropertyOp57
 70
     1
102
RTVSPropertyOp58
 70
     1
102
RTVSPropertyOp59
 70
     1
102
RTVSPropertyOp60
 70
     1
102
RTVSPropertyOp61
 70
     1
102
RTVSPropertyOp62
 70
     1
  0
XRECORD
  5
3D45
102
{ACAD_REACTORS
330
3D44
102
}
330
3D44
100
AcDbXrecord
280
     1
102
RTVSPost2010Prop28
280
     0
102
RTVSPost2010PropOp28
 70
     1
102
RTVSPost2010Prop29
280
     1
102
RTVSPost2010PropOp29
 70
     1
102
RTVSPost2010Prop30
280
     1
102
RTVSPost2010PropOp30
 70
     1
102
RTVSPost2010Prop31
280
     0
102
RTVSPost2010PropOp31
 70
     1
102
RTVSPost2010Prop32
280
     0
102
RTVSPost2010PropOp32
 70
     1
102
RTVSPost2010Prop33
280
     0
102
RTVSPost2010PropOp33
 70
     1
102
RTVSPost2010Prop34
280
     0
102
RTVSPost2010PropOp34
 70
     1
102
RTVSPost2010Prop35
280
     0
102
RTVSPost2010PropOp35
 70
     1
102
RTVSPost2010Prop36
280
     0
102
RTVSPost2010PropOp36
 70
     1
102
RTVSPost2010Prop37
 90
       50
102
RTVSPost2010PropOp37
 70
     1
102
RTVSPost2010Prop38
140
0.0
102
RTVSPost2010PropOp38
 70
     1
102
RTVSPost2010Prop39
140
1.0
102
RTVSPost2010PropOp39
 70
     1
102
RTVSPost2010Prop40
 90
        0
102
RTVSPost2010PropOp40
 70
     1
102
RTVSPost2010Prop41ColorIndex
 90
       18
102
RTVSPost2010Prop41ColorRGB
 90
        0
102
RTVSPost2010PropOp41
 70
     1
102
RTVSPost2010Prop42
 90
       50
102
RTVSPost2010PropOp42
 70
     1
102
RTVSPost2010Prop43
 90
        3
102
RTVSPost2010PropOp43
 70
     1
102
RTVSPost2010Prop44ColorIndex
 90
        5
102
RTVSPost2010Prop44ColorRGB
 90
      255
102
RTVSPost2010PropOp44
 70
     1
102
RTVSPost2010Prop45
280
     0
102
RTVSPost2010PropOp45
 70
     1
102
RTVSPost2010Prop46
 90
       50
102
RTVSPost2010PropOp46
 70
     1
102
RTVSPost2010Prop47
 90
       50
102
RTVSPost2010PropOp47
 70
     1
102
RTVSPost2010Prop48
 90
       50
102
RTVSPost2010PropOp48
 70
     1
102
RTVSPost2010Prop49
280
     0
102
RTVSPost2010PropOp49
 70
     1
102
RTVSPost2010Prop50
 90
       50
102
RTVSPost2010PropOp50
 70
     1
102
RTVSPost2010Prop51ColorIndex
 90
      256
102
RTVSPost2010Prop51ColorRGB
 90
-16777216
102
RTVSPost2010PropOp51
 70
     0
102
RTVSPost2010Prop52
140
1.0
102
RTVSPost2010PropOp52
 70
     0
102
RTVSPost2010Prop53
 90
        2
102
RTVSPost2010PropOp53
 70
     1
102
RTVSPost2010Prop54
  1
strokes_ogs.tif
102
RTVSPost2010PropOp54
 70
     1
102
RTVSPost2010Prop55
280
     0
102
RTVSPost2010PropOp55
 70
     1
102
RTVSPost2010Prop56
140
1.0
102
RTVSPost2010PropOp56
 70
     1
102
RTVSPost2010Prop57
140
1.0
102
RTVSPost2010PropOp57
 70
     1
102
RTVSPropertyOp0
 70
     1
102
RTVSPropertyOp1
 70
     1
102
RTVSPropertyOp2
 70
     1
102
RTVSPropertyOp3
 70
     1
102
RTVSPropertyOp4
 70
     1
102
RTVSPropertyOp5
 70
     1
102
RTVSPropertyOp6
 70
     1
102
RTVSPropertyOp7
 70
     1
102
RTVSPropertyOp8
 70
     1
102
RTVSPropertyOp9
 70
     1
102
RTVSPropertyOp10
 70
     1
102
RTVSPropertyOp11
 70
     1
102
RTVSPropertyOp12
 70
     1
102
RTVSPropertyOp13
 70
     1
102
RTVSPropertyOp14
 70
     1
102
RTVSPropertyOp15
 70
     1
102
RTVSPropertyOp16
 70
     1
102
RTVSPropertyOp17
 70
     1
102
RTVSPropertyOp18
 70
     1
102
RTVSPropertyOp19
 70
     1
102
RTVSPropertyOp20
 70
     1
102
RTVSPropertyOp21
 70
     1
102
RTVSPropertyOp22
 70
     1
102
RTVSPropertyOp23
 70
     1
102
RTVSPropertyOp24
 70
     1
102
RTVSPropertyOp25
 70
     1
102
RTVSPropertyOp26
 70
     1
102
RTVSPropertyOp27
 70
     1
102
RTVSPropertyOp28
 70
     1
102
RTVSPropertyOp29
 70
     1
102
RTVSPropertyOp30
 70
     1
102
RTVSPropertyOp31
 70
     1
102
RTVSPropertyOp32
 70
     1
102
RTVSPropertyOp33
 70
     1
102
RTVSPropertyOp34
 70
     1
102
RTVSPropertyOp35
 70
     1
102
RTVSPropertyOp36
 70
     1
102
RTVSPropertyOp37
 70
     1
102
RTVSPropertyOp38
 70
     1
102
RTVSPropertyOp39
 70
     1
102
RTVSPropertyOp40
 70
     1
102
RTVSPropertyOp41
 70
     1
102
RTVSPropertyOp42
 70
     1
102
RTVSPropertyOp43
 70
     1
102
RTVSPropertyOp44
 70
     1
102
RTVSPropertyOp45
 70
     1
102
RTVSPropertyOp46
 70
     1
102
RTVSPropertyOp47
 70
     1
102
RTVSPropertyOp48
 70
     1
102
RTVSPropertyOp49
 70
     1
102
RTVSPropertyOp50
 70
     1
102
RTVSPropertyOp51
 70
     0
102
RTVSPropertyOp52
 70
     0
102
RTVSPropertyOp53
 70
     1
102
RTVSPropertyOp54
 70
     1
102
RTVSPropertyOp55
 70
     1
102
RTVSPropertyOp56
 70
     1
102
RTVSPropertyOp57
 70
     1
102
RTVSPropertyOp58
 70
     1
102
RTVSPropertyOp59
 70
     1
102
RTVSPropertyOp60
 70
     1
102
RTVSPropertyOp61
 70
     1
102
RTVSPropertyOp62
 70
     1
  0
XRECORD
  5
3D3F
102
{ACAD_REACTORS
330
3D3E
102
}
330
3D3E
100
AcDbXrecord
280
     1
102
RTVSPost2010Prop28
280
     0
102
RTVSPost2010PropOp28
 70
     1
102
RTVSPost2010Prop29
280
     1
102
RTVSPost2010PropOp29
 70
     1
102
RTVSPost2010Prop30
280
     1
102
RTVSPost2010PropOp30
 70
     1
102
RTVSPost2010Prop31
280
     0
102
RTVSPost2010PropOp31
 70
     1
102
RTVSPost2010Prop32
280
     0
102
RTVSPost2010PropOp32
 70
     1
102
RTVSPost2010Prop33
280
     0
102
RTVSPost2010PropOp33
 70
     1
102
RTVSPost2010Prop34
280
     0
102
RTVSPost2010PropOp34
 70
     1
102
RTVSPost2010Prop35
280
     0
102
RTVSPost2010PropOp35
 70
     1
102
RTVSPost2010Prop36
280
     0
102
RTVSPost2010PropOp36
 70
     1
102
RTVSPost2010Prop37
 90
       50
102
RTVSPost2010PropOp37
 70
     1
102
RTVSPost2010Prop38
140
0.0
102
RTVSPost2010PropOp38
 70
     1
102
RTVSPost2010Prop39
140
1.0
102
RTVSPost2010PropOp39
 70
     1
102
RTVSPost2010Prop40
 90
        0
102
RTVSPost2010PropOp40
 70
     1
102
RTVSPost2010Prop41ColorIndex
 90
       18
102
RTVSPost2010Prop41ColorRGB
 90
        0
102
RTVSPost2010PropOp41
 70
     1
102
RTVSPost2010Prop42
 90
       50
102
RTVSPost2010PropOp42
 70
     1
102
RTVSPost2010Prop43
 90
        3
102
RTVSPost2010PropOp43
 70
     1
102
RTVSPost2010Prop44ColorIndex
 90
        5
102
RTVSPost2010Prop44ColorRGB
 90
      255
102
RTVSPost2010PropOp44
 70
     1
102
RTVSPost2010Prop45
280
     0
102
RTVSPost2010PropOp45
 70
     1
102
RTVSPost2010Prop46
 90
       50
102
RTVSPost2010PropOp46
 70
     1
102
RTVSPost2010Prop47
 90
       50
102
RTVSPost2010PropOp47
 70
     1
102
RTVSPost2010Prop48
 90
       50
102
RTVSPost2010PropOp48
 70
     1
102
RTVSPost2010Prop49
280
     0
102
RTVSPost2010PropOp49
 70
     1
102
RTVSPost2010Prop50
 90
       50
102
RTVSPost2010PropOp50
 70
     1
102
RTVSPost2010Prop51ColorIndex
 90
      256
102
RTVSPost2010Prop51ColorRGB
 90
-16777216
102
RTVSPost2010PropOp51
 70
     0
102
RTVSPost2010Prop52
140
1.0
102
RTVSPost2010PropOp52
 70
     0
102
RTVSPost2010Prop53
 90
        2
102
RTVSPost2010PropOp53
 70
     1
102
RTVSPost2010Prop54
  1
strokes_ogs.tif
102
RTVSPost2010PropOp54
 70
     1
102
RTVSPost2010Prop55
280
     0
102
RTVSPost2010PropOp55
 70
     1
102
RTVSPost2010Prop56
140
1.0
102
RTVSPost2010PropOp56
 70
     1
102
RTVSPost2010Prop57
140
1.0
102
RTVSPost2010PropOp57
 70
     1
102
RTVSPropertyOp0
 70
     1
102
RTVSPropertyOp1
 70
     1
102
RTVSPropertyOp2
 70
     1
102
RTVSPropertyOp3
 70
     1
102
RTVSPropertyOp4
 70
     1
102
RTVSPropertyOp5
 70
     1
102
RTVSPropertyOp6
 70
     1
102
RTVSPropertyOp7
 70
     1
102
RTVSPropertyOp8
 70
     1
102
RTVSPropertyOp9
 70
     1
102
RTVSPropertyOp10
 70
     1
102
RTVSPropertyOp11
 70
     1
102
RTVSPropertyOp12
 70
     1
102
RTVSPropertyOp13
 70
     1
102
RTVSPropertyOp14
 70
     1
102
RTVSPropertyOp15
 70
     1
102
RTVSPropertyOp16
 70
     1
102
RTVSPropertyOp17
 70
     1
102
RTVSPropertyOp18
 70
     1
102
RTVSPropertyOp19
 70
     1
102
RTVSPropertyOp20
 70
     1
102
RTVSPropertyOp21
 70
     1
102
RTVSPropertyOp22
 70
     1
102
RTVSPropertyOp23
 70
     1
102
RTVSPropertyOp24
 70
     1
102
RTVSPropertyOp25
 70
     1
102
RTVSPropertyOp26
 70
     1
102
RTVSPropertyOp27
 70
     1
102
RTVSPropertyOp28
 70
     1
102
RTVSPropertyOp29
 70
     1
102
RTVSPropertyOp30
 70
     1
102
RTVSPropertyOp31
 70
     1
102
RTVSPropertyOp32
 70
     1
102
RTVSPropertyOp33
 70
     1
102
RTVSPropertyOp34
 70
     1
102
RTVSPropertyOp35
 70
     1
102
RTVSPropertyOp36
 70
     1
102
RTVSPropertyOp37
 70
     1
102
RTVSPropertyOp38
 70
     1
102
RTVSPropertyOp39
 70
     1
102
RTVSPropertyOp40
 70
     1
102
RTVSPropertyOp41
 70
     1
102
RTVSPropertyOp42
 70
     1
102
RTVSPropertyOp43
 70
     1
102
RTVSPropertyOp44
 70
     1
102
RTVSPropertyOp45
 70
     1
102
RTVSPropertyOp46
 70
     1
102
RTVSPropertyOp47
 70
     1
102
RTVSPropertyOp48
 70
     1
102
RTVSPropertyOp49
 70
     1
102
RTVSPropertyOp50
 70
     1
102
RTVSPropertyOp51
 70
     0
102
RTVSPropertyOp52
 70
     0
102
RTVSPropertyOp53
 70
     1
102
RTVSPropertyOp54
 70
     1
102
RTVSPropertyOp55
 70
     1
102
RTVSPropertyOp56
 70
     1
102
RTVSPropertyOp57
 70
     1
102
RTVSPropertyOp58
 70
     1
102
RTVSPropertyOp59
 70
     1
102
RTVSPropertyOp60
 70
     1
102
RTVSPropertyOp61
 70
     1
102
RTVSPropertyOp62
 70
     1
  0
XRECORD
  5
3D41
102
{ACAD_REACTORS
330
3D40
102
}
330
3D40
100
AcDbXrecord
280
     1
102
RTVSPost2010Prop28
280
     0
102
RTVSPost2010PropOp28
 70
     1
102
RTVSPost2010Prop29
280
     1
102
RTVSPost2010PropOp29
 70
     1
102
RTVSPost2010Prop30
280
     1
102
RTVSPost2010PropOp30
 70
     1
102
RTVSPost2010Prop31
280
     0
102
RTVSPost2010PropOp31
 70
     1
102
RTVSPost2010Prop32
280
     0
102
RTVSPost2010PropOp32
 70
     1
102
RTVSPost2010Prop33
280
     0
102
RTVSPost2010PropOp33
 70
     1
102
RTVSPost2010Prop34
280
     0
102
RTVSPost2010PropOp34
 70
     1
102
RTVSPost2010Prop35
280
     0
102
RTVSPost2010PropOp35
 70
     1
102
RTVSPost2010Prop36
280
     0
102
RTVSPost2010PropOp36
 70
     1
102
RTVSPost2010Prop37
 90
       50
102
RTVSPost2010PropOp37
 70
     1
102
RTVSPost2010Prop38
140
0.0
102
RTVSPost2010PropOp38
 70
     1
102
RTVSPost2010Prop39
140
1.0
102
RTVSPost2010PropOp39
 70
     1
102
RTVSPost2010Prop40
 90
        0
102
RTVSPost2010PropOp40
 70
     1
102
RTVSPost2010Prop41ColorIndex
 90
       18
102
RTVSPost2010Prop41ColorRGB
 90
        0
102
RTVSPost2010PropOp41
 70
     1
102
RTVSPost2010Prop42
 90
       50
102
RTVSPost2010PropOp42
 70
     1
102
RTVSPost2010Prop43
 90
        3
102
RTVSPost2010PropOp43
 70
     1
102
RTVSPost2010Prop44ColorIndex
 90
        5
102
RTVSPost2010Prop44ColorRGB
 90
      255
102
RTVSPost2010PropOp44
 70
     1
102
RTVSPost2010Prop45
280
     0
102
RTVSPost2010PropOp45
 70
     1
102
RTVSPost2010Prop46
 90
       50
102
RTVSPost2010PropOp46
 70
     1
102
RTVSPost2010Prop47
 90
       50
102
RTVSPost2010PropOp47
 70
     1
102
RTVSPost2010Prop48
 90
       50
102
RTVSPost2010PropOp48
 70
     1
102
RTVSPost2010Prop49
280
     0
102
RTVSPost2010PropOp49
 70
     1
102
RTVSPost2010Prop50
 90
       50
102
RTVSPost2010PropOp50
 70
     1
102
RTVSPost2010Prop51ColorIndex
 90
      256
102
RTVSPost2010Prop51ColorRGB
 90
-16777216
102
RTVSPost2010PropOp51
 70
     0
102
RTVSPost2010Prop52
140
1.0
102
RTVSPost2010PropOp52
 70
     0
102
RTVSPost2010Prop53
 90
        2
102
RTVSPost2010PropOp53
 70
     1
102
RTVSPost2010Prop54
  1
strokes_ogs.tif
102
RTVSPost2010PropOp54
 70
     1
102
RTVSPost2010Prop55
280
     0
102
RTVSPost2010PropOp55
 70
     1
102
RTVSPost2010Prop56
140
1.0
102
RTVSPost2010PropOp56
 70
     1
102
RTVSPost2010Prop57
140
1.0
102
RTVSPost2010PropOp57
 70
     1
102
RTVSPropertyOp0
 70
     1
102
RTVSPropertyOp1
 70
     1
102
RTVSPropertyOp2
 70
     1
102
RTVSPropertyOp3
 70
     1
102
RTVSPropertyOp4
 70
     1
102
RTVSPropertyOp5
 70
     1
102
RTVSPropertyOp6
 70
     1
102
RTVSPropertyOp7
 70
     1
102
RTVSPropertyOp8
 70
     1
102
RTVSPropertyOp9
 70
     1
102
RTVSPropertyOp10
 70
     1
102
RTVSPropertyOp11
 70
     1
102
RTVSPropertyOp12
 70
     1
102
RTVSPropertyOp13
 70
     1
102
RTVSPropertyOp14
 70
     1
102
RTVSPropertyOp15
 70
     1
102
RTVSPropertyOp16
 70
     1
102
RTVSPropertyOp17
 70
     1
102
RTVSPropertyOp18
 70
     1
102
RTVSPropertyOp19
 70
     1
102
RTVSPropertyOp20
 70
     1
102
RTVSPropertyOp21
 70
     1
102
RTVSPropertyOp22
 70
     1
102
RTVSPropertyOp23
 70
     1
102
RTVSPropertyOp24
 70
     1
102
RTVSPropertyOp25
 70
     1
102
RTVSPropertyOp26
 70
     1
102
RTVSPropertyOp27
 70
     1
102
RTVSPropertyOp28
 70
     1
102
RTVSPropertyOp29
 70
     1
102
RTVSPropertyOp30
 70
     1
102
RTVSPropertyOp31
 70
     1
102
RTVSPropertyOp32
 70
     1
102
RTVSPropertyOp33
 70
     1
102
RTVSPropertyOp34
 70
     1
102
RTVSPropertyOp35
 70
     1
102
RTVSPropertyOp36
 70
     1
102
RTVSPropertyOp37
 70
     1
102
RTVSPropertyOp38
 70
     1
102
RTVSPropertyOp39
 70
     1
102
RTVSPropertyOp40
 70
     1
102
RTVSPropertyOp41
 70
     1
102
RTVSPropertyOp42
 70
     1
102
RTVSPropertyOp43
 70
     1
102
RTVSPropertyOp44
 70
     1
102
RTVSPropertyOp45
 70
     1
102
RTVSPropertyOp46
 70
     1
102
RTVSPropertyOp47
 70
     1
102
RTVSPropertyOp48
 70
     1
102
RTVSPropertyOp49
 70
     1
102
RTVSPropertyOp50
 70
     1
102
RTVSPropertyOp51
 70
     0
102
RTVSPropertyOp52
 70
     0
102
RTVSPropertyOp53
 70
     1
102
RTVSPropertyOp54
 70
     1
102
RTVSPropertyOp55
 70
     1
102
RTVSPropertyOp56
 70
     1
102
RTVSPropertyOp57
 70
     1
102
RTVSPropertyOp58
 70
     1
102
RTVSPropertyOp59
 70
     1
102
RTVSPropertyOp60
 70
     1
102
RTVSPropertyOp61
 70
     1
102
RTVSPropertyOp62
 70
     1
  0
XRECORD
  5
3D0C
102
{ACAD_REACTORS
330
3D0B
102
}
330
3D0B
100
AcDbXrecord
280
     1
102
RTVSPost2010Prop28
280
     0
102
RTVSPost2010PropOp28
 70
     1
102
RTVSPost2010Prop29
280
     1
102
RTVSPost2010PropOp29
 70
     1
102
RTVSPost2010Prop30
280
     1
102
RTVSPost2010PropOp30
 70
     1
102
RTVSPost2010Prop31
280
     0
102
RTVSPost2010PropOp31
 70
     1
102
RTVSPost2010Prop32
280
     0
102
RTVSPost2010PropOp32
 70
     1
102
RTVSPost2010Prop33
280
     0
102
RTVSPost2010PropOp33
 70
     1
102
RTVSPost2010Prop34
280
     0
102
RTVSPost2010PropOp34
 70
     1
102
RTVSPost2010Prop35
280
     0
102
RTVSPost2010PropOp35
 70
     1
102
RTVSPost2010Prop36
280
     0
102
RTVSPost2010PropOp36
 70
     1
102
RTVSPost2010Prop37
 90
       50
102
RTVSPost2010PropOp37
 70
     1
102
RTVSPost2010Prop38
140
0.0
102
RTVSPost2010PropOp38
 70
     1
102
RTVSPost2010Prop39
140
1.0
102
RTVSPost2010PropOp39
 70
     1
102
RTVSPost2010Prop40
 90
        0
102
RTVSPost2010PropOp40
 70
     1
102
RTVSPost2010Prop41ColorIndex
 90
       18
102
RTVSPost2010Prop41ColorRGB
 90
        0
102
RTVSPost2010PropOp41
 70
     1
102
RTVSPost2010Prop42
 90
       50
102
RTVSPost2010PropOp42
 70
     1
102
RTVSPost2010Prop43
 90
        3
102
RTVSPost2010PropOp43
 70
     1
102
RTVSPost2010Prop44ColorIndex
 90
        5
102
RTVSPost2010Prop44ColorRGB
 90
      255
102
RTVSPost2010PropOp44
 70
     1
102
RTVSPost2010Prop45
280
     0
102
RTVSPost2010PropOp45
 70
     1
102
RTVSPost2010Prop46
 90
       50
102
RTVSPost2010PropOp46
 70
     1
102
RTVSPost2010Prop47
 90
       50
102
RTVSPost2010PropOp47
 70
     1
102
RTVSPost2010Prop48
 90
       50
102
RTVSPost2010PropOp48
 70
     1
102
RTVSPost2010Prop49
280
     0
102
RTVSPost2010PropOp49
 70
     1
102
RTVSPost2010Prop50
 90
       50
102
RTVSPost2010PropOp50
 70
     1
102
RTVSPost2010Prop51ColorIndex
 90
      256
102
RTVSPost2010Prop51ColorRGB
 90
-16777216
102
RTVSPost2010PropOp51
 70
     0
102
RTVSPost2010Prop52
140
1.0
102
RTVSPost2010PropOp52
 70
     0
102
RTVSPost2010Prop53
 90
        2
102
RTVSPost2010PropOp53
 70
     1
102
RTVSPost2010Prop54
  1
strokes_ogs.tif
102
RTVSPost2010PropOp54
 70
     1
102
RTVSPost2010Prop55
280
     0
102
RTVSPost2010PropOp55
 70
     1
102
RTVSPost2010Prop56
140
1.0
102
RTVSPost2010PropOp56
 70
     1
102
RTVSPost2010Prop57
140
1.0
102
RTVSPost2010PropOp57
 70
     1
102
RTVSPropertyOp0
 70
     1
102
RTVSPropertyOp1
 70
     1
102
RTVSPropertyOp2
 70
     1
102
RTVSPropertyOp3
 70
     1
102
RTVSPropertyOp4
 70
     1
102
RTVSPropertyOp5
 70
     1
102
RTVSPropertyOp6
 70
     1
102
RTVSPropertyOp7
 70
     1
102
RTVSPropertyOp8
 70
     1
102
RTVSPropertyOp9
 70
     1
102
RTVSPropertyOp10
 70
     1
102
RTVSPropertyOp11
 70
     1
102
RTVSPropertyOp12
 70
     1
102
RTVSPropertyOp13
 70
     1
102
RTVSPropertyOp14
 70
     1
102
RTVSPropertyOp15
 70
     1
102
RTVSPropertyOp16
 70
     1
102
RTVSPropertyOp17
 70
     1
102
RTVSPropertyOp18
 70
     1
102
RTVSPropertyOp19
 70
     1
102
RTVSPropertyOp20
 70
     1
102
RTVSPropertyOp21
 70
     1
102
RTVSPropertyOp22
 70
     1
102
RTVSPropertyOp23
 70
     1
102
RTVSPropertyOp24
 70
     1
102
RTVSPropertyOp25
 70
     1
102
RTVSPropertyOp26
 70
     1
102
RTVSPropertyOp27
 70
     1
102
RTVSPropertyOp28
 70
     1
102
RTVSPropertyOp29
 70
     1
102
RTVSPropertyOp30
 70
     1
102
RTVSPropertyOp31
 70
     1
102
RTVSPropertyOp32
 70
     1
102
RTVSPropertyOp33
 70
     1
102
RTVSPropertyOp34
 70
     1
102
RTVSPropertyOp35
 70
     1
102
RTVSPropertyOp36
 70
     1
102
RTVSPropertyOp37
 70
     1
102
RTVSPropertyOp38
 70
     1
102
RTVSPropertyOp39
 70
     1
102
RTVSPropertyOp40
 70
     1
102
RTVSPropertyOp41
 70
     1
102
RTVSPropertyOp42
 70
     1
102
RTVSPropertyOp43
 70
     1
102
RTVSPropertyOp44
 70
     1
102
RTVSPropertyOp45
 70
     1
102
RTVSPropertyOp46
 70
     1
102
RTVSPropertyOp47
 70
     1
102
RTVSPropertyOp48
 70
     1
102
RTVSPropertyOp49
 70
     1
102
RTVSPropertyOp50
 70
     1
102
RTVSPropertyOp51
 70
     0
102
RTVSPropertyOp52
 70
     0
102
RTVSPropertyOp53
 70
     1
102
RTVSPropertyOp54
 70
     1
102
RTVSPropertyOp55
 70
     1
102
RTVSPropertyOp56
 70
     1
102
RTVSPropertyOp57
 70
     1
102
RTVSPropertyOp58
 70
     1
102
RTVSPropertyOp59
 70
     1
102
RTVSPropertyOp60
 70
     1
102
RTVSPropertyOp61
 70
     1
102
RTVSPropertyOp62
 70
     1
  0
XRECORD
  5
3D3B
102
{ACAD_REACTORS
330
3D3A
102
}
330
3D3A
100
AcDbXrecord
280
     1
102
RTVSPost2010Prop28
280
     0
102
RTVSPost2010PropOp28
 70
     1
102
RTVSPost2010Prop29
280
     1
102
RTVSPost2010PropOp29
 70
     1
102
RTVSPost2010Prop30
280
     1
102
RTVSPost2010PropOp30
 70
     1
102
RTVSPost2010Prop31
280
     0
102
RTVSPost2010PropOp31
 70
     1
102
RTVSPost2010Prop32
280
     0
102
RTVSPost2010PropOp32
 70
     1
102
RTVSPost2010Prop33
280
     0
102
RTVSPost2010PropOp33
 70
     1
102
RTVSPost2010Prop34
280
     0
102
RTVSPost2010PropOp34
 70
     1
102
RTVSPost2010Prop35
280
     0
102
RTVSPost2010PropOp35
 70
     1
102
RTVSPost2010Prop36
280
     0
102
RTVSPost2010PropOp36
 70
     1
102
RTVSPost2010Prop37
 90
       50
102
RTVSPost2010PropOp37
 70
     1
102
RTVSPost2010Prop38
140
0.0
102
RTVSPost2010PropOp38
 70
     1
102
RTVSPost2010Prop39
140
1.0
102
RTVSPost2010PropOp39
 70
     1
102
RTVSPost2010Prop40
 90
        0
102
RTVSPost2010PropOp40
 70
     1
102
RTVSPost2010Prop41ColorIndex
 90
       18
102
RTVSPost2010Prop41ColorRGB
 90
        0
102
RTVSPost2010PropOp41
 70
     1
102
RTVSPost2010Prop42
 90
       50
102
RTVSPost2010PropOp42
 70
     1
102
RTVSPost2010Prop43
 90
        3
102
RTVSPost2010PropOp43
 70
     1
102
RTVSPost2010Prop44ColorIndex
 90
        5
102
RTVSPost2010Prop44ColorRGB
 90
      255
102
RTVSPost2010PropOp44
 70
     1
102
RTVSPost2010Prop45
280
     0
102
RTVSPost2010PropOp45
 70
     1
102
RTVSPost2010Prop46
 90
       50
102
RTVSPost2010PropOp46
 70
     1
102
RTVSPost2010Prop47
 90
       50
102
RTVSPost2010PropOp47
 70
     1
102
RTVSPost2010Prop48
 90
       50
102
RTVSPost2010PropOp48
 70
     1
102
RTVSPost2010Prop49
280
     0
102
RTVSPost2010PropOp49
 70
     1
102
RTVSPost2010Prop50
 90
       50
102
RTVSPost2010PropOp50
 70
     1
102
RTVSPost2010Prop51ColorIndex
 90
      256
102
RTVSPost2010Prop51ColorRGB
 90
-16777216
102
RTVSPost2010PropOp51
 70
     0
102
RTVSPost2010Prop52
140
1.0
102
RTVSPost2010PropOp52
 70
     0
102
RTVSPost2010Prop53
 90
        2
102
RTVSPost2010PropOp53
 70
     1
102
RTVSPost2010Prop54
  1
strokes_ogs.tif
102
RTVSPost2010PropOp54
 70
     1
102
RTVSPost2010Prop55
280
     0
102
RTVSPost2010PropOp55
 70
     1
102
RTVSPost2010Prop56
140
1.0
102
RTVSPost2010PropOp56
 70
     1
102
RTVSPost2010Prop57
140
1.0
102
RTVSPost2010PropOp57
 70
     1
102
RTVSPropertyOp0
 70
     1
102
RTVSPropertyOp1
 70
     1
102
RTVSPropertyOp2
 70
     1
102
RTVSPropertyOp3
 70
     1
102
RTVSPropertyOp4
 70
     1
102
RTVSPropertyOp5
 70
     1
102
RTVSPropertyOp6
 70
     1
102
RTVSPropertyOp7
 70
     1
102
RTVSPropertyOp8
 70
     1
102
RTVSPropertyOp9
 70
     1
102
RTVSPropertyOp10
 70
     1
102
RTVSPropertyOp11
 70
     1
102
RTVSPropertyOp12
 70
     1
102
RTVSPropertyOp13
 70
     1
102
RTVSPropertyOp14
 70
     1
102
RTVSPropertyOp15
 70
     1
102
RTVSPropertyOp16
 70
     1
102
RTVSPropertyOp17
 70
     1
102
RTVSPropertyOp18
 70
     1
102
RTVSPropertyOp19
 70
     1
102
RTVSPropertyOp20
 70
     1
102
RTVSPropertyOp21
 70
     1
102
RTVSPropertyOp22
 70
     1
102
RTVSPropertyOp23
 70
     1
102
RTVSPropertyOp24
 70
     1
102
RTVSPropertyOp25
 70
     1
102
RTVSPropertyOp26
 70
     1
102
RTVSPropertyOp27
 70
     1
102
RTVSPropertyOp28
 70
     1
102
RTVSPropertyOp29
 70
     1
102
RTVSPropertyOp30
 70
     1
102
RTVSPropertyOp31
 70
     1
102
RTVSPropertyOp32
 70
     1
102
RTVSPropertyOp33
 70
     1
102
RTVSPropertyOp34
 70
     1
102
RTVSPropertyOp35
 70
     1
102
RTVSPropertyOp36
 70
     1
102
RTVSPropertyOp37
 70
     1
102
RTVSPropertyOp38
 70
     1
102
RTVSPropertyOp39
 70
     1
102
RTVSPropertyOp40
 70
     1
102
RTVSPropertyOp41
 70
     1
102
RTVSPropertyOp42
 70
     1
102
RTVSPropertyOp43
 70
     1
102
RTVSPropertyOp44
 70
     1
102
RTVSPropertyOp45
 70
     1
102
RTVSPropertyOp46
 70
     1
102
RTVSPropertyOp47
 70
     1
102
RTVSPropertyOp48
 70
     1
102
RTVSPropertyOp49
 70
     1
102
RTVSPropertyOp50
 70
     1
102
RTVSPropertyOp51
 70
     0
102
RTVSPropertyOp52
 70
     0
102
RTVSPropertyOp53
 70
     1
102
RTVSPropertyOp54
 70
     1
102
RTVSPropertyOp55
 70
     1
102
RTVSPropertyOp56
 70
     1
102
RTVSPropertyOp57
 70
     1
102
RTVSPropertyOp58
 70
     1
102
RTVSPropertyOp59
 70
     1
102
RTVSPropertyOp60
 70
     1
102
RTVSPropertyOp61
 70
     1
102
RTVSPropertyOp62
 70
     1
  0
XRECORD
  5
3D43
102
{ACAD_REACTORS
330
3D42
102
}
330
3D42
100
AcDbXrecord
280
     1
102
RTVSPost2010Prop28
280
     0
102
RTVSPost2010PropOp28
 70
     1
102
RTVSPost2010Prop29
280
     1
102
RTVSPost2010PropOp29
 70
     1
102
RTVSPost2010Prop30
280
     1
102
RTVSPost2010PropOp30
 70
     1
102
RTVSPost2010Prop31
280
     0
102
RTVSPost2010PropOp31
 70
     1
102
RTVSPost2010Prop32
280
     0
102
RTVSPost2010PropOp32
 70
     1
102
RTVSPost2010Prop33
280
     0
102
RTVSPost2010PropOp33
 70
     1
102
RTVSPost2010Prop34
280
     0
102
RTVSPost2010PropOp34
 70
     1
102
RTVSPost2010Prop35
280
     0
102
RTVSPost2010PropOp35
 70
     1
102
RTVSPost2010Prop36
280
     0
102
RTVSPost2010PropOp36
 70
     1
102
RTVSPost2010Prop37
 90
       50
102
RTVSPost2010PropOp37
 70
     1
102
RTVSPost2010Prop38
140
0.0
102
RTVSPost2010PropOp38
 70
     1
102
RTVSPost2010Prop39
140
1.0
102
RTVSPost2010PropOp39
 70
     1
102
RTVSPost2010Prop40
 90
        0
102
RTVSPost2010PropOp40
 70
     1
102
RTVSPost2010Prop41ColorIndex
 90
       18
102
RTVSPost2010Prop41ColorRGB
 90
        0
102
RTVSPost2010PropOp41
 70
     1
102
RTVSPost2010Prop42
 90
       50
102
RTVSPost2010PropOp42
 70
     1
102
RTVSPost2010Prop43
 90
        3
102
RTVSPost2010PropOp43
 70
     1
102
RTVSPost2010Prop44ColorIndex
 90
        5
102
RTVSPost2010Prop44ColorRGB
 90
      255
102
RTVSPost2010PropOp44
 70
     1
102
RTVSPost2010Prop45
280
     0
102
RTVSPost2010PropOp45
 70
     1
102
RTVSPost2010Prop46
 90
       50
102
RTVSPost2010PropOp46
 70
     1
102
RTVSPost2010Prop47
 90
       50
102
RTVSPost2010PropOp47
 70
     1
102
RTVSPost2010Prop48
 90
       50
102
RTVSPost2010PropOp48
 70
     1
102
RTVSPost2010Prop49
280
     0
102
RTVSPost2010PropOp49
 70
     1
102
RTVSPost2010Prop50
 90
       50
102
RTVSPost2010PropOp50
 70
     1
102
RTVSPost2010Prop51ColorIndex
 90
      256
102
RTVSPost2010Prop51ColorRGB
 90
-16777216
102
RTVSPost2010PropOp51
 70
     0
102
RTVSPost2010Prop52
140
1.0
102
RTVSPost2010PropOp52
 70
     0
102
RTVSPost2010Prop53
 90
        2
102
RTVSPost2010PropOp53
 70
     1
102
RTVSPost2010Prop54
  1
strokes_ogs.tif
102
RTVSPost2010PropOp54
 70
     1
102
RTVSPost2010Prop55
280
     0
102
RTVSPost2010PropOp55
 70
     1
102
RTVSPost2010Prop56
140
1.0
102
RTVSPost2010PropOp56
 70
     1
102
RTVSPost2010Prop57
140
1.0
102
RTVSPost2010PropOp57
 70
     1
102
RTVSPropertyOp0
 70
     1
102
RTVSPropertyOp1
 70
     1
102
RTVSPropertyOp2
 70
     1
102
RTVSPropertyOp3
 70
     1
102
RTVSPropertyOp4
 70
     1
102
RTVSPropertyOp5
 70
     1
102
RTVSPropertyOp6
 70
     1
102
RTVSPropertyOp7
 70
     1
102
RTVSPropertyOp8
 70
     1
102
RTVSPropertyOp9
 70
     1
102
RTVSPropertyOp10
 70
     1
102
RTVSPropertyOp11
 70
     1
102
RTVSPropertyOp12
 70
     1
102
RTVSPropertyOp13
 70
     1
102
RTVSPropertyOp14
 70
     1
102
RTVSPropertyOp15
 70
     1
102
RTVSPropertyOp16
 70
     1
102
RTVSPropertyOp17
 70
     1
102
RTVSPropertyOp18
 70
     1
102
RTVSPropertyOp19
 70
     1
102
RTVSPropertyOp20
 70
     1
102
RTVSPropertyOp21
 70
     1
102
RTVSPropertyOp22
 70
     1
102
RTVSPropertyOp23
 70
     1
102
RTVSPropertyOp24
 70
     1
102
RTVSPropertyOp25
 70
     1
102
RTVSPropertyOp26
 70
     1
102
RTVSPropertyOp27
 70
     1
102
RTVSPropertyOp28
 70
     1
102
RTVSPropertyOp29
 70
     1
102
RTVSPropertyOp30
 70
     1
102
RTVSPropertyOp31
 70
     1
102
RTVSPropertyOp32
 70
     1
102
RTVSPropertyOp33
 70
     1
102
RTVSPropertyOp34
 70
     1
102
RTVSPropertyOp35
 70
     1
102
RTVSPropertyOp36
 70
     1
102
RTVSPropertyOp37
 70
     1
102
RTVSPropertyOp38
 70
     1
102
RTVSPropertyOp39
 70
     1
102
RTVSPropertyOp40
 70
     1
102
RTVSPropertyOp41
 70
     1
102
RTVSPropertyOp42
 70
     1
102
RTVSPropertyOp43
 70
     1
102
RTVSPropertyOp44
 70
     1
102
RTVSPropertyOp45
 70
     1
102
RTVSPropertyOp46
 70
     1
102
RTVSPropertyOp47
 70
     1
102
RTVSPropertyOp48
 70
     1
102
RTVSPropertyOp49
 70
     1
102
RTVSPropertyOp50
 70
     1
102
RTVSPropertyOp51
 70
     0
102
RTVSPropertyOp52
 70
     0
102
RTVSPropertyOp53
 70
     1
102
RTVSPropertyOp54
 70
     1
102
RTVSPropertyOp55
 70
     1
102
RTVSPropertyOp56
 70
     1
102
RTVSPropertyOp57
 70
     1
102
RTVSPropertyOp58
 70
     1
102
RTVSPropertyOp59
 70
     1
102
RTVSPropertyOp60
 70
     1
102
RTVSPropertyOp61
 70
     1
102
RTVSPropertyOp62
 70
     1
  0
ENDSEC
  0
EOF
