  0
SECTION
  2
HEADER
  9
$ACADVER
  1
AC1015
  9
$ACADMAINTVER
 70
    20
  9
$DWGCODEPAGE
  3
ANSI_932
  9
$INSBASE
 10
0.0
 20
0.0
 30
0.0
  9
$EXTMIN
 10
30.8389401462
 20
22.8924292978
 30
0.0
  9
$EXTMAX
 10
1068.5367325166
 20
511.5274495212
 30
0.0
  9
$LIMMIN
 10
-117.3201972318
 20
-39.2066192667
  9
$LIMMAX
 10
999.9620210273
 20
594.2684540129
  9
$ORTHOMODE
 70
     1
  9
$REGENMODE
 70
     1
  9
$FILLMODE
 70
     1
  9
$QTEXTMODE
 70
     0
  9
$MIRRTEXT
 70
     0
  9
$LTSCALE
 40
3.0
  9
$ATTMODE
 70
     1
  9
$TEXTSIZE
 40
2.0
  9
$TRACEWID
 40
1.0
  9
$TEXTSTYLE
  7
STANDARD
  9
$CLAYER
  8
0
  9
$CELTYPE
  6
BYLAYER
  9
$CECOLOR
 62
   256
  9
$CELTSCALE
 40
1.0
  9
$DISPSILH
 70
     0
  9
$DIMSCALE
 40
3.0
  9
$DIMASZ
 40
1.8
  9
$DIMEXO
 40
0.625
  9
$DIMDLI
 40
3.75
  9
$DIMRND
 40
0.0
  9
$DIMDLE
 40
0.0
  9
$DIMEXE
 40
0.8
  9
$DIMTP
 40
0.0
  9
$DIMTM
 40
0.0
  9
$DIMTXT
 40
1.8
  9
$DIMCEN
 40
2.5
  9
$DIMTSZ
 40
0.0
  9
$DIMTOL
 70
     0
  9
$DIMLIM
 70
     0
  9
$DIMTIH
 70
     0
  9
$DIMTOH
 70
     0
  9
$DIMSE1
 70
     0
  9
$DIMSE2
 70
     0
  9
$DIMTAD
 70
     1
  9
$DIMZIN
 70
     8
  9
$DIMBLK
  1

  9
$DIMASO
 70
     1
  9
$DIMSHO
 70
     1
  9
$DIMPOST
  1

  9
$DIMAPOST
  1

  9
$DIMALT
 70
     0
  9
$DIMALTD
 70
     4
  9
$DIMALTF
 40
0.0394
  9
$DIMLFAC
 40
1.0
  9
$DIMTOFL
 70
     1
  9
$DIMTVP
 40
0.0
  9
$DIMTIX
 70
     0
  9
$DIMSOXD
 70
     0
  9
$DIMSAH
 70
     0
  9
$DIMBLK1
  1

  9
$DIMBLK2
  1

  9
$DIMSTYLE
  2
STANDARD
  9
$DIMCLRD
 70
     0
  9
$DIMCLRE
 70
     0
  9
$DIMCLRT
 70
     0
  9
$DIMTFAC
 40
1.0
  9
$DIMGAP
 40
0.75
  9
$DIMJUST
 70
     0
  9
$DIMSD1
 70
     0
  9
$DIMSD2
 70
     0
  9
$DIMTOLJ
 70
     1
  9
$DIMTZIN
 70
     0
  9
$DIMALTZ
 70
     0
  9
$DIMALTTZ
 70
     0
  9
$DIMUPT
 70
     0
  9
$DIMDEC
 70
     2
  9
$DIMTDEC
 70
     2
  9
$DIMALTU
 70
     8
  9
$DIMALTTD
 70
     4
  9
$DIMTXSTY
  7
STANDARD
  9
$DIMAUNIT
 70
     0
  9
$DIMADEC
 70
     2
  9
$DIMALTRND
 40
0.0
  9
$DIMAZIN
 70
     0
  9
$DIMDSEP
 70
    46
  9
$DIMATFIT
 70
     3
  9
$DIMFRAC
 70
     0
  9
$DIMLDRBLK
  1

  9
$DIMLUNIT
 70
     6
  9
$DIMLWD
 70
    -2
  9
$DIMLWE
 70
    -2
  9
$DIMTMOVE
 70
     0
  9
$LUNITS
 70
     2
  9
$LUPREC
 70
     3
  9
$SKETCHINC
 40
1.0
  9
$FILLETRAD
 40
10.0
  9
$AUNITS
 70
     0
  9
$AUPREC
 70
     2
  9
$MENU
  1
.
  9
$ELEVATION
 40
0.0
  9
$PELEVATION
 40
0.0
  9
$THICKNESS
 40
0.0
  9
$LIMCHECK
 70
     0
  9
$CHAMFERA
 40
0.0
  9
$CHAMFERB
 40
0.0
  9
$CHAMFERC
 40
20.0
  9
$CHAMFERD
 40
0.0
  9
$SKPOLY
 70
     0
  9
$TDCREATE
 40
2453753.553796297
  9
$TDUCREATE
 40
2453753.178798102
  9
$TDUPDATE
 40
2460248.344548611
  9
$TDUUPDATE
 40
2460247.969548611
  9
$TDINDWG
 40
-24.2274713657
  9
$TDUSRTIMER
 40
-24.2274715394
  9
$USRTIMER
 70
     1
  9
$ANGBASE
 50
0.0
  9
$ANGDIR
 70
     0
  9
$PDMODE
 70
     0
  9
$PDSIZE
 40
-10.0
  9
$PLINEWID
 40
0.0
  9
$SPLFRAME
 70
     0
  9
$SPLINETYPE
 70
     6
  9
$SPLINESEGS
 70
     8
  9
$HANDSEED
  5
3D95
  9
$SURFTAB1
 70
     6
  9
$SURFTAB2
 70
     6
  9
$SURFTYPE
 70
     6
  9
$SURFU
 70
     6
  9
$SURFV
 70
     6
  9
$UCSBASE
  2

  9
$UCSNAME
  2

  9
$UCSORG
 10
0.0
 20
0.0
 30
0.0
  9
$UCSXDIR
 10
1.0
 20
0.0
 30
0.0
  9
$UCSYDIR
 10
0.0
 20
1.0
 30
0.0
  9
$UCSORTHOREF
  2

  9
$UCSORTHOVIEW
 70
     0
  9
$UCSORGTOP
 10
0.0
 20
0.0
 30
0.0
  9
$UCSORGBOTTOM
 10
0.0
 20
0.0
 30
0.0
  9
$UCSORGLEFT
 10
0.0
 20
0.0
 30
0.0
  9
$UCSORGRIGHT
 10
0.0
 20
0.0
 30
0.0
  9
$UCSORGFRONT
 10
0.0
 20
0.0
 30
0.0
  9
$UCSORGBACK
 10
0.0
 20
0.0
 30
0.0
  9
$PUCSBASE
  2

  9
$PUCSNAME
  2

  9
$PUCSORG
 10
0.0
 20
0.0
 30
0.0
  9
$PUCSXDIR
 10
1.0
 20
0.0
 30
0.0
  9
$PUCSYDIR
 10
0.0
 20
1.0
 30
0.0
  9
$PUCSORTHOREF
  2

  9
$PUCSORTHOVIEW
 70
     0
  9
$PUCSORGTOP
 10
0.0
 20
0.0
 30
0.0
  9
$PUCSORGBOTTOM
 10
0.0
 20
0.0
 30
0.0
  9
$PUCSORGLEFT
 10
0.0
 20
0.0
 30
0.0
  9
$PUCSORGRIGHT
 10
0.0
 20
0.0
 30
0.0
  9
$PUCSORGFRONT
 10
0.0
 20
0.0
 30
0.0
  9
$PUCSORGBACK
 10
0.0
 20
0.0
 30
0.0
  9
$USERI1
 70
     0
  9
$USERI2
 70
     0
  9
$USERI3
 70
     0
  9
$USERI4
 70
     0
  9
$USERI5
 70
     0
  9
$USERR1
 40
0.0
  9
$USERR2
 40
0.0
  9
$USERR3
 40
0.0
  9
$USERR4
 40
0.0
  9
$USERR5
 40
0.0
  9
$WORLDVIEW
 70
     1
  9
$SHADEDGE
 70
     3
  9
$SHADEDIF
 70
    70
  9
$TILEMODE
 70
     1
  9
$MAXACTVP
 70
    48
  9
$PINSBASE
 10
0.0
 20
0.0
 30
0.0
  9
$PLIMCHECK
 70
     0
  9
$PEXTMIN
 10
0.0
 20
0.0
 30
0.0
  9
$PEXTMAX
 10
0.0
 20
0.0
 30
0.0
  9
$PLIMMIN
 10
0.0
 20
0.0
  9
$PLIMMAX
 10
12.0
 20
9.0
  9
$UNITMODE
 70
     0
  9
$VISRETAIN
 70
     1
  9
$PLINEGEN
 70
     0
  9
$PSLTSCALE
 70
     1
  9
$TREEDEPTH
 70
  3020
  9
$CMLSTYLE
  2
STANDARD
  9
$CMLJUST
 70
     0
  9
$CMLSCALE
 40
1.0
  9
$PROXYGRAPHICS
 70
     1
  9
$MEASUREMENT
 70
     0
  9
$CELWEIGHT
370
    -1
  9
$ENDCAPS
280
     0
  9
$JOINSTYLE
280
     0
  9
$LWDISPLAY
290
     0
  9
$INSUNITS
 70
     0
  9
$HYPERLINKBASE
  1

  9
$STYLESHEET
  1
SEKKEI.CTB
  9
$XEDIT
290
     1
  9
$CEPSNTYPE
380
     0
  9
$PSTYLEMODE
290
     1
  9
$FINGERPRINTGUID
  2
{6385560B-F4B1-4644-A7C2-A3E32AC3D232}
  9
$VERSIONGUID
  2
{81E4955B-0A3C-1948-94C4-CD300EFF43D1}
  9
$EXTNAMES
290
     1
  9
$PSVPSCALE
 40
0.0
  9
$OLESTARTUP
290
     0
  0
ENDSEC
  0
SECTION
  2
CLASSES
  0
CLASS
  1
DICTIONARYVAR
  2
AcDbDictionaryVar
  3
ObjectDBX Classes
 90
        0
280
     0
281
     0
  0
CLASS
  1
ACDBDICTIONARYWDFLT
  2
AcDbDictionaryWithDefault
  3
ObjectDBX Classes
 90
        0
280
     0
281
     0
  0
CLASS
  1
MATERIAL
  2
AcDbMaterial
  3
ObjectDBX Classes
 90
     1153
280
     0
281
     0
  0
CLASS
  1
VISUALSTYLE
  2
AcDbVisualStyle
  3
ObjectDBX Classes
 90
     4095
280
     0
281
     0
  0
CLASS
  1
TABLESTYLE
  2
AcDbTableStyle
  3
ObjectDBX Classes
 90
     4095
280
     0
281
     0
  0
CLASS
  1
SCALE
  2
AcDbScale
  3
ObjectDBX Classes
 90
     1153
280
     0
281
     0
  0
CLASS
  1
MLEADERSTYLE
  2
AcDbMLeaderStyle
  3
ACDB_MLEADERSTYLE_CLASS
 90
     4095
280
     0
281
     0
  0
CLASS
  1
CELLSTYLEMAP
  2
AcDbCellStyleMap
  3
ObjectDBX Classes
 90
     1152
280
     0
281
     0
  0
CLASS
  1
ACAD_EVALUATION_GRAPH
  2
AcDbEvalGraph
  3
ObjectDBX Classes
 90
    33921
280
     0
281
     0
  0
CLASS
  1
ACAECUSTOBJ
  2
AcAeEditorObj
  3
AcAeEditorObj
 90
    33792
280
     0
281
     0
  0
CLASS
  1
ACDB_DYNAMICBLOCKPURGEPREVENTER_VERSION
  2
AcDbDynamicBlockPurgePreventer
  3
ObjectDBX Classes
 90
    33921
280
     0
281
     0
  0
CLASS
  1
ACDBPLACEHOLDER
  2
AcDbPlaceHolder
  3
ObjectDBX Classes
 90
        0
280
     0
281
     0
  0
CLASS
  1
LAYOUT
  2
AcDbLayout
  3
ObjectDBX Classes
 90
        0
280
     0
281
     0
  0
CLASS
  1
ACDBSECTIONVIEWSTYLE
  2
AcDbSectionViewStyle
  3
ObjectDBX Classes
 90
     1025
280
     0
281
     0
  0
CLASS
  1
ACDBDETAILVIEWSTYLE
  2
AcDbDetailViewStyle
  3
ObjectDBX Classes
 90
     1025
280
     0
281
     0
  0
CLASS
  1
SORTENTSTABLE
  2
AcDbSortentsTable
  3
ObjectDBX Classes
 90
    32768
280
     0
281
     0
  0
CLASS
  1
EXACXREFPANELOBJECT
  2
ExAcXREFPanelObject
  3
EXAC_ESW
 90
    33793
280
     0
281
     0
  0
CLASS
  1
NPOCOLLECTION
  2
AcDbImpNonPersistentObjectsCollection
  3
ObjectDBX Classes
 90
    33921
280
     0
281
     0
  0
ENDSEC
  0
SECTION
  2
TABLES
  0
TABLE
  2
VPORT
  5
6E
102
{ACAD_XDICTIONARY
360
2679
102
}
330
0
100
AcDbSymbolTable
 70
     1
  0
VPORT
  5
228B
330
6E
100
AcDbSymbolTableRecord
100
AcDbViewportTableRecord
  2
*Active
 70
     0
 10
0.0
 20
0.0
 11
1.0
 21
1.0
 12
549.6609970063
 22
275.6735146558
 13
0.0
 23
0.0
 14
10.0
 24
10.0
 15
18.0
 25
18.0
 16
0.0
 26
0.0
 36
1.0
 17
0.0
 27
0.0
 37
0.0
 40
509.5900348239
 41
2.38
 42
50.0
 43
0.0
 44
0.0
 50
0.0
 51
0.0
 71
     0
 72
   100
 73
     1
 74
     3
 75
     0
 76
     0
 77
     0
 78
     0
281
     0
 65
     1
110
0.0
120
0.0
130
0.0
111
1.0
121
0.0
131
0.0
112
0.0
122
1.0
132
0.0
 79
     0
146
0.0
1001
ACAD_NAV_VCDISPLAY
1070
     3
  0
ENDTAB
  0
TABLE
  2
LTYPE
  5
69
330
0
100
AcDbSymbolTable
 70
     4
  0
LTYPE
  5
6A
330
69
100
AcDbSymbolTableRecord
100
AcDbLinetypeTableRecord
  2
BYBLOCK
 70
     0
  3

 72
    65
 73
     0
 40
0.0
  0
LTYPE
  5
6B
330
69
100
AcDbSymbolTableRecord
100
AcDbLinetypeTableRecord
  2
BYLAYER
 70
     0
  3

 72
    65
 73
     0
 40
0.0
  0
LTYPE
  5
8
330
69
100
AcDbSymbolTableRecord
100
AcDbLinetypeTableRecord
  2
CONTINUOUS
 70
     0
  3
Solid line
 72
    65
 73
     0
 40
0.0
  0
LTYPE
  5
27C
330
69
100
AcDbSymbolTableRecord
100
AcDbLinetypeTableRecord
  2
sekkei(A2)
 70
     0
  3
center(A2)  ____ _ ____ _ ____ _ ____ _ ____ _ 
 72
    65
 73
     4
 40
14.2875
 49
9.525
 74
     0
 49
-1.5875
 74
     0
 49
1.5875
 74
     0
 49
-1.5875
 74
     0
  0
LTYPE
  5
2B4
330
69
100
AcDbSymbolTableRecord
100
AcDbLinetypeTableRecord
  2
HIDDEN2
 70
     0
  3
Hidden (.5x) _ _ _ _ _ _ _ _ _ _ _ _ _ _ _ _ _
 72
    65
 73
     2
 40
4.7625
 49
3.175
 74
     0
 49
-1.5875
 74
     0
  0
LTYPE
  5
48F
330
69
100
AcDbSymbolTableRecord
100
AcDbLinetypeTableRecord
  2
sekkei_H
 70
     0
  3
Hidden-S _ _ _ _ _ _ _ _ _ _ _ _ _ _ _ _ _
 72
    65
 73
     2
 40
2.38125
 49
1.5875
 74
     0
 49
-0.79375
 74
     0
  0
ENDTAB
  0
TABLE
  2
LAYER
  5
66
102
{ACAD_XDICTIONARY
360
22E7
102
}
330
0
100
AcDbSymbolTable
 70
    10
  0
LAYER
  5
5E
102
{ACAD_XDICTIONARY
360
2662
102
}
330
66
100
AcDbSymbolTableRecord
100
AcDbLayerTableRecord
  2
0
 70
     0
 62
     7
  6
CONTINUOUS
370
    -3
390
5
  0
LAYER
  5
3E
102
{ACAD_XDICTIONARY
360
2664
102
}
330
66
100
AcDbSymbolTableRecord
100
AcDbLayerTableRecord
  2
CENTER
 70
     0
 62
     3
  6
sekkei(A2)
370
    -3
390
5
  0
LAYER
  5
135
330
66
100
AcDbSymbolTableRecord
100
AcDbLayerTableRecord
  2
DEFPOINTS
 70
     0
 62
     7
  6
CONTINUOUS
290
     0
370
    -3
390
5
  0
LAYER
  5
2B5
102
{ACAD_XDICTIONARY
360
266A
102
}
330
66
100
AcDbSymbolTableRecord
100
AcDbLayerTableRecord
  2
HIDS
 70
     0
 62
     1
  6
HIDDEN2
370
    -3
390
5
  0
LAYER
  5
2BA
102
{ACAD_XDICTIONARY
360
266C
102
}
330
66
100
AcDbSymbolTableRecord
100
AcDbLayerTableRecord
  2
HOJO
 70
     0
 62
     4
  6
CONTINUOUS
370
    -3
390
5
  0
LAYER
  5
3FA
102
{ACAD_XDICTIONARY
360
2670
102
}
330
66
100
AcDbSymbolTableRecord
100
AcDbLayerTableRecord
  2
TITLE
 70
     0
 62
     4
  6
CONTINUOUS
290
     0
370
    -3
390
5
  0
LAYER
  5
22E3
102
{ACAD_XDICTIONARY
360
22E4
102
}
330
66
100
AcDbSymbolTableRecord
100
AcDbLayerTableRecord
  2
TITLE_C
 70
     0
 62
     4
  6
CONTINUOUS
370
    -3
390
5
1001
AcAecLayerStandard
1000

1000

  0
ENDTAB
  0
TABLE
  2
STYLE
  5
67
330
0
100
AcDbSymbolTable
 70
     1
  0
STYLE
  5
16
330
67
100
AcDbSymbolTableRecord
100
AcDbTextStyleTableRecord
  2
STANDARD
 70
     0
 40
0.0
 41
1.0
 50
0.0
 71
     0
 42
2.0
  3
simplex.shx
  4
extfont.shx
  0
ENDTAB
  0
TABLE
  2
VIEW
  5
6C
330
0
100
AcDbSymbolTable
 70
     0
  0
ENDTAB
  0
TABLE
  2
UCS
  5
6D
330
0
100
AcDbSymbolTable
 70
     0
  0
ENDTAB
  0
TABLE
  2
APPID
  5
70
330
0
100
AcDbSymbolTable
 70
    12
  0
APPID
  5
71
330
70
100
AcDbSymbolTableRecord
100
AcDbRegAppTableRecord
  2
ACAD
 70
     0
  0
APPID
  5
22E6
330
70
100
AcDbSymbolTableRecord
100
AcDbRegAppTableRecord
  2
AcAecLayerStandard
 70
     0
  0
APPID
  5
2313
330
70
100
AcDbSymbolTableRecord
100
AcDbRegAppTableRecord
  2
ACAD_EXEMPT_FROM_CAD_STANDARDS
 70
     0
  0
APPID
  5
2315
330
70
100
AcDbSymbolTableRecord
100
AcDbRegAppTableRecord
  2
ACAD_DSTYLE_DIMJAG
 70
     0
  0
APPID
  5
2316
330
70
100
AcDbSymbolTableRecord
100
AcDbRegAppTableRecord
  2
ACAD_DSTYLE_DIMTALN
 70
     0
  0
APPID
  5
26F9
330
70
100
AcDbSymbolTableRecord
100
AcDbRegAppTableRecord
  2
ACAD_MLEADERVER
 70
     0
  0
APPID
  5
31E1
330
70
100
AcDbSymbolTableRecord
100
AcDbRegAppTableRecord
  2
AcadAnnoAV
 70
     0
  0
APPID
  5
3207
330
70
100
AcDbSymbolTableRecord
100
AcDbRegAppTableRecord
  2
ACAUTHENVIRON
 70
     0
  0
APPID
  5
320B
330
70
100
AcDbSymbolTableRecord
100
AcDbRegAppTableRecord
  2
AcDbDynamicBlockTrueName
 70
     0
  0
APPID
  5
320C
330
70
100
AcDbSymbolTableRecord
100
AcDbRegAppTableRecord
  2
AcDbDynamicBlockGUID
 70
     0
  0
APPID
  5
320E
330
70
100
AcDbSymbolTableRecord
100
AcDbRegAppTableRecord
  2
AcDbBlockRepETag
 70
     0
  0
APPID
  5
3630
330
70
100
AcDbSymbolTableRecord
100
AcDbRegAppTableRecord
  2
ACAD_NAV_VCDISPLAY
 70
     0
  0
ENDTAB
  0
TABLE
  2
DIMSTYLE
  5
72
330
0
100
AcDbSymbolTable
 70
     2
100
AcDbDimStyleTable
 71
     1
340
73
  0
DIMSTYLE
105
73
102
{ACAD_REACTORS
330
B28
330
18DA
102
}
330
72
100
AcDbSymbolTableRecord
100
AcDbDimStyleTableRecord
  2
STANDARD
 70
     0
 40
3.0
 41
1.8
 42
0.625
 43
3.75
 44
0.8
 73
     0
 74
     0
 77
     1
 78
     8
140
1.8
141
2.5
143
0.0394
147
0.75
171
     4
172
     1
179
     2
271
     2
272
     2
273
     8
274
     4
277
     6
340
16
1001
ACAD_DSTYLE_DIMJAG
1070
   388
1040
1.5
1001
ACAD_DSTYLE_DIMTALN
1070
   392
1070
     0
  0
ENDTAB
  0
TABLE
  2
BLOCK_RECORD
  5
1
330
0
100
AcDbSymbolTable
 70
    81
  0
BLOCK_RECORD
  5
2
330
1
100
AcDbSymbolTableRecord
100
AcDbBlockTableRecord
  2
*MODEL_SPACE
340
60
  0
BLOCK_RECORD
  5
3D1D
330
1
100
AcDbSymbolTableRecord
100
AcDbBlockTableRecord
  2
*Paper_Space
340
3D1E
  0
BLOCK_RECORD
  5
AA1
330
1
100
AcDbSymbolTableRecord
100
AcDbBlockTableRecord
  2
*D1
340
0
  0
BLOCK_RECORD
  5
AAE
330
1
100
AcDbSymbolTableRecord
100
AcDbBlockTableRecord
  2
*D2
340
0
  0
BLOCK_RECORD
  5
ACD
330
1
100
AcDbSymbolTableRecord
100
AcDbBlockTableRecord
  2
*D3
340
0
  0
BLOCK_RECORD
  5
ADA
330
1
100
AcDbSymbolTableRecord
100
AcDbBlockTableRecord
  2
*D4
340
0
  0
BLOCK_RECORD
  5
AE7
330
1
100
AcDbSymbolTableRecord
100
AcDbBlockTableRecord
  2
*D5
340
0
  0
BLOCK_RECORD
  5
AF4
330
1
100
AcDbSymbolTableRecord
100
AcDbBlockTableRecord
  2
*D6
340
0
  0
BLOCK_RECORD
  5
B0A
330
1
100
AcDbSymbolTableRecord
100
AcDbBlockTableRecord
  2
*D7
340
0
  0
BLOCK_RECORD
  5
B6B
330
1
100
AcDbSymbolTableRecord
100
AcDbBlockTableRecord
  2
*D8
340
0
  0
BLOCK_RECORD
  5
B78
330
1
100
AcDbSymbolTableRecord
100
AcDbBlockTableRecord
  2
*D9
340
0
  0
BLOCK_RECORD
  5
B85
330
1
100
AcDbSymbolTableRecord
100
AcDbBlockTableRecord
  2
*D10
340
0
  0
BLOCK_RECORD
  5
B92
330
1
100
AcDbSymbolTableRecord
100
AcDbBlockTableRecord
  2
*D11
340
0
  0
BLOCK_RECORD
  5
BA8
330
1
100
AcDbSymbolTableRecord
100
AcDbBlockTableRecord
  2
*D12
340
0
  0
BLOCK_RECORD
  5
BE2
330
1
100
AcDbSymbolTableRecord
100
AcDbBlockTableRecord
  2
*D13
340
0
  0
BLOCK_RECORD
  5
BEF
330
1
100
AcDbSymbolTableRecord
100
AcDbBlockTableRecord
  2
*D14
340
0
  0
BLOCK_RECORD
  5
C05
330
1
100
AcDbSymbolTableRecord
100
AcDbBlockTableRecord
  2
*D15
340
0
  0
BLOCK_RECORD
  5
C12
330
1
100
AcDbSymbolTableRecord
100
AcDbBlockTableRecord
  2
*D16
340
0
  0
BLOCK_RECORD
  5
C1F
330
1
100
AcDbSymbolTableRecord
100
AcDbBlockTableRecord
  2
*D17
340
0
  0
BLOCK_RECORD
  5
C3B
330
1
100
AcDbSymbolTableRecord
100
AcDbBlockTableRecord
  2
*D18
340
0
  0
BLOCK_RECORD
  5
C48
330
1
100
AcDbSymbolTableRecord
100
AcDbBlockTableRecord
  2
*D19
340
0
  0
BLOCK_RECORD
  5
C7C
330
1
100
AcDbSymbolTableRecord
100
AcDbBlockTableRecord
  2
*D20
340
0
  0
BLOCK_RECORD
  5
CA1
330
1
100
AcDbSymbolTableRecord
100
AcDbBlockTableRecord
  2
*D21
340
0
  0
BLOCK_RECORD
  5
1029
330
1
100
AcDbSymbolTableRecord
100
AcDbBlockTableRecord
  2
*D22
340
0
  0
BLOCK_RECORD
  5
104F
330
1
100
AcDbSymbolTableRecord
100
AcDbBlockTableRecord
  2
*D23
340
0
  0
BLOCK_RECORD
  5
1F87
330
1
100
AcDbSymbolTableRecord
100
AcDbBlockTableRecord
  2
*D29
340
0
  0
BLOCK_RECORD
  5
1F93
330
1
100
AcDbSymbolTableRecord
100
AcDbBlockTableRecord
  2
*D30
340
0
  0
BLOCK_RECORD
  5
1F9F
330
1
100
AcDbSymbolTableRecord
100
AcDbBlockTableRecord
  2
*D31
340
0
  0
ENDTAB
  0
ENDSEC
  0
SECTION
  2
BLOCKS
  0
BLOCK
  5
5D
330
2
100
AcDbEntity
  8
0
100
AcDbBlockBegin
  2
*MODEL_SPACE
 70
     0
 10
0.0
 20
0.0
 30
0.0
  3
*MODEL_SPACE
  1

  0
ENDBLK
  5
5F
330
2
100
AcDbEntity
  8
0
100
AcDbBlockEnd
  0
BLOCK
  5
3D1F
330
3D1D
100
AcDbEntity
 67
     1
  8
0
100
AcDbBlockBegin
  2
*Paper_Space
 70
     0
 10
0.0
 20
0.0
 30
0.0
  3
*Paper_Space
  1

  0
ENDBLK
  5
3D20
330
3D1D
100
AcDbEntity
 67
     1
  8
0
100
AcDbBlockEnd
  0
BLOCK
  5
AAB
330
AA1
100
AcDbEntity
  8
0
100
AcDbBlockBegin
  2
*D1
 70
     1
 10
0.0
 20
0.0
 30
0.0
  3
*D1
  1

  0
POINT
  5
231D
330
AA1
100
AcDbEntity
  8
DEFPOINTS
 62
     0
100
AcDbPoint
 10
316.8158146307
 20
63.7168563386
 30
0.0
  0
POINT
  5
231E
330
AA1
100
AcDbEntity
  8
DEFPOINTS
 62
     0
100
AcDbPoint
 10
386.8158146307
 20
63.7168563386
 30
0.0
  0
POINT
  5
231F
330
AA1
100
AcDbEntity
  8
DEFPOINTS
 62
     0
100
AcDbPoint
 10
386.8158146307
 20
43.2975607965
 30
0.0
  0
ENDBLK
  5
AAC
330
AA1
100
AcDbEntity
  8
0
100
AcDbBlockEnd
  0
BLOCK
  5
AB8
330
AAE
100
AcDbEntity
  8
0
100
AcDbBlockBegin
  2
*D2
 70
     1
 10
0.0
 20
0.0
 30
0.0
  3
*D2
  1

  0
POINT
  5
2326
330
AAE
100
AcDbEntity
  8
DEFPOINTS
 62
     0
100
AcDbPoint
 10
404.8158146307
 20
68.7168563386
 30
0.0
  0
POINT
  5
2327
330
AAE
100
AcDbEntity
  8
DEFPOINTS
 62
     0
100
AcDbPoint
 10
298.8158146307
 20
68.7168563386
 30
0.0
  0
POINT
  5
2328
330
AAE
100
AcDbEntity
  8
DEFPOINTS
 62
     0
100
AcDbPoint
 10
298.8158146307
 20
25.2924292978
 30
0.0
  0
ENDBLK
  5
AB9
330
AAE
100
AcDbEntity
  8
0
100
AcDbBlockEnd
  0
BLOCK
  5
AD7
330
ACD
100
AcDbEntity
  8
0
100
AcDbBlockBegin
  2
*D3
 70
     1
 10
0.0
 20
0.0
 30
0.0
  3
*D3
  1

  0
POINT
  5
232F
330
ACD
100
AcDbEntity
  8
DEFPOINTS
 62
     0
100
AcDbPoint
 10
497.9594205166
 20
63.7168543386
 30
0.0
  0
POINT
  5
2330
330
ACD
100
AcDbEntity
  8
DEFPOINTS
 62
     0
100
AcDbPoint
 10
587.9594235166
 20
63.7168543386
 30
0.0
  0
POINT
  5
2331
330
ACD
100
AcDbEntity
  8
DEFPOINTS
 62
     0
100
AcDbPoint
 10
587.9594235166
 20
43.2975607965
 30
0.0
  0
ENDBLK
  5
AD8
330
ACD
100
AcDbEntity
  8
0
100
AcDbBlockEnd
  0
BLOCK
  5
AE4
330
ADA
100
AcDbEntity
  8
0
100
AcDbBlockBegin
  2
*D4
 70
     1
 10
0.0
 20
0.0
 30
0.0
  3
*D4
  1

  0
POINT
  5
2338
330
ADA
100
AcDbEntity
  8
DEFPOINTS
 62
     0
100
AcDbPoint
 10
484.9594205166
 20
68.7168543386
 30
0.0
  0
POINT
  5
2339
330
ADA
100
AcDbEntity
  8
DEFPOINTS
 62
     0
100
AcDbPoint
 10
600.9594165166
 20
68.7168543386
 30
0.0
  0
POINT
  5
233A
330
ADA
100
AcDbEntity
  8
DEFPOINTS
 62
     0
100
AcDbPoint
 10
600.9594165166
 20
25.2924292978
 30
0.0
  0
ENDBLK
  5
AE5
330
ADA
100
AcDbEntity
  8
0
100
AcDbBlockEnd
  0
BLOCK
  5
AF1
330
AE7
100
AcDbEntity
  8
0
100
AcDbBlockBegin
  2
*D5
 70
     1
 10
0.0
 20
0.0
 30
0.0
  3
*D5
  1

  0
POINT
  5
2341
330
AE7
100
AcDbEntity
  8
DEFPOINTS
 62
     0
100
AcDbPoint
 10
587.9594235166
 20
63.7168543386
 30
0.0
  0
POINT
  5
2342
330
AE7
100
AcDbEntity
  8
DEFPOINTS
 62
     0
100
AcDbPoint
 10
632.9594165166
 20
162.7168553386
 30
0.0
  0
POINT
  5
2343
330
AE7
100
AcDbEntity
  8
DEFPOINTS
 62
     0
100
AcDbPoint
 10
632.9594165166
 20
43.2975607965
 30
0.0
  0
ENDBLK
  5
AF2
330
AE7
100
AcDbEntity
  8
0
100
AcDbBlockEnd
  0
BLOCK
  5
AFE
330
AF4
100
AcDbEntity
  8
0
100
AcDbBlockBegin
  2
*D6
 70
     1
 10
0.0
 20
0.0
 30
0.0
  3
*D6
  1

  0
POINT
  5
234A
330
AF4
100
AcDbEntity
  8
DEFPOINTS
 62
     0
100
AcDbPoint
 10
67.5658106307
 20
92.2168363386
 30
0.0
  0
POINT
  5
234B
330
AF4
100
AcDbEntity
  8
DEFPOINTS
 62
     0
100
AcDbPoint
 10
67.5658106307
 20
172.2168323386
 30
0.0
  0
POINT
  5
234C
330
AF4
100
AcDbEntity
  8
DEFPOINTS
 62
     0
100
AcDbPoint
 10
38.4889401462
 20
172.2168323386
 30
0.0
  0
ENDBLK
  5
AFF
330
AF4
100
AcDbEntity
  8
0
100
AcDbBlockEnd
  0
BLOCK
  5
B14
330
B0A
100
AcDbEntity
  8
0
100
AcDbBlockBegin
  2
*D7
 70
     1
 10
0.0
 20
0.0
 30
0.0
  3
*D7
  1

  0
POINT
  5
2353
330
B0A
100
AcDbEntity
  8
DEFPOINTS
 62
     0
100
AcDbPoint
 10
404.8158146307
 20
68.7168773386
 30
0.0
  0
POINT
  5
2354
330
B0A
100
AcDbEntity
  8
DEFPOINTS
 62
     0
100
AcDbPoint
 10
370.2451966307
 20
218.7168553386
 30
0.0
  0
POINT
  5
2355
330
B0A
100
AcDbEntity
  8
DEFPOINTS
 62
     0
100
AcDbPoint
 10
430.5169701014
 20
218.7168553386
 30
0.0
  0
ENDBLK
  5
B15
330
B0A
100
AcDbEntity
  8
0
100
AcDbBlockEnd
  0
BLOCK
  5
B75
330
B6B
100
AcDbEntity
  8
0
100
AcDbBlockBegin
  2
*D8
 70
     1
 10
0.0
 20
0.0
 30
0.0
  3
*D8
  1

  0
POINT
  5
235C
330
B6B
100
AcDbEntity
  8
DEFPOINTS
 62
     0
100
AcDbPoint
 10
597.9594165166
 20
173.7168553386
 30
0.0
  0
POINT
  5
235D
330
B6B
100
AcDbEntity
  8
DEFPOINTS
 62
     0
100
AcDbPoint
 10
632.9594165166
 20
184.7168553386
 30
0.0
  0
POINT
  5
235E
330
B6B
100
AcDbEntity
  8
DEFPOINTS
 62
     0
100
AcDbPoint
 10
632.9594165166
 20
218.617109764
 30
0.0
  0
ENDBLK
  5
B76
330
B6B
100
AcDbEntity
  8
0
100
AcDbBlockEnd
  0
BLOCK
  5
B82
330
B78
100
AcDbEntity
  8
0
100
AcDbBlockBegin
  2
*D9
 70
     1
 10
0.0
 20
0.0
 30
0.0
  3
*D9
  1

  0
POINT
  5
2365
330
B78
100
AcDbEntity
  8
DEFPOINTS
 62
     0
100
AcDbPoint
 10
592.9594235166
 20
186.2168553386
 30
0.0
  0
POINT
  5
2366
330
B78
100
AcDbEntity
  8
DEFPOINTS
 62
     0
100
AcDbPoint
 10
632.9594165166
 20
184.7168553386
 30
0.0
  0
POINT
  5
2367
330
B78
100
AcDbEntity
  8
DEFPOINTS
 62
     0
100
AcDbPoint
 10
632.9594165166
 20
236.5059433152
 30
0.0
  0
ENDBLK
  5
B83
330
B78
100
AcDbEntity
  8
0
100
AcDbBlockEnd
  0
BLOCK
  5
B8F
330
B85
100
AcDbEntity
  8
0
100
AcDbBlockBegin
  2
*D10
 70
     1
 10
0.0
 20
0.0
 30
0.0
  3
*D10
  1

  0
POINT
  5
236E
330
B85
100
AcDbEntity
  8
DEFPOINTS
 62
     0
100
AcDbPoint
 10
542.9594235166
 20
228.7168553386
 30
0.0
  0
POINT
  5
236F
330
B85
100
AcDbEntity
  8
DEFPOINTS
 62
     0
100
AcDbPoint
 10
632.9594165166
 20
184.7168553386
 30
0.0
  0
POINT
  5
2370
330
B85
100
AcDbEntity
  8
DEFPOINTS
 62
     0
100
AcDbPoint
 10
632.9594165166
 20
254.7200293723
 30
0.0
  0
ENDBLK
  5
B90
330
B85
100
AcDbEntity
  8
0
100
AcDbBlockEnd
  0
BLOCK
  5
B9C
330
B92
100
AcDbEntity
  8
0
100
AcDbBlockBegin
  2
*D11
 70
     1
 10
0.0
 20
0.0
 30
0.0
  3
*D11
  1

  0
POINT
  5
2377
330
B92
100
AcDbEntity
  8
DEFPOINTS
 62
     0
100
AcDbPoint
 10
542.9594235166
 20
228.7168553386
 30
0.0
  0
POINT
  5
2378
330
B92
100
AcDbEntity
  8
DEFPOINTS
 62
     0
100
AcDbPoint
 10
484.9594205166
 20
79.3432533386
 30
0.0
  0
POINT
  5
2379
330
B92
100
AcDbEntity
  8
DEFPOINTS
 62
     0
100
AcDbPoint
 10
484.9594205166
 20
254.7200293723
 30
0.0
  0
ENDBLK
  5
B9D
330
B92
100
AcDbEntity
  8
0
100
AcDbBlockEnd
  0
BLOCK
  5
BB2
330
BA8
100
AcDbEntity
  8
0
100
AcDbBlockBegin
  2
*D12
 70
     1
 10
0.0
 20
0.0
 30
0.0
  3
*D12
  1

  0
POINT
  5
2380
330
BA8
100
AcDbEntity
  8
DEFPOINTS
 62
     0
100
AcDbPoint
 10
484.9594205166
 20
79.3432533386
 30
0.0
  0
POINT
  5
2381
330
BA8
100
AcDbEntity
  8
DEFPOINTS
 62
     0
100
AcDbPoint
 10
632.9594165166
 20
184.7168553386
 30
0.0
  0
POINT
  5
2382
330
BA8
100
AcDbEntity
  8
DEFPOINTS
 62
     0
100
AcDbPoint
 10
632.9594165166
 20
272.7067576453
 30
0.0
  0
ENDBLK
  5
BB3
330
BA8
100
AcDbEntity
  8
0
100
AcDbBlockEnd
  0
BLOCK
  5
BEC
330
BE2
100
AcDbEntity
  8
0
100
AcDbBlockBegin
  2
*D13
 70
     1
 10
0.0
 20
0.0
 30
0.0
  3
*D13
  1

  0
POINT
  5
2389
330
BE2
100
AcDbEntity
  8
DEFPOINTS
 62
     0
100
AcDbPoint
 10
351.8158146307
 20
228.7168553386
 30
0.0
  0
POINT
  5
238A
330
BE2
100
AcDbEntity
  8
DEFPOINTS
 62
     0
100
AcDbPoint
 10
404.8158146307
 20
193.1070993386
 30
0.0
  0
POINT
  5
238B
330
BE2
100
AcDbEntity
  8
DEFPOINTS
 62
     0
100
AcDbPoint
 10
404.8158146307
 20
254.7200293723
 30
0.0
  0
ENDBLK
  5
BED
330
BE2
100
AcDbEntity
  8
0
100
AcDbBlockEnd
  0
BLOCK
  5
BF9
330
BEF
100
AcDbEntity
  8
0
100
AcDbBlockBegin
  2
*D14
 70
     1
 10
0.0
 20
0.0
 30
0.0
  3
*D14
  1

  0
POINT
  5
2392
330
BEF
100
AcDbEntity
  8
DEFPOINTS
 62
     0
100
AcDbPoint
 10
351.8158146307
 20
228.7168553386
 30
0.0
  0
POINT
  5
2393
330
BEF
100
AcDbEntity
  8
DEFPOINTS
 62
     0
100
AcDbPoint
 10
287.0658296307
 20
200.7168553386
 30
0.0
  0
POINT
  5
2394
330
BEF
100
AcDbEntity
  8
DEFPOINTS
 62
     0
100
AcDbPoint
 10
287.0658296307
 20
254.7200293723
 30
0.0
  0
ENDBLK
  5
BFA
330
BEF
100
AcDbEntity
  8
0
100
AcDbBlockEnd
  0
BLOCK
  5
C0F
330
C05
100
AcDbEntity
  8
0
100
AcDbBlockBegin
  2
*D15
 70
     1
 10
0.0
 20
0.0
 30
0.0
  3
*D15
  1

  0
POINT
  5
239B
330
C05
100
AcDbEntity
  8
DEFPOINTS
 62
     0
100
AcDbPoint
 10
287.0658296307
 20
200.7168553386
 30
0.0
  0
POINT
  5
239C
330
C05
100
AcDbEntity
  8
DEFPOINTS
 62
     0
100
AcDbPoint
 10
235.0658146307
 20
170.2168553386
 30
0.0
  0
POINT
  5
239D
330
C05
100
AcDbEntity
  8
DEFPOINTS
 62
     0
100
AcDbPoint
 10
235.0658146307
 20
254.7200293723
 30
0.0
  0
ENDBLK
  5
C10
330
C05
100
AcDbEntity
  8
0
100
AcDbBlockEnd
  0
BLOCK
  5
C1C
330
C12
100
AcDbEntity
  8
0
100
AcDbBlockBegin
  2
*D16
 70
     1
 10
0.0
 20
0.0
 30
0.0
  3
*D16
  1

  0
POINT
  5
23A4
330
C12
100
AcDbEntity
  8
DEFPOINTS
 62
     0
100
AcDbPoint
 10
235.0658146307
 20
170.2168553386
 30
0.0
  0
POINT
  5
23A5
330
C12
100
AcDbEntity
  8
DEFPOINTS
 62
     0
100
AcDbPoint
 10
62.5658106307
 20
167.2168323386
 30
0.0
  0
POINT
  5
23A6
330
C12
100
AcDbEntity
  8
DEFPOINTS
 62
     0
100
AcDbPoint
 10
62.5658106307
 20
254.7200293723
 30
0.0
  0
ENDBLK
  5
C1D
330
C12
100
AcDbEntity
  8
0
100
AcDbBlockEnd
  0
BLOCK
  5
C29
330
C1F
100
AcDbEntity
  8
0
100
AcDbBlockBegin
  2
*D17
 70
     1
 10
0.0
 20
0.0
 30
0.0
  3
*D17
  1

  0
POINT
  5
23AD
330
C1F
100
AcDbEntity
  8
DEFPOINTS
 62
     0
100
AcDbPoint
 10
62.5658106307
 20
167.2168323386
 30
0.0
  0
POINT
  5
23AE
330
C1F
100
AcDbEntity
  8
DEFPOINTS
 62
     0
100
AcDbPoint
 10
404.8158146307
 20
193.1070993386
 30
0.0
  0
POINT
  5
23AF
330
C1F
100
AcDbEntity
  8
DEFPOINTS
 62
     0
100
AcDbPoint
 10
404.8158146307
 20
272.7067576453
 30
0.0
  0
ENDBLK
  5
C2A
330
C1F
100
AcDbEntity
  8
0
100
AcDbBlockEnd
  0
BLOCK
  5
C45
330
C3B
100
AcDbEntity
  8
0
100
AcDbBlockBegin
  2
*D18
 70
     1
 10
0.0
 20
0.0
 30
0.0
  3
*D18
  1

  0
POINT
  5
23B7
330
C3B
100
AcDbEntity
  8
DEFPOINTS
 62
     0
100
AcDbPoint
 10
632.9594165166
 20
162.7168553386
 30
0.0
  0
POINT
  5
23B8
330
C3B
100
AcDbEntity
  8
DEFPOINTS
 62
     0
100
AcDbPoint
 10
632.9594165166
 20
184.7168553386
 30
0.0
  0
POINT
  5
23B9
330
C3B
100
AcDbEntity
  8
DEFPOINTS
 62
     0
100
AcDbPoint
 10
655.9947577777
 20
184.7168553386
 30
0.0
  0
ENDBLK
  5
C46
330
C3B
100
AcDbEntity
  8
0
100
AcDbBlockEnd
  0
BLOCK
  5
C52
330
C48
100
AcDbEntity
  8
0
100
AcDbBlockBegin
  2
*D19
 70
     1
 10
0.0
 20
0.0
 30
0.0
  3
*D19
  1

  0
POINT
  5
23C0
330
C48
100
AcDbEntity
  8
DEFPOINTS
 62
     0
100
AcDbPoint
 10
642.9594165166
 20
173.7168553386
 30
0.0
  0
POINT
  5
23C1
330
C48
100
AcDbEntity
  8
DEFPOINTS
 62
     0
100
AcDbPoint
 10
600.9594165166
 20
68.7168543386
 30
0.0
  0
POINT
  5
23C2
330
C48
100
AcDbEntity
  8
DEFPOINTS
 62
     0
100
AcDbPoint
 10
674.0516118839
 20
68.7168543386
 30
0.0
  0
ENDBLK
  5
C53
330
C48
100
AcDbEntity
  8
0
100
AcDbBlockEnd
  0
BLOCK
  5
C88
330
C7C
100
AcDbEntity
  8
0
100
AcDbBlockBegin
  2
*D20
 70
     1
 10
0.0
 20
0.0
 30
0.0
  3
*D20
  1

  0
POINT
  5
23CB
330
C7C
100
AcDbEntity
  8
DEFPOINTS
 62
     0
100
AcDbPoint
 10
600.9594165166
 20
68.7168543386
 30
0.0
  0
POINT
  5
23CC
330
C7C
100
AcDbEntity
  8
DEFPOINTS
 62
     0
100
AcDbPoint
 10
598.9594165166
 20
80.7168533386
 30
0.0
  0
POINT
  5
23CD
330
C7C
100
AcDbEntity
  8
DEFPOINTS
 62
     0
100
AcDbPoint
 10
621.9660722231
 20
80.7168533386
 30
0.0
  0
ENDBLK
  5
C89
330
C7C
100
AcDbEntity
  8
0
100
AcDbBlockEnd
  0
BLOCK
  5
CAB
330
CA1
100
AcDbEntity
  8
0
100
AcDbBlockBegin
  2
*D21
 70
     1
 10
0.0
 20
0.0
 30
0.0
  3
*D21
  1

  0
POINT
  5
23D4
330
CA1
100
AcDbEntity
  8
DEFPOINTS
 62
     0
100
AcDbPoint
 10
309.7879134654
 20
173.7168553386
 30
0.0
  0
POINT
  5
23D5
330
CA1
100
AcDbEntity
  8
DEFPOINTS
 62
     0
100
AcDbPoint
 10
319.8158146307
 20
132.2168553386
 30
0.0
  0
POINT
  5
23D6
330
CA1
100
AcDbEntity
  8
DEFPOINTS
 62
     0
100
AcDbPoint
 10
308.1623022271
 20
132.2168553386
 30
0.0
  0
ENDBLK
  5
CAC
330
CA1
100
AcDbEntity
  8
0
100
AcDbBlockEnd
  0
BLOCK
  5
102F
330
1029
100
AcDbEntity
  8
0
100
AcDbBlockBegin
  2
*D22
 70
     1
 10
0.0
 20
0.0
 30
0.0
  3
*D22
  1

  0
POINT
  5
23DA
330
1029
100
AcDbEntity
  8
DEFPOINTS
 62
     0
100
AcDbPoint
 10
599.4204354225
 20
154.0982217308
 30
0.0
  0
POINT
  5
23DB
330
1029
100
AcDbEntity
  8
DEFPOINTS
 62
     0
100
AcDbPoint
 10
486.4984116107
 20
132.3354889464
 30
0.0
  0
ENDBLK
  5
1030
330
1029
100
AcDbEntity
  8
0
100
AcDbBlockEnd
  0
BLOCK
  5
105B
330
104F
100
AcDbEntity
  8
0
100
AcDbBlockBegin
  2
*D23
 70
     1
 10
0.0
 20
0.0
 30
0.0
  3
*D23
  1

  0
POINT
  5
23E4
330
104F
100
AcDbEntity
  8
DEFPOINTS
 62
     0
100
AcDbPoint
 10
260.8576137537
 20
143.2168553386
 30
0.0
  0
POINT
  5
23E5
330
104F
100
AcDbEntity
  8
DEFPOINTS
 62
     0
100
AcDbPoint
 10
260.8576137537
 20
132.2168553386
 30
0.0
  0
POINT
  5
23E6
330
104F
100
AcDbEntity
  8
DEFPOINTS
 62
     0
100
AcDbPoint
 10
260.8576137537
 20
132.2168553386
 30
0.0
  0
ENDBLK
  5
105C
330
104F
100
AcDbEntity
  8
0
100
AcDbBlockEnd
  0
BLOCK
  5
1F91
330
1F87
100
AcDbEntity
  8
0
100
AcDbBlockBegin
  2
*D29
 70
     1
 10
0.0
 20
0.0
 30
0.0
  3
*D29
  1

  0
POINT
  5
23ED
330
1F87
100
AcDbEntity
  8
DEFPOINTS
 62
     0
100
AcDbPoint
 10
161.0658106307
 20
202.7168303386
 30
0.0
  0
POINT
  5
23EE
330
1F87
100
AcDbEntity
  8
DEFPOINTS
 62
     0
100
AcDbPoint
 10
159.5658106307
 20
170.2168323386
 30
0.0
  0
POINT
  5
23EF
330
1F87
100
AcDbEntity
  8
DEFPOINTS
 62
     0
100
AcDbPoint
 10
183.3301309761
 20
170.2168323386
 30
0.0
  0
ENDBLK
  5
1F92
330
1F87
100
AcDbEntity
  8
0
100
AcDbBlockEnd
  0
BLOCK
  5
1F9D
330
1F93
100
AcDbEntity
  8
0
100
AcDbBlockBegin
  2
*D30
 70
     1
 10
0.0
 20
0.0
 30
0.0
  3
*D30
  1

  0
POINT
  5
23F6
330
1F93
100
AcDbEntity
  8
DEFPOINTS
 62
     0
100
AcDbPoint
 10
112.0658036307
 20
201.7168303386
 30
0.0
  0
POINT
  5
23F7
330
1F93
100
AcDbEntity
  8
DEFPOINTS
 62
     0
100
AcDbPoint
 10
62.5658106307
 20
167.2168323386
 30
0.0
  0
POINT
  5
23F8
330
1F93
100
AcDbEntity
  8
DEFPOINTS
 62
     0
100
AcDbPoint
 10
62.5658106307
 20
236.5059433152
 30
0.0
  0
ENDBLK
  5
1F9E
330
1F93
100
AcDbEntity
  8
0
100
AcDbBlockEnd
  0
BLOCK
  5
1FA9
330
1F9F
100
AcDbEntity
  8
0
100
AcDbBlockBegin
  2
*D31
 70
     1
 10
0.0
 20
0.0
 30
0.0
  3
*D31
  1

  0
POINT
  5
23FF
330
1F9F
100
AcDbEntity
  8
DEFPOINTS
 62
     0
100
AcDbPoint
 10
162.0658106307
 20
201.7168303386
 30
0.0
  0
POINT
  5
2400
330
1F9F
100
AcDbEntity
  8
DEFPOINTS
 62
     0
100
AcDbPoint
 10
112.0658036307
 20
201.7168303386
 30
0.0
  0
POINT
  5
2401
330
1F9F
100
AcDbEntity
  8
DEFPOINTS
 62
     0
100
AcDbPoint
 10
112.0658036307
 20
236.5059433152
 30
0.0
  0
ENDBLK
  5
1FAA
330
1F9F
100
AcDbEntity
  8
0
100
AcDbBlockEnd
  0
ENDSEC
  0
SECTION
  2
ENTITIES
  0
ARC
  5
6A3
330
2
100
AcDbEntity
  8
0
100
AcDbCircle
 10
769.2867015166
 20
173.7168553386
 30
0.0
 40
11.0
100
AcDbArc
 50
195.826599
 51
164.173401
  0
LINE
  5
6A4
330
2
100
AcDbEntity
  8
0
100
AcDbLine
 10
755.7867015166
 20
170.7168553386
 30
0.0
 11
761.7867015166
 21
170.7168553386
 31
0.0
  0
LINE
  5
6A5
330
2
100
AcDbEntity
  8
0
100
AcDbLine
 10
755.7867015166
 20
176.7168553386
 30
0.0
 11
761.7867015166
 21
176.7168553386
 31
0.0
  0
LINE
  5
6AA
330
2
100
AcDbEntity
  8
0
100
AcDbLine
 10
752.5367015166
 20
113.2168553386
 30
0.0
 11
786.0367015166
 21
113.2168553386
 31
0.0
  0
ARC
  5
6AB
330
2
100
AcDbEntity
  8
0
100
AcDbCircle
 10
769.2867015166
 20
173.7168553386
 30
0.0
 40
30.15
100
AcDbArc
 50
172.447403
 51
7.552697
  0
LINE
  5
6AC
330
2
100
AcDbEntity
  8
0
100
AcDbLine
 10
752.5367015166
 20
111.6168573386
 30
0.0
 11
786.0367015166
 21
111.6168573386
 31
0.0
  0
ARC
  5
6AD
330
2
100
AcDbEntity
  8
0
100
AcDbCircle
 10
769.2867015166
 20
173.7168553386
 30
0.0
 40
31.75
100
AcDbArc
 50
7.552697
 51
172.447403
  0
CIRCLE
  5
6AE
330
2
100
AcDbEntity
  8
0
100
AcDbCircle
 10
769.2867015166
 20
173.7168553386
 30
0.0
 40
27.5
  0
ARC
  5
6AF
330
2
100
AcDbEntity
  8
0
100
AcDbCircle
 10
769.2867015166
 20
155.7168633386
 30
0.0
 40
60.0
100
AcDbArc
 50
228.189697
 51
309.631744
  0
ARC
  5
6B0
330
2
100
AcDbEntity
  8
0
100
AcDbCircle
 10
769.2867015166
 20
155.7168633386
 30
0.0
 40
60.0
100
AcDbArc
 50
48.189621
 51
131.810394
  0
LINE
  5
6B2
330
2
100
AcDbEntity
  8
0
100
AcDbLine
 10
782.7250875166
 20
90.7168553386
 30
0.0
 11
755.8482865166
 21
90.7168553386
 31
0.0
  0
LINE
  5
6B3
330
2
100
AcDbEntity
  8
0
100
AcDbLine
 10
787.7160845166
 20
218.7168553386
 30
0.0
 11
750.8572895166
 21
218.7168553386
 31
0.0
  0
LINE
  5
6B4
330
2
100
AcDbEntity
  8
0
100
AcDbLine
 10
822.2867015166
 20
68.7168553386
 30
0.0
 11
716.2867015166
 21
68.7168553386
 31
0.0
  0
LINE
  5
6B5
330
2
100
AcDbEntity
  8
CENTER
100
AcDbLine
 10
811.3145824296
 20
173.7168553386
 30
0.0
 11
727.2588005681
 21
173.7168553386
 31
0.0
  0
LINE
  5
6B6
330
2
100
AcDbEntity
  8
0
100
AcDbLine
 10
339.3158146307
 20
430.0420179714
 30
0.0
 11
364.3158146307
 21
430.0420179714
 31
0.0
  0
LINE
  5
6B7
330
2
100
AcDbEntity
  8
0
100
AcDbLine
 10
340.8158146307
 20
470.0420179714
 30
0.0
 11
365.3158146307
 21
470.0420179714
 31
0.0
  0
LINE
  5
6B9
330
2
100
AcDbEntity
  8
0
100
AcDbLine
 10
326.6229736307
 20
428.0420179714
 30
0.0
 11
377.0086546307
 21
428.0420179714
 31
0.0
  0
LINE
  5
6BA
330
2
100
AcDbEntity
  8
0
100
AcDbLine
 10
326.6229736307
 20
332.0420179714
 30
0.0
 11
377.0086546307
 21
332.0420179714
 31
0.0
  0
LINE
  5
6BB
330
2
100
AcDbEntity
  8
0
100
AcDbLine
 10
300.5977966307
 20
348.0420179714
 30
0.0
 11
399.3437686307
 21
348.0420179714
 31
0.0
  0
LINE
  5
6BC
330
2
100
AcDbEntity
  8
0
100
AcDbLine
 10
300.5977966307
 20
412.0420179714
 30
0.0
 11
399.3437686307
 21
412.0420179714
 31
0.0
  0
LINE
  5
6BD
330
2
100
AcDbEntity
  8
CENTER
100
AcDbLine
 10
52.5659666307
 20
380.0420179714
 30
0.0
 11
414.8158146307
 21
380.0420179714
 31
0.0
  0
LINE
  5
6BE
330
2
100
AcDbEntity
  8
0
100
AcDbLine
 10
567.9594235166
 20
68.7168543386
 30
0.0
 11
566.9594235166
 21
69.7168543386
 31
0.0
  0
LINE
  5
6BF
330
2
100
AcDbEntity
  8
0
100
AcDbLine
 10
513.1894195166
 20
195.7168553386
 30
0.0
 11
572.8594175166
 21
195.7168553386
 31
0.0
  0
LINE
  5
6C0
330
2
100
AcDbEntity
  8
0
100
AcDbLine
 10
572.9942215166
 20
218.1928383386
 30
0.0
 11
542.9594235166
 21
218.7168553386
 31
0.0
  0
LINE
  5
6C1
330
2
100
AcDbEntity
  8
CENTER
100
AcDbLine
 10
484.2151930888
 20
173.7168553386
 30
0.0
 11
642.9594165166
 21
173.7168553386
 31
0.0
  0
LINE
  5
6C2
330
2
100
AcDbEntity
  8
CENTER
100
AcDbLine
 10
475.4594235166
 20
143.2168553386
 30
0.0
 11
610.4594235166
 21
143.2168553386
 31
0.0
  0
ARC
  5
6C3
330
2
100
AcDbEntity
  8
0
100
AcDbCircle
 10
542.9594235166
 20
143.2168553386
 30
0.0
 40
57.5
100
AcDbArc
 50
146.593216
 51
213.997131
  0
ARC
  5
6C4
330
2
100
AcDbEntity
  8
0
100
AcDbCircle
 10
542.9594235166
 20
143.2168553386
 30
0.0
 40
57.25
100
AcDbArc
 50
146.974487
 51
212.501907
  0
LINE
  5
6C5
330
2
100
AcDbEntity
  8
0
100
AcDbLine
 10
504.9594205166
 20
115.5216953386
 30
0.0
 11
504.9594205166
 21
175.7868553386
 31
0.0
  0
LINE
  5
6C6
330
2
100
AcDbEntity
  8
0
100
AcDbLine
 10
510.9594205166
 20
68.7168543386
 30
0.0
 11
510.9594205166
 21
216.1927773386
 31
0.0
  0
LINE
  5
6C7
330
2
100
AcDbEntity
  8
CENTER
100
AcDbLine
 10
542.9594235166
 20
58.7168543386
 30
0.0
 11
542.9594235166
 21
228.7168553386
 31
0.0
  0
LINE
  5
6C9
330
2
100
AcDbEntity
  8
CENTER
100
AcDbLine
 10
497.9594205166
 20
85.7168533386
 30
0.0
 11
497.9594205166
 21
63.7168543386
 31
0.0
  0
LINE
  5
6CA
330
2
100
AcDbEntity
  8
0
100
AcDbLine
 10
517.9594205166
 20
68.7168543386
 30
0.0
 11
518.9594205166
 21
69.7168543386
 31
0.0
  0
ARC
  5
6CB
330
2
100
AcDbEntity
  8
0
100
AcDbCircle
 10
508.9594205166
 20
98.2168553386
 30
0.0
 40
4.0
100
AcDbArc
 50
218.645996
 51
270.0
  0
LINE
  5
6CC
330
2
100
AcDbEntity
  8
0
100
AcDbLine
 10
509.6774225166
 20
90.2237753386
 30
0.0
 11
486.2414195166
 21
81.2099543386
 31
0.0
  0
LINE
  5
6CD
330
2
100
AcDbEntity
  8
0
100
AcDbLine
 10
486.9594205166
 20
80.7168533386
 30
0.0
 11
507.9594205166
 21
80.7168533386
 31
0.0
  0
LINE
  5
6CE
330
2
100
AcDbEntity
  8
0
100
AcDbLine
 10
484.9594205166
 20
68.7168543386
 30
0.0
 11
517.9594205166
 21
68.7168543386
 31
0.0
  0
LINE
  5
6CF
330
2
100
AcDbEntity
  8
HIDS
  6
sekkei_H
100
AcDbLine
 10
492.4594205166
 20
80.7168533386
 30
0.0
 11
492.4594205166
 21
68.7168543386
 31
0.0
  0
ARC
  5
6D0
330
2
100
AcDbEntity
  8
0
100
AcDbCircle
 10
486.9594205166
 20
79.3432743386
 30
0.0
 40
2.0
100
AcDbArc
 50
111.037903
 51
180.0
  0
ARC
  5
6D1
330
2
100
AcDbEntity
  8
0
100
AcDbCircle
 10
486.9594205166
 20
78.7168533386
 30
0.0
 40
2.0
100
AcDbArc
 50
90.0
 51
180.0
  0
LINE
  5
6D2
330
2
100
AcDbEntity
  8
0
100
AcDbLine
 10
484.9594205166
 20
79.3432533386
 30
0.0
 11
484.9594205166
 21
68.7168543386
 31
0.0
  0
LINE
  5
6D3
330
2
100
AcDbEntity
  8
HIDS
  6
sekkei_H
100
AcDbLine
 10
503.4594205166
 20
80.7168533386
 30
0.0
 11
503.4594205166
 21
68.7168543386
 31
0.0
  0
ARC
  5
6D6
330
2
100
AcDbEntity
  8
0
100
AcDbCircle
 10
507.9594205166
 20
83.7168343386
 30
0.0
 40
3.0
100
AcDbArc
 50
270.0
 51
0.0
  0
LINE
  5
6D7
330
2
100
AcDbEntity
  8
0
100
AcDbLine
 10
508.9594205166
 20
94.2168553386
 30
0.0
 11
510.9594205166
 21
94.2168553386
 31
0.0
  0
ARC
  5
6D8
330
2
100
AcDbEntity
  8
0
100
AcDbCircle
 10
508.9594205166
 20
92.0904553386
 30
0.0
 40
2.0
100
AcDbArc
 50
291.037811
 51
0.0
  0
ARC
  5
6D9
330
2
100
AcDbEntity
  8
0
100
AcDbCircle
 10
490.4594205166
 20
109.7681933386
 30
0.0
 40
5.0
100
AcDbArc
 50
0.0
 51
32.499691
  0
ARC
  5
6DA
330
2
100
AcDbEntity
  8
0
100
AcDbCircle
 10
500.4594205166
 20
100.7168553386
 30
0.0
 40
5.0
100
AcDbArc
 50
180.0
 51
270.0
  0
LINE
  5
6DB
330
2
100
AcDbEntity
  8
0
100
AcDbLine
 10
495.4594205166
 20
100.7168553386
 30
0.0
 11
495.4594205166
 21
109.7681933386
 31
0.0
  0
LINE
  5
6DC
330
2
100
AcDbEntity
  8
0
100
AcDbLine
 10
500.4594205166
 20
95.7168553386
 30
0.0
 11
509.4906205166
 21
95.7168553386
 31
0.0
  0
ARC
  5
6DD
330
2
100
AcDbEntity
  8
0
100
AcDbCircle
 10
542.9594235166
 20
143.2168553386
 30
0.0
 40
57.5
100
AcDbArc
 50
236.002823
 51
236.184402
  0
ARC
  5
6DE
330
2
100
AcDbEntity
  8
0
100
AcDbCircle
 10
509.5108195166
 20
90.7168533386
 30
0.0
 40
5.0
100
AcDbArc
 50
73.928284
 51
90.230461
  0
ARC
  5
6DF
330
2
100
AcDbEntity
  8
0
100
AcDbCircle
 10
507.9594205166
 20
115.5217143386
 30
0.0
 40
3.0
100
AcDbArc
 50
180.0
 51
255.069
  0
ARC
  5
6E0
330
2
100
AcDbEntity
  8
0
100
AcDbCircle
 10
507.9594205166
 20
109.3120173386
 30
0.0
 40
3.0
100
AcDbArc
 50
0.0
 51
75.068779
  0
LINE
  5
6E1
330
2
100
AcDbEntity
  8
0
100
AcDbLine
 10
507.1864215166
 20
112.6229753386
 30
0.0
 11
508.7324185166
 21
112.2107133386
 31
0.0
  0
LINE
  5
6E2
330
2
100
AcDbEntity
  8
0
100
AcDbLine
 10
518.9594205166
 20
69.7168543386
 30
0.0
 11
566.9594235166
 21
69.7168543386
 31
0.0
  0
LINE
  5
6E3
330
2
100
AcDbEntity
  8
0
100
AcDbLine
 10
494.9594205166
 20
148.5240073386
 30
0.0
 11
494.9594205166
 21
198.9096963386
 31
0.0
  0
ARC
  5
6E4
330
2
100
AcDbEntity
  8
0
100
AcDbCircle
 10
497.9594205166
 20
148.5240223386
 30
0.0
 40
3.0
100
AcDbArc
 50
180.0
 51
255.124603
  0
LINE
  5
6E5
330
2
100
AcDbEntity
  8
0
100
AcDbLine
 10
497.1892215166
 20
145.6245473386
 30
0.0
 11
502.7296185166
 21
144.1529063386
 31
0.0
  0
ARC
  5
6E6
330
2
100
AcDbEntity
  8
0
100
AcDbCircle
 10
501.9594205166
 20
141.2534383386
 30
0.0
 40
3.0
100
AcDbArc
 50
0.0
 51
75.124496
  0
LINE
  5
6E7
330
2
100
AcDbEntity
  8
0
100
AcDbLine
 10
512.9244205166
 20
218.1924873386
 30
0.0
 11
542.9594235166
 21
218.7168553386
 31
0.0
  0
ARC
  5
6E8
330
2
100
AcDbEntity
  8
0
100
AcDbCircle
 10
497.9594205166
 20
198.9097113386
 30
0.0
 40
3.0
100
AcDbArc
 50
104.876099
 51
180.0
  0
LINE
  5
6E9
330
2
100
AcDbEntity
  8
0
100
AcDbLine
 10
497.1892215166
 20
201.8091563386
 30
0.0
 11
508.7296185166
 21
204.8745553386
 31
0.0
  0
ARC
  5
6EA
330
2
100
AcDbEntity
  8
0
100
AcDbCircle
 10
507.9594205166
 20
207.7739993386
 30
0.0
 40
3.0
100
AcDbArc
 50
284.875847
 51
0.0
  0
ARC
  5
6EB
330
2
100
AcDbEntity
  8
0
100
AcDbCircle
 10
512.9594205166
 20
216.1927923386
 30
0.0
 40
2.0
100
AcDbArc
 50
91.00058
 51
180.0
  0
ARC
  5
6EC
330
2
100
AcDbEntity
  8
0
100
AcDbCircle
 10
749.2867015166
 20
133.3561603386
 30
0.0
 40
30.0
100
AcDbArc
 50
180.0
 51
228.189697
  0
ARC
  5
6F0
330
2
100
AcDbEntity
  8
0
100
AcDbCircle
 10
752.5367015166
 20
132.2168553386
 30
0.0
 40
19.0
100
AcDbArc
 50
172.447601
 51
270.0
  0
ARC
  5
6F1
330
2
100
AcDbEntity
  8
0
100
AcDbCircle
 10
752.5367015166
 20
132.2168553386
 30
0.0
 40
20.6
100
AcDbArc
 50
172.447403
 51
270.0
  0
LINE
  5
6F2
330
2
100
AcDbEntity
  8
0
100
AcDbLine
 10
716.2867015166
 20
193.1070993386
 30
0.0
 11
716.2867015166
 21
68.7168753386
 31
0.0
  0
ARC
  5
6F3
330
2
100
AcDbEntity
  8
0
100
AcDbCircle
 10
542.9594235166
 20
143.2168553386
 30
0.0
 40
57.5
100
AcDbArc
 50
326.002876
 51
19.823904
  0
ARC
  5
6F4
330
2
100
AcDbEntity
  8
0
100
AcDbCircle
 10
542.9594235166
 20
143.2168553386
 30
0.0
 40
57.25
100
AcDbArc
 50
327.498112
 51
19.91411
  0
LINE
  5
6F5
330
2
100
AcDbEntity
  8
0
100
AcDbLine
 10
580.9594235166
 20
115.5216953386
 30
0.0
 11
580.9594235166
 21
175.7868553386
 31
0.0
  0
LINE
  5
6F6
330
2
100
AcDbEntity
  8
0
100
AcDbLine
 10
574.9594235166
 20
68.7168543386
 30
0.0
 11
574.9594235166
 21
216.1931283386
 31
0.0
  0
LINE
  5
6F7
330
2
100
AcDbEntity
  8
CENTER
100
AcDbLine
 10
587.9594235166
 20
85.7168533386
 30
0.0
 11
587.9594235166
 21
63.7168543386
 31
0.0
  0
ARC
  5
6F8
330
2
100
AcDbEntity
  8
0
100
AcDbCircle
 10
576.9594235166
 20
98.2168553386
 30
0.0
 40
4.0
100
AcDbArc
 50
270.0
 51
322.311005
  0
LINE
  5
6F9
330
2
100
AcDbEntity
  8
0
100
AcDbLine
 10
567.9594235166
 20
68.7168543386
 30
0.0
 11
600.9594165166
 21
68.7168543386
 31
0.0
  0
LINE
  5
6FA
330
2
100
AcDbEntity
  8
0
100
AcDbLine
 10
576.2414215166
 20
90.2237563386
 30
0.0
 11
599.6774185166
 21
81.2099543386
 31
0.0
  0
LINE
  5
6FB
330
2
100
AcDbEntity
  8
0
100
AcDbLine
 10
598.9594165166
 20
80.7168533386
 30
0.0
 11
577.9594235166
 21
80.7168533386
 31
0.0
  0
LINE
  5
6FC
330
2
100
AcDbEntity
  8
HIDS
  6
sekkei_H
100
AcDbLine
 10
582.4594235166
 20
80.7168533386
 30
0.0
 11
582.4594235166
 21
68.7168543386
 31
0.0
  0
ARC
  5
6FF
330
2
100
AcDbEntity
  8
0
100
AcDbCircle
 10
577.9594235166
 20
83.7168533386
 30
0.0
 40
3.0
100
AcDbArc
 50
180.0
 51
270.0
  0
LINE
  5
700
330
2
100
AcDbEntity
  8
0
100
AcDbLine
 10
576.9594235166
 20
94.2168553386
 30
0.0
 11
574.9594235166
 21
94.2168553386
 31
0.0
  0
ARC
  5
701
330
2
100
AcDbEntity
  8
0
100
AcDbCircle
 10
576.9594235166
 20
92.0904743386
 30
0.0
 40
2.0
100
AcDbArc
 50
180.0
 51
248.962799
  0
LINE
  5
702
330
2
100
AcDbEntity
  8
HIDS
  6
sekkei_H
100
AcDbLine
 10
593.4594235166
 20
80.7168533386
 30
0.0
 11
593.4594235166
 21
68.7168543386
 31
0.0
  0
ARC
  5
703
330
2
100
AcDbEntity
  8
0
100
AcDbCircle
 10
598.9594165166
 20
79.3432533386
 30
0.0
 40
2.0
100
AcDbArc
 50
0.0
 51
68.962646
  0
ARC
  5
704
330
2
100
AcDbEntity
  8
0
100
AcDbCircle
 10
598.9594165166
 20
78.7168533386
 30
0.0
 40
2.0
100
AcDbArc
 50
0.0
 51
90.0
  0
LINE
  5
705
330
2
100
AcDbEntity
  8
0
100
AcDbLine
 10
600.9594165166
 20
79.3432533386
 30
0.0
 11
600.9594165166
 21
68.7168543386
 31
0.0
  0
LINE
  5
706
330
2
100
AcDbEntity
  8
0
100
AcDbLine
 10
590.4594235166
 20
100.7168553386
 30
0.0
 11
590.4594235166
 21
109.7681933386
 31
0.0
  0
LINE
  5
707
330
2
100
AcDbEntity
  8
0
100
AcDbLine
 10
585.4594235166
 20
95.7168553386
 30
0.0
 11
576.4080165166
 21
95.7168553386
 31
0.0
  0
ARC
  5
708
330
2
100
AcDbEntity
  8
0
100
AcDbCircle
 10
542.9594235166
 20
143.2168553386
 30
0.0
 40
57.5
100
AcDbArc
 50
303.815582
 51
303.997162
  0
ARC
  5
709
330
2
100
AcDbEntity
  8
0
100
AcDbCircle
 10
576.4080165166
 20
90.7168533386
 30
0.0
 40
5.0
100
AcDbArc
 50
90.0
 51
106.0718
  0
ARC
  5
70A
330
2
100
AcDbEntity
  8
0
100
AcDbCircle
 10
585.4594235166
 20
100.7168553386
 30
0.0
 40
5.0
100
AcDbArc
 50
270.0
 51
0.0
  0
ARC
  5
70B
330
2
100
AcDbEntity
  8
0
100
AcDbCircle
 10
577.9594235166
 20
115.5216953386
 30
0.0
 40
3.0
100
AcDbArc
 50
284.93158
 51
0.0
  0
ARC
  5
70C
330
2
100
AcDbEntity
  8
0
100
AcDbCircle
 10
577.9594235166
 20
109.3120363386
 30
0.0
 40
3.0
100
AcDbArc
 50
104.931801
 51
180.0
  0
LINE
  5
70D
330
2
100
AcDbEntity
  8
0
100
AcDbLine
 10
578.7324185166
 20
112.6229943386
 30
0.0
 11
577.1864215166
 21
112.2107133386
 31
0.0
  0
ARC
  5
70E
330
2
100
AcDbEntity
  8
0
100
AcDbCircle
 10
595.4594235166
 20
109.7681933386
 30
0.0
 40
5.0
100
AcDbArc
 50
147.498306
 51
180.0
  0
LINE
  5
710
330
2
100
AcDbEntity
  8
HIDS
  6
sekkei_H
100
AcDbLine
 10
728.7867015166
 20
80.7168553386
 30
0.0
 11
728.7867015166
 21
68.7168553386
 31
0.0
  0
LINE
  5
711
330
2
100
AcDbEntity
  8
CENTER
100
AcDbLine
 10
734.2867015166
 20
85.7168553386
 30
0.0
 11
734.2867015166
 21
63.7168553386
 31
0.0
  0
LINE
  5
712
330
2
100
AcDbEntity
  8
0
100
AcDbLine
 10
722.2867015166
 20
79.6543553386
 30
0.0
 11
722.2867015166
 21
68.7168553386
 31
0.0
  0
LINE
  5
713
330
2
100
AcDbEntity
  8
HIDS
  6
sekkei_H
100
AcDbLine
 10
739.7867015166
 20
80.7168553386
 30
0.0
 11
739.7867015166
 21
68.7168553386
 31
0.0
  0
LINE
  5
714
330
2
100
AcDbEntity
  8
0
100
AcDbLine
 10
752.1654865166
 20
82.2317743386
 30
0.0
 11
753.9078875166
 21
89.2019153386
 31
0.0
  0
LINE
  5
715
330
2
100
AcDbEntity
  8
0
100
AcDbLine
 10
754.2867015166
 20
89.2793553386
 30
0.0
 11
754.2867015166
 21
81.7168553386
 31
0.0
  0
ARC
  5
716
330
2
100
AcDbEntity
  8
0
100
AcDbCircle
 10
753.2867015166
 20
81.7168553386
 30
0.0
 40
1.0
100
AcDbArc
 50
270.0
 51
0.0
  0
ARC
  5
717
330
2
100
AcDbEntity
  8
0
100
AcDbCircle
 10
750.2250875166
 20
82.7168553386
 30
0.0
 40
2.0
100
AcDbArc
 50
270.0
 51
345.96381
  0
ARC
  5
718
330
2
100
AcDbEntity
  8
0
100
AcDbCircle
 10
755.8482865166
 20
88.7168553386
 30
0.0
 40
2.0
100
AcDbArc
 50
90.0
 51
165.963593
  0
LINE
  5
71F
330
2
100
AcDbEntity
  8
0
100
AcDbLine
 10
592.9594235166
 20
186.2168553386
 30
0.0
 11
592.9594235166
 21
161.2168553386
 31
0.0
  0
LINE
  5
720
330
2
100
AcDbEntity
  8
0
100
AcDbLine
 10
632.9594165166
 20
162.7168553386
 30
0.0
 11
632.9594165166
 21
184.7168553386
 31
0.0
  0
LINE
  5
721
330
2
100
AcDbEntity
  8
0
100
AcDbLine
 10
590.9594235166
 20
148.5240073386
 30
0.0
 11
590.9594235166
 21
198.9096963386
 31
0.0
  0
LINE
  5
722
330
2
100
AcDbEntity
  8
0
100
AcDbLine
 10
600.9594165166
 20
170.7168553386
 30
0.0
 11
632.9594165166
 21
170.7168553386
 31
0.0
  0
LINE
  5
723
330
2
100
AcDbEntity
  8
0
100
AcDbLine
 10
600.9594165166
 20
176.7168553386
 30
0.0
 11
632.9594165166
 21
176.7168553386
 31
0.0
  0
LINE
  5
724
330
2
100
AcDbEntity
  8
0
100
AcDbLine
 10
592.9594235166
 20
162.7168553386
 30
0.0
 11
632.9594165166
 21
162.7168553386
 31
0.0
  0
ARC
  5
725
330
2
100
AcDbEntity
  8
0
100
AcDbCircle
 10
587.9594235166
 20
148.5239993386
 30
0.0
 40
3.0
100
AcDbArc
 50
284.875793
 51
0.0
  0
LINE
  5
726
330
2
100
AcDbEntity
  8
0
100
AcDbLine
 10
588.7296185166
 20
145.6245553386
 30
0.0
 11
583.1892215166
 21
144.1529063386
 31
0.0
  0
ARC
  5
727
330
2
100
AcDbEntity
  8
0
100
AcDbCircle
 10
583.9594235166
 20
141.2534613386
 30
0.0
 40
3.0
100
AcDbArc
 50
104.876099
 51
180.0
  0
LINE
  5
728
330
2
100
AcDbEntity
  8
0
100
AcDbLine
 10
590.9594235166
 20
161.2168553386
 30
0.0
 11
592.9594235166
 21
161.2168553386
 31
0.0
  0
ARC
  5
729
330
2
100
AcDbEntity
  8
0
100
AcDbCircle
 10
600.9594165166
 20
173.7168553386
 30
0.0
 40
3.0
100
AcDbArc
 50
90.0
 51
270.0
  0
LINE
  5
72A
330
2
100
AcDbEntity
  8
0
100
AcDbLine
 10
592.9594235166
 20
184.7168553386
 30
0.0
 11
632.9594165166
 21
184.7168553386
 31
0.0
  0
LINE
  5
72B
330
2
100
AcDbEntity
  8
0
100
AcDbLine
 10
590.9594235166
 20
186.2168553386
 30
0.0
 11
592.9594235166
 21
186.2168553386
 31
0.0
  0
LINE
  5
72C
330
2
100
AcDbEntity
  8
0
100
AcDbLine
 10
588.7296185166
 20
201.8091563386
 30
0.0
 11
577.1892215166
 21
204.8745553386
 31
0.0
  0
ARC
  5
72D
330
2
100
AcDbEntity
  8
0
100
AcDbCircle
 10
577.9594235166
 20
207.7740303386
 30
0.0
 40
3.0
100
AcDbArc
 50
180.0
 51
255.124603
  0
ARC
  5
72E
330
2
100
AcDbEntity
  8
0
100
AcDbCircle
 10
587.9594235166
 20
198.9096963386
 30
0.0
 40
3.0
100
AcDbArc
 50
0.0
 51
75.124413
  0
ARC
  5
72F
330
2
100
AcDbEntity
  8
0
100
AcDbCircle
 10
572.9594235166
 20
216.1931283386
 30
0.0
 40
2.0
100
AcDbArc
 50
0.0
 51
89.000519
  0
ARC
  5
730
330
2
100
AcDbEntity
  8
0
100
AcDbCircle
 10
749.2867015166
 20
178.0775583386
 30
0.0
 40
30.0
100
AcDbArc
 50
131.810394
 51
181.671204
  0
LINE
  5
731
330
2
100
AcDbEntity
  8
0
100
AcDbLine
 10
733.7014965166
 20
134.7141473386
 30
0.0
 11
739.3983045166
 21
177.6796773386
 31
0.0
  0
LINE
  5
732
330
2
100
AcDbEntity
  8
0
100
AcDbLine
 10
732.1154985166
 20
134.9244433386
 30
0.0
 11
737.8120925166
 21
177.8899583386
 31
0.0
  0
LINE
  5
733
330
2
100
AcDbEntity
  8
0
100
AcDbLine
 10
719.2867015166
 20
177.2168553386
 30
0.0
 11
719.2867015166
 21
133.3561603386
 31
0.0
  0
LINE
  5
73E
330
2
100
AcDbEntity
  8
0
100
AcDbLine
 10
755.7867015166
 20
176.7168553386
 30
0.0
 11
755.7867015166
 21
170.7168553386
 31
0.0
  0
LINE
  5
73F
330
2
100
AcDbEntity
  8
0
100
AcDbLine
 10
718.4276935166
 20
197.2090883386
 30
0.0
 11
747.9982805166
 21
217.8188303386
 31
0.0
  0
ARC
  5
740
330
2
100
AcDbEntity
  8
0
100
AcDbCircle
 10
721.2867015166
 20
193.1070993386
 30
0.0
 40
5.0
100
AcDbArc
 50
124.875198
 51
180.0
  0
ARC
  5
741
330
2
100
AcDbEntity
  8
0
100
AcDbCircle
 10
750.8571065166
 20
213.7168553386
 30
0.0
 40
5.0
100
AcDbArc
 50
90.0
 51
124.875198
  0
TEXT
  5
742
330
2
100
AcDbEntity
  8
TITLE
100
AcDbText
 10
471.8792249879
 20
492.0274495212
 30
0.0
 40
7.5
  1
HLMN-22L-300~1800-T15WT
 41
0.8
100
AcDbText
  0
LINE
  5
743
330
2
100
AcDbEntity
  8
0
100
AcDbLine
 10
371.8158146307
 20
350.0420179714
 30
0.0
 11
371.8158146307
 21
410.0420179714
 31
0.0
  0
LINE
  5
744
330
2
100
AcDbEntity
  8
0
100
AcDbLine
 10
404.8158146307
 20
380.0420179714
 30
0.0
 11
404.2572666307
 21
412.0420179714
 31
0.0
  0
LINE
  5
745
330
2
100
AcDbEntity
  8
0
100
AcDbLine
 10
362.3988216307
 20
470.0420179714
 30
0.0
 11
362.3988216307
 21
435.0420179714
 31
0.0
  0
LINE
  5
746
330
2
100
AcDbEntity
  8
0
100
AcDbLine
 10
365.3158146307
 20
435.0420179714
 30
0.0
 11
365.3158146307
 21
470.0420179714
 31
0.0
  0
ARC
  5
747
330
2
100
AcDbEntity
  8
0
100
AcDbCircle
 10
391.4669676307
 20
415.0420179714
 30
0.0
 40
3.0
100
AcDbArc
 50
194.875682
 51
270.0
  0
ARC
  5
748
330
2
100
AcDbEntity
  8
0
100
AcDbCircle
 10
399.3437686307
 20
407.0420179714
 30
0.0
 40
5.0
100
AcDbArc
 50
1.0
 51
90.0
  0
LINE
  5
749
330
2
100
AcDbEntity
  8
0
100
AcDbLine
 10
381.9720646307
 20
418.0420179714
 30
0.0
 11
385.2588986307
 21
418.0420179714
 31
0.0
  0
CIRCLE
  5
74A
330
2
100
AcDbEntity
  8
0
100
AcDbCircle
 10
386.8158146307
 20
425.0420179714
 30
0.0
 40
5.5
  0
CIRCLE
  5
74B
330
2
100
AcDbEntity
  8
0
100
AcDbCircle
 10
386.8158146307
 20
425.0420179714
 30
0.0
 40
5.5
  0
LINE
  5
74D
330
2
100
AcDbEntity
  8
0
100
AcDbLine
 10
394.7539246307
 20
438.0420179714
 30
0.0
 11
365.3158146307
 21
438.0420179714
 31
0.0
  0
LINE
  5
74F
330
2
100
AcDbEntity
  8
0
100
AcDbLine
 10
399.6478916307
 20
434.0662489714
 30
0.0
 11
404.2572666307
 21
412.0420179714
 31
0.0
  0
ARC
  5
750
330
2
100
AcDbEntity
  8
0
100
AcDbCircle
 10
394.7539246307
 20
433.0420179714
 30
0.0
 40
5.0
100
AcDbArc
 50
11.820602
 51
90.0
  0
ARC
  5
751
330
2
100
AcDbEntity
  8
0
100
AcDbCircle
 10
385.2588986307
 20
415.0420179714
 30
0.0
 40
3.0
100
AcDbArc
 50
14.875687
 51
90.0
  0
LINE
  5
752
330
2
100
AcDbEntity
  8
0
100
AcDbLine
 10
388.1583736307
 20
415.8121899714
 30
0.0
 11
388.5675226307
 21
414.2718459714
 31
0.0
  0
ARC
  5
753
330
2
100
AcDbEntity
  8
0
100
AcDbCircle
 10
377.0086546307
 20
425.0420179714
 30
0.0
 40
3.0
100
AcDbArc
 50
14.875687
 51
90.0
  0
LINE
  5
754
330
2
100
AcDbEntity
  8
0
100
AcDbLine
 10
362.8158146307
 20
430.0420179714
 30
0.0
 11
362.8158146307
 21
435.0420179714
 31
0.0
  0
LINE
  5
755
330
2
100
AcDbEntity
  8
0
100
AcDbLine
 10
362.3988216307
 20
435.0420179714
 30
0.0
 11
365.3158146307
 21
435.0420179714
 31
0.0
  0
LINE
  5
756
330
2
100
AcDbEntity
  8
0
100
AcDbLine
 10
364.3158146307
 20
428.0420179714
 30
0.0
 11
364.3158146307
 21
430.0420179714
 31
0.0
  0
LINE
  5
757
330
2
100
AcDbEntity
  8
0
100
AcDbLine
 10
381.9720646307
 20
418.0420179714
 30
0.0
 11
379.9081296307
 21
425.8121899714
 31
0.0
  0
ARC
  5
758
330
2
100
AcDbEntity
  8
0
100
AcDbCircle
 10
394.7539246307
 20
327.0420179714
 30
0.0
 40
5.0
100
AcDbArc
 50
270.0
 51
348.179398
  0
ARC
  5
759
330
2
100
AcDbEntity
  8
0
100
AcDbCircle
 10
399.3437686307
 20
353.0420179714
 30
0.0
 40
5.0
100
AcDbArc
 50
270.0
 51
359.0
  0
LINE
  5
75A
330
2
100
AcDbEntity
  8
0
100
AcDbLine
 10
404.8158146307
 20
380.0420179714
 30
0.0
 11
404.2572666307
 21
348.0420179714
 31
0.0
  0
LINE
  5
75B
330
2
100
AcDbEntity
  8
0
100
AcDbLine
 10
381.9720646307
 20
342.0420179714
 30
0.0
 11
385.2588986307
 21
342.0420179714
 31
0.0
  0
CIRCLE
  5
75C
330
2
100
AcDbEntity
  8
0
100
AcDbCircle
 10
386.8158146307
 20
335.0420179714
 30
0.0
 40
5.5
  0
LINE
  5
75F
330
2
100
AcDbEntity
  8
0
100
AcDbLine
 10
399.6478916307
 20
326.0177869714
 30
0.0
 11
404.2572666307
 21
348.0420179714
 31
0.0
  0
LINE
  5
760
330
2
100
AcDbEntity
  8
0
100
AcDbLine
 10
388.1583736307
 20
344.2718459714
 30
0.0
 11
388.5675226307
 21
345.8121899714
 31
0.0
  0
ARC
  5
761
330
2
100
AcDbEntity
  8
0
100
AcDbCircle
 10
391.4669676307
 20
345.0420179714
 30
0.0
 40
3.0
100
AcDbArc
 50
90.0
 51
165.124329
  0
ARC
  5
762
330
2
100
AcDbEntity
  8
0
100
AcDbCircle
 10
385.2588986307
 20
345.0420179714
 30
0.0
 40
3.0
100
AcDbArc
 50
270.0
 51
345.124313
  0
LINE
  5
763
330
2
100
AcDbEntity
  8
0
100
AcDbLine
 10
381.9720646307
 20
342.0420179714
 30
0.0
 11
379.9081296307
 21
334.2718459714
 31
0.0
  0
ARC
  5
764
330
2
100
AcDbEntity
  8
0
100
AcDbCircle
 10
377.0086546307
 20
335.0420179714
 30
0.0
 40
3.0
100
AcDbArc
 50
270.0
 51
345.124313
  0
LINE
  5
765
330
2
100
AcDbEntity
  8
CENTER
100
AcDbLine
 10
1068.5367325166
 20
132.2168553386
 30
0.0
 11
801.2867015166
 21
132.2168553386
 31
0.0
  0
LINE
  5
766
330
2
100
AcDbEntity
  8
0
100
AcDbLine
 10
1000.0367325166
 20
101.9678743386
 30
0.0
 11
894.0367015166
 21
101.9678743386
 31
0.0
  0
LINE
  5
767
330
2
100
AcDbEntity
  8
0
100
AcDbLine
 10
1000.0367325166
 20
162.4658333386
 30
0.0
 11
894.0367015166
 21
162.4658333386
 31
0.0
  0
LINE
  5
768
330
2
100
AcDbEntity
  8
0
100
AcDbLine
 10
1000.0367325166
 20
94.2168743386
 30
0.0
 11
886.0367015166
 21
94.2168743386
 31
0.0
  0
LINE
  5
769
330
2
100
AcDbEntity
  8
0
100
AcDbLine
 10
1000.0367325166
 20
170.2168323386
 30
0.0
 11
886.0367015166
 21
170.2168323386
 31
0.0
  0
LINE
  5
76A
330
2
100
AcDbEntity
  8
0
100
AcDbLine
 10
834.0367015166
 20
200.7167483386
 30
0.0
 11
834.0367015166
 21
85.7169543386
 31
0.0
  0
ARC
  5
76B
330
2
100
AcDbEntity
  8
0
100
AcDbCircle
 10
789.2867015166
 20
133.3561603386
 30
0.0
 40
30.04332
100
AcDbArc
 50
307.45636
 51
356.92276
  0
ARC
  5
773
330
2
100
AcDbEntity
  8
0
100
AcDbCircle
 10
786.0367015166
 20
132.2168553386
 30
0.0
 40
19.0
100
AcDbArc
 50
270.0
 51
7.5527
  0
ARC
  5
774
330
2
100
AcDbEntity
  8
0
100
AcDbCircle
 10
786.0367015166
 20
132.2168553386
 30
0.0
 40
20.6
100
AcDbArc
 50
270.0
 51
7.5527
  0
LINE
  5
775
330
2
100
AcDbEntity
  8
0
100
AcDbLine
 10
826.0367015166
 20
97.7168553386
 30
0.0
 11
826.0367015166
 21
188.7168553386
 31
0.0
  0
LINE
  5
776
330
2
100
AcDbEntity
  8
CENTER
100
AcDbLine
 10
769.2867015166
 20
228.7168553386
 30
0.0
 11
769.2867015166
 21
58.7168553386
 31
0.0
  0
LINE
  5
777
330
2
100
AcDbEntity
  8
0
100
AcDbLine
 10
886.0367015166
 20
170.2168553386
 30
0.0
 11
886.0367015166
 21
94.2168553386
 31
0.0
  0
LINE
  5
778
330
2
100
AcDbEntity
  8
0
100
AcDbLine
 10
842.0367015166
 20
199.7168553386
 30
0.0
 11
842.0367015166
 21
102.3041963386
 31
0.0
  0
LINE
  5
779
330
2
100
AcDbEntity
  8
0
100
AcDbLine
 10
894.0367015166
 20
168.2168323386
 30
0.0
 11
894.0367015166
 21
96.2168553386
 31
0.0
  0
LINE
  5
77A
330
2
100
AcDbEntity
  8
0
100
AcDbLine
 10
842.0367015166
 20
112.6168573386
 30
0.0
 11
886.0367015166
 21
112.6168573386
 31
0.0
  0
LINE
  5
77B
330
2
100
AcDbEntity
  8
0
100
AcDbLine
 10
842.0367015166
 20
122.8168543386
 30
0.0
 11
886.0367015166
 21
122.8168543386
 31
0.0
  0
LINE
  5
77C
330
2
100
AcDbEntity
  8
0
100
AcDbLine
 10
834.0367015166
 20
92.4009753386
 30
0.0
 11
886.0367015166
 21
94.2168553386
 31
0.0
  0
LINE
  5
77D
330
2
100
AcDbEntity
  8
CENTER
100
AcDbLine
 10
804.2867015166
 20
85.7168553386
 30
0.0
 11
804.2867015166
 21
63.7168553386
 31
0.0
  0
LINE
  5
77E
330
2
100
AcDbEntity
  8
0
100
AcDbLine
 10
716.2867015166
 20
80.7168553386
 30
0.0
 11
822.2867015166
 21
80.7168553386
 31
0.0
  0
ARC
  5
77F
330
2
100
AcDbEntity
  8
0
100
AcDbCircle
 10
785.2867015166
 20
81.7168553386
 30
0.0
 40
1.0
100
AcDbArc
 50
180.0
 51
270.0
  0
LINE
  5
780
330
2
100
AcDbEntity
  8
0
100
AcDbLine
 10
786.4078875166
 20
82.2317743386
 30
0.0
 11
784.6654865166
 21
89.2019363386
 31
0.0
  0
LINE
  5
781
330
2
100
AcDbEntity
  8
0
100
AcDbLine
 10
784.2867015166
 20
89.0918553386
 30
0.0
 11
784.2867015166
 21
81.7168553386
 31
0.0
  0
ARC
  5
782
330
2
100
AcDbEntity
  8
0
100
AcDbCircle
 10
782.7250875166
 20
88.7168553386
 30
0.0
 40
2.0
100
AcDbArc
 50
14.0361
 51
90.0
  0
LINE
  5
783
330
2
100
AcDbEntity
  8
HIDS
  6
sekkei_H
100
AcDbLine
 10
798.7867015166
 20
80.7168553386
 30
0.0
 11
798.7867015166
 21
68.7168553386
 31
0.0
  0
ARC
  5
784
330
2
100
AcDbEntity
  8
0
100
AcDbCircle
 10
788.3482865166
 20
82.7168553386
 30
0.0
 40
2.0
100
AcDbArc
 50
194.036301
 51
270.0
  0
ARC
  5
792
330
2
100
AcDbEntity
  8
0
100
AcDbCircle
 10
824.2867015166
 20
93.7168553386
 30
0.0
 40
2.0
100
AcDbArc
 50
90.0
 51
180.0
  0
LINE
  5
793
330
2
100
AcDbEntity
  8
0
100
AcDbLine
 10
834.0367015166
 20
85.9668553386
 30
0.0
 11
827.2867015166
 21
85.9668553386
 31
0.0
  0
LINE
  5
794
330
2
100
AcDbEntity
  8
HIDS
  6
sekkei_H
100
AcDbLine
 10
809.7867015166
 20
80.7168553386
 30
0.0
 11
809.7867015166
 21
68.7168553386
 31
0.0
  0
LINE
  5
795
330
2
100
AcDbEntity
  8
0
100
AcDbLine
 10
816.2867015166
 20
79.6543553386
 30
0.0
 11
816.2867015166
 21
68.7168553386
 31
0.0
  0
LINE
  5
796
330
2
100
AcDbEntity
  8
0
100
AcDbLine
 10
822.2867015166
 20
93.7168553386
 30
0.0
 11
822.2867015166
 21
68.7168553386
 31
0.0
  0
ARC
  5
797
330
2
100
AcDbEntity
  8
0
100
AcDbCircle
 10
827.2867015166
 20
80.9668343386
 30
0.0
 40
5.0
100
AcDbArc
 50
90.0
 51
180.0
  0
ARC
  5
798
330
2
100
AcDbEntity
  8
0
100
AcDbCircle
 10
839.5367015166
 20
88.2168533386
 30
0.0
 40
2.5
100
AcDbArc
 50
270.0
 51
0.0
  0
LINE
  5
799
330
2
100
AcDbEntity
  8
0
100
AcDbLine
 10
839.5367015166
 20
85.7168533386
 30
0.0
 11
834.0367015166
 21
85.7168533386
 31
0.0
  0
ARC
  5
79A
330
2
100
AcDbEntity
  8
0
100
AcDbCircle
 10
844.5367015166
 20
90.2661183386
 30
0.0
 40
2.5
100
AcDbArc
 50
92.0
 51
180.0
  0
LINE
  5
79B
330
2
100
AcDbEntity
  8
0
100
AcDbLine
 10
842.0367015166
 20
88.2168533386
 30
0.0
 11
842.0367015166
 21
90.2661183386
 31
0.0
  0
LINE
  5
79C
330
2
100
AcDbEntity
  8
0
100
AcDbLine
 10
834.0367015166
 20
111.2568563386
 30
0.0
 11
827.0367015166
 21
111.2568563386
 31
0.0
  0
LINE
  5
79D
330
2
100
AcDbEntity
  8
0
100
AcDbLine
 10
828.0367015166
 20
95.7168553386
 30
0.0
 11
834.0367015166
 21
95.7168553386
 31
0.0
  0
ARC
  5
79E
330
2
100
AcDbEntity
  8
0
100
AcDbCircle
 10
828.0367015166
 20
97.7168553386
 30
0.0
 40
2.0
100
AcDbArc
 50
180.0
 51
270.0
  0
LINE
  5
79F
330
2
100
AcDbEntity
  8
0
100
AcDbLine
 10
828.0367015166
 20
95.7168553386
 30
0.0
 11
824.2867015166
 21
95.7168553386
 31
0.0
  0
LINE
  5
7A0
330
2
100
AcDbEntity
  8
0
100
AcDbLine
 10
840.9116405166
 20
100.0628563386
 30
0.0
 11
834.0367015166
 21
100.0628563386
 31
0.0
  0
ARC
  5
7A1
330
2
100
AcDbEntity
  8
0
100
AcDbCircle
 10
892.0367015166
 20
96.2168743386
 30
0.0
 40
2.0
100
AcDbArc
 50
270.0
 51
0.0
  0
LINE
  5
7A2
330
2
100
AcDbEntity
  8
0
100
AcDbLine
 10
843.4498185166
 20
183.5346583386
 30
0.0
 11
869.3932695166
 21
171.0102433386
 31
0.0
  0
LINE
  5
7A3
330
2
100
AcDbEntity
  8
0
100
AcDbLine
 10
844.4494525166
 20
171.6691103386
 30
0.0
 11
886.0367015166
 21
170.2168553386
 31
0.0
  0
LINE
  5
7A4
330
2
100
AcDbEntity
  8
CENTER
100
AcDbLine
 10
861.8685082355
 20
143.2168553386
 30
0.0
 11
801.2867015166
 21
143.2168553386
 31
0.0
  0
ARC
  5
7A5
330
2
100
AcDbEntity
  8
0
100
AcDbCircle
 10
789.2867015166
 20
178.0775353386
 30
0.0
 40
30.0
100
AcDbArc
 50
0.0
 51
48.189629
  0
LINE
  5
7A7
330
2
100
AcDbEntity
  8
0
100
AcDbLine
 10
799.1750995166
 20
177.6797153386
 30
0.0
 11
804.8719075166
 21
134.7141773386
 31
0.0
  0
LINE
  5
7A8
330
2
100
AcDbEntity
  8
0
100
AcDbLine
 10
800.7612805166
 20
177.8900123386
 30
0.0
 11
806.4579055166
 21
134.9244813386
 31
0.0
  0
LINE
  5
7BC
330
2
100
AcDbEntity
  8
0
100
AcDbLine
 10
761.7867015166
 20
176.7168553386
 30
0.0
 11
761.7867015166
 21
170.7168553386
 31
0.0
  0
LINE
  5
7BD
330
2
100
AcDbEntity
  8
0
100
AcDbLine
 10
819.2867015166
 20
178.0775353386
 30
0.0
 11
819.2867015166
 21
131.7434743386
 31
0.0
  0
LINE
  5
7BE
330
2
100
AcDbEntity
  8
0
100
AcDbLine
 10
834.0367015166
 20
175.1768543386
 30
0.0
 11
827.1617015166
 21
175.1768543386
 31
0.0
  0
ARC
  5
7BF
330
2
100
AcDbEntity
  8
0
100
AcDbCircle
 10
844.5367015166
 20
174.1675923386
 30
0.0
 40
2.5
100
AcDbArc
 50
180.0
 51
268.0
  0
LINE
  5
7C0
330
2
100
AcDbEntity
  8
0
100
AcDbLine
 10
820.1456805166
 20
197.2090883386
 30
0.0
 11
790.5750935166
 21
217.8188303386
 31
0.0
  0
ARC
  5
7C1
330
2
100
AcDbEntity
  8
0
100
AcDbCircle
 10
787.7160845166
 20
213.7168553386
 30
0.0
 40
5.0
100
AcDbArc
 50
55.124401
 51
90.0
  0
LINE
  5
7C2
330
2
100
AcDbEntity
  8
0
100
AcDbLine
 10
834.0367015166
 20
190.7168553386
 30
0.0
 11
824.2867015166
 21
190.7168553386
 31
0.0
  0
LINE
  5
7C3
330
2
100
AcDbEntity
  8
0
100
AcDbLine
 10
834.0367015166
 20
200.4668553386
 30
0.0
 11
816.4136855166
 21
200.4668553386
 31
0.0
  0
ARC
  5
7C4
330
2
100
AcDbEntity
  8
0
100
AcDbCircle
 10
817.2867015166
 20
193.1071143386
 30
0.0
 40
5.0
100
AcDbArc
 50
0.0
 51
55.124298
  0
ARC
  5
7C5
330
2
100
AcDbEntity
  8
0
100
AcDbCircle
 10
828.0367015166
 20
188.7168553386
 30
0.0
 40
2.0
100
AcDbArc
 50
90.0
 51
180.0
  0
LINE
  5
7C6
330
2
100
AcDbEntity
  8
0
100
AcDbLine
 10
822.2867015166
 20
193.1071143386
 30
0.0
 11
822.2867015166
 21
192.7168553386
 31
0.0
  0
ARC
  5
7C7
330
2
100
AcDbEntity
  8
0
100
AcDbCircle
 10
824.2867015166
 20
192.7168553386
 30
0.0
 40
2.0
100
AcDbArc
 50
180.0
 51
270.0
  0
ARC
  5
7C8
330
2
100
AcDbEntity
  8
0
100
AcDbCircle
 10
816.4136855166
 20
203.4668553386
 30
0.0
 40
3.0
100
AcDbArc
 50
235.124603
 51
270.0
  0
ARC
  5
7C9
330
2
100
AcDbEntity
  8
0
100
AcDbCircle
 10
844.5367015166
 20
185.7860383386
 30
0.0
 40
2.5
100
AcDbArc
 50
180.0
 51
244.230682
  0
LINE
  5
7CA
330
2
100
AcDbEntity
  8
0
100
AcDbLine
 10
841.0367015166
 20
200.7168553386
 30
0.0
 11
834.0366715166
 21
200.7168553386
 31
0.0
  0
ARC
  5
7CB
330
2
100
AcDbEntity
  8
0
100
AcDbCircle
 10
841.0367015166
 20
199.7168553386
 30
0.0
 40
1.0
100
AcDbArc
 50
0.0
 51
90.0
  0
ARC
  5
7CC
330
2
100
AcDbEntity
  8
0
100
AcDbCircle
 10
870.4801225166
 20
173.2616243386
 30
0.0
 40
2.5
100
AcDbArc
 50
244.230675
 51
268.0
  0
ARC
  5
7CD
330
2
100
AcDbEntity
  8
0
100
AcDbCircle
 10
892.0367015166
 20
168.2168553386
 30
0.0
 40
2.0
100
AcDbArc
 50
0.0
 51
90.0
  0
LINE
  5
7CE
330
2
100
AcDbEntity
  8
0
100
AcDbLine
 10
1000.0367325166
 20
94.2168553386
 30
0.0
 11
1000.0367325166
 21
170.2168323386
 31
0.0
  0
LINE
  5
7CF
330
2
100
AcDbEntity
  8
0
100
AcDbLine
 10
1058.5367325166
 20
97.2168323386
 30
0.0
 11
1058.5367325166
 21
167.2168323386
 31
0.0
  0
LINE
  5
7D0
330
2
100
AcDbEntity
  8
0
100
AcDbLine
 10
1009.5367325166
 20
92.2168323386
 30
0.0
 11
1009.5367325166
 21
172.2168323386
 31
0.0
  0
LINE
  5
7D1
330
2
100
AcDbEntity
  8
0
100
AcDbLine
 10
1056.0367325166
 20
108.2168323386
 30
0.0
 11
1009.5367325166
 21
108.2168323386
 31
0.0
  0
LINE
  5
7D2
330
2
100
AcDbEntity
  8
0
100
AcDbLine
 10
1053.5367325166
 20
92.2168323386
 30
0.0
 11
1009.5367325166
 21
92.2168323386
 31
0.0
  0
LINE
  5
7D3
330
2
100
AcDbEntity
  8
0
100
AcDbLine
 10
1009.5367325166
 20
101.9678353386
 30
0.0
 11
1000.0367325166
 21
101.9678353386
 31
0.0
  0
LINE
  5
7D4
330
2
100
AcDbEntity
  8
0
100
AcDbLine
 10
1009.5367325166
 20
94.2168323386
 30
0.0
 11
1000.0367325166
 21
94.2168323386
 31
0.0
  0
ARC
  5
7D5
330
2
100
AcDbEntity
  8
0
100
AcDbCircle
 10
1053.5367325166
 20
97.2168323386
 30
0.0
 40
5.0
100
AcDbArc
 50
270.0
 51
0.0
  0
LINE
  5
7D6
330
2
100
AcDbEntity
  8
0
100
AcDbLine
 10
1056.0367325166
 20
158.2168323386
 30
0.0
 11
1009.5367325166
 21
158.2168323386
 31
0.0
  0
LINE
  5
7D7
330
2
100
AcDbEntity
  8
0
100
AcDbLine
 10
1053.5367325166
 20
172.2168323386
 30
0.0
 11
1009.5367325166
 21
172.2168323386
 31
0.0
  0
LINE
  5
7DC
330
2
100
AcDbEntity
  8
0
100
AcDbLine
 10
1009.5367325166
 20
162.4658333386
 30
0.0
 11
1000.0367325166
 21
162.4658333386
 31
0.0
  0
LINE
  5
7DE
330
2
100
AcDbEntity
  8
0
100
AcDbLine
 10
1009.5367325166
 20
170.2168323386
 30
0.0
 11
1000.0367325166
 21
170.2168323386
 31
0.0
  0
ARC
  5
7E4
330
2
100
AcDbEntity
  8
0
100
AcDbCircle
 10
1053.5367325166
 20
167.2168323386
 30
0.0
 40
5.0
100
AcDbArc
 50
0.0
 51
90.0
  0
LINE
  5
7E5
330
2
100
AcDbEntity
  8
0
100
AcDbLine
 10
162.0656126307
 20
357.0420179714
 30
0.0
 11
227.0659366307
 21
357.0420179714
 31
0.0
  0
LINE
  5
7E6
330
2
100
AcDbEntity
  8
0
100
AcDbLine
 10
162.0658106307
 20
403.0420179714
 30
0.0
 11
227.0659366307
 21
403.0420179714
 31
0.0
  0
LINE
  5
7E7
330
2
100
AcDbEntity
  8
0
100
AcDbLine
 10
121.0659666307
 20
342.0420479714
 30
0.0
 11
235.0659366307
 21
342.0420479714
 31
0.0
  0
LINE
  5
7E8
330
2
100
AcDbEntity
  8
0
100
AcDbLine
 10
121.0659666307
 20
418.0419869714
 30
0.0
 11
235.0659366307
 21
418.0419869714
 31
0.0
  0
ARC
  5
7E9
330
2
100
AcDbEntity
  8
0
100
AcDbCircle
 10
266.2354616307
 20
380.0420179714
 30
0.0
 40
15.0
100
AcDbArc
 50
130.747627
 51
229.252373
  0
LINE
  5
7EA
330
2
100
AcDbEntity
  8
0
100
AcDbLine
 10
235.0658146307
 20
418.0420179714
 30
0.0
 11
235.0658146307
 21
342.0420179714
 31
0.0
  0
LINE
  5
7EB
330
2
100
AcDbEntity
  8
0
100
AcDbLine
 10
235.0658146307
 20
418.0420179714
 30
0.0
 11
235.0658146307
 21
342.0420179714
 31
0.0
  0
LINE
  5
7EC
330
2
100
AcDbEntity
  8
0
100
AcDbLine
 10
279.0658146307
 20
325.0420179714
 30
0.0
 11
279.0658146307
 21
435.0420179714
 31
0.0
  0
LINE
  5
7ED
330
2
100
AcDbEntity
  8
0
100
AcDbLine
 10
305.6308166307
 20
398.0420179714
 30
0.0
 11
305.6308166307
 21
362.0420179714
 31
0.0
  0
LINE
  5
7EE
330
2
100
AcDbEntity
  8
0
100
AcDbLine
 10
287.0658146307
 20
437.5420179714
 30
0.0
 11
287.0658146307
 21
322.5420179714
 31
0.0
  0
LINE
  5
7EF
330
2
100
AcDbEntity
  8
0
100
AcDbLine
 10
331.8158146307
 20
350.0420179714
 30
0.0
 11
331.8158146307
 21
410.0420179714
 31
0.0
  0
LINE
  5
7F0
330
2
100
AcDbEntity
  8
CENTER
100
AcDbLine
 10
351.8158146307
 20
480.0420179714
 30
0.0
 11
351.8158146307
 21
312.0420179714
 31
0.0
  0
LINE
  5
7F1
330
2
100
AcDbEntity
  8
0
100
AcDbLine
 10
278.1976496307
 20
410.1480059714
 30
0.0
 11
256.4445376307
 21
391.4059099714
 31
0.0
  0
LINE
  5
7F2
330
2
100
AcDbEntity
  8
0
100
AcDbLine
 10
276.6530636307
 20
419.4942879714
 30
0.0
 11
235.0658146307
 21
418.0420179714
 31
0.0
  0
LINE
  5
7F3
330
2
100
AcDbEntity
  8
0
100
AcDbLine
 10
340.8158146307
 20
430.0420179714
 30
0.0
 11
340.8158146307
 21
470.0420179714
 31
0.0
  0
LINE
  5
7F4
330
2
100
AcDbEntity
  8
0
100
AcDbLine
 10
340.8158146307
 20
438.0420179714
 30
0.0
 11
308.6995426307
 21
438.0420179714
 31
0.0
  0
CIRCLE
  5
7F5
330
2
100
AcDbEntity
  8
0
100
AcDbCircle
 10
316.8158146307
 20
425.0420179714
 30
0.0
 40
5.5
  0
ARC
  5
7F7
330
2
100
AcDbEntity
  8
0
100
AcDbCircle
 10
312.1646606307
 20
415.0420179714
 30
0.0
 40
3.0
100
AcDbArc
 50
270.0
 51
345.124313
  0
LINE
  5
7F8
330
2
100
AcDbEntity
  8
0
100
AcDbLine
 10
339.3158146307
 20
428.0420179714
 30
0.0
 11
339.3158146307
 21
430.0420179714
 31
0.0
  0
ARC
  5
7F9
330
2
100
AcDbEntity
  8
0
100
AcDbCircle
 10
326.6229736307
 20
425.0420179714
 30
0.0
 40
3.0
100
AcDbArc
 50
90.0
 51
165.124329
  0
LINE
  5
7FB
330
2
100
AcDbEntity
  8
0
100
AcDbLine
 10
321.6595646307
 20
418.0420179714
 30
0.0
 11
323.7235286307
 21
425.8121899714
 31
0.0
  0
ARC
  5
7FC
330
2
100
AcDbEntity
  8
0
100
AcDbCircle
 10
318.3727296307
 20
415.0420179714
 30
0.0
 40
3.0
100
AcDbArc
 50
90.0
 51
165.124329
  0
LINE
  5
7FD
330
2
100
AcDbEntity
  8
0
100
AcDbLine
 10
321.6595646307
 20
418.0420179714
 30
0.0
 11
318.3727296307
 21
418.0420179714
 31
0.0
  0
LINE
  5
7FE
330
2
100
AcDbEntity
  8
0
100
AcDbLine
 10
315.4732846307
 20
415.8121899714
 30
0.0
 11
315.0641356307
 21
414.2718459714
 31
0.0
  0
ARC
  5
7FF
330
2
100
AcDbEntity
  8
0
100
AcDbCircle
 10
276.5658146307
 20
412.0419869714
 30
0.0
 40
2.5
100
AcDbArc
 50
310.74762
 51
0.0
  0
ARC
  5
800
330
2
100
AcDbEntity
  8
0
100
AcDbCircle
 10
300.5977966307
 20
417.0420179714
 30
0.0
 40
5.0
100
AcDbArc
 50
181.5
 51
270.0
  0
LINE
  5
801
330
2
100
AcDbEntity
  8
0
100
AcDbLine
 10
295.3562806307
 20
412.0420179714
 30
0.0
 11
287.0658146307
 21
412.0420179714
 31
0.0
  0
LINE
  5
802
330
2
100
AcDbEntity
  8
0
100
AcDbLine
 10
287.0658146307
 20
427.5420179714
 30
0.0
 11
292.3986696307
 21
427.5420179714
 31
0.0
  0
LINE
  5
803
330
2
100
AcDbEntity
  8
0
100
AcDbLine
 10
287.0658146307
 20
437.2920179714
 30
0.0
 11
292.1433596307
 21
437.2920179714
 31
0.0
  0
ARC
  5
804
330
2
100
AcDbEntity
  8
0
100
AcDbCircle
 10
292.3986696307
 20
424.5420179714
 30
0.0
 40
3.0
100
AcDbArc
 50
1.5
 51
90.0
  0
LINE
  5
805
330
2
100
AcDbEntity
  8
0
100
AcDbLine
 10
303.9837526307
 20
434.0662489714
 30
0.0
 11
299.4046206307
 21
412.1864579714
 31
0.0
  0
LINE
  5
806
330
2
100
AcDbEntity
  8
0
100
AcDbLine
 10
295.1423216307
 20
434.3705549714
 30
0.0
 11
295.5995056307
 21
416.9111279714
 31
0.0
  0
ARC
  5
807
330
2
100
AcDbEntity
  8
0
100
AcDbCircle
 10
308.8777036307
 20
433.0420179714
 30
0.0
 40
5.0
100
AcDbArc
 50
90.0
 51
168.179413
  0
ARC
  5
808
330
2
100
AcDbEntity
  8
0
100
AcDbCircle
 10
292.1433596307
 20
434.2920179714
 30
0.0
 40
3.0
100
AcDbArc
 50
1.5
 51
90.0
  0
ARC
  5
809
330
2
100
AcDbEntity
  8
0
100
AcDbCircle
 10
281.5658146307
 20
435.0420179714
 30
0.0
 40
2.5
100
AcDbArc
 50
90.0
 51
180.0
  0
LINE
  5
80A
330
2
100
AcDbEntity
  8
0
100
AcDbLine
 10
281.5658146307
 20
437.5420179714
 30
0.0
 11
287.0658146307
 21
437.5420179714
 31
0.0
  0
ARC
  5
80B
330
2
100
AcDbEntity
  8
0
100
AcDbCircle
 10
276.5658146307
 20
421.9927629714
 30
0.0
 40
2.5
100
AcDbArc
 50
272.0
 51
0.0
  0
LINE
  5
80C
330
2
100
AcDbEntity
  8
0
100
AcDbLine
 10
227.0659366307
 20
416.0419869714
 30
0.0
 11
227.0659366307
 21
403.0420179714
 31
0.0
  0
ARC
  5
80D
330
2
100
AcDbEntity
  8
0
100
AcDbCircle
 10
229.0659366307
 20
416.0420179714
 30
0.0
 40
2.0
100
AcDbArc
 50
90.0
 51
180.0
  0
LINE
  5
80E
330
2
100
AcDbEntity
  8
0
100
AcDbLine
 10
278.1976496307
 20
349.9360299714
 30
0.0
 11
256.4445376307
 21
368.6781259714
 31
0.0
  0
LINE
  5
80F
330
2
100
AcDbEntity
  8
0
100
AcDbLine
 10
276.6530636307
 20
340.5897469714
 30
0.0
 11
235.0658146307
 21
342.0420179714
 31
0.0
  0
ARC
  5
810
330
2
100
AcDbEntity
  8
0
100
AcDbCircle
 10
281.5658146307
 20
325.0420179714
 30
0.0
 40
2.5
100
AcDbArc
 50
180.0
 51
270.0
  0
ARC
  5
811
330
2
100
AcDbEntity
  8
0
100
AcDbCircle
 10
308.8777036307
 20
327.0420179714
 30
0.0
 40
5.0
100
AcDbArc
 50
191.820596
 51
270.0
  0
ARC
  5
812
330
2
100
AcDbEntity
  8
0
100
AcDbCircle
 10
292.1433596307
 20
325.7920179714
 30
0.0
 40
3.0
100
AcDbArc
 50
270.0
 51
358.5
  0
CIRCLE
  5
813
330
2
100
AcDbEntity
  8
0
100
AcDbCircle
 10
316.8158146307
 20
335.0420179714
 30
0.0
 40
5.5
  0
LINE
  5
814
330
2
100
AcDbEntity
  8
CENTER
100
AcDbLine
 10
326.0293466307
 20
335.0420179714
 30
0.0
 11
307.6022826307
 21
335.0420179714
 31
0.0
  0
LINE
  5
815
330
2
100
AcDbEntity
  8
0
100
AcDbLine
 10
321.6595646307
 20
342.0420179714
 30
0.0
 11
323.7235286307
 21
334.2718459714
 31
0.0
  0
LINE
  5
816
330
2
100
AcDbEntity
  8
CENTER
100
AcDbLine
 10
316.8158146307
 20
344.2555499714
 30
0.0
 11
316.8158146307
 21
325.8284859714
 31
0.0
  0
LINE
  5
817
330
2
100
AcDbEntity
  8
0
100
AcDbLine
 10
315.4732846307
 20
344.2718459714
 30
0.0
 11
315.0641356307
 21
345.8121899714
 31
0.0
  0
ARC
  5
818
330
2
100
AcDbEntity
  8
0
100
AcDbCircle
 10
312.1646606307
 20
345.0420179714
 30
0.0
 40
3.0
100
AcDbArc
 50
14.875687
 51
90.0
  0
ARC
  5
819
330
2
100
AcDbEntity
  8
0
100
AcDbCircle
 10
318.3727296307
 20
345.0420179714
 30
0.0
 40
3.0
100
AcDbArc
 50
194.875682
 51
270.0
  0
LINE
  5
81A
330
2
100
AcDbEntity
  8
0
100
AcDbLine
 10
321.6595646307
 20
342.0420179714
 30
0.0
 11
318.3727296307
 21
342.0420179714
 31
0.0
  0
ARC
  5
81B
330
2
100
AcDbEntity
  8
0
100
AcDbCircle
 10
326.6229736307
 20
335.0420179714
 30
0.0
 40
3.0
100
AcDbArc
 50
194.875682
 51
270.0
  0
LINE
  5
81C
330
2
100
AcDbEntity
  8
0
100
AcDbLine
 10
287.0658146307
 20
332.5420179714
 30
0.0
 11
292.3986696307
 21
332.5420179714
 31
0.0
  0
LINE
  5
81D
330
2
100
AcDbEntity
  8
0
100
AcDbLine
 10
295.3562806307
 20
348.0420179714
 30
0.0
 11
287.0658146307
 21
348.0420179714
 31
0.0
  0
LINE
  5
81E
330
2
100
AcDbEntity
  8
0
100
AcDbLine
 10
303.9837526307
 20
326.0177869714
 30
0.0
 11
299.4046206307
 21
347.8975479714
 31
0.0
  0
LINE
  5
81F
330
2
100
AcDbEntity
  8
0
100
AcDbLine
 10
295.1423216307
 20
325.7134959714
 30
0.0
 11
295.5995056307
 21
343.1729079714
 31
0.0
  0
ARC
  5
820
330
2
100
AcDbEntity
  8
0
100
AcDbCircle
 10
300.5977966307
 20
343.0420179714
 30
0.0
 40
5.0
100
AcDbArc
 50
90.0
 51
178.5
  0
ARC
  5
821
330
2
100
AcDbEntity
  8
0
100
AcDbCircle
 10
292.3986696307
 20
335.5420179714
 30
0.0
 40
3.0
100
AcDbArc
 50
270.0
 51
358.5
  0
ARC
  5
822
330
2
100
AcDbEntity
  8
0
100
AcDbCircle
 10
276.5658146307
 20
338.0912729714
 30
0.0
 40
2.5
100
AcDbArc
 50
0.0
 51
88.0
  0
ARC
  5
823
330
2
100
AcDbEntity
  8
0
100
AcDbCircle
 10
276.5658146307
 20
348.0420479714
 30
0.0
 40
2.5
100
AcDbArc
 50
0.0
 51
49.25238
  0
LINE
  5
824
330
2
100
AcDbEntity
  8
0
100
AcDbLine
 10
308.8777036307
 20
322.0420179714
 30
0.0
 11
394.7539246307
 21
322.0420179714
 31
0.0
  0
LINE
  5
825
330
2
100
AcDbEntity
  8
0
100
AcDbLine
 10
292.1433596307
 20
322.7920179714
 30
0.0
 11
287.0658146307
 21
322.7920179714
 31
0.0
  0
LINE
  5
826
330
2
100
AcDbEntity
  8
0
100
AcDbLine
 10
281.5658146307
 20
322.5420179714
 30
0.0
 11
287.0658146307
 21
322.5420179714
 31
0.0
  0
LINE
  5
827
330
2
100
AcDbEntity
  8
0
100
AcDbLine
 10
227.0659366307
 20
357.0420179714
 30
0.0
 11
227.0659366307
 21
344.0420179714
 31
0.0
  0
ARC
  5
828
330
2
100
AcDbEntity
  8
0
100
AcDbCircle
 10
229.0659366307
 20
344.0420479714
 30
0.0
 40
2.0
100
AcDbArc
 50
180.0
 51
270.0
  0
LINE
  5
829
330
2
100
AcDbEntity
  8
0
100
AcDbLine
 10
62.5659666307
 20
415.0420479714
 30
0.0
 11
62.5659666307
 21
345.0420479714
 31
0.0
  0
LINE
  5
82A
330
2
100
AcDbEntity
  8
0
100
AcDbLine
 10
111.5659666307
 20
420.0420479714
 30
0.0
 11
111.5659666307
 21
387.5420179714
 31
0.0
  0
LINE
  5
82F
330
2
100
AcDbEntity
  8
0
100
AcDbLine
 10
65.0659666307
 20
406.0420479714
 30
0.0
 11
111.5659666307
 21
406.0420479714
 31
0.0
  0
LINE
  5
830
330
2
100
AcDbEntity
  8
0
100
AcDbLine
 10
67.5659666307
 20
420.0420479714
 30
0.0
 11
111.5659666307
 21
420.0420479714
 31
0.0
  0
LINE
  5
833
330
2
100
AcDbEntity
  8
0
100
AcDbLine
 10
112.0657336307
 20
403.0420479714
 30
0.0
 11
111.5659666307
 21
403.0420479714
 31
0.0
  0
LINE
  5
834
330
2
100
AcDbEntity
  8
0
100
AcDbLine
 10
121.0659666307
 20
418.0420479714
 30
0.0
 11
111.5659666307
 21
418.0420479714
 31
0.0
  0
LINE
  5
835
330
2
100
AcDbEntity
  8
0
100
AcDbLine
 10
121.0659666307
 20
405.0420179714
 30
0.0
 11
121.0659666307
 21
418.0420479714
 31
0.0
  0
ARC
  5
839
330
2
100
AcDbEntity
  8
0
100
AcDbCircle
 10
67.5659666307
 20
415.0420479714
 30
0.0
 40
5.0
100
AcDbArc
 50
90.0
 51
180.0
  0
LINE
  5
83A
330
2
100
AcDbEntity
  8
0
100
AcDbLine
 10
65.0659666307
 20
356.0420479714
 30
0.0
 11
111.5659666307
 21
356.0420479714
 31
0.0
  0
LINE
  5
83B
330
2
100
AcDbEntity
  8
0
100
AcDbLine
 10
67.5659666307
 20
340.0420479714
 30
0.0
 11
111.5659666307
 21
340.0420479714
 31
0.0
  0
LINE
  5
83E
330
2
100
AcDbEntity
  8
0
100
AcDbLine
 10
112.0657036307
 20
357.0420479714
 30
0.0
 11
111.5659666307
 21
357.0420479714
 31
0.0
  0
LINE
  5
83F
330
2
100
AcDbEntity
  8
0
100
AcDbLine
 10
121.0659666307
 20
342.0420479714
 30
0.0
 11
111.5659666307
 21
342.0420479714
 31
0.0
  0
LINE
  5
840
330
2
100
AcDbEntity
  8
0
100
AcDbLine
 10
121.0659666307
 20
342.0420479714
 30
0.0
 11
121.0659666307
 21
355.0420179714
 31
0.0
  0
ARC
  5
842
330
2
100
AcDbEntity
  8
0
100
AcDbCircle
 10
111.5659666307
 20
347.7721509714
 30
0.0
 40
4.5
100
AcDbArc
 50
0.0
 51
90.0
  0
LINE
  5
845
330
2
100
AcDbEntity
  8
0
100
AcDbLine
 10
116.0659666307
 20
347.7721509714
 30
0.0
 11
116.0659666307
 21
343.2721509714
 31
0.0
  0
LINE
  5
846
330
2
100
AcDbEntity
  8
0
100
AcDbLine
 10
114.5659666307
 20
347.7721509714
 30
0.0
 11
114.5659666307
 21
343.2721509714
 31
0.0
  0
LINE
  5
847
330
2
100
AcDbEntity
  8
0
100
AcDbLine
 10
113.0659666307
 20
347.7721509714
 30
0.0
 11
113.0659666307
 21
342.7565569714
 31
0.0
  0
ARC
  5
848
330
2
100
AcDbEntity
  8
0
100
AcDbCircle
 10
111.5659666307
 20
347.7721509714
 30
0.0
 40
1.5
100
AcDbArc
 50
0.0
 51
90.0
  0
ARC
  5
849
330
2
100
AcDbEntity
  8
0
100
AcDbCircle
 10
111.5659666307
 20
347.7721509714
 30
0.0
 40
3.0
100
AcDbArc
 50
0.0
 51
90.0
  0
LINE
  5
84A
330
2
100
AcDbEntity
  8
HOJO
100
AcDbLine
 10
114.5659666307
 20
343.7721509714
 30
0.0
 11
116.0659666307
 21
343.2721509714
 31
0.0
  0
LINE
  5
84B
330
2
100
AcDbEntity
  8
HOJO
100
AcDbLine
 10
113.0659666307
 20
342.7721509714
 30
0.0
 11
114.5659666307
 21
343.2721509714
 31
0.0
  0
ARC
  5
84C
330
2
100
AcDbEntity
  8
0
100
AcDbCircle
 10
67.5659666307
 20
345.0420479714
 30
0.0
 40
5.0
100
AcDbArc
 50
180.0
 51
270.0
  0
LINE
  5
8FE
330
2
100
AcDbEntity
  8
CENTER
100
AcDbLine
 10
386.8158146307
 20
344.2555499714
 30
0.0
 11
386.8158146307
 21
325.8284859714
 31
0.0
  0
LINE
  5
8FF
330
2
100
AcDbEntity
  8
CENTER
100
AcDbLine
 10
396.0293466307
 20
335.0420179714
 30
0.0
 11
377.6022826307
 21
335.0420179714
 31
0.0
  0
LINE
  5
900
330
2
100
AcDbEntity
  8
CENTER
100
AcDbLine
 10
386.8158146307
 20
434.2555499714
 30
0.0
 11
386.8158146307
 21
415.8284859714
 31
0.0
  0
LINE
  5
901
330
2
100
AcDbEntity
  8
CENTER
100
AcDbLine
 10
396.0293466307
 20
425.0420179714
 30
0.0
 11
377.6022826307
 21
425.0420179714
 31
0.0
  0
LINE
  5
902
330
2
100
AcDbEntity
  8
CENTER
100
AcDbLine
 10
316.8158146307
 20
434.2555499714
 30
0.0
 11
316.8158146307
 21
415.8284859714
 31
0.0
  0
LINE
  5
903
330
2
100
AcDbEntity
  8
CENTER
100
AcDbLine
 10
326.0293466307
 20
425.0420179714
 30
0.0
 11
307.6022826307
 21
425.0420179714
 31
0.0
  0
TEXT
  5
909
330
2
100
AcDbEntity
  8
TITLE
100
AcDbText
 10
471.8792249879
 20
504.0274495212
 30
0.0
 40
7.5
  1
HLMN-22L-300~1800-T15T
 41
0.8
100
AcDbText
  0
TEXT
  5
90A
330
2
100
AcDbEntity
  8
TITLE
100
AcDbText
 10
471.8792249879
 20
480.0274495212
 30
0.0
 40
7.5
  1
HLMN-22L-300~900-T25T
 41
0.8
100
AcDbText
  0
TEXT
  5
90B
330
2
100
AcDbEntity
  8
TITLE
100
AcDbText
 10
471.8792249879
 20
468.0274495212
 30
0.0
 40
7.5
  1
HLMN-22L-300~900-T25WT
 41
0.8
100
AcDbText
  0
TEXT
  5
90C
330
2
100
AcDbEntity
  8
TITLE
100
AcDbText
 10
471.8792249879
 20
444.0274495212
 30
0.0
 40
7.5
  1
HLMN-22L-300~450-T40WT
 41
0.8
100
AcDbText
  0
TEXT
  5
90D
330
2
100
AcDbEntity
  8
TITLE
100
AcDbText
 10
471.8792249879
 20
456.0274495212
 30
0.0
 40
7.5
  1
HLMN-22L-300~450-T40T
 41
0.8
100
AcDbText
  0
TEXT
  5
90E
330
2
100
AcDbEntity
  8
TITLE
100
AcDbText
 10
617.9709213438
 20
456.0274495212
 30
0.0
 40
7.5
  1
HLMN-22L-300~450-S40T
 41
0.8
100
AcDbText
  0
TEXT
  5
90F
330
2
100
AcDbEntity
  8
TITLE
100
AcDbText
 10
617.9709213438
 20
444.0274495212
 30
0.0
 40
7.5
  1
HLMN-22L-300~450-S40WT
 41
0.8
100
AcDbText
  0
TEXT
  5
910
330
2
100
AcDbEntity
  8
TITLE
100
AcDbText
 10
617.9709213438
 20
468.0274495212
 30
0.0
 40
7.5
  1
HLMN-22L-300~900-S25WT
 41
0.8
100
AcDbText
  0
TEXT
  5
911
330
2
100
AcDbEntity
  8
TITLE
100
AcDbText
 10
617.9709213438
 20
480.0274495212
 30
0.0
 40
7.5
  1
HLMN-22L-300~900-S25T
 41
0.8
100
AcDbText
  0
TEXT
  5
912
330
2
100
AcDbEntity
  8
TITLE
100
AcDbText
 10
617.9709213438
 20
504.0274495212
 30
0.0
 40
7.5
  1
HLMN-22L-300~1800-S15T
 41
0.8
100
AcDbText
  0
TEXT
  5
913
330
2
100
AcDbEntity
  8
TITLE
100
AcDbText
 10
617.9709213438
 20
492.0274495212
 30
0.0
 40
7.5
  1
HLMN-22L-300~1800-S15WT
 41
0.8
100
AcDbText
  0
TEXT
  5
914
330
2
100
AcDbEntity
  8
TITLE
100
AcDbText
 10
471.8792249879
 20
420.0274495212
 30
0.0
 40
7.5
  1
HLMN-22L-300~450-T60WT
 41
0.8
100
AcDbText
  0
TEXT
  5
915
330
2
100
AcDbEntity
  8
TITLE
100
AcDbText
 10
471.8792249879
 20
432.0274495212
 30
0.0
 40
7.5
  1
HLMN-22L-300~450-T60T
 41
0.8
100
AcDbText
  0
TEXT
  5
916
330
2
100
AcDbEntity
  8
TITLE
100
AcDbText
 10
617.9709213438
 20
420.0274495212
 30
0.0
 40
7.5
  1
HLMN-22L-300~450-S60WT
 41
0.8
100
AcDbText
  0
TEXT
  5
917
330
2
100
AcDbEntity
  8
TITLE
100
AcDbText
 10
617.9709213438
 20
432.0274495212
 30
0.0
 40
7.5
  1
HLMN-22L-300~450-S60T
 41
0.8
100
AcDbText
  0
ARC
  5
9E0
330
2
100
AcDbEntity
  8
0
100
AcDbCircle
 10
333.3864016307
 20
213.7168553386
 30
0.0
 40
5.0
100
AcDbArc
 50
90.0
 51
124.875603
  0
ARC
  5
9E1
330
2
100
AcDbEntity
  8
0
100
AcDbCircle
 10
332.7541996307
 20
82.7168553386
 30
0.0
 40
2.0
100
AcDbArc
 50
270.0
 51
345.963715
  0
LINE
  5
9E2
330
2
100
AcDbEntity
  8
0
100
AcDbLine
 10
404.8158146307
 20
80.7168553386
 30
0.0
 11
298.8158146307
 21
80.7168553386
 31
0.0
  0
ARC
  5
9E3
330
2
100
AcDbEntity
  8
0
100
AcDbCircle
 10
335.0658146307
 20
132.2168553386
 30
0.0
 40
20.6
100
AcDbArc
 50
172.447403
 51
270.0
  0
ARC
  5
9E4
330
2
100
AcDbEntity
  8
0
100
AcDbCircle
 10
335.0658146307
 20
132.2168553386
 30
0.0
 40
19.0
100
AcDbArc
 50
172.447601
 51
270.0
  0
LINE
  5
9E5
330
2
100
AcDbEntity
  8
CENTER
100
AcDbLine
 10
309.7879134654
 20
173.7168553386
 30
0.0
 11
393.8437236004
 21
173.7168553386
 31
0.0
  0
LINE
  5
9E6
330
2
100
AcDbEntity
  8
0
100
AcDbLine
 10
298.8158146307
 20
68.7168563386
 30
0.0
 11
404.8158146307
 21
68.7168563386
 31
0.0
  0
CIRCLE
  5
9E7
330
2
100
AcDbEntity
  8
0
100
AcDbCircle
 10
351.8158146307
 20
173.7168553386
 30
0.0
 40
27.5
  0
ARC
  5
9E8
330
2
100
AcDbEntity
  8
0
100
AcDbCircle
 10
351.8158146307
 20
173.7168553386
 30
0.0
 40
31.75
100
AcDbArc
 50
7.552697
 51
172.447403
  0
ARC
  5
9E9
330
2
100
AcDbEntity
  8
0
100
AcDbCircle
 10
351.8158146307
 20
173.7168553386
 30
0.0
 40
30.15
100
AcDbArc
 50
172.447403
 51
7.552697
  0
LINE
  5
9EA
330
2
100
AcDbEntity
  8
0
100
AcDbLine
 10
300.9568056307
 20
197.2090893386
 30
0.0
 11
330.5274236307
 21
217.8188303386
 31
0.0
  0
LINE
  5
9EB
330
2
100
AcDbEntity
  8
0
100
AcDbLine
 10
287.0658296307
 20
200.7168553386
 30
0.0
 11
287.0658146307
 21
85.7168553386
 31
0.0
  0
LINE
  5
9EC
330
2
100
AcDbEntity
  8
0
100
AcDbLine
 10
279.0658146307
 20
199.7168553386
 30
0.0
 11
279.0658146307
 21
102.3042003386
 31
0.0
  0
LINE
  5
9ED
330
2
100
AcDbEntity
  8
0
100
AcDbLine
 10
67.5658106307
 20
172.2168323386
 30
0.0
 11
111.5658106307
 21
172.2168323386
 31
0.0
  0
LINE
  5
9EE
330
2
100
AcDbEntity
  8
0
100
AcDbLine
 10
65.0658106307
 20
158.2168323386
 30
0.0
 11
111.5658106307
 21
158.2168323386
 31
0.0
  0
LINE
  5
9EF
330
2
100
AcDbEntity
  8
0
100
AcDbLine
 10
67.5658106307
 20
92.2168363386
 30
0.0
 11
111.5658106307
 21
92.2168363386
 31
0.0
  0
LINE
  5
9F0
330
2
100
AcDbEntity
  8
0
100
AcDbLine
 10
65.0658106307
 20
108.2168363386
 30
0.0
 11
111.5658106307
 21
108.2168363386
 31
0.0
  0
LINE
  5
9F1
330
2
100
AcDbEntity
  8
CENTER
100
AcDbLine
 10
52.5658106307
 20
132.2168553386
 30
0.0
 11
319.8158146307
 21
132.2168553386
 31
0.0
  0
LINE
  5
9F2
330
2
100
AcDbEntity
  8
0
100
AcDbLine
 10
62.5658106307
 20
97.2168363386
 30
0.0
 11
62.5658106307
 21
167.2168323386
 31
0.0
  0
ARC
  5
9F3
330
2
100
AcDbEntity
  8
0
100
AcDbCircle
 10
67.5658106307
 20
97.2168363386
 30
0.0
 40
5.0
100
AcDbArc
 50
180.0
 51
270.0
  0
ARC
  5
9F4
330
2
100
AcDbEntity
  8
0
100
AcDbCircle
 10
67.5658106307
 20
167.2168323386
 30
0.0
 40
5.0
100
AcDbArc
 50
90.0
 51
180.0
  0
LINE
  5
9F5
330
2
100
AcDbEntity
  8
0
100
AcDbLine
 10
121.0658106307
 20
170.2168323386
 30
0.0
 11
235.0658146307
 21
170.2168323386
 31
0.0
  0
LINE
  5
9F6
330
2
100
AcDbEntity
  8
0
100
AcDbLine
 10
121.0658106307
 20
94.2168763386
 30
0.0
 11
235.0658146307
 21
94.2168763386
 31
0.0
  0
LINE
  5
9F7
330
2
100
AcDbEntity
  8
0
100
AcDbLine
 10
121.0658106307
 20
162.4658413386
 30
0.0
 11
227.0658146307
 21
162.4658413386
 31
0.0
  0
LINE
  5
9F8
330
2
100
AcDbEntity
  8
0
100
AcDbLine
 10
121.0658106307
 20
101.9678783386
 30
0.0
 11
227.0658146307
 21
101.9678783386
 31
0.0
  0
LINE
  5
9F9
330
2
100
AcDbEntity
  8
0
100
AcDbLine
 10
111.5658106307
 20
92.2168363386
 30
0.0
 11
111.5658106307
 21
172.2168323386
 31
0.0
  0
LINE
  5
9FA
330
2
100
AcDbEntity
  8
0
100
AcDbLine
 10
121.0658106307
 20
94.2168553386
 30
0.0
 11
121.0658106307
 21
170.2168323386
 31
0.0
  0
LINE
  5
9FB
330
2
100
AcDbEntity
  8
0
100
AcDbLine
 10
111.5658106307
 20
94.2168363386
 30
0.0
 11
121.0658106307
 21
94.2168363386
 31
0.0
  0
LINE
  5
9FC
330
2
100
AcDbEntity
  8
0
100
AcDbLine
 10
111.5658106307
 20
101.9678363386
 30
0.0
 11
121.0658106307
 21
101.9678363386
 31
0.0
  0
ARC
  5
9FD
330
2
100
AcDbEntity
  8
0
100
AcDbCircle
 10
111.5658106307
 20
156.5859353386
 30
0.0
 40
3.0
100
AcDbArc
 50
0.0
 51
90.0
  0
ARC
  5
9FE
330
2
100
AcDbEntity
  8
0
100
AcDbCircle
 10
111.5658106307
 20
156.5859353386
 30
0.0
 40
1.5
100
AcDbArc
 50
0.0
 51
90.0
  0
ARC
  5
9FF
330
2
100
AcDbEntity
  8
0
100
AcDbCircle
 10
111.5658106307
 20
156.5859353386
 30
0.0
 40
4.5
100
AcDbArc
 50
0.0
 51
90.0
  0
LINE
  5
A00
330
2
100
AcDbEntity
  8
0
100
AcDbLine
 10
111.5658106307
 20
162.4658333386
 30
0.0
 11
121.0658106307
 21
162.4658333386
 31
0.0
  0
LINE
  5
A01
330
2
100
AcDbEntity
  8
0
100
AcDbLine
 10
113.0658106307
 20
156.5859353386
 30
0.0
 11
113.0658106307
 21
151.5703333386
 31
0.0
  0
LINE
  5
A02
330
2
100
AcDbEntity
  8
0
100
AcDbLine
 10
114.5658106307
 20
156.5859353386
 30
0.0
 11
114.5658106307
 21
152.0859353386
 31
0.0
  0
LINE
  5
A03
330
2
100
AcDbEntity
  8
0
100
AcDbLine
 10
116.0658106307
 20
156.5859353386
 30
0.0
 11
116.0658106307
 21
152.0859353386
 31
0.0
  0
LINE
  5
A04
330
2
100
AcDbEntity
  8
HOJO
100
AcDbLine
 10
113.0658106307
 20
151.5859353386
 30
0.0
 11
114.5658106307
 21
152.0859353386
 31
0.0
  0
LINE
  5
A05
330
2
100
AcDbEntity
  8
HOJO
100
AcDbLine
 10
114.5658106307
 20
152.5859353386
 30
0.0
 11
116.0658106307
 21
152.0859353386
 31
0.0
  0
LINE
  5
A0A
330
2
100
AcDbEntity
  8
0
100
AcDbLine
 10
111.5658106307
 20
170.2168323386
 30
0.0
 11
121.0658106307
 21
170.2168323386
 31
0.0
  0
LINE
  5
A11
330
2
100
AcDbEntity
  8
0
100
AcDbLine
 10
295.0658146307
 20
97.7168553386
 30
0.0
 11
295.0658146307
 21
188.7168553386
 31
0.0
  0
LINE
  5
A12
330
2
100
AcDbEntity
  8
0
100
AcDbLine
 10
227.0658146307
 20
168.2168323386
 30
0.0
 11
227.0658146307
 21
96.2168553386
 31
0.0
  0
LINE
  5
A13
330
2
100
AcDbEntity
  8
0
100
AcDbLine
 10
235.0658146307
 20
170.2168553386
 30
0.0
 11
235.0658146307
 21
94.2168553386
 31
0.0
  0
LINE
  5
A14
330
2
100
AcDbEntity
  8
0
100
AcDbLine
 10
287.0658146307
 20
92.4009773386
 30
0.0
 11
235.0658146307
 21
94.2168553386
 31
0.0
  0
LINE
  5
A15
330
2
100
AcDbEntity
  8
0
100
AcDbLine
 10
235.0658146307
 20
122.8168583386
 30
0.0
 11
279.0658146307
 21
122.8168583386
 31
0.0
  0
LINE
  5
A16
330
2
100
AcDbEntity
  8
0
100
AcDbLine
 10
235.0658146307
 20
112.6168573386
 30
0.0
 11
279.0658146307
 21
112.6168573386
 31
0.0
  0
ARC
  5
A17
330
2
100
AcDbEntity
  8
0
100
AcDbCircle
 10
229.0658146307
 20
96.2168763386
 30
0.0
 40
2.0
100
AcDbArc
 50
180.0
 51
270.0
  0
LINE
  5
A18
330
2
100
AcDbEntity
  8
0
100
AcDbLine
 10
298.8158146307
 20
93.7168553386
 30
0.0
 11
298.8158146307
 21
68.7168563386
 31
0.0
  0
ARC
  5
A19
330
2
100
AcDbEntity
  8
0
100
AcDbCircle
 10
276.5658146307
 20
90.2661203386
 30
0.0
 40
2.5
100
AcDbArc
 50
0.0
 51
88.0
  0
LINE
  5
A1A
330
2
100
AcDbEntity
  8
0
100
AcDbLine
 10
287.0658146307
 20
85.9668553386
 30
0.0
 11
293.8158296307
 21
85.9668553386
 31
0.0
  0
LINE
  5
A1B
330
2
100
AcDbEntity
  8
0
100
AcDbLine
 10
281.5658146307
 20
85.7168553386
 30
0.0
 11
287.0658146307
 21
85.7168553386
 31
0.0
  0
LINE
  5
A1C
330
2
100
AcDbEntity
  8
0
100
AcDbLine
 10
279.0658146307
 20
88.2168553386
 30
0.0
 11
279.0658146307
 21
90.2661203386
 31
0.0
  0
ARC
  5
A1D
330
2
100
AcDbEntity
  8
0
100
AcDbCircle
 10
281.5658146307
 20
88.2168553386
 30
0.0
 40
2.5
100
AcDbArc
 50
180.0
 51
270.0
  0
ARC
  5
A1E
330
2
100
AcDbEntity
  8
0
100
AcDbCircle
 10
293.8158296307
 20
80.9668363386
 30
0.0
 40
5.0
100
AcDbArc
 50
0.0
 51
90.0
  0
LINE
  5
A1F
330
2
100
AcDbEntity
  8
HIDS
  6
sekkei_H
100
AcDbLine
 10
311.3158146307
 20
80.7168553386
 30
0.0
 11
311.3158146307
 21
68.7168563386
 31
0.0
  0
LINE
  5
A20
330
2
100
AcDbEntity
  8
HIDS
  6
sekkei_H
100
AcDbLine
 10
322.3158146307
 20
80.7168553386
 30
0.0
 11
322.3158146307
 21
68.7168563386
 31
0.0
  0
LINE
  5
A21
330
2
100
AcDbEntity
  8
0
100
AcDbLine
 10
304.8158146307
 20
79.6543563386
 30
0.0
 11
304.8158146307
 21
68.7168563386
 31
0.0
  0
LINE
  5
A22
330
2
100
AcDbEntity
  8
CENTER
100
AcDbLine
 10
316.8158146307
 20
85.7168553386
 30
0.0
 11
316.8158146307
 21
63.7168563386
 31
0.0
  0
LINE
  5
A23
330
2
100
AcDbEntity
  8
0
100
AcDbLine
 10
293.0658146307
 20
95.7168553386
 30
0.0
 11
287.0658146307
 21
95.7168553386
 31
0.0
  0
LINE
  5
A24
330
2
100
AcDbEntity
  8
0
100
AcDbLine
 10
280.1908906307
 20
100.0628563386
 30
0.0
 11
287.0658146307
 21
100.0628563386
 31
0.0
  0
LINE
  5
A25
330
2
100
AcDbEntity
  8
0
100
AcDbLine
 10
293.0658146307
 20
95.7168553386
 30
0.0
 11
296.8158146307
 21
95.7168553386
 31
0.0
  0
ARC
  5
A26
330
2
100
AcDbEntity
  8
0
100
AcDbCircle
 10
293.0658146307
 20
97.7168553386
 30
0.0
 40
2.0
100
AcDbArc
 50
270.0
 51
0.0
  0
ARC
  5
A27
330
2
100
AcDbEntity
  8
0
100
AcDbCircle
 10
296.8158146307
 20
93.7168553386
 30
0.0
 40
2.0
100
AcDbArc
 50
0.0
 51
90.0
  0
LINE
  5
A28
330
2
100
AcDbEntity
  8
0
100
AcDbLine
 10
287.0658146307
 20
111.2568563386
 30
0.0
 11
294.0658146307
 21
111.2568563386
 31
0.0
  0
LINE
  5
A29
330
2
100
AcDbEntity
  8
CENTER
100
AcDbLine
 10
219.236942664
 20
143.2168553386
 30
0.0
 11
300.0310741583
 21
143.2168553386
 31
0.0
  0
LINE
  5
A2A
330
2
100
AcDbEntity
  8
0
100
AcDbLine
 10
276.6530646307
 20
171.6691183386
 30
0.0
 11
235.0658146307
 21
170.2168553386
 31
0.0
  0
LINE
  5
A2B
330
2
100
AcDbEntity
  8
0
100
AcDbLine
 10
277.6526826307
 20
183.5346583386
 30
0.0
 11
251.7092476307
 21
171.0102513386
 31
0.0
  0
ARC
  5
A2C
330
2
100
AcDbEntity
  8
0
100
AcDbCircle
 10
229.0658146307
 20
168.2168553386
 30
0.0
 40
2.0
100
AcDbArc
 50
90.0
 51
180.0
  0
ARC
  5
A2D
330
2
100
AcDbEntity
  8
0
100
AcDbCircle
 10
250.6223786307
 20
173.2616253386
 30
0.0
 40
2.5
100
AcDbArc
 50
272.0
 51
295.769318
  0
LINE
  5
A2E
330
2
100
AcDbEntity
  8
0
100
AcDbLine
 10
314.6446106307
 20
134.9244433386
 30
0.0
 11
320.3412056307
 21
177.8899593386
 31
0.0
  0
LINE
  5
A2F
330
2
100
AcDbEntity
  8
0
100
AcDbLine
 10
316.2306096307
 20
134.7141473386
 30
0.0
 11
321.9274176307
 21
177.6796773386
 31
0.0
  0
LINE
  5
A30
330
2
100
AcDbEntity
  8
0
100
AcDbLine
 10
287.0658146307
 20
175.1768543386
 30
0.0
 11
293.9408146307
 21
175.1768543386
 31
0.0
  0
ARC
  5
A31
330
2
100
AcDbEntity
  8
0
100
AcDbCircle
 10
276.5658146307
 20
174.1675923386
 30
0.0
 40
2.5
100
AcDbArc
 50
272.0
 51
0.0
  0
LINE
  5
A32
330
2
100
AcDbEntity
  8
0
100
AcDbLine
 10
287.0658146307
 20
190.7168553386
 30
0.0
 11
296.8158146307
 21
190.7168553386
 31
0.0
  0
ARC
  5
A33
330
2
100
AcDbEntity
  8
0
100
AcDbCircle
 10
276.5658146307
 20
185.7860393386
 30
0.0
 40
2.5
100
AcDbArc
 50
295.769325
 51
0.0
  0
ARC
  5
A34
330
2
100
AcDbEntity
  8
0
100
AcDbCircle
 10
293.0658296307
 20
188.7168553386
 30
0.0
 40
2.0
100
AcDbArc
 50
0.0
 51
90.0
  0
ARC
  5
A35
330
2
100
AcDbEntity
  8
0
100
AcDbCircle
 10
296.8158146307
 20
192.7168553386
 30
0.0
 40
2.0
100
AcDbArc
 50
270.0
 51
0.0
  0
ARC
  5
A36
330
2
100
AcDbEntity
  8
0
100
AcDbCircle
 10
303.8158146307
 20
193.1071143386
 30
0.0
 40
5.0
100
AcDbArc
 50
124.875702
 51
180.0
  0
LINE
  5
A37
330
2
100
AcDbEntity
  8
0
100
AcDbLine
 10
298.8158296307
 20
193.1071143386
 30
0.0
 11
298.8158146307
 21
192.7168553386
 31
0.0
  0
LINE
  5
A38
330
2
100
AcDbEntity
  8
0
100
AcDbLine
 10
287.0658146307
 20
200.4668553386
 30
0.0
 11
304.6888156307
 21
200.4668553386
 31
0.0
  0
LINE
  5
A39
330
2
100
AcDbEntity
  8
0
100
AcDbLine
 10
280.0658146307
 20
200.7168553386
 30
0.0
 11
287.0658296307
 21
200.7168553386
 31
0.0
  0
ARC
  5
A3A
330
2
100
AcDbEntity
  8
0
100
AcDbCircle
 10
280.0658146307
 20
199.7168553386
 30
0.0
 40
1.0
100
AcDbArc
 50
90.0
 51
180.0
  0
ARC
  5
A3B
330
2
100
AcDbEntity
  8
0
100
AcDbCircle
 10
304.6886176307
 20
203.4668553386
 30
0.0
 40
3.0
100
AcDbArc
 50
270.0
 51
304.875397
  0
LINE
  5
A3C
330
2
100
AcDbEntity
  8
0
100
AcDbLine
 10
402.6748236307
 20
197.2090893386
 30
0.0
 11
373.1042056307
 21
217.8188303386
 31
0.0
  0
LINE
  5
A3D
330
2
100
AcDbEntity
  8
CENTER
100
AcDbLine
 10
351.8158146307
 20
228.7168553386
 30
0.0
 11
351.8158146307
 21
58.7168563386
 31
0.0
  0
LINE
  5
A41
330
2
100
AcDbEntity
  8
0
100
AcDbLine
 10
404.8158146307
 20
193.1070993386
 30
0.0
 11
404.8158146307
 21
68.7168773386
 31
0.0
  0
ARC
  5
A42
330
2
100
AcDbEntity
  8
0
100
AcDbCircle
 10
368.5658146307
 20
132.2168553386
 30
0.0
 40
20.6
100
AcDbArc
 50
270.0
 51
7.5527
  0
ARC
  5
A43
330
2
100
AcDbEntity
  8
0
100
AcDbCircle
 10
368.5658146307
 20
132.2168553386
 30
0.0
 40
19.0
100
AcDbArc
 50
270.0
 51
7.5527
  0
LINE
  5
A4B
330
2
100
AcDbEntity
  8
0
100
AcDbLine
 10
338.3773986307
 20
90.7168553386
 30
0.0
 11
365.2541996307
 21
90.7168553386
 31
0.0
  0
LINE
  5
A4C
330
2
100
AcDbEntity
  8
0
100
AcDbLine
 10
336.8158146307
 20
89.0918553386
 30
0.0
 11
336.8158146307
 21
81.7168553386
 31
0.0
  0
LINE
  5
A4D
330
2
100
AcDbEntity
  8
0
100
AcDbLine
 10
334.6945986307
 20
82.2317763386
 30
0.0
 11
336.4369996307
 21
89.2019383386
 31
0.0
  0
ARC
  5
A4E
330
2
100
AcDbEntity
  8
0
100
AcDbCircle
 10
335.8158146307
 20
81.7168553386
 30
0.0
 40
1.0
100
AcDbArc
 50
270.0
 51
0.0
  0
ARC
  5
A4F
330
2
100
AcDbEntity
  8
0
100
AcDbCircle
 10
338.3773986307
 20
88.7168553386
 30
0.0
 40
2.0
100
AcDbArc
 50
90.0
 51
165.963898
  0
LINE
  5
A50
330
2
100
AcDbEntity
  8
CENTER
100
AcDbLine
 10
386.8158146307
 20
85.7168553386
 30
0.0
 11
386.8158146307
 21
63.7168563386
 31
0.0
  0
LINE
  5
A51
330
2
100
AcDbEntity
  8
HIDS
  6
sekkei_H
100
AcDbLine
 10
392.3158146307
 20
80.7168553386
 30
0.0
 11
392.3158146307
 21
68.7168563386
 31
0.0
  0
LINE
  5
A52
330
2
100
AcDbEntity
  8
HIDS
  6
sekkei_H
100
AcDbLine
 10
381.3158146307
 20
80.7168553386
 30
0.0
 11
381.3158146307
 21
68.7168563386
 31
0.0
  0
LINE
  5
A53
330
2
100
AcDbEntity
  8
0
100
AcDbLine
 10
366.8158146307
 20
89.2793553386
 30
0.0
 11
366.8158146307
 21
81.7168553386
 31
0.0
  0
LINE
  5
A54
330
2
100
AcDbEntity
  8
0
100
AcDbLine
 10
368.9369996307
 20
82.2317763386
 30
0.0
 11
367.1945986307
 21
89.2019173386
 31
0.0
  0
ARC
  5
A55
330
2
100
AcDbEntity
  8
0
100
AcDbCircle
 10
370.8773986307
 20
82.7168553386
 30
0.0
 40
2.0
100
AcDbArc
 50
194.036194
 51
270.0
  0
ARC
  5
A56
330
2
100
AcDbEntity
  8
0
100
AcDbCircle
 10
367.8158146307
 20
81.7168553386
 30
0.0
 40
1.0
100
AcDbArc
 50
180.0
 51
270.0
  0
ARC
  5
A57
330
2
100
AcDbEntity
  8
0
100
AcDbCircle
 10
365.2541996307
 20
88.7168553386
 30
0.0
 40
2.0
100
AcDbArc
 50
14.03644
 51
90.0
  0
LINE
  5
A5A
330
2
100
AcDbEntity
  8
0
100
AcDbLine
 10
335.0658146307
 20
111.6168573386
 30
0.0
 11
368.5658146307
 21
111.6168573386
 31
0.0
  0
LINE
  5
A5B
330
2
100
AcDbEntity
  8
0
100
AcDbLine
 10
335.0658146307
 20
113.2168553386
 30
0.0
 11
368.5658146307
 21
113.2168553386
 31
0.0
  0
LINE
  5
A79
330
2
100
AcDbEntity
  8
0
100
AcDbLine
 10
398.8158146307
 20
79.6543563386
 30
0.0
 11
398.8158146307
 21
68.7168563386
 31
0.0
  0
LINE
  5
A7A
330
2
100
AcDbEntity
  8
0
100
AcDbLine
 10
383.2904236307
 20
177.8900203386
 30
0.0
 11
388.9870186307
 21
134.9244823386
 31
0.0
  0
LINE
  5
A7B
330
2
100
AcDbEntity
  8
0
100
AcDbLine
 10
381.7042116307
 20
177.6797153386
 30
0.0
 11
387.4010196307
 21
134.7141853386
 31
0.0
  0
ARC
  5
A7C
330
2
100
AcDbEntity
  8
HIDS
100
AcDbCircle
 10
351.8158146307
 20
173.7168553386
 30
0.0
 40
11.0
100
AcDbArc
 50
15.8266
 51
344.173401
  0
LINE
  5
A94
330
2
100
AcDbEntity
  8
HIDS
100
AcDbLine
 10
365.3158146307
 20
176.7168933386
 30
0.0
 11
359.3158146307
 21
176.7168783386
 31
0.0
  0
LINE
  5
A95
330
2
100
AcDbEntity
  8
HIDS
100
AcDbLine
 10
365.3158146307
 20
170.7168933386
 30
0.0
 11
359.3158146307
 21
170.7168783386
 31
0.0
  0
LINE
  5
A96
330
2
100
AcDbEntity
  8
HIDS
100
AcDbLine
 10
359.3158146307
 20
170.7168783386
 30
0.0
 11
359.3158146307
 21
176.7168783386
 31
0.0
  0
LINE
  5
A97
330
2
100
AcDbEntity
  8
HIDS
100
AcDbLine
 10
365.3158146307
 20
170.7168933386
 30
0.0
 11
365.3158146307
 21
176.7168933386
 31
0.0
  0
ARC
  5
A98
330
2
100
AcDbEntity
  8
0
100
AcDbCircle
 10
399.8158146307
 20
193.1070993386
 30
0.0
 40
5.0
100
AcDbArc
 50
0.0
 51
55.124851
  0
LINE
  5
A99
330
2
100
AcDbEntity
  8
0
100
AcDbLine
 10
333.3864016307
 20
218.7168553386
 30
0.0
 11
370.2451966307
 21
218.7168553386
 31
0.0
  0
ARC
  5
A9A
330
2
100
AcDbEntity
  8
0
100
AcDbCircle
 10
370.2451966307
 20
213.7168553386
 30
0.0
 40
5.0
100
AcDbArc
 50
55.124809
 51
90.0
  0
LINE
  5
1EBE
330
2
100
AcDbEntity
  8
0
100
AcDbLine
 10
160.0657036307
 20
405.0420179714
 30
0.0
 11
162.0657036307
 21
403.0420179714
 31
0.0
  0
LINE
  5
1EBF
330
2
100
AcDbEntity
  8
0
100
AcDbLine
 10
162.0657036307
 20
403.0420179714
 30
0.0
 11
160.0657036307
 21
405.0420179714
 31
0.0
  0
LINE
  5
1EC0
330
2
100
AcDbEntity
  8
0
100
AcDbLine
 10
154.5657036307
 20
401.5420179714
 30
0.0
 11
154.5657036307
 21
405.0420179714
 31
0.0
  0
CIRCLE
  5
1EC1
330
2
100
AcDbEntity
  8
0
100
AcDbCircle
 10
158.5659026307
 20
401.5420179714
 30
0.0
 40
3.500000000000028
  0
LINE
  5
1EC2
330
2
100
AcDbEntity
  8
CENTER
100
AcDbLine
 10
137.0658106307
 20
415.4312439155
 30
0.0
 11
137.0658106307
 21
344.2920179714
 31
0.0
  0
LINE
  5
1EC3
330
2
100
AcDbEntity
  8
0
100
AcDbLine
 10
112.0658036307
 20
403.0420179714
 30
0.0
 11
114.0658036307
 21
405.0420179714
 31
0.0
  0
CIRCLE
  5
1EC4
330
2
100
AcDbEntity
  8
0
100
AcDbCircle
 10
115.5658336307
 20
358.5420179714
 30
0.0
 40
3.500000000000028
  0
LINE
  5
1EC5
330
2
100
AcDbEntity
  8
0
100
AcDbLine
 10
114.0658036307
 20
355.0420179714
 30
0.0
 11
160.0657036307
 21
355.0420179714
 31
0.0
  0
LINE
  5
1EC7
330
2
100
AcDbEntity
  8
0
100
AcDbLine
 10
114.4658046307
 20
403.6420089714
 30
0.0
 11
154.5657036307
 21
403.6420089714
 31
0.0
  0
ARC
  5
1EC8
330
2
100
AcDbEntity
  8
0
100
AcDbCircle
 10
115.5658336307
 20
358.5420179714
 30
0.0
 40
4.0
100
AcDbArc
 50
0.0
 51
90.0
  0
ARC
  5
1EC9
330
2
100
AcDbEntity
  8
0
100
AcDbCircle
 10
111.0658036307
 20
373.5420179714
 30
0.0
 40
1.0
100
AcDbArc
 50
180.0
 51
270.0
  0
LINE
  5
1ECA
330
2
100
AcDbEntity
  8
0
100
AcDbLine
 10
112.0658036307
 20
403.0420179714
 30
0.0
 11
112.0658036307
 21
357.0420179714
 31
0.0
  0
LINE
  5
1ECB
330
2
100
AcDbEntity
  8
0
100
AcDbLine
 10
113.4657976307
 20
402.6420089714
 30
0.0
 11
113.4658046307
 21
362.5420179714
 31
0.0
  0
LINE
  5
1ECC
330
2
100
AcDbEntity
  8
0
100
AcDbLine
 10
112.0658036307
 20
357.0420179714
 30
0.0
 11
114.0658036307
 21
355.0420179714
 31
0.0
  0
LINE
  5
1ECD
330
2
100
AcDbEntity
  8
0
100
AcDbLine
 10
112.0658036307
 20
357.0420179714
 30
0.0
 11
114.0658036307
 21
355.0420179714
 31
0.0
  0
ARC
  5
1ECE
330
2
100
AcDbEntity
  8
0
100
AcDbCircle
 10
113.5361336307
 20
360.5717179714
 30
0.0
 40
1.742199999999999
100
AcDbArc
 50
269.9986903345
 51
0.0013096655
  0
LINE
  5
1ECF
330
2
100
AcDbEntity
  8
0
100
AcDbLine
 10
115.5658336307
 20
362.5420179714
 30
0.0
 11
112.0658336307
 21
362.5420179714
 31
0.0
  0
ARC
  5
1ED0
330
2
100
AcDbEntity
  8
0
100
AcDbCircle
 10
115.5658336307
 20
358.5420179714
 30
0.0
 40
2.049999999999998
100
AcDbArc
 50
180.0
 51
188.061960084
  0
ARC
  5
1ED1
330
2
100
AcDbEntity
  8
0
100
AcDbCircle
 10
115.5658336307
 20
358.5420179714
 30
0.0
 40
2.049999999999998
100
AcDbArc
 50
171.938039916
 51
180.0
  0
ARC
  5
1ED2
330
2
100
AcDbEntity
  8
0
100
AcDbCircle
 10
117.5955336307
 20
360.5717179714
 30
0.0
 40
1.742199999999999
100
AcDbArc
 50
179.9986903345
 51
270.0013096655
  0
ARC
  5
1ED3
330
2
100
AcDbEntity
  8
0
100
AcDbCircle
 10
115.5658336307
 20
358.5420179714
 30
0.0
 40
2.049999999999998
100
AcDbArc
 50
351.938039916
 51
0.0
  0
ARC
  5
1ED4
330
2
100
AcDbEntity
  8
0
100
AcDbCircle
 10
115.5658336307
 20
358.5420179714
 30
0.0
 40
2.049999999999998
100
AcDbArc
 50
81.938039916
 51
90.0
  0
ARC
  5
1ED5
330
2
100
AcDbEntity
  8
0
100
AcDbCircle
 10
115.5658336307
 20
358.5420179714
 30
0.0
 40
2.049999999999998
100
AcDbArc
 50
0.0
 51
8.061960084
  0
ARC
  5
1ED6
330
2
100
AcDbEntity
  8
0
100
AcDbCircle
 10
115.5658336307
 20
358.5420179714
 30
0.0
 40
2.049999999999998
100
AcDbArc
 50
90.0
 51
98.061960084
  0
ARC
  5
1ED7
330
2
100
AcDbEntity
  8
0
100
AcDbCircle
 10
115.5658336307
 20
358.5420179714
 30
0.0
 40
2.049999999999998
100
AcDbArc
 50
270.0
 51
278.061960084
  0
ARC
  5
1ED8
330
2
100
AcDbEntity
  8
0
100
AcDbCircle
 10
115.5658336307
 20
358.5420179714
 30
0.0
 40
2.049999999999998
100
AcDbArc
 50
261.938039916
 51
270.0
  0
ARC
  5
1ED9
330
2
100
AcDbEntity
  8
0
100
AcDbCircle
 10
113.5361336307
 20
356.5123179714
 30
0.0
 40
1.742199999999999
100
AcDbArc
 50
359.9986903345
 51
90.0013096655
  0
ARC
  5
1EDA
330
2
100
AcDbEntity
  8
0
100
AcDbCircle
 10
117.5955336307
 20
356.5123179714
 30
0.0
 40
1.742199999999999
100
AcDbArc
 50
89.9986903345
 51
180.0013096655
  0
LINE
  5
1EDB
330
2
100
AcDbEntity
  8
0
100
AcDbLine
 10
106.5658036307
 20
382.0420179714
 30
0.0
 11
106.5658036307
 21
378.0420179714
 31
0.0
  0
LINE
  5
1EDC
330
2
100
AcDbEntity
  8
0
100
AcDbLine
 10
110.0658036307
 20
373.5420179714
 30
0.0
 11
110.0658036307
 21
386.5420179714
 31
0.0
  0
LINE
  5
1EDD
330
2
100
AcDbEntity
  8
0
100
AcDbLine
 10
111.0658036307
 20
372.5420179714
 30
0.0
 11
112.0658036307
 21
372.5420179714
 31
0.0
  0
LINE
  5
1EDE
330
2
100
AcDbEntity
  8
0
100
AcDbLine
 10
110.0658036307
 20
374.5420179714
 30
0.0
 11
106.5658036307
 21
378.0420179714
 31
0.0
  0
LINE
  5
1EDF
330
2
100
AcDbEntity
  8
0
100
AcDbLine
 10
111.0658036307
 20
387.5420179714
 30
0.0
 11
112.0658036307
 21
387.5420179714
 31
0.0
  0
LINE
  5
1EE0
330
2
100
AcDbEntity
  8
0
100
AcDbLine
 10
106.5658036307
 20
382.0420179714
 30
0.0
 11
110.0658036307
 21
385.5420179714
 31
0.0
  0
ARC
  5
1EE1
330
2
100
AcDbEntity
  8
0
100
AcDbCircle
 10
111.0658186307
 20
386.5420179714
 30
0.0
 40
1.0
100
AcDbArc
 50
90.0
 51
180.0
  0
LINE
  5
1EE2
330
2
100
AcDbEntity
  8
0
100
AcDbLine
 10
113.4657976307
 20
402.6420089714
 30
0.0
 11
114.4658046307
 21
403.6420089714
 31
0.0
  0
LINE
  5
1EE3
330
2
100
AcDbEntity
  8
0
100
AcDbLine
 10
162.0657036307
 20
403.0420179714
 30
0.0
 11
162.0657036307
 21
357.0420179714
 31
0.0
  0
LINE
  5
1EE4
330
2
100
AcDbEntity
  8
0
100
AcDbLine
 10
160.6659086307
 20
357.4420119714
 30
0.0
 11
160.6659086307
 21
397.5420179714
 31
0.0
  0
LINE
  5
1EE5
330
2
100
AcDbEntity
  8
0
100
AcDbLine
 10
159.6659086307
 20
356.4420119714
 30
0.0
 11
119.5658036307
 21
356.4420119714
 31
0.0
  0
LINE
  5
1EE6
330
2
100
AcDbEntity
  8
0
100
AcDbLine
 10
119.5658036307
 20
358.5420179714
 30
0.0
 11
119.5658036307
 21
355.0422169714
 31
0.0
  0
LINE
  5
1EE7
330
2
100
AcDbEntity
  8
0
100
AcDbLine
 10
162.0659026307
 20
357.0420179714
 30
0.0
 11
160.0657036307
 21
355.0420179714
 31
0.0
  0
LINE
  5
1EE8
330
2
100
AcDbEntity
  8
0
100
AcDbLine
 10
162.0657036307
 20
357.0420179714
 30
0.0
 11
160.0657036307
 21
355.0420179714
 31
0.0
  0
LINE
  5
1EE9
330
2
100
AcDbEntity
  8
0
100
AcDbLine
 10
162.0657036307
 20
357.0420179714
 30
0.0
 11
160.0657036307
 21
355.0420179714
 31
0.0
  0
LINE
  5
1EEA
330
2
100
AcDbEntity
  8
0
100
AcDbLine
 10
159.6659086307
 20
356.4420119714
 30
0.0
 11
160.6659086307
 21
357.4420119714
 31
0.0
  0
ARC
  5
1EEB
330
2
100
AcDbEntity
  8
0
100
AcDbCircle
 10
158.5659026307
 20
401.5420179714
 30
0.0
 40
4.0
100
AcDbArc
 50
180.0
 51
270.0
  0
ARC
  5
1EEC
330
2
100
AcDbEntity
  8
0
100
AcDbCircle
 10
158.5659026307
 20
401.5420179714
 30
0.0
 40
2.049999999999998
100
AcDbArc
 50
171.938039916
 51
180.0
  0
ARC
  5
1EED
330
2
100
AcDbEntity
  8
0
100
AcDbCircle
 10
160.5956026307
 20
403.5717179714
 30
0.0
 40
1.742199999999999
100
AcDbArc
 50
179.9986903345
 51
270.0013096655
  0
ARC
  5
1EEE
330
2
100
AcDbEntity
  8
0
100
AcDbCircle
 10
158.5659026307
 20
401.5420179714
 30
0.0
 40
2.049999999999998
100
AcDbArc
 50
351.938039916
 51
0.0
  0
ARC
  5
1EEF
330
2
100
AcDbEntity
  8
0
100
AcDbCircle
 10
158.5659026307
 20
401.5420179714
 30
0.0
 40
2.049999999999998
100
AcDbArc
 50
0.0
 51
8.061960084
  0
ARC
  5
1EF0
330
2
100
AcDbEntity
  8
0
100
AcDbCircle
 10
158.5659026307
 20
401.5420179714
 30
0.0
 40
2.049999999999998
100
AcDbArc
 50
81.938039916
 51
90.0
  0
ARC
  5
1EF1
330
2
100
AcDbEntity
  8
0
100
AcDbCircle
 10
158.5659026307
 20
401.5420179714
 30
0.0
 40
2.049999999999998
100
AcDbArc
 50
90.0
 51
98.061960084
  0
ARC
  5
1EF2
330
2
100
AcDbEntity
  8
0
100
AcDbCircle
 10
158.5659026307
 20
401.5420179714
 30
0.0
 40
2.049999999999998
100
AcDbArc
 50
270.0
 51
278.061960084
  0
ARC
  5
1EF3
330
2
100
AcDbEntity
  8
0
100
AcDbCircle
 10
158.5659026307
 20
401.5420179714
 30
0.0
 40
2.049999999999998
100
AcDbArc
 50
261.938039916
 51
270.0
  0
LINE
  5
1EF4
330
2
100
AcDbEntity
  8
0
100
AcDbLine
 10
158.5657036307
 20
397.5420179714
 30
0.0
 11
162.0657036307
 21
397.5420179714
 31
0.0
  0
ARC
  5
1EF5
330
2
100
AcDbEntity
  8
0
100
AcDbCircle
 10
156.5362026307
 20
399.5123179714
 30
0.0
 40
1.742199999999999
100
AcDbArc
 50
359.9986903345
 51
90.0013096655
  0
ARC
  5
1EF6
330
2
100
AcDbEntity
  8
0
100
AcDbCircle
 10
160.5956026307
 20
399.5123179714
 30
0.0
 40
1.742199999999999
100
AcDbArc
 50
89.9986903345
 51
180.0013096655
  0
ARC
  5
1EF7
330
2
100
AcDbEntity
  8
0
100
AcDbCircle
 10
156.5362026307
 20
403.5717179714
 30
0.0
 40
1.742199999999999
100
AcDbArc
 50
269.9986903345
 51
0.0013096655
  0
ARC
  5
1EF8
330
2
100
AcDbEntity
  8
0
100
AcDbCircle
 10
158.5659026307
 20
401.5420179714
 30
0.0
 40
2.049999999999998
100
AcDbArc
 50
180.0
 51
188.061960084
  0
LINE
  5
1EF9
330
2
100
AcDbEntity
  8
0
100
AcDbLine
 10
114.0658036307
 20
405.0420179714
 30
0.0
 11
160.0657036307
 21
405.0420179714
 31
0.0
  0
LINE
  5
1EFA
330
2
100
AcDbEntity
  8
0
100
AcDbLine
 10
1009.0367395166
 20
201.7168303386
 30
0.0
 11
1009.0367395166
 21
173.7168323386
 31
0.0
  0
LINE
  5
1EFB
330
2
100
AcDbEntity
  8
CENTER
100
AcDbLine
 10
984.0367325166
 20
162.0231313386
 30
0.0
 11
984.0367325166
 21
213.1043303386
 31
0.0
  0
LINE
  5
1EFC
330
2
100
AcDbEntity
  8
0
100
AcDbLine
 10
959.0367325166
 20
201.7168303386
 30
0.0
 11
959.0367325166
 21
173.7168323386
 31
0.0
  0
LINE
  5
1EFE
330
2
100
AcDbEntity
  8
0
100
AcDbLine
 10
1009.0367395166
 20
173.7168323386
 30
0.0
 11
959.0367325166
 21
173.7168323386
 31
0.0
  0
LINE
  5
1EFF
330
2
100
AcDbEntity
  8
0
100
AcDbLine
 10
1007.5367395166
 20
171.7168323386
 30
0.0
 11
961.0367325166
 21
171.7168323386
 31
0.0
  0
LINE
  5
1F01
330
2
100
AcDbEntity
  8
0
100
AcDbLine
 10
961.0367325166
 20
171.7168323386
 30
0.0
 11
959.0367325166
 21
173.7168323386
 31
0.0
  0
LINE
  5
1F02
330
2
100
AcDbEntity
  8
0
100
AcDbLine
 10
961.5367325166
 20
171.7168323386
 30
0.0
 11
961.5367325166
 21
170.2168323386
 31
0.0
  0
LINE
  5
1F03
330
2
100
AcDbEntity
  8
0
100
AcDbLine
 10
1009.0367395166
 20
173.7168323386
 30
0.0
 11
1007.0367395166
 21
171.7168323386
 31
0.0
  0
LINE
  5
1F04
330
2
100
AcDbEntity
  8
0
100
AcDbLine
 10
1007.5367395166
 20
171.7168323386
 30
0.0
 11
1007.5367395166
 21
170.2168323386
 31
0.0
  0
LINE
  5
1F05
330
2
100
AcDbEntity
  8
0
100
AcDbLine
 10
963.8746413326
 20
202.7168303386
 30
0.0
 11
1008.0367325166
 21
202.7168303386
 31
0.0
  0
LINE
  5
1F06
330
2
100
AcDbEntity
  8
0
100
AcDbLine
 10
966.5367329452
 20
201.7168303386
 30
0.0
 11
1009.0367395166
 21
201.7168303386
 31
0.0
  0
LINE
  5
1F07
330
2
100
AcDbEntity
  8
CENTER
100
AcDbLine
 10
1021.9804885166
 20
193.2168303386
 30
0.0
 11
950.0844295529
 21
193.2168303386
 31
0.0
  0
LINE
  5
1F08
330
2
100
AcDbEntity
  8
0
100
AcDbLine
 10
1011.0367395166
 20
183.7168323386
 30
0.0
 11
959.0367325166
 21
183.7168323386
 31
0.0
  0
LINE
  5
1F09
330
2
100
AcDbEntity
  8
0
100
AcDbLine
 10
966.5367329452
 20
202.2168303386
 30
0.0
 11
965.4817099062
 21
202.2168303386
 31
0.0
  0
LINE
  5
1F0A
330
2
100
AcDbEntity
  8
0
100
AcDbLine
 10
966.5367329452
 20
200.2168303386
 30
0.0
 11
959.0367329452
 21
200.2168303386
 31
0.0
  0
ARC
  5
1F0B
330
2
100
AcDbEntity
  8
0
100
AcDbCircle
 10
964.6437432702
 20
201.2229430629
 30
0.0
 40
1.3
100
AcDbArc
 50
5.0
 51
74.1191499917
  0
ARC
  5
1F0C
330
2
100
AcDbEntity
  8
0
100
AcDbCircle
 10
962.5367325166
 20
193.8168303386
 30
0.0
 40
9.0
100
AcDbArc
 50
74.1191499917
 51
105.8808500083
  0
LINE
  5
1F0D
330
2
100
AcDbEntity
  8
0
100
AcDbLine
 10
960.5069926934
 20
202.369271876
 30
0.0
 11
960.4867325166
 21
202.5802486215
 31
0.0
  0
LINE
  5
1F0E
330
2
100
AcDbEntity
  8
0
100
AcDbLine
 10
960.0367325166
 20
202.7168303386
 30
0.0
 11
961.1988237006
 21
202.7168303386
 31
0.0
  0
LINE
  5
1F0F
330
2
100
AcDbEntity
  8
0
100
AcDbLine
 10
964.5664723398
 20
202.369271876
 30
0.0
 11
964.5867325166
 21
202.5802486215
 31
0.0
  0
LINE
  5
1F10
330
2
100
AcDbEntity
  8
0
100
AcDbLine
 10
959.0367325166
 20
200.2168303386
 30
0.0
 11
959.1346686555
 21
201.3362455285
 31
0.0
  0
LINE
  5
1F11
330
2
100
AcDbEntity
  8
0
100
AcDbLine
 10
962.8242325171
 20
201.2998303386
 30
0.0
 11
962.2492325162
 21
201.2998303386
 31
0.0
  0
SPLINE
  5
1F12
330
2
100
AcDbEntity
  8
0
100
AcDbSpline
210
0.0
220
0.0
230
1.0
 70
     8
 71
     3
 72
    11
 73
     7
 74
     0
 42
0.000000001
 43
0.0000000001
 40
0.0
 40
0.0
 40
0.0
 40
0.0
 40
0.4601364636755307
 40
1.04988694485363
 40
1.713742833862792
 40
2.320347933405154
 40
2.320347933405154
 40
2.320347933405154
 40
2.320347933405175
 10
962.249232516152
 20
201.2998303386398
 30
0.0
 10
962.2268148590443
 20
201.4548537783197
 30
0.0
 10
962.1756648038111
 20
201.8085685962372
 30
0.0
 10
961.7397796422777
 20
202.2332962678389
 30
0.0
 10
961.1347289272698
 20
202.4524834478047
 30
0.0
 10
960.709544303094
 20
202.383492148194
 30
0.0
 10
960.5069926934428
 20
202.3692718760174
 30
0.0
  0
ARC
  5
1F13
330
2
100
AcDbEntity
  8
0
100
AcDbCircle
 10
960.429721763
 20
201.2229430629
 30
0.0
 40
1.3
100
AcDbArc
 50
105.8808500083
 51
175.0
  0
LINE
  5
1F14
330
2
100
AcDbEntity
  8
0
100
AcDbLine
 10
959.0367325166
 20
201.7168303386
 30
0.0
 11
960.0367325166
 21
202.7168303386
 31
0.0
  0
SPLINE
  5
1F15
330
2
100
AcDbEntity
  8
0
100
AcDbSpline
210
0.0
220
0.0
230
1.0
 70
     8
 71
     3
 72
    11
 73
     7
 74
     0
 42
0.000000001
 43
0.0000000001
 40
0.0
 40
0.0
 40
0.0
 40
0.0
 40
0.4601364636755307
 40
1.04988694485363
 40
1.713742833862792
 40
2.320347933405154
 40
2.320347933405154
 40
2.320347933405154
 40
2.320347933405175
 10
962.8242325170623
 20
201.2998303386398
 30
0.0
 10
962.8466501741698
 20
201.4548537783197
 30
0.0
 10
962.8978002294031
 20
201.8085685962372
 30
0.0
 10
963.3336853909368
 20
202.2332962678389
 30
0.0
 10
963.9387361059444
 20
202.4524834478047
 30
0.0
 10
964.3639207301204
 20
202.383492148194
 30
0.0
 10
964.5664723397713
 20
202.3692718760174
 30
0.0
  0
LINE
  5
1F16
330
2
100
AcDbEntity
  8
0
100
AcDbLine
 10
967.0367329452
 20
202.7168303386
 30
0.0
 11
966.5367329452
 21
202.2168303386
 31
0.0
  0
LINE
  5
1F17
330
2
100
AcDbEntity
  8
0
100
AcDbLine
 10
966.0367325166
 20
200.2168303386
 30
0.0
 11
965.9387963777
 21
201.3362455285
 31
0.0
  0
LINE
  5
1F18
330
2
100
AcDbEntity
  8
0
100
AcDbLine
 10
966.5367329452
 20
200.2168303386
 30
0.0
 11
966.5367329452
 21
202.2168303386
 31
0.0
  0
LINE
  5
1F19
330
2
100
AcDbEntity
  8
0
100
AcDbLine
 10
1011.0367245166
 20
199.7168303386
 30
0.0
 11
1011.0367395166
 21
183.7168323386
 31
0.0
  0
LINE
  5
1F1A
330
2
100
AcDbEntity
  8
0
100
AcDbLine
 10
1014.5367245166
 20
197.2168303386
 30
0.0
 11
1014.5367245166
 21
189.2168303386
 31
0.0
  0
LINE
  5
1F1B
330
2
100
AcDbEntity
  8
0
100
AcDbLine
 10
1014.5367395166
 20
189.2168303386
 30
0.0
 11
1011.0367395166
 21
187.7168303386
 31
0.0
  0
LINE
  5
1F1C
330
2
100
AcDbEntity
  8
0
100
AcDbLine
 10
1014.5367245166
 20
197.2168303386
 30
0.0
 11
1011.0367245166
 21
198.7168303386
 31
0.0
  0
ARC
  5
1F1D
330
2
100
AcDbEntity
  8
0
100
AcDbCircle
 10
1010.0367245166
 20
199.7168303386
 30
0.0
 40
1.0
100
AcDbArc
 50
0.0
 51
90.0
  0
LINE
  5
1F1E
330
2
100
AcDbEntity
  8
0
100
AcDbLine
 10
1010.0367395166
 20
200.7168303386
 30
0.0
 11
1009.0367395166
 21
200.7168303386
 31
0.0
  0
LINE
  5
1F1F
330
2
100
AcDbEntity
  8
0
100
AcDbLine
 10
1008.0367395166
 20
202.7168303386
 30
0.0
 11
1009.0367395166
 21
201.7168303386
 31
0.0
  0
LINE
  5
1F61
330
2
100
AcDbEntity
  8
CENTER
100
AcDbLine
 10
137.0658106307
 20
162.0231313386
 30
0.0
 11
137.0658106307
 21
213.1043303386
 31
0.0
  0
LINE
  5
1F62
330
2
100
AcDbEntity
  8
0
100
AcDbLine
 10
119.5658040593
 20
201.7168303386
 30
0.0
 11
162.0658176307
 21
201.7168303386
 31
0.0
  0
LINE
  5
1F63
330
2
100
AcDbEntity
  8
CENTER
100
AcDbLine
 10
99.1220546307
 20
193.2168303386
 30
0.0
 11
171.0181135944
 21
193.2168303386
 31
0.0
  0
LINE
  5
1F64
330
2
100
AcDbEntity
  8
0
100
AcDbLine
 10
110.0658036307
 20
183.7168323386
 30
0.0
 11
162.0658106307
 21
183.7168323386
 31
0.0
  0
LINE
  5
1F65
330
2
100
AcDbEntity
  8
0
100
AcDbLine
 10
116.9037194467
 20
202.7168303386
 30
0.0
 11
161.0658106307
 21
202.7168303386
 31
0.0
  0
LINE
  5
1F66
330
2
100
AcDbEntity
  8
0
100
AcDbLine
 10
112.0658036307
 20
173.7168323386
 30
0.0
 11
162.0658106307
 21
173.7168323386
 31
0.0
  0
LINE
  5
1F67
330
2
100
AcDbEntity
  8
0
100
AcDbLine
 10
113.5658036307
 20
171.7168323386
 30
0.0
 11
160.0658106307
 21
171.7168323386
 31
0.0
  0
LINE
  5
1F68
330
2
100
AcDbEntity
  8
0
100
AcDbLine
 10
112.0658036307
 20
201.7168303386
 30
0.0
 11
112.0658036307
 21
173.7168323386
 31
0.0
  0
LINE
  5
1F69
330
2
100
AcDbEntity
  8
0
100
AcDbLine
 10
113.5658036307
 20
171.7168323386
 30
0.0
 11
113.5658036307
 21
170.2168323386
 31
0.0
  0
LINE
  5
1F6A
330
2
100
AcDbEntity
  8
0
100
AcDbLine
 10
112.0658036307
 20
173.7168323386
 30
0.0
 11
114.0658036307
 21
171.7168323386
 31
0.0
  0
LINE
  5
1F6B
330
2
100
AcDbEntity
  8
0
100
AcDbLine
 10
106.5658186307
 20
197.2168303386
 30
0.0
 11
106.5658186307
 21
189.2168303386
 31
0.0
  0
LINE
  5
1F6C
330
2
100
AcDbEntity
  8
0
100
AcDbLine
 10
110.0658186307
 20
199.7168303386
 30
0.0
 11
110.0658036307
 21
183.7168323386
 31
0.0
  0
LINE
  5
1F6D
330
2
100
AcDbEntity
  8
0
100
AcDbLine
 10
106.5658036307
 20
189.2168303386
 30
0.0
 11
110.0658036307
 21
187.7168303386
 31
0.0
  0
LINE
  5
1F6E
330
2
100
AcDbEntity
  8
0
100
AcDbLine
 10
115.8533106311
 20
201.2998303386
 30
0.0
 11
115.2783106302
 21
201.2998303386
 31
0.0
  0
ARC
  5
1F6F
330
2
100
AcDbEntity
  8
0
100
AcDbCircle
 10
115.5658106307
 20
193.8168303386
 30
0.0
 40
9.0
100
AcDbArc
 50
74.1191499917
 51
105.8808500083
  0
LINE
  5
1F70
330
2
100
AcDbEntity
  8
0
100
AcDbLine
 10
119.5658040593
 20
200.2168303386
 30
0.0
 11
112.0658040593
 21
200.2168303386
 31
0.0
  0
LINE
  5
1F71
330
2
100
AcDbEntity
  8
0
100
AcDbLine
 10
112.0658036307
 20
201.7168303386
 30
0.0
 11
113.0658036307
 21
202.7168303386
 31
0.0
  0
LINE
  5
1F72
330
2
100
AcDbEntity
  8
0
100
AcDbLine
 10
113.0658040593
 20
202.7168303386
 30
0.0
 11
112.0658036307
 21
201.7168303386
 31
0.0
  0
ARC
  5
1F73
330
2
100
AcDbEntity
  8
0
100
AcDbCircle
 10
113.4587998771
 20
201.2229430629
 30
0.0
 40
1.3
100
AcDbArc
 50
105.8808500083
 51
175.0
  0
SPLINE
  5
1F74
330
2
100
AcDbEntity
  8
0
100
AcDbSpline
210
0.0
220
0.0
230
1.0
 70
     8
 71
     3
 72
    11
 73
     7
 74
     0
 42
0.000000001
 43
0.0000000001
 40
0.0
 40
0.0
 40
0.0
 40
0.0
 40
0.4601364636755307
 40
1.04988694485363
 40
1.713742833862792
 40
2.320347933405154
 40
2.320347933405154
 40
2.320347933405154
 40
2.320347933405175
 10
115.2783106302356
 20
201.2998303386397
 30
0.0
 10
115.2558929731277
 20
201.4548537783196
 30
0.0
 10
115.2047429178944
 20
201.8085685962371
 30
0.0
 10
114.7688577563608
 20
202.2332962678388
 30
0.0
 10
114.1638070413535
 20
202.4524834478046
 30
0.0
 10
113.7386224171775
 20
202.3834921481939
 30
0.0
 10
113.5360708075266
 20
202.3692718760173
 30
0.0
  0
LINE
  5
1F75
330
2
100
AcDbEntity
  8
0
100
AcDbLine
 10
112.0658106307
 20
200.2168303386
 30
0.0
 11
112.1637467696
 21
201.3362455285
 31
0.0
  0
LINE
  5
1F76
330
2
100
AcDbEntity
  8
0
100
AcDbLine
 10
113.0658036307
 20
202.7168303386
 30
0.0
 11
114.2279018147
 21
202.7168303386
 31
0.0
  0
LINE
  5
1F77
330
2
100
AcDbEntity
  8
0
100
AcDbLine
 10
113.5360708075
 20
202.369271876
 30
0.0
 11
113.5158106307
 21
202.5802486215
 31
0.0
  0
ARC
  5
1F78
330
2
100
AcDbEntity
  8
0
100
AcDbCircle
 10
111.0658186307
 20
199.7168303386
 30
0.0
 40
1.0
100
AcDbArc
 50
90.0
 51
180.0
  0
LINE
  5
1F79
330
2
100
AcDbEntity
  8
0
100
AcDbLine
 10
111.0658036307
 20
200.7168303386
 30
0.0
 11
112.0658036307
 21
200.7168303386
 31
0.0
  0
LINE
  5
1F7A
330
2
100
AcDbEntity
  8
0
100
AcDbLine
 10
106.5658186307
 20
197.2168303386
 30
0.0
 11
110.0658186307
 21
198.7168303386
 31
0.0
  0
LINE
  5
1F7B
330
2
100
AcDbEntity
  8
0
100
AcDbLine
 10
120.0658040593
 20
202.7168303386
 30
0.0
 11
119.5658040593
 21
202.2168303386
 31
0.0
  0
LINE
  5
1F7C
330
2
100
AcDbEntity
  8
0
100
AcDbLine
 10
119.5658040593
 20
200.2168303386
 30
0.0
 11
119.5658040593
 21
202.2168303386
 31
0.0
  0
LINE
  5
1F7D
330
2
100
AcDbEntity
  8
0
100
AcDbLine
 10
119.0658106307
 20
200.2168303386
 30
0.0
 11
118.9678744918
 21
201.3362455285
 31
0.0
  0
SPLINE
  5
1F7E
330
2
100
AcDbEntity
  8
0
100
AcDbSpline
210
0.0
220
0.0
230
1.0
 70
     8
 71
     3
 72
    11
 73
     7
 74
     0
 42
0.000000001
 43
0.0000000001
 40
0.0
 40
0.0
 40
0.0
 40
0.0
 40
0.4601364636755307
 40
1.04988694485363
 40
1.713742833862792
 40
2.320347933405154
 40
2.320347933405154
 40
2.320347933405154
 40
2.320347933405175
 10
115.8533106311456
 20
201.2998303386397
 30
0.0
 10
115.8757282882535
 20
201.4548537783196
 30
0.0
 10
115.9268783434868
 20
201.8085685962371
 30
0.0
 10
116.3627635050204
 20
202.2332962678388
 30
0.0
 10
116.9678142200277
 20
202.4524834478046
 30
0.0
 10
117.3929988442037
 20
202.3834921481939
 30
0.0
 10
117.5955504538547
 20
202.3692718760173
 30
0.0
  0
LINE
  5
1F7F
330
2
100
AcDbEntity
  8
0
100
AcDbLine
 10
117.5955504539
 20
202.369271876
 30
0.0
 11
117.6158106307
 21
202.5802486215
 31
0.0
  0
ARC
  5
1F80
330
2
100
AcDbEntity
  8
0
100
AcDbCircle
 10
117.6728213843
 20
201.2229430629
 30
0.0
 40
1.3
100
AcDbArc
 50
5.0
 51
74.1191499917
  0
LINE
  5
1F81
330
2
100
AcDbEntity
  8
0
100
AcDbLine
 10
119.5658040593
 20
202.2168303386
 30
0.0
 11
118.5107880203
 21
202.2168303386
 31
0.0
  0
LINE
  5
1F82
330
2
100
AcDbEntity
  8
0
100
AcDbLine
 10
162.0658106307
 20
201.7168303386
 30
0.0
 11
162.0658106307
 21
173.7168323386
 31
0.0
  0
LINE
  5
1F84
330
2
100
AcDbEntity
  8
0
100
AcDbLine
 10
159.5658106307
 20
171.7168323386
 30
0.0
 11
159.5658106307
 21
170.2168323386
 31
0.0
  0
LINE
  5
1F85
330
2
100
AcDbEntity
  8
0
100
AcDbLine
 10
160.0658106307
 20
171.7168323386
 30
0.0
 11
162.0658106307
 21
173.7168323386
 31
0.0
  0
LINE
  5
1F86
330
2
100
AcDbEntity
  8
0
100
AcDbLine
 10
161.0658176307
 20
202.7168303386
 30
0.0
 11
162.0658176307
 21
201.7168303386
 31
0.0
  0
LINE
  5
2038
330
2
100
AcDbEntity
  8
0
100
AcDbLine
 10
111.5659666307
 20
372.5420179714
 30
0.0
 11
111.5659666307
 21
340.0420479714
 31
0.0
  0
TEXT
  5
2303
330
2
100
AcDbEntity
  8
TITLE_C
100
AcDbText
 10
471.9899031645
 20
367.5979438841
 30
0.0
 40
7.5
  1
HL22L300～18X-CTBL15WT
 41
0.8
100
AcDbText
  0
TEXT
  5
2304
330
2
100
AcDbEntity
  8
TITLE_C
100
AcDbText
 10
471.9899031645
 20
379.5979438841
 30
0.0
 40
7.5
  1
HL22L300～18X-CTBL15NTX
 41
0.8
100
AcDbText
  0
TEXT
  5
2305
330
2
100
AcDbEntity
  8
TITLE_C
100
AcDbText
 10
471.9899031645
 20
343.4858396348
 30
0.0
 40
7.5
  1
HL22L300～900-CTBL25NTX
 41
0.8
100
AcDbText
  0
TEXT
  5
2306
330
2
100
AcDbEntity
  8
TITLE_C
100
AcDbText
 10
471.9899031645
 20
331.4858396348
 30
0.0
 40
7.5
  1
HL22L300～900-CTBL25WT
 41
0.8
100
AcDbText
  0
TEXT
  5
230D
330
2
100
AcDbEntity
  8
TITLE_C
100
AcDbText
 10
618.0815995204
 20
390.9009443502
 30
0.0
 40
7.5
  1
HL22L300～18X-CSBL15NT
 41
0.8
100
AcDbText
  0
TEXT
  5
33B8
330
2
100
AcDbEntity
  8
TITLE_C
100
AcDbText
 10
471.9899031645
 20
390.8693067302
 30
0.0
 40
7.5
  1
HL22L300～18X-CTBL15NT
 41
0.8
100
AcDbText
  0
TEXT
  5
33B9
330
2
100
AcDbEntity
  8
TITLE_C
100
AcDbText
 10
471.9899031645
 20
355.7421353322
 30
0.0
 40
7.5
  1
HL22L300～900-CTBL25NT
 41
0.8
100
AcDbText
  0
TEXT
  5
3640
330
2
100
AcDbEntity
  8
TITLE_C
100
AcDbText
 10
618.0469081996
 20
367.6267014913
 30
0.0
 40
7.5
  1
HL22L300～18X-CSBL15WT
 41
0.8
100
AcDbText
  0
TEXT
  5
3641
330
2
100
AcDbEntity
  8
TITLE_C
100
AcDbText
 10
618.0469081996
 20
379.6267014913
 30
0.0
 40
7.5
  1
HL22L300～18X-CSBL15WTX
 41
0.8
100
AcDbText
  0
TEXT
  5
3642
330
2
100
AcDbEntity
  8
TITLE_C
100
AcDbText
 10
618.0469081996
 20
343.514597242
 30
0.0
 40
7.5
  1
HL22L300～900-CSBL25WTX
 41
0.8
100
AcDbText
  0
TEXT
  5
3643
330
2
100
AcDbEntity
  8
TITLE_C
100
AcDbText
 10
618.0469081996
 20
331.514597242
 30
0.0
 40
7.5
  1
HL22L300～900-CSBL25WT
 41
0.8
100
AcDbText
  0
TEXT
  5
3644
330
2
100
AcDbEntity
  8
TITLE_C
100
AcDbText
 10
618.0469081996
 20
355.7708929394
 30
0.0
 40
7.5
  1
HL22L300～900-CSBL25NT
 41
0.8
100
AcDbText
  0
ENDSEC
  0
SECTION
  2
OBJECTS
  0
DICTIONARY
  5
7
330
0
100
AcDbDictionary
281
     1
  3
ACAD_CIP_PREVIOUS_PRODUCT_INFO
350
362F
  3
ACAD_COLOR
350
22BA
  3
ACAD_DETAILVIEWSTYLE
350
362B
  3
ACAD_GROUP
350
75
  3
ACAD_LAYOUT
350
61
  3
ACAD_MATERIAL
350
228D
  3
ACAD_MLEADERSTYLE
350
22DF
  3
ACAD_MLINESTYLE
350
76
  3
ACAD_PLOTSETTINGS
350
77
  3
ACAD_PLOTSTYLENAME
350
6
  3
ACAD_SCALELIST
350
22BD
  3
ACAD_SECTIONVIEWSTYLE
350
3629
  3
ACAD_TABLESTYLE
350
22BB
  3
ACAD_VISUALSTYLE
350
22A6
  3
AcadDim
350
480
  3
ACDB_RECOMPOSE_DATA
350
3D24
  3
AcDbVariableDictionary
350
102
  3
DWGPROPS
350
3D25
  0
DICTIONARY
  5
2679
330
6E
100
AcDbDictionary
280
     1
281
     1
  0
DICTIONARY
  5
22E7
330
66
100
AcDbDictionary
280
     1
281
     1
  3
ACAD_LAYERSTATES
360
22E8
  0
DICTIONARY
  5
2662
330
5E
100
AcDbDictionary
280
     1
281
     1
  3
ADSK_XREC_LAYER_RECONCILED
360
2663
  0
DICTIONARY
  5
2664
330
3E
100
AcDbDictionary
280
     1
281
     1
  3
ADSK_XREC_LAYER_RECONCILED
360
2665
  0
DICTIONARY
  5
266A
330
2B5
100
AcDbDictionary
280
     1
281
     1
  3
ADSK_XREC_LAYER_RECONCILED
360
266B
  0
DICTIONARY
  5
266C
330
2BA
100
AcDbDictionary
280
     1
281
     1
  3
ADSK_XREC_LAYER_RECONCILED
360
266D
  0
DICTIONARY
  5
2670
330
3FA
100
AcDbDictionary
280
     1
281
     1
  3
ADSK_XREC_LAYER_RECONCILED
360
2671
  0
DICTIONARY
  5
22E4
330
22E3
100
AcDbDictionary
280
     1
281
     1
  3
ADSK_XREC_LAYER_RECONCILED
360
2672
  0
XRECORD
  5
362F
102
{ACAD_REACTORS
330
7
102
}
330
7
100
AcDbXrecord
280
     1
300
ACD
300
2020
300
87224ACD_2020_0F
  0
DICTIONARY
  5
22BA
102
{ACAD_REACTORS
330
7
102
}
330
7
100
AcDbDictionary
281
     1
  0
DICTIONARY
  5
362B
102
{ACAD_REACTORS
330
7
102
}
330
7
100
AcDbDictionary
281
     1
  3
Imperial24
350
362C
  0
DICTIONARY
  5
75
102
{ACAD_REACTORS
330
7
102
}
330
7
100
AcDbDictionary
281
     1
  0
DICTIONARY
  5
61
102
{ACAD_REACTORS
330
7
102
}
330
7
100
AcDbDictionary
281
     1
  3
Model
350
60
  3
レイアウト1
350
3D1E
  0
DICTIONARY
  5
228D
102
{ACAD_REACTORS
330
7
102
}
330
7
100
AcDbDictionary
281
     1
  3
ByBlock
350
2296
  3
ByLayer
350
228E
  3
Global
350
229E
  0
DICTIONARY
  5
22DF
102
{ACAD_REACTORS
330
7
102
}
330
7
100
AcDbDictionary
281
     1
  3
Standard
350
22E0
  0
DICTIONARY
  5
76
102
{ACAD_REACTORS
330
7
102
}
330
7
100
AcDbDictionary
281
     1
  3
STANDARD
350
78
  0
DICTIONARY
  5
77
102
{ACAD_REACTORS
330
7
102
}
330
7
100
AcDbDictionary
281
     1
  0
ACDBDICTIONARYWDFLT
  5
6
102
{ACAD_REACTORS
330
7
102
}
330
7
100
AcDbDictionary
281
     1
  3
Normal
350
5
100
AcDbDictionaryWithDefault
340
5
  0
DICTIONARY
  5
22BD
102
{ACAD_REACTORS
330
7
102
}
330
7
100
AcDbDictionary
281
     1
  3
A0
350
22BE
  3
A1
350
22BF
  3
A2
350
22C0
  3
A3
350
22C1
  3
A4
350
22C2
  3
A5
350
22C3
  3
A6
350
22C4
  3
A7
350
22C5
  3
A8
350
22C6
  3
A9
350
22C7
  3
B0
350
22C8
  3
B1
350
22C9
  3
B2
350
22CA
  3
B3
350
22CB
  3
B4
350
22CC
  3
B5
350
22CD
  3
B6
350
22CE
  3
B7
350
22CF
  3
B8
350
22D0
  3
B9
350
22D1
  3
C0
350
22D2
  3
C1
350
22D3
  3
C2
350
22D4
  3
C3
350
22D5
  3
C4
350
22D6
  3
C5
350
22D7
  3
C6
350
22D8
  3
C7
350
22D9
  3
C8
350
22DA
  3
C9
350
22DB
  3
D0
350
22DC
  3
D1
350
22DD
  3
D2
350
22DE
  0
DICTIONARY
  5
3629
102
{ACAD_REACTORS
330
7
102
}
330
7
100
AcDbDictionary
281
     1
  3
Imperial24
350
362A
  0
DICTIONARY
  5
22BB
102
{ACAD_REACTORS
330
7
102
}
330
7
100
AcDbDictionary
281
     1
  3
Standard
350
22BC
  0
DICTIONARY
  5
22A6
102
{ACAD_REACTORS
330
7
102
}
330
7
100
AcDbDictionary
281
     1
  3
2dWireframe
350
22AC
  3
3D Hidden
350
22AE
  3
3dWireframe
350
22AD
  3
Basic
350
22AB
  3
Brighten
350
22B2
  3
ColorChange
350
22B6
  3
Conceptual
350
22AF
  3
Dim
350
22B1
  3
EdgeColorOff
350
22B9
  3
Facepattern
350
22B5
  3
Flat
350
22A7
  3
FlatWithEdges
350
22A8
  3
Gouraud
350
22A9
  3
GouraudWithEdges
350
22AA
  3
Hidden
350
3623
  3
JitterOff
350
22B7
  3
Linepattern
350
22B4
  3
OverhangOff
350
22B8
  3
Realistic
350
22B0
  3
Shaded
350
3628
  3
Shaded with edges
350
3627
  3
Shades of Gray
350
3624
  3
Sketchy
350
3625
  3
Thicken
350
22B3
  3
Wireframe
350
3622
  3
X-Ray
350
3626
  0
XRECORD
  5
480
102
{ACAD_REACTORS
330
7
102
}
330
7
100
AcDbXrecord
280
     1
 90
   990106
  3

 60
     0
 61
     0
 62
     1
 63
     3
 64
     1
 65
     0
 66
     0
 67
     3
 68
     1
 69
     0
 70
     0
 71
     0
 72
     0
 40
0.0
170
     2
340
0
  0
XRECORD
  5
3D24
102
{ACAD_REACTORS
330
7
102
}
330
7
100
AcDbXrecord
280
     1
 90
        1
330
22BC
  0
DICTIONARY
  5
102
102
{ACAD_REACTORS
330
7
102
}
330
7
100
AcDbDictionary
281
     1
  3
CANNOSCALE
350
271C
  3
CMLEADERSTYLE
350
271B
  3
CTABLESTYLE
350
271A
  3
CVIEWDETAILSTYLE
350
3631
  3
CVIEWSECTIONSTYLE
350
3632
  3
DIMASSOC
350
103
  3
INDEXCTL
350
271E
  3
LAYEREVAL
350
3635
  3
LAYERNOTIFY
350
3636
  3
LIGHTINGUNITS
350
3634
  3
MSLTSCALE
350
3633
  3
SORTENTS
350
271D
  3
XCLIPFRAME
350
3D22
  0
XRECORD
  5
3D25
102
{ACAD_REACTORS
330
7
102
}
330
7
100
AcDbXrecord
280
     1
  1
DWGPROPS COOKIE
  2

  3

  4

  6

  7

  8
ykitaga
  9

300
=
301
=
302
=
303
=
304
=
305
=
306
=
307
=
308
=
309
=
 40
-24.2274713657
 41
2453753.553796297
 42
2460248.344548611
  1

 90
        0
  0
DICTIONARY
  5
22E8
102
{ACAD_REACTORS
330
22E7
102
}
330
22E7
100
AcDbDictionary
281
     1
  0
XRECORD
  5
2663
102
{ACAD_REACTORS
330
2662
102
}
330
2662
100
AcDbXrecord
280
     1
290
     1
  0
XRECORD
  5
2665
102
{ACAD_REACTORS
330
2664
102
}
330
2664
100
AcDbXrecord
280
     1
290
     1
  0
XRECORD
  5
266B
102
{ACAD_REACTORS
330
266A
102
}
330
266A
100
AcDbXrecord
280
     1
290
     1
  0
XRECORD
  5
266D
102
{ACAD_REACTORS
330
266C
102
}
330
266C
100
AcDbXrecord
280
     1
290
     1
  0
XRECORD
  5
2671
102
{ACAD_REACTORS
330
2670
102
}
330
2670
100
AcDbXrecord
280
     1
290
     1
  0
XRECORD
  5
2672
102
{ACAD_REACTORS
330
22E4
102
}
330
22E4
100
AcDbXrecord
280
     1
290
     1
  0
ACDBDETAILVIEWSTYLE
  5
362C
102
{ACAD_XDICTIONARY
360
3D81
102
}
102
{ACAD_REACTORS
330
362B
102
}
330
362B
100
AcDbModelDocViewStyle
 70
     0
  3
Imperial24
290
     0
100
AcDbDetailViewStyle
 70
     0
 71
     0
 90
        3
 71
     1
340
16
 40
0.24
340
0
 40
0.24
300

 40
0.36
280
     3
 71
     2
340
8
 90
       25
 71
     3
340
16
 40
0.24
 90
        1
 40
0.75
 90
        1
300
%<\AcVar ViewType \f "%tc1">% %<\AcVar ViewDetailId>%\PSCALE %<\AcVar ViewScale \f "%sn">%
 71
     4
340
8
 90
       25
340
8
 90
       25
280
     0
  0
LAYOUT
  5
60
102
{ACAD_XDICTIONARY
360
2409
102
}
102
{ACAD_REACTORS
330
61
102
}
330
61
100
AcDbPlotSettings
  1

  2
Canon LBP-1420
  4
A4
  6

 40
5.873749733
 41
5.8737478256
 42
5.8737487793
 43
5.8737487793
 44
209.9733276367
 45
296.925994873
 46
0.0
 47
5.37
 48
0.0
 49
0.0
140
0.0
141
0.0
142
1.0
143
0.088099941
 70
 11956
 72
     1
 73
     1
 74
     1
  7
Sekkei.ctb
 75
     0
147
11.3507453947
148
-88.9740150773
149
-101.3630682339
100
AcDbLayout
  1
Model
 70
     1
 71
     0
 10
0.0
 20
0.0
 11
12.0
 21
9.0
 12
0.0
 22
0.0
 32
0.0
 14
0.0
 24
0.0
 34
0.0
 15
0.0
 25
0.0
 35
0.0
146
0.0
 13
0.0
 23
0.0
 33
0.0
 16
1.0
 26
0.0
 36
0.0
 17
0.0
 27
1.0
 37
0.0
 76
     0
330
2
331
228B
  0
LAYOUT
  5
3D1E
102
{ACAD_XDICTIONARY
360
3D93
102
}
102
{ACAD_REACTORS
330
61
102
}
330
61
100
AcDbPlotSettings
  1

  2
LBP8610
  4

  6

 40
0.0
 41
0.0
 42
0.0
 43
0.0
 44
0.0
 45
0.0
 46
0.0
 47
0.0
 48
0.0
 49
0.0
140
0.0
141
0.0
142
1.0
143
1.0
 70
   688
 72
     0
 73
     0
 74
     5
  7

 75
    16
147
1.0
148
0.0
149
0.0
100
AcDbLayout
  1
レイアウト1
 70
     1
 71
     1
 10
0.0
 20
0.0
 11
12.0
 21
9.0
 12
0.0
 22
0.0
 32
0.0
 14
0.0
 24
0.0
 34
0.0
 15
0.0
 25
0.0
 35
0.0
146
0.0
 13
0.0
 23
0.0
 33
0.0
 16
1.0
 26
0.0
 36
0.0
 17
0.0
 27
1.0
 37
0.0
 76
     0
330
3D1D
  0
MATERIAL
  5
2296
102
{ACAD_XDICTIONARY
360
2297
102
}
102
{ACAD_REACTORS
330
228D
102
}
330
228D
100
AcDbMaterial
  1
ByBlock
 72
     0
 43
0.0208333333
 43
0.0
 43
0.0
 43
0.0
 43
0.0
 43
0.0208333333
 43
0.0
 43
0.0
 43
0.0
 43
0.0
 43
1.0
 43
0.0
 43
0.0
 43
0.0
 43
0.0
 43
1.0
 77
     0
 47
0.0208333333
 47
0.0
 47
0.0
 47
0.0
 47
0.0
 47
0.0208333333
 47
0.0
 47
0.0
 47
0.0
 47
0.0
 47
1.0
 47
0.0
 47
0.0
 47
0.0
 47
0.0
 47
1.0
171
     0
 49
0.0208333333
 49
0.0
 49
0.0
 49
0.0
 49
0.0
 49
0.0208333333
 49
0.0
 49
0.0
 49
0.0
 49
0.0
 49
1.0
 49
0.0
 49
0.0
 49
0.0
 49
0.0
 49
1.0
175
     0
142
0.0208333333
142
0.0
142
0.0
142
0.0
142
0.0
142
0.0208333333
142
0.0
142
0.0
142
0.0
142
0.0
142
1.0
142
0.0
142
0.0
142
0.0
142
0.0
142
1.0
179
     0
144
0.0208333333
144
0.0
144
0.0
144
0.0
144
0.0
144
0.0208333333
144
0.0
144
0.0
144
0.0
144
0.0
144
1.0
144
0.0
144
0.0
144
0.0
144
0.0
144
1.0
147
0.0208333333
147
0.0
147
0.0
147
0.0
147
0.0
147
0.0208333333
147
0.0
147
0.0
147
0.0
147
0.0
147
1.0
147
0.0
147
0.0
147
0.0
147
0.0
147
1.0
  0
MATERIAL
  5
228E
102
{ACAD_XDICTIONARY
360
228F
102
}
102
{ACAD_REACTORS
330
228D
102
}
330
228D
100
AcDbMaterial
  1
ByLayer
 72
     0
 43
0.0208333333
 43
0.0
 43
0.0
 43
0.0
 43
0.0
 43
0.0208333333
 43
0.0
 43
0.0
 43
0.0
 43
0.0
 43
1.0
 43
0.0
 43
0.0
 43
0.0
 43
0.0
 43
1.0
 77
     0
 47
0.0208333333
 47
0.0
 47
0.0
 47
0.0
 47
0.0
 47
0.0208333333
 47
0.0
 47
0.0
 47
0.0
 47
0.0
 47
1.0
 47
0.0
 47
0.0
 47
0.0
 47
0.0
 47
1.0
171
     0
 49
0.0208333333
 49
0.0
 49
0.0
 49
0.0
 49
0.0
 49
0.0208333333
 49
0.0
 49
0.0
 49
0.0
 49
0.0
 49
1.0
 49
0.0
 49
0.0
 49
0.0
 49
0.0
 49
1.0
175
     0
142
0.0208333333
142
0.0
142
0.0
142
0.0
142
0.0
142
0.0208333333
142
0.0
142
0.0
142
0.0
142
0.0
142
1.0
142
0.0
142
0.0
142
0.0
142
0.0
142
1.0
179
     0
144
0.0208333333
144
0.0
144
0.0
144
0.0
144
0.0
144
0.0208333333
144
0.0
144
0.0
144
0.0
144
0.0
144
1.0
144
0.0
144
0.0
144
0.0
144
0.0
144
1.0
147
0.0208333333
147
0.0
147
0.0
147
0.0
147
0.0
147
0.0208333333
147
0.0
147
0.0
147
0.0
147
0.0
147
1.0
147
0.0
147
0.0
147
0.0
147
0.0
147
1.0
  0
MATERIAL
  5
229E
102
{ACAD_XDICTIONARY
360
229F
102
}
102
{ACAD_REACTORS
330
228D
102
}
330
228D
100
AcDbMaterial
  1
Global
 72
     0
 43
0.0208333333
 43
0.0
 43
0.0
 43
0.0
 43
0.0
 43
0.0208333333
 43
0.0
 43
0.0
 43
0.0
 43
0.0
 43
1.0
 43
0.0
 43
0.0
 43
0.0
 43
0.0
 43
1.0
 77
     0
 47
0.0208333333
 47
0.0
 47
0.0
 47
0.0
 47
0.0
 47
0.0208333333
 47
0.0
 47
0.0
 47
0.0
 47
0.0
 47
1.0
 47
0.0
 47
0.0
 47
0.0
 47
0.0
 47
1.0
171
     0
 49
0.0208333333
 49
0.0
 49
0.0
 49
0.0
 49
0.0
 49
0.0208333333
 49
0.0
 49
0.0
 49
0.0
 49
0.0
 49
1.0
 49
0.0
 49
0.0
 49
0.0
 49
0.0
 49
1.0
175
     0
142
0.0208333333
142
0.0
142
0.0
142
0.0
142
0.0
142
0.0208333333
142
0.0
142
0.0
142
0.0
142
0.0
142
1.0
142
0.0
142
0.0
142
0.0
142
0.0
142
1.0
179
     0
144
0.0208333333
144
0.0
144
0.0
144
0.0
144
0.0
144
0.0208333333
144
0.0
144
0.0
144
0.0
144
0.0
144
1.0
144
0.0
144
0.0
144
0.0
144
0.0
144
1.0
147
0.0208333333
147
0.0
147
0.0
147
0.0
147
0.0
147
0.0208333333
147
0.0
147
0.0
147
0.0
147
0.0
147
1.0
147
0.0
147
0.0
147
0.0
147
0.0
147
1.0
  0
MLEADERSTYLE
  5
22E0
102
{ACAD_REACTORS
330
22DF
102
}
330
22DF
100
AcDbMLeaderStyle
170
     2
171
     1
172
     0
 90
        2
 40
0.0
 41
0.0
173
     1
 91
-1056964608
340
6A
 92
       -2
290
     1
 42
0.09
291
     1
 43
0.36
  3
Standard
 44
0.18
300

342
16
174
     1
178
     6
175
     1
176
     0
 93
-1056964608
 45
0.18
292
     0
297
     0
 46
0.18
 94
-1056964608
 47
1.0
 49
1.0
140
1.0
293
     1
141
0.0
294
     1
177
     0
142
1.0
295
     0
296
     0
143
0.125
1001
ACAD_MLEADERVER
1070
     2
  0
MLINESTYLE
  5
78
102
{ACAD_REACTORS
330
76
102
}
330
76
100
AcDbMlineStyle
  2
STANDARD
 70
     0
  3

 62
     0
 51
90.0
 52
90.0
 71
     2
 49
0.5
 62
   256
  6
BYLAYER
 49
-0.5
 62
   256
  6
BYLAYER
  0
ACDBPLACEHOLDER
  5
5
102
{ACAD_REACTORS
330
6
102
}
330
6
  0
SCALE
  5
22BE
102
{ACAD_REACTORS
330
22BD
102
}
330
22BD
100
AcDbScale
 70
     0
300
1:1
140
1.0
141
1.0
290
     1
  0
SCALE
  5
22BF
102
{ACAD_REACTORS
330
22BD
102
}
330
22BD
100
AcDbScale
 70
     0
300
1:2
140
1.0
141
2.0
290
     0
  0
SCALE
  5
22C0
102
{ACAD_REACTORS
330
22BD
102
}
330
22BD
100
AcDbScale
 70
     0
300
1:4
140
1.0
141
4.0
290
     0
  0
SCALE
  5
22C1
102
{ACAD_REACTORS
330
22BD
102
}
330
22BD
100
AcDbScale
 70
     0
300
1:5
140
1.0
141
5.0
290
     0
  0
SCALE
  5
22C2
102
{ACAD_REACTORS
330
22BD
102
}
330
22BD
100
AcDbScale
 70
     0
300
1:8
140
1.0
141
8.0
290
     0
  0
SCALE
  5
22C3
102
{ACAD_REACTORS
330
22BD
102
}
330
22BD
100
AcDbScale
 70
     0
300
1:10
140
1.0
141
10.0
290
     0
  0
SCALE
  5
22C4
102
{ACAD_REACTORS
330
22BD
102
}
330
22BD
100
AcDbScale
 70
     0
300
1:16
140
1.0
141
16.0
290
     0
  0
SCALE
  5
22C5
102
{ACAD_REACTORS
330
22BD
102
}
330
22BD
100
AcDbScale
 70
     0
300
1:20
140
1.0
141
20.0
290
     0
  0
SCALE
  5
22C6
102
{ACAD_REACTORS
330
22BD
102
}
330
22BD
100
AcDbScale
 70
     0
300
1:30
140
1.0
141
30.0
290
     0
  0
SCALE
  5
22C7
102
{ACAD_REACTORS
330
22BD
102
}
330
22BD
100
AcDbScale
 70
     0
300
1:40
140
1.0
141
40.0
290
     0
  0
SCALE
  5
22C8
102
{ACAD_REACTORS
330
22BD
102
}
330
22BD
100
AcDbScale
 70
     0
300
1:50
140
1.0
141
50.0
290
     0
  0
SCALE
  5
22C9
102
{ACAD_REACTORS
330
22BD
102
}
330
22BD
100
AcDbScale
 70
     0
300
1:100
140
1.0
141
100.0
290
     0
  0
SCALE
  5
22CA
102
{ACAD_REACTORS
330
22BD
102
}
330
22BD
100
AcDbScale
 70
     0
300
2:1
140
2.0
141
1.0
290
     0
  0
SCALE
  5
22CB
102
{ACAD_REACTORS
330
22BD
102
}
330
22BD
100
AcDbScale
 70
     0
300
4:1
140
4.0
141
1.0
290
     0
  0
SCALE
  5
22CC
102
{ACAD_REACTORS
330
22BD
102
}
330
22BD
100
AcDbScale
 70
     0
300
8:1
140
8.0
141
1.0
290
     0
  0
SCALE
  5
22CD
102
{ACAD_REACTORS
330
22BD
102
}
330
22BD
100
AcDbScale
 70
     0
300
10:1
140
10.0
141
1.0
290
     0
  0
SCALE
  5
22CE
102
{ACAD_REACTORS
330
22BD
102
}
330
22BD
100
AcDbScale
 70
     0
300
100:1
140
100.0
141
1.0
290
     0
  0
SCALE
  5
22CF
102
{ACAD_REACTORS
330
22BD
102
}
330
22BD
100
AcDbScale
 70
     0
300
1/128" = 1'-0"
140
0.0078125
141
12.0
290
     0
  0
SCALE
  5
22D0
102
{ACAD_REACTORS
330
22BD
102
}
330
22BD
100
AcDbScale
 70
     0
300
1/64" = 1'-0"
140
0.015625
141
12.0
290
     0
  0
SCALE
  5
22D1
102
{ACAD_REACTORS
330
22BD
102
}
330
22BD
100
AcDbScale
 70
     0
300
1/32" = 1'-0"
140
0.03125
141
12.0
290
     0
  0
SCALE
  5
22D2
102
{ACAD_REACTORS
330
22BD
102
}
330
22BD
100
AcDbScale
 70
     0
300
1/16" = 1'-0"
140
0.0625
141
12.0
290
     0
  0
SCALE
  5
22D3
102
{ACAD_REACTORS
330
22BD
102
}
330
22BD
100
AcDbScale
 70
     0
300
3/32" = 1'-0"
140
0.09375
141
12.0
290
     0
  0
SCALE
  5
22D4
102
{ACAD_REACTORS
330
22BD
102
}
330
22BD
100
AcDbScale
 70
     0
300
1/8" = 1'-0"
140
0.125
141
12.0
290
     0
  0
SCALE
  5
22D5
102
{ACAD_REACTORS
330
22BD
102
}
330
22BD
100
AcDbScale
 70
     0
300
3/16" = 1'-0"
140
0.1875
141
12.0
290
     0
  0
SCALE
  5
22D6
102
{ACAD_REACTORS
330
22BD
102
}
330
22BD
100
AcDbScale
 70
     0
300
1/4" = 1'-0"
140
0.25
141
12.0
290
     0
  0
SCALE
  5
22D7
102
{ACAD_REACTORS
330
22BD
102
}
330
22BD
100
AcDbScale
 70
     0
300
3/8" = 1'-0"
140
0.375
141
12.0
290
     0
  0
SCALE
  5
22D8
102
{ACAD_REACTORS
330
22BD
102
}
330
22BD
100
AcDbScale
 70
     0
300
1/2" = 1'-0"
140
0.5
141
12.0
290
     0
  0
SCALE
  5
22D9
102
{ACAD_REACTORS
330
22BD
102
}
330
22BD
100
AcDbScale
 70
     0
300
3/4" = 1'-0"
140
0.75
141
12.0
290
     0
  0
SCALE
  5
22DA
102
{ACAD_REACTORS
330
22BD
102
}
330
22BD
100
AcDbScale
 70
     0
300
1" = 1'-0"
140
1.0
141
12.0
290
     0
  0
SCALE
  5
22DB
102
{ACAD_REACTORS
330
22BD
102
}
330
22BD
100
AcDbScale
 70
     0
300
1-1/2" = 1'-0"
140
1.5
141
12.0
290
     0
  0
SCALE
  5
22DC
102
{ACAD_REACTORS
330
22BD
102
}
330
22BD
100
AcDbScale
 70
     0
300
3" = 1'-0"
140
3.0
141
12.0
290
     0
  0
SCALE
  5
22DD
102
{ACAD_REACTORS
330
22BD
102
}
330
22BD
100
AcDbScale
 70
     0
300
6" = 1'-0"
140
6.0
141
12.0
290
     0
  0
SCALE
  5
22DE
102
{ACAD_REACTORS
330
22BD
102
}
330
22BD
100
AcDbScale
 70
     0
300
1'-0" = 1'-0"
140
12.0
141
12.0
290
     0
  0
ACDBSECTIONVIEWSTYLE
  5
362A
102
{ACAD_XDICTIONARY
360
3D7F
102
}
102
{ACAD_REACTORS
330
3629
102
}
330
3629
100
AcDbModelDocViewStyle
 70
     0
  3
Imperial24
290
     0
100
AcDbSectionViewStyle
 70
     0
 71
     0
 90
       78
 71
     1
340
16
 40
0.24
340
0
340
0
 40
0.24
300
I, O, Q, S, X, Z
 40
0.48
 90
        3
 40
0.18
 90
        1
 71
     2
340
8
 90
       25
340
8
 90
       50
 40
0.24
 40
0.0
 40
0.24
 71
     3
340
16
 40
0.24
 90
        1
 40
0.75
 90
        1
300
%<\AcVar ViewType \f "%tc1">% %<\AcVar ViewSectionStartId>%-%<\AcVar ViewSectionEndId>%\PSCALE %<\AcVar ViewScale \f "%sn">%
 71
     4
300
ANSI31
 40
1.0
 90
        0
290
     0
290
     0
 90
        6
 40
0.0
 40
1.5707963268
 40
0.2617993878
 40
1.308996939
 40
-0.2617993878
 40
1.8325957146
  0
TABLESTYLE
  5
22BC
102
{ACAD_XDICTIONARY
360
2673
102
}
102
{ACAD_REACTORS
330
22BB
102
}
330
22BB
100
AcDbTableStyle
  3
Standard
 70
     0
 71
     0
 40
0.06
 41
0.06
280
     0
281
     0
  7
STANDARD
140
0.18
170
     2
 62
     0
 63
     7
283
     0
274
    -2
284
     1
 64
     0
275
    -2
285
     1
 65
     0
276
    -2
286
     1
 66
     0
277
    -2
287
     1
 67
     0
278
    -2
288
     1
 68
     0
279
    -2
289
     1
 69
     0
  7
STANDARD
140
0.25
170
     5
 62
     0
 63
     7
283
     0
274
    -2
284
     1
 64
     0
275
    -2
285
     1
 65
     0
276
    -2
286
     1
 66
     0
277
    -2
287
     1
 67
     0
278
    -2
288
     1
 68
     0
279
    -2
289
     1
 69
     0
  7
STANDARD
140
0.18
170
     5
 62
     0
 63
     7
283
     0
274
    -2
284
     1
 64
     0
275
    -2
285
     1
 65
     0
276
    -2
286
     1
 66
     0
277
    -2
287
     1
 67
     0
278
    -2
288
     1
 68
     0
279
    -2
289
     1
 69
     0
  0
VISUALSTYLE
  5
22AC
102
{ACAD_XDICTIONARY
360
3D34
102
}
102
{ACAD_REACTORS
330
22A6
102
}
330
22A6
100
AcDbVisualStyle
  2

 70
     4
 71
     0
 72
     2
 73
     0
 90
        0
 40
-0.6
 41
-30.0
 62
     5
 63
     7
 74
     1
 91
        4
 64
     7
 65
   257
 75
     1
175
     1
 42
1.0
 92
        0
 66
   257
 43
1.0
 76
     1
 77
     6
 78
     2
 67
     7
 79
     5
170
     0
171
     0
290
     0
174
     0
 93
        1
 44
0.0
173
     0
291
     0
 45
0.0
1001
ACAD
1000
AcDbSavedByObjectVersion
1070
     0
  0
VISUALSTYLE
  5
22AE
102
{ACAD_XDICTIONARY
360
3D38
102
}
102
{ACAD_REACTORS
330
22A6
102
}
330
22A6
100
AcDbVisualStyle
  2

 70
     6
 71
     1
 72
     2
 73
     2
 90
        0
 40
-0.6
 41
-30.0
 62
     5
 63
     7
 74
     2
 91
        2
 64
     7
 65
   257
 75
     2
175
     1
 42
179.0
 92
        0
 66
   257
 43
1.0
 76
     1
 77
     6
 78
     2
 67
     7
 79
     3
170
     0
171
     0
290
     0
174
     0
 93
        1
 44
0.0
173
     0
291
     0
 45
0.0
1001
ACAD
1000
AcDbSavedByObjectVersion
1070
     0
  0
VISUALSTYLE
  5
22AD
102
{ACAD_XDICTIONARY
360
3D36
102
}
102
{ACAD_REACTORS
330
22A6
102
}
330
22A6
100
AcDbVisualStyle
  2

 70
     5
 71
     0
 72
     2
 73
     0
 90
        0
 40
-0.6
 41
-30.0
 62
     5
 63
     7
 74
     1
 91
        4
 64
     7
 65
   257
 75
     1
175
     1
 42
1.0
 92
        0
 66
   257
 43
1.0
 76
     1
 77
     6
 78
     2
 67
     7
 79
     5
170
     0
171
     0
290
     0
174
     0
 93
        1
 44
0.0
173
     0
291
     0
 45
0.0
1001
ACAD
1000
AcDbSavedByObjectVersion
1070
     0
  0
VISUALSTYLE
  5
22AB
102
{ACAD_XDICTIONARY
360
3D32
102
}
102
{ACAD_REACTORS
330
22A6
102
}
330
22A6
100
AcDbVisualStyle
  2

 70
     7
 71
     1
 72
     0
 73
     1
 90
        0
 40
-0.6
 41
-30.0
 62
     5
 63
     7
 74
     0
 91
        4
 64
     7
 65
   257
 75
     1
175
     1
 42
1.0
 92
        8
 66
     7
 43
1.0
 76
     1
 77
     6
 78
     2
 67
     7
 79
     5
170
     0
171
     0
290
     0
174
     0
 93
        1
 44
0.0
173
     0
291
     1
 45
0.0
1001
ACAD
1000
AcDbSavedByObjectVersion
1070
     0
  0
VISUALSTYLE
  5
22B2
102
{ACAD_XDICTIONARY
360
3D40
102
}
102
{ACAD_REACTORS
330
22A6
102
}
330
22A6
100
AcDbVisualStyle
  2

 70
    12
 71
     2
 72
     2
 73
     0
 90
        0
 40
-0.6
 41
-30.0
 62
     5
 63
     7
 74
     1
 91
        4
 64
     7
 65
   257
 75
     1
175
     1
 42
1.0
 92
        8
 66
     7
 43
1.0
 76
     1
 77
     6
 78
     2
 67
     7
 79
     5
170
     0
171
     0
290
     0
174
     0
 93
        1
 44
50.0
173
     0
291
     1
 45
0.0
1001
ACAD
1000
AcDbSavedByObjectVersion
1070
     0
  0
VISUALSTYLE
  5
22B6
102
{ACAD_XDICTIONARY
360
3D48
102
}
102
{ACAD_REACTORS
330
22A6
102
}
330
22A6
100
AcDbVisualStyle
  2

 70
    16
 71
     2
 72
     2
 73
     3
 90
        0
 40
-0.6
 41
-30.0
 62
     5
 63
     8
 74
     1
 91
        4
 64
     7
 65
   257
 75
     1
175
     1
 42
1.0
 92
        8
 66
     8
 43
1.0
 76
     1
 77
     6
 78
     2
 67
     7
 79
     5
170
     0
171
     0
290
     0
174
     0
 93
        1
 44
0.0
173
     0
291
     1
 45
0.0
1001
ACAD
1000
AcDbSavedByObjectVersion
1070
     0
  0
VISUALSTYLE
  5
22AF
102
{ACAD_XDICTIONARY
360
3D3A
102
}
102
{ACAD_REACTORS
330
22A6
102
}
330
22A6
100
AcDbVisualStyle
  2

 70
     9
 71
     3
 72
     2
 73
     0
 90
        0
 40
-0.6
 41
-30.0
 62
     5
 63
     7
 74
     2
 91
        2
 64
     7
 65
   257
 75
     1
175
     1
 42
179.0
 92
        8
 66
     7
 43
1.0
 76
     1
 77
     6
 78
     2
 67
     7
 79
     3
170
     0
171
     0
290
     0
174
     0
 93
        1
 44
0.0
173
     0
291
     0
 45
0.0
1001
ACAD
1000
AcDbSavedByObjectVersion
1070
     0
  0
VISUALSTYLE
  5
22B1
102
{ACAD_XDICTIONARY
360
3D3E
102
}
102
{ACAD_REACTORS
330
22A6
102
}
330
22A6
100
AcDbVisualStyle
  2

 70
    11
 71
     2
 72
     2
 73
     0
 90
        0
 40
-0.6
 41
-30.0
 62
     5
 63
     7
 74
     1
 91
        4
 64
     7
 65
   257
 75
     1
175
     1
 42
1.0
 92
        8
 66
     7
 43
1.0
 76
     1
 77
     6
 78
     2
 67
     7
 79
     5
170
     0
171
     0
290
     0
174
     0
 93
        1
 44
-50.0
173
     0
291
     1
 45
0.0
1001
ACAD
1000
AcDbSavedByObjectVersion
1070
     0
  0
VISUALSTYLE
  5
22B9
102
{ACAD_XDICTIONARY
360
3D4E
102
}
102
{ACAD_REACTORS
330
22A6
102
}
330
22A6
100
AcDbVisualStyle
  2

 70
    22
 71
     2
 72
     2
 73
     0
 90
        0
 40
-0.6
 41
-30.0
 62
     5
 63
     7
 74
     1
 91
        4
 64
     7
 65
   257
 75
     1
175
     1
 42
1.0
 92
        8
 66
     7
 43
1.0
 76
     1
 77
     6
 78
     2
 67
     7
 79
     5
170
     0
171
     0
290
     0
174
     0
 93
        1
 44
0.0
173
     0
291
     1
 45
0.0
1001
ACAD
1000
AcDbSavedByObjectVersion
1070
     0
  0
VISUALSTYLE
  5
22B5
102
{ACAD_XDICTIONARY
360
3D46
102
}
102
{ACAD_REACTORS
330
22A6
102
}
330
22A6
100
AcDbVisualStyle
  2

 70
    15
 71
     2
 72
     2
 73
     0
 90
        0
 40
-0.6
 41
-30.0
 62
     5
 63
     7
 74
     1
 91
        4
 64
     7
 65
   257
 75
     1
175
     1
 42
1.0
 92
        8
 66
     7
 43
1.0
 76
     1
 77
     6
 78
     2
 67
     7
 79
     5
170
     0
171
     0
290
     0
174
     0
 93
        1
 44
0.0
173
     0
291
     1
 45
0.0
1001
ACAD
1000
AcDbSavedByObjectVersion
1070
     0
  0
VISUALSTYLE
  5
22A7
102
{ACAD_XDICTIONARY
360
3D2A
102
}
102
{ACAD_REACTORS
330
22A6
102
}
330
22A6
100
AcDbVisualStyle
  2

 70
     0
 71
     2
 72
     1
 73
     1
 90
        2
 40
-0.6
 41
30.0
 62
     5
 63
     7
 74
     0
 91
        4
 64
     7
 65
   257
 75
     1
175
     1
 42
1.0
 92
        8
 66
     7
 43
1.0
 76
     1
 77
     6
 78
     2
 67
     7
 79
     5
170
     0
171
     0
290
     0
174
     0
 93
       13
 44
0.0
173
     0
291
     1
 45
0.0
1001
ACAD
1000
AcDbSavedByObjectVersion
1070
     0
  0
VISUALSTYLE
  5
22A8
102
{ACAD_XDICTIONARY
360
3D2C
102
}
102
{ACAD_REACTORS
330
22A6
102
}
330
22A6
100
AcDbVisualStyle
  2

 70
     1
 71
     2
 72
     1
 73
     1
 90
        2
 40
-0.6
 41
30.0
 62
     5
 63
     7
 74
     1
 91
        4
 64
     7
 65
   257
 75
     1
175
     1
 42
1.0
 92
        0
 66
   257
 43
1.0
 76
     1
 77
     6
 78
     2
 67
     7
 79
     5
170
     0
171
     0
290
     0
174
     0
 93
       13
 44
0.0
173
     0
291
     1
 45
0.0
1001
ACAD
1000
AcDbSavedByObjectVersion
1070
     0
  0
VISUALSTYLE
  5
22A9
102
{ACAD_XDICTIONARY
360
3D2E
102
}
102
{ACAD_REACTORS
330
22A6
102
}
330
22A6
100
AcDbVisualStyle
  2

 70
     2
 71
     2
 72
     2
 73
     1
 90
        2
 40
-0.6
 41
30.0
 62
     5
 63
     7
 74
     0
 91
        4
 64
     7
 65
   257
 75
     1
175
     1
 42
1.0
 92
        0
 66
     7
 43
1.0
 76
     1
 77
     6
 78
     2
 67
     7
 79
     5
170
     0
171
     0
290
     0
174
     0
 93
       13
 44
0.0
173
     0
291
     1
 45
0.0
1001
ACAD
1000
AcDbSavedByObjectVersion
1070
     0
  0
VISUALSTYLE
  5
22AA
102
{ACAD_XDICTIONARY
360
3D30
102
}
102
{ACAD_REACTORS
330
22A6
102
}
330
22A6
100
AcDbVisualStyle
  2

 70
     3
 71
     2
 72
     2
 73
     1
 90
        2
 40
-0.6
 41
30.0
 62
     5
 63
     7
 74
     1
 91
        4
 64
     7
 65
   257
 75
     1
175
     1
 42
1.0
 92
        0
 66
   257
 43
1.0
 76
     1
 77
     6
 78
     2
 67
     7
 79
     5
170
     0
171
     0
290
     0
174
     0
 93
       13
 44
0.0
173
     0
291
     1
 45
0.0
1001
ACAD
1000
AcDbSavedByObjectVersion
1070
     0
  0
VISUALSTYLE
  5
3623
102
{ACAD_XDICTIONARY
360
3D73
102
}
102
{ACAD_REACTORS
330
22A6
102
}
330
22A6
100
AcDbVisualStyle
  2
Hidden
 70
     6
 71
     1
 72
     2
 73
     2
 90
        0
 40
-0.6
 41
-30.0
 62
     5
 63
     7
 74
     2
 91
        2
 64
     7
 65
   257
 75
     2
175
     1
 42
40.0
 92
        0
 66
   257
 43
1.0
 76
     1
 77
     6
 78
     2
 67
     7
 79
     3
170
     0
171
     0
290
     0
174
     0
 93
        1
 44
0.0
173
     0
291
     0
 45
0.0
1001
ACAD
1000
AcDbSavedByObjectVersion
1070
     0
  0
VISUALSTYLE
  5
22B7
102
{ACAD_XDICTIONARY
360
3D4A
102
}
102
{ACAD_REACTORS
330
22A6
102
}
330
22A6
100
AcDbVisualStyle
  2

 70
    20
 71
     2
 72
     2
 73
     0
 90
        0
 40
-0.6
 41
-30.0
 62
     5
 63
     7
 74
     1
 91
        4
 64
     7
 65
   257
 75
     1
175
     1
 42
1.0
 92
       10
 66
     7
 43
1.0
 76
     1
 77
     6
 78
     2
 67
     7
 79
     5
170
     0
171
     0
290
     0
174
     0
 93
        1
 44
0.0
173
     0
291
     1
 45
0.0
1001
ACAD
1000
AcDbSavedByObjectVersion
1070
     0
  0
VISUALSTYLE
  5
22B4
102
{ACAD_XDICTIONARY
360
3D44
102
}
102
{ACAD_REACTORS
330
22A6
102
}
330
22A6
100
AcDbVisualStyle
  2

 70
    14
 71
     2
 72
     2
 73
     0
 90
        0
 40
-0.6
 41
-30.0
 62
     5
 63
     7
 74
     1
 91
        4
 64
     7
 65
   257
 75
     7
175
     7
 42
1.0
 92
        8
 66
     7
 43
1.0
 76
     1
 77
     6
 78
     2
 67
     7
 79
     5
170
     0
171
     0
290
     0
174
     0
 93
        1
 44
0.0
173
     0
291
     1
 45
0.0
1001
ACAD
1000
AcDbSavedByObjectVersion
1070
     0
  0
VISUALSTYLE
  5
22B8
102
{ACAD_XDICTIONARY
360
3D4C
102
}
102
{ACAD_REACTORS
330
22A6
102
}
330
22A6
100
AcDbVisualStyle
  2

 70
    21
 71
     2
 72
     2
 73
     0
 90
        0
 40
-0.6
 41
-30.0
 62
     5
 63
     7
 74
     1
 91
        4
 64
     7
 65
   257
 75
     1
175
     1
 42
1.0
 92
        9
 66
     7
 43
1.0
 76
     1
 77
     6
 78
     2
 67
     7
 79
     5
170
     0
171
     0
290
     0
174
     0
 93
        1
 44
0.0
173
     0
291
     1
 45
0.0
1001
ACAD
1000
AcDbSavedByObjectVersion
1070
     0
  0
VISUALSTYLE
  5
22B0
102
{ACAD_XDICTIONARY
360
3D3C
102
}
102
{ACAD_REACTORS
330
22A6
102
}
330
22A6
100
AcDbVisualStyle
  2

 70
     8
 71
     2
 72
     2
 73
     0
 90
        0
 40
-0.6
 41
-30.0
 62
     5
 63
     7
 74
     1
 91
        0
 64
     7
 65
   257
 75
     1
175
     1
 42
1.0
 92
        8
 66
     8
 43
1.0
 76
     1
 77
     6
 78
     2
 67
     7
 79
     5
170
     0
171
     0
290
     0
174
     0
 93
       13
 44
0.0
173
     0
291
     0
 45
0.0
1001
ACAD
1000
AcDbSavedByObjectVersion
1070
     0
  0
VISUALSTYLE
  5
3628
102
{ACAD_XDICTIONARY
360
3D7D
102
}
102
{ACAD_REACTORS
330
22A6
102
}
330
22A6
100
AcDbVisualStyle
  2
Shaded
 70
    27
 71
     2
 72
     2
 73
     1
 90
        2
 40
-0.6
 41
30.0
 62
     5
 63
     7
 74
     0
 91
        4
 64
     7
 65
   257
 75
     1
175
     1
 42
1.0
 92
        8
 66
   257
 43
1.0
 76
     1
 77
     6
 78
     2
 67
     8
 79
     3
170
     0
171
     0
290
     0
174
     0
 93
        5
 44
0.0
173
     0
291
     0
 45
0.0
1001
ACAD
1000
AcDbSavedByObjectVersion
1070
     0
  0
VISUALSTYLE
  5
3627
102
{ACAD_XDICTIONARY
360
3D7B
102
}
102
{ACAD_REACTORS
330
22A6
102
}
330
22A6
100
AcDbVisualStyle
  2
Shaded with edges
 70
    26
 71
     2
 72
     2
 73
     1
 90
        2
 40
-0.6
 41
30.0
 62
     5
 63
     7
 74
     1
 91
        2
 64
     7
 65
   257
 75
     2
175
     1
 42
1.0
 92
        8
 66
   257
 43
1.0
 76
     1
 77
     6
 78
     2
 67
     7
 79
     3
170
     0
171
     0
290
     0
174
     0
 93
        5
 44
0.0
173
     0
291
     0
 45
0.0
1001
ACAD
1000
AcDbSavedByObjectVersion
1070
     0
  0
VISUALSTYLE
  5
3624
102
{ACAD_XDICTIONARY
360
3D75
102
}
102
{ACAD_REACTORS
330
22A6
102
}
330
22A6
100
AcDbVisualStyle
  2
Shades of Gray
 70
    23
 71
     2
 72
     2
 73
     3
 90
        0
 40
-0.6
 41
-30.0
 62
     5
 63
     7
 74
     2
 91
        2
 64
     7
 65
     7
 75
     1
175
     1
 42
40.0
 92
        8
 66
     7
 43
1.0
 76
     1
 77
     6
 78
     2
 67
     7
 79
     3
170
     0
171
     0
290
     0
174
     0
 93
        1
 44
0.0
173
     0
291
     0
 45
0.0
1001
ACAD
1000
AcDbSavedByObjectVersion
1070
     0
  0
VISUALSTYLE
  5
3625
102
{ACAD_XDICTIONARY
360
3D77
102
}
102
{ACAD_REACTORS
330
22A6
102
}
330
22A6
100
AcDbVisualStyle
  2
Sketchy
 70
    24
 71
     1
 72
     2
 73
     2
 90
        0
 40
-0.6
 41
-30.0
 62
     5
 63
     7
 74
     2
 91
        2
 64
     7
 65
     7
 75
     1
175
     1
 42
40.0
 92
       11
 66
     7
 43
1.0
 76
     1
 77
     6
 78
     2
 67
     7
 79
     6
170
     0
171
     0
290
     0
174
     0
 93
        1
 44
0.0
173
     0
291
     0
 45
0.0
1001
ACAD
1000
AcDbSavedByObjectVersion
1070
     0
  0
VISUALSTYLE
  5
22B3
102
{ACAD_XDICTIONARY
360
3D42
102
}
102
{ACAD_REACTORS
330
22A6
102
}
330
22A6
100
AcDbVisualStyle
  2

 70
    13
 71
     2
 72
     2
 73
     0
 90
        0
 40
-0.6
 41
-30.0
 62
     5
 63
     7
 74
     1
 91
        4
 64
     7
 65
   257
 75
     1
175
     1
 42
1.0
 92
       12
 66
     7
 43
1.0
 76
     1
 77
     6
 78
     2
 67
     7
 79
     5
170
     0
171
     0
290
     0
174
     0
 93
        1
 44
0.0
173
     0
291
     1
 45
0.0
1001
ACAD
1000
AcDbSavedByObjectVersion
1070
     0
  0
VISUALSTYLE
  5
3622
102
{ACAD_XDICTIONARY
360
3D71
102
}
102
{ACAD_REACTORS
330
22A6
102
}
330
22A6
100
AcDbVisualStyle
  2
Wireframe
 70
     5
 71
     0
 72
     2
 73
     0
 90
        0
 40
-0.6
 41
-30.0
 62
     5
 63
     7
 74
     1
 91
        4
 64
     7
 65
   257
 75
     1
175
     1
 42
1.0
 92
        0
 66
   257
 43
1.0
 76
     1
 77
     6
 78
     2
 67
     7
 79
     3
170
     0
171
     0
290
     0
174
     0
 93
        1
 44
0.0
173
     0
291
     0
 45
0.0
1001
ACAD
1000
AcDbSavedByObjectVersion
1070
     0
  0
VISUALSTYLE
  5
3626
102
{ACAD_XDICTIONARY
360
3D79
102
}
102
{ACAD_REACTORS
330
22A6
102
}
330
22A6
100
AcDbVisualStyle
  2
X-Ray
 70
    25
 71
     2
 72
     2
 73
     1
 90
        1
 40
0.5
 41
-30.0
 62
     5
 63
     7
 74
     1
 91
        0
 64
     7
 65
   257
 75
     1
175
     1
 42
1.0
 92
        8
 66
     7
 43
1.0
 76
     1
 77
     6
 78
     2
 67
     7
 79
     3
170
     0
171
     0
290
     0
174
     0
 93
       13
 44
0.0
173
     0
291
     0
 45
0.0
1001
ACAD
1000
AcDbSavedByObjectVersion
1070
     0
  0
DICTIONARYVAR
  5
271C
102
{ACAD_REACTORS
330
102
102
}
330
102
100
DictionaryVariables
280
     0
  1
1:1
  0
DICTIONARYVAR
  5
271B
102
{ACAD_REACTORS
330
102
102
}
330
102
100
DictionaryVariables
280
     0
  1
STANDARD
  0
DICTIONARYVAR
  5
271A
102
{ACAD_REACTORS
330
102
102
}
330
102
100
DictionaryVariables
280
     0
  1
STANDARD
  0
DICTIONARYVAR
  5
3631
102
{ACAD_REACTORS
330
102
102
}
330
102
100
DictionaryVariables
280
     0
  1
Imperial24
  0
DICTIONARYVAR
  5
3632
102
{ACAD_REACTORS
330
102
102
}
330
102
100
DictionaryVariables
280
     0
  1
Imperial24
  0
DICTIONARYVAR
  5
103
102
{ACAD_REACTORS
330
102
102
}
330
102
100
DictionaryVariables
280
     0
  1
1
  0
DICTIONARYVAR
  5
271E
102
{ACAD_REACTORS
330
102
102
}
330
102
100
DictionaryVariables
280
     0
  1
0
  0
DICTIONARYVAR
  5
3635
102
{ACAD_REACTORS
330
102
102
}
330
102
100
DictionaryVariables
280
     0
  1
1
  0
DICTIONARYVAR
  5
3636
102
{ACAD_REACTORS
330
102
102
}
330
102
100
DictionaryVariables
280
     0
  1
15
  0
DICTIONARYVAR
  5
3634
102
{ACAD_REACTORS
330
102
102
}
330
102
100
DictionaryVariables
280
     0
  1
0
  0
DICTIONARYVAR
  5
3633
102
{ACAD_REACTORS
330
102
102
}
330
102
100
DictionaryVariables
280
     0
  1
0
  0
DICTIONARYVAR
  5
271D
102
{ACAD_REACTORS
330
102
102
}
330
102
100
DictionaryVariables
280
     0
  1
127
  0
DICTIONARYVAR
  5
3D22
102
{ACAD_REACTORS
330
102
102
}
330
102
100
DictionaryVariables
280
     0
  1
2
  0
DICTIONARY
  5
3D81
330
362C
100
AcDbDictionary
280
     1
281
     1
  3
ACAD_XREC_ROUNDTRIP
360
3D82
  0
DICTIONARY
  5
2409
330
60
100
AcDbDictionary
280
     1
281
     1
  3
ACAD_XREC_ROUNDTRIP
360
3D26
  3
ADSK_XREC_LAYOUTTHUMBNAIL
360
3768
  0
DICTIONARY
  5
3D93
330
3D1E
100
AcDbDictionary
280
     1
281
     1
  3
ACAD_XREC_ROUNDTRIP
360
3D94
  0
DICTIONARY
  5
2297
330
2296
100
AcDbDictionary
280
     1
281
     1
  3
ACAD_XREC_ROUNDTRIP
360
3D28
  3
BUMPTILE
360
2299
  3
DIFFUSETILE
360
2298
  3
OPACITYTILE
360
229C
  3
REFLECTIONTILE
360
229B
  3
REFRACTIONTILE
360
229D
  3
SPECULARTILE
360
229A
  0
DICTIONARY
  5
228F
330
228E
100
AcDbDictionary
280
     1
281
     1
  3
ACAD_XREC_ROUNDTRIP
360
3D27
  3
BUMPTILE
360
2291
  3
DIFFUSETILE
360
2290
  3
OPACITYTILE
360
2294
  3
REFLECTIONTILE
360
2293
  3
REFRACTIONTILE
360
2295
  3
SPECULARTILE
360
2292
  0
DICTIONARY
  5
229F
330
229E
100
AcDbDictionary
280
     1
281
     1
  3
ACAD_XREC_ROUNDTRIP
360
3D29
  3
BUMPTILE
360
22A1
  3
DIFFUSETILE
360
22A0
  3
OPACITYTILE
360
22A4
  3
REFLECTIONTILE
360
22A3
  3
REFRACTIONTILE
360
22A5
  3
SPECULARTILE
360
22A2
  0
DICTIONARY
  5
3D7F
330
362A
100
AcDbDictionary
280
     1
281
     1
  3
ACAD_XREC_ROUNDTRIP
360
3D80
  0
DICTIONARY
  5
2673
330
22BC
100
AcDbDictionary
280
     1
281
     1
  3
ACAD_ROUNDTRIP_2008_TABLESTYLE_CELLSTYLEMAP
360
3D23
  3
ACAD_XREC_ROUNDTRIP
360
3D50
  0
DICTIONARY
  5
3D34
330
22AC
100
AcDbDictionary
280
     1
281
     1
  3
ACAD_XREC_ROUNDTRIP
360
3D35
  0
DICTIONARY
  5
3D38
330
22AE
100
AcDbDictionary
280
     1
281
     1
  3
ACAD_XREC_ROUNDTRIP
360
3D39
  0
DICTIONARY
  5
3D36
330
22AD
100
AcDbDictionary
280
     1
281
     1
  3
ACAD_XREC_ROUNDTRIP
360
3D37
  0
DICTIONARY
  5
3D32
330
22AB
100
AcDbDictionary
280
     1
281
     1
  3
ACAD_XREC_ROUNDTRIP
360
3D33
  0
DICTIONARY
  5
3D40
330
22B2
100
AcDbDictionary
280
     1
281
     1
  3
ACAD_XREC_ROUNDTRIP
360
3D41
  0
DICTIONARY
  5
3D48
330
22B6
100
AcDbDictionary
280
     1
281
     1
  3
ACAD_XREC_ROUNDTRIP
360
3D49
  0
DICTIONARY
  5
3D3A
330
22AF
100
AcDbDictionary
280
     1
281
     1
  3
ACAD_XREC_ROUNDTRIP
360
3D3B
  0
DICTIONARY
  5
3D3E
330
22B1
100
AcDbDictionary
280
     1
281
     1
  3
ACAD_XREC_ROUNDTRIP
360
3D3F
  0
DICTIONARY
  5
3D4E
330
22B9
100
AcDbDictionary
280
     1
281
     1
  3
ACAD_XREC_ROUNDTRIP
360
3D4F
  0
DICTIONARY
  5
3D46
330
22B5
100
AcDbDictionary
280
     1
281
     1
  3
ACAD_XREC_ROUNDTRIP
360
3D47
  0
DICTIONARY
  5
3D2A
330
22A7
100
AcDbDictionary
280
     1
281
     1
  3
ACAD_XREC_ROUNDTRIP
360
3D2B
  0
DICTIONARY
  5
3D2C
330
22A8
100
AcDbDictionary
280
     1
281
     1
  3
ACAD_XREC_ROUNDTRIP
360
3D2D
  0
DICTIONARY
  5
3D2E
330
22A9
100
AcDbDictionary
280
     1
281
     1
  3
ACAD_XREC_ROUNDTRIP
360
3D2F
  0
DICTIONARY
  5
3D30
330
22AA
100
AcDbDictionary
280
     1
281
     1
  3
ACAD_XREC_ROUNDTRIP
360
3D31
  0
DICTIONARY
  5
3D73
330
3623
100
AcDbDictionary
280
     1
281
     1
  3
ACAD_XREC_ROUNDTRIP
360
3D74
  0
DICTIONARY
  5
3D4A
330
22B7
100
AcDbDictionary
280
     1
281
     1
  3
ACAD_XREC_ROUNDTRIP
360
3D4B
  0
DICTIONARY
  5
3D44
330
22B4
100
AcDbDictionary
280
     1
281
     1
  3
ACAD_XREC_ROUNDTRIP
360
3D45
  0
DICTIONARY
  5
3D4C
330
22B8
100
AcDbDictionary
280
     1
281
     1
  3
ACAD_XREC_ROUNDTRIP
360
3D4D
  0
DICTIONARY
  5
3D3C
330
22B0
100
AcDbDictionary
280
     1
281
     1
  3
ACAD_XREC_ROUNDTRIP
360
3D3D
  0
DICTIONARY
  5
3D7D
330
3628
100
AcDbDictionary
280
     1
281
     1
  3
ACAD_XREC_ROUNDTRIP
360
3D7E
  0
DICTIONARY
  5
3D7B
330
3627
100
AcDbDictionary
280
     1
281
     1
  3
ACAD_XREC_ROUNDTRIP
360
3D7C
  0
DICTIONARY
  5
3D75
330
3624
100
AcDbDictionary
280
     1
281
     1
  3
ACAD_XREC_ROUNDTRIP
360
3D76
  0
DICTIONARY
  5
3D77
330
3625
100
AcDbDictionary
280
     1
281
     1
  3
ACAD_XREC_ROUNDTRIP
360
3D78
  0
DICTIONARY
  5
3D42
330
22B3
100
AcDbDictionary
280
     1
281
     1
  3
ACAD_XREC_ROUNDTRIP
360
3D43
  0
DICTIONARY
  5
3D71
330
3622
100
AcDbDictionary
280
     1
281
     1
  3
ACAD_XREC_ROUNDTRIP
360
3D72
  0
DICTIONARY
  5
3D79
330
3626
100
AcDbDictionary
280
     1
281
     1
  3
ACAD_XREC_ROUNDTRIP
360
3D7A
  0
XRECORD
  5
3D82
102
{ACAD_REACTORS
330
3D81
102
}
330
3D81
100
AcDbXrecord
280
     1
102
DISPLAYNAME
  1
Imperial24
102
FLAGS
 90
        0
  0
XRECORD
  5
3D26
102
{ACAD_REACTORS
330
2409
102
}
330
2409
100
AcDbXrecord
280
     1
102
SHADEPLOT
 70
     0
102
SHADEPLOTRESLEVEL
 70
     2
102
SHADEPLOTCUSTOMDPI
 70
   300
  0
XRECORD
  5
3768
102
{ACAD_REACTORS
330
2409
102
}
330
2409
100
AcDbXrecord
280
     1
310
2800000000010000840000000100080000000000008400000100000001000000000100000000000000000000FFFFFF00000000FF000000FF000000FF000000FF000000FF000000FF000000FF000000FF000000FF330000FF660000FF990000FFCC0000FFFF0000FF003300FF333300FF663300FF993300FFCC3300FFFF3300
310
FF006600FF336600FF666600FF996600FFCC6600FFFF6600FF009900FF339900FF669900FF999900FFCC9900FFFF9900FF00CC00FF33CC00FF66CC00FF99CC00FFCCCC00FFFFCC00FF00FF00FF33FF00FF66FF00FF99FF00FFCCFF00FFFFFF00FF000033FF330033FF660033FF990033FFCC0033FFFF0033FF003333FF3333
310
33FF663333FF993333FFCC3333FFFF3333FF006633FF336633FF666633FF996633FFCC6633FFFF6633FF009933FF339933FF669933FF999933FFCC9933FFFF9933FF00CC33FF33CC33FF66CC33FF99CC33FFCCCC33FFFFCC33FF00FF33FF33FF33FF66FF33FF99FF33FFCCFF33FFFFFF33FF000066FF330066FF660066FF99
310
0066FFCC0066FFFF0066FF003366FF333366FF663366FF993366FFCC3366FFFF3366FF006666FF336666FF666666FF996666FFCC6666FFFF6666FF009966FF339966FF669966FF999966FFCC9966FFFF9966FF00CC66FF33CC66FF66CC66FF99CC66FFCCCC66FFFFCC66FF00FF66FF33FF66FF66FF66FF99FF66FFCCFF66FF
310
FFFF66FF000099FF330099FF660099FF990099FFCC0099FFFF0099FF003399FF333399FF663399FF993399FFCC3399FFFF3399FF006699FF336699FF666699FF996699FFCC6699FFFF6699FF009999FF339999FF669999FF999999FFCC9999FFFF9999FF00CC99FF33CC99FF66CC99FF99CC99FFCCCC99FFFFCC99FF00FF99
310
FF33FF99FF66FF99FF99FF99FFCCFF99FFFFFF99FF0000CCFF3300CCFF6600CCFF9900CCFFCC00CCFFFF00CCFF0033CCFF3333CCFF6633CCFF9933CCFFCC33CCFFFF33CCFF0066CCFF3366CCFF6666CCFF9966CCFFCC66CCFFFF66CCFF0099CCFF3399CCFF6699CCFF9999CCFFCC99CCFFFF99CCFF00CCCCFF33CCCCFF66CC
310
CCFF99CCCCFFCCCCCCFFFFCCCCFF00FFCCFF33FFCCFF66FFCCFF99FFCCFFCCFFCCFFFFFFCCFF0000FFFF3300FFFF6600FFFF9900FFFFCC00FFFFFF00FFFF0033FFFF3333FFFF6633FFFF9933FFFFCC33FFFFFF33FFFF0066FFFF3366FFFF6666FFFF9966FFFFCC66FFFFFF66FFFF0099FFFF3399FFFF6699FFFF9999FFFFCC
310
99FFFFFF99FFFF00CCFFFF33CCFFFF66CCFFFF99CCFFFFCCCCFFFFFFCCFFFF00FFFFFF33FFFFFF66FFFFFF99FFFFFFCCFFFFFFFFFFFFFF000000FF0D0D0DFF1A1A1AFF282828FF353535FF434343FF505050FF5D5D5DFF6B6B6BFF787878FF868686FF939393FFA1A1A1FFAEAEAEFFBBBBBBFFC9C9C9FFD6D6D6FFE4E4E4FF
310
F1F1F1FFFFFFFFFF000000FF000000FF000000FF000000FF000000FF000000FF000000FF000000FF000000FF000000FF00000000000000000000000000000000000000000000000000000000000000000000000000000000000000000000000000000000000000000000000000000000000000000000000000000000000000
310
00000000000000000000000000000000000000000000000000000000000000000000000000000000000000000000000000000000000000000000000000000000000000000000000000000000000000000000000000000000000000000000000000000000000000000000000000000000000000000000000000000000000000
310
00000000000000000000000000000000000000000000000000000000000000000000000000000000000000000000000000000000000000000000000000000000000000000000000000000000000000000000000000000000000000000000000000000000000000000000000000000000000000000000000000000000000000
310
00000000000000000000000000000000000000000000000000000000000000000000000000000000000000000000000000000000000000000000000000000000000000000000000000000000000000000000000000000000000000000000000000000000000000000000000000000000000000000000000000000000000000
310
00000000000000000000000000000000000000000000000000000000000000000000000000000000000000000000000000000000000000000000000000000000000000000000000000000000000000000000000000000000000000000000000000000000000000000000000000000000000000000000000000000000000000
310
00000000000000000000000000000000000000000000000000000000000000000000000000000000000000000000000000000000000000000000000000000000000000000000000000000000000000000000000000000000000000000000000000000000000000000000000000000000000000000000000000000000000000
310
00000000000000000000000000000000000000000000000000000000000000000000000000000000000000000000000000000000000000000000000000000000000000000000000000000000000000000000000000000000000000000000000000000000000000000000000000000000000000000000000000000000000000
310
00000000000000000000000000000000000000000000000000000000000000000000000000000000000000000000000000000000000000000000000000000000000000000000000000000000000000000000000000000000000000000000000000000000000000000000000000000000000000000000000000000000000000
310
00000000000000000000000000000000000000000000000000000000000000000000000000000000000000000000000000000000000000000000000000000000000000000000000000000000000000000000000000000000000000000000000000000000000000000000000000000000000000000000000000000000000000
310
00000000000000000000000000000000000000000000000000000000000000000000000000000000000000000000000000000000000000000000000000000000000000000000000000000000000000000000000000000000000000000000000000000000000000000000000000000000000000000000000000000000000000
310
00000000000000000000000000000000000000000000000000000000000000000000000000000000000000000000000000000000000000000000000000000000000000000000000000000000000000000000000000000000000000000000000000000000000000000000000000000000000000000000000000000000000000
310
00000000000000000000000000000000000000000000000000000000000000000000000000000000000000000000000000000000000000000000000000000000000000000000000000000000000000000000000000000000000000000000000000000000000000000000000000000000000000000000000000000000000000
310
00000000000000000000000000000000000000000000000000000000000000000000000000000000000000000000000000000000000000000000000000000000000000000000000000000000000000000000000000000000000000000000000000000000000000000000000000000000000000000000000000000000000000
310
00000000000000000000000000000000000000000000000000000000000000000000000000000000000000000000000000000000000000000000000000000000000000000000000000000000000000000000000000000000000000000000000000000000000000000000000000000000000000000000000000000000000000
310
00000000000000000000000000000000000000000000000000000000000000000000000000000000000000000000000000000000000000000000000000000000000000000000000000000000000000000000000000000000000000000000000000000000000000000000000000000000000000000000000000000000000000
310
00000000000000000000000000000000000000000000000000000000000000000000000000000000000000000000000000000000000000000000000000000000000000000000000000000000000000000000000000000000000000000000000000000000000000000000000000000000000000000000000000000000000000
310
00000000000000000000000000000000000000000000000000000000000000000000000000000000000000000000000000000000000000000000000000000000000000000000000000000000000000000000000000000000000000000000000000000000000000000000000000000000000000000000000000000000000000
310
00000000000000000000000000000000000000000000000000000000000000000000000000000000000000000000000000000000000000000000000000000000000000000000000000000000000000000000000000000000000000000000000000000000000000000000000000000000000000000000000000000000000000
310
00000000000000000000000000000000000000000000000000000000000000000000000000000000000000000000000000000000000000000000000000000000000000000000000000000000000000000000000000000000000000000000000000000000000000000000000000000000000000000000000000000000000000
310
00002D00000000000000000000000000000000000000000000002D0000000000000000000000000000000000002D00000000000000000000000000000000000000000000000000002D000000000000000000000000000000000000000000000000000000000000000000000000000000000000000000000000000000000000
310
00000000000000000000000000000000000000000000000000000000000000000000000000000000000000000000000000000000000000000000000000000000000000000000000000000000000000000000000000000000000000000000000000000000000000000000000000000000000000000000000000000000000000
310
000000002D2D2D2D2D2D2D2D2D2D2D2D2D2D2D2D2D2D2D2D2D2D2D2D2D0000000000000000000000000000000000002D2D2D2D2D2D2D2D2D2D2D2D2D2D2D2D2D2D2D2D2D2D2D2D2D2D2D2D00000000000000000000000000000000000000000000000000000000000000000000000000000000000000000000000000000000
310
00000000000000000000000000000000000000000000000000000000000000000000000000000000000000000000000000000000000000000000000000000000000000000000000000000000000000000000000000000000000000000000000000000000000000000000000000000000000000000000000000000000000000
310
0000000000002D000000000000000000002D2D2D000000000000000000002D0000000000000000000000000000000000002D00000000000000000000002D2D2D2D00000000000000000000002D0000000000000000000000000000000000000000000000000000000000000000000000000000000000000000000000000000
310
00000000000000000000000000000000000000000000000000000000000000000000000000000000000000000000000000000000000000000000000000000000000000000000000000000000000000000000000000000000000000000000000000000000000000000000000000000000000000000000000000000000000000
310
00000000000000002D000000000000000000002D2D2D000000000000000000002D00002D2D2D2D2D2D2D0000000000000000002D00000000000000000000002D2D2D2D00000000000000000000002D000000000000000000000000000000000000000000000000000000000000000000000000000000000000000000000000
310
00000000000000000000000000000000000000000000000000000000000000000000000000000000000000000000000000000000000000000000000000000000000000000000000000000000000000000000000000000000000000000000000000000000000000000000000000000000000000000000000000000000000000
310
000000000000000000002D0000002D0000000000000000000000000000002D0000002D002D2D2D2D2D2D2D2D0000000000000000002D00002D00000000000000000000000000000000000000002D00002D0000000000002D000000000000000000000000000000000000000000000000000000000000000000000000000000
310
00000000000000000000000000000000000000000000000000000000000000000000000000000000000000000000000000000000000000000000000000000000000000000000000000000000000000000000000000000000000000000000000000000000000000000000000000000000000000000000000000000000000000
310
0000000000000000000000002D0000002D2D2D2D2D2D2D2D2D2D2D2D2D2D2D2D2D0000002D2D00002D002D2D2D2D0000000000000000002D00002D2D2D2D2D2D2D2D2D2D2D2D2D2D2D2D2D2D2D2D2D2D2D2D2D2D2D2D2D2D2D2D00000000000000000000000000000000000000000000000000000000000000000000000000
310
00000000000000000000000000000000000000000000000000000000000000000000000000000000000000000000000000000000000000000000000000000000000000000000000000000000000000000000000000000000000000000000000000000000000000000000000000000000000000000000000000000000000000
310
00000000000000000000000000002D0000002D000000000000002D2D0000000000002D0000002D0000000000000000000000000000000000002D00002D00000000000000002D2D2D0000000000000000002D00002D2D2D2D0000002D0000000000000000000000000000000000000000000000000000000000000000000000
310
00000000000000000000000000000000000000000000000000000000000000000000000000000000000000000000000000000000000000000000000000000000000000000000000000000000000000000000000000000000000000000000000000000000000000000000000000000000000000000000000000000000000000
310
000000000000000000000000000000002D0000002D0000000000002D2D2D0000000000002D0000002D0000000000000000000000000000000000002D00002D00000000000000002D2D2D0000000000000000002D00002D002D2D0000002D000000000000000000000000000000000000000000000000000000000000000000
310
00000000000000000000000000000000000000000000000000000000000000000000000000000000000000000000000000000000000000000000000000000000000000000000000000000000000000000000000000000000000000000000000000000000000000000000002D2D2D2D2D2D2D2D2D2D2D2D2D2D2D2D2D2D2D2D
310
2D2D000000000000000000000000000000002D0000002D0000000000000000000000000000002D00002D2D0000000000000000000000000000000000002D00002D00000000000000000000000000000000000000002D00002D000000002D002D00000000000000000000000000000000000000000000000000000000000000
310
000000000000000000000000000000000000000000000000000000000000000000000000000000000000000000000000000000000000000000000000000000000000000000000000000000000000000000000000000000000000000000000000000000000000000000000000002D002D2D2D2D2D2D2D2D2D2D2D2D2D2D2D2D
310
2D2D2D00000000000000000000000000000000002D0000002D0000000000000028000000000000002D002D002D0000000000000000000000000000000000002D00002D00000000000000000028000000000000000000002D00002D000000002D002D0000000000000000000000000000000000000000000000000000000000
310
0000280000000000000000000000000000000000000000000000000000000000000000000000000000000000000000000000000000000000000000000000000000000000000000000000000000000000000000000000000000000000000000000000000000000000000000000000002D002D2D00002D002D00002D2D2D2D00
310
2D2D2D2D2D00000000000000000000000000000000002D0000002D0000000000000028000000000000002D2D00002D0000000000000000000000000000000000002D00002D00000000000000000028000000000000000000002D00002D0000002D2D002D000000000000000000000000000000000000000000000028000000
310
000000002800000000000000280000000000000000000000000000000000000000000000000000000000000000000000000000000000000000000000000000000000000000000000000000000000000000000000000000000000000000000000000000000000000000000000000000002D0000000000000000000000000000
310
0000000000000000000000000000000000000000000000002DF5F5BE28BEF5F5F5F5F5F528F5F5F5F5F5F5BE2DBEF5F52D2D2D2D2D2D2D2D00000000000000000000002DF5BEF5BEF5F5F5F5F5F5F5F5F5F5F5F5F5F5F5F5F5F5BEF5BEF52D2D2D2D2D2D2D2D2D2D2D2D2D2D2D2D2D2D000000000000000000F5F5BEF528BE
310
F5F5F5F5F5F528F5F5F5F5F5F5BE28BEF5F5F500000000000000000000000000000000000000000000000000000000000000000000000000000000000000000000000000000000000000000000000000000000000000000000000000000000000000000000000000000000000000000000002D000000000000000000000000
310
0000000000000000000000000000000000000000000000000000F5F500BE28BE00000000000028000000000000BE28BE00F5F500000000002D000000000000000000000000F500BE28BE00F50000000000002800000000000000F500BE28BEF5F500002D2D2D002D0000000000000000002D000000000000000000F5F5BE00
310
28BE00000000000028000000000000BE28BE00F5F500000000000000000000000000000000000000000000000000000000000000000000000000000000000000000000000000000000000000000000000000000000000000000000000000000000000000000000000000000000000000000000002D00000000000000000000
310
00000000000000000000000000000000000000000000000000000000F5F500BE28BE0000F500000028000000F50000BE28BE00F5F500000000002D0000000000000000000000F52DF5BE28BEF5F50000000000002800000000000000F500BE28F500F500002D2D2D002D0000000000000000002D000000000000000000F5F5
310
BE0028BE00F50000000028000000F50000BE28BE00F5F500000000000000000000000000000000000000000000000000000000000000000000000000000000000000000000000000000000000000000000000000000000000000000000000000000000000000000000000000000000000000000000002D0000000000000000
310
0000000000000000000000000000000000000000000000000000F5000000F5F5F5BE28BEF5F5F5F5F5F528F5F5F5F5F5F5BE28BEF5F5F500000000002D0000000000000000000000002DF5BEF5F5F5F500000000000028000000000000F5F5F5BEF5BE2D2D2D2D2D2D2D002D0000000000000000002D000000000000000000
310
F5F5F5F5F5F5F5F5F5F5F5F5F5F5F5F5F5F5F5BEF5BEF5F5F5000000F50000000000000000000000000000000000000000000000000000000000000000000000000000000000000000000000000000000000000000000000000000000000000000000000000000000000000000000000000000000000002D00000000000000
310
0000000000000000000000000000000000000000000000000000F5F5F5F5F5F5F500000028000000F500F5002800F5F5F500000028000000F500000000002D0000000000000000000000002D00F5F5F5F5F50000000000002800000000000000F500F5F50000000000002D2D002D0000000000000000002D00000000000000
310
0000F5000000280000F5F500F5002800F5F5F500000028000000F5F5F5F5F5F500000000000000000000000000000000000000000000000000000000000000000000000000000000000000000000000000000000000000000000000000000000000000002D2D2D2D2D2D2D2DF5F5F5F5F5F5F5F5F5F50000002D0000000000
310
0000000000000000000000000000000000F50000000000000000F5F5F5F5F5F5F5F5F500000000000000F5F5F5F5F5F5F5F5F500000000000000F500000000002D0000000000000000000000002D000000F5F5F500000000000028000000000000F5F5F50000000000000000002D002D0000000000000000002D0000000000
310
00000000F500000000000000F5F5F5F528F5F5F50000000000000000F5F5F5F5F5F5F5F5F500000000000000F5000000000000000000000000000000000000000000000000000000F5F5F5F5F5F5F5F5F5F5F5000000000000000000000000000000000000002D0000000000F500000000000000000000F5F5F5F52DF5F5F5
310
F5F5F5F5F5F5F5F5F5F5F5F5F5F5F5F5F5F5F5F5F5F5F5F5F5F5F5F50000F50000F5F5F5F50000000000000000000000280000000000000000000000F500000000002D0000000000000000000000002D0000F5F5F5F500000000000028000000000000F5F5F5F5000000000000000000002D0000000000000000002D000000
310
000000000000F50000000000000000000000280000000000000000000000F5F5F5F500F5000000F5F5F5F5F5F5F5F5F5F5F5F5F5F5F5F5F5F5F5F5F5F5F5F5F5F5F5F5F5F5F5F5F5F5F5F500000000000000000000F50000000000000000000000000000000000002D0000000000F500000000000000000000F5F5F5F52DF5
310
F5F5F5F5F5F5F5F5F5F5F5F5F5F5F5F5F5F5F5F5F5F500F5000000000000000000F5F5F5F5F5000000000000000000000000280000000000000000000000F500000000002D0000000000000000000000002D00F500F500F500000000000028000000000000F5F5F500F50000000000000000002D0000000000000000002D00
310
0000000000000000F50000000000000000F5F5F528F5F5F5000000000000000000F5F5F5F500000000000000000000F5F5F5F5F5F5F5F5F5F5F5F5F5F5F5F5F5F5F5F5F5F5F5F5F5F5F5F5F5F500000000000000000000F50000000000000000000000000000000000002D0000000000F500000000000000000000F500F52D
310
0000000000000000000000000000000000000000000000F500F5000000000000000000F500F500F5000000000000000000000000280000000000000000000000F500000000002D0000000000000000000000002D00F50000F5F50000000000002800000000000000F50000F50000000000000000002D000000000000000000
310
2D000000000000000000F5000000000000F5F500000028000000F5F500000000000000F500F500F5000000000000000000F500F50000000000000000000000000000000000000000000000F50000F500000000000000000000F50000000000000000000000000000000000002D0000000000F5F5F5F5F5F5F5F5F5F5F5F500
310
F52D0000000000000000000000000000000000000000000000F500F5000000000000000000F500F500F5000000000000000000000000280000000000000000000000F500000000002D0000000000000000000000002D00F500F500F500000000000028000000000000F5F5F500F5F500000000000000002D00000000000000
310
00002D000000000000000000F500000000F5F50000000000280000000000F5F50000000000F500F500F5000000000000000000F500F50000000000000000000000000000000000000000000000F50000F5F5F5F5F5F5F5F5F5F5F5F50000000000000000000000000000000000002D0000000000F500000000000000000000
310
F500F52D0000000000000000000000000000000000000000000000F500F5F5F5F5F5F5F5F5F5F5F500F5F5F500000000000000F5F5F5F5F5F5F5F5F5F5F5000000000000F500000000002D0000000000000000000000002D00F50000F5F50000000000002800000000000000F5F500F5F500000000000000002D0000000000
310
00002D002D000000000000000000F50000F5F50000F5F5F5F5F528F5F5F5F5F50000F5F5000000F5F5F500F5F5F5F5F5F5F5F5F5F5F500F50000000000000000000000000000000000000000000000F50000F500000000000000000000F50000000000000000000000000000000000002D0000000000F50000000000000000
310
0000F500F52D0000000000000000000000000000000000000000000000F500F5000000000000000000F500F500F50000000000F5F50000000000280000000000F5F500000000F500000000002D0000000000000000000000002D00F500F5F5F500000000000028000000000000F5F5F500F50000000000000000002D000000
310
000000002D2D2D000000000000000000F50000F500F5F50000000000280000000000F5F500F5000000F500F500F5000000000000000000F500F50000000000000000000000000000000000000000000000F50000F500000000000000000000F50000000000000000000000000000000000002D0000000000F5000000000000
310
00000000F5002D000000000000000000000000000000000000000000000000F500F5F5F5F5F5F52DF5F5F5F500F500F50000000000F50000F5F5F500F500F5F5F50000F500000000F500000000002D0000000000000000000000002DF5000000F5F50000000000002800000000000000F5F50000F500000000000000002D00
310
0000000000002D2D2D000000000000000000F50000F500F50000F5F5F500F500F5F5F50000F50000F50000F500F500F5F5F5F5F5F5F5F5F5F5F500F50000000000000000000000000000000000000000000000F50000F500000000000000000000F500000000000000000000000000000000002D2D0000000000F500000000
310
000000000000F5002D000000000000000000000000000000000000000000000000F500F500000000002D000000F500F500F50000000000F50000F5F5F500F500F5F500000000F5000000F500000000002D0000000000000000000000002DF5000000F5F50000000000002800000000000000F5F50000F50000000000000000
310
2D000000000000002D2D2D000000000000000000F500F50000F50000F5F5F5002800F5F500000000F500F50000F500F500F5000000000000000000F500F50000000000000000000000000000000000000000000000F50000F500000000000000000000F5000000000000000000000000000000002D2D2D0000282828F52828
310
2828282828282828F5282D282828282828282828282828282828282828282828282828F528F5282828282D2D28282828282828F5282D2D2D2D2D0000F5F5F5F5F5F5F5F5F5000000F5000000F500000000002D0000000000000000000000002DF5000000F5F50000000000002800000000000000F5F50000F5F50000000000
310
00002D0000000000000000002D000000000000000000F500F500F5000000F5F5F5F5F5F5F5F5F5002828F52828F528F528F528F5282828282828282828F528F52828282828282828282828282828282828282828282828F52828F528282828282828282828F5282800000000000000000000000000002D2D2D0000000000F5
310
00000000000000000000F5002D000000000000000000000000000000000000000000000000F500F50000002D2D2D000000F500F500F500002DF5F500000000F5F5F5F5F5F5F500000000F5F50000F500000000002D0000000000000000000000002DF5000000F5F50000000000002800000000000000F5F5000000F5000000
310
000000002D0000000000000000002D000000000000000000F5F500F5F5000000F5F5F5F5F5F5F5F500000000F50000F500F500F500F5000000000000000000F500F50000000000000000000000000000000000000000000000F50000F500000000000000000000F50000000000000000000000000000000000002D00000000
310
00F500000000000000000000F52DF5000000000000000000000000000000000000000000000000F500F50000002D2D2D000000F500F500F500002DF5F5000000000000002800000000000000F5F50000F50000002D2D2D0000000000000000000000002D000000F5F5F50000000000002800000000000000F5F5F50000F500
310
0000000000002D0000000000000000002D000000000000000000F50000F5F5000000000000002800000000000000F50000F500F500F500F5000000000000000000F500F50000000000000000000000000000000000000000000000F50000F500000000000000000000F50000000000000000000000000000000000002D0000
310
000000F500000000000000000000F52DF5000000000000000000000000000000000000000000002828282828282828282D2D2828282828282828282D2DF5F5000000000000002800000000000000F5F50000F50000002D2D2D0000000000000000000028282D2828F5F5F5F528282828282828282D2D2D282828F5F5F5F528
310
F5282828000000002D0000000000000000002D000000000000000000F50000F5F5000000000000002800000000002828F52828F5282828282828282828280000000000F500F50000000000000000000000000000000000000000000000F50000F500000000000000000000F50000000000000000000000000000000000002D
310
0000000000F500000000000000000000F52DF5000000000000000000000000000000000000000000000000F500F500000000002D000000F500F500F52D2D2D00F50000000000F5F528F5F50000000000F5000000F50000002D2D2D0000000000000000000000002D00F5F5F5F5F500000000000028002D2D2D2D2D2D2D2DF5
310
F5F5F5000000000000002D0000000000000000002D000000000000000000F5000000F50000000000F5F528F5F50000000000F50000F500F500F500F5000000000000000000F500F50000000000000000000000000000000000000000000000F50000F500000000000000000000F50000000000000000000000000000000000
310
002D0000000000F500000000000000000000F52DF5000000000000000000000000000000000000000000000000F500F500000000002D000000F500F500F52D2D2D00F500000000F5F5F52800F5F500000000F5000000F5000000002D2D0000000000000000000000002DF5F5F500F5F500000000000028002D2D2D2D2D00F5
310
F52D2D2D2D000000000000002D0000000000000000002D000000000000000000F5000000F500000000F5F5F52800F5F500000000F50000F500F500F500F5000000000000000000F500F50000000000000000000000000000000000000000000000F50000F500000000000000000000F5000000000000000000000000000000
310
0000002D0000000000F5F5F5F5F5F5F5F5F5F5F5F5F5F5000000000000000000000000000000000000000000000000F500F5000000000000000000F500F500F52D2D2D00F5000000F500000028000000F5F500F5F5000000F500000000002D0000000000000000000000002DF5F50000F5F5000000000000280000002D2D2D
310
00F5F500F5F500000000000000002D0000000000000000002D000000000000000000F5000000F5000000F500000028000000F5F500F5000000F500F500F500F5000000000000000000F500F50000000000000000000000000000000000000000000000F50000F5F5F5F5F5F5F5F5F5F5F5F500000000000000000000000000
310
00000000002D0000000000F500000000000000000000F5F5F5F5F5F528F5F5F5F5F5F5F5F5F5F5F5F5F5F5F5F5F5F5F5F5F500F5000000000000000000F500F500F52D2D2D00F5F500F5000000002800000000F500F5F5000000F500000000002D0000000000000000000000002DF5F50000F5F50000000000002800000000
310
000000F5F500F5F5F5F5F5F5F5F5F5F52D2D2D2D2D2D2D0000002D000000000000000000F5000000F5F500F5000000002800000000F500F5000000F500F500F500F5000000000000000000F500F5F5F5F5F5F5F5F5F5F5F5F5F5F5F5F5F5F5F5F5F528F5F5F5F5F5F500000000000000000000F50000000000000000000000
310
000000000000002D00000000002D00000000000000000000F500F5000000280000000000000000000000000000000000000000F500F5000000000000000000F500F500F500002D00F5F5F5F5000000BEBE00000000F5F5F5F5000000F500000000002D0000000000000000000000002DF5F50000F5F5000000000000280000
310
0000000000F5F500F5F50000000000000000F500000000002D0000002D000000000000000000F5000000F5F5F5F5000000002800000000F5F5F5000000F500F500F500F5000000000000000000F5F5F50000000000000000000000000000000000000000280000F50000F500000000000000000000F5000000000000000000
310
0000000000000000002D00000000002DF5000000000000000000F5F5F5F5F5F528F5F5F5F5F52D2D2D2D2D2DF5F5F5F5F5F5F5F5F5F5F52DF5F5F5F500000000F5F500F500F500002D0000F5F5F50000BE0028BEBEBE0000F5F500000000F500000000002D0000000000000000000000002D00F50000F5F500000000000028
310
00000000000000F5F500F5F500F5F5F5F5F5F5F5F5000000002D2D0000002D000000000000000000F500000000F5F5F500F5F5F528F5F5000000F5F5000000F500F500F500F50000000000F5F5F5F5F5F5F5F5F5F5F5F5F5F5F5F5F5F5F5F5F5F5F5F5F5F5F528F5F5F5F5F5F5000000000000000000F50000000000000000
310
00000000000000000000002D2D2D2D2D2D2D2DF5F5F5F5F5F5F5F5F5F5F5F5F5F5F5F5F5F5F5F5F5F5000000002D000000000000000000F5002D00F500F5F5F5F5F5F5F500F5F5F5002D2D2828F5F5282828BE282828BEBE2828F5F528282800F500000000002D0000000000000000000000002D28F52828F5F52828282828
310
282828282828280028F5F528F5F52D28F50028282828F528282D2D2D2D2D2D2D2D000000000000000000F528282828F5282828F5F52828282828282828F5282828F500F5F5F5F5F5F5F5F5F5F500F5000000F5000000000000000000000000000000F5F5F5F5F5F5F5F5F5F5F5F5F5F5F5F5F5F5F5F5F5F5F5000000000000
310
000000000000000000000000000000000000002D00000000000000000000F50000000000280000000000F500002D2D2D00000000000000000000002D0000F5000000F5F5F5F500F500F50000000000F5F5000000BEBEBEBEBEBE0000F5F500000000F500000000002D0000000000000000000000002D00F5000000F5000000
310
0000002800000000000000F50000F5F52DF5F5F5F5F5F5F5F5000000002D2D00000000000000000000000000F5F5000000F5F50000F5F5002800F5000000F5F5000000F500F500F500F500F5F50000F50000000000000000000000000000000000000000F50000000000280000000000F50000000000000000000000000000
310
0000000000000000000000000000000000000000002D00000000000000000000F5F5F5F5F5F5F5F5F5F5F5F5F500002D2D2D00000000000000000000002D0000000000000000F5F500F5F5F5000000000000F50000000000280000000000F5F500000000F500000000002D0000000000000000000000002D00F5000000F500
310
00000000002800000000000000F50000F5F52D00000000000000F500000000002D00000000000000000000000000F500F5000000F500000000F528F500000000F5F5000000F500F5F5F500F5F500000000000000000000000000000000000000000000000000F5F5F5F5F5F5F5F5F5F5F5F5F5000000000000000000000000
310
00000000000000000000000000000000000000000000002D00000000000000000000F50000000000280000000000F500002D2D2D00000000000000000000002D00000000000000F500F500F500F5000000000000F5F5000000002800000000F5F50000000000F500000000002D0000000000000000000000002D00F5000000
310
F50000000000002800000000000000F50000F52D2DF5F5F5F5F5F5F52D2D2D2D2D2D2D00000000000000000000000000F500F5000000F5F5000000002800000000F5F5000000F50000F500F5F5F5F500000000000000000000000000000000000000000000000000F50000000000280000000000F500000000000000000000
310
000000000000000000000000000000000000000000000000002D000000000000002828F5F52828282828282828282828F528282D2D2D00000000000000000000002D0000000000000000F5F500F5F5F5F5000000000000F5F50000002800000000F5F500000000002D00000000002D0000000000000000000000002D00F500
310
0000F50000000000002800000000000000F50000F52D2D000000000000002D0000002D2D2D00000000000000000000000000F50000F5000000F5F50000002800000000F5F5000000F500F5F5F5F500F50000000000000000000000000000000000000000000000282828282828282800282828282828F5F528280000000000
310
0000000000000000000000000000000000000000000000000000002D000000000000000000F5F5F5F5000000280000000000F500002D2D2D00000000000000000000002D000000000000000000F500F500F5F5000000000000F5F5F5F500280000F5F5F50000000000002D00000000002D0000000000000000000000002D00
310
F5F50000F5F5F5F5F5F5F528F5F5F5F5F5F5F5F50000F52D2D000000000000002D0000002D2D2D00000000000000000000000000F50000F5000000F5F5F5F500280000F5F5F5000000F50000F5F500F500F50000000000000000000000000000000000000000000000000000F5F500000000280000000000F5F50000000000
310
00000000000000000000000000000000000000000000000000000000002D00000000000000000000F5F5F5F5F5F5F5F5F5F5F5F5F5000000002D00000000000000000000002D000000000000000000F5F52DF5F5F5F5F5000000000000F5F5F528F5F5F5000000000000F5F52D00000000002D000000000000000000000000
310
2D00F5F5F500F50000000000002800000000000000F500F5F52D2D000000000000002D0000002D2D2D0000000000000000000000000000F5F5F50000000000F5F5F528F5F5F50000000000F5F5F5F5F5F5F5F5F500000000000000000000000000000000000000000000000000F5F5F5F5F5F5F5F5F5F5F5F5F5F500000000
310
000000000000000000000000000000000000000000000000000000000000002D00000000000000000000F5F5F5F5F5F5F5F5F5F5F5F5F52D2D2D2D2D00000000000000000000002D00000000000000000000002D0000F500F5F500000000000000F528F500000000000000F500002D00000000002D00000000000000000000
310
00002D0000F5F5F5F50000000000002800000000000000F5F500F52D2D000000000000002D0000002D2D2D00000000000000000000000000000000F5F5F50000000000F528F50000000000F5F5F5F500F500000000000000000000000000000000000000000000000000000000000000F5F5F5F5F5F5F5F5F5F5F5F5000000
310
0000000000000000000000000000000000000000000000000000000000000000002D000000000000000000002D00000000002800000000002D000000000000000000000000000000002D00000000000000000000002D000000F50000F5000000000000002800000000000000F50000002D00000000002D0000000000000000
310
000000002D000000F500F500000000000028000000000000F5F5F500002D2D000000000000002D0000002D2D2D0000000000000000000000000000000000F500F5F5000000002800000000F5F500F50000F5000000000000000000000000000000000000000000000000000000000000000000000000000028000000000000
310
00000000000000000000000000000000000000000000000000000000000000000000002D000000000000000000002D00000000000000000000002D000000000000000000000000000000002D00000000000000000000002D00000000000000F5F50000000000280000000000F5F5000000002D00000000002D000000000000
310
0000000000002D00000000F5F500000000000028000000000000F5F50000002D2D000000000000002D0000002D2D2D000000000000000000000000000000000000F5F500F5F5F5F528F5F5F5F500F5F50000000000000000000000000000000000000000000000000000000000000000000000000000000000002800000000
310
000000000000000000000000000000000000000000000000000000000000000000000000002D000000000000000000002D00000000000000000000002D000000000000000000000000000000002D00000000000000000000002D000000000000000000F5F5F5F5F5F5F5F5F52D2D2D2D2D2D2D2D2D2D2D2D2D2D2D2D000000
310
00000000000000002D00000000F5F5F5F5F5F5F5F5F5F5F5F5F5F5F5F5F50000002D2D2D2D2D2D2D2D2D2D0000002D2D2D0000000000000000000000000000000000000000F5F5F5F5F528F5F5F5F5F50000000000000000000000000000000000000000000000000000000000000000000000000000000000000000000000
310
0000000000000000000000000000000000000000000000000000000000000000000000000000002D000000000000000000002D00000000000000000000002D000000000000000000000000000000002D00000000000000000000002D00000000000000000000000000002800000000000000000000002D0000000000000000
310
000000000000000000002D0000000000F500000000000028000000000000F5000000002D2D2D002D2D2D002D2D00000000000000000000000000000000000000000000000000000000000000280000000000000000000000000000000000000000000000000000000000000000000000000000000000000000000000000000
310
00000000000000000000000000000000000000000000000000000000000000000000000000000000002D000000000000000000002D00000000000000000000002D000000000000000000000000000000002D00000000000000000000002D00000000000000000000000000002800000000000000000000002D000000000000
310
0000000000000000000000002D0000000000000000000000002800000000000000000000002D0000002D2D2D00002D0000000000000000000000000000000000000000000000000000000000000028000000000000000000000000000000000000000000000000000000000000000000000000000000000000000000000000
310
000000000000000000000000000000000000000000000000000000000000000000000000000000000000002D000000000000000000002D00000000000000000000002D000000000000000000000000000000002D00000000000000000000002D00000000000000000000000000002D00000000000000000000002D00000000
310
00000000000000000000000000002D0000000000000000000000002D00000000000000000000002D00000000000000002D000000000000000000000000000000000000000000000000000000000000002800000000000000000000000000000000000000000000000000000000000000000000000000000000000000000000
310
0000000000000000000000000000000000000000000000000000000000000000000000000000000000000000002D2D2D2D2D2D2D2D2D2D2D2D2D2D2D2D2D2D2D2D2D2D2D2D000000000000000000000000000000002D00000000000000000000002D00000000000000000000000000002D00000000000000000000002D0000
310
000000000000000000000000000000002D0000000000000000000000002D00000000000000000000002D2D2D2D2D2D2D2D2D2D00000000000000000000000000000000000000000000000000000000000000000000000000000000000000000000000000000000000000000000000000000000000000000000000000000000
310
00000000000000000000000000000000000000000000000000000000000000000000000000000000000000000000002D2D00002D2D2D2D00002D2D2D2D002D2D2D2D2D00002D2D000000000000000000000000000000002D00000000000000000000002D00000000000000000000000000002D00000000000000000000002D
310
0000000000000000000000000000000000002D0000000000000000000000002D00000000000000000000002D2D00002D2D2D002D2D0000000000000000000000000000000000000000000000000000000000000000000000000000000000000000000000000000000000000000000000000000000000000000000000000000
310
000000000000000000000000000000000000000000000000000000000000000000000000000000000000000000000000002D0000002D2D2D2D000000000000002D2D2D2D2D00000000000000000000000000000000000000002D00000000000000000000002D00000000000000000000000000002D00000000000000000000
310
002D0000000000000000000000000000000000002D0000000000000000000000002D0000000000000000000000000000002D2D2D00002D000000000000000000000000000000000000000000000000000000000000000000000000000000000000000000000000000000000000000000000000000000000000000000000000
310
0000000000000000000000000000000000000000000000000000000000000000000000000000000000000000000000000000002D0000000000000000000000000000000000000000000000000000000000000000000000000000002D00000000000000000000002D00000000000000000000000000002D0000000000000000
310
0000002D0000000000000000000000000000000000002D0000000000000000000000002D00000000000000000000000000000000000000002D00000000000000000000000000000000000000000000000000000000000000000000000000000000000000000000000000000000000000000000000000000000000000000000
310
00000000000000000000000000000000000000000000000000000000000000000000000000000000000000000000000000000000002D2D000000000000000000000000000000000000000000000000000000000000000000000000002D2D2D0000000000000000002D2D2D0000000000000000000000002D2D2D0000000000
310
000000002D2D0000000000000000000000000000000000002D2D000000000000000000002D2D002D00000000000000000000000000000000002D2D0000000000000000000000000000000000000000000000000000000000000000000000000000000000000000000000000000000000000000000000000000000000000000
310
000000000000000000000000000000000000000000000000000000000000000000000000000000000000000000000000000000000000002D2D2D2D2D2D2D2D2D2D2D2D2D2D2D2D2D2D2D2D2D2D2D2D2D2D2D2D2D2D2D2D2D2D2D2D2D2D2D2D2D2D2D2D2D2D2D2D2D2D2D2D2D2D2D2D2D2D2D2D2D2D2D2D2D2D2D2D2D2D2D2D
310
2D2D2D2D2D2D2D2D0000000000000000000000000000000000002D2D2D2D2D2D2D2D2D2D2D2D2D2D2D2D2D2D2D2D2D2D2D2D2D2D2D2D2D2D2D2D2D2D2D000000000000000000000000000000000000000000000000000000000000000000000000000000000000000000000000000000000000000000000000000000000000
310
0000000000000000000000000000000000000000000000000000000000000000000000000000000000000000000000000000000000000000002D000000000000000000000000000000002D2D2D2D2D2D000000000000000000000000000000000000000000002D2D2D000000000000000000002D2D2D000000000000000000
310
00002D2D2D000000002D0000000000000000000000000000000000002D00000000002D2D2D00000000000000000000000000002D2D2D00000000000000002D00000000000000000000000000000000000000000000000000000000000000000000000000000000000000000000000000000000000000000000000000000000
310
00000000000000000000000000000000000000000000000000000000000000000000000000000000000000000000000000000000000000000000002D00000000000000000000000000000000000000000000000000000000000000000000000000000000000000000000000000000000000000000000000000000000000000
310
00000000000000000000002D0000000000000000000000000000000000002D0000000000000000000000000000000000000000000000000000000000000000002D0000000000000000000000000000000000000000000000000000000000000000000000000000000000000000000000000000000000000000000000000000
310
000000000000000000000000000000000000000000000000000000000000000000000000000000000000000000000000000000000000000000000000002D0000000000000000000000000000000000000000000000000000000000000000000000000000000000000000000000000000000000000000000000000000000000
310
000000000000000000000000002D0000000000000000000000000000000000002D0000000000000000000000000000000000000000000000000000000000000000002D000000000000000000000000000000000000000000000000000000000000000000000000000000000000000000000000000000000000000000000000
310
0000000000000000000000000000000000000000000000000000000000000000000000000000000000000000000000000000000000000000000000000000002D2D2D2D2D2D2D2D2D2D2D2D2D2D2D2D2D2D2D2D2D2D2D2D2D2D2D2D2D2D2D2D2D2D2D2D2D2D2D2D2D2D2D2D2D2D2D2D2D2D2D2D2D2D2D2D2D2D2D2D2D2D2D2D
310
2D2D2D2D2D2D2D2D2D2D2D2D2D2D2D2D0000000000000000000000000000000000002D2D2D2D2D2D2D2D2D2D2D2D2D2D2D2D2D2D2D2D2D2D2D2D2D2D2D2D2D2D2D2D2D2D2D00000000000000000000000000000000000000000000000000000000000000000000000000000000000000000000000000000000000000000000
310
0000000000000000000000000000000000000000000000000000000000000000000000000000000000000000000000000000000000000000000000000000000000000000000000000000000000000000000000000000000000000000000000000000000000002D2D2D2D2D2D00000000000000000000000000000000000000
310
000000000000000000000000000000000000000000000000000000000000000000000000000000000000000000000000000000002D2D2D2D0000000000000000000000000000000000000000000000000000000000000000000000000000000000000000000000000000000000000000000000000000000000000000000000
310
00000000000000000000000000000000000000000000000000000000000000000000000000000000000000000000000000000000000000000000000000000000000000000000000000000000000000000000000000000000000000000000000000000000000000002D2D2D2D2D2D0000000000000000000000000000000000
310
0000000000000000000000000000000000000000000000000000000000000000000000000000000000000000000000000000000000002D2D2D00000000000000000000000000000000000000000000000000000000000000000000000000000000000000000000000000000000000000000000000000000000000000000000
310
00000000000000000000000000000000000000000000000000000000000000000000000000000000000000000000000000000000000000000000000000000000000000000000000000000000000000000000000000000000000000000000000000000000000000000000000000000000000000000000000000000000000000
310
00000000000000000000000000000000000000000000000000000000000000000000000000000000000000000000000000000000000000000000000000000000000000000000000000000000000000000000000000000000000000000000000000000000000000000000000000000000000000000000000000000000000000
310
00000000000000000000000000000000000000000000000000000000000000000000000000000000000000000000000000000000000000000000000000000000000000000000000000000000000000000000000000000000000000000000000000000000000000000000000000000000000000000000000000000000000000
310
00000000000000000000000000000000000000000000000000000000000000000000000000000000000000000000000000000000000000000000000000000000000000000000000000000000000000000000000000000000000000000000000000000000000000000000000000000000000000000000000000000000000000
310
00000000000000000000000000000000000000000000000000000000000000000000000000000000000000000000000000000000000000000000000000000000000000000000000000000000000000000000000000000000000000000000000000000000000000000000000000000000000000000000000000000000000000
310
00000000000000000000000000000000000000000000000000000000000000000000000000000000000000000000000000000000000000000000000000000000000000000000000000000000000000000000000000000000000000000000000000000000000000000000000000000000000000000000000000000000000000
310
00000000000000000000000000000000000000000000000000000000000000000000000000000000000000000000000000000000000000000000000000000000000000000000000000000000000000000000000000000000000000000000000000000000000000000000000000000000000000000000000000000000000000
310
00000000000000000000000000000000000000000000000000000000000000000000000000000000000000000000000000000000000000000000000000000000000000000000000000000000000000000000000000000000000000000000000000000000000000000000000000000000000000000000000000000000000000
310
00000000000000000000000000000000000000000000000000000000000000000000000000000000000000000000000000000000000000000000000000000000000000000000000000000000000000000000000000000000000000000000000000000000000000000000000000000000000000000000000000000000000000
310
00000000000000000000000000000000000000000000000000000000000000000000000000000000000000000000000000000000000000000000000000000000000000000000000000000000000000000000000000000000000000000000000000000000000000000000000000000000000000000000000000000000000000
310
00000000000000000000000000000000000000000000000000000000000000000000000000000000000000000000000000000000000000000000000000000000000000000000000000000000000000000000000000000000000000000000000000000000000000000000000000000000000000000000000000000000000000
310
00000000000000000000000000000000000000280000000000000000000000000000000000000000000000000000000000000000000000000000000000000000000000000000000000000000000000000000000000000000000000000000000000000000000000000000000000000000000000000000000000000000000000
310
00000000000000000000000000000000000000000000000000000000000000000000000000000000000000000000000000000000000000000000000000000000000000000000000000000000000000000000000000000000000000000000000000000000000000000000000000000000000000000000000000000000000000
310
00000000000000000000000000000000000000000028000000000000000000000000000000000000000000000000000000000000000000000000000000000000000000000000000000000000000000000000000000000000000000000000000000000000000000000000000000000000000000000000000000000000000000
310
00000000000000000000000000000000000000000000000000000000000000000000000000000000000000000000000000000000000000000000000000000000000000000000000000000000000000000000000000000000000000000000000000000000000000000000000000000000000000000000000000000000000000
310
00000000000000000000000000000000000000000000002800000000000000000000000000000000000000000000000000000000000000000000000000000000000000000000000000000000000000000000000000000000000000000000000000000000000000000000000000000000000000000000000000000000000000
310
00000000000000000000000000000000000000000000000000000000000000000000000000000000000000000000000000000000000000000000000000000000000000000000000000000000000000000000000000000000000000000000000000000000000000000000000000000000000000000000000000000000000000
310
000000000000000000F5F5F5000000F5F5F5F5F5F5F5F5F5F5F5F5F5F5F5F5F5F5F5F5F500000000000000000000000000000000000000000000000000000000000000000000000000000000000000000000000000000000000000000000000000000000000000000000000000000000000000000000000000000000000000
310
00000000000000000000000000000000000000000000000000000000000000000000000000000000000000000000000000000000000000000000000000000000000000000000000000000000000000000000000000000000000000000000000000000000000000000000000000000000000000000000000000000000000000
310
00000000000000000000F500F500F500F5000028000000000000002800000000000000280000F500000000000000000000000000000000000000000000000000000000000000000000000000000000000000000000000000000000000000000000000000000000000000000000000000000000000000000000000000000000
310
00000000000000000000000000000000000000000000000000000000000000000000000000000000000000000000000000000000000000000000000000000000000000000000000000000000000000000000000000000000000000000000000000000000000000000000000000000000000000000000000000000000000000
310
000000000000000000000000F5F5F5F5F500F500002800F5F5F5F5F5F528F5F5F5F5F5F500280000F5000000000000000000000000000000002D2D2D2D2D2D2D2D2D2D2D002D2D2D2D00002D2D2D2D2D2D2D2D2D2D0000000000002D2D2D2D2D2D2D2D2D2D2D002D2D2D2D00002D2D2D2D2D2D2D2D2D2D0000000000000000
310
00000000000000000000000000000000000000000000000000000000000000000000000000000000000000000000000000000000000000000000000000000000000000000000000000000000000000000000000000000000000000000000000000000000000000000000000000000000000000000000000000000000000000
310
00000000000000000000000000F5F500F5F5F500F5282828F528F5000000002800000000F52828282828F5000000000000000000000000000000002D2D002D2D2D2D2D2D2D2D2D2D2D2D2D2D2D2D2D2D2D2D2D2D2D2D2D0000000000002D2D002D2D2D2D2D2D2D2D2D2D2D2D2D2D2D2D2D2D2D2D2D2D2D2D2D000000000000
310
00000000000000000000000000000000000000000000000000000000000000000000000000000000000000000000000000000000000000000000000000000000000000000000000000000000000000000000000000000000000000000000F5F5F5F5F5F5F5F5F5F5F500000000002800000000000000000000000000000000
310
00000000F500000000000000F5F5F5F5F500F5F5F5F50000F5F5F5F50000000000280000000000F5F528F50000F50000000000000000000000000000002D2D002D2D2D2D2D2D2D2D002D2D2D2D00002D2D2D2D2D2D2D2D2D2D2D00000000002D2D2D2D2D2D2D2D2D2D2D002D2D2D2D00002D2D2D2D2D2D2D2D2D2D2D000000
310
0000000000000000000000000000000000000000000000000000000000000000000000000000000000000000000000000000000000000000000000000000000000000000000000000000000000000000000000000000000000000000000000F500000000000000000000F52DF5F5F5F528F5F5F5F5F5F5F5F5F5F5F5F5F5F5
310
F5F5F5F5F5F5F5F5F5F5F5F5F5F5000000F5F500F500F5F500F5F5F5F500000000000028000000000000F528F5F500F50000000000000000000000000000002D2D2D2D2D2D2D2D2D2D2D002D2D2D2D00002D2D2D2D2D2D2D2D2D2D2D2D000000002D2D2D2D2D2D2D2D2D2D2D002D2D2D2D00002D2D2D2D2D2D2D2D2D2D2D2D
310
00000000000000000000000000000000000000000000000000000000000000000000000000000000000000000000000000000000000000000000000000000000000000000000000000000000000000000000000000000000000000000000000000F5000000000000000000F5F5F5F500000028000000000000000000000000
310
0000000000000000F500F500000000000000F500F500F5F5F5F5F5F5F5F5F5F5F5F5F5F5F528F5F5F5F5F5F5F5F5F5F5F5F50000000000000000000000000000002D2D002D2D2D002D2D2D2D2D2D2D2D2D2D2D2D2D2D2D2D2D2D2D2D2D002D000000002D2D2D2D2D2D002D2D2D2D2D2D2D2D2D2D2D2D2D2D2D2D2D2D2D2D2D
310
002D00000000000000000000000000000000000000000000000000000000000000000000000000000000000000000000000000000000000000000000000000000000000000000000000000000000000000000000000000000000000000000000000000F500000000000000000000F5F5F50000002800000000000000000000
310
00000000000000000000F500F50000000000000000F5F500F5000000000000000000F5000000002800000000F5000000000000F50000000000000000000000000000002D2D002D2D2D2D2D2D2D2D002D2D2D2D00002D2D2D2D2D2D2D2D2D2D2D2D000000002D2D2D2D2D2D2D2D2D2D2D002D2D2D2D00002D2D2D2D2D2D2D2D
310
2D2D2D2D00000000000000000000000000000000000000000000000000000000000000000000000000000000000000000000000000000000000000000000000000000000000000000000000000000000000000000000000000000000000000000000000000F5F5F5F5F5F5F5F5F5F5F5F5F5F5F5F5F5F5F5F5F5F5F5F5F5F5
310
F5F5F5F5F5F5F5F5F5F5F5F5F500F50000000000000000F5F500F5000000000000000000F5000000002800000000F5000000000000F50000000000000000000000000000002D2D2D2D2D2D2D2D2D2D2D2D2D2D2D2D00002D2D2D2D2D2D2D2D2D2D0000000000002D2D2D2D2D2D2D2D2D2D2D2D2D2D2D2D00002D2D2D2D2D2D
310
2D2D2D2D000000000000000000000000000000000000000000000000000000000000000000000000000000000000000000000000000000000000000000000000000000000000000000000000000000000000000000000000000000000000000000000000000000F500000000000000000000F5F5F5F50000280000000000F5
310
00000000000000000000000000000000F5000000000000F5F500F500F5000000F50000000000F5000000002800000000F5000000000000F50000000000000000000000000000002D2D002D2D2D002D2D2D2D2D2D2D2D2D2D2D2D2D2D2D2D2D2D2D2D2D0000000000002D2D2D2D2D2D002D2D2D2D2D2D2D2D2D2D2D2D2D2D2D
310
2D2D2D2D2D2D000000000000000000000000000000000000000000000000000000000000000000000000000000000000000000000000000000000000000000000000000000000000000000000000000000000000000000000000000000000000000000000000000000F500000000000000000000F5F5F50000002800000000
310
00F500000000000000000000000000000000F50000000000F5000000F500F5000000F50000000000F5000000002800000000F5000000000000F50000000000000000000000000000002D2D002D2D2D2D2D2D2D2D002D2D2D2D00002D2D2D2D2D2D2D2D2D2D2D00000000002D2D002D2D2D2D2D2D2D2D002D2D2D2D00002D2D
310
2D2D2D2D2D2D2D2D2D0000000000000000000000000000000000000000000000000000000000000000000000000000000000000000000000000000000000000000000000000000000000000000000000000000000000000000000000000000000000000000000000000000F500000000000000000000F5F500000000280000
310
000000F500000000000000000000000000000000F500000000F500000000F500F5000000F50000000000F5000000002800000000F5000000000000F50000000000000000000000000000002D2D2D2D2D2D2D2D2D2D2D2D2D2D2D2D2D2D2D2D2D2D2D2D2D2D2D2D0000000000002D2D2D2D2D2D2D2D2D2D2D2D2D2D2D2D2D2D
310
2D2D2D2D2D2D2D2D2D2D000000000000000000000000000000000000000000000000000000000000000000000000000000000000000000000000000000000000000000000000000000000000000000000000000000000000000000000000000000000000000000000000000000F500000000000000000000F5F50000000028
310
0000000000F500000000000000000000000000000000F500000000F500000000F500F5000000F50000000000F5000000002800000000F5000000000000F50000000000000000000000000000002D2D002D2D2D2D2D2D2D2D2D2D2D2D2D002D2D2D2D2D2D2D2D2D2D2D0000000000002D2D2D2D2D2D2D2D2D2D2D2D2D2D2D2D
310
002D2D2D2D2D2D2D2D2D2D2D000000000000000000000000000000000000000000000000000000000000000000000000000000000000000000000000000000000000000000000000000000000000000000000000000000000000000000000000000000000000000000000000282828F5282828282828282828F5F5F5282828
310
28282828282828F528282828282828282828282828282828F528282828F528282828F528F5282828F52828282828F5282828282828282828F5282828282828F52828280000000000000000000000002D2D2D2D2D2D2D2D2D2D2D002D2D2D2D00002D2D2D2D2D2D2D2D2D2D2D00000000002D2D2D2D2D2D2D2D2D2D2D002D2D
310
2D2D002D2D2D2D2D2D2D2D2D2D2D2D2D00000000000000000000000000000000000000000000000000000000000000000000000000000000000000000000000000000000000000000000000000000000000000000000000000000000000000000000000000000000000000000000000000F5000000000000000000F5F5F500
310
000000280000000000F500000000000000000000000000000000F500000000F500000000F500F5000000F50000000000F5000000002800000000F5000000000000F50000000000000000000000000000002D2D002D2D2D2D2D2D2D2D2D2D2D2D2D2D2D2D2D2D2D002D2D2D2D2D2D00000000002D2D002D2D2D2D2D2D2D2D2D
310
2D2D2D2D2D2D2D2D2D2D002D2D2D2D2D002D00000000000000000000000000000000000000000000000000000000000000000000000000000000000000000000000000000000000000000000000000000000000000000000000000000000000000000000000000000000000000000000000000F500000000000000000000F5
310
F500000000280000000000F500000000000000000000000000000000F500000000F500000000F500F5000000F50000000000F5000000002800000000F5000000000000F50000000000000000000000000000002D2D002D2D2D2D2D2D2D2D002D2D2D2D002D2D2D2D2D2D2D2D2D2D2D2D00000000002D2D2D2D2D2D2D2D2D2D
310
2D002D2D2D2D002D2D2D2D2D2D2D2D2D2D2D2D2D00000000000000000000000000000000000000000000000000000000000000000000000000000000000000000000000000000000000000000000000000000000000000000000000000000000000000000000000000000000000000000000000000F5000000000000000000
310
00F5F500000000280000000000F500000000000000000000000000000000F500000000F500000000F500F5000000F50000000000F5000000002800000000F5000000000000F50000000000000000000000000000002D2D2D2D2D2D2D2D2D2D2D2D2D2D2D2D002D2D2D2D2D2D2D2D2D2D2D0000000000002D2D2D2D2D2D2D2D
310
2D2D2D2D2D2D2D2D002D2D2D2D2D2D2D2D2D2D2D000000000000000000000000000000000000000000000000000000000000000000000000000000000000000000000000000000000000000000000000000000000000000000000000000000000000000000000000000000000000000000000000000000F500000000000000
310
000000F5F5000000002800000000F5F500000000000000000000000000000000F50000000000F5000000F500F5000000F50000000000F5000000002800000000F5000000000000F50000000000000000000000000000002D2D002D2D2D002D2D2D2D2D2D2D2D2D2D2D2D2D2D2D2D2D2D2D2D2D0000000000002D2D2D2D2D2D
310
002D2D2D2D2D2D2D2D2D2D2D2D2D2D2D2D2D2D2D2D2D000000000000000000000000000000000000000000000000000000000000000000000000000000000000000000000000000000000000000000000000000000000000000000000000000000000000000000000000000000000000000000000000000000F50000000000
310
0000000000F5F50000000028000000F5F5F5F5000000000000000000000000000000F5000000000000F5F500F500F5000000F50000000000F5000000002800000000F5000000000000F50000000000000000000000000000002D2D002D2D2D2D2D2D2D2D002D2D2D2D00002D2D2D2D002D2D2D2D2D0000000000002D2D2D2D
310
2D2D2D2D2D2D2D002D2D2D2D002D2D2D2D2D002D2D2D2D2D000000000000000000000000000000000000000000000000000000000000000000000000000000000000000000000000000000000000000000000000000000000000000000000000000000000000000000000000000000000000000000000000000000F5F5F5F5
310
F5F5F5F5F5F5F5F5F5F5F5F5F5F5F5F5F5F5F5F5F5F5F5F5F5F5F5F5F5F5F5F5F5F5F500F50000000000000000F5F500F5000000000000000000F5000000002800000000F5000000000000F5000000000000000000000000000000000000000000000000000000000000000000000000000000000000000000000000000000
310
0000000000000000000000000000000000000000000000000000000000000000000000000000000000000000000000000000000000000000000000000000000000000000000000000000000000000000000000000000000000000000000000000000000000000000000000000000000000000000000000000000000000F500
310
000000000000000000F500F50000002800000000F5F50000000000000000000000000000F500F50000000000000000F5F500F5000000000000000000F5000000002800000000F5000000000000F500000000000000000000000000000000000000000000000000000000000000000000000000000000000000000000000000
310
00000000000000000000000000000000000000000000000000000000000000000000000000000000000000000000000000000000000000000000000000000000000000000000000000000000000000000000000000000000000000000000000000000000000000000000000000000000000000000000000000000000000000
310
F500000000000000000000F500F5000000280000000000000000000000000000000000000000F500F500000000000000F500F500F5F5F5F5F5F5F5F5F5F5F5F5F5F5F528F5F5F5F5F5F5F5F5F5F5F5F50000000000000000000000000000000000000000000000000000000000000000000000000000000000000000000000
310
00000000000000000000000000000000000000000000000000000000000000000000000000000000000000000000000000000000000000000000000000000000000000000000000000000000000000000000000000000000000000000000000000000000000000000000000000000000000000000000000000000000000000
310
0000F500000000000000000000F5F5F5F5F5F528F5F5F5F5F5F5F5F5F5F5F5F5F5F5F5F5F5F5F5F5F5F5F5F5F5F5F500000000F5F500F500F5F500F5F528F500000000000028000000000000F528F5F500F5000000000000000000000000000000000000000000000000000000000000000000000000000000000000000000
310
00000000000000000000000000000000000000000000000000000000000000000000000000000000000000000000000000000000000000000000000000000000000000000000000000000000000000000000000000000000000000000000000000000000000000000000000000000000000000000000000000000000000000
310
0000000000F5F5F5F5F5F5F5F5F5F5F50000000000000000000000000000000000000000000000000000F5000000000000F5F5F5F5F5F500F5F5F5F50000F528F5F50000000000280000000000F5F528F50000F50000000000000000000000000000002D2D2D2D2D2D2D2D2D2D2D2D2D2D2D2D2D2D2D2D2D2D2D2D2D2D2D2D
310
2D2D2D0000002D2D2D2D2D2D2D2D2D2D2D2D2D2D2D2D2D2D2D2D2D2D2D2D2D2D2D2D2D2D2D000000000000000000000000000000000000000000000000000000000000000000000000000000000000000000000000000000000000000000000000000000000000000000000000000000000000000000000000000000000000
310
00000000000000000000000000000000000000000000000000000000000000000000000000000000000000000000000000000000000000F5F500F5F5F500F52828282828F5000000002800000000F52828282828F5000000000000000000000000000000002D2D2D2D2D2D002D2D2D2D00002D2D2D2D2D2D2D2D2D2D002D2D
310
2D2D2D2D2D0000002D2D2D2D2D2D002D2D2D2D00002D2D2D2D2D2D2D2D2D2D002D2D2D2D2D2D2D2D000000000000000000000000000000000000000000000000000000000000000000000000000000000000000000000000000000000000000000000000000000000000000000000000000000000000000000000000000000
310
00000000000000000000000000000000000000000000000000000000000000000000000000000000000000000000000000000000000000000000F5F5F5F5F500F500002800F5F5F5F5F5F528F5F5F5F5F5F500280000F5000000000000000000000000000000002D2D2D2D2D2D002D2D2D2D2D002D2D2D2D00002D2D2D2D00
310
002D2D2D2D00000000002D2D2D2D2D2D002D2D2D2D2D002D2D002D00002D2D2D00002D2D2D2D2D00000000000000000000000000000000000000000000000000000000000000000000000000000000000000000000000000000000000000000000000000000000000000000000000000000000000000000000000000000000
310
000000000000000000000000000000000000000000000000000000000000000000000000000000000000000000000000000000000000000000000000F500F500F500F500002800000000F500002800F5F500000000280000F5000000000000000000000000000000002D2D2D2D2D2D2D2D2D2D2D2D2D2D2D2D2D2D2D2D2D2D
310
2D2D2D2D2D2D2D00000000002D2D2D2D2D2D2D2D2D2D2D2D2D2D2D2D2D2D2D2D2D2D2D2D2D2D2D2D2D0000000000000000000000000000000000000000000000000000000000000000000000000000000000000000000000000000000000000000000000000000000000000000000000000000000000000000000000000000
310
000000000000000000000000000000000000000000000000000000000000000000000000000000000000000000000000000000000000000000000000000000F5F5F5000000F5F5F5F5F5F5F5F500002800F5F5F5F5F5F5F5F5F500000000000000000000000000000000002D2D2D2D2D2D002D2D2D2D00002D2D2D2D00002D
310
2D2D2D002D2D2D2D2D2D000000002D2D2D2D2D2D002D2D2D2D00002D2D2D2D00002D2D2D2D002D2D2D2D2D2D0000000000000000000000000000000000000000000000000000000000000000000000000000000000000000000000000000000000000000000000000000000000000000000000000000000000000000000000
310
000000000000000000000000000000000000000000000000000000000000000000000000000000000000000000000000000000000000000000000000000000000000000000000000000000000000F500002800F5F50000000000000000000000000000000000000000000000002D2D2D2D2D2D002D2D2D2D2D002D2D2D2D00
310
002D2D2D2D00002D2D2D2D2D2D0000002D2D2D2D2D2D002D2D2D2D2D002D2D2D2D00002D2D2D2D002D2D2D2D2D2D2D0000000000000000000000000000000000000000000000000000000000000000000000000000000000000000000000000000000000000000000000000000000000000000000000000000000000000000
310
0000000000000000000000000000000000000000000000000000000000000000000000000000000000000000000000000000000000000000000000000000000000000000000000000000000000000000F500002800F5F50000000000000000000000000000000000000000000000002D2D2D2D2D2D2D2D2D2D2D2D2D2D2D2D
310
2D2D2D2D2D2D2D2D2D2D2D2D2D2D2D0000002D2D2D2D2D2D2D2D2D2D2D2D2D2D2D2D2D2D2D2D2D2D2D2D2D2D2D2D2D2D2D000000000000000000000000000000000000000000000000000000000000000000000000000000000000000000000000000000000000000000000000000000000000000000000000000000000000
310
00000000000000000000000000000000000000000000000000000000000000000000000000000000000000000000000000000000000000000000000000000000000000000000000000000000000000000000F500002800F5F50000000000000000000000000000000000000000000000002D2D2D2D2D2D002D2D2D2D00002D
310
2D2D2D00002D2D2D2D002D2D2D2D2D2D2D0000002D2D2D2D2D2D002D2D2D2D00002D2D2D2D00002D2D2D2D002D2D2D2D2D2D2D2D000000000000000000000000000000000000000000000000000000000000000000000000000000000000000000000000000000000000000000000000000000000000000000000000000000
310
000000000000000000000000000000000000000000000000000000000000000000000000000000000000000000000000000000000000000000000000000000000000000000000000000000000000000000000000F500002800F5F50000000000000000000000000000000000000000000000002D2D2D2D2D2D002D2D2D2D2D
310
002D2D2D2D2D002D2D2D2D00002D2D2D2D00000000002D2D2D2D2D2D002D2D2D2D2D002D2D2D2D2D002D2D2D2D002D2D2D2D2D00000000000000000000000000000000000000000000000000000000000000000000000000000000000000000000000000000000000000000000000000000000000000000000000000000000
310
0000000000000000000000000000000000000000000000000000000000000000000000000000000000000000000000000000000000000000000000000000000000000000000000000000000000000000000000000000F500002800F5F50000000000000000000000000000000000000000000000002D2D2D2D2D2D2D2D2D2D
310
2D2D2D2D2D2D2D2D2D2D2D2D2D2D2D2D2D2D2D00000000002D2D2D2D2D2D2D2D2D2D2D2D2D2D2D2D2D2D2D2D2D2D2D2D2D2D2D2D2D0000000000000000000000000000000000000000000000000000000000000000000000000000000000000000000000000000000000000000000000000000000000000000000000000000
310
00000000000000000000000000000000000000000000000000000000000000000000000000000000000000000000000000000000000000000000000000000000000000000000000000000000000000000000000000000000F500002800F5F50000000000000000000000000000000000000000000000002D2D2D2D2D2D002D
310
2D2D2D00002D2D2D2D00002D2D2D2D002D2D2D2D2D2D000000002D2D2D2D2D2D002D2D2D2D00002D2D2D2D00002D2D2D2D002D2D2D2D2D2D0000000000000000000000000000000000000000000000000000000000000000000000000000000000000000000000000000000000000000000000000000000000000000000000
310
000000000000000000000000000000000000000000000000000000000000000000000000000000000000000000000000000000000000000000000000000000000000000000000000000000000000000000000000000000000000F5F5F528F5F5F50000000000000000000000000000000000000000000000002D2D2D2D2D2D
310
2D2D2D2D2D2D2D2D2D2D2D2D2D2D2D2D2D2D2D2D2D2D2D2D2D0000002D2D2D2D2D2D2D2D2D2D2D2D2D2D2D2D2D2D2D2D2D2D2D2D2D2D2D2D2D2D2D0000000000000000000000000000000000000000000000000000000000000000000000000000000000000000000000000000000000000000000000000000000000000000
310
0000000000000000000000000000000000000000000000000000000000000000000000000000000000000000000000000000000000000000000000000000000000000000000000000000000000000000000000000000000000000000000000280000000000000000000000000000000000000000000000000000002D2D2D2D
310
2D2D002D2D2D2D00002D2D2D2D2D2D2D2D2D2D002D2D2D2D2D2D2D0000002D2D2D2D2D2D002D2D2D2D00002D2D2D2D2D2D2D2D2D2D002D2D2D2D2D2D2D2D0000000000000000000000000000000000000000000000000000000000000000000000000000000000000000000000000000000000000000000000000000000000
310
00000000000000000000000000000000000000000000000000000000000000000000000000000000000000000000000000000000000000000000000000000000000000000000000000000000000000000000000000000000000000000000000000280000000000000000000000000000000000000000000000000000002D2D
310
2D2D2D2D002D2D2D2D2D002D2D2D2D00002D2D2D2D00002D2D2D2D00000000002D2D2D2D2D2D002D2D2D2D2D002D2D002D00002D2D2D00002D2D2D2D2D000000000000000000000000000000000000000000000000000000000000000000000000000000000000000000000000000000000000000000000000000000000000
310
00000000000000000000000000000000000000000000000000000000000000000000000000000000000000000000000000000000000000000000000000000000000000000000000000000000000000000000000000000000000000000000000000000000000000000000000000000000000000000000000000000000000000
310
2D2D2D2D2D2D2D2D2D2D2D2D2D2D2D2D2D2D2D2D2D2D2D2D2D2D2D2D2D00000000002D2D2D2D2D2D2D2D2D2D2D2D2D2D2D2D2D2D2D2D2D2D2D2D2D2D2D2D2D00000000000000000000000000000000000000000000000000000000000000000000000000000000000000000000000000000000000000000000000000000000
310
00000000000000000000000000000000000000000000000000000000000000000000000000000000000000000000000000000000000000000000000000000000000000000000000000000000000000000000000000000000000000000000000000000000000000000000000000000000000000000000000000000000000000
310
00002D2D2D2D2D2D002D2D2D2D00002D2D2D2D002D2D2D2D2D002D2D2D2D2D2D000000002D2D2D2D2D2D002D2D2D2D00002D2D2D2D002D2D2D2D2D002D2D2D2D2D2D00000000000000000000000000000000000000000000000000000000000000000000000000000000000000000000000000000000000000000000000000
310
00000000000000000000000000000000000000000000000000000000000000000000000000000000000000000000000000000000000000000000000000000000000000000000000000000000000000000000000000000000000000000000000000000000000000000000000000000000000000000000000000000000000000
310
000000002D2D2D2D2D2D002D2D2D2D2D002D2D2D2D00002D2D2D2D2D00002D2D2D2D2D2D00002D2D2D2D2D2D002D2D2D2D2D002D2D2D2D00002D2D2D2D2D002D2D2D2D2D2D2D000000000000000000000000000000000000000000000000000000000000000000000000000000000000000000000000000000000000000000
310
00000000000000000000000000000000000000000000000000000000000000000000000000000000000000000000000000000000000000000000000000000000000000000000000000000000000000000000000000000000000000000000000000000000000000000000000000000000000000000000000000000000000000
310
0000000000002D2D2D2D2D2D2D2D2D2D2D2D2D2D2D2D2D2D2D2D2D2D2D2D2D2D2D2D2D2D2D2D00002D2D2D2D2D2D2D2D2D2D2D2D2D2D2D2D2D2D2D2D2D2D2D2D2D2D2D2D2D2D2D2D00000000000000000000000000000000000000000000000000000000000000000000000000000000000000000000000000000000000000
310
00000000000000000000000000000000000000000000000000000000000000000000000000000000000000000000000000000000000000000000000000000000000000000000000000000000000000000000000000000000000000000000000000000000000000000000000000000000000000000000000000000000000000
310
00000000000000002D2D2D2D2D2D002D2D2D2D00002D2D2D2D002D2D2D2D2D2D002D2D2D2D2D2D2D00002D2D2D2D2D2D002D2D2D2D00002D2D2D2D002D2D2D2D2D2D002D2D2D2D2D2D2D0000000000000000000000000000000000000000000000000000000000000000000000000000000000000000000000000000000000
310
00000000000000000000000000000000000000000000000000000000000000000000000000000000000000000000000000000000000000000000000000000000000000000000000000000000000000000000000000000000000000000000000000000000000000000000000000000000000000000000000000000000000000
310
000000000000000000002D2D2D2D2D2D002D2D2D2D2D002D2D2D2D2D002D2D2D2D2D00002D2D2D2D000000002D2D2D2D2D2D002D2D2D2D2D002D2D2D2D2D002D2D2D2D2D002D2D2D2D2D0000000000000000000000000000000000000000000000000000000000000000000000000000000000000000000000000000000000
310
00000000000000000000000000000000000000000000000000000000000000000000000000000000000000000000000000000000000000000000000000000000000000000000000000000000000000000000000000000000000000000000000000000000000000000000000000000000000000000000000000000000000000
310
0000000000000000000000002D2D2D2D2D2D2D2D2D2D2D2D2D2D2D2D2D2D2D2D2D2D2D2D2D2D2D2D2D2D000000002D2D2D2D2D2D2D2D2D2D2D2D2D2D2D2D2D2D2D2D2D2D2D2D2D2D2D2D2D2D000000000000000000000000000000000000000000000000000000000000000000000000000000000000000000000000000000
310
00000000000000000000000000000000000000000000000000000000000000000000000000000000000000000000000000000000000000000000000000000000000000000000000000000000000000000000000000000000000000000000000000000000000000000000000000000000000000000000000000000000000000
310
00000000000000000000000000002D2D2D2D2D2D002D2D2D2D00002D2D2D2D00002D2D2D2D2D002D2D2D2D2D2D0000002D2D2D2D2D2D002D2D2D2D00002D2D2D2D00002D2D2D2D2D002D2D2D2D2D2D000000000000000000000000000000000000000000000000000000000000000000000000000000000000000000000000
310
00000000000000000000000000000000000000000000000000000000000000000000000000000000000000000000000000000000000000000000000000000000000000000000000000000000000000000000000000000000000000000000000000000000000000000000000000000000000000000000000000000000000000
310
00000000000000000000000000000000000000000000000000000000000000000000000000000000000000000000000000000000000000000000000000000000000000000000000000000000000000000000000000000000000000000000000000000000000000000000000000000000000000000000000000000000000000
310
00000000000000000000000000000000000000000000000000000000000000000000000000000000000000000000000000000000000000000000000000000000000000000000000000000000000000000000000000000000000000000000000000000000000000000000000000000000000000000000000000000000000000
310
00000000000000000000000000000000000000000000000000000000000000000000000000000000000000000000000000000000000000000000000000000000000000000000000000000000000000000000000000000000000000000000000000000000000000000000000000000000000000000000000000000000000000
310
00000000000000000000000000000000000000000000000000000000000000000000000000000000000000000000000000000000000000000000000000000000000000000000000000000000000000000000000000000000000000000000000000000000000000000000000000000000000000000000000000000000000000
310
00000000000000000000000000000000000000000000000000000000000000000000000000000000000000000000000000000000000000000000000000000000000000000000000000000000000000000000000000000000000000000000000000000000000000000000000000000000000000000000000000000000000000
310
00000000000000000000000000000000000000000000000000000000000000000000000000000000000000000000000000000000000000000000000000000000000000000000000000000000000000000000000000000000000000000000000000000000000000000000000000000000000000000000000000000000000000
310
00000000000000000000000000000000000000000000000000000000000000000000000000000000000000000000000000000000000000000000000000000000000000000000000000000000000000000000000000000000000000000000000000000000000000000000000000000000000000000000000000000000000000
310
00000000000000000000000000000000000000000000000000000000000000000000000000000000000000000000000000000000000000000000000000000000000000000000000000000000000000000000000000000000000000000000000000000000000000000000000000000000000000000000000000000000000000
310
00000000000000000000000000000000000000000000000000000000000000000000000000000000000000000000000000000000000000000000000000000000000000000000000000000000000000000000000000000000000000000000000000000000000000000000000000000000000000000000000000000000000000
310
00000000000000000000000000000000000000000000000000000000000000000000000000000000000000000000000000000000000000000000000000000000000000000000000000000000000000000000000000000000000000000000000000000000000000000000000000000000000000000000000000000000000000
310
00000000000000000000000000000000000000000000000000000000000000000000000000000000000000000000000000000000000000000000000000000000000000000000000000000000000000000000000000000000000000000000000000000000000000000000000000000000000000000000000000000000000000
310
00000000000000000000000000000000000000000000000000000000000000000000000000000000000000000000000000000000000000000000000000000000000000000000000000000000000000000000000000000000000000000000000000000000000000000000000000000000000000000000000000000000000000
310
00000000000000000000000000000000000000000000000000000000000000000000000000000000000000000000000000000000000000000000000000000000000000000000000000000000000000000000000000000000000000000000000000000000000000000000000000000000000000000000000000000000000000
310
00000000000000000000000000000000000000000000000000000000000000000000000000000000000000000000000000000000000000000000000000000000000000000000000000000000000000000000000000000000000000000000000000000000000000000000000000000000000000000000000000000000000000
310
00000000000000000000000000000000000000000000000000000000000000000000000000000000000000000000000000000000000000000000000000000000000000000000000000000000000000000000000000000000000000000000000000000000000000000000000000000000000000000000000000000000000000
310
00000000000000000000000000000000000000000000000000000000000000000000000000000000000000000000000000000000000000000000000000000000000000000000000000000000000000000000000000000000000000000000000000000000000000000000000000000000000000000000000000000000000000
310
00000000000000000000000000000000000000000000000000000000000000000000000000000000000000000000000000000000000000000000000000000000000000000000000000000000000000000000000000000000000000000000000000000000000000000000000000000000000000000000000000000000000000
310
00000000000000000000000000000000000000000000000000000000000000000000000000000000000000000000000000000000000000000000
  0
XRECORD
  5
3D94
102
{ACAD_REACTORS
330
3D93
102
}
330
3D93
100
AcDbXrecord
280
     1
102
SHADEPLOT
 70
     0
102
SHADEPLOTRESLEVEL
 70
     2
102
SHADEPLOTCUSTOMDPI
 70
   300
  0
XRECORD
  5
3D28
102
{ACAD_REACTORS
330
2297
102
}
330
2297
100
AcDbXrecord
280
     1
102
MATERIAL
148
0.0
149
0.0
149
0.0
 93
        0
 94
      127
282
     0
 72
     0
 77
     0
171
     0
175
     0
179
     0
273
     0
  0
XRECORD
  5
2299
102
{ACAD_REACTORS
330
2297
102
}
330
2297
100
AcDbXrecord
280
     1
270
     1
271
     1
  0
XRECORD
  5
2298
102
{ACAD_REACTORS
330
2297
102
}
330
2297
100
AcDbXrecord
280
     1
270
     1
271
     1
  0
XRECORD
  5
229C
102
{ACAD_REACTORS
330
2297
102
}
330
2297
100
AcDbXrecord
280
     1
270
     1
271
     1
  0
XRECORD
  5
229B
102
{ACAD_REACTORS
330
2297
102
}
330
2297
100
AcDbXrecord
280
     1
270
     1
271
     1
  0
XRECORD
  5
229D
102
{ACAD_REACTORS
330
2297
102
}
330
2297
100
AcDbXrecord
280
     1
270
     1
271
     1
  0
XRECORD
  5
229A
102
{ACAD_REACTORS
330
2297
102
}
330
2297
100
AcDbXrecord
280
     1
270
     1
271
     1
  0
XRECORD
  5
3D27
102
{ACAD_REACTORS
330
228F
102
}
330
228F
100
AcDbXrecord
280
     1
102
MATERIAL
148
0.0
149
0.0
149
0.0
 93
        0
 94
      127
282
     0
 72
     0
 77
     0
171
     0
175
     0
179
     0
273
     0
  0
XRECORD
  5
2291
102
{ACAD_REACTORS
330
228F
102
}
330
228F
100
AcDbXrecord
280
     1
270
     1
271
     1
  0
XRECORD
  5
2290
102
{ACAD_REACTORS
330
228F
102
}
330
228F
100
AcDbXrecord
280
     1
270
     1
271
     1
  0
XRECORD
  5
2294
102
{ACAD_REACTORS
330
228F
102
}
330
228F
100
AcDbXrecord
280
     1
270
     1
271
     1
  0
XRECORD
  5
2293
102
{ACAD_REACTORS
330
228F
102
}
330
228F
100
AcDbXrecord
280
     1
270
     1
271
     1
  0
XRECORD
  5
2295
102
{ACAD_REACTORS
330
228F
102
}
330
228F
100
AcDbXrecord
280
     1
270
     1
271
     1
  0
XRECORD
  5
2292
102
{ACAD_REACTORS
330
228F
102
}
330
228F
100
AcDbXrecord
280
     1
270
     1
271
     1
  0
XRECORD
  5
3D29
102
{ACAD_REACTORS
330
229F
102
}
330
229F
100
AcDbXrecord
280
     1
102
MATERIAL
148
0.0
149
0.0
149
0.0
 93
        0
 94
      127
282
     0
 72
     0
 77
     0
171
     0
175
     0
179
     0
273
     0
  0
XRECORD
  5
22A1
102
{ACAD_REACTORS
330
229F
102
}
330
229F
100
AcDbXrecord
280
     1
270
     1
271
     1
  0
XRECORD
  5
22A0
102
{ACAD_REACTORS
330
229F
102
}
330
229F
100
AcDbXrecord
280
     1
270
     1
271
     1
  0
XRECORD
  5
22A4
102
{ACAD_REACTORS
330
229F
102
}
330
229F
100
AcDbXrecord
280
     1
270
     1
271
     1
  0
XRECORD
  5
22A3
102
{ACAD_REACTORS
330
229F
102
}
330
229F
100
AcDbXrecord
280
     1
270
     1
271
     1
  0
XRECORD
  5
22A5
102
{ACAD_REACTORS
330
229F
102
}
330
229F
100
AcDbXrecord
280
     1
270
     1
271
     1
  0
XRECORD
  5
22A2
102
{ACAD_REACTORS
330
229F
102
}
330
229F
100
AcDbXrecord
280
     1
270
     1
271
     1
  0
XRECORD
  5
3D80
102
{ACAD_REACTORS
330
3D7F
102
}
330
3D7F
100
AcDbXrecord
280
     1
102
DISPLAYNAME
  1
Imperial24
102
FLAGS
 90
        0
  0
CELLSTYLEMAP
  5
3D23
102
{ACAD_REACTORS
330
2673
102
}
330
2673
100
AcDbCellStyleMap
 90
        3
300
CELLSTYLE
  1
TABLEFORMAT_BEGIN
 90
        5
170
     1
 91
        0
 92
    32768
 62
   257
 93
        1
300
CONTENTFORMAT
  1
CONTENTFORMAT_BEGIN
 90
        0
 91
        0
 92
      512
 93
        0
300

 40
0.0
140
1.0
 94
        5
 62
     0
340
16
144
0.25
309
CONTENTFORMAT_END
171
     1
301
MARGIN
  1
CELLMARGIN_BEGIN
 40
0.06
 40
0.06
 40
0.06
 40
0.06
 40
0.18
 40
0.18
309
CELLMARGIN_END
 94
        6
 95
        1
302
GRIDFORMAT
  1
GRIDFORMAT_BEGIN
 90
        0
 91
        1
 62
     0
 92
       -2
340
0
 93
        0
 40
0.045
309
GRIDFORMAT_END
 95
        2
302
GRIDFORMAT
  1
GRIDFORMAT_BEGIN
 90
        0
 91
        1
 62
     0
 92
       -2
340
0
 93
        0
 40
0.045
309
GRIDFORMAT_END
 95
        4
302
GRIDFORMAT
  1
GRIDFORMAT_BEGIN
 90
        0
 91
        1
 62
     0
 92
       -2
340
0
 93
        0
 40
0.045
309
GRIDFORMAT_END
 95
        8
302
GRIDFORMAT
  1
GRIDFORMAT_BEGIN
 90
        0
 91
        1
 62
     0
 92
       -2
340
0
 93
        0
 40
0.045
309
GRIDFORMAT_END
 95
       16
302
GRIDFORMAT
  1
GRIDFORMAT_BEGIN
 90
        0
 91
        1
 62
     0
 92
       -2
340
0
 93
        0
 40
0.045
309
GRIDFORMAT_END
 95
       32
302
GRIDFORMAT
  1
GRIDFORMAT_BEGIN
 90
        0
 91
        1
 62
     0
 92
       -2
340
0
 93
        0
 40
0.045
309
GRIDFORMAT_END
309
TABLEFORMAT_END
  1
CELLSTYLE_BEGIN
 90
        1
 91
        1
300
_TITLE
309
CELLSTYLE_END
300
CELLSTYLE
  1
TABLEFORMAT_BEGIN
 90
        5
170
     1
 91
        0
 92
        0
 62
   257
 93
        1
300
CONTENTFORMAT
  1
CONTENTFORMAT_BEGIN
 90
        0
 91
        0
 92
      512
 93
        0
300

 40
0.0
140
1.0
 94
        5
 62
     0
340
16
144
0.18
309
CONTENTFORMAT_END
171
     1
301
MARGIN
  1
CELLMARGIN_BEGIN
 40
0.06
 40
0.06
 40
0.06
 40
0.06
 40
0.18
 40
0.18
309
CELLMARGIN_END
 94
        6
 95
        1
302
GRIDFORMAT
  1
GRIDFORMAT_BEGIN
 90
        0
 91
        1
 62
     0
 92
       -2
340
0
 93
        0
 40
0.045
309
GRIDFORMAT_END
 95
        2
302
GRIDFORMAT
  1
GRIDFORMAT_BEGIN
 90
        0
 91
        1
 62
     0
 92
       -2
340
0
 93
        0
 40
0.045
309
GRIDFORMAT_END
 95
        4
302
GRIDFORMAT
  1
GRIDFORMAT_BEGIN
 90
        0
 91
        1
 62
     0
 92
       -2
340
0
 93
        0
 40
0.045
309
GRIDFORMAT_END
 95
        8
302
GRIDFORMAT
  1
GRIDFORMAT_BEGIN
 90
        0
 91
        1
 62
     0
 92
       -2
340
0
 93
        0
 40
0.045
309
GRIDFORMAT_END
 95
       16
302
GRIDFORMAT
  1
GRIDFORMAT_BEGIN
 90
        0
 91
        1
 62
     0
 92
       -2
340
0
 93
        0
 40
0.045
309
GRIDFORMAT_END
 95
       32
302
GRIDFORMAT
  1
GRIDFORMAT_BEGIN
 90
        0
 91
        1
 62
     0
 92
       -2
340
0
 93
        0
 40
0.045
309
GRIDFORMAT_END
309
TABLEFORMAT_END
  1
CELLSTYLE_BEGIN
 90
        2
 91
        1
300
_HEADER
309
CELLSTYLE_END
300
CELLSTYLE
  1
TABLEFORMAT_BEGIN
 90
        5
170
     1
 91
        0
 92
        0
 62
   257
 93
        1
300
CONTENTFORMAT
  1
CONTENTFORMAT_BEGIN
 90
        0
 91
        0
 92
      512
 93
        0
300

 40
0.0
140
1.0
 94
        2
 62
     0
340
16
144
0.18
309
CONTENTFORMAT_END
171
     1
301
MARGIN
  1
CELLMARGIN_BEGIN
 40
0.06
 40
0.06
 40
0.06
 40
0.06
 40
0.18
 40
0.18
309
CELLMARGIN_END
 94
        6
 95
        1
302
GRIDFORMAT
  1
GRIDFORMAT_BEGIN
 90
        0
 91
        1
 62
     0
 92
       -2
340
0
 93
        0
 40
0.045
309
GRIDFORMAT_END
 95
        2
302
GRIDFORMAT
  1
GRIDFORMAT_BEGIN
 90
        0
 91
        1
 62
     0
 92
       -2
340
0
 93
        0
 40
0.045
309
GRIDFORMAT_END
 95
        4
302
GRIDFORMAT
  1
GRIDFORMAT_BEGIN
 90
        0
 91
        1
 62
     0
 92
       -2
340
0
 93
        0
 40
0.045
309
GRIDFORMAT_END
 95
        8
302
GRIDFORMAT
  1
GRIDFORMAT_BEGIN
 90
        0
 91
        1
 62
     0
 92
       -2
340
0
 93
        0
 40
0.045
309
GRIDFORMAT_END
 95
       16
302
GRIDFORMAT
  1
GRIDFORMAT_BEGIN
 90
        0
 91
        1
 62
     0
 92
       -2
340
0
 93
        0
 40
0.045
309
GRIDFORMAT_END
 95
       32
302
GRIDFORMAT
  1
GRIDFORMAT_BEGIN
 90
        0
 91
        1
 62
     0
 92
       -2
340
0
 93
        0
 40
0.045
309
GRIDFORMAT_END
309
TABLEFORMAT_END
  1
CELLSTYLE_BEGIN
 90
        3
 91
        2
300
_DATA
309
CELLSTYLE_END
  0
XRECORD
  5
3D50
102
{ACAD_REACTORS
330
2673
102
}
330
2673
100
AcDbXrecord
280
     1
102
ACAD_ROUNDTRIP_PRE2007_TABLESTYLE
 90
      512
 91
        0
  1

 92
      512
 93
        0
  2

 94
      512
 95
        0
  3

  0
XRECORD
  5
3D35
102
{ACAD_REACTORS
330
3D34
102
}
330
3D34
100
AcDbXrecord
280
     1
102
RTVSPost2010Prop28
280
     1
102
RTVSPost2010PropOp28
 70
     1
102
RTVSPost2010Prop29
280
     1
102
RTVSPost2010PropOp29
 70
     1
102
RTVSPost2010Prop30
280
     0
102
RTVSPost2010PropOp30
 70
     1
102
RTVSPost2010Prop31
280
     0
102
RTVSPost2010PropOp31
 70
     1
102
RTVSPost2010Prop32
280
     0
102
RTVSPost2010PropOp32
 70
     1
102
RTVSPost2010Prop33
280
     0
102
RTVSPost2010PropOp33
 70
     1
102
RTVSPost2010Prop34
280
     0
102
RTVSPost2010PropOp34
 70
     1
102
RTVSPost2010Prop35
280
     0
102
RTVSPost2010PropOp35
 70
     1
102
RTVSPost2010Prop36
280
     0
102
RTVSPost2010PropOp36
 70
     1
102
RTVSPost2010Prop37
 90
       50
102
RTVSPost2010PropOp37
 70
     1
102
RTVSPost2010Prop38
140
0.0
102
RTVSPost2010PropOp38
 70
     1
102
RTVSPost2010Prop39
140
1.0
102
RTVSPost2010PropOp39
 70
     1
102
RTVSPost2010Prop40
 90
        0
102
RTVSPost2010PropOp40
 70
     1
102
RTVSPost2010Prop41ColorIndex
 90
       18
102
RTVSPost2010Prop41ColorRGB
 90
        0
102
RTVSPost2010PropOp41
 70
     1
102
RTVSPost2010Prop42
 90
       50
102
RTVSPost2010PropOp42
 70
     1
102
RTVSPost2010Prop43
 90
        3
102
RTVSPost2010PropOp43
 70
     1
102
RTVSPost2010Prop44ColorIndex
 90
        5
102
RTVSPost2010Prop44ColorRGB
 90
      255
102
RTVSPost2010PropOp44
 70
     1
102
RTVSPost2010Prop45
280
     0
102
RTVSPost2010PropOp45
 70
     1
102
RTVSPost2010Prop46
 90
       50
102
RTVSPost2010PropOp46
 70
     1
102
RTVSPost2010Prop47
 90
       50
102
RTVSPost2010PropOp47
 70
     1
102
RTVSPost2010Prop48
 90
       50
102
RTVSPost2010PropOp48
 70
     1
102
RTVSPost2010Prop49
280
     0
102
RTVSPost2010PropOp49
 70
     1
102
RTVSPost2010Prop50
 90
       50
102
RTVSPost2010PropOp50
 70
     1
102
RTVSPost2010Prop51ColorIndex
 90
      256
102
RTVSPost2010Prop51ColorRGB
 90
-16777216
102
RTVSPost2010PropOp51
 70
     0
102
RTVSPost2010Prop52
140
1.0
102
RTVSPost2010PropOp52
 70
     0
102
RTVSPost2010Prop53
 90
        2
102
RTVSPost2010PropOp53
 70
     1
102
RTVSPost2010Prop54
  1
strokes_ogs.tif
102
RTVSPost2010PropOp54
 70
     1
102
RTVSPost2010Prop55
280
     0
102
RTVSPost2010PropOp55
 70
     1
102
RTVSPost2010Prop56
140
1.0
102
RTVSPost2010PropOp56
 70
     1
102
RTVSPost2010Prop57
140
1.0
102
RTVSPost2010PropOp57
 70
     1
102
RTVSPropertyOp0
 70
     1
102
RTVSPropertyOp1
 70
     1
102
RTVSPropertyOp2
 70
     1
102
RTVSPropertyOp3
 70
     1
102
RTVSPropertyOp4
 70
     1
102
RTVSPropertyOp5
 70
     1
102
RTVSPropertyOp6
 70
     1
102
RTVSPropertyOp7
 70
     1
102
RTVSPropertyOp8
 70
     1
102
RTVSPropertyOp9
 70
     1
102
RTVSPropertyOp10
 70
     1
102
RTVSPropertyOp11
 70
     1
102
RTVSPropertyOp12
 70
     1
102
RTVSPropertyOp13
 70
     1
102
RTVSPropertyOp14
 70
     1
102
RTVSPropertyOp15
 70
     1
102
RTVSPropertyOp16
 70
     1
102
RTVSPropertyOp17
 70
     1
102
RTVSPropertyOp18
 70
     1
102
RTVSPropertyOp19
 70
     1
102
RTVSPropertyOp20
 70
     1
102
RTVSPropertyOp21
 70
     1
102
RTVSPropertyOp22
 70
     1
102
RTVSPropertyOp23
 70
     1
102
RTVSPropertyOp24
 70
     1
102
RTVSPropertyOp25
 70
     1
102
RTVSPropertyOp26
 70
     1
102
RTVSPropertyOp27
 70
     1
102
RTVSPropertyOp28
 70
     1
102
RTVSPropertyOp29
 70
     1
102
RTVSPropertyOp30
 70
     1
102
RTVSPropertyOp31
 70
     1
102
RTVSPropertyOp32
 70
     1
102
RTVSPropertyOp33
 70
     1
102
RTVSPropertyOp34
 70
     1
102
RTVSPropertyOp35
 70
     1
102
RTVSPropertyOp36
 70
     1
102
RTVSPropertyOp37
 70
     1
102
RTVSPropertyOp38
 70
     1
102
RTVSPropertyOp39
 70
     1
102
RTVSPropertyOp40
 70
     1
102
RTVSPropertyOp41
 70
     1
102
RTVSPropertyOp42
 70
     1
102
RTVSPropertyOp43
 70
     1
102
RTVSPropertyOp44
 70
     1
102
RTVSPropertyOp45
 70
     1
102
RTVSPropertyOp46
 70
     1
102
RTVSPropertyOp47
 70
     1
102
RTVSPropertyOp48
 70
     1
102
RTVSPropertyOp49
 70
     1
102
RTVSPropertyOp50
 70
     1
102
RTVSPropertyOp51
 70
     0
102
RTVSPropertyOp52
 70
     0
102
RTVSPropertyOp53
 70
     1
102
RTVSPropertyOp54
 70
     1
102
RTVSPropertyOp55
 70
     1
102
RTVSPropertyOp56
 70
     1
102
RTVSPropertyOp57
 70
     1
102
RTVSPropertyOp58
 70
     1
102
RTVSPropertyOp59
 70
     1
102
RTVSPropertyOp60
 70
     1
102
RTVSPropertyOp61
 70
     1
102
RTVSPropertyOp62
 70
     1
  0
XRECORD
  5
3D39
102
{ACAD_REACTORS
330
3D38
102
}
330
3D38
100
AcDbXrecord
280
     1
102
RTVSPost2010Prop28
280
     0
102
RTVSPost2010PropOp28
 70
     1
102
RTVSPost2010Prop29
280
     1
102
RTVSPost2010PropOp29
 70
     1
102
RTVSPost2010Prop30
280
     1
102
RTVSPost2010PropOp30
 70
     1
102
RTVSPost2010Prop31
280
     0
102
RTVSPost2010PropOp31
 70
     1
102
RTVSPost2010Prop32
280
     0
102
RTVSPost2010PropOp32
 70
     1
102
RTVSPost2010Prop33
280
     0
102
RTVSPost2010PropOp33
 70
     1
102
RTVSPost2010Prop34
280
     0
102
RTVSPost2010PropOp34
 70
     1
102
RTVSPost2010Prop35
280
     0
102
RTVSPost2010PropOp35
 70
     1
102
RTVSPost2010Prop36
280
     0
102
RTVSPost2010PropOp36
 70
     1
102
RTVSPost2010Prop37
 90
       50
102
RTVSPost2010PropOp37
 70
     1
102
RTVSPost2010Prop38
140
0.0
102
RTVSPost2010PropOp38
 70
     1
102
RTVSPost2010Prop39
140
1.0
102
RTVSPost2010PropOp39
 70
     1
102
RTVSPost2010Prop40
 90
        0
102
RTVSPost2010PropOp40
 70
     1
102
RTVSPost2010Prop41ColorIndex
 90
       18
102
RTVSPost2010Prop41ColorRGB
 90
        0
102
RTVSPost2010PropOp41
 70
     1
102
RTVSPost2010Prop42
 90
       50
102
RTVSPost2010PropOp42
 70
     1
102
RTVSPost2010Prop43
 90
        3
102
RTVSPost2010PropOp43
 70
     1
102
RTVSPost2010Prop44ColorIndex
 90
        5
102
RTVSPost2010Prop44ColorRGB
 90
      255
102
RTVSPost2010PropOp44
 70
     1
102
RTVSPost2010Prop45
280
     0
102
RTVSPost2010PropOp45
 70
     1
102
RTVSPost2010Prop46
 90
       50
102
RTVSPost2010PropOp46
 70
     1
102
RTVSPost2010Prop47
 90
       50
102
RTVSPost2010PropOp47
 70
     1
102
RTVSPost2010Prop48
 90
       50
102
RTVSPost2010PropOp48
 70
     1
102
RTVSPost2010Prop49
280
     0
102
RTVSPost2010PropOp49
 70
     1
102
RTVSPost2010Prop50
 90
       50
102
RTVSPost2010PropOp50
 70
     1
102
RTVSPost2010Prop51ColorIndex
 90
      256
102
RTVSPost2010Prop51ColorRGB
 90
-16777216
102
RTVSPost2010PropOp51
 70
     0
102
RTVSPost2010Prop52
140
1.0
102
RTVSPost2010PropOp52
 70
     0
102
RTVSPost2010Prop53
 90
        2
102
RTVSPost2010PropOp53
 70
     1
102
RTVSPost2010Prop54
  1
strokes_ogs.tif
102
RTVSPost2010PropOp54
 70
     1
102
RTVSPost2010Prop55
280
     0
102
RTVSPost2010PropOp55
 70
     1
102
RTVSPost2010Prop56
140
1.0
102
RTVSPost2010PropOp56
 70
     1
102
RTVSPost2010Prop57
140
1.0
102
RTVSPost2010PropOp57
 70
     1
102
RTVSPropertyOp0
 70
     1
102
RTVSPropertyOp1
 70
     1
102
RTVSPropertyOp2
 70
     1
102
RTVSPropertyOp3
 70
     1
102
RTVSPropertyOp4
 70
     1
102
RTVSPropertyOp5
 70
     1
102
RTVSPropertyOp6
 70
     1
102
RTVSPropertyOp7
 70
     1
102
RTVSPropertyOp8
 70
     1
102
RTVSPropertyOp9
 70
     1
102
RTVSPropertyOp10
 70
     1
102
RTVSPropertyOp11
 70
     1
102
RTVSPropertyOp12
 70
     1
102
RTVSPropertyOp13
 70
     1
102
RTVSPropertyOp14
 70
     1
102
RTVSPropertyOp15
 70
     1
102
RTVSPropertyOp16
 70
     1
102
RTVSPropertyOp17
 70
     1
102
RTVSPropertyOp18
 70
     1
102
RTVSPropertyOp19
 70
     1
102
RTVSPropertyOp20
 70
     1
102
RTVSPropertyOp21
 70
     1
102
RTVSPropertyOp22
 70
     1
102
RTVSPropertyOp23
 70
     1
102
RTVSPropertyOp24
 70
     1
102
RTVSPropertyOp25
 70
     1
102
RTVSPropertyOp26
 70
     1
102
RTVSPropertyOp27
 70
     1
102
RTVSPropertyOp28
 70
     1
102
RTVSPropertyOp29
 70
     1
102
RTVSPropertyOp30
 70
     1
102
RTVSPropertyOp31
 70
     1
102
RTVSPropertyOp32
 70
     1
102
RTVSPropertyOp33
 70
     1
102
RTVSPropertyOp34
 70
     1
102
RTVSPropertyOp35
 70
     1
102
RTVSPropertyOp36
 70
     1
102
RTVSPropertyOp37
 70
     1
102
RTVSPropertyOp38
 70
     1
102
RTVSPropertyOp39
 70
     1
102
RTVSPropertyOp40
 70
     1
102
RTVSPropertyOp41
 70
     1
102
RTVSPropertyOp42
 70
     1
102
RTVSPropertyOp43
 70
     1
102
RTVSPropertyOp44
 70
     1
102
RTVSPropertyOp45
 70
     1
102
RTVSPropertyOp46
 70
     1
102
RTVSPropertyOp47
 70
     1
102
RTVSPropertyOp48
 70
     1
102
RTVSPropertyOp49
 70
     1
102
RTVSPropertyOp50
 70
     1
102
RTVSPropertyOp51
 70
     0
102
RTVSPropertyOp52
 70
     0
102
RTVSPropertyOp53
 70
     1
102
RTVSPropertyOp54
 70
     1
102
RTVSPropertyOp55
 70
     1
102
RTVSPropertyOp56
 70
     1
102
RTVSPropertyOp57
 70
     1
102
RTVSPropertyOp58
 70
     1
102
RTVSPropertyOp59
 70
     1
102
RTVSPropertyOp60
 70
     1
102
RTVSPropertyOp61
 70
     1
102
RTVSPropertyOp62
 70
     1
  0
XRECORD
  5
3D37
102
{ACAD_REACTORS
330
3D36
102
}
330
3D36
100
AcDbXrecord
280
     1
102
RTVSPost2010Prop28
280
     0
102
RTVSPost2010PropOp28
 70
     1
102
RTVSPost2010Prop29
280
     1
102
RTVSPost2010PropOp29
 70
     1
102
RTVSPost2010Prop30
280
     1
102
RTVSPost2010PropOp30
 70
     1
102
RTVSPost2010Prop31
280
     0
102
RTVSPost2010PropOp31
 70
     1
102
RTVSPost2010Prop32
280
     0
102
RTVSPost2010PropOp32
 70
     1
102
RTVSPost2010Prop33
280
     0
102
RTVSPost2010PropOp33
 70
     1
102
RTVSPost2010Prop34
280
     0
102
RTVSPost2010PropOp34
 70
     1
102
RTVSPost2010Prop35
280
     0
102
RTVSPost2010PropOp35
 70
     1
102
RTVSPost2010Prop36
280
     0
102
RTVSPost2010PropOp36
 70
     1
102
RTVSPost2010Prop37
 90
       50
102
RTVSPost2010PropOp37
 70
     1
102
RTVSPost2010Prop38
140
0.0
102
RTVSPost2010PropOp38
 70
     1
102
RTVSPost2010Prop39
140
1.0
102
RTVSPost2010PropOp39
 70
     1
102
RTVSPost2010Prop40
 90
        0
102
RTVSPost2010PropOp40
 70
     1
102
RTVSPost2010Prop41ColorIndex
 90
       18
102
RTVSPost2010Prop41ColorRGB
 90
        0
102
RTVSPost2010PropOp41
 70
     1
102
RTVSPost2010Prop42
 90
       50
102
RTVSPost2010PropOp42
 70
     1
102
RTVSPost2010Prop43
 90
        3
102
RTVSPost2010PropOp43
 70
     1
102
RTVSPost2010Prop44ColorIndex
 90
        5
102
RTVSPost2010Prop44ColorRGB
 90
      255
102
RTVSPost2010PropOp44
 70
     1
102
RTVSPost2010Prop45
280
     0
102
RTVSPost2010PropOp45
 70
     1
102
RTVSPost2010Prop46
 90
       50
102
RTVSPost2010PropOp46
 70
     1
102
RTVSPost2010Prop47
 90
       50
102
RTVSPost2010PropOp47
 70
     1
102
RTVSPost2010Prop48
 90
       50
102
RTVSPost2010PropOp48
 70
     1
102
RTVSPost2010Prop49
280
     0
102
RTVSPost2010PropOp49
 70
     1
102
RTVSPost2010Prop50
 90
       50
102
RTVSPost2010PropOp50
 70
     1
102
RTVSPost2010Prop51ColorIndex
 90
      256
102
RTVSPost2010Prop51ColorRGB
 90
-16777216
102
RTVSPost2010PropOp51
 70
     0
102
RTVSPost2010Prop52
140
1.0
102
RTVSPost2010PropOp52
 70
     0
102
RTVSPost2010Prop53
 90
        2
102
RTVSPost2010PropOp53
 70
     1
102
RTVSPost2010Prop54
  1
strokes_ogs.tif
102
RTVSPost2010PropOp54
 70
     1
102
RTVSPost2010Prop55
280
     0
102
RTVSPost2010PropOp55
 70
     1
102
RTVSPost2010Prop56
140
1.0
102
RTVSPost2010PropOp56
 70
     1
102
RTVSPost2010Prop57
140
1.0
102
RTVSPost2010PropOp57
 70
     1
102
RTVSPropertyOp0
 70
     1
102
RTVSPropertyOp1
 70
     1
102
RTVSPropertyOp2
 70
     1
102
RTVSPropertyOp3
 70
     1
102
RTVSPropertyOp4
 70
     1
102
RTVSPropertyOp5
 70
     1
102
RTVSPropertyOp6
 70
     1
102
RTVSPropertyOp7
 70
     1
102
RTVSPropertyOp8
 70
     1
102
RTVSPropertyOp9
 70
     1
102
RTVSPropertyOp10
 70
     1
102
RTVSPropertyOp11
 70
     1
102
RTVSPropertyOp12
 70
     1
102
RTVSPropertyOp13
 70
     1
102
RTVSPropertyOp14
 70
     1
102
RTVSPropertyOp15
 70
     1
102
RTVSPropertyOp16
 70
     1
102
RTVSPropertyOp17
 70
     1
102
RTVSPropertyOp18
 70
     1
102
RTVSPropertyOp19
 70
     1
102
RTVSPropertyOp20
 70
     1
102
RTVSPropertyOp21
 70
     1
102
RTVSPropertyOp22
 70
     1
102
RTVSPropertyOp23
 70
     1
102
RTVSPropertyOp24
 70
     1
102
RTVSPropertyOp25
 70
     1
102
RTVSPropertyOp26
 70
     1
102
RTVSPropertyOp27
 70
     1
102
RTVSPropertyOp28
 70
     1
102
RTVSPropertyOp29
 70
     1
102
RTVSPropertyOp30
 70
     1
102
RTVSPropertyOp31
 70
     1
102
RTVSPropertyOp32
 70
     1
102
RTVSPropertyOp33
 70
     1
102
RTVSPropertyOp34
 70
     1
102
RTVSPropertyOp35
 70
     1
102
RTVSPropertyOp36
 70
     1
102
RTVSPropertyOp37
 70
     1
102
RTVSPropertyOp38
 70
     1
102
RTVSPropertyOp39
 70
     1
102
RTVSPropertyOp40
 70
     1
102
RTVSPropertyOp41
 70
     1
102
RTVSPropertyOp42
 70
     1
102
RTVSPropertyOp43
 70
     1
102
RTVSPropertyOp44
 70
     1
102
RTVSPropertyOp45
 70
     1
102
RTVSPropertyOp46
 70
     1
102
RTVSPropertyOp47
 70
     1
102
RTVSPropertyOp48
 70
     1
102
RTVSPropertyOp49
 70
     1
102
RTVSPropertyOp50
 70
     1
102
RTVSPropertyOp51
 70
     0
102
RTVSPropertyOp52
 70
     0
102
RTVSPropertyOp53
 70
     1
102
RTVSPropertyOp54
 70
     1
102
RTVSPropertyOp55
 70
     1
102
RTVSPropertyOp56
 70
     1
102
RTVSPropertyOp57
 70
     1
102
RTVSPropertyOp58
 70
     1
102
RTVSPropertyOp59
 70
     1
102
RTVSPropertyOp60
 70
     1
102
RTVSPropertyOp61
 70
     1
102
RTVSPropertyOp62
 70
     1
  0
XRECORD
  5
3D33
102
{ACAD_REACTORS
330
3D32
102
}
330
3D32
100
AcDbXrecord
280
     1
102
RTVSPost2010Prop28
280
     0
102
RTVSPost2010PropOp28
 70
     1
102
RTVSPost2010Prop29
280
     1
102
RTVSPost2010PropOp29
 70
     1
102
RTVSPost2010Prop30
280
     1
102
RTVSPost2010PropOp30
 70
     1
102
RTVSPost2010Prop31
280
     0
102
RTVSPost2010PropOp31
 70
     1
102
RTVSPost2010Prop32
280
     0
102
RTVSPost2010PropOp32
 70
     1
102
RTVSPost2010Prop33
280
     0
102
RTVSPost2010PropOp33
 70
     1
102
RTVSPost2010Prop34
280
     0
102
RTVSPost2010PropOp34
 70
     1
102
RTVSPost2010Prop35
280
     0
102
RTVSPost2010PropOp35
 70
     1
102
RTVSPost2010Prop36
280
     0
102
RTVSPost2010PropOp36
 70
     1
102
RTVSPost2010Prop37
 90
       50
102
RTVSPost2010PropOp37
 70
     1
102
RTVSPost2010Prop38
140
0.0
102
RTVSPost2010PropOp38
 70
     1
102
RTVSPost2010Prop39
140
1.0
102
RTVSPost2010PropOp39
 70
     1
102
RTVSPost2010Prop40
 90
        0
102
RTVSPost2010PropOp40
 70
     1
102
RTVSPost2010Prop41ColorIndex
 90
       18
102
RTVSPost2010Prop41ColorRGB
 90
        0
102
RTVSPost2010PropOp41
 70
     1
102
RTVSPost2010Prop42
 90
       50
102
RTVSPost2010PropOp42
 70
     1
102
RTVSPost2010Prop43
 90
        3
102
RTVSPost2010PropOp43
 70
     1
102
RTVSPost2010Prop44ColorIndex
 90
        5
102
RTVSPost2010Prop44ColorRGB
 90
      255
102
RTVSPost2010PropOp44
 70
     1
102
RTVSPost2010Prop45
280
     0
102
RTVSPost2010PropOp45
 70
     1
102
RTVSPost2010Prop46
 90
       50
102
RTVSPost2010PropOp46
 70
     1
102
RTVSPost2010Prop47
 90
       50
102
RTVSPost2010PropOp47
 70
     1
102
RTVSPost2010Prop48
 90
       50
102
RTVSPost2010PropOp48
 70
     1
102
RTVSPost2010Prop49
280
     0
102
RTVSPost2010PropOp49
 70
     1
102
RTVSPost2010Prop50
 90
       50
102
RTVSPost2010PropOp50
 70
     1
102
RTVSPost2010Prop51ColorIndex
 90
      256
102
RTVSPost2010Prop51ColorRGB
 90
-16777216
102
RTVSPost2010PropOp51
 70
     0
102
RTVSPost2010Prop52
140
1.0
102
RTVSPost2010PropOp52
 70
     0
102
RTVSPost2010Prop53
 90
        2
102
RTVSPost2010PropOp53
 70
     1
102
RTVSPost2010Prop54
  1
strokes_ogs.tif
102
RTVSPost2010PropOp54
 70
     1
102
RTVSPost2010Prop55
280
     0
102
RTVSPost2010PropOp55
 70
     1
102
RTVSPost2010Prop56
140
1.0
102
RTVSPost2010PropOp56
 70
     1
102
RTVSPost2010Prop57
140
1.0
102
RTVSPost2010PropOp57
 70
     1
102
RTVSPropertyOp0
 70
     1
102
RTVSPropertyOp1
 70
     1
102
RTVSPropertyOp2
 70
     1
102
RTVSPropertyOp3
 70
     1
102
RTVSPropertyOp4
 70
     1
102
RTVSPropertyOp5
 70
     1
102
RTVSPropertyOp6
 70
     1
102
RTVSPropertyOp7
 70
     1
102
RTVSPropertyOp8
 70
     1
102
RTVSPropertyOp9
 70
     1
102
RTVSPropertyOp10
 70
     1
102
RTVSPropertyOp11
 70
     1
102
RTVSPropertyOp12
 70
     1
102
RTVSPropertyOp13
 70
     1
102
RTVSPropertyOp14
 70
     1
102
RTVSPropertyOp15
 70
     1
102
RTVSPropertyOp16
 70
     1
102
RTVSPropertyOp17
 70
     1
102
RTVSPropertyOp18
 70
     1
102
RTVSPropertyOp19
 70
     1
102
RTVSPropertyOp20
 70
     1
102
RTVSPropertyOp21
 70
     1
102
RTVSPropertyOp22
 70
     1
102
RTVSPropertyOp23
 70
     1
102
RTVSPropertyOp24
 70
     1
102
RTVSPropertyOp25
 70
     1
102
RTVSPropertyOp26
 70
     1
102
RTVSPropertyOp27
 70
     1
102
RTVSPropertyOp28
 70
     1
102
RTVSPropertyOp29
 70
     1
102
RTVSPropertyOp30
 70
     1
102
RTVSPropertyOp31
 70
     1
102
RTVSPropertyOp32
 70
     1
102
RTVSPropertyOp33
 70
     1
102
RTVSPropertyOp34
 70
     1
102
RTVSPropertyOp35
 70
     1
102
RTVSPropertyOp36
 70
     1
102
RTVSPropertyOp37
 70
     1
102
RTVSPropertyOp38
 70
     1
102
RTVSPropertyOp39
 70
     1
102
RTVSPropertyOp40
 70
     1
102
RTVSPropertyOp41
 70
     1
102
RTVSPropertyOp42
 70
     1
102
RTVSPropertyOp43
 70
     1
102
RTVSPropertyOp44
 70
     1
102
RTVSPropertyOp45
 70
     1
102
RTVSPropertyOp46
 70
     1
102
RTVSPropertyOp47
 70
     1
102
RTVSPropertyOp48
 70
     1
102
RTVSPropertyOp49
 70
     1
102
RTVSPropertyOp50
 70
     1
102
RTVSPropertyOp51
 70
     0
102
RTVSPropertyOp52
 70
     0
102
RTVSPropertyOp53
 70
     1
102
RTVSPropertyOp54
 70
     1
102
RTVSPropertyOp55
 70
     1
102
RTVSPropertyOp56
 70
     1
102
RTVSPropertyOp57
 70
     1
102
RTVSPropertyOp58
 70
     1
102
RTVSPropertyOp59
 70
     1
102
RTVSPropertyOp60
 70
     1
102
RTVSPropertyOp61
 70
     1
102
RTVSPropertyOp62
 70
     1
  0
XRECORD
  5
3D41
102
{ACAD_REACTORS
330
3D40
102
}
330
3D40
100
AcDbXrecord
280
     1
102
RTVSPost2010Prop28
280
     0
102
RTVSPost2010PropOp28
 70
     1
102
RTVSPost2010Prop29
280
     1
102
RTVSPost2010PropOp29
 70
     1
102
RTVSPost2010Prop30
280
     1
102
RTVSPost2010PropOp30
 70
     1
102
RTVSPost2010Prop31
280
     0
102
RTVSPost2010PropOp31
 70
     1
102
RTVSPost2010Prop32
280
     0
102
RTVSPost2010PropOp32
 70
     1
102
RTVSPost2010Prop33
280
     0
102
RTVSPost2010PropOp33
 70
     1
102
RTVSPost2010Prop34
280
     0
102
RTVSPost2010PropOp34
 70
     1
102
RTVSPost2010Prop35
280
     0
102
RTVSPost2010PropOp35
 70
     1
102
RTVSPost2010Prop36
280
     0
102
RTVSPost2010PropOp36
 70
     1
102
RTVSPost2010Prop37
 90
       50
102
RTVSPost2010PropOp37
 70
     1
102
RTVSPost2010Prop38
140
0.0
102
RTVSPost2010PropOp38
 70
     1
102
RTVSPost2010Prop39
140
1.0
102
RTVSPost2010PropOp39
 70
     1
102
RTVSPost2010Prop40
 90
        0
102
RTVSPost2010PropOp40
 70
     1
102
RTVSPost2010Prop41ColorIndex
 90
       18
102
RTVSPost2010Prop41ColorRGB
 90
        0
102
RTVSPost2010PropOp41
 70
     1
102
RTVSPost2010Prop42
 90
       50
102
RTVSPost2010PropOp42
 70
     1
102
RTVSPost2010Prop43
 90
        3
102
RTVSPost2010PropOp43
 70
     1
102
RTVSPost2010Prop44ColorIndex
 90
        5
102
RTVSPost2010Prop44ColorRGB
 90
      255
102
RTVSPost2010PropOp44
 70
     1
102
RTVSPost2010Prop45
280
     0
102
RTVSPost2010PropOp45
 70
     1
102
RTVSPost2010Prop46
 90
       50
102
RTVSPost2010PropOp46
 70
     1
102
RTVSPost2010Prop47
 90
       50
102
RTVSPost2010PropOp47
 70
     1
102
RTVSPost2010Prop48
 90
       50
102
RTVSPost2010PropOp48
 70
     1
102
RTVSPost2010Prop49
280
     0
102
RTVSPost2010PropOp49
 70
     1
102
RTVSPost2010Prop50
 90
       50
102
RTVSPost2010PropOp50
 70
     1
102
RTVSPost2010Prop51ColorIndex
 90
      256
102
RTVSPost2010Prop51ColorRGB
 90
-16777216
102
RTVSPost2010PropOp51
 70
     0
102
RTVSPost2010Prop52
140
1.0
102
RTVSPost2010PropOp52
 70
     0
102
RTVSPost2010Prop53
 90
        2
102
RTVSPost2010PropOp53
 70
     1
102
RTVSPost2010Prop54
  1
strokes_ogs.tif
102
RTVSPost2010PropOp54
 70
     1
102
RTVSPost2010Prop55
280
     0
102
RTVSPost2010PropOp55
 70
     1
102
RTVSPost2010Prop56
140
1.0
102
RTVSPost2010PropOp56
 70
     1
102
RTVSPost2010Prop57
140
1.0
102
RTVSPost2010PropOp57
 70
     1
102
RTVSPropertyOp0
 70
     1
102
RTVSPropertyOp1
 70
     1
102
RTVSPropertyOp2
 70
     1
102
RTVSPropertyOp3
 70
     1
102
RTVSPropertyOp4
 70
     1
102
RTVSPropertyOp5
 70
     1
102
RTVSPropertyOp6
 70
     1
102
RTVSPropertyOp7
 70
     1
102
RTVSPropertyOp8
 70
     1
102
RTVSPropertyOp9
 70
     1
102
RTVSPropertyOp10
 70
     1
102
RTVSPropertyOp11
 70
     1
102
RTVSPropertyOp12
 70
     1
102
RTVSPropertyOp13
 70
     1
102
RTVSPropertyOp14
 70
     1
102
RTVSPropertyOp15
 70
     1
102
RTVSPropertyOp16
 70
     1
102
RTVSPropertyOp17
 70
     1
102
RTVSPropertyOp18
 70
     1
102
RTVSPropertyOp19
 70
     1
102
RTVSPropertyOp20
 70
     1
102
RTVSPropertyOp21
 70
     1
102
RTVSPropertyOp22
 70
     1
102
RTVSPropertyOp23
 70
     1
102
RTVSPropertyOp24
 70
     1
102
RTVSPropertyOp25
 70
     1
102
RTVSPropertyOp26
 70
     1
102
RTVSPropertyOp27
 70
     1
102
RTVSPropertyOp28
 70
     1
102
RTVSPropertyOp29
 70
     1
102
RTVSPropertyOp30
 70
     1
102
RTVSPropertyOp31
 70
     1
102
RTVSPropertyOp32
 70
     1
102
RTVSPropertyOp33
 70
     1
102
RTVSPropertyOp34
 70
     1
102
RTVSPropertyOp35
 70
     1
102
RTVSPropertyOp36
 70
     1
102
RTVSPropertyOp37
 70
     1
102
RTVSPropertyOp38
 70
     1
102
RTVSPropertyOp39
 70
     1
102
RTVSPropertyOp40
 70
     1
102
RTVSPropertyOp41
 70
     1
102
RTVSPropertyOp42
 70
     1
102
RTVSPropertyOp43
 70
     1
102
RTVSPropertyOp44
 70
     1
102
RTVSPropertyOp45
 70
     1
102
RTVSPropertyOp46
 70
     1
102
RTVSPropertyOp47
 70
     1
102
RTVSPropertyOp48
 70
     1
102
RTVSPropertyOp49
 70
     1
102
RTVSPropertyOp50
 70
     1
102
RTVSPropertyOp51
 70
     0
102
RTVSPropertyOp52
 70
     0
102
RTVSPropertyOp53
 70
     1
102
RTVSPropertyOp54
 70
     1
102
RTVSPropertyOp55
 70
     1
102
RTVSPropertyOp56
 70
     1
102
RTVSPropertyOp57
 70
     1
102
RTVSPropertyOp58
 70
     1
102
RTVSPropertyOp59
 70
     1
102
RTVSPropertyOp60
 70
     1
102
RTVSPropertyOp61
 70
     1
102
RTVSPropertyOp62
 70
     1
  0
XRECORD
  5
3D49
102
{ACAD_REACTORS
330
3D48
102
}
330
3D48
100
AcDbXrecord
280
     1
102
RTVSPost2010Prop28
280
     0
102
RTVSPost2010PropOp28
 70
     1
102
RTVSPost2010Prop29
280
     1
102
RTVSPost2010PropOp29
 70
     1
102
RTVSPost2010Prop30
280
     1
102
RTVSPost2010PropOp30
 70
     1
102
RTVSPost2010Prop31
280
     0
102
RTVSPost2010PropOp31
 70
     1
102
RTVSPost2010Prop32
280
     0
102
RTVSPost2010PropOp32
 70
     1
102
RTVSPost2010Prop33
280
     0
102
RTVSPost2010PropOp33
 70
     1
102
RTVSPost2010Prop34
280
     0
102
RTVSPost2010PropOp34
 70
     1
102
RTVSPost2010Prop35
280
     0
102
RTVSPost2010PropOp35
 70
     1
102
RTVSPost2010Prop36
280
     0
102
RTVSPost2010PropOp36
 70
     1
102
RTVSPost2010Prop37
 90
       50
102
RTVSPost2010PropOp37
 70
     1
102
RTVSPost2010Prop38
140
0.0
102
RTVSPost2010PropOp38
 70
     1
102
RTVSPost2010Prop39
140
1.0
102
RTVSPost2010PropOp39
 70
     1
102
RTVSPost2010Prop40
 90
        0
102
RTVSPost2010PropOp40
 70
     1
102
RTVSPost2010Prop41ColorIndex
 90
       18
102
RTVSPost2010Prop41ColorRGB
 90
        0
102
RTVSPost2010PropOp41
 70
     1
102
RTVSPost2010Prop42
 90
       50
102
RTVSPost2010PropOp42
 70
     1
102
RTVSPost2010Prop43
 90
        3
102
RTVSPost2010PropOp43
 70
     1
102
RTVSPost2010Prop44ColorIndex
 90
        5
102
RTVSPost2010Prop44ColorRGB
 90
      255
102
RTVSPost2010PropOp44
 70
     1
102
RTVSPost2010Prop45
280
     0
102
RTVSPost2010PropOp45
 70
     1
102
RTVSPost2010Prop46
 90
       50
102
RTVSPost2010PropOp46
 70
     1
102
RTVSPost2010Prop47
 90
       50
102
RTVSPost2010PropOp47
 70
     1
102
RTVSPost2010Prop48
 90
       50
102
RTVSPost2010PropOp48
 70
     1
102
RTVSPost2010Prop49
280
     0
102
RTVSPost2010PropOp49
 70
     1
102
RTVSPost2010Prop50
 90
       50
102
RTVSPost2010PropOp50
 70
     1
102
RTVSPost2010Prop51ColorIndex
 90
      256
102
RTVSPost2010Prop51ColorRGB
 90
-16777216
102
RTVSPost2010PropOp51
 70
     0
102
RTVSPost2010Prop52
140
1.0
102
RTVSPost2010PropOp52
 70
     0
102
RTVSPost2010Prop53
 90
        2
102
RTVSPost2010PropOp53
 70
     1
102
RTVSPost2010Prop54
  1
strokes_ogs.tif
102
RTVSPost2010PropOp54
 70
     1
102
RTVSPost2010Prop55
280
     0
102
RTVSPost2010PropOp55
 70
     1
102
RTVSPost2010Prop56
140
1.0
102
RTVSPost2010PropOp56
 70
     1
102
RTVSPost2010Prop57
140
1.0
102
RTVSPost2010PropOp57
 70
     1
102
RTVSPropertyOp0
 70
     1
102
RTVSPropertyOp1
 70
     1
102
RTVSPropertyOp2
 70
     1
102
RTVSPropertyOp3
 70
     1
102
RTVSPropertyOp4
 70
     1
102
RTVSPropertyOp5
 70
     1
102
RTVSPropertyOp6
 70
     1
102
RTVSPropertyOp7
 70
     1
102
RTVSPropertyOp8
 70
     1
102
RTVSPropertyOp9
 70
     1
102
RTVSPropertyOp10
 70
     1
102
RTVSPropertyOp11
 70
     1
102
RTVSPropertyOp12
 70
     1
102
RTVSPropertyOp13
 70
     1
102
RTVSPropertyOp14
 70
     1
102
RTVSPropertyOp15
 70
     1
102
RTVSPropertyOp16
 70
     1
102
RTVSPropertyOp17
 70
     1
102
RTVSPropertyOp18
 70
     1
102
RTVSPropertyOp19
 70
     1
102
RTVSPropertyOp20
 70
     1
102
RTVSPropertyOp21
 70
     1
102
RTVSPropertyOp22
 70
     1
102
RTVSPropertyOp23
 70
     1
102
RTVSPropertyOp24
 70
     1
102
RTVSPropertyOp25
 70
     1
102
RTVSPropertyOp26
 70
     1
102
RTVSPropertyOp27
 70
     1
102
RTVSPropertyOp28
 70
     1
102
RTVSPropertyOp29
 70
     1
102
RTVSPropertyOp30
 70
     1
102
RTVSPropertyOp31
 70
     1
102
RTVSPropertyOp32
 70
     1
102
RTVSPropertyOp33
 70
     1
102
RTVSPropertyOp34
 70
     1
102
RTVSPropertyOp35
 70
     1
102
RTVSPropertyOp36
 70
     1
102
RTVSPropertyOp37
 70
     1
102
RTVSPropertyOp38
 70
     1
102
RTVSPropertyOp39
 70
     1
102
RTVSPropertyOp40
 70
     1
102
RTVSPropertyOp41
 70
     1
102
RTVSPropertyOp42
 70
     1
102
RTVSPropertyOp43
 70
     1
102
RTVSPropertyOp44
 70
     1
102
RTVSPropertyOp45
 70
     1
102
RTVSPropertyOp46
 70
     1
102
RTVSPropertyOp47
 70
     1
102
RTVSPropertyOp48
 70
     1
102
RTVSPropertyOp49
 70
     1
102
RTVSPropertyOp50
 70
     1
102
RTVSPropertyOp51
 70
     0
102
RTVSPropertyOp52
 70
     0
102
RTVSPropertyOp53
 70
     1
102
RTVSPropertyOp54
 70
     1
102
RTVSPropertyOp55
 70
     1
102
RTVSPropertyOp56
 70
     1
102
RTVSPropertyOp57
 70
     1
102
RTVSPropertyOp58
 70
     1
102
RTVSPropertyOp59
 70
     1
102
RTVSPropertyOp60
 70
     1
102
RTVSPropertyOp61
 70
     1
102
RTVSPropertyOp62
 70
     1
  0
XRECORD
  5
3D3B
102
{ACAD_REACTORS
330
3D3A
102
}
330
3D3A
100
AcDbXrecord
280
     1
102
RTVSPost2010Prop28
280
     0
102
RTVSPost2010PropOp28
 70
     1
102
RTVSPost2010Prop29
280
     1
102
RTVSPost2010PropOp29
 70
     1
102
RTVSPost2010Prop30
280
     1
102
RTVSPost2010PropOp30
 70
     1
102
RTVSPost2010Prop31
280
     0
102
RTVSPost2010PropOp31
 70
     1
102
RTVSPost2010Prop32
280
     0
102
RTVSPost2010PropOp32
 70
     1
102
RTVSPost2010Prop33
280
     0
102
RTVSPost2010PropOp33
 70
     1
102
RTVSPost2010Prop34
280
     0
102
RTVSPost2010PropOp34
 70
     1
102
RTVSPost2010Prop35
280
     0
102
RTVSPost2010PropOp35
 70
     1
102
RTVSPost2010Prop36
280
     0
102
RTVSPost2010PropOp36
 70
     1
102
RTVSPost2010Prop37
 90
       50
102
RTVSPost2010PropOp37
 70
     1
102
RTVSPost2010Prop38
140
0.0
102
RTVSPost2010PropOp38
 70
     1
102
RTVSPost2010Prop39
140
1.0
102
RTVSPost2010PropOp39
 70
     1
102
RTVSPost2010Prop40
 90
        0
102
RTVSPost2010PropOp40
 70
     1
102
RTVSPost2010Prop41ColorIndex
 90
       18
102
RTVSPost2010Prop41ColorRGB
 90
        0
102
RTVSPost2010PropOp41
 70
     1
102
RTVSPost2010Prop42
 90
       50
102
RTVSPost2010PropOp42
 70
     1
102
RTVSPost2010Prop43
 90
        3
102
RTVSPost2010PropOp43
 70
     1
102
RTVSPost2010Prop44ColorIndex
 90
        5
102
RTVSPost2010Prop44ColorRGB
 90
      255
102
RTVSPost2010PropOp44
 70
     1
102
RTVSPost2010Prop45
280
     0
102
RTVSPost2010PropOp45
 70
     1
102
RTVSPost2010Prop46
 90
       50
102
RTVSPost2010PropOp46
 70
     1
102
RTVSPost2010Prop47
 90
       50
102
RTVSPost2010PropOp47
 70
     1
102
RTVSPost2010Prop48
 90
       50
102
RTVSPost2010PropOp48
 70
     1
102
RTVSPost2010Prop49
280
     0
102
RTVSPost2010PropOp49
 70
     1
102
RTVSPost2010Prop50
 90
       50
102
RTVSPost2010PropOp50
 70
     1
102
RTVSPost2010Prop51ColorIndex
 90
      256
102
RTVSPost2010Prop51ColorRGB
 90
-16777216
102
RTVSPost2010PropOp51
 70
     0
102
RTVSPost2010Prop52
140
1.0
102
RTVSPost2010PropOp52
 70
     0
102
RTVSPost2010Prop53
 90
        2
102
RTVSPost2010PropOp53
 70
     1
102
RTVSPost2010Prop54
  1
strokes_ogs.tif
102
RTVSPost2010PropOp54
 70
     1
102
RTVSPost2010Prop55
280
     0
102
RTVSPost2010PropOp55
 70
     1
102
RTVSPost2010Prop56
140
1.0
102
RTVSPost2010PropOp56
 70
     1
102
RTVSPost2010Prop57
140
1.0
102
RTVSPost2010PropOp57
 70
     1
102
RTVSPropertyOp0
 70
     1
102
RTVSPropertyOp1
 70
     1
102
RTVSPropertyOp2
 70
     1
102
RTVSPropertyOp3
 70
     1
102
RTVSPropertyOp4
 70
     1
102
RTVSPropertyOp5
 70
     1
102
RTVSPropertyOp6
 70
     1
102
RTVSPropertyOp7
 70
     1
102
RTVSPropertyOp8
 70
     1
102
RTVSPropertyOp9
 70
     1
102
RTVSPropertyOp10
 70
     1
102
RTVSPropertyOp11
 70
     1
102
RTVSPropertyOp12
 70
     1
102
RTVSPropertyOp13
 70
     1
102
RTVSPropertyOp14
 70
     1
102
RTVSPropertyOp15
 70
     1
102
RTVSPropertyOp16
 70
     1
102
RTVSPropertyOp17
 70
     1
102
RTVSPropertyOp18
 70
     1
102
RTVSPropertyOp19
 70
     1
102
RTVSPropertyOp20
 70
     1
102
RTVSPropertyOp21
 70
     1
102
RTVSPropertyOp22
 70
     1
102
RTVSPropertyOp23
 70
     1
102
RTVSPropertyOp24
 70
     1
102
RTVSPropertyOp25
 70
     1
102
RTVSPropertyOp26
 70
     1
102
RTVSPropertyOp27
 70
     1
102
RTVSPropertyOp28
 70
     1
102
RTVSPropertyOp29
 70
     1
102
RTVSPropertyOp30
 70
     1
102
RTVSPropertyOp31
 70
     1
102
RTVSPropertyOp32
 70
     1
102
RTVSPropertyOp33
 70
     1
102
RTVSPropertyOp34
 70
     1
102
RTVSPropertyOp35
 70
     1
102
RTVSPropertyOp36
 70
     1
102
RTVSPropertyOp37
 70
     1
102
RTVSPropertyOp38
 70
     1
102
RTVSPropertyOp39
 70
     1
102
RTVSPropertyOp40
 70
     1
102
RTVSPropertyOp41
 70
     1
102
RTVSPropertyOp42
 70
     1
102
RTVSPropertyOp43
 70
     1
102
RTVSPropertyOp44
 70
     1
102
RTVSPropertyOp45
 70
     1
102
RTVSPropertyOp46
 70
     1
102
RTVSPropertyOp47
 70
     1
102
RTVSPropertyOp48
 70
     1
102
RTVSPropertyOp49
 70
     1
102
RTVSPropertyOp50
 70
     1
102
RTVSPropertyOp51
 70
     0
102
RTVSPropertyOp52
 70
     0
102
RTVSPropertyOp53
 70
     1
102
RTVSPropertyOp54
 70
     1
102
RTVSPropertyOp55
 70
     1
102
RTVSPropertyOp56
 70
     1
102
RTVSPropertyOp57
 70
     1
102
RTVSPropertyOp58
 70
     1
102
RTVSPropertyOp59
 70
     1
102
RTVSPropertyOp60
 70
     1
102
RTVSPropertyOp61
 70
     1
102
RTVSPropertyOp62
 70
     1
  0
XRECORD
  5
3D3F
102
{ACAD_REACTORS
330
3D3E
102
}
330
3D3E
100
AcDbXrecord
280
     1
102
RTVSPost2010Prop28
280
     0
102
RTVSPost2010PropOp28
 70
     1
102
RTVSPost2010Prop29
280
     1
102
RTVSPost2010PropOp29
 70
     1
102
RTVSPost2010Prop30
280
     1
102
RTVSPost2010PropOp30
 70
     1
102
RTVSPost2010Prop31
280
     0
102
RTVSPost2010PropOp31
 70
     1
102
RTVSPost2010Prop32
280
     0
102
RTVSPost2010PropOp32
 70
     1
102
RTVSPost2010Prop33
280
     0
102
RTVSPost2010PropOp33
 70
     1
102
RTVSPost2010Prop34
280
     0
102
RTVSPost2010PropOp34
 70
     1
102
RTVSPost2010Prop35
280
     0
102
RTVSPost2010PropOp35
 70
     1
102
RTVSPost2010Prop36
280
     0
102
RTVSPost2010PropOp36
 70
     1
102
RTVSPost2010Prop37
 90
       50
102
RTVSPost2010PropOp37
 70
     1
102
RTVSPost2010Prop38
140
0.0
102
RTVSPost2010PropOp38
 70
     1
102
RTVSPost2010Prop39
140
1.0
102
RTVSPost2010PropOp39
 70
     1
102
RTVSPost2010Prop40
 90
        0
102
RTVSPost2010PropOp40
 70
     1
102
RTVSPost2010Prop41ColorIndex
 90
       18
102
RTVSPost2010Prop41ColorRGB
 90
        0
102
RTVSPost2010PropOp41
 70
     1
102
RTVSPost2010Prop42
 90
       50
102
RTVSPost2010PropOp42
 70
     1
102
RTVSPost2010Prop43
 90
        3
102
RTVSPost2010PropOp43
 70
     1
102
RTVSPost2010Prop44ColorIndex
 90
        5
102
RTVSPost2010Prop44ColorRGB
 90
      255
102
RTVSPost2010PropOp44
 70
     1
102
RTVSPost2010Prop45
280
     0
102
RTVSPost2010PropOp45
 70
     1
102
RTVSPost2010Prop46
 90
       50
102
RTVSPost2010PropOp46
 70
     1
102
RTVSPost2010Prop47
 90
       50
102
RTVSPost2010PropOp47
 70
     1
102
RTVSPost2010Prop48
 90
       50
102
RTVSPost2010PropOp48
 70
     1
102
RTVSPost2010Prop49
280
     0
102
RTVSPost2010PropOp49
 70
     1
102
RTVSPost2010Prop50
 90
       50
102
RTVSPost2010PropOp50
 70
     1
102
RTVSPost2010Prop51ColorIndex
 90
      256
102
RTVSPost2010Prop51ColorRGB
 90
-16777216
102
RTVSPost2010PropOp51
 70
     0
102
RTVSPost2010Prop52
140
1.0
102
RTVSPost2010PropOp52
 70
     0
102
RTVSPost2010Prop53
 90
        2
102
RTVSPost2010PropOp53
 70
     1
102
RTVSPost2010Prop54
  1
strokes_ogs.tif
102
RTVSPost2010PropOp54
 70
     1
102
RTVSPost2010Prop55
280
     0
102
RTVSPost2010PropOp55
 70
     1
102
RTVSPost2010Prop56
140
1.0
102
RTVSPost2010PropOp56
 70
     1
102
RTVSPost2010Prop57
140
1.0
102
RTVSPost2010PropOp57
 70
     1
102
RTVSPropertyOp0
 70
     1
102
RTVSPropertyOp1
 70
     1
102
RTVSPropertyOp2
 70
     1
102
RTVSPropertyOp3
 70
     1
102
RTVSPropertyOp4
 70
     1
102
RTVSPropertyOp5
 70
     1
102
RTVSPropertyOp6
 70
     1
102
RTVSPropertyOp7
 70
     1
102
RTVSPropertyOp8
 70
     1
102
RTVSPropertyOp9
 70
     1
102
RTVSPropertyOp10
 70
     1
102
RTVSPropertyOp11
 70
     1
102
RTVSPropertyOp12
 70
     1
102
RTVSPropertyOp13
 70
     1
102
RTVSPropertyOp14
 70
     1
102
RTVSPropertyOp15
 70
     1
102
RTVSPropertyOp16
 70
     1
102
RTVSPropertyOp17
 70
     1
102
RTVSPropertyOp18
 70
     1
102
RTVSPropertyOp19
 70
     1
102
RTVSPropertyOp20
 70
     1
102
RTVSPropertyOp21
 70
     1
102
RTVSPropertyOp22
 70
     1
102
RTVSPropertyOp23
 70
     1
102
RTVSPropertyOp24
 70
     1
102
RTVSPropertyOp25
 70
     1
102
RTVSPropertyOp26
 70
     1
102
RTVSPropertyOp27
 70
     1
102
RTVSPropertyOp28
 70
     1
102
RTVSPropertyOp29
 70
     1
102
RTVSPropertyOp30
 70
     1
102
RTVSPropertyOp31
 70
     1
102
RTVSPropertyOp32
 70
     1
102
RTVSPropertyOp33
 70
     1
102
RTVSPropertyOp34
 70
     1
102
RTVSPropertyOp35
 70
     1
102
RTVSPropertyOp36
 70
     1
102
RTVSPropertyOp37
 70
     1
102
RTVSPropertyOp38
 70
     1
102
RTVSPropertyOp39
 70
     1
102
RTVSPropertyOp40
 70
     1
102
RTVSPropertyOp41
 70
     1
102
RTVSPropertyOp42
 70
     1
102
RTVSPropertyOp43
 70
     1
102
RTVSPropertyOp44
 70
     1
102
RTVSPropertyOp45
 70
     1
102
RTVSPropertyOp46
 70
     1
102
RTVSPropertyOp47
 70
     1
102
RTVSPropertyOp48
 70
     1
102
RTVSPropertyOp49
 70
     1
102
RTVSPropertyOp50
 70
     1
102
RTVSPropertyOp51
 70
     0
102
RTVSPropertyOp52
 70
     0
102
RTVSPropertyOp53
 70
     1
102
RTVSPropertyOp54
 70
     1
102
RTVSPropertyOp55
 70
     1
102
RTVSPropertyOp56
 70
     1
102
RTVSPropertyOp57
 70
     1
102
RTVSPropertyOp58
 70
     1
102
RTVSPropertyOp59
 70
     1
102
RTVSPropertyOp60
 70
     1
102
RTVSPropertyOp61
 70
     1
102
RTVSPropertyOp62
 70
     1
  0
XRECORD
  5
3D4F
102
{ACAD_REACTORS
330
3D4E
102
}
330
3D4E
100
AcDbXrecord
280
     1
102
RTVSPost2010Prop28
280
     0
102
RTVSPost2010PropOp28
 70
     1
102
RTVSPost2010Prop29
280
     1
102
RTVSPost2010PropOp29
 70
     1
102
RTVSPost2010Prop30
280
     1
102
RTVSPost2010PropOp30
 70
     1
102
RTVSPost2010Prop31
280
     0
102
RTVSPost2010PropOp31
 70
     1
102
RTVSPost2010Prop32
280
     0
102
RTVSPost2010PropOp32
 70
     1
102
RTVSPost2010Prop33
280
     0
102
RTVSPost2010PropOp33
 70
     1
102
RTVSPost2010Prop34
280
     0
102
RTVSPost2010PropOp34
 70
     1
102
RTVSPost2010Prop35
280
     0
102
RTVSPost2010PropOp35
 70
     1
102
RTVSPost2010Prop36
280
     0
102
RTVSPost2010PropOp36
 70
     1
102
RTVSPost2010Prop37
 90
       50
102
RTVSPost2010PropOp37
 70
     1
102
RTVSPost2010Prop38
140
0.0
102
RTVSPost2010PropOp38
 70
     1
102
RTVSPost2010Prop39
140
1.0
102
RTVSPost2010PropOp39
 70
     1
102
RTVSPost2010Prop40
 90
        0
102
RTVSPost2010PropOp40
 70
     1
102
RTVSPost2010Prop41ColorIndex
 90
       18
102
RTVSPost2010Prop41ColorRGB
 90
        0
102
RTVSPost2010PropOp41
 70
     1
102
RTVSPost2010Prop42
 90
       50
102
RTVSPost2010PropOp42
 70
     1
102
RTVSPost2010Prop43
 90
        3
102
RTVSPost2010PropOp43
 70
     1
102
RTVSPost2010Prop44ColorIndex
 90
        5
102
RTVSPost2010Prop44ColorRGB
 90
      255
102
RTVSPost2010PropOp44
 70
     1
102
RTVSPost2010Prop45
280
     0
102
RTVSPost2010PropOp45
 70
     1
102
RTVSPost2010Prop46
 90
       50
102
RTVSPost2010PropOp46
 70
     1
102
RTVSPost2010Prop47
 90
       50
102
RTVSPost2010PropOp47
 70
     1
102
RTVSPost2010Prop48
 90
       50
102
RTVSPost2010PropOp48
 70
     1
102
RTVSPost2010Prop49
280
     0
102
RTVSPost2010PropOp49
 70
     1
102
RTVSPost2010Prop50
 90
       50
102
RTVSPost2010PropOp50
 70
     1
102
RTVSPost2010Prop51ColorIndex
 90
      256
102
RTVSPost2010Prop51ColorRGB
 90
-16777216
102
RTVSPost2010PropOp51
 70
     0
102
RTVSPost2010Prop52
140
1.0
102
RTVSPost2010PropOp52
 70
     0
102
RTVSPost2010Prop53
 90
        2
102
RTVSPost2010PropOp53
 70
     1
102
RTVSPost2010Prop54
  1
strokes_ogs.tif
102
RTVSPost2010PropOp54
 70
     1
102
RTVSPost2010Prop55
280
     0
102
RTVSPost2010PropOp55
 70
     1
102
RTVSPost2010Prop56
140
1.0
102
RTVSPost2010PropOp56
 70
     1
102
RTVSPost2010Prop57
140
1.0
102
RTVSPost2010PropOp57
 70
     1
102
RTVSPropertyOp0
 70
     0
102
RTVSPropertyOp1
 70
     0
102
RTVSPropertyOp2
 70
     0
102
RTVSPropertyOp3
 70
     0
102
RTVSPropertyOp4
 70
     0
102
RTVSPropertyOp5
 70
     0
102
RTVSPropertyOp6
 70
     0
102
RTVSPropertyOp7
 70
     0
102
RTVSPropertyOp8
 70
     0
102
RTVSPropertyOp9
 70
     0
102
RTVSPropertyOp10
 70
     0
102
RTVSPropertyOp11
 70
     0
102
RTVSPropertyOp12
 70
     0
102
RTVSPropertyOp13
 70
     0
102
RTVSPropertyOp14
 70
     2
102
RTVSPropertyOp15
 70
     0
102
RTVSPropertyOp16
 70
     0
102
RTVSPropertyOp17
 70
     0
102
RTVSPropertyOp18
 70
     0
102
RTVSPropertyOp19
 70
     0
102
RTVSPropertyOp20
 70
     0
102
RTVSPropertyOp21
 70
     0
102
RTVSPropertyOp22
 70
     0
102
RTVSPropertyOp23
 70
     0
102
RTVSPropertyOp24
 70
     0
102
RTVSPropertyOp25
 70
     0
102
RTVSPropertyOp26
 70
     0
102
RTVSPropertyOp27
 70
     0
102
RTVSPropertyOp28
 70
     1
102
RTVSPropertyOp29
 70
     1
102
RTVSPropertyOp30
 70
     1
102
RTVSPropertyOp31
 70
     1
102
RTVSPropertyOp32
 70
     1
102
RTVSPropertyOp33
 70
     1
102
RTVSPropertyOp34
 70
     1
102
RTVSPropertyOp35
 70
     1
102
RTVSPropertyOp36
 70
     1
102
RTVSPropertyOp37
 70
     1
102
RTVSPropertyOp38
 70
     1
102
RTVSPropertyOp39
 70
     1
102
RTVSPropertyOp40
 70
     1
102
RTVSPropertyOp41
 70
     1
102
RTVSPropertyOp42
 70
     1
102
RTVSPropertyOp43
 70
     1
102
RTVSPropertyOp44
 70
     1
102
RTVSPropertyOp45
 70
     1
102
RTVSPropertyOp46
 70
     1
102
RTVSPropertyOp47
 70
     1
102
RTVSPropertyOp48
 70
     1
102
RTVSPropertyOp49
 70
     1
102
RTVSPropertyOp50
 70
     1
102
RTVSPropertyOp51
 70
     0
102
RTVSPropertyOp52
 70
     0
102
RTVSPropertyOp53
 70
     1
102
RTVSPropertyOp54
 70
     1
102
RTVSPropertyOp55
 70
     1
102
RTVSPropertyOp56
 70
     1
102
RTVSPropertyOp57
 70
     1
102
RTVSPropertyOp58
 70
     1
102
RTVSPropertyOp59
 70
     1
102
RTVSPropertyOp60
 70
     1
102
RTVSPropertyOp61
 70
     1
102
RTVSPropertyOp62
 70
     1
  0
XRECORD
  5
3D47
102
{ACAD_REACTORS
330
3D46
102
}
330
3D46
100
AcDbXrecord
280
     1
102
RTVSPost2010Prop28
280
     0
102
RTVSPost2010PropOp28
 70
     1
102
RTVSPost2010Prop29
280
     1
102
RTVSPost2010PropOp29
 70
     1
102
RTVSPost2010Prop30
280
     1
102
RTVSPost2010PropOp30
 70
     1
102
RTVSPost2010Prop31
280
     0
102
RTVSPost2010PropOp31
 70
     1
102
RTVSPost2010Prop32
280
     0
102
RTVSPost2010PropOp32
 70
     1
102
RTVSPost2010Prop33
280
     0
102
RTVSPost2010PropOp33
 70
     1
102
RTVSPost2010Prop34
280
     0
102
RTVSPost2010PropOp34
 70
     1
102
RTVSPost2010Prop35
280
     0
102
RTVSPost2010PropOp35
 70
     1
102
RTVSPost2010Prop36
280
     0
102
RTVSPost2010PropOp36
 70
     1
102
RTVSPost2010Prop37
 90
       50
102
RTVSPost2010PropOp37
 70
     1
102
RTVSPost2010Prop38
140
0.0
102
RTVSPost2010PropOp38
 70
     1
102
RTVSPost2010Prop39
140
1.0
102
RTVSPost2010PropOp39
 70
     1
102
RTVSPost2010Prop40
 90
        0
102
RTVSPost2010PropOp40
 70
     1
102
RTVSPost2010Prop41ColorIndex
 90
       18
102
RTVSPost2010Prop41ColorRGB
 90
        0
102
RTVSPost2010PropOp41
 70
     1
102
RTVSPost2010Prop42
 90
       50
102
RTVSPost2010PropOp42
 70
     1
102
RTVSPost2010Prop43
 90
        3
102
RTVSPost2010PropOp43
 70
     1
102
RTVSPost2010Prop44ColorIndex
 90
        5
102
RTVSPost2010Prop44ColorRGB
 90
      255
102
RTVSPost2010PropOp44
 70
     1
102
RTVSPost2010Prop45
280
     0
102
RTVSPost2010PropOp45
 70
     1
102
RTVSPost2010Prop46
 90
       50
102
RTVSPost2010PropOp46
 70
     1
102
RTVSPost2010Prop47
 90
       50
102
RTVSPost2010PropOp47
 70
     1
102
RTVSPost2010Prop48
 90
       50
102
RTVSPost2010PropOp48
 70
     1
102
RTVSPost2010Prop49
280
     0
102
RTVSPost2010PropOp49
 70
     1
102
RTVSPost2010Prop50
 90
       50
102
RTVSPost2010PropOp50
 70
     1
102
RTVSPost2010Prop51ColorIndex
 90
      256
102
RTVSPost2010Prop51ColorRGB
 90
-16777216
102
RTVSPost2010PropOp51
 70
     0
102
RTVSPost2010Prop52
140
1.0
102
RTVSPost2010PropOp52
 70
     0
102
RTVSPost2010Prop53
 90
        2
102
RTVSPost2010PropOp53
 70
     1
102
RTVSPost2010Prop54
  1
strokes_ogs.tif
102
RTVSPost2010PropOp54
 70
     1
102
RTVSPost2010Prop55
280
     0
102
RTVSPost2010PropOp55
 70
     1
102
RTVSPost2010Prop56
140
1.0
102
RTVSPost2010PropOp56
 70
     1
102
RTVSPost2010Prop57
140
1.0
102
RTVSPost2010PropOp57
 70
     1
102
RTVSPropertyOp0
 70
     1
102
RTVSPropertyOp1
 70
     1
102
RTVSPropertyOp2
 70
     1
102
RTVSPropertyOp3
 70
     1
102
RTVSPropertyOp4
 70
     1
102
RTVSPropertyOp5
 70
     1
102
RTVSPropertyOp6
 70
     1
102
RTVSPropertyOp7
 70
     1
102
RTVSPropertyOp8
 70
     1
102
RTVSPropertyOp9
 70
     1
102
RTVSPropertyOp10
 70
     1
102
RTVSPropertyOp11
 70
     1
102
RTVSPropertyOp12
 70
     1
102
RTVSPropertyOp13
 70
     1
102
RTVSPropertyOp14
 70
     1
102
RTVSPropertyOp15
 70
     1
102
RTVSPropertyOp16
 70
     1
102
RTVSPropertyOp17
 70
     1
102
RTVSPropertyOp18
 70
     1
102
RTVSPropertyOp19
 70
     1
102
RTVSPropertyOp20
 70
     1
102
RTVSPropertyOp21
 70
     1
102
RTVSPropertyOp22
 70
     1
102
RTVSPropertyOp23
 70
     1
102
RTVSPropertyOp24
 70
     1
102
RTVSPropertyOp25
 70
     1
102
RTVSPropertyOp26
 70
     1
102
RTVSPropertyOp27
 70
     1
102
RTVSPropertyOp28
 70
     1
102
RTVSPropertyOp29
 70
     1
102
RTVSPropertyOp30
 70
     1
102
RTVSPropertyOp31
 70
     1
102
RTVSPropertyOp32
 70
     1
102
RTVSPropertyOp33
 70
     1
102
RTVSPropertyOp34
 70
     1
102
RTVSPropertyOp35
 70
     1
102
RTVSPropertyOp36
 70
     1
102
RTVSPropertyOp37
 70
     1
102
RTVSPropertyOp38
 70
     1
102
RTVSPropertyOp39
 70
     1
102
RTVSPropertyOp40
 70
     1
102
RTVSPropertyOp41
 70
     1
102
RTVSPropertyOp42
 70
     1
102
RTVSPropertyOp43
 70
     1
102
RTVSPropertyOp44
 70
     1
102
RTVSPropertyOp45
 70
     1
102
RTVSPropertyOp46
 70
     1
102
RTVSPropertyOp47
 70
     1
102
RTVSPropertyOp48
 70
     1
102
RTVSPropertyOp49
 70
     1
102
RTVSPropertyOp50
 70
     1
102
RTVSPropertyOp51
 70
     0
102
RTVSPropertyOp52
 70
     0
102
RTVSPropertyOp53
 70
     1
102
RTVSPropertyOp54
 70
     1
102
RTVSPropertyOp55
 70
     1
102
RTVSPropertyOp56
 70
     1
102
RTVSPropertyOp57
 70
     1
102
RTVSPropertyOp58
 70
     1
102
RTVSPropertyOp59
 70
     1
102
RTVSPropertyOp60
 70
     1
102
RTVSPropertyOp61
 70
     1
102
RTVSPropertyOp62
 70
     1
  0
XRECORD
  5
3D2B
102
{ACAD_REACTORS
330
3D2A
102
}
330
3D2A
100
AcDbXrecord
280
     1
102
RTVSPost2010Prop28
280
     0
102
RTVSPost2010PropOp28
 70
     1
102
RTVSPost2010Prop29
280
     1
102
RTVSPost2010PropOp29
 70
     1
102
RTVSPost2010Prop30
280
     1
102
RTVSPost2010PropOp30
 70
     1
102
RTVSPost2010Prop31
280
     0
102
RTVSPost2010PropOp31
 70
     1
102
RTVSPost2010Prop32
280
     0
102
RTVSPost2010PropOp32
 70
     1
102
RTVSPost2010Prop33
280
     0
102
RTVSPost2010PropOp33
 70
     1
102
RTVSPost2010Prop34
280
     0
102
RTVSPost2010PropOp34
 70
     1
102
RTVSPost2010Prop35
280
     0
102
RTVSPost2010PropOp35
 70
     1
102
RTVSPost2010Prop36
280
     0
102
RTVSPost2010PropOp36
 70
     1
102
RTVSPost2010Prop37
 90
       50
102
RTVSPost2010PropOp37
 70
     1
102
RTVSPost2010Prop38
140
0.0
102
RTVSPost2010PropOp38
 70
     1
102
RTVSPost2010Prop39
140
1.0
102
RTVSPost2010PropOp39
 70
     1
102
RTVSPost2010Prop40
 90
        0
102
RTVSPost2010PropOp40
 70
     1
102
RTVSPost2010Prop41ColorIndex
 90
       18
102
RTVSPost2010Prop41ColorRGB
 90
        0
102
RTVSPost2010PropOp41
 70
     1
102
RTVSPost2010Prop42
 90
       50
102
RTVSPost2010PropOp42
 70
     1
102
RTVSPost2010Prop43
 90
        3
102
RTVSPost2010PropOp43
 70
     1
102
RTVSPost2010Prop44ColorIndex
 90
        5
102
RTVSPost2010Prop44ColorRGB
 90
      255
102
RTVSPost2010PropOp44
 70
     1
102
RTVSPost2010Prop45
280
     0
102
RTVSPost2010PropOp45
 70
     1
102
RTVSPost2010Prop46
 90
       50
102
RTVSPost2010PropOp46
 70
     1
102
RTVSPost2010Prop47
 90
       50
102
RTVSPost2010PropOp47
 70
     1
102
RTVSPost2010Prop48
 90
       50
102
RTVSPost2010PropOp48
 70
     1
102
RTVSPost2010Prop49
280
     0
102
RTVSPost2010PropOp49
 70
     1
102
RTVSPost2010Prop50
 90
       50
102
RTVSPost2010PropOp50
 70
     1
102
RTVSPost2010Prop51ColorIndex
 90
      256
102
RTVSPost2010Prop51ColorRGB
 90
-16777216
102
RTVSPost2010PropOp51
 70
     0
102
RTVSPost2010Prop52
140
1.0
102
RTVSPost2010PropOp52
 70
     0
102
RTVSPost2010Prop53
 90
        2
102
RTVSPost2010PropOp53
 70
     1
102
RTVSPost2010Prop54
  1
strokes_ogs.tif
102
RTVSPost2010PropOp54
 70
     1
102
RTVSPost2010Prop55
280
     0
102
RTVSPost2010PropOp55
 70
     1
102
RTVSPost2010Prop56
140
1.0
102
RTVSPost2010PropOp56
 70
     1
102
RTVSPost2010Prop57
140
1.0
102
RTVSPost2010PropOp57
 70
     1
102
RTVSPropertyOp0
 70
     1
102
RTVSPropertyOp1
 70
     1
102
RTVSPropertyOp2
 70
     1
102
RTVSPropertyOp3
 70
     1
102
RTVSPropertyOp4
 70
     1
102
RTVSPropertyOp5
 70
     1
102
RTVSPropertyOp6
 70
     1
102
RTVSPropertyOp7
 70
     1
102
RTVSPropertyOp8
 70
     1
102
RTVSPropertyOp9
 70
     1
102
RTVSPropertyOp10
 70
     1
102
RTVSPropertyOp11
 70
     1
102
RTVSPropertyOp12
 70
     1
102
RTVSPropertyOp13
 70
     1
102
RTVSPropertyOp14
 70
     1
102
RTVSPropertyOp15
 70
     1
102
RTVSPropertyOp16
 70
     1
102
RTVSPropertyOp17
 70
     1
102
RTVSPropertyOp18
 70
     1
102
RTVSPropertyOp19
 70
     1
102
RTVSPropertyOp20
 70
     1
102
RTVSPropertyOp21
 70
     1
102
RTVSPropertyOp22
 70
     1
102
RTVSPropertyOp23
 70
     1
102
RTVSPropertyOp24
 70
     1
102
RTVSPropertyOp25
 70
     1
102
RTVSPropertyOp26
 70
     1
102
RTVSPropertyOp27
 70
     1
102
RTVSPropertyOp28
 70
     1
102
RTVSPropertyOp29
 70
     1
102
RTVSPropertyOp30
 70
     1
102
RTVSPropertyOp31
 70
     1
102
RTVSPropertyOp32
 70
     1
102
RTVSPropertyOp33
 70
     1
102
RTVSPropertyOp34
 70
     1
102
RTVSPropertyOp35
 70
     1
102
RTVSPropertyOp36
 70
     1
102
RTVSPropertyOp37
 70
     1
102
RTVSPropertyOp38
 70
     1
102
RTVSPropertyOp39
 70
     1
102
RTVSPropertyOp40
 70
     1
102
RTVSPropertyOp41
 70
     1
102
RTVSPropertyOp42
 70
     1
102
RTVSPropertyOp43
 70
     1
102
RTVSPropertyOp44
 70
     1
102
RTVSPropertyOp45
 70
     1
102
RTVSPropertyOp46
 70
     1
102
RTVSPropertyOp47
 70
     1
102
RTVSPropertyOp48
 70
     1
102
RTVSPropertyOp49
 70
     1
102
RTVSPropertyOp50
 70
     1
102
RTVSPropertyOp51
 70
     0
102
RTVSPropertyOp52
 70
     0
102
RTVSPropertyOp53
 70
     1
102
RTVSPropertyOp54
 70
     1
102
RTVSPropertyOp55
 70
     1
102
RTVSPropertyOp56
 70
     1
102
RTVSPropertyOp57
 70
     1
102
RTVSPropertyOp58
 70
     1
102
RTVSPropertyOp59
 70
     1
102
RTVSPropertyOp60
 70
     1
102
RTVSPropertyOp61
 70
     1
102
RTVSPropertyOp62
 70
     1
  0
XRECORD
  5
3D2D
102
{ACAD_REACTORS
330
3D2C
102
}
330
3D2C
100
AcDbXrecord
280
     1
102
RTVSPost2010Prop28
280
     0
102
RTVSPost2010PropOp28
 70
     1
102
RTVSPost2010Prop29
280
     1
102
RTVSPost2010PropOp29
 70
     1
102
RTVSPost2010Prop30
280
     1
102
RTVSPost2010PropOp30
 70
     1
102
RTVSPost2010Prop31
280
     0
102
RTVSPost2010PropOp31
 70
     1
102
RTVSPost2010Prop32
280
     0
102
RTVSPost2010PropOp32
 70
     1
102
RTVSPost2010Prop33
280
     0
102
RTVSPost2010PropOp33
 70
     1
102
RTVSPost2010Prop34
280
     0
102
RTVSPost2010PropOp34
 70
     1
102
RTVSPost2010Prop35
280
     0
102
RTVSPost2010PropOp35
 70
     1
102
RTVSPost2010Prop36
280
     0
102
RTVSPost2010PropOp36
 70
     1
102
RTVSPost2010Prop37
 90
       50
102
RTVSPost2010PropOp37
 70
     1
102
RTVSPost2010Prop38
140
0.0
102
RTVSPost2010PropOp38
 70
     1
102
RTVSPost2010Prop39
140
1.0
102
RTVSPost2010PropOp39
 70
     1
102
RTVSPost2010Prop40
 90
        0
102
RTVSPost2010PropOp40
 70
     1
102
RTVSPost2010Prop41ColorIndex
 90
       18
102
RTVSPost2010Prop41ColorRGB
 90
        0
102
RTVSPost2010PropOp41
 70
     1
102
RTVSPost2010Prop42
 90
       50
102
RTVSPost2010PropOp42
 70
     1
102
RTVSPost2010Prop43
 90
        3
102
RTVSPost2010PropOp43
 70
     1
102
RTVSPost2010Prop44ColorIndex
 90
        5
102
RTVSPost2010Prop44ColorRGB
 90
      255
102
RTVSPost2010PropOp44
 70
     1
102
RTVSPost2010Prop45
280
     0
102
RTVSPost2010PropOp45
 70
     1
102
RTVSPost2010Prop46
 90
       50
102
RTVSPost2010PropOp46
 70
     1
102
RTVSPost2010Prop47
 90
       50
102
RTVSPost2010PropOp47
 70
     1
102
RTVSPost2010Prop48
 90
       50
102
RTVSPost2010PropOp48
 70
     1
102
RTVSPost2010Prop49
280
     0
102
RTVSPost2010PropOp49
 70
     1
102
RTVSPost2010Prop50
 90
       50
102
RTVSPost2010PropOp50
 70
     1
102
RTVSPost2010Prop51ColorIndex
 90
      256
102
RTVSPost2010Prop51ColorRGB
 90
-16777216
102
RTVSPost2010PropOp51
 70
     0
102
RTVSPost2010Prop52
140
1.0
102
RTVSPost2010PropOp52
 70
     0
102
RTVSPost2010Prop53
 90
        2
102
RTVSPost2010PropOp53
 70
     1
102
RTVSPost2010Prop54
  1
strokes_ogs.tif
102
RTVSPost2010PropOp54
 70
     1
102
RTVSPost2010Prop55
280
     0
102
RTVSPost2010PropOp55
 70
     1
102
RTVSPost2010Prop56
140
1.0
102
RTVSPost2010PropOp56
 70
     1
102
RTVSPost2010Prop57
140
1.0
102
RTVSPost2010PropOp57
 70
     1
102
RTVSPropertyOp0
 70
     1
102
RTVSPropertyOp1
 70
     1
102
RTVSPropertyOp2
 70
     1
102
RTVSPropertyOp3
 70
     1
102
RTVSPropertyOp4
 70
     1
102
RTVSPropertyOp5
 70
     1
102
RTVSPropertyOp6
 70
     1
102
RTVSPropertyOp7
 70
     1
102
RTVSPropertyOp8
 70
     1
102
RTVSPropertyOp9
 70
     1
102
RTVSPropertyOp10
 70
     1
102
RTVSPropertyOp11
 70
     1
102
RTVSPropertyOp12
 70
     1
102
RTVSPropertyOp13
 70
     1
102
RTVSPropertyOp14
 70
     1
102
RTVSPropertyOp15
 70
     1
102
RTVSPropertyOp16
 70
     1
102
RTVSPropertyOp17
 70
     1
102
RTVSPropertyOp18
 70
     1
102
RTVSPropertyOp19
 70
     1
102
RTVSPropertyOp20
 70
     1
102
RTVSPropertyOp21
 70
     1
102
RTVSPropertyOp22
 70
     1
102
RTVSPropertyOp23
 70
     1
102
RTVSPropertyOp24
 70
     1
102
RTVSPropertyOp25
 70
     1
102
RTVSPropertyOp26
 70
     1
102
RTVSPropertyOp27
 70
     1
102
RTVSPropertyOp28
 70
     1
102
RTVSPropertyOp29
 70
     1
102
RTVSPropertyOp30
 70
     1
102
RTVSPropertyOp31
 70
     1
102
RTVSPropertyOp32
 70
     1
102
RTVSPropertyOp33
 70
     1
102
RTVSPropertyOp34
 70
     1
102
RTVSPropertyOp35
 70
     1
102
RTVSPropertyOp36
 70
     1
102
RTVSPropertyOp37
 70
     1
102
RTVSPropertyOp38
 70
     1
102
RTVSPropertyOp39
 70
     1
102
RTVSPropertyOp40
 70
     1
102
RTVSPropertyOp41
 70
     1
102
RTVSPropertyOp42
 70
     1
102
RTVSPropertyOp43
 70
     1
102
RTVSPropertyOp44
 70
     1
102
RTVSPropertyOp45
 70
     1
102
RTVSPropertyOp46
 70
     1
102
RTVSPropertyOp47
 70
     1
102
RTVSPropertyOp48
 70
     1
102
RTVSPropertyOp49
 70
     1
102
RTVSPropertyOp50
 70
     1
102
RTVSPropertyOp51
 70
     0
102
RTVSPropertyOp52
 70
     0
102
RTVSPropertyOp53
 70
     1
102
RTVSPropertyOp54
 70
     1
102
RTVSPropertyOp55
 70
     1
102
RTVSPropertyOp56
 70
     1
102
RTVSPropertyOp57
 70
     1
102
RTVSPropertyOp58
 70
     1
102
RTVSPropertyOp59
 70
     1
102
RTVSPropertyOp60
 70
     1
102
RTVSPropertyOp61
 70
     1
102
RTVSPropertyOp62
 70
     1
  0
XRECORD
  5
3D2F
102
{ACAD_REACTORS
330
3D2E
102
}
330
3D2E
100
AcDbXrecord
280
     1
102
RTVSPost2010Prop28
280
     0
102
RTVSPost2010PropOp28
 70
     1
102
RTVSPost2010Prop29
280
     1
102
RTVSPost2010PropOp29
 70
     1
102
RTVSPost2010Prop30
280
     1
102
RTVSPost2010PropOp30
 70
     1
102
RTVSPost2010Prop31
280
     0
102
RTVSPost2010PropOp31
 70
     1
102
RTVSPost2010Prop32
280
     0
102
RTVSPost2010PropOp32
 70
     1
102
RTVSPost2010Prop33
280
     0
102
RTVSPost2010PropOp33
 70
     1
102
RTVSPost2010Prop34
280
     0
102
RTVSPost2010PropOp34
 70
     1
102
RTVSPost2010Prop35
280
     0
102
RTVSPost2010PropOp35
 70
     1
102
RTVSPost2010Prop36
280
     0
102
RTVSPost2010PropOp36
 70
     1
102
RTVSPost2010Prop37
 90
       50
102
RTVSPost2010PropOp37
 70
     1
102
RTVSPost2010Prop38
140
0.0
102
RTVSPost2010PropOp38
 70
     1
102
RTVSPost2010Prop39
140
1.0
102
RTVSPost2010PropOp39
 70
     1
102
RTVSPost2010Prop40
 90
        0
102
RTVSPost2010PropOp40
 70
     1
102
RTVSPost2010Prop41ColorIndex
 90
       18
102
RTVSPost2010Prop41ColorRGB
 90
        0
102
RTVSPost2010PropOp41
 70
     1
102
RTVSPost2010Prop42
 90
       50
102
RTVSPost2010PropOp42
 70
     1
102
RTVSPost2010Prop43
 90
        3
102
RTVSPost2010PropOp43
 70
     1
102
RTVSPost2010Prop44ColorIndex
 90
        5
102
RTVSPost2010Prop44ColorRGB
 90
      255
102
RTVSPost2010PropOp44
 70
     1
102
RTVSPost2010Prop45
280
     0
102
RTVSPost2010PropOp45
 70
     1
102
RTVSPost2010Prop46
 90
       50
102
RTVSPost2010PropOp46
 70
     1
102
RTVSPost2010Prop47
 90
       50
102
RTVSPost2010PropOp47
 70
     1
102
RTVSPost2010Prop48
 90
       50
102
RTVSPost2010PropOp48
 70
     1
102
RTVSPost2010Prop49
280
     0
102
RTVSPost2010PropOp49
 70
     1
102
RTVSPost2010Prop50
 90
       50
102
RTVSPost2010PropOp50
 70
     1
102
RTVSPost2010Prop51ColorIndex
 90
      256
102
RTVSPost2010Prop51ColorRGB
 90
-16777216
102
RTVSPost2010PropOp51
 70
     0
102
RTVSPost2010Prop52
140
1.0
102
RTVSPost2010PropOp52
 70
     0
102
RTVSPost2010Prop53
 90
        2
102
RTVSPost2010PropOp53
 70
     1
102
RTVSPost2010Prop54
  1
strokes_ogs.tif
102
RTVSPost2010PropOp54
 70
     1
102
RTVSPost2010Prop55
280
     0
102
RTVSPost2010PropOp55
 70
     1
102
RTVSPost2010Prop56
140
1.0
102
RTVSPost2010PropOp56
 70
     1
102
RTVSPost2010Prop57
140
1.0
102
RTVSPost2010PropOp57
 70
     1
102
RTVSPropertyOp0
 70
     1
102
RTVSPropertyOp1
 70
     1
102
RTVSPropertyOp2
 70
     1
102
RTVSPropertyOp3
 70
     1
102
RTVSPropertyOp4
 70
     1
102
RTVSPropertyOp5
 70
     1
102
RTVSPropertyOp6
 70
     1
102
RTVSPropertyOp7
 70
     1
102
RTVSPropertyOp8
 70
     1
102
RTVSPropertyOp9
 70
     1
102
RTVSPropertyOp10
 70
     1
102
RTVSPropertyOp11
 70
     1
102
RTVSPropertyOp12
 70
     1
102
RTVSPropertyOp13
 70
     1
102
RTVSPropertyOp14
 70
     1
102
RTVSPropertyOp15
 70
     1
102
RTVSPropertyOp16
 70
     1
102
RTVSPropertyOp17
 70
     1
102
RTVSPropertyOp18
 70
     1
102
RTVSPropertyOp19
 70
     1
102
RTVSPropertyOp20
 70
     1
102
RTVSPropertyOp21
 70
     1
102
RTVSPropertyOp22
 70
     1
102
RTVSPropertyOp23
 70
     1
102
RTVSPropertyOp24
 70
     1
102
RTVSPropertyOp25
 70
     1
102
RTVSPropertyOp26
 70
     1
102
RTVSPropertyOp27
 70
     1
102
RTVSPropertyOp28
 70
     1
102
RTVSPropertyOp29
 70
     1
102
RTVSPropertyOp30
 70
     1
102
RTVSPropertyOp31
 70
     1
102
RTVSPropertyOp32
 70
     1
102
RTVSPropertyOp33
 70
     1
102
RTVSPropertyOp34
 70
     1
102
RTVSPropertyOp35
 70
     1
102
RTVSPropertyOp36
 70
     1
102
RTVSPropertyOp37
 70
     1
102
RTVSPropertyOp38
 70
     1
102
RTVSPropertyOp39
 70
     1
102
RTVSPropertyOp40
 70
     1
102
RTVSPropertyOp41
 70
     1
102
RTVSPropertyOp42
 70
     1
102
RTVSPropertyOp43
 70
     1
102
RTVSPropertyOp44
 70
     1
102
RTVSPropertyOp45
 70
     1
102
RTVSPropertyOp46
 70
     1
102
RTVSPropertyOp47
 70
     1
102
RTVSPropertyOp48
 70
     1
102
RTVSPropertyOp49
 70
     1
102
RTVSPropertyOp50
 70
     1
102
RTVSPropertyOp51
 70
     0
102
RTVSPropertyOp52
 70
     0
102
RTVSPropertyOp53
 70
     1
102
RTVSPropertyOp54
 70
     1
102
RTVSPropertyOp55
 70
     1
102
RTVSPropertyOp56
 70
     1
102
RTVSPropertyOp57
 70
     1
102
RTVSPropertyOp58
 70
     1
102
RTVSPropertyOp59
 70
     1
102
RTVSPropertyOp60
 70
     1
102
RTVSPropertyOp61
 70
     1
102
RTVSPropertyOp62
 70
     1
  0
XRECORD
  5
3D31
102
{ACAD_REACTORS
330
3D30
102
}
330
3D30
100
AcDbXrecord
280
     1
102
RTVSPost2010Prop28
280
     0
102
RTVSPost2010PropOp28
 70
     1
102
RTVSPost2010Prop29
280
     1
102
RTVSPost2010PropOp29
 70
     1
102
RTVSPost2010Prop30
280
     1
102
RTVSPost2010PropOp30
 70
     1
102
RTVSPost2010Prop31
280
     0
102
RTVSPost2010PropOp31
 70
     1
102
RTVSPost2010Prop32
280
     0
102
RTVSPost2010PropOp32
 70
     1
102
RTVSPost2010Prop33
280
     0
102
RTVSPost2010PropOp33
 70
     1
102
RTVSPost2010Prop34
280
     0
102
RTVSPost2010PropOp34
 70
     1
102
RTVSPost2010Prop35
280
     0
102
RTVSPost2010PropOp35
 70
     1
102
RTVSPost2010Prop36
280
     0
102
RTVSPost2010PropOp36
 70
     1
102
RTVSPost2010Prop37
 90
       50
102
RTVSPost2010PropOp37
 70
     1
102
RTVSPost2010Prop38
140
0.0
102
RTVSPost2010PropOp38
 70
     1
102
RTVSPost2010Prop39
140
1.0
102
RTVSPost2010PropOp39
 70
     1
102
RTVSPost2010Prop40
 90
        0
102
RTVSPost2010PropOp40
 70
     1
102
RTVSPost2010Prop41ColorIndex
 90
       18
102
RTVSPost2010Prop41ColorRGB
 90
        0
102
RTVSPost2010PropOp41
 70
     1
102
RTVSPost2010Prop42
 90
       50
102
RTVSPost2010PropOp42
 70
     1
102
RTVSPost2010Prop43
 90
        3
102
RTVSPost2010PropOp43
 70
     1
102
RTVSPost2010Prop44ColorIndex
 90
        5
102
RTVSPost2010Prop44ColorRGB
 90
      255
102
RTVSPost2010PropOp44
 70
     1
102
RTVSPost2010Prop45
280
     0
102
RTVSPost2010PropOp45
 70
     1
102
RTVSPost2010Prop46
 90
       50
102
RTVSPost2010PropOp46
 70
     1
102
RTVSPost2010Prop47
 90
       50
102
RTVSPost2010PropOp47
 70
     1
102
RTVSPost2010Prop48
 90
       50
102
RTVSPost2010PropOp48
 70
     1
102
RTVSPost2010Prop49
280
     0
102
RTVSPost2010PropOp49
 70
     1
102
RTVSPost2010Prop50
 90
       50
102
RTVSPost2010PropOp50
 70
     1
102
RTVSPost2010Prop51ColorIndex
 90
      256
102
RTVSPost2010Prop51ColorRGB
 90
-16777216
102
RTVSPost2010PropOp51
 70
     0
102
RTVSPost2010Prop52
140
1.0
102
RTVSPost2010PropOp52
 70
     0
102
RTVSPost2010Prop53
 90
        2
102
RTVSPost2010PropOp53
 70
     1
102
RTVSPost2010Prop54
  1
strokes_ogs.tif
102
RTVSPost2010PropOp54
 70
     1
102
RTVSPost2010Prop55
280
     0
102
RTVSPost2010PropOp55
 70
     1
102
RTVSPost2010Prop56
140
1.0
102
RTVSPost2010PropOp56
 70
     1
102
RTVSPost2010Prop57
140
1.0
102
RTVSPost2010PropOp57
 70
     1
102
RTVSPropertyOp0
 70
     1
102
RTVSPropertyOp1
 70
     1
102
RTVSPropertyOp2
 70
     1
102
RTVSPropertyOp3
 70
     1
102
RTVSPropertyOp4
 70
     1
102
RTVSPropertyOp5
 70
     1
102
RTVSPropertyOp6
 70
     1
102
RTVSPropertyOp7
 70
     1
102
RTVSPropertyOp8
 70
     1
102
RTVSPropertyOp9
 70
     1
102
RTVSPropertyOp10
 70
     1
102
RTVSPropertyOp11
 70
     1
102
RTVSPropertyOp12
 70
     1
102
RTVSPropertyOp13
 70
     1
102
RTVSPropertyOp14
 70
     1
102
RTVSPropertyOp15
 70
     1
102
RTVSPropertyOp16
 70
     1
102
RTVSPropertyOp17
 70
     1
102
RTVSPropertyOp18
 70
     1
102
RTVSPropertyOp19
 70
     1
102
RTVSPropertyOp20
 70
     1
102
RTVSPropertyOp21
 70
     1
102
RTVSPropertyOp22
 70
     1
102
RTVSPropertyOp23
 70
     1
102
RTVSPropertyOp24
 70
     1
102
RTVSPropertyOp25
 70
     1
102
RTVSPropertyOp26
 70
     1
102
RTVSPropertyOp27
 70
     1
102
RTVSPropertyOp28
 70
     1
102
RTVSPropertyOp29
 70
     1
102
RTVSPropertyOp30
 70
     1
102
RTVSPropertyOp31
 70
     1
102
RTVSPropertyOp32
 70
     1
102
RTVSPropertyOp33
 70
     1
102
RTVSPropertyOp34
 70
     1
102
RTVSPropertyOp35
 70
     1
102
RTVSPropertyOp36
 70
     1
102
RTVSPropertyOp37
 70
     1
102
RTVSPropertyOp38
 70
     1
102
RTVSPropertyOp39
 70
     1
102
RTVSPropertyOp40
 70
     1
102
RTVSPropertyOp41
 70
     1
102
RTVSPropertyOp42
 70
     1
102
RTVSPropertyOp43
 70
     1
102
RTVSPropertyOp44
 70
     1
102
RTVSPropertyOp45
 70
     1
102
RTVSPropertyOp46
 70
     1
102
RTVSPropertyOp47
 70
     1
102
RTVSPropertyOp48
 70
     1
102
RTVSPropertyOp49
 70
     1
102
RTVSPropertyOp50
 70
     1
102
RTVSPropertyOp51
 70
     0
102
RTVSPropertyOp52
 70
     0
102
RTVSPropertyOp53
 70
     1
102
RTVSPropertyOp54
 70
     1
102
RTVSPropertyOp55
 70
     1
102
RTVSPropertyOp56
 70
     1
102
RTVSPropertyOp57
 70
     1
102
RTVSPropertyOp58
 70
     1
102
RTVSPropertyOp59
 70
     1
102
RTVSPropertyOp60
 70
     1
102
RTVSPropertyOp61
 70
     1
102
RTVSPropertyOp62
 70
     1
  0
XRECORD
  5
3D74
102
{ACAD_REACTORS
330
3D73
102
}
330
3D73
100
AcDbXrecord
280
     1
102
RTVSPost2010Prop28
280
     0
102
RTVSPost2010PropOp28
 70
     1
102
RTVSPost2010Prop29
280
     1
102
RTVSPost2010PropOp29
 70
     1
102
RTVSPost2010Prop30
280
     1
102
RTVSPost2010PropOp30
 70
     1
102
RTVSPost2010Prop31
280
     0
102
RTVSPost2010PropOp31
 70
     1
102
RTVSPost2010Prop32
280
     0
102
RTVSPost2010PropOp32
 70
     1
102
RTVSPost2010Prop33
280
     0
102
RTVSPost2010PropOp33
 70
     1
102
RTVSPost2010Prop34
280
     0
102
RTVSPost2010PropOp34
 70
     1
102
RTVSPost2010Prop35
280
     0
102
RTVSPost2010PropOp35
 70
     1
102
RTVSPost2010Prop36
280
     0
102
RTVSPost2010PropOp36
 70
     1
102
RTVSPost2010Prop37
 90
       50
102
RTVSPost2010PropOp37
 70
     1
102
RTVSPost2010Prop38
140
0.0
102
RTVSPost2010PropOp38
 70
     1
102
RTVSPost2010Prop39
140
1.0
102
RTVSPost2010PropOp39
 70
     1
102
RTVSPost2010Prop40
 90
        0
102
RTVSPost2010PropOp40
 70
     1
102
RTVSPost2010Prop41ColorIndex
 90
       18
102
RTVSPost2010Prop41ColorRGB
 90
        0
102
RTVSPost2010PropOp41
 70
     1
102
RTVSPost2010Prop42
 90
       50
102
RTVSPost2010PropOp42
 70
     1
102
RTVSPost2010Prop43
 90
        3
102
RTVSPost2010PropOp43
 70
     1
102
RTVSPost2010Prop44ColorIndex
 90
        5
102
RTVSPost2010Prop44ColorRGB
 90
      255
102
RTVSPost2010PropOp44
 70
     1
102
RTVSPost2010Prop45
280
     0
102
RTVSPost2010PropOp45
 70
     1
102
RTVSPost2010Prop46
 90
       50
102
RTVSPost2010PropOp46
 70
     1
102
RTVSPost2010Prop47
 90
       50
102
RTVSPost2010PropOp47
 70
     1
102
RTVSPost2010Prop48
 90
       50
102
RTVSPost2010PropOp48
 70
     1
102
RTVSPost2010Prop49
280
     0
102
RTVSPost2010PropOp49
 70
     1
102
RTVSPost2010Prop50
 90
       50
102
RTVSPost2010PropOp50
 70
     1
102
RTVSPost2010Prop51ColorIndex
 90
      256
102
RTVSPost2010Prop51ColorRGB
 90
-16777216
102
RTVSPost2010PropOp51
 70
     0
102
RTVSPost2010Prop52
140
1.0
102
RTVSPost2010PropOp52
 70
     0
102
RTVSPost2010Prop53
 90
        2
102
RTVSPost2010PropOp53
 70
     1
102
RTVSPost2010Prop54
  1
strokes_ogs.tif
102
RTVSPost2010PropOp54
 70
     1
102
RTVSPost2010Prop55
280
     0
102
RTVSPost2010PropOp55
 70
     1
102
RTVSPost2010Prop56
140
1.0
102
RTVSPost2010PropOp56
 70
     1
102
RTVSPost2010Prop57
140
1.0
102
RTVSPost2010PropOp57
 70
     1
102
RTVSPropertyOp0
 70
     1
102
RTVSPropertyOp1
 70
     1
102
RTVSPropertyOp2
 70
     1
102
RTVSPropertyOp3
 70
     1
102
RTVSPropertyOp4
 70
     1
102
RTVSPropertyOp5
 70
     1
102
RTVSPropertyOp6
 70
     1
102
RTVSPropertyOp7
 70
     1
102
RTVSPropertyOp8
 70
     1
102
RTVSPropertyOp9
 70
     1
102
RTVSPropertyOp10
 70
     1
102
RTVSPropertyOp11
 70
     1
102
RTVSPropertyOp12
 70
     1
102
RTVSPropertyOp13
 70
     1
102
RTVSPropertyOp14
 70
     1
102
RTVSPropertyOp15
 70
     1
102
RTVSPropertyOp16
 70
     1
102
RTVSPropertyOp17
 70
     1
102
RTVSPropertyOp18
 70
     1
102
RTVSPropertyOp19
 70
     1
102
RTVSPropertyOp20
 70
     1
102
RTVSPropertyOp21
 70
     1
102
RTVSPropertyOp22
 70
     1
102
RTVSPropertyOp23
 70
     1
102
RTVSPropertyOp24
 70
     1
102
RTVSPropertyOp25
 70
     1
102
RTVSPropertyOp26
 70
     1
102
RTVSPropertyOp27
 70
     1
102
RTVSPropertyOp28
 70
     1
102
RTVSPropertyOp29
 70
     1
102
RTVSPropertyOp30
 70
     1
102
RTVSPropertyOp31
 70
     1
102
RTVSPropertyOp32
 70
     1
102
RTVSPropertyOp33
 70
     1
102
RTVSPropertyOp34
 70
     1
102
RTVSPropertyOp35
 70
     1
102
RTVSPropertyOp36
 70
     1
102
RTVSPropertyOp37
 70
     1
102
RTVSPropertyOp38
 70
     1
102
RTVSPropertyOp39
 70
     1
102
RTVSPropertyOp40
 70
     1
102
RTVSPropertyOp41
 70
     1
102
RTVSPropertyOp42
 70
     1
102
RTVSPropertyOp43
 70
     1
102
RTVSPropertyOp44
 70
     1
102
RTVSPropertyOp45
 70
     1
102
RTVSPropertyOp46
 70
     1
102
RTVSPropertyOp47
 70
     1
102
RTVSPropertyOp48
 70
     1
102
RTVSPropertyOp49
 70
     1
102
RTVSPropertyOp50
 70
     1
102
RTVSPropertyOp51
 70
     0
102
RTVSPropertyOp52
 70
     0
102
RTVSPropertyOp53
 70
     1
102
RTVSPropertyOp54
 70
     1
102
RTVSPropertyOp55
 70
     1
102
RTVSPropertyOp56
 70
     1
102
RTVSPropertyOp57
 70
     1
102
RTVSPropertyOp58
 70
     1
102
RTVSPropertyOp59
 70
     1
102
RTVSPropertyOp60
 70
     1
102
RTVSPropertyOp61
 70
     1
102
RTVSPropertyOp62
 70
     1
  0
XRECORD
  5
3D4B
102
{ACAD_REACTORS
330
3D4A
102
}
330
3D4A
100
AcDbXrecord
280
     1
102
RTVSPost2010Prop28
280
     0
102
RTVSPost2010PropOp28
 70
     1
102
RTVSPost2010Prop29
280
     1
102
RTVSPost2010PropOp29
 70
     1
102
RTVSPost2010Prop30
280
     1
102
RTVSPost2010PropOp30
 70
     1
102
RTVSPost2010Prop31
280
     0
102
RTVSPost2010PropOp31
 70
     1
102
RTVSPost2010Prop32
280
     0
102
RTVSPost2010PropOp32
 70
     1
102
RTVSPost2010Prop33
280
     0
102
RTVSPost2010PropOp33
 70
     1
102
RTVSPost2010Prop34
280
     0
102
RTVSPost2010PropOp34
 70
     1
102
RTVSPost2010Prop35
280
     0
102
RTVSPost2010PropOp35
 70
     1
102
RTVSPost2010Prop36
280
     0
102
RTVSPost2010PropOp36
 70
     1
102
RTVSPost2010Prop37
 90
       50
102
RTVSPost2010PropOp37
 70
     1
102
RTVSPost2010Prop38
140
0.0
102
RTVSPost2010PropOp38
 70
     1
102
RTVSPost2010Prop39
140
1.0
102
RTVSPost2010PropOp39
 70
     1
102
RTVSPost2010Prop40
 90
        0
102
RTVSPost2010PropOp40
 70
     1
102
RTVSPost2010Prop41ColorIndex
 90
       18
102
RTVSPost2010Prop41ColorRGB
 90
        0
102
RTVSPost2010PropOp41
 70
     1
102
RTVSPost2010Prop42
 90
       50
102
RTVSPost2010PropOp42
 70
     1
102
RTVSPost2010Prop43
 90
        3
102
RTVSPost2010PropOp43
 70
     1
102
RTVSPost2010Prop44ColorIndex
 90
        5
102
RTVSPost2010Prop44ColorRGB
 90
      255
102
RTVSPost2010PropOp44
 70
     1
102
RTVSPost2010Prop45
280
     0
102
RTVSPost2010PropOp45
 70
     1
102
RTVSPost2010Prop46
 90
       50
102
RTVSPost2010PropOp46
 70
     1
102
RTVSPost2010Prop47
 90
       50
102
RTVSPost2010PropOp47
 70
     1
102
RTVSPost2010Prop48
 90
       50
102
RTVSPost2010PropOp48
 70
     1
102
RTVSPost2010Prop49
280
     0
102
RTVSPost2010PropOp49
 70
     1
102
RTVSPost2010Prop50
 90
       50
102
RTVSPost2010PropOp50
 70
     1
102
RTVSPost2010Prop51ColorIndex
 90
      256
102
RTVSPost2010Prop51ColorRGB
 90
-16777216
102
RTVSPost2010PropOp51
 70
     0
102
RTVSPost2010Prop52
140
1.0
102
RTVSPost2010PropOp52
 70
     0
102
RTVSPost2010Prop53
 90
        2
102
RTVSPost2010PropOp53
 70
     1
102
RTVSPost2010Prop54
  1
strokes_ogs.tif
102
RTVSPost2010PropOp54
 70
     1
102
RTVSPost2010Prop55
280
     0
102
RTVSPost2010PropOp55
 70
     1
102
RTVSPost2010Prop56
140
1.0
102
RTVSPost2010PropOp56
 70
     1
102
RTVSPost2010Prop57
140
1.0
102
RTVSPost2010PropOp57
 70
     1
102
RTVSPropertyOp0
 70
     0
102
RTVSPropertyOp1
 70
     0
102
RTVSPropertyOp2
 70
     0
102
RTVSPropertyOp3
 70
     0
102
RTVSPropertyOp4
 70
     0
102
RTVSPropertyOp5
 70
     0
102
RTVSPropertyOp6
 70
     0
102
RTVSPropertyOp7
 70
     0
102
RTVSPropertyOp8
 70
     0
102
RTVSPropertyOp9
 70
     0
102
RTVSPropertyOp10
 70
     0
102
RTVSPropertyOp11
 70
     0
102
RTVSPropertyOp12
 70
     0
102
RTVSPropertyOp13
 70
     0
102
RTVSPropertyOp14
 70
     2
102
RTVSPropertyOp15
 70
     0
102
RTVSPropertyOp16
 70
     0
102
RTVSPropertyOp17
 70
     0
102
RTVSPropertyOp18
 70
     0
102
RTVSPropertyOp19
 70
     0
102
RTVSPropertyOp20
 70
     0
102
RTVSPropertyOp21
 70
     0
102
RTVSPropertyOp22
 70
     0
102
RTVSPropertyOp23
 70
     0
102
RTVSPropertyOp24
 70
     0
102
RTVSPropertyOp25
 70
     0
102
RTVSPropertyOp26
 70
     0
102
RTVSPropertyOp27
 70
     0
102
RTVSPropertyOp28
 70
     1
102
RTVSPropertyOp29
 70
     1
102
RTVSPropertyOp30
 70
     1
102
RTVSPropertyOp31
 70
     1
102
RTVSPropertyOp32
 70
     1
102
RTVSPropertyOp33
 70
     1
102
RTVSPropertyOp34
 70
     1
102
RTVSPropertyOp35
 70
     1
102
RTVSPropertyOp36
 70
     1
102
RTVSPropertyOp37
 70
     1
102
RTVSPropertyOp38
 70
     1
102
RTVSPropertyOp39
 70
     1
102
RTVSPropertyOp40
 70
     1
102
RTVSPropertyOp41
 70
     1
102
RTVSPropertyOp42
 70
     1
102
RTVSPropertyOp43
 70
     1
102
RTVSPropertyOp44
 70
     1
102
RTVSPropertyOp45
 70
     1
102
RTVSPropertyOp46
 70
     1
102
RTVSPropertyOp47
 70
     1
102
RTVSPropertyOp48
 70
     1
102
RTVSPropertyOp49
 70
     1
102
RTVSPropertyOp50
 70
     1
102
RTVSPropertyOp51
 70
     0
102
RTVSPropertyOp52
 70
     0
102
RTVSPropertyOp53
 70
     1
102
RTVSPropertyOp54
 70
     1
102
RTVSPropertyOp55
 70
     1
102
RTVSPropertyOp56
 70
     1
102
RTVSPropertyOp57
 70
     1
102
RTVSPropertyOp58
 70
     1
102
RTVSPropertyOp59
 70
     1
102
RTVSPropertyOp60
 70
     1
102
RTVSPropertyOp61
 70
     1
102
RTVSPropertyOp62
 70
     1
  0
XRECORD
  5
3D45
102
{ACAD_REACTORS
330
3D44
102
}
330
3D44
100
AcDbXrecord
280
     1
102
RTVSPost2010Prop28
280
     0
102
RTVSPost2010PropOp28
 70
     1
102
RTVSPost2010Prop29
280
     1
102
RTVSPost2010PropOp29
 70
     1
102
RTVSPost2010Prop30
280
     1
102
RTVSPost2010PropOp30
 70
     1
102
RTVSPost2010Prop31
280
     0
102
RTVSPost2010PropOp31
 70
     1
102
RTVSPost2010Prop32
280
     0
102
RTVSPost2010PropOp32
 70
     1
102
RTVSPost2010Prop33
280
     0
102
RTVSPost2010PropOp33
 70
     1
102
RTVSPost2010Prop34
280
     0
102
RTVSPost2010PropOp34
 70
     1
102
RTVSPost2010Prop35
280
     0
102
RTVSPost2010PropOp35
 70
     1
102
RTVSPost2010Prop36
280
     0
102
RTVSPost2010PropOp36
 70
     1
102
RTVSPost2010Prop37
 90
       50
102
RTVSPost2010PropOp37
 70
     1
102
RTVSPost2010Prop38
140
0.0
102
RTVSPost2010PropOp38
 70
     1
102
RTVSPost2010Prop39
140
1.0
102
RTVSPost2010PropOp39
 70
     1
102
RTVSPost2010Prop40
 90
        0
102
RTVSPost2010PropOp40
 70
     1
102
RTVSPost2010Prop41ColorIndex
 90
       18
102
RTVSPost2010Prop41ColorRGB
 90
        0
102
RTVSPost2010PropOp41
 70
     1
102
RTVSPost2010Prop42
 90
       50
102
RTVSPost2010PropOp42
 70
     1
102
RTVSPost2010Prop43
 90
        3
102
RTVSPost2010PropOp43
 70
     1
102
RTVSPost2010Prop44ColorIndex
 90
        5
102
RTVSPost2010Prop44ColorRGB
 90
      255
102
RTVSPost2010PropOp44
 70
     1
102
RTVSPost2010Prop45
280
     0
102
RTVSPost2010PropOp45
 70
     1
102
RTVSPost2010Prop46
 90
       50
102
RTVSPost2010PropOp46
 70
     1
102
RTVSPost2010Prop47
 90
       50
102
RTVSPost2010PropOp47
 70
     1
102
RTVSPost2010Prop48
 90
       50
102
RTVSPost2010PropOp48
 70
     1
102
RTVSPost2010Prop49
280
     0
102
RTVSPost2010PropOp49
 70
     1
102
RTVSPost2010Prop50
 90
       50
102
RTVSPost2010PropOp50
 70
     1
102
RTVSPost2010Prop51ColorIndex
 90
      256
102
RTVSPost2010Prop51ColorRGB
 90
-16777216
102
RTVSPost2010PropOp51
 70
     0
102
RTVSPost2010Prop52
140
1.0
102
RTVSPost2010PropOp52
 70
     0
102
RTVSPost2010Prop53
 90
        2
102
RTVSPost2010PropOp53
 70
     1
102
RTVSPost2010Prop54
  1
strokes_ogs.tif
102
RTVSPost2010PropOp54
 70
     1
102
RTVSPost2010Prop55
280
     0
102
RTVSPost2010PropOp55
 70
     1
102
RTVSPost2010Prop56
140
1.0
102
RTVSPost2010PropOp56
 70
     1
102
RTVSPost2010Prop57
140
1.0
102
RTVSPost2010PropOp57
 70
     1
102
RTVSPropertyOp0
 70
     1
102
RTVSPropertyOp1
 70
     1
102
RTVSPropertyOp2
 70
     1
102
RTVSPropertyOp3
 70
     1
102
RTVSPropertyOp4
 70
     1
102
RTVSPropertyOp5
 70
     1
102
RTVSPropertyOp6
 70
     1
102
RTVSPropertyOp7
 70
     1
102
RTVSPropertyOp8
 70
     1
102
RTVSPropertyOp9
 70
     1
102
RTVSPropertyOp10
 70
     1
102
RTVSPropertyOp11
 70
     1
102
RTVSPropertyOp12
 70
     1
102
RTVSPropertyOp13
 70
     1
102
RTVSPropertyOp14
 70
     1
102
RTVSPropertyOp15
 70
     1
102
RTVSPropertyOp16
 70
     1
102
RTVSPropertyOp17
 70
     1
102
RTVSPropertyOp18
 70
     1
102
RTVSPropertyOp19
 70
     1
102
RTVSPropertyOp20
 70
     1
102
RTVSPropertyOp21
 70
     1
102
RTVSPropertyOp22
 70
     1
102
RTVSPropertyOp23
 70
     1
102
RTVSPropertyOp24
 70
     1
102
RTVSPropertyOp25
 70
     1
102
RTVSPropertyOp26
 70
     1
102
RTVSPropertyOp27
 70
     1
102
RTVSPropertyOp28
 70
     1
102
RTVSPropertyOp29
 70
     1
102
RTVSPropertyOp30
 70
     1
102
RTVSPropertyOp31
 70
     1
102
RTVSPropertyOp32
 70
     1
102
RTVSPropertyOp33
 70
     1
102
RTVSPropertyOp34
 70
     1
102
RTVSPropertyOp35
 70
     1
102
RTVSPropertyOp36
 70
     1
102
RTVSPropertyOp37
 70
     1
102
RTVSPropertyOp38
 70
     1
102
RTVSPropertyOp39
 70
     1
102
RTVSPropertyOp40
 70
     1
102
RTVSPropertyOp41
 70
     1
102
RTVSPropertyOp42
 70
     1
102
RTVSPropertyOp43
 70
     1
102
RTVSPropertyOp44
 70
     1
102
RTVSPropertyOp45
 70
     1
102
RTVSPropertyOp46
 70
     1
102
RTVSPropertyOp47
 70
     1
102
RTVSPropertyOp48
 70
     1
102
RTVSPropertyOp49
 70
     1
102
RTVSPropertyOp50
 70
     1
102
RTVSPropertyOp51
 70
     0
102
RTVSPropertyOp52
 70
     0
102
RTVSPropertyOp53
 70
     1
102
RTVSPropertyOp54
 70
     1
102
RTVSPropertyOp55
 70
     1
102
RTVSPropertyOp56
 70
     1
102
RTVSPropertyOp57
 70
     1
102
RTVSPropertyOp58
 70
     1
102
RTVSPropertyOp59
 70
     1
102
RTVSPropertyOp60
 70
     1
102
RTVSPropertyOp61
 70
     1
102
RTVSPropertyOp62
 70
     1
  0
XRECORD
  5
3D4D
102
{ACAD_REACTORS
330
3D4C
102
}
330
3D4C
100
AcDbXrecord
280
     1
102
RTVSPost2010Prop28
280
     0
102
RTVSPost2010PropOp28
 70
     1
102
RTVSPost2010Prop29
280
     1
102
RTVSPost2010PropOp29
 70
     1
102
RTVSPost2010Prop30
280
     1
102
RTVSPost2010PropOp30
 70
     1
102
RTVSPost2010Prop31
280
     0
102
RTVSPost2010PropOp31
 70
     1
102
RTVSPost2010Prop32
280
     0
102
RTVSPost2010PropOp32
 70
     1
102
RTVSPost2010Prop33
280
     0
102
RTVSPost2010PropOp33
 70
     1
102
RTVSPost2010Prop34
280
     0
102
RTVSPost2010PropOp34
 70
     1
102
RTVSPost2010Prop35
280
     0
102
RTVSPost2010PropOp35
 70
     1
102
RTVSPost2010Prop36
280
     0
102
RTVSPost2010PropOp36
 70
     1
102
RTVSPost2010Prop37
 90
       50
102
RTVSPost2010PropOp37
 70
     1
102
RTVSPost2010Prop38
140
0.0
102
RTVSPost2010PropOp38
 70
     1
102
RTVSPost2010Prop39
140
1.0
102
RTVSPost2010PropOp39
 70
     1
102
RTVSPost2010Prop40
 90
        0
102
RTVSPost2010PropOp40
 70
     1
102
RTVSPost2010Prop41ColorIndex
 90
       18
102
RTVSPost2010Prop41ColorRGB
 90
        0
102
RTVSPost2010PropOp41
 70
     1
102
RTVSPost2010Prop42
 90
       50
102
RTVSPost2010PropOp42
 70
     1
102
RTVSPost2010Prop43
 90
        3
102
RTVSPost2010PropOp43
 70
     1
102
RTVSPost2010Prop44ColorIndex
 90
        5
102
RTVSPost2010Prop44ColorRGB
 90
      255
102
RTVSPost2010PropOp44
 70
     1
102
RTVSPost2010Prop45
280
     0
102
RTVSPost2010PropOp45
 70
     1
102
RTVSPost2010Prop46
 90
       50
102
RTVSPost2010PropOp46
 70
     1
102
RTVSPost2010Prop47
 90
       50
102
RTVSPost2010PropOp47
 70
     1
102
RTVSPost2010Prop48
 90
       50
102
RTVSPost2010PropOp48
 70
     1
102
RTVSPost2010Prop49
280
     0
102
RTVSPost2010PropOp49
 70
     1
102
RTVSPost2010Prop50
 90
       50
102
RTVSPost2010PropOp50
 70
     1
102
RTVSPost2010Prop51ColorIndex
 90
      256
102
RTVSPost2010Prop51ColorRGB
 90
-16777216
102
RTVSPost2010PropOp51
 70
     0
102
RTVSPost2010Prop52
140
1.0
102
RTVSPost2010PropOp52
 70
     0
102
RTVSPost2010Prop53
 90
        2
102
RTVSPost2010PropOp53
 70
     1
102
RTVSPost2010Prop54
  1
strokes_ogs.tif
102
RTVSPost2010PropOp54
 70
     1
102
RTVSPost2010Prop55
280
     0
102
RTVSPost2010PropOp55
 70
     1
102
RTVSPost2010Prop56
140
1.0
102
RTVSPost2010PropOp56
 70
     1
102
RTVSPost2010Prop57
140
1.0
102
RTVSPost2010PropOp57
 70
     1
102
RTVSPropertyOp0
 70
     0
102
RTVSPropertyOp1
 70
     0
102
RTVSPropertyOp2
 70
     0
102
RTVSPropertyOp3
 70
     0
102
RTVSPropertyOp4
 70
     0
102
RTVSPropertyOp5
 70
     0
102
RTVSPropertyOp6
 70
     0
102
RTVSPropertyOp7
 70
     0
102
RTVSPropertyOp8
 70
     0
102
RTVSPropertyOp9
 70
     0
102
RTVSPropertyOp10
 70
     0
102
RTVSPropertyOp11
 70
     0
102
RTVSPropertyOp12
 70
     0
102
RTVSPropertyOp13
 70
     0
102
RTVSPropertyOp14
 70
     2
102
RTVSPropertyOp15
 70
     0
102
RTVSPropertyOp16
 70
     0
102
RTVSPropertyOp17
 70
     0
102
RTVSPropertyOp18
 70
     0
102
RTVSPropertyOp19
 70
     0
102
RTVSPropertyOp20
 70
     0
102
RTVSPropertyOp21
 70
     0
102
RTVSPropertyOp22
 70
     0
102
RTVSPropertyOp23
 70
     0
102
RTVSPropertyOp24
 70
     0
102
RTVSPropertyOp25
 70
     0
102
RTVSPropertyOp26
 70
     0
102
RTVSPropertyOp27
 70
     0
102
RTVSPropertyOp28
 70
     1
102
RTVSPropertyOp29
 70
     1
102
RTVSPropertyOp30
 70
     1
102
RTVSPropertyOp31
 70
     1
102
RTVSPropertyOp32
 70
     1
102
RTVSPropertyOp33
 70
     1
102
RTVSPropertyOp34
 70
     1
102
RTVSPropertyOp35
 70
     1
102
RTVSPropertyOp36
 70
     1
102
RTVSPropertyOp37
 70
     1
102
RTVSPropertyOp38
 70
     1
102
RTVSPropertyOp39
 70
     1
102
RTVSPropertyOp40
 70
     1
102
RTVSPropertyOp41
 70
     1
102
RTVSPropertyOp42
 70
     1
102
RTVSPropertyOp43
 70
     1
102
RTVSPropertyOp44
 70
     1
102
RTVSPropertyOp45
 70
     1
102
RTVSPropertyOp46
 70
     1
102
RTVSPropertyOp47
 70
     1
102
RTVSPropertyOp48
 70
     1
102
RTVSPropertyOp49
 70
     1
102
RTVSPropertyOp50
 70
     1
102
RTVSPropertyOp51
 70
     0
102
RTVSPropertyOp52
 70
     0
102
RTVSPropertyOp53
 70
     1
102
RTVSPropertyOp54
 70
     1
102
RTVSPropertyOp55
 70
     1
102
RTVSPropertyOp56
 70
     1
102
RTVSPropertyOp57
 70
     1
102
RTVSPropertyOp58
 70
     1
102
RTVSPropertyOp59
 70
     1
102
RTVSPropertyOp60
 70
     1
102
RTVSPropertyOp61
 70
     1
102
RTVSPropertyOp62
 70
     1
  0
XRECORD
  5
3D3D
102
{ACAD_REACTORS
330
3D3C
102
}
330
3D3C
100
AcDbXrecord
280
     1
102
RTVSPost2010Prop28
280
     0
102
RTVSPost2010PropOp28
 70
     1
102
RTVSPost2010Prop29
280
     1
102
RTVSPost2010PropOp29
 70
     1
102
RTVSPost2010Prop30
280
     1
102
RTVSPost2010PropOp30
 70
     1
102
RTVSPost2010Prop31
280
     0
102
RTVSPost2010PropOp31
 70
     1
102
RTVSPost2010Prop32
280
     0
102
RTVSPost2010PropOp32
 70
     1
102
RTVSPost2010Prop33
280
     0
102
RTVSPost2010PropOp33
 70
     1
102
RTVSPost2010Prop34
280
     0
102
RTVSPost2010PropOp34
 70
     1
102
RTVSPost2010Prop35
280
     0
102
RTVSPost2010PropOp35
 70
     1
102
RTVSPost2010Prop36
280
     0
102
RTVSPost2010PropOp36
 70
     1
102
RTVSPost2010Prop37
 90
       50
102
RTVSPost2010PropOp37
 70
     1
102
RTVSPost2010Prop38
140
0.0
102
RTVSPost2010PropOp38
 70
     1
102
RTVSPost2010Prop39
140
1.0
102
RTVSPost2010PropOp39
 70
     1
102
RTVSPost2010Prop40
 90
        0
102
RTVSPost2010PropOp40
 70
     1
102
RTVSPost2010Prop41ColorIndex
 90
       18
102
RTVSPost2010Prop41ColorRGB
 90
        0
102
RTVSPost2010PropOp41
 70
     1
102
RTVSPost2010Prop42
 90
       50
102
RTVSPost2010PropOp42
 70
     1
102
RTVSPost2010Prop43
 90
        3
102
RTVSPost2010PropOp43
 70
     1
102
RTVSPost2010Prop44ColorIndex
 90
        5
102
RTVSPost2010Prop44ColorRGB
 90
      255
102
RTVSPost2010PropOp44
 70
     1
102
RTVSPost2010Prop45
280
     0
102
RTVSPost2010PropOp45
 70
     1
102
RTVSPost2010Prop46
 90
       50
102
RTVSPost2010PropOp46
 70
     1
102
RTVSPost2010Prop47
 90
       50
102
RTVSPost2010PropOp47
 70
     1
102
RTVSPost2010Prop48
 90
       50
102
RTVSPost2010PropOp48
 70
     1
102
RTVSPost2010Prop49
280
     0
102
RTVSPost2010PropOp49
 70
     1
102
RTVSPost2010Prop50
 90
       50
102
RTVSPost2010PropOp50
 70
     1
102
RTVSPost2010Prop51ColorIndex
 90
      256
102
RTVSPost2010Prop51ColorRGB
 90
-16777216
102
RTVSPost2010PropOp51
 70
     0
102
RTVSPost2010Prop52
140
1.0
102
RTVSPost2010PropOp52
 70
     0
102
RTVSPost2010Prop53
 90
        2
102
RTVSPost2010PropOp53
 70
     1
102
RTVSPost2010Prop54
  1
strokes_ogs.tif
102
RTVSPost2010PropOp54
 70
     1
102
RTVSPost2010Prop55
280
     0
102
RTVSPost2010PropOp55
 70
     1
102
RTVSPost2010Prop56
140
1.0
102
RTVSPost2010PropOp56
 70
     1
102
RTVSPost2010Prop57
140
1.0
102
RTVSPost2010PropOp57
 70
     1
102
RTVSPropertyOp0
 70
     1
102
RTVSPropertyOp1
 70
     1
102
RTVSPropertyOp2
 70
     1
102
RTVSPropertyOp3
 70
     1
102
RTVSPropertyOp4
 70
     1
102
RTVSPropertyOp5
 70
     1
102
RTVSPropertyOp6
 70
     1
102
RTVSPropertyOp7
 70
     1
102
RTVSPropertyOp8
 70
     1
102
RTVSPropertyOp9
 70
     1
102
RTVSPropertyOp10
 70
     1
102
RTVSPropertyOp11
 70
     1
102
RTVSPropertyOp12
 70
     1
102
RTVSPropertyOp13
 70
     1
102
RTVSPropertyOp14
 70
     1
102
RTVSPropertyOp15
 70
     1
102
RTVSPropertyOp16
 70
     1
102
RTVSPropertyOp17
 70
     1
102
RTVSPropertyOp18
 70
     1
102
RTVSPropertyOp19
 70
     1
102
RTVSPropertyOp20
 70
     1
102
RTVSPropertyOp21
 70
     1
102
RTVSPropertyOp22
 70
     1
102
RTVSPropertyOp23
 70
     1
102
RTVSPropertyOp24
 70
     1
102
RTVSPropertyOp25
 70
     1
102
RTVSPropertyOp26
 70
     1
102
RTVSPropertyOp27
 70
     1
102
RTVSPropertyOp28
 70
     1
102
RTVSPropertyOp29
 70
     1
102
RTVSPropertyOp30
 70
     1
102
RTVSPropertyOp31
 70
     1
102
RTVSPropertyOp32
 70
     1
102
RTVSPropertyOp33
 70
     1
102
RTVSPropertyOp34
 70
     1
102
RTVSPropertyOp35
 70
     1
102
RTVSPropertyOp36
 70
     1
102
RTVSPropertyOp37
 70
     1
102
RTVSPropertyOp38
 70
     1
102
RTVSPropertyOp39
 70
     1
102
RTVSPropertyOp40
 70
     1
102
RTVSPropertyOp41
 70
     1
102
RTVSPropertyOp42
 70
     1
102
RTVSPropertyOp43
 70
     1
102
RTVSPropertyOp44
 70
     1
102
RTVSPropertyOp45
 70
     1
102
RTVSPropertyOp46
 70
     1
102
RTVSPropertyOp47
 70
     1
102
RTVSPropertyOp48
 70
     1
102
RTVSPropertyOp49
 70
     1
102
RTVSPropertyOp50
 70
     1
102
RTVSPropertyOp51
 70
     0
102
RTVSPropertyOp52
 70
     0
102
RTVSPropertyOp53
 70
     1
102
RTVSPropertyOp54
 70
     1
102
RTVSPropertyOp55
 70
     1
102
RTVSPropertyOp56
 70
     1
102
RTVSPropertyOp57
 70
     1
102
RTVSPropertyOp58
 70
     1
102
RTVSPropertyOp59
 70
     1
102
RTVSPropertyOp60
 70
     1
102
RTVSPropertyOp61
 70
     1
102
RTVSPropertyOp62
 70
     1
  0
XRECORD
  5
3D7E
102
{ACAD_REACTORS
330
3D7D
102
}
330
3D7D
100
AcDbXrecord
280
     1
102
RTVSPost2010Prop28
280
     0
102
RTVSPost2010PropOp28
 70
     1
102
RTVSPost2010Prop29
280
     1
102
RTVSPost2010PropOp29
 70
     1
102
RTVSPost2010Prop30
280
     1
102
RTVSPost2010PropOp30
 70
     1
102
RTVSPost2010Prop31
280
     0
102
RTVSPost2010PropOp31
 70
     1
102
RTVSPost2010Prop32
280
     0
102
RTVSPost2010PropOp32
 70
     1
102
RTVSPost2010Prop33
280
     0
102
RTVSPost2010PropOp33
 70
     1
102
RTVSPost2010Prop34
280
     0
102
RTVSPost2010PropOp34
 70
     1
102
RTVSPost2010Prop35
280
     0
102
RTVSPost2010PropOp35
 70
     1
102
RTVSPost2010Prop36
280
     0
102
RTVSPost2010PropOp36
 70
     1
102
RTVSPost2010Prop37
 90
       50
102
RTVSPost2010PropOp37
 70
     1
102
RTVSPost2010Prop38
140
0.0
102
RTVSPost2010PropOp38
 70
     1
102
RTVSPost2010Prop39
140
1.0
102
RTVSPost2010PropOp39
 70
     1
102
RTVSPost2010Prop40
 90
        0
102
RTVSPost2010PropOp40
 70
     1
102
RTVSPost2010Prop41ColorIndex
 90
       18
102
RTVSPost2010Prop41ColorRGB
 90
        0
102
RTVSPost2010PropOp41
 70
     1
102
RTVSPost2010Prop42
 90
       50
102
RTVSPost2010PropOp42
 70
     1
102
RTVSPost2010Prop43
 90
        3
102
RTVSPost2010PropOp43
 70
     1
102
RTVSPost2010Prop44ColorIndex
 90
        5
102
RTVSPost2010Prop44ColorRGB
 90
      255
102
RTVSPost2010PropOp44
 70
     1
102
RTVSPost2010Prop45
280
     0
102
RTVSPost2010PropOp45
 70
     1
102
RTVSPost2010Prop46
 90
       50
102
RTVSPost2010PropOp46
 70
     1
102
RTVSPost2010Prop47
 90
       50
102
RTVSPost2010PropOp47
 70
     1
102
RTVSPost2010Prop48
 90
       50
102
RTVSPost2010PropOp48
 70
     1
102
RTVSPost2010Prop49
280
     0
102
RTVSPost2010PropOp49
 70
     1
102
RTVSPost2010Prop50
 90
       50
102
RTVSPost2010PropOp50
 70
     1
102
RTVSPost2010Prop51ColorIndex
 90
      256
102
RTVSPost2010Prop51ColorRGB
 90
-16777216
102
RTVSPost2010PropOp51
 70
     0
102
RTVSPost2010Prop52
140
1.0
102
RTVSPost2010PropOp52
 70
     0
102
RTVSPost2010Prop53
 90
        2
102
RTVSPost2010PropOp53
 70
     1
102
RTVSPost2010Prop54
  1
strokes_ogs.tif
102
RTVSPost2010PropOp54
 70
     1
102
RTVSPost2010Prop55
280
     0
102
RTVSPost2010PropOp55
 70
     1
102
RTVSPost2010Prop56
140
1.0
102
RTVSPost2010PropOp56
 70
     1
102
RTVSPost2010Prop57
140
1.0
102
RTVSPost2010PropOp57
 70
     1
102
RTVSPropertyOp0
 70
     1
102
RTVSPropertyOp1
 70
     1
102
RTVSPropertyOp2
 70
     1
102
RTVSPropertyOp3
 70
     1
102
RTVSPropertyOp4
 70
     1
102
RTVSPropertyOp5
 70
     1
102
RTVSPropertyOp6
 70
     1
102
RTVSPropertyOp7
 70
     1
102
RTVSPropertyOp8
 70
     1
102
RTVSPropertyOp9
 70
     1
102
RTVSPropertyOp10
 70
     1
102
RTVSPropertyOp11
 70
     1
102
RTVSPropertyOp12
 70
     1
102
RTVSPropertyOp13
 70
     1
102
RTVSPropertyOp14
 70
     1
102
RTVSPropertyOp15
 70
     1
102
RTVSPropertyOp16
 70
     1
102
RTVSPropertyOp17
 70
     1
102
RTVSPropertyOp18
 70
     1
102
RTVSPropertyOp19
 70
     1
102
RTVSPropertyOp20
 70
     1
102
RTVSPropertyOp21
 70
     1
102
RTVSPropertyOp22
 70
     1
102
RTVSPropertyOp23
 70
     1
102
RTVSPropertyOp24
 70
     1
102
RTVSPropertyOp25
 70
     1
102
RTVSPropertyOp26
 70
     1
102
RTVSPropertyOp27
 70
     1
102
RTVSPropertyOp28
 70
     1
102
RTVSPropertyOp29
 70
     1
102
RTVSPropertyOp30
 70
     1
102
RTVSPropertyOp31
 70
     1
102
RTVSPropertyOp32
 70
     1
102
RTVSPropertyOp33
 70
     1
102
RTVSPropertyOp34
 70
     1
102
RTVSPropertyOp35
 70
     1
102
RTVSPropertyOp36
 70
     1
102
RTVSPropertyOp37
 70
     1
102
RTVSPropertyOp38
 70
     1
102
RTVSPropertyOp39
 70
     1
102
RTVSPropertyOp40
 70
     1
102
RTVSPropertyOp41
 70
     1
102
RTVSPropertyOp42
 70
     1
102
RTVSPropertyOp43
 70
     1
102
RTVSPropertyOp44
 70
     1
102
RTVSPropertyOp45
 70
     1
102
RTVSPropertyOp46
 70
     1
102
RTVSPropertyOp47
 70
     1
102
RTVSPropertyOp48
 70
     1
102
RTVSPropertyOp49
 70
     1
102
RTVSPropertyOp50
 70
     1
102
RTVSPropertyOp51
 70
     0
102
RTVSPropertyOp52
 70
     0
102
RTVSPropertyOp53
 70
     1
102
RTVSPropertyOp54
 70
     1
102
RTVSPropertyOp55
 70
     1
102
RTVSPropertyOp56
 70
     1
102
RTVSPropertyOp57
 70
     1
102
RTVSPropertyOp58
 70
     1
102
RTVSPropertyOp59
 70
     1
102
RTVSPropertyOp60
 70
     1
102
RTVSPropertyOp61
 70
     1
102
RTVSPropertyOp62
 70
     1
  0
XRECORD
  5
3D7C
102
{ACAD_REACTORS
330
3D7B
102
}
330
3D7B
100
AcDbXrecord
280
     1
102
RTVSPost2010Prop28
280
     0
102
RTVSPost2010PropOp28
 70
     1
102
RTVSPost2010Prop29
280
     1
102
RTVSPost2010PropOp29
 70
     1
102
RTVSPost2010Prop30
280
     1
102
RTVSPost2010PropOp30
 70
     1
102
RTVSPost2010Prop31
280
     0
102
RTVSPost2010PropOp31
 70
     1
102
RTVSPost2010Prop32
280
     0
102
RTVSPost2010PropOp32
 70
     1
102
RTVSPost2010Prop33
280
     0
102
RTVSPost2010PropOp33
 70
     1
102
RTVSPost2010Prop34
280
     0
102
RTVSPost2010PropOp34
 70
     1
102
RTVSPost2010Prop35
280
     0
102
RTVSPost2010PropOp35
 70
     1
102
RTVSPost2010Prop36
280
     0
102
RTVSPost2010PropOp36
 70
     1
102
RTVSPost2010Prop37
 90
       50
102
RTVSPost2010PropOp37
 70
     1
102
RTVSPost2010Prop38
140
0.0
102
RTVSPost2010PropOp38
 70
     1
102
RTVSPost2010Prop39
140
1.0
102
RTVSPost2010PropOp39
 70
     1
102
RTVSPost2010Prop40
 90
        0
102
RTVSPost2010PropOp40
 70
     1
102
RTVSPost2010Prop41ColorIndex
 90
       18
102
RTVSPost2010Prop41ColorRGB
 90
        0
102
RTVSPost2010PropOp41
 70
     1
102
RTVSPost2010Prop42
 90
       50
102
RTVSPost2010PropOp42
 70
     1
102
RTVSPost2010Prop43
 90
        3
102
RTVSPost2010PropOp43
 70
     1
102
RTVSPost2010Prop44ColorIndex
 90
        5
102
RTVSPost2010Prop44ColorRGB
 90
      255
102
RTVSPost2010PropOp44
 70
     1
102
RTVSPost2010Prop45
280
     0
102
RTVSPost2010PropOp45
 70
     1
102
RTVSPost2010Prop46
 90
       50
102
RTVSPost2010PropOp46
 70
     1
102
RTVSPost2010Prop47
 90
       50
102
RTVSPost2010PropOp47
 70
     1
102
RTVSPost2010Prop48
 90
       50
102
RTVSPost2010PropOp48
 70
     1
102
RTVSPost2010Prop49
280
     0
102
RTVSPost2010PropOp49
 70
     1
102
RTVSPost2010Prop50
 90
       50
102
RTVSPost2010PropOp50
 70
     1
102
RTVSPost2010Prop51ColorIndex
 90
      256
102
RTVSPost2010Prop51ColorRGB
 90
-16777216
102
RTVSPost2010PropOp51
 70
     0
102
RTVSPost2010Prop52
140
1.0
102
RTVSPost2010PropOp52
 70
     0
102
RTVSPost2010Prop53
 90
        2
102
RTVSPost2010PropOp53
 70
     1
102
RTVSPost2010Prop54
  1
strokes_ogs.tif
102
RTVSPost2010PropOp54
 70
     1
102
RTVSPost2010Prop55
280
     0
102
RTVSPost2010PropOp55
 70
     1
102
RTVSPost2010Prop56
140
1.0
102
RTVSPost2010PropOp56
 70
     1
102
RTVSPost2010Prop57
140
1.0
102
RTVSPost2010PropOp57
 70
     1
102
RTVSPropertyOp0
 70
     1
102
RTVSPropertyOp1
 70
     1
102
RTVSPropertyOp2
 70
     1
102
RTVSPropertyOp3
 70
     1
102
RTVSPropertyOp4
 70
     1
102
RTVSPropertyOp5
 70
     1
102
RTVSPropertyOp6
 70
     1
102
RTVSPropertyOp7
 70
     1
102
RTVSPropertyOp8
 70
     1
102
RTVSPropertyOp9
 70
     1
102
RTVSPropertyOp10
 70
     1
102
RTVSPropertyOp11
 70
     1
102
RTVSPropertyOp12
 70
     1
102
RTVSPropertyOp13
 70
     1
102
RTVSPropertyOp14
 70
     1
102
RTVSPropertyOp15
 70
     1
102
RTVSPropertyOp16
 70
     1
102
RTVSPropertyOp17
 70
     1
102
RTVSPropertyOp18
 70
     1
102
RTVSPropertyOp19
 70
     1
102
RTVSPropertyOp20
 70
     1
102
RTVSPropertyOp21
 70
     1
102
RTVSPropertyOp22
 70
     1
102
RTVSPropertyOp23
 70
     1
102
RTVSPropertyOp24
 70
     1
102
RTVSPropertyOp25
 70
     1
102
RTVSPropertyOp26
 70
     1
102
RTVSPropertyOp27
 70
     1
102
RTVSPropertyOp28
 70
     1
102
RTVSPropertyOp29
 70
     1
102
RTVSPropertyOp30
 70
     1
102
RTVSPropertyOp31
 70
     1
102
RTVSPropertyOp32
 70
     1
102
RTVSPropertyOp33
 70
     1
102
RTVSPropertyOp34
 70
     1
102
RTVSPropertyOp35
 70
     1
102
RTVSPropertyOp36
 70
     1
102
RTVSPropertyOp37
 70
     1
102
RTVSPropertyOp38
 70
     1
102
RTVSPropertyOp39
 70
     1
102
RTVSPropertyOp40
 70
     1
102
RTVSPropertyOp41
 70
     1
102
RTVSPropertyOp42
 70
     1
102
RTVSPropertyOp43
 70
     1
102
RTVSPropertyOp44
 70
     1
102
RTVSPropertyOp45
 70
     1
102
RTVSPropertyOp46
 70
     1
102
RTVSPropertyOp47
 70
     1
102
RTVSPropertyOp48
 70
     1
102
RTVSPropertyOp49
 70
     1
102
RTVSPropertyOp50
 70
     1
102
RTVSPropertyOp51
 70
     0
102
RTVSPropertyOp52
 70
     0
102
RTVSPropertyOp53
 70
     1
102
RTVSPropertyOp54
 70
     1
102
RTVSPropertyOp55
 70
     1
102
RTVSPropertyOp56
 70
     1
102
RTVSPropertyOp57
 70
     1
102
RTVSPropertyOp58
 70
     1
102
RTVSPropertyOp59
 70
     1
102
RTVSPropertyOp60
 70
     1
102
RTVSPropertyOp61
 70
     1
102
RTVSPropertyOp62
 70
     1
  0
XRECORD
  5
3D76
102
{ACAD_REACTORS
330
3D75
102
}
330
3D75
100
AcDbXrecord
280
     1
102
RTVSPost2010Prop28
280
     0
102
RTVSPost2010PropOp28
 70
     1
102
RTVSPost2010Prop29
280
     1
102
RTVSPost2010PropOp29
 70
     1
102
RTVSPost2010Prop30
280
     1
102
RTVSPost2010PropOp30
 70
     1
102
RTVSPost2010Prop31
280
     0
102
RTVSPost2010PropOp31
 70
     1
102
RTVSPost2010Prop32
280
     0
102
RTVSPost2010PropOp32
 70
     1
102
RTVSPost2010Prop33
280
     0
102
RTVSPost2010PropOp33
 70
     1
102
RTVSPost2010Prop34
280
     0
102
RTVSPost2010PropOp34
 70
     1
102
RTVSPost2010Prop35
280
     0
102
RTVSPost2010PropOp35
 70
     1
102
RTVSPost2010Prop36
280
     0
102
RTVSPost2010PropOp36
 70
     1
102
RTVSPost2010Prop37
 90
       50
102
RTVSPost2010PropOp37
 70
     1
102
RTVSPost2010Prop38
140
0.0
102
RTVSPost2010PropOp38
 70
     1
102
RTVSPost2010Prop39
140
1.0
102
RTVSPost2010PropOp39
 70
     1
102
RTVSPost2010Prop40
 90
        0
102
RTVSPost2010PropOp40
 70
     1
102
RTVSPost2010Prop41ColorIndex
 90
       18
102
RTVSPost2010Prop41ColorRGB
 90
        0
102
RTVSPost2010PropOp41
 70
     1
102
RTVSPost2010Prop42
 90
       50
102
RTVSPost2010PropOp42
 70
     1
102
RTVSPost2010Prop43
 90
        3
102
RTVSPost2010PropOp43
 70
     1
102
RTVSPost2010Prop44ColorIndex
 90
        5
102
RTVSPost2010Prop44ColorRGB
 90
      255
102
RTVSPost2010PropOp44
 70
     1
102
RTVSPost2010Prop45
280
     0
102
RTVSPost2010PropOp45
 70
     1
102
RTVSPost2010Prop46
 90
       50
102
RTVSPost2010PropOp46
 70
     1
102
RTVSPost2010Prop47
 90
       50
102
RTVSPost2010PropOp47
 70
     1
102
RTVSPost2010Prop48
 90
       50
102
RTVSPost2010PropOp48
 70
     1
102
RTVSPost2010Prop49
280
     0
102
RTVSPost2010PropOp49
 70
     1
102
RTVSPost2010Prop50
 90
       50
102
RTVSPost2010PropOp50
 70
     1
102
RTVSPost2010Prop51ColorIndex
 90
      256
102
RTVSPost2010Prop51ColorRGB
 90
-16777216
102
RTVSPost2010PropOp51
 70
     0
102
RTVSPost2010Prop52
140
1.0
102
RTVSPost2010PropOp52
 70
     0
102
RTVSPost2010Prop53
 90
        2
102
RTVSPost2010PropOp53
 70
     1
102
RTVSPost2010Prop54
  1
strokes_ogs.tif
102
RTVSPost2010PropOp54
 70
     1
102
RTVSPost2010Prop55
280
     0
102
RTVSPost2010PropOp55
 70
     1
102
RTVSPost2010Prop56
140
1.0
102
RTVSPost2010PropOp56
 70
     1
102
RTVSPost2010Prop57
140
1.0
102
RTVSPost2010PropOp57
 70
     1
102
RTVSPropertyOp0
 70
     1
102
RTVSPropertyOp1
 70
     1
102
RTVSPropertyOp2
 70
     1
102
RTVSPropertyOp3
 70
     1
102
RTVSPropertyOp4
 70
     1
102
RTVSPropertyOp5
 70
     1
102
RTVSPropertyOp6
 70
     1
102
RTVSPropertyOp7
 70
     1
102
RTVSPropertyOp8
 70
     1
102
RTVSPropertyOp9
 70
     1
102
RTVSPropertyOp10
 70
     1
102
RTVSPropertyOp11
 70
     1
102
RTVSPropertyOp12
 70
     1
102
RTVSPropertyOp13
 70
     1
102
RTVSPropertyOp14
 70
     1
102
RTVSPropertyOp15
 70
     1
102
RTVSPropertyOp16
 70
     1
102
RTVSPropertyOp17
 70
     1
102
RTVSPropertyOp18
 70
     1
102
RTVSPropertyOp19
 70
     1
102
RTVSPropertyOp20
 70
     1
102
RTVSPropertyOp21
 70
     1
102
RTVSPropertyOp22
 70
     1
102
RTVSPropertyOp23
 70
     1
102
RTVSPropertyOp24
 70
     1
102
RTVSPropertyOp25
 70
     1
102
RTVSPropertyOp26
 70
     1
102
RTVSPropertyOp27
 70
     1
102
RTVSPropertyOp28
 70
     1
102
RTVSPropertyOp29
 70
     1
102
RTVSPropertyOp30
 70
     1
102
RTVSPropertyOp31
 70
     1
102
RTVSPropertyOp32
 70
     1
102
RTVSPropertyOp33
 70
     1
102
RTVSPropertyOp34
 70
     1
102
RTVSPropertyOp35
 70
     1
102
RTVSPropertyOp36
 70
     1
102
RTVSPropertyOp37
 70
     1
102
RTVSPropertyOp38
 70
     1
102
RTVSPropertyOp39
 70
     1
102
RTVSPropertyOp40
 70
     1
102
RTVSPropertyOp41
 70
     1
102
RTVSPropertyOp42
 70
     1
102
RTVSPropertyOp43
 70
     1
102
RTVSPropertyOp44
 70
     1
102
RTVSPropertyOp45
 70
     1
102
RTVSPropertyOp46
 70
     1
102
RTVSPropertyOp47
 70
     1
102
RTVSPropertyOp48
 70
     1
102
RTVSPropertyOp49
 70
     1
102
RTVSPropertyOp50
 70
     1
102
RTVSPropertyOp51
 70
     0
102
RTVSPropertyOp52
 70
     0
102
RTVSPropertyOp53
 70
     1
102
RTVSPropertyOp54
 70
     1
102
RTVSPropertyOp55
 70
     1
102
RTVSPropertyOp56
 70
     1
102
RTVSPropertyOp57
 70
     1
102
RTVSPropertyOp58
 70
     1
102
RTVSPropertyOp59
 70
     1
102
RTVSPropertyOp60
 70
     1
102
RTVSPropertyOp61
 70
     1
102
RTVSPropertyOp62
 70
     1
  0
XRECORD
  5
3D78
102
{ACAD_REACTORS
330
3D77
102
}
330
3D77
100
AcDbXrecord
280
     1
102
RTVSPost2010Prop28
280
     0
102
RTVSPost2010PropOp28
 70
     1
102
RTVSPost2010Prop29
280
     1
102
RTVSPost2010PropOp29
 70
     1
102
RTVSPost2010Prop30
280
     1
102
RTVSPost2010PropOp30
 70
     1
102
RTVSPost2010Prop31
280
     0
102
RTVSPost2010PropOp31
 70
     1
102
RTVSPost2010Prop32
280
     0
102
RTVSPost2010PropOp32
 70
     1
102
RTVSPost2010Prop33
280
     0
102
RTVSPost2010PropOp33
 70
     1
102
RTVSPost2010Prop34
280
     0
102
RTVSPost2010PropOp34
 70
     1
102
RTVSPost2010Prop35
280
     0
102
RTVSPost2010PropOp35
 70
     1
102
RTVSPost2010Prop36
280
     0
102
RTVSPost2010PropOp36
 70
     1
102
RTVSPost2010Prop37
 90
       50
102
RTVSPost2010PropOp37
 70
     1
102
RTVSPost2010Prop38
140
0.0
102
RTVSPost2010PropOp38
 70
     1
102
RTVSPost2010Prop39
140
1.0
102
RTVSPost2010PropOp39
 70
     1
102
RTVSPost2010Prop40
 90
        0
102
RTVSPost2010PropOp40
 70
     1
102
RTVSPost2010Prop41ColorIndex
 90
       18
102
RTVSPost2010Prop41ColorRGB
 90
        0
102
RTVSPost2010PropOp41
 70
     1
102
RTVSPost2010Prop42
 90
       50
102
RTVSPost2010PropOp42
 70
     1
102
RTVSPost2010Prop43
 90
        3
102
RTVSPost2010PropOp43
 70
     1
102
RTVSPost2010Prop44ColorIndex
 90
        5
102
RTVSPost2010Prop44ColorRGB
 90
      255
102
RTVSPost2010PropOp44
 70
     1
102
RTVSPost2010Prop45
280
     0
102
RTVSPost2010PropOp45
 70
     1
102
RTVSPost2010Prop46
 90
       50
102
RTVSPost2010PropOp46
 70
     1
102
RTVSPost2010Prop47
 90
       50
102
RTVSPost2010PropOp47
 70
     1
102
RTVSPost2010Prop48
 90
       50
102
RTVSPost2010PropOp48
 70
     1
102
RTVSPost2010Prop49
280
     0
102
RTVSPost2010PropOp49
 70
     1
102
RTVSPost2010Prop50
 90
       50
102
RTVSPost2010PropOp50
 70
     1
102
RTVSPost2010Prop51ColorIndex
 90
      256
102
RTVSPost2010Prop51ColorRGB
 90
-16777216
102
RTVSPost2010PropOp51
 70
     0
102
RTVSPost2010Prop52
140
1.0
102
RTVSPost2010PropOp52
 70
     0
102
RTVSPost2010Prop53
 90
        2
102
RTVSPost2010PropOp53
 70
     1
102
RTVSPost2010Prop54
  1
strokes_ogs.tif
102
RTVSPost2010PropOp54
 70
     1
102
RTVSPost2010Prop55
280
     0
102
RTVSPost2010PropOp55
 70
     1
102
RTVSPost2010Prop56
140
1.0
102
RTVSPost2010PropOp56
 70
     1
102
RTVSPost2010Prop57
140
1.0
102
RTVSPost2010PropOp57
 70
     1
102
RTVSPropertyOp0
 70
     1
102
RTVSPropertyOp1
 70
     1
102
RTVSPropertyOp2
 70
     1
102
RTVSPropertyOp3
 70
     1
102
RTVSPropertyOp4
 70
     1
102
RTVSPropertyOp5
 70
     1
102
RTVSPropertyOp6
 70
     1
102
RTVSPropertyOp7
 70
     1
102
RTVSPropertyOp8
 70
     1
102
RTVSPropertyOp9
 70
     1
102
RTVSPropertyOp10
 70
     1
102
RTVSPropertyOp11
 70
     1
102
RTVSPropertyOp12
 70
     1
102
RTVSPropertyOp13
 70
     1
102
RTVSPropertyOp14
 70
     1
102
RTVSPropertyOp15
 70
     1
102
RTVSPropertyOp16
 70
     1
102
RTVSPropertyOp17
 70
     1
102
RTVSPropertyOp18
 70
     1
102
RTVSPropertyOp19
 70
     1
102
RTVSPropertyOp20
 70
     1
102
RTVSPropertyOp21
 70
     1
102
RTVSPropertyOp22
 70
     1
102
RTVSPropertyOp23
 70
     1
102
RTVSPropertyOp24
 70
     1
102
RTVSPropertyOp25
 70
     1
102
RTVSPropertyOp26
 70
     1
102
RTVSPropertyOp27
 70
     1
102
RTVSPropertyOp28
 70
     1
102
RTVSPropertyOp29
 70
     1
102
RTVSPropertyOp30
 70
     1
102
RTVSPropertyOp31
 70
     1
102
RTVSPropertyOp32
 70
     1
102
RTVSPropertyOp33
 70
     1
102
RTVSPropertyOp34
 70
     1
102
RTVSPropertyOp35
 70
     1
102
RTVSPropertyOp36
 70
     1
102
RTVSPropertyOp37
 70
     1
102
RTVSPropertyOp38
 70
     1
102
RTVSPropertyOp39
 70
     1
102
RTVSPropertyOp40
 70
     1
102
RTVSPropertyOp41
 70
     1
102
RTVSPropertyOp42
 70
     1
102
RTVSPropertyOp43
 70
     1
102
RTVSPropertyOp44
 70
     1
102
RTVSPropertyOp45
 70
     1
102
RTVSPropertyOp46
 70
     1
102
RTVSPropertyOp47
 70
     1
102
RTVSPropertyOp48
 70
     1
102
RTVSPropertyOp49
 70
     1
102
RTVSPropertyOp50
 70
     1
102
RTVSPropertyOp51
 70
     0
102
RTVSPropertyOp52
 70
     0
102
RTVSPropertyOp53
 70
     1
102
RTVSPropertyOp54
 70
     1
102
RTVSPropertyOp55
 70
     1
102
RTVSPropertyOp56
 70
     1
102
RTVSPropertyOp57
 70
     1
102
RTVSPropertyOp58
 70
     1
102
RTVSPropertyOp59
 70
     1
102
RTVSPropertyOp60
 70
     1
102
RTVSPropertyOp61
 70
     1
102
RTVSPropertyOp62
 70
     1
  0
XRECORD
  5
3D43
102
{ACAD_REACTORS
330
3D42
102
}
330
3D42
100
AcDbXrecord
280
     1
102
RTVSPost2010Prop28
280
     0
102
RTVSPost2010PropOp28
 70
     1
102
RTVSPost2010Prop29
280
     1
102
RTVSPost2010PropOp29
 70
     1
102
RTVSPost2010Prop30
280
     1
102
RTVSPost2010PropOp30
 70
     1
102
RTVSPost2010Prop31
280
     0
102
RTVSPost2010PropOp31
 70
     1
102
RTVSPost2010Prop32
280
     0
102
RTVSPost2010PropOp32
 70
     1
102
RTVSPost2010Prop33
280
     0
102
RTVSPost2010PropOp33
 70
     1
102
RTVSPost2010Prop34
280
     0
102
RTVSPost2010PropOp34
 70
     1
102
RTVSPost2010Prop35
280
     0
102
RTVSPost2010PropOp35
 70
     1
102
RTVSPost2010Prop36
280
     0
102
RTVSPost2010PropOp36
 70
     1
102
RTVSPost2010Prop37
 90
       50
102
RTVSPost2010PropOp37
 70
     1
102
RTVSPost2010Prop38
140
0.0
102
RTVSPost2010PropOp38
 70
     1
102
RTVSPost2010Prop39
140
1.0
102
RTVSPost2010PropOp39
 70
     1
102
RTVSPost2010Prop40
 90
        0
102
RTVSPost2010PropOp40
 70
     1
102
RTVSPost2010Prop41ColorIndex
 90
       18
102
RTVSPost2010Prop41ColorRGB
 90
        0
102
RTVSPost2010PropOp41
 70
     1
102
RTVSPost2010Prop42
 90
       50
102
RTVSPost2010PropOp42
 70
     1
102
RTVSPost2010Prop43
 90
        3
102
RTVSPost2010PropOp43
 70
     1
102
RTVSPost2010Prop44ColorIndex
 90
        5
102
RTVSPost2010Prop44ColorRGB
 90
      255
102
RTVSPost2010PropOp44
 70
     1
102
RTVSPost2010Prop45
280
     0
102
RTVSPost2010PropOp45
 70
     1
102
RTVSPost2010Prop46
 90
       50
102
RTVSPost2010PropOp46
 70
     1
102
RTVSPost2010Prop47
 90
       50
102
RTVSPost2010PropOp47
 70
     1
102
RTVSPost2010Prop48
 90
       50
102
RTVSPost2010PropOp48
 70
     1
102
RTVSPost2010Prop49
280
     0
102
RTVSPost2010PropOp49
 70
     1
102
RTVSPost2010Prop50
 90
       50
102
RTVSPost2010PropOp50
 70
     1
102
RTVSPost2010Prop51ColorIndex
 90
      256
102
RTVSPost2010Prop51ColorRGB
 90
-16777216
102
RTVSPost2010PropOp51
 70
     0
102
RTVSPost2010Prop52
140
1.0
102
RTVSPost2010PropOp52
 70
     0
102
RTVSPost2010Prop53
 90
        2
102
RTVSPost2010PropOp53
 70
     1
102
RTVSPost2010Prop54
  1
strokes_ogs.tif
102
RTVSPost2010PropOp54
 70
     1
102
RTVSPost2010Prop55
280
     0
102
RTVSPost2010PropOp55
 70
     1
102
RTVSPost2010Prop56
140
1.0
102
RTVSPost2010PropOp56
 70
     1
102
RTVSPost2010Prop57
140
1.0
102
RTVSPost2010PropOp57
 70
     1
102
RTVSPropertyOp0
 70
     1
102
RTVSPropertyOp1
 70
     1
102
RTVSPropertyOp2
 70
     1
102
RTVSPropertyOp3
 70
     1
102
RTVSPropertyOp4
 70
     1
102
RTVSPropertyOp5
 70
     1
102
RTVSPropertyOp6
 70
     1
102
RTVSPropertyOp7
 70
     1
102
RTVSPropertyOp8
 70
     1
102
RTVSPropertyOp9
 70
     1
102
RTVSPropertyOp10
 70
     1
102
RTVSPropertyOp11
 70
     1
102
RTVSPropertyOp12
 70
     1
102
RTVSPropertyOp13
 70
     1
102
RTVSPropertyOp14
 70
     1
102
RTVSPropertyOp15
 70
     1
102
RTVSPropertyOp16
 70
     1
102
RTVSPropertyOp17
 70
     1
102
RTVSPropertyOp18
 70
     1
102
RTVSPropertyOp19
 70
     1
102
RTVSPropertyOp20
 70
     1
102
RTVSPropertyOp21
 70
     1
102
RTVSPropertyOp22
 70
     1
102
RTVSPropertyOp23
 70
     1
102
RTVSPropertyOp24
 70
     1
102
RTVSPropertyOp25
 70
     1
102
RTVSPropertyOp26
 70
     1
102
RTVSPropertyOp27
 70
     1
102
RTVSPropertyOp28
 70
     1
102
RTVSPropertyOp29
 70
     1
102
RTVSPropertyOp30
 70
     1
102
RTVSPropertyOp31
 70
     1
102
RTVSPropertyOp32
 70
     1
102
RTVSPropertyOp33
 70
     1
102
RTVSPropertyOp34
 70
     1
102
RTVSPropertyOp35
 70
     1
102
RTVSPropertyOp36
 70
     1
102
RTVSPropertyOp37
 70
     1
102
RTVSPropertyOp38
 70
     1
102
RTVSPropertyOp39
 70
     1
102
RTVSPropertyOp40
 70
     1
102
RTVSPropertyOp41
 70
     1
102
RTVSPropertyOp42
 70
     1
102
RTVSPropertyOp43
 70
     1
102
RTVSPropertyOp44
 70
     1
102
RTVSPropertyOp45
 70
     1
102
RTVSPropertyOp46
 70
     1
102
RTVSPropertyOp47
 70
     1
102
RTVSPropertyOp48
 70
     1
102
RTVSPropertyOp49
 70
     1
102
RTVSPropertyOp50
 70
     1
102
RTVSPropertyOp51
 70
     0
102
RTVSPropertyOp52
 70
     0
102
RTVSPropertyOp53
 70
     1
102
RTVSPropertyOp54
 70
     1
102
RTVSPropertyOp55
 70
     1
102
RTVSPropertyOp56
 70
     1
102
RTVSPropertyOp57
 70
     1
102
RTVSPropertyOp58
 70
     1
102
RTVSPropertyOp59
 70
     1
102
RTVSPropertyOp60
 70
     1
102
RTVSPropertyOp61
 70
     1
102
RTVSPropertyOp62
 70
     1
  0
XRECORD
  5
3D72
102
{ACAD_REACTORS
330
3D71
102
}
330
3D71
100
AcDbXrecord
280
     1
102
RTVSPost2010Prop28
280
     0
102
RTVSPost2010PropOp28
 70
     1
102
RTVSPost2010Prop29
280
     1
102
RTVSPost2010PropOp29
 70
     1
102
RTVSPost2010Prop30
280
     1
102
RTVSPost2010PropOp30
 70
     1
102
RTVSPost2010Prop31
280
     0
102
RTVSPost2010PropOp31
 70
     1
102
RTVSPost2010Prop32
280
     0
102
RTVSPost2010PropOp32
 70
     1
102
RTVSPost2010Prop33
280
     0
102
RTVSPost2010PropOp33
 70
     1
102
RTVSPost2010Prop34
280
     0
102
RTVSPost2010PropOp34
 70
     1
102
RTVSPost2010Prop35
280
     0
102
RTVSPost2010PropOp35
 70
     1
102
RTVSPost2010Prop36
280
     0
102
RTVSPost2010PropOp36
 70
     1
102
RTVSPost2010Prop37
 90
       50
102
RTVSPost2010PropOp37
 70
     1
102
RTVSPost2010Prop38
140
0.0
102
RTVSPost2010PropOp38
 70
     1
102
RTVSPost2010Prop39
140
1.0
102
RTVSPost2010PropOp39
 70
     1
102
RTVSPost2010Prop40
 90
        0
102
RTVSPost2010PropOp40
 70
     1
102
RTVSPost2010Prop41ColorIndex
 90
       18
102
RTVSPost2010Prop41ColorRGB
 90
        0
102
RTVSPost2010PropOp41
 70
     1
102
RTVSPost2010Prop42
 90
       50
102
RTVSPost2010PropOp42
 70
     1
102
RTVSPost2010Prop43
 90
        3
102
RTVSPost2010PropOp43
 70
     1
102
RTVSPost2010Prop44ColorIndex
 90
        5
102
RTVSPost2010Prop44ColorRGB
 90
      255
102
RTVSPost2010PropOp44
 70
     1
102
RTVSPost2010Prop45
280
     0
102
RTVSPost2010PropOp45
 70
     1
102
RTVSPost2010Prop46
 90
       50
102
RTVSPost2010PropOp46
 70
     1
102
RTVSPost2010Prop47
 90
       50
102
RTVSPost2010PropOp47
 70
     1
102
RTVSPost2010Prop48
 90
       50
102
RTVSPost2010PropOp48
 70
     1
102
RTVSPost2010Prop49
280
     0
102
RTVSPost2010PropOp49
 70
     1
102
RTVSPost2010Prop50
 90
       50
102
RTVSPost2010PropOp50
 70
     1
102
RTVSPost2010Prop51ColorIndex
 90
      256
102
RTVSPost2010Prop51ColorRGB
 90
-16777216
102
RTVSPost2010PropOp51
 70
     0
102
RTVSPost2010Prop52
140
1.0
102
RTVSPost2010PropOp52
 70
     0
102
RTVSPost2010Prop53
 90
        2
102
RTVSPost2010PropOp53
 70
     1
102
RTVSPost2010Prop54
  1
strokes_ogs.tif
102
RTVSPost2010PropOp54
 70
     1
102
RTVSPost2010Prop55
280
     0
102
RTVSPost2010PropOp55
 70
     1
102
RTVSPost2010Prop56
140
1.0
102
RTVSPost2010PropOp56
 70
     1
102
RTVSPost2010Prop57
140
1.0
102
RTVSPost2010PropOp57
 70
     1
102
RTVSPropertyOp0
 70
     1
102
RTVSPropertyOp1
 70
     1
102
RTVSPropertyOp2
 70
     1
102
RTVSPropertyOp3
 70
     1
102
RTVSPropertyOp4
 70
     1
102
RTVSPropertyOp5
 70
     1
102
RTVSPropertyOp6
 70
     1
102
RTVSPropertyOp7
 70
     1
102
RTVSPropertyOp8
 70
     1
102
RTVSPropertyOp9
 70
     1
102
RTVSPropertyOp10
 70
     1
102
RTVSPropertyOp11
 70
     1
102
RTVSPropertyOp12
 70
     1
102
RTVSPropertyOp13
 70
     1
102
RTVSPropertyOp14
 70
     1
102
RTVSPropertyOp15
 70
     1
102
RTVSPropertyOp16
 70
     1
102
RTVSPropertyOp17
 70
     1
102
RTVSPropertyOp18
 70
     1
102
RTVSPropertyOp19
 70
     1
102
RTVSPropertyOp20
 70
     1
102
RTVSPropertyOp21
 70
     1
102
RTVSPropertyOp22
 70
     1
102
RTVSPropertyOp23
 70
     1
102
RTVSPropertyOp24
 70
     1
102
RTVSPropertyOp25
 70
     1
102
RTVSPropertyOp26
 70
     1
102
RTVSPropertyOp27
 70
     1
102
RTVSPropertyOp28
 70
     1
102
RTVSPropertyOp29
 70
     1
102
RTVSPropertyOp30
 70
     1
102
RTVSPropertyOp31
 70
     1
102
RTVSPropertyOp32
 70
     1
102
RTVSPropertyOp33
 70
     1
102
RTVSPropertyOp34
 70
     1
102
RTVSPropertyOp35
 70
     1
102
RTVSPropertyOp36
 70
     1
102
RTVSPropertyOp37
 70
     1
102
RTVSPropertyOp38
 70
     1
102
RTVSPropertyOp39
 70
     1
102
RTVSPropertyOp40
 70
     1
102
RTVSPropertyOp41
 70
     1
102
RTVSPropertyOp42
 70
     1
102
RTVSPropertyOp43
 70
     1
102
RTVSPropertyOp44
 70
     1
102
RTVSPropertyOp45
 70
     1
102
RTVSPropertyOp46
 70
     1
102
RTVSPropertyOp47
 70
     1
102
RTVSPropertyOp48
 70
     1
102
RTVSPropertyOp49
 70
     1
102
RTVSPropertyOp50
 70
     1
102
RTVSPropertyOp51
 70
     0
102
RTVSPropertyOp52
 70
     0
102
RTVSPropertyOp53
 70
     1
102
RTVSPropertyOp54
 70
     1
102
RTVSPropertyOp55
 70
     1
102
RTVSPropertyOp56
 70
     1
102
RTVSPropertyOp57
 70
     1
102
RTVSPropertyOp58
 70
     1
102
RTVSPropertyOp59
 70
     1
102
RTVSPropertyOp60
 70
     1
102
RTVSPropertyOp61
 70
     1
102
RTVSPropertyOp62
 70
     1
  0
XRECORD
  5
3D7A
102
{ACAD_REACTORS
330
3D79
102
}
330
3D79
100
AcDbXrecord
280
     1
102
RTVSPost2010Prop28
280
     0
102
RTVSPost2010PropOp28
 70
     1
102
RTVSPost2010Prop29
280
     1
102
RTVSPost2010PropOp29
 70
     1
102
RTVSPost2010Prop30
280
     1
102
RTVSPost2010PropOp30
 70
     1
102
RTVSPost2010Prop31
280
     0
102
RTVSPost2010PropOp31
 70
     1
102
RTVSPost2010Prop32
280
     0
102
RTVSPost2010PropOp32
 70
     1
102
RTVSPost2010Prop33
280
     0
102
RTVSPost2010PropOp33
 70
     1
102
RTVSPost2010Prop34
280
     0
102
RTVSPost2010PropOp34
 70
     1
102
RTVSPost2010Prop35
280
     0
102
RTVSPost2010PropOp35
 70
     1
102
RTVSPost2010Prop36
280
     0
102
RTVSPost2010PropOp36
 70
     1
102
RTVSPost2010Prop37
 90
       50
102
RTVSPost2010PropOp37
 70
     1
102
RTVSPost2010Prop38
140
0.0
102
RTVSPost2010PropOp38
 70
     1
102
RTVSPost2010Prop39
140
1.0
102
RTVSPost2010PropOp39
 70
     1
102
RTVSPost2010Prop40
 90
        0
102
RTVSPost2010PropOp40
 70
     1
102
RTVSPost2010Prop41ColorIndex
 90
       18
102
RTVSPost2010Prop41ColorRGB
 90
        0
102
RTVSPost2010PropOp41
 70
     1
102
RTVSPost2010Prop42
 90
       50
102
RTVSPost2010PropOp42
 70
     1
102
RTVSPost2010Prop43
 90
        3
102
RTVSPost2010PropOp43
 70
     1
102
RTVSPost2010Prop44ColorIndex
 90
        5
102
RTVSPost2010Prop44ColorRGB
 90
      255
102
RTVSPost2010PropOp44
 70
     1
102
RTVSPost2010Prop45
280
     0
102
RTVSPost2010PropOp45
 70
     1
102
RTVSPost2010Prop46
 90
       50
102
RTVSPost2010PropOp46
 70
     1
102
RTVSPost2010Prop47
 90
       50
102
RTVSPost2010PropOp47
 70
     1
102
RTVSPost2010Prop48
 90
       50
102
RTVSPost2010PropOp48
 70
     1
102
RTVSPost2010Prop49
280
     0
102
RTVSPost2010PropOp49
 70
     1
102
RTVSPost2010Prop50
 90
       50
102
RTVSPost2010PropOp50
 70
     1
102
RTVSPost2010Prop51ColorIndex
 90
      256
102
RTVSPost2010Prop51ColorRGB
 90
-16777216
102
RTVSPost2010PropOp51
 70
     0
102
RTVSPost2010Prop52
140
1.0
102
RTVSPost2010PropOp52
 70
     0
102
RTVSPost2010Prop53
 90
        2
102
RTVSPost2010PropOp53
 70
     1
102
RTVSPost2010Prop54
  1
strokes_ogs.tif
102
RTVSPost2010PropOp54
 70
     1
102
RTVSPost2010Prop55
280
     0
102
RTVSPost2010PropOp55
 70
     1
102
RTVSPost2010Prop56
140
1.0
102
RTVSPost2010PropOp56
 70
     1
102
RTVSPost2010Prop57
140
1.0
102
RTVSPost2010PropOp57
 70
     1
102
RTVSPropertyOp0
 70
     1
102
RTVSPropertyOp1
 70
     1
102
RTVSPropertyOp2
 70
     1
102
RTVSPropertyOp3
 70
     1
102
RTVSPropertyOp4
 70
     1
102
RTVSPropertyOp5
 70
     1
102
RTVSPropertyOp6
 70
     1
102
RTVSPropertyOp7
 70
     1
102
RTVSPropertyOp8
 70
     1
102
RTVSPropertyOp9
 70
     1
102
RTVSPropertyOp10
 70
     1
102
RTVSPropertyOp11
 70
     1
102
RTVSPropertyOp12
 70
     1
102
RTVSPropertyOp13
 70
     1
102
RTVSPropertyOp14
 70
     1
102
RTVSPropertyOp15
 70
     1
102
RTVSPropertyOp16
 70
     1
102
RTVSPropertyOp17
 70
     1
102
RTVSPropertyOp18
 70
     1
102
RTVSPropertyOp19
 70
     1
102
RTVSPropertyOp20
 70
     1
102
RTVSPropertyOp21
 70
     1
102
RTVSPropertyOp22
 70
     1
102
RTVSPropertyOp23
 70
     1
102
RTVSPropertyOp24
 70
     1
102
RTVSPropertyOp25
 70
     1
102
RTVSPropertyOp26
 70
     1
102
RTVSPropertyOp27
 70
     1
102
RTVSPropertyOp28
 70
     1
102
RTVSPropertyOp29
 70
     1
102
RTVSPropertyOp30
 70
     1
102
RTVSPropertyOp31
 70
     1
102
RTVSPropertyOp32
 70
     1
102
RTVSPropertyOp33
 70
     1
102
RTVSPropertyOp34
 70
     1
102
RTVSPropertyOp35
 70
     1
102
RTVSPropertyOp36
 70
     1
102
RTVSPropertyOp37
 70
     1
102
RTVSPropertyOp38
 70
     1
102
RTVSPropertyOp39
 70
     1
102
RTVSPropertyOp40
 70
     1
102
RTVSPropertyOp41
 70
     1
102
RTVSPropertyOp42
 70
     1
102
RTVSPropertyOp43
 70
     1
102
RTVSPropertyOp44
 70
     1
102
RTVSPropertyOp45
 70
     1
102
RTVSPropertyOp46
 70
     1
102
RTVSPropertyOp47
 70
     1
102
RTVSPropertyOp48
 70
     1
102
RTVSPropertyOp49
 70
     1
102
RTVSPropertyOp50
 70
     1
102
RTVSPropertyOp51
 70
     0
102
RTVSPropertyOp52
 70
     0
102
RTVSPropertyOp53
 70
     1
102
RTVSPropertyOp54
 70
     1
102
RTVSPropertyOp55
 70
     1
102
RTVSPropertyOp56
 70
     1
102
RTVSPropertyOp57
 70
     1
102
RTVSPropertyOp58
 70
     1
102
RTVSPropertyOp59
 70
     1
102
RTVSPropertyOp60
 70
     1
102
RTVSPropertyOp61
 70
     1
102
RTVSPropertyOp62
 70
     1
  0
ENDSEC
  0
EOF
