  0
SECTION
  2
HEADER
  9
$ACADVER
  1
AC1015
  9
$ACADMAINTVER
 70
    20
  9
$DWGCODEPAGE
  3
ANSI_932
  9
$INSBASE
 10
0.0
 20
0.0
 30
0.0
  9
$EXTMIN
 10
32.7673282636
 20
25.9153696756
 30
0.0
  9
$EXTMAX
 10
770.235238302
 20
582.9053179032
 30
0.0
  9
$LIMMIN
 10
0.0
 20
0.0
  9
$LIMMAX
 10
297.0
 20
210.0
  9
$ORTHOMODE
 70
     0
  9
$REGENMODE
 70
     1
  9
$FILLMODE
 70
     1
  9
$QTEXTMODE
 70
     0
  9
$MIRRTEXT
 70
     0
  9
$LTSCALE
 40
3.0
  9
$ATTMODE
 70
     1
  9
$TEXTSIZE
 40
2.0
  9
$TRACEWID
 40
1.0
  9
$TEXTSTYLE
  7
STANDARD
  9
$CLAYER
  8
0
  9
$CELTYPE
  6
BYLAYER
  9
$CECOLOR
 62
   256
  9
$CELTSCALE
 40
1.0
  9
$DISPSILH
 70
     0
  9
$DIMSCALE
 40
3.0
  9
$DIMASZ
 40
1.8
  9
$DIMEXO
 40
0.625
  9
$DIMDLI
 40
3.75
  9
$DIMRND
 40
0.0
  9
$DIMDLE
 40
0.0
  9
$DIMEXE
 40
0.8
  9
$DIMTP
 40
0.0
  9
$DIMTM
 40
0.0
  9
$DIMTXT
 40
1.8
  9
$DIMCEN
 40
2.5
  9
$DIMTSZ
 40
0.0
  9
$DIMTOL
 70
     0
  9
$DIMLIM
 70
     0
  9
$DIMTIH
 70
     0
  9
$DIMTOH
 70
     0
  9
$DIMSE1
 70
     0
  9
$DIMSE2
 70
     0
  9
$DIMTAD
 70
     1
  9
$DIMZIN
 70
     8
  9
$DIMBLK
  1

  9
$DIMASO
 70
     1
  9
$DIMSHO
 70
     1
  9
$DIMPOST
  1

  9
$DIMAPOST
  1

  9
$DIMALT
 70
     0
  9
$DIMALTD
 70
     4
  9
$DIMALTF
 40
0.0394
  9
$DIMLFAC
 40
1.0
  9
$DIMTOFL
 70
     1
  9
$DIMTVP
 40
0.0
  9
$DIMTIX
 70
     0
  9
$DIMSOXD
 70
     0
  9
$DIMSAH
 70
     0
  9
$DIMBLK1
  1

  9
$DIMBLK2
  1

  9
$DIMSTYLE
  2
STANDARD
  9
$DIMCLRD
 70
     0
  9
$DIMCLRE
 70
     0
  9
$DIMCLRT
 70
     0
  9
$DIMTFAC
 40
1.0
  9
$DIMGAP
 40
0.75
  9
$DIMJUST
 70
     0
  9
$DIMSD1
 70
     0
  9
$DIMSD2
 70
     0
  9
$DIMTOLJ
 70
     1
  9
$DIMTZIN
 70
     0
  9
$DIMALTZ
 70
     0
  9
$DIMALTTZ
 70
     0
  9
$DIMUPT
 70
     0
  9
$DIMDEC
 70
     2
  9
$DIMTDEC
 70
     2
  9
$DIMALTU
 70
     8
  9
$DIMALTTD
 70
     4
  9
$DIMTXSTY
  7
STANDARD
  9
$DIMAUNIT
 70
     0
  9
$DIMADEC
 70
     2
  9
$DIMALTRND
 40
0.0
  9
$DIMAZIN
 70
     0
  9
$DIMDSEP
 70
    46
  9
$DIMATFIT
 70
     3
  9
$DIMFRAC
 70
     0
  9
$DIMLDRBLK
  1

  9
$DIMLUNIT
 70
     6
  9
$DIMLWD
 70
    -2
  9
$DIMLWE
 70
    -2
  9
$DIMTMOVE
 70
     0
  9
$LUNITS
 70
     2
  9
$LUPREC
 70
     3
  9
$SKETCHINC
 40
1.0
  9
$FILLETRAD
 40
10.0
  9
$AUNITS
 70
     0
  9
$AUPREC
 70
     2
  9
$MENU
  1
.
  9
$ELEVATION
 40
0.0
  9
$PELEVATION
 40
0.0
  9
$THICKNESS
 40
0.0
  9
$LIMCHECK
 70
     0
  9
$CHAMFERA
 40
0.0
  9
$CHAMFERB
 40
0.0
  9
$CHAMFERC
 40
20.0
  9
$CHAMFERD
 40
0.0
  9
$SKPOLY
 70
     0
  9
$TDCREATE
 40
2453752.667071759
  9
$TDUCREATE
 40
2453752.292076100
  9
$TDUPDATE
 40
2459857.677337963
  9
$TDUUPDATE
 40
2459857.302337963
  9
$TDINDWG
 40
0.5411875694
  9
$TDUSRTIMER
 40
0.5411875694
  9
$USRTIMER
 70
     1
  9
$ANGBASE
 50
0.0
  9
$ANGDIR
 70
     0
  9
$PDMODE
 70
     0
  9
$PDSIZE
 40
-10.0
  9
$PLINEWID
 40
0.0
  9
$SPLFRAME
 70
     0
  9
$SPLINETYPE
 70
     6
  9
$SPLINESEGS
 70
     8
  9
$HANDSEED
  5
25CB
  9
$SURFTAB1
 70
     6
  9
$SURFTAB2
 70
     6
  9
$SURFTYPE
 70
     6
  9
$SURFU
 70
     6
  9
$SURFV
 70
     6
  9
$UCSBASE
  2

  9
$UCSNAME
  2

  9
$UCSORG
 10
0.0
 20
0.0
 30
0.0
  9
$UCSXDIR
 10
1.0
 20
0.0
 30
0.0
  9
$UCSYDIR
 10
0.0
 20
1.0
 30
0.0
  9
$UCSORTHOREF
  2

  9
$UCSORTHOVIEW
 70
     0
  9
$UCSORGTOP
 10
0.0
 20
0.0
 30
0.0
  9
$UCSORGBOTTOM
 10
0.0
 20
0.0
 30
0.0
  9
$UCSORGLEFT
 10
0.0
 20
0.0
 30
0.0
  9
$UCSORGRIGHT
 10
0.0
 20
0.0
 30
0.0
  9
$UCSORGFRONT
 10
0.0
 20
0.0
 30
0.0
  9
$UCSORGBACK
 10
0.0
 20
0.0
 30
0.0
  9
$PUCSBASE
  2

  9
$PUCSNAME
  2

  9
$PUCSORG
 10
0.0
 20
0.0
 30
0.0
  9
$PUCSXDIR
 10
1.0
 20
0.0
 30
0.0
  9
$PUCSYDIR
 10
0.0
 20
1.0
 30
0.0
  9
$PUCSORTHOREF
  2

  9
$PUCSORTHOVIEW
 70
     0
  9
$PUCSORGTOP
 10
0.0
 20
0.0
 30
0.0
  9
$PUCSORGBOTTOM
 10
0.0
 20
0.0
 30
0.0
  9
$PUCSORGLEFT
 10
0.0
 20
0.0
 30
0.0
  9
$PUCSORGRIGHT
 10
0.0
 20
0.0
 30
0.0
  9
$PUCSORGFRONT
 10
0.0
 20
0.0
 30
0.0
  9
$PUCSORGBACK
 10
0.0
 20
0.0
 30
0.0
  9
$USERI1
 70
     0
  9
$USERI2
 70
     0
  9
$USERI3
 70
     0
  9
$USERI4
 70
     0
  9
$USERI5
 70
     0
  9
$USERR1
 40
0.0
  9
$USERR2
 40
0.0
  9
$USERR3
 40
0.0
  9
$USERR4
 40
0.0
  9
$USERR5
 40
0.0
  9
$WORLDVIEW
 70
     1
  9
$SHADEDGE
 70
     3
  9
$SHADEDIF
 70
    70
  9
$TILEMODE
 70
     1
  9
$MAXACTVP
 70
    48
  9
$PINSBASE
 10
0.0
 20
0.0
 30
0.0
  9
$PLIMCHECK
 70
     0
  9
$PEXTMIN
 10
0.0
 20
0.0
 30
0.0
  9
$PEXTMAX
 10
0.0
 20
0.0
 30
0.0
  9
$PLIMMIN
 10
0.0
 20
0.0
  9
$PLIMMAX
 10
12.0
 20
9.0
  9
$UNITMODE
 70
     0
  9
$VISRETAIN
 70
     1
  9
$PLINEGEN
 70
     0
  9
$PSLTSCALE
 70
     1
  9
$TREEDEPTH
 70
  3020
  9
$CMLSTYLE
  2
STANDARD
  9
$CMLJUST
 70
     0
  9
$CMLSCALE
 40
1.0
  9
$PROXYGRAPHICS
 70
     1
  9
$MEASUREMENT
 70
     0
  9
$CELWEIGHT
370
    -1
  9
$ENDCAPS
280
     0
  9
$JOINSTYLE
280
     0
  9
$LWDISPLAY
290
     0
  9
$INSUNITS
 70
     0
  9
$HYPERLINKBASE
  1

  9
$STYLESHEET
  1
SEKKEI.CTB
  9
$XEDIT
290
     1
  9
$CEPSNTYPE
380
     0
  9
$PSTYLEMODE
290
     1
  9
$FINGERPRINTGUID
  2
{6385560B-F4B1-4644-A7C2-A3E32AC3D232}
  9
$VERSIONGUID
  2
{FC57B53A-ECD0-2345-946C-36DD5D034F6C}
  9
$EXTNAMES
290
     1
  9
$PSVPSCALE
 40
0.0
  9
$OLESTARTUP
290
     0
  0
ENDSEC
  0
SECTION
  2
CLASSES
  0
CLASS
  1
DICTIONARYVAR
  2
AcDbDictionaryVar
  3
ObjectDBX Classes
 90
        0
280
     0
281
     0
  0
CLASS
  1
ACDBDICTIONARYWDFLT
  2
AcDbDictionaryWithDefault
  3
ObjectDBX Classes
 90
        0
280
     0
281
     0
  0
CLASS
  1
MATERIAL
  2
AcDbMaterial
  3
ObjectDBX Classes
 90
     1153
280
     0
281
     0
  0
CLASS
  1
VISUALSTYLE
  2
AcDbVisualStyle
  3
ObjectDBX Classes
 90
     4095
280
     0
281
     0
  0
CLASS
  1
TABLESTYLE
  2
AcDbTableStyle
  3
ObjectDBX Classes
 90
     4095
280
     0
281
     0
  0
CLASS
  1
SCALE
  2
AcDbScale
  3
ObjectDBX Classes
 90
     1153
280
     0
281
     0
  0
CLASS
  1
MLEADERSTYLE
  2
AcDbMLeaderStyle
  3
ACDB_MLEADERSTYLE_CLASS
 90
     4095
280
     0
281
     0
  0
CLASS
  1
CELLSTYLEMAP
  2
AcDbCellStyleMap
  3
ObjectDBX Classes
 90
     1152
280
     0
281
     0
  0
CLASS
  1
ACAD_EVALUATION_GRAPH
  2
AcDbEvalGraph
  3
ObjectDBX Classes
 90
    33921
280
     0
281
     0
  0
CLASS
  1
ACAECUSTOBJ
  2
AcAeEditorObj
  3
AcAeEditorObj
 90
    33792
280
     0
281
     0
  0
CLASS
  1
ACDB_DYNAMICBLOCKPURGEPREVENTER_VERSION
  2
AcDbDynamicBlockPurgePreventer
  3
ObjectDBX Classes
 90
    33921
280
     0
281
     0
  0
CLASS
  1
SORTENTSTABLE
  2
AcDbSortentsTable
  3
ObjectDBX Classes
 90
    32768
280
     0
281
     0
  0
CLASS
  1
ACDBPLACEHOLDER
  2
AcDbPlaceHolder
  3
ObjectDBX Classes
 90
        0
280
     0
281
     0
  0
CLASS
  1
LAYOUT
  2
AcDbLayout
  3
ObjectDBX Classes
 90
        0
280
     0
281
     0
  0
CLASS
  1
ACDBSECTIONVIEWSTYLE
  2
AcDbSectionViewStyle
  3
ObjectDBX Classes
 90
     1025
280
     0
281
     0
  0
CLASS
  1
ACDBDETAILVIEWSTYLE
  2
AcDbDetailViewStyle
  3
ObjectDBX Classes
 90
     1025
280
     0
281
     0
  0
ENDSEC
  0
SECTION
  2
TABLES
  0
TABLE
  2
VPORT
  5
6E
102
{ACAD_XDICTIONARY
360
14C8
102
}
330
0
100
AcDbSymbolTable
 70
     1
  0
VPORT
  5
1459
330
6E
100
AcDbSymbolTableRecord
100
AcDbViewportTableRecord
  2
*Active
 70
     0
 10
0.0
 20
0.0
 11
1.0
 21
1.0
 12
540.9790127408
 22
304.4255817697
 13
0.0
 23
0.0
 14
10.0
 24
10.0
 15
10.0
 25
10.0
 16
0.0
 26
0.0
 36
1.0
 17
0.0
 27
0.0
 37
0.0
 40
540.2238386472
 41
1.9300791557
 42
50.0
 43
0.0
 44
0.0
 50
0.0
 51
0.0
 71
     0
 72
   100
 73
     1
 74
     3
 75
     0
 76
     0
 77
     0
 78
     0
281
     0
 65
     1
110
0.0
120
0.0
130
0.0
111
1.0
121
0.0
131
0.0
112
0.0
122
1.0
132
0.0
 79
     0
146
0.0
1001
ACAD_NAV_VCDISPLAY
1070
     3
  0
ENDTAB
  0
TABLE
  2
LTYPE
  5
69
330
0
100
AcDbSymbolTable
 70
     3
  0
LTYPE
  5
6A
330
69
100
AcDbSymbolTableRecord
100
AcDbLinetypeTableRecord
  2
BYBLOCK
 70
     0
  3

 72
    65
 73
     0
 40
0.0
  0
LTYPE
  5
6B
330
69
100
AcDbSymbolTableRecord
100
AcDbLinetypeTableRecord
  2
BYLAYER
 70
     0
  3

 72
    65
 73
     0
 40
0.0
  0
LTYPE
  5
8
330
69
100
AcDbSymbolTableRecord
100
AcDbLinetypeTableRecord
  2
CONTINUOUS
 70
     0
  3
Solid line
 72
    65
 73
     0
 40
0.0
  0
LTYPE
  5
27C
330
69
100
AcDbSymbolTableRecord
100
AcDbLinetypeTableRecord
  2
sekkei(A2)
 70
     0
  3
center(A2)  ____ _ ____ _ ____ _ ____ _ ____ _ 
 72
    65
 73
     4
 40
14.2875
 49
9.525
 74
     0
 49
-1.5875
 74
     0
 49
1.5875
 74
     0
 49
-1.5875
 74
     0
  0
LTYPE
  5
2B4
330
69
100
AcDbSymbolTableRecord
100
AcDbLinetypeTableRecord
  2
HIDDEN2
 70
     0
  3
Hidden (.5x) _ _ _ _ _ _ _ _ _ _ _ _ _ _ _ _ _
 72
    65
 73
     2
 40
4.7625
 49
3.175
 74
     0
 49
-1.5875
 74
     0
  0
ENDTAB
  0
TABLE
  2
LAYER
  5
66
102
{ACAD_XDICTIONARY
360
150C
102
}
330
0
100
AcDbSymbolTable
 70
     9
  0
LAYER
  5
5E
102
{ACAD_XDICTIONARY
360
14AF
102
}
330
66
100
AcDbSymbolTableRecord
100
AcDbLayerTableRecord
  2
0
 70
     0
 62
     7
  6
CONTINUOUS
370
    -3
390
5
  0
LAYER
  5
3E
102
{ACAD_XDICTIONARY
360
14B1
102
}
330
66
100
AcDbSymbolTableRecord
100
AcDbLayerTableRecord
  2
CENTER
 70
     0
 62
     3
  6
sekkei(A2)
370
    -3
390
5
  0
LAYER
  5
135
330
66
100
AcDbSymbolTableRecord
100
AcDbLayerTableRecord
  2
DEFPOINTS
 70
     0
 62
     7
  6
CONTINUOUS
290
     0
370
    -3
390
5
  0
LAYER
  5
2B5
102
{ACAD_XDICTIONARY
360
14B7
102
}
330
66
100
AcDbSymbolTableRecord
100
AcDbLayerTableRecord
  2
HIDS
 70
     0
 62
     1
  6
HIDDEN2
370
    -3
390
5
  0
LAYER
  5
3FA
102
{ACAD_XDICTIONARY
360
14BB
102
}
330
66
100
AcDbSymbolTableRecord
100
AcDbLayerTableRecord
  2
TITLE
 70
     0
 62
     4
  6
CONTINUOUS
290
     0
370
    -3
390
5
  0
LAYER
  5
1509
330
66
100
AcDbSymbolTableRecord
100
AcDbLayerTableRecord
  2
TITLE_C
 70
     0
 62
     4
  6
CONTINUOUS
370
    -3
390
5
1001
AcAecLayerStandard
1000

1000

  0
ENDTAB
  0
TABLE
  2
STYLE
  5
67
330
0
100
AcDbSymbolTable
 70
     1
  0
STYLE
  5
16
330
67
100
AcDbSymbolTableRecord
100
AcDbTextStyleTableRecord
  2
STANDARD
 70
     0
 40
0.0
 41
1.0
 50
0.0
 71
     0
 42
2.0
  3
simplex.shx
  4
extfont.shx
  0
ENDTAB
  0
TABLE
  2
VIEW
  5
6C
330
0
100
AcDbSymbolTable
 70
     0
  0
ENDTAB
  0
TABLE
  2
UCS
  5
6D
330
0
100
AcDbSymbolTable
 70
     0
  0
ENDTAB
  0
TABLE
  2
APPID
  5
70
330
0
100
AcDbSymbolTable
 70
    10
  0
APPID
  5
71
330
70
100
AcDbSymbolTableRecord
100
AcDbRegAppTableRecord
  2
ACAD
 70
     0
  0
APPID
  5
14AC
330
70
100
AcDbSymbolTableRecord
100
AcDbRegAppTableRecord
  2
ACAD_MLEADERVER
 70
     0
  0
APPID
  5
150B
330
70
100
AcDbSymbolTableRecord
100
AcDbRegAppTableRecord
  2
AcAecLayerStandard
 70
     0
  0
APPID
  5
1526
330
70
100
AcDbSymbolTableRecord
100
AcDbRegAppTableRecord
  2
ACAD_EXEMPT_FROM_CAD_STANDARDS
 70
     0
  0
APPID
  5
1E1A
330
70
100
AcDbSymbolTableRecord
100
AcDbRegAppTableRecord
  2
AcadAnnoAV
 70
     0
  0
APPID
  5
1E40
330
70
100
AcDbSymbolTableRecord
100
AcDbRegAppTableRecord
  2
ACAUTHENVIRON
 70
     0
  0
APPID
  5
1E44
330
70
100
AcDbSymbolTableRecord
100
AcDbRegAppTableRecord
  2
AcDbDynamicBlockTrueName
 70
     0
  0
APPID
  5
1E45
330
70
100
AcDbSymbolTableRecord
100
AcDbRegAppTableRecord
  2
AcDbDynamicBlockGUID
 70
     0
  0
APPID
  5
1E47
330
70
100
AcDbSymbolTableRecord
100
AcDbRegAppTableRecord
  2
AcDbBlockRepETag
 70
     0
  0
APPID
  5
238F
330
70
100
AcDbSymbolTableRecord
100
AcDbRegAppTableRecord
  2
ACAD_NAV_VCDISPLAY
 70
     0
  0
ENDTAB
  0
TABLE
  2
DIMSTYLE
  5
72
330
0
100
AcDbSymbolTable
 70
     1
100
AcDbDimStyleTable
 71
     1
340
73
  0
DIMSTYLE
105
73
330
72
100
AcDbSymbolTableRecord
100
AcDbDimStyleTableRecord
  2
STANDARD
 70
     0
 40
3.0
 41
1.8
 42
0.625
 43
3.75
 44
0.8
 73
     0
 74
     0
 77
     1
 78
     8
140
1.8
141
2.5
143
0.0394
147
0.75
171
     4
172
     1
179
     2
271
     2
272
     2
273
     8
274
     4
277
     6
340
16
  0
ENDTAB
  0
TABLE
  2
BLOCK_RECORD
  5
1
330
0
100
AcDbSymbolTable
 70
    56
  0
BLOCK_RECORD
  5
2
330
1
100
AcDbSymbolTableRecord
100
AcDbBlockTableRecord
  2
*MODEL_SPACE
340
60
  0
BLOCK_RECORD
  5
2553
330
1
100
AcDbSymbolTableRecord
100
AcDbBlockTableRecord
  2
*Paper_Space
340
2554
  0
BLOCK_RECORD
  5
868
330
1
100
AcDbSymbolTableRecord
100
AcDbBlockTableRecord
  2
*D1
340
0
  0
BLOCK_RECORD
  5
876
330
1
100
AcDbSymbolTableRecord
100
AcDbBlockTableRecord
  2
*D2
340
0
  0
BLOCK_RECORD
  5
882
330
1
100
AcDbSymbolTableRecord
100
AcDbBlockTableRecord
  2
*D3
340
0
  0
BLOCK_RECORD
  5
95C
330
1
100
AcDbSymbolTableRecord
100
AcDbBlockTableRecord
  2
*D4
340
0
  0
BLOCK_RECORD
  5
968
330
1
100
AcDbSymbolTableRecord
100
AcDbBlockTableRecord
  2
*D5
340
0
  0
BLOCK_RECORD
  5
974
330
1
100
AcDbSymbolTableRecord
100
AcDbBlockTableRecord
  2
*D6
340
0
  0
BLOCK_RECORD
  5
980
330
1
100
AcDbSymbolTableRecord
100
AcDbBlockTableRecord
  2
*D7
340
0
  0
BLOCK_RECORD
  5
98C
330
1
100
AcDbSymbolTableRecord
100
AcDbBlockTableRecord
  2
*D8
340
0
  0
BLOCK_RECORD
  5
998
330
1
100
AcDbSymbolTableRecord
100
AcDbBlockTableRecord
  2
*D9
340
0
  0
BLOCK_RECORD
  5
9A5
330
1
100
AcDbSymbolTableRecord
100
AcDbBlockTableRecord
  2
*D10
340
0
  0
BLOCK_RECORD
  5
9B1
330
1
100
AcDbSymbolTableRecord
100
AcDbBlockTableRecord
  2
*D11
340
0
  0
BLOCK_RECORD
  5
9BD
330
1
100
AcDbSymbolTableRecord
100
AcDbBlockTableRecord
  2
*D12
340
0
  0
BLOCK_RECORD
  5
9C9
330
1
100
AcDbSymbolTableRecord
100
AcDbBlockTableRecord
  2
*D13
340
0
  0
BLOCK_RECORD
  5
9D5
330
1
100
AcDbSymbolTableRecord
100
AcDbBlockTableRecord
  2
*D14
340
0
  0
BLOCK_RECORD
  5
BB6
330
1
100
AcDbSymbolTableRecord
100
AcDbBlockTableRecord
  2
*D15
340
0
  0
BLOCK_RECORD
  5
BC2
330
1
100
AcDbSymbolTableRecord
100
AcDbBlockTableRecord
  2
*D16
340
0
  0
BLOCK_RECORD
  5
BCE
330
1
100
AcDbSymbolTableRecord
100
AcDbBlockTableRecord
  2
*D17
340
0
  0
BLOCK_RECORD
  5
BDA
330
1
100
AcDbSymbolTableRecord
100
AcDbBlockTableRecord
  2
*D18
340
0
  0
BLOCK_RECORD
  5
BE6
330
1
100
AcDbSymbolTableRecord
100
AcDbBlockTableRecord
  2
*D19
340
0
  0
BLOCK_RECORD
  5
BF2
330
1
100
AcDbSymbolTableRecord
100
AcDbBlockTableRecord
  2
*D20
340
0
  0
BLOCK_RECORD
  5
BFE
330
1
100
AcDbSymbolTableRecord
100
AcDbBlockTableRecord
  2
*D21
340
0
  0
BLOCK_RECORD
  5
C16
330
1
100
AcDbSymbolTableRecord
100
AcDbBlockTableRecord
  2
*D22
340
0
  0
BLOCK_RECORD
  5
C22
330
1
100
AcDbSymbolTableRecord
100
AcDbBlockTableRecord
  2
*D23
340
0
  0
BLOCK_RECORD
  5
E54
330
1
100
AcDbSymbolTableRecord
100
AcDbBlockTableRecord
  2
*D24
340
0
  0
BLOCK_RECORD
  5
1324
330
1
100
AcDbSymbolTableRecord
100
AcDbBlockTableRecord
  2
*D27
340
0
  0
BLOCK_RECORD
  5
1332
330
1
100
AcDbSymbolTableRecord
100
AcDbBlockTableRecord
  2
*D28
340
0
  0
BLOCK_RECORD
  5
133E
330
1
100
AcDbSymbolTableRecord
100
AcDbBlockTableRecord
  2
*D29
340
0
  0
BLOCK_RECORD
  5
134A
330
1
100
AcDbSymbolTableRecord
100
AcDbBlockTableRecord
  2
*D30
340
0
  0
BLOCK_RECORD
  5
144C
330
1
100
AcDbSymbolTableRecord
100
AcDbBlockTableRecord
  2
*D32
340
0
  0
ENDTAB
  0
ENDSEC
  0
SECTION
  2
BLOCKS
  0
BLOCK
  5
5D
330
2
100
AcDbEntity
  8
0
100
AcDbBlockBegin
  2
*MODEL_SPACE
 70
     0
 10
0.0
 20
0.0
 30
0.0
  3
*MODEL_SPACE
  1

  0
ENDBLK
  5
5F
330
2
100
AcDbEntity
  8
0
100
AcDbBlockEnd
  0
BLOCK
  5
2555
330
2553
100
AcDbEntity
 67
     1
  8
0
100
AcDbBlockBegin
  2
*Paper_Space
 70
     0
 10
0.0
 20
0.0
 30
0.0
  3
*Paper_Space
  1

  0
ENDBLK
  5
2556
330
2553
100
AcDbEntity
 67
     1
  8
0
100
AcDbBlockEnd
  0
BLOCK
  5
874
330
868
100
AcDbEntity
  8
0
100
AcDbBlockBegin
  2
*D1
 70
     1
 10
0.0
 20
0.0
 30
0.0
  3
*D1
  1

  0
POINT
  5
E01
330
868
100
AcDbEntity
  8
DEFPOINTS
 62
     0
100
AcDbPoint
 10
365.4941857481
 20
206.7398557164
 30
0.0
  0
POINT
  5
E02
330
868
100
AcDbEntity
  8
DEFPOINTS
 62
     0
100
AcDbPoint
 10
365.4941857481
 20
216.7398557164
 30
0.0
  0
POINT
  5
E03
330
868
100
AcDbEntity
  8
DEFPOINTS
 62
     0
100
AcDbPoint
 10
442.1953412188
 20
216.7398557164
 30
0.0
  0
ENDBLK
  5
875
330
868
100
AcDbEntity
  8
0
100
AcDbBlockEnd
  0
BLOCK
  5
880
330
876
100
AcDbEntity
  8
0
100
AcDbBlockBegin
  2
*D2
 70
     1
 10
0.0
 20
0.0
 30
0.0
  3
*D2
  1

  0
POINT
  5
DAD
330
876
100
AcDbEntity
  8
DEFPOINTS
 62
     0
100
AcDbPoint
 10
330.4941857481
 20
211.7397947164
 30
0.0
  0
POINT
  5
DAE
330
876
100
AcDbEntity
  8
DEFPOINTS
 62
     0
100
AcDbPoint
 10
365.4941857481
 20
216.7398557164
 30
0.0
  0
POINT
  5
DAF
330
876
100
AcDbEntity
  8
DEFPOINTS
 62
     0
100
AcDbPoint
 10
365.4941857481
 20
294.528889693
 30
0.0
  0
ENDBLK
  5
881
330
876
100
AcDbEntity
  8
0
100
AcDbBlockEnd
  0
BLOCK
  5
88C
330
882
100
AcDbEntity
  8
0
100
AcDbBlockBegin
  2
*D3
 70
     1
 10
0.0
 20
0.0
 30
0.0
  3
*D3
  1

  0
POINT
  5
DF6
330
882
100
AcDbEntity
  8
DEFPOINTS
 62
     0
100
AcDbPoint
 10
422.4941857481
 20
71.7397987164
 30
0.0
  0
POINT
  5
DF7
330
882
100
AcDbEntity
  8
DEFPOINTS
 62
     0
100
AcDbPoint
 10
372.9975727481
 20
276.7397947164
 30
0.0
  0
POINT
  5
DF8
330
882
100
AcDbEntity
  8
DEFPOINTS
 62
     0
100
AcDbPoint
 10
460.252195325
 20
276.7397947164
 30
0.0
  0
ENDBLK
  5
88D
330
882
100
AcDbEntity
  8
0
100
AcDbBlockEnd
  0
BLOCK
  5
966
330
95C
100
AcDbEntity
  8
0
100
AcDbBlockBegin
  2
*D4
 70
     1
 10
0.0
 20
0.0
 30
0.0
  3
*D4
  1

  0
POINT
  5
DB6
330
95C
100
AcDbEntity
  8
DEFPOINTS
 62
     0
100
AcDbPoint
 10
681.248837533
 20
286.7398017164
 30
0.0
  0
POINT
  5
DB7
330
95C
100
AcDbEntity
  8
DEFPOINTS
 62
     0
100
AcDbPoint
 10
756.248837533
 20
87.6219777164
 30
0.0
  0
POINT
  5
DB8
330
95C
100
AcDbEntity
  8
DEFPOINTS
 62
     0
100
AcDbPoint
 10
756.248837533
 20
312.7429757501
 30
0.0
  0
ENDBLK
  5
967
330
95C
100
AcDbEntity
  8
0
100
AcDbBlockEnd
  0
BLOCK
  5
972
330
968
100
AcDbEntity
  8
0
100
AcDbBlockBegin
  2
*D5
 70
     1
 10
0.0
 20
0.0
 30
0.0
  3
*D5
  1

  0
POINT
  5
DBF
330
968
100
AcDbEntity
  8
DEFPOINTS
 62
     0
100
AcDbPoint
 10
561.248806533
 20
227.7397947164
 30
0.0
  0
POINT
  5
DC0
330
968
100
AcDbEntity
  8
DEFPOINTS
 62
     0
100
AcDbPoint
 10
756.248837533
 20
87.6219777164
 30
0.0
  0
POINT
  5
DC1
330
968
100
AcDbEntity
  8
DEFPOINTS
 62
     0
100
AcDbPoint
 10
756.248837533
 20
330.7297040231
 30
0.0
  0
ENDBLK
  5
973
330
968
100
AcDbEntity
  8
0
100
AcDbBlockEnd
  0
BLOCK
  5
97E
330
974
100
AcDbEntity
  8
0
100
AcDbBlockBegin
  2
*D6
 70
     1
 10
0.0
 20
0.0
 30
0.0
  3
*D6
  1

  0
POINT
  5
DC8
330
974
100
AcDbEntity
  8
DEFPOINTS
 62
     0
100
AcDbPoint
 10
681.248837533
 20
286.7398017164
 30
0.0
  0
POINT
  5
DC9
330
974
100
AcDbEntity
  8
DEFPOINTS
 62
     0
100
AcDbPoint
 10
561.248806533
 20
227.7397947164
 30
0.0
  0
POINT
  5
DCA
330
974
100
AcDbEntity
  8
DEFPOINTS
 62
     0
100
AcDbPoint
 10
561.248806533
 20
312.7429757501
 30
0.0
  0
ENDBLK
  5
97F
330
974
100
AcDbEntity
  8
0
100
AcDbBlockEnd
  0
BLOCK
  5
98A
330
980
100
AcDbEntity
  8
0
100
AcDbBlockBegin
  2
*D7
 70
     1
 10
0.0
 20
0.0
 30
0.0
  3
*D7
  1

  0
POINT
  5
DD1
330
980
100
AcDbEntity
  8
DEFPOINTS
 62
     0
100
AcDbPoint
 10
616.248829533
 20
229.2398017164
 30
0.0
  0
POINT
  5
DD2
330
980
100
AcDbEntity
  8
DEFPOINTS
 62
     0
100
AcDbPoint
 10
561.248829533
 20
227.7398017164
 30
0.0
  0
POINT
  5
DD3
330
980
100
AcDbEntity
  8
DEFPOINTS
 62
     0
100
AcDbPoint
 10
561.248829533
 20
294.528889693
 30
0.0
  0
ENDBLK
  5
98B
330
980
100
AcDbEntity
  8
0
100
AcDbBlockEnd
  0
BLOCK
  5
996
330
98C
100
AcDbEntity
  8
0
100
AcDbBlockBegin
  2
*D8
 70
     1
 10
0.0
 20
0.0
 30
0.0
  3
*D8
  1

  0
POINT
  5
E33
330
98C
100
AcDbEntity
  8
DEFPOINTS
 62
     0
100
AcDbPoint
 10
611.248829533
 20
211.7398017164
 30
0.0
  0
POINT
  5
E34
330
98C
100
AcDbEntity
  8
DEFPOINTS
 62
     0
100
AcDbPoint
 10
561.248829533
 20
227.7398017164
 30
0.0
  0
POINT
  5
E35
330
98C
100
AcDbEntity
  8
DEFPOINTS
 62
     0
100
AcDbPoint
 10
561.248829533
 20
276.6400561418
 30
0.0
  0
ENDBLK
  5
997
330
98C
100
AcDbEntity
  8
0
100
AcDbBlockEnd
  0
BLOCK
  5
9A3
330
998
100
AcDbEntity
  8
0
100
AcDbBlockBegin
  2
*D9
 70
     1
 10
0.0
 20
0.0
 30
0.0
  3
*D9
  1

  0
POINT
  5
DED
330
998
100
AcDbEntity
  8
DEFPOINTS
 62
     0
100
AcDbPoint
 10
561.248829533
 20
195.7398017164
 30
0.0
  0
POINT
  5
DEE
330
998
100
AcDbEntity
  8
DEFPOINTS
 62
     0
100
AcDbPoint
 10
561.248829533
 20
227.7398017164
 30
0.0
  0
POINT
  5
DEF
330
998
100
AcDbEntity
  8
DEFPOINTS
 62
     0
100
AcDbPoint
 10
538.2134882719
 20
227.7398017164
 30
0.0
  0
ENDBLK
  5
9A4
330
998
100
AcDbEntity
  8
0
100
AcDbBlockEnd
  0
BLOCK
  5
9AF
330
9A5
100
AcDbEntity
  8
0
100
AcDbBlockBegin
  2
*D10
 70
     1
 10
0.0
 20
0.0
 30
0.0
  3
*D10
  1

  0
POINT
  5
E0A
330
9A5
100
AcDbEntity
  8
DEFPOINTS
 62
     0
100
AcDbPoint
 10
621.248829533
 20
66.7397947164
 30
0.0
  0
POINT
  5
E0B
330
9A5
100
AcDbEntity
  8
DEFPOINTS
 62
     0
100
AcDbPoint
 10
561.248829533
 20
195.7398017164
 30
0.0
  0
POINT
  5
E0C
330
9A5
100
AcDbEntity
  8
DEFPOINTS
 62
     0
100
AcDbPoint
 10
561.248829533
 20
46.3205011743
 30
0.0
  0
ENDBLK
  5
9B0
330
9A5
100
AcDbEntity
  8
0
100
AcDbBlockEnd
  0
BLOCK
  5
9BB
330
9B1
100
AcDbEntity
  8
0
100
AcDbBlockBegin
  2
*D11
 70
     1
 10
0.0
 20
0.0
 30
0.0
  3
*D11
  1

  0
POINT
  5
DE3
330
9B1
100
AcDbEntity
  8
DEFPOINTS
 62
     0
100
AcDbPoint
 10
551.248829533
 20
211.7398017164
 30
0.0
  0
POINT
  5
DE4
330
9B1
100
AcDbEntity
  8
DEFPOINTS
 62
     0
100
AcDbPoint
 10
606.248829533
 20
71.7397947164
 30
0.0
  0
POINT
  5
DE5
330
9B1
100
AcDbEntity
  8
DEFPOINTS
 62
     0
100
AcDbPoint
 10
520.1566341657
 20
71.7397947164
 30
0.0
  0
ENDBLK
  5
9BC
330
9B1
100
AcDbEntity
  8
0
100
AcDbBlockEnd
  0
BLOCK
  5
9C7
330
9BD
100
AcDbEntity
  8
0
100
AcDbBlockBegin
  2
*D12
 70
     1
 10
0.0
 20
0.0
 30
0.0
  3
*D12
  1

  0
POINT
  5
E25
330
9BD
100
AcDbEntity
  8
DEFPOINTS
 62
     0
100
AcDbPoint
 10
606.248829533
 20
71.7397947164
 30
0.0
  0
POINT
  5
E26
330
9BD
100
AcDbEntity
  8
DEFPOINTS
 62
     0
100
AcDbPoint
 10
608.748829533
 20
89.7397947164
 30
0.0
  0
POINT
  5
E27
330
9BD
100
AcDbEntity
  8
DEFPOINTS
 62
     0
100
AcDbPoint
 10
581.4308891276
 20
89.7397947164
 30
0.0
  0
ENDBLK
  5
9C8
330
9BD
100
AcDbEntity
  8
0
100
AcDbBlockEnd
  0
BLOCK
  5
9D3
330
9C9
100
AcDbEntity
  8
0
100
AcDbBlockBegin
  2
*D13
 70
     1
 10
0.0
 20
0.0
 30
0.0
  3
*D13
  1

  0
POINT
  5
E1C
330
9C9
100
AcDbEntity
  8
DEFPOINTS
 62
     0
100
AcDbPoint
 10
606.248840533
 20
71.7397947164
 30
0.0
  0
POINT
  5
E1D
330
9C9
100
AcDbEntity
  8
DEFPOINTS
 62
     0
100
AcDbPoint
 10
756.248845533
 20
71.7397947164
 30
0.0
  0
POINT
  5
E1E
330
9C9
100
AcDbEntity
  8
DEFPOINTS
 62
     0
100
AcDbPoint
 10
756.248845533
 20
28.3153696756
 30
0.0
  0
ENDBLK
  5
9D4
330
9C9
100
AcDbEntity
  8
0
100
AcDbBlockEnd
  0
BLOCK
  5
9DF
330
9D5
100
AcDbEntity
  8
0
100
AcDbBlockBegin
  2
*D14
 70
     1
 10
0.0
 20
0.0
 30
0.0
  3
*D14
  1

  0
POINT
  5
E13
330
9D5
100
AcDbEntity
  8
DEFPOINTS
 62
     0
100
AcDbPoint
 10
621.248841533
 20
66.7397947164
 30
0.0
  0
POINT
  5
E14
330
9D5
100
AcDbEntity
  8
DEFPOINTS
 62
     0
100
AcDbPoint
 10
741.248845533
 20
66.7397947164
 30
0.0
  0
POINT
  5
E15
330
9D5
100
AcDbEntity
  8
DEFPOINTS
 62
     0
100
AcDbPoint
 10
741.248845533
 20
46.3205011743
 30
0.0
  0
ENDBLK
  5
9E0
330
9D5
100
AcDbEntity
  8
0
100
AcDbBlockEnd
  0
BLOCK
  5
BC0
330
BB6
100
AcDbEntity
  8
0
100
AcDbBlockBegin
  2
*D15
 70
     1
 10
0.0
 20
0.0
 30
0.0
  3
*D15
  1

  0
POINT
  5
D65
330
BB6
100
AcDbEntity
  8
DEFPOINTS
 62
     0
100
AcDbPoint
 10
64.4941987481
 20
188.7397947164
 30
0.0
  0
POINT
  5
D66
330
BB6
100
AcDbEntity
  8
DEFPOINTS
 62
     0
100
AcDbPoint
 10
422.4941857481
 20
240.0453527164
 30
0.0
  0
POINT
  5
D67
330
BB6
100
AcDbEntity
  8
DEFPOINTS
 62
     0
100
AcDbPoint
 10
422.4941857481
 20
330.7296970231
 30
0.0
  0
ENDBLK
  5
BC1
330
BB6
100
AcDbEntity
  8
0
100
AcDbBlockEnd
  0
BLOCK
  5
BCC
330
BC2
100
AcDbEntity
  8
0
100
AcDbBlockBegin
  2
*D16
 70
     1
 10
0.0
 20
0.0
 30
0.0
  3
*D16
  1

  0
POINT
  5
D89
330
BC2
100
AcDbEntity
  8
DEFPOINTS
 62
     0
100
AcDbPoint
 10
203.9941857481
 20
198.7397947164
 30
0.0
  0
POINT
  5
D8A
330
BC2
100
AcDbEntity
  8
DEFPOINTS
 62
     0
100
AcDbPoint
 10
64.4941987481
 20
188.7397947164
 30
0.0
  0
POINT
  5
D8B
330
BC2
100
AcDbEntity
  8
DEFPOINTS
 62
     0
100
AcDbPoint
 10
64.4941987481
 20
312.7429687501
 30
0.0
  0
ENDBLK
  5
BCD
330
BC2
100
AcDbEntity
  8
0
100
AcDbBlockEnd
  0
BLOCK
  5
BD8
330
BCE
100
AcDbEntity
  8
0
100
AcDbBlockBegin
  2
*D17
 70
     1
 10
0.0
 20
0.0
 30
0.0
  3
*D17
  1

  0
POINT
  5
D6E
330
BCE
100
AcDbEntity
  8
DEFPOINTS
 62
     0
100
AcDbPoint
 10
346.4941857481
 20
286.7397947164
 30
0.0
  0
POINT
  5
D6F
330
BCE
100
AcDbEntity
  8
DEFPOINTS
 62
     0
100
AcDbPoint
 10
258.4941857481
 20
230.7397947164
 30
0.0
  0
POINT
  5
D70
330
BCE
100
AcDbEntity
  8
DEFPOINTS
 62
     0
100
AcDbPoint
 10
258.4941857481
 20
312.7429687501
 30
0.0
  0
ENDBLK
  5
BD9
330
BCE
100
AcDbEntity
  8
0
100
AcDbBlockEnd
  0
BLOCK
  5
BE4
330
BDA
100
AcDbEntity
  8
0
100
AcDbBlockBegin
  2
*D18
 70
     1
 10
0.0
 20
0.0
 30
0.0
  3
*D18
  1

  0
POINT
  5
D92
330
BDA
100
AcDbEntity
  8
DEFPOINTS
 62
     0
100
AcDbPoint
 10
258.4941857481
 20
230.7397947164
 30
0.0
  0
POINT
  5
D93
330
BDA
100
AcDbEntity
  8
DEFPOINTS
 62
     0
100
AcDbPoint
 10
203.9941857481
 20
198.7397947164
 30
0.0
  0
POINT
  5
D94
330
BDA
100
AcDbEntity
  8
DEFPOINTS
 62
     0
100
AcDbPoint
 10
203.9941857481
 20
312.7429687501
 30
0.0
  0
ENDBLK
  5
BE5
330
BDA
100
AcDbEntity
  8
0
100
AcDbBlockEnd
  0
BLOCK
  5
BF0
330
BE6
100
AcDbEntity
  8
0
100
AcDbBlockBegin
  2
*D19
 70
     1
 10
0.0
 20
0.0
 30
0.0
  3
*D19
  1

  0
POINT
  5
DDA
330
BE6
100
AcDbEntity
  8
DEFPOINTS
 62
     0
100
AcDbPoint
 10
346.4941857481
 20
286.7397947164
 30
0.0
  0
POINT
  5
DDB
330
BE6
100
AcDbEntity
  8
DEFPOINTS
 62
     0
100
AcDbPoint
 10
422.4941857481
 20
240.0453527164
 30
0.0
  0
POINT
  5
DDC
330
BE6
100
AcDbEntity
  8
DEFPOINTS
 62
     0
100
AcDbPoint
 10
422.4941857481
 20
312.7429687501
 30
0.0
  0
ENDBLK
  5
BF1
330
BE6
100
AcDbEntity
  8
0
100
AcDbBlockEnd
  0
BLOCK
  5
BFC
330
BF2
100
AcDbEntity
  8
0
100
AcDbBlockBegin
  2
*D20
 70
     1
 10
0.0
 20
0.0
 30
0.0
  3
*D20
  1

  0
POINT
  5
D9B
330
BF2
100
AcDbEntity
  8
DEFPOINTS
 62
     0
100
AcDbPoint
 10
69.0356407481
 20
108.7397917164
 30
0.0
  0
POINT
  5
D9C
330
BF2
100
AcDbEntity
  8
DEFPOINTS
 62
     0
100
AcDbPoint
 10
69.0356407481
 20
198.7397947164
 30
0.0
  0
POINT
  5
D9D
330
BF2
100
AcDbEntity
  8
DEFPOINTS
 62
     0
100
AcDbPoint
 10
40.4173282636
 20
198.7397947164
 30
0.0
  0
ENDBLK
  5
BFD
330
BF2
100
AcDbEntity
  8
0
100
AcDbBlockEnd
  0
BLOCK
  5
C08
330
BFE
100
AcDbEntity
  8
0
100
AcDbBlockBegin
  2
*D21
 70
     1
 10
0.0
 20
0.0
 30
0.0
  3
*D21
  1

  0
POINT
  5
DA4
330
BFE
100
AcDbEntity
  8
DEFPOINTS
 62
     0
100
AcDbPoint
 10
291.4217987023
 20
211.7397947164
 30
0.0
  0
POINT
  5
DA5
330
BFE
100
AcDbEntity
  8
DEFPOINTS
 62
     0
100
AcDbPoint
 10
303.3805377481
 20
153.7397947164
 30
0.0
  0
POINT
  5
DA6
330
BFE
100
AcDbEntity
  8
DEFPOINTS
 62
     0
100
AcDbPoint
 10
283.8296827124
 20
153.7397947164
 30
0.0
  0
ENDBLK
  5
C09
330
BFE
100
AcDbEntity
  8
0
100
AcDbBlockEnd
  0
BLOCK
  5
C20
330
C16
100
AcDbEntity
  8
0
100
AcDbBlockBegin
  2
*D22
 70
     1
 10
0.0
 20
0.0
 30
0.0
  3
*D22
  1

  0
POINT
  5
D77
330
C16
100
AcDbEntity
  8
DEFPOINTS
 62
     0
100
AcDbPoint
 10
422.4941857481
 20
71.7397987164
 30
0.0
  0
POINT
  5
D78
330
C16
100
AcDbEntity
  8
DEFPOINTS
 62
     0
100
AcDbPoint
 10
270.4941857481
 20
71.7397987164
 30
0.0
  0
POINT
  5
D79
330
C16
100
AcDbEntity
  8
DEFPOINTS
 62
     0
100
AcDbPoint
 10
270.4941857481
 20
28.3153716756
 30
0.0
  0
ENDBLK
  5
C21
330
C16
100
AcDbEntity
  8
0
100
AcDbBlockEnd
  0
BLOCK
  5
C2C
330
C22
100
AcDbEntity
  8
0
100
AcDbBlockBegin
  2
*D23
 70
     1
 10
0.0
 20
0.0
 30
0.0
  3
*D23
  1

  0
POINT
  5
D80
330
C22
100
AcDbEntity
  8
DEFPOINTS
 62
     0
100
AcDbPoint
 10
298.9941857481
 20
66.7397987164
 30
0.0
  0
POINT
  5
D81
330
C22
100
AcDbEntity
  8
DEFPOINTS
 62
     0
100
AcDbPoint
 10
393.9941857481
 20
66.7397987164
 30
0.0
  0
POINT
  5
D82
330
C22
100
AcDbEntity
  8
DEFPOINTS
 62
     0
100
AcDbPoint
 10
393.9941857481
 20
46.3205031743
 30
0.0
  0
ENDBLK
  5
C2D
330
C22
100
AcDbEntity
  8
0
100
AcDbBlockEnd
  0
BLOCK
  5
E60
330
E54
100
AcDbEntity
  8
0
100
AcDbBlockBegin
  2
*D24
 70
     1
 10
0.0
 20
0.0
 30
0.0
  3
*D24
  1

  0
POINT
  5
E6A
330
E54
100
AcDbEntity
  8
DEFPOINTS
 62
     0
100
AcDbPoint
 10
232.6668684758
 20
166.7397947164
 30
0.0
  0
POINT
  5
E6B
330
E54
100
AcDbEntity
  8
DEFPOINTS
 62
     0
100
AcDbPoint
 10
232.6668684758
 20
153.7397947164
 30
0.0
  0
POINT
  5
E6C
330
E54
100
AcDbEntity
  8
DEFPOINTS
 62
     0
100
AcDbPoint
 10
232.6668684758
 20
153.7397947164
 30
0.0
  0
ENDBLK
  5
E61
330
E54
100
AcDbEntity
  8
0
100
AcDbBlockEnd
  0
BLOCK
  5
1330
330
1324
100
AcDbEntity
  8
0
100
AcDbBlockBegin
  2
*D27
 70
     1
 10
0.0
 20
0.0
 30
0.0
  3
*D27
  1

  0
POINT
  5
142A
330
1324
100
AcDbEntity
  8
DEFPOINTS
 62
     0
100
AcDbPoint
 10
75.9941927481
 20
244.2398097164
 30
0.0
  0
POINT
  5
142B
330
1324
100
AcDbEntity
  8
DEFPOINTS
 62
     0
100
AcDbPoint
 10
64.4942007481
 20
192.7397947164
 30
0.0
  0
POINT
  5
142C
330
1324
100
AcDbEntity
  8
DEFPOINTS
 62
     0
100
AcDbPoint
 10
64.4942007481
 20
294.528889693
 30
0.0
  0
ENDBLK
  5
1331
330
1324
100
AcDbEntity
  8
0
100
AcDbBlockEnd
  0
BLOCK
  5
133C
330
1332
100
AcDbEntity
  8
0
100
AcDbBlockBegin
  2
*D28
 70
     1
 10
0.0
 20
0.0
 30
0.0
  3
*D28
  1

  0
POINT
  5
13BC
330
1332
100
AcDbEntity
  8
DEFPOINTS
 62
     0
100
AcDbPoint
 10
124.9941997481
 20
245.2398097164
 30
0.0
  0
POINT
  5
13BD
330
1332
100
AcDbEntity
  8
DEFPOINTS
 62
     0
100
AcDbPoint
 10
123.4941997481
 20
198.7397947164
 30
0.0
  0
POINT
  5
13BE
330
1332
100
AcDbEntity
  8
DEFPOINTS
 62
     0
100
AcDbPoint
 10
147.8616994908
 20
198.7397947164
 30
0.0
  0
ENDBLK
  5
133D
330
1332
100
AcDbEntity
  8
0
100
AcDbBlockEnd
  0
BLOCK
  5
1348
330
133E
100
AcDbEntity
  8
0
100
AcDbBlockBegin
  2
*D29
 70
     1
 10
0.0
 20
0.0
 30
0.0
  3
*D29
  1

  0
POINT
  5
1433
330
133E
100
AcDbEntity
  8
DEFPOINTS
 62
     0
100
AcDbPoint
 10
75.9941927481
 20
244.2398097164
 30
0.0
  0
POINT
  5
1434
330
133E
100
AcDbEntity
  8
DEFPOINTS
 62
     0
100
AcDbPoint
 10
125.9941997481
 20
244.2398097164
 30
0.0
  0
POINT
  5
1435
330
133E
100
AcDbEntity
  8
DEFPOINTS
 62
     0
100
AcDbPoint
 10
125.9941997481
 20
294.528889693
 30
0.0
  0
ENDBLK
  5
1349
330
133E
100
AcDbEntity
  8
0
100
AcDbBlockEnd
  0
BLOCK
  5
1354
330
134A
100
AcDbEntity
  8
0
100
AcDbBlockBegin
  2
*D30
 70
     1
 10
0.0
 20
0.0
 30
0.0
  3
*D30
  1

  0
POINT
  5
1396
330
134A
100
AcDbEntity
  8
DEFPOINTS
 62
     0
100
AcDbPoint
 10
75.1191927481
 20
217.7397947164
 30
0.0
  0
POINT
  5
1397
330
134A
100
AcDbEntity
  8
DEFPOINTS
 62
     0
100
AcDbPoint
 10
75.1191927481
 20
238.7397947164
 30
0.0
  0
POINT
  5
1398
330
134A
100
AcDbEntity
  8
DEFPOINTS
 62
     0
100
AcDbPoint
 10
51.2997474208
 20
238.7397947164
 30
0.0
  0
ENDBLK
  5
1355
330
134A
100
AcDbEntity
  8
0
100
AcDbBlockEnd
  0
BLOCK
  5
1452
330
144C
100
AcDbEntity
  8
0
100
AcDbBlockBegin
  2
*D32
 70
     1
 10
0.0
 20
0.0
 30
0.0
  3
*D32
  1

  0
POINT
  5
1457
330
144C
100
AcDbEntity
  8
DEFPOINTS
 62
     0
100
AcDbPoint
 10
618.7740024221
 20
152.8511310704
 30
0.0
  0
POINT
  5
1458
330
144C
100
AcDbEntity
  8
DEFPOINTS
 62
     0
100
AcDbPoint
 10
743.7236726438
 20
180.6284583624
 30
0.0
  0
ENDBLK
  5
1453
330
144C
100
AcDbEntity
  8
0
100
AcDbBlockEnd
  0
ENDSEC
  0
SECTION
  2
ENTITIES
  0
LINE
  5
67C
330
2
100
AcDbEntity
  8
0
100
AcDbLine
 10
370.2516017481
 20
94.7397937164
 30
0.0
 11
322.7368007481
 21
94.7397937164
 31
0.0
  0
LINE
  5
67D
330
2
100
AcDbEntity
  8
0
100
AcDbLine
 10
371.9941857481
 20
123.7397917164
 30
0.0
 11
320.9942017481
 21
123.7397917164
 31
0.0
  0
LINE
  5
67E
330
2
100
AcDbEntity
  8
0
100
AcDbLine
 10
320.9942017481
 20
120.8397937164
 30
0.0
 11
371.9941857481
 21
120.8397937164
 31
0.0
  0
ARC
  5
67F
330
2
100
AcDbEntity
  8
0
100
AcDbCircle
 10
346.4941857481
 20
211.7397947164
 30
0.0
 40
41.09999799999999
100
AcDbArc
 50
167.476898
 51
12.52324
  0
ARC
  5
680
330
2
100
AcDbEntity
  8
0
100
AcDbCircle
 10
346.4941857481
 20
211.7397947164
 30
0.0
 40
44.0
100
AcDbArc
 50
12.52324
 51
167.476898
  0
CIRCLE
  5
681
330
2
100
AcDbEntity
  8
0
100
AcDbCircle
 10
346.4941857481
 20
211.7397947164
 30
0.0
 40
39.0
  0
LINE
  5
682
330
2
100
AcDbEntity
  8
0
100
AcDbLine
 10
319.9907987481
 20
276.7397947164
 30
0.0
 11
372.9976037481
 21
276.7397947164
 31
0.0
  0
LINE
  5
683
330
2
100
AcDbEntity
  8
0
100
AcDbLine
 10
270.4942017481
 20
89.7397937164
 30
0.0
 11
422.4941857481
 21
89.7397937164
 31
0.0
  0
LINE
  5
684
330
2
100
AcDbEntity
  8
0
100
AcDbLine
 10
270.4942017481
 20
71.7397927164
 30
0.0
 11
422.4941857481
 21
71.7397927164
 31
0.0
  0
LINE
  5
685
330
2
100
AcDbEntity
  8
CENTER
100
AcDbLine
 10
291.4218281487
 20
211.7397947164
 30
0.0
 11
401.5665907127
 21
211.7397947164
 31
0.0
  0
LINE
  5
686
330
2
100
AcDbEntity
  8
CENTER
100
AcDbLine
 10
54.4941987481
 20
497.9053179032
 30
0.0
 11
432.4943997481
 21
497.9053179032
 31
0.0
  0
LINE
  5
687
330
2
100
AcDbEntity
  8
0
100
AcDbLine
 10
365.4941857481
 20
422.9053179032
 30
0.0
 11
404.9442597481
 21
422.9053179032
 31
0.0
  0
LINE
  5
68B
330
2
100
AcDbEntity
  8
0
100
AcDbLine
 10
418.7608177481
 20
452.9053179032
 30
0.0
 11
273.8308257481
 21
452.9053179032
 31
0.0
  0
LINE
  5
68C
330
2
100
AcDbEntity
  8
0
100
AcDbLine
 10
273.8308257481
 20
542.9053179032
 30
0.0
 11
418.7608177481
 21
542.9053179032
 31
0.0
  0
LINE
  5
68D
330
2
100
AcDbEntity
  8
0
100
AcDbLine
 10
84.9941997481
 20
119.3304937164
 30
0.0
 11
193.9565197481
 21
119.3304937164
 31
0.0
  0
LINE
  5
68E
330
2
100
AcDbEntity
  8
0
100
AcDbLine
 10
84.9941997481
 20
188.1490897164
 30
0.0
 11
193.9565197481
 21
188.1490897164
 31
0.0
  0
LINE
  5
68F
330
2
100
AcDbEntity
  8
0
100
AcDbLine
 10
84.9941997481
 20
108.7397917164
 30
0.0
 11
203.9942017481
 21
108.7397917164
 31
0.0
  0
LINE
  5
690
330
2
100
AcDbEntity
  8
0
100
AcDbLine
 10
84.9941997481
 20
198.7397947164
 30
0.0
 11
203.9942017481
 21
198.7397947164
 31
0.0
  0
LINE
  5
691
330
2
100
AcDbEntity
  8
CENTER
100
AcDbLine
 10
54.4941987481
 20
153.7397947164
 30
0.0
 11
303.3805687481
 21
153.7397947164
 31
0.0
  0
LINE
  5
692
330
2
100
AcDbEntity
  8
0
100
AcDbLine
 10
64.9941987481
 20
195.7397947164
 30
0.0
 11
64.9941987481
 21
111.7397917164
 31
0.0
  0
LINE
  5
693
330
2
100
AcDbEntity
  8
0
100
AcDbLine
 10
64.4941987481
 20
118.7397917164
 30
0.0
 11
64.4941987481
 21
188.7397947164
 31
0.0
  0
LINE
  5
694
330
2
100
AcDbEntity
  8
0
100
AcDbLine
 10
84.9941997481
 20
198.7397947164
 30
0.0
 11
84.9941997481
 21
108.7397917164
 31
0.0
  0
ARC
  5
696
330
2
100
AcDbEntity
  8
0
100
AcDbCircle
 10
69.0356567481
 20
112.7397727164
 30
0.0
 40
4.0
100
AcDbArc
 50
209.999603
 51
270.0
  0
LINE
  5
697
330
2
100
AcDbEntity
  8
0
100
AcDbLine
 10
84.9941997481
 20
119.3304937164
 30
0.0
 11
66.7441987481
 21
119.3304937164
 31
0.0
  0
LINE
  5
698
330
2
100
AcDbEntity
  8
0
100
AcDbLine
 10
65.5715447481
 20
110.7397917164
 30
0.0
 11
64.9941987481
 21
111.7397917164
 31
0.0
  0
LINE
  5
699
330
2
100
AcDbEntity
  8
0
100
AcDbLine
 10
64.4941987481
 20
118.7397917164
 30
0.0
 11
64.9941987481
 21
118.2397917164
 31
0.0
  0
LINE
  5
69A
330
2
100
AcDbEntity
  8
0
100
AcDbLine
 10
69.0356407481
 20
108.7397917164
 30
0.0
 11
84.9941997481
 21
108.7397917164
 31
0.0
  0
ARC
  5
69B
330
2
100
AcDbEntity
  8
0
100
AcDbCircle
 10
69.0356567481
 20
194.7397947164
 30
0.0
 40
4.0
100
AcDbArc
 50
90.0
 51
150.000397
  0
LINE
  5
69C
330
2
100
AcDbEntity
  8
0
100
AcDbLine
 10
84.9941997481
 20
188.1490897164
 30
0.0
 11
66.7441987481
 21
188.1490897164
 31
0.0
  0
LINE
  5
69D
330
2
100
AcDbEntity
  8
0
100
AcDbLine
 10
64.4941987481
 20
188.7397947164
 30
0.0
 11
64.9941987481
 21
189.2397947164
 31
0.0
  0
LINE
  5
69E
330
2
100
AcDbEntity
  8
0
100
AcDbLine
 10
65.5715447481
 20
196.7397797164
 30
0.0
 11
64.9941987481
 21
195.7397947164
 31
0.0
  0
LINE
  5
6A4
330
2
100
AcDbEntity
  8
0
100
AcDbLine
 10
69.0356407481
 20
198.7397947164
 30
0.0
 11
84.9941997481
 21
198.7397947164
 31
0.0
  0
LINE
  5
6AA
330
2
100
AcDbEntity
  8
0
100
AcDbLine
 10
249.9942017481
 20
127.3875267164
 30
0.0
 11
249.9942017481
 21
228.7399177164
 31
0.0
  0
LINE
  5
6AB
330
2
100
AcDbEntity
  8
0
100
AcDbLine
 10
203.9942017481
 20
198.7397947164
 30
0.0
 11
203.9942017481
 21
108.7397917164
 31
0.0
  0
LINE
  5
6AC
330
2
100
AcDbEntity
  8
0
100
AcDbLine
 10
194.9942017481
 20
196.7397947164
 30
0.0
 11
194.9942017481
 21
110.7397727164
 31
0.0
  0
LINE
  5
6AD
330
2
100
AcDbEntity
  8
0
100
AcDbLine
 10
258.4942017481
 20
230.7397947164
 30
0.0
 11
258.4942017481
 21
102.7397917164
 31
0.0
  0
ARC
  5
6AE
330
2
100
AcDbEntity
  8
0
100
AcDbCircle
 10
450.2029877481
 20
166.7397947164
 30
0.0
 40
185.208893
100
AcDbArc
 50
166.001907
 51
193.998093
  0
ARC
  5
6AF
330
2
100
AcDbEntity
  8
0
100
AcDbCircle
 10
320.9942017481
 20
152.7397947164
 30
0.0
 40
31.9
100
AcDbArc
 50
167.476898
 51
270.0
  0
ARC
  5
6B0
330
2
100
AcDbEntity
  8
0
100
AcDbCircle
 10
320.9942017481
 20
152.7397947164
 30
0.0
 40
29.0
100
AcDbArc
 50
167.476898
 51
270.0
  0
LINE
  5
6B1
330
2
100
AcDbEntity
  8
0
100
AcDbLine
 10
270.4942017481
 20
71.7397927164
 30
0.0
 11
270.4942017481
 21
235.2397947164
 31
0.0
  0
LINE
  5
6B2
330
2
100
AcDbEntity
  8
CENTER
100
AcDbLine
 10
346.4941857481
 20
286.7397947164
 30
0.0
 11
346.4941857481
 21
61.7397927164
 31
0.0
  0
ARC
  5
6B3
330
2
100
AcDbEntity
  8
0
100
AcDbCircle
 10
265.4942167481
 20
97.7397727164
 30
0.0
 40
5.0
100
AcDbArc
 50
0.0
 51
90.0
  0
LINE
  5
6B4
330
2
100
AcDbEntity
  8
0
100
AcDbLine
 10
203.9942017481
 20
118.2207937164
 30
0.0
 11
258.4942017481
 21
118.2207937164
 31
0.0
  0
LINE
  5
6B5
330
2
100
AcDbEntity
  8
0
100
AcDbLine
 10
203.9942017481
 20
133.2337907164
 30
0.0
 11
247.9942017481
 21
133.2337907164
 31
0.0
  0
LINE
  5
6B6
330
2
100
AcDbEntity
  8
0
100
AcDbLine
 10
258.4942017481
 20
106.8366117164
 30
0.0
 11
203.9942017481
 21
108.7397917164
 31
0.0
  0
ARC
  5
6B7
330
2
100
AcDbEntity
  8
0
100
AcDbCircle
 10
196.9942017481
 20
110.7397917164
 30
0.0
 40
2.0
100
AcDbArc
 50
180.0
 51
270.0
  0
LINE
  5
6B8
330
2
100
AcDbEntity
  8
0
100
AcDbLine
 10
251.9942017481
 20
102.7396957164
 30
0.0
 11
258.4942017481
 21
102.7396957164
 31
0.0
  0
ARC
  5
6B9
330
2
100
AcDbEntity
  8
0
100
AcDbCircle
 10
247.4942467481
 20
104.7192147164
 30
0.0
 40
2.5
100
AcDbArc
 50
0.260773
 51
88.0
  0
ARC
  5
6BA
330
2
100
AcDbEntity
  8
0
100
AcDbCircle
 10
251.9942017481
 20
104.7396957164
 30
0.0
 40
2.0
100
AcDbArc
 50
180.260773
 51
270.0
  0
LINE
  5
6BB
330
2
100
AcDbEntity
  8
0
100
AcDbLine
 10
265.4942017481
 20
102.7397917164
 30
0.0
 11
258.4942017481
 21
102.7397917164
 31
0.0
  0
LINE
  5
6BC
330
2
100
AcDbEntity
  8
0
100
AcDbLine
 10
250.5621637481
 20
126.1727937164
 30
0.0
 11
258.4942017481
 21
126.1727937164
 31
0.0
  0
LINE
  5
6BD
330
2
100
AcDbEntity
  8
0
100
AcDbLine
 10
284.4942017481
 20
87.6732327164
 30
0.0
 11
284.4942017481
 21
71.7397927164
 31
0.0
  0
LINE
  5
6BE
330
2
100
AcDbEntity
  8
HIDS
100
AcDbLine
 10
305.4942017481
 20
89.7397937164
 30
0.0
 11
305.4942017481
 21
71.7397927164
 31
0.0
  0
LINE
  5
6BF
330
2
100
AcDbEntity
  8
HIDS
100
AcDbLine
 10
292.4942017481
 20
89.7397937164
 30
0.0
 11
292.4942017481
 21
71.7397927164
 31
0.0
  0
LINE
  5
6C1
330
2
100
AcDbEntity
  8
CENTER
100
AcDbLine
 10
298.9942017481
 20
94.7397937164
 30
0.0
 11
298.9942017481
 21
66.7397927164
 31
0.0
  0
LINE
  5
6C2
330
2
100
AcDbEntity
  8
0
100
AcDbLine
 10
320.6156007481
 20
93.8611117164
 30
0.0
 11
317.9588007481
 21
91.2042917164
 31
0.0
  0
ARC
  5
6C3
330
2
100
AcDbEntity
  8
0
100
AcDbCircle
 10
314.4232017481
 20
94.7397937164
 30
0.0
 40
5.0
100
AcDbArc
 50
270.0
 51
315.000092
  0
LINE
  5
6C4
330
2
100
AcDbEntity
  8
0
100
AcDbLine
 10
321.4942017481
 20
93.8039127164
 30
0.0
 11
321.4942017481
 21
90.7397937164
 31
0.0
  0
ARC
  5
6C5
330
2
100
AcDbEntity
  8
0
100
AcDbCircle
 10
320.4942017481
 20
90.7397937164
 30
0.0
 40
1.0
100
AcDbArc
 50
270.0
 51
0.0
  0
ARC
  5
6C6
330
2
100
AcDbEntity
  8
0
100
AcDbCircle
 10
322.7368007481
 20
91.7397937164
 30
0.0
 40
3.0
100
AcDbArc
 50
90.0
 51
135.000305
  0
LINE
  5
6C7
330
2
100
AcDbEntity
  8
0
100
AcDbLine
 10
345.5663907481
 20
148.2456547164
 30
0.0
 11
343.3090057481
 21
148.2456547164
 31
0.0
  0
LINE
  5
6C8
330
2
100
AcDbEntity
  8
0
100
AcDbLine
 10
344.8614037481
 20
137.2983887164
 30
0.0
 11
345.5663907481
 21
137.2983887164
 31
0.0
  0
LINE
  5
6C9
330
2
100
AcDbEntity
  8
0
100
AcDbLine
 10
344.8614037481
 20
135.7397947164
 30
0.0
 11
347.9413907481
 21
135.7397947164
 31
0.0
  0
LINE
  5
6CA
330
2
100
AcDbEntity
  8
0
100
AcDbLine
 10
341.7441857481
 20
149.9897947164
 30
0.0
 11
351.2441857481
 21
149.9897947164
 31
0.0
  0
LINE
  5
6CB
330
2
100
AcDbEntity
  8
0
100
AcDbLine
 10
332.6523897481
 20
137.4097097164
 30
0.0
 11
330.1797937481
 21
137.4097097164
 31
0.0
  0
LINE
  5
6CC
330
2
100
AcDbEntity
  8
0
100
AcDbLine
 10
329.2190087481
 20
149.9897947164
 30
0.0
 11
335.6070097481
 21
149.9897947164
 31
0.0
  0
LINE
  5
6CD
330
2
100
AcDbEntity
  8
0
100
AcDbLine
 10
334.7401887481
 20
148.0972167164
 30
0.0
 11
330.1626127481
 21
148.0972167164
 31
0.0
  0
LINE
  5
6CE
330
2
100
AcDbEntity
  8
0
100
AcDbLine
 10
334.2671967481
 20
135.7397947164
 30
0.0
 11
329.3267967481
 21
135.7397947164
 31
0.0
  0
LINE
  5
6CF
330
2
100
AcDbEntity
  8
0
100
AcDbLine
 10
329.0900117481
 20
146.7672147164
 30
0.0
 11
329.0900117481
 21
138.5576357164
 31
0.0
  0
LINE
  5
6D0
330
2
100
AcDbEntity
  8
0
100
AcDbLine
 10
327.4941857481
 20
147.7813297164
 30
0.0
 11
327.4941857481
 21
137.5889167164
 31
0.0
  0
LINE
  5
6D1
330
2
100
AcDbEntity
  8
0
100
AcDbLine
 10
327.4941857481
 20
137.5889167164
 30
0.0
 11
329.3267967481
 21
135.7397947164
 31
0.0
  0
LINE
  5
6D2
330
2
100
AcDbEntity
  8
0
100
AcDbLine
 10
329.0900117481
 20
138.5576357164
 30
0.0
 11
330.1797937481
 21
137.4097097164
 31
0.0
  0
LINE
  5
6D3
330
2
100
AcDbEntity
  8
0
100
AcDbLine
 10
329.2190087481
 20
149.9897947164
 30
0.0
 11
327.4941857481
 21
147.7813297164
 31
0.0
  0
LINE
  5
6D4
330
2
100
AcDbEntity
  8
0
100
AcDbLine
 10
330.1626127481
 20
148.0972167164
 30
0.0
 11
329.0900117481
 21
146.7672147164
 31
0.0
  0
LINE
  5
6D5
330
2
100
AcDbEntity
  8
0
100
AcDbLine
 10
335.6212007481
 20
142.4565917164
 30
0.0
 11
335.6212007481
 21
140.3784517164
 31
0.0
  0
LINE
  5
6D6
330
2
100
AcDbEntity
  8
0
100
AcDbLine
 10
335.6212007481
 20
140.9722097164
 30
0.0
 11
335.6212007481
 21
142.1597097164
 31
0.0
  0
LINE
  5
6D7
330
2
100
AcDbEntity
  8
0
100
AcDbLine
 10
336.9941857481
 20
144.0151937164
 30
0.0
 11
336.9941857481
 21
135.7397947164
 31
0.0
  0
LINE
  5
6D8
330
2
100
AcDbEntity
  8
0
100
AcDbLine
 10
335.6212007481
 20
136.8757127164
 30
0.0
 11
334.2671967481
 21
135.7397947164
 31
0.0
  0
LINE
  5
6D9
330
2
100
AcDbEntity
  8
0
100
AcDbLine
 10
335.6212007481
 20
135.7397947164
 30
0.0
 11
336.9941857481
 21
135.7397947164
 31
0.0
  0
LINE
  5
6DA
330
2
100
AcDbEntity
  8
0
100
AcDbLine
 10
335.6212007481
 20
136.8757127164
 30
0.0
 11
335.6212007481
 21
135.7397947164
 31
0.0
  0
ARC
  5
6DB
330
2
100
AcDbEntity
  8
0
100
AcDbCircle
 10
332.6523897481
 20
140.3784517164
 30
0.0
 40
2.96875
100
AcDbArc
 50
270.000214
 51
0.000109
  0
LINE
  5
6DC
330
2
100
AcDbEntity
  8
0
100
AcDbLine
 10
344.8614037481
 20
137.2983887164
 30
0.0
 11
344.8614037481
 21
135.7397947164
 31
0.0
  0
LINE
  5
6DD
330
2
100
AcDbEntity
  8
0
100
AcDbLine
 10
335.6212007481
 20
147.2456547164
 30
0.0
 11
335.6212007481
 21
147.0210447164
 31
0.0
  0
LINE
  5
6DE
330
2
100
AcDbEntity
  8
0
100
AcDbLine
 10
333.1348107481
 20
144.0151937164
 30
0.0
 11
333.1348107481
 21
142.4565917164
 31
0.0
  0
LINE
  5
6DF
330
2
100
AcDbEntity
  8
0
100
AcDbLine
 10
336.9941857481
 20
148.4502137164
 30
0.0
 11
336.9941857481
 21
147.0210447164
 31
0.0
  0
LINE
  5
6E0
330
2
100
AcDbEntity
  8
0
100
AcDbLine
 10
335.6212007481
 20
142.4565917164
 30
0.0
 11
333.1348107481
 21
142.4565917164
 31
0.0
  0
LINE
  5
6E1
330
2
100
AcDbEntity
  8
0
100
AcDbLine
 10
333.1348107481
 20
144.0151937164
 30
0.0
 11
336.9941857481
 21
144.0151937164
 31
0.0
  0
LINE
  5
6E2
330
2
100
AcDbEntity
  8
0
100
AcDbLine
 10
335.6212007481
 20
147.0210447164
 30
0.0
 11
336.9941857481
 21
147.0210447164
 31
0.0
  0
LINE
  5
6E3
330
2
100
AcDbEntity
  8
0
100
AcDbLine
 10
335.6070097481
 20
149.9897947164
 30
0.0
 11
336.9941857481
 21
148.4502137164
 31
0.0
  0
LINE
  5
6E4
330
2
100
AcDbEntity
  8
0
100
AcDbLine
 10
335.6212007481
 20
147.2456547164
 30
0.0
 11
334.7222137481
 21
148.0972167164
 31
0.0
  0
LINE
  5
6E5
330
2
100
AcDbEntity
  8
0
100
AcDbLine
 10
343.3090057481
 20
148.2456547164
 30
0.0
 11
342.7988127481
 21
147.0210447164
 31
0.0
  0
LINE
  5
6E6
330
2
100
AcDbEntity
  8
0
100
AcDbLine
 10
341.7441857481
 20
147.0210447164
 30
0.0
 11
342.7988127481
 21
147.0210447164
 31
0.0
  0
LINE
  5
6E7
330
2
100
AcDbEntity
  8
0
100
AcDbLine
 10
341.7441857481
 20
147.0210447164
 30
0.0
 11
341.7441857481
 21
149.9897947164
 31
0.0
  0
LINE
  5
6E8
330
2
100
AcDbEntity
  8
0
100
AcDbLine
 10
358.9816127481
 20
135.7397947164
 30
0.0
 11
355.9941857481
 21
135.7397947164
 31
0.0
  0
LINE
  5
6E9
330
2
100
AcDbEntity
  8
0
100
AcDbLine
 10
355.9941857481
 20
149.9897947164
 30
0.0
 11
361.6903837481
 21
149.9897947164
 31
0.0
  0
LINE
  5
6EA
330
2
100
AcDbEntity
  8
0
100
AcDbLine
 10
356.6993867481
 20
148.2456547164
 30
0.0
 11
356.6993867481
 21
137.2241697164
 31
0.0
  0
LINE
  5
6EB
330
2
100
AcDbEntity
  8
0
100
AcDbLine
 10
347.3477937481
 20
148.2456547164
 30
0.0
 11
347.3477937481
 21
137.2983887164
 31
0.0
  0
LINE
  5
6EC
330
2
100
AcDbEntity
  8
0
100
AcDbLine
 10
345.5663907481
 20
148.2456547164
 30
0.0
 11
345.5663907481
 21
137.2983887164
 31
0.0
  0
LINE
  5
6ED
330
2
100
AcDbEntity
  8
0
100
AcDbLine
 10
347.9413907481
 20
137.2983887164
 30
0.0
 11
347.9413907481
 21
135.7397947164
 31
0.0
  0
LINE
  5
6EE
330
2
100
AcDbEntity
  8
0
100
AcDbLine
 10
347.3477937481
 20
137.2983887164
 30
0.0
 11
347.9413907481
 21
137.2983887164
 31
0.0
  0
LINE
  5
6EF
330
2
100
AcDbEntity
  8
0
100
AcDbLine
 10
355.9941857481
 20
137.2241697164
 30
0.0
 11
355.9941857481
 21
135.7397947164
 31
0.0
  0
LINE
  5
6F0
330
2
100
AcDbEntity
  8
0
100
AcDbLine
 10
355.9941857481
 20
137.2241697164
 30
0.0
 11
356.6993867481
 21
137.2241697164
 31
0.0
  0
LINE
  5
6F1
330
2
100
AcDbEntity
  8
0
100
AcDbLine
 10
347.3477937481
 20
148.2456547164
 30
0.0
 11
349.8230127481
 21
148.2456547164
 31
0.0
  0
LINE
  5
6F2
330
2
100
AcDbEntity
  8
0
100
AcDbLine
 10
349.8230127481
 20
148.2456547164
 30
0.0
 11
350.2531887481
 21
147.0210447164
 31
0.0
  0
LINE
  5
6F3
330
2
100
AcDbEntity
  8
0
100
AcDbLine
 10
350.2531887481
 20
147.0210447164
 30
0.0
 11
351.2441857481
 21
147.0210447164
 31
0.0
  0
LINE
  5
6F4
330
2
100
AcDbEntity
  8
0
100
AcDbLine
 10
351.2441857481
 20
147.0210447164
 30
0.0
 11
351.2441857481
 21
149.9897947164
 31
0.0
  0
LINE
  5
6F5
330
2
100
AcDbEntity
  8
0
100
AcDbLine
 10
355.9941857481
 20
148.2456547164
 30
0.0
 11
356.6993867481
 21
148.2456547164
 31
0.0
  0
LINE
  5
6F6
330
2
100
AcDbEntity
  8
0
100
AcDbLine
 10
355.9941857481
 20
149.9897947164
 30
0.0
 11
355.9941857481
 21
148.2456547164
 31
0.0
  0
LINE
  5
6F7
330
2
100
AcDbEntity
  8
0
100
AcDbLine
 10
361.3727867481
 20
142.4009357164
 30
0.0
 11
363.6007837481
 21
137.2241697164
 31
0.0
  0
LINE
  5
6F8
330
2
100
AcDbEntity
  8
0
100
AcDbLine
 10
362.7400047481
 20
142.5300557164
 30
0.0
 11
365.0944057481
 21
137.2241697164
 31
0.0
  0
LINE
  5
6F9
330
2
100
AcDbEntity
  8
0
100
AcDbLine
 10
358.3321987481
 20
142.4009357164
 30
0.0
 11
358.3321987481
 21
137.2241697164
 31
0.0
  0
LINE
  5
6FA
330
2
100
AcDbEntity
  8
0
100
AcDbLine
 10
363.3047937481
 20
135.7397947164
 30
0.0
 11
365.4941857481
 21
135.7397947164
 31
0.0
  0
LINE
  5
6FB
330
2
100
AcDbEntity
  8
0
100
AcDbLine
 10
358.9816127481
 20
137.2241697164
 30
0.0
 11
358.9816127481
 21
135.7397947164
 31
0.0
  0
LINE
  5
6FC
330
2
100
AcDbEntity
  8
0
100
AcDbLine
 10
363.3047937481
 20
137.2241697164
 30
0.0
 11
363.3047937481
 21
135.7397947164
 31
0.0
  0
LINE
  5
6FD
330
2
100
AcDbEntity
  8
0
100
AcDbLine
 10
363.3047937481
 20
137.2241697164
 30
0.0
 11
363.6007837481
 21
137.2241697164
 31
0.0
  0
LINE
  5
6FE
330
2
100
AcDbEntity
  8
0
100
AcDbLine
 10
358.3321987481
 20
137.2241697164
 30
0.0
 11
358.9816127481
 21
137.2241697164
 31
0.0
  0
LINE
  5
6FF
330
2
100
AcDbEntity
  8
0
100
AcDbLine
 10
365.4941857481
 20
137.2241697164
 30
0.0
 11
365.4941857481
 21
135.7397947164
 31
0.0
  0
LINE
  5
700
330
2
100
AcDbEntity
  8
0
100
AcDbLine
 10
365.0944057481
 20
137.2241697164
 30
0.0
 11
365.4941857481
 21
137.2241697164
 31
0.0
  0
ARC
  5
701
330
2
100
AcDbEntity
  8
0
100
AcDbCircle
 10
361.6903837481
 20
146.1860687164
 30
0.0
 40
2.320524
100
AcDbArc
 50
277.414726
 51
62.41185
  0
ARC
  5
702
330
2
100
AcDbEntity
  8
0
100
AcDbCircle
 10
361.6903837481
 20
146.1860687164
 30
0.0
 40
3.803712
100
AcDbArc
 50
286.018127
 51
90.00351
  0
LINE
  5
703
330
2
100
AcDbEntity
  8
0
100
AcDbLine
 10
358.3321987481
 20
148.2456547164
 30
0.0
 11
362.7652127481
 21
148.2427627164
 31
0.0
  0
LINE
  5
704
330
2
100
AcDbEntity
  8
0
100
AcDbLine
 10
358.3321987481
 20
142.4009357164
 30
0.0
 11
361.3727867481
 21
142.4009357164
 31
0.0
  0
LINE
  5
705
330
2
100
AcDbEntity
  8
0
100
AcDbLine
 10
358.3321987481
 20
148.2456547164
 30
0.0
 11
358.3321987481
 21
143.8849517164
 31
0.0
  0
LINE
  5
706
330
2
100
AcDbEntity
  8
0
100
AcDbLine
 10
361.9900047481
 20
143.8849517164
 30
0.0
 11
358.3321987481
 21
143.8849517164
 31
0.0
  0
ARC
  5
708
330
2
100
AcDbEntity
  8
0
100
AcDbCircle
 10
265.4941857481
 20
235.7397947164
 30
0.0
 40
5.0
100
AcDbArc
 50
270.0
 51
0.0
  0
ARC
  5
709
330
2
100
AcDbEntity
  8
0
100
AcDbCircle
 10
251.9942167481
 20
228.7399177164
 30
0.0
 40
2.0
100
AcDbArc
 50
90.0
 51
180.0
  0
LINE
  5
70A
330
2
100
AcDbEntity
  8
0
100
AcDbLine
 10
203.9942017481
 20
198.7397947164
 30
0.0
 11
249.9942017481
 21
200.3461487164
 31
0.0
  0
ARC
  5
70B
330
2
100
AcDbEntity
  8
0
100
AcDbCircle
 10
196.9942017481
 20
196.7398107164
 30
0.0
 40
2.0
100
AcDbArc
 50
90.0
 51
180.0
  0
LINE
  5
70C
330
2
100
AcDbEntity
  8
0
100
AcDbLine
 10
249.2619627481
 20
206.5075567164
 30
0.0
 11
243.5474547481
 21
200.7930487164
 31
0.0
  0
ARC
  5
70D
330
2
100
AcDbEntity
  8
0
100
AcDbCircle
 10
241.7796937481
 20
202.5608097164
 30
0.0
 40
2.5
100
AcDbArc
 50
272.0
 51
315.0
  0
ARC
  5
70E
330
2
100
AcDbEntity
  8
0
100
AcDbCircle
 10
247.4942017481
 20
208.2753327164
 30
0.0
 40
2.5
100
AcDbArc
 50
315.0
 51
0.0
  0
LINE
  5
70F
330
2
100
AcDbEntity
  8
0
100
AcDbLine
 10
251.9942017481
 20
230.7399017164
 30
0.0
 11
258.4942017481
 21
230.7399017164
 31
0.0
  0
LINE
  5
710
330
2
100
AcDbEntity
  8
0
100
AcDbLine
 10
265.4942017481
 20
230.7397947164
 30
0.0
 11
258.4942017481
 21
230.7397947164
 31
0.0
  0
LINE
  5
711
330
2
100
AcDbEntity
  8
0
100
AcDbLine
 10
292.6842037481
 20
159.0279807164
 30
0.0
 11
306.3719937481
 21
220.6516757164
 31
0.0
  0
LINE
  5
712
330
2
100
AcDbEntity
  8
0
100
AcDbLine
 10
289.8531947481
 20
159.6567947164
 30
0.0
 11
303.5409997481
 21
221.2804907164
 31
0.0
  0
ARC
  5
713
330
2
100
AcDbEntity
  8
0
100
AcDbCircle
 10
346.4941857481
 20
211.7397947164
 30
0.0
 40
16.0
100
AcDbArc
 50
18.2099
 51
341.7901
  0
LINE
  5
714
330
2
100
AcDbEntity
  8
0
100
AcDbLine
 10
365.4941857481
 20
206.7398557164
 30
0.0
 11
365.4941857481
 21
216.7398557164
 31
0.0
  0
LINE
  5
715
330
2
100
AcDbEntity
  8
0
100
AcDbLine
 10
357.4941857481
 20
206.7398257164
 30
0.0
 11
357.4941857481
 21
216.7398257164
 31
0.0
  0
LINE
  5
716
330
2
100
AcDbEntity
  8
0
100
AcDbLine
 10
365.4941857481
 20
206.7398557164
 30
0.0
 11
357.4941857481
 21
206.7398257164
 31
0.0
  0
LINE
  5
717
330
2
100
AcDbEntity
  8
0
100
AcDbLine
 10
365.4941857481
 20
216.7398557164
 30
0.0
 11
357.4941857481
 21
216.7398257164
 31
0.0
  0
ARC
  5
718
330
2
100
AcDbEntity
  8
0
100
AcDbCircle
 10
319.9907987481
 20
268.7397947164
 30
0.0
 40
8.0
100
AcDbArc
 50
90.0
 51
124.663696
  0
LINE
  5
719
330
2
100
AcDbEntity
  8
0
100
AcDbLine
 10
273.9441527481
 20
246.6254157164
 30
0.0
 11
315.4407957481
 21
275.3198577164
 31
0.0
  0
ARC
  5
71A
330
2
100
AcDbEntity
  8
0
100
AcDbCircle
 10
278.4942017481
 20
240.0453977164
 30
0.0
 40
8.0
100
AcDbArc
 50
124.663803
 51
180.0
  0
LINE
  5
71B
330
2
100
AcDbEntity
  8
0
100
AcDbLine
 10
270.4942017481
 20
235.2397947164
 30
0.0
 11
270.4942017481
 21
240.0453527164
 31
0.0
  0
LINE
  5
71C
330
2
100
AcDbEntity
  8
0
100
AcDbLine
 10
84.9941997481
 20
468.9053179032
 30
0.0
 11
194.9942017481
 21
468.9053179032
 31
0.0
  0
LINE
  5
71D
330
2
100
AcDbEntity
  8
0
100
AcDbLine
 10
84.9941997481
 20
526.9053179032
 30
0.0
 11
194.9942017481
 21
526.9053179032
 31
0.0
  0
LINE
  5
71E
330
2
100
AcDbEntity
  8
0
100
AcDbLine
 10
84.9941997481
 20
452.9053179032
 30
0.0
 11
203.9942017481
 21
452.9053179032
 31
0.0
  0
LINE
  5
71F
330
2
100
AcDbEntity
  8
0
100
AcDbLine
 10
84.9941997481
 20
542.9053179032
 30
0.0
 11
203.9942017481
 21
542.9053179032
 31
0.0
  0
LINE
  5
724
330
2
100
AcDbEntity
  8
0
100
AcDbLine
 10
64.9941987481
 20
539.9053179032
 30
0.0
 11
64.9941987481
 21
455.9053179032
 31
0.0
  0
LINE
  5
725
330
2
100
AcDbEntity
  8
0
100
AcDbLine
 10
64.4941987481
 20
462.9053179032
 30
0.0
 11
64.4941987481
 21
532.9053179032
 31
0.0
  0
ARC
  5
726
330
2
100
AcDbEntity
  8
0
100
AcDbCircle
 10
69.0356567481
 20
456.9053179032
 30
0.0
 40
4.0
100
AcDbArc
 50
209.999603
 51
270.0
  0
LINE
  5
727
330
2
100
AcDbEntity
  8
0
100
AcDbLine
 10
84.9941997481
 20
468.9053179032
 30
0.0
 11
66.7441987481
 21
468.9053179032
 31
0.0
  0
LINE
  5
728
330
2
100
AcDbEntity
  8
0
100
AcDbLine
 10
65.5715447481
 20
454.9053179032
 30
0.0
 11
64.9941987481
 21
455.9053179032
 31
0.0
  0
LINE
  5
729
330
2
100
AcDbEntity
  8
0
100
AcDbLine
 10
64.4941987481
 20
462.9053179032
 30
0.0
 11
64.9941987481
 21
462.4053179032
 31
0.0
  0
LINE
  5
72A
330
2
100
AcDbEntity
  8
0
100
AcDbLine
 10
84.9941997481
 20
472.9053179032
 30
0.0
 11
84.9941997481
 21
452.9053179032
 31
0.0
  0
LINE
  5
72B
330
2
100
AcDbEntity
  8
0
100
AcDbLine
 10
69.0356407481
 20
452.9053179032
 30
0.0
 11
84.9941997481
 21
452.9053179032
 31
0.0
  0
ARC
  5
731
330
2
100
AcDbEntity
  8
0
100
AcDbCircle
 10
69.0356567481
 20
538.9053179032
 30
0.0
 40
4.0
100
AcDbArc
 50
90.0
 51
150.000397
  0
LINE
  5
732
330
2
100
AcDbEntity
  8
0
100
AcDbLine
 10
84.9941997481
 20
526.9053179032
 30
0.0
 11
66.7441987481
 21
526.9053179032
 31
0.0
  0
LINE
  5
733
330
2
100
AcDbEntity
  8
0
100
AcDbLine
 10
64.4941987481
 20
532.9053179032
 30
0.0
 11
64.9941987481
 21
533.4053179032
 31
0.0
  0
LINE
  5
734
330
2
100
AcDbEntity
  8
0
100
AcDbLine
 10
65.5715447481
 20
540.9053179032
 30
0.0
 11
64.9941987481
 21
539.9053179032
 31
0.0
  0
LINE
  5
735
330
2
100
AcDbEntity
  8
0
100
AcDbLine
 10
84.9941997481
 20
542.9053179032
 30
0.0
 11
84.9941997481
 21
522.9053179032
 31
0.0
  0
LINE
  5
73B
330
2
100
AcDbEntity
  8
0
100
AcDbLine
 10
69.0356407481
 20
542.9053179032
 30
0.0
 11
84.9941997481
 21
542.9053179032
 31
0.0
  0
LINE
  5
73D
330
2
100
AcDbEntity
  8
0
100
AcDbLine
 10
242.8511957481
 20
519.7008199032
 30
0.0
 11
242.8511957481
 21
475.9882339032
 31
0.0
  0
LINE
  5
73E
330
2
100
AcDbEntity
  8
0
100
AcDbLine
 10
203.9942017481
 20
546.9173109032
 30
0.0
 11
203.9942017481
 21
448.8933239032
 31
0.0
  0
LINE
  5
73F
330
2
100
AcDbEntity
  8
0
100
AcDbLine
 10
249.9942017481
 20
435.9053179032
 30
0.0
 11
249.9942017481
 21
559.9053179032
 31
0.0
  0
LINE
  5
740
330
2
100
AcDbEntity
  8
0
100
AcDbLine
 10
270.4940027481
 20
497.9053179032
 30
0.0
 11
271.2280267481
 21
455.8529799032
 31
0.0
  0
LINE
  5
741
330
2
100
AcDbEntity
  8
0
100
AcDbLine
 10
258.4942017481
 20
561.9053179032
 30
0.0
 11
258.4942017481
 21
433.9053179032
 31
0.0
  0
LINE
  5
742
330
2
100
AcDbEntity
  8
0
100
AcDbLine
 10
317.4942017481
 20
539.9053179032
 30
0.0
 11
317.4942017481
 21
455.9053179032
 31
0.0
  0
LINE
  5
743
330
2
100
AcDbEntity
  8
CENTER
100
AcDbLine
 10
346.4941857481
 20
582.9053179032
 30
0.0
 11
346.4941857481
 21
367.9053179032
 31
0.0
  0
ARC
  5
744
330
2
100
AcDbEntity
  8
0
100
AcDbCircle
 10
273.8308257481
 20
447.9053179032
 30
0.0
 40
5.0
100
AcDbArc
 50
90.0
 51
165.0
  0
LINE
  5
745
330
2
100
AcDbEntity
  8
0
100
AcDbLine
 10
204.4938957481
 20
448.3758679032
 30
0.0
 11
249.9942017481
 21
446.7869709032
 31
0.0
  0
LINE
  5
746
330
2
100
AcDbEntity
  8
0
100
AcDbLine
 10
203.9942017481
 20
452.9053179032
 30
0.0
 11
247.5578157481
 21
451.3840469032
 31
0.0
  0
LINE
  5
747
330
2
100
AcDbEntity
  8
0
100
AcDbLine
 10
194.9942017481
 20
468.9053179032
 30
0.0
 11
194.9942017481
 21
454.9053179032
 31
0.0
  0
ARC
  5
748
330
2
100
AcDbEntity
  8
0
100
AcDbCircle
 10
196.9942017481
 20
454.9053179032
 30
0.0
 40
2.0
100
AcDbArc
 50
180.0
 51
270.0
  0
LINE
  5
749
330
2
100
AcDbEntity
  8
0
100
AcDbLine
 10
203.9942017481
 20
448.8933239032
 30
0.0
 11
204.4938957481
 21
448.3758679032
 31
0.0
  0
LINE
  5
74A
330
2
100
AcDbEntity
  8
0
100
AcDbLine
 10
265.8961637481
 20
437.6112199032
 30
0.0
 11
269.0012047481
 21
449.1994159032
 31
0.0
  0
LINE
  5
74B
330
2
100
AcDbEntity
  8
0
100
AcDbLine
 10
251.9942017481
 20
433.9053179032
 30
0.0
 11
258.4942017481
 21
433.9053179032
 31
0.0
  0
ARC
  5
74C
330
2
100
AcDbEntity
  8
0
100
AcDbCircle
 10
251.9942017481
 20
435.9053179032
 30
0.0
 40
2.0
100
AcDbArc
 50
180.0
 51
270.0
  0
ARC
  5
74D
330
2
100
AcDbEntity
  8
0
100
AcDbCircle
 10
261.0665277481
 20
438.9053179032
 30
0.0
 40
5.0
100
AcDbArc
 50
270.0
 51
345.0
  0
LINE
  5
74E
330
2
100
AcDbEntity
  8
0
100
AcDbLine
 10
261.0665277481
 20
433.9053179032
 30
0.0
 11
258.4942017481
 21
433.9053179032
 31
0.0
  0
ARC
  5
74F
330
2
100
AcDbEntity
  8
0
100
AcDbCircle
 10
247.4705657481
 20
448.8855729032
 30
0.0
 40
2.5
100
AcDbArc
 50
0.104292
 51
88.0
  0
LINE
  5
750
330
2
100
AcDbEntity
  8
0
100
AcDbLine
 10
243.4563447481
 20
473.9053179032
 30
0.0
 11
249.9661707481
 21
473.9053179032
 31
0.0
  0
LINE
  5
751
330
2
100
AcDbEntity
  8
0
100
AcDbLine
 10
361.6928857481
 20
427.9053179032
 30
0.0
 11
361.6928857481
 21
377.9053179032
 31
0.0
  0
LINE
  5
752
330
2
100
AcDbEntity
  8
0
100
AcDbLine
 10
365.4941857481
 20
377.9053179032
 30
0.0
 11
365.4941857481
 21
427.9053179032
 31
0.0
  0
LINE
  5
753
330
2
100
AcDbEntity
  8
0
100
AcDbLine
 10
330.4941857481
 20
432.9053179032
 30
0.0
 11
330.4941857481
 21
377.9053179032
 31
0.0
  0
LINE
  5
754
330
2
100
AcDbEntity
  8
0
100
AcDbLine
 10
365.4941857481
 20
377.9053179032
 30
0.0
 11
330.4941857481
 21
377.9053179032
 31
0.0
  0
LINE
  5
755
330
2
100
AcDbEntity
  8
0
100
AcDbLine
 10
381.7530057481
 20
435.9053179032
 30
0.0
 11
311.2353817481
 21
435.9053179032
 31
0.0
  0
LINE
  5
756
330
2
100
AcDbEntity
  8
0
100
AcDbLine
 10
288.0441437481
 20
422.9053179032
 30
0.0
 11
330.4941857481
 21
422.9053179032
 31
0.0
  0
ARC
  5
757
330
2
100
AcDbEntity
  8
0
100
AcDbCircle
 10
295.7501977481
 20
447.9053179032
 30
0.0
 40
5.0
100
AcDbArc
 50
196.172165
 51
270.0
  0
ARC
  5
759
330
2
100
AcDbEntity
  8
0
100
AcDbCircle
 10
298.9942017481
 20
437.9053179032
 30
0.0
 40
6.5
100
AcDbArc
 50
128.759308
 51
50.284863
  0
LINE
  5
75A
330
2
100
AcDbEntity
  8
0
100
AcDbLine
 10
280.5505977481
 20
428.1041089032
 30
0.0
 11
271.4958187481
 21
452.3266129032
 31
0.0
  0
ARC
  5
75B
330
2
100
AcDbEntity
  8
0
100
AcDbCircle
 10
288.0441437481
 20
430.9053179032
 30
0.0
 40
8.0
100
AcDbArc
 50
200.496613
 51
270.0
  0
ARC
  5
75C
330
2
100
AcDbEntity
  8
0
100
AcDbCircle
 10
274.2275697481
 20
455.9053179032
 30
0.0
 40
3.0
100
AcDbArc
 50
181.0
 51
270.0
  0
LINE
  5
75D
330
2
100
AcDbEntity
  8
0
100
AcDbLine
 10
290.9480587481
 20
446.5127089032
 30
0.0
 11
290.1403347481
 21
449.2979569032
 31
0.0
  0
ARC
  5
75E
330
2
100
AcDbEntity
  8
0
100
AcDbCircle
 10
285.3381957481
 20
447.9053179032
 30
0.0
 40
5.0
100
AcDbArc
 50
16.172159
 51
90.0
  0
LINE
  5
75F
330
2
100
AcDbEntity
  8
0
100
AcDbLine
 10
289.0941917481
 20
452.9053179032
 30
0.0
 11
289.0909877481
 21
452.9164259032
 31
0.0
  0
ARC
  5
761
330
2
100
AcDbEntity
  8
0
100
AcDbCircle
 10
311.2353817481
 20
440.9053179032
 30
0.0
 40
5.0
100
AcDbArc
 50
196.389542
 51
270.0
  0
LINE
  5
762
330
2
100
AcDbEntity
  8
0
100
AcDbLine
 10
295.7501977481
 20
442.9053179032
 30
0.0
 11
305.4353787481
 21
442.9053179032
 31
0.0
  0
LINE
  5
763
330
2
100
AcDbEntity
  8
0
100
AcDbLine
 10
306.4385677481
 20
439.4944899032
 30
0.0
 11
305.4353787481
 21
442.9053179032
 31
0.0
  0
LINE
  5
764
330
2
100
AcDbEntity
  8
0
100
AcDbLine
 10
328.9941857481
 20
432.9053179032
 30
0.0
 11
363.9941857481
 21
432.9053179032
 31
0.0
  0
LINE
  5
765
330
2
100
AcDbEntity
  8
0
100
AcDbLine
 10
328.9941857481
 20
435.9053179032
 30
0.0
 11
328.9941857481
 21
432.9053179032
 31
0.0
  0
LINE
  5
766
330
2
100
AcDbEntity
  8
0
100
AcDbLine
 10
361.6928857481
 20
427.9053179032
 30
0.0
 11
365.4941857481
 21
427.9053179032
 31
0.0
  0
LINE
  5
767
330
2
100
AcDbEntity
  8
0
100
AcDbLine
 10
362.4941857481
 20
432.9053179032
 30
0.0
 11
362.4941857481
 21
427.9053179032
 31
0.0
  0
LINE
  5
768
330
2
100
AcDbEntity
  8
0
100
AcDbLine
 10
363.9941857481
 20
435.9053179032
 30
0.0
 11
363.9941857481
 21
432.9053179032
 31
0.0
  0
ARC
  5
769
330
2
100
AcDbEntity
  8
0
100
AcDbCircle
 10
273.8308257481
 20
547.9053179032
 30
0.0
 40
5.0
100
AcDbArc
 50
195.0
 51
270.0
  0
LINE
  5
76A
330
2
100
AcDbEntity
  8
0
100
AcDbLine
 10
204.4938957481
 20
547.4347669032
 30
0.0
 11
249.9942017481
 21
549.0236649032
 31
0.0
  0
LINE
  5
76B
330
2
100
AcDbEntity
  8
0
100
AcDbLine
 10
203.9942017481
 20
542.9053179032
 30
0.0
 11
247.5578157481
 21
544.4265889032
 31
0.0
  0
LINE
  5
76C
330
2
100
AcDbEntity
  8
0
100
AcDbLine
 10
194.9942017481
 20
540.9053179032
 30
0.0
 11
194.9942017481
 21
526.9053179032
 31
0.0
  0
ARC
  5
76D
330
2
100
AcDbEntity
  8
0
100
AcDbCircle
 10
196.9942017481
 20
540.9053479032
 30
0.0
 40
2.0
100
AcDbArc
 50
90.0
 51
180.0
  0
LINE
  5
76E
330
2
100
AcDbEntity
  8
0
100
AcDbLine
 10
203.9942017481
 20
546.9173109032
 30
0.0
 11
204.4938957481
 21
547.4347669032
 31
0.0
  0
LINE
  5
76F
330
2
100
AcDbEntity
  8
0
100
AcDbLine
 10
242.8511957481
 20
521.9053179032
 30
0.0
 11
249.9661707481
 21
521.9053179032
 31
0.0
  0
LINE
  5
770
330
2
100
AcDbEntity
  8
0
100
AcDbLine
 10
265.8961637481
 20
558.1994159032
 30
0.0
 11
269.0012047481
 21
546.6112199032
 31
0.0
  0
ARC
  5
771
330
2
100
AcDbEntity
  8
0
100
AcDbCircle
 10
247.4705657481
 20
546.9250629032
 30
0.0
 40
2.5
100
AcDbArc
 50
272.0
 51
359.895721
  0
LINE
  5
772
330
2
100
AcDbEntity
  8
0
100
AcDbLine
 10
249.9942017481
 20
544.5116719032
 30
0.0
 11
249.9661707481
 21
544.5106949032
 31
0.0
  0
LINE
  5
773
330
2
100
AcDbEntity
  8
0
100
AcDbLine
 10
251.9942017481
 20
561.9053179032
 30
0.0
 11
258.4942017481
 21
561.9053179032
 31
0.0
  0
ARC
  5
774
330
2
100
AcDbEntity
  8
0
100
AcDbCircle
 10
251.9942017481
 20
559.9053179032
 30
0.0
 40
2.0
100
AcDbArc
 50
90.0
 51
180.0
  0
ARC
  5
775
330
2
100
AcDbEntity
  8
0
100
AcDbCircle
 10
261.0665277481
 20
556.9053179032
 30
0.0
 40
5.0
100
AcDbArc
 50
15.0
 51
90.0
  0
LINE
  5
776
330
2
100
AcDbEntity
  8
0
100
AcDbLine
 10
261.0665277481
 20
561.9053179032
 30
0.0
 11
258.4942017481
 21
561.9053179032
 31
0.0
  0
LINE
  5
777
330
2
100
AcDbEntity
  8
0
100
AcDbLine
 10
381.7530057481
 20
559.9053179032
 30
0.0
 11
311.2353817481
 21
559.9053179032
 31
0.0
  0
LINE
  5
778
330
2
100
AcDbEntity
  8
0
100
AcDbLine
 10
288.0441437481
 20
572.9053179032
 30
0.0
 11
404.9442597481
 21
572.9053179032
 31
0.0
  0
LINE
  5
779
330
2
100
AcDbEntity
  8
0
100
AcDbLine
 10
270.4940027481
 20
497.9053179032
 30
0.0
 11
271.2280267481
 21
539.9576859032
 31
0.0
  0
ARC
  5
77A
330
2
100
AcDbEntity
  8
0
100
AcDbCircle
 10
295.7501977481
 20
547.9053179032
 30
0.0
 40
5.0
100
AcDbArc
 50
90.0
 51
163.827835
  0
ARC
  5
77C
330
2
100
AcDbEntity
  8
0
100
AcDbCircle
 10
298.9942017481
 20
557.9053179032
 30
0.0
 40
6.5
100
AcDbArc
 50
309.715137
 51
231.240692
  0
LINE
  5
77D
330
2
100
AcDbEntity
  8
0
100
AcDbLine
 10
280.5505977481
 20
567.7065259032
 30
0.0
 11
271.4958187481
 21
543.4840529032
 31
0.0
  0
ARC
  5
77E
330
2
100
AcDbEntity
  8
0
100
AcDbCircle
 10
274.2275697481
 20
539.9053179032
 30
0.0
 40
3.0
100
AcDbArc
 50
90.0
 51
179.0
  0
LINE
  5
77F
330
2
100
AcDbEntity
  8
0
100
AcDbLine
 10
290.9480587481
 20
549.2979569032
 30
0.0
 11
290.1403347481
 21
546.5127089032
 31
0.0
  0
ARC
  5
780
330
2
100
AcDbEntity
  8
0
100
AcDbCircle
 10
285.3381957481
 20
547.9053179032
 30
0.0
 40
5.0
100
AcDbArc
 50
270.0
 51
343.827841
  0
LINE
  5
781
330
2
100
AcDbEntity
  8
0
100
AcDbLine
 10
289.0941917481
 20
542.9053179032
 30
0.0
 11
289.0909877481
 21
542.8942399032
 31
0.0
  0
ARC
  5
782
330
2
100
AcDbEntity
  8
0
100
AcDbCircle
 10
288.0441437481
 20
564.9053179032
 30
0.0
 40
8.0
100
AcDbArc
 50
90.0
 51
159.503387
  0
ARC
  5
783
330
2
100
AcDbEntity
  8
0
100
AcDbCircle
 10
311.2353817481
 20
554.9053179032
 30
0.0
 40
5.0
100
AcDbArc
 50
90.0
 51
163.610458
  0
LINE
  5
785
330
2
100
AcDbEntity
  8
0
100
AcDbLine
 10
295.7501977481
 20
552.9053179032
 30
0.0
 11
305.4353787481
 21
552.9053179032
 31
0.0
  0
LINE
  5
786
330
2
100
AcDbEntity
  8
0
100
AcDbLine
 10
306.4385677481
 20
556.3161449032
 30
0.0
 11
305.4353787481
 21
552.9053179032
 31
0.0
  0
ARC
  5
787
330
2
100
AcDbEntity
  8
0
100
AcDbCircle
 10
632.248868533
 20
93.7397527164
 30
0.0
 40
4.0
100
AcDbArc
 50
270.0
 51
0.0
  0
ARC
  5
788
330
2
100
AcDbEntity
  8
0
100
AcDbCircle
 10
633.248868533
 20
97.2811727164
 30
0.0
 40
3.0
100
AcDbArc
 50
279.462517
 51
0.0
  0
ARC
  5
789
330
2
100
AcDbEntity
  8
0
100
AcDbCircle
 10
631.248868533
 20
117.0837737164
 30
0.0
 40
5.0
100
AcDbArc
 50
0.0
 51
73.827919
  0
ARC
  5
78A
330
2
100
AcDbEntity
  8
0
100
AcDbCircle
 10
631.248868533
 20
259.4809757164
 30
0.0
 40
5.0
100
AcDbArc
 50
286.389771
 51
0.0
  0
ARC
  5
78B
330
2
100
AcDbEntity
  8
0
100
AcDbCircle
 10
639.248868533
 20
273.0060767164
 30
0.0
 40
3.0
100
AcDbArc
 50
91.000603
 51
180.0
  0
LINE
  5
78C
330
2
100
AcDbEntity
  8
0
100
AcDbLine
 10
606.248868533
 20
71.7397927164
 30
0.0
 11
651.248837533
 21
71.7397927164
 31
0.0
  0
LINE
  5
78D
330
2
100
AcDbEntity
  8
CENTER
100
AcDbLine
 10
551.248868533
 20
211.7397947164
 30
0.0
 11
753.248837533
 21
211.7397947164
 31
0.0
  0
LINE
  5
78E
330
2
100
AcDbEntity
  8
CENTER
100
AcDbLine
 10
607.248837533
 20
166.7397947164
 30
0.0
 11
755.248837533
 21
166.7397947164
 31
0.0
  0
ARC
  5
78F
330
2
100
AcDbEntity
  8
0
100
AcDbCircle
 10
681.248837533
 20
166.7397947164
 30
0.0
 40
64.0
100
AcDbArc
 50
165.638489
 51
210.753525
  0
LINE
  5
790
330
2
100
AcDbEntity
  8
0
100
AcDbLine
 10
626.248868533
 20
127.4957917164
 30
0.0
 11
626.248868533
 21
215.6501957164
 31
0.0
  0
ARC
  5
791
330
2
100
AcDbEntity
  8
0
100
AcDbCircle
 10
371.9941857481
 20
152.7397947164
 30
0.0
 40
31.9
100
AcDbArc
 50
270.0
 51
12.52324
  0
ARC
  5
792
330
2
100
AcDbEntity
  8
0
100
AcDbCircle
 10
371.9941857481
 20
152.7397947164
 30
0.0
 40
29.0
100
AcDbArc
 50
270.0
 51
12.52324
  0
LINE
  5
793
330
2
100
AcDbEntity
  8
0
100
AcDbLine
 10
422.4941857481
 20
240.0453527164
 30
0.0
 11
422.4941857481
 21
71.7397927164
 31
0.0
  0
LINE
  5
794
330
2
100
AcDbEntity
  8
0
100
AcDbLine
 10
408.4941857481
 20
87.6732327164
 30
0.0
 11
408.4941857481
 21
71.7397927164
 31
0.0
  0
LINE
  5
795
330
2
100
AcDbEntity
  8
HIDS
100
AcDbLine
 10
400.4941857481
 20
89.7397937164
 30
0.0
 11
400.4941857481
 21
71.7397927164
 31
0.0
  0
LINE
  5
796
330
2
100
AcDbEntity
  8
HIDS
100
AcDbLine
 10
387.4941857481
 20
89.7397937164
 30
0.0
 11
387.4941857481
 21
71.7397927164
 31
0.0
  0
LINE
  5
797
330
2
100
AcDbEntity
  8
CENTER
100
AcDbLine
 10
393.9941857481
 20
94.7397937164
 30
0.0
 11
393.9941857481
 21
66.7397927164
 31
0.0
  0
LINE
  5
798
330
2
100
AcDbEntity
  8
0
100
AcDbLine
 10
371.4941857481
 20
93.8039127164
 30
0.0
 11
371.4941857481
 21
90.7397937164
 31
0.0
  0
LINE
  5
799
330
2
100
AcDbEntity
  8
0
100
AcDbLine
 10
372.3727867481
 20
93.8611117164
 30
0.0
 11
375.0297997481
 21
91.2042537164
 31
0.0
  0
ARC
  5
79A
330
2
100
AcDbEntity
  8
0
100
AcDbCircle
 10
378.5652007481
 20
94.7397937164
 30
0.0
 40
5.0
100
AcDbArc
 50
225.0
 51
270.0
  0
ARC
  5
79B
330
2
100
AcDbEntity
  8
0
100
AcDbCircle
 10
372.4941857481
 20
90.7397937164
 30
0.0
 40
1.0
100
AcDbArc
 50
180.0
 51
270.0
  0
ARC
  5
79C
330
2
100
AcDbEntity
  8
0
100
AcDbCircle
 10
370.2516017481
 20
91.7397937164
 30
0.0
 40
3.0
100
AcDbArc
 50
45.00016
 51
90.0
  0
LINE
  5
79D
330
2
100
AcDbEntity
  8
HIDS
100
AcDbLine
 10
614.748868533
 20
89.7397937164
 30
0.0
 11
614.748868533
 21
71.7397927164
 31
0.0
  0
LINE
  5
79E
330
2
100
AcDbEntity
  8
HIDS
100
AcDbLine
 10
627.748868533
 20
89.7397937164
 30
0.0
 11
627.748868533
 21
71.7397927164
 31
0.0
  0
LINE
  5
79F
330
2
100
AcDbEntity
  8
0
100
AcDbLine
 10
606.248868533
 20
87.6219727164
 30
0.0
 11
606.248868533
 21
71.7397927164
 31
0.0
  0
LINE
  5
7A0
330
2
100
AcDbEntity
  8
CENTER
100
AcDbLine
 10
621.248868533
 20
94.7397937164
 30
0.0
 11
621.248868533
 21
66.7397927164
 31
0.0
  0
LINE
  5
7A1
330
2
100
AcDbEntity
  8
0
100
AcDbLine
 10
608.337857533
 20
90.0879527164
 30
0.0
 11
633.742063533
 21
94.3219927164
 31
0.0
  0
LINE
  5
7A2
330
2
100
AcDbEntity
  8
0
100
AcDbLine
 10
608.748868533
 20
89.7397937164
 30
0.0
 11
632.248868533
 21
89.7397937164
 31
0.0
  0
ARC
  5
7A3
330
2
100
AcDbEntity
  8
0
100
AcDbCircle
 10
608.748868533
 20
87.6219937164
 30
0.0
 40
2.5
100
AcDbArc
 50
99.462753
 51
180.0
  0
ARC
  5
7A4
330
2
100
AcDbEntity
  8
0
100
AcDbCircle
 10
608.748868533
 20
87.2398127164
 30
0.0
 40
2.5
100
AcDbArc
 50
90.0
 51
180.0
  0
LINE
  5
7A5
330
2
100
AcDbEntity
  8
0
100
AcDbLine
 10
629.856259533
 20
122.6936527164
 30
0.0
 11
632.641446533
 21
121.8859327164
 31
0.0
  0
ARC
  5
7A6
330
2
100
AcDbEntity
  8
0
100
AcDbCircle
 10
634.248868533
 20
117.7184517164
 30
0.0
 40
2.0
100
AcDbArc
 50
30.94791
 51
53.217121
  0
ARC
  5
7A7
330
2
100
AcDbEntity
  8
0
100
AcDbCircle
 10
640.236661533
 20
125.7275727164
 30
0.0
 40
8.0
100
AcDbArc
 50
211.001404
 51
233.216995
  0
ARC
  5
7A8
330
2
100
AcDbEntity
  8
0
100
AcDbCircle
 10
631.248868533
 20
127.4958337164
 30
0.0
 40
5.0
100
AcDbArc
 50
180.0
 51
253.828201
  0
LINE
  5
7A9
330
2
100
AcDbEntity
  8
0
100
AcDbLine
 10
386.6164087481
 20
220.6517517164
 30
0.0
 11
400.3041837481
 21
159.0280337164
 31
0.0
  0
LINE
  5
7AA
330
2
100
AcDbEntity
  8
0
100
AcDbLine
 10
389.4474027481
 20
221.2805667164
 30
0.0
 11
403.1352077481
 21
159.6568557164
 31
0.0
  0
ARC
  5
7AB
330
2
100
AcDbEntity
  8
0
100
AcDbCircle
 10
414.4941857481
 20
240.0453067164
 30
0.0
 40
8.0
100
AcDbArc
 50
0.0
 51
55.336739
  0
LINE
  5
7AC
330
2
100
AcDbEntity
  8
0
100
AcDbLine
 10
419.0442047481
 20
246.6254157164
 30
0.0
 11
377.5475917481
 21
275.3198577164
 31
0.0
  0
ARC
  5
7AD
330
2
100
AcDbEntity
  8
0
100
AcDbCircle
 10
372.9976037481
 20
268.7397947164
 30
0.0
 40
8.0
100
AcDbArc
 50
55.336689
 51
90.0
  0
LINE
  5
7AE
330
2
100
AcDbEntity
  8
0
100
AcDbLine
 10
619.248868533
 20
176.4809827164
 30
0.0
 11
619.248868533
 21
246.9986147164
 31
0.0
  0
LINE
  5
7AF
330
2
100
AcDbEntity
  8
0
100
AcDbLine
 10
606.248868533
 20
206.7397947164
 30
0.0
 11
561.248868533
 21
206.7397947164
 31
0.0
  0
LINE
  5
7B0
330
2
100
AcDbEntity
  8
0
100
AcDbLine
 10
606.248868533
 20
216.7397947164
 30
0.0
 11
561.248868533
 21
216.7397947164
 31
0.0
  0
LINE
  5
7B1
330
2
100
AcDbEntity
  8
0
100
AcDbLine
 10
616.248868533
 20
195.7397947164
 30
0.0
 11
561.248868533
 21
195.7397947164
 31
0.0
  0
LINE
  5
7B2
330
2
100
AcDbEntity
  8
0
100
AcDbLine
 10
616.248868533
 20
227.7397947164
 30
0.0
 11
561.248868533
 21
227.7397947164
 31
0.0
  0
LINE
  5
7B3
330
2
100
AcDbEntity
  8
0
100
AcDbLine
 10
561.248868533
 20
195.7397947164
 30
0.0
 11
561.248868533
 21
227.7397947164
 31
0.0
  0
ARC
  5
7B4
330
2
100
AcDbEntity
  8
0
100
AcDbCircle
 10
622.248868533
 20
167.6880067164
 30
0.0
 40
4.0
100
AcDbArc
 50
0.0
 51
73.610649
  0
ARC
  5
7B5
330
2
100
AcDbEntity
  8
0
100
AcDbCircle
 10
624.248868533
 20
176.4810217164
 30
0.0
 40
5.0
100
AcDbArc
 50
180.0
 51
253.610794
  0
LINE
  5
7B6
330
2
100
AcDbEntity
  8
0
100
AcDbLine
 10
622.838071533
 20
171.6841617164
 30
0.0
 11
623.377469533
 21
171.5254857164
 31
0.0
  0
ARC
  5
7B7
330
2
100
AcDbEntity
  8
0
100
AcDbCircle
 10
606.248868533
 20
211.7397947164
 30
0.0
 40
5.0
100
AcDbArc
 50
270.0
 51
90.0
  0
LINE
  5
7B8
330
2
100
AcDbEntity
  8
0
100
AcDbLine
 10
616.248868533
 20
229.2397947164
 30
0.0
 11
616.248868533
 21
194.2397947164
 31
0.0
  0
LINE
  5
7B9
330
2
100
AcDbEntity
  8
0
100
AcDbLine
 10
619.248868533
 20
194.2397947164
 30
0.0
 11
616.248868533
 21
194.2397947164
 31
0.0
  0
LINE
  5
7BA
330
2
100
AcDbEntity
  8
0
100
AcDbLine
 10
619.248868533
 20
229.2397947164
 30
0.0
 11
616.248868533
 21
229.2397947164
 31
0.0
  0
ARC
  5
7BB
330
2
100
AcDbEntity
  8
0
100
AcDbCircle
 10
624.248868533
 20
246.9986297164
 30
0.0
 40
5.0
100
AcDbArc
 50
106.3899
 51
180.0
  0
LINE
  5
7BC
330
2
100
AcDbEntity
  8
0
100
AcDbLine
 10
632.659665533
 20
254.6841467164
 30
0.0
 11
622.838071533
 21
251.7954137164
 31
0.0
  0
ARC
  5
7BD
330
2
100
AcDbEntity
  8
0
100
AcDbCircle
 10
681.248837533
 20
166.7397947164
 30
0.0
 40
64.0
100
AcDbArc
 50
329.246481
 51
14.361512
  0
LINE
  5
7BE
330
2
100
AcDbEntity
  8
0
100
AcDbLine
 10
636.248868533
 20
273.0060767164
 30
0.0
 11
636.248868533
 21
71.7397927164
 31
0.0
  0
LINE
  5
7BF
330
2
100
AcDbEntity
  8
0
100
AcDbLine
 10
736.248837533
 20
127.4958107164
 30
0.0
 11
736.248837533
 21
215.6501957164
 31
0.0
  0
LINE
  5
7C0
330
2
100
AcDbEntity
  8
0
100
AcDbLine
 10
726.248837533
 20
273.0065497164
 30
0.0
 11
726.248837533
 21
71.7397927164
 31
0.0
  0
LINE
  5
7C1
330
2
100
AcDbEntity
  8
CENTER
100
AcDbLine
 10
681.248837533
 20
61.7397927164
 30
0.0
 11
681.248837533
 21
286.7397947164
 31
0.0
  0
LINE
  5
7C2
330
2
100
AcDbEntity
  8
0
100
AcDbLine
 10
754.159848533
 20
90.0879717164
 30
0.0
 11
728.755673533
 21
94.3220137164
 31
0.0
  0
LINE
  5
7C3
330
2
100
AcDbEntity
  8
0
100
AcDbLine
 10
753.748837533
 20
89.7397937164
 30
0.0
 11
730.248837533
 21
89.7397937164
 31
0.0
  0
LINE
  5
7C4
330
2
100
AcDbEntity
  8
0
100
AcDbLine
 10
711.248837533
 20
71.7397927164
 30
0.0
 11
756.248837533
 21
71.7397927164
 31
0.0
  0
LINE
  5
7C5
330
2
100
AcDbEntity
  8
0
100
AcDbLine
 10
711.248837533
 20
71.7397927164
 30
0.0
 11
709.748837533
 21
73.2397927164
 31
0.0
  0
LINE
  5
7C6
330
2
100
AcDbEntity
  8
0
100
AcDbLine
 10
651.248837533
 20
71.7397927164
 30
0.0
 11
652.748837533
 21
73.2397927164
 31
0.0
  0
LINE
  5
7C7
330
2
100
AcDbEntity
  8
HIDS
100
AcDbLine
 10
734.748837533
 20
89.7397937164
 30
0.0
 11
734.748837533
 21
71.7397927164
 31
0.0
  0
LINE
  5
7C8
330
2
100
AcDbEntity
  8
0
100
AcDbLine
 10
652.748837533
 20
73.2397927164
 30
0.0
 11
709.748837533
 21
73.2397927164
 31
0.0
  0
ARC
  5
7C9
330
2
100
AcDbEntity
  8
0
100
AcDbCircle
 10
730.248837533
 20
93.7397937164
 30
0.0
 40
4.0
100
AcDbArc
 50
180.0
 51
270.0
  0
ARC
  5
7CA
330
2
100
AcDbEntity
  8
0
100
AcDbCircle
 10
729.248837533
 20
97.2812117164
 30
0.0
 40
3.0
100
AcDbArc
 50
180.0
 51
260.537903
  0
ARC
  5
7CB
330
2
100
AcDbEntity
  8
0
100
AcDbCircle
 10
731.248837533
 20
117.0838117164
 30
0.0
 40
5.0
100
AcDbArc
 50
106.172501
 51
180.0
  0
LINE
  5
7CC
330
2
100
AcDbEntity
  8
0
100
AcDbLine
 10
732.641477533
 20
122.6936527164
 30
0.0
 11
729.856259533
 21
121.8859327164
 31
0.0
  0
ARC
  5
7CD
330
2
100
AcDbEntity
  8
0
100
AcDbCircle
 10
728.248837533
 20
117.7184517164
 30
0.0
 40
2.0
100
AcDbArc
 50
126.782883
 51
149.052094
  0
ARC
  5
7CE
330
2
100
AcDbEntity
  8
0
100
AcDbCircle
 10
722.261045533
 20
125.7275727164
 30
0.0
 40
8.0
100
AcDbArc
 50
306.783001
 51
328.9986
  0
ARC
  5
7CF
330
2
100
AcDbEntity
  8
0
100
AcDbCircle
 10
731.248837533
 20
127.4957917164
 30
0.0
 40
5.0
100
AcDbArc
 50
286.172302
 51
0.0
  0
LINE
  5
7D0
330
2
100
AcDbEntity
  8
HIDS
100
AcDbLine
 10
747.748837533
 20
89.7397937164
 30
0.0
 11
747.748837533
 21
71.7397927164
 31
0.0
  0
LINE
  5
7D1
330
2
100
AcDbEntity
  8
0
100
AcDbLine
 10
756.248837533
 20
87.6219727164
 30
0.0
 11
756.248837533
 21
71.7397927164
 31
0.0
  0
LINE
  5
7D2
330
2
100
AcDbEntity
  8
CENTER
100
AcDbLine
 10
741.248837533
 20
94.7397937164
 30
0.0
 11
741.248837533
 21
66.7397927164
 31
0.0
  0
ARC
  5
7D3
330
2
100
AcDbEntity
  8
0
100
AcDbCircle
 10
753.748837533
 20
87.6219727164
 30
0.0
 40
2.5
100
AcDbArc
 50
0.0
 51
80.537682
  0
ARC
  5
7D4
330
2
100
AcDbEntity
  8
0
100
AcDbCircle
 10
753.748837533
 20
87.2397937164
 30
0.0
 40
2.5
100
AcDbArc
 50
0.0
 51
90.0
  0
ARC
  5
7D5
330
2
100
AcDbEntity
  8
0
100
AcDbCircle
 10
740.248837533
 20
167.6880377164
 30
0.0
 40
4.0
100
AcDbArc
 50
106.389999
 51
180.0
  0
LINE
  5
7D6
330
2
100
AcDbEntity
  8
0
100
AcDbLine
 10
739.659665533
 20
251.7954287164
 30
0.0
 11
729.838071533
 21
254.6841467164
 31
0.0
  0
LINE
  5
7D7
330
2
100
AcDbEntity
  8
0
100
AcDbLine
 10
638.823270533
 20
244.2397947164
 30
0.0
 11
723.501462533
 21
244.2397947164
 31
0.0
  0
LINE
  5
7D8
330
2
100
AcDbEntity
  8
0
100
AcDbLine
 10
723.301267533
 20
276.0060917164
 30
0.0
 11
681.248837533
 21
276.7397947164
 31
0.0
  0
LINE
  5
7DA
330
2
100
AcDbEntity
  8
0
100
AcDbLine
 10
639.196469533
 20
276.0056187164
 30
0.0
 11
681.248837533
 21
276.7397947164
 31
0.0
  0
ARC
  5
7DB
330
2
100
AcDbEntity
  8
0
100
AcDbCircle
 10
731.248837533
 20
259.4810057164
 30
0.0
 40
5.0
100
AcDbArc
 50
180.0
 51
253.610794
  0
ARC
  5
7DC
330
2
100
AcDbEntity
  8
0
100
AcDbCircle
 10
723.248837533
 20
273.0065337164
 30
0.0
 40
3.0
100
AcDbArc
 50
0.0
 51
89.00058
  0
LINE
  5
7DD
330
2
100
AcDbEntity
  8
0
100
AcDbLine
 10
743.248837533
 20
176.4809827164
 30
0.0
 11
743.248837533
 21
246.9986147164
 31
0.0
  0
ARC
  5
7DE
330
2
100
AcDbEntity
  8
0
100
AcDbCircle
 10
738.248837533
 20
176.4809757164
 30
0.0
 40
5.0
100
AcDbArc
 50
286.389679
 51
0.0
  0
LINE
  5
7DF
330
2
100
AcDbEntity
  8
0
100
AcDbLine
 10
739.659665533
 20
171.6841617164
 30
0.0
 11
739.120236533
 21
171.5254777164
 31
0.0
  0
ARC
  5
7E0
330
2
100
AcDbEntity
  8
0
100
AcDbCircle
 10
738.248837533
 20
246.9985997164
 30
0.0
 40
5.0
100
AcDbArc
 50
0.0
 51
73.610527
  0
LINE
  5
7E2
330
2
100
AcDbEntity
  8
0
100
AcDbLine
 10
375.4941857481
 20
539.9053179032
 30
0.0
 11
375.4941857481
 21
455.9053179032
 31
0.0
  0
LINE
  5
7E3
330
2
100
AcDbEntity
  8
0
100
AcDbLine
 10
422.4943997481
 20
497.9053179032
 30
0.0
 11
421.7089077481
 21
452.9053179032
 31
0.0
  0
ARC
  5
7E4
330
2
100
AcDbEntity
  8
0
100
AcDbCircle
 10
418.7608177481
 20
455.9053179032
 30
0.0
 40
3.0
100
AcDbArc
 50
270.0
 51
359.0
  0
LINE
  5
7E5
330
2
100
AcDbEntity
  8
0
100
AcDbLine
 10
412.4377897481
 20
428.1041089032
 30
0.0
 11
421.7089077481
 21
452.9053179032
 31
0.0
  0
ARC
  5
7E6
330
2
100
AcDbEntity
  8
0
100
AcDbCircle
 10
393.9941857481
 20
437.9053179032
 30
0.0
 40
6.5
100
AcDbArc
 50
129.715134
 51
51.240688
  0
LINE
  5
7E8
330
2
100
AcDbEntity
  8
0
100
AcDbLine
 10
397.2382047481
 20
442.9053179032
 30
0.0
 11
387.5530237481
 21
442.9053179032
 31
0.0
  0
ARC
  5
7EA
330
2
100
AcDbEntity
  8
0
100
AcDbCircle
 10
381.7530057481
 20
440.9053179032
 30
0.0
 40
5.0
100
AcDbArc
 50
270.0
 51
343.61046
  0
LINE
  5
7EB
330
2
100
AcDbEntity
  8
0
100
AcDbLine
 10
386.5498497481
 20
439.4944899032
 30
0.0
 11
387.5530237481
 21
442.9053179032
 31
0.0
  0
ARC
  5
7EC
330
2
100
AcDbEntity
  8
0
100
AcDbCircle
 10
404.9442597481
 20
430.9053179032
 30
0.0
 40
8.0
100
AcDbArc
 50
270.0
 51
339.503382
  0
LINE
  5
7ED
330
2
100
AcDbEntity
  8
0
100
AcDbLine
 10
402.0403287481
 20
446.5127089032
 30
0.0
 11
402.8480677481
 21
449.2979569032
 31
0.0
  0
ARC
  5
7EE
330
2
100
AcDbEntity
  8
0
100
AcDbCircle
 10
397.2382047481
 20
447.9053179032
 30
0.0
 40
5.0
100
AcDbArc
 50
270.0
 51
343.827841
  0
LINE
  5
7EF
330
2
100
AcDbEntity
  8
0
100
AcDbLine
 10
403.8942107481
 20
452.9053179032
 30
0.0
 11
403.8974147481
 21
452.9164259032
 31
0.0
  0
ARC
  5
7F0
330
2
100
AcDbEntity
  8
0
100
AcDbCircle
 10
407.6501917481
 20
447.9053179032
 30
0.0
 40
5.0
100
AcDbArc
 50
90.0
 51
163.827835
  0
ARC
  5
7F1
330
2
100
AcDbEntity
  8
0
100
AcDbCircle
 10
418.7608177481
 20
539.9053179032
 30
0.0
 40
3.0
100
AcDbArc
 50
1.0
 51
90.0
  0
LINE
  5
7F2
330
2
100
AcDbEntity
  8
0
100
AcDbLine
 10
412.4377897481
 20
567.7065259032
 30
0.0
 11
421.7089077481
 21
542.9053179032
 31
0.0
  0
ARC
  5
7F3
330
2
100
AcDbEntity
  8
0
100
AcDbCircle
 10
393.9941857481
 20
557.9053179032
 30
0.0
 40
6.5
100
AcDbArc
 50
308.759312
 51
230.284866
  0
LINE
  5
7F4
330
2
100
AcDbEntity
  8
CENTER
100
AcDbLine
 10
383.6465297481
 20
557.9053179032
 30
0.0
 11
404.3418417481
 21
557.9053179032
 31
0.0
  0
LINE
  5
7F5
330
2
100
AcDbEntity
  8
0
100
AcDbLine
 10
397.2382047481
 20
552.9053179032
 30
0.0
 11
387.5530237481
 21
552.9053179032
 31
0.0
  0
LINE
  5
7F6
330
2
100
AcDbEntity
  8
CENTER
100
AcDbLine
 10
393.9941857481
 20
547.5576619032
 30
0.0
 11
393.9941857481
 21
568.2529739032
 31
0.0
  0
ARC
  5
7F7
330
2
100
AcDbEntity
  8
0
100
AcDbCircle
 10
381.7530057481
 20
554.9053179032
 30
0.0
 40
5.0
100
AcDbArc
 50
16.38954
 51
90.0
  0
LINE
  5
7F8
330
2
100
AcDbEntity
  8
0
100
AcDbLine
 10
386.5498497481
 20
556.3161449032
 30
0.0
 11
387.5530237481
 21
552.9053179032
 31
0.0
  0
LINE
  5
7F9
330
2
100
AcDbEntity
  8
0
100
AcDbLine
 10
402.0403287481
 20
549.2979569032
 30
0.0
 11
402.8480677481
 21
546.5127089032
 31
0.0
  0
LINE
  5
7FA
330
2
100
AcDbEntity
  8
0
100
AcDbLine
 10
403.8942107481
 20
542.9053179032
 30
0.0
 11
403.8974147481
 21
542.8942399032
 31
0.0
  0
ARC
  5
7FB
330
2
100
AcDbEntity
  8
0
100
AcDbCircle
 10
407.6501917481
 20
547.9053179032
 30
0.0
 40
5.0
100
AcDbArc
 50
196.172165
 51
270.0
  0
ARC
  5
7FC
330
2
100
AcDbEntity
  8
0
100
AcDbCircle
 10
397.2382047481
 20
547.9053179032
 30
0.0
 40
5.0
100
AcDbArc
 50
16.172159
 51
90.0
  0
ARC
  5
7FD
330
2
100
AcDbEntity
  8
0
100
AcDbCircle
 10
404.9442597481
 20
564.9053179032
 30
0.0
 40
8.0
100
AcDbArc
 50
20.496618
 51
90.0
  0
LINE
  5
7FE
330
2
100
AcDbEntity
  8
0
100
AcDbLine
 10
422.4943997481
 20
497.9053179032
 30
0.0
 11
421.7089077481
 21
542.9053179032
 31
0.0
  0
LINE
  5
80C
330
2
100
AcDbEntity
  8
CENTER
100
AcDbLine
 10
298.9942017481
 20
547.5576619032
 30
0.0
 11
298.9942017481
 21
568.2529739032
 31
0.0
  0
LINE
  5
80D
330
2
100
AcDbEntity
  8
CENTER
100
AcDbLine
 10
288.6465457481
 20
557.9053179032
 30
0.0
 11
309.3418577481
 21
557.9053179032
 31
0.0
  0
LINE
  5
80E
330
2
100
AcDbEntity
  8
CENTER
100
AcDbLine
 10
298.9942017481
 20
427.5576619032
 30
0.0
 11
298.9942017481
 21
448.2529739032
 31
0.0
  0
LINE
  5
80F
330
2
100
AcDbEntity
  8
CENTER
100
AcDbLine
 10
288.6465457481
 20
437.9053179032
 30
0.0
 11
309.3418577481
 21
437.9053179032
 31
0.0
  0
LINE
  5
810
330
2
100
AcDbEntity
  8
CENTER
100
AcDbLine
 10
393.9941857481
 20
427.5576619032
 30
0.0
 11
393.9941857481
 21
448.2529739032
 31
0.0
  0
LINE
  5
811
330
2
100
AcDbEntity
  8
CENTER
100
AcDbLine
 10
383.6465297481
 20
437.9053179032
 30
0.0
 11
404.3418417481
 21
437.9053179032
 31
0.0
  0
TEXT
  5
827
330
2
100
AcDbEntity
  8
TITLE
100
AcDbText
 10
511.3310543562
 20
486.6509883063
 30
0.0
 40
7.0
  1
HLM-32R-1200~1800-S40WK
 41
0.8
100
AcDbText
  0
TEXT
  5
828
330
2
100
AcDbEntity
  8
TITLE
100
AcDbText
 10
511.3310543562
 20
497.6509883063
 30
0.0
 40
7.0
  1
HLM-32R-1200~1800-S40K
 41
0.8
100
AcDbText
  0
TEXT
  5
829
330
2
100
AcDbEntity
  8
TITLE
100
AcDbText
 10
511.3310543562
 20
508.8509883063
 30
0.0
 40
7.0
  1
HLM-32R-600~900-T90K
 41
0.8
100
AcDbText
  0
TEXT
  5
82A
330
2
100
AcDbEntity
  8
TITLE
100
AcDbText
 10
511.3310543562
 20
520.0509883063
 30
0.0
 40
7.0
  1
HLM-32R-1200~1800-T60WK
 41
0.8
100
AcDbText
  0
TEXT
  5
82B
330
2
100
AcDbEntity
  8
TITLE
100
AcDbText
 10
511.3310543562
 20
531.2509883063
 30
0.0
 40
7.0
  1
HLM-32R-1200~1800-T60K
 41
0.8
100
AcDbText
  0
TEXT
  5
82C
330
2
100
AcDbEntity
  8
TITLE
100
AcDbText
 10
511.3310543562
 20
542.4509883063
 30
0.0
 40
7.0
  1
HLM-32R-1200~1800-T40WK
 41
0.8
100
AcDbText
  0
TEXT
  5
82D
330
2
100
AcDbEntity
  8
TITLE
100
AcDbText
 10
511.3310543562
 20
553.4509883063
 30
0.0
 40
7.0
  1
HLM-32R-1200~1800-T40K
 41
0.8
100
AcDbText
  0
LINE
  5
BB5
330
2
100
AcDbEntity
  8
CENTER
100
AcDbLine
 10
186.3177417198
 20
166.7397947164
 30
0.0
 11
278.1643753035
 21
166.7397947164
 31
0.0
  0
LINE
  5
1245
330
2
100
AcDbEntity
  8
0
100
AcDbLine
 10
125.9941997481
 20
244.2398097164
 30
0.0
 11
125.9941997481
 21
202.2397947164
 31
0.0
  0
LINE
  5
1246
330
2
100
AcDbEntity
  8
0
100
AcDbLine
 10
75.9941927481
 20
244.2398097164
 30
0.0
 11
75.9941927481
 21
202.2397947164
 31
0.0
  0
LINE
  5
1247
330
2
100
AcDbEntity
  8
CENTER
100
AcDbLine
 10
100.9941997481
 20
188.8502987164
 30
0.0
 11
100.9941997481
 21
255.6273097164
 31
0.0
  0
LINE
  5
124A
330
2
100
AcDbEntity
  8
0
100
AcDbLine
 10
77.4941927481
 20
200.2397947164
 30
0.0
 11
123.9941997481
 21
200.2397947164
 31
0.0
  0
LINE
  5
124B
330
2
100
AcDbEntity
  8
0
100
AcDbLine
 10
75.9941927481
 20
202.2397947164
 30
0.0
 11
125.9941997481
 21
202.2397947164
 31
0.0
  0
LINE
  5
124D
330
2
100
AcDbEntity
  8
0
100
AcDbLine
 10
77.4941927481
 20
200.2397947164
 30
0.0
 11
77.4941927481
 21
198.7397947164
 31
0.0
  0
LINE
  5
124E
330
2
100
AcDbEntity
  8
0
100
AcDbLine
 10
75.9941927481
 20
202.2397947164
 30
0.0
 11
77.9941927481
 21
200.2397947164
 31
0.0
  0
LINE
  5
124F
330
2
100
AcDbEntity
  8
0
100
AcDbLine
 10
123.4941997481
 20
200.2397947164
 30
0.0
 11
123.4941997481
 21
198.7397947164
 31
0.0
  0
LINE
  5
1250
330
2
100
AcDbEntity
  8
0
100
AcDbLine
 10
123.9941997481
 20
200.2397947164
 30
0.0
 11
125.9941997481
 21
202.2397947164
 31
0.0
  0
LINE
  5
1254
330
2
100
AcDbEntity
  8
0
100
AcDbLine
 10
80.8321085641
 20
245.2398097164
 30
0.0
 11
121.1562909321
 21
245.2398097164
 31
0.0
  0
LINE
  5
1255
330
2
100
AcDbEntity
  8
0
100
AcDbLine
 10
75.9941927481
 20
212.2397947164
 30
0.0
 11
125.9941997481
 21
212.2397947164
 31
0.0
  0
LINE
  5
1256
330
2
100
AcDbEntity
  8
0
100
AcDbLine
 10
75.9941927481
 20
213.2397947164
 30
0.0
 11
125.9941997481
 21
213.2397947164
 31
0.0
  0
LINE
  5
1257
330
2
100
AcDbEntity
  8
0
100
AcDbLine
 10
83.4941997481
 20
244.2398097164
 30
0.0
 11
118.4941997481
 21
244.2398097164
 31
0.0
  0
LINE
  5
1258
330
2
100
AcDbEntity
  8
CENTER
100
AcDbLine
 10
65.9505927669
 20
228.2397947164
 30
0.0
 11
136.0378067293
 21
228.2397947164
 31
0.0
  0
LINE
  5
1259
330
2
100
AcDbEntity
  8
0
100
AcDbLine
 10
82.9941997481
 20
242.7398097164
 30
0.0
 11
82.8962636092
 21
243.8592249062
 31
0.0
  0
LINE
  5
125A
330
2
100
AcDbEntity
  8
0
100
AcDbLine
 10
83.4941997481
 20
242.7398097164
 30
0.0
 11
83.4941997481
 21
244.7398097164
 31
0.0
  0
LINE
  5
125B
330
2
100
AcDbEntity
  8
0
100
AcDbLine
 10
75.9941997481
 20
242.7398097164
 30
0.0
 11
76.092135887
 21
243.8592249062
 31
0.0
  0
LINE
  5
125D
330
2
100
AcDbEntity
  8
0
100
AcDbLine
 10
75.1191927481
 20
217.7397947164
 30
0.0
 11
77.1191927481
 21
217.7397947164
 31
0.0
  0
LINE
  5
125E
330
2
100
AcDbEntity
  8
0
100
AcDbLine
 10
83.4941997481
 20
242.7398097164
 30
0.0
 11
75.9941997481
 21
242.7398097164
 31
0.0
  0
LINE
  5
125F
330
2
100
AcDbEntity
  8
0
100
AcDbLine
 10
75.1191927481
 20
238.7397947164
 30
0.0
 11
77.1191927481
 21
238.7397947164
 31
0.0
  0
SPLINE
  5
1260
330
2
100
AcDbEntity
  8
0
100
AcDbSpline
210
0.0
220
0.0
230
1.0
 70
     8
 71
     3
 72
    11
 73
     7
 74
     0
 42
0.000000001
 43
0.0000000001
 40
0.0
 40
0.0
 40
0.0
 40
0.0
 40
0.4601364636755307
 40
1.04988694485363
 40
1.713742833862792
 40
2.320347933405154
 40
2.320347933405154
 40
2.320347933405154
 40
2.320347933405175
 10
79.78169974857372
 20
243.822809716426
 30
0.0
 10
79.80411740568161
 20
243.9778331561059
 30
0.0
 10
79.85526746091476
 20
244.3315479740235
 30
0.0
 10
80.29115262244841
 20
244.756275645625
 30
0.0
 10
80.89620333745584
 20
244.9754628255909
 30
0.0
 10
81.32138796163166
 20
244.9064715259804
 30
0.0
 10
81.52393957128277
 20
244.8922512538036
 30
0.0
  0
ARC
  5
1261
330
2
100
AcDbEntity
  8
0
100
AcDbCircle
 10
79.4941997481
 20
236.3398097164
 30
0.0
 40
9.0
100
AcDbArc
 50
74.1191499917
 51
105.8808500083
  0
SPLINE
  5
1262
330
2
100
AcDbEntity
  8
0
100
AcDbSpline
210
0.0
220
0.0
230
1.0
 70
     8
 71
     3
 72
    11
 73
     7
 74
     0
 42
0.000000001
 43
0.0000000001
 40
0.0
 40
0.0
 40
0.0
 40
0.0
 40
0.4601364636755307
 40
1.04988694485363
 40
1.713742833862792
 40
2.320347933405154
 40
2.320347933405154
 40
2.320347933405154
 40
2.320347933405175
 10
79.20669974766361
 20
243.822809716426
 30
0.0
 10
79.18428209055583
 20
243.9778331561059
 30
0.0
 10
79.13313203532243
 20
244.3315479740235
 30
0.0
 10
78.69724687378891
 20
244.756275645625
 30
0.0
 10
78.09219615878145
 20
244.9754628255909
 30
0.0
 10
77.66701153460565
 20
244.9064715259804
 30
0.0
 10
77.46445992495456
 20
244.8922512538036
 30
0.0
  0
LINE
  5
1263
330
2
100
AcDbEntity
  8
0
100
AcDbLine
 10
77.464459925
 20
244.8922512538
 30
0.0
 11
77.4441997481
 21
245.1032279993
 31
0.0
  0
LINE
  5
1264
330
2
100
AcDbEntity
  8
0
100
AcDbLine
 10
79.2066997477
 20
243.8228097164
 30
0.0
 11
79.7816997486
 21
243.8228097164
 31
0.0
  0
LINE
  5
1265
330
2
100
AcDbEntity
  8
0
100
AcDbLine
 10
76.9941997481
 20
245.2398097164
 30
0.0
 11
75.9941997481
 21
244.2398097164
 31
0.0
  0
ARC
  5
1266
330
2
100
AcDbEntity
  8
0
100
AcDbCircle
 10
77.3871889945
 20
243.7459224407
 30
0.0
 40
1.3
100
AcDbArc
 50
105.8808500083
 51
175.0
  0
LINE
  5
1267
330
2
100
AcDbEntity
  8
0
100
AcDbLine
 10
78.1562909321
 20
245.2398097164
 30
0.0
 11
76.9941997481
 21
245.2398097164
 31
0.0
  0
ARC
  5
1268
330
2
100
AcDbEntity
  8
0
100
AcDbCircle
 10
81.6012105017
 20
243.7459224407
 30
0.0
 40
1.3
100
AcDbArc
 50
5.0
 51
74.1191499917
  0
LINE
  5
1269
330
2
100
AcDbEntity
  8
0
100
AcDbLine
 10
83.4941997481
 20
244.7398097164
 30
0.0
 11
82.4391771377
 21
244.7398097164
 31
0.0
  0
LINE
  5
126A
330
2
100
AcDbEntity
  8
0
100
AcDbLine
 10
81.5239395713
 20
244.8922512538
 30
0.0
 11
81.5441997481
 21
245.1032279993
 31
0.0
  0
LINE
  5
126B
330
2
100
AcDbEntity
  8
0
100
AcDbLine
 10
83.9941997481
 20
245.2398097164
 30
0.0
 11
83.4941997481
 21
244.7398097164
 31
0.0
  0
LINE
  5
126C
330
2
100
AcDbEntity
  8
0
100
AcDbLine
 10
125.9941997481
 20
242.7398097164
 30
0.0
 11
125.8962636092
 21
243.8592249062
 31
0.0
  0
LINE
  5
126D
330
2
100
AcDbEntity
  8
0
100
AcDbLine
 10
118.9941997481
 20
242.7398097164
 30
0.0
 11
119.092135887
 21
243.8592249062
 31
0.0
  0
LINE
  5
126E
330
2
100
AcDbEntity
  8
0
100
AcDbLine
 10
118.4941997481
 20
242.7398097164
 30
0.0
 11
118.4941997481
 21
244.7398097164
 31
0.0
  0
LINE
  5
1272
330
2
100
AcDbEntity
  8
0
100
AcDbLine
 10
118.4941997481
 20
242.7398097164
 30
0.0
 11
125.9941997481
 21
242.7398097164
 31
0.0
  0
ARC
  5
1274
330
2
100
AcDbEntity
  8
0
100
AcDbCircle
 10
120.3871889945
 20
243.7459224407
 30
0.0
 40
1.3
100
AcDbArc
 50
105.8808500083
 51
175.0
  0
LINE
  5
1275
330
2
100
AcDbEntity
  8
0
100
AcDbLine
 10
118.4941997481
 20
244.7398097164
 30
0.0
 11
119.5492223585
 21
244.7398097164
 31
0.0
  0
LINE
  5
1276
330
2
100
AcDbEntity
  8
0
100
AcDbLine
 10
117.9941997481
 20
245.2398097164
 30
0.0
 11
118.4941997481
 21
244.7398097164
 31
0.0
  0
LINE
  5
1277
330
2
100
AcDbEntity
  8
0
100
AcDbLine
 10
123.8321085641
 20
245.2398097164
 30
0.0
 11
124.9941997481
 21
245.2398097164
 31
0.0
  0
ARC
  5
1278
330
2
100
AcDbEntity
  8
0
100
AcDbCircle
 10
124.6012105017
 20
243.7459224407
 30
0.0
 40
1.3
100
AcDbArc
 50
5.0
 51
74.1191499917
  0
LINE
  5
1279
330
2
100
AcDbEntity
  8
0
100
AcDbLine
 10
124.5239395713
 20
244.8922512538
 30
0.0
 11
124.5441997481
 21
245.1032279993
 31
0.0
  0
SPLINE
  5
127A
330
2
100
AcDbEntity
  8
0
100
AcDbSpline
210
0.0
220
0.0
230
1.0
 70
     8
 71
     3
 72
    11
 73
     7
 74
     0
 42
0.000000001
 43
0.0000000001
 40
0.0
 40
0.0
 40
0.0
 40
0.0
 40
0.4601364636755307
 40
1.04988694485363
 40
1.713742833862792
 40
2.320347933405154
 40
2.320347933405154
 40
2.320347933405154
 40
2.320347933405175
 10
122.7816997485738
 20
243.822809716426
 30
0.0
 10
122.8041174056817
 20
243.9778331561059
 30
0.0
 10
122.855267460915
 20
244.3315479740235
 30
0.0
 10
123.2911526224486
 20
244.756275645625
 30
0.0
 10
123.8962033374559
 20
244.9754628255909
 30
0.0
 10
124.3213879616319
 20
244.9064715259804
 30
0.0
 10
124.5239395712829
 20
244.8922512538036
 30
0.0
  0
LINE
  5
127B
330
2
100
AcDbEntity
  8
0
100
AcDbLine
 10
124.9941997481
 20
245.2398097164
 30
0.0
 11
125.9941997481
 21
244.2398097164
 31
0.0
  0
SPLINE
  5
127C
330
2
100
AcDbEntity
  8
0
100
AcDbSpline
210
0.0
220
0.0
230
1.0
 70
     8
 71
     3
 72
    11
 73
     7
 74
     0
 42
0.000000001
 43
0.0000000001
 40
0.0
 40
0.0
 40
0.0
 40
0.0
 40
0.4601364636755307
 40
1.04988694485363
 40
1.713742833862792
 40
2.320347933405154
 40
2.320347933405154
 40
2.320347933405154
 40
2.320347933405175
 10
122.2066997476638
 20
243.822809716426
 30
0.0
 10
122.1842820905559
 20
243.9778331561059
 30
0.0
 10
122.1331320353226
 20
244.3315479740235
 30
0.0
 10
121.697246873789
 20
244.756275645625
 30
0.0
 10
121.0921961587817
 20
244.9754628255909
 30
0.0
 10
120.6670115346057
 20
244.9064715259804
 30
0.0
 10
120.4644599249548
 20
244.8922512538036
 30
0.0
  0
LINE
  5
127D
330
2
100
AcDbEntity
  8
0
100
AcDbLine
 10
120.464459925
 20
244.8922512538
 30
0.0
 11
120.4441997481
 21
245.1032279993
 31
0.0
  0
ARC
  5
127E
330
2
100
AcDbEntity
  8
0
100
AcDbCircle
 10
122.4941997481
 20
236.3398097164
 30
0.0
 40
9.0
100
AcDbArc
 50
74.1191499917
 51
105.8808500083
  0
LINE
  5
127F
330
2
100
AcDbEntity
  8
0
100
AcDbLine
 10
122.7816997486
 20
243.8228097164
 30
0.0
 11
122.2066997477
 21
243.8228097164
 31
0.0
  0
LINE
  5
12D2
330
2
100
AcDbEntity
  8
0
100
AcDbLine
 10
118.4940017481
 20
520.9053179032
 30
0.0
 11
83.4940927481
 21
520.9053179032
 31
0.0
  0
LINE
  5
12D3
330
2
100
AcDbEntity
  8
0
100
AcDbLine
 10
118.4940017481
 20
474.9053179032
 30
0.0
 11
83.4940927481
 21
474.9053179032
 31
0.0
  0
LINE
  5
12D4
330
2
100
AcDbEntity
  8
0
100
AcDbLine
 10
77.9940927481
 20
522.9053179032
 30
0.0
 11
123.9940017481
 21
522.9053179032
 31
0.0
  0
LINE
  5
12D5
330
2
100
AcDbEntity
  8
0
100
AcDbLine
 10
77.9940927481
 20
472.9053179032
 30
0.0
 11
123.9940017481
 21
472.9053179032
 31
0.0
  0
LINE
  5
12D7
330
2
100
AcDbEntity
  8
0
100
AcDbLine
 10
75.9940927481
 20
474.9053179032
 30
0.0
 11
75.9940927481
 21
520.9053179032
 31
0.0
  0
LINE
  5
12D8
330
2
100
AcDbEntity
  8
0
100
AcDbLine
 10
77.9940927481
 20
515.4053179032
 30
0.0
 11
77.9940927481
 21
480.4053179032
 31
0.0
  0
LINE
  5
12D9
330
2
100
AcDbEntity
  8
CENTER
100
AcDbLine
 10
100.9941997481
 20
462.861710922
 30
0.0
 11
100.9941997481
 21
532.9489248844
 31
0.0
  0
ARC
  5
12DA
330
2
100
AcDbEntity
  8
0
100
AcDbCircle
 10
79.4940927481
 20
476.4052259032
 30
0.0
 40
4.0
100
AcDbArc
 50
0.0
 51
90.0
  0
ARC
  5
12DB
330
2
100
AcDbEntity
  8
0
100
AcDbCircle
 10
81.5237927481
 20
474.3755259032
 30
0.0
 40
1.742199999999999
100
AcDbArc
 50
89.9986903345
 51
180.0013096655
  0
ARC
  5
12DC
330
2
100
AcDbEntity
  8
0
100
AcDbCircle
 10
81.5237927481
 20
478.4349259032
 30
0.0
 40
1.742199999999999
100
AcDbArc
 50
179.9986903345
 51
270.0013096655
  0
CIRCLE
  5
12DD
330
2
100
AcDbEntity
  8
0
100
AcDbCircle
 10
79.4940927481
 20
476.4052259032
 30
0.0
 40
3.500000000000028
  0
ARC
  5
12DE
330
2
100
AcDbEntity
  8
0
100
AcDbCircle
 10
79.4940927481
 20
476.4052259032
 30
0.0
 40
2.049999999999998
100
AcDbArc
 50
81.938039916
 51
90.0
  0
ARC
  5
12DF
330
2
100
AcDbEntity
  8
0
100
AcDbCircle
 10
79.4940927481
 20
476.4052259032
 30
0.0
 40
2.049999999999998
100
AcDbArc
 50
90.0
 51
98.061960084
  0
ARC
  5
12E0
330
2
100
AcDbEntity
  8
0
100
AcDbCircle
 10
77.4643927481
 20
474.3755259032
 30
0.0
 40
1.742199999999999
100
AcDbArc
 50
359.9986903345
 51
90.0013096655
  0
ARC
  5
12E1
330
2
100
AcDbEntity
  8
0
100
AcDbCircle
 10
79.4940927481
 20
476.4052259032
 30
0.0
 40
2.049999999999998
100
AcDbArc
 50
180.0
 51
188.061960084
  0
ARC
  5
12E2
330
2
100
AcDbEntity
  8
0
100
AcDbCircle
 10
79.4940927481
 20
476.4052259032
 30
0.0
 40
2.049999999999998
100
AcDbArc
 50
270.0
 51
278.061960084
  0
ARC
  5
12E3
330
2
100
AcDbEntity
  8
0
100
AcDbCircle
 10
79.4940927481
 20
476.4052259032
 30
0.0
 40
2.049999999999998
100
AcDbArc
 50
261.938039916
 51
270.0
  0
ARC
  5
12E4
330
2
100
AcDbEntity
  8
0
100
AcDbCircle
 10
77.4643927481
 20
478.4349259032
 30
0.0
 40
1.742199999999999
100
AcDbArc
 50
269.9986903345
 51
0.0013096655
  0
ARC
  5
12E5
330
2
100
AcDbEntity
  8
0
100
AcDbCircle
 10
79.4940927481
 20
476.4052259032
 30
0.0
 40
2.049999999999998
100
AcDbArc
 50
171.938039916
 51
180.0
  0
LINE
  5
12E6
330
2
100
AcDbEntity
  8
0
100
AcDbLine
 10
79.4940927481
 20
480.4053179032
 30
0.0
 11
75.9940927481
 21
480.4053179032
 31
0.0
  0
LINE
  5
12E7
330
2
100
AcDbEntity
  8
0
100
AcDbLine
 10
75.9940927481
 20
474.9053179032
 30
0.0
 11
77.9940927481
 21
472.9053179032
 31
0.0
  0
ARC
  5
12E8
330
2
100
AcDbEntity
  8
0
100
AcDbCircle
 10
79.4940927481
 20
476.4052259032
 30
0.0
 40
2.049999999999998
100
AcDbArc
 50
351.938039916
 51
0.0
  0
LINE
  5
12E9
330
2
100
AcDbEntity
  8
0
100
AcDbLine
 10
83.4940927481
 20
476.4052259032
 30
0.0
 11
83.4940927481
 21
472.9053179032
 31
0.0
  0
ARC
  5
12EA
330
2
100
AcDbEntity
  8
0
100
AcDbCircle
 10
79.4940927481
 20
476.4052259032
 30
0.0
 40
2.049999999999998
100
AcDbArc
 50
0.0
 51
8.061960084
  0
ARC
  5
12EB
330
2
100
AcDbEntity
  8
0
100
AcDbCircle
 10
77.4643927481
 20
517.3756179032
 30
0.0
 40
1.742199999999999
100
AcDbArc
 50
359.9986903345
 51
90.0013096655
  0
ARC
  5
12EC
330
2
100
AcDbEntity
  8
0
100
AcDbCircle
 10
81.5237927481
 20
517.3756179032
 30
0.0
 40
1.742199999999999
100
AcDbArc
 50
89.9986903345
 51
180.0013096655
  0
ARC
  5
12ED
330
2
100
AcDbEntity
  8
0
100
AcDbCircle
 10
79.4940927481
 20
519.4053179032
 30
0.0
 40
4.0
100
AcDbArc
 50
270.0
 51
0.0
  0
CIRCLE
  5
12EE
330
2
100
AcDbEntity
  8
0
100
AcDbCircle
 10
79.4940927481
 20
519.4053179032
 30
0.0
 40
3.500000000000028
  0
ARC
  5
12EF
330
2
100
AcDbEntity
  8
0
100
AcDbCircle
 10
79.4940927481
 20
519.4053179032
 30
0.0
 40
2.049999999999998
100
AcDbArc
 50
270.0
 51
278.061960084
  0
ARC
  5
12F0
330
2
100
AcDbEntity
  8
0
100
AcDbCircle
 10
79.4940927481
 20
519.4053179032
 30
0.0
 40
2.049999999999998
100
AcDbArc
 50
261.938039916
 51
270.0
  0
LINE
  5
12F1
330
2
100
AcDbEntity
  8
0
100
AcDbLine
 10
79.4940927481
 20
515.4053179032
 30
0.0
 11
75.9940927481
 21
515.4053179032
 31
0.0
  0
ARC
  5
12F2
330
2
100
AcDbEntity
  8
0
100
AcDbCircle
 10
81.5237927481
 20
521.4350179032
 30
0.0
 40
1.742199999999999
100
AcDbArc
 50
179.9986903345
 51
270.0013096655
  0
ARC
  5
12F3
330
2
100
AcDbEntity
  8
0
100
AcDbCircle
 10
77.4643927481
 20
521.4350179032
 30
0.0
 40
1.742199999999999
100
AcDbArc
 50
269.9986903345
 51
0.0013096655
  0
ARC
  5
12F4
330
2
100
AcDbEntity
  8
0
100
AcDbCircle
 10
79.4940927481
 20
519.4053179032
 30
0.0
 40
2.049999999999998
100
AcDbArc
 50
171.938039916
 51
180.0
  0
ARC
  5
12F5
330
2
100
AcDbEntity
  8
0
100
AcDbCircle
 10
79.4940927481
 20
519.4053179032
 30
0.0
 40
2.049999999999998
100
AcDbArc
 50
180.0
 51
188.061960084
  0
ARC
  5
12F6
330
2
100
AcDbEntity
  8
0
100
AcDbCircle
 10
79.4940927481
 20
519.4053179032
 30
0.0
 40
2.049999999999998
100
AcDbArc
 50
81.938039916
 51
90.0
  0
ARC
  5
12F7
330
2
100
AcDbEntity
  8
0
100
AcDbCircle
 10
79.4940927481
 20
519.4053179032
 30
0.0
 40
2.049999999999998
100
AcDbArc
 50
90.0
 51
98.061960084
  0
LINE
  5
12F8
330
2
100
AcDbEntity
  8
0
100
AcDbLine
 10
75.9940927481
 20
520.9053179032
 30
0.0
 11
77.9940927481
 21
522.9053179032
 31
0.0
  0
LINE
  5
12F9
330
2
100
AcDbEntity
  8
0
100
AcDbLine
 10
75.9940927481
 20
520.9053179032
 30
0.0
 11
77.9940927481
 21
522.9053179032
 31
0.0
  0
ARC
  5
12FA
330
2
100
AcDbEntity
  8
0
100
AcDbCircle
 10
79.4940927481
 20
519.4053179032
 30
0.0
 40
2.049999999999998
100
AcDbArc
 50
0.0
 51
8.061960084
  0
ARC
  5
12FB
330
2
100
AcDbEntity
  8
0
100
AcDbCircle
 10
79.4940927481
 20
519.4053179032
 30
0.0
 40
2.049999999999998
100
AcDbArc
 50
351.938039916
 51
0.0
  0
LINE
  5
12FC
330
2
100
AcDbEntity
  8
0
100
AcDbLine
 10
83.4940927481
 20
519.4053179032
 30
0.0
 11
83.4940927481
 21
522.9051339032
 31
0.0
  0
LINE
  5
12FD
330
2
100
AcDbEntity
  8
0
100
AcDbLine
 10
125.9941997481
 20
520.9053179032
 30
0.0
 11
125.9940017481
 21
474.9053179032
 31
0.0
  0
LINE
  5
12FE
330
2
100
AcDbEntity
  8
0
100
AcDbLine
 10
123.9940017481
 20
515.4053179032
 30
0.0
 11
123.9940017481
 21
480.4053179032
 31
0.0
  0
ARC
  5
12FF
330
2
100
AcDbEntity
  8
0
100
AcDbCircle
 10
122.4941997481
 20
476.4052259032
 30
0.0
 40
4.0
100
AcDbArc
 50
90.0
 51
180.0
  0
LINE
  5
1300
330
2
100
AcDbEntity
  8
0
100
AcDbLine
 10
118.4940017481
 20
476.4052259032
 30
0.0
 11
118.4940017481
 21
472.9053179032
 31
0.0
  0
ARC
  5
1301
330
2
100
AcDbEntity
  8
0
100
AcDbCircle
 10
122.4941997481
 20
476.4052259032
 30
0.0
 40
2.049999999999998
100
AcDbArc
 50
90.0
 51
98.061960084
  0
ARC
  5
1302
330
2
100
AcDbEntity
  8
0
100
AcDbCircle
 10
122.4941997481
 20
476.4052259032
 30
0.0
 40
2.049999999999998
100
AcDbArc
 50
81.938039916
 51
90.0
  0
LINE
  5
1303
330
2
100
AcDbEntity
  8
0
100
AcDbLine
 10
122.4940017481
 20
480.4053179032
 30
0.0
 11
125.9940017481
 21
480.4053179032
 31
0.0
  0
ARC
  5
1304
330
2
100
AcDbEntity
  8
0
100
AcDbCircle
 10
122.4941997481
 20
476.4052259032
 30
0.0
 40
2.049999999999998
100
AcDbArc
 50
351.938039916
 51
0.0
  0
LINE
  5
1305
330
2
100
AcDbEntity
  8
0
100
AcDbLine
 10
125.9940017481
 20
474.9053179032
 30
0.0
 11
123.9940017481
 21
472.9053179032
 31
0.0
  0
LINE
  5
1306
330
2
100
AcDbEntity
  8
0
100
AcDbLine
 10
123.9940017481
 20
472.9053179032
 30
0.0
 11
125.9940017481
 21
474.9053179032
 31
0.0
  0
ARC
  5
1307
330
2
100
AcDbEntity
  8
0
100
AcDbCircle
 10
120.4644997481
 20
474.3755259032
 30
0.0
 40
1.742199999999999
100
AcDbArc
 50
359.9986903345
 51
90.0013096655
  0
ARC
  5
1308
330
2
100
AcDbEntity
  8
0
100
AcDbCircle
 10
122.4941997481
 20
476.4052259032
 30
0.0
 40
2.049999999999998
100
AcDbArc
 50
180.0
 51
188.061960084
  0
ARC
  5
1309
330
2
100
AcDbEntity
  8
0
100
AcDbCircle
 10
122.4941997481
 20
476.4052259032
 30
0.0
 40
2.049999999999998
100
AcDbArc
 50
261.938039916
 51
270.0
  0
ARC
  5
130A
330
2
100
AcDbEntity
  8
0
100
AcDbCircle
 10
122.4941997481
 20
476.4052259032
 30
0.0
 40
2.049999999999998
100
AcDbArc
 50
270.0
 51
278.061960084
  0
ARC
  5
130B
330
2
100
AcDbEntity
  8
0
100
AcDbCircle
 10
124.5238997481
 20
474.3755259032
 30
0.0
 40
1.742199999999999
100
AcDbArc
 50
89.9986903345
 51
180.0013096655
  0
CIRCLE
  5
130C
330
2
100
AcDbEntity
  8
0
100
AcDbCircle
 10
122.4941997481
 20
476.4052259032
 30
0.0
 40
3.500000000000028
  0
ARC
  5
130D
330
2
100
AcDbEntity
  8
0
100
AcDbCircle
 10
120.4644997481
 20
478.4349259032
 30
0.0
 40
1.742199999999999
100
AcDbArc
 50
269.9986903345
 51
0.0013096655
  0
ARC
  5
130E
330
2
100
AcDbEntity
  8
0
100
AcDbCircle
 10
122.4941997481
 20
476.4052259032
 30
0.0
 40
2.049999999999998
100
AcDbArc
 50
171.938039916
 51
180.0
  0
ARC
  5
130F
330
2
100
AcDbEntity
  8
0
100
AcDbCircle
 10
122.4941997481
 20
476.4052259032
 30
0.0
 40
2.049999999999998
100
AcDbArc
 50
0.0
 51
8.061960084
  0
ARC
  5
1310
330
2
100
AcDbEntity
  8
0
100
AcDbCircle
 10
124.5238997481
 20
478.4349259032
 30
0.0
 40
1.742199999999999
100
AcDbArc
 50
179.9986903345
 51
270.0013096655
  0
ARC
  5
1311
330
2
100
AcDbEntity
  8
0
100
AcDbCircle
 10
120.4644997481
 20
517.3756179032
 30
0.0
 40
1.742199999999999
100
AcDbArc
 50
359.9986903345
 51
90.0013096655
  0
ARC
  5
1312
330
2
100
AcDbEntity
  8
0
100
AcDbCircle
 10
124.5238997481
 20
517.3756179032
 30
0.0
 40
1.742199999999999
100
AcDbArc
 50
89.9986903345
 51
180.0013096655
  0
CIRCLE
  5
1313
330
2
100
AcDbEntity
  8
0
100
AcDbCircle
 10
122.4941997481
 20
519.4053179032
 30
0.0
 40
3.500000000000028
  0
ARC
  5
1314
330
2
100
AcDbEntity
  8
0
100
AcDbCircle
 10
122.4941997481
 20
519.4053179032
 30
0.0
 40
4.0
100
AcDbArc
 50
180.0
 51
270.0
  0
ARC
  5
1315
330
2
100
AcDbEntity
  8
0
100
AcDbCircle
 10
122.4941997481
 20
519.4053179032
 30
0.0
 40
2.049999999999998
100
AcDbArc
 50
261.938039916
 51
270.0
  0
ARC
  5
1316
330
2
100
AcDbEntity
  8
0
100
AcDbCircle
 10
122.4941997481
 20
519.4053179032
 30
0.0
 40
2.049999999999998
100
AcDbArc
 50
270.0
 51
278.061960084
  0
LINE
  5
1317
330
2
100
AcDbEntity
  8
0
100
AcDbLine
 10
122.4940017481
 20
515.4053179032
 30
0.0
 11
125.9940017481
 21
515.4053179032
 31
0.0
  0
LINE
  5
1318
330
2
100
AcDbEntity
  8
0
100
AcDbLine
 10
118.4940017481
 20
519.4053179032
 30
0.0
 11
118.4940017481
 21
522.9051339032
 31
0.0
  0
ARC
  5
1319
330
2
100
AcDbEntity
  8
0
100
AcDbCircle
 10
122.4941997481
 20
519.4053179032
 30
0.0
 40
2.049999999999998
100
AcDbArc
 50
0.0
 51
8.061960084
  0
ARC
  5
131A
330
2
100
AcDbEntity
  8
0
100
AcDbCircle
 10
122.4941997481
 20
519.4053179032
 30
0.0
 40
2.049999999999998
100
AcDbArc
 50
351.938039916
 51
0.0
  0
LINE
  5
131B
330
2
100
AcDbEntity
  8
0
100
AcDbLine
 10
125.9940017481
 20
520.9053179032
 30
0.0
 11
123.9940017481
 21
522.9053179032
 31
0.0
  0
LINE
  5
131C
330
2
100
AcDbEntity
  8
0
100
AcDbLine
 10
125.9940017481
 20
520.9053179032
 30
0.0
 11
123.9940017481
 21
522.9053179032
 31
0.0
  0
LINE
  5
131D
330
2
100
AcDbEntity
  8
0
100
AcDbLine
 10
125.9941997481
 20
520.9053179032
 30
0.0
 11
123.9940017481
 21
522.9053179032
 31
0.0
  0
ARC
  5
131E
330
2
100
AcDbEntity
  8
0
100
AcDbCircle
 10
120.4644997481
 20
521.4350179032
 30
0.0
 40
1.742199999999999
100
AcDbArc
 50
269.9986903345
 51
0.0013096655
  0
ARC
  5
131F
330
2
100
AcDbEntity
  8
0
100
AcDbCircle
 10
122.4941997481
 20
519.4053179032
 30
0.0
 40
2.049999999999998
100
AcDbArc
 50
171.938039916
 51
180.0
  0
ARC
  5
1320
330
2
100
AcDbEntity
  8
0
100
AcDbCircle
 10
122.4941997481
 20
519.4053179032
 30
0.0
 40
2.049999999999998
100
AcDbArc
 50
180.0
 51
188.061960084
  0
ARC
  5
1321
330
2
100
AcDbEntity
  8
0
100
AcDbCircle
 10
122.4941997481
 20
519.4053179032
 30
0.0
 40
2.049999999999998
100
AcDbArc
 50
90.0
 51
98.061960084
  0
ARC
  5
1322
330
2
100
AcDbEntity
  8
0
100
AcDbCircle
 10
124.5238997481
 20
521.4350179032
 30
0.0
 40
1.742199999999999
100
AcDbArc
 50
179.9986903345
 51
270.0013096655
  0
ARC
  5
1323
330
2
100
AcDbEntity
  8
0
100
AcDbCircle
 10
122.4941997481
 20
519.4053179032
 30
0.0
 40
2.049999999999998
100
AcDbArc
 50
81.938039916
 51
90.0
  0
TEXT
  5
1522
330
2
100
AcDbEntity
  8
TITLE_C
100
AcDbText
 10
510.7291724483
 20
395.0822907268
 30
0.0
 40
7.0
  1
HL32R12X～18X-CTMR60WK
 41
0.8
100
AcDbText
  0
TEXT
  5
1523
330
2
100
AcDbEntity
  8
TITLE_C
100
AcDbText
 10
510.7291724483
 20
406.2822907268
 30
0.0
 40
7.0
  1
HL32R12X～18X-CTMR60NKX
 41
0.8
100
AcDbText
  0
TEXT
  5
1524
330
2
100
AcDbEntity
  8
TITLE_C
100
AcDbText
 10
510.7291724483
 20
429.5676220557
 30
0.0
 40
7.0
  1
HL32R12X～18X-CTMR40WK
 41
0.8
100
AcDbText
  0
TEXT
  5
1525
330
2
100
AcDbEntity
  8
TITLE_C
100
AcDbText
 10
510.7291724483
 20
440.5676220557
 30
0.0
 40
7.0
  1
HL32R12X～18X-CTMR40NKX
 41
0.8
100
AcDbText
  0
TEXT
  5
208E
330
2
100
AcDbEntity
  8
TITLE_C
100
AcDbText
 10
510.7291724483
 20
451.0479922066
 30
0.0
 40
7.0
  1
HL32R12X～18X-CTMR40NK
 41
0.8
100
AcDbText
  0
TEXT
  5
208F
330
2
100
AcDbEntity
  8
TITLE_C
100
AcDbText
 10
510.7291724483
 20
418.1689757547
 30
0.0
 40
7.0
  1
HL32R12X～18X-CTMR60NK
 41
0.8
100
AcDbText
  0
TEXT
  5
2266
330
2
100
AcDbEntity
  8
TITLE_C
100
AcDbText
 10
510.7291724483
 20
383.7245643171
 30
0.0
 40
7.0
  1
HL32R600～900-CTMR90NK
 41
0.8
100
AcDbText
  0
TEXT
  5
2397
330
2
100
AcDbEntity
  8
TITLE_C
100
AcDbText
 10
651.0048096672
 20
451.5754713776
 30
0.0
 40
7.0
  1
HL32R12X～18X-CSMR40NK
 41
0.8
100
AcDbText
  0
TEXT
  5
2398
330
2
100
AcDbEntity
  8
TITLE_C
100
AcDbText
 10
650.715238302
 20
443.1832011859
 30
0.0
 40
7.0
  1
HL32R12X～18X-CSMR40WKX
 41
0.8
100
AcDbText
  0
TEXT
  5
2399
330
2
100
AcDbEntity
  8
TITLE_C
100
AcDbText
 10
651.0132664418
 20
434.1373204049
 30
0.0
 40
7.0
  1
HL32R12X～18X-CSMR40WK
 41
0.8
100
AcDbText
  0
ENDSEC
  0
SECTION
  2
OBJECTS
  0
DICTIONARY
  5
7
330
0
100
AcDbDictionary
281
     1
  3
ACAD_CIP_PREVIOUS_PRODUCT_INFO
350
2383
  3
ACAD_COLOR
350
1485
  3
ACAD_DETAILVIEWSTYLE
350
237F
  3
ACAD_GROUP
350
75
  3
ACAD_LAYOUT
350
61
  3
ACAD_MATERIAL
350
145B
  3
ACAD_MLEADERSTYLE
350
14AA
  3
ACAD_MLINESTYLE
350
76
  3
ACAD_PLOTSETTINGS
350
77
  3
ACAD_PLOTSTYLENAME
350
6
  3
ACAD_SCALELIST
350
1488
  3
ACAD_SECTIONVIEWSTYLE
350
237D
  3
ACAD_TABLESTYLE
350
1486
  3
ACAD_VISUALSTYLE
350
1474
  3
AcadDim
350
480
  3
ACDB_RECOMPOSE_DATA
350
255A
  3
AcDbVariableDictionary
350
102
  3
AcDsDecomposeData
350
2561
  3
DWGPROPS
350
255B
  0
DICTIONARY
  5
14C8
330
6E
100
AcDbDictionary
280
     1
281
     1
  0
DICTIONARY
  5
150C
330
66
100
AcDbDictionary
280
     1
281
     1
  3
ACAD_LAYERSTATES
360
150D
  0
DICTIONARY
  5
14AF
330
5E
100
AcDbDictionary
280
     1
281
     1
  3
ADSK_XREC_LAYER_RECONCILED
360
14B0
  0
DICTIONARY
  5
14B1
330
3E
100
AcDbDictionary
280
     1
281
     1
  3
ADSK_XREC_LAYER_RECONCILED
360
14B2
  0
DICTIONARY
  5
14B7
330
2B5
100
AcDbDictionary
280
     1
281
     1
  3
ADSK_XREC_LAYER_RECONCILED
360
14B8
  0
DICTIONARY
  5
14BB
330
3FA
100
AcDbDictionary
280
     1
281
     1
  3
ADSK_XREC_LAYER_RECONCILED
360
14BC
  0
XRECORD
  5
2383
102
{ACAD_REACTORS
330
7
102
}
330
7
100
AcDbXrecord
280
     1
300
ACD
300
2020
300
87224ACD_2020_0F
  0
DICTIONARY
  5
1485
102
{ACAD_REACTORS
330
7
102
}
330
7
100
AcDbDictionary
281
     1
  0
DICTIONARY
  5
237F
102
{ACAD_REACTORS
330
7
102
}
330
7
100
AcDbDictionary
281
     1
  3
Imperial24
350
2380
  0
DICTIONARY
  5
75
102
{ACAD_REACTORS
330
7
102
}
330
7
100
AcDbDictionary
281
     1
  0
DICTIONARY
  5
61
102
{ACAD_REACTORS
330
7
102
}
330
7
100
AcDbDictionary
281
     1
  3
Model
350
60
  3
レイアウト1
350
2554
  0
DICTIONARY
  5
145B
102
{ACAD_REACTORS
330
7
102
}
330
7
100
AcDbDictionary
281
     1
  3
ByBlock
350
1464
  3
ByLayer
350
145C
  3
Global
350
146C
  0
DICTIONARY
  5
14AA
102
{ACAD_REACTORS
330
7
102
}
330
7
100
AcDbDictionary
281
     1
  3
Standard
350
14AB
  0
DICTIONARY
  5
76
102
{ACAD_REACTORS
330
7
102
}
330
7
100
AcDbDictionary
281
     1
  3
STANDARD
350
78
  0
DICTIONARY
  5
77
102
{ACAD_REACTORS
330
7
102
}
330
7
100
AcDbDictionary
281
     1
  0
ACDBDICTIONARYWDFLT
  5
6
102
{ACAD_REACTORS
330
7
102
}
330
7
100
AcDbDictionary
281
     1
  3
Normal
350
5
100
AcDbDictionaryWithDefault
340
5
  0
DICTIONARY
  5
1488
102
{ACAD_REACTORS
330
7
102
}
330
7
100
AcDbDictionary
281
     1
  3
A0
350
1489
  3
A1
350
148A
  3
A2
350
148B
  3
A3
350
148C
  3
A4
350
148D
  3
A5
350
148E
  3
A6
350
148F
  3
A7
350
1490
  3
A8
350
1491
  3
A9
350
1492
  3
B0
350
1493
  3
B1
350
1494
  3
B2
350
1495
  3
B3
350
1496
  3
B4
350
1497
  3
B5
350
1498
  3
B6
350
1499
  3
B7
350
149A
  3
B8
350
149B
  3
B9
350
149C
  3
C0
350
149D
  3
C1
350
149E
  3
C2
350
149F
  3
C3
350
14A0
  3
C4
350
14A1
  3
C5
350
14A2
  3
C6
350
14A3
  3
C7
350
14A4
  3
C8
350
14A5
  3
C9
350
14A6
  3
D0
350
14A7
  3
D1
350
14A8
  3
D2
350
14A9
  0
DICTIONARY
  5
237D
102
{ACAD_REACTORS
330
7
102
}
330
7
100
AcDbDictionary
281
     1
  3
Imperial24
350
237E
  0
DICTIONARY
  5
1486
102
{ACAD_REACTORS
330
7
102
}
330
7
100
AcDbDictionary
281
     1
  3
Standard
350
1487
  0
DICTIONARY
  5
1474
102
{ACAD_REACTORS
330
7
102
}
330
7
100
AcDbDictionary
281
     1
  3
2dWireframe
350
147A
  3
3D Hidden
350
147C
  3
3dWireframe
350
147B
  3
Basic
350
1479
  3
Brighten
350
1480
  3
ColorChange
350
1484
  3
Conceptual
350
147D
  3
Dim
350
147F
  3
EdgeColorOff
350
1506
  3
Facepattern
350
1483
  3
Flat
350
1475
  3
FlatWithEdges
350
1476
  3
Gouraud
350
1477
  3
GouraudWithEdges
350
1478
  3
Hidden
350
2377
  3
JitterOff
350
1504
  3
Linepattern
350
1482
  3
OverhangOff
350
1505
  3
Realistic
350
147E
  3
Shaded
350
237C
  3
Shaded with edges
350
237B
  3
Shades of Gray
350
2378
  3
Sketchy
350
2379
  3
Thicken
350
1481
  3
Wireframe
350
2376
  3
X-Ray
350
237A
  0
XRECORD
  5
480
102
{ACAD_REACTORS
330
7
102
}
330
7
100
AcDbXrecord
280
     1
 90
   990106
  3

 60
     0
 61
     0
 62
     1
 63
     3
 64
     1
 65
     0
 66
     0
 67
     3
 68
     1
 69
     0
 70
     0
 71
     0
 72
     0
 40
0.0
170
     2
340
0
  0
XRECORD
  5
255A
102
{ACAD_REACTORS
330
7
102
}
330
7
100
AcDbXrecord
280
     1
 90
        1
330
1487
  0
DICTIONARY
  5
102
102
{ACAD_REACTORS
330
7
102
}
330
7
100
AcDbDictionary
281
     1
  3
CANNOSCALE
350
1500
  3
CMLEADERSTYLE
350
14FF
  3
CTABLESTYLE
350
14FE
  3
CVIEWDETAILSTYLE
350
24F0
  3
CVIEWSECTIONSTYLE
350
24F1
  3
DIMASSOC
350
103
  3
INDEXCTL
350
1502
  3
LAYEREVAL
350
251C
  3
LAYERNOTIFY
350
251D
  3
LIGHTINGUNITS
350
251B
  3
MSLTSCALE
350
251A
  3
SORTENTS
350
1501
  3
XCLIPFRAME
350
2558
  0
DICTIONARY
  5
2561
102
{ACAD_REACTORS
330
7
102
}
330
7
100
AcDbDictionary
281
     1
  3
AcDsRecords
350
2563
  3
AcDsSchemas
350
2562
1001
ACAD
1070
     2
  0
XRECORD
  5
255B
102
{ACAD_REACTORS
330
7
102
}
330
7
100
AcDbXrecord
280
     1
  1
DWGPROPS COOKIE
  2

  3

  4

  6

  7

  8
ykitaga
  9

300
=
301
=
302
=
303
=
304
=
305
=
306
=
307
=
308
=
309
=
 40
0.5411875694
 41
2453752.667071759
 42
2459857.677337963
  1

 90
        0
  0
DICTIONARY
  5
150D
102
{ACAD_REACTORS
330
150C
102
}
330
150C
100
AcDbDictionary
281
     1
  0
XRECORD
  5
14B0
102
{ACAD_REACTORS
330
14AF
102
}
330
14AF
100
AcDbXrecord
280
     1
290
     1
  0
XRECORD
  5
14B2
102
{ACAD_REACTORS
330
14B1
102
}
330
14B1
100
AcDbXrecord
280
     1
290
     1
  0
XRECORD
  5
14B8
102
{ACAD_REACTORS
330
14B7
102
}
330
14B7
100
AcDbXrecord
280
     1
290
     1
  0
XRECORD
  5
14BC
102
{ACAD_REACTORS
330
14BB
102
}
330
14BB
100
AcDbXrecord
280
     1
290
     1
  0
ACDBDETAILVIEWSTYLE
  5
2380
102
{ACAD_XDICTIONARY
360
25BF
102
}
102
{ACAD_REACTORS
330
237F
102
}
330
237F
100
AcDbModelDocViewStyle
 70
     0
  3
Imperial24
290
     0
100
AcDbDetailViewStyle
 70
     0
 71
     0
 90
        3
 71
     1
340
16
 40
0.24
340
0
 40
0.24
300

 40
0.36
280
     3
 71
     2
340
8
 90
       25
 71
     3
340
16
 40
0.24
 90
        1
 40
0.75
 90
        1
300
%<\AcVar ViewType \f "%tc1">% %<\AcVar ViewDetailId>%\PSCALE %<\AcVar ViewScale \f "%sn">%
 71
     4
340
8
 90
       25
340
8
 90
       25
280
     0
  0
LAYOUT
  5
60
102
{ACAD_XDICTIONARY
360
152F
102
}
102
{ACAD_REACTORS
330
61
102
}
330
61
100
AcDbPlotSettings
  1

  2
Canon LBP-1420
  4
A4
  6

 40
5.873749733
 41
5.8737478256
 42
5.8737487793
 43
5.8737487793
 44
209.9733276367
 45
296.925994873
 46
0.0
 47
5.37
 48
0.0
 49
0.0
140
0.0
141
0.0
142
1.0
143
0.088099941
 70
 11956
 72
     1
 73
     1
 74
     1
  7
Sekkei.ctb
 75
     0
147
11.3507453947
148
-88.9740150773
149
-101.3630682339
100
AcDbLayout
  1
Model
 70
     1
 71
     0
 10
0.0
 20
0.0
 11
12.0
 21
9.0
 12
0.0
 22
0.0
 32
0.0
 14
0.0
 24
0.0
 34
0.0
 15
0.0
 25
0.0
 35
0.0
146
0.0
 13
0.0
 23
0.0
 33
0.0
 16
1.0
 26
0.0
 36
0.0
 17
0.0
 27
1.0
 37
0.0
 76
     0
330
2
331
1459
  0
LAYOUT
  5
2554
102
{ACAD_XDICTIONARY
360
25C9
102
}
102
{ACAD_REACTORS
330
61
102
}
330
61
100
AcDbPlotSettings
  1

  2
LBP8610
  4

  6

 40
0.0
 41
0.0
 42
0.0
 43
0.0
 44
0.0
 45
0.0
 46
0.0
 47
0.0
 48
0.0
 49
0.0
140
0.0
141
0.0
142
1.0
143
1.0
 70
   688
 72
     0
 73
     0
 74
     5
  7

 75
    16
147
1.0
148
0.0
149
0.0
100
AcDbLayout
  1
レイアウト1
 70
     1
 71
     1
 10
0.0
 20
0.0
 11
12.0
 21
9.0
 12
0.0
 22
0.0
 32
0.0
 14
0.0
 24
0.0
 34
0.0
 15
0.0
 25
0.0
 35
0.0
146
0.0
 13
0.0
 23
0.0
 33
0.0
 16
1.0
 26
0.0
 36
0.0
 17
0.0
 27
1.0
 37
0.0
 76
     0
330
2553
  0
MATERIAL
  5
1464
102
{ACAD_XDICTIONARY
360
1465
102
}
102
{ACAD_REACTORS
330
145B
102
}
330
145B
100
AcDbMaterial
  1
ByBlock
 72
     0
 43
0.0208333333
 43
0.0
 43
0.0
 43
0.0
 43
0.0
 43
0.0208333333
 43
0.0
 43
0.0
 43
0.0
 43
0.0
 43
1.0
 43
0.0
 43
0.0
 43
0.0
 43
0.0
 43
1.0
 77
     0
 47
0.0208333333
 47
0.0
 47
0.0
 47
0.0
 47
0.0
 47
0.0208333333
 47
0.0
 47
0.0
 47
0.0
 47
0.0
 47
1.0
 47
0.0
 47
0.0
 47
0.0
 47
0.0
 47
1.0
171
     0
 49
0.0208333333
 49
0.0
 49
0.0
 49
0.0
 49
0.0
 49
0.0208333333
 49
0.0
 49
0.0
 49
0.0
 49
0.0
 49
1.0
 49
0.0
 49
0.0
 49
0.0
 49
0.0
 49
1.0
175
     0
142
0.0208333333
142
0.0
142
0.0
142
0.0
142
0.0
142
0.0208333333
142
0.0
142
0.0
142
0.0
142
0.0
142
1.0
142
0.0
142
0.0
142
0.0
142
0.0
142
1.0
179
     0
144
0.0208333333
144
0.0
144
0.0
144
0.0
144
0.0
144
0.0208333333
144
0.0
144
0.0
144
0.0
144
0.0
144
1.0
144
0.0
144
0.0
144
0.0
144
0.0
144
1.0
147
0.0208333333
147
0.0
147
0.0
147
0.0
147
0.0
147
0.0208333333
147
0.0
147
0.0
147
0.0
147
0.0
147
1.0
147
0.0
147
0.0
147
0.0
147
0.0
147
1.0
  0
MATERIAL
  5
145C
102
{ACAD_XDICTIONARY
360
145D
102
}
102
{ACAD_REACTORS
330
145B
102
}
330
145B
100
AcDbMaterial
  1
ByLayer
 72
     0
 43
0.0208333333
 43
0.0
 43
0.0
 43
0.0
 43
0.0
 43
0.0208333333
 43
0.0
 43
0.0
 43
0.0
 43
0.0
 43
1.0
 43
0.0
 43
0.0
 43
0.0
 43
0.0
 43
1.0
 77
     0
 47
0.0208333333
 47
0.0
 47
0.0
 47
0.0
 47
0.0
 47
0.0208333333
 47
0.0
 47
0.0
 47
0.0
 47
0.0
 47
1.0
 47
0.0
 47
0.0
 47
0.0
 47
0.0
 47
1.0
171
     0
 49
0.0208333333
 49
0.0
 49
0.0
 49
0.0
 49
0.0
 49
0.0208333333
 49
0.0
 49
0.0
 49
0.0
 49
0.0
 49
1.0
 49
0.0
 49
0.0
 49
0.0
 49
0.0
 49
1.0
175
     0
142
0.0208333333
142
0.0
142
0.0
142
0.0
142
0.0
142
0.0208333333
142
0.0
142
0.0
142
0.0
142
0.0
142
1.0
142
0.0
142
0.0
142
0.0
142
0.0
142
1.0
179
     0
144
0.0208333333
144
0.0
144
0.0
144
0.0
144
0.0
144
0.0208333333
144
0.0
144
0.0
144
0.0
144
0.0
144
1.0
144
0.0
144
0.0
144
0.0
144
0.0
144
1.0
147
0.0208333333
147
0.0
147
0.0
147
0.0
147
0.0
147
0.0208333333
147
0.0
147
0.0
147
0.0
147
0.0
147
1.0
147
0.0
147
0.0
147
0.0
147
0.0
147
1.0
  0
MATERIAL
  5
146C
102
{ACAD_XDICTIONARY
360
146D
102
}
102
{ACAD_REACTORS
330
145B
102
}
330
145B
100
AcDbMaterial
  1
Global
 72
     0
 43
0.0208333333
 43
0.0
 43
0.0
 43
0.0
 43
0.0
 43
0.0208333333
 43
0.0
 43
0.0
 43
0.0
 43
0.0
 43
1.0
 43
0.0
 43
0.0
 43
0.0
 43
0.0
 43
1.0
 77
     0
 47
0.0208333333
 47
0.0
 47
0.0
 47
0.0
 47
0.0
 47
0.0208333333
 47
0.0
 47
0.0
 47
0.0
 47
0.0
 47
1.0
 47
0.0
 47
0.0
 47
0.0
 47
0.0
 47
1.0
171
     0
 49
0.0208333333
 49
0.0
 49
0.0
 49
0.0
 49
0.0
 49
0.0208333333
 49
0.0
 49
0.0
 49
0.0
 49
0.0
 49
1.0
 49
0.0
 49
0.0
 49
0.0
 49
0.0
 49
1.0
175
     0
142
0.0208333333
142
0.0
142
0.0
142
0.0
142
0.0
142
0.0208333333
142
0.0
142
0.0
142
0.0
142
0.0
142
1.0
142
0.0
142
0.0
142
0.0
142
0.0
142
1.0
179
     0
144
0.0208333333
144
0.0
144
0.0
144
0.0
144
0.0
144
0.0208333333
144
0.0
144
0.0
144
0.0
144
0.0
144
1.0
144
0.0
144
0.0
144
0.0
144
0.0
144
1.0
147
0.0208333333
147
0.0
147
0.0
147
0.0
147
0.0
147
0.0208333333
147
0.0
147
0.0
147
0.0
147
0.0
147
1.0
147
0.0
147
0.0
147
0.0
147
0.0
147
1.0
  0
MLEADERSTYLE
  5
14AB
102
{ACAD_REACTORS
330
14AA
102
}
330
14AA
100
AcDbMLeaderStyle
170
     2
171
     1
172
     0
 90
        2
 40
0.0
 41
0.0
173
     1
 91
-1056964608
340
6A
 92
       -2
290
     1
 42
0.09
291
     1
 43
0.36
  3
Standard
 44
0.18
300

342
16
174
     1
178
     6
175
     1
176
     0
 93
-1056964608
 45
0.18
292
     0
297
     0
 46
0.18
 94
-1056964608
 47
1.0
 49
1.0
140
1.0
293
     1
141
0.0
294
     1
177
     0
142
1.0
295
     0
296
     0
143
0.125
1001
ACAD_MLEADERVER
1070
     2
  0
MLINESTYLE
  5
78
102
{ACAD_REACTORS
330
76
102
}
330
76
100
AcDbMlineStyle
  2
STANDARD
 70
     0
  3

 62
     0
 51
90.0
 52
90.0
 71
     2
 49
0.5
 62
   256
  6
BYLAYER
 49
-0.5
 62
   256
  6
BYLAYER
  0
ACDBPLACEHOLDER
  5
5
102
{ACAD_REACTORS
330
6
102
}
330
6
  0
SCALE
  5
1489
102
{ACAD_REACTORS
330
1488
102
}
330
1488
100
AcDbScale
 70
     0
300
1:1
140
1.0
141
1.0
290
     1
  0
SCALE
  5
148A
102
{ACAD_REACTORS
330
1488
102
}
330
1488
100
AcDbScale
 70
     0
300
1:2
140
1.0
141
2.0
290
     0
  0
SCALE
  5
148B
102
{ACAD_REACTORS
330
1488
102
}
330
1488
100
AcDbScale
 70
     0
300
1:4
140
1.0
141
4.0
290
     0
  0
SCALE
  5
148C
102
{ACAD_REACTORS
330
1488
102
}
330
1488
100
AcDbScale
 70
     0
300
1:5
140
1.0
141
5.0
290
     0
  0
SCALE
  5
148D
102
{ACAD_REACTORS
330
1488
102
}
330
1488
100
AcDbScale
 70
     0
300
1:8
140
1.0
141
8.0
290
     0
  0
SCALE
  5
148E
102
{ACAD_REACTORS
330
1488
102
}
330
1488
100
AcDbScale
 70
     0
300
1:10
140
1.0
141
10.0
290
     0
  0
SCALE
  5
148F
102
{ACAD_REACTORS
330
1488
102
}
330
1488
100
AcDbScale
 70
     0
300
1:16
140
1.0
141
16.0
290
     0
  0
SCALE
  5
1490
102
{ACAD_REACTORS
330
1488
102
}
330
1488
100
AcDbScale
 70
     0
300
1:20
140
1.0
141
20.0
290
     0
  0
SCALE
  5
1491
102
{ACAD_REACTORS
330
1488
102
}
330
1488
100
AcDbScale
 70
     0
300
1:30
140
1.0
141
30.0
290
     0
  0
SCALE
  5
1492
102
{ACAD_REACTORS
330
1488
102
}
330
1488
100
AcDbScale
 70
     0
300
1:40
140
1.0
141
40.0
290
     0
  0
SCALE
  5
1493
102
{ACAD_REACTORS
330
1488
102
}
330
1488
100
AcDbScale
 70
     0
300
1:50
140
1.0
141
50.0
290
     0
  0
SCALE
  5
1494
102
{ACAD_REACTORS
330
1488
102
}
330
1488
100
AcDbScale
 70
     0
300
1:100
140
1.0
141
100.0
290
     0
  0
SCALE
  5
1495
102
{ACAD_REACTORS
330
1488
102
}
330
1488
100
AcDbScale
 70
     0
300
2:1
140
2.0
141
1.0
290
     0
  0
SCALE
  5
1496
102
{ACAD_REACTORS
330
1488
102
}
330
1488
100
AcDbScale
 70
     0
300
4:1
140
4.0
141
1.0
290
     0
  0
SCALE
  5
1497
102
{ACAD_REACTORS
330
1488
102
}
330
1488
100
AcDbScale
 70
     0
300
8:1
140
8.0
141
1.0
290
     0
  0
SCALE
  5
1498
102
{ACAD_REACTORS
330
1488
102
}
330
1488
100
AcDbScale
 70
     0
300
10:1
140
10.0
141
1.0
290
     0
  0
SCALE
  5
1499
102
{ACAD_REACTORS
330
1488
102
}
330
1488
100
AcDbScale
 70
     0
300
100:1
140
100.0
141
1.0
290
     0
  0
SCALE
  5
149A
102
{ACAD_REACTORS
330
1488
102
}
330
1488
100
AcDbScale
 70
     0
300
1/128" = 1'-0"
140
0.0078125
141
12.0
290
     0
  0
SCALE
  5
149B
102
{ACAD_REACTORS
330
1488
102
}
330
1488
100
AcDbScale
 70
     0
300
1/64" = 1'-0"
140
0.015625
141
12.0
290
     0
  0
SCALE
  5
149C
102
{ACAD_REACTORS
330
1488
102
}
330
1488
100
AcDbScale
 70
     0
300
1/32" = 1'-0"
140
0.03125
141
12.0
290
     0
  0
SCALE
  5
149D
102
{ACAD_REACTORS
330
1488
102
}
330
1488
100
AcDbScale
 70
     0
300
1/16" = 1'-0"
140
0.0625
141
12.0
290
     0
  0
SCALE
  5
149E
102
{ACAD_REACTORS
330
1488
102
}
330
1488
100
AcDbScale
 70
     0
300
3/32" = 1'-0"
140
0.09375
141
12.0
290
     0
  0
SCALE
  5
149F
102
{ACAD_REACTORS
330
1488
102
}
330
1488
100
AcDbScale
 70
     0
300
1/8" = 1'-0"
140
0.125
141
12.0
290
     0
  0
SCALE
  5
14A0
102
{ACAD_REACTORS
330
1488
102
}
330
1488
100
AcDbScale
 70
     0
300
3/16" = 1'-0"
140
0.1875
141
12.0
290
     0
  0
SCALE
  5
14A1
102
{ACAD_REACTORS
330
1488
102
}
330
1488
100
AcDbScale
 70
     0
300
1/4" = 1'-0"
140
0.25
141
12.0
290
     0
  0
SCALE
  5
14A2
102
{ACAD_REACTORS
330
1488
102
}
330
1488
100
AcDbScale
 70
     0
300
3/8" = 1'-0"
140
0.375
141
12.0
290
     0
  0
SCALE
  5
14A3
102
{ACAD_REACTORS
330
1488
102
}
330
1488
100
AcDbScale
 70
     0
300
1/2" = 1'-0"
140
0.5
141
12.0
290
     0
  0
SCALE
  5
14A4
102
{ACAD_REACTORS
330
1488
102
}
330
1488
100
AcDbScale
 70
     0
300
3/4" = 1'-0"
140
0.75
141
12.0
290
     0
  0
SCALE
  5
14A5
102
{ACAD_REACTORS
330
1488
102
}
330
1488
100
AcDbScale
 70
     0
300
1" = 1'-0"
140
1.0
141
12.0
290
     0
  0
SCALE
  5
14A6
102
{ACAD_REACTORS
330
1488
102
}
330
1488
100
AcDbScale
 70
     0
300
1-1/2" = 1'-0"
140
1.5
141
12.0
290
     0
  0
SCALE
  5
14A7
102
{ACAD_REACTORS
330
1488
102
}
330
1488
100
AcDbScale
 70
     0
300
3" = 1'-0"
140
3.0
141
12.0
290
     0
  0
SCALE
  5
14A8
102
{ACAD_REACTORS
330
1488
102
}
330
1488
100
AcDbScale
 70
     0
300
6" = 1'-0"
140
6.0
141
12.0
290
     0
  0
SCALE
  5
14A9
102
{ACAD_REACTORS
330
1488
102
}
330
1488
100
AcDbScale
 70
     0
300
1'-0" = 1'-0"
140
12.0
141
12.0
290
     0
  0
ACDBSECTIONVIEWSTYLE
  5
237E
102
{ACAD_XDICTIONARY
360
25BD
102
}
102
{ACAD_REACTORS
330
237D
102
}
330
237D
100
AcDbModelDocViewStyle
 70
     0
  3
Imperial24
290
     0
100
AcDbSectionViewStyle
 70
     0
 71
     0
 90
       78
 71
     1
340
16
 40
0.24
340
0
340
0
 40
0.24
300
I, O, Q, S, X, Z
 40
0.48
 90
        3
 40
0.18
 90
        1
 71
     2
340
8
 90
       25
340
8
 90
       50
 40
0.24
 40
0.0
 40
0.24
 71
     3
340
16
 40
0.24
 90
        1
 40
0.75
 90
        1
300
%<\AcVar ViewType \f "%tc1">% %<\AcVar ViewSectionStartId>%-%<\AcVar ViewSectionEndId>%\PSCALE %<\AcVar ViewScale \f "%sn">%
 71
     4
300
ANSI31
 40
1.0
 90
        0
290
     0
290
     0
 90
        6
 40
0.0
 40
1.5707963268
 40
0.2617993878
 40
1.308996939
 40
-0.2617993878
 40
1.8325957146
  0
TABLESTYLE
  5
1487
102
{ACAD_XDICTIONARY
360
14BD
102
}
102
{ACAD_REACTORS
330
1486
102
}
330
1486
100
AcDbTableStyle
  3
Standard
 70
     0
 71
     0
 40
0.06
 41
0.06
280
     0
281
     0
  7
STANDARD
140
0.18
170
     2
 62
     0
 63
     7
283
     0
274
    -2
284
     1
 64
     0
275
    -2
285
     1
 65
     0
276
    -2
286
     1
 66
     0
277
    -2
287
     1
 67
     0
278
    -2
288
     1
 68
     0
279
    -2
289
     1
 69
     0
  7
STANDARD
140
0.25
170
     5
 62
     0
 63
     7
283
     0
274
    -2
284
     1
 64
     0
275
    -2
285
     1
 65
     0
276
    -2
286
     1
 66
     0
277
    -2
287
     1
 67
     0
278
    -2
288
     1
 68
     0
279
    -2
289
     1
 69
     0
  7
STANDARD
140
0.18
170
     5
 62
     0
 63
     7
283
     0
274
    -2
284
     1
 64
     0
275
    -2
285
     1
 65
     0
276
    -2
286
     1
 66
     0
277
    -2
287
     1
 67
     0
278
    -2
288
     1
 68
     0
279
    -2
289
     1
 69
     0
  0
VISUALSTYLE
  5
147A
102
{ACAD_XDICTIONARY
360
2572
102
}
102
{ACAD_REACTORS
330
1474
102
}
330
1474
100
AcDbVisualStyle
  2

 70
     4
 71
     0
 72
     2
 73
     0
 90
        0
 40
-0.6
 41
-30.0
 62
     5
 63
     7
 74
     1
 91
        4
 64
     7
 65
   257
 75
     1
175
     1
 42
1.0
 92
        0
 66
   257
 43
1.0
 76
     1
 77
     6
 78
     2
 67
     7
 79
     5
170
     0
171
     0
290
     0
174
     0
 93
        1
 44
0.0
173
     0
291
     0
 45
0.0
1001
ACAD
1000
AcDbSavedByObjectVersion
1070
     0
  0
VISUALSTYLE
  5
147C
102
{ACAD_XDICTIONARY
360
2576
102
}
102
{ACAD_REACTORS
330
1474
102
}
330
1474
100
AcDbVisualStyle
  2

 70
     6
 71
     1
 72
     2
 73
     2
 90
        0
 40
-0.6
 41
-30.0
 62
     5
 63
     7
 74
     2
 91
        2
 64
     7
 65
   257
 75
     2
175
     1
 42
40.0
 92
        0
 66
   257
 43
1.0
 76
     1
 77
     6
 78
     2
 67
     7
 79
     3
170
     0
171
     0
290
     0
174
     0
 93
        1
 44
0.0
173
     0
291
     0
 45
0.0
1001
ACAD
1000
AcDbSavedByObjectVersion
1070
     0
  0
VISUALSTYLE
  5
147B
102
{ACAD_XDICTIONARY
360
2574
102
}
102
{ACAD_REACTORS
330
1474
102
}
330
1474
100
AcDbVisualStyle
  2

 70
     5
 71
     0
 72
     2
 73
     0
 90
        0
 40
-0.6
 41
-30.0
 62
     5
 63
     7
 74
     1
 91
        4
 64
     7
 65
   257
 75
     1
175
     1
 42
1.0
 92
        0
 66
   257
 43
1.0
 76
     1
 77
     6
 78
     2
 67
     7
 79
     5
170
     0
171
     0
290
     0
174
     0
 93
        1
 44
0.0
173
     0
291
     0
 45
0.0
1001
ACAD
1000
AcDbSavedByObjectVersion
1070
     0
  0
VISUALSTYLE
  5
1479
102
{ACAD_XDICTIONARY
360
2570
102
}
102
{ACAD_REACTORS
330
1474
102
}
330
1474
100
AcDbVisualStyle
  2

 70
     7
 71
     1
 72
     0
 73
     1
 90
        0
 40
-0.6
 41
-30.0
 62
     5
 63
     7
 74
     0
 91
        4
 64
     7
 65
   257
 75
     1
175
     1
 42
1.0
 92
        8
 66
     7
 43
1.0
 76
     1
 77
     6
 78
     2
 67
     7
 79
     5
170
     0
171
     0
290
     0
174
     0
 93
        1
 44
0.0
173
     0
291
     1
 45
0.0
1001
ACAD
1000
AcDbSavedByObjectVersion
1070
     0
  0
VISUALSTYLE
  5
1480
102
{ACAD_XDICTIONARY
360
257E
102
}
102
{ACAD_REACTORS
330
1474
102
}
330
1474
100
AcDbVisualStyle
  2

 70
    12
 71
     2
 72
     2
 73
     0
 90
        0
 40
-0.6
 41
-30.0
 62
     5
 63
     7
 74
     1
 91
        4
 64
     7
 65
   257
 75
     1
175
     1
 42
1.0
 92
        8
 66
     7
 43
1.0
 76
     1
 77
     6
 78
     2
 67
     7
 79
     5
170
     0
171
     0
290
     0
174
     0
 93
        1
 44
50.0
173
     0
291
     1
 45
0.0
1001
ACAD
1000
AcDbSavedByObjectVersion
1070
     0
  0
VISUALSTYLE
  5
1484
102
{ACAD_XDICTIONARY
360
2586
102
}
102
{ACAD_REACTORS
330
1474
102
}
330
1474
100
AcDbVisualStyle
  2

 70
    16
 71
     2
 72
     2
 73
     3
 90
        0
 40
-0.6
 41
-30.0
 62
     5
 63
     8
 74
     1
 91
        4
 64
     7
 65
   257
 75
     1
175
     1
 42
1.0
 92
        8
 66
     8
 43
1.0
 76
     1
 77
     6
 78
     2
 67
     7
 79
     5
170
     0
171
     0
290
     0
174
     0
 93
        1
 44
0.0
173
     0
291
     1
 45
0.0
1001
ACAD
1000
AcDbSavedByObjectVersion
1070
     0
  0
VISUALSTYLE
  5
147D
102
{ACAD_XDICTIONARY
360
2578
102
}
102
{ACAD_REACTORS
330
1474
102
}
330
1474
100
AcDbVisualStyle
  2

 70
     9
 71
     3
 72
     2
 73
     0
 90
        0
 40
-0.6
 41
-30.0
 62
     5
 63
     7
 74
     2
 91
        2
 64
     7
 65
   257
 75
     1
175
     1
 42
40.0
 92
        8
 66
     7
 43
1.0
 76
     1
 77
     6
 78
     2
 67
     7
 79
     3
170
     0
171
     0
290
     0
174
     0
 93
        1
 44
0.0
173
     0
291
     0
 45
0.0
1001
ACAD
1000
AcDbSavedByObjectVersion
1070
     0
  0
VISUALSTYLE
  5
147F
102
{ACAD_XDICTIONARY
360
257C
102
}
102
{ACAD_REACTORS
330
1474
102
}
330
1474
100
AcDbVisualStyle
  2

 70
    11
 71
     2
 72
     2
 73
     0
 90
        0
 40
-0.6
 41
-30.0
 62
     5
 63
     7
 74
     1
 91
        4
 64
     7
 65
   257
 75
     1
175
     1
 42
1.0
 92
        8
 66
     7
 43
1.0
 76
     1
 77
     6
 78
     2
 67
     7
 79
     5
170
     0
171
     0
290
     0
174
     0
 93
        1
 44
-50.0
173
     0
291
     1
 45
0.0
1001
ACAD
1000
AcDbSavedByObjectVersion
1070
     0
  0
VISUALSTYLE
  5
1506
102
{ACAD_XDICTIONARY
360
258D
102
}
102
{ACAD_REACTORS
330
1474
102
}
330
1474
100
AcDbVisualStyle
  2

 70
    22
 71
     2
 72
     2
 73
     0
 90
        0
 40
-0.6
 41
-30.0
 62
     5
 63
     7
 74
     1
 91
        4
 64
     7
 65
   257
 75
     1
175
     1
 42
1.0
 92
        8
 66
     7
 43
1.0
 76
     1
 77
     6
 78
     2
 67
     7
 79
     5
170
     0
171
     0
290
     0
174
     0
 93
        1
 44
0.0
173
     0
291
     1
 45
0.0
1001
ACAD
1000
AcDbSavedByObjectVersion
1070
     0
  0
VISUALSTYLE
  5
1483
102
{ACAD_XDICTIONARY
360
2584
102
}
102
{ACAD_REACTORS
330
1474
102
}
330
1474
100
AcDbVisualStyle
  2

 70
    15
 71
     2
 72
     2
 73
     0
 90
        0
 40
-0.6
 41
-30.0
 62
     5
 63
     7
 74
     1
 91
        4
 64
     7
 65
   257
 75
     1
175
     1
 42
1.0
 92
        8
 66
     7
 43
1.0
 76
     1
 77
     6
 78
     2
 67
     7
 79
     5
170
     0
171
     0
290
     0
174
     0
 93
        1
 44
0.0
173
     0
291
     1
 45
0.0
1001
ACAD
1000
AcDbSavedByObjectVersion
1070
     0
  0
VISUALSTYLE
  5
1475
102
{ACAD_XDICTIONARY
360
2568
102
}
102
{ACAD_REACTORS
330
1474
102
}
330
1474
100
AcDbVisualStyle
  2

 70
     0
 71
     2
 72
     1
 73
     1
 90
        2
 40
-0.6
 41
30.0
 62
     5
 63
     7
 74
     0
 91
        4
 64
     7
 65
   257
 75
     1
175
     1
 42
1.0
 92
        8
 66
     7
 43
1.0
 76
     1
 77
     6
 78
     2
 67
     7
 79
     5
170
     0
171
     0
290
     0
174
     0
 93
       13
 44
0.0
173
     0
291
     1
 45
0.0
1001
ACAD
1000
AcDbSavedByObjectVersion
1070
     0
  0
VISUALSTYLE
  5
1476
102
{ACAD_XDICTIONARY
360
256A
102
}
102
{ACAD_REACTORS
330
1474
102
}
330
1474
100
AcDbVisualStyle
  2

 70
     1
 71
     2
 72
     1
 73
     1
 90
        2
 40
-0.6
 41
30.0
 62
     5
 63
     7
 74
     1
 91
        4
 64
     7
 65
   257
 75
     1
175
     1
 42
1.0
 92
        0
 66
   257
 43
1.0
 76
     1
 77
     6
 78
     2
 67
     7
 79
     5
170
     0
171
     0
290
     0
174
     0
 93
       13
 44
0.0
173
     0
291
     1
 45
0.0
1001
ACAD
1000
AcDbSavedByObjectVersion
1070
     0
  0
VISUALSTYLE
  5
1477
102
{ACAD_XDICTIONARY
360
256C
102
}
102
{ACAD_REACTORS
330
1474
102
}
330
1474
100
AcDbVisualStyle
  2

 70
     2
 71
     2
 72
     2
 73
     1
 90
        2
 40
-0.6
 41
30.0
 62
     5
 63
     7
 74
     0
 91
        4
 64
     7
 65
   257
 75
     1
175
     1
 42
1.0
 92
        0
 66
     7
 43
1.0
 76
     1
 77
     6
 78
     2
 67
     7
 79
     5
170
     0
171
     0
290
     0
174
     0
 93
       13
 44
0.0
173
     0
291
     1
 45
0.0
1001
ACAD
1000
AcDbSavedByObjectVersion
1070
     0
  0
VISUALSTYLE
  5
1478
102
{ACAD_XDICTIONARY
360
256E
102
}
102
{ACAD_REACTORS
330
1474
102
}
330
1474
100
AcDbVisualStyle
  2

 70
     3
 71
     2
 72
     2
 73
     1
 90
        2
 40
-0.6
 41
30.0
 62
     5
 63
     7
 74
     1
 91
        4
 64
     7
 65
   257
 75
     1
175
     1
 42
1.0
 92
        0
 66
   257
 43
1.0
 76
     1
 77
     6
 78
     2
 67
     7
 79
     5
170
     0
171
     0
290
     0
174
     0
 93
       13
 44
0.0
173
     0
291
     1
 45
0.0
1001
ACAD
1000
AcDbSavedByObjectVersion
1070
     0
  0
VISUALSTYLE
  5
2377
102
{ACAD_XDICTIONARY
360
25B1
102
}
102
{ACAD_REACTORS
330
1474
102
}
330
1474
100
AcDbVisualStyle
  2
Hidden
 70
     6
 71
     1
 72
     2
 73
     2
 90
        0
 40
-0.6
 41
-30.0
 62
     5
 63
     7
 74
     2
 91
        2
 64
     7
 65
   257
 75
     2
175
     1
 42
40.0
 92
        0
 66
   257
 43
1.0
 76
     1
 77
     6
 78
     2
 67
     7
 79
     3
170
     0
171
     0
290
     0
174
     0
 93
        1
 44
0.0
173
     0
291
     0
 45
0.0
1001
ACAD
1000
AcDbSavedByObjectVersion
1070
     0
  0
VISUALSTYLE
  5
1504
102
{ACAD_XDICTIONARY
360
2589
102
}
102
{ACAD_REACTORS
330
1474
102
}
330
1474
100
AcDbVisualStyle
  2

 70
    20
 71
     2
 72
     2
 73
     0
 90
        0
 40
-0.6
 41
-30.0
 62
     5
 63
     7
 74
     1
 91
        4
 64
     7
 65
   257
 75
     1
175
     1
 42
1.0
 92
       10
 66
     7
 43
1.0
 76
     1
 77
     6
 78
     2
 67
     7
 79
     5
170
     0
171
     0
290
     0
174
     0
 93
        1
 44
0.0
173
     0
291
     1
 45
0.0
1001
ACAD
1000
AcDbSavedByObjectVersion
1070
     0
  0
VISUALSTYLE
  5
1482
102
{ACAD_XDICTIONARY
360
2582
102
}
102
{ACAD_REACTORS
330
1474
102
}
330
1474
100
AcDbVisualStyle
  2

 70
    14
 71
     2
 72
     2
 73
     0
 90
        0
 40
-0.6
 41
-30.0
 62
     5
 63
     7
 74
     1
 91
        4
 64
     7
 65
   257
 75
     7
175
     7
 42
1.0
 92
        8
 66
     7
 43
1.0
 76
     1
 77
     6
 78
     2
 67
     7
 79
     5
170
     0
171
     0
290
     0
174
     0
 93
        1
 44
0.0
173
     0
291
     1
 45
0.0
1001
ACAD
1000
AcDbSavedByObjectVersion
1070
     0
  0
VISUALSTYLE
  5
1505
102
{ACAD_XDICTIONARY
360
258B
102
}
102
{ACAD_REACTORS
330
1474
102
}
330
1474
100
AcDbVisualStyle
  2

 70
    21
 71
     2
 72
     2
 73
     0
 90
        0
 40
-0.6
 41
-30.0
 62
     5
 63
     7
 74
     1
 91
        4
 64
     7
 65
   257
 75
     1
175
     1
 42
1.0
 92
        9
 66
     7
 43
1.0
 76
     1
 77
     6
 78
     2
 67
     7
 79
     5
170
     0
171
     0
290
     0
174
     0
 93
        1
 44
0.0
173
     0
291
     1
 45
0.0
1001
ACAD
1000
AcDbSavedByObjectVersion
1070
     0
  0
VISUALSTYLE
  5
147E
102
{ACAD_XDICTIONARY
360
257A
102
}
102
{ACAD_REACTORS
330
1474
102
}
330
1474
100
AcDbVisualStyle
  2

 70
     8
 71
     2
 72
     2
 73
     0
 90
        0
 40
-0.6
 41
-30.0
 62
     5
 63
     7
 74
     1
 91
        0
 64
     7
 65
   257
 75
     1
175
     1
 42
1.0
 92
        8
 66
     8
 43
1.0
 76
     1
 77
     6
 78
     2
 67
     7
 79
     5
170
     0
171
     0
290
     0
174
     0
 93
       13
 44
0.0
173
     0
291
     0
 45
0.0
1001
ACAD
1000
AcDbSavedByObjectVersion
1070
     0
  0
VISUALSTYLE
  5
237C
102
{ACAD_XDICTIONARY
360
25BB
102
}
102
{ACAD_REACTORS
330
1474
102
}
330
1474
100
AcDbVisualStyle
  2
Shaded
 70
    27
 71
     2
 72
     2
 73
     1
 90
        2
 40
-0.6
 41
30.0
 62
     5
 63
     7
 74
     0
 91
        4
 64
     7
 65
   257
 75
     1
175
     1
 42
1.0
 92
        8
 66
   257
 43
1.0
 76
     1
 77
     6
 78
     2
 67
     8
 79
     3
170
     0
171
     0
290
     0
174
     0
 93
        5
 44
0.0
173
     0
291
     0
 45
0.0
1001
ACAD
1000
AcDbSavedByObjectVersion
1070
     0
  0
VISUALSTYLE
  5
237B
102
{ACAD_XDICTIONARY
360
25B9
102
}
102
{ACAD_REACTORS
330
1474
102
}
330
1474
100
AcDbVisualStyle
  2
Shaded with edges
 70
    26
 71
     2
 72
     2
 73
     1
 90
        2
 40
-0.6
 41
30.0
 62
     5
 63
     7
 74
     1
 91
        2
 64
     7
 65
   257
 75
     2
175
     1
 42
1.0
 92
        8
 66
   257
 43
1.0
 76
     1
 77
     6
 78
     2
 67
     7
 79
     3
170
     0
171
     0
290
     0
174
     0
 93
        5
 44
0.0
173
     0
291
     0
 45
0.0
1001
ACAD
1000
AcDbSavedByObjectVersion
1070
     0
  0
VISUALSTYLE
  5
2378
102
{ACAD_XDICTIONARY
360
25B3
102
}
102
{ACAD_REACTORS
330
1474
102
}
330
1474
100
AcDbVisualStyle
  2
Shades of Gray
 70
    23
 71
     2
 72
     2
 73
     3
 90
        0
 40
-0.6
 41
-30.0
 62
     5
 63
     7
 74
     2
 91
        2
 64
     7
 65
     7
 75
     1
175
     1
 42
40.0
 92
        8
 66
     7
 43
1.0
 76
     1
 77
     6
 78
     2
 67
     7
 79
     3
170
     0
171
     0
290
     0
174
     0
 93
        1
 44
0.0
173
     0
291
     0
 45
0.0
1001
ACAD
1000
AcDbSavedByObjectVersion
1070
     0
  0
VISUALSTYLE
  5
2379
102
{ACAD_XDICTIONARY
360
25B5
102
}
102
{ACAD_REACTORS
330
1474
102
}
330
1474
100
AcDbVisualStyle
  2
Sketchy
 70
    24
 71
     1
 72
     2
 73
     2
 90
        0
 40
-0.6
 41
-30.0
 62
     5
 63
     7
 74
     2
 91
        2
 64
     7
 65
     7
 75
     1
175
     1
 42
40.0
 92
       11
 66
     7
 43
1.0
 76
     1
 77
     6
 78
     2
 67
     7
 79
     6
170
     0
171
     0
290
     0
174
     0
 93
        1
 44
0.0
173
     0
291
     0
 45
0.0
1001
ACAD
1000
AcDbSavedByObjectVersion
1070
     0
  0
VISUALSTYLE
  5
1481
102
{ACAD_XDICTIONARY
360
2580
102
}
102
{ACAD_REACTORS
330
1474
102
}
330
1474
100
AcDbVisualStyle
  2

 70
    13
 71
     2
 72
     2
 73
     0
 90
        0
 40
-0.6
 41
-30.0
 62
     5
 63
     7
 74
     1
 91
        4
 64
     7
 65
   257
 75
     1
175
     1
 42
1.0
 92
       12
 66
     7
 43
1.0
 76
     1
 77
     6
 78
     2
 67
     7
 79
     5
170
     0
171
     0
290
     0
174
     0
 93
        1
 44
0.0
173
     0
291
     1
 45
0.0
1001
ACAD
1000
AcDbSavedByObjectVersion
1070
     0
  0
VISUALSTYLE
  5
2376
102
{ACAD_XDICTIONARY
360
25AF
102
}
102
{ACAD_REACTORS
330
1474
102
}
330
1474
100
AcDbVisualStyle
  2
Wireframe
 70
     5
 71
     0
 72
     2
 73
     0
 90
        0
 40
-0.6
 41
-30.0
 62
     5
 63
     7
 74
     1
 91
        4
 64
     7
 65
   257
 75
     1
175
     1
 42
1.0
 92
        0
 66
   257
 43
1.0
 76
     1
 77
     6
 78
     2
 67
     7
 79
     3
170
     0
171
     0
290
     0
174
     0
 93
        1
 44
0.0
173
     0
291
     0
 45
0.0
1001
ACAD
1000
AcDbSavedByObjectVersion
1070
     0
  0
VISUALSTYLE
  5
237A
102
{ACAD_XDICTIONARY
360
25B7
102
}
102
{ACAD_REACTORS
330
1474
102
}
330
1474
100
AcDbVisualStyle
  2
X-Ray
 70
    25
 71
     2
 72
     2
 73
     1
 90
        1
 40
0.5
 41
-30.0
 62
     5
 63
     7
 74
     1
 91
        0
 64
     7
 65
   257
 75
     1
175
     1
 42
1.0
 92
        8
 66
     7
 43
1.0
 76
     1
 77
     6
 78
     2
 67
     7
 79
     3
170
     0
171
     0
290
     0
174
     0
 93
       13
 44
0.0
173
     0
291
     0
 45
0.0
1001
ACAD
1000
AcDbSavedByObjectVersion
1070
     0
  0
DICTIONARYVAR
  5
1500
102
{ACAD_REACTORS
330
102
102
}
330
102
100
DictionaryVariables
280
     0
  1
1:1
  0
DICTIONARYVAR
  5
14FF
102
{ACAD_REACTORS
330
102
102
}
330
102
100
DictionaryVariables
280
     0
  1
STANDARD
  0
DICTIONARYVAR
  5
14FE
102
{ACAD_REACTORS
330
102
102
}
330
102
100
DictionaryVariables
280
     0
  1
STANDARD
  0
DICTIONARYVAR
  5
24F0
102
{ACAD_REACTORS
330
102
102
}
330
102
100
DictionaryVariables
280
     0
  1
Imperial24
  0
DICTIONARYVAR
  5
24F1
102
{ACAD_REACTORS
330
102
102
}
330
102
100
DictionaryVariables
280
     0
  1
Imperial24
  0
DICTIONARYVAR
  5
103
102
{ACAD_REACTORS
330
102
102
}
330
102
100
DictionaryVariables
280
     0
  1
1
  0
DICTIONARYVAR
  5
1502
102
{ACAD_REACTORS
330
102
102
}
330
102
100
DictionaryVariables
280
     0
  1
0
  0
DICTIONARYVAR
  5
251C
102
{ACAD_REACTORS
330
102
102
}
330
102
100
DictionaryVariables
280
     0
  1
1
  0
DICTIONARYVAR
  5
251D
102
{ACAD_REACTORS
330
102
102
}
330
102
100
DictionaryVariables
280
     0
  1
15
  0
DICTIONARYVAR
  5
251B
102
{ACAD_REACTORS
330
102
102
}
330
102
100
DictionaryVariables
280
     0
  1
0
  0
DICTIONARYVAR
  5
251A
102
{ACAD_REACTORS
330
102
102
}
330
102
100
DictionaryVariables
280
     0
  1
0
  0
DICTIONARYVAR
  5
1501
102
{ACAD_REACTORS
330
102
102
}
330
102
100
DictionaryVariables
280
     0
  1
127
  0
DICTIONARYVAR
  5
2558
102
{ACAD_REACTORS
330
102
102
}
330
102
100
DictionaryVariables
280
     0
  1
2
  0
DICTIONARY
  5
2563
102
{ACAD_REACTORS
330
2561
102
}
330
2561
100
AcDbDictionary
281
     1
  0
DICTIONARY
  5
2562
102
{ACAD_REACTORS
330
2561
102
}
330
2561
100
AcDbDictionary
281
     1
  3
1854834739776
350
255C
  3
1854834739792
350
255D
  3
1854834739808
350
255E
  3
1854834739824
350
255F
  3
1854834739840
350
2560
  0
DICTIONARY
  5
25BF
330
2380
100
AcDbDictionary
280
     1
281
     1
  3
ACAD_XREC_ROUNDTRIP
360
25C0
  0
DICTIONARY
  5
152F
330
60
100
AcDbDictionary
280
     1
281
     1
  3
ACAD_XREC_ROUNDTRIP
360
2564
  0
DICTIONARY
  5
25C9
330
2554
100
AcDbDictionary
280
     1
281
     1
  3
ACAD_XREC_ROUNDTRIP
360
25CA
  0
DICTIONARY
  5
1465
330
1464
100
AcDbDictionary
280
     1
281
     1
  3
ACAD_XREC_ROUNDTRIP
360
2566
  3
BUMPTILE
360
1467
  3
DIFFUSETILE
360
1466
  3
OPACITYTILE
360
146A
  3
REFLECTIONTILE
360
1469
  3
REFRACTIONTILE
360
146B
  3
SPECULARTILE
360
1468
  0
DICTIONARY
  5
145D
330
145C
100
AcDbDictionary
280
     1
281
     1
  3
ACAD_XREC_ROUNDTRIP
360
2565
  3
BUMPTILE
360
145F
  3
DIFFUSETILE
360
145E
  3
OPACITYTILE
360
1462
  3
REFLECTIONTILE
360
1461
  3
REFRACTIONTILE
360
1463
  3
SPECULARTILE
360
1460
  0
DICTIONARY
  5
146D
330
146C
100
AcDbDictionary
280
     1
281
     1
  3
ACAD_XREC_ROUNDTRIP
360
2567
  3
BUMPTILE
360
146F
  3
DIFFUSETILE
360
146E
  3
OPACITYTILE
360
1472
  3
REFLECTIONTILE
360
1471
  3
REFRACTIONTILE
360
1473
  3
SPECULARTILE
360
1470
  0
DICTIONARY
  5
25BD
330
237E
100
AcDbDictionary
280
     1
281
     1
  3
ACAD_XREC_ROUNDTRIP
360
25BE
  0
DICTIONARY
  5
14BD
330
1487
100
AcDbDictionary
280
     1
281
     1
  3
ACAD_ROUNDTRIP_2008_TABLESTYLE_CELLSTYLEMAP
360
2559
  3
ACAD_XREC_ROUNDTRIP
360
2588
  0
DICTIONARY
  5
2572
330
147A
100
AcDbDictionary
280
     1
281
     1
  3
ACAD_XREC_ROUNDTRIP
360
2573
  0
DICTIONARY
  5
2576
330
147C
100
AcDbDictionary
280
     1
281
     1
  3
ACAD_XREC_ROUNDTRIP
360
2577
  0
DICTIONARY
  5
2574
330
147B
100
AcDbDictionary
280
     1
281
     1
  3
ACAD_XREC_ROUNDTRIP
360
2575
  0
DICTIONARY
  5
2570
330
1479
100
AcDbDictionary
280
     1
281
     1
  3
ACAD_XREC_ROUNDTRIP
360
2571
  0
DICTIONARY
  5
257E
330
1480
100
AcDbDictionary
280
     1
281
     1
  3
ACAD_XREC_ROUNDTRIP
360
257F
  0
DICTIONARY
  5
2586
330
1484
100
AcDbDictionary
280
     1
281
     1
  3
ACAD_XREC_ROUNDTRIP
360
2587
  0
DICTIONARY
  5
2578
330
147D
100
AcDbDictionary
280
     1
281
     1
  3
ACAD_XREC_ROUNDTRIP
360
2579
  0
DICTIONARY
  5
257C
330
147F
100
AcDbDictionary
280
     1
281
     1
  3
ACAD_XREC_ROUNDTRIP
360
257D
  0
DICTIONARY
  5
258D
330
1506
100
AcDbDictionary
280
     1
281
     1
  3
ACAD_XREC_ROUNDTRIP
360
258E
  0
DICTIONARY
  5
2584
330
1483
100
AcDbDictionary
280
     1
281
     1
  3
ACAD_XREC_ROUNDTRIP
360
2585
  0
DICTIONARY
  5
2568
330
1475
100
AcDbDictionary
280
     1
281
     1
  3
ACAD_XREC_ROUNDTRIP
360
2569
  0
DICTIONARY
  5
256A
330
1476
100
AcDbDictionary
280
     1
281
     1
  3
ACAD_XREC_ROUNDTRIP
360
256B
  0
DICTIONARY
  5
256C
330
1477
100
AcDbDictionary
280
     1
281
     1
  3
ACAD_XREC_ROUNDTRIP
360
256D
  0
DICTIONARY
  5
256E
330
1478
100
AcDbDictionary
280
     1
281
     1
  3
ACAD_XREC_ROUNDTRIP
360
256F
  0
DICTIONARY
  5
25B1
330
2377
100
AcDbDictionary
280
     1
281
     1
  3
ACAD_XREC_ROUNDTRIP
360
25B2
  0
DICTIONARY
  5
2589
330
1504
100
AcDbDictionary
280
     1
281
     1
  3
ACAD_XREC_ROUNDTRIP
360
258A
  0
DICTIONARY
  5
2582
330
1482
100
AcDbDictionary
280
     1
281
     1
  3
ACAD_XREC_ROUNDTRIP
360
2583
  0
DICTIONARY
  5
258B
330
1505
100
AcDbDictionary
280
     1
281
     1
  3
ACAD_XREC_ROUNDTRIP
360
258C
  0
DICTIONARY
  5
257A
330
147E
100
AcDbDictionary
280
     1
281
     1
  3
ACAD_XREC_ROUNDTRIP
360
257B
  0
DICTIONARY
  5
25BB
330
237C
100
AcDbDictionary
280
     1
281
     1
  3
ACAD_XREC_ROUNDTRIP
360
25BC
  0
DICTIONARY
  5
25B9
330
237B
100
AcDbDictionary
280
     1
281
     1
  3
ACAD_XREC_ROUNDTRIP
360
25BA
  0
DICTIONARY
  5
25B3
330
2378
100
AcDbDictionary
280
     1
281
     1
  3
ACAD_XREC_ROUNDTRIP
360
25B4
  0
DICTIONARY
  5
25B5
330
2379
100
AcDbDictionary
280
     1
281
     1
  3
ACAD_XREC_ROUNDTRIP
360
25B6
  0
DICTIONARY
  5
2580
330
1481
100
AcDbDictionary
280
     1
281
     1
  3
ACAD_XREC_ROUNDTRIP
360
2581
  0
DICTIONARY
  5
25AF
330
2376
100
AcDbDictionary
280
     1
281
     1
  3
ACAD_XREC_ROUNDTRIP
360
25B0
  0
DICTIONARY
  5
25B7
330
237A
100
AcDbDictionary
280
     1
281
     1
  3
ACAD_XREC_ROUNDTRIP
360
25B8
  0
XRECORD
  5
255C
102
{ACAD_REACTORS
330
2562
102
}
330
2562
100
AcDbXrecord
280
     1
  1
AcDb_Thumbnail_Schema
102
{ATTRRECORD
341
255D
  2
AcDbDs::TreatedAsObjectData
280
     1
291
     1
102
ATTRRECORD}
102
{ATTRRECORD
341
255E
  2
AcDbDs::Legacy
280
     1
291
     1
102
ATTRRECORD}
  2
AcDbDs::ID
280
    10
 91
        8
102
{ATTRRECORD
341
255F
  2
AcDs:Indexable
280
     1
291
     1
102
ATTRRECORD}
102
{ATTRRECORD
341
2560
  2
AcDbDs::HandleAttribute
280
     7
282
     1
102
ATTRRECORD}
  2
Thumbnail_Data
280
    15
 91
        0
  0
XRECORD
  5
255D
102
{ACAD_REACTORS
330
2562
102
}
330
2562
100
AcDbXrecord
280
     1
  1
AcDbDs::TreatedAsObjectDataSchema
  2
AcDbDs::TreatedAsObjectData
280
     1
 91
        0
  0
XRECORD
  5
255E
102
{ACAD_REACTORS
330
2562
102
}
330
2562
100
AcDbXrecord
280
     1
  1
AcDbDs::LegacySchema
  2
AcDbDs::Legacy
280
     1
 91
        0
  0
XRECORD
  5
255F
102
{ACAD_REACTORS
330
2562
102
}
330
2562
100
AcDbXrecord
280
     1
  1
AcDbDs::IndexedPropertySchema
  2
AcDs:Indexable
280
     1
 91
        0
  0
XRECORD
  5
2560
102
{ACAD_REACTORS
330
2562
102
}
330
2562
100
AcDbXrecord
280
     1
  1
AcDbDs::HandleAttributeSchema
  2
AcDbDs::HandleAttribute
280
     7
 91
        1
284
     1
  0
XRECORD
  5
25C0
102
{ACAD_REACTORS
330
25BF
102
}
330
25BF
100
AcDbXrecord
280
     1
102
DISPLAYNAME
  1
Imperial24
102
FLAGS
 90
        0
  0
XRECORD
  5
2564
102
{ACAD_REACTORS
330
152F
102
}
330
152F
100
AcDbXrecord
280
     1
102
SHADEPLOT
 70
     0
102
SHADEPLOTRESLEVEL
 70
     2
102
SHADEPLOTCUSTOMDPI
 70
   300
  0
XRECORD
  5
25CA
102
{ACAD_REACTORS
330
25C9
102
}
330
25C9
100
AcDbXrecord
280
     1
102
SHADEPLOT
 70
     0
102
SHADEPLOTRESLEVEL
 70
     2
102
SHADEPLOTCUSTOMDPI
 70
   300
  0
XRECORD
  5
2566
102
{ACAD_REACTORS
330
1465
102
}
330
1465
100
AcDbXrecord
280
     1
102
MATERIAL
148
0.0
149
0.0
149
0.0
 93
        0
 94
      127
282
     0
 72
     0
 77
     0
171
     0
175
     0
179
     0
273
     0
  0
XRECORD
  5
1467
102
{ACAD_REACTORS
330
1465
102
}
330
1465
100
AcDbXrecord
280
     1
270
     1
271
     1
  0
XRECORD
  5
1466
102
{ACAD_REACTORS
330
1465
102
}
330
1465
100
AcDbXrecord
280
     1
270
     1
271
     1
  0
XRECORD
  5
146A
102
{ACAD_REACTORS
330
1465
102
}
330
1465
100
AcDbXrecord
280
     1
270
     1
271
     1
  0
XRECORD
  5
1469
102
{ACAD_REACTORS
330
1465
102
}
330
1465
100
AcDbXrecord
280
     1
270
     1
271
     1
  0
XRECORD
  5
146B
102
{ACAD_REACTORS
330
1465
102
}
330
1465
100
AcDbXrecord
280
     1
270
     1
271
     1
  0
XRECORD
  5
1468
102
{ACAD_REACTORS
330
1465
102
}
330
1465
100
AcDbXrecord
280
     1
270
     1
271
     1
  0
XRECORD
  5
2565
102
{ACAD_REACTORS
330
145D
102
}
330
145D
100
AcDbXrecord
280
     1
102
MATERIAL
148
0.0
149
0.0
149
0.0
 93
        0
 94
      127
282
     0
 72
     0
 77
     0
171
     0
175
     0
179
     0
273
     0
  0
XRECORD
  5
145F
102
{ACAD_REACTORS
330
145D
102
}
330
145D
100
AcDbXrecord
280
     1
270
     1
271
     1
  0
XRECORD
  5
145E
102
{ACAD_REACTORS
330
145D
102
}
330
145D
100
AcDbXrecord
280
     1
270
     1
271
     1
  0
XRECORD
  5
1462
102
{ACAD_REACTORS
330
145D
102
}
330
145D
100
AcDbXrecord
280
     1
270
     1
271
     1
  0
XRECORD
  5
1461
102
{ACAD_REACTORS
330
145D
102
}
330
145D
100
AcDbXrecord
280
     1
270
     1
271
     1
  0
XRECORD
  5
1463
102
{ACAD_REACTORS
330
145D
102
}
330
145D
100
AcDbXrecord
280
     1
270
     1
271
     1
  0
XRECORD
  5
1460
102
{ACAD_REACTORS
330
145D
102
}
330
145D
100
AcDbXrecord
280
     1
270
     1
271
     1
  0
XRECORD
  5
2567
102
{ACAD_REACTORS
330
146D
102
}
330
146D
100
AcDbXrecord
280
     1
102
MATERIAL
148
0.0
149
0.0
149
0.0
 93
        0
 94
      127
282
     0
 72
     0
 77
     0
171
     0
175
     0
179
     0
273
     0
  0
XRECORD
  5
146F
102
{ACAD_REACTORS
330
146D
102
}
330
146D
100
AcDbXrecord
280
     1
270
     1
271
     1
  0
XRECORD
  5
146E
102
{ACAD_REACTORS
330
146D
102
}
330
146D
100
AcDbXrecord
280
     1
270
     1
271
     1
  0
XRECORD
  5
1472
102
{ACAD_REACTORS
330
146D
102
}
330
146D
100
AcDbXrecord
280
     1
270
     1
271
     1
  0
XRECORD
  5
1471
102
{ACAD_REACTORS
330
146D
102
}
330
146D
100
AcDbXrecord
280
     1
270
     1
271
     1
  0
XRECORD
  5
1473
102
{ACAD_REACTORS
330
146D
102
}
330
146D
100
AcDbXrecord
280
     1
270
     1
271
     1
  0
XRECORD
  5
1470
102
{ACAD_REACTORS
330
146D
102
}
330
146D
100
AcDbXrecord
280
     1
270
     1
271
     1
  0
XRECORD
  5
25BE
102
{ACAD_REACTORS
330
25BD
102
}
330
25BD
100
AcDbXrecord
280
     1
102
DISPLAYNAME
  1
Imperial24
102
FLAGS
 90
        0
  0
CELLSTYLEMAP
  5
2559
102
{ACAD_REACTORS
330
14BD
102
}
330
14BD
100
AcDbCellStyleMap
 90
        3
300
CELLSTYLE
  1
TABLEFORMAT_BEGIN
 90
        5
170
     1
 91
        0
 92
    32768
 62
   257
 93
        1
300
CONTENTFORMAT
  1
CONTENTFORMAT_BEGIN
 90
        0
 91
        0
 92
      512
 93
        0
300

 40
0.0
140
1.0
 94
        5
 62
     0
340
16
144
0.25
309
CONTENTFORMAT_END
171
     1
301
MARGIN
  1
CELLMARGIN_BEGIN
 40
0.06
 40
0.06
 40
0.06
 40
0.06
 40
0.18
 40
0.18
309
CELLMARGIN_END
 94
        6
 95
        1
302
GRIDFORMAT
  1
GRIDFORMAT_BEGIN
 90
        0
 91
        1
 62
     0
 92
       -2
340
0
 93
        0
 40
0.045
309
GRIDFORMAT_END
 95
        2
302
GRIDFORMAT
  1
GRIDFORMAT_BEGIN
 90
        0
 91
        1
 62
     0
 92
       -2
340
0
 93
        0
 40
0.045
309
GRIDFORMAT_END
 95
        4
302
GRIDFORMAT
  1
GRIDFORMAT_BEGIN
 90
        0
 91
        1
 62
     0
 92
       -2
340
0
 93
        0
 40
0.045
309
GRIDFORMAT_END
 95
        8
302
GRIDFORMAT
  1
GRIDFORMAT_BEGIN
 90
        0
 91
        1
 62
     0
 92
       -2
340
0
 93
        0
 40
0.045
309
GRIDFORMAT_END
 95
       16
302
GRIDFORMAT
  1
GRIDFORMAT_BEGIN
 90
        0
 91
        1
 62
     0
 92
       -2
340
0
 93
        0
 40
0.045
309
GRIDFORMAT_END
 95
       32
302
GRIDFORMAT
  1
GRIDFORMAT_BEGIN
 90
        0
 91
        1
 62
     0
 92
       -2
340
0
 93
        0
 40
0.045
309
GRIDFORMAT_END
309
TABLEFORMAT_END
  1
CELLSTYLE_BEGIN
 90
        1
 91
        1
300
_TITLE
309
CELLSTYLE_END
300
CELLSTYLE
  1
TABLEFORMAT_BEGIN
 90
        5
170
     1
 91
        0
 92
        0
 62
   257
 93
        1
300
CONTENTFORMAT
  1
CONTENTFORMAT_BEGIN
 90
        0
 91
        0
 92
      512
 93
        0
300

 40
0.0
140
1.0
 94
        5
 62
     0
340
16
144
0.18
309
CONTENTFORMAT_END
171
     1
301
MARGIN
  1
CELLMARGIN_BEGIN
 40
0.06
 40
0.06
 40
0.06
 40
0.06
 40
0.18
 40
0.18
309
CELLMARGIN_END
 94
        6
 95
        1
302
GRIDFORMAT
  1
GRIDFORMAT_BEGIN
 90
        0
 91
        1
 62
     0
 92
       -2
340
0
 93
        0
 40
0.045
309
GRIDFORMAT_END
 95
        2
302
GRIDFORMAT
  1
GRIDFORMAT_BEGIN
 90
        0
 91
        1
 62
     0
 92
       -2
340
0
 93
        0
 40
0.045
309
GRIDFORMAT_END
 95
        4
302
GRIDFORMAT
  1
GRIDFORMAT_BEGIN
 90
        0
 91
        1
 62
     0
 92
       -2
340
0
 93
        0
 40
0.045
309
GRIDFORMAT_END
 95
        8
302
GRIDFORMAT
  1
GRIDFORMAT_BEGIN
 90
        0
 91
        1
 62
     0
 92
       -2
340
0
 93
        0
 40
0.045
309
GRIDFORMAT_END
 95
       16
302
GRIDFORMAT
  1
GRIDFORMAT_BEGIN
 90
        0
 91
        1
 62
     0
 92
       -2
340
0
 93
        0
 40
0.045
309
GRIDFORMAT_END
 95
       32
302
GRIDFORMAT
  1
GRIDFORMAT_BEGIN
 90
        0
 91
        1
 62
     0
 92
       -2
340
0
 93
        0
 40
0.045
309
GRIDFORMAT_END
309
TABLEFORMAT_END
  1
CELLSTYLE_BEGIN
 90
        2
 91
        1
300
_HEADER
309
CELLSTYLE_END
300
CELLSTYLE
  1
TABLEFORMAT_BEGIN
 90
        5
170
     1
 91
        0
 92
        0
 62
   257
 93
        1
300
CONTENTFORMAT
  1
CONTENTFORMAT_BEGIN
 90
        0
 91
        0
 92
      512
 93
        0
300

 40
0.0
140
1.0
 94
        2
 62
     0
340
16
144
0.18
309
CONTENTFORMAT_END
171
     1
301
MARGIN
  1
CELLMARGIN_BEGIN
 40
0.06
 40
0.06
 40
0.06
 40
0.06
 40
0.18
 40
0.18
309
CELLMARGIN_END
 94
        6
 95
        1
302
GRIDFORMAT
  1
GRIDFORMAT_BEGIN
 90
        0
 91
        1
 62
     0
 92
       -2
340
0
 93
        0
 40
0.045
309
GRIDFORMAT_END
 95
        2
302
GRIDFORMAT
  1
GRIDFORMAT_BEGIN
 90
        0
 91
        1
 62
     0
 92
       -2
340
0
 93
        0
 40
0.045
309
GRIDFORMAT_END
 95
        4
302
GRIDFORMAT
  1
GRIDFORMAT_BEGIN
 90
        0
 91
        1
 62
     0
 92
       -2
340
0
 93
        0
 40
0.045
309
GRIDFORMAT_END
 95
        8
302
GRIDFORMAT
  1
GRIDFORMAT_BEGIN
 90
        0
 91
        1
 62
     0
 92
       -2
340
0
 93
        0
 40
0.045
309
GRIDFORMAT_END
 95
       16
302
GRIDFORMAT
  1
GRIDFORMAT_BEGIN
 90
        0
 91
        1
 62
     0
 92
       -2
340
0
 93
        0
 40
0.045
309
GRIDFORMAT_END
 95
       32
302
GRIDFORMAT
  1
GRIDFORMAT_BEGIN
 90
        0
 91
        1
 62
     0
 92
       -2
340
0
 93
        0
 40
0.045
309
GRIDFORMAT_END
309
TABLEFORMAT_END
  1
CELLSTYLE_BEGIN
 90
        3
 91
        2
300
_DATA
309
CELLSTYLE_END
  0
XRECORD
  5
2588
102
{ACAD_REACTORS
330
14BD
102
}
330
14BD
100
AcDbXrecord
280
     1
102
ACAD_ROUNDTRIP_PRE2007_TABLESTYLE
 90
      512
 91
        0
  1

 92
      512
 93
        0
  2

 94
      512
 95
        0
  3

  0
XRECORD
  5
2573
102
{ACAD_REACTORS
330
2572
102
}
330
2572
100
AcDbXrecord
280
     1
102
RTVSPost2010Prop28
280
     1
102
RTVSPost2010PropOp28
 70
     1
102
RTVSPost2010Prop29
280
     1
102
RTVSPost2010PropOp29
 70
     1
102
RTVSPost2010Prop30
280
     0
102
RTVSPost2010PropOp30
 70
     1
102
RTVSPost2010Prop31
280
     0
102
RTVSPost2010PropOp31
 70
     1
102
RTVSPost2010Prop32
280
     0
102
RTVSPost2010PropOp32
 70
     1
102
RTVSPost2010Prop33
280
     0
102
RTVSPost2010PropOp33
 70
     1
102
RTVSPost2010Prop34
280
     0
102
RTVSPost2010PropOp34
 70
     1
102
RTVSPost2010Prop35
280
     0
102
RTVSPost2010PropOp35
 70
     1
102
RTVSPost2010Prop36
280
     0
102
RTVSPost2010PropOp36
 70
     1
102
RTVSPost2010Prop37
 90
       50
102
RTVSPost2010PropOp37
 70
     1
102
RTVSPost2010Prop38
140
0.0
102
RTVSPost2010PropOp38
 70
     1
102
RTVSPost2010Prop39
140
1.0
102
RTVSPost2010PropOp39
 70
     1
102
RTVSPost2010Prop40
 90
        0
102
RTVSPost2010PropOp40
 70
     1
102
RTVSPost2010Prop41ColorIndex
 90
       18
102
RTVSPost2010Prop41ColorRGB
 90
        0
102
RTVSPost2010PropOp41
 70
     1
102
RTVSPost2010Prop42
 90
       50
102
RTVSPost2010PropOp42
 70
     1
102
RTVSPost2010Prop43
 90
        3
102
RTVSPost2010PropOp43
 70
     1
102
RTVSPost2010Prop44ColorIndex
 90
        5
102
RTVSPost2010Prop44ColorRGB
 90
      255
102
RTVSPost2010PropOp44
 70
     1
102
RTVSPost2010Prop45
280
     0
102
RTVSPost2010PropOp45
 70
     1
102
RTVSPost2010Prop46
 90
       50
102
RTVSPost2010PropOp46
 70
     1
102
RTVSPost2010Prop47
 90
       50
102
RTVSPost2010PropOp47
 70
     1
102
RTVSPost2010Prop48
 90
       50
102
RTVSPost2010PropOp48
 70
     1
102
RTVSPost2010Prop49
280
     0
102
RTVSPost2010PropOp49
 70
     1
102
RTVSPost2010Prop50
 90
       50
102
RTVSPost2010PropOp50
 70
     1
102
RTVSPost2010Prop51ColorIndex
 90
      256
102
RTVSPost2010Prop51ColorRGB
 90
-16777216
102
RTVSPost2010PropOp51
 70
     0
102
RTVSPost2010Prop52
140
1.0
102
RTVSPost2010PropOp52
 70
     0
102
RTVSPost2010Prop53
 90
        2
102
RTVSPost2010PropOp53
 70
     1
102
RTVSPost2010Prop54
  1
strokes_ogs.tif
102
RTVSPost2010PropOp54
 70
     1
102
RTVSPost2010Prop55
280
     0
102
RTVSPost2010PropOp55
 70
     1
102
RTVSPost2010Prop56
140
1.0
102
RTVSPost2010PropOp56
 70
     1
102
RTVSPost2010Prop57
140
1.0
102
RTVSPost2010PropOp57
 70
     1
102
RTVSPropertyOp0
 70
     1
102
RTVSPropertyOp1
 70
     1
102
RTVSPropertyOp2
 70
     1
102
RTVSPropertyOp3
 70
     1
102
RTVSPropertyOp4
 70
     1
102
RTVSPropertyOp5
 70
     1
102
RTVSPropertyOp6
 70
     1
102
RTVSPropertyOp7
 70
     1
102
RTVSPropertyOp8
 70
     1
102
RTVSPropertyOp9
 70
     1
102
RTVSPropertyOp10
 70
     1
102
RTVSPropertyOp11
 70
     1
102
RTVSPropertyOp12
 70
     1
102
RTVSPropertyOp13
 70
     1
102
RTVSPropertyOp14
 70
     1
102
RTVSPropertyOp15
 70
     1
102
RTVSPropertyOp16
 70
     1
102
RTVSPropertyOp17
 70
     1
102
RTVSPropertyOp18
 70
     1
102
RTVSPropertyOp19
 70
     1
102
RTVSPropertyOp20
 70
     1
102
RTVSPropertyOp21
 70
     1
102
RTVSPropertyOp22
 70
     1
102
RTVSPropertyOp23
 70
     1
102
RTVSPropertyOp24
 70
     1
102
RTVSPropertyOp25
 70
     1
102
RTVSPropertyOp26
 70
     1
102
RTVSPropertyOp27
 70
     1
102
RTVSPropertyOp28
 70
     1
102
RTVSPropertyOp29
 70
     1
102
RTVSPropertyOp30
 70
     1
102
RTVSPropertyOp31
 70
     1
102
RTVSPropertyOp32
 70
     1
102
RTVSPropertyOp33
 70
     1
102
RTVSPropertyOp34
 70
     1
102
RTVSPropertyOp35
 70
     1
102
RTVSPropertyOp36
 70
     1
102
RTVSPropertyOp37
 70
     1
102
RTVSPropertyOp38
 70
     1
102
RTVSPropertyOp39
 70
     1
102
RTVSPropertyOp40
 70
     1
102
RTVSPropertyOp41
 70
     1
102
RTVSPropertyOp42
 70
     1
102
RTVSPropertyOp43
 70
     1
102
RTVSPropertyOp44
 70
     1
102
RTVSPropertyOp45
 70
     1
102
RTVSPropertyOp46
 70
     1
102
RTVSPropertyOp47
 70
     1
102
RTVSPropertyOp48
 70
     1
102
RTVSPropertyOp49
 70
     1
102
RTVSPropertyOp50
 70
     1
102
RTVSPropertyOp51
 70
     0
102
RTVSPropertyOp52
 70
     0
102
RTVSPropertyOp53
 70
     1
102
RTVSPropertyOp54
 70
     1
102
RTVSPropertyOp55
 70
     1
102
RTVSPropertyOp56
 70
     1
102
RTVSPropertyOp57
 70
     1
102
RTVSPropertyOp58
 70
     1
102
RTVSPropertyOp59
 70
     1
102
RTVSPropertyOp60
 70
     1
102
RTVSPropertyOp61
 70
     1
102
RTVSPropertyOp62
 70
     1
  0
XRECORD
  5
2577
102
{ACAD_REACTORS
330
2576
102
}
330
2576
100
AcDbXrecord
280
     1
102
RTVSPost2010Prop28
280
     0
102
RTVSPost2010PropOp28
 70
     1
102
RTVSPost2010Prop29
280
     1
102
RTVSPost2010PropOp29
 70
     1
102
RTVSPost2010Prop30
280
     1
102
RTVSPost2010PropOp30
 70
     1
102
RTVSPost2010Prop31
280
     0
102
RTVSPost2010PropOp31
 70
     1
102
RTVSPost2010Prop32
280
     0
102
RTVSPost2010PropOp32
 70
     1
102
RTVSPost2010Prop33
280
     0
102
RTVSPost2010PropOp33
 70
     1
102
RTVSPost2010Prop34
280
     0
102
RTVSPost2010PropOp34
 70
     1
102
RTVSPost2010Prop35
280
     0
102
RTVSPost2010PropOp35
 70
     1
102
RTVSPost2010Prop36
280
     0
102
RTVSPost2010PropOp36
 70
     1
102
RTVSPost2010Prop37
 90
       50
102
RTVSPost2010PropOp37
 70
     1
102
RTVSPost2010Prop38
140
0.0
102
RTVSPost2010PropOp38
 70
     1
102
RTVSPost2010Prop39
140
1.0
102
RTVSPost2010PropOp39
 70
     1
102
RTVSPost2010Prop40
 90
        0
102
RTVSPost2010PropOp40
 70
     1
102
RTVSPost2010Prop41ColorIndex
 90
       18
102
RTVSPost2010Prop41ColorRGB
 90
        0
102
RTVSPost2010PropOp41
 70
     1
102
RTVSPost2010Prop42
 90
       50
102
RTVSPost2010PropOp42
 70
     1
102
RTVSPost2010Prop43
 90
        3
102
RTVSPost2010PropOp43
 70
     1
102
RTVSPost2010Prop44ColorIndex
 90
        5
102
RTVSPost2010Prop44ColorRGB
 90
      255
102
RTVSPost2010PropOp44
 70
     1
102
RTVSPost2010Prop45
280
     0
102
RTVSPost2010PropOp45
 70
     1
102
RTVSPost2010Prop46
 90
       50
102
RTVSPost2010PropOp46
 70
     1
102
RTVSPost2010Prop47
 90
       50
102
RTVSPost2010PropOp47
 70
     1
102
RTVSPost2010Prop48
 90
       50
102
RTVSPost2010PropOp48
 70
     1
102
RTVSPost2010Prop49
280
     0
102
RTVSPost2010PropOp49
 70
     1
102
RTVSPost2010Prop50
 90
       50
102
RTVSPost2010PropOp50
 70
     1
102
RTVSPost2010Prop51ColorIndex
 90
      256
102
RTVSPost2010Prop51ColorRGB
 90
-16777216
102
RTVSPost2010PropOp51
 70
     0
102
RTVSPost2010Prop52
140
1.0
102
RTVSPost2010PropOp52
 70
     0
102
RTVSPost2010Prop53
 90
        2
102
RTVSPost2010PropOp53
 70
     1
102
RTVSPost2010Prop54
  1
strokes_ogs.tif
102
RTVSPost2010PropOp54
 70
     1
102
RTVSPost2010Prop55
280
     0
102
RTVSPost2010PropOp55
 70
     1
102
RTVSPost2010Prop56
140
1.0
102
RTVSPost2010PropOp56
 70
     1
102
RTVSPost2010Prop57
140
1.0
102
RTVSPost2010PropOp57
 70
     1
102
RTVSPropertyOp0
 70
     1
102
RTVSPropertyOp1
 70
     1
102
RTVSPropertyOp2
 70
     1
102
RTVSPropertyOp3
 70
     1
102
RTVSPropertyOp4
 70
     1
102
RTVSPropertyOp5
 70
     1
102
RTVSPropertyOp6
 70
     1
102
RTVSPropertyOp7
 70
     1
102
RTVSPropertyOp8
 70
     1
102
RTVSPropertyOp9
 70
     1
102
RTVSPropertyOp10
 70
     1
102
RTVSPropertyOp11
 70
     1
102
RTVSPropertyOp12
 70
     1
102
RTVSPropertyOp13
 70
     1
102
RTVSPropertyOp14
 70
     1
102
RTVSPropertyOp15
 70
     1
102
RTVSPropertyOp16
 70
     1
102
RTVSPropertyOp17
 70
     1
102
RTVSPropertyOp18
 70
     1
102
RTVSPropertyOp19
 70
     1
102
RTVSPropertyOp20
 70
     1
102
RTVSPropertyOp21
 70
     1
102
RTVSPropertyOp22
 70
     1
102
RTVSPropertyOp23
 70
     1
102
RTVSPropertyOp24
 70
     1
102
RTVSPropertyOp25
 70
     1
102
RTVSPropertyOp26
 70
     1
102
RTVSPropertyOp27
 70
     1
102
RTVSPropertyOp28
 70
     1
102
RTVSPropertyOp29
 70
     1
102
RTVSPropertyOp30
 70
     1
102
RTVSPropertyOp31
 70
     1
102
RTVSPropertyOp32
 70
     1
102
RTVSPropertyOp33
 70
     1
102
RTVSPropertyOp34
 70
     1
102
RTVSPropertyOp35
 70
     1
102
RTVSPropertyOp36
 70
     1
102
RTVSPropertyOp37
 70
     1
102
RTVSPropertyOp38
 70
     1
102
RTVSPropertyOp39
 70
     1
102
RTVSPropertyOp40
 70
     1
102
RTVSPropertyOp41
 70
     1
102
RTVSPropertyOp42
 70
     1
102
RTVSPropertyOp43
 70
     1
102
RTVSPropertyOp44
 70
     1
102
RTVSPropertyOp45
 70
     1
102
RTVSPropertyOp46
 70
     1
102
RTVSPropertyOp47
 70
     1
102
RTVSPropertyOp48
 70
     1
102
RTVSPropertyOp49
 70
     1
102
RTVSPropertyOp50
 70
     1
102
RTVSPropertyOp51
 70
     0
102
RTVSPropertyOp52
 70
     0
102
RTVSPropertyOp53
 70
     1
102
RTVSPropertyOp54
 70
     1
102
RTVSPropertyOp55
 70
     1
102
RTVSPropertyOp56
 70
     1
102
RTVSPropertyOp57
 70
     1
102
RTVSPropertyOp58
 70
     1
102
RTVSPropertyOp59
 70
     1
102
RTVSPropertyOp60
 70
     1
102
RTVSPropertyOp61
 70
     1
102
RTVSPropertyOp62
 70
     1
  0
XRECORD
  5
2575
102
{ACAD_REACTORS
330
2574
102
}
330
2574
100
AcDbXrecord
280
     1
102
RTVSPost2010Prop28
280
     0
102
RTVSPost2010PropOp28
 70
     1
102
RTVSPost2010Prop29
280
     1
102
RTVSPost2010PropOp29
 70
     1
102
RTVSPost2010Prop30
280
     1
102
RTVSPost2010PropOp30
 70
     1
102
RTVSPost2010Prop31
280
     0
102
RTVSPost2010PropOp31
 70
     1
102
RTVSPost2010Prop32
280
     0
102
RTVSPost2010PropOp32
 70
     1
102
RTVSPost2010Prop33
280
     0
102
RTVSPost2010PropOp33
 70
     1
102
RTVSPost2010Prop34
280
     0
102
RTVSPost2010PropOp34
 70
     1
102
RTVSPost2010Prop35
280
     0
102
RTVSPost2010PropOp35
 70
     1
102
RTVSPost2010Prop36
280
     0
102
RTVSPost2010PropOp36
 70
     1
102
RTVSPost2010Prop37
 90
       50
102
RTVSPost2010PropOp37
 70
     1
102
RTVSPost2010Prop38
140
0.0
102
RTVSPost2010PropOp38
 70
     1
102
RTVSPost2010Prop39
140
1.0
102
RTVSPost2010PropOp39
 70
     1
102
RTVSPost2010Prop40
 90
        0
102
RTVSPost2010PropOp40
 70
     1
102
RTVSPost2010Prop41ColorIndex
 90
       18
102
RTVSPost2010Prop41ColorRGB
 90
        0
102
RTVSPost2010PropOp41
 70
     1
102
RTVSPost2010Prop42
 90
       50
102
RTVSPost2010PropOp42
 70
     1
102
RTVSPost2010Prop43
 90
        3
102
RTVSPost2010PropOp43
 70
     1
102
RTVSPost2010Prop44ColorIndex
 90
        5
102
RTVSPost2010Prop44ColorRGB
 90
      255
102
RTVSPost2010PropOp44
 70
     1
102
RTVSPost2010Prop45
280
     0
102
RTVSPost2010PropOp45
 70
     1
102
RTVSPost2010Prop46
 90
       50
102
RTVSPost2010PropOp46
 70
     1
102
RTVSPost2010Prop47
 90
       50
102
RTVSPost2010PropOp47
 70
     1
102
RTVSPost2010Prop48
 90
       50
102
RTVSPost2010PropOp48
 70
     1
102
RTVSPost2010Prop49
280
     0
102
RTVSPost2010PropOp49
 70
     1
102
RTVSPost2010Prop50
 90
       50
102
RTVSPost2010PropOp50
 70
     1
102
RTVSPost2010Prop51ColorIndex
 90
      256
102
RTVSPost2010Prop51ColorRGB
 90
-16777216
102
RTVSPost2010PropOp51
 70
     0
102
RTVSPost2010Prop52
140
1.0
102
RTVSPost2010PropOp52
 70
     0
102
RTVSPost2010Prop53
 90
        2
102
RTVSPost2010PropOp53
 70
     1
102
RTVSPost2010Prop54
  1
strokes_ogs.tif
102
RTVSPost2010PropOp54
 70
     1
102
RTVSPost2010Prop55
280
     0
102
RTVSPost2010PropOp55
 70
     1
102
RTVSPost2010Prop56
140
1.0
102
RTVSPost2010PropOp56
 70
     1
102
RTVSPost2010Prop57
140
1.0
102
RTVSPost2010PropOp57
 70
     1
102
RTVSPropertyOp0
 70
     1
102
RTVSPropertyOp1
 70
     1
102
RTVSPropertyOp2
 70
     1
102
RTVSPropertyOp3
 70
     1
102
RTVSPropertyOp4
 70
     1
102
RTVSPropertyOp5
 70
     1
102
RTVSPropertyOp6
 70
     1
102
RTVSPropertyOp7
 70
     1
102
RTVSPropertyOp8
 70
     1
102
RTVSPropertyOp9
 70
     1
102
RTVSPropertyOp10
 70
     1
102
RTVSPropertyOp11
 70
     1
102
RTVSPropertyOp12
 70
     1
102
RTVSPropertyOp13
 70
     1
102
RTVSPropertyOp14
 70
     1
102
RTVSPropertyOp15
 70
     1
102
RTVSPropertyOp16
 70
     1
102
RTVSPropertyOp17
 70
     1
102
RTVSPropertyOp18
 70
     1
102
RTVSPropertyOp19
 70
     1
102
RTVSPropertyOp20
 70
     1
102
RTVSPropertyOp21
 70
     1
102
RTVSPropertyOp22
 70
     1
102
RTVSPropertyOp23
 70
     1
102
RTVSPropertyOp24
 70
     1
102
RTVSPropertyOp25
 70
     1
102
RTVSPropertyOp26
 70
     1
102
RTVSPropertyOp27
 70
     1
102
RTVSPropertyOp28
 70
     1
102
RTVSPropertyOp29
 70
     1
102
RTVSPropertyOp30
 70
     1
102
RTVSPropertyOp31
 70
     1
102
RTVSPropertyOp32
 70
     1
102
RTVSPropertyOp33
 70
     1
102
RTVSPropertyOp34
 70
     1
102
RTVSPropertyOp35
 70
     1
102
RTVSPropertyOp36
 70
     1
102
RTVSPropertyOp37
 70
     1
102
RTVSPropertyOp38
 70
     1
102
RTVSPropertyOp39
 70
     1
102
RTVSPropertyOp40
 70
     1
102
RTVSPropertyOp41
 70
     1
102
RTVSPropertyOp42
 70
     1
102
RTVSPropertyOp43
 70
     1
102
RTVSPropertyOp44
 70
     1
102
RTVSPropertyOp45
 70
     1
102
RTVSPropertyOp46
 70
     1
102
RTVSPropertyOp47
 70
     1
102
RTVSPropertyOp48
 70
     1
102
RTVSPropertyOp49
 70
     1
102
RTVSPropertyOp50
 70
     1
102
RTVSPropertyOp51
 70
     0
102
RTVSPropertyOp52
 70
     0
102
RTVSPropertyOp53
 70
     1
102
RTVSPropertyOp54
 70
     1
102
RTVSPropertyOp55
 70
     1
102
RTVSPropertyOp56
 70
     1
102
RTVSPropertyOp57
 70
     1
102
RTVSPropertyOp58
 70
     1
102
RTVSPropertyOp59
 70
     1
102
RTVSPropertyOp60
 70
     1
102
RTVSPropertyOp61
 70
     1
102
RTVSPropertyOp62
 70
     1
  0
XRECORD
  5
2571
102
{ACAD_REACTORS
330
2570
102
}
330
2570
100
AcDbXrecord
280
     1
102
RTVSPost2010Prop28
280
     0
102
RTVSPost2010PropOp28
 70
     1
102
RTVSPost2010Prop29
280
     1
102
RTVSPost2010PropOp29
 70
     1
102
RTVSPost2010Prop30
280
     1
102
RTVSPost2010PropOp30
 70
     1
102
RTVSPost2010Prop31
280
     0
102
RTVSPost2010PropOp31
 70
     1
102
RTVSPost2010Prop32
280
     0
102
RTVSPost2010PropOp32
 70
     1
102
RTVSPost2010Prop33
280
     0
102
RTVSPost2010PropOp33
 70
     1
102
RTVSPost2010Prop34
280
     0
102
RTVSPost2010PropOp34
 70
     1
102
RTVSPost2010Prop35
280
     0
102
RTVSPost2010PropOp35
 70
     1
102
RTVSPost2010Prop36
280
     0
102
RTVSPost2010PropOp36
 70
     1
102
RTVSPost2010Prop37
 90
       50
102
RTVSPost2010PropOp37
 70
     1
102
RTVSPost2010Prop38
140
0.0
102
RTVSPost2010PropOp38
 70
     1
102
RTVSPost2010Prop39
140
1.0
102
RTVSPost2010PropOp39
 70
     1
102
RTVSPost2010Prop40
 90
        0
102
RTVSPost2010PropOp40
 70
     1
102
RTVSPost2010Prop41ColorIndex
 90
       18
102
RTVSPost2010Prop41ColorRGB
 90
        0
102
RTVSPost2010PropOp41
 70
     1
102
RTVSPost2010Prop42
 90
       50
102
RTVSPost2010PropOp42
 70
     1
102
RTVSPost2010Prop43
 90
        3
102
RTVSPost2010PropOp43
 70
     1
102
RTVSPost2010Prop44ColorIndex
 90
        5
102
RTVSPost2010Prop44ColorRGB
 90
      255
102
RTVSPost2010PropOp44
 70
     1
102
RTVSPost2010Prop45
280
     0
102
RTVSPost2010PropOp45
 70
     1
102
RTVSPost2010Prop46
 90
       50
102
RTVSPost2010PropOp46
 70
     1
102
RTVSPost2010Prop47
 90
       50
102
RTVSPost2010PropOp47
 70
     1
102
RTVSPost2010Prop48
 90
       50
102
RTVSPost2010PropOp48
 70
     1
102
RTVSPost2010Prop49
280
     0
102
RTVSPost2010PropOp49
 70
     1
102
RTVSPost2010Prop50
 90
       50
102
RTVSPost2010PropOp50
 70
     1
102
RTVSPost2010Prop51ColorIndex
 90
      256
102
RTVSPost2010Prop51ColorRGB
 90
-16777216
102
RTVSPost2010PropOp51
 70
     0
102
RTVSPost2010Prop52
140
1.0
102
RTVSPost2010PropOp52
 70
     0
102
RTVSPost2010Prop53
 90
        2
102
RTVSPost2010PropOp53
 70
     1
102
RTVSPost2010Prop54
  1
strokes_ogs.tif
102
RTVSPost2010PropOp54
 70
     1
102
RTVSPost2010Prop55
280
     0
102
RTVSPost2010PropOp55
 70
     1
102
RTVSPost2010Prop56
140
1.0
102
RTVSPost2010PropOp56
 70
     1
102
RTVSPost2010Prop57
140
1.0
102
RTVSPost2010PropOp57
 70
     1
102
RTVSPropertyOp0
 70
     1
102
RTVSPropertyOp1
 70
     1
102
RTVSPropertyOp2
 70
     1
102
RTVSPropertyOp3
 70
     1
102
RTVSPropertyOp4
 70
     1
102
RTVSPropertyOp5
 70
     1
102
RTVSPropertyOp6
 70
     1
102
RTVSPropertyOp7
 70
     1
102
RTVSPropertyOp8
 70
     1
102
RTVSPropertyOp9
 70
     1
102
RTVSPropertyOp10
 70
     1
102
RTVSPropertyOp11
 70
     1
102
RTVSPropertyOp12
 70
     1
102
RTVSPropertyOp13
 70
     1
102
RTVSPropertyOp14
 70
     1
102
RTVSPropertyOp15
 70
     1
102
RTVSPropertyOp16
 70
     1
102
RTVSPropertyOp17
 70
     1
102
RTVSPropertyOp18
 70
     1
102
RTVSPropertyOp19
 70
     1
102
RTVSPropertyOp20
 70
     1
102
RTVSPropertyOp21
 70
     1
102
RTVSPropertyOp22
 70
     1
102
RTVSPropertyOp23
 70
     1
102
RTVSPropertyOp24
 70
     1
102
RTVSPropertyOp25
 70
     1
102
RTVSPropertyOp26
 70
     1
102
RTVSPropertyOp27
 70
     1
102
RTVSPropertyOp28
 70
     1
102
RTVSPropertyOp29
 70
     1
102
RTVSPropertyOp30
 70
     1
102
RTVSPropertyOp31
 70
     1
102
RTVSPropertyOp32
 70
     1
102
RTVSPropertyOp33
 70
     1
102
RTVSPropertyOp34
 70
     1
102
RTVSPropertyOp35
 70
     1
102
RTVSPropertyOp36
 70
     1
102
RTVSPropertyOp37
 70
     1
102
RTVSPropertyOp38
 70
     1
102
RTVSPropertyOp39
 70
     1
102
RTVSPropertyOp40
 70
     1
102
RTVSPropertyOp41
 70
     1
102
RTVSPropertyOp42
 70
     1
102
RTVSPropertyOp43
 70
     1
102
RTVSPropertyOp44
 70
     1
102
RTVSPropertyOp45
 70
     1
102
RTVSPropertyOp46
 70
     1
102
RTVSPropertyOp47
 70
     1
102
RTVSPropertyOp48
 70
     1
102
RTVSPropertyOp49
 70
     1
102
RTVSPropertyOp50
 70
     1
102
RTVSPropertyOp51
 70
     0
102
RTVSPropertyOp52
 70
     0
102
RTVSPropertyOp53
 70
     1
102
RTVSPropertyOp54
 70
     1
102
RTVSPropertyOp55
 70
     1
102
RTVSPropertyOp56
 70
     1
102
RTVSPropertyOp57
 70
     1
102
RTVSPropertyOp58
 70
     1
102
RTVSPropertyOp59
 70
     1
102
RTVSPropertyOp60
 70
     1
102
RTVSPropertyOp61
 70
     1
102
RTVSPropertyOp62
 70
     1
  0
XRECORD
  5
257F
102
{ACAD_REACTORS
330
257E
102
}
330
257E
100
AcDbXrecord
280
     1
102
RTVSPost2010Prop28
280
     0
102
RTVSPost2010PropOp28
 70
     1
102
RTVSPost2010Prop29
280
     1
102
RTVSPost2010PropOp29
 70
     1
102
RTVSPost2010Prop30
280
     1
102
RTVSPost2010PropOp30
 70
     1
102
RTVSPost2010Prop31
280
     0
102
RTVSPost2010PropOp31
 70
     1
102
RTVSPost2010Prop32
280
     0
102
RTVSPost2010PropOp32
 70
     1
102
RTVSPost2010Prop33
280
     0
102
RTVSPost2010PropOp33
 70
     1
102
RTVSPost2010Prop34
280
     0
102
RTVSPost2010PropOp34
 70
     1
102
RTVSPost2010Prop35
280
     0
102
RTVSPost2010PropOp35
 70
     1
102
RTVSPost2010Prop36
280
     0
102
RTVSPost2010PropOp36
 70
     1
102
RTVSPost2010Prop37
 90
       50
102
RTVSPost2010PropOp37
 70
     1
102
RTVSPost2010Prop38
140
0.0
102
RTVSPost2010PropOp38
 70
     1
102
RTVSPost2010Prop39
140
1.0
102
RTVSPost2010PropOp39
 70
     1
102
RTVSPost2010Prop40
 90
        0
102
RTVSPost2010PropOp40
 70
     1
102
RTVSPost2010Prop41ColorIndex
 90
       18
102
RTVSPost2010Prop41ColorRGB
 90
        0
102
RTVSPost2010PropOp41
 70
     1
102
RTVSPost2010Prop42
 90
       50
102
RTVSPost2010PropOp42
 70
     1
102
RTVSPost2010Prop43
 90
        3
102
RTVSPost2010PropOp43
 70
     1
102
RTVSPost2010Prop44ColorIndex
 90
        5
102
RTVSPost2010Prop44ColorRGB
 90
      255
102
RTVSPost2010PropOp44
 70
     1
102
RTVSPost2010Prop45
280
     0
102
RTVSPost2010PropOp45
 70
     1
102
RTVSPost2010Prop46
 90
       50
102
RTVSPost2010PropOp46
 70
     1
102
RTVSPost2010Prop47
 90
       50
102
RTVSPost2010PropOp47
 70
     1
102
RTVSPost2010Prop48
 90
       50
102
RTVSPost2010PropOp48
 70
     1
102
RTVSPost2010Prop49
280
     0
102
RTVSPost2010PropOp49
 70
     1
102
RTVSPost2010Prop50
 90
       50
102
RTVSPost2010PropOp50
 70
     1
102
RTVSPost2010Prop51ColorIndex
 90
      256
102
RTVSPost2010Prop51ColorRGB
 90
-16777216
102
RTVSPost2010PropOp51
 70
     0
102
RTVSPost2010Prop52
140
1.0
102
RTVSPost2010PropOp52
 70
     0
102
RTVSPost2010Prop53
 90
        2
102
RTVSPost2010PropOp53
 70
     1
102
RTVSPost2010Prop54
  1
strokes_ogs.tif
102
RTVSPost2010PropOp54
 70
     1
102
RTVSPost2010Prop55
280
     0
102
RTVSPost2010PropOp55
 70
     1
102
RTVSPost2010Prop56
140
1.0
102
RTVSPost2010PropOp56
 70
     1
102
RTVSPost2010Prop57
140
1.0
102
RTVSPost2010PropOp57
 70
     1
102
RTVSPropertyOp0
 70
     1
102
RTVSPropertyOp1
 70
     1
102
RTVSPropertyOp2
 70
     1
102
RTVSPropertyOp3
 70
     1
102
RTVSPropertyOp4
 70
     1
102
RTVSPropertyOp5
 70
     1
102
RTVSPropertyOp6
 70
     1
102
RTVSPropertyOp7
 70
     1
102
RTVSPropertyOp8
 70
     1
102
RTVSPropertyOp9
 70
     1
102
RTVSPropertyOp10
 70
     1
102
RTVSPropertyOp11
 70
     1
102
RTVSPropertyOp12
 70
     1
102
RTVSPropertyOp13
 70
     1
102
RTVSPropertyOp14
 70
     1
102
RTVSPropertyOp15
 70
     1
102
RTVSPropertyOp16
 70
     1
102
RTVSPropertyOp17
 70
     1
102
RTVSPropertyOp18
 70
     1
102
RTVSPropertyOp19
 70
     1
102
RTVSPropertyOp20
 70
     1
102
RTVSPropertyOp21
 70
     1
102
RTVSPropertyOp22
 70
     1
102
RTVSPropertyOp23
 70
     1
102
RTVSPropertyOp24
 70
     1
102
RTVSPropertyOp25
 70
     1
102
RTVSPropertyOp26
 70
     1
102
RTVSPropertyOp27
 70
     1
102
RTVSPropertyOp28
 70
     1
102
RTVSPropertyOp29
 70
     1
102
RTVSPropertyOp30
 70
     1
102
RTVSPropertyOp31
 70
     1
102
RTVSPropertyOp32
 70
     1
102
RTVSPropertyOp33
 70
     1
102
RTVSPropertyOp34
 70
     1
102
RTVSPropertyOp35
 70
     1
102
RTVSPropertyOp36
 70
     1
102
RTVSPropertyOp37
 70
     1
102
RTVSPropertyOp38
 70
     1
102
RTVSPropertyOp39
 70
     1
102
RTVSPropertyOp40
 70
     1
102
RTVSPropertyOp41
 70
     1
102
RTVSPropertyOp42
 70
     1
102
RTVSPropertyOp43
 70
     1
102
RTVSPropertyOp44
 70
     1
102
RTVSPropertyOp45
 70
     1
102
RTVSPropertyOp46
 70
     1
102
RTVSPropertyOp47
 70
     1
102
RTVSPropertyOp48
 70
     1
102
RTVSPropertyOp49
 70
     1
102
RTVSPropertyOp50
 70
     1
102
RTVSPropertyOp51
 70
     0
102
RTVSPropertyOp52
 70
     0
102
RTVSPropertyOp53
 70
     1
102
RTVSPropertyOp54
 70
     1
102
RTVSPropertyOp55
 70
     1
102
RTVSPropertyOp56
 70
     1
102
RTVSPropertyOp57
 70
     1
102
RTVSPropertyOp58
 70
     1
102
RTVSPropertyOp59
 70
     1
102
RTVSPropertyOp60
 70
     1
102
RTVSPropertyOp61
 70
     1
102
RTVSPropertyOp62
 70
     1
  0
XRECORD
  5
2587
102
{ACAD_REACTORS
330
2586
102
}
330
2586
100
AcDbXrecord
280
     1
102
RTVSPost2010Prop28
280
     0
102
RTVSPost2010PropOp28
 70
     1
102
RTVSPost2010Prop29
280
     1
102
RTVSPost2010PropOp29
 70
     1
102
RTVSPost2010Prop30
280
     1
102
RTVSPost2010PropOp30
 70
     1
102
RTVSPost2010Prop31
280
     0
102
RTVSPost2010PropOp31
 70
     1
102
RTVSPost2010Prop32
280
     0
102
RTVSPost2010PropOp32
 70
     1
102
RTVSPost2010Prop33
280
     0
102
RTVSPost2010PropOp33
 70
     1
102
RTVSPost2010Prop34
280
     0
102
RTVSPost2010PropOp34
 70
     1
102
RTVSPost2010Prop35
280
     0
102
RTVSPost2010PropOp35
 70
     1
102
RTVSPost2010Prop36
280
     0
102
RTVSPost2010PropOp36
 70
     1
102
RTVSPost2010Prop37
 90
       50
102
RTVSPost2010PropOp37
 70
     1
102
RTVSPost2010Prop38
140
0.0
102
RTVSPost2010PropOp38
 70
     1
102
RTVSPost2010Prop39
140
1.0
102
RTVSPost2010PropOp39
 70
     1
102
RTVSPost2010Prop40
 90
        0
102
RTVSPost2010PropOp40
 70
     1
102
RTVSPost2010Prop41ColorIndex
 90
       18
102
RTVSPost2010Prop41ColorRGB
 90
        0
102
RTVSPost2010PropOp41
 70
     1
102
RTVSPost2010Prop42
 90
       50
102
RTVSPost2010PropOp42
 70
     1
102
RTVSPost2010Prop43
 90
        3
102
RTVSPost2010PropOp43
 70
     1
102
RTVSPost2010Prop44ColorIndex
 90
        5
102
RTVSPost2010Prop44ColorRGB
 90
      255
102
RTVSPost2010PropOp44
 70
     1
102
RTVSPost2010Prop45
280
     0
102
RTVSPost2010PropOp45
 70
     1
102
RTVSPost2010Prop46
 90
       50
102
RTVSPost2010PropOp46
 70
     1
102
RTVSPost2010Prop47
 90
       50
102
RTVSPost2010PropOp47
 70
     1
102
RTVSPost2010Prop48
 90
       50
102
RTVSPost2010PropOp48
 70
     1
102
RTVSPost2010Prop49
280
     0
102
RTVSPost2010PropOp49
 70
     1
102
RTVSPost2010Prop50
 90
       50
102
RTVSPost2010PropOp50
 70
     1
102
RTVSPost2010Prop51ColorIndex
 90
      256
102
RTVSPost2010Prop51ColorRGB
 90
-16777216
102
RTVSPost2010PropOp51
 70
     0
102
RTVSPost2010Prop52
140
1.0
102
RTVSPost2010PropOp52
 70
     0
102
RTVSPost2010Prop53
 90
        2
102
RTVSPost2010PropOp53
 70
     1
102
RTVSPost2010Prop54
  1
strokes_ogs.tif
102
RTVSPost2010PropOp54
 70
     1
102
RTVSPost2010Prop55
280
     0
102
RTVSPost2010PropOp55
 70
     1
102
RTVSPost2010Prop56
140
1.0
102
RTVSPost2010PropOp56
 70
     1
102
RTVSPost2010Prop57
140
1.0
102
RTVSPost2010PropOp57
 70
     1
102
RTVSPropertyOp0
 70
     1
102
RTVSPropertyOp1
 70
     1
102
RTVSPropertyOp2
 70
     1
102
RTVSPropertyOp3
 70
     1
102
RTVSPropertyOp4
 70
     1
102
RTVSPropertyOp5
 70
     1
102
RTVSPropertyOp6
 70
     1
102
RTVSPropertyOp7
 70
     1
102
RTVSPropertyOp8
 70
     1
102
RTVSPropertyOp9
 70
     1
102
RTVSPropertyOp10
 70
     1
102
RTVSPropertyOp11
 70
     1
102
RTVSPropertyOp12
 70
     1
102
RTVSPropertyOp13
 70
     1
102
RTVSPropertyOp14
 70
     1
102
RTVSPropertyOp15
 70
     1
102
RTVSPropertyOp16
 70
     1
102
RTVSPropertyOp17
 70
     1
102
RTVSPropertyOp18
 70
     1
102
RTVSPropertyOp19
 70
     1
102
RTVSPropertyOp20
 70
     1
102
RTVSPropertyOp21
 70
     1
102
RTVSPropertyOp22
 70
     1
102
RTVSPropertyOp23
 70
     1
102
RTVSPropertyOp24
 70
     1
102
RTVSPropertyOp25
 70
     1
102
RTVSPropertyOp26
 70
     1
102
RTVSPropertyOp27
 70
     1
102
RTVSPropertyOp28
 70
     1
102
RTVSPropertyOp29
 70
     1
102
RTVSPropertyOp30
 70
     1
102
RTVSPropertyOp31
 70
     1
102
RTVSPropertyOp32
 70
     1
102
RTVSPropertyOp33
 70
     1
102
RTVSPropertyOp34
 70
     1
102
RTVSPropertyOp35
 70
     1
102
RTVSPropertyOp36
 70
     1
102
RTVSPropertyOp37
 70
     1
102
RTVSPropertyOp38
 70
     1
102
RTVSPropertyOp39
 70
     1
102
RTVSPropertyOp40
 70
     1
102
RTVSPropertyOp41
 70
     1
102
RTVSPropertyOp42
 70
     1
102
RTVSPropertyOp43
 70
     1
102
RTVSPropertyOp44
 70
     1
102
RTVSPropertyOp45
 70
     1
102
RTVSPropertyOp46
 70
     1
102
RTVSPropertyOp47
 70
     1
102
RTVSPropertyOp48
 70
     1
102
RTVSPropertyOp49
 70
     1
102
RTVSPropertyOp50
 70
     1
102
RTVSPropertyOp51
 70
     0
102
RTVSPropertyOp52
 70
     0
102
RTVSPropertyOp53
 70
     1
102
RTVSPropertyOp54
 70
     1
102
RTVSPropertyOp55
 70
     1
102
RTVSPropertyOp56
 70
     1
102
RTVSPropertyOp57
 70
     1
102
RTVSPropertyOp58
 70
     1
102
RTVSPropertyOp59
 70
     1
102
RTVSPropertyOp60
 70
     1
102
RTVSPropertyOp61
 70
     1
102
RTVSPropertyOp62
 70
     1
  0
XRECORD
  5
2579
102
{ACAD_REACTORS
330
2578
102
}
330
2578
100
AcDbXrecord
280
     1
102
RTVSPost2010Prop28
280
     0
102
RTVSPost2010PropOp28
 70
     1
102
RTVSPost2010Prop29
280
     1
102
RTVSPost2010PropOp29
 70
     1
102
RTVSPost2010Prop30
280
     1
102
RTVSPost2010PropOp30
 70
     1
102
RTVSPost2010Prop31
280
     0
102
RTVSPost2010PropOp31
 70
     1
102
RTVSPost2010Prop32
280
     0
102
RTVSPost2010PropOp32
 70
     1
102
RTVSPost2010Prop33
280
     0
102
RTVSPost2010PropOp33
 70
     1
102
RTVSPost2010Prop34
280
     0
102
RTVSPost2010PropOp34
 70
     1
102
RTVSPost2010Prop35
280
     0
102
RTVSPost2010PropOp35
 70
     1
102
RTVSPost2010Prop36
280
     0
102
RTVSPost2010PropOp36
 70
     1
102
RTVSPost2010Prop37
 90
       50
102
RTVSPost2010PropOp37
 70
     1
102
RTVSPost2010Prop38
140
0.0
102
RTVSPost2010PropOp38
 70
     1
102
RTVSPost2010Prop39
140
1.0
102
RTVSPost2010PropOp39
 70
     1
102
RTVSPost2010Prop40
 90
        0
102
RTVSPost2010PropOp40
 70
     1
102
RTVSPost2010Prop41ColorIndex
 90
       18
102
RTVSPost2010Prop41ColorRGB
 90
        0
102
RTVSPost2010PropOp41
 70
     1
102
RTVSPost2010Prop42
 90
       50
102
RTVSPost2010PropOp42
 70
     1
102
RTVSPost2010Prop43
 90
        3
102
RTVSPost2010PropOp43
 70
     1
102
RTVSPost2010Prop44ColorIndex
 90
        5
102
RTVSPost2010Prop44ColorRGB
 90
      255
102
RTVSPost2010PropOp44
 70
     1
102
RTVSPost2010Prop45
280
     0
102
RTVSPost2010PropOp45
 70
     1
102
RTVSPost2010Prop46
 90
       50
102
RTVSPost2010PropOp46
 70
     1
102
RTVSPost2010Prop47
 90
       50
102
RTVSPost2010PropOp47
 70
     1
102
RTVSPost2010Prop48
 90
       50
102
RTVSPost2010PropOp48
 70
     1
102
RTVSPost2010Prop49
280
     0
102
RTVSPost2010PropOp49
 70
     1
102
RTVSPost2010Prop50
 90
       50
102
RTVSPost2010PropOp50
 70
     1
102
RTVSPost2010Prop51ColorIndex
 90
      256
102
RTVSPost2010Prop51ColorRGB
 90
-16777216
102
RTVSPost2010PropOp51
 70
     0
102
RTVSPost2010Prop52
140
1.0
102
RTVSPost2010PropOp52
 70
     0
102
RTVSPost2010Prop53
 90
        2
102
RTVSPost2010PropOp53
 70
     1
102
RTVSPost2010Prop54
  1
strokes_ogs.tif
102
RTVSPost2010PropOp54
 70
     1
102
RTVSPost2010Prop55
280
     0
102
RTVSPost2010PropOp55
 70
     1
102
RTVSPost2010Prop56
140
1.0
102
RTVSPost2010PropOp56
 70
     1
102
RTVSPost2010Prop57
140
1.0
102
RTVSPost2010PropOp57
 70
     1
102
RTVSPropertyOp0
 70
     1
102
RTVSPropertyOp1
 70
     1
102
RTVSPropertyOp2
 70
     1
102
RTVSPropertyOp3
 70
     1
102
RTVSPropertyOp4
 70
     1
102
RTVSPropertyOp5
 70
     1
102
RTVSPropertyOp6
 70
     1
102
RTVSPropertyOp7
 70
     1
102
RTVSPropertyOp8
 70
     1
102
RTVSPropertyOp9
 70
     1
102
RTVSPropertyOp10
 70
     1
102
RTVSPropertyOp11
 70
     1
102
RTVSPropertyOp12
 70
     1
102
RTVSPropertyOp13
 70
     1
102
RTVSPropertyOp14
 70
     1
102
RTVSPropertyOp15
 70
     1
102
RTVSPropertyOp16
 70
     1
102
RTVSPropertyOp17
 70
     1
102
RTVSPropertyOp18
 70
     1
102
RTVSPropertyOp19
 70
     1
102
RTVSPropertyOp20
 70
     1
102
RTVSPropertyOp21
 70
     1
102
RTVSPropertyOp22
 70
     1
102
RTVSPropertyOp23
 70
     1
102
RTVSPropertyOp24
 70
     1
102
RTVSPropertyOp25
 70
     1
102
RTVSPropertyOp26
 70
     1
102
RTVSPropertyOp27
 70
     1
102
RTVSPropertyOp28
 70
     1
102
RTVSPropertyOp29
 70
     1
102
RTVSPropertyOp30
 70
     1
102
RTVSPropertyOp31
 70
     1
102
RTVSPropertyOp32
 70
     1
102
RTVSPropertyOp33
 70
     1
102
RTVSPropertyOp34
 70
     1
102
RTVSPropertyOp35
 70
     1
102
RTVSPropertyOp36
 70
     1
102
RTVSPropertyOp37
 70
     1
102
RTVSPropertyOp38
 70
     1
102
RTVSPropertyOp39
 70
     1
102
RTVSPropertyOp40
 70
     1
102
RTVSPropertyOp41
 70
     1
102
RTVSPropertyOp42
 70
     1
102
RTVSPropertyOp43
 70
     1
102
RTVSPropertyOp44
 70
     1
102
RTVSPropertyOp45
 70
     1
102
RTVSPropertyOp46
 70
     1
102
RTVSPropertyOp47
 70
     1
102
RTVSPropertyOp48
 70
     1
102
RTVSPropertyOp49
 70
     1
102
RTVSPropertyOp50
 70
     1
102
RTVSPropertyOp51
 70
     0
102
RTVSPropertyOp52
 70
     0
102
RTVSPropertyOp53
 70
     1
102
RTVSPropertyOp54
 70
     1
102
RTVSPropertyOp55
 70
     1
102
RTVSPropertyOp56
 70
     1
102
RTVSPropertyOp57
 70
     1
102
RTVSPropertyOp58
 70
     1
102
RTVSPropertyOp59
 70
     1
102
RTVSPropertyOp60
 70
     1
102
RTVSPropertyOp61
 70
     1
102
RTVSPropertyOp62
 70
     1
  0
XRECORD
  5
257D
102
{ACAD_REACTORS
330
257C
102
}
330
257C
100
AcDbXrecord
280
     1
102
RTVSPost2010Prop28
280
     0
102
RTVSPost2010PropOp28
 70
     1
102
RTVSPost2010Prop29
280
     1
102
RTVSPost2010PropOp29
 70
     1
102
RTVSPost2010Prop30
280
     1
102
RTVSPost2010PropOp30
 70
     1
102
RTVSPost2010Prop31
280
     0
102
RTVSPost2010PropOp31
 70
     1
102
RTVSPost2010Prop32
280
     0
102
RTVSPost2010PropOp32
 70
     1
102
RTVSPost2010Prop33
280
     0
102
RTVSPost2010PropOp33
 70
     1
102
RTVSPost2010Prop34
280
     0
102
RTVSPost2010PropOp34
 70
     1
102
RTVSPost2010Prop35
280
     0
102
RTVSPost2010PropOp35
 70
     1
102
RTVSPost2010Prop36
280
     0
102
RTVSPost2010PropOp36
 70
     1
102
RTVSPost2010Prop37
 90
       50
102
RTVSPost2010PropOp37
 70
     1
102
RTVSPost2010Prop38
140
0.0
102
RTVSPost2010PropOp38
 70
     1
102
RTVSPost2010Prop39
140
1.0
102
RTVSPost2010PropOp39
 70
     1
102
RTVSPost2010Prop40
 90
        0
102
RTVSPost2010PropOp40
 70
     1
102
RTVSPost2010Prop41ColorIndex
 90
       18
102
RTVSPost2010Prop41ColorRGB
 90
        0
102
RTVSPost2010PropOp41
 70
     1
102
RTVSPost2010Prop42
 90
       50
102
RTVSPost2010PropOp42
 70
     1
102
RTVSPost2010Prop43
 90
        3
102
RTVSPost2010PropOp43
 70
     1
102
RTVSPost2010Prop44ColorIndex
 90
        5
102
RTVSPost2010Prop44ColorRGB
 90
      255
102
RTVSPost2010PropOp44
 70
     1
102
RTVSPost2010Prop45
280
     0
102
RTVSPost2010PropOp45
 70
     1
102
RTVSPost2010Prop46
 90
       50
102
RTVSPost2010PropOp46
 70
     1
102
RTVSPost2010Prop47
 90
       50
102
RTVSPost2010PropOp47
 70
     1
102
RTVSPost2010Prop48
 90
       50
102
RTVSPost2010PropOp48
 70
     1
102
RTVSPost2010Prop49
280
     0
102
RTVSPost2010PropOp49
 70
     1
102
RTVSPost2010Prop50
 90
       50
102
RTVSPost2010PropOp50
 70
     1
102
RTVSPost2010Prop51ColorIndex
 90
      256
102
RTVSPost2010Prop51ColorRGB
 90
-16777216
102
RTVSPost2010PropOp51
 70
     0
102
RTVSPost2010Prop52
140
1.0
102
RTVSPost2010PropOp52
 70
     0
102
RTVSPost2010Prop53
 90
        2
102
RTVSPost2010PropOp53
 70
     1
102
RTVSPost2010Prop54
  1
strokes_ogs.tif
102
RTVSPost2010PropOp54
 70
     1
102
RTVSPost2010Prop55
280
     0
102
RTVSPost2010PropOp55
 70
     1
102
RTVSPost2010Prop56
140
1.0
102
RTVSPost2010PropOp56
 70
     1
102
RTVSPost2010Prop57
140
1.0
102
RTVSPost2010PropOp57
 70
     1
102
RTVSPropertyOp0
 70
     1
102
RTVSPropertyOp1
 70
     1
102
RTVSPropertyOp2
 70
     1
102
RTVSPropertyOp3
 70
     1
102
RTVSPropertyOp4
 70
     1
102
RTVSPropertyOp5
 70
     1
102
RTVSPropertyOp6
 70
     1
102
RTVSPropertyOp7
 70
     1
102
RTVSPropertyOp8
 70
     1
102
RTVSPropertyOp9
 70
     1
102
RTVSPropertyOp10
 70
     1
102
RTVSPropertyOp11
 70
     1
102
RTVSPropertyOp12
 70
     1
102
RTVSPropertyOp13
 70
     1
102
RTVSPropertyOp14
 70
     1
102
RTVSPropertyOp15
 70
     1
102
RTVSPropertyOp16
 70
     1
102
RTVSPropertyOp17
 70
     1
102
RTVSPropertyOp18
 70
     1
102
RTVSPropertyOp19
 70
     1
102
RTVSPropertyOp20
 70
     1
102
RTVSPropertyOp21
 70
     1
102
RTVSPropertyOp22
 70
     1
102
RTVSPropertyOp23
 70
     1
102
RTVSPropertyOp24
 70
     1
102
RTVSPropertyOp25
 70
     1
102
RTVSPropertyOp26
 70
     1
102
RTVSPropertyOp27
 70
     1
102
RTVSPropertyOp28
 70
     1
102
RTVSPropertyOp29
 70
     1
102
RTVSPropertyOp30
 70
     1
102
RTVSPropertyOp31
 70
     1
102
RTVSPropertyOp32
 70
     1
102
RTVSPropertyOp33
 70
     1
102
RTVSPropertyOp34
 70
     1
102
RTVSPropertyOp35
 70
     1
102
RTVSPropertyOp36
 70
     1
102
RTVSPropertyOp37
 70
     1
102
RTVSPropertyOp38
 70
     1
102
RTVSPropertyOp39
 70
     1
102
RTVSPropertyOp40
 70
     1
102
RTVSPropertyOp41
 70
     1
102
RTVSPropertyOp42
 70
     1
102
RTVSPropertyOp43
 70
     1
102
RTVSPropertyOp44
 70
     1
102
RTVSPropertyOp45
 70
     1
102
RTVSPropertyOp46
 70
     1
102
RTVSPropertyOp47
 70
     1
102
RTVSPropertyOp48
 70
     1
102
RTVSPropertyOp49
 70
     1
102
RTVSPropertyOp50
 70
     1
102
RTVSPropertyOp51
 70
     0
102
RTVSPropertyOp52
 70
     0
102
RTVSPropertyOp53
 70
     1
102
RTVSPropertyOp54
 70
     1
102
RTVSPropertyOp55
 70
     1
102
RTVSPropertyOp56
 70
     1
102
RTVSPropertyOp57
 70
     1
102
RTVSPropertyOp58
 70
     1
102
RTVSPropertyOp59
 70
     1
102
RTVSPropertyOp60
 70
     1
102
RTVSPropertyOp61
 70
     1
102
RTVSPropertyOp62
 70
     1
  0
XRECORD
  5
258E
102
{ACAD_REACTORS
330
258D
102
}
330
258D
100
AcDbXrecord
280
     1
102
RTVSPost2010Prop28
280
     0
102
RTVSPost2010PropOp28
 70
     1
102
RTVSPost2010Prop29
280
     1
102
RTVSPost2010PropOp29
 70
     1
102
RTVSPost2010Prop30
280
     1
102
RTVSPost2010PropOp30
 70
     1
102
RTVSPost2010Prop31
280
     0
102
RTVSPost2010PropOp31
 70
     1
102
RTVSPost2010Prop32
280
     0
102
RTVSPost2010PropOp32
 70
     1
102
RTVSPost2010Prop33
280
     0
102
RTVSPost2010PropOp33
 70
     1
102
RTVSPost2010Prop34
280
     0
102
RTVSPost2010PropOp34
 70
     1
102
RTVSPost2010Prop35
280
     0
102
RTVSPost2010PropOp35
 70
     1
102
RTVSPost2010Prop36
280
     0
102
RTVSPost2010PropOp36
 70
     1
102
RTVSPost2010Prop37
 90
       50
102
RTVSPost2010PropOp37
 70
     1
102
RTVSPost2010Prop38
140
0.0
102
RTVSPost2010PropOp38
 70
     1
102
RTVSPost2010Prop39
140
1.0
102
RTVSPost2010PropOp39
 70
     1
102
RTVSPost2010Prop40
 90
        0
102
RTVSPost2010PropOp40
 70
     1
102
RTVSPost2010Prop41ColorIndex
 90
       18
102
RTVSPost2010Prop41ColorRGB
 90
        0
102
RTVSPost2010PropOp41
 70
     1
102
RTVSPost2010Prop42
 90
       50
102
RTVSPost2010PropOp42
 70
     1
102
RTVSPost2010Prop43
 90
        3
102
RTVSPost2010PropOp43
 70
     1
102
RTVSPost2010Prop44ColorIndex
 90
        5
102
RTVSPost2010Prop44ColorRGB
 90
      255
102
RTVSPost2010PropOp44
 70
     1
102
RTVSPost2010Prop45
280
     0
102
RTVSPost2010PropOp45
 70
     1
102
RTVSPost2010Prop46
 90
       50
102
RTVSPost2010PropOp46
 70
     1
102
RTVSPost2010Prop47
 90
       50
102
RTVSPost2010PropOp47
 70
     1
102
RTVSPost2010Prop48
 90
       50
102
RTVSPost2010PropOp48
 70
     1
102
RTVSPost2010Prop49
280
     0
102
RTVSPost2010PropOp49
 70
     1
102
RTVSPost2010Prop50
 90
       50
102
RTVSPost2010PropOp50
 70
     1
102
RTVSPost2010Prop51ColorIndex
 90
      256
102
RTVSPost2010Prop51ColorRGB
 90
-16777216
102
RTVSPost2010PropOp51
 70
     0
102
RTVSPost2010Prop52
140
1.0
102
RTVSPost2010PropOp52
 70
     0
102
RTVSPost2010Prop53
 90
        2
102
RTVSPost2010PropOp53
 70
     1
102
RTVSPost2010Prop54
  1
strokes_ogs.tif
102
RTVSPost2010PropOp54
 70
     1
102
RTVSPost2010Prop55
280
     0
102
RTVSPost2010PropOp55
 70
     1
102
RTVSPost2010Prop56
140
1.0
102
RTVSPost2010PropOp56
 70
     1
102
RTVSPost2010Prop57
140
1.0
102
RTVSPost2010PropOp57
 70
     1
102
RTVSPropertyOp0
 70
     0
102
RTVSPropertyOp1
 70
     0
102
RTVSPropertyOp2
 70
     0
102
RTVSPropertyOp3
 70
     0
102
RTVSPropertyOp4
 70
     0
102
RTVSPropertyOp5
 70
     0
102
RTVSPropertyOp6
 70
     0
102
RTVSPropertyOp7
 70
     0
102
RTVSPropertyOp8
 70
     0
102
RTVSPropertyOp9
 70
     0
102
RTVSPropertyOp10
 70
     0
102
RTVSPropertyOp11
 70
     0
102
RTVSPropertyOp12
 70
     0
102
RTVSPropertyOp13
 70
     0
102
RTVSPropertyOp14
 70
     2
102
RTVSPropertyOp15
 70
     0
102
RTVSPropertyOp16
 70
     0
102
RTVSPropertyOp17
 70
     0
102
RTVSPropertyOp18
 70
     0
102
RTVSPropertyOp19
 70
     0
102
RTVSPropertyOp20
 70
     0
102
RTVSPropertyOp21
 70
     0
102
RTVSPropertyOp22
 70
     0
102
RTVSPropertyOp23
 70
     0
102
RTVSPropertyOp24
 70
     0
102
RTVSPropertyOp25
 70
     0
102
RTVSPropertyOp26
 70
     0
102
RTVSPropertyOp27
 70
     0
102
RTVSPropertyOp28
 70
     1
102
RTVSPropertyOp29
 70
     1
102
RTVSPropertyOp30
 70
     1
102
RTVSPropertyOp31
 70
     1
102
RTVSPropertyOp32
 70
     1
102
RTVSPropertyOp33
 70
     1
102
RTVSPropertyOp34
 70
     1
102
RTVSPropertyOp35
 70
     1
102
RTVSPropertyOp36
 70
     1
102
RTVSPropertyOp37
 70
     1
102
RTVSPropertyOp38
 70
     1
102
RTVSPropertyOp39
 70
     1
102
RTVSPropertyOp40
 70
     1
102
RTVSPropertyOp41
 70
     1
102
RTVSPropertyOp42
 70
     1
102
RTVSPropertyOp43
 70
     1
102
RTVSPropertyOp44
 70
     1
102
RTVSPropertyOp45
 70
     1
102
RTVSPropertyOp46
 70
     1
102
RTVSPropertyOp47
 70
     1
102
RTVSPropertyOp48
 70
     1
102
RTVSPropertyOp49
 70
     1
102
RTVSPropertyOp50
 70
     1
102
RTVSPropertyOp51
 70
     0
102
RTVSPropertyOp52
 70
     0
102
RTVSPropertyOp53
 70
     1
102
RTVSPropertyOp54
 70
     1
102
RTVSPropertyOp55
 70
     1
102
RTVSPropertyOp56
 70
     1
102
RTVSPropertyOp57
 70
     1
102
RTVSPropertyOp58
 70
     1
102
RTVSPropertyOp59
 70
     1
102
RTVSPropertyOp60
 70
     1
102
RTVSPropertyOp61
 70
     1
102
RTVSPropertyOp62
 70
     1
  0
XRECORD
  5
2585
102
{ACAD_REACTORS
330
2584
102
}
330
2584
100
AcDbXrecord
280
     1
102
RTVSPost2010Prop28
280
     0
102
RTVSPost2010PropOp28
 70
     1
102
RTVSPost2010Prop29
280
     1
102
RTVSPost2010PropOp29
 70
     1
102
RTVSPost2010Prop30
280
     1
102
RTVSPost2010PropOp30
 70
     1
102
RTVSPost2010Prop31
280
     0
102
RTVSPost2010PropOp31
 70
     1
102
RTVSPost2010Prop32
280
     0
102
RTVSPost2010PropOp32
 70
     1
102
RTVSPost2010Prop33
280
     0
102
RTVSPost2010PropOp33
 70
     1
102
RTVSPost2010Prop34
280
     0
102
RTVSPost2010PropOp34
 70
     1
102
RTVSPost2010Prop35
280
     0
102
RTVSPost2010PropOp35
 70
     1
102
RTVSPost2010Prop36
280
     0
102
RTVSPost2010PropOp36
 70
     1
102
RTVSPost2010Prop37
 90
       50
102
RTVSPost2010PropOp37
 70
     1
102
RTVSPost2010Prop38
140
0.0
102
RTVSPost2010PropOp38
 70
     1
102
RTVSPost2010Prop39
140
1.0
102
RTVSPost2010PropOp39
 70
     1
102
RTVSPost2010Prop40
 90
        0
102
RTVSPost2010PropOp40
 70
     1
102
RTVSPost2010Prop41ColorIndex
 90
       18
102
RTVSPost2010Prop41ColorRGB
 90
        0
102
RTVSPost2010PropOp41
 70
     1
102
RTVSPost2010Prop42
 90
       50
102
RTVSPost2010PropOp42
 70
     1
102
RTVSPost2010Prop43
 90
        3
102
RTVSPost2010PropOp43
 70
     1
102
RTVSPost2010Prop44ColorIndex
 90
        5
102
RTVSPost2010Prop44ColorRGB
 90
      255
102
RTVSPost2010PropOp44
 70
     1
102
RTVSPost2010Prop45
280
     0
102
RTVSPost2010PropOp45
 70
     1
102
RTVSPost2010Prop46
 90
       50
102
RTVSPost2010PropOp46
 70
     1
102
RTVSPost2010Prop47
 90
       50
102
RTVSPost2010PropOp47
 70
     1
102
RTVSPost2010Prop48
 90
       50
102
RTVSPost2010PropOp48
 70
     1
102
RTVSPost2010Prop49
280
     0
102
RTVSPost2010PropOp49
 70
     1
102
RTVSPost2010Prop50
 90
       50
102
RTVSPost2010PropOp50
 70
     1
102
RTVSPost2010Prop51ColorIndex
 90
      256
102
RTVSPost2010Prop51ColorRGB
 90
-16777216
102
RTVSPost2010PropOp51
 70
     0
102
RTVSPost2010Prop52
140
1.0
102
RTVSPost2010PropOp52
 70
     0
102
RTVSPost2010Prop53
 90
        2
102
RTVSPost2010PropOp53
 70
     1
102
RTVSPost2010Prop54
  1
strokes_ogs.tif
102
RTVSPost2010PropOp54
 70
     1
102
RTVSPost2010Prop55
280
     0
102
RTVSPost2010PropOp55
 70
     1
102
RTVSPost2010Prop56
140
1.0
102
RTVSPost2010PropOp56
 70
     1
102
RTVSPost2010Prop57
140
1.0
102
RTVSPost2010PropOp57
 70
     1
102
RTVSPropertyOp0
 70
     1
102
RTVSPropertyOp1
 70
     1
102
RTVSPropertyOp2
 70
     1
102
RTVSPropertyOp3
 70
     1
102
RTVSPropertyOp4
 70
     1
102
RTVSPropertyOp5
 70
     1
102
RTVSPropertyOp6
 70
     1
102
RTVSPropertyOp7
 70
     1
102
RTVSPropertyOp8
 70
     1
102
RTVSPropertyOp9
 70
     1
102
RTVSPropertyOp10
 70
     1
102
RTVSPropertyOp11
 70
     1
102
RTVSPropertyOp12
 70
     1
102
RTVSPropertyOp13
 70
     1
102
RTVSPropertyOp14
 70
     1
102
RTVSPropertyOp15
 70
     1
102
RTVSPropertyOp16
 70
     1
102
RTVSPropertyOp17
 70
     1
102
RTVSPropertyOp18
 70
     1
102
RTVSPropertyOp19
 70
     1
102
RTVSPropertyOp20
 70
     1
102
RTVSPropertyOp21
 70
     1
102
RTVSPropertyOp22
 70
     1
102
RTVSPropertyOp23
 70
     1
102
RTVSPropertyOp24
 70
     1
102
RTVSPropertyOp25
 70
     1
102
RTVSPropertyOp26
 70
     1
102
RTVSPropertyOp27
 70
     1
102
RTVSPropertyOp28
 70
     1
102
RTVSPropertyOp29
 70
     1
102
RTVSPropertyOp30
 70
     1
102
RTVSPropertyOp31
 70
     1
102
RTVSPropertyOp32
 70
     1
102
RTVSPropertyOp33
 70
     1
102
RTVSPropertyOp34
 70
     1
102
RTVSPropertyOp35
 70
     1
102
RTVSPropertyOp36
 70
     1
102
RTVSPropertyOp37
 70
     1
102
RTVSPropertyOp38
 70
     1
102
RTVSPropertyOp39
 70
     1
102
RTVSPropertyOp40
 70
     1
102
RTVSPropertyOp41
 70
     1
102
RTVSPropertyOp42
 70
     1
102
RTVSPropertyOp43
 70
     1
102
RTVSPropertyOp44
 70
     1
102
RTVSPropertyOp45
 70
     1
102
RTVSPropertyOp46
 70
     1
102
RTVSPropertyOp47
 70
     1
102
RTVSPropertyOp48
 70
     1
102
RTVSPropertyOp49
 70
     1
102
RTVSPropertyOp50
 70
     1
102
RTVSPropertyOp51
 70
     0
102
RTVSPropertyOp52
 70
     0
102
RTVSPropertyOp53
 70
     1
102
RTVSPropertyOp54
 70
     1
102
RTVSPropertyOp55
 70
     1
102
RTVSPropertyOp56
 70
     1
102
RTVSPropertyOp57
 70
     1
102
RTVSPropertyOp58
 70
     1
102
RTVSPropertyOp59
 70
     1
102
RTVSPropertyOp60
 70
     1
102
RTVSPropertyOp61
 70
     1
102
RTVSPropertyOp62
 70
     1
  0
XRECORD
  5
2569
102
{ACAD_REACTORS
330
2568
102
}
330
2568
100
AcDbXrecord
280
     1
102
RTVSPost2010Prop28
280
     0
102
RTVSPost2010PropOp28
 70
     1
102
RTVSPost2010Prop29
280
     1
102
RTVSPost2010PropOp29
 70
     1
102
RTVSPost2010Prop30
280
     1
102
RTVSPost2010PropOp30
 70
     1
102
RTVSPost2010Prop31
280
     0
102
RTVSPost2010PropOp31
 70
     1
102
RTVSPost2010Prop32
280
     0
102
RTVSPost2010PropOp32
 70
     1
102
RTVSPost2010Prop33
280
     0
102
RTVSPost2010PropOp33
 70
     1
102
RTVSPost2010Prop34
280
     0
102
RTVSPost2010PropOp34
 70
     1
102
RTVSPost2010Prop35
280
     0
102
RTVSPost2010PropOp35
 70
     1
102
RTVSPost2010Prop36
280
     0
102
RTVSPost2010PropOp36
 70
     1
102
RTVSPost2010Prop37
 90
       50
102
RTVSPost2010PropOp37
 70
     1
102
RTVSPost2010Prop38
140
0.0
102
RTVSPost2010PropOp38
 70
     1
102
RTVSPost2010Prop39
140
1.0
102
RTVSPost2010PropOp39
 70
     1
102
RTVSPost2010Prop40
 90
        0
102
RTVSPost2010PropOp40
 70
     1
102
RTVSPost2010Prop41ColorIndex
 90
       18
102
RTVSPost2010Prop41ColorRGB
 90
        0
102
RTVSPost2010PropOp41
 70
     1
102
RTVSPost2010Prop42
 90
       50
102
RTVSPost2010PropOp42
 70
     1
102
RTVSPost2010Prop43
 90
        3
102
RTVSPost2010PropOp43
 70
     1
102
RTVSPost2010Prop44ColorIndex
 90
        5
102
RTVSPost2010Prop44ColorRGB
 90
      255
102
RTVSPost2010PropOp44
 70
     1
102
RTVSPost2010Prop45
280
     0
102
RTVSPost2010PropOp45
 70
     1
102
RTVSPost2010Prop46
 90
       50
102
RTVSPost2010PropOp46
 70
     1
102
RTVSPost2010Prop47
 90
       50
102
RTVSPost2010PropOp47
 70
     1
102
RTVSPost2010Prop48
 90
       50
102
RTVSPost2010PropOp48
 70
     1
102
RTVSPost2010Prop49
280
     0
102
RTVSPost2010PropOp49
 70
     1
102
RTVSPost2010Prop50
 90
       50
102
RTVSPost2010PropOp50
 70
     1
102
RTVSPost2010Prop51ColorIndex
 90
      256
102
RTVSPost2010Prop51ColorRGB
 90
-16777216
102
RTVSPost2010PropOp51
 70
     0
102
RTVSPost2010Prop52
140
1.0
102
RTVSPost2010PropOp52
 70
     0
102
RTVSPost2010Prop53
 90
        2
102
RTVSPost2010PropOp53
 70
     1
102
RTVSPost2010Prop54
  1
strokes_ogs.tif
102
RTVSPost2010PropOp54
 70
     1
102
RTVSPost2010Prop55
280
     0
102
RTVSPost2010PropOp55
 70
     1
102
RTVSPost2010Prop56
140
1.0
102
RTVSPost2010PropOp56
 70
     1
102
RTVSPost2010Prop57
140
1.0
102
RTVSPost2010PropOp57
 70
     1
102
RTVSPropertyOp0
 70
     1
102
RTVSPropertyOp1
 70
     1
102
RTVSPropertyOp2
 70
     1
102
RTVSPropertyOp3
 70
     1
102
RTVSPropertyOp4
 70
     1
102
RTVSPropertyOp5
 70
     1
102
RTVSPropertyOp6
 70
     1
102
RTVSPropertyOp7
 70
     1
102
RTVSPropertyOp8
 70
     1
102
RTVSPropertyOp9
 70
     1
102
RTVSPropertyOp10
 70
     1
102
RTVSPropertyOp11
 70
     1
102
RTVSPropertyOp12
 70
     1
102
RTVSPropertyOp13
 70
     1
102
RTVSPropertyOp14
 70
     1
102
RTVSPropertyOp15
 70
     1
102
RTVSPropertyOp16
 70
     1
102
RTVSPropertyOp17
 70
     1
102
RTVSPropertyOp18
 70
     1
102
RTVSPropertyOp19
 70
     1
102
RTVSPropertyOp20
 70
     1
102
RTVSPropertyOp21
 70
     1
102
RTVSPropertyOp22
 70
     1
102
RTVSPropertyOp23
 70
     1
102
RTVSPropertyOp24
 70
     1
102
RTVSPropertyOp25
 70
     1
102
RTVSPropertyOp26
 70
     1
102
RTVSPropertyOp27
 70
     1
102
RTVSPropertyOp28
 70
     1
102
RTVSPropertyOp29
 70
     1
102
RTVSPropertyOp30
 70
     1
102
RTVSPropertyOp31
 70
     1
102
RTVSPropertyOp32
 70
     1
102
RTVSPropertyOp33
 70
     1
102
RTVSPropertyOp34
 70
     1
102
RTVSPropertyOp35
 70
     1
102
RTVSPropertyOp36
 70
     1
102
RTVSPropertyOp37
 70
     1
102
RTVSPropertyOp38
 70
     1
102
RTVSPropertyOp39
 70
     1
102
RTVSPropertyOp40
 70
     1
102
RTVSPropertyOp41
 70
     1
102
RTVSPropertyOp42
 70
     1
102
RTVSPropertyOp43
 70
     1
102
RTVSPropertyOp44
 70
     1
102
RTVSPropertyOp45
 70
     1
102
RTVSPropertyOp46
 70
     1
102
RTVSPropertyOp47
 70
     1
102
RTVSPropertyOp48
 70
     1
102
RTVSPropertyOp49
 70
     1
102
RTVSPropertyOp50
 70
     1
102
RTVSPropertyOp51
 70
     0
102
RTVSPropertyOp52
 70
     0
102
RTVSPropertyOp53
 70
     1
102
RTVSPropertyOp54
 70
     1
102
RTVSPropertyOp55
 70
     1
102
RTVSPropertyOp56
 70
     1
102
RTVSPropertyOp57
 70
     1
102
RTVSPropertyOp58
 70
     1
102
RTVSPropertyOp59
 70
     1
102
RTVSPropertyOp60
 70
     1
102
RTVSPropertyOp61
 70
     1
102
RTVSPropertyOp62
 70
     1
  0
XRECORD
  5
256B
102
{ACAD_REACTORS
330
256A
102
}
330
256A
100
AcDbXrecord
280
     1
102
RTVSPost2010Prop28
280
     0
102
RTVSPost2010PropOp28
 70
     1
102
RTVSPost2010Prop29
280
     1
102
RTVSPost2010PropOp29
 70
     1
102
RTVSPost2010Prop30
280
     1
102
RTVSPost2010PropOp30
 70
     1
102
RTVSPost2010Prop31
280
     0
102
RTVSPost2010PropOp31
 70
     1
102
RTVSPost2010Prop32
280
     0
102
RTVSPost2010PropOp32
 70
     1
102
RTVSPost2010Prop33
280
     0
102
RTVSPost2010PropOp33
 70
     1
102
RTVSPost2010Prop34
280
     0
102
RTVSPost2010PropOp34
 70
     1
102
RTVSPost2010Prop35
280
     0
102
RTVSPost2010PropOp35
 70
     1
102
RTVSPost2010Prop36
280
     0
102
RTVSPost2010PropOp36
 70
     1
102
RTVSPost2010Prop37
 90
       50
102
RTVSPost2010PropOp37
 70
     1
102
RTVSPost2010Prop38
140
0.0
102
RTVSPost2010PropOp38
 70
     1
102
RTVSPost2010Prop39
140
1.0
102
RTVSPost2010PropOp39
 70
     1
102
RTVSPost2010Prop40
 90
        0
102
RTVSPost2010PropOp40
 70
     1
102
RTVSPost2010Prop41ColorIndex
 90
       18
102
RTVSPost2010Prop41ColorRGB
 90
        0
102
RTVSPost2010PropOp41
 70
     1
102
RTVSPost2010Prop42
 90
       50
102
RTVSPost2010PropOp42
 70
     1
102
RTVSPost2010Prop43
 90
        3
102
RTVSPost2010PropOp43
 70
     1
102
RTVSPost2010Prop44ColorIndex
 90
        5
102
RTVSPost2010Prop44ColorRGB
 90
      255
102
RTVSPost2010PropOp44
 70
     1
102
RTVSPost2010Prop45
280
     0
102
RTVSPost2010PropOp45
 70
     1
102
RTVSPost2010Prop46
 90
       50
102
RTVSPost2010PropOp46
 70
     1
102
RTVSPost2010Prop47
 90
       50
102
RTVSPost2010PropOp47
 70
     1
102
RTVSPost2010Prop48
 90
       50
102
RTVSPost2010PropOp48
 70
     1
102
RTVSPost2010Prop49
280
     0
102
RTVSPost2010PropOp49
 70
     1
102
RTVSPost2010Prop50
 90
       50
102
RTVSPost2010PropOp50
 70
     1
102
RTVSPost2010Prop51ColorIndex
 90
      256
102
RTVSPost2010Prop51ColorRGB
 90
-16777216
102
RTVSPost2010PropOp51
 70
     0
102
RTVSPost2010Prop52
140
1.0
102
RTVSPost2010PropOp52
 70
     0
102
RTVSPost2010Prop53
 90
        2
102
RTVSPost2010PropOp53
 70
     1
102
RTVSPost2010Prop54
  1
strokes_ogs.tif
102
RTVSPost2010PropOp54
 70
     1
102
RTVSPost2010Prop55
280
     0
102
RTVSPost2010PropOp55
 70
     1
102
RTVSPost2010Prop56
140
1.0
102
RTVSPost2010PropOp56
 70
     1
102
RTVSPost2010Prop57
140
1.0
102
RTVSPost2010PropOp57
 70
     1
102
RTVSPropertyOp0
 70
     1
102
RTVSPropertyOp1
 70
     1
102
RTVSPropertyOp2
 70
     1
102
RTVSPropertyOp3
 70
     1
102
RTVSPropertyOp4
 70
     1
102
RTVSPropertyOp5
 70
     1
102
RTVSPropertyOp6
 70
     1
102
RTVSPropertyOp7
 70
     1
102
RTVSPropertyOp8
 70
     1
102
RTVSPropertyOp9
 70
     1
102
RTVSPropertyOp10
 70
     1
102
RTVSPropertyOp11
 70
     1
102
RTVSPropertyOp12
 70
     1
102
RTVSPropertyOp13
 70
     1
102
RTVSPropertyOp14
 70
     1
102
RTVSPropertyOp15
 70
     1
102
RTVSPropertyOp16
 70
     1
102
RTVSPropertyOp17
 70
     1
102
RTVSPropertyOp18
 70
     1
102
RTVSPropertyOp19
 70
     1
102
RTVSPropertyOp20
 70
     1
102
RTVSPropertyOp21
 70
     1
102
RTVSPropertyOp22
 70
     1
102
RTVSPropertyOp23
 70
     1
102
RTVSPropertyOp24
 70
     1
102
RTVSPropertyOp25
 70
     1
102
RTVSPropertyOp26
 70
     1
102
RTVSPropertyOp27
 70
     1
102
RTVSPropertyOp28
 70
     1
102
RTVSPropertyOp29
 70
     1
102
RTVSPropertyOp30
 70
     1
102
RTVSPropertyOp31
 70
     1
102
RTVSPropertyOp32
 70
     1
102
RTVSPropertyOp33
 70
     1
102
RTVSPropertyOp34
 70
     1
102
RTVSPropertyOp35
 70
     1
102
RTVSPropertyOp36
 70
     1
102
RTVSPropertyOp37
 70
     1
102
RTVSPropertyOp38
 70
     1
102
RTVSPropertyOp39
 70
     1
102
RTVSPropertyOp40
 70
     1
102
RTVSPropertyOp41
 70
     1
102
RTVSPropertyOp42
 70
     1
102
RTVSPropertyOp43
 70
     1
102
RTVSPropertyOp44
 70
     1
102
RTVSPropertyOp45
 70
     1
102
RTVSPropertyOp46
 70
     1
102
RTVSPropertyOp47
 70
     1
102
RTVSPropertyOp48
 70
     1
102
RTVSPropertyOp49
 70
     1
102
RTVSPropertyOp50
 70
     1
102
RTVSPropertyOp51
 70
     0
102
RTVSPropertyOp52
 70
     0
102
RTVSPropertyOp53
 70
     1
102
RTVSPropertyOp54
 70
     1
102
RTVSPropertyOp55
 70
     1
102
RTVSPropertyOp56
 70
     1
102
RTVSPropertyOp57
 70
     1
102
RTVSPropertyOp58
 70
     1
102
RTVSPropertyOp59
 70
     1
102
RTVSPropertyOp60
 70
     1
102
RTVSPropertyOp61
 70
     1
102
RTVSPropertyOp62
 70
     1
  0
XRECORD
  5
256D
102
{ACAD_REACTORS
330
256C
102
}
330
256C
100
AcDbXrecord
280
     1
102
RTVSPost2010Prop28
280
     0
102
RTVSPost2010PropOp28
 70
     1
102
RTVSPost2010Prop29
280
     1
102
RTVSPost2010PropOp29
 70
     1
102
RTVSPost2010Prop30
280
     1
102
RTVSPost2010PropOp30
 70
     1
102
RTVSPost2010Prop31
280
     0
102
RTVSPost2010PropOp31
 70
     1
102
RTVSPost2010Prop32
280
     0
102
RTVSPost2010PropOp32
 70
     1
102
RTVSPost2010Prop33
280
     0
102
RTVSPost2010PropOp33
 70
     1
102
RTVSPost2010Prop34
280
     0
102
RTVSPost2010PropOp34
 70
     1
102
RTVSPost2010Prop35
280
     0
102
RTVSPost2010PropOp35
 70
     1
102
RTVSPost2010Prop36
280
     0
102
RTVSPost2010PropOp36
 70
     1
102
RTVSPost2010Prop37
 90
       50
102
RTVSPost2010PropOp37
 70
     1
102
RTVSPost2010Prop38
140
0.0
102
RTVSPost2010PropOp38
 70
     1
102
RTVSPost2010Prop39
140
1.0
102
RTVSPost2010PropOp39
 70
     1
102
RTVSPost2010Prop40
 90
        0
102
RTVSPost2010PropOp40
 70
     1
102
RTVSPost2010Prop41ColorIndex
 90
       18
102
RTVSPost2010Prop41ColorRGB
 90
        0
102
RTVSPost2010PropOp41
 70
     1
102
RTVSPost2010Prop42
 90
       50
102
RTVSPost2010PropOp42
 70
     1
102
RTVSPost2010Prop43
 90
        3
102
RTVSPost2010PropOp43
 70
     1
102
RTVSPost2010Prop44ColorIndex
 90
        5
102
RTVSPost2010Prop44ColorRGB
 90
      255
102
RTVSPost2010PropOp44
 70
     1
102
RTVSPost2010Prop45
280
     0
102
RTVSPost2010PropOp45
 70
     1
102
RTVSPost2010Prop46
 90
       50
102
RTVSPost2010PropOp46
 70
     1
102
RTVSPost2010Prop47
 90
       50
102
RTVSPost2010PropOp47
 70
     1
102
RTVSPost2010Prop48
 90
       50
102
RTVSPost2010PropOp48
 70
     1
102
RTVSPost2010Prop49
280
     0
102
RTVSPost2010PropOp49
 70
     1
102
RTVSPost2010Prop50
 90
       50
102
RTVSPost2010PropOp50
 70
     1
102
RTVSPost2010Prop51ColorIndex
 90
      256
102
RTVSPost2010Prop51ColorRGB
 90
-16777216
102
RTVSPost2010PropOp51
 70
     0
102
RTVSPost2010Prop52
140
1.0
102
RTVSPost2010PropOp52
 70
     0
102
RTVSPost2010Prop53
 90
        2
102
RTVSPost2010PropOp53
 70
     1
102
RTVSPost2010Prop54
  1
strokes_ogs.tif
102
RTVSPost2010PropOp54
 70
     1
102
RTVSPost2010Prop55
280
     0
102
RTVSPost2010PropOp55
 70
     1
102
RTVSPost2010Prop56
140
1.0
102
RTVSPost2010PropOp56
 70
     1
102
RTVSPost2010Prop57
140
1.0
102
RTVSPost2010PropOp57
 70
     1
102
RTVSPropertyOp0
 70
     1
102
RTVSPropertyOp1
 70
     1
102
RTVSPropertyOp2
 70
     1
102
RTVSPropertyOp3
 70
     1
102
RTVSPropertyOp4
 70
     1
102
RTVSPropertyOp5
 70
     1
102
RTVSPropertyOp6
 70
     1
102
RTVSPropertyOp7
 70
     1
102
RTVSPropertyOp8
 70
     1
102
RTVSPropertyOp9
 70
     1
102
RTVSPropertyOp10
 70
     1
102
RTVSPropertyOp11
 70
     1
102
RTVSPropertyOp12
 70
     1
102
RTVSPropertyOp13
 70
     1
102
RTVSPropertyOp14
 70
     1
102
RTVSPropertyOp15
 70
     1
102
RTVSPropertyOp16
 70
     1
102
RTVSPropertyOp17
 70
     1
102
RTVSPropertyOp18
 70
     1
102
RTVSPropertyOp19
 70
     1
102
RTVSPropertyOp20
 70
     1
102
RTVSPropertyOp21
 70
     1
102
RTVSPropertyOp22
 70
     1
102
RTVSPropertyOp23
 70
     1
102
RTVSPropertyOp24
 70
     1
102
RTVSPropertyOp25
 70
     1
102
RTVSPropertyOp26
 70
     1
102
RTVSPropertyOp27
 70
     1
102
RTVSPropertyOp28
 70
     1
102
RTVSPropertyOp29
 70
     1
102
RTVSPropertyOp30
 70
     1
102
RTVSPropertyOp31
 70
     1
102
RTVSPropertyOp32
 70
     1
102
RTVSPropertyOp33
 70
     1
102
RTVSPropertyOp34
 70
     1
102
RTVSPropertyOp35
 70
     1
102
RTVSPropertyOp36
 70
     1
102
RTVSPropertyOp37
 70
     1
102
RTVSPropertyOp38
 70
     1
102
RTVSPropertyOp39
 70
     1
102
RTVSPropertyOp40
 70
     1
102
RTVSPropertyOp41
 70
     1
102
RTVSPropertyOp42
 70
     1
102
RTVSPropertyOp43
 70
     1
102
RTVSPropertyOp44
 70
     1
102
RTVSPropertyOp45
 70
     1
102
RTVSPropertyOp46
 70
     1
102
RTVSPropertyOp47
 70
     1
102
RTVSPropertyOp48
 70
     1
102
RTVSPropertyOp49
 70
     1
102
RTVSPropertyOp50
 70
     1
102
RTVSPropertyOp51
 70
     0
102
RTVSPropertyOp52
 70
     0
102
RTVSPropertyOp53
 70
     1
102
RTVSPropertyOp54
 70
     1
102
RTVSPropertyOp55
 70
     1
102
RTVSPropertyOp56
 70
     1
102
RTVSPropertyOp57
 70
     1
102
RTVSPropertyOp58
 70
     1
102
RTVSPropertyOp59
 70
     1
102
RTVSPropertyOp60
 70
     1
102
RTVSPropertyOp61
 70
     1
102
RTVSPropertyOp62
 70
     1
  0
XRECORD
  5
256F
102
{ACAD_REACTORS
330
256E
102
}
330
256E
100
AcDbXrecord
280
     1
102
RTVSPost2010Prop28
280
     0
102
RTVSPost2010PropOp28
 70
     1
102
RTVSPost2010Prop29
280
     1
102
RTVSPost2010PropOp29
 70
     1
102
RTVSPost2010Prop30
280
     1
102
RTVSPost2010PropOp30
 70
     1
102
RTVSPost2010Prop31
280
     0
102
RTVSPost2010PropOp31
 70
     1
102
RTVSPost2010Prop32
280
     0
102
RTVSPost2010PropOp32
 70
     1
102
RTVSPost2010Prop33
280
     0
102
RTVSPost2010PropOp33
 70
     1
102
RTVSPost2010Prop34
280
     0
102
RTVSPost2010PropOp34
 70
     1
102
RTVSPost2010Prop35
280
     0
102
RTVSPost2010PropOp35
 70
     1
102
RTVSPost2010Prop36
280
     0
102
RTVSPost2010PropOp36
 70
     1
102
RTVSPost2010Prop37
 90
       50
102
RTVSPost2010PropOp37
 70
     1
102
RTVSPost2010Prop38
140
0.0
102
RTVSPost2010PropOp38
 70
     1
102
RTVSPost2010Prop39
140
1.0
102
RTVSPost2010PropOp39
 70
     1
102
RTVSPost2010Prop40
 90
        0
102
RTVSPost2010PropOp40
 70
     1
102
RTVSPost2010Prop41ColorIndex
 90
       18
102
RTVSPost2010Prop41ColorRGB
 90
        0
102
RTVSPost2010PropOp41
 70
     1
102
RTVSPost2010Prop42
 90
       50
102
RTVSPost2010PropOp42
 70
     1
102
RTVSPost2010Prop43
 90
        3
102
RTVSPost2010PropOp43
 70
     1
102
RTVSPost2010Prop44ColorIndex
 90
        5
102
RTVSPost2010Prop44ColorRGB
 90
      255
102
RTVSPost2010PropOp44
 70
     1
102
RTVSPost2010Prop45
280
     0
102
RTVSPost2010PropOp45
 70
     1
102
RTVSPost2010Prop46
 90
       50
102
RTVSPost2010PropOp46
 70
     1
102
RTVSPost2010Prop47
 90
       50
102
RTVSPost2010PropOp47
 70
     1
102
RTVSPost2010Prop48
 90
       50
102
RTVSPost2010PropOp48
 70
     1
102
RTVSPost2010Prop49
280
     0
102
RTVSPost2010PropOp49
 70
     1
102
RTVSPost2010Prop50
 90
       50
102
RTVSPost2010PropOp50
 70
     1
102
RTVSPost2010Prop51ColorIndex
 90
      256
102
RTVSPost2010Prop51ColorRGB
 90
-16777216
102
RTVSPost2010PropOp51
 70
     0
102
RTVSPost2010Prop52
140
1.0
102
RTVSPost2010PropOp52
 70
     0
102
RTVSPost2010Prop53
 90
        2
102
RTVSPost2010PropOp53
 70
     1
102
RTVSPost2010Prop54
  1
strokes_ogs.tif
102
RTVSPost2010PropOp54
 70
     1
102
RTVSPost2010Prop55
280
     0
102
RTVSPost2010PropOp55
 70
     1
102
RTVSPost2010Prop56
140
1.0
102
RTVSPost2010PropOp56
 70
     1
102
RTVSPost2010Prop57
140
1.0
102
RTVSPost2010PropOp57
 70
     1
102
RTVSPropertyOp0
 70
     1
102
RTVSPropertyOp1
 70
     1
102
RTVSPropertyOp2
 70
     1
102
RTVSPropertyOp3
 70
     1
102
RTVSPropertyOp4
 70
     1
102
RTVSPropertyOp5
 70
     1
102
RTVSPropertyOp6
 70
     1
102
RTVSPropertyOp7
 70
     1
102
RTVSPropertyOp8
 70
     1
102
RTVSPropertyOp9
 70
     1
102
RTVSPropertyOp10
 70
     1
102
RTVSPropertyOp11
 70
     1
102
RTVSPropertyOp12
 70
     1
102
RTVSPropertyOp13
 70
     1
102
RTVSPropertyOp14
 70
     1
102
RTVSPropertyOp15
 70
     1
102
RTVSPropertyOp16
 70
     1
102
RTVSPropertyOp17
 70
     1
102
RTVSPropertyOp18
 70
     1
102
RTVSPropertyOp19
 70
     1
102
RTVSPropertyOp20
 70
     1
102
RTVSPropertyOp21
 70
     1
102
RTVSPropertyOp22
 70
     1
102
RTVSPropertyOp23
 70
     1
102
RTVSPropertyOp24
 70
     1
102
RTVSPropertyOp25
 70
     1
102
RTVSPropertyOp26
 70
     1
102
RTVSPropertyOp27
 70
     1
102
RTVSPropertyOp28
 70
     1
102
RTVSPropertyOp29
 70
     1
102
RTVSPropertyOp30
 70
     1
102
RTVSPropertyOp31
 70
     1
102
RTVSPropertyOp32
 70
     1
102
RTVSPropertyOp33
 70
     1
102
RTVSPropertyOp34
 70
     1
102
RTVSPropertyOp35
 70
     1
102
RTVSPropertyOp36
 70
     1
102
RTVSPropertyOp37
 70
     1
102
RTVSPropertyOp38
 70
     1
102
RTVSPropertyOp39
 70
     1
102
RTVSPropertyOp40
 70
     1
102
RTVSPropertyOp41
 70
     1
102
RTVSPropertyOp42
 70
     1
102
RTVSPropertyOp43
 70
     1
102
RTVSPropertyOp44
 70
     1
102
RTVSPropertyOp45
 70
     1
102
RTVSPropertyOp46
 70
     1
102
RTVSPropertyOp47
 70
     1
102
RTVSPropertyOp48
 70
     1
102
RTVSPropertyOp49
 70
     1
102
RTVSPropertyOp50
 70
     1
102
RTVSPropertyOp51
 70
     0
102
RTVSPropertyOp52
 70
     0
102
RTVSPropertyOp53
 70
     1
102
RTVSPropertyOp54
 70
     1
102
RTVSPropertyOp55
 70
     1
102
RTVSPropertyOp56
 70
     1
102
RTVSPropertyOp57
 70
     1
102
RTVSPropertyOp58
 70
     1
102
RTVSPropertyOp59
 70
     1
102
RTVSPropertyOp60
 70
     1
102
RTVSPropertyOp61
 70
     1
102
RTVSPropertyOp62
 70
     1
  0
XRECORD
  5
25B2
102
{ACAD_REACTORS
330
25B1
102
}
330
25B1
100
AcDbXrecord
280
     1
102
RTVSPost2010Prop28
280
     0
102
RTVSPost2010PropOp28
 70
     1
102
RTVSPost2010Prop29
280
     1
102
RTVSPost2010PropOp29
 70
     1
102
RTVSPost2010Prop30
280
     1
102
RTVSPost2010PropOp30
 70
     1
102
RTVSPost2010Prop31
280
     0
102
RTVSPost2010PropOp31
 70
     1
102
RTVSPost2010Prop32
280
     0
102
RTVSPost2010PropOp32
 70
     1
102
RTVSPost2010Prop33
280
     0
102
RTVSPost2010PropOp33
 70
     1
102
RTVSPost2010Prop34
280
     0
102
RTVSPost2010PropOp34
 70
     1
102
RTVSPost2010Prop35
280
     0
102
RTVSPost2010PropOp35
 70
     1
102
RTVSPost2010Prop36
280
     0
102
RTVSPost2010PropOp36
 70
     1
102
RTVSPost2010Prop37
 90
       50
102
RTVSPost2010PropOp37
 70
     1
102
RTVSPost2010Prop38
140
0.0
102
RTVSPost2010PropOp38
 70
     1
102
RTVSPost2010Prop39
140
1.0
102
RTVSPost2010PropOp39
 70
     1
102
RTVSPost2010Prop40
 90
        0
102
RTVSPost2010PropOp40
 70
     1
102
RTVSPost2010Prop41ColorIndex
 90
       18
102
RTVSPost2010Prop41ColorRGB
 90
        0
102
RTVSPost2010PropOp41
 70
     1
102
RTVSPost2010Prop42
 90
       50
102
RTVSPost2010PropOp42
 70
     1
102
RTVSPost2010Prop43
 90
        3
102
RTVSPost2010PropOp43
 70
     1
102
RTVSPost2010Prop44ColorIndex
 90
        5
102
RTVSPost2010Prop44ColorRGB
 90
      255
102
RTVSPost2010PropOp44
 70
     1
102
RTVSPost2010Prop45
280
     0
102
RTVSPost2010PropOp45
 70
     1
102
RTVSPost2010Prop46
 90
       50
102
RTVSPost2010PropOp46
 70
     1
102
RTVSPost2010Prop47
 90
       50
102
RTVSPost2010PropOp47
 70
     1
102
RTVSPost2010Prop48
 90
       50
102
RTVSPost2010PropOp48
 70
     1
102
RTVSPost2010Prop49
280
     0
102
RTVSPost2010PropOp49
 70
     1
102
RTVSPost2010Prop50
 90
       50
102
RTVSPost2010PropOp50
 70
     1
102
RTVSPost2010Prop51ColorIndex
 90
      256
102
RTVSPost2010Prop51ColorRGB
 90
-16777216
102
RTVSPost2010PropOp51
 70
     0
102
RTVSPost2010Prop52
140
1.0
102
RTVSPost2010PropOp52
 70
     0
102
RTVSPost2010Prop53
 90
        2
102
RTVSPost2010PropOp53
 70
     1
102
RTVSPost2010Prop54
  1
strokes_ogs.tif
102
RTVSPost2010PropOp54
 70
     1
102
RTVSPost2010Prop55
280
     0
102
RTVSPost2010PropOp55
 70
     1
102
RTVSPost2010Prop56
140
1.0
102
RTVSPost2010PropOp56
 70
     1
102
RTVSPost2010Prop57
140
1.0
102
RTVSPost2010PropOp57
 70
     1
102
RTVSPropertyOp0
 70
     1
102
RTVSPropertyOp1
 70
     1
102
RTVSPropertyOp2
 70
     1
102
RTVSPropertyOp3
 70
     1
102
RTVSPropertyOp4
 70
     1
102
RTVSPropertyOp5
 70
     1
102
RTVSPropertyOp6
 70
     1
102
RTVSPropertyOp7
 70
     1
102
RTVSPropertyOp8
 70
     1
102
RTVSPropertyOp9
 70
     1
102
RTVSPropertyOp10
 70
     1
102
RTVSPropertyOp11
 70
     1
102
RTVSPropertyOp12
 70
     1
102
RTVSPropertyOp13
 70
     1
102
RTVSPropertyOp14
 70
     1
102
RTVSPropertyOp15
 70
     1
102
RTVSPropertyOp16
 70
     1
102
RTVSPropertyOp17
 70
     1
102
RTVSPropertyOp18
 70
     1
102
RTVSPropertyOp19
 70
     1
102
RTVSPropertyOp20
 70
     1
102
RTVSPropertyOp21
 70
     1
102
RTVSPropertyOp22
 70
     1
102
RTVSPropertyOp23
 70
     1
102
RTVSPropertyOp24
 70
     1
102
RTVSPropertyOp25
 70
     1
102
RTVSPropertyOp26
 70
     1
102
RTVSPropertyOp27
 70
     1
102
RTVSPropertyOp28
 70
     1
102
RTVSPropertyOp29
 70
     1
102
RTVSPropertyOp30
 70
     1
102
RTVSPropertyOp31
 70
     1
102
RTVSPropertyOp32
 70
     1
102
RTVSPropertyOp33
 70
     1
102
RTVSPropertyOp34
 70
     1
102
RTVSPropertyOp35
 70
     1
102
RTVSPropertyOp36
 70
     1
102
RTVSPropertyOp37
 70
     1
102
RTVSPropertyOp38
 70
     1
102
RTVSPropertyOp39
 70
     1
102
RTVSPropertyOp40
 70
     1
102
RTVSPropertyOp41
 70
     1
102
RTVSPropertyOp42
 70
     1
102
RTVSPropertyOp43
 70
     1
102
RTVSPropertyOp44
 70
     1
102
RTVSPropertyOp45
 70
     1
102
RTVSPropertyOp46
 70
     1
102
RTVSPropertyOp47
 70
     1
102
RTVSPropertyOp48
 70
     1
102
RTVSPropertyOp49
 70
     1
102
RTVSPropertyOp50
 70
     1
102
RTVSPropertyOp51
 70
     0
102
RTVSPropertyOp52
 70
     0
102
RTVSPropertyOp53
 70
     1
102
RTVSPropertyOp54
 70
     1
102
RTVSPropertyOp55
 70
     1
102
RTVSPropertyOp56
 70
     1
102
RTVSPropertyOp57
 70
     1
102
RTVSPropertyOp58
 70
     1
102
RTVSPropertyOp59
 70
     1
102
RTVSPropertyOp60
 70
     1
102
RTVSPropertyOp61
 70
     1
102
RTVSPropertyOp62
 70
     1
  0
XRECORD
  5
258A
102
{ACAD_REACTORS
330
2589
102
}
330
2589
100
AcDbXrecord
280
     1
102
RTVSPost2010Prop28
280
     0
102
RTVSPost2010PropOp28
 70
     1
102
RTVSPost2010Prop29
280
     1
102
RTVSPost2010PropOp29
 70
     1
102
RTVSPost2010Prop30
280
     1
102
RTVSPost2010PropOp30
 70
     1
102
RTVSPost2010Prop31
280
     0
102
RTVSPost2010PropOp31
 70
     1
102
RTVSPost2010Prop32
280
     0
102
RTVSPost2010PropOp32
 70
     1
102
RTVSPost2010Prop33
280
     0
102
RTVSPost2010PropOp33
 70
     1
102
RTVSPost2010Prop34
280
     0
102
RTVSPost2010PropOp34
 70
     1
102
RTVSPost2010Prop35
280
     0
102
RTVSPost2010PropOp35
 70
     1
102
RTVSPost2010Prop36
280
     0
102
RTVSPost2010PropOp36
 70
     1
102
RTVSPost2010Prop37
 90
       50
102
RTVSPost2010PropOp37
 70
     1
102
RTVSPost2010Prop38
140
0.0
102
RTVSPost2010PropOp38
 70
     1
102
RTVSPost2010Prop39
140
1.0
102
RTVSPost2010PropOp39
 70
     1
102
RTVSPost2010Prop40
 90
        0
102
RTVSPost2010PropOp40
 70
     1
102
RTVSPost2010Prop41ColorIndex
 90
       18
102
RTVSPost2010Prop41ColorRGB
 90
        0
102
RTVSPost2010PropOp41
 70
     1
102
RTVSPost2010Prop42
 90
       50
102
RTVSPost2010PropOp42
 70
     1
102
RTVSPost2010Prop43
 90
        3
102
RTVSPost2010PropOp43
 70
     1
102
RTVSPost2010Prop44ColorIndex
 90
        5
102
RTVSPost2010Prop44ColorRGB
 90
      255
102
RTVSPost2010PropOp44
 70
     1
102
RTVSPost2010Prop45
280
     0
102
RTVSPost2010PropOp45
 70
     1
102
RTVSPost2010Prop46
 90
       50
102
RTVSPost2010PropOp46
 70
     1
102
RTVSPost2010Prop47
 90
       50
102
RTVSPost2010PropOp47
 70
     1
102
RTVSPost2010Prop48
 90
       50
102
RTVSPost2010PropOp48
 70
     1
102
RTVSPost2010Prop49
280
     0
102
RTVSPost2010PropOp49
 70
     1
102
RTVSPost2010Prop50
 90
       50
102
RTVSPost2010PropOp50
 70
     1
102
RTVSPost2010Prop51ColorIndex
 90
      256
102
RTVSPost2010Prop51ColorRGB
 90
-16777216
102
RTVSPost2010PropOp51
 70
     0
102
RTVSPost2010Prop52
140
1.0
102
RTVSPost2010PropOp52
 70
     0
102
RTVSPost2010Prop53
 90
        2
102
RTVSPost2010PropOp53
 70
     1
102
RTVSPost2010Prop54
  1
strokes_ogs.tif
102
RTVSPost2010PropOp54
 70
     1
102
RTVSPost2010Prop55
280
     0
102
RTVSPost2010PropOp55
 70
     1
102
RTVSPost2010Prop56
140
1.0
102
RTVSPost2010PropOp56
 70
     1
102
RTVSPost2010Prop57
140
1.0
102
RTVSPost2010PropOp57
 70
     1
102
RTVSPropertyOp0
 70
     0
102
RTVSPropertyOp1
 70
     0
102
RTVSPropertyOp2
 70
     0
102
RTVSPropertyOp3
 70
     0
102
RTVSPropertyOp4
 70
     0
102
RTVSPropertyOp5
 70
     0
102
RTVSPropertyOp6
 70
     0
102
RTVSPropertyOp7
 70
     0
102
RTVSPropertyOp8
 70
     0
102
RTVSPropertyOp9
 70
     0
102
RTVSPropertyOp10
 70
     0
102
RTVSPropertyOp11
 70
     0
102
RTVSPropertyOp12
 70
     0
102
RTVSPropertyOp13
 70
     0
102
RTVSPropertyOp14
 70
     2
102
RTVSPropertyOp15
 70
     0
102
RTVSPropertyOp16
 70
     0
102
RTVSPropertyOp17
 70
     0
102
RTVSPropertyOp18
 70
     0
102
RTVSPropertyOp19
 70
     0
102
RTVSPropertyOp20
 70
     0
102
RTVSPropertyOp21
 70
     0
102
RTVSPropertyOp22
 70
     0
102
RTVSPropertyOp23
 70
     0
102
RTVSPropertyOp24
 70
     0
102
RTVSPropertyOp25
 70
     0
102
RTVSPropertyOp26
 70
     0
102
RTVSPropertyOp27
 70
     0
102
RTVSPropertyOp28
 70
     1
102
RTVSPropertyOp29
 70
     1
102
RTVSPropertyOp30
 70
     1
102
RTVSPropertyOp31
 70
     1
102
RTVSPropertyOp32
 70
     1
102
RTVSPropertyOp33
 70
     1
102
RTVSPropertyOp34
 70
     1
102
RTVSPropertyOp35
 70
     1
102
RTVSPropertyOp36
 70
     1
102
RTVSPropertyOp37
 70
     1
102
RTVSPropertyOp38
 70
     1
102
RTVSPropertyOp39
 70
     1
102
RTVSPropertyOp40
 70
     1
102
RTVSPropertyOp41
 70
     1
102
RTVSPropertyOp42
 70
     1
102
RTVSPropertyOp43
 70
     1
102
RTVSPropertyOp44
 70
     1
102
RTVSPropertyOp45
 70
     1
102
RTVSPropertyOp46
 70
     1
102
RTVSPropertyOp47
 70
     1
102
RTVSPropertyOp48
 70
     1
102
RTVSPropertyOp49
 70
     1
102
RTVSPropertyOp50
 70
     1
102
RTVSPropertyOp51
 70
     0
102
RTVSPropertyOp52
 70
     0
102
RTVSPropertyOp53
 70
     1
102
RTVSPropertyOp54
 70
     1
102
RTVSPropertyOp55
 70
     1
102
RTVSPropertyOp56
 70
     1
102
RTVSPropertyOp57
 70
     1
102
RTVSPropertyOp58
 70
     1
102
RTVSPropertyOp59
 70
     1
102
RTVSPropertyOp60
 70
     1
102
RTVSPropertyOp61
 70
     1
102
RTVSPropertyOp62
 70
     1
  0
XRECORD
  5
2583
102
{ACAD_REACTORS
330
2582
102
}
330
2582
100
AcDbXrecord
280
     1
102
RTVSPost2010Prop28
280
     0
102
RTVSPost2010PropOp28
 70
     1
102
RTVSPost2010Prop29
280
     1
102
RTVSPost2010PropOp29
 70
     1
102
RTVSPost2010Prop30
280
     1
102
RTVSPost2010PropOp30
 70
     1
102
RTVSPost2010Prop31
280
     0
102
RTVSPost2010PropOp31
 70
     1
102
RTVSPost2010Prop32
280
     0
102
RTVSPost2010PropOp32
 70
     1
102
RTVSPost2010Prop33
280
     0
102
RTVSPost2010PropOp33
 70
     1
102
RTVSPost2010Prop34
280
     0
102
RTVSPost2010PropOp34
 70
     1
102
RTVSPost2010Prop35
280
     0
102
RTVSPost2010PropOp35
 70
     1
102
RTVSPost2010Prop36
280
     0
102
RTVSPost2010PropOp36
 70
     1
102
RTVSPost2010Prop37
 90
       50
102
RTVSPost2010PropOp37
 70
     1
102
RTVSPost2010Prop38
140
0.0
102
RTVSPost2010PropOp38
 70
     1
102
RTVSPost2010Prop39
140
1.0
102
RTVSPost2010PropOp39
 70
     1
102
RTVSPost2010Prop40
 90
        0
102
RTVSPost2010PropOp40
 70
     1
102
RTVSPost2010Prop41ColorIndex
 90
       18
102
RTVSPost2010Prop41ColorRGB
 90
        0
102
RTVSPost2010PropOp41
 70
     1
102
RTVSPost2010Prop42
 90
       50
102
RTVSPost2010PropOp42
 70
     1
102
RTVSPost2010Prop43
 90
        3
102
RTVSPost2010PropOp43
 70
     1
102
RTVSPost2010Prop44ColorIndex
 90
        5
102
RTVSPost2010Prop44ColorRGB
 90
      255
102
RTVSPost2010PropOp44
 70
     1
102
RTVSPost2010Prop45
280
     0
102
RTVSPost2010PropOp45
 70
     1
102
RTVSPost2010Prop46
 90
       50
102
RTVSPost2010PropOp46
 70
     1
102
RTVSPost2010Prop47
 90
       50
102
RTVSPost2010PropOp47
 70
     1
102
RTVSPost2010Prop48
 90
       50
102
RTVSPost2010PropOp48
 70
     1
102
RTVSPost2010Prop49
280
     0
102
RTVSPost2010PropOp49
 70
     1
102
RTVSPost2010Prop50
 90
       50
102
RTVSPost2010PropOp50
 70
     1
102
RTVSPost2010Prop51ColorIndex
 90
      256
102
RTVSPost2010Prop51ColorRGB
 90
-16777216
102
RTVSPost2010PropOp51
 70
     0
102
RTVSPost2010Prop52
140
1.0
102
RTVSPost2010PropOp52
 70
     0
102
RTVSPost2010Prop53
 90
        2
102
RTVSPost2010PropOp53
 70
     1
102
RTVSPost2010Prop54
  1
strokes_ogs.tif
102
RTVSPost2010PropOp54
 70
     1
102
RTVSPost2010Prop55
280
     0
102
RTVSPost2010PropOp55
 70
     1
102
RTVSPost2010Prop56
140
1.0
102
RTVSPost2010PropOp56
 70
     1
102
RTVSPost2010Prop57
140
1.0
102
RTVSPost2010PropOp57
 70
     1
102
RTVSPropertyOp0
 70
     1
102
RTVSPropertyOp1
 70
     1
102
RTVSPropertyOp2
 70
     1
102
RTVSPropertyOp3
 70
     1
102
RTVSPropertyOp4
 70
     1
102
RTVSPropertyOp5
 70
     1
102
RTVSPropertyOp6
 70
     1
102
RTVSPropertyOp7
 70
     1
102
RTVSPropertyOp8
 70
     1
102
RTVSPropertyOp9
 70
     1
102
RTVSPropertyOp10
 70
     1
102
RTVSPropertyOp11
 70
     1
102
RTVSPropertyOp12
 70
     1
102
RTVSPropertyOp13
 70
     1
102
RTVSPropertyOp14
 70
     1
102
RTVSPropertyOp15
 70
     1
102
RTVSPropertyOp16
 70
     1
102
RTVSPropertyOp17
 70
     1
102
RTVSPropertyOp18
 70
     1
102
RTVSPropertyOp19
 70
     1
102
RTVSPropertyOp20
 70
     1
102
RTVSPropertyOp21
 70
     1
102
RTVSPropertyOp22
 70
     1
102
RTVSPropertyOp23
 70
     1
102
RTVSPropertyOp24
 70
     1
102
RTVSPropertyOp25
 70
     1
102
RTVSPropertyOp26
 70
     1
102
RTVSPropertyOp27
 70
     1
102
RTVSPropertyOp28
 70
     1
102
RTVSPropertyOp29
 70
     1
102
RTVSPropertyOp30
 70
     1
102
RTVSPropertyOp31
 70
     1
102
RTVSPropertyOp32
 70
     1
102
RTVSPropertyOp33
 70
     1
102
RTVSPropertyOp34
 70
     1
102
RTVSPropertyOp35
 70
     1
102
RTVSPropertyOp36
 70
     1
102
RTVSPropertyOp37
 70
     1
102
RTVSPropertyOp38
 70
     1
102
RTVSPropertyOp39
 70
     1
102
RTVSPropertyOp40
 70
     1
102
RTVSPropertyOp41
 70
     1
102
RTVSPropertyOp42
 70
     1
102
RTVSPropertyOp43
 70
     1
102
RTVSPropertyOp44
 70
     1
102
RTVSPropertyOp45
 70
     1
102
RTVSPropertyOp46
 70
     1
102
RTVSPropertyOp47
 70
     1
102
RTVSPropertyOp48
 70
     1
102
RTVSPropertyOp49
 70
     1
102
RTVSPropertyOp50
 70
     1
102
RTVSPropertyOp51
 70
     0
102
RTVSPropertyOp52
 70
     0
102
RTVSPropertyOp53
 70
     1
102
RTVSPropertyOp54
 70
     1
102
RTVSPropertyOp55
 70
     1
102
RTVSPropertyOp56
 70
     1
102
RTVSPropertyOp57
 70
     1
102
RTVSPropertyOp58
 70
     1
102
RTVSPropertyOp59
 70
     1
102
RTVSPropertyOp60
 70
     1
102
RTVSPropertyOp61
 70
     1
102
RTVSPropertyOp62
 70
     1
  0
XRECORD
  5
258C
102
{ACAD_REACTORS
330
258B
102
}
330
258B
100
AcDbXrecord
280
     1
102
RTVSPost2010Prop28
280
     0
102
RTVSPost2010PropOp28
 70
     1
102
RTVSPost2010Prop29
280
     1
102
RTVSPost2010PropOp29
 70
     1
102
RTVSPost2010Prop30
280
     1
102
RTVSPost2010PropOp30
 70
     1
102
RTVSPost2010Prop31
280
     0
102
RTVSPost2010PropOp31
 70
     1
102
RTVSPost2010Prop32
280
     0
102
RTVSPost2010PropOp32
 70
     1
102
RTVSPost2010Prop33
280
     0
102
RTVSPost2010PropOp33
 70
     1
102
RTVSPost2010Prop34
280
     0
102
RTVSPost2010PropOp34
 70
     1
102
RTVSPost2010Prop35
280
     0
102
RTVSPost2010PropOp35
 70
     1
102
RTVSPost2010Prop36
280
     0
102
RTVSPost2010PropOp36
 70
     1
102
RTVSPost2010Prop37
 90
       50
102
RTVSPost2010PropOp37
 70
     1
102
RTVSPost2010Prop38
140
0.0
102
RTVSPost2010PropOp38
 70
     1
102
RTVSPost2010Prop39
140
1.0
102
RTVSPost2010PropOp39
 70
     1
102
RTVSPost2010Prop40
 90
        0
102
RTVSPost2010PropOp40
 70
     1
102
RTVSPost2010Prop41ColorIndex
 90
       18
102
RTVSPost2010Prop41ColorRGB
 90
        0
102
RTVSPost2010PropOp41
 70
     1
102
RTVSPost2010Prop42
 90
       50
102
RTVSPost2010PropOp42
 70
     1
102
RTVSPost2010Prop43
 90
        3
102
RTVSPost2010PropOp43
 70
     1
102
RTVSPost2010Prop44ColorIndex
 90
        5
102
RTVSPost2010Prop44ColorRGB
 90
      255
102
RTVSPost2010PropOp44
 70
     1
102
RTVSPost2010Prop45
280
     0
102
RTVSPost2010PropOp45
 70
     1
102
RTVSPost2010Prop46
 90
       50
102
RTVSPost2010PropOp46
 70
     1
102
RTVSPost2010Prop47
 90
       50
102
RTVSPost2010PropOp47
 70
     1
102
RTVSPost2010Prop48
 90
       50
102
RTVSPost2010PropOp48
 70
     1
102
RTVSPost2010Prop49
280
     0
102
RTVSPost2010PropOp49
 70
     1
102
RTVSPost2010Prop50
 90
       50
102
RTVSPost2010PropOp50
 70
     1
102
RTVSPost2010Prop51ColorIndex
 90
      256
102
RTVSPost2010Prop51ColorRGB
 90
-16777216
102
RTVSPost2010PropOp51
 70
     0
102
RTVSPost2010Prop52
140
1.0
102
RTVSPost2010PropOp52
 70
     0
102
RTVSPost2010Prop53
 90
        2
102
RTVSPost2010PropOp53
 70
     1
102
RTVSPost2010Prop54
  1
strokes_ogs.tif
102
RTVSPost2010PropOp54
 70
     1
102
RTVSPost2010Prop55
280
     0
102
RTVSPost2010PropOp55
 70
     1
102
RTVSPost2010Prop56
140
1.0
102
RTVSPost2010PropOp56
 70
     1
102
RTVSPost2010Prop57
140
1.0
102
RTVSPost2010PropOp57
 70
     1
102
RTVSPropertyOp0
 70
     0
102
RTVSPropertyOp1
 70
     0
102
RTVSPropertyOp2
 70
     0
102
RTVSPropertyOp3
 70
     0
102
RTVSPropertyOp4
 70
     0
102
RTVSPropertyOp5
 70
     0
102
RTVSPropertyOp6
 70
     0
102
RTVSPropertyOp7
 70
     0
102
RTVSPropertyOp8
 70
     0
102
RTVSPropertyOp9
 70
     0
102
RTVSPropertyOp10
 70
     0
102
RTVSPropertyOp11
 70
     0
102
RTVSPropertyOp12
 70
     0
102
RTVSPropertyOp13
 70
     0
102
RTVSPropertyOp14
 70
     2
102
RTVSPropertyOp15
 70
     0
102
RTVSPropertyOp16
 70
     0
102
RTVSPropertyOp17
 70
     0
102
RTVSPropertyOp18
 70
     0
102
RTVSPropertyOp19
 70
     0
102
RTVSPropertyOp20
 70
     0
102
RTVSPropertyOp21
 70
     0
102
RTVSPropertyOp22
 70
     0
102
RTVSPropertyOp23
 70
     0
102
RTVSPropertyOp24
 70
     0
102
RTVSPropertyOp25
 70
     0
102
RTVSPropertyOp26
 70
     0
102
RTVSPropertyOp27
 70
     0
102
RTVSPropertyOp28
 70
     1
102
RTVSPropertyOp29
 70
     1
102
RTVSPropertyOp30
 70
     1
102
RTVSPropertyOp31
 70
     1
102
RTVSPropertyOp32
 70
     1
102
RTVSPropertyOp33
 70
     1
102
RTVSPropertyOp34
 70
     1
102
RTVSPropertyOp35
 70
     1
102
RTVSPropertyOp36
 70
     1
102
RTVSPropertyOp37
 70
     1
102
RTVSPropertyOp38
 70
     1
102
RTVSPropertyOp39
 70
     1
102
RTVSPropertyOp40
 70
     1
102
RTVSPropertyOp41
 70
     1
102
RTVSPropertyOp42
 70
     1
102
RTVSPropertyOp43
 70
     1
102
RTVSPropertyOp44
 70
     1
102
RTVSPropertyOp45
 70
     1
102
RTVSPropertyOp46
 70
     1
102
RTVSPropertyOp47
 70
     1
102
RTVSPropertyOp48
 70
     1
102
RTVSPropertyOp49
 70
     1
102
RTVSPropertyOp50
 70
     1
102
RTVSPropertyOp51
 70
     0
102
RTVSPropertyOp52
 70
     0
102
RTVSPropertyOp53
 70
     1
102
RTVSPropertyOp54
 70
     1
102
RTVSPropertyOp55
 70
     1
102
RTVSPropertyOp56
 70
     1
102
RTVSPropertyOp57
 70
     1
102
RTVSPropertyOp58
 70
     1
102
RTVSPropertyOp59
 70
     1
102
RTVSPropertyOp60
 70
     1
102
RTVSPropertyOp61
 70
     1
102
RTVSPropertyOp62
 70
     1
  0
XRECORD
  5
257B
102
{ACAD_REACTORS
330
257A
102
}
330
257A
100
AcDbXrecord
280
     1
102
RTVSPost2010Prop28
280
     0
102
RTVSPost2010PropOp28
 70
     1
102
RTVSPost2010Prop29
280
     1
102
RTVSPost2010PropOp29
 70
     1
102
RTVSPost2010Prop30
280
     1
102
RTVSPost2010PropOp30
 70
     1
102
RTVSPost2010Prop31
280
     0
102
RTVSPost2010PropOp31
 70
     1
102
RTVSPost2010Prop32
280
     0
102
RTVSPost2010PropOp32
 70
     1
102
RTVSPost2010Prop33
280
     0
102
RTVSPost2010PropOp33
 70
     1
102
RTVSPost2010Prop34
280
     0
102
RTVSPost2010PropOp34
 70
     1
102
RTVSPost2010Prop35
280
     0
102
RTVSPost2010PropOp35
 70
     1
102
RTVSPost2010Prop36
280
     0
102
RTVSPost2010PropOp36
 70
     1
102
RTVSPost2010Prop37
 90
       50
102
RTVSPost2010PropOp37
 70
     1
102
RTVSPost2010Prop38
140
0.0
102
RTVSPost2010PropOp38
 70
     1
102
RTVSPost2010Prop39
140
1.0
102
RTVSPost2010PropOp39
 70
     1
102
RTVSPost2010Prop40
 90
        0
102
RTVSPost2010PropOp40
 70
     1
102
RTVSPost2010Prop41ColorIndex
 90
       18
102
RTVSPost2010Prop41ColorRGB
 90
        0
102
RTVSPost2010PropOp41
 70
     1
102
RTVSPost2010Prop42
 90
       50
102
RTVSPost2010PropOp42
 70
     1
102
RTVSPost2010Prop43
 90
        3
102
RTVSPost2010PropOp43
 70
     1
102
RTVSPost2010Prop44ColorIndex
 90
        5
102
RTVSPost2010Prop44ColorRGB
 90
      255
102
RTVSPost2010PropOp44
 70
     1
102
RTVSPost2010Prop45
280
     0
102
RTVSPost2010PropOp45
 70
     1
102
RTVSPost2010Prop46
 90
       50
102
RTVSPost2010PropOp46
 70
     1
102
RTVSPost2010Prop47
 90
       50
102
RTVSPost2010PropOp47
 70
     1
102
RTVSPost2010Prop48
 90
       50
102
RTVSPost2010PropOp48
 70
     1
102
RTVSPost2010Prop49
280
     0
102
RTVSPost2010PropOp49
 70
     1
102
RTVSPost2010Prop50
 90
       50
102
RTVSPost2010PropOp50
 70
     1
102
RTVSPost2010Prop51ColorIndex
 90
      256
102
RTVSPost2010Prop51ColorRGB
 90
-16777216
102
RTVSPost2010PropOp51
 70
     0
102
RTVSPost2010Prop52
140
1.0
102
RTVSPost2010PropOp52
 70
     0
102
RTVSPost2010Prop53
 90
        2
102
RTVSPost2010PropOp53
 70
     1
102
RTVSPost2010Prop54
  1
strokes_ogs.tif
102
RTVSPost2010PropOp54
 70
     1
102
RTVSPost2010Prop55
280
     0
102
RTVSPost2010PropOp55
 70
     1
102
RTVSPost2010Prop56
140
1.0
102
RTVSPost2010PropOp56
 70
     1
102
RTVSPost2010Prop57
140
1.0
102
RTVSPost2010PropOp57
 70
     1
102
RTVSPropertyOp0
 70
     1
102
RTVSPropertyOp1
 70
     1
102
RTVSPropertyOp2
 70
     1
102
RTVSPropertyOp3
 70
     1
102
RTVSPropertyOp4
 70
     1
102
RTVSPropertyOp5
 70
     1
102
RTVSPropertyOp6
 70
     1
102
RTVSPropertyOp7
 70
     1
102
RTVSPropertyOp8
 70
     1
102
RTVSPropertyOp9
 70
     1
102
RTVSPropertyOp10
 70
     1
102
RTVSPropertyOp11
 70
     1
102
RTVSPropertyOp12
 70
     1
102
RTVSPropertyOp13
 70
     1
102
RTVSPropertyOp14
 70
     1
102
RTVSPropertyOp15
 70
     1
102
RTVSPropertyOp16
 70
     1
102
RTVSPropertyOp17
 70
     1
102
RTVSPropertyOp18
 70
     1
102
RTVSPropertyOp19
 70
     1
102
RTVSPropertyOp20
 70
     1
102
RTVSPropertyOp21
 70
     1
102
RTVSPropertyOp22
 70
     1
102
RTVSPropertyOp23
 70
     1
102
RTVSPropertyOp24
 70
     1
102
RTVSPropertyOp25
 70
     1
102
RTVSPropertyOp26
 70
     1
102
RTVSPropertyOp27
 70
     1
102
RTVSPropertyOp28
 70
     1
102
RTVSPropertyOp29
 70
     1
102
RTVSPropertyOp30
 70
     1
102
RTVSPropertyOp31
 70
     1
102
RTVSPropertyOp32
 70
     1
102
RTVSPropertyOp33
 70
     1
102
RTVSPropertyOp34
 70
     1
102
RTVSPropertyOp35
 70
     1
102
RTVSPropertyOp36
 70
     1
102
RTVSPropertyOp37
 70
     1
102
RTVSPropertyOp38
 70
     1
102
RTVSPropertyOp39
 70
     1
102
RTVSPropertyOp40
 70
     1
102
RTVSPropertyOp41
 70
     1
102
RTVSPropertyOp42
 70
     1
102
RTVSPropertyOp43
 70
     1
102
RTVSPropertyOp44
 70
     1
102
RTVSPropertyOp45
 70
     1
102
RTVSPropertyOp46
 70
     1
102
RTVSPropertyOp47
 70
     1
102
RTVSPropertyOp48
 70
     1
102
RTVSPropertyOp49
 70
     1
102
RTVSPropertyOp50
 70
     1
102
RTVSPropertyOp51
 70
     0
102
RTVSPropertyOp52
 70
     0
102
RTVSPropertyOp53
 70
     1
102
RTVSPropertyOp54
 70
     1
102
RTVSPropertyOp55
 70
     1
102
RTVSPropertyOp56
 70
     1
102
RTVSPropertyOp57
 70
     1
102
RTVSPropertyOp58
 70
     1
102
RTVSPropertyOp59
 70
     1
102
RTVSPropertyOp60
 70
     1
102
RTVSPropertyOp61
 70
     1
102
RTVSPropertyOp62
 70
     1
  0
XRECORD
  5
25BC
102
{ACAD_REACTORS
330
25BB
102
}
330
25BB
100
AcDbXrecord
280
     1
102
RTVSPost2010Prop28
280
     0
102
RTVSPost2010PropOp28
 70
     1
102
RTVSPost2010Prop29
280
     1
102
RTVSPost2010PropOp29
 70
     1
102
RTVSPost2010Prop30
280
     1
102
RTVSPost2010PropOp30
 70
     1
102
RTVSPost2010Prop31
280
     0
102
RTVSPost2010PropOp31
 70
     1
102
RTVSPost2010Prop32
280
     0
102
RTVSPost2010PropOp32
 70
     1
102
RTVSPost2010Prop33
280
     0
102
RTVSPost2010PropOp33
 70
     1
102
RTVSPost2010Prop34
280
     0
102
RTVSPost2010PropOp34
 70
     1
102
RTVSPost2010Prop35
280
     0
102
RTVSPost2010PropOp35
 70
     1
102
RTVSPost2010Prop36
280
     0
102
RTVSPost2010PropOp36
 70
     1
102
RTVSPost2010Prop37
 90
       50
102
RTVSPost2010PropOp37
 70
     1
102
RTVSPost2010Prop38
140
0.0
102
RTVSPost2010PropOp38
 70
     1
102
RTVSPost2010Prop39
140
1.0
102
RTVSPost2010PropOp39
 70
     1
102
RTVSPost2010Prop40
 90
        0
102
RTVSPost2010PropOp40
 70
     1
102
RTVSPost2010Prop41ColorIndex
 90
       18
102
RTVSPost2010Prop41ColorRGB
 90
        0
102
RTVSPost2010PropOp41
 70
     1
102
RTVSPost2010Prop42
 90
       50
102
RTVSPost2010PropOp42
 70
     1
102
RTVSPost2010Prop43
 90
        3
102
RTVSPost2010PropOp43
 70
     1
102
RTVSPost2010Prop44ColorIndex
 90
        5
102
RTVSPost2010Prop44ColorRGB
 90
      255
102
RTVSPost2010PropOp44
 70
     1
102
RTVSPost2010Prop45
280
     0
102
RTVSPost2010PropOp45
 70
     1
102
RTVSPost2010Prop46
 90
       50
102
RTVSPost2010PropOp46
 70
     1
102
RTVSPost2010Prop47
 90
       50
102
RTVSPost2010PropOp47
 70
     1
102
RTVSPost2010Prop48
 90
       50
102
RTVSPost2010PropOp48
 70
     1
102
RTVSPost2010Prop49
280
     0
102
RTVSPost2010PropOp49
 70
     1
102
RTVSPost2010Prop50
 90
       50
102
RTVSPost2010PropOp50
 70
     1
102
RTVSPost2010Prop51ColorIndex
 90
      256
102
RTVSPost2010Prop51ColorRGB
 90
-16777216
102
RTVSPost2010PropOp51
 70
     0
102
RTVSPost2010Prop52
140
1.0
102
RTVSPost2010PropOp52
 70
     0
102
RTVSPost2010Prop53
 90
        2
102
RTVSPost2010PropOp53
 70
     1
102
RTVSPost2010Prop54
  1
strokes_ogs.tif
102
RTVSPost2010PropOp54
 70
     1
102
RTVSPost2010Prop55
280
     0
102
RTVSPost2010PropOp55
 70
     1
102
RTVSPost2010Prop56
140
1.0
102
RTVSPost2010PropOp56
 70
     1
102
RTVSPost2010Prop57
140
1.0
102
RTVSPost2010PropOp57
 70
     1
102
RTVSPropertyOp0
 70
     1
102
RTVSPropertyOp1
 70
     1
102
RTVSPropertyOp2
 70
     1
102
RTVSPropertyOp3
 70
     1
102
RTVSPropertyOp4
 70
     1
102
RTVSPropertyOp5
 70
     1
102
RTVSPropertyOp6
 70
     1
102
RTVSPropertyOp7
 70
     1
102
RTVSPropertyOp8
 70
     1
102
RTVSPropertyOp9
 70
     1
102
RTVSPropertyOp10
 70
     1
102
RTVSPropertyOp11
 70
     1
102
RTVSPropertyOp12
 70
     1
102
RTVSPropertyOp13
 70
     1
102
RTVSPropertyOp14
 70
     1
102
RTVSPropertyOp15
 70
     1
102
RTVSPropertyOp16
 70
     1
102
RTVSPropertyOp17
 70
     1
102
RTVSPropertyOp18
 70
     1
102
RTVSPropertyOp19
 70
     1
102
RTVSPropertyOp20
 70
     1
102
RTVSPropertyOp21
 70
     1
102
RTVSPropertyOp22
 70
     1
102
RTVSPropertyOp23
 70
     1
102
RTVSPropertyOp24
 70
     1
102
RTVSPropertyOp25
 70
     1
102
RTVSPropertyOp26
 70
     1
102
RTVSPropertyOp27
 70
     1
102
RTVSPropertyOp28
 70
     1
102
RTVSPropertyOp29
 70
     1
102
RTVSPropertyOp30
 70
     1
102
RTVSPropertyOp31
 70
     1
102
RTVSPropertyOp32
 70
     1
102
RTVSPropertyOp33
 70
     1
102
RTVSPropertyOp34
 70
     1
102
RTVSPropertyOp35
 70
     1
102
RTVSPropertyOp36
 70
     1
102
RTVSPropertyOp37
 70
     1
102
RTVSPropertyOp38
 70
     1
102
RTVSPropertyOp39
 70
     1
102
RTVSPropertyOp40
 70
     1
102
RTVSPropertyOp41
 70
     1
102
RTVSPropertyOp42
 70
     1
102
RTVSPropertyOp43
 70
     1
102
RTVSPropertyOp44
 70
     1
102
RTVSPropertyOp45
 70
     1
102
RTVSPropertyOp46
 70
     1
102
RTVSPropertyOp47
 70
     1
102
RTVSPropertyOp48
 70
     1
102
RTVSPropertyOp49
 70
     1
102
RTVSPropertyOp50
 70
     1
102
RTVSPropertyOp51
 70
     0
102
RTVSPropertyOp52
 70
     0
102
RTVSPropertyOp53
 70
     1
102
RTVSPropertyOp54
 70
     1
102
RTVSPropertyOp55
 70
     1
102
RTVSPropertyOp56
 70
     1
102
RTVSPropertyOp57
 70
     1
102
RTVSPropertyOp58
 70
     1
102
RTVSPropertyOp59
 70
     1
102
RTVSPropertyOp60
 70
     1
102
RTVSPropertyOp61
 70
     1
102
RTVSPropertyOp62
 70
     1
  0
XRECORD
  5
25BA
102
{ACAD_REACTORS
330
25B9
102
}
330
25B9
100
AcDbXrecord
280
     1
102
RTVSPost2010Prop28
280
     0
102
RTVSPost2010PropOp28
 70
     1
102
RTVSPost2010Prop29
280
     1
102
RTVSPost2010PropOp29
 70
     1
102
RTVSPost2010Prop30
280
     1
102
RTVSPost2010PropOp30
 70
     1
102
RTVSPost2010Prop31
280
     0
102
RTVSPost2010PropOp31
 70
     1
102
RTVSPost2010Prop32
280
     0
102
RTVSPost2010PropOp32
 70
     1
102
RTVSPost2010Prop33
280
     0
102
RTVSPost2010PropOp33
 70
     1
102
RTVSPost2010Prop34
280
     0
102
RTVSPost2010PropOp34
 70
     1
102
RTVSPost2010Prop35
280
     0
102
RTVSPost2010PropOp35
 70
     1
102
RTVSPost2010Prop36
280
     0
102
RTVSPost2010PropOp36
 70
     1
102
RTVSPost2010Prop37
 90
       50
102
RTVSPost2010PropOp37
 70
     1
102
RTVSPost2010Prop38
140
0.0
102
RTVSPost2010PropOp38
 70
     1
102
RTVSPost2010Prop39
140
1.0
102
RTVSPost2010PropOp39
 70
     1
102
RTVSPost2010Prop40
 90
        0
102
RTVSPost2010PropOp40
 70
     1
102
RTVSPost2010Prop41ColorIndex
 90
       18
102
RTVSPost2010Prop41ColorRGB
 90
        0
102
RTVSPost2010PropOp41
 70
     1
102
RTVSPost2010Prop42
 90
       50
102
RTVSPost2010PropOp42
 70
     1
102
RTVSPost2010Prop43
 90
        3
102
RTVSPost2010PropOp43
 70
     1
102
RTVSPost2010Prop44ColorIndex
 90
        5
102
RTVSPost2010Prop44ColorRGB
 90
      255
102
RTVSPost2010PropOp44
 70
     1
102
RTVSPost2010Prop45
280
     0
102
RTVSPost2010PropOp45
 70
     1
102
RTVSPost2010Prop46
 90
       50
102
RTVSPost2010PropOp46
 70
     1
102
RTVSPost2010Prop47
 90
       50
102
RTVSPost2010PropOp47
 70
     1
102
RTVSPost2010Prop48
 90
       50
102
RTVSPost2010PropOp48
 70
     1
102
RTVSPost2010Prop49
280
     0
102
RTVSPost2010PropOp49
 70
     1
102
RTVSPost2010Prop50
 90
       50
102
RTVSPost2010PropOp50
 70
     1
102
RTVSPost2010Prop51ColorIndex
 90
      256
102
RTVSPost2010Prop51ColorRGB
 90
-16777216
102
RTVSPost2010PropOp51
 70
     0
102
RTVSPost2010Prop52
140
1.0
102
RTVSPost2010PropOp52
 70
     0
102
RTVSPost2010Prop53
 90
        2
102
RTVSPost2010PropOp53
 70
     1
102
RTVSPost2010Prop54
  1
strokes_ogs.tif
102
RTVSPost2010PropOp54
 70
     1
102
RTVSPost2010Prop55
280
     0
102
RTVSPost2010PropOp55
 70
     1
102
RTVSPost2010Prop56
140
1.0
102
RTVSPost2010PropOp56
 70
     1
102
RTVSPost2010Prop57
140
1.0
102
RTVSPost2010PropOp57
 70
     1
102
RTVSPropertyOp0
 70
     1
102
RTVSPropertyOp1
 70
     1
102
RTVSPropertyOp2
 70
     1
102
RTVSPropertyOp3
 70
     1
102
RTVSPropertyOp4
 70
     1
102
RTVSPropertyOp5
 70
     1
102
RTVSPropertyOp6
 70
     1
102
RTVSPropertyOp7
 70
     1
102
RTVSPropertyOp8
 70
     1
102
RTVSPropertyOp9
 70
     1
102
RTVSPropertyOp10
 70
     1
102
RTVSPropertyOp11
 70
     1
102
RTVSPropertyOp12
 70
     1
102
RTVSPropertyOp13
 70
     1
102
RTVSPropertyOp14
 70
     1
102
RTVSPropertyOp15
 70
     1
102
RTVSPropertyOp16
 70
     1
102
RTVSPropertyOp17
 70
     1
102
RTVSPropertyOp18
 70
     1
102
RTVSPropertyOp19
 70
     1
102
RTVSPropertyOp20
 70
     1
102
RTVSPropertyOp21
 70
     1
102
RTVSPropertyOp22
 70
     1
102
RTVSPropertyOp23
 70
     1
102
RTVSPropertyOp24
 70
     1
102
RTVSPropertyOp25
 70
     1
102
RTVSPropertyOp26
 70
     1
102
RTVSPropertyOp27
 70
     1
102
RTVSPropertyOp28
 70
     1
102
RTVSPropertyOp29
 70
     1
102
RTVSPropertyOp30
 70
     1
102
RTVSPropertyOp31
 70
     1
102
RTVSPropertyOp32
 70
     1
102
RTVSPropertyOp33
 70
     1
102
RTVSPropertyOp34
 70
     1
102
RTVSPropertyOp35
 70
     1
102
RTVSPropertyOp36
 70
     1
102
RTVSPropertyOp37
 70
     1
102
RTVSPropertyOp38
 70
     1
102
RTVSPropertyOp39
 70
     1
102
RTVSPropertyOp40
 70
     1
102
RTVSPropertyOp41
 70
     1
102
RTVSPropertyOp42
 70
     1
102
RTVSPropertyOp43
 70
     1
102
RTVSPropertyOp44
 70
     1
102
RTVSPropertyOp45
 70
     1
102
RTVSPropertyOp46
 70
     1
102
RTVSPropertyOp47
 70
     1
102
RTVSPropertyOp48
 70
     1
102
RTVSPropertyOp49
 70
     1
102
RTVSPropertyOp50
 70
     1
102
RTVSPropertyOp51
 70
     0
102
RTVSPropertyOp52
 70
     0
102
RTVSPropertyOp53
 70
     1
102
RTVSPropertyOp54
 70
     1
102
RTVSPropertyOp55
 70
     1
102
RTVSPropertyOp56
 70
     1
102
RTVSPropertyOp57
 70
     1
102
RTVSPropertyOp58
 70
     1
102
RTVSPropertyOp59
 70
     1
102
RTVSPropertyOp60
 70
     1
102
RTVSPropertyOp61
 70
     1
102
RTVSPropertyOp62
 70
     1
  0
XRECORD
  5
25B4
102
{ACAD_REACTORS
330
25B3
102
}
330
25B3
100
AcDbXrecord
280
     1
102
RTVSPost2010Prop28
280
     0
102
RTVSPost2010PropOp28
 70
     1
102
RTVSPost2010Prop29
280
     1
102
RTVSPost2010PropOp29
 70
     1
102
RTVSPost2010Prop30
280
     1
102
RTVSPost2010PropOp30
 70
     1
102
RTVSPost2010Prop31
280
     0
102
RTVSPost2010PropOp31
 70
     1
102
RTVSPost2010Prop32
280
     0
102
RTVSPost2010PropOp32
 70
     1
102
RTVSPost2010Prop33
280
     0
102
RTVSPost2010PropOp33
 70
     1
102
RTVSPost2010Prop34
280
     0
102
RTVSPost2010PropOp34
 70
     1
102
RTVSPost2010Prop35
280
     0
102
RTVSPost2010PropOp35
 70
     1
102
RTVSPost2010Prop36
280
     0
102
RTVSPost2010PropOp36
 70
     1
102
RTVSPost2010Prop37
 90
       50
102
RTVSPost2010PropOp37
 70
     1
102
RTVSPost2010Prop38
140
0.0
102
RTVSPost2010PropOp38
 70
     1
102
RTVSPost2010Prop39
140
1.0
102
RTVSPost2010PropOp39
 70
     1
102
RTVSPost2010Prop40
 90
        0
102
RTVSPost2010PropOp40
 70
     1
102
RTVSPost2010Prop41ColorIndex
 90
       18
102
RTVSPost2010Prop41ColorRGB
 90
        0
102
RTVSPost2010PropOp41
 70
     1
102
RTVSPost2010Prop42
 90
       50
102
RTVSPost2010PropOp42
 70
     1
102
RTVSPost2010Prop43
 90
        3
102
RTVSPost2010PropOp43
 70
     1
102
RTVSPost2010Prop44ColorIndex
 90
        5
102
RTVSPost2010Prop44ColorRGB
 90
      255
102
RTVSPost2010PropOp44
 70
     1
102
RTVSPost2010Prop45
280
     0
102
RTVSPost2010PropOp45
 70
     1
102
RTVSPost2010Prop46
 90
       50
102
RTVSPost2010PropOp46
 70
     1
102
RTVSPost2010Prop47
 90
       50
102
RTVSPost2010PropOp47
 70
     1
102
RTVSPost2010Prop48
 90
       50
102
RTVSPost2010PropOp48
 70
     1
102
RTVSPost2010Prop49
280
     0
102
RTVSPost2010PropOp49
 70
     1
102
RTVSPost2010Prop50
 90
       50
102
RTVSPost2010PropOp50
 70
     1
102
RTVSPost2010Prop51ColorIndex
 90
      256
102
RTVSPost2010Prop51ColorRGB
 90
-16777216
102
RTVSPost2010PropOp51
 70
     0
102
RTVSPost2010Prop52
140
1.0
102
RTVSPost2010PropOp52
 70
     0
102
RTVSPost2010Prop53
 90
        2
102
RTVSPost2010PropOp53
 70
     1
102
RTVSPost2010Prop54
  1
strokes_ogs.tif
102
RTVSPost2010PropOp54
 70
     1
102
RTVSPost2010Prop55
280
     0
102
RTVSPost2010PropOp55
 70
     1
102
RTVSPost2010Prop56
140
1.0
102
RTVSPost2010PropOp56
 70
     1
102
RTVSPost2010Prop57
140
1.0
102
RTVSPost2010PropOp57
 70
     1
102
RTVSPropertyOp0
 70
     1
102
RTVSPropertyOp1
 70
     1
102
RTVSPropertyOp2
 70
     1
102
RTVSPropertyOp3
 70
     1
102
RTVSPropertyOp4
 70
     1
102
RTVSPropertyOp5
 70
     1
102
RTVSPropertyOp6
 70
     1
102
RTVSPropertyOp7
 70
     1
102
RTVSPropertyOp8
 70
     1
102
RTVSPropertyOp9
 70
     1
102
RTVSPropertyOp10
 70
     1
102
RTVSPropertyOp11
 70
     1
102
RTVSPropertyOp12
 70
     1
102
RTVSPropertyOp13
 70
     1
102
RTVSPropertyOp14
 70
     1
102
RTVSPropertyOp15
 70
     1
102
RTVSPropertyOp16
 70
     1
102
RTVSPropertyOp17
 70
     1
102
RTVSPropertyOp18
 70
     1
102
RTVSPropertyOp19
 70
     1
102
RTVSPropertyOp20
 70
     1
102
RTVSPropertyOp21
 70
     1
102
RTVSPropertyOp22
 70
     1
102
RTVSPropertyOp23
 70
     1
102
RTVSPropertyOp24
 70
     1
102
RTVSPropertyOp25
 70
     1
102
RTVSPropertyOp26
 70
     1
102
RTVSPropertyOp27
 70
     1
102
RTVSPropertyOp28
 70
     1
102
RTVSPropertyOp29
 70
     1
102
RTVSPropertyOp30
 70
     1
102
RTVSPropertyOp31
 70
     1
102
RTVSPropertyOp32
 70
     1
102
RTVSPropertyOp33
 70
     1
102
RTVSPropertyOp34
 70
     1
102
RTVSPropertyOp35
 70
     1
102
RTVSPropertyOp36
 70
     1
102
RTVSPropertyOp37
 70
     1
102
RTVSPropertyOp38
 70
     1
102
RTVSPropertyOp39
 70
     1
102
RTVSPropertyOp40
 70
     1
102
RTVSPropertyOp41
 70
     1
102
RTVSPropertyOp42
 70
     1
102
RTVSPropertyOp43
 70
     1
102
RTVSPropertyOp44
 70
     1
102
RTVSPropertyOp45
 70
     1
102
RTVSPropertyOp46
 70
     1
102
RTVSPropertyOp47
 70
     1
102
RTVSPropertyOp48
 70
     1
102
RTVSPropertyOp49
 70
     1
102
RTVSPropertyOp50
 70
     1
102
RTVSPropertyOp51
 70
     0
102
RTVSPropertyOp52
 70
     0
102
RTVSPropertyOp53
 70
     1
102
RTVSPropertyOp54
 70
     1
102
RTVSPropertyOp55
 70
     1
102
RTVSPropertyOp56
 70
     1
102
RTVSPropertyOp57
 70
     1
102
RTVSPropertyOp58
 70
     1
102
RTVSPropertyOp59
 70
     1
102
RTVSPropertyOp60
 70
     1
102
RTVSPropertyOp61
 70
     1
102
RTVSPropertyOp62
 70
     1
  0
XRECORD
  5
25B6
102
{ACAD_REACTORS
330
25B5
102
}
330
25B5
100
AcDbXrecord
280
     1
102
RTVSPost2010Prop28
280
     0
102
RTVSPost2010PropOp28
 70
     1
102
RTVSPost2010Prop29
280
     1
102
RTVSPost2010PropOp29
 70
     1
102
RTVSPost2010Prop30
280
     1
102
RTVSPost2010PropOp30
 70
     1
102
RTVSPost2010Prop31
280
     0
102
RTVSPost2010PropOp31
 70
     1
102
RTVSPost2010Prop32
280
     0
102
RTVSPost2010PropOp32
 70
     1
102
RTVSPost2010Prop33
280
     0
102
RTVSPost2010PropOp33
 70
     1
102
RTVSPost2010Prop34
280
     0
102
RTVSPost2010PropOp34
 70
     1
102
RTVSPost2010Prop35
280
     0
102
RTVSPost2010PropOp35
 70
     1
102
RTVSPost2010Prop36
280
     0
102
RTVSPost2010PropOp36
 70
     1
102
RTVSPost2010Prop37
 90
       50
102
RTVSPost2010PropOp37
 70
     1
102
RTVSPost2010Prop38
140
0.0
102
RTVSPost2010PropOp38
 70
     1
102
RTVSPost2010Prop39
140
1.0
102
RTVSPost2010PropOp39
 70
     1
102
RTVSPost2010Prop40
 90
        0
102
RTVSPost2010PropOp40
 70
     1
102
RTVSPost2010Prop41ColorIndex
 90
       18
102
RTVSPost2010Prop41ColorRGB
 90
        0
102
RTVSPost2010PropOp41
 70
     1
102
RTVSPost2010Prop42
 90
       50
102
RTVSPost2010PropOp42
 70
     1
102
RTVSPost2010Prop43
 90
        3
102
RTVSPost2010PropOp43
 70
     1
102
RTVSPost2010Prop44ColorIndex
 90
        5
102
RTVSPost2010Prop44ColorRGB
 90
      255
102
RTVSPost2010PropOp44
 70
     1
102
RTVSPost2010Prop45
280
     0
102
RTVSPost2010PropOp45
 70
     1
102
RTVSPost2010Prop46
 90
       50
102
RTVSPost2010PropOp46
 70
     1
102
RTVSPost2010Prop47
 90
       50
102
RTVSPost2010PropOp47
 70
     1
102
RTVSPost2010Prop48
 90
       50
102
RTVSPost2010PropOp48
 70
     1
102
RTVSPost2010Prop49
280
     0
102
RTVSPost2010PropOp49
 70
     1
102
RTVSPost2010Prop50
 90
       50
102
RTVSPost2010PropOp50
 70
     1
102
RTVSPost2010Prop51ColorIndex
 90
      256
102
RTVSPost2010Prop51ColorRGB
 90
-16777216
102
RTVSPost2010PropOp51
 70
     0
102
RTVSPost2010Prop52
140
1.0
102
RTVSPost2010PropOp52
 70
     0
102
RTVSPost2010Prop53
 90
        2
102
RTVSPost2010PropOp53
 70
     1
102
RTVSPost2010Prop54
  1
strokes_ogs.tif
102
RTVSPost2010PropOp54
 70
     1
102
RTVSPost2010Prop55
280
     0
102
RTVSPost2010PropOp55
 70
     1
102
RTVSPost2010Prop56
140
1.0
102
RTVSPost2010PropOp56
 70
     1
102
RTVSPost2010Prop57
140
1.0
102
RTVSPost2010PropOp57
 70
     1
102
RTVSPropertyOp0
 70
     1
102
RTVSPropertyOp1
 70
     1
102
RTVSPropertyOp2
 70
     1
102
RTVSPropertyOp3
 70
     1
102
RTVSPropertyOp4
 70
     1
102
RTVSPropertyOp5
 70
     1
102
RTVSPropertyOp6
 70
     1
102
RTVSPropertyOp7
 70
     1
102
RTVSPropertyOp8
 70
     1
102
RTVSPropertyOp9
 70
     1
102
RTVSPropertyOp10
 70
     1
102
RTVSPropertyOp11
 70
     1
102
RTVSPropertyOp12
 70
     1
102
RTVSPropertyOp13
 70
     1
102
RTVSPropertyOp14
 70
     1
102
RTVSPropertyOp15
 70
     1
102
RTVSPropertyOp16
 70
     1
102
RTVSPropertyOp17
 70
     1
102
RTVSPropertyOp18
 70
     1
102
RTVSPropertyOp19
 70
     1
102
RTVSPropertyOp20
 70
     1
102
RTVSPropertyOp21
 70
     1
102
RTVSPropertyOp22
 70
     1
102
RTVSPropertyOp23
 70
     1
102
RTVSPropertyOp24
 70
     1
102
RTVSPropertyOp25
 70
     1
102
RTVSPropertyOp26
 70
     1
102
RTVSPropertyOp27
 70
     1
102
RTVSPropertyOp28
 70
     1
102
RTVSPropertyOp29
 70
     1
102
RTVSPropertyOp30
 70
     1
102
RTVSPropertyOp31
 70
     1
102
RTVSPropertyOp32
 70
     1
102
RTVSPropertyOp33
 70
     1
102
RTVSPropertyOp34
 70
     1
102
RTVSPropertyOp35
 70
     1
102
RTVSPropertyOp36
 70
     1
102
RTVSPropertyOp37
 70
     1
102
RTVSPropertyOp38
 70
     1
102
RTVSPropertyOp39
 70
     1
102
RTVSPropertyOp40
 70
     1
102
RTVSPropertyOp41
 70
     1
102
RTVSPropertyOp42
 70
     1
102
RTVSPropertyOp43
 70
     1
102
RTVSPropertyOp44
 70
     1
102
RTVSPropertyOp45
 70
     1
102
RTVSPropertyOp46
 70
     1
102
RTVSPropertyOp47
 70
     1
102
RTVSPropertyOp48
 70
     1
102
RTVSPropertyOp49
 70
     1
102
RTVSPropertyOp50
 70
     1
102
RTVSPropertyOp51
 70
     0
102
RTVSPropertyOp52
 70
     0
102
RTVSPropertyOp53
 70
     1
102
RTVSPropertyOp54
 70
     1
102
RTVSPropertyOp55
 70
     1
102
RTVSPropertyOp56
 70
     1
102
RTVSPropertyOp57
 70
     1
102
RTVSPropertyOp58
 70
     1
102
RTVSPropertyOp59
 70
     1
102
RTVSPropertyOp60
 70
     1
102
RTVSPropertyOp61
 70
     1
102
RTVSPropertyOp62
 70
     1
  0
XRECORD
  5
2581
102
{ACAD_REACTORS
330
2580
102
}
330
2580
100
AcDbXrecord
280
     1
102
RTVSPost2010Prop28
280
     0
102
RTVSPost2010PropOp28
 70
     1
102
RTVSPost2010Prop29
280
     1
102
RTVSPost2010PropOp29
 70
     1
102
RTVSPost2010Prop30
280
     1
102
RTVSPost2010PropOp30
 70
     1
102
RTVSPost2010Prop31
280
     0
102
RTVSPost2010PropOp31
 70
     1
102
RTVSPost2010Prop32
280
     0
102
RTVSPost2010PropOp32
 70
     1
102
RTVSPost2010Prop33
280
     0
102
RTVSPost2010PropOp33
 70
     1
102
RTVSPost2010Prop34
280
     0
102
RTVSPost2010PropOp34
 70
     1
102
RTVSPost2010Prop35
280
     0
102
RTVSPost2010PropOp35
 70
     1
102
RTVSPost2010Prop36
280
     0
102
RTVSPost2010PropOp36
 70
     1
102
RTVSPost2010Prop37
 90
       50
102
RTVSPost2010PropOp37
 70
     1
102
RTVSPost2010Prop38
140
0.0
102
RTVSPost2010PropOp38
 70
     1
102
RTVSPost2010Prop39
140
1.0
102
RTVSPost2010PropOp39
 70
     1
102
RTVSPost2010Prop40
 90
        0
102
RTVSPost2010PropOp40
 70
     1
102
RTVSPost2010Prop41ColorIndex
 90
       18
102
RTVSPost2010Prop41ColorRGB
 90
        0
102
RTVSPost2010PropOp41
 70
     1
102
RTVSPost2010Prop42
 90
       50
102
RTVSPost2010PropOp42
 70
     1
102
RTVSPost2010Prop43
 90
        3
102
RTVSPost2010PropOp43
 70
     1
102
RTVSPost2010Prop44ColorIndex
 90
        5
102
RTVSPost2010Prop44ColorRGB
 90
      255
102
RTVSPost2010PropOp44
 70
     1
102
RTVSPost2010Prop45
280
     0
102
RTVSPost2010PropOp45
 70
     1
102
RTVSPost2010Prop46
 90
       50
102
RTVSPost2010PropOp46
 70
     1
102
RTVSPost2010Prop47
 90
       50
102
RTVSPost2010PropOp47
 70
     1
102
RTVSPost2010Prop48
 90
       50
102
RTVSPost2010PropOp48
 70
     1
102
RTVSPost2010Prop49
280
     0
102
RTVSPost2010PropOp49
 70
     1
102
RTVSPost2010Prop50
 90
       50
102
RTVSPost2010PropOp50
 70
     1
102
RTVSPost2010Prop51ColorIndex
 90
      256
102
RTVSPost2010Prop51ColorRGB
 90
-16777216
102
RTVSPost2010PropOp51
 70
     0
102
RTVSPost2010Prop52
140
1.0
102
RTVSPost2010PropOp52
 70
     0
102
RTVSPost2010Prop53
 90
        2
102
RTVSPost2010PropOp53
 70
     1
102
RTVSPost2010Prop54
  1
strokes_ogs.tif
102
RTVSPost2010PropOp54
 70
     1
102
RTVSPost2010Prop55
280
     0
102
RTVSPost2010PropOp55
 70
     1
102
RTVSPost2010Prop56
140
1.0
102
RTVSPost2010PropOp56
 70
     1
102
RTVSPost2010Prop57
140
1.0
102
RTVSPost2010PropOp57
 70
     1
102
RTVSPropertyOp0
 70
     1
102
RTVSPropertyOp1
 70
     1
102
RTVSPropertyOp2
 70
     1
102
RTVSPropertyOp3
 70
     1
102
RTVSPropertyOp4
 70
     1
102
RTVSPropertyOp5
 70
     1
102
RTVSPropertyOp6
 70
     1
102
RTVSPropertyOp7
 70
     1
102
RTVSPropertyOp8
 70
     1
102
RTVSPropertyOp9
 70
     1
102
RTVSPropertyOp10
 70
     1
102
RTVSPropertyOp11
 70
     1
102
RTVSPropertyOp12
 70
     1
102
RTVSPropertyOp13
 70
     1
102
RTVSPropertyOp14
 70
     1
102
RTVSPropertyOp15
 70
     1
102
RTVSPropertyOp16
 70
     1
102
RTVSPropertyOp17
 70
     1
102
RTVSPropertyOp18
 70
     1
102
RTVSPropertyOp19
 70
     1
102
RTVSPropertyOp20
 70
     1
102
RTVSPropertyOp21
 70
     1
102
RTVSPropertyOp22
 70
     1
102
RTVSPropertyOp23
 70
     1
102
RTVSPropertyOp24
 70
     1
102
RTVSPropertyOp25
 70
     1
102
RTVSPropertyOp26
 70
     1
102
RTVSPropertyOp27
 70
     1
102
RTVSPropertyOp28
 70
     1
102
RTVSPropertyOp29
 70
     1
102
RTVSPropertyOp30
 70
     1
102
RTVSPropertyOp31
 70
     1
102
RTVSPropertyOp32
 70
     1
102
RTVSPropertyOp33
 70
     1
102
RTVSPropertyOp34
 70
     1
102
RTVSPropertyOp35
 70
     1
102
RTVSPropertyOp36
 70
     1
102
RTVSPropertyOp37
 70
     1
102
RTVSPropertyOp38
 70
     1
102
RTVSPropertyOp39
 70
     1
102
RTVSPropertyOp40
 70
     1
102
RTVSPropertyOp41
 70
     1
102
RTVSPropertyOp42
 70
     1
102
RTVSPropertyOp43
 70
     1
102
RTVSPropertyOp44
 70
     1
102
RTVSPropertyOp45
 70
     1
102
RTVSPropertyOp46
 70
     1
102
RTVSPropertyOp47
 70
     1
102
RTVSPropertyOp48
 70
     1
102
RTVSPropertyOp49
 70
     1
102
RTVSPropertyOp50
 70
     1
102
RTVSPropertyOp51
 70
     0
102
RTVSPropertyOp52
 70
     0
102
RTVSPropertyOp53
 70
     1
102
RTVSPropertyOp54
 70
     1
102
RTVSPropertyOp55
 70
     1
102
RTVSPropertyOp56
 70
     1
102
RTVSPropertyOp57
 70
     1
102
RTVSPropertyOp58
 70
     1
102
RTVSPropertyOp59
 70
     1
102
RTVSPropertyOp60
 70
     1
102
RTVSPropertyOp61
 70
     1
102
RTVSPropertyOp62
 70
     1
  0
XRECORD
  5
25B0
102
{ACAD_REACTORS
330
25AF
102
}
330
25AF
100
AcDbXrecord
280
     1
102
RTVSPost2010Prop28
280
     0
102
RTVSPost2010PropOp28
 70
     1
102
RTVSPost2010Prop29
280
     1
102
RTVSPost2010PropOp29
 70
     1
102
RTVSPost2010Prop30
280
     1
102
RTVSPost2010PropOp30
 70
     1
102
RTVSPost2010Prop31
280
     0
102
RTVSPost2010PropOp31
 70
     1
102
RTVSPost2010Prop32
280
     0
102
RTVSPost2010PropOp32
 70
     1
102
RTVSPost2010Prop33
280
     0
102
RTVSPost2010PropOp33
 70
     1
102
RTVSPost2010Prop34
280
     0
102
RTVSPost2010PropOp34
 70
     1
102
RTVSPost2010Prop35
280
     0
102
RTVSPost2010PropOp35
 70
     1
102
RTVSPost2010Prop36
280
     0
102
RTVSPost2010PropOp36
 70
     1
102
RTVSPost2010Prop37
 90
       50
102
RTVSPost2010PropOp37
 70
     1
102
RTVSPost2010Prop38
140
0.0
102
RTVSPost2010PropOp38
 70
     1
102
RTVSPost2010Prop39
140
1.0
102
RTVSPost2010PropOp39
 70
     1
102
RTVSPost2010Prop40
 90
        0
102
RTVSPost2010PropOp40
 70
     1
102
RTVSPost2010Prop41ColorIndex
 90
       18
102
RTVSPost2010Prop41ColorRGB
 90
        0
102
RTVSPost2010PropOp41
 70
     1
102
RTVSPost2010Prop42
 90
       50
102
RTVSPost2010PropOp42
 70
     1
102
RTVSPost2010Prop43
 90
        3
102
RTVSPost2010PropOp43
 70
     1
102
RTVSPost2010Prop44ColorIndex
 90
        5
102
RTVSPost2010Prop44ColorRGB
 90
      255
102
RTVSPost2010PropOp44
 70
     1
102
RTVSPost2010Prop45
280
     0
102
RTVSPost2010PropOp45
 70
     1
102
RTVSPost2010Prop46
 90
       50
102
RTVSPost2010PropOp46
 70
     1
102
RTVSPost2010Prop47
 90
       50
102
RTVSPost2010PropOp47
 70
     1
102
RTVSPost2010Prop48
 90
       50
102
RTVSPost2010PropOp48
 70
     1
102
RTVSPost2010Prop49
280
     0
102
RTVSPost2010PropOp49
 70
     1
102
RTVSPost2010Prop50
 90
       50
102
RTVSPost2010PropOp50
 70
     1
102
RTVSPost2010Prop51ColorIndex
 90
      256
102
RTVSPost2010Prop51ColorRGB
 90
-16777216
102
RTVSPost2010PropOp51
 70
     0
102
RTVSPost2010Prop52
140
1.0
102
RTVSPost2010PropOp52
 70
     0
102
RTVSPost2010Prop53
 90
        2
102
RTVSPost2010PropOp53
 70
     1
102
RTVSPost2010Prop54
  1
strokes_ogs.tif
102
RTVSPost2010PropOp54
 70
     1
102
RTVSPost2010Prop55
280
     0
102
RTVSPost2010PropOp55
 70
     1
102
RTVSPost2010Prop56
140
1.0
102
RTVSPost2010PropOp56
 70
     1
102
RTVSPost2010Prop57
140
1.0
102
RTVSPost2010PropOp57
 70
     1
102
RTVSPropertyOp0
 70
     1
102
RTVSPropertyOp1
 70
     1
102
RTVSPropertyOp2
 70
     1
102
RTVSPropertyOp3
 70
     1
102
RTVSPropertyOp4
 70
     1
102
RTVSPropertyOp5
 70
     1
102
RTVSPropertyOp6
 70
     1
102
RTVSPropertyOp7
 70
     1
102
RTVSPropertyOp8
 70
     1
102
RTVSPropertyOp9
 70
     1
102
RTVSPropertyOp10
 70
     1
102
RTVSPropertyOp11
 70
     1
102
RTVSPropertyOp12
 70
     1
102
RTVSPropertyOp13
 70
     1
102
RTVSPropertyOp14
 70
     1
102
RTVSPropertyOp15
 70
     1
102
RTVSPropertyOp16
 70
     1
102
RTVSPropertyOp17
 70
     1
102
RTVSPropertyOp18
 70
     1
102
RTVSPropertyOp19
 70
     1
102
RTVSPropertyOp20
 70
     1
102
RTVSPropertyOp21
 70
     1
102
RTVSPropertyOp22
 70
     1
102
RTVSPropertyOp23
 70
     1
102
RTVSPropertyOp24
 70
     1
102
RTVSPropertyOp25
 70
     1
102
RTVSPropertyOp26
 70
     1
102
RTVSPropertyOp27
 70
     1
102
RTVSPropertyOp28
 70
     1
102
RTVSPropertyOp29
 70
     1
102
RTVSPropertyOp30
 70
     1
102
RTVSPropertyOp31
 70
     1
102
RTVSPropertyOp32
 70
     1
102
RTVSPropertyOp33
 70
     1
102
RTVSPropertyOp34
 70
     1
102
RTVSPropertyOp35
 70
     1
102
RTVSPropertyOp36
 70
     1
102
RTVSPropertyOp37
 70
     1
102
RTVSPropertyOp38
 70
     1
102
RTVSPropertyOp39
 70
     1
102
RTVSPropertyOp40
 70
     1
102
RTVSPropertyOp41
 70
     1
102
RTVSPropertyOp42
 70
     1
102
RTVSPropertyOp43
 70
     1
102
RTVSPropertyOp44
 70
     1
102
RTVSPropertyOp45
 70
     1
102
RTVSPropertyOp46
 70
     1
102
RTVSPropertyOp47
 70
     1
102
RTVSPropertyOp48
 70
     1
102
RTVSPropertyOp49
 70
     1
102
RTVSPropertyOp50
 70
     1
102
RTVSPropertyOp51
 70
     0
102
RTVSPropertyOp52
 70
     0
102
RTVSPropertyOp53
 70
     1
102
RTVSPropertyOp54
 70
     1
102
RTVSPropertyOp55
 70
     1
102
RTVSPropertyOp56
 70
     1
102
RTVSPropertyOp57
 70
     1
102
RTVSPropertyOp58
 70
     1
102
RTVSPropertyOp59
 70
     1
102
RTVSPropertyOp60
 70
     1
102
RTVSPropertyOp61
 70
     1
102
RTVSPropertyOp62
 70
     1
  0
XRECORD
  5
25B8
102
{ACAD_REACTORS
330
25B7
102
}
330
25B7
100
AcDbXrecord
280
     1
102
RTVSPost2010Prop28
280
     0
102
RTVSPost2010PropOp28
 70
     1
102
RTVSPost2010Prop29
280
     1
102
RTVSPost2010PropOp29
 70
     1
102
RTVSPost2010Prop30
280
     1
102
RTVSPost2010PropOp30
 70
     1
102
RTVSPost2010Prop31
280
     0
102
RTVSPost2010PropOp31
 70
     1
102
RTVSPost2010Prop32
280
     0
102
RTVSPost2010PropOp32
 70
     1
102
RTVSPost2010Prop33
280
     0
102
RTVSPost2010PropOp33
 70
     1
102
RTVSPost2010Prop34
280
     0
102
RTVSPost2010PropOp34
 70
     1
102
RTVSPost2010Prop35
280
     0
102
RTVSPost2010PropOp35
 70
     1
102
RTVSPost2010Prop36
280
     0
102
RTVSPost2010PropOp36
 70
     1
102
RTVSPost2010Prop37
 90
       50
102
RTVSPost2010PropOp37
 70
     1
102
RTVSPost2010Prop38
140
0.0
102
RTVSPost2010PropOp38
 70
     1
102
RTVSPost2010Prop39
140
1.0
102
RTVSPost2010PropOp39
 70
     1
102
RTVSPost2010Prop40
 90
        0
102
RTVSPost2010PropOp40
 70
     1
102
RTVSPost2010Prop41ColorIndex
 90
       18
102
RTVSPost2010Prop41ColorRGB
 90
        0
102
RTVSPost2010PropOp41
 70
     1
102
RTVSPost2010Prop42
 90
       50
102
RTVSPost2010PropOp42
 70
     1
102
RTVSPost2010Prop43
 90
        3
102
RTVSPost2010PropOp43
 70
     1
102
RTVSPost2010Prop44ColorIndex
 90
        5
102
RTVSPost2010Prop44ColorRGB
 90
      255
102
RTVSPost2010PropOp44
 70
     1
102
RTVSPost2010Prop45
280
     0
102
RTVSPost2010PropOp45
 70
     1
102
RTVSPost2010Prop46
 90
       50
102
RTVSPost2010PropOp46
 70
     1
102
RTVSPost2010Prop47
 90
       50
102
RTVSPost2010PropOp47
 70
     1
102
RTVSPost2010Prop48
 90
       50
102
RTVSPost2010PropOp48
 70
     1
102
RTVSPost2010Prop49
280
     0
102
RTVSPost2010PropOp49
 70
     1
102
RTVSPost2010Prop50
 90
       50
102
RTVSPost2010PropOp50
 70
     1
102
RTVSPost2010Prop51ColorIndex
 90
      256
102
RTVSPost2010Prop51ColorRGB
 90
-16777216
102
RTVSPost2010PropOp51
 70
     0
102
RTVSPost2010Prop52
140
1.0
102
RTVSPost2010PropOp52
 70
     0
102
RTVSPost2010Prop53
 90
        2
102
RTVSPost2010PropOp53
 70
     1
102
RTVSPost2010Prop54
  1
strokes_ogs.tif
102
RTVSPost2010PropOp54
 70
     1
102
RTVSPost2010Prop55
280
     0
102
RTVSPost2010PropOp55
 70
     1
102
RTVSPost2010Prop56
140
1.0
102
RTVSPost2010PropOp56
 70
     1
102
RTVSPost2010Prop57
140
1.0
102
RTVSPost2010PropOp57
 70
     1
102
RTVSPropertyOp0
 70
     1
102
RTVSPropertyOp1
 70
     1
102
RTVSPropertyOp2
 70
     1
102
RTVSPropertyOp3
 70
     1
102
RTVSPropertyOp4
 70
     1
102
RTVSPropertyOp5
 70
     1
102
RTVSPropertyOp6
 70
     1
102
RTVSPropertyOp7
 70
     1
102
RTVSPropertyOp8
 70
     1
102
RTVSPropertyOp9
 70
     1
102
RTVSPropertyOp10
 70
     1
102
RTVSPropertyOp11
 70
     1
102
RTVSPropertyOp12
 70
     1
102
RTVSPropertyOp13
 70
     1
102
RTVSPropertyOp14
 70
     1
102
RTVSPropertyOp15
 70
     1
102
RTVSPropertyOp16
 70
     1
102
RTVSPropertyOp17
 70
     1
102
RTVSPropertyOp18
 70
     1
102
RTVSPropertyOp19
 70
     1
102
RTVSPropertyOp20
 70
     1
102
RTVSPropertyOp21
 70
     1
102
RTVSPropertyOp22
 70
     1
102
RTVSPropertyOp23
 70
     1
102
RTVSPropertyOp24
 70
     1
102
RTVSPropertyOp25
 70
     1
102
RTVSPropertyOp26
 70
     1
102
RTVSPropertyOp27
 70
     1
102
RTVSPropertyOp28
 70
     1
102
RTVSPropertyOp29
 70
     1
102
RTVSPropertyOp30
 70
     1
102
RTVSPropertyOp31
 70
     1
102
RTVSPropertyOp32
 70
     1
102
RTVSPropertyOp33
 70
     1
102
RTVSPropertyOp34
 70
     1
102
RTVSPropertyOp35
 70
     1
102
RTVSPropertyOp36
 70
     1
102
RTVSPropertyOp37
 70
     1
102
RTVSPropertyOp38
 70
     1
102
RTVSPropertyOp39
 70
     1
102
RTVSPropertyOp40
 70
     1
102
RTVSPropertyOp41
 70
     1
102
RTVSPropertyOp42
 70
     1
102
RTVSPropertyOp43
 70
     1
102
RTVSPropertyOp44
 70
     1
102
RTVSPropertyOp45
 70
     1
102
RTVSPropertyOp46
 70
     1
102
RTVSPropertyOp47
 70
     1
102
RTVSPropertyOp48
 70
     1
102
RTVSPropertyOp49
 70
     1
102
RTVSPropertyOp50
 70
     1
102
RTVSPropertyOp51
 70
     0
102
RTVSPropertyOp52
 70
     0
102
RTVSPropertyOp53
 70
     1
102
RTVSPropertyOp54
 70
     1
102
RTVSPropertyOp55
 70
     1
102
RTVSPropertyOp56
 70
     1
102
RTVSPropertyOp57
 70
     1
102
RTVSPropertyOp58
 70
     1
102
RTVSPropertyOp59
 70
     1
102
RTVSPropertyOp60
 70
     1
102
RTVSPropertyOp61
 70
     1
102
RTVSPropertyOp62
 70
     1
  0
ENDSEC
  0
EOF
