  0
SECTION
  2
HEADER
  9
$ACADVER
  1
AC1015
  9
$ACADMAINTVER
 70
    20
  9
$DWGCODEPAGE
  3
ANSI_932
  9
$INSBASE
 10
0.0
 20
0.0
 30
0.0
  9
$EXTMIN
 10
29.3164022956
 20
22.7830401426
 30
0.0
  9
$EXTMAX
 10
799.654981674
 20
625.0600561979
 30
0.0
  9
$LIMMIN
 10
0.0
 20
0.0
  9
$LIMMAX
 10
297.0
 20
210.0
  9
$ORTHOMODE
 70
     0
  9
$REGENMODE
 70
     1
  9
$FILLMODE
 70
     1
  9
$QTEXTMODE
 70
     0
  9
$MIRRTEXT
 70
     0
  9
$LTSCALE
 40
3.0
  9
$ATTMODE
 70
     1
  9
$TEXTSIZE
 40
2.0
  9
$TRACEWID
 40
1.0
  9
$TEXTSTYLE
  7
STANDARD
  9
$CLAYER
  8
0
  9
$CELTYPE
  6
BYLAYER
  9
$CECOLOR
 62
   256
  9
$CELTSCALE
 40
1.0
  9
$DISPSILH
 70
     0
  9
$DIMSCALE
 40
3.0
  9
$DIMASZ
 40
1.8
  9
$DIMEXO
 40
0.625
  9
$DIMDLI
 40
3.75
  9
$DIMRND
 40
0.0
  9
$DIMDLE
 40
0.0
  9
$DIMEXE
 40
0.8
  9
$DIMTP
 40
0.0
  9
$DIMTM
 40
0.0
  9
$DIMTXT
 40
1.8
  9
$DIMCEN
 40
2.5
  9
$DIMTSZ
 40
0.0
  9
$DIMTOL
 70
     0
  9
$DIMLIM
 70
     0
  9
$DIMTIH
 70
     0
  9
$DIMTOH
 70
     0
  9
$DIMSE1
 70
     0
  9
$DIMSE2
 70
     0
  9
$DIMTAD
 70
     1
  9
$DIMZIN
 70
     8
  9
$DIMBLK
  1

  9
$DIMASO
 70
     1
  9
$DIMSHO
 70
     1
  9
$DIMPOST
  1

  9
$DIMAPOST
  1

  9
$DIMALT
 70
     0
  9
$DIMALTD
 70
     4
  9
$DIMALTF
 40
0.0394
  9
$DIMLFAC
 40
1.0
  9
$DIMTOFL
 70
     1
  9
$DIMTVP
 40
0.0
  9
$DIMTIX
 70
     0
  9
$DIMSOXD
 70
     0
  9
$DIMSAH
 70
     0
  9
$DIMBLK1
  1

  9
$DIMBLK2
  1

  9
$DIMSTYLE
  2
STANDARD
  9
$DIMCLRD
 70
     0
  9
$DIMCLRE
 70
     0
  9
$DIMCLRT
 70
     0
  9
$DIMTFAC
 40
1.0
  9
$DIMGAP
 40
0.75
  9
$DIMJUST
 70
     0
  9
$DIMSD1
 70
     0
  9
$DIMSD2
 70
     0
  9
$DIMTOLJ
 70
     1
  9
$DIMTZIN
 70
     0
  9
$DIMALTZ
 70
     0
  9
$DIMALTTZ
 70
     0
  9
$DIMUPT
 70
     0
  9
$DIMDEC
 70
     2
  9
$DIMTDEC
 70
     2
  9
$DIMALTU
 70
     8
  9
$DIMALTTD
 70
     4
  9
$DIMTXSTY
  7
STANDARD
  9
$DIMAUNIT
 70
     0
  9
$DIMADEC
 70
     2
  9
$DIMALTRND
 40
0.0
  9
$DIMAZIN
 70
     0
  9
$DIMDSEP
 70
    46
  9
$DIMATFIT
 70
     3
  9
$DIMFRAC
 70
     0
  9
$DIMLDRBLK
  1

  9
$DIMLUNIT
 70
     6
  9
$DIMLWD
 70
    -2
  9
$DIMLWE
 70
    -2
  9
$DIMTMOVE
 70
     0
  9
$LUNITS
 70
     2
  9
$LUPREC
 70
     3
  9
$SKETCHINC
 40
1.0
  9
$FILLETRAD
 40
10.0
  9
$AUNITS
 70
     0
  9
$AUPREC
 70
     2
  9
$MENU
  1
.
  9
$ELEVATION
 40
0.0
  9
$PELEVATION
 40
0.0
  9
$THICKNESS
 40
0.0
  9
$LIMCHECK
 70
     0
  9
$CHAMFERA
 40
0.0
  9
$CHAMFERB
 40
0.0
  9
$CHAMFERC
 40
20.0
  9
$CHAMFERD
 40
0.0
  9
$SKPOLY
 70
     0
  9
$TDCREATE
 40
2453752.665671296
  9
$TDUCREATE
 40
2453752.290681424
  9
$TDUPDATE
 40
2459857.678310185
  9
$TDUUPDATE
 40
2459857.303310185
  9
$TDINDWG
 40
0.4335681597
  9
$TDUSRTIMER
 40
0.4335681597
  9
$USRTIMER
 70
     1
  9
$ANGBASE
 50
0.0
  9
$ANGDIR
 70
     0
  9
$PDMODE
 70
     0
  9
$PDSIZE
 40
-10.0
  9
$PLINEWID
 40
0.0
  9
$SPLFRAME
 70
     0
  9
$SPLINETYPE
 70
     6
  9
$SPLINESEGS
 70
     8
  9
$HANDSEED
  5
2768
  9
$SURFTAB1
 70
     6
  9
$SURFTAB2
 70
     6
  9
$SURFTYPE
 70
     6
  9
$SURFU
 70
     6
  9
$SURFV
 70
     6
  9
$UCSBASE
  2

  9
$UCSNAME
  2

  9
$UCSORG
 10
0.0
 20
0.0
 30
0.0
  9
$UCSXDIR
 10
1.0
 20
0.0
 30
0.0
  9
$UCSYDIR
 10
0.0
 20
1.0
 30
0.0
  9
$UCSORTHOREF
  2

  9
$UCSORTHOVIEW
 70
     0
  9
$UCSORGTOP
 10
0.0
 20
0.0
 30
0.0
  9
$UCSORGBOTTOM
 10
0.0
 20
0.0
 30
0.0
  9
$UCSORGLEFT
 10
0.0
 20
0.0
 30
0.0
  9
$UCSORGRIGHT
 10
0.0
 20
0.0
 30
0.0
  9
$UCSORGFRONT
 10
0.0
 20
0.0
 30
0.0
  9
$UCSORGBACK
 10
0.0
 20
0.0
 30
0.0
  9
$PUCSBASE
  2

  9
$PUCSNAME
  2

  9
$PUCSORG
 10
0.0
 20
0.0
 30
0.0
  9
$PUCSXDIR
 10
1.0
 20
0.0
 30
0.0
  9
$PUCSYDIR
 10
0.0
 20
1.0
 30
0.0
  9
$PUCSORTHOREF
  2

  9
$PUCSORTHOVIEW
 70
     0
  9
$PUCSORGTOP
 10
0.0
 20
0.0
 30
0.0
  9
$PUCSORGBOTTOM
 10
0.0
 20
0.0
 30
0.0
  9
$PUCSORGLEFT
 10
0.0
 20
0.0
 30
0.0
  9
$PUCSORGRIGHT
 10
0.0
 20
0.0
 30
0.0
  9
$PUCSORGFRONT
 10
0.0
 20
0.0
 30
0.0
  9
$PUCSORGBACK
 10
0.0
 20
0.0
 30
0.0
  9
$USERI1
 70
     0
  9
$USERI2
 70
     0
  9
$USERI3
 70
     0
  9
$USERI4
 70
     0
  9
$USERI5
 70
     0
  9
$USERR1
 40
0.0
  9
$USERR2
 40
0.0
  9
$USERR3
 40
0.0
  9
$USERR4
 40
0.0
  9
$USERR5
 40
0.0
  9
$WORLDVIEW
 70
     1
  9
$SHADEDGE
 70
     3
  9
$SHADEDIF
 70
    70
  9
$TILEMODE
 70
     1
  9
$MAXACTVP
 70
    48
  9
$PINSBASE
 10
0.0
 20
0.0
 30
0.0
  9
$PLIMCHECK
 70
     0
  9
$PEXTMIN
 10
0.0
 20
0.0
 30
0.0
  9
$PEXTMAX
 10
0.0
 20
0.0
 30
0.0
  9
$PLIMMIN
 10
0.0
 20
0.0
  9
$PLIMMAX
 10
12.0
 20
9.0
  9
$UNITMODE
 70
     0
  9
$VISRETAIN
 70
     1
  9
$PLINEGEN
 70
     0
  9
$PSLTSCALE
 70
     1
  9
$TREEDEPTH
 70
  3020
  9
$CMLSTYLE
  2
STANDARD
  9
$CMLJUST
 70
     0
  9
$CMLSCALE
 40
1.0
  9
$PROXYGRAPHICS
 70
     1
  9
$MEASUREMENT
 70
     0
  9
$CELWEIGHT
370
    -1
  9
$ENDCAPS
280
     0
  9
$JOINSTYLE
280
     0
  9
$LWDISPLAY
290
     0
  9
$INSUNITS
 70
     0
  9
$HYPERLINKBASE
  1

  9
$STYLESHEET
  1
SEKKEI.CTB
  9
$XEDIT
290
     1
  9
$CEPSNTYPE
380
     0
  9
$PSTYLEMODE
290
     1
  9
$FINGERPRINTGUID
  2
{6385560B-F4B1-4644-A7C2-A3E32AC3D232}
  9
$VERSIONGUID
  2
{22F9F24A-CA81-A94A-9C95-9A60FF332354}
  9
$EXTNAMES
290
     1
  9
$PSVPSCALE
 40
0.0
  9
$OLESTARTUP
290
     0
  0
ENDSEC
  0
SECTION
  2
CLASSES
  0
CLASS
  1
DICTIONARYVAR
  2
AcDbDictionaryVar
  3
ObjectDBX Classes
 90
        0
280
     0
281
     0
  0
CLASS
  1
ACDBDICTIONARYWDFLT
  2
AcDbDictionaryWithDefault
  3
ObjectDBX Classes
 90
        0
280
     0
281
     0
  0
CLASS
  1
MATERIAL
  2
AcDbMaterial
  3
ObjectDBX Classes
 90
     1153
280
     0
281
     0
  0
CLASS
  1
VISUALSTYLE
  2
AcDbVisualStyle
  3
ObjectDBX Classes
 90
     4095
280
     0
281
     0
  0
CLASS
  1
TABLESTYLE
  2
AcDbTableStyle
  3
ObjectDBX Classes
 90
     4095
280
     0
281
     0
  0
CLASS
  1
SCALE
  2
AcDbScale
  3
ObjectDBX Classes
 90
     1153
280
     0
281
     0
  0
CLASS
  1
MLEADERSTYLE
  2
AcDbMLeaderStyle
  3
ACDB_MLEADERSTYLE_CLASS
 90
     4095
280
     0
281
     0
  0
CLASS
  1
CELLSTYLEMAP
  2
AcDbCellStyleMap
  3
ObjectDBX Classes
 90
     1152
280
     0
281
     0
  0
CLASS
  1
ACAD_EVALUATION_GRAPH
  2
AcDbEvalGraph
  3
ObjectDBX Classes
 90
    33921
280
     0
281
     0
  0
CLASS
  1
ACAECUSTOBJ
  2
AcAeEditorObj
  3
AcAeEditorObj
 90
    33792
280
     0
281
     0
  0
CLASS
  1
ACDB_DYNAMICBLOCKPURGEPREVENTER_VERSION
  2
AcDbDynamicBlockPurgePreventer
  3
ObjectDBX Classes
 90
    33921
280
     0
281
     0
  0
CLASS
  1
SORTENTSTABLE
  2
AcDbSortentsTable
  3
ObjectDBX Classes
 90
    32768
280
     0
281
     0
  0
CLASS
  1
ACDBPLACEHOLDER
  2
AcDbPlaceHolder
  3
ObjectDBX Classes
 90
        0
280
     0
281
     0
  0
CLASS
  1
LAYOUT
  2
AcDbLayout
  3
ObjectDBX Classes
 90
        0
280
     0
281
     0
  0
CLASS
  1
ACDBSECTIONVIEWSTYLE
  2
AcDbSectionViewStyle
  3
ObjectDBX Classes
 90
     1025
280
     0
281
     0
  0
CLASS
  1
ACDBDETAILVIEWSTYLE
  2
AcDbDetailViewStyle
  3
ObjectDBX Classes
 90
     1025
280
     0
281
     0
  0
ENDSEC
  0
SECTION
  2
TABLES
  0
TABLE
  2
VPORT
  5
6E
102
{ACAD_XDICTIONARY
360
1929
102
}
330
0
100
AcDbSymbolTable
 70
     1
  0
VPORT
  5
18BA
330
6E
100
AcDbSymbolTableRecord
100
AcDbViewportTableRecord
  2
*Active
 70
     0
 10
0.0
 20
0.0
 11
1.0
 21
1.0
 12
414.4696127416
 22
323.9275327285
 13
0.0
 23
0.0
 14
10.0
 24
10.0
 15
10.0
 25
10.0
 16
0.0
 26
0.0
 36
1.0
 17
0.0
 27
0.0
 37
0.0
 40
607.0644906102
 41
1.9300791557
 42
50.0
 43
0.0
 44
0.0
 50
0.0
 51
0.0
 71
     0
 72
   100
 73
     1
 74
     3
 75
     0
 76
     0
 77
     0
 78
     0
281
     0
 65
     1
110
0.0
120
0.0
130
0.0
111
1.0
121
0.0
131
0.0
112
0.0
122
1.0
132
0.0
 79
     0
146
0.0
1001
ACAD_NAV_VCDISPLAY
1070
     3
  0
ENDTAB
  0
TABLE
  2
LTYPE
  5
69
330
0
100
AcDbSymbolTable
 70
     3
  0
LTYPE
  5
6A
330
69
100
AcDbSymbolTableRecord
100
AcDbLinetypeTableRecord
  2
BYBLOCK
 70
     0
  3

 72
    65
 73
     0
 40
0.0
  0
LTYPE
  5
6B
330
69
100
AcDbSymbolTableRecord
100
AcDbLinetypeTableRecord
  2
BYLAYER
 70
     0
  3

 72
    65
 73
     0
 40
0.0
  0
LTYPE
  5
8
330
69
100
AcDbSymbolTableRecord
100
AcDbLinetypeTableRecord
  2
CONTINUOUS
 70
     0
  3
Solid line
 72
    65
 73
     0
 40
0.0
  0
LTYPE
  5
27C
330
69
100
AcDbSymbolTableRecord
100
AcDbLinetypeTableRecord
  2
sekkei(A2)
 70
     0
  3
center(A2)  ____ _ ____ _ ____ _ ____ _ ____ _ 
 72
    65
 73
     4
 40
14.2875
 49
9.525
 74
     0
 49
-1.5875
 74
     0
 49
1.5875
 74
     0
 49
-1.5875
 74
     0
  0
LTYPE
  5
2B4
330
69
100
AcDbSymbolTableRecord
100
AcDbLinetypeTableRecord
  2
HIDDEN2
 70
     0
  3
Hidden (.5x) _ _ _ _ _ _ _ _ _ _ _ _ _ _ _ _ _
 72
    65
 73
     2
 40
4.7625
 49
3.175
 74
     0
 49
-1.5875
 74
     0
  0
ENDTAB
  0
TABLE
  2
LAYER
  5
66
102
{ACAD_XDICTIONARY
360
196D
102
}
330
0
100
AcDbSymbolTable
 70
     9
  0
LAYER
  5
5E
102
{ACAD_XDICTIONARY
360
1910
102
}
330
66
100
AcDbSymbolTableRecord
100
AcDbLayerTableRecord
  2
0
 70
     0
 62
     7
  6
CONTINUOUS
370
    -3
390
5
  0
LAYER
  5
3E
102
{ACAD_XDICTIONARY
360
1912
102
}
330
66
100
AcDbSymbolTableRecord
100
AcDbLayerTableRecord
  2
CENTER
 70
     0
 62
     3
  6
sekkei(A2)
370
    -3
390
5
  0
LAYER
  5
135
330
66
100
AcDbSymbolTableRecord
100
AcDbLayerTableRecord
  2
DEFPOINTS
 70
     0
 62
     7
  6
CONTINUOUS
290
     0
370
    -3
390
5
  0
LAYER
  5
2B5
102
{ACAD_XDICTIONARY
360
1918
102
}
330
66
100
AcDbSymbolTableRecord
100
AcDbLayerTableRecord
  2
HIDS
 70
     0
 62
     1
  6
HIDDEN2
370
    -3
390
5
  0
LAYER
  5
3FA
102
{ACAD_XDICTIONARY
360
191C
102
}
330
66
100
AcDbSymbolTableRecord
100
AcDbLayerTableRecord
  2
TITLE
 70
     0
 62
     4
  6
CONTINUOUS
290
     0
370
    -3
390
5
  0
LAYER
  5
196A
330
66
100
AcDbSymbolTableRecord
100
AcDbLayerTableRecord
  2
TITLE_C
 70
     0
 62
     4
  6
CONTINUOUS
370
    -3
390
5
1001
AcAecLayerStandard
1000

1000

  0
ENDTAB
  0
TABLE
  2
STYLE
  5
67
330
0
100
AcDbSymbolTable
 70
     1
  0
STYLE
  5
16
330
67
100
AcDbSymbolTableRecord
100
AcDbTextStyleTableRecord
  2
STANDARD
 70
     0
 40
0.0
 41
1.0
 50
0.0
 71
     0
 42
2.0
  3
simplex.shx
  4
extfont.shx
  0
ENDTAB
  0
TABLE
  2
VIEW
  5
6C
330
0
100
AcDbSymbolTable
 70
     0
  0
ENDTAB
  0
TABLE
  2
UCS
  5
6D
330
0
100
AcDbSymbolTable
 70
     0
  0
ENDTAB
  0
TABLE
  2
APPID
  5
70
330
0
100
AcDbSymbolTable
 70
    10
  0
APPID
  5
71
330
70
100
AcDbSymbolTableRecord
100
AcDbRegAppTableRecord
  2
ACAD
 70
     0
  0
APPID
  5
190D
330
70
100
AcDbSymbolTableRecord
100
AcDbRegAppTableRecord
  2
ACAD_MLEADERVER
 70
     0
  0
APPID
  5
196C
330
70
100
AcDbSymbolTableRecord
100
AcDbRegAppTableRecord
  2
AcAecLayerStandard
 70
     0
  0
APPID
  5
1987
330
70
100
AcDbSymbolTableRecord
100
AcDbRegAppTableRecord
  2
ACAD_EXEMPT_FROM_CAD_STANDARDS
 70
     0
  0
APPID
  5
2094
330
70
100
AcDbSymbolTableRecord
100
AcDbRegAppTableRecord
  2
AcadAnnoAV
 70
     0
  0
APPID
  5
20BA
330
70
100
AcDbSymbolTableRecord
100
AcDbRegAppTableRecord
  2
ACAUTHENVIRON
 70
     0
  0
APPID
  5
20BE
330
70
100
AcDbSymbolTableRecord
100
AcDbRegAppTableRecord
  2
AcDbDynamicBlockTrueName
 70
     0
  0
APPID
  5
20BF
330
70
100
AcDbSymbolTableRecord
100
AcDbRegAppTableRecord
  2
AcDbDynamicBlockGUID
 70
     0
  0
APPID
  5
20C1
330
70
100
AcDbSymbolTableRecord
100
AcDbRegAppTableRecord
  2
AcDbBlockRepETag
 70
     0
  0
APPID
  5
2595
330
70
100
AcDbSymbolTableRecord
100
AcDbRegAppTableRecord
  2
ACAD_NAV_VCDISPLAY
 70
     0
  0
ENDTAB
  0
TABLE
  2
DIMSTYLE
  5
72
330
0
100
AcDbSymbolTable
 70
     1
100
AcDbDimStyleTable
 71
     1
340
73
  0
DIMSTYLE
105
73
330
72
100
AcDbSymbolTableRecord
100
AcDbDimStyleTableRecord
  2
STANDARD
 70
     0
 40
3.0
 41
1.8
 42
0.625
 43
3.75
 44
0.8
 73
     0
 74
     0
 77
     1
 78
     8
140
1.8
141
2.5
143
0.0394
147
0.75
171
     4
172
     1
179
     2
271
     2
272
     2
273
     8
274
     4
277
     6
340
16
  0
ENDTAB
  0
TABLE
  2
BLOCK_RECORD
  5
1
330
0
100
AcDbSymbolTable
 70
    60
  0
BLOCK_RECORD
  5
2
330
1
100
AcDbSymbolTableRecord
100
AcDbBlockTableRecord
  2
*MODEL_SPACE
340
60
  0
BLOCK_RECORD
  5
26F8
330
1
100
AcDbSymbolTableRecord
100
AcDbBlockTableRecord
  2
*Paper_Space
340
26F9
  0
BLOCK_RECORD
  5
9EB
330
1
100
AcDbSymbolTableRecord
100
AcDbBlockTableRecord
  2
*D1
340
0
  0
BLOCK_RECORD
  5
9F7
330
1
100
AcDbSymbolTableRecord
100
AcDbBlockTableRecord
  2
*D2
340
0
  0
BLOCK_RECORD
  5
A04
330
1
100
AcDbSymbolTableRecord
100
AcDbBlockTableRecord
  2
*D3
340
0
  0
BLOCK_RECORD
  5
A10
330
1
100
AcDbSymbolTableRecord
100
AcDbBlockTableRecord
  2
*D4
340
0
  0
BLOCK_RECORD
  5
A1C
330
1
100
AcDbSymbolTableRecord
100
AcDbBlockTableRecord
  2
*D5
340
0
  0
BLOCK_RECORD
  5
A28
330
1
100
AcDbSymbolTableRecord
100
AcDbBlockTableRecord
  2
*D6
340
0
  0
BLOCK_RECORD
  5
A34
330
1
100
AcDbSymbolTableRecord
100
AcDbBlockTableRecord
  2
*D7
340
0
  0
BLOCK_RECORD
  5
A40
330
1
100
AcDbSymbolTableRecord
100
AcDbBlockTableRecord
  2
*D8
340
0
  0
BLOCK_RECORD
  5
A4D
330
1
100
AcDbSymbolTableRecord
100
AcDbBlockTableRecord
  2
*D9
340
0
  0
BLOCK_RECORD
  5
A59
330
1
100
AcDbSymbolTableRecord
100
AcDbBlockTableRecord
  2
*D10
340
0
  0
BLOCK_RECORD
  5
A65
330
1
100
AcDbSymbolTableRecord
100
AcDbBlockTableRecord
  2
*D11
340
0
  0
BLOCK_RECORD
  5
A71
330
1
100
AcDbSymbolTableRecord
100
AcDbBlockTableRecord
  2
*D12
340
0
  0
BLOCK_RECORD
  5
A7D
330
1
100
AcDbSymbolTableRecord
100
AcDbBlockTableRecord
  2
*D13
340
0
  0
BLOCK_RECORD
  5
A89
330
1
100
AcDbSymbolTableRecord
100
AcDbBlockTableRecord
  2
*D14
340
0
  0
BLOCK_RECORD
  5
A95
330
1
100
AcDbSymbolTableRecord
100
AcDbBlockTableRecord
  2
*D15
340
0
  0
BLOCK_RECORD
  5
BE5
330
1
100
AcDbSymbolTableRecord
100
AcDbBlockTableRecord
  2
*D16
340
0
  0
BLOCK_RECORD
  5
BF1
330
1
100
AcDbSymbolTableRecord
100
AcDbBlockTableRecord
  2
*D17
340
0
  0
BLOCK_RECORD
  5
BFD
330
1
100
AcDbSymbolTableRecord
100
AcDbBlockTableRecord
  2
*D18
340
0
  0
BLOCK_RECORD
  5
C09
330
1
100
AcDbSymbolTableRecord
100
AcDbBlockTableRecord
  2
*D19
340
0
  0
BLOCK_RECORD
  5
C15
330
1
100
AcDbSymbolTableRecord
100
AcDbBlockTableRecord
  2
*D20
340
0
  0
BLOCK_RECORD
  5
C21
330
1
100
AcDbSymbolTableRecord
100
AcDbBlockTableRecord
  2
*D21
340
0
  0
BLOCK_RECORD
  5
C2D
330
1
100
AcDbSymbolTableRecord
100
AcDbBlockTableRecord
  2
*D22
340
0
  0
BLOCK_RECORD
  5
C39
330
1
100
AcDbSymbolTableRecord
100
AcDbBlockTableRecord
  2
*D23
340
0
  0
BLOCK_RECORD
  5
C45
330
1
100
AcDbSymbolTableRecord
100
AcDbBlockTableRecord
  2
*D24
340
0
  0
BLOCK_RECORD
  5
C53
330
1
100
AcDbSymbolTableRecord
100
AcDbBlockTableRecord
  2
*D25
340
0
  0
BLOCK_RECORD
  5
C5F
330
1
100
AcDbSymbolTableRecord
100
AcDbBlockTableRecord
  2
*D26
340
0
  0
BLOCK_RECORD
  5
C6B
330
1
100
AcDbSymbolTableRecord
100
AcDbBlockTableRecord
  2
*D27
340
0
  0
BLOCK_RECORD
  5
12AF
330
1
100
AcDbSymbolTableRecord
100
AcDbBlockTableRecord
  2
*D28
340
0
  0
BLOCK_RECORD
  5
178E
330
1
100
AcDbSymbolTableRecord
100
AcDbBlockTableRecord
  2
*D30
340
0
  0
BLOCK_RECORD
  5
179C
330
1
100
AcDbSymbolTableRecord
100
AcDbBlockTableRecord
  2
*D31
340
0
  0
BLOCK_RECORD
  5
17A8
330
1
100
AcDbSymbolTableRecord
100
AcDbBlockTableRecord
  2
*D32
340
0
  0
BLOCK_RECORD
  5
17B4
330
1
100
AcDbSymbolTableRecord
100
AcDbBlockTableRecord
  2
*D33
340
0
  0
BLOCK_RECORD
  5
18AD
330
1
100
AcDbSymbolTableRecord
100
AcDbBlockTableRecord
  2
*D35
340
0
  0
ENDTAB
  0
ENDSEC
  0
SECTION
  2
BLOCKS
  0
BLOCK
  5
5D
330
2
100
AcDbEntity
  8
0
100
AcDbBlockBegin
  2
*MODEL_SPACE
 70
     0
 10
0.0
 20
0.0
 30
0.0
  3
*MODEL_SPACE
  1

  0
ENDBLK
  5
5F
330
2
100
AcDbEntity
  8
0
100
AcDbBlockEnd
  0
BLOCK
  5
26FA
330
26F8
100
AcDbEntity
 67
     1
  8
0
100
AcDbBlockBegin
  2
*Paper_Space
 70
     0
 10
0.0
 20
0.0
 30
0.0
  3
*Paper_Space
  1

  0
ENDBLK
  5
26FB
330
26F8
100
AcDbEntity
 67
     1
  8
0
100
AcDbBlockEnd
  0
BLOCK
  5
9F5
330
9EB
100
AcDbEntity
  8
0
100
AcDbBlockBegin
  2
*D1
 70
     1
 10
0.0
 20
0.0
 30
0.0
  3
*D1
  1

  0
POINT
  5
1264
330
9EB
100
AcDbEntity
  8
DEFPOINTS
 62
     0
100
AcDbPoint
 10
766.1627863067
 20
208.6074721834
 30
0.0
  0
POINT
  5
1265
330
9EB
100
AcDbEntity
  8
DEFPOINTS
 62
     0
100
AcDbPoint
 10
711.1627863067
 20
68.6074651834
 30
0.0
  0
POINT
  5
1266
330
9EB
100
AcDbEntity
  8
DEFPOINTS
 62
     0
100
AcDbPoint
 10
797.254981674
 20
68.6074651834
 30
0.0
  0
ENDBLK
  5
9F6
330
9EB
100
AcDbEntity
  8
0
100
AcDbBlockEnd
  0
BLOCK
  5
A02
330
9F7
100
AcDbEntity
  8
0
100
AcDbBlockBegin
  2
*D2
 70
     1
 10
0.0
 20
0.0
 30
0.0
  3
*D2
  1

  0
POINT
  5
1280
330
9F7
100
AcDbEntity
  8
DEFPOINTS
 62
     0
100
AcDbPoint
 10
756.1627863067
 20
192.6074721834
 30
0.0
  0
POINT
  5
1281
330
9F7
100
AcDbEntity
  8
DEFPOINTS
 62
     0
100
AcDbPoint
 10
756.1627863067
 20
224.6074721834
 30
0.0
  0
POINT
  5
1282
330
9F7
100
AcDbEntity
  8
DEFPOINTS
 62
     0
100
AcDbPoint
 10
779.1981275677
 20
224.6074721834
 30
0.0
  0
ENDBLK
  5
A03
330
9F7
100
AcDbEntity
  8
0
100
AcDbBlockEnd
  0
BLOCK
  5
A0E
330
A04
100
AcDbEntity
  8
0
100
AcDbBlockBegin
  2
*D3
 70
     1
 10
0.0
 20
0.0
 30
0.0
  3
*D3
  1

  0
POINT
  5
121F
330
A04
100
AcDbEntity
  8
DEFPOINTS
 62
     0
100
AcDbPoint
 10
516.1627473067
 20
224.6074651834
 30
0.0
  0
POINT
  5
1220
330
A04
100
AcDbEntity
  8
DEFPOINTS
 62
     0
100
AcDbPoint
 10
756.1627863067
 20
224.6074721834
 30
0.0
  0
POINT
  5
1221
330
A04
100
AcDbEntity
  8
DEFPOINTS
 62
     0
100
AcDbPoint
 10
756.1627863067
 20
327.5973744901
 30
0.0
  0
ENDBLK
  5
A0F
330
A04
100
AcDbEntity
  8
0
100
AcDbBlockEnd
  0
BLOCK
  5
A1A
330
A10
100
AcDbEntity
  8
0
100
AcDbBlockBegin
  2
*D4
 70
     1
 10
0.0
 20
0.0
 30
0.0
  3
*D4
  1

  0
POINT
  5
1216
330
A10
100
AcDbEntity
  8
DEFPOINTS
 62
     0
100
AcDbPoint
 10
636.1627783067
 20
283.6074721834
 30
0.0
  0
POINT
  5
1217
330
A10
100
AcDbEntity
  8
DEFPOINTS
 62
     0
100
AcDbPoint
 10
756.1627863067
 20
224.6074721834
 30
0.0
  0
POINT
  5
1218
330
A10
100
AcDbEntity
  8
DEFPOINTS
 62
     0
100
AcDbPoint
 10
756.1627863067
 20
309.6106462171
 30
0.0
  0
ENDBLK
  5
A1B
330
A10
100
AcDbEntity
  8
0
100
AcDbBlockEnd
  0
BLOCK
  5
A26
330
A1C
100
AcDbEntity
  8
0
100
AcDbBlockBegin
  2
*D5
 70
     1
 10
0.0
 20
0.0
 30
0.0
  3
*D5
  1

  0
POINT
  5
1289
330
A1C
100
AcDbEntity
  8
DEFPOINTS
 62
     0
100
AcDbPoint
 10
706.1627863067
 20
208.6074721834
 30
0.0
  0
POINT
  5
128A
330
A1C
100
AcDbEntity
  8
DEFPOINTS
 62
     0
100
AcDbPoint
 10
756.1627863067
 20
224.6074721834
 30
0.0
  0
POINT
  5
128B
330
A1C
100
AcDbEntity
  8
DEFPOINTS
 62
     0
100
AcDbPoint
 10
756.1627863067
 20
273.5077266088
 30
0.0
  0
ENDBLK
  5
A27
330
A1C
100
AcDbEntity
  8
0
100
AcDbBlockEnd
  0
BLOCK
  5
A32
330
A28
100
AcDbEntity
  8
0
100
AcDbBlockBegin
  2
*D6
 70
     1
 10
0.0
 20
0.0
 30
0.0
  3
*D6
  1

  0
POINT
  5
1292
330
A28
100
AcDbEntity
  8
DEFPOINTS
 62
     0
100
AcDbPoint
 10
701.1627863067
 20
226.1074721834
 30
0.0
  0
POINT
  5
1293
330
A28
100
AcDbEntity
  8
DEFPOINTS
 62
     0
100
AcDbPoint
 10
756.1627863067
 20
224.6074721834
 30
0.0
  0
POINT
  5
1294
330
A28
100
AcDbEntity
  8
DEFPOINTS
 62
     0
100
AcDbPoint
 10
756.1627863067
 20
291.39656016
 30
0.0
  0
ENDBLK
  5
A33
330
A28
100
AcDbEntity
  8
0
100
AcDbBlockEnd
  0
BLOCK
  5
A3E
330
A34
100
AcDbEntity
  8
0
100
AcDbBlockBegin
  2
*D7
 70
     1
 10
0.0
 20
0.0
 30
0.0
  3
*D7
  1

  0
POINT
  5
120D
330
A34
100
AcDbEntity
  8
DEFPOINTS
 62
     0
100
AcDbPoint
 10
636.1627783067
 20
283.6074721834
 30
0.0
  0
POINT
  5
120E
330
A34
100
AcDbEntity
  8
DEFPOINTS
 62
     0
100
AcDbPoint
 10
516.1627473067
 20
224.6074651834
 30
0.0
  0
POINT
  5
120F
330
A34
100
AcDbEntity
  8
DEFPOINTS
 62
     0
100
AcDbPoint
 10
516.1627473067
 20
309.6106462171
 30
0.0
  0
ENDBLK
  5
A3F
330
A34
100
AcDbEntity
  8
0
100
AcDbBlockEnd
  0
BLOCK
  5
A4B
330
A40
100
AcDbEntity
  8
0
100
AcDbBlockBegin
  2
*D8
 70
     1
 10
0.0
 20
0.0
 30
0.0
  3
*D8
  1

  0
POINT
  5
125B
330
A40
100
AcDbEntity
  8
DEFPOINTS
 62
     0
100
AcDbPoint
 10
516.1627703067
 20
192.6074721834
 30
0.0
  0
POINT
  5
125C
330
A40
100
AcDbEntity
  8
DEFPOINTS
 62
     0
100
AcDbPoint
 10
516.1627703067
 20
224.6074721834
 30
0.0
  0
POINT
  5
125D
330
A40
100
AcDbEntity
  8
DEFPOINTS
 62
     0
100
AcDbPoint
 10
493.1274290456
 20
224.6074721834
 30
0.0
  0
ENDBLK
  5
A4C
330
A40
100
AcDbEntity
  8
0
100
AcDbBlockEnd
  0
BLOCK
  5
A57
330
A4D
100
AcDbEntity
  8
0
100
AcDbBlockBegin
  2
*D9
 70
     1
 10
0.0
 20
0.0
 30
0.0
  3
*D9
  1

  0
POINT
  5
1248
330
A4D
100
AcDbEntity
  8
DEFPOINTS
 62
     0
100
AcDbPoint
 10
566.1627703067
 20
208.6074721834
 30
0.0
  0
POINT
  5
1249
330
A4D
100
AcDbEntity
  8
DEFPOINTS
 62
     0
100
AcDbPoint
 10
516.1627703067
 20
224.6074721834
 30
0.0
  0
POINT
  5
124A
330
A4D
100
AcDbEntity
  8
DEFPOINTS
 62
     0
100
AcDbPoint
 10
516.1627703067
 20
273.5077266088
 30
0.0
  0
ENDBLK
  5
A58
330
A4D
100
AcDbEntity
  8
0
100
AcDbBlockEnd
  0
BLOCK
  5
A63
330
A59
100
AcDbEntity
  8
0
100
AcDbBlockBegin
  2
*D10
 70
     1
 10
0.0
 20
0.0
 30
0.0
  3
*D10
  1

  0
POINT
  5
1251
330
A59
100
AcDbEntity
  8
DEFPOINTS
 62
     0
100
AcDbPoint
 10
571.1627703067
 20
226.1074721834
 30
0.0
  0
POINT
  5
1252
330
A59
100
AcDbEntity
  8
DEFPOINTS
 62
     0
100
AcDbPoint
 10
516.1627703067
 20
224.6074721834
 30
0.0
  0
POINT
  5
1253
330
A59
100
AcDbEntity
  8
DEFPOINTS
 62
     0
100
AcDbPoint
 10
516.1627703067
 20
291.39656016
 30
0.0
  0
ENDBLK
  5
A64
330
A59
100
AcDbEntity
  8
0
100
AcDbBlockEnd
  0
BLOCK
  5
A6F
330
A65
100
AcDbEntity
  8
0
100
AcDbBlockBegin
  2
*D11
 70
     1
 10
0.0
 20
0.0
 30
0.0
  3
*D11
  1

  0
POINT
  5
122D
330
A65
100
AcDbEntity
  8
DEFPOINTS
 62
     0
100
AcDbPoint
 10
576.1627823067
 20
63.6074651834
 30
0.0
  0
POINT
  5
122E
330
A65
100
AcDbEntity
  8
DEFPOINTS
 62
     0
100
AcDbPoint
 10
696.1627863067
 20
63.6074651834
 30
0.0
  0
POINT
  5
122F
330
A65
100
AcDbEntity
  8
DEFPOINTS
 62
     0
100
AcDbPoint
 10
696.1627863067
 20
43.1881716413
 30
0.0
  0
ENDBLK
  5
A70
330
A65
100
AcDbEntity
  8
0
100
AcDbBlockEnd
  0
BLOCK
  5
A7B
330
A71
100
AcDbEntity
  8
0
100
AcDbBlockBegin
  2
*D12
 70
     1
 10
0.0
 20
0.0
 30
0.0
  3
*D12
  1

  0
POINT
  5
1236
330
A71
100
AcDbEntity
  8
DEFPOINTS
 62
     0
100
AcDbPoint
 10
561.1627813067
 20
68.6074651834
 30
0.0
  0
POINT
  5
1237
330
A71
100
AcDbEntity
  8
DEFPOINTS
 62
     0
100
AcDbPoint
 10
711.1627863067
 20
68.6074651834
 30
0.0
  0
POINT
  5
1238
330
A71
100
AcDbEntity
  8
DEFPOINTS
 62
     0
100
AcDbPoint
 10
711.1627863067
 20
25.1830401426
 30
0.0
  0
ENDBLK
  5
A7C
330
A71
100
AcDbEntity
  8
0
100
AcDbBlockEnd
  0
BLOCK
  5
A87
330
A7D
100
AcDbEntity
  8
0
100
AcDbBlockBegin
  2
*D13
 70
     1
 10
0.0
 20
0.0
 30
0.0
  3
*D13
  1

  0
POINT
  5
123F
330
A7D
100
AcDbEntity
  8
DEFPOINTS
 62
     0
100
AcDbPoint
 10
576.1627703067
 20
63.6074651834
 30
0.0
  0
POINT
  5
1240
330
A7D
100
AcDbEntity
  8
DEFPOINTS
 62
     0
100
AcDbPoint
 10
516.1627703067
 20
192.6074721834
 30
0.0
  0
POINT
  5
1241
330
A7D
100
AcDbEntity
  8
DEFPOINTS
 62
     0
100
AcDbPoint
 10
516.1627703067
 20
43.1881716413
 30
0.0
  0
ENDBLK
  5
A88
330
A7D
100
AcDbEntity
  8
0
100
AcDbBlockEnd
  0
BLOCK
  5
A93
330
A89
100
AcDbEntity
  8
0
100
AcDbBlockBegin
  2
*D14
 70
     1
 10
0.0
 20
0.0
 30
0.0
  3
*D14
  1

  0
POINT
  5
126D
330
A89
100
AcDbEntity
  8
DEFPOINTS
 62
     0
100
AcDbPoint
 10
696.1627863067
 20
63.6074651834
 30
0.0
  0
POINT
  5
126E
330
A89
100
AcDbEntity
  8
DEFPOINTS
 62
     0
100
AcDbPoint
 10
756.1627863067
 20
192.6074721834
 30
0.0
  0
POINT
  5
126F
330
A89
100
AcDbEntity
  8
DEFPOINTS
 62
     0
100
AcDbPoint
 10
756.1627863067
 20
43.1881716413
 30
0.0
  0
ENDBLK
  5
A94
330
A89
100
AcDbEntity
  8
0
100
AcDbBlockEnd
  0
BLOCK
  5
A9F
330
A95
100
AcDbEntity
  8
0
100
AcDbBlockBegin
  2
*D15
 70
     1
 10
0.0
 20
0.0
 30
0.0
  3
*D15
  1

  0
POINT
  5
1276
330
A95
100
AcDbEntity
  8
DEFPOINTS
 62
     0
100
AcDbPoint
 10
711.1627863067
 20
68.6074651834
 30
0.0
  0
POINT
  5
1277
330
A95
100
AcDbEntity
  8
DEFPOINTS
 62
     0
100
AcDbPoint
 10
708.6627863067
 20
86.6074651834
 30
0.0
  0
POINT
  5
1278
330
A95
100
AcDbEntity
  8
DEFPOINTS
 62
     0
100
AcDbPoint
 10
735.980726712
 20
86.6074651834
 30
0.0
  0
ENDBLK
  5
AA0
330
A95
100
AcDbEntity
  8
0
100
AcDbBlockEnd
  0
BLOCK
  5
BEF
330
BE5
100
AcDbEntity
  8
0
100
AcDbBlockBegin
  2
*D16
 70
     1
 10
0.0
 20
0.0
 30
0.0
  3
*D16
  1

  0
POINT
  5
F65
330
BE5
100
AcDbEntity
  8
DEFPOINTS
 62
     0
100
AcDbPoint
 10
343.0432597801
 20
283.6074651834
 30
0.0
  0
POINT
  5
F66
330
BE5
100
AcDbEntity
  8
DEFPOINTS
 62
     0
100
AcDbPoint
 10
419.0432597801
 20
236.9130231834
 30
0.0
  0
POINT
  5
F67
330
BE5
100
AcDbEntity
  8
DEFPOINTS
 62
     0
100
AcDbPoint
 10
419.0432597801
 20
309.6106392171
 30
0.0
  0
ENDBLK
  5
BF0
330
BE5
100
AcDbEntity
  8
0
100
AcDbBlockEnd
  0
BLOCK
  5
BFB
330
BF1
100
AcDbEntity
  8
0
100
AcDbBlockBegin
  2
*D17
 70
     1
 10
0.0
 20
0.0
 30
0.0
  3
*D17
  1

  0
POINT
  5
F6E
330
BF1
100
AcDbEntity
  8
DEFPOINTS
 62
     0
100
AcDbPoint
 10
61.0432727801
 20
185.6074651834
 30
0.0
  0
POINT
  5
F6F
330
BF1
100
AcDbEntity
  8
DEFPOINTS
 62
     0
100
AcDbPoint
 10
419.0432597801
 20
236.9130231834
 30
0.0
  0
POINT
  5
F70
330
BF1
100
AcDbEntity
  8
DEFPOINTS
 62
     0
100
AcDbPoint
 10
419.0432597801
 20
327.5973674901
 30
0.0
  0
ENDBLK
  5
BFC
330
BF1
100
AcDbEntity
  8
0
100
AcDbBlockEnd
  0
BLOCK
  5
C07
330
BFD
100
AcDbEntity
  8
0
100
AcDbBlockBegin
  2
*D18
 70
     1
 10
0.0
 20
0.0
 30
0.0
  3
*D18
  1

  0
POINT
  5
FB6
330
BFD
100
AcDbEntity
  8
DEFPOINTS
 62
     0
100
AcDbPoint
 10
327.0432597801
 20
208.6074651834
 30
0.0
  0
POINT
  5
FB7
330
BFD
100
AcDbEntity
  8
DEFPOINTS
 62
     0
100
AcDbPoint
 10
362.0432597801
 20
213.6075261834
 30
0.0
  0
POINT
  5
FB8
330
BFD
100
AcDbEntity
  8
DEFPOINTS
 62
     0
100
AcDbPoint
 10
362.0432597801
 20
291.39656016
 30
0.0
  0
ENDBLK
  5
C08
330
BFD
100
AcDbEntity
  8
0
100
AcDbBlockEnd
  0
BLOCK
  5
C13
330
C09
100
AcDbEntity
  8
0
100
AcDbBlockBegin
  2
*D19
 70
     1
 10
0.0
 20
0.0
 30
0.0
  3
*D19
  1

  0
POINT
  5
FAD
330
C09
100
AcDbEntity
  8
DEFPOINTS
 62
     0
100
AcDbPoint
 10
255.0432597801
 20
227.6074651834
 30
0.0
  0
POINT
  5
FAE
330
C09
100
AcDbEntity
  8
DEFPOINTS
 62
     0
100
AcDbPoint
 10
200.5432597801
 20
195.6074651834
 30
0.0
  0
POINT
  5
FAF
330
C09
100
AcDbEntity
  8
DEFPOINTS
 62
     0
100
AcDbPoint
 10
200.5432597801
 20
309.6106392171
 30
0.0
  0
ENDBLK
  5
C14
330
C09
100
AcDbEntity
  8
0
100
AcDbBlockEnd
  0
BLOCK
  5
C1F
330
C15
100
AcDbEntity
  8
0
100
AcDbBlockBegin
  2
*D20
 70
     1
 10
0.0
 20
0.0
 30
0.0
  3
*D20
  1

  0
POINT
  5
F80
330
C15
100
AcDbEntity
  8
DEFPOINTS
 62
     0
100
AcDbPoint
 10
200.5432597801
 20
195.6074651834
 30
0.0
  0
POINT
  5
F81
330
C15
100
AcDbEntity
  8
DEFPOINTS
 62
     0
100
AcDbPoint
 10
61.0432727801
 20
185.6074651834
 30
0.0
  0
POINT
  5
F82
330
C15
100
AcDbEntity
  8
DEFPOINTS
 62
     0
100
AcDbPoint
 10
61.0432727801
 20
309.6106392171
 30
0.0
  0
ENDBLK
  5
C20
330
C15
100
AcDbEntity
  8
0
100
AcDbBlockEnd
  0
BLOCK
  5
C2B
330
C21
100
AcDbEntity
  8
0
100
AcDbBlockBegin
  2
*D21
 70
     1
 10
0.0
 20
0.0
 30
0.0
  3
*D21
  1

  0
POINT
  5
F9B
330
C21
100
AcDbEntity
  8
DEFPOINTS
 62
     0
100
AcDbPoint
 10
343.0432597801
 20
283.6074651834
 30
0.0
  0
POINT
  5
F9C
330
C21
100
AcDbEntity
  8
DEFPOINTS
 62
     0
100
AcDbPoint
 10
255.0432597801
 20
227.6074651834
 30
0.0
  0
POINT
  5
F9D
330
C21
100
AcDbEntity
  8
DEFPOINTS
 62
     0
100
AcDbPoint
 10
255.0432597801
 20
309.6106392171
 30
0.0
  0
ENDBLK
  5
C2C
330
C21
100
AcDbEntity
  8
0
100
AcDbBlockEnd
  0
BLOCK
  5
C37
330
C2D
100
AcDbEntity
  8
0
100
AcDbBlockBegin
  2
*D22
 70
     1
 10
0.0
 20
0.0
 30
0.0
  3
*D22
  1

  0
POINT
  5
F89
330
C2D
100
AcDbEntity
  8
DEFPOINTS
 62
     0
100
AcDbPoint
 10
65.5847147801
 20
105.6074621834
 30
0.0
  0
POINT
  5
F8A
330
C2D
100
AcDbEntity
  8
DEFPOINTS
 62
     0
100
AcDbPoint
 10
65.5847147801
 20
195.6074651834
 30
0.0
  0
POINT
  5
F8B
330
C2D
100
AcDbEntity
  8
DEFPOINTS
 62
     0
100
AcDbPoint
 10
36.9664022956
 20
195.6074651834
 30
0.0
  0
ENDBLK
  5
C38
330
C2D
100
AcDbEntity
  8
0
100
AcDbBlockEnd
  0
BLOCK
  5
C43
330
C39
100
AcDbEntity
  8
0
100
AcDbBlockBegin
  2
*D23
 70
     1
 10
0.0
 20
0.0
 30
0.0
  3
*D23
  1

  0
POINT
  5
FA4
330
C39
100
AcDbEntity
  8
DEFPOINTS
 62
     0
100
AcDbPoint
 10
287.9708727343
 20
208.6074651834
 30
0.0
  0
POINT
  5
FA5
330
C39
100
AcDbEntity
  8
DEFPOINTS
 62
     0
100
AcDbPoint
 10
299.9296117801
 20
150.6074651834
 30
0.0
  0
POINT
  5
FA6
330
C39
100
AcDbEntity
  8
DEFPOINTS
 62
     0
100
AcDbPoint
 10
280.3787567443
 20
150.6074651834
 30
0.0
  0
ENDBLK
  5
C44
330
C39
100
AcDbEntity
  8
0
100
AcDbBlockEnd
  0
BLOCK
  5
C51
330
C45
100
AcDbEntity
  8
0
100
AcDbBlockBegin
  2
*D24
 70
     1
 10
0.0
 20
0.0
 30
0.0
  3
*D24
  1

  0
POINT
  5
F53
330
C45
100
AcDbEntity
  8
DEFPOINTS
 62
     0
100
AcDbPoint
 10
362.0432597801
 20
203.6075261834
 30
0.0
  0
POINT
  5
F54
330
C45
100
AcDbEntity
  8
DEFPOINTS
 62
     0
100
AcDbPoint
 10
362.0432597801
 20
213.6075261834
 30
0.0
  0
POINT
  5
F55
330
C45
100
AcDbEntity
  8
DEFPOINTS
 62
     0
100
AcDbPoint
 10
438.7444152507
 20
213.6075261834
 30
0.0
  0
ENDBLK
  5
C52
330
C45
100
AcDbEntity
  8
0
100
AcDbBlockEnd
  0
BLOCK
  5
C5D
330
C53
100
AcDbEntity
  8
0
100
AcDbBlockBegin
  2
*D25
 70
     1
 10
0.0
 20
0.0
 30
0.0
  3
*D25
  1

  0
POINT
  5
F5C
330
C53
100
AcDbEntity
  8
DEFPOINTS
 62
     0
100
AcDbPoint
 10
419.0432597801
 20
68.6074691834
 30
0.0
  0
POINT
  5
F5D
330
C53
100
AcDbEntity
  8
DEFPOINTS
 62
     0
100
AcDbPoint
 10
369.5466467801
 20
273.6074651834
 30
0.0
  0
POINT
  5
F5E
330
C53
100
AcDbEntity
  8
DEFPOINTS
 62
     0
100
AcDbPoint
 10
456.8012693569
 20
273.6074651834
 30
0.0
  0
ENDBLK
  5
C5E
330
C53
100
AcDbEntity
  8
0
100
AcDbBlockEnd
  0
BLOCK
  5
C69
330
C5F
100
AcDbEntity
  8
0
100
AcDbBlockBegin
  2
*D26
 70
     1
 10
0.0
 20
0.0
 30
0.0
  3
*D26
  1

  0
POINT
  5
F92
330
C5F
100
AcDbEntity
  8
DEFPOINTS
 62
     0
100
AcDbPoint
 10
295.5432597801
 20
63.6074691834
 30
0.0
  0
POINT
  5
F93
330
C5F
100
AcDbEntity
  8
DEFPOINTS
 62
     0
100
AcDbPoint
 10
390.5432597801
 20
63.6074691834
 30
0.0
  0
POINT
  5
F94
330
C5F
100
AcDbEntity
  8
DEFPOINTS
 62
     0
100
AcDbPoint
 10
390.5432597801
 20
43.1881736413
 30
0.0
  0
ENDBLK
  5
C6A
330
C5F
100
AcDbEntity
  8
0
100
AcDbBlockEnd
  0
BLOCK
  5
C75
330
C6B
100
AcDbEntity
  8
0
100
AcDbBlockBegin
  2
*D27
 70
     1
 10
0.0
 20
0.0
 30
0.0
  3
*D27
  1

  0
POINT
  5
F77
330
C6B
100
AcDbEntity
  8
DEFPOINTS
 62
     0
100
AcDbPoint
 10
419.0432597801
 20
68.6074691834
 30
0.0
  0
POINT
  5
F78
330
C6B
100
AcDbEntity
  8
DEFPOINTS
 62
     0
100
AcDbPoint
 10
267.0432597801
 20
68.6074691834
 30
0.0
  0
POINT
  5
F79
330
C6B
100
AcDbEntity
  8
DEFPOINTS
 62
     0
100
AcDbPoint
 10
267.0432597801
 20
25.1830421426
 30
0.0
  0
ENDBLK
  5
C76
330
C6B
100
AcDbEntity
  8
0
100
AcDbBlockEnd
  0
BLOCK
  5
12BB
330
12AF
100
AcDbEntity
  8
0
100
AcDbBlockBegin
  2
*D28
 70
     1
 10
0.0
 20
0.0
 30
0.0
  3
*D28
  1

  0
POINT
  5
12C5
330
12AF
100
AcDbEntity
  8
DEFPOINTS
 62
     0
100
AcDbPoint
 10
229.2159425078
 20
163.6074651834
 30
0.0
  0
POINT
  5
12C6
330
12AF
100
AcDbEntity
  8
DEFPOINTS
 62
     0
100
AcDbPoint
 10
229.2159425078
 20
150.6074651834
 30
0.0
  0
POINT
  5
12C7
330
12AF
100
AcDbEntity
  8
DEFPOINTS
 62
     0
100
AcDbPoint
 10
229.2159425078
 20
150.6074651834
 30
0.0
  0
ENDBLK
  5
12BC
330
12AF
100
AcDbEntity
  8
0
100
AcDbBlockEnd
  0
BLOCK
  5
179A
330
178E
100
AcDbEntity
  8
0
100
AcDbBlockBegin
  2
*D30
 70
     1
 10
0.0
 20
0.0
 30
0.0
  3
*D30
  1

  0
POINT
  5
188B
330
178E
100
AcDbEntity
  8
DEFPOINTS
 62
     0
100
AcDbPoint
 10
72.5432667801
 20
241.1074801834
 30
0.0
  0
POINT
  5
188C
330
178E
100
AcDbEntity
  8
DEFPOINTS
 62
     0
100
AcDbPoint
 10
61.0432747801
 20
189.6074651834
 30
0.0
  0
POINT
  5
188D
330
178E
100
AcDbEntity
  8
DEFPOINTS
 62
     0
100
AcDbPoint
 10
61.0432747801
 20
291.39656016
 30
0.0
  0
ENDBLK
  5
179B
330
178E
100
AcDbEntity
  8
0
100
AcDbBlockEnd
  0
BLOCK
  5
17A6
330
179C
100
AcDbEntity
  8
0
100
AcDbBlockBegin
  2
*D31
 70
     1
 10
0.0
 20
0.0
 30
0.0
  3
*D31
  1

  0
POINT
  5
1826
330
179C
100
AcDbEntity
  8
DEFPOINTS
 62
     0
100
AcDbPoint
 10
121.5432737801
 20
242.1074801834
 30
0.0
  0
POINT
  5
1827
330
179C
100
AcDbEntity
  8
DEFPOINTS
 62
     0
100
AcDbPoint
 10
120.0432737801
 20
195.6074651834
 30
0.0
  0
POINT
  5
1828
330
179C
100
AcDbEntity
  8
DEFPOINTS
 62
     0
100
AcDbPoint
 10
147.1550841113
 20
195.6074651834
 30
0.0
  0
ENDBLK
  5
17A7
330
179C
100
AcDbEntity
  8
0
100
AcDbBlockEnd
  0
BLOCK
  5
17B2
330
17A8
100
AcDbEntity
  8
0
100
AcDbBlockBegin
  2
*D32
 70
     1
 10
0.0
 20
0.0
 30
0.0
  3
*D32
  1

  0
POINT
  5
1894
330
17A8
100
AcDbEntity
  8
DEFPOINTS
 62
     0
100
AcDbPoint
 10
72.5432667801
 20
241.1074801834
 30
0.0
  0
POINT
  5
1895
330
17A8
100
AcDbEntity
  8
DEFPOINTS
 62
     0
100
AcDbPoint
 10
122.5432737801
 20
241.1074801834
 30
0.0
  0
POINT
  5
1896
330
17A8
100
AcDbEntity
  8
DEFPOINTS
 62
     0
100
AcDbPoint
 10
122.5432737801
 20
291.39656016
 30
0.0
  0
ENDBLK
  5
17B3
330
17A8
100
AcDbEntity
  8
0
100
AcDbBlockEnd
  0
BLOCK
  5
17BE
330
17B4
100
AcDbEntity
  8
0
100
AcDbBlockBegin
  2
*D33
 70
     1
 10
0.0
 20
0.0
 30
0.0
  3
*D33
  1

  0
POINT
  5
1809
330
17B4
100
AcDbEntity
  8
DEFPOINTS
 62
     0
100
AcDbPoint
 10
71.6682667801
 20
214.6074651834
 30
0.0
  0
POINT
  5
180A
330
17B4
100
AcDbEntity
  8
DEFPOINTS
 62
     0
100
AcDbPoint
 10
71.6682667801
 20
235.6074651834
 30
0.0
  0
POINT
  5
180B
330
17B4
100
AcDbEntity
  8
DEFPOINTS
 62
     0
100
AcDbPoint
 10
47.8488214527
 20
235.6074651834
 30
0.0
  0
ENDBLK
  5
17BF
330
17B4
100
AcDbEntity
  8
0
100
AcDbBlockEnd
  0
BLOCK
  5
18B3
330
18AD
100
AcDbEntity
  8
0
100
AcDbBlockBegin
  2
*D35
 70
     1
 10
0.0
 20
0.0
 30
0.0
  3
*D35
  1

  0
POINT
  5
18B8
330
18AD
100
AcDbEntity
  8
DEFPOINTS
 62
     0
100
AcDbPoint
 10
573.6879431958
 20
149.7188015374
 30
0.0
  0
POINT
  5
18B9
330
18AD
100
AcDbEntity
  8
DEFPOINTS
 62
     0
100
AcDbPoint
 10
698.6376134175
 20
177.4961288294
 30
0.0
  0
ENDBLK
  5
18B4
330
18AD
100
AcDbEntity
  8
0
100
AcDbBlockEnd
  0
ENDSEC
  0
SECTION
  2
ENTITIES
  0
ARC
  5
68E
330
2
100
AcDbEntity
  8
0
100
AcDbCircle
 10
368.5432597801
 20
149.6074651834
 30
0.0
 40
31.9
100
AcDbArc
 50
270.0
 51
12.52324
  0
ARC
  5
68F
330
2
100
AcDbEntity
  8
0
100
AcDbCircle
 10
368.5432597801
 20
149.6074651834
 30
0.0
 40
29.0
100
AcDbArc
 50
270.0
 51
12.52324
  0
LINE
  5
690
330
2
100
AcDbEntity
  8
0
100
AcDbLine
 10
415.5932777801
 20
243.4930851834
 30
0.0
 11
374.0966657801
 21
272.1875281834
 31
0.0
  0
LINE
  5
691
330
2
100
AcDbEntity
  8
0
100
AcDbLine
 10
267.0432747801
 20
86.6074691834
 30
0.0
 11
419.0432597801
 21
86.6074691834
 31
0.0
  0
LINE
  5
692
330
2
100
AcDbEntity
  8
0
100
AcDbLine
 10
267.0432747801
 20
68.6074681834
 30
0.0
 11
419.0432597801
 21
68.6074681834
 31
0.0
  0
ARC
  5
693
330
2
100
AcDbEntity
  8
0
100
AcDbCircle
 10
404.1992657801
 20
445.0600561979
 30
0.0
 40
5.0
100
AcDbArc
 50
90.0
 51
163.827835
  0
ARC
  5
694
330
2
100
AcDbEntity
  8
0
100
AcDbCircle
 10
404.1992657801
 20
545.0600561979
 30
0.0
 40
5.0
100
AcDbArc
 50
196.172165
 51
270.0
  0
LINE
  5
695
330
2
100
AcDbEntity
  8
CENTER
100
AcDbLine
 10
51.0432737801
 20
495.0600561979
 30
0.0
 11
429.0434737801
 21
495.0600561979
 31
0.0
  0
LINE
  5
696
330
2
100
AcDbEntity
  8
0
100
AcDbLine
 10
362.0432597801
 20
420.0600561979
 30
0.0
 11
401.4933327801
 21
420.0600561979
 31
0.0
  0
LINE
  5
697
330
2
100
AcDbEntity
  8
0
100
AcDbLine
 10
362.0432597801
 20
570.0600561979
 30
0.0
 11
401.4933327801
 21
570.0600561979
 31
0.0
  0
LINE
  5
698
330
2
100
AcDbEntity
  8
0
100
AcDbLine
 10
415.3098917801
 20
450.0600561979
 30
0.0
 11
270.3799147801
 21
450.0600561979
 31
0.0
  0
LINE
  5
699
330
2
100
AcDbEntity
  8
0
100
AcDbLine
 10
270.3799147801
 20
540.0600561979
 30
0.0
 11
415.3098917801
 21
540.0600561979
 31
0.0
  0
LINE
  5
69A
330
2
100
AcDbEntity
  8
0
100
AcDbLine
 10
81.5432737801
 20
116.1981671834
 30
0.0
 11
190.5055937801
 21
116.1981671834
 31
0.0
  0
LINE
  5
69B
330
2
100
AcDbEntity
  8
0
100
AcDbLine
 10
81.5432737801
 20
185.0167671834
 30
0.0
 11
190.5055937801
 21
185.0167671834
 31
0.0
  0
LINE
  5
69C
330
2
100
AcDbEntity
  8
0
100
AcDbLine
 10
81.5432737801
 20
105.6074691834
 30
0.0
 11
200.5432747801
 21
105.6074691834
 31
0.0
  0
LINE
  5
69D
330
2
100
AcDbEntity
  8
0
100
AcDbLine
 10
81.5432737801
 20
195.6074651834
 30
0.0
 11
200.5432747801
 21
195.6074651834
 31
0.0
  0
LINE
  5
69E
330
2
100
AcDbEntity
  8
CENTER
100
AcDbLine
 10
51.0432737801
 20
150.6074651834
 30
0.0
 11
299.9296427801
 21
150.6074651834
 31
0.0
  0
LINE
  5
69F
330
2
100
AcDbEntity
  8
0
100
AcDbLine
 10
61.5432737801
 20
192.6074651834
 30
0.0
 11
61.5432737801
 21
108.6074691834
 31
0.0
  0
LINE
  5
6A0
330
2
100
AcDbEntity
  8
0
100
AcDbLine
 10
61.0432737801
 20
115.6074691834
 30
0.0
 11
61.0432737801
 21
185.6074651834
 31
0.0
  0
LINE
  5
6A1
330
2
100
AcDbEntity
  8
0
100
AcDbLine
 10
81.5432737801
 20
195.6074651834
 30
0.0
 11
81.5432737801
 21
105.6074691834
 31
0.0
  0
LINE
  5
6A3
330
2
100
AcDbEntity
  8
0
100
AcDbLine
 10
81.5432737801
 20
116.1981671834
 30
0.0
 11
63.2932737801
 21
116.1981671834
 31
0.0
  0
LINE
  5
6A4
330
2
100
AcDbEntity
  8
0
100
AcDbLine
 10
65.5847157801
 20
105.6074691834
 30
0.0
 11
81.5432737801
 21
105.6074691834
 31
0.0
  0
ARC
  5
6A5
330
2
100
AcDbEntity
  8
0
100
AcDbCircle
 10
65.5847317801
 20
109.6074501834
 30
0.0
 40
4.0
100
AcDbArc
 50
209.999603
 51
270.0
  0
LINE
  5
6A6
330
2
100
AcDbEntity
  8
0
100
AcDbLine
 10
62.1206197801
 20
107.6074691834
 30
0.0
 11
61.5432737801
 21
108.6074691834
 31
0.0
  0
LINE
  5
6A7
330
2
100
AcDbEntity
  8
0
100
AcDbLine
 10
61.0432737801
 20
115.6074691834
 30
0.0
 11
61.5432737801
 21
115.1074691834
 31
0.0
  0
LINE
  5
6A8
330
2
100
AcDbEntity
  8
0
100
AcDbLine
 10
81.5432737801
 20
185.0167671834
 30
0.0
 11
63.2932737801
 21
185.0167671834
 31
0.0
  0
LINE
  5
6A9
330
2
100
AcDbEntity
  8
0
100
AcDbLine
 10
65.5847157801
 20
195.6074651834
 30
0.0
 11
81.5432737801
 21
195.6074651834
 31
0.0
  0
LINE
  5
6AA
330
2
100
AcDbEntity
  8
0
100
AcDbLine
 10
61.0432737801
 20
185.6074651834
 30
0.0
 11
61.5432737801
 21
186.1074651834
 31
0.0
  0
ARC
  5
6AB
330
2
100
AcDbEntity
  8
0
100
AcDbCircle
 10
65.5847317801
 20
191.6074651834
 30
0.0
 40
4.0
100
AcDbArc
 50
90.0
 51
150.000397
  0
LINE
  5
6AC
330
2
100
AcDbEntity
  8
0
100
AcDbLine
 10
62.1206197801
 20
193.6074501834
 30
0.0
 11
61.5432737801
 21
192.6074651834
 31
0.0
  0
LINE
  5
6B7
330
2
100
AcDbEntity
  8
0
100
AcDbLine
 10
246.5432747801
 20
124.2552011834
 30
0.0
 11
246.5432747801
 21
225.6075871834
 31
0.0
  0
LINE
  5
6B8
330
2
100
AcDbEntity
  8
0
100
AcDbLine
 10
200.5432747801
 20
195.6074651834
 30
0.0
 11
200.5432747801
 21
105.6074691834
 31
0.0
  0
LINE
  5
6B9
330
2
100
AcDbEntity
  8
0
100
AcDbLine
 10
191.5432747801
 20
193.6074651834
 30
0.0
 11
191.5432747801
 21
107.6074501834
 31
0.0
  0
LINE
  5
6BA
330
2
100
AcDbEntity
  8
0
100
AcDbLine
 10
255.0432747801
 20
227.6074651834
 30
0.0
 11
255.0432747801
 21
99.6074691834
 31
0.0
  0
ARC
  5
6BB
330
2
100
AcDbEntity
  8
0
100
AcDbCircle
 10
446.7520607801
 20
163.6074651834
 30
0.0
 40
185.208893
100
AcDbArc
 50
166.001907
 51
193.998093
  0
ARC
  5
6BC
330
2
100
AcDbEntity
  8
0
100
AcDbCircle
 10
317.5432747801
 20
149.6074651834
 30
0.0
 40
31.9
100
AcDbArc
 50
167.476898
 51
270.0
  0
ARC
  5
6BD
330
2
100
AcDbEntity
  8
0
100
AcDbCircle
 10
317.5432747801
 20
149.6074651834
 30
0.0
 40
29.0
100
AcDbArc
 50
167.476898
 51
270.0
  0
LINE
  5
6BE
330
2
100
AcDbEntity
  8
0
100
AcDbLine
 10
267.0432747801
 20
68.6074681834
 30
0.0
 11
267.0432747801
 21
232.1074651834
 31
0.0
  0
LINE
  5
6BF
330
2
100
AcDbEntity
  8
CENTER
100
AcDbLine
 10
343.0432597801
 20
283.6074651834
 30
0.0
 11
343.0432597801
 21
58.6074681834
 31
0.0
  0
LINE
  5
6C0
330
2
100
AcDbEntity
  8
0
100
AcDbLine
 10
281.0432747801
 20
84.5409081834
 30
0.0
 11
281.0432747801
 21
68.6074681834
 31
0.0
  0
LINE
  5
6C2
330
2
100
AcDbEntity
  8
0
100
AcDbLine
 10
200.5432747801
 20
115.0884681834
 30
0.0
 11
255.0432747801
 21
115.0884681834
 31
0.0
  0
LINE
  5
6C3
330
2
100
AcDbEntity
  8
0
100
AcDbLine
 10
200.5432747801
 20
130.1014681834
 30
0.0
 11
244.5432747801
 21
130.1014681834
 31
0.0
  0
LINE
  5
6C4
330
2
100
AcDbEntity
  8
0
100
AcDbLine
 10
255.0432747801
 20
103.7042861834
 30
0.0
 11
200.5432747801
 21
105.6074691834
 31
0.0
  0
ARC
  5
6C5
330
2
100
AcDbEntity
  8
0
100
AcDbCircle
 10
193.5432747801
 20
107.6074691834
 30
0.0
 40
2.0
100
AcDbArc
 50
180.0
 51
270.0
  0
LINE
  5
6C6
330
2
100
AcDbEntity
  8
0
100
AcDbLine
 10
262.0432747801
 20
99.6074691834
 30
0.0
 11
255.0432747801
 21
99.6074691834
 31
0.0
  0
ARC
  5
6C7
330
2
100
AcDbEntity
  8
0
100
AcDbCircle
 10
244.0433207801
 20
101.5868881834
 30
0.0
 40
2.5
100
AcDbArc
 50
0.260773
 51
88.0
  0
ARC
  5
6C8
330
2
100
AcDbEntity
  8
0
100
AcDbCircle
 10
248.5432747801
 20
101.6073701834
 30
0.0
 40
2.0
100
AcDbArc
 50
180.260773
 51
270.0
  0
LINE
  5
6C9
330
2
100
AcDbEntity
  8
0
100
AcDbLine
 10
248.5432747801
 20
99.6073701834
 30
0.0
 11
255.0432747801
 21
99.6073701834
 31
0.0
  0
ARC
  5
6CA
330
2
100
AcDbEntity
  8
0
100
AcDbCircle
 10
262.0432907801
 20
94.6074481834
 30
0.0
 40
5.0
100
AcDbArc
 50
0.0
 51
90.0
  0
LINE
  5
6CB
330
2
100
AcDbEntity
  8
0
100
AcDbLine
 10
247.1112377801
 20
123.0404671834
 30
0.0
 11
255.0432747801
 21
123.0404671834
 31
0.0
  0
LINE
  5
6CC
330
2
100
AcDbEntity
  8
HIDS
100
AcDbLine
 10
397.0432597801
 20
86.6074691834
 30
0.0
 11
397.0432597801
 21
68.6074681834
 31
0.0
  0
LINE
  5
6CD
330
2
100
AcDbEntity
  8
HIDS
100
AcDbLine
 10
384.0432597801
 20
86.6074691834
 30
0.0
 11
384.0432597801
 21
68.6074681834
 31
0.0
  0
LINE
  5
6CE
330
2
100
AcDbEntity
  8
HIDS
100
AcDbLine
 10
302.0432747801
 20
86.6074691834
 30
0.0
 11
302.0432747801
 21
68.6074681834
 31
0.0
  0
LINE
  5
6CF
330
2
100
AcDbEntity
  8
HIDS
100
AcDbLine
 10
289.0432747801
 20
86.6074691834
 30
0.0
 11
289.0432747801
 21
68.6074681834
 31
0.0
  0
LINE
  5
6D0
330
2
100
AcDbEntity
  8
CENTER
100
AcDbLine
 10
295.5432747801
 20
91.6074691834
 30
0.0
 11
295.5432747801
 21
63.6074681834
 31
0.0
  0
LINE
  5
6D1
330
2
100
AcDbEntity
  8
CENTER
100
AcDbLine
 10
390.5432597801
 20
91.6074691834
 30
0.0
 11
390.5432597801
 21
63.6074681834
 31
0.0
  0
LINE
  5
6D2
330
2
100
AcDbEntity
  8
0
100
AcDbLine
 10
366.8006757801
 20
91.6074691834
 30
0.0
 11
319.2858747801
 21
91.6074691834
 31
0.0
  0
LINE
  5
6D3
330
2
100
AcDbEntity
  8
0
100
AcDbLine
 10
343.8968667801
 20
145.1133241834
 30
0.0
 11
346.3720867801
 21
145.1133241834
 31
0.0
  0
LINE
  5
6D4
330
2
100
AcDbEntity
  8
0
100
AcDbLine
 10
338.2932597801
 20
146.8574651834
 30
0.0
 11
347.7932597801
 21
146.8574651834
 31
0.0
  0
LINE
  5
6D5
330
2
100
AcDbEntity
  8
0
100
AcDbLine
 10
368.5432597801
 20
120.6074691834
 30
0.0
 11
317.5432747801
 21
120.6074691834
 31
0.0
  0
LINE
  5
6D6
330
2
100
AcDbEntity
  8
0
100
AcDbLine
 10
317.5432747801
 20
117.7074671834
 30
0.0
 11
368.5432597801
 21
117.7074671834
 31
0.0
  0
LINE
  5
6D7
330
2
100
AcDbEntity
  8
0
100
AcDbLine
 10
317.1646737801
 20
90.7287881834
 30
0.0
 11
314.5078747801
 21
88.0719671834
 31
0.0
  0
ARC
  5
6D8
330
2
100
AcDbEntity
  8
0
100
AcDbCircle
 10
310.9722757801
 20
91.6074691834
 30
0.0
 40
5.0
100
AcDbArc
 50
270.0
 51
315.000092
  0
ARC
  5
6D9
330
2
100
AcDbEntity
  8
0
100
AcDbCircle
 10
319.2858747801
 20
88.6074691834
 30
0.0
 40
3.0
100
AcDbArc
 50
90.0
 51
135.000305
  0
ARC
  5
6DA
330
2
100
AcDbEntity
  8
0
100
AcDbCircle
 10
317.0432747801
 20
87.6074691834
 30
0.0
 40
1.0
100
AcDbArc
 50
270.0
 51
0.0
  0
LINE
  5
6DB
330
2
100
AcDbEntity
  8
0
100
AcDbLine
 10
318.0432747801
 20
90.6715881834
 30
0.0
 11
318.0432747801
 21
87.6074691834
 31
0.0
  0
LINE
  5
6DC
330
2
100
AcDbEntity
  8
0
100
AcDbLine
 10
344.4904647801
 20
134.1660661834
 30
0.0
 11
344.4904647801
 21
132.6074651834
 31
0.0
  0
LINE
  5
6DD
330
2
100
AcDbEntity
  8
0
100
AcDbLine
 10
341.4104777801
 20
134.1660661834
 30
0.0
 11
341.4104777801
 21
132.6074651834
 31
0.0
  0
ARC
  5
6DE
330
2
100
AcDbEntity
  8
0
100
AcDbCircle
 10
329.2014627801
 20
137.2461291834
 30
0.0
 40
2.96875
100
AcDbArc
 50
270.000214
 51
0.000109
  0
LINE
  5
6DF
330
2
100
AcDbEntity
  8
0
100
AcDbLine
 10
324.0432597801
 20
134.4565861834
 30
0.0
 11
325.8758707801
 21
132.6074651834
 31
0.0
  0
LINE
  5
6E0
330
2
100
AcDbEntity
  8
0
100
AcDbLine
 10
333.5432597801
 20
140.8828711834
 30
0.0
 11
333.5432597801
 21
132.6074651834
 31
0.0
  0
LINE
  5
6E1
330
2
100
AcDbEntity
  8
0
100
AcDbLine
 10
330.8162697801
 20
132.6074651834
 30
0.0
 11
325.8758707801
 21
132.6074651834
 31
0.0
  0
LINE
  5
6E2
330
2
100
AcDbEntity
  8
0
100
AcDbLine
 10
332.1702737801
 20
133.7433901834
 30
0.0
 11
330.8162697801
 21
132.6074651834
 31
0.0
  0
LINE
  5
6E3
330
2
100
AcDbEntity
  8
0
100
AcDbLine
 10
332.1702737801
 20
132.6074651834
 30
0.0
 11
333.5432597801
 21
132.6074651834
 31
0.0
  0
LINE
  5
6E4
330
2
100
AcDbEntity
  8
0
100
AcDbLine
 10
332.1702737801
 20
133.7433901834
 30
0.0
 11
332.1702737801
 21
132.6074651834
 31
0.0
  0
LINE
  5
6E5
330
2
100
AcDbEntity
  8
0
100
AcDbLine
 10
341.4104777801
 20
132.6074651834
 30
0.0
 11
344.4904647801
 21
132.6074651834
 31
0.0
  0
LINE
  5
6E6
330
2
100
AcDbEntity
  8
0
100
AcDbLine
 10
332.1702737801
 20
139.3242691834
 30
0.0
 11
329.6838847801
 21
139.3242691834
 31
0.0
  0
LINE
  5
6E7
330
2
100
AcDbEntity
  8
0
100
AcDbLine
 10
329.6838847801
 20
140.8828711834
 30
0.0
 11
333.5432597801
 21
140.8828711834
 31
0.0
  0
LINE
  5
6E8
330
2
100
AcDbEntity
  8
0
100
AcDbLine
 10
325.7680827801
 20
146.8574651834
 30
0.0
 11
332.1560837801
 21
146.8574651834
 31
0.0
  0
LINE
  5
6E9
330
2
100
AcDbEntity
  8
0
100
AcDbLine
 10
331.2892617801
 20
144.9648871834
 30
0.0
 11
326.7116867801
 21
144.9648871834
 31
0.0
  0
LINE
  5
6EA
330
2
100
AcDbEntity
  8
0
100
AcDbLine
 10
324.0432597801
 20
144.6489991834
 30
0.0
 11
324.0432597801
 21
134.4565861834
 31
0.0
  0
LINE
  5
6EB
330
2
100
AcDbEntity
  8
0
100
AcDbLine
 10
326.7116867801
 20
144.9648871834
 30
0.0
 11
325.6390847801
 21
143.6348931834
 31
0.0
  0
LINE
  5
6EC
330
2
100
AcDbEntity
  8
0
100
AcDbLine
 10
329.6838847801
 20
140.8828711834
 30
0.0
 11
329.6838847801
 21
139.3242691834
 31
0.0
  0
LINE
  5
6ED
330
2
100
AcDbEntity
  8
0
100
AcDbLine
 10
329.2014627801
 20
134.2773871834
 30
0.0
 11
326.7288677801
 21
134.2773871834
 31
0.0
  0
LINE
  5
6EE
330
2
100
AcDbEntity
  8
0
100
AcDbLine
 10
325.6390847801
 20
143.6348931834
 30
0.0
 11
325.6390847801
 21
135.4253061834
 31
0.0
  0
LINE
  5
6EF
330
2
100
AcDbEntity
  8
0
100
AcDbLine
 10
325.6390847801
 20
135.4253061834
 30
0.0
 11
326.7288677801
 21
134.2773871834
 31
0.0
  0
LINE
  5
6F0
330
2
100
AcDbEntity
  8
0
100
AcDbLine
 10
325.7680827801
 20
146.8574651834
 30
0.0
 11
324.0432597801
 21
144.6489991834
 31
0.0
  0
LINE
  5
6F1
330
2
100
AcDbEntity
  8
0
100
AcDbLine
 10
339.8580797801
 20
145.1133241834
 30
0.0
 11
339.3478867801
 21
143.8887151834
 31
0.0
  0
LINE
  5
6F2
330
2
100
AcDbEntity
  8
0
100
AcDbLine
 10
333.5432597801
 20
145.3178841834
 30
0.0
 11
333.5432597801
 21
143.8887151834
 31
0.0
  0
LINE
  5
6F3
330
2
100
AcDbEntity
  8
0
100
AcDbLine
 10
332.1702737801
 20
144.1133241834
 30
0.0
 11
331.2712877801
 21
144.9648871834
 31
0.0
  0
LINE
  5
6F4
330
2
100
AcDbEntity
  8
0
100
AcDbLine
 10
343.8968667801
 20
145.1133241834
 30
0.0
 11
343.8968667801
 21
134.1660661834
 31
0.0
  0
LINE
  5
6F5
330
2
100
AcDbEntity
  8
0
100
AcDbLine
 10
342.1154647801
 20
145.1133241834
 30
0.0
 11
342.1154647801
 21
134.1660661834
 31
0.0
  0
LINE
  5
6F6
330
2
100
AcDbEntity
  8
0
100
AcDbLine
 10
338.2932597801
 20
143.8887151834
 30
0.0
 11
338.2932597801
 21
146.8574651834
 31
0.0
  0
LINE
  5
6F7
330
2
100
AcDbEntity
  8
0
100
AcDbLine
 10
332.1702737801
 20
144.1133241834
 30
0.0
 11
332.1702737801
 21
143.8887151834
 31
0.0
  0
LINE
  5
6F8
330
2
100
AcDbEntity
  8
0
100
AcDbLine
 10
332.1702737801
 20
139.3242691834
 30
0.0
 11
332.1702737801
 21
137.2461291834
 31
0.0
  0
LINE
  5
6F9
330
2
100
AcDbEntity
  8
0
100
AcDbLine
 10
332.1702737801
 20
137.8398871834
 30
0.0
 11
332.1702737801
 21
139.0273871834
 31
0.0
  0
LINE
  5
6FA
330
2
100
AcDbEntity
  8
0
100
AcDbLine
 10
332.1702737801
 20
143.8887151834
 30
0.0
 11
333.5432597801
 21
143.8887151834
 31
0.0
  0
LINE
  5
6FB
330
2
100
AcDbEntity
  8
0
100
AcDbLine
 10
341.4104777801
 20
134.1660661834
 30
0.0
 11
342.1154647801
 21
134.1660661834
 31
0.0
  0
LINE
  5
6FC
330
2
100
AcDbEntity
  8
0
100
AcDbLine
 10
338.2932597801
 20
143.8887151834
 30
0.0
 11
339.3478867801
 21
143.8887151834
 31
0.0
  0
LINE
  5
6FD
330
2
100
AcDbEntity
  8
0
100
AcDbLine
 10
343.8968667801
 20
134.1660661834
 30
0.0
 11
344.4904647801
 21
134.1660661834
 31
0.0
  0
LINE
  5
6FE
330
2
100
AcDbEntity
  8
0
100
AcDbLine
 10
332.1560837801
 20
146.8574651834
 30
0.0
 11
333.5432597801
 21
145.3178841834
 31
0.0
  0
LINE
  5
6FF
330
2
100
AcDbEntity
  8
0
100
AcDbLine
 10
342.1154647801
 20
145.1133241834
 30
0.0
 11
339.8580797801
 21
145.1133241834
 31
0.0
  0
ARC
  5
700
330
2
100
AcDbEntity
  8
0
100
AcDbCircle
 10
375.1142747801
 20
91.6074691834
 30
0.0
 40
5.0
100
AcDbArc
 50
225.0
 51
270.0
  0
ARC
  5
701
330
2
100
AcDbEntity
  8
0
100
AcDbCircle
 10
366.8006757801
 20
88.6074691834
 30
0.0
 40
3.0
100
AcDbArc
 50
45.00016
 51
90.0
  0
ARC
  5
702
330
2
100
AcDbEntity
  8
0
100
AcDbCircle
 10
369.0432597801
 20
87.6074691834
 30
0.0
 40
1.0
100
AcDbArc
 50
180.0
 51
270.0
  0
LINE
  5
703
330
2
100
AcDbEntity
  8
0
100
AcDbLine
 10
368.0432597801
 20
90.6715881834
 30
0.0
 11
368.0432597801
 21
87.6074691834
 31
0.0
  0
LINE
  5
704
330
2
100
AcDbEntity
  8
0
100
AcDbLine
 10
368.9218607801
 20
90.7287881834
 30
0.0
 11
371.5788737801
 21
88.0719271834
 31
0.0
  0
LINE
  5
705
330
2
100
AcDbEntity
  8
0
100
AcDbLine
 10
352.5432597801
 20
134.0918481834
 30
0.0
 11
352.5432597801
 21
132.6074651834
 31
0.0
  0
LINE
  5
706
330
2
100
AcDbEntity
  8
0
100
AcDbLine
 10
355.5306867801
 20
134.0918481834
 30
0.0
 11
355.5306867801
 21
132.6074651834
 31
0.0
  0
LINE
  5
707
330
2
100
AcDbEntity
  8
0
100
AcDbLine
 10
359.8538677801
 20
134.0918481834
 30
0.0
 11
359.8538677801
 21
132.6074651834
 31
0.0
  0
LINE
  5
708
330
2
100
AcDbEntity
  8
0
100
AcDbLine
 10
362.0432597801
 20
134.0918481834
 30
0.0
 11
362.0432597801
 21
132.6074651834
 31
0.0
  0
LINE
  5
709
330
2
100
AcDbEntity
  8
0
100
AcDbLine
 10
355.5306867801
 20
132.6074651834
 30
0.0
 11
352.5432597801
 21
132.6074651834
 31
0.0
  0
LINE
  5
70A
330
2
100
AcDbEntity
  8
0
100
AcDbLine
 10
359.8538677801
 20
132.6074651834
 30
0.0
 11
362.0432597801
 21
132.6074651834
 31
0.0
  0
LINE
  5
70B
330
2
100
AcDbEntity
  8
0
100
AcDbLine
 10
354.8812727801
 20
145.1133241834
 30
0.0
 11
359.3142867801
 21
145.1104401834
 31
0.0
  0
LINE
  5
70C
330
2
100
AcDbEntity
  8
0
100
AcDbLine
 10
357.9218607801
 20
139.2686051834
 30
0.0
 11
360.1498887801
 21
134.0918481834
 31
0.0
  0
LINE
  5
70D
330
2
100
AcDbEntity
  8
0
100
AcDbLine
 10
358.5390787801
 20
140.7526291834
 30
0.0
 11
354.8812727801
 21
140.7526291834
 31
0.0
  0
ARC
  5
70E
330
2
100
AcDbEntity
  8
0
100
AcDbCircle
 10
358.2394877801
 20
143.0537461834
 30
0.0
 40
3.803712
100
AcDbArc
 50
286.018127
 51
90.00351
  0
LINE
  5
70F
330
2
100
AcDbEntity
  8
0
100
AcDbLine
 10
346.3720867801
 20
145.1133241834
 30
0.0
 11
346.8022627801
 21
143.8887151834
 31
0.0
  0
LINE
  5
710
330
2
100
AcDbEntity
  8
0
100
AcDbLine
 10
354.8812727801
 20
145.1133241834
 30
0.0
 11
354.8812727801
 21
140.7526291834
 31
0.0
  0
LINE
  5
711
330
2
100
AcDbEntity
  8
0
100
AcDbLine
 10
353.2484597801
 20
145.1133241834
 30
0.0
 11
353.2484597801
 21
134.0918481834
 31
0.0
  0
LINE
  5
712
330
2
100
AcDbEntity
  8
0
100
AcDbLine
 10
347.7932597801
 20
143.8887151834
 30
0.0
 11
347.7932597801
 21
146.8574651834
 31
0.0
  0
LINE
  5
713
330
2
100
AcDbEntity
  8
0
100
AcDbLine
 10
346.8022627801
 20
143.8887151834
 30
0.0
 11
347.7932597801
 21
143.8887151834
 31
0.0
  0
LINE
  5
714
330
2
100
AcDbEntity
  8
0
100
AcDbLine
 10
354.8812727801
 20
139.2686051834
 30
0.0
 11
357.9218607801
 21
139.2686051834
 31
0.0
  0
LINE
  5
715
330
2
100
AcDbEntity
  8
0
100
AcDbLine
 10
354.8812727801
 20
134.0918481834
 30
0.0
 11
355.5306867801
 21
134.0918481834
 31
0.0
  0
LINE
  5
716
330
2
100
AcDbEntity
  8
0
100
AcDbLine
 10
352.5432597801
 20
134.0918481834
 30
0.0
 11
353.2484597801
 21
134.0918481834
 31
0.0
  0
LINE
  5
717
330
2
100
AcDbEntity
  8
0
100
AcDbLine
 10
354.8812727801
 20
139.2686051834
 30
0.0
 11
354.8812727801
 21
134.0918481834
 31
0.0
  0
LINE
  5
718
330
2
100
AcDbEntity
  8
0
100
AcDbLine
 10
352.5432597801
 20
145.1133241834
 30
0.0
 11
353.2484597801
 21
145.1133241834
 31
0.0
  0
LINE
  5
719
330
2
100
AcDbEntity
  8
0
100
AcDbLine
 10
352.5432597801
 20
146.8574651834
 30
0.0
 11
352.5432597801
 21
145.1133241834
 31
0.0
  0
LINE
  5
71A
330
2
100
AcDbEntity
  8
0
100
AcDbLine
 10
352.5432597801
 20
146.8574651834
 30
0.0
 11
358.2394877801
 21
146.8574651834
 31
0.0
  0
ARC
  5
71B
330
2
100
AcDbEntity
  8
0
100
AcDbCircle
 10
358.2394877801
 20
143.0537461834
 30
0.0
 40
2.320524
100
AcDbArc
 50
277.414726
 51
62.41185
  0
LINE
  5
71C
330
2
100
AcDbEntity
  8
0
100
AcDbLine
 10
361.6434797801
 20
134.0918481834
 30
0.0
 11
362.0432597801
 21
134.0918481834
 31
0.0
  0
LINE
  5
71D
330
2
100
AcDbEntity
  8
0
100
AcDbLine
 10
359.8538677801
 20
134.0918481834
 30
0.0
 11
360.1498887801
 21
134.0918481834
 31
0.0
  0
LINE
  5
71E
330
2
100
AcDbEntity
  8
0
100
AcDbLine
 10
359.2890787801
 20
139.3977251834
 30
0.0
 11
361.6434797801
 21
134.0918481834
 31
0.0
  0
LINE
  5
720
330
2
100
AcDbEntity
  8
0
100
AcDbLine
 10
286.4022687801
 20
156.5244721834
 30
0.0
 11
300.0900737801
 21
218.1481751834
 31
0.0
  0
LINE
  5
721
330
2
100
AcDbEntity
  8
0
100
AcDbLine
 10
270.4932267801
 20
243.4930851834
 30
0.0
 11
311.9898697801
 21
272.1875281834
 31
0.0
  0
LINE
  5
722
330
2
100
AcDbEntity
  8
CENTER
100
AcDbLine
 10
287.9708993117
 20
208.6074651834
 30
0.0
 11
398.1156678013
 21
208.6074651834
 31
0.0
  0
ARC
  5
723
330
2
100
AcDbEntity
  8
0
100
AcDbCircle
 10
275.0432747801
 20
236.9130681834
 30
0.0
 40
8.0
100
AcDbArc
 50
124.663803
 51
180.0
  0
LINE
  5
724
330
2
100
AcDbEntity
  8
0
100
AcDbLine
 10
200.5432747801
 20
195.6074651834
 30
0.0
 11
246.5432747801
 21
197.2138191834
 31
0.0
  0
ARC
  5
725
330
2
100
AcDbEntity
  8
0
100
AcDbCircle
 10
193.5432747801
 20
193.6074951834
 30
0.0
 40
2.0
100
AcDbArc
 50
90.0
 51
180.0
  0
ARC
  5
726
330
2
100
AcDbEntity
  8
0
100
AcDbCircle
 10
238.3287667801
 20
199.4284951834
 30
0.0
 40
2.5
100
AcDbArc
 50
272.0
 51
315.0
  0
LINE
  5
727
330
2
100
AcDbEntity
  8
0
100
AcDbLine
 10
262.0432747801
 20
227.6074651834
 30
0.0
 11
255.0432747801
 21
227.6074651834
 31
0.0
  0
ARC
  5
728
330
2
100
AcDbEntity
  8
0
100
AcDbCircle
 10
244.0432747801
 20
205.1430031834
 30
0.0
 40
2.5
100
AcDbArc
 50
315.0
 51
0.0
  0
LINE
  5
729
330
2
100
AcDbEntity
  8
0
100
AcDbLine
 10
245.8110367801
 20
203.3752411834
 30
0.0
 11
240.0965287801
 21
197.6607181834
 31
0.0
  0
ARC
  5
72A
330
2
100
AcDbEntity
  8
0
100
AcDbCircle
 10
248.5432907801
 20
225.6075871834
 30
0.0
 40
2.0
100
AcDbArc
 50
90.0
 51
180.0
  0
LINE
  5
72B
330
2
100
AcDbEntity
  8
0
100
AcDbLine
 10
248.5432747801
 20
227.6075721834
 30
0.0
 11
255.0432747801
 21
227.6075721834
 31
0.0
  0
ARC
  5
72C
330
2
100
AcDbEntity
  8
0
100
AcDbCircle
 10
262.0432597801
 20
232.6074651834
 30
0.0
 40
5.0
100
AcDbArc
 50
270.0
 51
0.0
  0
LINE
  5
72D
330
2
100
AcDbEntity
  8
0
100
AcDbLine
 10
267.0432747801
 20
232.1074651834
 30
0.0
 11
267.0432747801
 21
236.9130221834
 31
0.0
  0
ARC
  5
72E
330
2
100
AcDbEntity
  8
0
100
AcDbCircle
 10
343.0432597801
 20
208.6074651834
 30
0.0
 40
41.09999799999999
100
AcDbArc
 50
167.476898
 51
12.52324
  0
ARC
  5
72F
330
2
100
AcDbEntity
  8
0
100
AcDbCircle
 10
343.0432597801
 20
208.6074651834
 30
0.0
 40
44.0
100
AcDbArc
 50
12.52324
 51
167.476898
  0
CIRCLE
  5
730
330
2
100
AcDbEntity
  8
0
100
AcDbCircle
 10
343.0432597801
 20
208.6074651834
 30
0.0
 40
39.0
  0
ARC
  5
731
330
2
100
AcDbEntity
  8
0
100
AcDbCircle
 10
343.0432597801
 20
208.6074651834
 30
0.0
 40
16.0
100
AcDbArc
 50
18.2099
 51
341.7901
  0
LINE
  5
732
330
2
100
AcDbEntity
  8
0
100
AcDbLine
 10
289.2332777801
 20
155.8956581834
 30
0.0
 11
302.9210677801
 21
217.5193451834
 31
0.0
  0
LINE
  5
733
330
2
100
AcDbEntity
  8
0
100
AcDbLine
 10
383.1654827801
 20
217.5194221834
 30
0.0
 11
396.8532877801
 21
155.8957111834
 31
0.0
  0
LINE
  5
734
330
2
100
AcDbEntity
  8
0
100
AcDbLine
 10
385.9964767801
 20
218.1482521834
 30
0.0
 11
399.6842817801
 21
156.5245331834
 31
0.0
  0
LINE
  5
735
330
2
100
AcDbEntity
  8
0
100
AcDbLine
 10
362.0432597801
 20
213.6075261834
 30
0.0
 11
354.0432597801
 21
213.6075111834
 31
0.0
  0
LINE
  5
736
330
2
100
AcDbEntity
  8
0
100
AcDbLine
 10
362.0432597801
 20
203.6075261834
 30
0.0
 11
354.0432597801
 21
203.6075111834
 31
0.0
  0
LINE
  5
737
330
2
100
AcDbEntity
  8
0
100
AcDbLine
 10
354.0432597801
 20
203.6075111834
 30
0.0
 11
354.0432597801
 21
213.6075111834
 31
0.0
  0
LINE
  5
738
330
2
100
AcDbEntity
  8
0
100
AcDbLine
 10
362.0432597801
 20
203.6075261834
 30
0.0
 11
362.0432597801
 21
213.6075261834
 31
0.0
  0
LINE
  5
739
330
2
100
AcDbEntity
  8
0
100
AcDbLine
 10
316.5398727801
 20
273.6074651834
 30
0.0
 11
369.5466777801
 21
273.6074651834
 31
0.0
  0
ARC
  5
73A
330
2
100
AcDbEntity
  8
0
100
AcDbCircle
 10
316.5398727801
 20
265.6074651834
 30
0.0
 40
8.0
100
AcDbArc
 50
90.0
 51
124.663696
  0
ARC
  5
73B
330
2
100
AcDbEntity
  8
0
100
AcDbCircle
 10
369.5466777801
 20
265.6074651834
 30
0.0
 40
8.0
100
AcDbArc
 50
55.336689
 51
90.0
  0
LINE
  5
73C
330
2
100
AcDbEntity
  8
0
100
AcDbLine
 10
81.5432737801
 20
466.0600561979
 30
0.0
 11
191.5432747801
 21
466.0600561979
 31
0.0
  0
LINE
  5
73D
330
2
100
AcDbEntity
  8
0
100
AcDbLine
 10
81.5432737801
 20
524.0600561979
 30
0.0
 11
191.5432747801
 21
524.0600561979
 31
0.0
  0
LINE
  5
73E
330
2
100
AcDbEntity
  8
0
100
AcDbLine
 10
81.5432737801
 20
450.0600561979
 30
0.0
 11
200.5432747801
 21
450.0600561979
 31
0.0
  0
LINE
  5
73F
330
2
100
AcDbEntity
  8
0
100
AcDbLine
 10
81.5432737801
 20
540.0600561979
 30
0.0
 11
200.5432747801
 21
540.0600561979
 31
0.0
  0
LINE
  5
740
330
2
100
AcDbEntity
  8
0
100
AcDbLine
 10
61.5432737801
 20
537.0600561979
 30
0.0
 11
61.5432737801
 21
453.0600561979
 31
0.0
  0
LINE
  5
741
330
2
100
AcDbEntity
  8
0
100
AcDbLine
 10
61.0432737801
 20
460.0600561979
 30
0.0
 11
61.0432737801
 21
530.0600561979
 31
0.0
  0
LINE
  5
742
330
2
100
AcDbEntity
  8
0
100
AcDbLine
 10
81.5432737801
 20
540.0600561979
 30
0.0
 11
81.5432737801
 21
520.0600561979
 31
0.0
  0
LINE
  5
743
330
2
100
AcDbEntity
  8
0
100
AcDbLine
 10
81.5432737801
 20
466.0600561979
 30
0.0
 11
63.2932737801
 21
466.0600561979
 31
0.0
  0
LINE
  5
744
330
2
100
AcDbEntity
  8
0
100
AcDbLine
 10
65.5847157801
 20
450.0600561979
 30
0.0
 11
81.5432737801
 21
450.0600561979
 31
0.0
  0
ARC
  5
745
330
2
100
AcDbEntity
  8
0
100
AcDbCircle
 10
65.5847317801
 20
454.0600251979
 30
0.0
 40
4.0
100
AcDbArc
 50
209.999603
 51
270.0
  0
LINE
  5
746
330
2
100
AcDbEntity
  8
0
100
AcDbLine
 10
62.1206197801
 20
452.0600561979
 30
0.0
 11
61.5432737801
 21
453.0600561979
 31
0.0
  0
LINE
  5
747
330
2
100
AcDbEntity
  8
0
100
AcDbLine
 10
61.0432737801
 20
460.0600561979
 30
0.0
 11
61.5432737801
 21
459.5600561979
 31
0.0
  0
LINE
  5
748
330
2
100
AcDbEntity
  8
0
100
AcDbLine
 10
81.5432737801
 20
470.0600561979
 30
0.0
 11
81.5432737801
 21
450.0600561979
 31
0.0
  0
LINE
  5
757
330
2
100
AcDbEntity
  8
0
100
AcDbLine
 10
81.5432737801
 20
524.0600561979
 30
0.0
 11
63.2932737801
 21
524.0600561979
 31
0.0
  0
LINE
  5
758
330
2
100
AcDbEntity
  8
0
100
AcDbLine
 10
65.5847157801
 20
540.0600561979
 30
0.0
 11
81.5432737801
 21
540.0600561979
 31
0.0
  0
LINE
  5
759
330
2
100
AcDbEntity
  8
0
100
AcDbLine
 10
61.0432737801
 20
530.0600561979
 30
0.0
 11
61.5432737801
 21
530.5600561979
 31
0.0
  0
ARC
  5
75A
330
2
100
AcDbEntity
  8
0
100
AcDbCircle
 10
65.5847317801
 20
536.0600561979
 30
0.0
 40
4.0
100
AcDbArc
 50
90.0
 51
150.000397
  0
LINE
  5
75B
330
2
100
AcDbEntity
  8
0
100
AcDbLine
 10
62.1206197801
 20
538.0600251979
 30
0.0
 11
61.5432737801
 21
537.0600561979
 31
0.0
  0
LINE
  5
75D
330
2
100
AcDbEntity
  8
0
100
AcDbLine
 10
200.5432747801
 20
544.0720491979
 30
0.0
 11
200.5432747801
 21
446.0480621979
 31
0.0
  0
LINE
  5
75E
330
2
100
AcDbEntity
  8
0
100
AcDbLine
 10
246.5432747801
 20
433.0600561979
 30
0.0
 11
246.5432747801
 21
557.0600561979
 31
0.0
  0
LINE
  5
75F
330
2
100
AcDbEntity
  8
0
100
AcDbLine
 10
267.0430767801
 20
495.0600561979
 30
0.0
 11
267.7771007801
 21
537.1123931979
 31
0.0
  0
LINE
  5
760
330
2
100
AcDbEntity
  8
0
100
AcDbLine
 10
255.0432747801
 20
559.0600561979
 30
0.0
 11
255.0432747801
 21
431.0600561979
 31
0.0
  0
LINE
  5
761
330
2
100
AcDbEntity
  8
0
100
AcDbLine
 10
314.0432747801
 20
537.0600561979
 30
0.0
 11
314.0432747801
 21
453.0600561979
 31
0.0
  0
LINE
  5
762
330
2
100
AcDbEntity
  8
0
100
AcDbLine
 10
372.0432597801
 20
537.0600561979
 30
0.0
 11
372.0432597801
 21
453.0600561979
 31
0.0
  0
LINE
  5
763
330
2
100
AcDbEntity
  8
CENTER
100
AcDbLine
 10
343.0432597801
 20
625.0600561979
 30
0.0
 11
343.0432597801
 21
365.0600561979
 31
0.0
  0
ARC
  5
764
330
2
100
AcDbEntity
  8
0
100
AcDbCircle
 10
292.2992867801
 20
445.0600561979
 30
0.0
 40
5.0
100
AcDbArc
 50
196.172165
 51
270.0
  0
LINE
  5
766
330
2
100
AcDbEntity
  8
0
100
AcDbLine
 10
284.5932167801
 20
420.0600561979
 30
0.0
 11
327.0432597801
 21
420.0600561979
 31
0.0
  0
LINE
  5
767
330
2
100
AcDbEntity
  8
0
100
AcDbLine
 10
262.4452377801
 20
434.7659581979
 30
0.0
 11
265.5502787801
 21
446.3541531979
 31
0.0
  0
LINE
  5
768
330
2
100
AcDbEntity
  8
0
100
AcDbLine
 10
277.0996717801
 20
425.2588471979
 30
0.0
 11
268.0448927801
 21
449.4813201979
 31
0.0
  0
ARC
  5
769
330
2
100
AcDbEntity
  8
0
100
AcDbCircle
 10
257.6156017801
 20
436.0600561979
 30
0.0
 40
5.0
100
AcDbArc
 50
270.0
 51
345.0
  0
ARC
  5
76A
330
2
100
AcDbEntity
  8
0
100
AcDbCircle
 10
248.5432747801
 20
433.0600561979
 30
0.0
 40
2.0
100
AcDbArc
 50
180.0
 51
270.0
  0
LINE
  5
76B
330
2
100
AcDbEntity
  8
0
100
AcDbLine
 10
248.5432747801
 20
431.0600561979
 30
0.0
 11
255.0432747801
 21
431.0600561979
 31
0.0
  0
LINE
  5
76C
330
2
100
AcDbEntity
  8
0
100
AcDbLine
 10
257.6156017801
 20
431.0600561979
 30
0.0
 11
255.0432747801
 21
431.0600561979
 31
0.0
  0
ARC
  5
76D
330
2
100
AcDbEntity
  8
0
100
AcDbCircle
 10
284.5932167801
 20
428.0600561979
 30
0.0
 40
8.0
100
AcDbArc
 50
200.496613
 51
270.0
  0
LINE
  5
76E
330
2
100
AcDbEntity
  8
0
100
AcDbLine
 10
201.0429697801
 20
445.5306061979
 30
0.0
 11
246.5432747801
 21
443.9417081979
 31
0.0
  0
LINE
  5
76F
330
2
100
AcDbEntity
  8
0
100
AcDbLine
 10
200.5432747801
 20
450.0600561979
 30
0.0
 11
244.1068887801
 21
448.5387851979
 31
0.0
  0
LINE
  5
770
330
2
100
AcDbEntity
  8
0
100
AcDbLine
 10
191.5432747801
 20
466.0600561979
 30
0.0
 11
191.5432747801
 21
452.0600251979
 31
0.0
  0
ARC
  5
771
330
2
100
AcDbEntity
  8
0
100
AcDbCircle
 10
193.5432747801
 20
452.0600561979
 30
0.0
 40
2.0
100
AcDbArc
 50
180.0
 51
270.0
  0
LINE
  5
772
330
2
100
AcDbEntity
  8
0
100
AcDbLine
 10
200.5432747801
 20
446.0480621979
 30
0.0
 11
201.0429697801
 21
445.5306061979
 31
0.0
  0
LINE
  5
773
330
2
100
AcDbEntity
  8
0
100
AcDbLine
 10
239.4002697801
 20
516.8555571979
 30
0.0
 11
239.4002697801
 21
473.1429721979
 31
0.0
  0
LINE
  5
774
330
2
100
AcDbEntity
  8
0
100
AcDbLine
 10
267.0430767801
 20
495.0600561979
 30
0.0
 11
267.7771007801
 21
453.0076871979
 31
0.0
  0
ARC
  5
775
330
2
100
AcDbEntity
  8
0
100
AcDbCircle
 10
244.0196397801
 20
446.0403111979
 30
0.0
 40
2.5
100
AcDbArc
 50
0.104292
 51
88.0
  0
LINE
  5
776
330
2
100
AcDbEntity
  8
0
100
AcDbLine
 10
240.0054177801
 20
471.0600561979
 30
0.0
 11
246.5152447801
 21
471.0600561979
 31
0.0
  0
ARC
  5
777
330
2
100
AcDbEntity
  8
0
100
AcDbCircle
 10
270.3799147801
 20
445.0600561979
 30
0.0
 40
5.0
100
AcDbArc
 50
90.0
 51
165.0
  0
ARC
  5
778
330
2
100
AcDbEntity
  8
0
100
AcDbCircle
 10
270.7766427801
 20
453.0600561979
 30
0.0
 40
3.0
100
AcDbArc
 50
181.0
 51
270.0
  0
ARC
  5
779
330
2
100
AcDbEntity
  8
0
100
AcDbCircle
 10
281.8872697801
 20
445.0600561979
 30
0.0
 40
5.0
100
AcDbArc
 50
16.172159
 51
90.0
  0
LINE
  5
77A
330
2
100
AcDbEntity
  8
0
100
AcDbLine
 10
287.4971327801
 20
443.6674161979
 30
0.0
 11
286.6894087801
 21
446.4526641979
 31
0.0
  0
LINE
  5
77B
330
2
100
AcDbEntity
  8
0
100
AcDbLine
 10
285.6432817801
 20
450.0600561979
 30
0.0
 11
285.6400617801
 21
450.0711331979
 31
0.0
  0
LINE
  5
77C
330
2
100
AcDbEntity
  8
0
100
AcDbLine
 10
239.4002697801
 20
519.0600561979
 30
0.0
 11
246.5152447801
 21
519.0600561979
 31
0.0
  0
ARC
  5
77D
330
2
100
AcDbEntity
  8
0
100
AcDbCircle
 10
390.5432597801
 20
435.0600561979
 30
0.0
 40
6.5
100
AcDbArc
 50
129.715134
 51
51.240688
  0
LINE
  5
77F
330
2
100
AcDbEntity
  8
0
100
AcDbLine
 10
383.0989237801
 20
436.6492281979
 30
0.0
 11
384.1020977801
 21
440.0600561979
 31
0.0
  0
LINE
  5
781
330
2
100
AcDbEntity
  8
0
100
AcDbLine
 10
302.9876417801
 20
436.6492281979
 30
0.0
 11
301.9844527801
 21
440.0600561979
 31
0.0
  0
ARC
  5
782
330
2
100
AcDbEntity
  8
0
100
AcDbCircle
 10
295.5432747801
 20
435.0600561979
 30
0.0
 40
6.5
100
AcDbArc
 50
128.759308
 51
50.284863
  0
LINE
  5
783
330
2
100
AcDbEntity
  8
0
100
AcDbLine
 10
325.5432597801
 20
430.0600561979
 30
0.0
 11
360.5432597801
 21
430.0600561979
 31
0.0
  0
LINE
  5
784
330
2
100
AcDbEntity
  8
0
100
AcDbLine
 10
362.0432597801
 20
375.0600561979
 30
0.0
 11
327.0432597801
 21
375.0600561979
 31
0.0
  0
LINE
  5
786
330
2
100
AcDbEntity
  8
0
100
AcDbLine
 10
327.0432597801
 20
430.0600561979
 30
0.0
 11
327.0432597801
 21
375.0600561979
 31
0.0
  0
LINE
  5
787
330
2
100
AcDbEntity
  8
0
100
AcDbLine
 10
378.3020797801
 20
433.0600561979
 30
0.0
 11
307.7844707801
 21
433.0600561979
 31
0.0
  0
ARC
  5
788
330
2
100
AcDbEntity
  8
0
100
AcDbCircle
 10
307.7844707801
 20
438.0600561979
 30
0.0
 40
5.0
100
AcDbArc
 50
196.389542
 51
270.0
  0
LINE
  5
789
330
2
100
AcDbEntity
  8
0
100
AcDbLine
 10
325.5432597801
 20
433.0600561979
 30
0.0
 11
325.5432597801
 21
430.0600561979
 31
0.0
  0
LINE
  5
78A
330
2
100
AcDbEntity
  8
0
100
AcDbLine
 10
358.2419597801
 20
425.0600561979
 30
0.0
 11
358.2419597801
 21
375.0600561979
 31
0.0
  0
LINE
  5
78B
330
2
100
AcDbEntity
  8
0
100
AcDbLine
 10
362.0432597801
 20
375.0600561979
 30
0.0
 11
362.0432597801
 21
425.0600561979
 31
0.0
  0
LINE
  5
78C
330
2
100
AcDbEntity
  8
0
100
AcDbLine
 10
358.2419597801
 20
425.0600561979
 30
0.0
 11
362.0432597801
 21
425.0600561979
 31
0.0
  0
LINE
  5
78D
330
2
100
AcDbEntity
  8
0
100
AcDbLine
 10
359.0432597801
 20
430.0600561979
 30
0.0
 11
359.0432597801
 21
425.0600561979
 31
0.0
  0
LINE
  5
78E
330
2
100
AcDbEntity
  8
0
100
AcDbLine
 10
360.5432597801
 20
433.0600561979
 30
0.0
 11
360.5432597801
 21
430.0600561979
 31
0.0
  0
ARC
  5
790
330
2
100
AcDbEntity
  8
0
100
AcDbCircle
 10
378.3020797801
 20
438.0600561979
 30
0.0
 40
5.0
100
AcDbArc
 50
270.0
 51
343.61046
  0
LINE
  5
791
330
2
100
AcDbEntity
  8
0
100
AcDbLine
 10
292.2992867801
 20
440.0600561979
 30
0.0
 11
301.9844527801
 21
440.0600561979
 31
0.0
  0
LINE
  5
792
330
2
100
AcDbEntity
  8
0
100
AcDbLine
 10
393.7872787801
 20
440.0600561979
 30
0.0
 11
384.1020977801
 21
440.0600561979
 31
0.0
  0
ARC
  5
793
330
2
100
AcDbEntity
  8
0
100
AcDbCircle
 10
393.7872787801
 20
445.0600561979
 30
0.0
 40
5.0
100
AcDbArc
 50
270.0
 51
343.827841
  0
LINE
  5
794
330
2
100
AcDbEntity
  8
0
100
AcDbLine
 10
398.5894027801
 20
443.6674161979
 30
0.0
 11
399.3971417801
 21
446.4526641979
 31
0.0
  0
ARC
  5
795
330
2
100
AcDbEntity
  8
0
100
AcDbCircle
 10
292.2992867801
 20
545.0600561979
 30
0.0
 40
5.0
100
AcDbArc
 50
90.0
 51
163.827835
  0
LINE
  5
797
330
2
100
AcDbEntity
  8
0
100
AcDbLine
 10
284.5932167801
 20
570.0600561979
 30
0.0
 11
327.0432597801
 21
570.0600561979
 31
0.0
  0
LINE
  5
798
330
2
100
AcDbEntity
  8
0
100
AcDbLine
 10
201.0429697801
 20
544.5895051979
 30
0.0
 11
246.5432747801
 21
546.1784031979
 31
0.0
  0
LINE
  5
799
330
2
100
AcDbEntity
  8
0
100
AcDbLine
 10
200.5432747801
 20
540.0600561979
 30
0.0
 11
244.1068887801
 21
541.5813261979
 31
0.0
  0
ARC
  5
79A
330
2
100
AcDbEntity
  8
0
100
AcDbCircle
 10
193.5432747801
 20
538.0600861979
 30
0.0
 40
2.0
100
AcDbArc
 50
90.0
 51
180.0
  0
LINE
  5
79B
330
2
100
AcDbEntity
  8
0
100
AcDbLine
 10
191.5432747801
 20
538.0600561979
 30
0.0
 11
191.5432747801
 21
524.0600561979
 31
0.0
  0
LINE
  5
79C
330
2
100
AcDbEntity
  8
0
100
AcDbLine
 10
200.5432747801
 20
544.0720491979
 30
0.0
 11
201.0429697801
 21
544.5895051979
 31
0.0
  0
LINE
  5
79D
330
2
100
AcDbEntity
  8
0
100
AcDbLine
 10
277.0996717801
 20
564.8612641979
 30
0.0
 11
268.0448927801
 21
540.6387601979
 31
0.0
  0
ARC
  5
79E
330
2
100
AcDbEntity
  8
0
100
AcDbCircle
 10
257.6156017801
 20
554.0600561979
 30
0.0
 40
5.0
100
AcDbArc
 50
15.0
 51
90.0
  0
ARC
  5
79F
330
2
100
AcDbEntity
  8
0
100
AcDbCircle
 10
244.0196397801
 20
544.0798001979
 30
0.0
 40
2.5
100
AcDbArc
 50
272.0
 51
359.895721
  0
LINE
  5
7A0
330
2
100
AcDbEntity
  8
0
100
AcDbLine
 10
246.5432747801
 20
541.6664091979
 30
0.0
 11
246.5152447801
 21
541.6654331979
 31
0.0
  0
ARC
  5
7A1
330
2
100
AcDbEntity
  8
0
100
AcDbCircle
 10
248.5432747801
 20
557.0600561979
 30
0.0
 40
2.0
100
AcDbArc
 50
90.0
 51
180.0
  0
LINE
  5
7A2
330
2
100
AcDbEntity
  8
0
100
AcDbLine
 10
248.5432747801
 20
559.0600561979
 30
0.0
 11
255.0432747801
 21
559.0600561979
 31
0.0
  0
LINE
  5
7A3
330
2
100
AcDbEntity
  8
0
100
AcDbLine
 10
257.6156017801
 20
559.0600561979
 30
0.0
 11
255.0432747801
 21
559.0600561979
 31
0.0
  0
ARC
  5
7A4
330
2
100
AcDbEntity
  8
0
100
AcDbCircle
 10
281.8872697801
 20
545.0600561979
 30
0.0
 40
5.0
100
AcDbArc
 50
270.0
 51
343.827841
  0
ARC
  5
7A5
330
2
100
AcDbEntity
  8
0
100
AcDbCircle
 10
270.3799147801
 20
545.0600561979
 30
0.0
 40
5.0
100
AcDbArc
 50
195.0
 51
270.0
  0
ARC
  5
7A6
330
2
100
AcDbEntity
  8
0
100
AcDbCircle
 10
270.7766427801
 20
537.0600561979
 30
0.0
 40
3.0
100
AcDbArc
 50
90.0
 51
179.0
  0
LINE
  5
7A7
330
2
100
AcDbEntity
  8
0
100
AcDbLine
 10
285.6432817801
 20
540.0600561979
 30
0.0
 11
285.6400617801
 21
540.0489781979
 31
0.0
  0
LINE
  5
7A8
330
2
100
AcDbEntity
  8
0
100
AcDbLine
 10
262.4452377801
 20
555.3541531979
 30
0.0
 11
265.5502787801
 21
543.7659581979
 31
0.0
  0
LINE
  5
7A9
330
2
100
AcDbEntity
  8
0
100
AcDbLine
 10
287.4971327801
 20
546.4526641979
 30
0.0
 11
286.6894087801
 21
543.6674161979
 31
0.0
  0
ARC
  5
7AA
330
2
100
AcDbEntity
  8
0
100
AcDbCircle
 10
284.5932167801
 20
562.0600561979
 30
0.0
 40
8.0
100
AcDbArc
 50
90.0
 51
159.503387
  0
LINE
  5
7AB
330
2
100
AcDbEntity
  8
0
100
AcDbLine
 10
358.2419597801
 20
565.0600561979
 30
0.0
 11
358.2419597801
 21
615.0600561979
 31
0.0
  0
LINE
  5
7AC
330
2
100
AcDbEntity
  8
0
100
AcDbLine
 10
362.0432597801
 20
615.0600561979
 30
0.0
 11
362.0432597801
 21
565.0600561979
 31
0.0
  0
LINE
  5
7AD
330
2
100
AcDbEntity
  8
0
100
AcDbLine
 10
327.0432597801
 20
560.0600561979
 30
0.0
 11
327.0432597801
 21
615.0600561979
 31
0.0
  0
LINE
  5
7AE
330
2
100
AcDbEntity
  8
0
100
AcDbLine
 10
325.5432597801
 20
560.0600561979
 30
0.0
 11
360.5432597801
 21
560.0600561979
 31
0.0
  0
LINE
  5
7B1
330
2
100
AcDbEntity
  8
0
100
AcDbLine
 10
378.3020797801
 20
557.0600561979
 30
0.0
 11
307.7844557801
 21
557.0600561979
 31
0.0
  0
LINE
  5
7B2
330
2
100
AcDbEntity
  8
0
100
AcDbLine
 10
302.9876417801
 20
553.4708831979
 30
0.0
 11
301.9844527801
 21
550.0600561979
 31
0.0
  0
ARC
  5
7B3
330
2
100
AcDbEntity
  8
0
100
AcDbCircle
 10
307.7844707801
 20
552.0600561979
 30
0.0
 40
5.0
100
AcDbArc
 50
90.0
 51
163.610458
  0
ARC
  5
7B4
330
2
100
AcDbEntity
  8
0
100
AcDbCircle
 10
295.5432747801
 20
555.0600561979
 30
0.0
 40
6.5
100
AcDbArc
 50
309.715137
 51
231.240692
  0
LINE
  5
7B5
330
2
100
AcDbEntity
  8
0
100
AcDbLine
 10
292.2992867801
 20
550.0600561979
 30
0.0
 11
301.9844527801
 21
550.0600561979
 31
0.0
  0
LINE
  5
7B6
330
2
100
AcDbEntity
  8
0
100
AcDbLine
 10
325.5432597801
 20
557.0600561979
 30
0.0
 11
325.5432597801
 21
560.0600561979
 31
0.0
  0
LINE
  5
7B7
330
2
100
AcDbEntity
  8
CENTER
100
AcDbLine
 10
390.5432597801
 20
544.7124001979
 30
0.0
 11
390.5432597801
 21
565.4077121979
 31
0.0
  0
LINE
  5
7B8
330
2
100
AcDbEntity
  8
0
100
AcDbLine
 10
359.0432597801
 20
560.0600561979
 30
0.0
 11
359.0432597801
 21
565.0600561979
 31
0.0
  0
LINE
  5
7B9
330
2
100
AcDbEntity
  8
0
100
AcDbLine
 10
360.5432597801
 20
557.0600561979
 30
0.0
 11
360.5432597801
 21
560.0600561979
 31
0.0
  0
ARC
  5
7BA
330
2
100
AcDbEntity
  8
0
100
AcDbCircle
 10
390.5432597801
 20
555.0600561979
 30
0.0
 40
6.5
100
AcDbArc
 50
308.759312
 51
230.284866
  0
LINE
  5
7BB
330
2
100
AcDbEntity
  8
CENTER
100
AcDbLine
 10
380.1956037801
 20
555.0600561979
 30
0.0
 11
400.8909157801
 21
555.0600561979
 31
0.0
  0
LINE
  5
7BC
330
2
100
AcDbEntity
  8
0
100
AcDbLine
 10
393.7872787801
 20
550.0600561979
 30
0.0
 11
384.1020977801
 21
550.0600561979
 31
0.0
  0
LINE
  5
7BD
330
2
100
AcDbEntity
  8
0
100
AcDbLine
 10
383.0989237801
 20
553.4708831979
 30
0.0
 11
384.1020977801
 21
550.0600561979
 31
0.0
  0
ARC
  5
7BE
330
2
100
AcDbEntity
  8
0
100
AcDbCircle
 10
378.3020797801
 20
552.0600561979
 30
0.0
 40
5.0
100
AcDbArc
 50
16.38954
 51
90.0
  0
ARC
  5
7BF
330
2
100
AcDbEntity
  8
0
100
AcDbCircle
 10
393.7872787801
 20
545.0600561979
 30
0.0
 40
5.0
100
AcDbArc
 50
16.172159
 51
90.0
  0
LINE
  5
7C0
330
2
100
AcDbEntity
  8
0
100
AcDbLine
 10
398.5894027801
 20
546.4526641979
 30
0.0
 11
399.3971417801
 21
543.6674161979
 31
0.0
  0
LINE
  5
7C1
330
2
100
AcDbEntity
  8
0
100
AcDbLine
 10
358.2419597801
 20
565.0600561979
 30
0.0
 11
362.0432597801
 21
565.0600561979
 31
0.0
  0
LINE
  5
7C2
330
2
100
AcDbEntity
  8
0
100
AcDbLine
 10
362.0432597801
 20
615.0600561979
 30
0.0
 11
327.0432597801
 21
615.0600561979
 31
0.0
  0
LINE
  5
7C3
330
2
100
AcDbEntity
  8
0
100
AcDbLine
 10
593.7371803067
 20
241.1074651834
 30
0.0
 11
678.4154033067
 21
241.1074651834
 31
0.0
  0
LINE
  5
7C4
330
2
100
AcDbEntity
  8
0
100
AcDbLine
 10
678.2152073067
 20
272.8737611834
 30
0.0
 11
636.1627783067
 21
273.6074651834
 31
0.0
  0
LINE
  5
7C5
330
2
100
AcDbEntity
  8
0
100
AcDbLine
 10
607.6627783067
 20
70.1074681834
 30
0.0
 11
664.6627783067
 21
70.1074681834
 31
0.0
  0
LINE
  5
7C6
330
2
100
AcDbEntity
  8
CENTER
100
AcDbLine
 10
506.1628093067
 20
208.6074651834
 30
0.0
 11
766.1627783067
 21
208.6074651834
 31
0.0
  0
LINE
  5
7C7
330
2
100
AcDbEntity
  8
CENTER
100
AcDbLine
 10
562.1627783067
 20
163.6074651834
 30
0.0
 11
710.1627783067
 21
163.6074651834
 31
0.0
  0
ARC
  5
7C8
330
2
100
AcDbEntity
  8
0
100
AcDbCircle
 10
636.1627783067
 20
163.6074651834
 30
0.0
 40
64.0
100
AcDbArc
 50
165.638489
 51
210.753525
  0
LINE
  5
7C9
330
2
100
AcDbEntity
  8
0
100
AcDbLine
 10
591.1627783067
 20
269.8737461834
 30
0.0
 11
591.1627783067
 21
68.6074681834
 31
0.0
  0
LINE
  5
7CA
330
2
100
AcDbEntity
  8
0
100
AcDbLine
 10
581.1628093067
 20
124.3634691834
 30
0.0
 11
581.1628093067
 21
212.5178651834
 31
0.0
  0
LINE
  5
7CB
330
2
100
AcDbEntity
  8
CENTER
100
AcDbLine
 10
636.1627783067
 20
58.6074681834
 30
0.0
 11
636.1627783067
 21
283.6074651834
 31
0.0
  0
LINE
  5
7CC
330
2
100
AcDbEntity
  8
0
100
AcDbLine
 10
419.0432597801
 20
236.9130221834
 30
0.0
 11
419.0432597801
 21
68.6074681834
 31
0.0
  0
LINE
  5
7CD
330
2
100
AcDbEntity
  8
0
100
AcDbLine
 10
405.0432597801
 20
84.5409081834
 30
0.0
 11
405.0432597801
 21
68.6074681834
 31
0.0
  0
LINE
  5
7CE
330
2
100
AcDbEntity
  8
HIDS
100
AcDbLine
 10
569.6628093067
 20
86.6074691834
 30
0.0
 11
569.6628093067
 21
68.6074681834
 31
0.0
  0
LINE
  5
7CF
330
2
100
AcDbEntity
  8
HIDS
100
AcDbLine
 10
582.6628093067
 20
86.6074691834
 30
0.0
 11
582.6628093067
 21
68.6074681834
 31
0.0
  0
LINE
  5
7D0
330
2
100
AcDbEntity
  8
0
100
AcDbLine
 10
561.1628093067
 20
84.4896481834
 30
0.0
 11
561.1628093067
 21
68.6074681834
 31
0.0
  0
LINE
  5
7D1
330
2
100
AcDbEntity
  8
CENTER
100
AcDbLine
 10
576.1628093067
 20
91.6074691834
 30
0.0
 11
576.1628093067
 21
63.6074681834
 31
0.0
  0
LINE
  5
7D2
330
2
100
AcDbEntity
  8
0
100
AcDbLine
 10
561.1628093067
 20
68.6074681834
 30
0.0
 11
606.1627783067
 21
68.6074681834
 31
0.0
  0
LINE
  5
7D3
330
2
100
AcDbEntity
  8
0
100
AcDbLine
 10
606.1627783067
 20
68.6074681834
 30
0.0
 11
607.6627783067
 21
70.1074681834
 31
0.0
  0
ARC
  5
7D4
330
2
100
AcDbEntity
  8
0
100
AcDbCircle
 10
586.1628093067
 20
124.3635071834
 30
0.0
 40
5.0
100
AcDbArc
 50
180.0
 51
253.828201
  0
LINE
  5
7D5
330
2
100
AcDbEntity
  8
0
100
AcDbLine
 10
563.2517983067
 20
86.9556291834
 30
0.0
 11
588.6560033067
 21
91.1896681834
 31
0.0
  0
LINE
  5
7D6
330
2
100
AcDbEntity
  8
0
100
AcDbLine
 10
563.6628093067
 20
86.6074691834
 30
0.0
 11
587.1628093067
 21
86.6074691834
 31
0.0
  0
ARC
  5
7D7
330
2
100
AcDbEntity
  8
0
100
AcDbCircle
 10
563.6628093067
 20
84.4896671834
 30
0.0
 40
2.5
100
AcDbArc
 50
99.462753
 51
180.0
  0
ARC
  5
7D8
330
2
100
AcDbEntity
  8
0
100
AcDbCircle
 10
563.6628093067
 20
84.1074881834
 30
0.0
 40
2.5
100
AcDbArc
 50
90.0
 51
180.0
  0
ARC
  5
7D9
330
2
100
AcDbEntity
  8
0
100
AcDbCircle
 10
588.1627783067
 20
94.1488491834
 30
0.0
 40
3.0
100
AcDbArc
 50
279.462517
 51
0.0
  0
ARC
  5
7DA
330
2
100
AcDbEntity
  8
0
100
AcDbCircle
 10
587.1628093067
 20
90.6074291834
 30
0.0
 40
4.0
100
AcDbArc
 50
270.0
 51
0.0
  0
ARC
  5
7DB
330
2
100
AcDbEntity
  8
0
100
AcDbCircle
 10
586.1628093067
 20
113.9514481834
 30
0.0
 40
5.0
100
AcDbArc
 50
0.0
 51
73.827919
  0
LINE
  5
7DC
330
2
100
AcDbEntity
  8
0
100
AcDbLine
 10
584.7702003067
 20
119.5613261834
 30
0.0
 11
587.5554173067
 21
118.7536101834
 31
0.0
  0
ARC
  5
7DD
330
2
100
AcDbEntity
  8
0
100
AcDbCircle
 10
589.1627783067
 20
114.5861291834
 30
0.0
 40
2.0
100
AcDbArc
 50
30.94791
 51
53.217121
  0
ARC
  5
7DE
330
2
100
AcDbEntity
  8
0
100
AcDbCircle
 10
595.1506323067
 20
122.5952461834
 30
0.0
 40
8.0
100
AcDbArc
 50
211.001404
 51
233.216995
  0
LINE
  5
7DF
330
2
100
AcDbEntity
  8
0
100
AcDbLine
 10
561.1628093067
 20
203.6074651834
 30
0.0
 11
516.1628093067
 21
203.6074651834
 31
0.0
  0
LINE
  5
7E0
330
2
100
AcDbEntity
  8
0
100
AcDbLine
 10
561.1628093067
 20
213.6074651834
 30
0.0
 11
516.1628093067
 21
213.6074651834
 31
0.0
  0
LINE
  5
7E1
330
2
100
AcDbEntity
  8
0
100
AcDbLine
 10
571.1628093067
 20
192.6074651834
 30
0.0
 11
516.1628093067
 21
192.6074651834
 31
0.0
  0
LINE
  5
7E2
330
2
100
AcDbEntity
  8
0
100
AcDbLine
 10
571.1628093067
 20
224.6074651834
 30
0.0
 11
516.1628093067
 21
224.6074651834
 31
0.0
  0
ARC
  5
7E3
330
2
100
AcDbEntity
  8
0
100
AcDbCircle
 10
411.0432597801
 20
236.9129921834
 30
0.0
 40
8.0
100
AcDbArc
 50
0.0
 51
55.336739
  0
LINE
  5
7E4
330
2
100
AcDbEntity
  8
0
100
AcDbLine
 10
516.1628093067
 20
192.6074651834
 30
0.0
 11
516.1628093067
 21
224.6074651834
 31
0.0
  0
LINE
  5
7E5
330
2
100
AcDbEntity
  8
0
100
AcDbLine
 10
574.1628093067
 20
173.3486611834
 30
0.0
 11
574.1628093067
 21
243.8662851834
 31
0.0
  0
ARC
  5
7E6
330
2
100
AcDbEntity
  8
0
100
AcDbCircle
 10
577.1628093067
 20
164.5556841834
 30
0.0
 40
4.0
100
AcDbArc
 50
0.0
 51
73.610649
  0
LINE
  5
7E7
330
2
100
AcDbEntity
  8
0
100
AcDbLine
 10
571.1628093067
 20
226.1074651834
 30
0.0
 11
571.1628093067
 21
191.1074651834
 31
0.0
  0
ARC
  5
7E8
330
2
100
AcDbEntity
  8
0
100
AcDbCircle
 10
579.1628093067
 20
173.3486991834
 30
0.0
 40
5.0
100
AcDbArc
 50
180.0
 51
253.610794
  0
LINE
  5
7E9
330
2
100
AcDbEntity
  8
0
100
AcDbLine
 10
577.7520123067
 20
168.5518311834
 30
0.0
 11
578.2914103067
 21
168.3931631834
 31
0.0
  0
LINE
  5
7EA
330
2
100
AcDbEntity
  8
0
100
AcDbLine
 10
574.1628093067
 20
191.1074651834
 30
0.0
 11
571.1628093067
 21
191.1074651834
 31
0.0
  0
ARC
  5
7EB
330
2
100
AcDbEntity
  8
0
100
AcDbCircle
 10
561.1628093067
 20
208.6074651834
 30
0.0
 40
5.0
100
AcDbArc
 50
270.0
 51
90.0
  0
LINE
  5
7EC
330
2
100
AcDbEntity
  8
0
100
AcDbLine
 10
574.1628093067
 20
226.1074651834
 30
0.0
 11
571.1628093067
 21
226.1074651834
 31
0.0
  0
LINE
  5
7ED
330
2
100
AcDbEntity
  8
0
100
AcDbLine
 10
587.5736063067
 20
251.5518311834
 30
0.0
 11
577.7520123067
 21
248.6630831834
 31
0.0
  0
ARC
  5
7EE
330
2
100
AcDbEntity
  8
0
100
AcDbCircle
 10
579.1628093067
 20
243.8663151834
 30
0.0
 40
5.0
100
AcDbArc
 50
106.3899
 51
180.0
  0
LINE
  5
7EF
330
2
100
AcDbEntity
  8
0
100
AcDbLine
 10
594.1104103067
 20
272.8732881834
 30
0.0
 11
636.1627783067
 21
273.6074651834
 31
0.0
  0
ARC
  5
7F1
330
2
100
AcDbEntity
  8
0
100
AcDbCircle
 10
586.1628093067
 20
256.3486451834
 30
0.0
 40
5.0
100
AcDbArc
 50
286.389771
 51
0.0
  0
ARC
  5
7F2
330
2
100
AcDbEntity
  8
0
100
AcDbCircle
 10
594.1627783067
 20
269.8737461834
 30
0.0
 40
3.0
100
AcDbArc
 50
91.000603
 51
180.0
  0
ARC
  5
7F3
330
2
100
AcDbEntity
  8
0
100
AcDbCircle
 10
636.1627783067
 20
163.6074651834
 30
0.0
 40
64.0
100
AcDbArc
 50
329.246481
 51
14.361512
  0
LINE
  5
7F4
330
2
100
AcDbEntity
  8
0
100
AcDbLine
 10
691.1627783067
 20
124.3634881834
 30
0.0
 11
691.1627783067
 21
212.5178651834
 31
0.0
  0
LINE
  5
7F5
330
2
100
AcDbEntity
  8
0
100
AcDbLine
 10
681.1627783067
 20
269.8742341834
 30
0.0
 11
681.1627783067
 21
68.6074681834
 31
0.0
  0
LINE
  5
7F6
330
2
100
AcDbEntity
  8
HIDS
100
AcDbLine
 10
689.6627783067
 20
86.6074691834
 30
0.0
 11
689.6627783067
 21
68.6074681834
 31
0.0
  0
LINE
  5
7F7
330
2
100
AcDbEntity
  8
HIDS
100
AcDbLine
 10
702.6627783067
 20
86.6074691834
 30
0.0
 11
702.6627783067
 21
68.6074681834
 31
0.0
  0
LINE
  5
7F8
330
2
100
AcDbEntity
  8
0
100
AcDbLine
 10
711.1627783067
 20
84.4896481834
 30
0.0
 11
711.1627783067
 21
68.6074681834
 31
0.0
  0
LINE
  5
7F9
330
2
100
AcDbEntity
  8
CENTER
100
AcDbLine
 10
696.1627783067
 20
91.6074691834
 30
0.0
 11
696.1627783067
 21
63.6074681834
 31
0.0
  0
LINE
  5
7FA
330
2
100
AcDbEntity
  8
0
100
AcDbLine
 10
666.1627783067
 20
68.6074681834
 30
0.0
 11
711.1627783067
 21
68.6074681834
 31
0.0
  0
LINE
  5
7FB
330
2
100
AcDbEntity
  8
0
100
AcDbLine
 10
666.1627783067
 20
68.6074681834
 30
0.0
 11
664.6627783067
 21
70.1074681834
 31
0.0
  0
LINE
  5
7FC
330
2
100
AcDbEntity
  8
0
100
AcDbLine
 10
709.0737893067
 20
86.9556481834
 30
0.0
 11
683.6696143067
 21
91.1896891834
 31
0.0
  0
LINE
  5
7FD
330
2
100
AcDbEntity
  8
0
100
AcDbLine
 10
708.6627783067
 20
86.6074691834
 30
0.0
 11
685.1627783067
 21
86.6074691834
 31
0.0
  0
ARC
  5
7FE
330
2
100
AcDbEntity
  8
0
100
AcDbCircle
 10
684.1627783067
 20
94.1488891834
 30
0.0
 40
3.0
100
AcDbArc
 50
180.0
 51
260.537903
  0
ARC
  5
7FF
330
2
100
AcDbEntity
  8
0
100
AcDbCircle
 10
685.1627783067
 20
90.6074691834
 30
0.0
 40
4.0
100
AcDbArc
 50
180.0
 51
270.0
  0
ARC
  5
800
330
2
100
AcDbEntity
  8
0
100
AcDbCircle
 10
686.1627783067
 20
124.3634691834
 30
0.0
 40
5.0
100
AcDbArc
 50
286.172302
 51
0.0
  0
LINE
  5
801
330
2
100
AcDbEntity
  8
0
100
AcDbLine
 10
687.5554173067
 20
119.5613261834
 30
0.0
 11
684.7702003067
 21
118.7536101834
 31
0.0
  0
ARC
  5
802
330
2
100
AcDbEntity
  8
0
100
AcDbCircle
 10
683.1627783067
 20
114.5861291834
 30
0.0
 40
2.0
100
AcDbArc
 50
126.782883
 51
149.052094
  0
ARC
  5
803
330
2
100
AcDbEntity
  8
0
100
AcDbCircle
 10
677.1749853067
 20
122.5952461834
 30
0.0
 40
8.0
100
AcDbArc
 50
306.783001
 51
328.9986
  0
ARC
  5
804
330
2
100
AcDbEntity
  8
0
100
AcDbCircle
 10
686.1627783067
 20
113.9514901834
 30
0.0
 40
5.0
100
AcDbArc
 50
106.172501
 51
180.0
  0
ARC
  5
805
330
2
100
AcDbEntity
  8
0
100
AcDbCircle
 10
708.6627783067
 20
84.4896481834
 30
0.0
 40
2.5
100
AcDbArc
 50
0.0
 51
80.537682
  0
ARC
  5
806
330
2
100
AcDbEntity
  8
0
100
AcDbCircle
 10
708.6627783067
 20
84.1074691834
 30
0.0
 40
2.5
100
AcDbArc
 50
0.0
 51
90.0
  0
LINE
  5
807
330
2
100
AcDbEntity
  8
0
100
AcDbLine
 10
711.1627783067
 20
203.6074651834
 30
0.0
 11
756.1627783067
 21
203.6074651834
 31
0.0
  0
LINE
  5
808
330
2
100
AcDbEntity
  8
0
100
AcDbLine
 10
711.1627783067
 20
213.6074651834
 30
0.0
 11
756.1627783067
 21
213.6074651834
 31
0.0
  0
LINE
  5
809
330
2
100
AcDbEntity
  8
0
100
AcDbLine
 10
701.1627783067
 20
192.6074651834
 30
0.0
 11
756.1627783067
 21
192.6074651834
 31
0.0
  0
LINE
  5
80A
330
2
100
AcDbEntity
  8
0
100
AcDbLine
 10
701.1627783067
 20
224.6074651834
 30
0.0
 11
756.1627783067
 21
224.6074651834
 31
0.0
  0
LINE
  5
80B
330
2
100
AcDbEntity
  8
0
100
AcDbLine
 10
698.1627783067
 20
173.3486611834
 30
0.0
 11
698.1627783067
 21
243.8662851834
 31
0.0
  0
ARC
  5
80C
330
2
100
AcDbEntity
  8
0
100
AcDbCircle
 10
695.1627783067
 20
164.5557151834
 30
0.0
 40
4.0
100
AcDbArc
 50
106.389999
 51
180.0
  0
LINE
  5
80D
330
2
100
AcDbEntity
  8
0
100
AcDbLine
 10
701.1627783067
 20
226.1074651834
 30
0.0
 11
701.1627783067
 21
191.1074651834
 31
0.0
  0
ARC
  5
80E
330
2
100
AcDbEntity
  8
0
100
AcDbCircle
 10
693.1627783067
 20
173.3486531834
 30
0.0
 40
5.0
100
AcDbArc
 50
286.389679
 51
0.0
  0
LINE
  5
80F
330
2
100
AcDbEntity
  8
0
100
AcDbLine
 10
694.5736063067
 20
168.5518311834
 30
0.0
 11
694.0341773067
 21
168.3931551834
 31
0.0
  0
LINE
  5
810
330
2
100
AcDbEntity
  8
0
100
AcDbLine
 10
698.1627783067
 20
191.1074651834
 30
0.0
 11
701.1627783067
 21
191.1074651834
 31
0.0
  0
ARC
  5
811
330
2
100
AcDbEntity
  8
0
100
AcDbCircle
 10
711.1627783067
 20
208.6074651834
 30
0.0
 40
5.0
100
AcDbArc
 50
90.0
 51
270.0
  0
LINE
  5
812
330
2
100
AcDbEntity
  8
0
100
AcDbLine
 10
698.1627783067
 20
226.1074651834
 30
0.0
 11
701.1627783067
 21
226.1074651834
 31
0.0
  0
LINE
  5
813
330
2
100
AcDbEntity
  8
0
100
AcDbLine
 10
694.5736063067
 20
248.6631141834
 30
0.0
 11
684.7520123067
 21
251.5518311834
 31
0.0
  0
ARC
  5
814
330
2
100
AcDbEntity
  8
0
100
AcDbCircle
 10
686.1627783067
 20
256.3486911834
 30
0.0
 40
5.0
100
AcDbArc
 50
180.0
 51
253.610794
  0
ARC
  5
815
330
2
100
AcDbEntity
  8
0
100
AcDbCircle
 10
678.1627783067
 20
269.8742041834
 30
0.0
 40
3.0
100
AcDbArc
 50
0.0
 51
89.00058
  0
ARC
  5
816
330
2
100
AcDbEntity
  8
0
100
AcDbCircle
 10
693.1627783067
 20
243.8662691834
 30
0.0
 40
5.0
100
AcDbArc
 50
0.0
 51
73.610527
  0
LINE
  5
817
330
2
100
AcDbEntity
  8
0
100
AcDbLine
 10
756.1627783067
 20
192.6074651834
 30
0.0
 11
756.1627783067
 21
224.6074651834
 31
0.0
  0
LINE
  5
818
330
2
100
AcDbEntity
  8
0
100
AcDbLine
 10
419.0434737801
 20
495.0600561979
 30
0.0
 11
418.2579817801
 21
540.0600561979
 31
0.0
  0
LINE
  5
819
330
2
100
AcDbEntity
  8
0
100
AcDbLine
 10
408.9868637801
 20
425.2588471979
 30
0.0
 11
418.2579817801
 21
450.0600561979
 31
0.0
  0
ARC
  5
81A
330
2
100
AcDbEntity
  8
0
100
AcDbCircle
 10
401.4933327801
 20
428.0600561979
 30
0.0
 40
8.0
100
AcDbArc
 50
270.0
 51
339.503382
  0
LINE
  5
81B
330
2
100
AcDbEntity
  8
0
100
AcDbLine
 10
419.0434737801
 20
495.0600561979
 30
0.0
 11
418.2579817801
 21
450.0600561979
 31
0.0
  0
LINE
  5
81C
330
2
100
AcDbEntity
  8
0
100
AcDbLine
 10
400.4432847801
 20
450.0600561979
 30
0.0
 11
400.4464887801
 21
450.0711331979
 31
0.0
  0
ARC
  5
81D
330
2
100
AcDbEntity
  8
0
100
AcDbCircle
 10
415.3098917801
 20
453.0600561979
 30
0.0
 40
3.0
100
AcDbArc
 50
270.0
 51
359.0
  0
LINE
  5
81F
330
2
100
AcDbEntity
  8
0
100
AcDbLine
 10
408.9868637801
 20
564.8612641979
 30
0.0
 11
418.2579817801
 21
540.0600561979
 31
0.0
  0
LINE
  5
820
330
2
100
AcDbEntity
  8
0
100
AcDbLine
 10
400.4432847801
 20
540.0600561979
 30
0.0
 11
400.4464887801
 21
540.0489781979
 31
0.0
  0
ARC
  5
821
330
2
100
AcDbEntity
  8
0
100
AcDbCircle
 10
415.3098917801
 20
537.0600561979
 30
0.0
 40
3.0
100
AcDbArc
 50
1.0
 51
90.0
  0
ARC
  5
822
330
2
100
AcDbEntity
  8
0
100
AcDbCircle
 10
401.4933327801
 20
562.0600561979
 30
0.0
 40
8.0
100
AcDbArc
 50
20.496618
 51
90.0
  0
LINE
  5
8D5
330
2
100
AcDbEntity
  8
CENTER
100
AcDbLine
 10
295.5432747801
 20
544.7124001979
 30
0.0
 11
295.5432747801
 21
565.4077121979
 31
0.0
  0
LINE
  5
8D6
330
2
100
AcDbEntity
  8
CENTER
100
AcDbLine
 10
285.1956187801
 20
555.0600561979
 30
0.0
 11
305.8909307801
 21
555.0600561979
 31
0.0
  0
LINE
  5
8D7
330
2
100
AcDbEntity
  8
CENTER
100
AcDbLine
 10
295.5432747801
 20
424.7124001979
 30
0.0
 11
295.5432747801
 21
445.4077121979
 31
0.0
  0
LINE
  5
8D8
330
2
100
AcDbEntity
  8
CENTER
100
AcDbLine
 10
285.1956187801
 20
435.0600561979
 30
0.0
 11
305.8909307801
 21
435.0600561979
 31
0.0
  0
LINE
  5
8D9
330
2
100
AcDbEntity
  8
CENTER
100
AcDbLine
 10
390.5432597801
 20
424.7124001979
 30
0.0
 11
390.5432597801
 21
445.4077121979
 31
0.0
  0
LINE
  5
8DA
330
2
100
AcDbEntity
  8
CENTER
100
AcDbLine
 10
380.1956037801
 20
435.0600561979
 30
0.0
 11
400.8909157801
 21
435.0600561979
 31
0.0
  0
TEXT
  5
8F0
330
2
100
AcDbEntity
  8
TITLE
100
AcDbText
 10
531.9408884623
 20
476.9174739077
 30
0.0
 40
7.0
  1
HLM-32T-1200~1800-S40WK
 41
0.8
100
AcDbText
  0
TEXT
  5
8F1
330
2
100
AcDbEntity
  8
TITLE
100
AcDbText
 10
531.9408884623
 20
487.9174739077
 30
0.0
 40
7.0
  1
HLM-32T-1200~1800-S40K
 41
0.8
100
AcDbText
  0
TEXT
  5
8F2
330
2
100
AcDbEntity
  8
TITLE
100
AcDbText
 10
531.9408884623
 20
499.1174739077
 30
0.0
 40
7.0
  1
HLM-32T-600~900-T90K
 41
0.8
100
AcDbText
  0
TEXT
  5
8F3
330
2
100
AcDbEntity
  8
TITLE
100
AcDbText
 10
531.9408884623
 20
510.3174739077
 30
0.0
 40
7.0
  1
HLM-32T-1200~1800-T60WK
 41
0.8
100
AcDbText
  0
TEXT
  5
8F4
330
2
100
AcDbEntity
  8
TITLE
100
AcDbText
 10
531.9408884623
 20
521.5174739077
 30
0.0
 40
7.0
  1
HLM-32T-1200~1800-T60K
 41
0.8
100
AcDbText
  0
TEXT
  5
8F5
330
2
100
AcDbEntity
  8
TITLE
100
AcDbText
 10
531.9408884623
 20
532.7174739077
 30
0.0
 40
7.0
  1
HLM-32T-1200~1800-T40WK
 41
0.8
100
AcDbText
  0
TEXT
  5
8F6
330
2
100
AcDbEntity
  8
TITLE
100
AcDbText
 10
531.9408884623
 20
543.7174739077
 30
0.0
 40
7.0
  1
HLM-32T-1200~1800-T40K
 41
0.8
100
AcDbText
  0
LINE
  5
1203
330
2
100
AcDbEntity
  8
CENTER
100
AcDbLine
 10
182.8668157517
 20
163.6074651834
 30
0.0
 11
274.7134493355
 21
163.6074651834
 31
0.0
  0
LINE
  5
16AF
330
2
100
AcDbEntity
  8
0
100
AcDbLine
 10
122.5432737801
 20
241.1074801834
 30
0.0
 11
122.5432737801
 21
199.1074651834
 31
0.0
  0
LINE
  5
16B0
330
2
100
AcDbEntity
  8
0
100
AcDbLine
 10
72.5432667801
 20
241.1074801834
 30
0.0
 11
72.5432667801
 21
199.1074651834
 31
0.0
  0
LINE
  5
16B1
330
2
100
AcDbEntity
  8
CENTER
100
AcDbLine
 10
97.5432737801
 20
185.7179691834
 30
0.0
 11
97.5432737801
 21
252.4949801834
 31
0.0
  0
LINE
  5
16B4
330
2
100
AcDbEntity
  8
0
100
AcDbLine
 10
74.0432667801
 20
197.1074651834
 30
0.0
 11
120.5432737801
 21
197.1074651834
 31
0.0
  0
LINE
  5
16B5
330
2
100
AcDbEntity
  8
0
100
AcDbLine
 10
72.5432667801
 20
199.1074651834
 30
0.0
 11
122.5432737801
 21
199.1074651834
 31
0.0
  0
LINE
  5
16B7
330
2
100
AcDbEntity
  8
0
100
AcDbLine
 10
74.0432667801
 20
197.1074651834
 30
0.0
 11
74.0432667801
 21
195.6074651834
 31
0.0
  0
LINE
  5
16B8
330
2
100
AcDbEntity
  8
0
100
AcDbLine
 10
72.5432667801
 20
199.1074651834
 30
0.0
 11
74.5432667801
 21
197.1074651834
 31
0.0
  0
LINE
  5
16B9
330
2
100
AcDbEntity
  8
0
100
AcDbLine
 10
120.0432737801
 20
197.1074651834
 30
0.0
 11
120.0432737801
 21
195.6074651834
 31
0.0
  0
LINE
  5
16BA
330
2
100
AcDbEntity
  8
0
100
AcDbLine
 10
120.5432737801
 20
197.1074651834
 30
0.0
 11
122.5432737801
 21
199.1074651834
 31
0.0
  0
LINE
  5
16BE
330
2
100
AcDbEntity
  8
0
100
AcDbLine
 10
77.3811825961
 20
242.1074801834
 30
0.0
 11
117.705364964
 21
242.1074801834
 31
0.0
  0
LINE
  5
16BF
330
2
100
AcDbEntity
  8
0
100
AcDbLine
 10
72.5432667801
 20
209.1074651834
 30
0.0
 11
122.5432737801
 21
209.1074651834
 31
0.0
  0
LINE
  5
16C0
330
2
100
AcDbEntity
  8
0
100
AcDbLine
 10
72.5432667801
 20
210.1074651834
 30
0.0
 11
122.5432737801
 21
210.1074651834
 31
0.0
  0
LINE
  5
16C1
330
2
100
AcDbEntity
  8
0
100
AcDbLine
 10
80.0432737801
 20
241.1074801834
 30
0.0
 11
115.0432737801
 21
241.1074801834
 31
0.0
  0
LINE
  5
16C2
330
2
100
AcDbEntity
  8
CENTER
100
AcDbLine
 10
62.4996667988
 20
225.1074651834
 30
0.0
 11
132.5868807613
 21
225.1074651834
 31
0.0
  0
LINE
  5
16C3
330
2
100
AcDbEntity
  8
0
100
AcDbLine
 10
79.5432737801
 20
239.6074801834
 30
0.0
 11
79.4453376412
 21
240.7268953732
 31
0.0
  0
LINE
  5
16C4
330
2
100
AcDbEntity
  8
0
100
AcDbLine
 10
80.0432737801
 20
239.6074801834
 30
0.0
 11
80.0432737801
 21
241.6074801834
 31
0.0
  0
LINE
  5
16C5
330
2
100
AcDbEntity
  8
0
100
AcDbLine
 10
72.5432737801
 20
239.6074801834
 30
0.0
 11
72.6412099189
 21
240.7268953732
 31
0.0
  0
LINE
  5
16C7
330
2
100
AcDbEntity
  8
0
100
AcDbLine
 10
71.6682667801
 20
214.6074651834
 30
0.0
 11
73.6682667801
 21
214.6074651834
 31
0.0
  0
LINE
  5
16C8
330
2
100
AcDbEntity
  8
0
100
AcDbLine
 10
80.0432737801
 20
239.6074801834
 30
0.0
 11
72.5432737801
 21
239.6074801834
 31
0.0
  0
LINE
  5
16C9
330
2
100
AcDbEntity
  8
0
100
AcDbLine
 10
71.6682667801
 20
235.6074651834
 30
0.0
 11
73.6682667801
 21
235.6074651834
 31
0.0
  0
SPLINE
  5
16CA
330
2
100
AcDbEntity
  8
0
100
AcDbSpline
210
0.0
220
0.0
230
1.0
 70
     8
 71
     3
 72
    11
 73
     7
 74
     0
 42
0.000000001
 43
0.0000000001
 40
0.0
 40
0.0
 40
0.0
 40
0.0
 40
0.4601364636755307
 40
1.04988694485363
 40
1.713742833862792
 40
2.320347933405154
 40
2.320347933405154
 40
2.320347933405154
 40
2.320347933405175
 10
76.33077378050905
 20
240.6904801834175
 30
0.0
 10
76.35319143761694
 20
240.8455036230975
 30
0.0
 10
76.4043414928501
 20
241.199218441015
 30
0.0
 10
76.84022665438374
 20
241.6239461126167
 30
0.0
 10
77.44527736939118
 20
241.8431332925825
 30
0.0
 10
77.87046199356701
 20
241.7741419929718
 30
0.0
 10
78.0730136032181
 20
241.7599217207952
 30
0.0
  0
ARC
  5
16CB
330
2
100
AcDbEntity
  8
0
100
AcDbCircle
 10
76.0432737801
 20
233.2074801834
 30
0.0
 40
9.0
100
AcDbArc
 50
74.1191499917
 51
105.8808500083
  0
SPLINE
  5
16CC
330
2
100
AcDbEntity
  8
0
100
AcDbSpline
210
0.0
220
0.0
230
1.0
 70
     8
 71
     3
 72
    11
 73
     7
 74
     0
 42
0.000000001
 43
0.0000000001
 40
0.0
 40
0.0
 40
0.0
 40
0.0
 40
0.4601364636755307
 40
1.04988694485363
 40
1.713742833862792
 40
2.320347933405154
 40
2.320347933405154
 40
2.320347933405154
 40
2.320347933405175
 10
75.75577377959894
 20
240.6904801834175
 30
0.0
 10
75.73335612249116
 20
240.8455036230975
 30
0.0
 10
75.68220606725777
 20
241.199218441015
 30
0.0
 10
75.24632090572423
 20
241.6239461126167
 30
0.0
 10
74.64127019071679
 20
241.8431332925825
 30
0.0
 10
74.21608556654098
 20
241.7741419929718
 30
0.0
 10
74.01353395688989
 20
241.7599217207952
 30
0.0
  0
LINE
  5
16CD
330
2
100
AcDbEntity
  8
0
100
AcDbLine
 10
74.0135339569
 20
241.7599217208
 30
0.0
 11
73.9932737801
 21
241.9708984663
 31
0.0
  0
LINE
  5
16CE
330
2
100
AcDbEntity
  8
0
100
AcDbLine
 10
75.7557737796
 20
240.6904801834
 30
0.0
 11
76.3307737805
 21
240.6904801834
 31
0.0
  0
LINE
  5
16CF
330
2
100
AcDbEntity
  8
0
100
AcDbLine
 10
73.5432737801
 20
242.1074801834
 30
0.0
 11
72.5432737801
 21
241.1074801834
 31
0.0
  0
ARC
  5
16D0
330
2
100
AcDbEntity
  8
0
100
AcDbCircle
 10
73.9362630265
 20
240.6135929077
 30
0.0
 40
1.3
100
AcDbArc
 50
105.8808500083
 51
175.0
  0
LINE
  5
16D1
330
2
100
AcDbEntity
  8
0
100
AcDbLine
 10
74.705364964
 20
242.1074801834
 30
0.0
 11
73.5432737801
 21
242.1074801834
 31
0.0
  0
ARC
  5
16D2
330
2
100
AcDbEntity
  8
0
100
AcDbCircle
 10
78.1502845336
 20
240.6135929077
 30
0.0
 40
1.3
100
AcDbArc
 50
5.0
 51
74.1191499917
  0
LINE
  5
16D3
330
2
100
AcDbEntity
  8
0
100
AcDbLine
 10
80.0432737801
 20
241.6074801834
 30
0.0
 11
78.9882511697
 21
241.6074801834
 31
0.0
  0
LINE
  5
16D4
330
2
100
AcDbEntity
  8
0
100
AcDbLine
 10
78.0730136032
 20
241.7599217208
 30
0.0
 11
78.0932737801
 21
241.9708984663
 31
0.0
  0
LINE
  5
16D5
330
2
100
AcDbEntity
  8
0
100
AcDbLine
 10
80.5432737801
 20
242.1074801834
 30
0.0
 11
80.0432737801
 21
241.6074801834
 31
0.0
  0
LINE
  5
16D6
330
2
100
AcDbEntity
  8
0
100
AcDbLine
 10
122.5432737801
 20
239.6074801834
 30
0.0
 11
122.4453376412
 21
240.7268953732
 31
0.0
  0
LINE
  5
16D7
330
2
100
AcDbEntity
  8
0
100
AcDbLine
 10
115.5432737801
 20
239.6074801834
 30
0.0
 11
115.6412099189
 21
240.7268953732
 31
0.0
  0
LINE
  5
16D8
330
2
100
AcDbEntity
  8
0
100
AcDbLine
 10
115.0432737801
 20
239.6074801834
 30
0.0
 11
115.0432737801
 21
241.6074801834
 31
0.0
  0
LINE
  5
16DC
330
2
100
AcDbEntity
  8
0
100
AcDbLine
 10
115.0432737801
 20
239.6074801834
 30
0.0
 11
122.5432737801
 21
239.6074801834
 31
0.0
  0
ARC
  5
16DE
330
2
100
AcDbEntity
  8
0
100
AcDbCircle
 10
116.9362630265
 20
240.6135929077
 30
0.0
 40
1.3
100
AcDbArc
 50
105.8808500083
 51
175.0
  0
LINE
  5
16DF
330
2
100
AcDbEntity
  8
0
100
AcDbLine
 10
115.0432737801
 20
241.6074801834
 30
0.0
 11
116.0982963904
 21
241.6074801834
 31
0.0
  0
LINE
  5
16E0
330
2
100
AcDbEntity
  8
0
100
AcDbLine
 10
114.5432737801
 20
242.1074801834
 30
0.0
 11
115.0432737801
 21
241.6074801834
 31
0.0
  0
LINE
  5
16E1
330
2
100
AcDbEntity
  8
0
100
AcDbLine
 10
120.3811825961
 20
242.1074801834
 30
0.0
 11
121.5432737801
 21
242.1074801834
 31
0.0
  0
ARC
  5
16E2
330
2
100
AcDbEntity
  8
0
100
AcDbCircle
 10
121.1502845336
 20
240.6135929077
 30
0.0
 40
1.3
100
AcDbArc
 50
5.0
 51
74.1191499917
  0
LINE
  5
16E3
330
2
100
AcDbEntity
  8
0
100
AcDbLine
 10
121.0730136032
 20
241.7599217208
 30
0.0
 11
121.0932737801
 21
241.9708984663
 31
0.0
  0
SPLINE
  5
16E4
330
2
100
AcDbEntity
  8
0
100
AcDbSpline
210
0.0
220
0.0
230
1.0
 70
     8
 71
     3
 72
    11
 73
     7
 74
     0
 42
0.000000001
 43
0.0000000001
 40
0.0
 40
0.0
 40
0.0
 40
0.0
 40
0.4601364636755307
 40
1.04988694485363
 40
1.713742833862792
 40
2.320347933405154
 40
2.320347933405154
 40
2.320347933405154
 40
2.320347933405175
 10
119.3307737805091
 20
240.6904801834175
 30
0.0
 10
119.353191437617
 20
240.8455036230975
 30
0.0
 10
119.4043414928503
 20
241.199218441015
 30
0.0
 10
119.8402266543839
 20
241.6239461126167
 30
0.0
 10
120.4452773693913
 20
241.8431332925825
 30
0.0
 10
120.8704619935672
 20
241.7741419929718
 30
0.0
 10
121.0730136032182
 20
241.7599217207952
 30
0.0
  0
LINE
  5
16E5
330
2
100
AcDbEntity
  8
0
100
AcDbLine
 10
121.5432737801
 20
242.1074801834
 30
0.0
 11
122.5432737801
 21
241.1074801834
 31
0.0
  0
SPLINE
  5
16E6
330
2
100
AcDbEntity
  8
0
100
AcDbSpline
210
0.0
220
0.0
230
1.0
 70
     8
 71
     3
 72
    11
 73
     7
 74
     0
 42
0.000000001
 43
0.0000000001
 40
0.0
 40
0.0
 40
0.0
 40
0.0
 40
0.4601364636755307
 40
1.04988694485363
 40
1.713742833862792
 40
2.320347933405154
 40
2.320347933405154
 40
2.320347933405154
 40
2.320347933405175
 10
118.7557737795991
 20
240.6904801834175
 30
0.0
 10
118.7333561224912
 20
240.8455036230975
 30
0.0
 10
118.682206067258
 20
241.199218441015
 30
0.0
 10
118.2463209057243
 20
241.6239461126167
 30
0.0
 10
117.641270190717
 20
241.8431332925825
 30
0.0
 10
117.2160855665411
 20
241.7741419929718
 30
0.0
 10
117.0135339568901
 20
241.7599217207952
 30
0.0
  0
LINE
  5
16E7
330
2
100
AcDbEntity
  8
0
100
AcDbLine
 10
117.0135339569
 20
241.7599217208
 30
0.0
 11
116.9932737801
 21
241.9708984663
 31
0.0
  0
ARC
  5
16E8
330
2
100
AcDbEntity
  8
0
100
AcDbCircle
 10
119.0432737801
 20
233.2074801834
 30
0.0
 40
9.0
100
AcDbArc
 50
74.1191499917
 51
105.8808500083
  0
LINE
  5
16E9
330
2
100
AcDbEntity
  8
0
100
AcDbLine
 10
119.3307737805
 20
240.6904801834
 30
0.0
 11
118.7557737796
 21
240.6904801834
 31
0.0
  0
LINE
  5
173C
330
2
100
AcDbEntity
  8
0
100
AcDbLine
 10
115.0430757801
 20
518.0600561979
 30
0.0
 11
80.0431667801
 21
518.0600561979
 31
0.0
  0
LINE
  5
173D
330
2
100
AcDbEntity
  8
0
100
AcDbLine
 10
115.0430757801
 20
472.0600561979
 30
0.0
 11
80.0431667801
 21
472.0600561979
 31
0.0
  0
LINE
  5
173E
330
2
100
AcDbEntity
  8
0
100
AcDbLine
 10
74.5431667801
 20
520.0600561979
 30
0.0
 11
120.5430757801
 21
520.0600561979
 31
0.0
  0
LINE
  5
173F
330
2
100
AcDbEntity
  8
0
100
AcDbLine
 10
74.5431667801
 20
470.0600561979
 30
0.0
 11
120.5430757801
 21
470.0600561979
 31
0.0
  0
LINE
  5
1741
330
2
100
AcDbEntity
  8
0
100
AcDbLine
 10
72.5431667801
 20
472.0600561979
 30
0.0
 11
72.5431667801
 21
518.0600561979
 31
0.0
  0
LINE
  5
1742
330
2
100
AcDbEntity
  8
0
100
AcDbLine
 10
74.5431667801
 20
512.5600561979
 30
0.0
 11
74.5431667801
 21
477.5600561979
 31
0.0
  0
LINE
  5
1743
330
2
100
AcDbEntity
  8
CENTER
100
AcDbLine
 10
97.5432737801
 20
460.0164492167
 30
0.0
 11
97.5432737801
 21
530.1036631792
 31
0.0
  0
ARC
  5
1744
330
2
100
AcDbEntity
  8
0
100
AcDbCircle
 10
76.0431667801
 20
473.5599641979
 30
0.0
 40
4.0
100
AcDbArc
 50
0.0
 51
90.0
  0
ARC
  5
1745
330
2
100
AcDbEntity
  8
0
100
AcDbCircle
 10
78.0728667801
 20
471.5302641979
 30
0.0
 40
1.742199999999999
100
AcDbArc
 50
89.9986903345
 51
180.0013096655
  0
ARC
  5
1746
330
2
100
AcDbEntity
  8
0
100
AcDbCircle
 10
78.0728667801
 20
475.5896641979
 30
0.0
 40
1.742199999999999
100
AcDbArc
 50
179.9986903345
 51
270.0013096655
  0
CIRCLE
  5
1747
330
2
100
AcDbEntity
  8
0
100
AcDbCircle
 10
76.0431667801
 20
473.5599641979
 30
0.0
 40
3.500000000000028
  0
ARC
  5
1748
330
2
100
AcDbEntity
  8
0
100
AcDbCircle
 10
76.0431667801
 20
473.5599641979
 30
0.0
 40
2.049999999999998
100
AcDbArc
 50
81.938039916
 51
90.0
  0
ARC
  5
1749
330
2
100
AcDbEntity
  8
0
100
AcDbCircle
 10
76.0431667801
 20
473.5599641979
 30
0.0
 40
2.049999999999998
100
AcDbArc
 50
90.0
 51
98.061960084
  0
ARC
  5
174A
330
2
100
AcDbEntity
  8
0
100
AcDbCircle
 10
74.0134667801
 20
471.5302641979
 30
0.0
 40
1.742199999999999
100
AcDbArc
 50
359.9986903345
 51
90.0013096655
  0
ARC
  5
174B
330
2
100
AcDbEntity
  8
0
100
AcDbCircle
 10
76.0431667801
 20
473.5599641979
 30
0.0
 40
2.049999999999998
100
AcDbArc
 50
180.0
 51
188.061960084
  0
ARC
  5
174C
330
2
100
AcDbEntity
  8
0
100
AcDbCircle
 10
76.0431667801
 20
473.5599641979
 30
0.0
 40
2.049999999999998
100
AcDbArc
 50
270.0
 51
278.061960084
  0
ARC
  5
174D
330
2
100
AcDbEntity
  8
0
100
AcDbCircle
 10
76.0431667801
 20
473.5599641979
 30
0.0
 40
2.049999999999998
100
AcDbArc
 50
261.938039916
 51
270.0
  0
ARC
  5
174E
330
2
100
AcDbEntity
  8
0
100
AcDbCircle
 10
74.0134667801
 20
475.5896641979
 30
0.0
 40
1.742199999999999
100
AcDbArc
 50
269.9986903345
 51
0.0013096655
  0
ARC
  5
174F
330
2
100
AcDbEntity
  8
0
100
AcDbCircle
 10
76.0431667801
 20
473.5599641979
 30
0.0
 40
2.049999999999998
100
AcDbArc
 50
171.938039916
 51
180.0
  0
LINE
  5
1750
330
2
100
AcDbEntity
  8
0
100
AcDbLine
 10
76.0431667801
 20
477.5600561979
 30
0.0
 11
72.5431667801
 21
477.5600561979
 31
0.0
  0
LINE
  5
1751
330
2
100
AcDbEntity
  8
0
100
AcDbLine
 10
72.5431667801
 20
472.0600561979
 30
0.0
 11
74.5431667801
 21
470.0600561979
 31
0.0
  0
ARC
  5
1752
330
2
100
AcDbEntity
  8
0
100
AcDbCircle
 10
76.0431667801
 20
473.5599641979
 30
0.0
 40
2.049999999999998
100
AcDbArc
 50
351.938039916
 51
0.0
  0
LINE
  5
1753
330
2
100
AcDbEntity
  8
0
100
AcDbLine
 10
80.0431667801
 20
473.5599641979
 30
0.0
 11
80.0431667801
 21
470.0600561979
 31
0.0
  0
ARC
  5
1754
330
2
100
AcDbEntity
  8
0
100
AcDbCircle
 10
76.0431667801
 20
473.5599641979
 30
0.0
 40
2.049999999999998
100
AcDbArc
 50
0.0
 51
8.061960084
  0
ARC
  5
1755
330
2
100
AcDbEntity
  8
0
100
AcDbCircle
 10
74.0134667801
 20
514.5303561979
 30
0.0
 40
1.742199999999999
100
AcDbArc
 50
359.9986903345
 51
90.0013096655
  0
ARC
  5
1756
330
2
100
AcDbEntity
  8
0
100
AcDbCircle
 10
78.0728667801
 20
514.5303561979
 30
0.0
 40
1.742199999999999
100
AcDbArc
 50
89.9986903345
 51
180.0013096655
  0
ARC
  5
1757
330
2
100
AcDbEntity
  8
0
100
AcDbCircle
 10
76.0431667801
 20
516.5600561979
 30
0.0
 40
4.0
100
AcDbArc
 50
270.0
 51
0.0
  0
CIRCLE
  5
1758
330
2
100
AcDbEntity
  8
0
100
AcDbCircle
 10
76.0431667801
 20
516.5600561979
 30
0.0
 40
3.500000000000028
  0
ARC
  5
1759
330
2
100
AcDbEntity
  8
0
100
AcDbCircle
 10
76.0431667801
 20
516.5600561979
 30
0.0
 40
2.049999999999998
100
AcDbArc
 50
270.0
 51
278.061960084
  0
ARC
  5
175A
330
2
100
AcDbEntity
  8
0
100
AcDbCircle
 10
76.0431667801
 20
516.5600561979
 30
0.0
 40
2.049999999999998
100
AcDbArc
 50
261.938039916
 51
270.0
  0
LINE
  5
175B
330
2
100
AcDbEntity
  8
0
100
AcDbLine
 10
76.0431667801
 20
512.5600561979
 30
0.0
 11
72.5431667801
 21
512.5600561979
 31
0.0
  0
ARC
  5
175C
330
2
100
AcDbEntity
  8
0
100
AcDbCircle
 10
78.0728667801
 20
518.5897561979
 30
0.0
 40
1.742199999999999
100
AcDbArc
 50
179.9986903345
 51
270.0013096655
  0
ARC
  5
175D
330
2
100
AcDbEntity
  8
0
100
AcDbCircle
 10
74.0134667801
 20
518.5897561979
 30
0.0
 40
1.742199999999999
100
AcDbArc
 50
269.9986903345
 51
0.0013096655
  0
ARC
  5
175E
330
2
100
AcDbEntity
  8
0
100
AcDbCircle
 10
76.0431667801
 20
516.5600561979
 30
0.0
 40
2.049999999999998
100
AcDbArc
 50
171.938039916
 51
180.0
  0
ARC
  5
175F
330
2
100
AcDbEntity
  8
0
100
AcDbCircle
 10
76.0431667801
 20
516.5600561979
 30
0.0
 40
2.049999999999998
100
AcDbArc
 50
180.0
 51
188.061960084
  0
ARC
  5
1760
330
2
100
AcDbEntity
  8
0
100
AcDbCircle
 10
76.0431667801
 20
516.5600561979
 30
0.0
 40
2.049999999999998
100
AcDbArc
 50
81.938039916
 51
90.0
  0
ARC
  5
1761
330
2
100
AcDbEntity
  8
0
100
AcDbCircle
 10
76.0431667801
 20
516.5600561979
 30
0.0
 40
2.049999999999998
100
AcDbArc
 50
90.0
 51
98.061960084
  0
LINE
  5
1762
330
2
100
AcDbEntity
  8
0
100
AcDbLine
 10
72.5431667801
 20
518.0600561979
 30
0.0
 11
74.5431667801
 21
520.0600561979
 31
0.0
  0
LINE
  5
1763
330
2
100
AcDbEntity
  8
0
100
AcDbLine
 10
72.5431667801
 20
518.0600561979
 30
0.0
 11
74.5431667801
 21
520.0600561979
 31
0.0
  0
ARC
  5
1764
330
2
100
AcDbEntity
  8
0
100
AcDbCircle
 10
76.0431667801
 20
516.5600561979
 30
0.0
 40
2.049999999999998
100
AcDbArc
 50
0.0
 51
8.061960084
  0
ARC
  5
1765
330
2
100
AcDbEntity
  8
0
100
AcDbCircle
 10
76.0431667801
 20
516.5600561979
 30
0.0
 40
2.049999999999998
100
AcDbArc
 50
351.938039916
 51
0.0
  0
LINE
  5
1766
330
2
100
AcDbEntity
  8
0
100
AcDbLine
 10
80.0431667801
 20
516.5600561979
 30
0.0
 11
80.0431667801
 21
520.0598721979
 31
0.0
  0
LINE
  5
1767
330
2
100
AcDbEntity
  8
0
100
AcDbLine
 10
122.5432737801
 20
518.0600561979
 30
0.0
 11
122.5430757801
 21
472.0600561979
 31
0.0
  0
LINE
  5
1768
330
2
100
AcDbEntity
  8
0
100
AcDbLine
 10
120.5430757801
 20
512.5600561979
 30
0.0
 11
120.5430757801
 21
477.5600561979
 31
0.0
  0
ARC
  5
1769
330
2
100
AcDbEntity
  8
0
100
AcDbCircle
 10
119.0432737801
 20
473.5599641979
 30
0.0
 40
4.0
100
AcDbArc
 50
90.0
 51
180.0
  0
LINE
  5
176A
330
2
100
AcDbEntity
  8
0
100
AcDbLine
 10
115.0430757801
 20
473.5599641979
 30
0.0
 11
115.0430757801
 21
470.0600561979
 31
0.0
  0
ARC
  5
176B
330
2
100
AcDbEntity
  8
0
100
AcDbCircle
 10
119.0432737801
 20
473.5599641979
 30
0.0
 40
2.049999999999998
100
AcDbArc
 50
90.0
 51
98.061960084
  0
ARC
  5
176C
330
2
100
AcDbEntity
  8
0
100
AcDbCircle
 10
119.0432737801
 20
473.5599641979
 30
0.0
 40
2.049999999999998
100
AcDbArc
 50
81.938039916
 51
90.0
  0
LINE
  5
176D
330
2
100
AcDbEntity
  8
0
100
AcDbLine
 10
119.0430757801
 20
477.5600561979
 30
0.0
 11
122.5430757801
 21
477.5600561979
 31
0.0
  0
ARC
  5
176E
330
2
100
AcDbEntity
  8
0
100
AcDbCircle
 10
119.0432737801
 20
473.5599641979
 30
0.0
 40
2.049999999999998
100
AcDbArc
 50
351.938039916
 51
0.0
  0
LINE
  5
176F
330
2
100
AcDbEntity
  8
0
100
AcDbLine
 10
122.5430757801
 20
472.0600561979
 30
0.0
 11
120.5430757801
 21
470.0600561979
 31
0.0
  0
LINE
  5
1770
330
2
100
AcDbEntity
  8
0
100
AcDbLine
 10
120.5430757801
 20
470.0600561979
 30
0.0
 11
122.5430757801
 21
472.0600561979
 31
0.0
  0
ARC
  5
1771
330
2
100
AcDbEntity
  8
0
100
AcDbCircle
 10
117.0135737801
 20
471.5302641979
 30
0.0
 40
1.742199999999999
100
AcDbArc
 50
359.9986903345
 51
90.0013096655
  0
ARC
  5
1772
330
2
100
AcDbEntity
  8
0
100
AcDbCircle
 10
119.0432737801
 20
473.5599641979
 30
0.0
 40
2.049999999999998
100
AcDbArc
 50
180.0
 51
188.061960084
  0
ARC
  5
1773
330
2
100
AcDbEntity
  8
0
100
AcDbCircle
 10
119.0432737801
 20
473.5599641979
 30
0.0
 40
2.049999999999998
100
AcDbArc
 50
261.938039916
 51
270.0
  0
ARC
  5
1774
330
2
100
AcDbEntity
  8
0
100
AcDbCircle
 10
119.0432737801
 20
473.5599641979
 30
0.0
 40
2.049999999999998
100
AcDbArc
 50
270.0
 51
278.061960084
  0
ARC
  5
1775
330
2
100
AcDbEntity
  8
0
100
AcDbCircle
 10
121.0729737801
 20
471.5302641979
 30
0.0
 40
1.742199999999999
100
AcDbArc
 50
89.9986903345
 51
180.0013096655
  0
CIRCLE
  5
1776
330
2
100
AcDbEntity
  8
0
100
AcDbCircle
 10
119.0432737801
 20
473.5599641979
 30
0.0
 40
3.500000000000028
  0
ARC
  5
1777
330
2
100
AcDbEntity
  8
0
100
AcDbCircle
 10
117.0135737801
 20
475.5896641979
 30
0.0
 40
1.742199999999999
100
AcDbArc
 50
269.9986903345
 51
0.0013096655
  0
ARC
  5
1778
330
2
100
AcDbEntity
  8
0
100
AcDbCircle
 10
119.0432737801
 20
473.5599641979
 30
0.0
 40
2.049999999999998
100
AcDbArc
 50
171.938039916
 51
180.0
  0
ARC
  5
1779
330
2
100
AcDbEntity
  8
0
100
AcDbCircle
 10
119.0432737801
 20
473.5599641979
 30
0.0
 40
2.049999999999998
100
AcDbArc
 50
0.0
 51
8.061960084
  0
ARC
  5
177A
330
2
100
AcDbEntity
  8
0
100
AcDbCircle
 10
121.0729737801
 20
475.5896641979
 30
0.0
 40
1.742199999999999
100
AcDbArc
 50
179.9986903345
 51
270.0013096655
  0
ARC
  5
177B
330
2
100
AcDbEntity
  8
0
100
AcDbCircle
 10
117.0135737801
 20
514.5303561979
 30
0.0
 40
1.742199999999999
100
AcDbArc
 50
359.9986903345
 51
90.0013096655
  0
ARC
  5
177C
330
2
100
AcDbEntity
  8
0
100
AcDbCircle
 10
121.0729737801
 20
514.5303561979
 30
0.0
 40
1.742199999999999
100
AcDbArc
 50
89.9986903345
 51
180.0013096655
  0
CIRCLE
  5
177D
330
2
100
AcDbEntity
  8
0
100
AcDbCircle
 10
119.0432737801
 20
516.5600561979
 30
0.0
 40
3.500000000000028
  0
ARC
  5
177E
330
2
100
AcDbEntity
  8
0
100
AcDbCircle
 10
119.0432737801
 20
516.5600561979
 30
0.0
 40
4.0
100
AcDbArc
 50
180.0
 51
270.0
  0
ARC
  5
177F
330
2
100
AcDbEntity
  8
0
100
AcDbCircle
 10
119.0432737801
 20
516.5600561979
 30
0.0
 40
2.049999999999998
100
AcDbArc
 50
261.938039916
 51
270.0
  0
ARC
  5
1780
330
2
100
AcDbEntity
  8
0
100
AcDbCircle
 10
119.0432737801
 20
516.5600561979
 30
0.0
 40
2.049999999999998
100
AcDbArc
 50
270.0
 51
278.061960084
  0
LINE
  5
1781
330
2
100
AcDbEntity
  8
0
100
AcDbLine
 10
119.0430757801
 20
512.5600561979
 30
0.0
 11
122.5430757801
 21
512.5600561979
 31
0.0
  0
LINE
  5
1782
330
2
100
AcDbEntity
  8
0
100
AcDbLine
 10
115.0430757801
 20
516.5600561979
 30
0.0
 11
115.0430757801
 21
520.0598721979
 31
0.0
  0
ARC
  5
1783
330
2
100
AcDbEntity
  8
0
100
AcDbCircle
 10
119.0432737801
 20
516.5600561979
 30
0.0
 40
2.049999999999998
100
AcDbArc
 50
0.0
 51
8.061960084
  0
ARC
  5
1784
330
2
100
AcDbEntity
  8
0
100
AcDbCircle
 10
119.0432737801
 20
516.5600561979
 30
0.0
 40
2.049999999999998
100
AcDbArc
 50
351.938039916
 51
0.0
  0
LINE
  5
1785
330
2
100
AcDbEntity
  8
0
100
AcDbLine
 10
122.5430757801
 20
518.0600561979
 30
0.0
 11
120.5430757801
 21
520.0600561979
 31
0.0
  0
LINE
  5
1786
330
2
100
AcDbEntity
  8
0
100
AcDbLine
 10
122.5430757801
 20
518.0600561979
 30
0.0
 11
120.5430757801
 21
520.0600561979
 31
0.0
  0
LINE
  5
1787
330
2
100
AcDbEntity
  8
0
100
AcDbLine
 10
122.5432737801
 20
518.0600561979
 30
0.0
 11
120.5430757801
 21
520.0600561979
 31
0.0
  0
ARC
  5
1788
330
2
100
AcDbEntity
  8
0
100
AcDbCircle
 10
117.0135737801
 20
518.5897561979
 30
0.0
 40
1.742199999999999
100
AcDbArc
 50
269.9986903345
 51
0.0013096655
  0
ARC
  5
1789
330
2
100
AcDbEntity
  8
0
100
AcDbCircle
 10
119.0432737801
 20
516.5600561979
 30
0.0
 40
2.049999999999998
100
AcDbArc
 50
171.938039916
 51
180.0
  0
ARC
  5
178A
330
2
100
AcDbEntity
  8
0
100
AcDbCircle
 10
119.0432737801
 20
516.5600561979
 30
0.0
 40
2.049999999999998
100
AcDbArc
 50
180.0
 51
188.061960084
  0
ARC
  5
178B
330
2
100
AcDbEntity
  8
0
100
AcDbCircle
 10
119.0432737801
 20
516.5600561979
 30
0.0
 40
2.049999999999998
100
AcDbArc
 50
90.0
 51
98.061960084
  0
ARC
  5
178C
330
2
100
AcDbEntity
  8
0
100
AcDbCircle
 10
121.0729737801
 20
518.5897561979
 30
0.0
 40
1.742199999999999
100
AcDbArc
 50
179.9986903345
 51
270.0013096655
  0
ARC
  5
178D
330
2
100
AcDbEntity
  8
0
100
AcDbCircle
 10
119.0432737801
 20
516.5600561979
 30
0.0
 40
2.049999999999998
100
AcDbArc
 50
81.938039916
 51
90.0
  0
TEXT
  5
1982
330
2
100
AcDbEntity
  8
TITLE_C
100
AcDbText
 10
677.4723488964
 20
463.1368337621
 30
0.0
 40
7.0
  1
HL32T12X～18X-CSMR40NK
 41
0.8
100
AcDbText
  0
TEXT
  5
1983
330
2
100
AcDbEntity
  8
TITLE_C
100
AcDbText
 10
531.6175480862
 20
406.6738329628
 30
0.0
 40
7.0
  1
HL32T12X～18X-CTMR60WK
 41
0.8
100
AcDbText
  0
TEXT
  5
1984
330
2
100
AcDbEntity
  8
TITLE_C
100
AcDbText
 10
531.6175480862
 20
417.8738329628
 30
0.0
 40
7.0
  1
HL32T12X～18X-CTMR60NKX
 41
0.8
100
AcDbText
  0
TEXT
  5
1985
330
2
100
AcDbEntity
  8
TITLE_C
100
AcDbText
 10
531.6175480862
 20
439.4346416007
 30
0.0
 40
7.0
  1
HL32T12X～18X-CTMR40WK
 41
0.8
100
AcDbText
  0
TEXT
  5
1986
330
2
100
AcDbEntity
  8
TITLE_C
100
AcDbText
 10
531.6175480862
 20
450.4346416007
 30
0.0
 40
7.0
  1
HL32T12X～18X-CTMR40NKX
 41
0.8
100
AcDbText
  0
TEXT
  5
229D
330
2
100
AcDbEntity
  8
TITLE_C
100
AcDbText
 10
531.6175480862
 20
460.3709198939
 30
0.0
 40
7.0
  1
HL32T12X～18X-CTMR40NK
 41
0.8
100
AcDbText
  0
TEXT
  5
229E
330
2
100
AcDbEntity
  8
TITLE_C
100
AcDbText
 10
531.6175480862
 20
429.0404824774
 30
0.0
 40
7.0
  1
HL32T12X～18X-CTMR60NK
 41
0.8
100
AcDbText
  0
TEXT
  5
243C
330
2
100
AcDbEntity
  8
TITLE_C
100
AcDbText
 10
531.6175480862
 20
395.5488987127
 30
0.0
 40
7.0
  1
HL32T600～900-CTMR90NK
 41
0.8
100
AcDbText
  0
TEXT
  5
254F
330
2
100
AcDbEntity
  8
TITLE_C
100
AcDbText
 10
677.4723488964
 20
452.7563435804
 30
0.0
 40
7.0
  1
HL32T12X～18X-CSMR40WKX
 41
0.8
100
AcDbText
  0
TEXT
  5
2550
330
2
100
AcDbEntity
  8
TITLE_C
100
AcDbText
 10
677.4723488964
 20
442.3758533986
 30
0.0
 40
7.0
  1
HL32T12X～18X-CSMR40WK
 41
0.8
100
AcDbText
  0
ENDSEC
  0
SECTION
  2
OBJECTS
  0
DICTIONARY
  5
7
330
0
100
AcDbDictionary
281
     1
  3
ACAD_CIP_PREVIOUS_PRODUCT_INFO
350
254E
  3
ACAD_COLOR
350
18E6
  3
ACAD_DETAILVIEWSTYLE
350
254A
  3
ACAD_GROUP
350
75
  3
ACAD_LAYOUT
350
61
  3
ACAD_MATERIAL
350
18BC
  3
ACAD_MLEADERSTYLE
350
190B
  3
ACAD_MLINESTYLE
350
76
  3
ACAD_PLOTSETTINGS
350
77
  3
ACAD_PLOTSTYLENAME
350
6
  3
ACAD_SCALELIST
350
18E9
  3
ACAD_SECTIONVIEWSTYLE
350
2548
  3
ACAD_TABLESTYLE
350
18E7
  3
ACAD_VISUALSTYLE
350
18D5
  3
AcadDim
350
480
  3
ACDB_RECOMPOSE_DATA
350
26FF
  3
AcDbVariableDictionary
350
102
  3
DWGPROPS
350
2700
  0
DICTIONARY
  5
1929
330
6E
100
AcDbDictionary
280
     1
281
     1
  0
DICTIONARY
  5
196D
330
66
100
AcDbDictionary
280
     1
281
     1
  3
ACAD_LAYERSTATES
360
196E
  0
DICTIONARY
  5
1910
330
5E
100
AcDbDictionary
280
     1
281
     1
  3
ADSK_XREC_LAYER_RECONCILED
360
1911
  0
DICTIONARY
  5
1912
330
3E
100
AcDbDictionary
280
     1
281
     1
  3
ADSK_XREC_LAYER_RECONCILED
360
1913
  0
DICTIONARY
  5
1918
330
2B5
100
AcDbDictionary
280
     1
281
     1
  3
ADSK_XREC_LAYER_RECONCILED
360
1919
  0
DICTIONARY
  5
191C
330
3FA
100
AcDbDictionary
280
     1
281
     1
  3
ADSK_XREC_LAYER_RECONCILED
360
191D
  0
XRECORD
  5
254E
102
{ACAD_REACTORS
330
7
102
}
330
7
100
AcDbXrecord
280
     1
300
ACD
300
2020
300
87224ACD_2020_0F
  0
DICTIONARY
  5
18E6
102
{ACAD_REACTORS
330
7
102
}
330
7
100
AcDbDictionary
281
     1
  0
DICTIONARY
  5
254A
102
{ACAD_REACTORS
330
7
102
}
330
7
100
AcDbDictionary
281
     1
  3
Imperial24
350
254B
  0
DICTIONARY
  5
75
102
{ACAD_REACTORS
330
7
102
}
330
7
100
AcDbDictionary
281
     1
  0
DICTIONARY
  5
61
102
{ACAD_REACTORS
330
7
102
}
330
7
100
AcDbDictionary
281
     1
  3
Model
350
60
  3
レイアウト1
350
26F9
  0
DICTIONARY
  5
18BC
102
{ACAD_REACTORS
330
7
102
}
330
7
100
AcDbDictionary
281
     1
  3
ByBlock
350
18C5
  3
ByLayer
350
18BD
  3
Global
350
18CD
  0
DICTIONARY
  5
190B
102
{ACAD_REACTORS
330
7
102
}
330
7
100
AcDbDictionary
281
     1
  3
Standard
350
190C
  0
DICTIONARY
  5
76
102
{ACAD_REACTORS
330
7
102
}
330
7
100
AcDbDictionary
281
     1
  3
STANDARD
350
78
  0
DICTIONARY
  5
77
102
{ACAD_REACTORS
330
7
102
}
330
7
100
AcDbDictionary
281
     1
  0
ACDBDICTIONARYWDFLT
  5
6
102
{ACAD_REACTORS
330
7
102
}
330
7
100
AcDbDictionary
281
     1
  3
Normal
350
5
100
AcDbDictionaryWithDefault
340
5
  0
DICTIONARY
  5
18E9
102
{ACAD_REACTORS
330
7
102
}
330
7
100
AcDbDictionary
281
     1
  3
A0
350
18EA
  3
A1
350
18EB
  3
A2
350
18EC
  3
A3
350
18ED
  3
A4
350
18EE
  3
A5
350
18EF
  3
A6
350
18F0
  3
A7
350
18F1
  3
A8
350
18F2
  3
A9
350
18F3
  3
B0
350
18F4
  3
B1
350
18F5
  3
B2
350
18F6
  3
B3
350
18F7
  3
B4
350
18F8
  3
B5
350
18F9
  3
B6
350
18FA
  3
B7
350
18FB
  3
B8
350
18FC
  3
B9
350
18FD
  3
C0
350
18FE
  3
C1
350
18FF
  3
C2
350
1900
  3
C3
350
1901
  3
C4
350
1902
  3
C5
350
1903
  3
C6
350
1904
  3
C7
350
1905
  3
C8
350
1906
  3
C9
350
1907
  3
D0
350
1908
  3
D1
350
1909
  3
D2
350
190A
  0
DICTIONARY
  5
2548
102
{ACAD_REACTORS
330
7
102
}
330
7
100
AcDbDictionary
281
     1
  3
Imperial24
350
2549
  0
DICTIONARY
  5
18E7
102
{ACAD_REACTORS
330
7
102
}
330
7
100
AcDbDictionary
281
     1
  3
Standard
350
18E8
  0
DICTIONARY
  5
18D5
102
{ACAD_REACTORS
330
7
102
}
330
7
100
AcDbDictionary
281
     1
  3
2dWireframe
350
18DB
  3
3D Hidden
350
18DD
  3
3dWireframe
350
18DC
  3
Basic
350
18DA
  3
Brighten
350
18E1
  3
ColorChange
350
18E5
  3
Conceptual
350
18DE
  3
Dim
350
18E0
  3
EdgeColorOff
350
1967
  3
Facepattern
350
18E4
  3
Flat
350
18D6
  3
FlatWithEdges
350
18D7
  3
Gouraud
350
18D8
  3
GouraudWithEdges
350
18D9
  3
Hidden
350
2542
  3
JitterOff
350
1965
  3
Linepattern
350
18E3
  3
OverhangOff
350
1966
  3
Realistic
350
18DF
  3
Shaded
350
2547
  3
Shaded with edges
350
2546
  3
Shades of Gray
350
2543
  3
Sketchy
350
2544
  3
Thicken
350
18E2
  3
Wireframe
350
2541
  3
X-Ray
350
2545
  0
XRECORD
  5
480
102
{ACAD_REACTORS
330
7
102
}
330
7
100
AcDbXrecord
280
     1
 90
   990106
  3

 60
     0
 61
     0
 62
     1
 63
     3
 64
     1
 65
     0
 66
     0
 67
     3
 68
     1
 69
     0
 70
     0
 71
     0
 72
     0
 40
0.0
170
     2
340
0
  0
XRECORD
  5
26FF
102
{ACAD_REACTORS
330
7
102
}
330
7
100
AcDbXrecord
280
     1
 90
        1
330
18E8
  0
DICTIONARY
  5
102
102
{ACAD_REACTORS
330
7
102
}
330
7
100
AcDbDictionary
281
     1
  3
CANNOSCALE
350
1961
  3
CMLEADERSTYLE
350
1960
  3
CTABLESTYLE
350
195F
  3
CVIEWDETAILSTYLE
350
26C4
  3
CVIEWSECTIONSTYLE
350
26C5
  3
DIMASSOC
350
103
  3
INDEXCTL
350
1963
  3
SORTENTS
350
1962
  3
XCLIPFRAME
350
26FD
  0
XRECORD
  5
2700
102
{ACAD_REACTORS
330
7
102
}
330
7
100
AcDbXrecord
280
     1
  1
DWGPROPS COOKIE
  2

  3

  4

  6

  7

  8
ykitaga
  9

300
=
301
=
302
=
303
=
304
=
305
=
306
=
307
=
308
=
309
=
 40
0.4335681597
 41
2453752.665671296
 42
2459857.678310185
  1

 90
        0
  0
DICTIONARY
  5
196E
102
{ACAD_REACTORS
330
196D
102
}
330
196D
100
AcDbDictionary
281
     1
  0
XRECORD
  5
1911
102
{ACAD_REACTORS
330
1910
102
}
330
1910
100
AcDbXrecord
280
     1
290
     1
  0
XRECORD
  5
1913
102
{ACAD_REACTORS
330
1912
102
}
330
1912
100
AcDbXrecord
280
     1
290
     1
  0
XRECORD
  5
1919
102
{ACAD_REACTORS
330
1918
102
}
330
1918
100
AcDbXrecord
280
     1
290
     1
  0
XRECORD
  5
191D
102
{ACAD_REACTORS
330
191C
102
}
330
191C
100
AcDbXrecord
280
     1
290
     1
  0
ACDBDETAILVIEWSTYLE
  5
254B
102
{ACAD_XDICTIONARY
360
275C
102
}
102
{ACAD_REACTORS
330
254A
102
}
330
254A
100
AcDbModelDocViewStyle
 70
     0
  3
Imperial24
290
     0
100
AcDbDetailViewStyle
 70
     0
 71
     0
 90
        3
 71
     1
340
16
 40
0.24
340
0
 40
0.24
300

 40
0.36
280
     3
 71
     2
340
8
 90
       25
 71
     3
340
16
 40
0.24
 90
        1
 40
0.75
 90
        1
300
%<\AcVar ViewType \f "%tc1">% %<\AcVar ViewDetailId>%\PSCALE %<\AcVar ViewScale \f "%sn">%
 71
     4
340
8
 90
       25
340
8
 90
       25
280
     0
  0
LAYOUT
  5
60
102
{ACAD_XDICTIONARY
360
1990
102
}
102
{ACAD_REACTORS
330
61
102
}
330
61
100
AcDbPlotSettings
  1

  2
Canon LBP-1420
  4
A4
  6

 40
5.873749733
 41
5.8737478256
 42
5.8737487793
 43
5.8737487793
 44
209.9733276367
 45
296.925994873
 46
0.0
 47
5.37
 48
0.0
 49
0.0
140
0.0
141
0.0
142
1.0
143
0.088099941
 70
 11956
 72
     1
 73
     1
 74
     1
  7
Sekkei.ctb
 75
     0
147
11.3507453947
148
-88.9740150773
149
-101.3630682339
100
AcDbLayout
  1
Model
 70
     1
 71
     0
 10
0.0
 20
0.0
 11
12.0
 21
9.0
 12
0.0
 22
0.0
 32
0.0
 14
0.0
 24
0.0
 34
0.0
 15
0.0
 25
0.0
 35
0.0
146
0.0
 13
0.0
 23
0.0
 33
0.0
 16
1.0
 26
0.0
 36
0.0
 17
0.0
 27
1.0
 37
0.0
 76
     0
330
2
331
18BA
  0
LAYOUT
  5
26F9
102
{ACAD_XDICTIONARY
360
2766
102
}
102
{ACAD_REACTORS
330
61
102
}
330
61
100
AcDbPlotSettings
  1

  2
LBP8610
  4

  6

 40
0.0
 41
0.0
 42
0.0
 43
0.0
 44
0.0
 45
0.0
 46
0.0
 47
0.0
 48
0.0
 49
0.0
140
0.0
141
0.0
142
1.0
143
1.0
 70
   688
 72
     0
 73
     0
 74
     5
  7

 75
    16
147
1.0
148
0.0
149
0.0
100
AcDbLayout
  1
レイアウト1
 70
     1
 71
     1
 10
0.0
 20
0.0
 11
12.0
 21
9.0
 12
0.0
 22
0.0
 32
0.0
 14
0.0
 24
0.0
 34
0.0
 15
0.0
 25
0.0
 35
0.0
146
0.0
 13
0.0
 23
0.0
 33
0.0
 16
1.0
 26
0.0
 36
0.0
 17
0.0
 27
1.0
 37
0.0
 76
     0
330
26F8
  0
MATERIAL
  5
18C5
102
{ACAD_XDICTIONARY
360
18C6
102
}
102
{ACAD_REACTORS
330
18BC
102
}
330
18BC
100
AcDbMaterial
  1
ByBlock
 72
     0
 43
0.0208333333
 43
0.0
 43
0.0
 43
0.0
 43
0.0
 43
0.0208333333
 43
0.0
 43
0.0
 43
0.0
 43
0.0
 43
1.0
 43
0.0
 43
0.0
 43
0.0
 43
0.0
 43
1.0
 77
     0
 47
0.0208333333
 47
0.0
 47
0.0
 47
0.0
 47
0.0
 47
0.0208333333
 47
0.0
 47
0.0
 47
0.0
 47
0.0
 47
1.0
 47
0.0
 47
0.0
 47
0.0
 47
0.0
 47
1.0
171
     0
 49
0.0208333333
 49
0.0
 49
0.0
 49
0.0
 49
0.0
 49
0.0208333333
 49
0.0
 49
0.0
 49
0.0
 49
0.0
 49
1.0
 49
0.0
 49
0.0
 49
0.0
 49
0.0
 49
1.0
175
     0
142
0.0208333333
142
0.0
142
0.0
142
0.0
142
0.0
142
0.0208333333
142
0.0
142
0.0
142
0.0
142
0.0
142
1.0
142
0.0
142
0.0
142
0.0
142
0.0
142
1.0
179
     0
144
0.0208333333
144
0.0
144
0.0
144
0.0
144
0.0
144
0.0208333333
144
0.0
144
0.0
144
0.0
144
0.0
144
1.0
144
0.0
144
0.0
144
0.0
144
0.0
144
1.0
147
0.0208333333
147
0.0
147
0.0
147
0.0
147
0.0
147
0.0208333333
147
0.0
147
0.0
147
0.0
147
0.0
147
1.0
147
0.0
147
0.0
147
0.0
147
0.0
147
1.0
  0
MATERIAL
  5
18BD
102
{ACAD_XDICTIONARY
360
18BE
102
}
102
{ACAD_REACTORS
330
18BC
102
}
330
18BC
100
AcDbMaterial
  1
ByLayer
 72
     0
 43
0.0208333333
 43
0.0
 43
0.0
 43
0.0
 43
0.0
 43
0.0208333333
 43
0.0
 43
0.0
 43
0.0
 43
0.0
 43
1.0
 43
0.0
 43
0.0
 43
0.0
 43
0.0
 43
1.0
 77
     0
 47
0.0208333333
 47
0.0
 47
0.0
 47
0.0
 47
0.0
 47
0.0208333333
 47
0.0
 47
0.0
 47
0.0
 47
0.0
 47
1.0
 47
0.0
 47
0.0
 47
0.0
 47
0.0
 47
1.0
171
     0
 49
0.0208333333
 49
0.0
 49
0.0
 49
0.0
 49
0.0
 49
0.0208333333
 49
0.0
 49
0.0
 49
0.0
 49
0.0
 49
1.0
 49
0.0
 49
0.0
 49
0.0
 49
0.0
 49
1.0
175
     0
142
0.0208333333
142
0.0
142
0.0
142
0.0
142
0.0
142
0.0208333333
142
0.0
142
0.0
142
0.0
142
0.0
142
1.0
142
0.0
142
0.0
142
0.0
142
0.0
142
1.0
179
     0
144
0.0208333333
144
0.0
144
0.0
144
0.0
144
0.0
144
0.0208333333
144
0.0
144
0.0
144
0.0
144
0.0
144
1.0
144
0.0
144
0.0
144
0.0
144
0.0
144
1.0
147
0.0208333333
147
0.0
147
0.0
147
0.0
147
0.0
147
0.0208333333
147
0.0
147
0.0
147
0.0
147
0.0
147
1.0
147
0.0
147
0.0
147
0.0
147
0.0
147
1.0
  0
MATERIAL
  5
18CD
102
{ACAD_XDICTIONARY
360
18CE
102
}
102
{ACAD_REACTORS
330
18BC
102
}
330
18BC
100
AcDbMaterial
  1
Global
 72
     0
 43
0.0208333333
 43
0.0
 43
0.0
 43
0.0
 43
0.0
 43
0.0208333333
 43
0.0
 43
0.0
 43
0.0
 43
0.0
 43
1.0
 43
0.0
 43
0.0
 43
0.0
 43
0.0
 43
1.0
 77
     0
 47
0.0208333333
 47
0.0
 47
0.0
 47
0.0
 47
0.0
 47
0.0208333333
 47
0.0
 47
0.0
 47
0.0
 47
0.0
 47
1.0
 47
0.0
 47
0.0
 47
0.0
 47
0.0
 47
1.0
171
     0
 49
0.0208333333
 49
0.0
 49
0.0
 49
0.0
 49
0.0
 49
0.0208333333
 49
0.0
 49
0.0
 49
0.0
 49
0.0
 49
1.0
 49
0.0
 49
0.0
 49
0.0
 49
0.0
 49
1.0
175
     0
142
0.0208333333
142
0.0
142
0.0
142
0.0
142
0.0
142
0.0208333333
142
0.0
142
0.0
142
0.0
142
0.0
142
1.0
142
0.0
142
0.0
142
0.0
142
0.0
142
1.0
179
     0
144
0.0208333333
144
0.0
144
0.0
144
0.0
144
0.0
144
0.0208333333
144
0.0
144
0.0
144
0.0
144
0.0
144
1.0
144
0.0
144
0.0
144
0.0
144
0.0
144
1.0
147
0.0208333333
147
0.0
147
0.0
147
0.0
147
0.0
147
0.0208333333
147
0.0
147
0.0
147
0.0
147
0.0
147
1.0
147
0.0
147
0.0
147
0.0
147
0.0
147
1.0
  0
MLEADERSTYLE
  5
190C
102
{ACAD_REACTORS
330
190B
102
}
330
190B
100
AcDbMLeaderStyle
170
     2
171
     1
172
     0
 90
        2
 40
0.0
 41
0.0
173
     1
 91
-1056964608
340
6A
 92
       -2
290
     1
 42
0.09
291
     1
 43
0.36
  3
Standard
 44
0.18
300

342
16
174
     1
178
     6
175
     1
176
     0
 93
-1056964608
 45
0.18
292
     0
297
     0
 46
0.18
 94
-1056964608
 47
1.0
 49
1.0
140
1.0
293
     1
141
0.0
294
     1
177
     0
142
1.0
295
     0
296
     0
143
0.125
1001
ACAD_MLEADERVER
1070
     2
  0
MLINESTYLE
  5
78
102
{ACAD_REACTORS
330
76
102
}
330
76
100
AcDbMlineStyle
  2
STANDARD
 70
     0
  3

 62
     0
 51
90.0
 52
90.0
 71
     2
 49
0.5
 62
   256
  6
BYLAYER
 49
-0.5
 62
   256
  6
BYLAYER
  0
ACDBPLACEHOLDER
  5
5
102
{ACAD_REACTORS
330
6
102
}
330
6
  0
SCALE
  5
18EA
102
{ACAD_REACTORS
330
18E9
102
}
330
18E9
100
AcDbScale
 70
     0
300
1:1
140
1.0
141
1.0
290
     1
  0
SCALE
  5
18EB
102
{ACAD_REACTORS
330
18E9
102
}
330
18E9
100
AcDbScale
 70
     0
300
1:2
140
1.0
141
2.0
290
     0
  0
SCALE
  5
18EC
102
{ACAD_REACTORS
330
18E9
102
}
330
18E9
100
AcDbScale
 70
     0
300
1:4
140
1.0
141
4.0
290
     0
  0
SCALE
  5
18ED
102
{ACAD_REACTORS
330
18E9
102
}
330
18E9
100
AcDbScale
 70
     0
300
1:5
140
1.0
141
5.0
290
     0
  0
SCALE
  5
18EE
102
{ACAD_REACTORS
330
18E9
102
}
330
18E9
100
AcDbScale
 70
     0
300
1:8
140
1.0
141
8.0
290
     0
  0
SCALE
  5
18EF
102
{ACAD_REACTORS
330
18E9
102
}
330
18E9
100
AcDbScale
 70
     0
300
1:10
140
1.0
141
10.0
290
     0
  0
SCALE
  5
18F0
102
{ACAD_REACTORS
330
18E9
102
}
330
18E9
100
AcDbScale
 70
     0
300
1:16
140
1.0
141
16.0
290
     0
  0
SCALE
  5
18F1
102
{ACAD_REACTORS
330
18E9
102
}
330
18E9
100
AcDbScale
 70
     0
300
1:20
140
1.0
141
20.0
290
     0
  0
SCALE
  5
18F2
102
{ACAD_REACTORS
330
18E9
102
}
330
18E9
100
AcDbScale
 70
     0
300
1:30
140
1.0
141
30.0
290
     0
  0
SCALE
  5
18F3
102
{ACAD_REACTORS
330
18E9
102
}
330
18E9
100
AcDbScale
 70
     0
300
1:40
140
1.0
141
40.0
290
     0
  0
SCALE
  5
18F4
102
{ACAD_REACTORS
330
18E9
102
}
330
18E9
100
AcDbScale
 70
     0
300
1:50
140
1.0
141
50.0
290
     0
  0
SCALE
  5
18F5
102
{ACAD_REACTORS
330
18E9
102
}
330
18E9
100
AcDbScale
 70
     0
300
1:100
140
1.0
141
100.0
290
     0
  0
SCALE
  5
18F6
102
{ACAD_REACTORS
330
18E9
102
}
330
18E9
100
AcDbScale
 70
     0
300
2:1
140
2.0
141
1.0
290
     0
  0
SCALE
  5
18F7
102
{ACAD_REACTORS
330
18E9
102
}
330
18E9
100
AcDbScale
 70
     0
300
4:1
140
4.0
141
1.0
290
     0
  0
SCALE
  5
18F8
102
{ACAD_REACTORS
330
18E9
102
}
330
18E9
100
AcDbScale
 70
     0
300
8:1
140
8.0
141
1.0
290
     0
  0
SCALE
  5
18F9
102
{ACAD_REACTORS
330
18E9
102
}
330
18E9
100
AcDbScale
 70
     0
300
10:1
140
10.0
141
1.0
290
     0
  0
SCALE
  5
18FA
102
{ACAD_REACTORS
330
18E9
102
}
330
18E9
100
AcDbScale
 70
     0
300
100:1
140
100.0
141
1.0
290
     0
  0
SCALE
  5
18FB
102
{ACAD_REACTORS
330
18E9
102
}
330
18E9
100
AcDbScale
 70
     0
300
1/128" = 1'-0"
140
0.0078125
141
12.0
290
     0
  0
SCALE
  5
18FC
102
{ACAD_REACTORS
330
18E9
102
}
330
18E9
100
AcDbScale
 70
     0
300
1/64" = 1'-0"
140
0.015625
141
12.0
290
     0
  0
SCALE
  5
18FD
102
{ACAD_REACTORS
330
18E9
102
}
330
18E9
100
AcDbScale
 70
     0
300
1/32" = 1'-0"
140
0.03125
141
12.0
290
     0
  0
SCALE
  5
18FE
102
{ACAD_REACTORS
330
18E9
102
}
330
18E9
100
AcDbScale
 70
     0
300
1/16" = 1'-0"
140
0.0625
141
12.0
290
     0
  0
SCALE
  5
18FF
102
{ACAD_REACTORS
330
18E9
102
}
330
18E9
100
AcDbScale
 70
     0
300
3/32" = 1'-0"
140
0.09375
141
12.0
290
     0
  0
SCALE
  5
1900
102
{ACAD_REACTORS
330
18E9
102
}
330
18E9
100
AcDbScale
 70
     0
300
1/8" = 1'-0"
140
0.125
141
12.0
290
     0
  0
SCALE
  5
1901
102
{ACAD_REACTORS
330
18E9
102
}
330
18E9
100
AcDbScale
 70
     0
300
3/16" = 1'-0"
140
0.1875
141
12.0
290
     0
  0
SCALE
  5
1902
102
{ACAD_REACTORS
330
18E9
102
}
330
18E9
100
AcDbScale
 70
     0
300
1/4" = 1'-0"
140
0.25
141
12.0
290
     0
  0
SCALE
  5
1903
102
{ACAD_REACTORS
330
18E9
102
}
330
18E9
100
AcDbScale
 70
     0
300
3/8" = 1'-0"
140
0.375
141
12.0
290
     0
  0
SCALE
  5
1904
102
{ACAD_REACTORS
330
18E9
102
}
330
18E9
100
AcDbScale
 70
     0
300
1/2" = 1'-0"
140
0.5
141
12.0
290
     0
  0
SCALE
  5
1905
102
{ACAD_REACTORS
330
18E9
102
}
330
18E9
100
AcDbScale
 70
     0
300
3/4" = 1'-0"
140
0.75
141
12.0
290
     0
  0
SCALE
  5
1906
102
{ACAD_REACTORS
330
18E9
102
}
330
18E9
100
AcDbScale
 70
     0
300
1" = 1'-0"
140
1.0
141
12.0
290
     0
  0
SCALE
  5
1907
102
{ACAD_REACTORS
330
18E9
102
}
330
18E9
100
AcDbScale
 70
     0
300
1-1/2" = 1'-0"
140
1.5
141
12.0
290
     0
  0
SCALE
  5
1908
102
{ACAD_REACTORS
330
18E9
102
}
330
18E9
100
AcDbScale
 70
     0
300
3" = 1'-0"
140
3.0
141
12.0
290
     0
  0
SCALE
  5
1909
102
{ACAD_REACTORS
330
18E9
102
}
330
18E9
100
AcDbScale
 70
     0
300
6" = 1'-0"
140
6.0
141
12.0
290
     0
  0
SCALE
  5
190A
102
{ACAD_REACTORS
330
18E9
102
}
330
18E9
100
AcDbScale
 70
     0
300
1'-0" = 1'-0"
140
12.0
141
12.0
290
     0
  0
ACDBSECTIONVIEWSTYLE
  5
2549
102
{ACAD_XDICTIONARY
360
275A
102
}
102
{ACAD_REACTORS
330
2548
102
}
330
2548
100
AcDbModelDocViewStyle
 70
     0
  3
Imperial24
290
     0
100
AcDbSectionViewStyle
 70
     0
 71
     0
 90
       78
 71
     1
340
16
 40
0.24
340
0
340
0
 40
0.24
300
I, O, Q, S, X, Z
 40
0.48
 90
        3
 40
0.18
 90
        1
 71
     2
340
8
 90
       25
340
8
 90
       50
 40
0.24
 40
0.0
 40
0.24
 71
     3
340
16
 40
0.24
 90
        1
 40
0.75
 90
        1
300
%<\AcVar ViewType \f "%tc1">% %<\AcVar ViewSectionStartId>%-%<\AcVar ViewSectionEndId>%\PSCALE %<\AcVar ViewScale \f "%sn">%
 71
     4
300
ANSI31
 40
1.0
 90
        0
290
     0
290
     0
 90
        6
 40
0.0
 40
1.5707963268
 40
0.2617993878
 40
1.308996939
 40
-0.2617993878
 40
1.8325957146
  0
TABLESTYLE
  5
18E8
102
{ACAD_XDICTIONARY
360
191E
102
}
102
{ACAD_REACTORS
330
18E7
102
}
330
18E7
100
AcDbTableStyle
  3
Standard
 70
     0
 71
     0
 40
0.06
 41
0.06
280
     0
281
     0
  7
STANDARD
140
0.18
170
     2
 62
     0
 63
     7
283
     0
274
    -2
284
     1
 64
     0
275
    -2
285
     1
 65
     0
276
    -2
286
     1
 66
     0
277
    -2
287
     1
 67
     0
278
    -2
288
     1
 68
     0
279
    -2
289
     1
 69
     0
  7
STANDARD
140
0.25
170
     5
 62
     0
 63
     7
283
     0
274
    -2
284
     1
 64
     0
275
    -2
285
     1
 65
     0
276
    -2
286
     1
 66
     0
277
    -2
287
     1
 67
     0
278
    -2
288
     1
 68
     0
279
    -2
289
     1
 69
     0
  7
STANDARD
140
0.18
170
     5
 62
     0
 63
     7
283
     0
274
    -2
284
     1
 64
     0
275
    -2
285
     1
 65
     0
276
    -2
286
     1
 66
     0
277
    -2
287
     1
 67
     0
278
    -2
288
     1
 68
     0
279
    -2
289
     1
 69
     0
  0
VISUALSTYLE
  5
18DB
102
{ACAD_XDICTIONARY
360
270F
102
}
102
{ACAD_REACTORS
330
18D5
102
}
330
18D5
100
AcDbVisualStyle
  2

 70
     4
 71
     0
 72
     2
 73
     0
 90
        0
 40
-0.6
 41
-30.0
 62
     5
 63
     7
 74
     1
 91
        4
 64
     7
 65
   257
 75
     1
175
     1
 42
1.0
 92
        0
 66
   257
 43
1.0
 76
     1
 77
     6
 78
     2
 67
     7
 79
     5
170
     0
171
     0
290
     0
174
     0
 93
        1
 44
0.0
173
     0
291
     0
 45
0.0
1001
ACAD
1000
AcDbSavedByObjectVersion
1070
     0
  0
VISUALSTYLE
  5
18DD
102
{ACAD_XDICTIONARY
360
2713
102
}
102
{ACAD_REACTORS
330
18D5
102
}
330
18D5
100
AcDbVisualStyle
  2

 70
     6
 71
     1
 72
     2
 73
     2
 90
        0
 40
-0.6
 41
-30.0
 62
     5
 63
     7
 74
     2
 91
        2
 64
     7
 65
   257
 75
     2
175
     1
 42
40.0
 92
        0
 66
   257
 43
1.0
 76
     1
 77
     6
 78
     2
 67
     7
 79
     3
170
     0
171
     0
290
     0
174
     0
 93
        1
 44
0.0
173
     0
291
     0
 45
0.0
1001
ACAD
1000
AcDbSavedByObjectVersion
1070
     0
  0
VISUALSTYLE
  5
18DC
102
{ACAD_XDICTIONARY
360
2711
102
}
102
{ACAD_REACTORS
330
18D5
102
}
330
18D5
100
AcDbVisualStyle
  2

 70
     5
 71
     0
 72
     2
 73
     0
 90
        0
 40
-0.6
 41
-30.0
 62
     5
 63
     7
 74
     1
 91
        4
 64
     7
 65
   257
 75
     1
175
     1
 42
1.0
 92
        0
 66
   257
 43
1.0
 76
     1
 77
     6
 78
     2
 67
     7
 79
     5
170
     0
171
     0
290
     0
174
     0
 93
        1
 44
0.0
173
     0
291
     0
 45
0.0
1001
ACAD
1000
AcDbSavedByObjectVersion
1070
     0
  0
VISUALSTYLE
  5
18DA
102
{ACAD_XDICTIONARY
360
270D
102
}
102
{ACAD_REACTORS
330
18D5
102
}
330
18D5
100
AcDbVisualStyle
  2

 70
     7
 71
     1
 72
     0
 73
     1
 90
        0
 40
-0.6
 41
-30.0
 62
     5
 63
     7
 74
     0
 91
        4
 64
     7
 65
   257
 75
     1
175
     1
 42
1.0
 92
        8
 66
     7
 43
1.0
 76
     1
 77
     6
 78
     2
 67
     7
 79
     5
170
     0
171
     0
290
     0
174
     0
 93
        1
 44
0.0
173
     0
291
     1
 45
0.0
1001
ACAD
1000
AcDbSavedByObjectVersion
1070
     0
  0
VISUALSTYLE
  5
18E1
102
{ACAD_XDICTIONARY
360
271B
102
}
102
{ACAD_REACTORS
330
18D5
102
}
330
18D5
100
AcDbVisualStyle
  2

 70
    12
 71
     2
 72
     2
 73
     0
 90
        0
 40
-0.6
 41
-30.0
 62
     5
 63
     7
 74
     1
 91
        4
 64
     7
 65
   257
 75
     1
175
     1
 42
1.0
 92
        8
 66
     7
 43
1.0
 76
     1
 77
     6
 78
     2
 67
     7
 79
     5
170
     0
171
     0
290
     0
174
     0
 93
        1
 44
50.0
173
     0
291
     1
 45
0.0
1001
ACAD
1000
AcDbSavedByObjectVersion
1070
     0
  0
VISUALSTYLE
  5
18E5
102
{ACAD_XDICTIONARY
360
2723
102
}
102
{ACAD_REACTORS
330
18D5
102
}
330
18D5
100
AcDbVisualStyle
  2

 70
    16
 71
     2
 72
     2
 73
     3
 90
        0
 40
-0.6
 41
-30.0
 62
     5
 63
     8
 74
     1
 91
        4
 64
     7
 65
   257
 75
     1
175
     1
 42
1.0
 92
        8
 66
     8
 43
1.0
 76
     1
 77
     6
 78
     2
 67
     7
 79
     5
170
     0
171
     0
290
     0
174
     0
 93
        1
 44
0.0
173
     0
291
     1
 45
0.0
1001
ACAD
1000
AcDbSavedByObjectVersion
1070
     0
  0
VISUALSTYLE
  5
18DE
102
{ACAD_XDICTIONARY
360
2715
102
}
102
{ACAD_REACTORS
330
18D5
102
}
330
18D5
100
AcDbVisualStyle
  2

 70
     9
 71
     3
 72
     2
 73
     0
 90
        0
 40
-0.6
 41
-30.0
 62
     5
 63
     7
 74
     2
 91
        2
 64
     7
 65
   257
 75
     1
175
     1
 42
40.0
 92
        8
 66
     7
 43
1.0
 76
     1
 77
     6
 78
     2
 67
     7
 79
     3
170
     0
171
     0
290
     0
174
     0
 93
        1
 44
0.0
173
     0
291
     0
 45
0.0
1001
ACAD
1000
AcDbSavedByObjectVersion
1070
     0
  0
VISUALSTYLE
  5
18E0
102
{ACAD_XDICTIONARY
360
2719
102
}
102
{ACAD_REACTORS
330
18D5
102
}
330
18D5
100
AcDbVisualStyle
  2

 70
    11
 71
     2
 72
     2
 73
     0
 90
        0
 40
-0.6
 41
-30.0
 62
     5
 63
     7
 74
     1
 91
        4
 64
     7
 65
   257
 75
     1
175
     1
 42
1.0
 92
        8
 66
     7
 43
1.0
 76
     1
 77
     6
 78
     2
 67
     7
 79
     5
170
     0
171
     0
290
     0
174
     0
 93
        1
 44
-50.0
173
     0
291
     1
 45
0.0
1001
ACAD
1000
AcDbSavedByObjectVersion
1070
     0
  0
VISUALSTYLE
  5
1967
102
{ACAD_XDICTIONARY
360
272A
102
}
102
{ACAD_REACTORS
330
18D5
102
}
330
18D5
100
AcDbVisualStyle
  2

 70
    22
 71
     2
 72
     2
 73
     0
 90
        0
 40
-0.6
 41
-30.0
 62
     5
 63
     7
 74
     1
 91
        4
 64
     7
 65
   257
 75
     1
175
     1
 42
1.0
 92
        8
 66
     7
 43
1.0
 76
     1
 77
     6
 78
     2
 67
     7
 79
     5
170
     0
171
     0
290
     0
174
     0
 93
        1
 44
0.0
173
     0
291
     1
 45
0.0
1001
ACAD
1000
AcDbSavedByObjectVersion
1070
     0
  0
VISUALSTYLE
  5
18E4
102
{ACAD_XDICTIONARY
360
2721
102
}
102
{ACAD_REACTORS
330
18D5
102
}
330
18D5
100
AcDbVisualStyle
  2

 70
    15
 71
     2
 72
     2
 73
     0
 90
        0
 40
-0.6
 41
-30.0
 62
     5
 63
     7
 74
     1
 91
        4
 64
     7
 65
   257
 75
     1
175
     1
 42
1.0
 92
        8
 66
     7
 43
1.0
 76
     1
 77
     6
 78
     2
 67
     7
 79
     5
170
     0
171
     0
290
     0
174
     0
 93
        1
 44
0.0
173
     0
291
     1
 45
0.0
1001
ACAD
1000
AcDbSavedByObjectVersion
1070
     0
  0
VISUALSTYLE
  5
18D6
102
{ACAD_XDICTIONARY
360
2705
102
}
102
{ACAD_REACTORS
330
18D5
102
}
330
18D5
100
AcDbVisualStyle
  2

 70
     0
 71
     2
 72
     1
 73
     1
 90
        2
 40
-0.6
 41
30.0
 62
     5
 63
     7
 74
     0
 91
        4
 64
     7
 65
   257
 75
     1
175
     1
 42
1.0
 92
        8
 66
     7
 43
1.0
 76
     1
 77
     6
 78
     2
 67
     7
 79
     5
170
     0
171
     0
290
     0
174
     0
 93
       13
 44
0.0
173
     0
291
     1
 45
0.0
1001
ACAD
1000
AcDbSavedByObjectVersion
1070
     0
  0
VISUALSTYLE
  5
18D7
102
{ACAD_XDICTIONARY
360
2707
102
}
102
{ACAD_REACTORS
330
18D5
102
}
330
18D5
100
AcDbVisualStyle
  2

 70
     1
 71
     2
 72
     1
 73
     1
 90
        2
 40
-0.6
 41
30.0
 62
     5
 63
     7
 74
     1
 91
        4
 64
     7
 65
   257
 75
     1
175
     1
 42
1.0
 92
        0
 66
   257
 43
1.0
 76
     1
 77
     6
 78
     2
 67
     7
 79
     5
170
     0
171
     0
290
     0
174
     0
 93
       13
 44
0.0
173
     0
291
     1
 45
0.0
1001
ACAD
1000
AcDbSavedByObjectVersion
1070
     0
  0
VISUALSTYLE
  5
18D8
102
{ACAD_XDICTIONARY
360
2709
102
}
102
{ACAD_REACTORS
330
18D5
102
}
330
18D5
100
AcDbVisualStyle
  2

 70
     2
 71
     2
 72
     2
 73
     1
 90
        2
 40
-0.6
 41
30.0
 62
     5
 63
     7
 74
     0
 91
        4
 64
     7
 65
   257
 75
     1
175
     1
 42
1.0
 92
        0
 66
     7
 43
1.0
 76
     1
 77
     6
 78
     2
 67
     7
 79
     5
170
     0
171
     0
290
     0
174
     0
 93
       13
 44
0.0
173
     0
291
     1
 45
0.0
1001
ACAD
1000
AcDbSavedByObjectVersion
1070
     0
  0
VISUALSTYLE
  5
18D9
102
{ACAD_XDICTIONARY
360
270B
102
}
102
{ACAD_REACTORS
330
18D5
102
}
330
18D5
100
AcDbVisualStyle
  2

 70
     3
 71
     2
 72
     2
 73
     1
 90
        2
 40
-0.6
 41
30.0
 62
     5
 63
     7
 74
     1
 91
        4
 64
     7
 65
   257
 75
     1
175
     1
 42
1.0
 92
        0
 66
   257
 43
1.0
 76
     1
 77
     6
 78
     2
 67
     7
 79
     5
170
     0
171
     0
290
     0
174
     0
 93
       13
 44
0.0
173
     0
291
     1
 45
0.0
1001
ACAD
1000
AcDbSavedByObjectVersion
1070
     0
  0
VISUALSTYLE
  5
2542
102
{ACAD_XDICTIONARY
360
274E
102
}
102
{ACAD_REACTORS
330
18D5
102
}
330
18D5
100
AcDbVisualStyle
  2
Hidden
 70
     6
 71
     1
 72
     2
 73
     2
 90
        0
 40
-0.6
 41
-30.0
 62
     5
 63
     7
 74
     2
 91
        2
 64
     7
 65
   257
 75
     2
175
     1
 42
40.0
 92
        0
 66
   257
 43
1.0
 76
     1
 77
     6
 78
     2
 67
     7
 79
     3
170
     0
171
     0
290
     0
174
     0
 93
        1
 44
0.0
173
     0
291
     0
 45
0.0
1001
ACAD
1000
AcDbSavedByObjectVersion
1070
     0
  0
VISUALSTYLE
  5
1965
102
{ACAD_XDICTIONARY
360
2726
102
}
102
{ACAD_REACTORS
330
18D5
102
}
330
18D5
100
AcDbVisualStyle
  2

 70
    20
 71
     2
 72
     2
 73
     0
 90
        0
 40
-0.6
 41
-30.0
 62
     5
 63
     7
 74
     1
 91
        4
 64
     7
 65
   257
 75
     1
175
     1
 42
1.0
 92
       10
 66
     7
 43
1.0
 76
     1
 77
     6
 78
     2
 67
     7
 79
     5
170
     0
171
     0
290
     0
174
     0
 93
        1
 44
0.0
173
     0
291
     1
 45
0.0
1001
ACAD
1000
AcDbSavedByObjectVersion
1070
     0
  0
VISUALSTYLE
  5
18E3
102
{ACAD_XDICTIONARY
360
271F
102
}
102
{ACAD_REACTORS
330
18D5
102
}
330
18D5
100
AcDbVisualStyle
  2

 70
    14
 71
     2
 72
     2
 73
     0
 90
        0
 40
-0.6
 41
-30.0
 62
     5
 63
     7
 74
     1
 91
        4
 64
     7
 65
   257
 75
     7
175
     7
 42
1.0
 92
        8
 66
     7
 43
1.0
 76
     1
 77
     6
 78
     2
 67
     7
 79
     5
170
     0
171
     0
290
     0
174
     0
 93
        1
 44
0.0
173
     0
291
     1
 45
0.0
1001
ACAD
1000
AcDbSavedByObjectVersion
1070
     0
  0
VISUALSTYLE
  5
1966
102
{ACAD_XDICTIONARY
360
2728
102
}
102
{ACAD_REACTORS
330
18D5
102
}
330
18D5
100
AcDbVisualStyle
  2

 70
    21
 71
     2
 72
     2
 73
     0
 90
        0
 40
-0.6
 41
-30.0
 62
     5
 63
     7
 74
     1
 91
        4
 64
     7
 65
   257
 75
     1
175
     1
 42
1.0
 92
        9
 66
     7
 43
1.0
 76
     1
 77
     6
 78
     2
 67
     7
 79
     5
170
     0
171
     0
290
     0
174
     0
 93
        1
 44
0.0
173
     0
291
     1
 45
0.0
1001
ACAD
1000
AcDbSavedByObjectVersion
1070
     0
  0
VISUALSTYLE
  5
18DF
102
{ACAD_XDICTIONARY
360
2717
102
}
102
{ACAD_REACTORS
330
18D5
102
}
330
18D5
100
AcDbVisualStyle
  2

 70
     8
 71
     2
 72
     2
 73
     0
 90
        0
 40
-0.6
 41
-30.0
 62
     5
 63
     7
 74
     1
 91
        0
 64
     7
 65
   257
 75
     1
175
     1
 42
1.0
 92
        8
 66
     8
 43
1.0
 76
     1
 77
     6
 78
     2
 67
     7
 79
     5
170
     0
171
     0
290
     0
174
     0
 93
       13
 44
0.0
173
     0
291
     0
 45
0.0
1001
ACAD
1000
AcDbSavedByObjectVersion
1070
     0
  0
VISUALSTYLE
  5
2547
102
{ACAD_XDICTIONARY
360
2758
102
}
102
{ACAD_REACTORS
330
18D5
102
}
330
18D5
100
AcDbVisualStyle
  2
Shaded
 70
    27
 71
     2
 72
     2
 73
     1
 90
        2
 40
-0.6
 41
30.0
 62
     5
 63
     7
 74
     0
 91
        4
 64
     7
 65
   257
 75
     1
175
     1
 42
1.0
 92
        8
 66
   257
 43
1.0
 76
     1
 77
     6
 78
     2
 67
     8
 79
     3
170
     0
171
     0
290
     0
174
     0
 93
        5
 44
0.0
173
     0
291
     0
 45
0.0
1001
ACAD
1000
AcDbSavedByObjectVersion
1070
     0
  0
VISUALSTYLE
  5
2546
102
{ACAD_XDICTIONARY
360
2756
102
}
102
{ACAD_REACTORS
330
18D5
102
}
330
18D5
100
AcDbVisualStyle
  2
Shaded with edges
 70
    26
 71
     2
 72
     2
 73
     1
 90
        2
 40
-0.6
 41
30.0
 62
     5
 63
     7
 74
     1
 91
        2
 64
     7
 65
   257
 75
     2
175
     1
 42
1.0
 92
        8
 66
   257
 43
1.0
 76
     1
 77
     6
 78
     2
 67
     7
 79
     3
170
     0
171
     0
290
     0
174
     0
 93
        5
 44
0.0
173
     0
291
     0
 45
0.0
1001
ACAD
1000
AcDbSavedByObjectVersion
1070
     0
  0
VISUALSTYLE
  5
2543
102
{ACAD_XDICTIONARY
360
2750
102
}
102
{ACAD_REACTORS
330
18D5
102
}
330
18D5
100
AcDbVisualStyle
  2
Shades of Gray
 70
    23
 71
     2
 72
     2
 73
     3
 90
        0
 40
-0.6
 41
-30.0
 62
     5
 63
     7
 74
     2
 91
        2
 64
     7
 65
     7
 75
     1
175
     1
 42
40.0
 92
        8
 66
     7
 43
1.0
 76
     1
 77
     6
 78
     2
 67
     7
 79
     3
170
     0
171
     0
290
     0
174
     0
 93
        1
 44
0.0
173
     0
291
     0
 45
0.0
1001
ACAD
1000
AcDbSavedByObjectVersion
1070
     0
  0
VISUALSTYLE
  5
2544
102
{ACAD_XDICTIONARY
360
2752
102
}
102
{ACAD_REACTORS
330
18D5
102
}
330
18D5
100
AcDbVisualStyle
  2
Sketchy
 70
    24
 71
     1
 72
     2
 73
     2
 90
        0
 40
-0.6
 41
-30.0
 62
     5
 63
     7
 74
     2
 91
        2
 64
     7
 65
     7
 75
     1
175
     1
 42
40.0
 92
       11
 66
     7
 43
1.0
 76
     1
 77
     6
 78
     2
 67
     7
 79
     6
170
     0
171
     0
290
     0
174
     0
 93
        1
 44
0.0
173
     0
291
     0
 45
0.0
1001
ACAD
1000
AcDbSavedByObjectVersion
1070
     0
  0
VISUALSTYLE
  5
18E2
102
{ACAD_XDICTIONARY
360
271D
102
}
102
{ACAD_REACTORS
330
18D5
102
}
330
18D5
100
AcDbVisualStyle
  2

 70
    13
 71
     2
 72
     2
 73
     0
 90
        0
 40
-0.6
 41
-30.0
 62
     5
 63
     7
 74
     1
 91
        4
 64
     7
 65
   257
 75
     1
175
     1
 42
1.0
 92
       12
 66
     7
 43
1.0
 76
     1
 77
     6
 78
     2
 67
     7
 79
     5
170
     0
171
     0
290
     0
174
     0
 93
        1
 44
0.0
173
     0
291
     1
 45
0.0
1001
ACAD
1000
AcDbSavedByObjectVersion
1070
     0
  0
VISUALSTYLE
  5
2541
102
{ACAD_XDICTIONARY
360
274C
102
}
102
{ACAD_REACTORS
330
18D5
102
}
330
18D5
100
AcDbVisualStyle
  2
Wireframe
 70
     5
 71
     0
 72
     2
 73
     0
 90
        0
 40
-0.6
 41
-30.0
 62
     5
 63
     7
 74
     1
 91
        4
 64
     7
 65
   257
 75
     1
175
     1
 42
1.0
 92
        0
 66
   257
 43
1.0
 76
     1
 77
     6
 78
     2
 67
     7
 79
     3
170
     0
171
     0
290
     0
174
     0
 93
        1
 44
0.0
173
     0
291
     0
 45
0.0
1001
ACAD
1000
AcDbSavedByObjectVersion
1070
     0
  0
VISUALSTYLE
  5
2545
102
{ACAD_XDICTIONARY
360
2754
102
}
102
{ACAD_REACTORS
330
18D5
102
}
330
18D5
100
AcDbVisualStyle
  2
X-Ray
 70
    25
 71
     2
 72
     2
 73
     1
 90
        1
 40
0.5
 41
-30.0
 62
     5
 63
     7
 74
     1
 91
        0
 64
     7
 65
   257
 75
     1
175
     1
 42
1.0
 92
        8
 66
     7
 43
1.0
 76
     1
 77
     6
 78
     2
 67
     7
 79
     3
170
     0
171
     0
290
     0
174
     0
 93
       13
 44
0.0
173
     0
291
     0
 45
0.0
1001
ACAD
1000
AcDbSavedByObjectVersion
1070
     0
  0
DICTIONARYVAR
  5
1961
102
{ACAD_REACTORS
330
102
102
}
330
102
100
DictionaryVariables
280
     0
  1
1:1
  0
DICTIONARYVAR
  5
1960
102
{ACAD_REACTORS
330
102
102
}
330
102
100
DictionaryVariables
280
     0
  1
STANDARD
  0
DICTIONARYVAR
  5
195F
102
{ACAD_REACTORS
330
102
102
}
330
102
100
DictionaryVariables
280
     0
  1
STANDARD
  0
DICTIONARYVAR
  5
26C4
102
{ACAD_REACTORS
330
102
102
}
330
102
100
DictionaryVariables
280
     0
  1
Imperial24
  0
DICTIONARYVAR
  5
26C5
102
{ACAD_REACTORS
330
102
102
}
330
102
100
DictionaryVariables
280
     0
  1
Imperial24
  0
DICTIONARYVAR
  5
103
102
{ACAD_REACTORS
330
102
102
}
330
102
100
DictionaryVariables
280
     0
  1
1
  0
DICTIONARYVAR
  5
1963
102
{ACAD_REACTORS
330
102
102
}
330
102
100
DictionaryVariables
280
     0
  1
0
  0
DICTIONARYVAR
  5
1962
102
{ACAD_REACTORS
330
102
102
}
330
102
100
DictionaryVariables
280
     0
  1
127
  0
DICTIONARYVAR
  5
26FD
102
{ACAD_REACTORS
330
102
102
}
330
102
100
DictionaryVariables
280
     0
  1
2
  0
DICTIONARY
  5
275C
330
254B
100
AcDbDictionary
280
     1
281
     1
  3
ACAD_XREC_ROUNDTRIP
360
275D
  0
DICTIONARY
  5
1990
330
60
100
AcDbDictionary
280
     1
281
     1
  3
ACAD_XREC_ROUNDTRIP
360
2701
  3
ADSK_XREC_LAYOUTTHUMBNAIL
360
1991
  0
DICTIONARY
  5
2766
330
26F9
100
AcDbDictionary
280
     1
281
     1
  3
ACAD_XREC_ROUNDTRIP
360
2767
  0
DICTIONARY
  5
18C6
330
18C5
100
AcDbDictionary
280
     1
281
     1
  3
ACAD_XREC_ROUNDTRIP
360
2703
  3
BUMPTILE
360
18C8
  3
DIFFUSETILE
360
18C7
  3
OPACITYTILE
360
18CB
  3
REFLECTIONTILE
360
18CA
  3
REFRACTIONTILE
360
18CC
  3
SPECULARTILE
360
18C9
  0
DICTIONARY
  5
18BE
330
18BD
100
AcDbDictionary
280
     1
281
     1
  3
ACAD_XREC_ROUNDTRIP
360
2702
  3
BUMPTILE
360
18C0
  3
DIFFUSETILE
360
18BF
  3
OPACITYTILE
360
18C3
  3
REFLECTIONTILE
360
18C2
  3
REFRACTIONTILE
360
18C4
  3
SPECULARTILE
360
18C1
  0
DICTIONARY
  5
18CE
330
18CD
100
AcDbDictionary
280
     1
281
     1
  3
ACAD_XREC_ROUNDTRIP
360
2704
  3
BUMPTILE
360
18D0
  3
DIFFUSETILE
360
18CF
  3
OPACITYTILE
360
18D3
  3
REFLECTIONTILE
360
18D2
  3
REFRACTIONTILE
360
18D4
  3
SPECULARTILE
360
18D1
  0
DICTIONARY
  5
275A
330
2549
100
AcDbDictionary
280
     1
281
     1
  3
ACAD_XREC_ROUNDTRIP
360
275B
  0
DICTIONARY
  5
191E
330
18E8
100
AcDbDictionary
280
     1
281
     1
  3
ACAD_ROUNDTRIP_2008_TABLESTYLE_CELLSTYLEMAP
360
26FE
  3
ACAD_XREC_ROUNDTRIP
360
2725
  0
DICTIONARY
  5
270F
330
18DB
100
AcDbDictionary
280
     1
281
     1
  3
ACAD_XREC_ROUNDTRIP
360
2710
  0
DICTIONARY
  5
2713
330
18DD
100
AcDbDictionary
280
     1
281
     1
  3
ACAD_XREC_ROUNDTRIP
360
2714
  0
DICTIONARY
  5
2711
330
18DC
100
AcDbDictionary
280
     1
281
     1
  3
ACAD_XREC_ROUNDTRIP
360
2712
  0
DICTIONARY
  5
270D
330
18DA
100
AcDbDictionary
280
     1
281
     1
  3
ACAD_XREC_ROUNDTRIP
360
270E
  0
DICTIONARY
  5
271B
330
18E1
100
AcDbDictionary
280
     1
281
     1
  3
ACAD_XREC_ROUNDTRIP
360
271C
  0
DICTIONARY
  5
2723
330
18E5
100
AcDbDictionary
280
     1
281
     1
  3
ACAD_XREC_ROUNDTRIP
360
2724
  0
DICTIONARY
  5
2715
330
18DE
100
AcDbDictionary
280
     1
281
     1
  3
ACAD_XREC_ROUNDTRIP
360
2716
  0
DICTIONARY
  5
2719
330
18E0
100
AcDbDictionary
280
     1
281
     1
  3
ACAD_XREC_ROUNDTRIP
360
271A
  0
DICTIONARY
  5
272A
330
1967
100
AcDbDictionary
280
     1
281
     1
  3
ACAD_XREC_ROUNDTRIP
360
272B
  0
DICTIONARY
  5
2721
330
18E4
100
AcDbDictionary
280
     1
281
     1
  3
ACAD_XREC_ROUNDTRIP
360
2722
  0
DICTIONARY
  5
2705
330
18D6
100
AcDbDictionary
280
     1
281
     1
  3
ACAD_XREC_ROUNDTRIP
360
2706
  0
DICTIONARY
  5
2707
330
18D7
100
AcDbDictionary
280
     1
281
     1
  3
ACAD_XREC_ROUNDTRIP
360
2708
  0
DICTIONARY
  5
2709
330
18D8
100
AcDbDictionary
280
     1
281
     1
  3
ACAD_XREC_ROUNDTRIP
360
270A
  0
DICTIONARY
  5
270B
330
18D9
100
AcDbDictionary
280
     1
281
     1
  3
ACAD_XREC_ROUNDTRIP
360
270C
  0
DICTIONARY
  5
274E
330
2542
100
AcDbDictionary
280
     1
281
     1
  3
ACAD_XREC_ROUNDTRIP
360
274F
  0
DICTIONARY
  5
2726
330
1965
100
AcDbDictionary
280
     1
281
     1
  3
ACAD_XREC_ROUNDTRIP
360
2727
  0
DICTIONARY
  5
271F
330
18E3
100
AcDbDictionary
280
     1
281
     1
  3
ACAD_XREC_ROUNDTRIP
360
2720
  0
DICTIONARY
  5
2728
330
1966
100
AcDbDictionary
280
     1
281
     1
  3
ACAD_XREC_ROUNDTRIP
360
2729
  0
DICTIONARY
  5
2717
330
18DF
100
AcDbDictionary
280
     1
281
     1
  3
ACAD_XREC_ROUNDTRIP
360
2718
  0
DICTIONARY
  5
2758
330
2547
100
AcDbDictionary
280
     1
281
     1
  3
ACAD_XREC_ROUNDTRIP
360
2759
  0
DICTIONARY
  5
2756
330
2546
100
AcDbDictionary
280
     1
281
     1
  3
ACAD_XREC_ROUNDTRIP
360
2757
  0
DICTIONARY
  5
2750
330
2543
100
AcDbDictionary
280
     1
281
     1
  3
ACAD_XREC_ROUNDTRIP
360
2751
  0
DICTIONARY
  5
2752
330
2544
100
AcDbDictionary
280
     1
281
     1
  3
ACAD_XREC_ROUNDTRIP
360
2753
  0
DICTIONARY
  5
271D
330
18E2
100
AcDbDictionary
280
     1
281
     1
  3
ACAD_XREC_ROUNDTRIP
360
271E
  0
DICTIONARY
  5
274C
330
2541
100
AcDbDictionary
280
     1
281
     1
  3
ACAD_XREC_ROUNDTRIP
360
274D
  0
DICTIONARY
  5
2754
330
2545
100
AcDbDictionary
280
     1
281
     1
  3
ACAD_XREC_ROUNDTRIP
360
2755
  0
XRECORD
  5
275D
102
{ACAD_REACTORS
330
275C
102
}
330
275C
100
AcDbXrecord
280
     1
102
DISPLAYNAME
  1
Imperial24
102
FLAGS
 90
        0
  0
XRECORD
  5
2701
102
{ACAD_REACTORS
330
1990
102
}
330
1990
100
AcDbXrecord
280
     1
102
SHADEPLOT
 70
     0
102
SHADEPLOTRESLEVEL
 70
     2
102
SHADEPLOTCUSTOMDPI
 70
   300
  0
XRECORD
  5
1991
102
{ACAD_REACTORS
330
1990
102
}
330
1990
100
AcDbXrecord
280
     1
310
2800000000010000840000000100080000000000008400000100000001000000000100000000000000000000FFFFFF00000000FF000000FF000000FF000000FF000000FF000000FF000000FF000000FF000000FF330000FF660000FF990000FFCC0000FFFF0000FF003300FF333300FF663300FF993300FFCC3300FFFF3300
310
FF006600FF336600FF666600FF996600FFCC6600FFFF6600FF009900FF339900FF669900FF999900FFCC9900FFFF9900FF00CC00FF33CC00FF66CC00FF99CC00FFCCCC00FFFFCC00FF00FF00FF33FF00FF66FF00FF99FF00FFCCFF00FFFFFF00FF000033FF330033FF660033FF990033FFCC0033FFFF0033FF003333FF3333
310
33FF663333FF993333FFCC3333FFFF3333FF006633FF336633FF666633FF996633FFCC6633FFFF6633FF009933FF339933FF669933FF999933FFCC9933FFFF9933FF00CC33FF33CC33FF66CC33FF99CC33FFCCCC33FFFFCC33FF00FF33FF33FF33FF66FF33FF99FF33FFCCFF33FFFFFF33FF000066FF330066FF660066FF99
310
0066FFCC0066FFFF0066FF003366FF333366FF663366FF993366FFCC3366FFFF3366FF006666FF336666FF666666FF996666FFCC6666FFFF6666FF009966FF339966FF669966FF999966FFCC9966FFFF9966FF00CC66FF33CC66FF66CC66FF99CC66FFCCCC66FFFFCC66FF00FF66FF33FF66FF66FF66FF99FF66FFCCFF66FF
310
FFFF66FF000099FF330099FF660099FF990099FFCC0099FFFF0099FF003399FF333399FF663399FF993399FFCC3399FFFF3399FF006699FF336699FF666699FF996699FFCC6699FFFF6699FF009999FF339999FF669999FF999999FFCC9999FFFF9999FF00CC99FF33CC99FF66CC99FF99CC99FFCCCC99FFFFCC99FF00FF99
310
FF33FF99FF66FF99FF99FF99FFCCFF99FFFFFF99FF0000CCFF3300CCFF6600CCFF9900CCFFCC00CCFFFF00CCFF0033CCFF3333CCFF6633CCFF9933CCFFCC33CCFFFF33CCFF0066CCFF3366CCFF6666CCFF9966CCFFCC66CCFFFF66CCFF0099CCFF3399CCFF6699CCFF9999CCFFCC99CCFFFF99CCFF00CCCCFF33CCCCFF66CC
310
CCFF99CCCCFFCCCCCCFFFFCCCCFF00FFCCFF33FFCCFF66FFCCFF99FFCCFFCCFFCCFFFFFFCCFF0000FFFF3300FFFF6600FFFF9900FFFFCC00FFFFFF00FFFF0033FFFF3333FFFF6633FFFF9933FFFFCC33FFFFFF33FFFF0066FFFF3366FFFF6666FFFF9966FFFFCC66FFFFFF66FFFF0099FFFF3399FFFF6699FFFF9999FFFFCC
310
99FFFFFF99FFFF00CCFFFF33CCFFFF66CCFFFF99CCFFFFCCCCFFFFFFCCFFFF00FFFFFF33FFFFFF66FFFFFF99FFFFFFCCFFFFFFFFFFFFFF000000FF0D0D0DFF1A1A1AFF282828FF353535FF434343FF505050FF5D5D5DFF6B6B6BFF787878FF868686FF939393FFA1A1A1FFAEAEAEFFBBBBBBFFC9C9C9FFD6D6D6FFE4E4E4FF
310
F1F1F1FFFFFFFFFF000000FF000000FF000000FF000000FF000000FF000000FF000000FF000000FF000000FF000000FF00000000000000000000000000000000000000000000000000000000000000000000000000000000000000000000000000000000000000000000000000000000000000000000000000000000000000
310
00000000000000000000000000000000000000000000000000000000000000000000000000000000000000000000000000000000000000000000000000000000000000000000000000000000000000000000000000000000000000000000000000000000000000000000000000000000000000000000000000000000000000
310
00000000000000000000000000000000000000000000000000000000000000000000000000000000000000000000000000000000000000000000000000000000000000000000000000000000000000000000000000000000000000000000000000000000000000000000000000000000000000000000000000000000000000
310
0000000000000000000000000000000000002D2D2D2D2D2D2D2D2D2D2D2D2D2D2D2D2D2D2D2D2D2D2D2D2D2D2D2D2D2D2D2D2D2D0000000000000000000000000000000000000000000000000000000000002D2D2D2D2D2D2D2D2D2D2D2D2D2D2D2D2D2D2D2D2D2D2D2D2D2D2D2D2D2D2D2D2D2D0000000000000000000000
310
00000000000000000000000000000000000000000000000000000000000000000000000000000000000000000000000000000000000000000000000000000000000000000000000000000000000000000000000000000000000000000000000000000000000000000000000000000000000000000000000000000000000000
310
00000000000000000000000000000000000000002D0000000000000000000000000000002D2D2D00000000000000000000000000002D0000000000000000000000000000000000000000000000000000000000002D00000000000000000000000000002D2D2D2D00000000000000000000000000002D000000000000000000
310
00000000000000000000000000000000000000000000000000000000000000000000000000000000000000000000000000000000000000000000000000000000000000000000000000000000000000000000000000000000000000000000000000000000000000000000000000000000000000000000000000000000000000
310
000000000000000000000000000000000000000000002D0000000000000000000000000000002D2D2D00000000000000000000000000002D00002D2D2D2D2D2D2D2D00000000000000000000000000000000000000002D00000000000000000000000000002D2D2D2D00000000000000000000000000002D00000000000000
310
00000000000000000000000000000000000000000000000000000000000000000000000000000000000000000000000000000000000000000000000000000000000000000000000000000000000000000000000000000000000000000000000000000000000000000000000000000000000000000000000000000000000000
310
0000000000000000000000000000000000000000000000002D0000000000002D000000000000000000000000000000000000002D00000000002D002D002D2D2D2D2D2D0000000000000000000000002D00000000000000002D0000002D000000000000000000000000000000000000000000000000002D00002D0000000000
310
000000002D0000000000000000000000000000000000000000000000000000000000000000000000000000000000000000000000000000000000000000000000000000000000000000000000000000000000000000000000000000000000000000000000000000000000000000000000000000000000000000000000000000
310
00000000000000000000000000000000000000000000000000002D0000000000002D2D2D2D2D2D2D2D2D2D2D2D2D2D2D2D2D2D2D2D2D00000000002D2D00002D002D2D2D2D0000000000000000000000002D2D2D2D2D2D2D2D2D2D2D2D2D2D2D2D2D2D2D2D2D2D2D2D2D2D2D2D2D2D2D2D2D2D2D2D2D2D2D2D2D2D2D2D2D2D
310
2D2D2D2D2D2D2D000000000000000000000000000000000000000000000000000000000000000000000000000000000000000000000000000000000000000000000000000000000000000000000000000000000000000000000000000000000000000000000000000000000000000000000000000000000000000000000000
310
000000000000000000000000000000000000000000000000000000002D0000000000002D00000000000000002D2D2D00000000000000002D000000002D2D0000000000000000000000000000000000000000002D000000002D2D2D002D0000002D000000000000000000002D2D2D2D00000000000000000000002D00002D00
310
2D2D2D00000000002D00000000000000000000000000000000000000000000000000000000000000000000000000000000000000000000000000000000000000000000000000000000000000000000000000000000000000000000000000000000000000000000000000000000000000000000000000000000000000000000
310
0000000000000000000000000000000000000000000000000000000000002D0000000000002D00000000000000002D2D2D00000000000000002D0000002D002D0000000000000000000000000000000000000000002D000000002D2D2D002D0000002D00000000000000000000002D2D2D00000000000000000000002D0000
310
2D00002D2D00000000002D0000000000000000000000000000000000000000000000000000000000000000000000000000000000000000000000000000000000000000000000000000000000000000000000000000000000000000000000000000000000000000000000000000000000000000000000000000000000000000
310
00000000000000000000000000000000000000000000000000000000000000002D0000000000002D000000000000000000280000000000000000002D00002D00002D0000000000000000000000000000000000000000002D00000000000000002D0000002D000000000000000000000000280000000000000000000000002D
310
00002D0000000000000000002D000000000000000000000000000000000000000000000000000000000000000000000000000000000000000000000000000000000000000000000000000000000000000000000000000000000000000000000000000000000000000000000000000000000000000000000000000000000000
310
000000000000000000000000000000000000000000000000000000000000000000002D0000000000002D000000000000000000280000000000000000002D002D0000002D0000000000000000000000000000000000000000002D00000000000000002D0000002D000000000000000000000000280000000000000000000000
310
002D00002D0000000000000000002D00000000000000000000000000000000000000000000000000000000000000000000000000000000000000000000000000000000000000000000000000000000000000000000000000000000000000000000000000000000000000000000000000000000000000000000000000000000
310
0000000000000000000000000000000000000000000000000000000000000000000000002DF5F5F5F5BEF528BEF5F5F5F5F5F5F5F528F5F5F5F5F5F5F5F5BE2D2DBEF5F5F52D2D2D2D2D2D2D2D2D2D0000000000000000000000002D00000000000000002DF5F5F5F5F5F5F5F5F5F5000000000000280000000000F5F5F5F5
310
F5F5F5F5F5F52D2D2D2D2D2D2D2D2D2D2D2D2D2D2D2D2D2D2D2D0000000000000000000000000000000000000000000000000000000000000000000000000000000000000000000000000000000000000000000000000000000000000000000000000000000000000000000000000000000000000000000000000000000000
310
0000000000000000000000000000000000000000000000000000000000000000000000000000F50000F500BE0028BE0000000000000000280000000000000000BE2800BEF50000F500000000000000002D0000000000000000000000002D0000000000000000F500BE0028BE00F5000000F5F5F5F5F5F528F5F5F5F5F5F500
310
0000F5BE0028BE00F50000002D2D2D0000002D00000000000000002D000000000000000000000000000000000000000000000000000000000000000000000000000000000000000000000000000000000000000000000000000000000000000000000000000000000000000000000000000000000000000000000000000000
310
00000000000000000000000000000000000000000000000000000000000000000000000000000000F50000F500BE0028BE0000000000000000280000000000000000BE2800BEF50000F500000000000000002D0000000000000000000000002D0000000000000000F500BE0028BE00F5000000000000000000280000000000
310
00000000F5BE0028BE00F50000002D2D2D0000002D00000000000000002D00000000000000000000000000000000000000000000000000000000000000000000000000000000000000000000000000000000000000000000000000000000000000000000000000000000000000000000000000000000000000000000000000
310
000000000000000000000000000000000000000000000000000000000000000000000000000000000000F50000F500BE0028BE0000000000000000280000000000000000BE2800BEF50000F500000000000000002D0000000000000000000000002D0000000000000000F5F5BE0028BE00F500000000000000000028000000
310
000000000000F5BE0028BE00F50000002D2D2D0000002D00000000000000002D0000000000000000000000000000000000000000000000000000000000000000000000000000000000000000000000000000000000000000000000000000000000000000000000000000000000000000000000000000000000000000000000
310
0000000000000000000000000000000000000000000000000000000000000000000000000000000000000000F5F5F5F5F5BEF528BEF5F5F5F5F5F5F5F528F5F5F5F5F5F5F5F5BE28F5BEF5F5F5F500000000000000002D0000000000000000000000002D0000000000000000F5F5F5F5F5F5F5F50000000000000000002800
310
0000000000000000F5F5F5F5F5F52D2D2D2D2D2D2D0000002D00000000000000002D000000000000000000000000000000000000000000000000000000000000000000000000000000000000000000000000000000000000000000000000000000000000000000000000000000000000000000000000000000000000000000
310
00000000000000000000000000000000000000000000000000000000000000000000000000000000000000000000F500000000000028000000F5F5F5F5F5F5F5F5F5F5F5F5F5000000280000000000F500000000000000002D0000000000000000000000002D000000000000000000F50000F5F5F5F5000000000000000000
310
280000000000000000F5F5F5F5F50000F50000000000000000002D00000000000000002D00000000000000000000000000000000000000000000000000000000000000000000000000000000000000000000000000000000000000000000000000000000000000000000000000000000000000000000000000000000000000
310
000000000000000000000000000000000000000000000000000000000000000000000000000000000000000000000000F50000000000000000000000F5000000002800000000F500000000000000000000F500000000000000002D0000000000000000000000002D00000000000000000000000000F5F5F500000000000000
310
0000280000000000000000F5F5F500000000000000000000000000002D00000000000000002D0000000000000000000000000000000000000000000000000000000000000000000000000000000000000000000000000000000000000000000000000000000000000000000000000000000000000000000000000000000000
310
000000000000000000000000000000000000000000000000000000000000000000000000000000000000000000F5F5F5F5F5F50000000000000000000000000000000028000000000000000000000000000000F500000000000000002D0000000000000000000000002D0000000000000000000000000000F5F50000000000
310
0000000028000000000000000000F50000000000000000000000000000002D00000000000000002D000000000000000000000000000000000000000000000000000000000000000000000000000000000000000000000000000000000000000000000000000000000000000000000000000000000000000000000000000000
310
00002D2D2D2D2D2D2D2DF5F5F5F5F5F5F5F5F5F5F5F5F5F5F5F5F5F5F5F5F5F5F5F5F5F5F5F5F5F5F5F5F5F5F5F5F5F5F5F5F500F50000000000000000000000000000000028000000000000000000000000000000F500000000000000002D0000000000000000000000002D000000000000000000000000000000F5000000
310
00000000000028000000000000000000F50000000000000000000000000000002D00000000000000002D00000000000000000000000000000000000000000000000000000000000000000000000000000000000000000000000000000000000000000000000000000000000000000000000000000000000000000000000000
310
000000002D2D00000000F500F500F500000000000000000000000000000000000000000000F5F5F5F50000000000000000F5F500F500F50000000000000000000000000000000028000000000000000000000000000000F500000000000000002D0000000000000000000000002D000000000000000000000000000000F500
310
000000000000000028000000000000000000F50000000000000000000000000000002D00000000000000002D0000000000000000000000000000000000000000000000000000000000000000000000000000000000000000000000000000000000000000000000000000000000000000000000000000000000000000000000
310
0000000000002D2D00000000F5F50000F50000000000000000000000000000000000000000000000F500F5F5F5F5F5F5F5F5F5F5F5F5F500F50000000000000000000000000000000028000000000000000000000000000000F500000000000000002D0000000000000000000000002D0000000000000000000000000000F5
310
F5F50000000000000000280000000000000000F5F5F500000000000000000000000000002D00000000000000002D000000000000000000000000000000000000000000000000000000000000000000000000000000000000000000000000000000000000000000000000000000000000000000000000000000000000000000
310
00000000000000002D0000000000F5F5F5F5F5F5F5F5F5F5F5F5F5F5F5F5F5F5F5F5F5F5F5F5F5F5F5F5F500F50000000000000000000000F500F500000000000000000000F5F5F5F5F5F5F5F5F5F5F5F5F5000000000000000000F500000000000000002D0000000000000000000000002D00000000000000000000000000
310
00F5F500000000000000000028000000000000000000F5F500000000000000000000000000002D00000000000000002D00000000000000000000000000000000000000000000000000000000000000000000000000000000000000000000000000000000000000000000000000000000000000000000000000000000000000
310
000000000000000000002D0000000000F5000000F50000000000000000000000000000000000000000000000F500F5000000000000000000F5F5F500F5F50000000000000000F5F5F5F5F5F5F5F5F5F5F5F5F5F5F50000000000000000F500000000000000002D0000000000000000000000002D0000000000000000000000
310
0000F500F500000000000000000028000000000000000000F500F5000000000000000000000000002D00000000000000002D0000000000000000000000000000000000000000000000000000000000000000000000000000000000000000000000000000000000000000000000000000000000000000000000000000000000
310
0000000000000000000000002D0000000000F5000000F50000000000000000000000000000000000000000000000F500F5000000000000000000F500F500F5F5000000000000F5F5000000000000002800000000000000F5F5000000000000F500000000000000002D0000000000000000000000002D000000000000000000
310
00000000F500F500000000000000000028000000000000000000F500F5000000000000000000000000002D00000000000000002D000000000000000000000000000000000000000000000000000000000000000000000000000000000000000000000000000000000000000000000000000000000000000000000000000000
310
00000000000000000000000000002D0000000000F5000000F50000000000000000000000000000000000000000000000F500F5F5F5F5F5F5F5F5F5F5F500F500F5F500000000F5F50000000000F5F5F500F500F5F5F50000000000F5F500000000F500000000000000002D0000000000000000000000002D00000000000000
310
000000000000F5F5F500000000000000000028000000000000000000F5F5F5000000000000000000000000002D0000000000002D2D2D00000000000000000000000000000000000000000000000000000000000000000000000000000000000000000000000000000000000000000000000000000000000000000000000000
310
000000000000000000000000000000002D0000000000F5000000F50000000000000000000000000000000000000000000000F500F5000000000000000000F500F500F5F500000000F5000000000000F5F5F500F500F5F5F5000000000000F500000000F500000000000000002D0000000000000000000000002D0000000000
310
0000000000000000F5F5F500000000000000000028000000000000000000F5F5F5000000000000000000000000002D000000000000002D2D0000000000000000000000000000000000000000000000000000000000000000000000000000000000000000000000000000000000000000000000000000000000000000000000
310
0000000000000000000000000000000000002D0000000000F5000000F50000000000000000000000000000000000000000000000F500F500000000002D000000F500F500F5F500000000F5000000000000F5F5F500F500F5F5F5000000000000F500000000F500000000000000002D0000000000000000000000002D000000
310
00000000000000000000F5F5F500000000000000000028000000000000000000F5F5F5000000000000000000000000002D0000000000002D2D2D000000000000000000000000000000000000000000000000000000000000000000000000000000000000000000000000000000000000000000000000000000000000000000
310
000000000000000000000000000000000000002D2D0000000000F5000000F50000000000000000000000000000000000000000000000F500F500000000002D000000F500F500F5F5000000F500000000000000F5F5F5F5F5F5F5F50000000000000000F5000000F500000000000000002D0000000000000000000000002D00
310
000000000000000000000000F500F500000000000000000028000000000000000000F500F5000000000000000000000000002D0000000000002D2D2D00000000000000000000000000000000000000000000000000000000000000000000000000000000000000000000000000000000000000000000000000000000000000
310
0000000000000000000000000000000000000000002D2D0000282828F5282828F52828282828282828282828282828282828282828282828F528F528282828282D282828F528F528F5F5282D2D2D2D2D2D0000000000000000280000000000000000000000F5000000F500000000000000002D000000000000000000000000
310
2D00000000000000000000002D2D2D2DF500000000000000000028000000000000000000F500F5000000000000000000000000002D00000000000000002D0000000000000000000000000000000000000000000000000000000000000000000000000000000000000000000000000000000000000000000000000000000000
310
00000000000000000000000000000000000000000000002D2D0000000000F5000000F50000000000000000000000000000000000000000000000F500F5000000002D2D000000F500F500F5F5002D2DF50000000000000000000000280000000000000000000000F5000000F500000000000000002D00000000000000000000
310
00002D00000000000000000000000000F5002D2D2D2D2D000000000028000000000000000000F500F5000000000000000000000000002D00000000000000002D000000000000000000000000000000000000000000000000000000000000000000000000000000000000000000000000000000000000000000000000000000
310
00000000000000000000000000000000000000000000000000002D0000000000F5000000F50000000000000000000000000000000000000000000000F500F5000000002D2D000000F500F500F5F5002D00F50000000000000000000000280000000000000000000000F5000000F500000000000000002D0000000000000000
310
000000002D000000000000000000000000F5F500F5000000002D2D2D2D2D28000000000000000000F500F5F50000000000000000000000002D00000000000000002D00000000000000000000000000000000000000000000000000000000000000000000000000000000000000000000000000000000000000000000000000
310
000000000000000000000000000000000000000000000000000000002D0000000000F5000000F5000000000000000000000000000000000000000000282828282828282828282D282828282828282828282D00F50000000000000000000000280000000000000000000000F5000000F50000000000002D2D2D000000000000
310
0000000000002D0000000000000000002828F528F528F52828282828282828282D2D2D2D2D2828282828F528F528F528280000000000000000002D00000000000000002D0000000000000000000000000000000000000000000000000000000000000000000000000000000000000000000000000000000000000000000000
310
0000000000000000000000000000000000000000000000000000000000002D0000000000F5000000F50000000000000000000000000000000000000000000000F500F500000000002D000000F500F500F5F5002D0000F5000000000000000000002800000000000000000000F500000000F50000000000002D2D2D00000000
310
00000000000000002D000000000000000000000000F5F500F500000000000000000028002D2D2D2D2D2D0000F500F5F50000000000000000000000002D00000000000000002D000000000000000000000000000000000000000000000000000000000000000000000000000000000000000000000000000000000000000000
310
00000000000000000000000000000000000000000000000000000000000000002D0000000000F5000000F50000000000000000000000000000000000000000000000F500F500000000002D000000F500F500F5F52D2D0000F5000000000000000000F5F5F5000000000000000000F500000000F50000000000002D2D2D0000
310
000000000000000000002D0000000000000000000000F5F5F500F500000000000000000028002D2D2D2D2D000000F500F5F50000000000000000000000002D00000000000000002D00000000000000000000000000000000000000000000000000000000000000000000000000000000000000000000000000000000000000
310
000000000000000000000000000000000000000000000000000000000000000000002D0000000000F5000000F50000000000000000000000000000000000000000000000F500F5000000000000000000F500F500F5F52D2D0000F5000000000000F5F5F50028F5F5F5F5000000000000F500000000F50000000000002D2D2D
310
0000000000000000000000002D0000000000000000000000F5F5F500F5000000000000000000280000002D2D2D000000F500F52D0000000000000000000000002D00000000000000002D0000000000000000000000000000000000000000000000000000000000000000000000000000000000000000000000000000000000
310
0000000000000000000000000000000000000000000000000000000000000000000000002D0000000000F5000000F50000000000000000000000000000000000000000000000F500F5000000000000000000F500F500F5F52D2D0000F50000000000F5F500000028000000F5F50000000000F500000000F500000000000000
310
002D0000000000000000000000002D0000000000000000000000F500F500F500000000000000000028000000000000000000F500F5F50000000000000000000000002D00000000000000002D000000000000000000000000000000000000000000000000000000000000000000000000000000000000000000000000000000
310
00000000000000000000000000000000000000000000000000000000000000000000000000002D00000000002DF5F5F5F5F5F5F528F5F5F5F5F5F5F5F5F5F5F5F5F5F5F5F5F5F5F5F500F5000000000000000000F500F500F5F5002D0000F500000000F5F5000000002800000000F5F5000000F50000000000F50000000000
310
0000002D0000000000000000000000002D0000000000000000000000F500F500F500000000000000000028000000000000000000F500F5F50000000000000000000000002D00000000000000002D00000000000000000000000000000000000000000000000000000000000000000000000000000000000000000000000000
310
000000000000000000000000000000000000000000000000000000000000000000000000000000002D2D000000002D00F500F500000028000000000000000000000000000000000000F5F5F5F5000000000000000000F500F500F5F5002D000000F5000000F50000000000280000000000F5F50000F50000000000F5000000
310
002D0000002D0000000000002D2D2D2D2D2D2DF5F5F5F5F5F5F5F5F5F5F5F500F500F500000000000000000028000000000000000000F500F5F5F5F5F5F5F5F5F5F5F5F5F5F52D2D2D2D2D2D0000002D0000000000000000000000000000000000000000000000000000000000000000000000000000000000000000000000
310
0000000000000000000000000000000000000000000000000000000000000000000000000000000000002D2D2D2D2D2D2D2DF5F5F5F5F5F5F5F5F5F5F5F52D2D2D2D2D2DF5F5F5F5F5F5F5F5F5F52DF5F5F5F5F5F5F5F5F5F500F500F5F5002D000000F50000F5000000000000F5F50000000000F50000F50000000000F500
310
0000002D0000002D0000000000002D2D00000000F50000000000000000000000F500F500F500000000000000000028000000000000000000F500F5F5F50000000000000000000000F5000000002D0000002D000000000000000000000000000000000000000000000000000000000000000000000000000000000000000000
310
00000000000000000000000000000000000000000000000000000000000000000000000000000000000000000000000000002D00F5F5F5F5F5F5F5F5F5F5F5F5000000002D2D000000000000000000002D000000000000F500F5F500F500F5F5002D2D0000F500F5F500000000F5F52800F500000000F5F500F50000000000
310
F5000000002D0000002D000000000000002D00000000F50000000000000000000000F500F500F500000000000000000028000000000000000000F500F5F5F50000000000000000000000F5000000002D0000002D00000000000000000000000000000000000000000000000000000000000000000000000000000000000000
310
000000000000000000000000000000000000000000000000000000000000000000000000000000000000000000000000000000002D00F500000000002800000000F5000000002D00000000000000000000002D00000000000000F500F500F500F5F5002D2D0000F500F5F500000000F5002800F5F52D2D2D2D2D2D2D2D2D2D
310
2D2D2D2D2D2D2D2D0000002D000000000000002D00000000F5F5F5F5F5F5F5F5F5F50000F500F500F500000000000000000028000000000000000000F500F5F5F500F5F5F5F5F5F5F5F5F5F5F5000000002D0000002D0000000000000000000000000000000000000000000000000000000000000000000000000000000000
310
0000000000000000000000000000000000000000000000000000000000000000000000000000000000000000000000000000000000002D00F5F5F5F5F5F5F5F5F5F5F5F50000002D2D00000000000000000000002D0000000000000000F5F500F500F500002D2D2D2828F5F52828282DF528282828F528F5282828F5F52828
310
28000000F5000000002D0000002D000000000000002D00282828F52828282828282828F5282DF528F528F528282828282828282828282828282828282828F528F5F5F52DF5282828282828282828F5282D2D2D2D2D2D2D2D000000000000000000000000000000000000000000000000000000000000000000000000000000
310
000000000000000000000000000000000000000000000000000000000000000000000000000000000000000000000000000000002D2D2D2D2D2DF500000000002800000000F50000002D2D00000000000000000000002D000000000000000000F500F500F500000000000000F5F50000002D00F5002800F5F52D2D2D2D2D2D
310
2D2D2D2D2D2D2D2D2D2D2D2D0000002D000000000000002D00000000F5F5F5F5F5F5F5F5F5F5002DF5000000F500000000000000000028000000000000000000F50000F5F52DF5F5F5F5F5F5F5F5F5F5F5000000002D0000000000000000000000000000000000000000000000000000000000000000000000000000000000
310
00000000000000000000000000000000000000000000000000000000000000000000000000000000000000000000000000000000002D2D2D00002D00F500000000002800000000F50000002D2D00000000000000000000002D000000000000000000F500F500F500000000000000F5F50000002D00F5F52800F5002D000000
310
F5F5000000000000F5000000002D0000002D0000000000002D2D00000000F5000000000000000000002DF5000000F500000000000000000028000000000000000000F50000F5F52D00000000000000000000F5000000002D000000000000000000000000000000000000000000000000000000000000000000000000000000
310
000000000000000000000000000000000000000000000000000000000000000000000000000000000000000000000000000000000000002D2D2D000028282828282828282828282828282828002D2D00000000000000000000002D0000000000000000F5F5F5F500F50000000000000000F5F500002D000000F5F500002D00
310
00F500F5000000000000F5000000002D0000002D0000000000002D2D2D2D2D2D2DF5F5F5F5F5F5F5F5F5F52D2D000000F500000000000000000028000000000000000000F50000F52D2DF5F5F5F5F5F5F5F5F5F52D2D2D2D2D2D00000000000000000000000000000000000000000000000000000000000000000000000000
310
0000000000000000000000000000000000000000000000000000000000000000000000000000000000000000000000000000000000000000002D2D2D00002D00F500000000002800000000F50000002D2D00000000000000000000002D000000000000000000F5F52DF5F50000000000000000F500F5002D00000028000000
310
2D0000F5F500000000000000F500002D2D2D0000002D000000000000002D000000002D000000000000000000002D2D000000F500000000000000000028000000000000000000F50000F52D2D000000000000000000002D000000002D0000000000000000000000000000000000000000000000000000000000000000000000
310
0000000000000000000000000000000000000000000000000000000000000000000000000000000000000000000000000000000000000000000000002D2D2D2D2D2DF500000000002800000000F5000000002D00000000000000000000002D00000000000000000000002D00F5000000000000000000F5F5002D0000002800
310
00002D00F500F500000000000000F500002D2D2D0000002D00000000002D2D2D000000002D000000000000000000002D2D000000F500000000000000000028000000000000000000F50000F52D2D000000000000000000002D00002D2D2D000000000000000000000000000000000000000000000000000000000000000000
310
0000000000000000000000000000000000000000000000000000000000000000000000000000000000000000000000000000000000000000000000000000000000002D00F5F5F5000000280000F5F5F5000000002D2D000000000000000000002D00000000000000000000002D00F5F50000000000000000F500F52D000000
310
280000002DF500F500000000000000002D000000002D0000002D00000000002D2D2D000000002D000000000000000000002D2D000000F500000000000000000028000000000000000000F50000F52D2D000000000000000000002D00002D2D2D00000000000000000000000000000000000000000000000000000000000000
310
00000000000000000000000000000000000000000000000000000000000000000000000000000000000000000000000000000000000000000000000000000000000000002DF5F5F5F5F5F5F5F5F5F5F5F5F5F52D2D2D2D2D000000000000000000002D00000000000000000000002D0000F5000000000000000000F5F52DF5
310
00002800F5F52DF5F50000000000000000002D00000000000000002D00000000002D2D2D000000002D000000000000000000002D2D000000F5F5F5F5F5F5F5F5F5F528F5F5F5F5F5F5F5F5F5F50000F52D2D000000000000000000002D00002D2D2D0000000000000000000000000000000000000000000000000000000000
310
000000000000000000000000000000000000000000000000000000000000000000000000000000000000000000000000000000000000000000000000000000000000000000002D00F5F50000000028000000F5F5000000000000000000000000000000002D00000000000000000000002D000000F5F5000000000000000000
310
2DF5F5F5F5F500F52D000000000000000000F5F52D00000000000000002D00000000002D2D2D000000002D000000000000000000002D2DF50000F500000000000000000028000000000000000000F500F5002D2D000000000000000000002D00002D2D2D000000000000000000000000000000000000000000000000000000
310
0000000000000000000000000000000000000000000000000000000000000000000000000000000000000000000000000000000000000000000000000000000000000000000000002D002D000000000028000000002D000000000000000000000000000000002D00000000000000000000002D0000000000F5000000000000
310
00002D00F5F5F5F5F5002D0000000000000000F500002D00000000000000002D00000000002D2D2D000000002D000000000000000000002D2D00F5F5F500000000000000000028000000000000000000F5F500002D2D000000000000000000002D00002D2D2D00000000000000000000000000000000000000000000000000
310
00000000000000000000000000000000000000000000000000000000000000000000000000000000000000000000000000000000000000000000000000000000000000000000000000002D002D000000000000000000002D000000000000000000000000000000002D00000000000000000000002D000000000000F5F50000
310
000000002D000000280000002D000000000000F5F50000002D00000000000000002D00000000002D2D2D000000002D000000000000000000002D2D000000F500000000000000000028000000000000000000F50000002D2D000000000000000000002D00002D2D2D0000000000000000000000000000000000000000000000
310
000000000000000000000000000000000000000000000000000000000000000000000000000000000000000000000000000000000000000000000000000000000000000000000000000000002D002D000000000000000000002D000000000000000000000000000000002D00000000000000000000002D0000000000000000
310
F500000000002D000000280000002D0000000000F500000000002D00000000000000002D0000000000000000000000002D000000000000000000002D2D000000F500000000000000000028000000000000000000F50000002D2D000000000000000000002D0000000000000000000000000000000000000000000000000000
310
0000000000000000000000000000000000000000000000000000000000000000000000000000000000000000000000000000000000000000000000000000000000000000000000000000000000002D002D000000000000000000002D000000000000000000000000000000002D00000000000000000000002D000000000000
310
000000F5F50000002D000000280000002D000000F5F50000000000002D00000000000000002D0000000000000000000000002D000000000000000000002D2D000000F5F50000000000000000280000000000000000F5F50000002D2D000000000000000000002D000000000000000000000000000000000000000000000000
310
00000000000000000000000000000000000000000000000000000000000000000000000000000000000000000000000000000000000000000000000000000000000000000000000000000000000000002D002D000000000000000000002D000000000000000000000000000000002D00000000000000000000002D00000000
310
00000000000000F5F5002D000000280000002D00F5F500000000000000002D00000000000000002D0000000000000000000000002D2D000000000000002D002D2D000000F5F5F5F5F5F5000000002800000000F5F5F5F5F5F50000002D2D2D00000000000000002D2D00000000000000000000000000000000000000000000
310
000000000000000000000000000000000000000000000000000000000000000000000000000000000000000000000000000000000000000000000000000000000000000000000000000000000000000000002D002D000000000000000000002D000000000000000000000000000000002D00000000000000000000002D0000
310
00000000000000000000F5F52DF5F5F5F5F5F5F52DF52D2D2D2D2D2D2D2D2D2D2D2D2D2D2D2D2D2D2D2D0000000000000000000000002D2D2D2D2D2D2D2D2D2D2D2D2D00000000F500000000F5F5F5F5F5F5F5F5F500000000F5000000002D2D2D2D2D2D2D2D2D2D2D2D2D0000000000000000000000000000000000000000
310
0000000000000000000000000000000000000000000000000000000000000000000000000000000000000000000000000000000000000000000000000000000000000000000000000000000000000000000000002D002D000000000000000000002D000000000000000000000000000000002D00000000000000000000002D
310
00000000000000000000000000002D000000280000002D00000000000000000000002D0000000000000000000000000000000000000000002D0000002D2D2D00000000002D0000000000000000000000000028000000000000000000000000002D00000000002D2D000000002D000000000000000000000000000000000000
310
00000000000000000000000000000000000000000000000000000000000000000000000000000000000000000000000000000000000000000000000000000000000000000000000000000000000000000000000000002D002D000000000000000000002D000000000000000000000000000000002D00000000000000000000
310
002D00000000000000000000000000002D0000002D0000002D00000000000000000000002D0000000000000000000000000000000000000000002D00000000000000000000002D000000000000000000000000002D000000000000000000000000002D00000000000000000000002D00000000000000000000000000000000
310
0000000000000000000000000000000000000000000000000000000000000000000000000000000000000000000000000000000000000000000000000000000000000000000000000000000000000000002D2D2D2D2D2D2D2D2D2D2D2D2D2D2D2D2D2D2D2D2D000000000000000000000000000000002D0000000000000000
310
0000002D00000000000000000000000000002D2D2D2D2D2D2D2D2D00000000000000000000002D0000000000000000000000000000000000000000002D2D2D2D2D2D2D2D2D2D2D2D2D000000000000000000000000002D000000000000000000000000002D2D2D2D2D2D2D2D2D2D2D2D2D0000000000000000000000000000
310
0000000000000000000000000000000000000000000000000000000000000000000000000000000000000000000000000000000000000000000000000000000000000000000000000000000000000000000000002D2D2D2D2D2D2D002D2D00002D2D2D2D00002D2D000000000000000000000000000000002D000000000000
310
00000000002D00000000000000000000000000002D2D2D002D2D2D2D2D00000000000000000000002D0000000000000000000000000000000000000000002D2D0000002D2D2D00002D2D2D000000000000000000000000002D000000000000000000000000002D2D0000002D2D2D0000002D2D000000000000000000000000
310
00000000000000000000000000000000000000000000000000000000000000000000000000000000000000000000000000000000000000000000000000000000000000000000000000000000000000000000000000002D2D2D2D00002D00000000002D2D2D2D00000000000000000000000000000000000000002D00000000
310
000000000000002D0000000000000000000000000000000000002D2D2D2D0000000000000000000000002D0000000000000000000000000000000000000000002D000000002D2D2D0000000000000000000000000000000000002D0000000000000000000000000000000000002D2D2D000000002D00000000000000000000
310
000000000000000000000000000000000000000000000000000000000000000000000000000000000000000000000000000000000000000000000000000000000000000000000000000000000000000000000000000000000000000000002D00000000000000000000000000000000000000000000000000000000002D0000
310
0000000000000000002D0000000000000000000000000000000000002D0000000000000000000000000000002D0000000000000000000000000000000000000000002D000000000000000000000000000000000000000000000000002D000000000000000000000000000000000000000000000000002D0000000000000000
310
0000000000000000000000000000000000000000000000000000000000000000000000000000000000000000000000000000000000000000000000000000000000000000000000000000000000000000000000000000000000000000000000002D2D2D2D2D2D2D2D2D2D2D2D2D2D2D2D2D2D2D2D2D2D2D2D2D2D2D2D2D2D2D
310
2D2D2D2D2D2D2D2D2D2D2D2D2D2D2D2D2D2D2D2D2D2D2D2D2D2D2D2D2D2D2D2D2D2D2D2D2D2D2D2D2D2D2D2D2D2D2D0000000000000000000000000000000000000000002D2D2D2D2D2D2D2D2D2D2D2D2D2D2D2D2D2D2D2D2D2D2D2D2D2D2D2D2D2D2D2D2D2D2D2D2D2D2D2D2D2D2D2D2D2D2D2D2D2D2D2D2D000000000000
310
00000000000000000000000000000000000000000000000000000000000000000000000000000000000000000000000000000000000000000000000000000000000000000000000000000000000000000000000000000000000000000000000000002D2D00000000000000000000002D2D2D2D2D0000000000000000000000
310
2D2D2D00002D2D2D2D2D00002D2D2D0000000000002D2D2D000000000000002D2D2D0000000000002D2D00000000002D2D0000000000000000000000000000000000000000002D2D000000000000000000002D2D2D000000000000000000002D2D2D000000000000000000002D2D2D000000000000000000002D2D00000000
310
000000000000000000000000000000000000000000000000000000000000000000000000000000000000000000000000000000000000000000000000000000000000000000000000000000000000000000000000000000000000000000000000000000002D0000000000000000000000002D2D2D2D2D000000000000000000
310
000000000000002D2D2D2D2D00000000000000000000002D2D2D0000000000000000000000000000002D2D2D0000000000002D0000000000000000000000000000000000000000002D000000000000000000002D2D2D2D000000000000000000000000000000000000000000002D2D2D2D00000000000000000000002D0000
310
0000000000000000000000000000000000000000000000000000000000000000000000000000000000000000000000000000000000000000000000000000000000000000000000000000000000000000000000000000000000000000000000000000000000002D000000000000000000000000000000000000000000000000
310
000000000000000000000000000000000000000000000000000000000000000000000000000000000000000000000000000000002D0000000000000000000000000000000000000000002D0000000000000000000000000000000000000000000000000000000000000000000000000000000000000000000000000000002D
310
00000000000000000000000000000000000000000000000000000000000000000000000000000000000000000000000000000000000000000000000000000000000000000000000000000000000000000000000000000000000000000000000000000000000000002D2D2D2D2D2D2D2D2D2D2D2D2D2D2D2D2D2D2D2D2D2D2D
310
2D2D2D2D2D2D2D2D2D2D2D2D2D2D2D2D2D2D2D2D2D2D2D2D2D2D2D2D2D2D2D2D2D2D2D2D2D2D2D2D2D2D2D2D2D2D2D2D2D2D2D2D2D2D2D0000000000000000000000000000000000000000002D2D2D2D2D2D2D2D2D2D2D2D2D2D2D2D2D2D2D2D2D2D2D2D2D2D2D2D2D2D2D2D2D2D2D2D2D2D2D2D2D2D2D2D2D2D2D2D2D2D2D
310
2D2D00000000000000000000000000000000000000000000000000000000000000000000000000000000000000000000000000000000000000000000000000000000000000000000000000000000000000000000000000000000000000000000000000000000000000002D0000000000000000000000000000000000000000
310
000000000000000000000000000000002D2D2D2D0000000000000000000000000000000000000000000000000000000000000000000000002D0000000000000000000000000000000000000000002D00000000000000000000000000000000000000000000002D2D2D2D000000000000000000000000000000000000000000
310
0000002D000000000000000000000000000000000000000000000000000000000000000000000000000000000000000000000000000000000000000000000000000000000000000000000000000000000000000000000000000000000000000000000000000000000000000000000000000000000000000000000000000000
310
0000000000000000000000000000000000002D2D2D2D000000000000000000000000000000000000000000000000000000000000000000000000000000000000000000000000000000000000000000000000000000000000000000000000000000000000000000002D2D2D2D00000000000000000000000000000000000000
310
00000000000000000000000000000000000000000000000000000000000000000000000000000000000000000000000000000000000000000000000000000000000000000000000000000000000000000000000000000000000000000000000000000000000000000000000000000000000000000000000000000000000000
310
00000000000000000000000000000000000000000000000000000000000000000000000000000000000000000000000000000000000000000000000000000000000000000000000000000000000000000000000000000000000000000000000000000000000000000000000000000000000000000000000000000000000000
310
00000000000000000000000000000000000000000000000000000000000000000000000000000000000000000000000000000000000000000000000000000000000000000000000000000000000000000000000000000000000000000000000000000000000000000000000000000000000000000000000000000000000000
310
00000000000000000000000000000000000000000000000000000000000000000000000000000000000000000000000000000000000000000000000000000000000000000000000000000000000000000000000000000000000000000000000000000000000000000000000000000000000000000000000000000000000000
310
00000000000000000000000000000000000000000000000000000000000000000000000000000000000000000000000000000000000000000000000000000000000000000000000000000000000000000000000000000000000000000000000000000000000000000000000000000000000000000000000000000000000000
310
00000000000000000000000000000000000000000000000000000000000000000000000000000000000000000000000000000000000000000000000000000000000000000000000000000000000000000000000000000000000000000000000000000000000000000000000000000000000000000000000000000000000000
310
00000000000000000000000000000000000000000000000000000000000000000000000000000000000000000000000000000000000000000000000000000000000000000000000000000000000000000000000000000000000000000000000000000000000000000000000000000000000000000000000000000000000000
310
00000000000000000000000000000000000000000000000000000000000000000000000000000000000000000000000000000000000000000000000000000000000000000000000000000000000000000000000000000000000000000000000000000000000000000000000000000000000000000000000000000000000000
310
00000000000000000000000000000000000000000000000000000000000000000000000000000000000000000000000000000000000000000000000000000000000000000000000000000000000000000000000000000000000000000000000000000000000000000000000000000000000000000000000000000000000000
310
00000000000000000000000000000000000000000000000000000000000000000000000000000000000000000000000000000000000000000000000000000000000000000000000000000000000000000000000000000000000000000000000000000000000000000000000000000000000000000000000000000000000000
310
00000000000000000000000000000000000000000000000000000000000000000000000000000000000000000000000000000000000000000000000000000000000000000000000000000000000000000000000000000000000000000000000000000000000000000000000000000000000000000000000000000000000000
310
00000000000000000000000000000000000000000000000000000000000000000000000000000000000000000000000000000000000028000000000000000000000000000000000000000000000000000000000000000000000000000000000000000000000000000000000000000000000000000000000000000000000000
310
00000000000000000000000000000000000000000000000000000000000000000000000000000000000000000000000000000000000000000000000000000000000000000000000000000000000000000000000000000000000000000000000000000000000000000000000000000000000000000000000000000000000000
310
00000000000000000000000000000000000000000000000000000000000000000000000000000000000000000000000000000000000000002800000000000000000000000000000000000000000000000000000000000000000000000000000000000000000000000000000000000000000000000000000000000000000000
310
00000000000000000000000000000000000000000000000000000000000000000000000000000000000000000000000000000000000000000000000000000000000000000000000000000000000000000000000000000000000000000000000000000000000000000000000000000000000000000000000000000000000000
310
00000000000000000000000000000000000000000000000000000000000000000000000000000000000000000000000000000000000000000000280000000000000000000000000000000000000000000000000000000000000000000000000000000000000000000000000000000000000000000000000000000000000000
310
00000000000000000000000000000000000000000000000000000000000000000000000000000000000000000000000000000000000000000000000000000000000000000000000000000000000000000000000000000000000000000000000000000000000000000000000000000000000000000000000000000000000000
310
0000000000000000000000000000000000000000000000000000000000000000000000000000000000000000000000000000000000000000F5F5F5F5F5F5F5F5F50000000000000000000000000000000000000000000000000000000000000000000000000000000000000000000000000000000000000000000000000000
310
00000000000000000000000000000000000000000000000000000000000000000000000000000000000000000000000000000000000000000000000000000000000000000000000000000000000000000000000000000000000000000000000000000000000000000000000000000000000000000000000000000000000000
310
00000000000000000000000000000000000000000000000000000000000000000000000000000000000000000000000000000000000000000000F5000000280000F5F5000000000000000000000000000000000000000000000000000000000000000000000000000000000000000000000000000000000000000000000000
310
00000000000000000000000000000000000000000000000000000000000000000000000000000000000000000000000000000000000000000000000000000000000000000000000000000000000000000000000000000000000000000000000000000000000000000000000000000000000000000000000000000000000000
310
000000000000000000000000000000000000000000000000000000000000000000000000000000000000000000000000000000000000000000000000F5000000280000F5F500000000000000000000000000000000000000000000000000000000000000000000000000000000000000000000000000000000000000000000
310
00000000000000000000000000000000000000000000000000000000000000000000000000000000000000000000000000000000000000000000000000000000000000000000000000000000000000000000000000000000000000000000000000000000000000000000000000000000000000000000000000000000000000
310
0000000000000000000000000000000000000000000000000000000000000000000000000000000000000000000000000000000000000000000000000000F5000000280000F5F50000000000000000000000000000000000000000000000000000000000000000000000000000000000000000000000000000000000000000
310
00000000000000000000000000000000000000000000000000000000000000000000000000000000000000000000000000000000000000000000000000000000000000000000000000000000000000000000000000000000000000000000000000000000000000000000000000000000000000000000000000000000000000
310
00000000000000000000000000000000000000000000000000000000000000000000000000000000000000000000000000000000000000000000000000000000F5000000280000F5F50000000000000000000000000000000000000000000000000000000000000000000000002D2D2D2D2D2D2D2D2D2D2D2D2D2D2D002D2D
310
2D2D2D2D2D2D2D2D0000000000000000000000000000000000000000000000000000000000000000000000000000000000000000000000000000000000000000000000000000000000000000000000000000000000000000000000000000000000000000000000000000000000000000000000000000000000000000000000
310
000000000000000000000000000000000000000000000000000000000000000000000000000000000000000000000000000000000000000000000000000000000000F5000000280000F5F50000000000000000000000000000000000000000000000000000000000000000000000002D2D2D2D2D2D2D2D2D2D2D2D2D2D2D2D
310
2D2D2D2D2D2D2D2D2D2D000000000000000000000000000000000000000000000000000000000000000000000000000000000000000000000000000000000000000000000000000000000000000000000000000000000000000000000000000000000000000000000000000000000000000000000000000000000000000000
310
0000000000000000000000000000000000000000000000000000000000000000000000000000000000000000000000000000000000000000000000000000000000000000F5000000280000F5F50000000000000000000000000000000000000000000000000000000000000000000000002D2D2D2D2D2D2D2D2D2D002D2D2D
310
002D2D2D2D2D2D2D2D2D2D0000000000000000000000000000000000000000000000000000000000000000000000000000000000000000000000000000000000000000000000000000000000000000000000000000000000000000000000000000000000000000000000000000000000000000000000000000000000000000
310
00000000000000000000000000000000000000000000000000000000000000000000000000000000000000000000000000000000000000000000000000000000000000000000F5000000280000F5F50000000000000000000000000000000000000000000000000000000000000000000000002D2D2D2D2D2D2D2D002D2D2D
310
2D2D2D2D2D2D2D2D2D2D2D2D2D000000000000000000000000000000000000000000000000000000000000000000000000000000000000000000000000000000000000000000000000000000000000000000000000000000000000000000000000000000000000000000000000000000000000000000000000000000000000
310
000000000000000000000000000000000000000000000000000000000000000000000000000000000000000000000000000000000000000000000000000000000000000000000000F5000000280000F5F50000000000000000000000000000000000000000000000000000000000000000000000002D2D2D2D2D2D2D2D2D2D
310
2D2D2D2D002D2D2D2D2D2D2D2D2D2D00000000000000000000000000000000000000000000000000000000000000000000000000000000000000000000000000000000000000000000000000000000000000000000000000000000000000000000000000000000000000000000000000000000000000000000000000000000
310
0000000000000000000000000000000000000000000000000000000000000000000000000000000000000000000000000000000000000000000000000000000000F5F5F5F5F5F5F5F5F5F5000000280000F5F5F5F5F5F5F5F5F5F5F50000000000000000000000000000000000000000000000000000002D2D2D2D2D2D2D2D
310
2D2D2D2D2D2D2D2D2D2D2D2D2D2D2D2D2D2D2D000000000000000000000000000000000000000000000000000000000000000000000000000000000000000000000000000000000000000000000000000000000000000000000000000000000000000000000000000000000000000000000000000000000000000000000000
310
000000000000000000000000000000000000000000000000000000000000000000000000000000000000000000000000000000000000000000000000000000000000F5F50000280000000000F5000000280000F5F50000000000280000F5F500000000000000000000000000000000000000000000000000002D2D2D2D2D2D
310
2D2D2D2D2D2D2D2D002D2D2D2D2D2D2D2D2D2D2D2D00000000000000000000000000000000000000000000000000000000000000000000000000000000000000000000000000000000000000000000000000000000000000000000000000000000000000000000000000000000000000000000000000000000000000000000
310
00000000000000000000000000000000000000000000000000000000000000000000000000000000000000000000000000000000000000000000000000F5000000000000F50000F528F500000000F5F5F5F5F5F5F5F5F500000000F528F50000F500000000000000000000000000000000000000000000000000002D2D2D2D
310
2D2D2D2D2D2D002D2D2D002D2D2D2D2D2D2D2D2D2D00000000000000000000000000000000000000000000000000000000000000000000000000000000000000000000000000000000000000000000000000000000000000000000000000000000000000000000000000000000000000000000000000000000000000000000
310
0000000000000000000000000000000000000000000000000000000000000000000000000000000000000000000000000000000000000000000000000000F5F5F5F5F50000F500282828282828F5F5F5F5F5F5F5F5F5F5F5F5F5F5F528282828282800F5000000000000000000000000000000000000000000000000002D2D
310
002D2D2D2D2D002D2D2D2D2D2D2D2D2D2D2D2D2D2D2D2D0000000000000000000000000000000000000000000000000000000000000000000000000000000000000000000000000000000000000000000000000000000000000000000000000000000000000000000000000000000000000000000000000000000000000000
310
0000000000000000000000000000000000000000000000000000000000000000000000000000000000000000000000000000000000000000000000000000000000F500F5F50000F5000000F528F50000000000000000280000000000000000F528F5000000F500000000000000000000000000000000000000000000000000
310
2D2D2D2D2D2D2D2D2D2D002D2D2D002D2D2D2D2D2D2D2D2D2D000000000000000000000000000000000000000000000000000000000000000000000000000000000000000000000000000000000000000000000000000000000000000000000000000000000000000000000000000000000000000000000000000000000000
310
000000000000000000000000000000000000000000000000000000000000000000000000000000000000000000000000000000000000000000000000000000F5F5F5F5F500F500F500F50000F5F528F50000000000000000280000000000000000F528F5F50000F50000000000000000000000000000000000000000000000
310
00002D2D2D2D2D2D2D2D002D2D2D2D2D2D2D2D2D2D2D2D2D2D2D2D000000000000002D2D2D2D2D2D2D2D2D2D2D2D2D2D002D2D2D2D2D2D2D2D2D2D0000000000000000000000000000000000000000000000000000000000000000000000000000000000000000000000000000000000000000000000000000000000000000
310
000000000000000000000000000000000000000000000000000000000000000000000000000000000000000000000000000000000000000000F500F5F5F5F5F5F5F5F5F5F5F500F500F5F5000000F50028000000000000000000280000000000000000002800F5000000F50000000000000000000000000000000000000000
310
000000002D2D2D2D2D2D2D2D2D2D2D2D2D2D002D2D2D2D2D2D2D2D2D2D000000000000002D2D2D2D2D2D2D2D2D2D2D2D2D2D2D2D2D2D2D2D2D2D2D2D2D000000000000000000000000000000000000000000000000000000000000000000000000000000000000000000000000000000000000000000000000000000000000
310
00000000000000000000000000000000000000000000000000000000000000F5F5F5F5F5F5F5F5F5F5F5F5F5F5F5F5F5F5F5F5F5F5F5F5F5F5F5F5F5F5F5F5F5F5F500000000F5F500F500F5F5F5F5F5F5F5F5F5F5F5F5F5F5F5F5F528F5F5F5F5F5F5F5F5F5F5F5F5F5F5F5F5F50000000000000000000000000000000000
310
0000000000002D2D2D2D2D2D2D2D2D2D2D2D2D2D2D2D2D2D2D2D2D2D2D2D2D2D2D00000000002D2D2D2D2D2D2D2D2D002D2D2D2D002D2D2D2D2D2D2D2D2D2D2D2D0000000000000000000000000000000000000000000000000000000000000000000000000000000000000000000000000000000000000000000000000000
310
000000000000000000000000000000000000000000000000000000000000000000F500F500F50000000000000000000000000000000000000000000000F500F5000000000000000000F500F50000F5000000000000000000F50000000000280000000000F5000000000000000000F500000000000000000000000000000000
310
00000000000000002D2D2D2D2D2D2D2D2D2D2D2D2D2D002D2D2D2D2D2D2D2D2D2D2D2D00000000002D2D2D2D2D2D2D2D2D2D2D2D2D2D2D2D2D2D2D2D2D2D2D2D2D002D000000000000000000000000000000000000000000000000000000000000000000000000000000000000000000000000000000000000000000000000
310
0000000000000000000000000000000000000000000000000000000000000000000000F5F50000F50000002800000000000000000000000000000000000000F500F5000000000000000000F500F50000F5000000000000000000F50000000000280000000000F5000000000000000000F50000000000000000000000000000
310
000000000000000000002D2D2D2D2D2D2D2D2D2D2D2D2D2D002D2D2D2D2D2D2D2D2D2D000000000000002D2D2D2D2D2D2D2D2D002D2D2D2D002D2D2D2D2D2D2D2D2D2D2D2D00000000000000000000000000000000000000000000000000000000000000000000000000000000000000000000000000000000000000000000
310
00000000000000000000000000000000000000000000000000000000000000000000000000F5F5F5F5F5F5F5F528F5F5F5F5F5F5F5F5F5F5F5F5F5F5F5F5F5F5F5F500F5000000000000000000F500F50000F5000000000000000000F50000000000280000000000F5000000000000000000F5000000000000000000000000
310
0000000000000000000000002D2D2D2D2D2D2D2D2D2D2D2D2D2D2D2D2D2D2D2D2D2D2D2D2D000000000000002D2D2D2D2D2D2D2D2D2D2D2D2D2D2D2D2D2D2D2D2D2D2D2D2D00000000000000000000000000000000000000000000000000000000000000000000000000000000000000000000000000000000000000000000
310
000000000000000000000000000000000000000000000000000000000000000000000000000000F5F5F5F5F5F5F5F528F5F5F5F5F5F5000000000000000000000000000000F50000000000000000F5F500F50000F5000000000000000000F50000000000280000000000F5000000000000000000F500000000000000000000
310
000000000000000000000000000000000000000000000000000000000000000000000000000000000000000000002D2D2D2D2D2D2D2D2D002D2D2D2D002D2D2D2D2D2D2D2D2D2D0000000000000000000000000000000000000000000000000000000000000000000000000000000000000000000000000000000000000000
310
0000000000000000000000000000000000000000000000000000000000000000000000000000000000F5F5F5F5F5000000280000F5F5F5F5000000000000000000000000000000F500000000000000F500F500F500F500000000000000000000F50000000000280000000000F5000000000000000000F50000000000000000
310
00000000000000000000000000000000000000000000000000000000000000000000000000000000000000000000000000000000000000000000000000000000000000000000000000000000000000000000000000000000000000000000000000000000000000000000000000000000000000000000000000000000000000
310
00000000000000000000000000000000000000000000000000000000000000000000000000000000000000F500F5F50000000028000000F5F500000000000000000000000000000000F500000000000000F500F500F500F500000000000000000000F50000000000280000000000F5000000000000000000F5000000000000
310
0000000000000000000000000000000000002D2D2D2D2D2D2D2D2D2D2D2D2D2D2D2D2D2D2D2D2D2D2D2D2D2D2D2D2D0000000000000000000000000000000000000000000000000000000000000000000000000000000000000000000000000000000000000000000000000000000000000000000000000000000000000000
310
000000000000000000000000000000000000000000000000000000000000000000000000000000000000000000F500F5F5000000002800000000F500000000000000000000000000000000F500000000000000F500F500F500F500000000000000000000F50000000000280000000000F5000000000000000000F500000000
310
00000000000000000000000000000000000000002D2D2D2D002D2D2D2D002D2D2D2D2D002D2D2D2D2D002D2D2D2D2D2D2D000000000000000000000000000000000000000000000000000000000000000000000000000000000000000000000000000000000000000000000000000000000000000000000000000000000000
310
0000000000000000000000000000000000000000000000000000000000000000000000000000000000000000000000F500F5F5000000002800000000F500000000000000000000000000000000F500000000000000F500F500F500F500000000000000000000F50000000000280000000000F5000000000000000000F50000
310
000000000000000000000000000000000000000000002D2D2D2D002D2D2D2D002D2D2D2D2D2D2D2D2D2D2D002D2D2D2D2D000000000000000000000000000000000000000000000000000000000000000000000000000000000000000000000000000000000000000000000000000000000000000000000000000000000000
310
00000000000000000000000000000000000000000000000000000000000000000000000000000000000000000000282828F528F5F5282828282828282828F528282828282828282828282828282828F528282800282828F528F528F528F528282828282828282828F52828282828280028282828F5282828282828282828F5
310
2828280000000000000000000000000000000000000000002D2D2D2D2D2D2D2D2D2D2D2D2D2D2D2D2D2D2D2D2D2D2D2D2D2D2D00000000000000000000000000000000000000000000000000000000000000000000000000000000000000000000000000000000000000000000000000000000000000000000000000000000
310
000000000000000000000000000000000000000000000000000000000000000000000000000000000000000000000000000000F500F5F5000000002800000000F500000000000000000000000000000000F500000000000000F500F500F500F500000000000000000000F50000000000280000000000F50000000000000000
310
00F50000000000000000000000000000000000000000000000002D2D2D2D002D2D2D2D002D2D2D2D002D2D2D2D002D2D2D2D2D00000000000000000000000000000000000000000000000000000000000000000000000000000000000000000000000000000000000000000000000000000000000000000000000000000000
310
0000000000000000000000000000000000000000000000000000000000000000000000000000000000000000000000000000000000F500F5F5000000002800000000F500000000000000000000000000000000F500000000000000F500F500F500F500000000000000000000F50000000000280000000000F5000000000000
310
000000F50000000000000000000000000000000000000000000000002D2D2D2D2D2D2D2D2D2D2D2D2D2D2D2D2D2D2D2D2D2D2D2D2D0000000000000000000000000000000000000000000000000000000000000000000000000000000000000000000000000000000000000000000000000000000000000000000000000000
310
00000000000000000000000000000000000000000000000000000000000000000000000000000000000000000000000000000000000000F500F5F5000000002800000000F500000000000000000000000000000000F500000000000000F500F500F500F500000000000000000000F50000000000280000000000F500000000
310
0000000000F50000000000000000000000000000000000000000000000002D2D2D2D002D2D2D2D002D2D2D2D002D2D2D2D002D2D2D2D2D000000000000000000000000000000000000000000000000000000000000000000000000000000000000000000000000000000000000000000000000000000000000000000000000
310
000000000000000000000000000000000000000000000000000000000000000000000000000000000000000000000000000000000000000000F500F5F50000000028000000F5F500000000000000000000000000000000F500000000000000F500F500F500F500000000000000000000F50000000000280000000000F50000
310
00000000000000F50000000000000000000000000000000000000000000000002D2D2D2D2D2D2D2D2D2D2D2D2D2D2D2D2D2D2D2D2D2D2D2D2D2D2D2D2D000000000000000000000000000000000000000000000000000000000000000000000000000000000000000000000000000000000000000000000000000000000000
310
0000000000000000000000000000000000000000000000000000000000000000000000000000000000000000000000000000000000000000000000F5F5F5F5F5F5F5F528F5F5F5F5F5F5000000000000000000000000000000F500000000000000F500F500F500F500000000000000000000F50000000000280000000000F5
310
000000000000000000F50000000000000000000000000000000000000000000000002D2D2D2D002D2D2D2D002D2D2D2D2D2D2D2D2D2D2D002D2D2D2D2D2D2D00000000000000000000000000000000000000000000000000000000000000000000000000000000000000000000000000000000000000000000000000000000
310
00000000000000000000000000000000000000000000000000000000000000000000000000000000000000000000000000000000000000000000000000F5F5F5F5F5F5F5F528F5F5F5F5F5F5000000000000000000000000000000F500000000000000F5F5F500F50000F5000000000000000000F500000000002800000000
310
00F5000000000000000000F50000000000000000000000000000000000000000000000002D2D2D2D002D2D2D2D002D2D2D2D2D002D2D2D2D2D002D2D2D2D2D00000000000000000000000000000000000000000000000000000000000000000000000000000000000000000000000000000000000000000000000000000000
310
000000000000000000000000000000000000000000000000000000000000000000000000000000000000000000000000000000000000000000000000000000F5F5F5F5F5F5F5F528F5F5F5F5F5F5F5F5F5F5F5F5F5F5F5F5F5F5F5F500F5000000000000000000F500F50000F5000000000000000000F50000000000280000
310
000000F5000000000000000000F50000000000000000000000000000000000000000000000002D2D2D2D2D2D2D2D2D2D2D2D2D2D2D2D2D2D2D2D2D2D2D2D2D2D2D0000000000000000000000000000000000000000000000000000000000000000000000000000000000000000000000000000000000000000000000000000
310
0000000000000000000000000000000000000000000000000000000000000000000000000000000000000000000000000000000000000000000000000000000000F5F50000F50000002800000000000000000000000000000000000000F500F5000000000000000000F500F50000F5000000000000000000F5000000000028
310
0000000000F5000000000000000000F50000000000000000000000000000000000000000000000002D2D2D2D002D2D2D2D002D2D2D2D2D002D2D2D2D2D002D2D2D2D2D000000000000000000000000000000000000000000000000000000000000000000000000000000000000000000000000000000000000000000000000
310
00000000000000000000000000000000000000000000000000000000000000000000000000000000000000000000000000000000000000000000000000000000000000F500F500F50000000000000000000000000000000000000000000000F500F5000000000000000000F500F500F5F5F50000000000000000F500000000
310
00280000000000F50000000000000000F5F5F500000000000000000000000000000000000000000000002D2D2D2D2D2D2D2D2D2D2D2D2D2D2D2D2D2D2D2D2D2D2D2D2D2D2D2D2D0000000000000000000000000000000000000000000000000000000000000000000000000000000000000000000000000000000000000000
310
000000000000000000000000000000000000000000000000000000000000000000000000000000000000000000000000000000000000000000000000000000000000000000F5F5F5F5F5F5F5F5F5F5F5F5F5F5F5F5F5F5F5F5F5F5F5F5F5F5F5F5F5F5F5F5F5F5F5F5F5F5F5F5F500F50000F5F5F5F5F5F5F5F5F5F5F5F5F5
310
F5F5F528F5F5F5F5F5F5F5F5F5F5F5F5F5F5F5F50000000000000000000000000000000000000000000000002D2D2D2D002D2D2D2D002D2D2D2D2D002D2D2D2D2D002D2D2D2D2D2D2D000000000000000000000000000000000000000000000000000000000000000000000000000000000000000000000000000000000000
310
000000000000000000000000000000000000000000000000000000000000000000000000000000000000000000000000000000000000000000000000000000000000000000000000000000000000000000000000000000000000000000000000000000F500F5F5F5F5F5F5F5F5F5F5F500F500F5F5000000F5002800000000
310
0000000000280000000000000000002800F5000000F50000000000000000000000000000000000000000000000002D2D2D2D002D2D2D2D002D2D2D2D2D2D2D2D2D2D2D002D2D2D2D2D000000000000000000000000000000000000000000000000000000000000000000000000000000000000000000000000000000000000
310
00000000000000000000000000000000000000000000000000000000000000000000000000000000000000000000000000000000000000000000000000000000000000000000000000000000000000000000000000000000000000000000000000000000000000000000000000000000F5F500F500F500F50000F5F528F500
310
00000000000000280000000000000000F5F5F5F50000F5000000000000000000000000000000000000000000000000002D2D2D2D2D2D2D2D2D2D2D2D2D2D2D2D2D2D2D2D2D2D2D2D2D2D2D00000000000000000000000000000000000000000000000000000000000000000000000000000000000000000000000000000000
310
00000000000000000000000000000000000000000000000000000000000000000000000000000000000000000000000000000000000000000000000000000000000000000000000000000000000000000000000000000000000000000000000000000000000000000000000000000000000000F500F5F50000F50028282828
310
282800000000000000280000000000000028F52828282800F5000000000000000000000000000000000000000000000000000000000000000000000000000000000000000000000000000000000000000000000000000000000000000000000000000000000000000000000000000000000000000000000000000000000000
310
0000000000000000000000000000000000000000000000000000000000000000000000000000000000000000000000000000000000000000000000000000000000000000000000000000000000000000000000000000000000000000000000000000000000000000000000000000000000000000F5F5F5F500000000F50000
310
F528F5F5F5F5F5F5F5F5F5F5F5F5F5F5F5F5F5F5F5F5F50000F50000000000000000000000000000000000000000000000000000000000000000000000000000000000000000000000000000000000000000000000000000000000000000000000000000000000000000000000000000000000000000000000000000000000
310
0000000000000000000000000000000000000000000000000000000000000000000000000000000000000000000000000000000000000000000000000000000000000000000000000000000000000000000000000000000000000000000000000000000000000000000000000000000000000000000000F5000000000000F5
310
000000280000000000F5000000280000F500000000000028000000F5000000000000000000000000000000000000000000000000000000000000000000000000000000000000000000000000000000000000000000000000000000000000000000000000000000000000000000000000000000000000000000000000000000
310
00000000000000000000000000000000000000000000000000000000000000000000000000000000000000000000000000000000000000000000000000000000000000000000000000000000000000000000000000000000000000000000000000000000000000000000000000000000000000000000000000000000000000
310
0000F50000280000000000F5000000280000F5F50000000000280000F50000000000000000000000000000000000000000000000000000000000000000000000000000000000000000000000000000000000000000000000000000000000000000000000000000000000000000000000000000000000000000000000000000
310
00000000000000000000000000000000000000000000000000000000000000000000000000000000000000000000000000000000000000000000000000000000000000000000000000000000000000000000000000000000000000000000000000000000000000000000000000000000000000000000000000000000000000
310
00000000F5F5F5F5F5F5F5F5F5F5000000280000F5F5F5F5F5F5F5F5F5F5F5000000000000000000000000000000000000000000000000000000000000000000000000000000000000000000000000000000000000000000000000000000000000000000000000000000000000000000000000000000000000000000000000
310
00000000000000000000000000000000000000000000000000000000000000000000000000000000000000000000000000000000000000000000000000000000000000000000000000000000000000000000000000000000000000000000000000000000000000000000000000000000000000000000000000000000000000
310
000000000000000000000000000000F5000000280000F5F500000000000000000000000000000000000000000000000000000000000000000000000000000000000000000000000000000000000000000000000000000000000000000000000000000000000000000000000000000000000000000000000000000000000000
310
00000000000000000000000000000000000000000000000000000000000000000000000000000000000000000000000000000000000000000000000000000000000000000000000000000000000000000000000000000000000000000000000000000000000000000000000000000000000000000000000000000000000000
310
0000000000000000000000000000000000F5000000280000F5F50000000000000000000000000000000000000000000000000000000000000000000000000000000000000000000000000000000000000000000000000000000000000000000000000000000000000000000000000000000000000000000000000000000000
310
00000000000000000000000000000000000000000000000000000000000000000000000000000000000000000000000000000000000000000000000000000000000000000000000000000000000000000000000000000000000000000000000000000000000000000000000000000000000000000000000000000000000000
310
00000000000000000000000000000000000000F5000000280000F5F5000000000000000000000000000000000000000000000000000000000000000000000000000000000000000000000000000000000000000000000000000000000000000000000000000000000000000000000000000000000000000000000000000000
310
00000000000000000000000000000000000000000000000000000000000000000000000000000000000000000000000000000000000000000000000000000000000000000000000000000000000000000000000000000000000000000000000000000000000000000000000000000000000000000000000000000000000000
310
000000000000000000000000000000000000000000F5000000280000F5F500000000000000000000000000000000000000000000000000000000000000000000000000000000000000000000000000000000000000000000000000000000000000000000000000000000000000000000000000000000000000000000000000
310
00000000000000000000000000000000000000000000000000000000000000000000000000000000000000000000000000000000000000000000000000000000000000000000000000000000000000000000000000000000000000000000000000000000000000000000000000000000000000000000000000000000000000
310
0000000000000000000000000000000000000000000000F5000000280000F5F50000000000000000000000000000000000000000000000000000000000000000000000000000000000000000000000000000000000000000000000000000000000000000000000000000000000000000000000000000000000000000000000
310
00000000000000000000000000000000000000000000000000000000000000000000000000000000000000000000000000000000000000000000000000000000000000000000000000000000000000000000000000000000000000000000000000000000000000000000000000000000000000000000000000000000000000
310
00000000000000000000000000000000000000000000000000F5000000280000F5F5000000000000000000000000000000000000000000000000000000000000000000000000000000000000000000000000000000000000000000000000000000000000000000000000000000000000000000000000000000000000000000
310
00000000000000000000000000000000000000000000000000000000000000000000000000000000000000000000000000000000000000000000000000000000000000000000000000000000000000000000000000000000000000000000000000000000000000000000000000000000000000000000000000000000000000
310
000000000000000000000000000000000000000000000000000000F5000000280000F5F500000000000000000000000000000000000000000000000000000000000000000000000000000000000000000000000000000000000000000000000000000000000000000000000000000000000000000000000000000000000000
310
00000000000000000000000000000000000000000000000000000000000000000000000000000000000000000000000000000000000000000000000000000000000000000000000000000000000000000000000000000000000000000000000000000000000000000000000000000000000000000000000000000000000000
310
0000000000000000000000000000000000000000000000000000000000F5000000280000F5F50000000000000000000000000000000000000000000000000000000000000000000000000000000000000000000000000000000000000000000000000000000000000000000000000000000000000000000000000000000000
310
00000000000000000000000000000000000000000000000000000000000000000000000000000000000000000000000000000000000000000000000000000000000000000000000000000000000000000000000000000000000000000000000000000000000000000000000000000000000000000000000000000000000000
310
00000000000000000000000000000000000000000000000000000000000000F5F5F5F5F5F5F5F5F5000000000000000000000000000000000000000000000000000000000000000000000000000000000000000000000000000000000000000000000000000000000000000000000000000000000000000000000000000000
310
00000000000000000000000000000000000000000000000000000000000000000000000000000000000000000000000000000000000000000000000000000000000000000000000000000000000000000000000000000000000000000000000000000000000000000000000000000000000000000000000000000000000000
310
00000000000000000000000000000000000000000000000000000000000000000000000000280000000000000000000000000000000000000000000000000000000000000000000000000000000000000000000000000000000000000000000000000000000000000000000000000000000000000000000000000000000000
310
00000000000000000000000000000000000000000000000000000000000000000000000000000000000000000000000000000000000000000000000000000000000000000000000000000000000000000000000000000000000000000000000000000000000000000000000000000000000000000000000000000000000000
310
00000000000000000000000000000000000000000000000000000000000000000000000000000028000000000000000000000000000000000000000000000000000000000000000000000000000000000000000000000000000000000000000000000000000000000000000000000000000000000000000000000000000000
310
00000000000000000000000000000000000000000000000000000000000000000000000000000000000000000000000000000000000000000000000000000000000000000000000000000000000000000000000000000000000000000000000000000000000000000000000000000000000000000000000000000000000000
310
00000000000000000000000000000000000000000000000000000000000000000000000000000000000000000000000000000000000000000000000000000000000000000000000000000000000000000000000000000000000000000000000000000000000000000000000000000000000000000000000000000000000000
310
00000000000000000000000000000000000000000000000000000000000000000000000000000000000000000000000000000000000000000000
  0
XRECORD
  5
2767
102
{ACAD_REACTORS
330
2766
102
}
330
2766
100
AcDbXrecord
280
     1
102
SHADEPLOT
 70
     0
102
SHADEPLOTRESLEVEL
 70
     2
102
SHADEPLOTCUSTOMDPI
 70
   300
  0
XRECORD
  5
2703
102
{ACAD_REACTORS
330
18C6
102
}
330
18C6
100
AcDbXrecord
280
     1
102
MATERIAL
148
0.0
149
0.0
149
0.0
 93
        0
 94
      127
282
     0
 72
     0
 77
     0
171
     0
175
     0
179
     0
273
     0
  0
XRECORD
  5
18C8
102
{ACAD_REACTORS
330
18C6
102
}
330
18C6
100
AcDbXrecord
280
     1
270
     1
271
     1
  0
XRECORD
  5
18C7
102
{ACAD_REACTORS
330
18C6
102
}
330
18C6
100
AcDbXrecord
280
     1
270
     1
271
     1
  0
XRECORD
  5
18CB
102
{ACAD_REACTORS
330
18C6
102
}
330
18C6
100
AcDbXrecord
280
     1
270
     1
271
     1
  0
XRECORD
  5
18CA
102
{ACAD_REACTORS
330
18C6
102
}
330
18C6
100
AcDbXrecord
280
     1
270
     1
271
     1
  0
XRECORD
  5
18CC
102
{ACAD_REACTORS
330
18C6
102
}
330
18C6
100
AcDbXrecord
280
     1
270
     1
271
     1
  0
XRECORD
  5
18C9
102
{ACAD_REACTORS
330
18C6
102
}
330
18C6
100
AcDbXrecord
280
     1
270
     1
271
     1
  0
XRECORD
  5
2702
102
{ACAD_REACTORS
330
18BE
102
}
330
18BE
100
AcDbXrecord
280
     1
102
MATERIAL
148
0.0
149
0.0
149
0.0
 93
        0
 94
      127
282
     0
 72
     0
 77
     0
171
     0
175
     0
179
     0
273
     0
  0
XRECORD
  5
18C0
102
{ACAD_REACTORS
330
18BE
102
}
330
18BE
100
AcDbXrecord
280
     1
270
     1
271
     1
  0
XRECORD
  5
18BF
102
{ACAD_REACTORS
330
18BE
102
}
330
18BE
100
AcDbXrecord
280
     1
270
     1
271
     1
  0
XRECORD
  5
18C3
102
{ACAD_REACTORS
330
18BE
102
}
330
18BE
100
AcDbXrecord
280
     1
270
     1
271
     1
  0
XRECORD
  5
18C2
102
{ACAD_REACTORS
330
18BE
102
}
330
18BE
100
AcDbXrecord
280
     1
270
     1
271
     1
  0
XRECORD
  5
18C4
102
{ACAD_REACTORS
330
18BE
102
}
330
18BE
100
AcDbXrecord
280
     1
270
     1
271
     1
  0
XRECORD
  5
18C1
102
{ACAD_REACTORS
330
18BE
102
}
330
18BE
100
AcDbXrecord
280
     1
270
     1
271
     1
  0
XRECORD
  5
2704
102
{ACAD_REACTORS
330
18CE
102
}
330
18CE
100
AcDbXrecord
280
     1
102
MATERIAL
148
0.0
149
0.0
149
0.0
 93
        0
 94
      127
282
     0
 72
     0
 77
     0
171
     0
175
     0
179
     0
273
     0
  0
XRECORD
  5
18D0
102
{ACAD_REACTORS
330
18CE
102
}
330
18CE
100
AcDbXrecord
280
     1
270
     1
271
     1
  0
XRECORD
  5
18CF
102
{ACAD_REACTORS
330
18CE
102
}
330
18CE
100
AcDbXrecord
280
     1
270
     1
271
     1
  0
XRECORD
  5
18D3
102
{ACAD_REACTORS
330
18CE
102
}
330
18CE
100
AcDbXrecord
280
     1
270
     1
271
     1
  0
XRECORD
  5
18D2
102
{ACAD_REACTORS
330
18CE
102
}
330
18CE
100
AcDbXrecord
280
     1
270
     1
271
     1
  0
XRECORD
  5
18D4
102
{ACAD_REACTORS
330
18CE
102
}
330
18CE
100
AcDbXrecord
280
     1
270
     1
271
     1
  0
XRECORD
  5
18D1
102
{ACAD_REACTORS
330
18CE
102
}
330
18CE
100
AcDbXrecord
280
     1
270
     1
271
     1
  0
XRECORD
  5
275B
102
{ACAD_REACTORS
330
275A
102
}
330
275A
100
AcDbXrecord
280
     1
102
DISPLAYNAME
  1
Imperial24
102
FLAGS
 90
        0
  0
CELLSTYLEMAP
  5
26FE
102
{ACAD_REACTORS
330
191E
102
}
330
191E
100
AcDbCellStyleMap
 90
        3
300
CELLSTYLE
  1
TABLEFORMAT_BEGIN
 90
        5
170
     1
 91
        0
 92
    32768
 62
   257
 93
        1
300
CONTENTFORMAT
  1
CONTENTFORMAT_BEGIN
 90
        0
 91
        0
 92
      512
 93
        0
300

 40
0.0
140
1.0
 94
        5
 62
     0
340
16
144
0.25
309
CONTENTFORMAT_END
171
     1
301
MARGIN
  1
CELLMARGIN_BEGIN
 40
0.06
 40
0.06
 40
0.06
 40
0.06
 40
0.18
 40
0.18
309
CELLMARGIN_END
 94
        6
 95
        1
302
GRIDFORMAT
  1
GRIDFORMAT_BEGIN
 90
        0
 91
        1
 62
     0
 92
       -2
340
0
 93
        0
 40
0.045
309
GRIDFORMAT_END
 95
        2
302
GRIDFORMAT
  1
GRIDFORMAT_BEGIN
 90
        0
 91
        1
 62
     0
 92
       -2
340
0
 93
        0
 40
0.045
309
GRIDFORMAT_END
 95
        4
302
GRIDFORMAT
  1
GRIDFORMAT_BEGIN
 90
        0
 91
        1
 62
     0
 92
       -2
340
0
 93
        0
 40
0.045
309
GRIDFORMAT_END
 95
        8
302
GRIDFORMAT
  1
GRIDFORMAT_BEGIN
 90
        0
 91
        1
 62
     0
 92
       -2
340
0
 93
        0
 40
0.045
309
GRIDFORMAT_END
 95
       16
302
GRIDFORMAT
  1
GRIDFORMAT_BEGIN
 90
        0
 91
        1
 62
     0
 92
       -2
340
0
 93
        0
 40
0.045
309
GRIDFORMAT_END
 95
       32
302
GRIDFORMAT
  1
GRIDFORMAT_BEGIN
 90
        0
 91
        1
 62
     0
 92
       -2
340
0
 93
        0
 40
0.045
309
GRIDFORMAT_END
309
TABLEFORMAT_END
  1
CELLSTYLE_BEGIN
 90
        1
 91
        1
300
_TITLE
309
CELLSTYLE_END
300
CELLSTYLE
  1
TABLEFORMAT_BEGIN
 90
        5
170
     1
 91
        0
 92
        0
 62
   257
 93
        1
300
CONTENTFORMAT
  1
CONTENTFORMAT_BEGIN
 90
        0
 91
        0
 92
      512
 93
        0
300

 40
0.0
140
1.0
 94
        5
 62
     0
340
16
144
0.18
309
CONTENTFORMAT_END
171
     1
301
MARGIN
  1
CELLMARGIN_BEGIN
 40
0.06
 40
0.06
 40
0.06
 40
0.06
 40
0.18
 40
0.18
309
CELLMARGIN_END
 94
        6
 95
        1
302
GRIDFORMAT
  1
GRIDFORMAT_BEGIN
 90
        0
 91
        1
 62
     0
 92
       -2
340
0
 93
        0
 40
0.045
309
GRIDFORMAT_END
 95
        2
302
GRIDFORMAT
  1
GRIDFORMAT_BEGIN
 90
        0
 91
        1
 62
     0
 92
       -2
340
0
 93
        0
 40
0.045
309
GRIDFORMAT_END
 95
        4
302
GRIDFORMAT
  1
GRIDFORMAT_BEGIN
 90
        0
 91
        1
 62
     0
 92
       -2
340
0
 93
        0
 40
0.045
309
GRIDFORMAT_END
 95
        8
302
GRIDFORMAT
  1
GRIDFORMAT_BEGIN
 90
        0
 91
        1
 62
     0
 92
       -2
340
0
 93
        0
 40
0.045
309
GRIDFORMAT_END
 95
       16
302
GRIDFORMAT
  1
GRIDFORMAT_BEGIN
 90
        0
 91
        1
 62
     0
 92
       -2
340
0
 93
        0
 40
0.045
309
GRIDFORMAT_END
 95
       32
302
GRIDFORMAT
  1
GRIDFORMAT_BEGIN
 90
        0
 91
        1
 62
     0
 92
       -2
340
0
 93
        0
 40
0.045
309
GRIDFORMAT_END
309
TABLEFORMAT_END
  1
CELLSTYLE_BEGIN
 90
        2
 91
        1
300
_HEADER
309
CELLSTYLE_END
300
CELLSTYLE
  1
TABLEFORMAT_BEGIN
 90
        5
170
     1
 91
        0
 92
        0
 62
   257
 93
        1
300
CONTENTFORMAT
  1
CONTENTFORMAT_BEGIN
 90
        0
 91
        0
 92
      512
 93
        0
300

 40
0.0
140
1.0
 94
        2
 62
     0
340
16
144
0.18
309
CONTENTFORMAT_END
171
     1
301
MARGIN
  1
CELLMARGIN_BEGIN
 40
0.06
 40
0.06
 40
0.06
 40
0.06
 40
0.18
 40
0.18
309
CELLMARGIN_END
 94
        6
 95
        1
302
GRIDFORMAT
  1
GRIDFORMAT_BEGIN
 90
        0
 91
        1
 62
     0
 92
       -2
340
0
 93
        0
 40
0.045
309
GRIDFORMAT_END
 95
        2
302
GRIDFORMAT
  1
GRIDFORMAT_BEGIN
 90
        0
 91
        1
 62
     0
 92
       -2
340
0
 93
        0
 40
0.045
309
GRIDFORMAT_END
 95
        4
302
GRIDFORMAT
  1
GRIDFORMAT_BEGIN
 90
        0
 91
        1
 62
     0
 92
       -2
340
0
 93
        0
 40
0.045
309
GRIDFORMAT_END
 95
        8
302
GRIDFORMAT
  1
GRIDFORMAT_BEGIN
 90
        0
 91
        1
 62
     0
 92
       -2
340
0
 93
        0
 40
0.045
309
GRIDFORMAT_END
 95
       16
302
GRIDFORMAT
  1
GRIDFORMAT_BEGIN
 90
        0
 91
        1
 62
     0
 92
       -2
340
0
 93
        0
 40
0.045
309
GRIDFORMAT_END
 95
       32
302
GRIDFORMAT
  1
GRIDFORMAT_BEGIN
 90
        0
 91
        1
 62
     0
 92
       -2
340
0
 93
        0
 40
0.045
309
GRIDFORMAT_END
309
TABLEFORMAT_END
  1
CELLSTYLE_BEGIN
 90
        3
 91
        2
300
_DATA
309
CELLSTYLE_END
  0
XRECORD
  5
2725
102
{ACAD_REACTORS
330
191E
102
}
330
191E
100
AcDbXrecord
280
     1
102
ACAD_ROUNDTRIP_PRE2007_TABLESTYLE
 90
      512
 91
        0
  1

 92
      512
 93
        0
  2

 94
      512
 95
        0
  3

  0
XRECORD
  5
2710
102
{ACAD_REACTORS
330
270F
102
}
330
270F
100
AcDbXrecord
280
     1
102
RTVSPost2010Prop28
280
     1
102
RTVSPost2010PropOp28
 70
     1
102
RTVSPost2010Prop29
280
     1
102
RTVSPost2010PropOp29
 70
     1
102
RTVSPost2010Prop30
280
     0
102
RTVSPost2010PropOp30
 70
     1
102
RTVSPost2010Prop31
280
     0
102
RTVSPost2010PropOp31
 70
     1
102
RTVSPost2010Prop32
280
     0
102
RTVSPost2010PropOp32
 70
     1
102
RTVSPost2010Prop33
280
     0
102
RTVSPost2010PropOp33
 70
     1
102
RTVSPost2010Prop34
280
     0
102
RTVSPost2010PropOp34
 70
     1
102
RTVSPost2010Prop35
280
     0
102
RTVSPost2010PropOp35
 70
     1
102
RTVSPost2010Prop36
280
     0
102
RTVSPost2010PropOp36
 70
     1
102
RTVSPost2010Prop37
 90
       50
102
RTVSPost2010PropOp37
 70
     1
102
RTVSPost2010Prop38
140
0.0
102
RTVSPost2010PropOp38
 70
     1
102
RTVSPost2010Prop39
140
1.0
102
RTVSPost2010PropOp39
 70
     1
102
RTVSPost2010Prop40
 90
        0
102
RTVSPost2010PropOp40
 70
     1
102
RTVSPost2010Prop41ColorIndex
 90
       18
102
RTVSPost2010Prop41ColorRGB
 90
        0
102
RTVSPost2010PropOp41
 70
     1
102
RTVSPost2010Prop42
 90
       50
102
RTVSPost2010PropOp42
 70
     1
102
RTVSPost2010Prop43
 90
        3
102
RTVSPost2010PropOp43
 70
     1
102
RTVSPost2010Prop44ColorIndex
 90
        5
102
RTVSPost2010Prop44ColorRGB
 90
      255
102
RTVSPost2010PropOp44
 70
     1
102
RTVSPost2010Prop45
280
     0
102
RTVSPost2010PropOp45
 70
     1
102
RTVSPost2010Prop46
 90
       50
102
RTVSPost2010PropOp46
 70
     1
102
RTVSPost2010Prop47
 90
       50
102
RTVSPost2010PropOp47
 70
     1
102
RTVSPost2010Prop48
 90
       50
102
RTVSPost2010PropOp48
 70
     1
102
RTVSPost2010Prop49
280
     0
102
RTVSPost2010PropOp49
 70
     1
102
RTVSPost2010Prop50
 90
       50
102
RTVSPost2010PropOp50
 70
     1
102
RTVSPost2010Prop51ColorIndex
 90
      256
102
RTVSPost2010Prop51ColorRGB
 90
-16777216
102
RTVSPost2010PropOp51
 70
     0
102
RTVSPost2010Prop52
140
1.0
102
RTVSPost2010PropOp52
 70
     0
102
RTVSPost2010Prop53
 90
        2
102
RTVSPost2010PropOp53
 70
     1
102
RTVSPost2010Prop54
  1
strokes_ogs.tif
102
RTVSPost2010PropOp54
 70
     1
102
RTVSPost2010Prop55
280
     0
102
RTVSPost2010PropOp55
 70
     1
102
RTVSPost2010Prop56
140
1.0
102
RTVSPost2010PropOp56
 70
     1
102
RTVSPost2010Prop57
140
1.0
102
RTVSPost2010PropOp57
 70
     1
102
RTVSPropertyOp0
 70
     1
102
RTVSPropertyOp1
 70
     1
102
RTVSPropertyOp2
 70
     1
102
RTVSPropertyOp3
 70
     1
102
RTVSPropertyOp4
 70
     1
102
RTVSPropertyOp5
 70
     1
102
RTVSPropertyOp6
 70
     1
102
RTVSPropertyOp7
 70
     1
102
RTVSPropertyOp8
 70
     1
102
RTVSPropertyOp9
 70
     1
102
RTVSPropertyOp10
 70
     1
102
RTVSPropertyOp11
 70
     1
102
RTVSPropertyOp12
 70
     1
102
RTVSPropertyOp13
 70
     1
102
RTVSPropertyOp14
 70
     1
102
RTVSPropertyOp15
 70
     1
102
RTVSPropertyOp16
 70
     1
102
RTVSPropertyOp17
 70
     1
102
RTVSPropertyOp18
 70
     1
102
RTVSPropertyOp19
 70
     1
102
RTVSPropertyOp20
 70
     1
102
RTVSPropertyOp21
 70
     1
102
RTVSPropertyOp22
 70
     1
102
RTVSPropertyOp23
 70
     1
102
RTVSPropertyOp24
 70
     1
102
RTVSPropertyOp25
 70
     1
102
RTVSPropertyOp26
 70
     1
102
RTVSPropertyOp27
 70
     1
102
RTVSPropertyOp28
 70
     1
102
RTVSPropertyOp29
 70
     1
102
RTVSPropertyOp30
 70
     1
102
RTVSPropertyOp31
 70
     1
102
RTVSPropertyOp32
 70
     1
102
RTVSPropertyOp33
 70
     1
102
RTVSPropertyOp34
 70
     1
102
RTVSPropertyOp35
 70
     1
102
RTVSPropertyOp36
 70
     1
102
RTVSPropertyOp37
 70
     1
102
RTVSPropertyOp38
 70
     1
102
RTVSPropertyOp39
 70
     1
102
RTVSPropertyOp40
 70
     1
102
RTVSPropertyOp41
 70
     1
102
RTVSPropertyOp42
 70
     1
102
RTVSPropertyOp43
 70
     1
102
RTVSPropertyOp44
 70
     1
102
RTVSPropertyOp45
 70
     1
102
RTVSPropertyOp46
 70
     1
102
RTVSPropertyOp47
 70
     1
102
RTVSPropertyOp48
 70
     1
102
RTVSPropertyOp49
 70
     1
102
RTVSPropertyOp50
 70
     1
102
RTVSPropertyOp51
 70
     0
102
RTVSPropertyOp52
 70
     0
102
RTVSPropertyOp53
 70
     1
102
RTVSPropertyOp54
 70
     1
102
RTVSPropertyOp55
 70
     1
102
RTVSPropertyOp56
 70
     1
102
RTVSPropertyOp57
 70
     1
102
RTVSPropertyOp58
 70
     1
102
RTVSPropertyOp59
 70
     1
102
RTVSPropertyOp60
 70
     1
102
RTVSPropertyOp61
 70
     1
102
RTVSPropertyOp62
 70
     1
  0
XRECORD
  5
2714
102
{ACAD_REACTORS
330
2713
102
}
330
2713
100
AcDbXrecord
280
     1
102
RTVSPost2010Prop28
280
     0
102
RTVSPost2010PropOp28
 70
     1
102
RTVSPost2010Prop29
280
     1
102
RTVSPost2010PropOp29
 70
     1
102
RTVSPost2010Prop30
280
     1
102
RTVSPost2010PropOp30
 70
     1
102
RTVSPost2010Prop31
280
     0
102
RTVSPost2010PropOp31
 70
     1
102
RTVSPost2010Prop32
280
     0
102
RTVSPost2010PropOp32
 70
     1
102
RTVSPost2010Prop33
280
     0
102
RTVSPost2010PropOp33
 70
     1
102
RTVSPost2010Prop34
280
     0
102
RTVSPost2010PropOp34
 70
     1
102
RTVSPost2010Prop35
280
     0
102
RTVSPost2010PropOp35
 70
     1
102
RTVSPost2010Prop36
280
     0
102
RTVSPost2010PropOp36
 70
     1
102
RTVSPost2010Prop37
 90
       50
102
RTVSPost2010PropOp37
 70
     1
102
RTVSPost2010Prop38
140
0.0
102
RTVSPost2010PropOp38
 70
     1
102
RTVSPost2010Prop39
140
1.0
102
RTVSPost2010PropOp39
 70
     1
102
RTVSPost2010Prop40
 90
        0
102
RTVSPost2010PropOp40
 70
     1
102
RTVSPost2010Prop41ColorIndex
 90
       18
102
RTVSPost2010Prop41ColorRGB
 90
        0
102
RTVSPost2010PropOp41
 70
     1
102
RTVSPost2010Prop42
 90
       50
102
RTVSPost2010PropOp42
 70
     1
102
RTVSPost2010Prop43
 90
        3
102
RTVSPost2010PropOp43
 70
     1
102
RTVSPost2010Prop44ColorIndex
 90
        5
102
RTVSPost2010Prop44ColorRGB
 90
      255
102
RTVSPost2010PropOp44
 70
     1
102
RTVSPost2010Prop45
280
     0
102
RTVSPost2010PropOp45
 70
     1
102
RTVSPost2010Prop46
 90
       50
102
RTVSPost2010PropOp46
 70
     1
102
RTVSPost2010Prop47
 90
       50
102
RTVSPost2010PropOp47
 70
     1
102
RTVSPost2010Prop48
 90
       50
102
RTVSPost2010PropOp48
 70
     1
102
RTVSPost2010Prop49
280
     0
102
RTVSPost2010PropOp49
 70
     1
102
RTVSPost2010Prop50
 90
       50
102
RTVSPost2010PropOp50
 70
     1
102
RTVSPost2010Prop51ColorIndex
 90
      256
102
RTVSPost2010Prop51ColorRGB
 90
-16777216
102
RTVSPost2010PropOp51
 70
     0
102
RTVSPost2010Prop52
140
1.0
102
RTVSPost2010PropOp52
 70
     0
102
RTVSPost2010Prop53
 90
        2
102
RTVSPost2010PropOp53
 70
     1
102
RTVSPost2010Prop54
  1
strokes_ogs.tif
102
RTVSPost2010PropOp54
 70
     1
102
RTVSPost2010Prop55
280
     0
102
RTVSPost2010PropOp55
 70
     1
102
RTVSPost2010Prop56
140
1.0
102
RTVSPost2010PropOp56
 70
     1
102
RTVSPost2010Prop57
140
1.0
102
RTVSPost2010PropOp57
 70
     1
102
RTVSPropertyOp0
 70
     1
102
RTVSPropertyOp1
 70
     1
102
RTVSPropertyOp2
 70
     1
102
RTVSPropertyOp3
 70
     1
102
RTVSPropertyOp4
 70
     1
102
RTVSPropertyOp5
 70
     1
102
RTVSPropertyOp6
 70
     1
102
RTVSPropertyOp7
 70
     1
102
RTVSPropertyOp8
 70
     1
102
RTVSPropertyOp9
 70
     1
102
RTVSPropertyOp10
 70
     1
102
RTVSPropertyOp11
 70
     1
102
RTVSPropertyOp12
 70
     1
102
RTVSPropertyOp13
 70
     1
102
RTVSPropertyOp14
 70
     1
102
RTVSPropertyOp15
 70
     1
102
RTVSPropertyOp16
 70
     1
102
RTVSPropertyOp17
 70
     1
102
RTVSPropertyOp18
 70
     1
102
RTVSPropertyOp19
 70
     1
102
RTVSPropertyOp20
 70
     1
102
RTVSPropertyOp21
 70
     1
102
RTVSPropertyOp22
 70
     1
102
RTVSPropertyOp23
 70
     1
102
RTVSPropertyOp24
 70
     1
102
RTVSPropertyOp25
 70
     1
102
RTVSPropertyOp26
 70
     1
102
RTVSPropertyOp27
 70
     1
102
RTVSPropertyOp28
 70
     1
102
RTVSPropertyOp29
 70
     1
102
RTVSPropertyOp30
 70
     1
102
RTVSPropertyOp31
 70
     1
102
RTVSPropertyOp32
 70
     1
102
RTVSPropertyOp33
 70
     1
102
RTVSPropertyOp34
 70
     1
102
RTVSPropertyOp35
 70
     1
102
RTVSPropertyOp36
 70
     1
102
RTVSPropertyOp37
 70
     1
102
RTVSPropertyOp38
 70
     1
102
RTVSPropertyOp39
 70
     1
102
RTVSPropertyOp40
 70
     1
102
RTVSPropertyOp41
 70
     1
102
RTVSPropertyOp42
 70
     1
102
RTVSPropertyOp43
 70
     1
102
RTVSPropertyOp44
 70
     1
102
RTVSPropertyOp45
 70
     1
102
RTVSPropertyOp46
 70
     1
102
RTVSPropertyOp47
 70
     1
102
RTVSPropertyOp48
 70
     1
102
RTVSPropertyOp49
 70
     1
102
RTVSPropertyOp50
 70
     1
102
RTVSPropertyOp51
 70
     0
102
RTVSPropertyOp52
 70
     0
102
RTVSPropertyOp53
 70
     1
102
RTVSPropertyOp54
 70
     1
102
RTVSPropertyOp55
 70
     1
102
RTVSPropertyOp56
 70
     1
102
RTVSPropertyOp57
 70
     1
102
RTVSPropertyOp58
 70
     1
102
RTVSPropertyOp59
 70
     1
102
RTVSPropertyOp60
 70
     1
102
RTVSPropertyOp61
 70
     1
102
RTVSPropertyOp62
 70
     1
  0
XRECORD
  5
2712
102
{ACAD_REACTORS
330
2711
102
}
330
2711
100
AcDbXrecord
280
     1
102
RTVSPost2010Prop28
280
     0
102
RTVSPost2010PropOp28
 70
     1
102
RTVSPost2010Prop29
280
     1
102
RTVSPost2010PropOp29
 70
     1
102
RTVSPost2010Prop30
280
     1
102
RTVSPost2010PropOp30
 70
     1
102
RTVSPost2010Prop31
280
     0
102
RTVSPost2010PropOp31
 70
     1
102
RTVSPost2010Prop32
280
     0
102
RTVSPost2010PropOp32
 70
     1
102
RTVSPost2010Prop33
280
     0
102
RTVSPost2010PropOp33
 70
     1
102
RTVSPost2010Prop34
280
     0
102
RTVSPost2010PropOp34
 70
     1
102
RTVSPost2010Prop35
280
     0
102
RTVSPost2010PropOp35
 70
     1
102
RTVSPost2010Prop36
280
     0
102
RTVSPost2010PropOp36
 70
     1
102
RTVSPost2010Prop37
 90
       50
102
RTVSPost2010PropOp37
 70
     1
102
RTVSPost2010Prop38
140
0.0
102
RTVSPost2010PropOp38
 70
     1
102
RTVSPost2010Prop39
140
1.0
102
RTVSPost2010PropOp39
 70
     1
102
RTVSPost2010Prop40
 90
        0
102
RTVSPost2010PropOp40
 70
     1
102
RTVSPost2010Prop41ColorIndex
 90
       18
102
RTVSPost2010Prop41ColorRGB
 90
        0
102
RTVSPost2010PropOp41
 70
     1
102
RTVSPost2010Prop42
 90
       50
102
RTVSPost2010PropOp42
 70
     1
102
RTVSPost2010Prop43
 90
        3
102
RTVSPost2010PropOp43
 70
     1
102
RTVSPost2010Prop44ColorIndex
 90
        5
102
RTVSPost2010Prop44ColorRGB
 90
      255
102
RTVSPost2010PropOp44
 70
     1
102
RTVSPost2010Prop45
280
     0
102
RTVSPost2010PropOp45
 70
     1
102
RTVSPost2010Prop46
 90
       50
102
RTVSPost2010PropOp46
 70
     1
102
RTVSPost2010Prop47
 90
       50
102
RTVSPost2010PropOp47
 70
     1
102
RTVSPost2010Prop48
 90
       50
102
RTVSPost2010PropOp48
 70
     1
102
RTVSPost2010Prop49
280
     0
102
RTVSPost2010PropOp49
 70
     1
102
RTVSPost2010Prop50
 90
       50
102
RTVSPost2010PropOp50
 70
     1
102
RTVSPost2010Prop51ColorIndex
 90
      256
102
RTVSPost2010Prop51ColorRGB
 90
-16777216
102
RTVSPost2010PropOp51
 70
     0
102
RTVSPost2010Prop52
140
1.0
102
RTVSPost2010PropOp52
 70
     0
102
RTVSPost2010Prop53
 90
        2
102
RTVSPost2010PropOp53
 70
     1
102
RTVSPost2010Prop54
  1
strokes_ogs.tif
102
RTVSPost2010PropOp54
 70
     1
102
RTVSPost2010Prop55
280
     0
102
RTVSPost2010PropOp55
 70
     1
102
RTVSPost2010Prop56
140
1.0
102
RTVSPost2010PropOp56
 70
     1
102
RTVSPost2010Prop57
140
1.0
102
RTVSPost2010PropOp57
 70
     1
102
RTVSPropertyOp0
 70
     1
102
RTVSPropertyOp1
 70
     1
102
RTVSPropertyOp2
 70
     1
102
RTVSPropertyOp3
 70
     1
102
RTVSPropertyOp4
 70
     1
102
RTVSPropertyOp5
 70
     1
102
RTVSPropertyOp6
 70
     1
102
RTVSPropertyOp7
 70
     1
102
RTVSPropertyOp8
 70
     1
102
RTVSPropertyOp9
 70
     1
102
RTVSPropertyOp10
 70
     1
102
RTVSPropertyOp11
 70
     1
102
RTVSPropertyOp12
 70
     1
102
RTVSPropertyOp13
 70
     1
102
RTVSPropertyOp14
 70
     1
102
RTVSPropertyOp15
 70
     1
102
RTVSPropertyOp16
 70
     1
102
RTVSPropertyOp17
 70
     1
102
RTVSPropertyOp18
 70
     1
102
RTVSPropertyOp19
 70
     1
102
RTVSPropertyOp20
 70
     1
102
RTVSPropertyOp21
 70
     1
102
RTVSPropertyOp22
 70
     1
102
RTVSPropertyOp23
 70
     1
102
RTVSPropertyOp24
 70
     1
102
RTVSPropertyOp25
 70
     1
102
RTVSPropertyOp26
 70
     1
102
RTVSPropertyOp27
 70
     1
102
RTVSPropertyOp28
 70
     1
102
RTVSPropertyOp29
 70
     1
102
RTVSPropertyOp30
 70
     1
102
RTVSPropertyOp31
 70
     1
102
RTVSPropertyOp32
 70
     1
102
RTVSPropertyOp33
 70
     1
102
RTVSPropertyOp34
 70
     1
102
RTVSPropertyOp35
 70
     1
102
RTVSPropertyOp36
 70
     1
102
RTVSPropertyOp37
 70
     1
102
RTVSPropertyOp38
 70
     1
102
RTVSPropertyOp39
 70
     1
102
RTVSPropertyOp40
 70
     1
102
RTVSPropertyOp41
 70
     1
102
RTVSPropertyOp42
 70
     1
102
RTVSPropertyOp43
 70
     1
102
RTVSPropertyOp44
 70
     1
102
RTVSPropertyOp45
 70
     1
102
RTVSPropertyOp46
 70
     1
102
RTVSPropertyOp47
 70
     1
102
RTVSPropertyOp48
 70
     1
102
RTVSPropertyOp49
 70
     1
102
RTVSPropertyOp50
 70
     1
102
RTVSPropertyOp51
 70
     0
102
RTVSPropertyOp52
 70
     0
102
RTVSPropertyOp53
 70
     1
102
RTVSPropertyOp54
 70
     1
102
RTVSPropertyOp55
 70
     1
102
RTVSPropertyOp56
 70
     1
102
RTVSPropertyOp57
 70
     1
102
RTVSPropertyOp58
 70
     1
102
RTVSPropertyOp59
 70
     1
102
RTVSPropertyOp60
 70
     1
102
RTVSPropertyOp61
 70
     1
102
RTVSPropertyOp62
 70
     1
  0
XRECORD
  5
270E
102
{ACAD_REACTORS
330
270D
102
}
330
270D
100
AcDbXrecord
280
     1
102
RTVSPost2010Prop28
280
     0
102
RTVSPost2010PropOp28
 70
     1
102
RTVSPost2010Prop29
280
     1
102
RTVSPost2010PropOp29
 70
     1
102
RTVSPost2010Prop30
280
     1
102
RTVSPost2010PropOp30
 70
     1
102
RTVSPost2010Prop31
280
     0
102
RTVSPost2010PropOp31
 70
     1
102
RTVSPost2010Prop32
280
     0
102
RTVSPost2010PropOp32
 70
     1
102
RTVSPost2010Prop33
280
     0
102
RTVSPost2010PropOp33
 70
     1
102
RTVSPost2010Prop34
280
     0
102
RTVSPost2010PropOp34
 70
     1
102
RTVSPost2010Prop35
280
     0
102
RTVSPost2010PropOp35
 70
     1
102
RTVSPost2010Prop36
280
     0
102
RTVSPost2010PropOp36
 70
     1
102
RTVSPost2010Prop37
 90
       50
102
RTVSPost2010PropOp37
 70
     1
102
RTVSPost2010Prop38
140
0.0
102
RTVSPost2010PropOp38
 70
     1
102
RTVSPost2010Prop39
140
1.0
102
RTVSPost2010PropOp39
 70
     1
102
RTVSPost2010Prop40
 90
        0
102
RTVSPost2010PropOp40
 70
     1
102
RTVSPost2010Prop41ColorIndex
 90
       18
102
RTVSPost2010Prop41ColorRGB
 90
        0
102
RTVSPost2010PropOp41
 70
     1
102
RTVSPost2010Prop42
 90
       50
102
RTVSPost2010PropOp42
 70
     1
102
RTVSPost2010Prop43
 90
        3
102
RTVSPost2010PropOp43
 70
     1
102
RTVSPost2010Prop44ColorIndex
 90
        5
102
RTVSPost2010Prop44ColorRGB
 90
      255
102
RTVSPost2010PropOp44
 70
     1
102
RTVSPost2010Prop45
280
     0
102
RTVSPost2010PropOp45
 70
     1
102
RTVSPost2010Prop46
 90
       50
102
RTVSPost2010PropOp46
 70
     1
102
RTVSPost2010Prop47
 90
       50
102
RTVSPost2010PropOp47
 70
     1
102
RTVSPost2010Prop48
 90
       50
102
RTVSPost2010PropOp48
 70
     1
102
RTVSPost2010Prop49
280
     0
102
RTVSPost2010PropOp49
 70
     1
102
RTVSPost2010Prop50
 90
       50
102
RTVSPost2010PropOp50
 70
     1
102
RTVSPost2010Prop51ColorIndex
 90
      256
102
RTVSPost2010Prop51ColorRGB
 90
-16777216
102
RTVSPost2010PropOp51
 70
     0
102
RTVSPost2010Prop52
140
1.0
102
RTVSPost2010PropOp52
 70
     0
102
RTVSPost2010Prop53
 90
        2
102
RTVSPost2010PropOp53
 70
     1
102
RTVSPost2010Prop54
  1
strokes_ogs.tif
102
RTVSPost2010PropOp54
 70
     1
102
RTVSPost2010Prop55
280
     0
102
RTVSPost2010PropOp55
 70
     1
102
RTVSPost2010Prop56
140
1.0
102
RTVSPost2010PropOp56
 70
     1
102
RTVSPost2010Prop57
140
1.0
102
RTVSPost2010PropOp57
 70
     1
102
RTVSPropertyOp0
 70
     1
102
RTVSPropertyOp1
 70
     1
102
RTVSPropertyOp2
 70
     1
102
RTVSPropertyOp3
 70
     1
102
RTVSPropertyOp4
 70
     1
102
RTVSPropertyOp5
 70
     1
102
RTVSPropertyOp6
 70
     1
102
RTVSPropertyOp7
 70
     1
102
RTVSPropertyOp8
 70
     1
102
RTVSPropertyOp9
 70
     1
102
RTVSPropertyOp10
 70
     1
102
RTVSPropertyOp11
 70
     1
102
RTVSPropertyOp12
 70
     1
102
RTVSPropertyOp13
 70
     1
102
RTVSPropertyOp14
 70
     1
102
RTVSPropertyOp15
 70
     1
102
RTVSPropertyOp16
 70
     1
102
RTVSPropertyOp17
 70
     1
102
RTVSPropertyOp18
 70
     1
102
RTVSPropertyOp19
 70
     1
102
RTVSPropertyOp20
 70
     1
102
RTVSPropertyOp21
 70
     1
102
RTVSPropertyOp22
 70
     1
102
RTVSPropertyOp23
 70
     1
102
RTVSPropertyOp24
 70
     1
102
RTVSPropertyOp25
 70
     1
102
RTVSPropertyOp26
 70
     1
102
RTVSPropertyOp27
 70
     1
102
RTVSPropertyOp28
 70
     1
102
RTVSPropertyOp29
 70
     1
102
RTVSPropertyOp30
 70
     1
102
RTVSPropertyOp31
 70
     1
102
RTVSPropertyOp32
 70
     1
102
RTVSPropertyOp33
 70
     1
102
RTVSPropertyOp34
 70
     1
102
RTVSPropertyOp35
 70
     1
102
RTVSPropertyOp36
 70
     1
102
RTVSPropertyOp37
 70
     1
102
RTVSPropertyOp38
 70
     1
102
RTVSPropertyOp39
 70
     1
102
RTVSPropertyOp40
 70
     1
102
RTVSPropertyOp41
 70
     1
102
RTVSPropertyOp42
 70
     1
102
RTVSPropertyOp43
 70
     1
102
RTVSPropertyOp44
 70
     1
102
RTVSPropertyOp45
 70
     1
102
RTVSPropertyOp46
 70
     1
102
RTVSPropertyOp47
 70
     1
102
RTVSPropertyOp48
 70
     1
102
RTVSPropertyOp49
 70
     1
102
RTVSPropertyOp50
 70
     1
102
RTVSPropertyOp51
 70
     0
102
RTVSPropertyOp52
 70
     0
102
RTVSPropertyOp53
 70
     1
102
RTVSPropertyOp54
 70
     1
102
RTVSPropertyOp55
 70
     1
102
RTVSPropertyOp56
 70
     1
102
RTVSPropertyOp57
 70
     1
102
RTVSPropertyOp58
 70
     1
102
RTVSPropertyOp59
 70
     1
102
RTVSPropertyOp60
 70
     1
102
RTVSPropertyOp61
 70
     1
102
RTVSPropertyOp62
 70
     1
  0
XRECORD
  5
271C
102
{ACAD_REACTORS
330
271B
102
}
330
271B
100
AcDbXrecord
280
     1
102
RTVSPost2010Prop28
280
     0
102
RTVSPost2010PropOp28
 70
     1
102
RTVSPost2010Prop29
280
     1
102
RTVSPost2010PropOp29
 70
     1
102
RTVSPost2010Prop30
280
     1
102
RTVSPost2010PropOp30
 70
     1
102
RTVSPost2010Prop31
280
     0
102
RTVSPost2010PropOp31
 70
     1
102
RTVSPost2010Prop32
280
     0
102
RTVSPost2010PropOp32
 70
     1
102
RTVSPost2010Prop33
280
     0
102
RTVSPost2010PropOp33
 70
     1
102
RTVSPost2010Prop34
280
     0
102
RTVSPost2010PropOp34
 70
     1
102
RTVSPost2010Prop35
280
     0
102
RTVSPost2010PropOp35
 70
     1
102
RTVSPost2010Prop36
280
     0
102
RTVSPost2010PropOp36
 70
     1
102
RTVSPost2010Prop37
 90
       50
102
RTVSPost2010PropOp37
 70
     1
102
RTVSPost2010Prop38
140
0.0
102
RTVSPost2010PropOp38
 70
     1
102
RTVSPost2010Prop39
140
1.0
102
RTVSPost2010PropOp39
 70
     1
102
RTVSPost2010Prop40
 90
        0
102
RTVSPost2010PropOp40
 70
     1
102
RTVSPost2010Prop41ColorIndex
 90
       18
102
RTVSPost2010Prop41ColorRGB
 90
        0
102
RTVSPost2010PropOp41
 70
     1
102
RTVSPost2010Prop42
 90
       50
102
RTVSPost2010PropOp42
 70
     1
102
RTVSPost2010Prop43
 90
        3
102
RTVSPost2010PropOp43
 70
     1
102
RTVSPost2010Prop44ColorIndex
 90
        5
102
RTVSPost2010Prop44ColorRGB
 90
      255
102
RTVSPost2010PropOp44
 70
     1
102
RTVSPost2010Prop45
280
     0
102
RTVSPost2010PropOp45
 70
     1
102
RTVSPost2010Prop46
 90
       50
102
RTVSPost2010PropOp46
 70
     1
102
RTVSPost2010Prop47
 90
       50
102
RTVSPost2010PropOp47
 70
     1
102
RTVSPost2010Prop48
 90
       50
102
RTVSPost2010PropOp48
 70
     1
102
RTVSPost2010Prop49
280
     0
102
RTVSPost2010PropOp49
 70
     1
102
RTVSPost2010Prop50
 90
       50
102
RTVSPost2010PropOp50
 70
     1
102
RTVSPost2010Prop51ColorIndex
 90
      256
102
RTVSPost2010Prop51ColorRGB
 90
-16777216
102
RTVSPost2010PropOp51
 70
     0
102
RTVSPost2010Prop52
140
1.0
102
RTVSPost2010PropOp52
 70
     0
102
RTVSPost2010Prop53
 90
        2
102
RTVSPost2010PropOp53
 70
     1
102
RTVSPost2010Prop54
  1
strokes_ogs.tif
102
RTVSPost2010PropOp54
 70
     1
102
RTVSPost2010Prop55
280
     0
102
RTVSPost2010PropOp55
 70
     1
102
RTVSPost2010Prop56
140
1.0
102
RTVSPost2010PropOp56
 70
     1
102
RTVSPost2010Prop57
140
1.0
102
RTVSPost2010PropOp57
 70
     1
102
RTVSPropertyOp0
 70
     1
102
RTVSPropertyOp1
 70
     1
102
RTVSPropertyOp2
 70
     1
102
RTVSPropertyOp3
 70
     1
102
RTVSPropertyOp4
 70
     1
102
RTVSPropertyOp5
 70
     1
102
RTVSPropertyOp6
 70
     1
102
RTVSPropertyOp7
 70
     1
102
RTVSPropertyOp8
 70
     1
102
RTVSPropertyOp9
 70
     1
102
RTVSPropertyOp10
 70
     1
102
RTVSPropertyOp11
 70
     1
102
RTVSPropertyOp12
 70
     1
102
RTVSPropertyOp13
 70
     1
102
RTVSPropertyOp14
 70
     1
102
RTVSPropertyOp15
 70
     1
102
RTVSPropertyOp16
 70
     1
102
RTVSPropertyOp17
 70
     1
102
RTVSPropertyOp18
 70
     1
102
RTVSPropertyOp19
 70
     1
102
RTVSPropertyOp20
 70
     1
102
RTVSPropertyOp21
 70
     1
102
RTVSPropertyOp22
 70
     1
102
RTVSPropertyOp23
 70
     1
102
RTVSPropertyOp24
 70
     1
102
RTVSPropertyOp25
 70
     1
102
RTVSPropertyOp26
 70
     1
102
RTVSPropertyOp27
 70
     1
102
RTVSPropertyOp28
 70
     1
102
RTVSPropertyOp29
 70
     1
102
RTVSPropertyOp30
 70
     1
102
RTVSPropertyOp31
 70
     1
102
RTVSPropertyOp32
 70
     1
102
RTVSPropertyOp33
 70
     1
102
RTVSPropertyOp34
 70
     1
102
RTVSPropertyOp35
 70
     1
102
RTVSPropertyOp36
 70
     1
102
RTVSPropertyOp37
 70
     1
102
RTVSPropertyOp38
 70
     1
102
RTVSPropertyOp39
 70
     1
102
RTVSPropertyOp40
 70
     1
102
RTVSPropertyOp41
 70
     1
102
RTVSPropertyOp42
 70
     1
102
RTVSPropertyOp43
 70
     1
102
RTVSPropertyOp44
 70
     1
102
RTVSPropertyOp45
 70
     1
102
RTVSPropertyOp46
 70
     1
102
RTVSPropertyOp47
 70
     1
102
RTVSPropertyOp48
 70
     1
102
RTVSPropertyOp49
 70
     1
102
RTVSPropertyOp50
 70
     1
102
RTVSPropertyOp51
 70
     0
102
RTVSPropertyOp52
 70
     0
102
RTVSPropertyOp53
 70
     1
102
RTVSPropertyOp54
 70
     1
102
RTVSPropertyOp55
 70
     1
102
RTVSPropertyOp56
 70
     1
102
RTVSPropertyOp57
 70
     1
102
RTVSPropertyOp58
 70
     1
102
RTVSPropertyOp59
 70
     1
102
RTVSPropertyOp60
 70
     1
102
RTVSPropertyOp61
 70
     1
102
RTVSPropertyOp62
 70
     1
  0
XRECORD
  5
2724
102
{ACAD_REACTORS
330
2723
102
}
330
2723
100
AcDbXrecord
280
     1
102
RTVSPost2010Prop28
280
     0
102
RTVSPost2010PropOp28
 70
     1
102
RTVSPost2010Prop29
280
     1
102
RTVSPost2010PropOp29
 70
     1
102
RTVSPost2010Prop30
280
     1
102
RTVSPost2010PropOp30
 70
     1
102
RTVSPost2010Prop31
280
     0
102
RTVSPost2010PropOp31
 70
     1
102
RTVSPost2010Prop32
280
     0
102
RTVSPost2010PropOp32
 70
     1
102
RTVSPost2010Prop33
280
     0
102
RTVSPost2010PropOp33
 70
     1
102
RTVSPost2010Prop34
280
     0
102
RTVSPost2010PropOp34
 70
     1
102
RTVSPost2010Prop35
280
     0
102
RTVSPost2010PropOp35
 70
     1
102
RTVSPost2010Prop36
280
     0
102
RTVSPost2010PropOp36
 70
     1
102
RTVSPost2010Prop37
 90
       50
102
RTVSPost2010PropOp37
 70
     1
102
RTVSPost2010Prop38
140
0.0
102
RTVSPost2010PropOp38
 70
     1
102
RTVSPost2010Prop39
140
1.0
102
RTVSPost2010PropOp39
 70
     1
102
RTVSPost2010Prop40
 90
        0
102
RTVSPost2010PropOp40
 70
     1
102
RTVSPost2010Prop41ColorIndex
 90
       18
102
RTVSPost2010Prop41ColorRGB
 90
        0
102
RTVSPost2010PropOp41
 70
     1
102
RTVSPost2010Prop42
 90
       50
102
RTVSPost2010PropOp42
 70
     1
102
RTVSPost2010Prop43
 90
        3
102
RTVSPost2010PropOp43
 70
     1
102
RTVSPost2010Prop44ColorIndex
 90
        5
102
RTVSPost2010Prop44ColorRGB
 90
      255
102
RTVSPost2010PropOp44
 70
     1
102
RTVSPost2010Prop45
280
     0
102
RTVSPost2010PropOp45
 70
     1
102
RTVSPost2010Prop46
 90
       50
102
RTVSPost2010PropOp46
 70
     1
102
RTVSPost2010Prop47
 90
       50
102
RTVSPost2010PropOp47
 70
     1
102
RTVSPost2010Prop48
 90
       50
102
RTVSPost2010PropOp48
 70
     1
102
RTVSPost2010Prop49
280
     0
102
RTVSPost2010PropOp49
 70
     1
102
RTVSPost2010Prop50
 90
       50
102
RTVSPost2010PropOp50
 70
     1
102
RTVSPost2010Prop51ColorIndex
 90
      256
102
RTVSPost2010Prop51ColorRGB
 90
-16777216
102
RTVSPost2010PropOp51
 70
     0
102
RTVSPost2010Prop52
140
1.0
102
RTVSPost2010PropOp52
 70
     0
102
RTVSPost2010Prop53
 90
        2
102
RTVSPost2010PropOp53
 70
     1
102
RTVSPost2010Prop54
  1
strokes_ogs.tif
102
RTVSPost2010PropOp54
 70
     1
102
RTVSPost2010Prop55
280
     0
102
RTVSPost2010PropOp55
 70
     1
102
RTVSPost2010Prop56
140
1.0
102
RTVSPost2010PropOp56
 70
     1
102
RTVSPost2010Prop57
140
1.0
102
RTVSPost2010PropOp57
 70
     1
102
RTVSPropertyOp0
 70
     1
102
RTVSPropertyOp1
 70
     1
102
RTVSPropertyOp2
 70
     1
102
RTVSPropertyOp3
 70
     1
102
RTVSPropertyOp4
 70
     1
102
RTVSPropertyOp5
 70
     1
102
RTVSPropertyOp6
 70
     1
102
RTVSPropertyOp7
 70
     1
102
RTVSPropertyOp8
 70
     1
102
RTVSPropertyOp9
 70
     1
102
RTVSPropertyOp10
 70
     1
102
RTVSPropertyOp11
 70
     1
102
RTVSPropertyOp12
 70
     1
102
RTVSPropertyOp13
 70
     1
102
RTVSPropertyOp14
 70
     1
102
RTVSPropertyOp15
 70
     1
102
RTVSPropertyOp16
 70
     1
102
RTVSPropertyOp17
 70
     1
102
RTVSPropertyOp18
 70
     1
102
RTVSPropertyOp19
 70
     1
102
RTVSPropertyOp20
 70
     1
102
RTVSPropertyOp21
 70
     1
102
RTVSPropertyOp22
 70
     1
102
RTVSPropertyOp23
 70
     1
102
RTVSPropertyOp24
 70
     1
102
RTVSPropertyOp25
 70
     1
102
RTVSPropertyOp26
 70
     1
102
RTVSPropertyOp27
 70
     1
102
RTVSPropertyOp28
 70
     1
102
RTVSPropertyOp29
 70
     1
102
RTVSPropertyOp30
 70
     1
102
RTVSPropertyOp31
 70
     1
102
RTVSPropertyOp32
 70
     1
102
RTVSPropertyOp33
 70
     1
102
RTVSPropertyOp34
 70
     1
102
RTVSPropertyOp35
 70
     1
102
RTVSPropertyOp36
 70
     1
102
RTVSPropertyOp37
 70
     1
102
RTVSPropertyOp38
 70
     1
102
RTVSPropertyOp39
 70
     1
102
RTVSPropertyOp40
 70
     1
102
RTVSPropertyOp41
 70
     1
102
RTVSPropertyOp42
 70
     1
102
RTVSPropertyOp43
 70
     1
102
RTVSPropertyOp44
 70
     1
102
RTVSPropertyOp45
 70
     1
102
RTVSPropertyOp46
 70
     1
102
RTVSPropertyOp47
 70
     1
102
RTVSPropertyOp48
 70
     1
102
RTVSPropertyOp49
 70
     1
102
RTVSPropertyOp50
 70
     1
102
RTVSPropertyOp51
 70
     0
102
RTVSPropertyOp52
 70
     0
102
RTVSPropertyOp53
 70
     1
102
RTVSPropertyOp54
 70
     1
102
RTVSPropertyOp55
 70
     1
102
RTVSPropertyOp56
 70
     1
102
RTVSPropertyOp57
 70
     1
102
RTVSPropertyOp58
 70
     1
102
RTVSPropertyOp59
 70
     1
102
RTVSPropertyOp60
 70
     1
102
RTVSPropertyOp61
 70
     1
102
RTVSPropertyOp62
 70
     1
  0
XRECORD
  5
2716
102
{ACAD_REACTORS
330
2715
102
}
330
2715
100
AcDbXrecord
280
     1
102
RTVSPost2010Prop28
280
     0
102
RTVSPost2010PropOp28
 70
     1
102
RTVSPost2010Prop29
280
     1
102
RTVSPost2010PropOp29
 70
     1
102
RTVSPost2010Prop30
280
     1
102
RTVSPost2010PropOp30
 70
     1
102
RTVSPost2010Prop31
280
     0
102
RTVSPost2010PropOp31
 70
     1
102
RTVSPost2010Prop32
280
     0
102
RTVSPost2010PropOp32
 70
     1
102
RTVSPost2010Prop33
280
     0
102
RTVSPost2010PropOp33
 70
     1
102
RTVSPost2010Prop34
280
     0
102
RTVSPost2010PropOp34
 70
     1
102
RTVSPost2010Prop35
280
     0
102
RTVSPost2010PropOp35
 70
     1
102
RTVSPost2010Prop36
280
     0
102
RTVSPost2010PropOp36
 70
     1
102
RTVSPost2010Prop37
 90
       50
102
RTVSPost2010PropOp37
 70
     1
102
RTVSPost2010Prop38
140
0.0
102
RTVSPost2010PropOp38
 70
     1
102
RTVSPost2010Prop39
140
1.0
102
RTVSPost2010PropOp39
 70
     1
102
RTVSPost2010Prop40
 90
        0
102
RTVSPost2010PropOp40
 70
     1
102
RTVSPost2010Prop41ColorIndex
 90
       18
102
RTVSPost2010Prop41ColorRGB
 90
        0
102
RTVSPost2010PropOp41
 70
     1
102
RTVSPost2010Prop42
 90
       50
102
RTVSPost2010PropOp42
 70
     1
102
RTVSPost2010Prop43
 90
        3
102
RTVSPost2010PropOp43
 70
     1
102
RTVSPost2010Prop44ColorIndex
 90
        5
102
RTVSPost2010Prop44ColorRGB
 90
      255
102
RTVSPost2010PropOp44
 70
     1
102
RTVSPost2010Prop45
280
     0
102
RTVSPost2010PropOp45
 70
     1
102
RTVSPost2010Prop46
 90
       50
102
RTVSPost2010PropOp46
 70
     1
102
RTVSPost2010Prop47
 90
       50
102
RTVSPost2010PropOp47
 70
     1
102
RTVSPost2010Prop48
 90
       50
102
RTVSPost2010PropOp48
 70
     1
102
RTVSPost2010Prop49
280
     0
102
RTVSPost2010PropOp49
 70
     1
102
RTVSPost2010Prop50
 90
       50
102
RTVSPost2010PropOp50
 70
     1
102
RTVSPost2010Prop51ColorIndex
 90
      256
102
RTVSPost2010Prop51ColorRGB
 90
-16777216
102
RTVSPost2010PropOp51
 70
     0
102
RTVSPost2010Prop52
140
1.0
102
RTVSPost2010PropOp52
 70
     0
102
RTVSPost2010Prop53
 90
        2
102
RTVSPost2010PropOp53
 70
     1
102
RTVSPost2010Prop54
  1
strokes_ogs.tif
102
RTVSPost2010PropOp54
 70
     1
102
RTVSPost2010Prop55
280
     0
102
RTVSPost2010PropOp55
 70
     1
102
RTVSPost2010Prop56
140
1.0
102
RTVSPost2010PropOp56
 70
     1
102
RTVSPost2010Prop57
140
1.0
102
RTVSPost2010PropOp57
 70
     1
102
RTVSPropertyOp0
 70
     1
102
RTVSPropertyOp1
 70
     1
102
RTVSPropertyOp2
 70
     1
102
RTVSPropertyOp3
 70
     1
102
RTVSPropertyOp4
 70
     1
102
RTVSPropertyOp5
 70
     1
102
RTVSPropertyOp6
 70
     1
102
RTVSPropertyOp7
 70
     1
102
RTVSPropertyOp8
 70
     1
102
RTVSPropertyOp9
 70
     1
102
RTVSPropertyOp10
 70
     1
102
RTVSPropertyOp11
 70
     1
102
RTVSPropertyOp12
 70
     1
102
RTVSPropertyOp13
 70
     1
102
RTVSPropertyOp14
 70
     1
102
RTVSPropertyOp15
 70
     1
102
RTVSPropertyOp16
 70
     1
102
RTVSPropertyOp17
 70
     1
102
RTVSPropertyOp18
 70
     1
102
RTVSPropertyOp19
 70
     1
102
RTVSPropertyOp20
 70
     1
102
RTVSPropertyOp21
 70
     1
102
RTVSPropertyOp22
 70
     1
102
RTVSPropertyOp23
 70
     1
102
RTVSPropertyOp24
 70
     1
102
RTVSPropertyOp25
 70
     1
102
RTVSPropertyOp26
 70
     1
102
RTVSPropertyOp27
 70
     1
102
RTVSPropertyOp28
 70
     1
102
RTVSPropertyOp29
 70
     1
102
RTVSPropertyOp30
 70
     1
102
RTVSPropertyOp31
 70
     1
102
RTVSPropertyOp32
 70
     1
102
RTVSPropertyOp33
 70
     1
102
RTVSPropertyOp34
 70
     1
102
RTVSPropertyOp35
 70
     1
102
RTVSPropertyOp36
 70
     1
102
RTVSPropertyOp37
 70
     1
102
RTVSPropertyOp38
 70
     1
102
RTVSPropertyOp39
 70
     1
102
RTVSPropertyOp40
 70
     1
102
RTVSPropertyOp41
 70
     1
102
RTVSPropertyOp42
 70
     1
102
RTVSPropertyOp43
 70
     1
102
RTVSPropertyOp44
 70
     1
102
RTVSPropertyOp45
 70
     1
102
RTVSPropertyOp46
 70
     1
102
RTVSPropertyOp47
 70
     1
102
RTVSPropertyOp48
 70
     1
102
RTVSPropertyOp49
 70
     1
102
RTVSPropertyOp50
 70
     1
102
RTVSPropertyOp51
 70
     0
102
RTVSPropertyOp52
 70
     0
102
RTVSPropertyOp53
 70
     1
102
RTVSPropertyOp54
 70
     1
102
RTVSPropertyOp55
 70
     1
102
RTVSPropertyOp56
 70
     1
102
RTVSPropertyOp57
 70
     1
102
RTVSPropertyOp58
 70
     1
102
RTVSPropertyOp59
 70
     1
102
RTVSPropertyOp60
 70
     1
102
RTVSPropertyOp61
 70
     1
102
RTVSPropertyOp62
 70
     1
  0
XRECORD
  5
271A
102
{ACAD_REACTORS
330
2719
102
}
330
2719
100
AcDbXrecord
280
     1
102
RTVSPost2010Prop28
280
     0
102
RTVSPost2010PropOp28
 70
     1
102
RTVSPost2010Prop29
280
     1
102
RTVSPost2010PropOp29
 70
     1
102
RTVSPost2010Prop30
280
     1
102
RTVSPost2010PropOp30
 70
     1
102
RTVSPost2010Prop31
280
     0
102
RTVSPost2010PropOp31
 70
     1
102
RTVSPost2010Prop32
280
     0
102
RTVSPost2010PropOp32
 70
     1
102
RTVSPost2010Prop33
280
     0
102
RTVSPost2010PropOp33
 70
     1
102
RTVSPost2010Prop34
280
     0
102
RTVSPost2010PropOp34
 70
     1
102
RTVSPost2010Prop35
280
     0
102
RTVSPost2010PropOp35
 70
     1
102
RTVSPost2010Prop36
280
     0
102
RTVSPost2010PropOp36
 70
     1
102
RTVSPost2010Prop37
 90
       50
102
RTVSPost2010PropOp37
 70
     1
102
RTVSPost2010Prop38
140
0.0
102
RTVSPost2010PropOp38
 70
     1
102
RTVSPost2010Prop39
140
1.0
102
RTVSPost2010PropOp39
 70
     1
102
RTVSPost2010Prop40
 90
        0
102
RTVSPost2010PropOp40
 70
     1
102
RTVSPost2010Prop41ColorIndex
 90
       18
102
RTVSPost2010Prop41ColorRGB
 90
        0
102
RTVSPost2010PropOp41
 70
     1
102
RTVSPost2010Prop42
 90
       50
102
RTVSPost2010PropOp42
 70
     1
102
RTVSPost2010Prop43
 90
        3
102
RTVSPost2010PropOp43
 70
     1
102
RTVSPost2010Prop44ColorIndex
 90
        5
102
RTVSPost2010Prop44ColorRGB
 90
      255
102
RTVSPost2010PropOp44
 70
     1
102
RTVSPost2010Prop45
280
     0
102
RTVSPost2010PropOp45
 70
     1
102
RTVSPost2010Prop46
 90
       50
102
RTVSPost2010PropOp46
 70
     1
102
RTVSPost2010Prop47
 90
       50
102
RTVSPost2010PropOp47
 70
     1
102
RTVSPost2010Prop48
 90
       50
102
RTVSPost2010PropOp48
 70
     1
102
RTVSPost2010Prop49
280
     0
102
RTVSPost2010PropOp49
 70
     1
102
RTVSPost2010Prop50
 90
       50
102
RTVSPost2010PropOp50
 70
     1
102
RTVSPost2010Prop51ColorIndex
 90
      256
102
RTVSPost2010Prop51ColorRGB
 90
-16777216
102
RTVSPost2010PropOp51
 70
     0
102
RTVSPost2010Prop52
140
1.0
102
RTVSPost2010PropOp52
 70
     0
102
RTVSPost2010Prop53
 90
        2
102
RTVSPost2010PropOp53
 70
     1
102
RTVSPost2010Prop54
  1
strokes_ogs.tif
102
RTVSPost2010PropOp54
 70
     1
102
RTVSPost2010Prop55
280
     0
102
RTVSPost2010PropOp55
 70
     1
102
RTVSPost2010Prop56
140
1.0
102
RTVSPost2010PropOp56
 70
     1
102
RTVSPost2010Prop57
140
1.0
102
RTVSPost2010PropOp57
 70
     1
102
RTVSPropertyOp0
 70
     1
102
RTVSPropertyOp1
 70
     1
102
RTVSPropertyOp2
 70
     1
102
RTVSPropertyOp3
 70
     1
102
RTVSPropertyOp4
 70
     1
102
RTVSPropertyOp5
 70
     1
102
RTVSPropertyOp6
 70
     1
102
RTVSPropertyOp7
 70
     1
102
RTVSPropertyOp8
 70
     1
102
RTVSPropertyOp9
 70
     1
102
RTVSPropertyOp10
 70
     1
102
RTVSPropertyOp11
 70
     1
102
RTVSPropertyOp12
 70
     1
102
RTVSPropertyOp13
 70
     1
102
RTVSPropertyOp14
 70
     1
102
RTVSPropertyOp15
 70
     1
102
RTVSPropertyOp16
 70
     1
102
RTVSPropertyOp17
 70
     1
102
RTVSPropertyOp18
 70
     1
102
RTVSPropertyOp19
 70
     1
102
RTVSPropertyOp20
 70
     1
102
RTVSPropertyOp21
 70
     1
102
RTVSPropertyOp22
 70
     1
102
RTVSPropertyOp23
 70
     1
102
RTVSPropertyOp24
 70
     1
102
RTVSPropertyOp25
 70
     1
102
RTVSPropertyOp26
 70
     1
102
RTVSPropertyOp27
 70
     1
102
RTVSPropertyOp28
 70
     1
102
RTVSPropertyOp29
 70
     1
102
RTVSPropertyOp30
 70
     1
102
RTVSPropertyOp31
 70
     1
102
RTVSPropertyOp32
 70
     1
102
RTVSPropertyOp33
 70
     1
102
RTVSPropertyOp34
 70
     1
102
RTVSPropertyOp35
 70
     1
102
RTVSPropertyOp36
 70
     1
102
RTVSPropertyOp37
 70
     1
102
RTVSPropertyOp38
 70
     1
102
RTVSPropertyOp39
 70
     1
102
RTVSPropertyOp40
 70
     1
102
RTVSPropertyOp41
 70
     1
102
RTVSPropertyOp42
 70
     1
102
RTVSPropertyOp43
 70
     1
102
RTVSPropertyOp44
 70
     1
102
RTVSPropertyOp45
 70
     1
102
RTVSPropertyOp46
 70
     1
102
RTVSPropertyOp47
 70
     1
102
RTVSPropertyOp48
 70
     1
102
RTVSPropertyOp49
 70
     1
102
RTVSPropertyOp50
 70
     1
102
RTVSPropertyOp51
 70
     0
102
RTVSPropertyOp52
 70
     0
102
RTVSPropertyOp53
 70
     1
102
RTVSPropertyOp54
 70
     1
102
RTVSPropertyOp55
 70
     1
102
RTVSPropertyOp56
 70
     1
102
RTVSPropertyOp57
 70
     1
102
RTVSPropertyOp58
 70
     1
102
RTVSPropertyOp59
 70
     1
102
RTVSPropertyOp60
 70
     1
102
RTVSPropertyOp61
 70
     1
102
RTVSPropertyOp62
 70
     1
  0
XRECORD
  5
272B
102
{ACAD_REACTORS
330
272A
102
}
330
272A
100
AcDbXrecord
280
     1
102
RTVSPost2010Prop28
280
     0
102
RTVSPost2010PropOp28
 70
     1
102
RTVSPost2010Prop29
280
     1
102
RTVSPost2010PropOp29
 70
     1
102
RTVSPost2010Prop30
280
     1
102
RTVSPost2010PropOp30
 70
     1
102
RTVSPost2010Prop31
280
     0
102
RTVSPost2010PropOp31
 70
     1
102
RTVSPost2010Prop32
280
     0
102
RTVSPost2010PropOp32
 70
     1
102
RTVSPost2010Prop33
280
     0
102
RTVSPost2010PropOp33
 70
     1
102
RTVSPost2010Prop34
280
     0
102
RTVSPost2010PropOp34
 70
     1
102
RTVSPost2010Prop35
280
     0
102
RTVSPost2010PropOp35
 70
     1
102
RTVSPost2010Prop36
280
     0
102
RTVSPost2010PropOp36
 70
     1
102
RTVSPost2010Prop37
 90
       50
102
RTVSPost2010PropOp37
 70
     1
102
RTVSPost2010Prop38
140
0.0
102
RTVSPost2010PropOp38
 70
     1
102
RTVSPost2010Prop39
140
1.0
102
RTVSPost2010PropOp39
 70
     1
102
RTVSPost2010Prop40
 90
        0
102
RTVSPost2010PropOp40
 70
     1
102
RTVSPost2010Prop41ColorIndex
 90
       18
102
RTVSPost2010Prop41ColorRGB
 90
        0
102
RTVSPost2010PropOp41
 70
     1
102
RTVSPost2010Prop42
 90
       50
102
RTVSPost2010PropOp42
 70
     1
102
RTVSPost2010Prop43
 90
        3
102
RTVSPost2010PropOp43
 70
     1
102
RTVSPost2010Prop44ColorIndex
 90
        5
102
RTVSPost2010Prop44ColorRGB
 90
      255
102
RTVSPost2010PropOp44
 70
     1
102
RTVSPost2010Prop45
280
     0
102
RTVSPost2010PropOp45
 70
     1
102
RTVSPost2010Prop46
 90
       50
102
RTVSPost2010PropOp46
 70
     1
102
RTVSPost2010Prop47
 90
       50
102
RTVSPost2010PropOp47
 70
     1
102
RTVSPost2010Prop48
 90
       50
102
RTVSPost2010PropOp48
 70
     1
102
RTVSPost2010Prop49
280
     0
102
RTVSPost2010PropOp49
 70
     1
102
RTVSPost2010Prop50
 90
       50
102
RTVSPost2010PropOp50
 70
     1
102
RTVSPost2010Prop51ColorIndex
 90
      256
102
RTVSPost2010Prop51ColorRGB
 90
-16777216
102
RTVSPost2010PropOp51
 70
     0
102
RTVSPost2010Prop52
140
1.0
102
RTVSPost2010PropOp52
 70
     0
102
RTVSPost2010Prop53
 90
        2
102
RTVSPost2010PropOp53
 70
     1
102
RTVSPost2010Prop54
  1
strokes_ogs.tif
102
RTVSPost2010PropOp54
 70
     1
102
RTVSPost2010Prop55
280
     0
102
RTVSPost2010PropOp55
 70
     1
102
RTVSPost2010Prop56
140
1.0
102
RTVSPost2010PropOp56
 70
     1
102
RTVSPost2010Prop57
140
1.0
102
RTVSPost2010PropOp57
 70
     1
102
RTVSPropertyOp0
 70
     0
102
RTVSPropertyOp1
 70
     0
102
RTVSPropertyOp2
 70
     0
102
RTVSPropertyOp3
 70
     0
102
RTVSPropertyOp4
 70
     0
102
RTVSPropertyOp5
 70
     0
102
RTVSPropertyOp6
 70
     0
102
RTVSPropertyOp7
 70
     0
102
RTVSPropertyOp8
 70
     0
102
RTVSPropertyOp9
 70
     0
102
RTVSPropertyOp10
 70
     0
102
RTVSPropertyOp11
 70
     0
102
RTVSPropertyOp12
 70
     0
102
RTVSPropertyOp13
 70
     0
102
RTVSPropertyOp14
 70
     2
102
RTVSPropertyOp15
 70
     0
102
RTVSPropertyOp16
 70
     0
102
RTVSPropertyOp17
 70
     0
102
RTVSPropertyOp18
 70
     0
102
RTVSPropertyOp19
 70
     0
102
RTVSPropertyOp20
 70
     0
102
RTVSPropertyOp21
 70
     0
102
RTVSPropertyOp22
 70
     0
102
RTVSPropertyOp23
 70
     0
102
RTVSPropertyOp24
 70
     0
102
RTVSPropertyOp25
 70
     0
102
RTVSPropertyOp26
 70
     0
102
RTVSPropertyOp27
 70
     0
102
RTVSPropertyOp28
 70
     1
102
RTVSPropertyOp29
 70
     1
102
RTVSPropertyOp30
 70
     1
102
RTVSPropertyOp31
 70
     1
102
RTVSPropertyOp32
 70
     1
102
RTVSPropertyOp33
 70
     1
102
RTVSPropertyOp34
 70
     1
102
RTVSPropertyOp35
 70
     1
102
RTVSPropertyOp36
 70
     1
102
RTVSPropertyOp37
 70
     1
102
RTVSPropertyOp38
 70
     1
102
RTVSPropertyOp39
 70
     1
102
RTVSPropertyOp40
 70
     1
102
RTVSPropertyOp41
 70
     1
102
RTVSPropertyOp42
 70
     1
102
RTVSPropertyOp43
 70
     1
102
RTVSPropertyOp44
 70
     1
102
RTVSPropertyOp45
 70
     1
102
RTVSPropertyOp46
 70
     1
102
RTVSPropertyOp47
 70
     1
102
RTVSPropertyOp48
 70
     1
102
RTVSPropertyOp49
 70
     1
102
RTVSPropertyOp50
 70
     1
102
RTVSPropertyOp51
 70
     0
102
RTVSPropertyOp52
 70
     0
102
RTVSPropertyOp53
 70
     1
102
RTVSPropertyOp54
 70
     1
102
RTVSPropertyOp55
 70
     1
102
RTVSPropertyOp56
 70
     1
102
RTVSPropertyOp57
 70
     1
102
RTVSPropertyOp58
 70
     1
102
RTVSPropertyOp59
 70
     1
102
RTVSPropertyOp60
 70
     1
102
RTVSPropertyOp61
 70
     1
102
RTVSPropertyOp62
 70
     1
  0
XRECORD
  5
2722
102
{ACAD_REACTORS
330
2721
102
}
330
2721
100
AcDbXrecord
280
     1
102
RTVSPost2010Prop28
280
     0
102
RTVSPost2010PropOp28
 70
     1
102
RTVSPost2010Prop29
280
     1
102
RTVSPost2010PropOp29
 70
     1
102
RTVSPost2010Prop30
280
     1
102
RTVSPost2010PropOp30
 70
     1
102
RTVSPost2010Prop31
280
     0
102
RTVSPost2010PropOp31
 70
     1
102
RTVSPost2010Prop32
280
     0
102
RTVSPost2010PropOp32
 70
     1
102
RTVSPost2010Prop33
280
     0
102
RTVSPost2010PropOp33
 70
     1
102
RTVSPost2010Prop34
280
     0
102
RTVSPost2010PropOp34
 70
     1
102
RTVSPost2010Prop35
280
     0
102
RTVSPost2010PropOp35
 70
     1
102
RTVSPost2010Prop36
280
     0
102
RTVSPost2010PropOp36
 70
     1
102
RTVSPost2010Prop37
 90
       50
102
RTVSPost2010PropOp37
 70
     1
102
RTVSPost2010Prop38
140
0.0
102
RTVSPost2010PropOp38
 70
     1
102
RTVSPost2010Prop39
140
1.0
102
RTVSPost2010PropOp39
 70
     1
102
RTVSPost2010Prop40
 90
        0
102
RTVSPost2010PropOp40
 70
     1
102
RTVSPost2010Prop41ColorIndex
 90
       18
102
RTVSPost2010Prop41ColorRGB
 90
        0
102
RTVSPost2010PropOp41
 70
     1
102
RTVSPost2010Prop42
 90
       50
102
RTVSPost2010PropOp42
 70
     1
102
RTVSPost2010Prop43
 90
        3
102
RTVSPost2010PropOp43
 70
     1
102
RTVSPost2010Prop44ColorIndex
 90
        5
102
RTVSPost2010Prop44ColorRGB
 90
      255
102
RTVSPost2010PropOp44
 70
     1
102
RTVSPost2010Prop45
280
     0
102
RTVSPost2010PropOp45
 70
     1
102
RTVSPost2010Prop46
 90
       50
102
RTVSPost2010PropOp46
 70
     1
102
RTVSPost2010Prop47
 90
       50
102
RTVSPost2010PropOp47
 70
     1
102
RTVSPost2010Prop48
 90
       50
102
RTVSPost2010PropOp48
 70
     1
102
RTVSPost2010Prop49
280
     0
102
RTVSPost2010PropOp49
 70
     1
102
RTVSPost2010Prop50
 90
       50
102
RTVSPost2010PropOp50
 70
     1
102
RTVSPost2010Prop51ColorIndex
 90
      256
102
RTVSPost2010Prop51ColorRGB
 90
-16777216
102
RTVSPost2010PropOp51
 70
     0
102
RTVSPost2010Prop52
140
1.0
102
RTVSPost2010PropOp52
 70
     0
102
RTVSPost2010Prop53
 90
        2
102
RTVSPost2010PropOp53
 70
     1
102
RTVSPost2010Prop54
  1
strokes_ogs.tif
102
RTVSPost2010PropOp54
 70
     1
102
RTVSPost2010Prop55
280
     0
102
RTVSPost2010PropOp55
 70
     1
102
RTVSPost2010Prop56
140
1.0
102
RTVSPost2010PropOp56
 70
     1
102
RTVSPost2010Prop57
140
1.0
102
RTVSPost2010PropOp57
 70
     1
102
RTVSPropertyOp0
 70
     1
102
RTVSPropertyOp1
 70
     1
102
RTVSPropertyOp2
 70
     1
102
RTVSPropertyOp3
 70
     1
102
RTVSPropertyOp4
 70
     1
102
RTVSPropertyOp5
 70
     1
102
RTVSPropertyOp6
 70
     1
102
RTVSPropertyOp7
 70
     1
102
RTVSPropertyOp8
 70
     1
102
RTVSPropertyOp9
 70
     1
102
RTVSPropertyOp10
 70
     1
102
RTVSPropertyOp11
 70
     1
102
RTVSPropertyOp12
 70
     1
102
RTVSPropertyOp13
 70
     1
102
RTVSPropertyOp14
 70
     1
102
RTVSPropertyOp15
 70
     1
102
RTVSPropertyOp16
 70
     1
102
RTVSPropertyOp17
 70
     1
102
RTVSPropertyOp18
 70
     1
102
RTVSPropertyOp19
 70
     1
102
RTVSPropertyOp20
 70
     1
102
RTVSPropertyOp21
 70
     1
102
RTVSPropertyOp22
 70
     1
102
RTVSPropertyOp23
 70
     1
102
RTVSPropertyOp24
 70
     1
102
RTVSPropertyOp25
 70
     1
102
RTVSPropertyOp26
 70
     1
102
RTVSPropertyOp27
 70
     1
102
RTVSPropertyOp28
 70
     1
102
RTVSPropertyOp29
 70
     1
102
RTVSPropertyOp30
 70
     1
102
RTVSPropertyOp31
 70
     1
102
RTVSPropertyOp32
 70
     1
102
RTVSPropertyOp33
 70
     1
102
RTVSPropertyOp34
 70
     1
102
RTVSPropertyOp35
 70
     1
102
RTVSPropertyOp36
 70
     1
102
RTVSPropertyOp37
 70
     1
102
RTVSPropertyOp38
 70
     1
102
RTVSPropertyOp39
 70
     1
102
RTVSPropertyOp40
 70
     1
102
RTVSPropertyOp41
 70
     1
102
RTVSPropertyOp42
 70
     1
102
RTVSPropertyOp43
 70
     1
102
RTVSPropertyOp44
 70
     1
102
RTVSPropertyOp45
 70
     1
102
RTVSPropertyOp46
 70
     1
102
RTVSPropertyOp47
 70
     1
102
RTVSPropertyOp48
 70
     1
102
RTVSPropertyOp49
 70
     1
102
RTVSPropertyOp50
 70
     1
102
RTVSPropertyOp51
 70
     0
102
RTVSPropertyOp52
 70
     0
102
RTVSPropertyOp53
 70
     1
102
RTVSPropertyOp54
 70
     1
102
RTVSPropertyOp55
 70
     1
102
RTVSPropertyOp56
 70
     1
102
RTVSPropertyOp57
 70
     1
102
RTVSPropertyOp58
 70
     1
102
RTVSPropertyOp59
 70
     1
102
RTVSPropertyOp60
 70
     1
102
RTVSPropertyOp61
 70
     1
102
RTVSPropertyOp62
 70
     1
  0
XRECORD
  5
2706
102
{ACAD_REACTORS
330
2705
102
}
330
2705
100
AcDbXrecord
280
     1
102
RTVSPost2010Prop28
280
     0
102
RTVSPost2010PropOp28
 70
     1
102
RTVSPost2010Prop29
280
     1
102
RTVSPost2010PropOp29
 70
     1
102
RTVSPost2010Prop30
280
     1
102
RTVSPost2010PropOp30
 70
     1
102
RTVSPost2010Prop31
280
     0
102
RTVSPost2010PropOp31
 70
     1
102
RTVSPost2010Prop32
280
     0
102
RTVSPost2010PropOp32
 70
     1
102
RTVSPost2010Prop33
280
     0
102
RTVSPost2010PropOp33
 70
     1
102
RTVSPost2010Prop34
280
     0
102
RTVSPost2010PropOp34
 70
     1
102
RTVSPost2010Prop35
280
     0
102
RTVSPost2010PropOp35
 70
     1
102
RTVSPost2010Prop36
280
     0
102
RTVSPost2010PropOp36
 70
     1
102
RTVSPost2010Prop37
 90
       50
102
RTVSPost2010PropOp37
 70
     1
102
RTVSPost2010Prop38
140
0.0
102
RTVSPost2010PropOp38
 70
     1
102
RTVSPost2010Prop39
140
1.0
102
RTVSPost2010PropOp39
 70
     1
102
RTVSPost2010Prop40
 90
        0
102
RTVSPost2010PropOp40
 70
     1
102
RTVSPost2010Prop41ColorIndex
 90
       18
102
RTVSPost2010Prop41ColorRGB
 90
        0
102
RTVSPost2010PropOp41
 70
     1
102
RTVSPost2010Prop42
 90
       50
102
RTVSPost2010PropOp42
 70
     1
102
RTVSPost2010Prop43
 90
        3
102
RTVSPost2010PropOp43
 70
     1
102
RTVSPost2010Prop44ColorIndex
 90
        5
102
RTVSPost2010Prop44ColorRGB
 90
      255
102
RTVSPost2010PropOp44
 70
     1
102
RTVSPost2010Prop45
280
     0
102
RTVSPost2010PropOp45
 70
     1
102
RTVSPost2010Prop46
 90
       50
102
RTVSPost2010PropOp46
 70
     1
102
RTVSPost2010Prop47
 90
       50
102
RTVSPost2010PropOp47
 70
     1
102
RTVSPost2010Prop48
 90
       50
102
RTVSPost2010PropOp48
 70
     1
102
RTVSPost2010Prop49
280
     0
102
RTVSPost2010PropOp49
 70
     1
102
RTVSPost2010Prop50
 90
       50
102
RTVSPost2010PropOp50
 70
     1
102
RTVSPost2010Prop51ColorIndex
 90
      256
102
RTVSPost2010Prop51ColorRGB
 90
-16777216
102
RTVSPost2010PropOp51
 70
     0
102
RTVSPost2010Prop52
140
1.0
102
RTVSPost2010PropOp52
 70
     0
102
RTVSPost2010Prop53
 90
        2
102
RTVSPost2010PropOp53
 70
     1
102
RTVSPost2010Prop54
  1
strokes_ogs.tif
102
RTVSPost2010PropOp54
 70
     1
102
RTVSPost2010Prop55
280
     0
102
RTVSPost2010PropOp55
 70
     1
102
RTVSPost2010Prop56
140
1.0
102
RTVSPost2010PropOp56
 70
     1
102
RTVSPost2010Prop57
140
1.0
102
RTVSPost2010PropOp57
 70
     1
102
RTVSPropertyOp0
 70
     1
102
RTVSPropertyOp1
 70
     1
102
RTVSPropertyOp2
 70
     1
102
RTVSPropertyOp3
 70
     1
102
RTVSPropertyOp4
 70
     1
102
RTVSPropertyOp5
 70
     1
102
RTVSPropertyOp6
 70
     1
102
RTVSPropertyOp7
 70
     1
102
RTVSPropertyOp8
 70
     1
102
RTVSPropertyOp9
 70
     1
102
RTVSPropertyOp10
 70
     1
102
RTVSPropertyOp11
 70
     1
102
RTVSPropertyOp12
 70
     1
102
RTVSPropertyOp13
 70
     1
102
RTVSPropertyOp14
 70
     1
102
RTVSPropertyOp15
 70
     1
102
RTVSPropertyOp16
 70
     1
102
RTVSPropertyOp17
 70
     1
102
RTVSPropertyOp18
 70
     1
102
RTVSPropertyOp19
 70
     1
102
RTVSPropertyOp20
 70
     1
102
RTVSPropertyOp21
 70
     1
102
RTVSPropertyOp22
 70
     1
102
RTVSPropertyOp23
 70
     1
102
RTVSPropertyOp24
 70
     1
102
RTVSPropertyOp25
 70
     1
102
RTVSPropertyOp26
 70
     1
102
RTVSPropertyOp27
 70
     1
102
RTVSPropertyOp28
 70
     1
102
RTVSPropertyOp29
 70
     1
102
RTVSPropertyOp30
 70
     1
102
RTVSPropertyOp31
 70
     1
102
RTVSPropertyOp32
 70
     1
102
RTVSPropertyOp33
 70
     1
102
RTVSPropertyOp34
 70
     1
102
RTVSPropertyOp35
 70
     1
102
RTVSPropertyOp36
 70
     1
102
RTVSPropertyOp37
 70
     1
102
RTVSPropertyOp38
 70
     1
102
RTVSPropertyOp39
 70
     1
102
RTVSPropertyOp40
 70
     1
102
RTVSPropertyOp41
 70
     1
102
RTVSPropertyOp42
 70
     1
102
RTVSPropertyOp43
 70
     1
102
RTVSPropertyOp44
 70
     1
102
RTVSPropertyOp45
 70
     1
102
RTVSPropertyOp46
 70
     1
102
RTVSPropertyOp47
 70
     1
102
RTVSPropertyOp48
 70
     1
102
RTVSPropertyOp49
 70
     1
102
RTVSPropertyOp50
 70
     1
102
RTVSPropertyOp51
 70
     0
102
RTVSPropertyOp52
 70
     0
102
RTVSPropertyOp53
 70
     1
102
RTVSPropertyOp54
 70
     1
102
RTVSPropertyOp55
 70
     1
102
RTVSPropertyOp56
 70
     1
102
RTVSPropertyOp57
 70
     1
102
RTVSPropertyOp58
 70
     1
102
RTVSPropertyOp59
 70
     1
102
RTVSPropertyOp60
 70
     1
102
RTVSPropertyOp61
 70
     1
102
RTVSPropertyOp62
 70
     1
  0
XRECORD
  5
2708
102
{ACAD_REACTORS
330
2707
102
}
330
2707
100
AcDbXrecord
280
     1
102
RTVSPost2010Prop28
280
     0
102
RTVSPost2010PropOp28
 70
     1
102
RTVSPost2010Prop29
280
     1
102
RTVSPost2010PropOp29
 70
     1
102
RTVSPost2010Prop30
280
     1
102
RTVSPost2010PropOp30
 70
     1
102
RTVSPost2010Prop31
280
     0
102
RTVSPost2010PropOp31
 70
     1
102
RTVSPost2010Prop32
280
     0
102
RTVSPost2010PropOp32
 70
     1
102
RTVSPost2010Prop33
280
     0
102
RTVSPost2010PropOp33
 70
     1
102
RTVSPost2010Prop34
280
     0
102
RTVSPost2010PropOp34
 70
     1
102
RTVSPost2010Prop35
280
     0
102
RTVSPost2010PropOp35
 70
     1
102
RTVSPost2010Prop36
280
     0
102
RTVSPost2010PropOp36
 70
     1
102
RTVSPost2010Prop37
 90
       50
102
RTVSPost2010PropOp37
 70
     1
102
RTVSPost2010Prop38
140
0.0
102
RTVSPost2010PropOp38
 70
     1
102
RTVSPost2010Prop39
140
1.0
102
RTVSPost2010PropOp39
 70
     1
102
RTVSPost2010Prop40
 90
        0
102
RTVSPost2010PropOp40
 70
     1
102
RTVSPost2010Prop41ColorIndex
 90
       18
102
RTVSPost2010Prop41ColorRGB
 90
        0
102
RTVSPost2010PropOp41
 70
     1
102
RTVSPost2010Prop42
 90
       50
102
RTVSPost2010PropOp42
 70
     1
102
RTVSPost2010Prop43
 90
        3
102
RTVSPost2010PropOp43
 70
     1
102
RTVSPost2010Prop44ColorIndex
 90
        5
102
RTVSPost2010Prop44ColorRGB
 90
      255
102
RTVSPost2010PropOp44
 70
     1
102
RTVSPost2010Prop45
280
     0
102
RTVSPost2010PropOp45
 70
     1
102
RTVSPost2010Prop46
 90
       50
102
RTVSPost2010PropOp46
 70
     1
102
RTVSPost2010Prop47
 90
       50
102
RTVSPost2010PropOp47
 70
     1
102
RTVSPost2010Prop48
 90
       50
102
RTVSPost2010PropOp48
 70
     1
102
RTVSPost2010Prop49
280
     0
102
RTVSPost2010PropOp49
 70
     1
102
RTVSPost2010Prop50
 90
       50
102
RTVSPost2010PropOp50
 70
     1
102
RTVSPost2010Prop51ColorIndex
 90
      256
102
RTVSPost2010Prop51ColorRGB
 90
-16777216
102
RTVSPost2010PropOp51
 70
     0
102
RTVSPost2010Prop52
140
1.0
102
RTVSPost2010PropOp52
 70
     0
102
RTVSPost2010Prop53
 90
        2
102
RTVSPost2010PropOp53
 70
     1
102
RTVSPost2010Prop54
  1
strokes_ogs.tif
102
RTVSPost2010PropOp54
 70
     1
102
RTVSPost2010Prop55
280
     0
102
RTVSPost2010PropOp55
 70
     1
102
RTVSPost2010Prop56
140
1.0
102
RTVSPost2010PropOp56
 70
     1
102
RTVSPost2010Prop57
140
1.0
102
RTVSPost2010PropOp57
 70
     1
102
RTVSPropertyOp0
 70
     1
102
RTVSPropertyOp1
 70
     1
102
RTVSPropertyOp2
 70
     1
102
RTVSPropertyOp3
 70
     1
102
RTVSPropertyOp4
 70
     1
102
RTVSPropertyOp5
 70
     1
102
RTVSPropertyOp6
 70
     1
102
RTVSPropertyOp7
 70
     1
102
RTVSPropertyOp8
 70
     1
102
RTVSPropertyOp9
 70
     1
102
RTVSPropertyOp10
 70
     1
102
RTVSPropertyOp11
 70
     1
102
RTVSPropertyOp12
 70
     1
102
RTVSPropertyOp13
 70
     1
102
RTVSPropertyOp14
 70
     1
102
RTVSPropertyOp15
 70
     1
102
RTVSPropertyOp16
 70
     1
102
RTVSPropertyOp17
 70
     1
102
RTVSPropertyOp18
 70
     1
102
RTVSPropertyOp19
 70
     1
102
RTVSPropertyOp20
 70
     1
102
RTVSPropertyOp21
 70
     1
102
RTVSPropertyOp22
 70
     1
102
RTVSPropertyOp23
 70
     1
102
RTVSPropertyOp24
 70
     1
102
RTVSPropertyOp25
 70
     1
102
RTVSPropertyOp26
 70
     1
102
RTVSPropertyOp27
 70
     1
102
RTVSPropertyOp28
 70
     1
102
RTVSPropertyOp29
 70
     1
102
RTVSPropertyOp30
 70
     1
102
RTVSPropertyOp31
 70
     1
102
RTVSPropertyOp32
 70
     1
102
RTVSPropertyOp33
 70
     1
102
RTVSPropertyOp34
 70
     1
102
RTVSPropertyOp35
 70
     1
102
RTVSPropertyOp36
 70
     1
102
RTVSPropertyOp37
 70
     1
102
RTVSPropertyOp38
 70
     1
102
RTVSPropertyOp39
 70
     1
102
RTVSPropertyOp40
 70
     1
102
RTVSPropertyOp41
 70
     1
102
RTVSPropertyOp42
 70
     1
102
RTVSPropertyOp43
 70
     1
102
RTVSPropertyOp44
 70
     1
102
RTVSPropertyOp45
 70
     1
102
RTVSPropertyOp46
 70
     1
102
RTVSPropertyOp47
 70
     1
102
RTVSPropertyOp48
 70
     1
102
RTVSPropertyOp49
 70
     1
102
RTVSPropertyOp50
 70
     1
102
RTVSPropertyOp51
 70
     0
102
RTVSPropertyOp52
 70
     0
102
RTVSPropertyOp53
 70
     1
102
RTVSPropertyOp54
 70
     1
102
RTVSPropertyOp55
 70
     1
102
RTVSPropertyOp56
 70
     1
102
RTVSPropertyOp57
 70
     1
102
RTVSPropertyOp58
 70
     1
102
RTVSPropertyOp59
 70
     1
102
RTVSPropertyOp60
 70
     1
102
RTVSPropertyOp61
 70
     1
102
RTVSPropertyOp62
 70
     1
  0
XRECORD
  5
270A
102
{ACAD_REACTORS
330
2709
102
}
330
2709
100
AcDbXrecord
280
     1
102
RTVSPost2010Prop28
280
     0
102
RTVSPost2010PropOp28
 70
     1
102
RTVSPost2010Prop29
280
     1
102
RTVSPost2010PropOp29
 70
     1
102
RTVSPost2010Prop30
280
     1
102
RTVSPost2010PropOp30
 70
     1
102
RTVSPost2010Prop31
280
     0
102
RTVSPost2010PropOp31
 70
     1
102
RTVSPost2010Prop32
280
     0
102
RTVSPost2010PropOp32
 70
     1
102
RTVSPost2010Prop33
280
     0
102
RTVSPost2010PropOp33
 70
     1
102
RTVSPost2010Prop34
280
     0
102
RTVSPost2010PropOp34
 70
     1
102
RTVSPost2010Prop35
280
     0
102
RTVSPost2010PropOp35
 70
     1
102
RTVSPost2010Prop36
280
     0
102
RTVSPost2010PropOp36
 70
     1
102
RTVSPost2010Prop37
 90
       50
102
RTVSPost2010PropOp37
 70
     1
102
RTVSPost2010Prop38
140
0.0
102
RTVSPost2010PropOp38
 70
     1
102
RTVSPost2010Prop39
140
1.0
102
RTVSPost2010PropOp39
 70
     1
102
RTVSPost2010Prop40
 90
        0
102
RTVSPost2010PropOp40
 70
     1
102
RTVSPost2010Prop41ColorIndex
 90
       18
102
RTVSPost2010Prop41ColorRGB
 90
        0
102
RTVSPost2010PropOp41
 70
     1
102
RTVSPost2010Prop42
 90
       50
102
RTVSPost2010PropOp42
 70
     1
102
RTVSPost2010Prop43
 90
        3
102
RTVSPost2010PropOp43
 70
     1
102
RTVSPost2010Prop44ColorIndex
 90
        5
102
RTVSPost2010Prop44ColorRGB
 90
      255
102
RTVSPost2010PropOp44
 70
     1
102
RTVSPost2010Prop45
280
     0
102
RTVSPost2010PropOp45
 70
     1
102
RTVSPost2010Prop46
 90
       50
102
RTVSPost2010PropOp46
 70
     1
102
RTVSPost2010Prop47
 90
       50
102
RTVSPost2010PropOp47
 70
     1
102
RTVSPost2010Prop48
 90
       50
102
RTVSPost2010PropOp48
 70
     1
102
RTVSPost2010Prop49
280
     0
102
RTVSPost2010PropOp49
 70
     1
102
RTVSPost2010Prop50
 90
       50
102
RTVSPost2010PropOp50
 70
     1
102
RTVSPost2010Prop51ColorIndex
 90
      256
102
RTVSPost2010Prop51ColorRGB
 90
-16777216
102
RTVSPost2010PropOp51
 70
     0
102
RTVSPost2010Prop52
140
1.0
102
RTVSPost2010PropOp52
 70
     0
102
RTVSPost2010Prop53
 90
        2
102
RTVSPost2010PropOp53
 70
     1
102
RTVSPost2010Prop54
  1
strokes_ogs.tif
102
RTVSPost2010PropOp54
 70
     1
102
RTVSPost2010Prop55
280
     0
102
RTVSPost2010PropOp55
 70
     1
102
RTVSPost2010Prop56
140
1.0
102
RTVSPost2010PropOp56
 70
     1
102
RTVSPost2010Prop57
140
1.0
102
RTVSPost2010PropOp57
 70
     1
102
RTVSPropertyOp0
 70
     1
102
RTVSPropertyOp1
 70
     1
102
RTVSPropertyOp2
 70
     1
102
RTVSPropertyOp3
 70
     1
102
RTVSPropertyOp4
 70
     1
102
RTVSPropertyOp5
 70
     1
102
RTVSPropertyOp6
 70
     1
102
RTVSPropertyOp7
 70
     1
102
RTVSPropertyOp8
 70
     1
102
RTVSPropertyOp9
 70
     1
102
RTVSPropertyOp10
 70
     1
102
RTVSPropertyOp11
 70
     1
102
RTVSPropertyOp12
 70
     1
102
RTVSPropertyOp13
 70
     1
102
RTVSPropertyOp14
 70
     1
102
RTVSPropertyOp15
 70
     1
102
RTVSPropertyOp16
 70
     1
102
RTVSPropertyOp17
 70
     1
102
RTVSPropertyOp18
 70
     1
102
RTVSPropertyOp19
 70
     1
102
RTVSPropertyOp20
 70
     1
102
RTVSPropertyOp21
 70
     1
102
RTVSPropertyOp22
 70
     1
102
RTVSPropertyOp23
 70
     1
102
RTVSPropertyOp24
 70
     1
102
RTVSPropertyOp25
 70
     1
102
RTVSPropertyOp26
 70
     1
102
RTVSPropertyOp27
 70
     1
102
RTVSPropertyOp28
 70
     1
102
RTVSPropertyOp29
 70
     1
102
RTVSPropertyOp30
 70
     1
102
RTVSPropertyOp31
 70
     1
102
RTVSPropertyOp32
 70
     1
102
RTVSPropertyOp33
 70
     1
102
RTVSPropertyOp34
 70
     1
102
RTVSPropertyOp35
 70
     1
102
RTVSPropertyOp36
 70
     1
102
RTVSPropertyOp37
 70
     1
102
RTVSPropertyOp38
 70
     1
102
RTVSPropertyOp39
 70
     1
102
RTVSPropertyOp40
 70
     1
102
RTVSPropertyOp41
 70
     1
102
RTVSPropertyOp42
 70
     1
102
RTVSPropertyOp43
 70
     1
102
RTVSPropertyOp44
 70
     1
102
RTVSPropertyOp45
 70
     1
102
RTVSPropertyOp46
 70
     1
102
RTVSPropertyOp47
 70
     1
102
RTVSPropertyOp48
 70
     1
102
RTVSPropertyOp49
 70
     1
102
RTVSPropertyOp50
 70
     1
102
RTVSPropertyOp51
 70
     0
102
RTVSPropertyOp52
 70
     0
102
RTVSPropertyOp53
 70
     1
102
RTVSPropertyOp54
 70
     1
102
RTVSPropertyOp55
 70
     1
102
RTVSPropertyOp56
 70
     1
102
RTVSPropertyOp57
 70
     1
102
RTVSPropertyOp58
 70
     1
102
RTVSPropertyOp59
 70
     1
102
RTVSPropertyOp60
 70
     1
102
RTVSPropertyOp61
 70
     1
102
RTVSPropertyOp62
 70
     1
  0
XRECORD
  5
270C
102
{ACAD_REACTORS
330
270B
102
}
330
270B
100
AcDbXrecord
280
     1
102
RTVSPost2010Prop28
280
     0
102
RTVSPost2010PropOp28
 70
     1
102
RTVSPost2010Prop29
280
     1
102
RTVSPost2010PropOp29
 70
     1
102
RTVSPost2010Prop30
280
     1
102
RTVSPost2010PropOp30
 70
     1
102
RTVSPost2010Prop31
280
     0
102
RTVSPost2010PropOp31
 70
     1
102
RTVSPost2010Prop32
280
     0
102
RTVSPost2010PropOp32
 70
     1
102
RTVSPost2010Prop33
280
     0
102
RTVSPost2010PropOp33
 70
     1
102
RTVSPost2010Prop34
280
     0
102
RTVSPost2010PropOp34
 70
     1
102
RTVSPost2010Prop35
280
     0
102
RTVSPost2010PropOp35
 70
     1
102
RTVSPost2010Prop36
280
     0
102
RTVSPost2010PropOp36
 70
     1
102
RTVSPost2010Prop37
 90
       50
102
RTVSPost2010PropOp37
 70
     1
102
RTVSPost2010Prop38
140
0.0
102
RTVSPost2010PropOp38
 70
     1
102
RTVSPost2010Prop39
140
1.0
102
RTVSPost2010PropOp39
 70
     1
102
RTVSPost2010Prop40
 90
        0
102
RTVSPost2010PropOp40
 70
     1
102
RTVSPost2010Prop41ColorIndex
 90
       18
102
RTVSPost2010Prop41ColorRGB
 90
        0
102
RTVSPost2010PropOp41
 70
     1
102
RTVSPost2010Prop42
 90
       50
102
RTVSPost2010PropOp42
 70
     1
102
RTVSPost2010Prop43
 90
        3
102
RTVSPost2010PropOp43
 70
     1
102
RTVSPost2010Prop44ColorIndex
 90
        5
102
RTVSPost2010Prop44ColorRGB
 90
      255
102
RTVSPost2010PropOp44
 70
     1
102
RTVSPost2010Prop45
280
     0
102
RTVSPost2010PropOp45
 70
     1
102
RTVSPost2010Prop46
 90
       50
102
RTVSPost2010PropOp46
 70
     1
102
RTVSPost2010Prop47
 90
       50
102
RTVSPost2010PropOp47
 70
     1
102
RTVSPost2010Prop48
 90
       50
102
RTVSPost2010PropOp48
 70
     1
102
RTVSPost2010Prop49
280
     0
102
RTVSPost2010PropOp49
 70
     1
102
RTVSPost2010Prop50
 90
       50
102
RTVSPost2010PropOp50
 70
     1
102
RTVSPost2010Prop51ColorIndex
 90
      256
102
RTVSPost2010Prop51ColorRGB
 90
-16777216
102
RTVSPost2010PropOp51
 70
     0
102
RTVSPost2010Prop52
140
1.0
102
RTVSPost2010PropOp52
 70
     0
102
RTVSPost2010Prop53
 90
        2
102
RTVSPost2010PropOp53
 70
     1
102
RTVSPost2010Prop54
  1
strokes_ogs.tif
102
RTVSPost2010PropOp54
 70
     1
102
RTVSPost2010Prop55
280
     0
102
RTVSPost2010PropOp55
 70
     1
102
RTVSPost2010Prop56
140
1.0
102
RTVSPost2010PropOp56
 70
     1
102
RTVSPost2010Prop57
140
1.0
102
RTVSPost2010PropOp57
 70
     1
102
RTVSPropertyOp0
 70
     1
102
RTVSPropertyOp1
 70
     1
102
RTVSPropertyOp2
 70
     1
102
RTVSPropertyOp3
 70
     1
102
RTVSPropertyOp4
 70
     1
102
RTVSPropertyOp5
 70
     1
102
RTVSPropertyOp6
 70
     1
102
RTVSPropertyOp7
 70
     1
102
RTVSPropertyOp8
 70
     1
102
RTVSPropertyOp9
 70
     1
102
RTVSPropertyOp10
 70
     1
102
RTVSPropertyOp11
 70
     1
102
RTVSPropertyOp12
 70
     1
102
RTVSPropertyOp13
 70
     1
102
RTVSPropertyOp14
 70
     1
102
RTVSPropertyOp15
 70
     1
102
RTVSPropertyOp16
 70
     1
102
RTVSPropertyOp17
 70
     1
102
RTVSPropertyOp18
 70
     1
102
RTVSPropertyOp19
 70
     1
102
RTVSPropertyOp20
 70
     1
102
RTVSPropertyOp21
 70
     1
102
RTVSPropertyOp22
 70
     1
102
RTVSPropertyOp23
 70
     1
102
RTVSPropertyOp24
 70
     1
102
RTVSPropertyOp25
 70
     1
102
RTVSPropertyOp26
 70
     1
102
RTVSPropertyOp27
 70
     1
102
RTVSPropertyOp28
 70
     1
102
RTVSPropertyOp29
 70
     1
102
RTVSPropertyOp30
 70
     1
102
RTVSPropertyOp31
 70
     1
102
RTVSPropertyOp32
 70
     1
102
RTVSPropertyOp33
 70
     1
102
RTVSPropertyOp34
 70
     1
102
RTVSPropertyOp35
 70
     1
102
RTVSPropertyOp36
 70
     1
102
RTVSPropertyOp37
 70
     1
102
RTVSPropertyOp38
 70
     1
102
RTVSPropertyOp39
 70
     1
102
RTVSPropertyOp40
 70
     1
102
RTVSPropertyOp41
 70
     1
102
RTVSPropertyOp42
 70
     1
102
RTVSPropertyOp43
 70
     1
102
RTVSPropertyOp44
 70
     1
102
RTVSPropertyOp45
 70
     1
102
RTVSPropertyOp46
 70
     1
102
RTVSPropertyOp47
 70
     1
102
RTVSPropertyOp48
 70
     1
102
RTVSPropertyOp49
 70
     1
102
RTVSPropertyOp50
 70
     1
102
RTVSPropertyOp51
 70
     0
102
RTVSPropertyOp52
 70
     0
102
RTVSPropertyOp53
 70
     1
102
RTVSPropertyOp54
 70
     1
102
RTVSPropertyOp55
 70
     1
102
RTVSPropertyOp56
 70
     1
102
RTVSPropertyOp57
 70
     1
102
RTVSPropertyOp58
 70
     1
102
RTVSPropertyOp59
 70
     1
102
RTVSPropertyOp60
 70
     1
102
RTVSPropertyOp61
 70
     1
102
RTVSPropertyOp62
 70
     1
  0
XRECORD
  5
274F
102
{ACAD_REACTORS
330
274E
102
}
330
274E
100
AcDbXrecord
280
     1
102
RTVSPost2010Prop28
280
     0
102
RTVSPost2010PropOp28
 70
     1
102
RTVSPost2010Prop29
280
     1
102
RTVSPost2010PropOp29
 70
     1
102
RTVSPost2010Prop30
280
     1
102
RTVSPost2010PropOp30
 70
     1
102
RTVSPost2010Prop31
280
     0
102
RTVSPost2010PropOp31
 70
     1
102
RTVSPost2010Prop32
280
     0
102
RTVSPost2010PropOp32
 70
     1
102
RTVSPost2010Prop33
280
     0
102
RTVSPost2010PropOp33
 70
     1
102
RTVSPost2010Prop34
280
     0
102
RTVSPost2010PropOp34
 70
     1
102
RTVSPost2010Prop35
280
     0
102
RTVSPost2010PropOp35
 70
     1
102
RTVSPost2010Prop36
280
     0
102
RTVSPost2010PropOp36
 70
     1
102
RTVSPost2010Prop37
 90
       50
102
RTVSPost2010PropOp37
 70
     1
102
RTVSPost2010Prop38
140
0.0
102
RTVSPost2010PropOp38
 70
     1
102
RTVSPost2010Prop39
140
1.0
102
RTVSPost2010PropOp39
 70
     1
102
RTVSPost2010Prop40
 90
        0
102
RTVSPost2010PropOp40
 70
     1
102
RTVSPost2010Prop41ColorIndex
 90
       18
102
RTVSPost2010Prop41ColorRGB
 90
        0
102
RTVSPost2010PropOp41
 70
     1
102
RTVSPost2010Prop42
 90
       50
102
RTVSPost2010PropOp42
 70
     1
102
RTVSPost2010Prop43
 90
        3
102
RTVSPost2010PropOp43
 70
     1
102
RTVSPost2010Prop44ColorIndex
 90
        5
102
RTVSPost2010Prop44ColorRGB
 90
      255
102
RTVSPost2010PropOp44
 70
     1
102
RTVSPost2010Prop45
280
     0
102
RTVSPost2010PropOp45
 70
     1
102
RTVSPost2010Prop46
 90
       50
102
RTVSPost2010PropOp46
 70
     1
102
RTVSPost2010Prop47
 90
       50
102
RTVSPost2010PropOp47
 70
     1
102
RTVSPost2010Prop48
 90
       50
102
RTVSPost2010PropOp48
 70
     1
102
RTVSPost2010Prop49
280
     0
102
RTVSPost2010PropOp49
 70
     1
102
RTVSPost2010Prop50
 90
       50
102
RTVSPost2010PropOp50
 70
     1
102
RTVSPost2010Prop51ColorIndex
 90
      256
102
RTVSPost2010Prop51ColorRGB
 90
-16777216
102
RTVSPost2010PropOp51
 70
     0
102
RTVSPost2010Prop52
140
1.0
102
RTVSPost2010PropOp52
 70
     0
102
RTVSPost2010Prop53
 90
        2
102
RTVSPost2010PropOp53
 70
     1
102
RTVSPost2010Prop54
  1
strokes_ogs.tif
102
RTVSPost2010PropOp54
 70
     1
102
RTVSPost2010Prop55
280
     0
102
RTVSPost2010PropOp55
 70
     1
102
RTVSPost2010Prop56
140
1.0
102
RTVSPost2010PropOp56
 70
     1
102
RTVSPost2010Prop57
140
1.0
102
RTVSPost2010PropOp57
 70
     1
102
RTVSPropertyOp0
 70
     1
102
RTVSPropertyOp1
 70
     1
102
RTVSPropertyOp2
 70
     1
102
RTVSPropertyOp3
 70
     1
102
RTVSPropertyOp4
 70
     1
102
RTVSPropertyOp5
 70
     1
102
RTVSPropertyOp6
 70
     1
102
RTVSPropertyOp7
 70
     1
102
RTVSPropertyOp8
 70
     1
102
RTVSPropertyOp9
 70
     1
102
RTVSPropertyOp10
 70
     1
102
RTVSPropertyOp11
 70
     1
102
RTVSPropertyOp12
 70
     1
102
RTVSPropertyOp13
 70
     1
102
RTVSPropertyOp14
 70
     1
102
RTVSPropertyOp15
 70
     1
102
RTVSPropertyOp16
 70
     1
102
RTVSPropertyOp17
 70
     1
102
RTVSPropertyOp18
 70
     1
102
RTVSPropertyOp19
 70
     1
102
RTVSPropertyOp20
 70
     1
102
RTVSPropertyOp21
 70
     1
102
RTVSPropertyOp22
 70
     1
102
RTVSPropertyOp23
 70
     1
102
RTVSPropertyOp24
 70
     1
102
RTVSPropertyOp25
 70
     1
102
RTVSPropertyOp26
 70
     1
102
RTVSPropertyOp27
 70
     1
102
RTVSPropertyOp28
 70
     1
102
RTVSPropertyOp29
 70
     1
102
RTVSPropertyOp30
 70
     1
102
RTVSPropertyOp31
 70
     1
102
RTVSPropertyOp32
 70
     1
102
RTVSPropertyOp33
 70
     1
102
RTVSPropertyOp34
 70
     1
102
RTVSPropertyOp35
 70
     1
102
RTVSPropertyOp36
 70
     1
102
RTVSPropertyOp37
 70
     1
102
RTVSPropertyOp38
 70
     1
102
RTVSPropertyOp39
 70
     1
102
RTVSPropertyOp40
 70
     1
102
RTVSPropertyOp41
 70
     1
102
RTVSPropertyOp42
 70
     1
102
RTVSPropertyOp43
 70
     1
102
RTVSPropertyOp44
 70
     1
102
RTVSPropertyOp45
 70
     1
102
RTVSPropertyOp46
 70
     1
102
RTVSPropertyOp47
 70
     1
102
RTVSPropertyOp48
 70
     1
102
RTVSPropertyOp49
 70
     1
102
RTVSPropertyOp50
 70
     1
102
RTVSPropertyOp51
 70
     0
102
RTVSPropertyOp52
 70
     0
102
RTVSPropertyOp53
 70
     1
102
RTVSPropertyOp54
 70
     1
102
RTVSPropertyOp55
 70
     1
102
RTVSPropertyOp56
 70
     1
102
RTVSPropertyOp57
 70
     1
102
RTVSPropertyOp58
 70
     1
102
RTVSPropertyOp59
 70
     1
102
RTVSPropertyOp60
 70
     1
102
RTVSPropertyOp61
 70
     1
102
RTVSPropertyOp62
 70
     1
  0
XRECORD
  5
2727
102
{ACAD_REACTORS
330
2726
102
}
330
2726
100
AcDbXrecord
280
     1
102
RTVSPost2010Prop28
280
     0
102
RTVSPost2010PropOp28
 70
     1
102
RTVSPost2010Prop29
280
     1
102
RTVSPost2010PropOp29
 70
     1
102
RTVSPost2010Prop30
280
     1
102
RTVSPost2010PropOp30
 70
     1
102
RTVSPost2010Prop31
280
     0
102
RTVSPost2010PropOp31
 70
     1
102
RTVSPost2010Prop32
280
     0
102
RTVSPost2010PropOp32
 70
     1
102
RTVSPost2010Prop33
280
     0
102
RTVSPost2010PropOp33
 70
     1
102
RTVSPost2010Prop34
280
     0
102
RTVSPost2010PropOp34
 70
     1
102
RTVSPost2010Prop35
280
     0
102
RTVSPost2010PropOp35
 70
     1
102
RTVSPost2010Prop36
280
     0
102
RTVSPost2010PropOp36
 70
     1
102
RTVSPost2010Prop37
 90
       50
102
RTVSPost2010PropOp37
 70
     1
102
RTVSPost2010Prop38
140
0.0
102
RTVSPost2010PropOp38
 70
     1
102
RTVSPost2010Prop39
140
1.0
102
RTVSPost2010PropOp39
 70
     1
102
RTVSPost2010Prop40
 90
        0
102
RTVSPost2010PropOp40
 70
     1
102
RTVSPost2010Prop41ColorIndex
 90
       18
102
RTVSPost2010Prop41ColorRGB
 90
        0
102
RTVSPost2010PropOp41
 70
     1
102
RTVSPost2010Prop42
 90
       50
102
RTVSPost2010PropOp42
 70
     1
102
RTVSPost2010Prop43
 90
        3
102
RTVSPost2010PropOp43
 70
     1
102
RTVSPost2010Prop44ColorIndex
 90
        5
102
RTVSPost2010Prop44ColorRGB
 90
      255
102
RTVSPost2010PropOp44
 70
     1
102
RTVSPost2010Prop45
280
     0
102
RTVSPost2010PropOp45
 70
     1
102
RTVSPost2010Prop46
 90
       50
102
RTVSPost2010PropOp46
 70
     1
102
RTVSPost2010Prop47
 90
       50
102
RTVSPost2010PropOp47
 70
     1
102
RTVSPost2010Prop48
 90
       50
102
RTVSPost2010PropOp48
 70
     1
102
RTVSPost2010Prop49
280
     0
102
RTVSPost2010PropOp49
 70
     1
102
RTVSPost2010Prop50
 90
       50
102
RTVSPost2010PropOp50
 70
     1
102
RTVSPost2010Prop51ColorIndex
 90
      256
102
RTVSPost2010Prop51ColorRGB
 90
-16777216
102
RTVSPost2010PropOp51
 70
     0
102
RTVSPost2010Prop52
140
1.0
102
RTVSPost2010PropOp52
 70
     0
102
RTVSPost2010Prop53
 90
        2
102
RTVSPost2010PropOp53
 70
     1
102
RTVSPost2010Prop54
  1
strokes_ogs.tif
102
RTVSPost2010PropOp54
 70
     1
102
RTVSPost2010Prop55
280
     0
102
RTVSPost2010PropOp55
 70
     1
102
RTVSPost2010Prop56
140
1.0
102
RTVSPost2010PropOp56
 70
     1
102
RTVSPost2010Prop57
140
1.0
102
RTVSPost2010PropOp57
 70
     1
102
RTVSPropertyOp0
 70
     0
102
RTVSPropertyOp1
 70
     0
102
RTVSPropertyOp2
 70
     0
102
RTVSPropertyOp3
 70
     0
102
RTVSPropertyOp4
 70
     0
102
RTVSPropertyOp5
 70
     0
102
RTVSPropertyOp6
 70
     0
102
RTVSPropertyOp7
 70
     0
102
RTVSPropertyOp8
 70
     0
102
RTVSPropertyOp9
 70
     0
102
RTVSPropertyOp10
 70
     0
102
RTVSPropertyOp11
 70
     0
102
RTVSPropertyOp12
 70
     0
102
RTVSPropertyOp13
 70
     0
102
RTVSPropertyOp14
 70
     2
102
RTVSPropertyOp15
 70
     0
102
RTVSPropertyOp16
 70
     0
102
RTVSPropertyOp17
 70
     0
102
RTVSPropertyOp18
 70
     0
102
RTVSPropertyOp19
 70
     0
102
RTVSPropertyOp20
 70
     0
102
RTVSPropertyOp21
 70
     0
102
RTVSPropertyOp22
 70
     0
102
RTVSPropertyOp23
 70
     0
102
RTVSPropertyOp24
 70
     0
102
RTVSPropertyOp25
 70
     0
102
RTVSPropertyOp26
 70
     0
102
RTVSPropertyOp27
 70
     0
102
RTVSPropertyOp28
 70
     1
102
RTVSPropertyOp29
 70
     1
102
RTVSPropertyOp30
 70
     1
102
RTVSPropertyOp31
 70
     1
102
RTVSPropertyOp32
 70
     1
102
RTVSPropertyOp33
 70
     1
102
RTVSPropertyOp34
 70
     1
102
RTVSPropertyOp35
 70
     1
102
RTVSPropertyOp36
 70
     1
102
RTVSPropertyOp37
 70
     1
102
RTVSPropertyOp38
 70
     1
102
RTVSPropertyOp39
 70
     1
102
RTVSPropertyOp40
 70
     1
102
RTVSPropertyOp41
 70
     1
102
RTVSPropertyOp42
 70
     1
102
RTVSPropertyOp43
 70
     1
102
RTVSPropertyOp44
 70
     1
102
RTVSPropertyOp45
 70
     1
102
RTVSPropertyOp46
 70
     1
102
RTVSPropertyOp47
 70
     1
102
RTVSPropertyOp48
 70
     1
102
RTVSPropertyOp49
 70
     1
102
RTVSPropertyOp50
 70
     1
102
RTVSPropertyOp51
 70
     0
102
RTVSPropertyOp52
 70
     0
102
RTVSPropertyOp53
 70
     1
102
RTVSPropertyOp54
 70
     1
102
RTVSPropertyOp55
 70
     1
102
RTVSPropertyOp56
 70
     1
102
RTVSPropertyOp57
 70
     1
102
RTVSPropertyOp58
 70
     1
102
RTVSPropertyOp59
 70
     1
102
RTVSPropertyOp60
 70
     1
102
RTVSPropertyOp61
 70
     1
102
RTVSPropertyOp62
 70
     1
  0
XRECORD
  5
2720
102
{ACAD_REACTORS
330
271F
102
}
330
271F
100
AcDbXrecord
280
     1
102
RTVSPost2010Prop28
280
     0
102
RTVSPost2010PropOp28
 70
     1
102
RTVSPost2010Prop29
280
     1
102
RTVSPost2010PropOp29
 70
     1
102
RTVSPost2010Prop30
280
     1
102
RTVSPost2010PropOp30
 70
     1
102
RTVSPost2010Prop31
280
     0
102
RTVSPost2010PropOp31
 70
     1
102
RTVSPost2010Prop32
280
     0
102
RTVSPost2010PropOp32
 70
     1
102
RTVSPost2010Prop33
280
     0
102
RTVSPost2010PropOp33
 70
     1
102
RTVSPost2010Prop34
280
     0
102
RTVSPost2010PropOp34
 70
     1
102
RTVSPost2010Prop35
280
     0
102
RTVSPost2010PropOp35
 70
     1
102
RTVSPost2010Prop36
280
     0
102
RTVSPost2010PropOp36
 70
     1
102
RTVSPost2010Prop37
 90
       50
102
RTVSPost2010PropOp37
 70
     1
102
RTVSPost2010Prop38
140
0.0
102
RTVSPost2010PropOp38
 70
     1
102
RTVSPost2010Prop39
140
1.0
102
RTVSPost2010PropOp39
 70
     1
102
RTVSPost2010Prop40
 90
        0
102
RTVSPost2010PropOp40
 70
     1
102
RTVSPost2010Prop41ColorIndex
 90
       18
102
RTVSPost2010Prop41ColorRGB
 90
        0
102
RTVSPost2010PropOp41
 70
     1
102
RTVSPost2010Prop42
 90
       50
102
RTVSPost2010PropOp42
 70
     1
102
RTVSPost2010Prop43
 90
        3
102
RTVSPost2010PropOp43
 70
     1
102
RTVSPost2010Prop44ColorIndex
 90
        5
102
RTVSPost2010Prop44ColorRGB
 90
      255
102
RTVSPost2010PropOp44
 70
     1
102
RTVSPost2010Prop45
280
     0
102
RTVSPost2010PropOp45
 70
     1
102
RTVSPost2010Prop46
 90
       50
102
RTVSPost2010PropOp46
 70
     1
102
RTVSPost2010Prop47
 90
       50
102
RTVSPost2010PropOp47
 70
     1
102
RTVSPost2010Prop48
 90
       50
102
RTVSPost2010PropOp48
 70
     1
102
RTVSPost2010Prop49
280
     0
102
RTVSPost2010PropOp49
 70
     1
102
RTVSPost2010Prop50
 90
       50
102
RTVSPost2010PropOp50
 70
     1
102
RTVSPost2010Prop51ColorIndex
 90
      256
102
RTVSPost2010Prop51ColorRGB
 90
-16777216
102
RTVSPost2010PropOp51
 70
     0
102
RTVSPost2010Prop52
140
1.0
102
RTVSPost2010PropOp52
 70
     0
102
RTVSPost2010Prop53
 90
        2
102
RTVSPost2010PropOp53
 70
     1
102
RTVSPost2010Prop54
  1
strokes_ogs.tif
102
RTVSPost2010PropOp54
 70
     1
102
RTVSPost2010Prop55
280
     0
102
RTVSPost2010PropOp55
 70
     1
102
RTVSPost2010Prop56
140
1.0
102
RTVSPost2010PropOp56
 70
     1
102
RTVSPost2010Prop57
140
1.0
102
RTVSPost2010PropOp57
 70
     1
102
RTVSPropertyOp0
 70
     1
102
RTVSPropertyOp1
 70
     1
102
RTVSPropertyOp2
 70
     1
102
RTVSPropertyOp3
 70
     1
102
RTVSPropertyOp4
 70
     1
102
RTVSPropertyOp5
 70
     1
102
RTVSPropertyOp6
 70
     1
102
RTVSPropertyOp7
 70
     1
102
RTVSPropertyOp8
 70
     1
102
RTVSPropertyOp9
 70
     1
102
RTVSPropertyOp10
 70
     1
102
RTVSPropertyOp11
 70
     1
102
RTVSPropertyOp12
 70
     1
102
RTVSPropertyOp13
 70
     1
102
RTVSPropertyOp14
 70
     1
102
RTVSPropertyOp15
 70
     1
102
RTVSPropertyOp16
 70
     1
102
RTVSPropertyOp17
 70
     1
102
RTVSPropertyOp18
 70
     1
102
RTVSPropertyOp19
 70
     1
102
RTVSPropertyOp20
 70
     1
102
RTVSPropertyOp21
 70
     1
102
RTVSPropertyOp22
 70
     1
102
RTVSPropertyOp23
 70
     1
102
RTVSPropertyOp24
 70
     1
102
RTVSPropertyOp25
 70
     1
102
RTVSPropertyOp26
 70
     1
102
RTVSPropertyOp27
 70
     1
102
RTVSPropertyOp28
 70
     1
102
RTVSPropertyOp29
 70
     1
102
RTVSPropertyOp30
 70
     1
102
RTVSPropertyOp31
 70
     1
102
RTVSPropertyOp32
 70
     1
102
RTVSPropertyOp33
 70
     1
102
RTVSPropertyOp34
 70
     1
102
RTVSPropertyOp35
 70
     1
102
RTVSPropertyOp36
 70
     1
102
RTVSPropertyOp37
 70
     1
102
RTVSPropertyOp38
 70
     1
102
RTVSPropertyOp39
 70
     1
102
RTVSPropertyOp40
 70
     1
102
RTVSPropertyOp41
 70
     1
102
RTVSPropertyOp42
 70
     1
102
RTVSPropertyOp43
 70
     1
102
RTVSPropertyOp44
 70
     1
102
RTVSPropertyOp45
 70
     1
102
RTVSPropertyOp46
 70
     1
102
RTVSPropertyOp47
 70
     1
102
RTVSPropertyOp48
 70
     1
102
RTVSPropertyOp49
 70
     1
102
RTVSPropertyOp50
 70
     1
102
RTVSPropertyOp51
 70
     0
102
RTVSPropertyOp52
 70
     0
102
RTVSPropertyOp53
 70
     1
102
RTVSPropertyOp54
 70
     1
102
RTVSPropertyOp55
 70
     1
102
RTVSPropertyOp56
 70
     1
102
RTVSPropertyOp57
 70
     1
102
RTVSPropertyOp58
 70
     1
102
RTVSPropertyOp59
 70
     1
102
RTVSPropertyOp60
 70
     1
102
RTVSPropertyOp61
 70
     1
102
RTVSPropertyOp62
 70
     1
  0
XRECORD
  5
2729
102
{ACAD_REACTORS
330
2728
102
}
330
2728
100
AcDbXrecord
280
     1
102
RTVSPost2010Prop28
280
     0
102
RTVSPost2010PropOp28
 70
     1
102
RTVSPost2010Prop29
280
     1
102
RTVSPost2010PropOp29
 70
     1
102
RTVSPost2010Prop30
280
     1
102
RTVSPost2010PropOp30
 70
     1
102
RTVSPost2010Prop31
280
     0
102
RTVSPost2010PropOp31
 70
     1
102
RTVSPost2010Prop32
280
     0
102
RTVSPost2010PropOp32
 70
     1
102
RTVSPost2010Prop33
280
     0
102
RTVSPost2010PropOp33
 70
     1
102
RTVSPost2010Prop34
280
     0
102
RTVSPost2010PropOp34
 70
     1
102
RTVSPost2010Prop35
280
     0
102
RTVSPost2010PropOp35
 70
     1
102
RTVSPost2010Prop36
280
     0
102
RTVSPost2010PropOp36
 70
     1
102
RTVSPost2010Prop37
 90
       50
102
RTVSPost2010PropOp37
 70
     1
102
RTVSPost2010Prop38
140
0.0
102
RTVSPost2010PropOp38
 70
     1
102
RTVSPost2010Prop39
140
1.0
102
RTVSPost2010PropOp39
 70
     1
102
RTVSPost2010Prop40
 90
        0
102
RTVSPost2010PropOp40
 70
     1
102
RTVSPost2010Prop41ColorIndex
 90
       18
102
RTVSPost2010Prop41ColorRGB
 90
        0
102
RTVSPost2010PropOp41
 70
     1
102
RTVSPost2010Prop42
 90
       50
102
RTVSPost2010PropOp42
 70
     1
102
RTVSPost2010Prop43
 90
        3
102
RTVSPost2010PropOp43
 70
     1
102
RTVSPost2010Prop44ColorIndex
 90
        5
102
RTVSPost2010Prop44ColorRGB
 90
      255
102
RTVSPost2010PropOp44
 70
     1
102
RTVSPost2010Prop45
280
     0
102
RTVSPost2010PropOp45
 70
     1
102
RTVSPost2010Prop46
 90
       50
102
RTVSPost2010PropOp46
 70
     1
102
RTVSPost2010Prop47
 90
       50
102
RTVSPost2010PropOp47
 70
     1
102
RTVSPost2010Prop48
 90
       50
102
RTVSPost2010PropOp48
 70
     1
102
RTVSPost2010Prop49
280
     0
102
RTVSPost2010PropOp49
 70
     1
102
RTVSPost2010Prop50
 90
       50
102
RTVSPost2010PropOp50
 70
     1
102
RTVSPost2010Prop51ColorIndex
 90
      256
102
RTVSPost2010Prop51ColorRGB
 90
-16777216
102
RTVSPost2010PropOp51
 70
     0
102
RTVSPost2010Prop52
140
1.0
102
RTVSPost2010PropOp52
 70
     0
102
RTVSPost2010Prop53
 90
        2
102
RTVSPost2010PropOp53
 70
     1
102
RTVSPost2010Prop54
  1
strokes_ogs.tif
102
RTVSPost2010PropOp54
 70
     1
102
RTVSPost2010Prop55
280
     0
102
RTVSPost2010PropOp55
 70
     1
102
RTVSPost2010Prop56
140
1.0
102
RTVSPost2010PropOp56
 70
     1
102
RTVSPost2010Prop57
140
1.0
102
RTVSPost2010PropOp57
 70
     1
102
RTVSPropertyOp0
 70
     0
102
RTVSPropertyOp1
 70
     0
102
RTVSPropertyOp2
 70
     0
102
RTVSPropertyOp3
 70
     0
102
RTVSPropertyOp4
 70
     0
102
RTVSPropertyOp5
 70
     0
102
RTVSPropertyOp6
 70
     0
102
RTVSPropertyOp7
 70
     0
102
RTVSPropertyOp8
 70
     0
102
RTVSPropertyOp9
 70
     0
102
RTVSPropertyOp10
 70
     0
102
RTVSPropertyOp11
 70
     0
102
RTVSPropertyOp12
 70
     0
102
RTVSPropertyOp13
 70
     0
102
RTVSPropertyOp14
 70
     2
102
RTVSPropertyOp15
 70
     0
102
RTVSPropertyOp16
 70
     0
102
RTVSPropertyOp17
 70
     0
102
RTVSPropertyOp18
 70
     0
102
RTVSPropertyOp19
 70
     0
102
RTVSPropertyOp20
 70
     0
102
RTVSPropertyOp21
 70
     0
102
RTVSPropertyOp22
 70
     0
102
RTVSPropertyOp23
 70
     0
102
RTVSPropertyOp24
 70
     0
102
RTVSPropertyOp25
 70
     0
102
RTVSPropertyOp26
 70
     0
102
RTVSPropertyOp27
 70
     0
102
RTVSPropertyOp28
 70
     1
102
RTVSPropertyOp29
 70
     1
102
RTVSPropertyOp30
 70
     1
102
RTVSPropertyOp31
 70
     1
102
RTVSPropertyOp32
 70
     1
102
RTVSPropertyOp33
 70
     1
102
RTVSPropertyOp34
 70
     1
102
RTVSPropertyOp35
 70
     1
102
RTVSPropertyOp36
 70
     1
102
RTVSPropertyOp37
 70
     1
102
RTVSPropertyOp38
 70
     1
102
RTVSPropertyOp39
 70
     1
102
RTVSPropertyOp40
 70
     1
102
RTVSPropertyOp41
 70
     1
102
RTVSPropertyOp42
 70
     1
102
RTVSPropertyOp43
 70
     1
102
RTVSPropertyOp44
 70
     1
102
RTVSPropertyOp45
 70
     1
102
RTVSPropertyOp46
 70
     1
102
RTVSPropertyOp47
 70
     1
102
RTVSPropertyOp48
 70
     1
102
RTVSPropertyOp49
 70
     1
102
RTVSPropertyOp50
 70
     1
102
RTVSPropertyOp51
 70
     0
102
RTVSPropertyOp52
 70
     0
102
RTVSPropertyOp53
 70
     1
102
RTVSPropertyOp54
 70
     1
102
RTVSPropertyOp55
 70
     1
102
RTVSPropertyOp56
 70
     1
102
RTVSPropertyOp57
 70
     1
102
RTVSPropertyOp58
 70
     1
102
RTVSPropertyOp59
 70
     1
102
RTVSPropertyOp60
 70
     1
102
RTVSPropertyOp61
 70
     1
102
RTVSPropertyOp62
 70
     1
  0
XRECORD
  5
2718
102
{ACAD_REACTORS
330
2717
102
}
330
2717
100
AcDbXrecord
280
     1
102
RTVSPost2010Prop28
280
     0
102
RTVSPost2010PropOp28
 70
     1
102
RTVSPost2010Prop29
280
     1
102
RTVSPost2010PropOp29
 70
     1
102
RTVSPost2010Prop30
280
     1
102
RTVSPost2010PropOp30
 70
     1
102
RTVSPost2010Prop31
280
     0
102
RTVSPost2010PropOp31
 70
     1
102
RTVSPost2010Prop32
280
     0
102
RTVSPost2010PropOp32
 70
     1
102
RTVSPost2010Prop33
280
     0
102
RTVSPost2010PropOp33
 70
     1
102
RTVSPost2010Prop34
280
     0
102
RTVSPost2010PropOp34
 70
     1
102
RTVSPost2010Prop35
280
     0
102
RTVSPost2010PropOp35
 70
     1
102
RTVSPost2010Prop36
280
     0
102
RTVSPost2010PropOp36
 70
     1
102
RTVSPost2010Prop37
 90
       50
102
RTVSPost2010PropOp37
 70
     1
102
RTVSPost2010Prop38
140
0.0
102
RTVSPost2010PropOp38
 70
     1
102
RTVSPost2010Prop39
140
1.0
102
RTVSPost2010PropOp39
 70
     1
102
RTVSPost2010Prop40
 90
        0
102
RTVSPost2010PropOp40
 70
     1
102
RTVSPost2010Prop41ColorIndex
 90
       18
102
RTVSPost2010Prop41ColorRGB
 90
        0
102
RTVSPost2010PropOp41
 70
     1
102
RTVSPost2010Prop42
 90
       50
102
RTVSPost2010PropOp42
 70
     1
102
RTVSPost2010Prop43
 90
        3
102
RTVSPost2010PropOp43
 70
     1
102
RTVSPost2010Prop44ColorIndex
 90
        5
102
RTVSPost2010Prop44ColorRGB
 90
      255
102
RTVSPost2010PropOp44
 70
     1
102
RTVSPost2010Prop45
280
     0
102
RTVSPost2010PropOp45
 70
     1
102
RTVSPost2010Prop46
 90
       50
102
RTVSPost2010PropOp46
 70
     1
102
RTVSPost2010Prop47
 90
       50
102
RTVSPost2010PropOp47
 70
     1
102
RTVSPost2010Prop48
 90
       50
102
RTVSPost2010PropOp48
 70
     1
102
RTVSPost2010Prop49
280
     0
102
RTVSPost2010PropOp49
 70
     1
102
RTVSPost2010Prop50
 90
       50
102
RTVSPost2010PropOp50
 70
     1
102
RTVSPost2010Prop51ColorIndex
 90
      256
102
RTVSPost2010Prop51ColorRGB
 90
-16777216
102
RTVSPost2010PropOp51
 70
     0
102
RTVSPost2010Prop52
140
1.0
102
RTVSPost2010PropOp52
 70
     0
102
RTVSPost2010Prop53
 90
        2
102
RTVSPost2010PropOp53
 70
     1
102
RTVSPost2010Prop54
  1
strokes_ogs.tif
102
RTVSPost2010PropOp54
 70
     1
102
RTVSPost2010Prop55
280
     0
102
RTVSPost2010PropOp55
 70
     1
102
RTVSPost2010Prop56
140
1.0
102
RTVSPost2010PropOp56
 70
     1
102
RTVSPost2010Prop57
140
1.0
102
RTVSPost2010PropOp57
 70
     1
102
RTVSPropertyOp0
 70
     1
102
RTVSPropertyOp1
 70
     1
102
RTVSPropertyOp2
 70
     1
102
RTVSPropertyOp3
 70
     1
102
RTVSPropertyOp4
 70
     1
102
RTVSPropertyOp5
 70
     1
102
RTVSPropertyOp6
 70
     1
102
RTVSPropertyOp7
 70
     1
102
RTVSPropertyOp8
 70
     1
102
RTVSPropertyOp9
 70
     1
102
RTVSPropertyOp10
 70
     1
102
RTVSPropertyOp11
 70
     1
102
RTVSPropertyOp12
 70
     1
102
RTVSPropertyOp13
 70
     1
102
RTVSPropertyOp14
 70
     1
102
RTVSPropertyOp15
 70
     1
102
RTVSPropertyOp16
 70
     1
102
RTVSPropertyOp17
 70
     1
102
RTVSPropertyOp18
 70
     1
102
RTVSPropertyOp19
 70
     1
102
RTVSPropertyOp20
 70
     1
102
RTVSPropertyOp21
 70
     1
102
RTVSPropertyOp22
 70
     1
102
RTVSPropertyOp23
 70
     1
102
RTVSPropertyOp24
 70
     1
102
RTVSPropertyOp25
 70
     1
102
RTVSPropertyOp26
 70
     1
102
RTVSPropertyOp27
 70
     1
102
RTVSPropertyOp28
 70
     1
102
RTVSPropertyOp29
 70
     1
102
RTVSPropertyOp30
 70
     1
102
RTVSPropertyOp31
 70
     1
102
RTVSPropertyOp32
 70
     1
102
RTVSPropertyOp33
 70
     1
102
RTVSPropertyOp34
 70
     1
102
RTVSPropertyOp35
 70
     1
102
RTVSPropertyOp36
 70
     1
102
RTVSPropertyOp37
 70
     1
102
RTVSPropertyOp38
 70
     1
102
RTVSPropertyOp39
 70
     1
102
RTVSPropertyOp40
 70
     1
102
RTVSPropertyOp41
 70
     1
102
RTVSPropertyOp42
 70
     1
102
RTVSPropertyOp43
 70
     1
102
RTVSPropertyOp44
 70
     1
102
RTVSPropertyOp45
 70
     1
102
RTVSPropertyOp46
 70
     1
102
RTVSPropertyOp47
 70
     1
102
RTVSPropertyOp48
 70
     1
102
RTVSPropertyOp49
 70
     1
102
RTVSPropertyOp50
 70
     1
102
RTVSPropertyOp51
 70
     0
102
RTVSPropertyOp52
 70
     0
102
RTVSPropertyOp53
 70
     1
102
RTVSPropertyOp54
 70
     1
102
RTVSPropertyOp55
 70
     1
102
RTVSPropertyOp56
 70
     1
102
RTVSPropertyOp57
 70
     1
102
RTVSPropertyOp58
 70
     1
102
RTVSPropertyOp59
 70
     1
102
RTVSPropertyOp60
 70
     1
102
RTVSPropertyOp61
 70
     1
102
RTVSPropertyOp62
 70
     1
  0
XRECORD
  5
2759
102
{ACAD_REACTORS
330
2758
102
}
330
2758
100
AcDbXrecord
280
     1
102
RTVSPost2010Prop28
280
     0
102
RTVSPost2010PropOp28
 70
     1
102
RTVSPost2010Prop29
280
     1
102
RTVSPost2010PropOp29
 70
     1
102
RTVSPost2010Prop30
280
     1
102
RTVSPost2010PropOp30
 70
     1
102
RTVSPost2010Prop31
280
     0
102
RTVSPost2010PropOp31
 70
     1
102
RTVSPost2010Prop32
280
     0
102
RTVSPost2010PropOp32
 70
     1
102
RTVSPost2010Prop33
280
     0
102
RTVSPost2010PropOp33
 70
     1
102
RTVSPost2010Prop34
280
     0
102
RTVSPost2010PropOp34
 70
     1
102
RTVSPost2010Prop35
280
     0
102
RTVSPost2010PropOp35
 70
     1
102
RTVSPost2010Prop36
280
     0
102
RTVSPost2010PropOp36
 70
     1
102
RTVSPost2010Prop37
 90
       50
102
RTVSPost2010PropOp37
 70
     1
102
RTVSPost2010Prop38
140
0.0
102
RTVSPost2010PropOp38
 70
     1
102
RTVSPost2010Prop39
140
1.0
102
RTVSPost2010PropOp39
 70
     1
102
RTVSPost2010Prop40
 90
        0
102
RTVSPost2010PropOp40
 70
     1
102
RTVSPost2010Prop41ColorIndex
 90
       18
102
RTVSPost2010Prop41ColorRGB
 90
        0
102
RTVSPost2010PropOp41
 70
     1
102
RTVSPost2010Prop42
 90
       50
102
RTVSPost2010PropOp42
 70
     1
102
RTVSPost2010Prop43
 90
        3
102
RTVSPost2010PropOp43
 70
     1
102
RTVSPost2010Prop44ColorIndex
 90
        5
102
RTVSPost2010Prop44ColorRGB
 90
      255
102
RTVSPost2010PropOp44
 70
     1
102
RTVSPost2010Prop45
280
     0
102
RTVSPost2010PropOp45
 70
     1
102
RTVSPost2010Prop46
 90
       50
102
RTVSPost2010PropOp46
 70
     1
102
RTVSPost2010Prop47
 90
       50
102
RTVSPost2010PropOp47
 70
     1
102
RTVSPost2010Prop48
 90
       50
102
RTVSPost2010PropOp48
 70
     1
102
RTVSPost2010Prop49
280
     0
102
RTVSPost2010PropOp49
 70
     1
102
RTVSPost2010Prop50
 90
       50
102
RTVSPost2010PropOp50
 70
     1
102
RTVSPost2010Prop51ColorIndex
 90
      256
102
RTVSPost2010Prop51ColorRGB
 90
-16777216
102
RTVSPost2010PropOp51
 70
     0
102
RTVSPost2010Prop52
140
1.0
102
RTVSPost2010PropOp52
 70
     0
102
RTVSPost2010Prop53
 90
        2
102
RTVSPost2010PropOp53
 70
     1
102
RTVSPost2010Prop54
  1
strokes_ogs.tif
102
RTVSPost2010PropOp54
 70
     1
102
RTVSPost2010Prop55
280
     0
102
RTVSPost2010PropOp55
 70
     1
102
RTVSPost2010Prop56
140
1.0
102
RTVSPost2010PropOp56
 70
     1
102
RTVSPost2010Prop57
140
1.0
102
RTVSPost2010PropOp57
 70
     1
102
RTVSPropertyOp0
 70
     1
102
RTVSPropertyOp1
 70
     1
102
RTVSPropertyOp2
 70
     1
102
RTVSPropertyOp3
 70
     1
102
RTVSPropertyOp4
 70
     1
102
RTVSPropertyOp5
 70
     1
102
RTVSPropertyOp6
 70
     1
102
RTVSPropertyOp7
 70
     1
102
RTVSPropertyOp8
 70
     1
102
RTVSPropertyOp9
 70
     1
102
RTVSPropertyOp10
 70
     1
102
RTVSPropertyOp11
 70
     1
102
RTVSPropertyOp12
 70
     1
102
RTVSPropertyOp13
 70
     1
102
RTVSPropertyOp14
 70
     1
102
RTVSPropertyOp15
 70
     1
102
RTVSPropertyOp16
 70
     1
102
RTVSPropertyOp17
 70
     1
102
RTVSPropertyOp18
 70
     1
102
RTVSPropertyOp19
 70
     1
102
RTVSPropertyOp20
 70
     1
102
RTVSPropertyOp21
 70
     1
102
RTVSPropertyOp22
 70
     1
102
RTVSPropertyOp23
 70
     1
102
RTVSPropertyOp24
 70
     1
102
RTVSPropertyOp25
 70
     1
102
RTVSPropertyOp26
 70
     1
102
RTVSPropertyOp27
 70
     1
102
RTVSPropertyOp28
 70
     1
102
RTVSPropertyOp29
 70
     1
102
RTVSPropertyOp30
 70
     1
102
RTVSPropertyOp31
 70
     1
102
RTVSPropertyOp32
 70
     1
102
RTVSPropertyOp33
 70
     1
102
RTVSPropertyOp34
 70
     1
102
RTVSPropertyOp35
 70
     1
102
RTVSPropertyOp36
 70
     1
102
RTVSPropertyOp37
 70
     1
102
RTVSPropertyOp38
 70
     1
102
RTVSPropertyOp39
 70
     1
102
RTVSPropertyOp40
 70
     1
102
RTVSPropertyOp41
 70
     1
102
RTVSPropertyOp42
 70
     1
102
RTVSPropertyOp43
 70
     1
102
RTVSPropertyOp44
 70
     1
102
RTVSPropertyOp45
 70
     1
102
RTVSPropertyOp46
 70
     1
102
RTVSPropertyOp47
 70
     1
102
RTVSPropertyOp48
 70
     1
102
RTVSPropertyOp49
 70
     1
102
RTVSPropertyOp50
 70
     1
102
RTVSPropertyOp51
 70
     0
102
RTVSPropertyOp52
 70
     0
102
RTVSPropertyOp53
 70
     1
102
RTVSPropertyOp54
 70
     1
102
RTVSPropertyOp55
 70
     1
102
RTVSPropertyOp56
 70
     1
102
RTVSPropertyOp57
 70
     1
102
RTVSPropertyOp58
 70
     1
102
RTVSPropertyOp59
 70
     1
102
RTVSPropertyOp60
 70
     1
102
RTVSPropertyOp61
 70
     1
102
RTVSPropertyOp62
 70
     1
  0
XRECORD
  5
2757
102
{ACAD_REACTORS
330
2756
102
}
330
2756
100
AcDbXrecord
280
     1
102
RTVSPost2010Prop28
280
     0
102
RTVSPost2010PropOp28
 70
     1
102
RTVSPost2010Prop29
280
     1
102
RTVSPost2010PropOp29
 70
     1
102
RTVSPost2010Prop30
280
     1
102
RTVSPost2010PropOp30
 70
     1
102
RTVSPost2010Prop31
280
     0
102
RTVSPost2010PropOp31
 70
     1
102
RTVSPost2010Prop32
280
     0
102
RTVSPost2010PropOp32
 70
     1
102
RTVSPost2010Prop33
280
     0
102
RTVSPost2010PropOp33
 70
     1
102
RTVSPost2010Prop34
280
     0
102
RTVSPost2010PropOp34
 70
     1
102
RTVSPost2010Prop35
280
     0
102
RTVSPost2010PropOp35
 70
     1
102
RTVSPost2010Prop36
280
     0
102
RTVSPost2010PropOp36
 70
     1
102
RTVSPost2010Prop37
 90
       50
102
RTVSPost2010PropOp37
 70
     1
102
RTVSPost2010Prop38
140
0.0
102
RTVSPost2010PropOp38
 70
     1
102
RTVSPost2010Prop39
140
1.0
102
RTVSPost2010PropOp39
 70
     1
102
RTVSPost2010Prop40
 90
        0
102
RTVSPost2010PropOp40
 70
     1
102
RTVSPost2010Prop41ColorIndex
 90
       18
102
RTVSPost2010Prop41ColorRGB
 90
        0
102
RTVSPost2010PropOp41
 70
     1
102
RTVSPost2010Prop42
 90
       50
102
RTVSPost2010PropOp42
 70
     1
102
RTVSPost2010Prop43
 90
        3
102
RTVSPost2010PropOp43
 70
     1
102
RTVSPost2010Prop44ColorIndex
 90
        5
102
RTVSPost2010Prop44ColorRGB
 90
      255
102
RTVSPost2010PropOp44
 70
     1
102
RTVSPost2010Prop45
280
     0
102
RTVSPost2010PropOp45
 70
     1
102
RTVSPost2010Prop46
 90
       50
102
RTVSPost2010PropOp46
 70
     1
102
RTVSPost2010Prop47
 90
       50
102
RTVSPost2010PropOp47
 70
     1
102
RTVSPost2010Prop48
 90
       50
102
RTVSPost2010PropOp48
 70
     1
102
RTVSPost2010Prop49
280
     0
102
RTVSPost2010PropOp49
 70
     1
102
RTVSPost2010Prop50
 90
       50
102
RTVSPost2010PropOp50
 70
     1
102
RTVSPost2010Prop51ColorIndex
 90
      256
102
RTVSPost2010Prop51ColorRGB
 90
-16777216
102
RTVSPost2010PropOp51
 70
     0
102
RTVSPost2010Prop52
140
1.0
102
RTVSPost2010PropOp52
 70
     0
102
RTVSPost2010Prop53
 90
        2
102
RTVSPost2010PropOp53
 70
     1
102
RTVSPost2010Prop54
  1
strokes_ogs.tif
102
RTVSPost2010PropOp54
 70
     1
102
RTVSPost2010Prop55
280
     0
102
RTVSPost2010PropOp55
 70
     1
102
RTVSPost2010Prop56
140
1.0
102
RTVSPost2010PropOp56
 70
     1
102
RTVSPost2010Prop57
140
1.0
102
RTVSPost2010PropOp57
 70
     1
102
RTVSPropertyOp0
 70
     1
102
RTVSPropertyOp1
 70
     1
102
RTVSPropertyOp2
 70
     1
102
RTVSPropertyOp3
 70
     1
102
RTVSPropertyOp4
 70
     1
102
RTVSPropertyOp5
 70
     1
102
RTVSPropertyOp6
 70
     1
102
RTVSPropertyOp7
 70
     1
102
RTVSPropertyOp8
 70
     1
102
RTVSPropertyOp9
 70
     1
102
RTVSPropertyOp10
 70
     1
102
RTVSPropertyOp11
 70
     1
102
RTVSPropertyOp12
 70
     1
102
RTVSPropertyOp13
 70
     1
102
RTVSPropertyOp14
 70
     1
102
RTVSPropertyOp15
 70
     1
102
RTVSPropertyOp16
 70
     1
102
RTVSPropertyOp17
 70
     1
102
RTVSPropertyOp18
 70
     1
102
RTVSPropertyOp19
 70
     1
102
RTVSPropertyOp20
 70
     1
102
RTVSPropertyOp21
 70
     1
102
RTVSPropertyOp22
 70
     1
102
RTVSPropertyOp23
 70
     1
102
RTVSPropertyOp24
 70
     1
102
RTVSPropertyOp25
 70
     1
102
RTVSPropertyOp26
 70
     1
102
RTVSPropertyOp27
 70
     1
102
RTVSPropertyOp28
 70
     1
102
RTVSPropertyOp29
 70
     1
102
RTVSPropertyOp30
 70
     1
102
RTVSPropertyOp31
 70
     1
102
RTVSPropertyOp32
 70
     1
102
RTVSPropertyOp33
 70
     1
102
RTVSPropertyOp34
 70
     1
102
RTVSPropertyOp35
 70
     1
102
RTVSPropertyOp36
 70
     1
102
RTVSPropertyOp37
 70
     1
102
RTVSPropertyOp38
 70
     1
102
RTVSPropertyOp39
 70
     1
102
RTVSPropertyOp40
 70
     1
102
RTVSPropertyOp41
 70
     1
102
RTVSPropertyOp42
 70
     1
102
RTVSPropertyOp43
 70
     1
102
RTVSPropertyOp44
 70
     1
102
RTVSPropertyOp45
 70
     1
102
RTVSPropertyOp46
 70
     1
102
RTVSPropertyOp47
 70
     1
102
RTVSPropertyOp48
 70
     1
102
RTVSPropertyOp49
 70
     1
102
RTVSPropertyOp50
 70
     1
102
RTVSPropertyOp51
 70
     0
102
RTVSPropertyOp52
 70
     0
102
RTVSPropertyOp53
 70
     1
102
RTVSPropertyOp54
 70
     1
102
RTVSPropertyOp55
 70
     1
102
RTVSPropertyOp56
 70
     1
102
RTVSPropertyOp57
 70
     1
102
RTVSPropertyOp58
 70
     1
102
RTVSPropertyOp59
 70
     1
102
RTVSPropertyOp60
 70
     1
102
RTVSPropertyOp61
 70
     1
102
RTVSPropertyOp62
 70
     1
  0
XRECORD
  5
2751
102
{ACAD_REACTORS
330
2750
102
}
330
2750
100
AcDbXrecord
280
     1
102
RTVSPost2010Prop28
280
     0
102
RTVSPost2010PropOp28
 70
     1
102
RTVSPost2010Prop29
280
     1
102
RTVSPost2010PropOp29
 70
     1
102
RTVSPost2010Prop30
280
     1
102
RTVSPost2010PropOp30
 70
     1
102
RTVSPost2010Prop31
280
     0
102
RTVSPost2010PropOp31
 70
     1
102
RTVSPost2010Prop32
280
     0
102
RTVSPost2010PropOp32
 70
     1
102
RTVSPost2010Prop33
280
     0
102
RTVSPost2010PropOp33
 70
     1
102
RTVSPost2010Prop34
280
     0
102
RTVSPost2010PropOp34
 70
     1
102
RTVSPost2010Prop35
280
     0
102
RTVSPost2010PropOp35
 70
     1
102
RTVSPost2010Prop36
280
     0
102
RTVSPost2010PropOp36
 70
     1
102
RTVSPost2010Prop37
 90
       50
102
RTVSPost2010PropOp37
 70
     1
102
RTVSPost2010Prop38
140
0.0
102
RTVSPost2010PropOp38
 70
     1
102
RTVSPost2010Prop39
140
1.0
102
RTVSPost2010PropOp39
 70
     1
102
RTVSPost2010Prop40
 90
        0
102
RTVSPost2010PropOp40
 70
     1
102
RTVSPost2010Prop41ColorIndex
 90
       18
102
RTVSPost2010Prop41ColorRGB
 90
        0
102
RTVSPost2010PropOp41
 70
     1
102
RTVSPost2010Prop42
 90
       50
102
RTVSPost2010PropOp42
 70
     1
102
RTVSPost2010Prop43
 90
        3
102
RTVSPost2010PropOp43
 70
     1
102
RTVSPost2010Prop44ColorIndex
 90
        5
102
RTVSPost2010Prop44ColorRGB
 90
      255
102
RTVSPost2010PropOp44
 70
     1
102
RTVSPost2010Prop45
280
     0
102
RTVSPost2010PropOp45
 70
     1
102
RTVSPost2010Prop46
 90
       50
102
RTVSPost2010PropOp46
 70
     1
102
RTVSPost2010Prop47
 90
       50
102
RTVSPost2010PropOp47
 70
     1
102
RTVSPost2010Prop48
 90
       50
102
RTVSPost2010PropOp48
 70
     1
102
RTVSPost2010Prop49
280
     0
102
RTVSPost2010PropOp49
 70
     1
102
RTVSPost2010Prop50
 90
       50
102
RTVSPost2010PropOp50
 70
     1
102
RTVSPost2010Prop51ColorIndex
 90
      256
102
RTVSPost2010Prop51ColorRGB
 90
-16777216
102
RTVSPost2010PropOp51
 70
     0
102
RTVSPost2010Prop52
140
1.0
102
RTVSPost2010PropOp52
 70
     0
102
RTVSPost2010Prop53
 90
        2
102
RTVSPost2010PropOp53
 70
     1
102
RTVSPost2010Prop54
  1
strokes_ogs.tif
102
RTVSPost2010PropOp54
 70
     1
102
RTVSPost2010Prop55
280
     0
102
RTVSPost2010PropOp55
 70
     1
102
RTVSPost2010Prop56
140
1.0
102
RTVSPost2010PropOp56
 70
     1
102
RTVSPost2010Prop57
140
1.0
102
RTVSPost2010PropOp57
 70
     1
102
RTVSPropertyOp0
 70
     1
102
RTVSPropertyOp1
 70
     1
102
RTVSPropertyOp2
 70
     1
102
RTVSPropertyOp3
 70
     1
102
RTVSPropertyOp4
 70
     1
102
RTVSPropertyOp5
 70
     1
102
RTVSPropertyOp6
 70
     1
102
RTVSPropertyOp7
 70
     1
102
RTVSPropertyOp8
 70
     1
102
RTVSPropertyOp9
 70
     1
102
RTVSPropertyOp10
 70
     1
102
RTVSPropertyOp11
 70
     1
102
RTVSPropertyOp12
 70
     1
102
RTVSPropertyOp13
 70
     1
102
RTVSPropertyOp14
 70
     1
102
RTVSPropertyOp15
 70
     1
102
RTVSPropertyOp16
 70
     1
102
RTVSPropertyOp17
 70
     1
102
RTVSPropertyOp18
 70
     1
102
RTVSPropertyOp19
 70
     1
102
RTVSPropertyOp20
 70
     1
102
RTVSPropertyOp21
 70
     1
102
RTVSPropertyOp22
 70
     1
102
RTVSPropertyOp23
 70
     1
102
RTVSPropertyOp24
 70
     1
102
RTVSPropertyOp25
 70
     1
102
RTVSPropertyOp26
 70
     1
102
RTVSPropertyOp27
 70
     1
102
RTVSPropertyOp28
 70
     1
102
RTVSPropertyOp29
 70
     1
102
RTVSPropertyOp30
 70
     1
102
RTVSPropertyOp31
 70
     1
102
RTVSPropertyOp32
 70
     1
102
RTVSPropertyOp33
 70
     1
102
RTVSPropertyOp34
 70
     1
102
RTVSPropertyOp35
 70
     1
102
RTVSPropertyOp36
 70
     1
102
RTVSPropertyOp37
 70
     1
102
RTVSPropertyOp38
 70
     1
102
RTVSPropertyOp39
 70
     1
102
RTVSPropertyOp40
 70
     1
102
RTVSPropertyOp41
 70
     1
102
RTVSPropertyOp42
 70
     1
102
RTVSPropertyOp43
 70
     1
102
RTVSPropertyOp44
 70
     1
102
RTVSPropertyOp45
 70
     1
102
RTVSPropertyOp46
 70
     1
102
RTVSPropertyOp47
 70
     1
102
RTVSPropertyOp48
 70
     1
102
RTVSPropertyOp49
 70
     1
102
RTVSPropertyOp50
 70
     1
102
RTVSPropertyOp51
 70
     0
102
RTVSPropertyOp52
 70
     0
102
RTVSPropertyOp53
 70
     1
102
RTVSPropertyOp54
 70
     1
102
RTVSPropertyOp55
 70
     1
102
RTVSPropertyOp56
 70
     1
102
RTVSPropertyOp57
 70
     1
102
RTVSPropertyOp58
 70
     1
102
RTVSPropertyOp59
 70
     1
102
RTVSPropertyOp60
 70
     1
102
RTVSPropertyOp61
 70
     1
102
RTVSPropertyOp62
 70
     1
  0
XRECORD
  5
2753
102
{ACAD_REACTORS
330
2752
102
}
330
2752
100
AcDbXrecord
280
     1
102
RTVSPost2010Prop28
280
     0
102
RTVSPost2010PropOp28
 70
     1
102
RTVSPost2010Prop29
280
     1
102
RTVSPost2010PropOp29
 70
     1
102
RTVSPost2010Prop30
280
     1
102
RTVSPost2010PropOp30
 70
     1
102
RTVSPost2010Prop31
280
     0
102
RTVSPost2010PropOp31
 70
     1
102
RTVSPost2010Prop32
280
     0
102
RTVSPost2010PropOp32
 70
     1
102
RTVSPost2010Prop33
280
     0
102
RTVSPost2010PropOp33
 70
     1
102
RTVSPost2010Prop34
280
     0
102
RTVSPost2010PropOp34
 70
     1
102
RTVSPost2010Prop35
280
     0
102
RTVSPost2010PropOp35
 70
     1
102
RTVSPost2010Prop36
280
     0
102
RTVSPost2010PropOp36
 70
     1
102
RTVSPost2010Prop37
 90
       50
102
RTVSPost2010PropOp37
 70
     1
102
RTVSPost2010Prop38
140
0.0
102
RTVSPost2010PropOp38
 70
     1
102
RTVSPost2010Prop39
140
1.0
102
RTVSPost2010PropOp39
 70
     1
102
RTVSPost2010Prop40
 90
        0
102
RTVSPost2010PropOp40
 70
     1
102
RTVSPost2010Prop41ColorIndex
 90
       18
102
RTVSPost2010Prop41ColorRGB
 90
        0
102
RTVSPost2010PropOp41
 70
     1
102
RTVSPost2010Prop42
 90
       50
102
RTVSPost2010PropOp42
 70
     1
102
RTVSPost2010Prop43
 90
        3
102
RTVSPost2010PropOp43
 70
     1
102
RTVSPost2010Prop44ColorIndex
 90
        5
102
RTVSPost2010Prop44ColorRGB
 90
      255
102
RTVSPost2010PropOp44
 70
     1
102
RTVSPost2010Prop45
280
     0
102
RTVSPost2010PropOp45
 70
     1
102
RTVSPost2010Prop46
 90
       50
102
RTVSPost2010PropOp46
 70
     1
102
RTVSPost2010Prop47
 90
       50
102
RTVSPost2010PropOp47
 70
     1
102
RTVSPost2010Prop48
 90
       50
102
RTVSPost2010PropOp48
 70
     1
102
RTVSPost2010Prop49
280
     0
102
RTVSPost2010PropOp49
 70
     1
102
RTVSPost2010Prop50
 90
       50
102
RTVSPost2010PropOp50
 70
     1
102
RTVSPost2010Prop51ColorIndex
 90
      256
102
RTVSPost2010Prop51ColorRGB
 90
-16777216
102
RTVSPost2010PropOp51
 70
     0
102
RTVSPost2010Prop52
140
1.0
102
RTVSPost2010PropOp52
 70
     0
102
RTVSPost2010Prop53
 90
        2
102
RTVSPost2010PropOp53
 70
     1
102
RTVSPost2010Prop54
  1
strokes_ogs.tif
102
RTVSPost2010PropOp54
 70
     1
102
RTVSPost2010Prop55
280
     0
102
RTVSPost2010PropOp55
 70
     1
102
RTVSPost2010Prop56
140
1.0
102
RTVSPost2010PropOp56
 70
     1
102
RTVSPost2010Prop57
140
1.0
102
RTVSPost2010PropOp57
 70
     1
102
RTVSPropertyOp0
 70
     1
102
RTVSPropertyOp1
 70
     1
102
RTVSPropertyOp2
 70
     1
102
RTVSPropertyOp3
 70
     1
102
RTVSPropertyOp4
 70
     1
102
RTVSPropertyOp5
 70
     1
102
RTVSPropertyOp6
 70
     1
102
RTVSPropertyOp7
 70
     1
102
RTVSPropertyOp8
 70
     1
102
RTVSPropertyOp9
 70
     1
102
RTVSPropertyOp10
 70
     1
102
RTVSPropertyOp11
 70
     1
102
RTVSPropertyOp12
 70
     1
102
RTVSPropertyOp13
 70
     1
102
RTVSPropertyOp14
 70
     1
102
RTVSPropertyOp15
 70
     1
102
RTVSPropertyOp16
 70
     1
102
RTVSPropertyOp17
 70
     1
102
RTVSPropertyOp18
 70
     1
102
RTVSPropertyOp19
 70
     1
102
RTVSPropertyOp20
 70
     1
102
RTVSPropertyOp21
 70
     1
102
RTVSPropertyOp22
 70
     1
102
RTVSPropertyOp23
 70
     1
102
RTVSPropertyOp24
 70
     1
102
RTVSPropertyOp25
 70
     1
102
RTVSPropertyOp26
 70
     1
102
RTVSPropertyOp27
 70
     1
102
RTVSPropertyOp28
 70
     1
102
RTVSPropertyOp29
 70
     1
102
RTVSPropertyOp30
 70
     1
102
RTVSPropertyOp31
 70
     1
102
RTVSPropertyOp32
 70
     1
102
RTVSPropertyOp33
 70
     1
102
RTVSPropertyOp34
 70
     1
102
RTVSPropertyOp35
 70
     1
102
RTVSPropertyOp36
 70
     1
102
RTVSPropertyOp37
 70
     1
102
RTVSPropertyOp38
 70
     1
102
RTVSPropertyOp39
 70
     1
102
RTVSPropertyOp40
 70
     1
102
RTVSPropertyOp41
 70
     1
102
RTVSPropertyOp42
 70
     1
102
RTVSPropertyOp43
 70
     1
102
RTVSPropertyOp44
 70
     1
102
RTVSPropertyOp45
 70
     1
102
RTVSPropertyOp46
 70
     1
102
RTVSPropertyOp47
 70
     1
102
RTVSPropertyOp48
 70
     1
102
RTVSPropertyOp49
 70
     1
102
RTVSPropertyOp50
 70
     1
102
RTVSPropertyOp51
 70
     0
102
RTVSPropertyOp52
 70
     0
102
RTVSPropertyOp53
 70
     1
102
RTVSPropertyOp54
 70
     1
102
RTVSPropertyOp55
 70
     1
102
RTVSPropertyOp56
 70
     1
102
RTVSPropertyOp57
 70
     1
102
RTVSPropertyOp58
 70
     1
102
RTVSPropertyOp59
 70
     1
102
RTVSPropertyOp60
 70
     1
102
RTVSPropertyOp61
 70
     1
102
RTVSPropertyOp62
 70
     1
  0
XRECORD
  5
271E
102
{ACAD_REACTORS
330
271D
102
}
330
271D
100
AcDbXrecord
280
     1
102
RTVSPost2010Prop28
280
     0
102
RTVSPost2010PropOp28
 70
     1
102
RTVSPost2010Prop29
280
     1
102
RTVSPost2010PropOp29
 70
     1
102
RTVSPost2010Prop30
280
     1
102
RTVSPost2010PropOp30
 70
     1
102
RTVSPost2010Prop31
280
     0
102
RTVSPost2010PropOp31
 70
     1
102
RTVSPost2010Prop32
280
     0
102
RTVSPost2010PropOp32
 70
     1
102
RTVSPost2010Prop33
280
     0
102
RTVSPost2010PropOp33
 70
     1
102
RTVSPost2010Prop34
280
     0
102
RTVSPost2010PropOp34
 70
     1
102
RTVSPost2010Prop35
280
     0
102
RTVSPost2010PropOp35
 70
     1
102
RTVSPost2010Prop36
280
     0
102
RTVSPost2010PropOp36
 70
     1
102
RTVSPost2010Prop37
 90
       50
102
RTVSPost2010PropOp37
 70
     1
102
RTVSPost2010Prop38
140
0.0
102
RTVSPost2010PropOp38
 70
     1
102
RTVSPost2010Prop39
140
1.0
102
RTVSPost2010PropOp39
 70
     1
102
RTVSPost2010Prop40
 90
        0
102
RTVSPost2010PropOp40
 70
     1
102
RTVSPost2010Prop41ColorIndex
 90
       18
102
RTVSPost2010Prop41ColorRGB
 90
        0
102
RTVSPost2010PropOp41
 70
     1
102
RTVSPost2010Prop42
 90
       50
102
RTVSPost2010PropOp42
 70
     1
102
RTVSPost2010Prop43
 90
        3
102
RTVSPost2010PropOp43
 70
     1
102
RTVSPost2010Prop44ColorIndex
 90
        5
102
RTVSPost2010Prop44ColorRGB
 90
      255
102
RTVSPost2010PropOp44
 70
     1
102
RTVSPost2010Prop45
280
     0
102
RTVSPost2010PropOp45
 70
     1
102
RTVSPost2010Prop46
 90
       50
102
RTVSPost2010PropOp46
 70
     1
102
RTVSPost2010Prop47
 90
       50
102
RTVSPost2010PropOp47
 70
     1
102
RTVSPost2010Prop48
 90
       50
102
RTVSPost2010PropOp48
 70
     1
102
RTVSPost2010Prop49
280
     0
102
RTVSPost2010PropOp49
 70
     1
102
RTVSPost2010Prop50
 90
       50
102
RTVSPost2010PropOp50
 70
     1
102
RTVSPost2010Prop51ColorIndex
 90
      256
102
RTVSPost2010Prop51ColorRGB
 90
-16777216
102
RTVSPost2010PropOp51
 70
     0
102
RTVSPost2010Prop52
140
1.0
102
RTVSPost2010PropOp52
 70
     0
102
RTVSPost2010Prop53
 90
        2
102
RTVSPost2010PropOp53
 70
     1
102
RTVSPost2010Prop54
  1
strokes_ogs.tif
102
RTVSPost2010PropOp54
 70
     1
102
RTVSPost2010Prop55
280
     0
102
RTVSPost2010PropOp55
 70
     1
102
RTVSPost2010Prop56
140
1.0
102
RTVSPost2010PropOp56
 70
     1
102
RTVSPost2010Prop57
140
1.0
102
RTVSPost2010PropOp57
 70
     1
102
RTVSPropertyOp0
 70
     1
102
RTVSPropertyOp1
 70
     1
102
RTVSPropertyOp2
 70
     1
102
RTVSPropertyOp3
 70
     1
102
RTVSPropertyOp4
 70
     1
102
RTVSPropertyOp5
 70
     1
102
RTVSPropertyOp6
 70
     1
102
RTVSPropertyOp7
 70
     1
102
RTVSPropertyOp8
 70
     1
102
RTVSPropertyOp9
 70
     1
102
RTVSPropertyOp10
 70
     1
102
RTVSPropertyOp11
 70
     1
102
RTVSPropertyOp12
 70
     1
102
RTVSPropertyOp13
 70
     1
102
RTVSPropertyOp14
 70
     1
102
RTVSPropertyOp15
 70
     1
102
RTVSPropertyOp16
 70
     1
102
RTVSPropertyOp17
 70
     1
102
RTVSPropertyOp18
 70
     1
102
RTVSPropertyOp19
 70
     1
102
RTVSPropertyOp20
 70
     1
102
RTVSPropertyOp21
 70
     1
102
RTVSPropertyOp22
 70
     1
102
RTVSPropertyOp23
 70
     1
102
RTVSPropertyOp24
 70
     1
102
RTVSPropertyOp25
 70
     1
102
RTVSPropertyOp26
 70
     1
102
RTVSPropertyOp27
 70
     1
102
RTVSPropertyOp28
 70
     1
102
RTVSPropertyOp29
 70
     1
102
RTVSPropertyOp30
 70
     1
102
RTVSPropertyOp31
 70
     1
102
RTVSPropertyOp32
 70
     1
102
RTVSPropertyOp33
 70
     1
102
RTVSPropertyOp34
 70
     1
102
RTVSPropertyOp35
 70
     1
102
RTVSPropertyOp36
 70
     1
102
RTVSPropertyOp37
 70
     1
102
RTVSPropertyOp38
 70
     1
102
RTVSPropertyOp39
 70
     1
102
RTVSPropertyOp40
 70
     1
102
RTVSPropertyOp41
 70
     1
102
RTVSPropertyOp42
 70
     1
102
RTVSPropertyOp43
 70
     1
102
RTVSPropertyOp44
 70
     1
102
RTVSPropertyOp45
 70
     1
102
RTVSPropertyOp46
 70
     1
102
RTVSPropertyOp47
 70
     1
102
RTVSPropertyOp48
 70
     1
102
RTVSPropertyOp49
 70
     1
102
RTVSPropertyOp50
 70
     1
102
RTVSPropertyOp51
 70
     0
102
RTVSPropertyOp52
 70
     0
102
RTVSPropertyOp53
 70
     1
102
RTVSPropertyOp54
 70
     1
102
RTVSPropertyOp55
 70
     1
102
RTVSPropertyOp56
 70
     1
102
RTVSPropertyOp57
 70
     1
102
RTVSPropertyOp58
 70
     1
102
RTVSPropertyOp59
 70
     1
102
RTVSPropertyOp60
 70
     1
102
RTVSPropertyOp61
 70
     1
102
RTVSPropertyOp62
 70
     1
  0
XRECORD
  5
274D
102
{ACAD_REACTORS
330
274C
102
}
330
274C
100
AcDbXrecord
280
     1
102
RTVSPost2010Prop28
280
     0
102
RTVSPost2010PropOp28
 70
     1
102
RTVSPost2010Prop29
280
     1
102
RTVSPost2010PropOp29
 70
     1
102
RTVSPost2010Prop30
280
     1
102
RTVSPost2010PropOp30
 70
     1
102
RTVSPost2010Prop31
280
     0
102
RTVSPost2010PropOp31
 70
     1
102
RTVSPost2010Prop32
280
     0
102
RTVSPost2010PropOp32
 70
     1
102
RTVSPost2010Prop33
280
     0
102
RTVSPost2010PropOp33
 70
     1
102
RTVSPost2010Prop34
280
     0
102
RTVSPost2010PropOp34
 70
     1
102
RTVSPost2010Prop35
280
     0
102
RTVSPost2010PropOp35
 70
     1
102
RTVSPost2010Prop36
280
     0
102
RTVSPost2010PropOp36
 70
     1
102
RTVSPost2010Prop37
 90
       50
102
RTVSPost2010PropOp37
 70
     1
102
RTVSPost2010Prop38
140
0.0
102
RTVSPost2010PropOp38
 70
     1
102
RTVSPost2010Prop39
140
1.0
102
RTVSPost2010PropOp39
 70
     1
102
RTVSPost2010Prop40
 90
        0
102
RTVSPost2010PropOp40
 70
     1
102
RTVSPost2010Prop41ColorIndex
 90
       18
102
RTVSPost2010Prop41ColorRGB
 90
        0
102
RTVSPost2010PropOp41
 70
     1
102
RTVSPost2010Prop42
 90
       50
102
RTVSPost2010PropOp42
 70
     1
102
RTVSPost2010Prop43
 90
        3
102
RTVSPost2010PropOp43
 70
     1
102
RTVSPost2010Prop44ColorIndex
 90
        5
102
RTVSPost2010Prop44ColorRGB
 90
      255
102
RTVSPost2010PropOp44
 70
     1
102
RTVSPost2010Prop45
280
     0
102
RTVSPost2010PropOp45
 70
     1
102
RTVSPost2010Prop46
 90
       50
102
RTVSPost2010PropOp46
 70
     1
102
RTVSPost2010Prop47
 90
       50
102
RTVSPost2010PropOp47
 70
     1
102
RTVSPost2010Prop48
 90
       50
102
RTVSPost2010PropOp48
 70
     1
102
RTVSPost2010Prop49
280
     0
102
RTVSPost2010PropOp49
 70
     1
102
RTVSPost2010Prop50
 90
       50
102
RTVSPost2010PropOp50
 70
     1
102
RTVSPost2010Prop51ColorIndex
 90
      256
102
RTVSPost2010Prop51ColorRGB
 90
-16777216
102
RTVSPost2010PropOp51
 70
     0
102
RTVSPost2010Prop52
140
1.0
102
RTVSPost2010PropOp52
 70
     0
102
RTVSPost2010Prop53
 90
        2
102
RTVSPost2010PropOp53
 70
     1
102
RTVSPost2010Prop54
  1
strokes_ogs.tif
102
RTVSPost2010PropOp54
 70
     1
102
RTVSPost2010Prop55
280
     0
102
RTVSPost2010PropOp55
 70
     1
102
RTVSPost2010Prop56
140
1.0
102
RTVSPost2010PropOp56
 70
     1
102
RTVSPost2010Prop57
140
1.0
102
RTVSPost2010PropOp57
 70
     1
102
RTVSPropertyOp0
 70
     1
102
RTVSPropertyOp1
 70
     1
102
RTVSPropertyOp2
 70
     1
102
RTVSPropertyOp3
 70
     1
102
RTVSPropertyOp4
 70
     1
102
RTVSPropertyOp5
 70
     1
102
RTVSPropertyOp6
 70
     1
102
RTVSPropertyOp7
 70
     1
102
RTVSPropertyOp8
 70
     1
102
RTVSPropertyOp9
 70
     1
102
RTVSPropertyOp10
 70
     1
102
RTVSPropertyOp11
 70
     1
102
RTVSPropertyOp12
 70
     1
102
RTVSPropertyOp13
 70
     1
102
RTVSPropertyOp14
 70
     1
102
RTVSPropertyOp15
 70
     1
102
RTVSPropertyOp16
 70
     1
102
RTVSPropertyOp17
 70
     1
102
RTVSPropertyOp18
 70
     1
102
RTVSPropertyOp19
 70
     1
102
RTVSPropertyOp20
 70
     1
102
RTVSPropertyOp21
 70
     1
102
RTVSPropertyOp22
 70
     1
102
RTVSPropertyOp23
 70
     1
102
RTVSPropertyOp24
 70
     1
102
RTVSPropertyOp25
 70
     1
102
RTVSPropertyOp26
 70
     1
102
RTVSPropertyOp27
 70
     1
102
RTVSPropertyOp28
 70
     1
102
RTVSPropertyOp29
 70
     1
102
RTVSPropertyOp30
 70
     1
102
RTVSPropertyOp31
 70
     1
102
RTVSPropertyOp32
 70
     1
102
RTVSPropertyOp33
 70
     1
102
RTVSPropertyOp34
 70
     1
102
RTVSPropertyOp35
 70
     1
102
RTVSPropertyOp36
 70
     1
102
RTVSPropertyOp37
 70
     1
102
RTVSPropertyOp38
 70
     1
102
RTVSPropertyOp39
 70
     1
102
RTVSPropertyOp40
 70
     1
102
RTVSPropertyOp41
 70
     1
102
RTVSPropertyOp42
 70
     1
102
RTVSPropertyOp43
 70
     1
102
RTVSPropertyOp44
 70
     1
102
RTVSPropertyOp45
 70
     1
102
RTVSPropertyOp46
 70
     1
102
RTVSPropertyOp47
 70
     1
102
RTVSPropertyOp48
 70
     1
102
RTVSPropertyOp49
 70
     1
102
RTVSPropertyOp50
 70
     1
102
RTVSPropertyOp51
 70
     0
102
RTVSPropertyOp52
 70
     0
102
RTVSPropertyOp53
 70
     1
102
RTVSPropertyOp54
 70
     1
102
RTVSPropertyOp55
 70
     1
102
RTVSPropertyOp56
 70
     1
102
RTVSPropertyOp57
 70
     1
102
RTVSPropertyOp58
 70
     1
102
RTVSPropertyOp59
 70
     1
102
RTVSPropertyOp60
 70
     1
102
RTVSPropertyOp61
 70
     1
102
RTVSPropertyOp62
 70
     1
  0
XRECORD
  5
2755
102
{ACAD_REACTORS
330
2754
102
}
330
2754
100
AcDbXrecord
280
     1
102
RTVSPost2010Prop28
280
     0
102
RTVSPost2010PropOp28
 70
     1
102
RTVSPost2010Prop29
280
     1
102
RTVSPost2010PropOp29
 70
     1
102
RTVSPost2010Prop30
280
     1
102
RTVSPost2010PropOp30
 70
     1
102
RTVSPost2010Prop31
280
     0
102
RTVSPost2010PropOp31
 70
     1
102
RTVSPost2010Prop32
280
     0
102
RTVSPost2010PropOp32
 70
     1
102
RTVSPost2010Prop33
280
     0
102
RTVSPost2010PropOp33
 70
     1
102
RTVSPost2010Prop34
280
     0
102
RTVSPost2010PropOp34
 70
     1
102
RTVSPost2010Prop35
280
     0
102
RTVSPost2010PropOp35
 70
     1
102
RTVSPost2010Prop36
280
     0
102
RTVSPost2010PropOp36
 70
     1
102
RTVSPost2010Prop37
 90
       50
102
RTVSPost2010PropOp37
 70
     1
102
RTVSPost2010Prop38
140
0.0
102
RTVSPost2010PropOp38
 70
     1
102
RTVSPost2010Prop39
140
1.0
102
RTVSPost2010PropOp39
 70
     1
102
RTVSPost2010Prop40
 90
        0
102
RTVSPost2010PropOp40
 70
     1
102
RTVSPost2010Prop41ColorIndex
 90
       18
102
RTVSPost2010Prop41ColorRGB
 90
        0
102
RTVSPost2010PropOp41
 70
     1
102
RTVSPost2010Prop42
 90
       50
102
RTVSPost2010PropOp42
 70
     1
102
RTVSPost2010Prop43
 90
        3
102
RTVSPost2010PropOp43
 70
     1
102
RTVSPost2010Prop44ColorIndex
 90
        5
102
RTVSPost2010Prop44ColorRGB
 90
      255
102
RTVSPost2010PropOp44
 70
     1
102
RTVSPost2010Prop45
280
     0
102
RTVSPost2010PropOp45
 70
     1
102
RTVSPost2010Prop46
 90
       50
102
RTVSPost2010PropOp46
 70
     1
102
RTVSPost2010Prop47
 90
       50
102
RTVSPost2010PropOp47
 70
     1
102
RTVSPost2010Prop48
 90
       50
102
RTVSPost2010PropOp48
 70
     1
102
RTVSPost2010Prop49
280
     0
102
RTVSPost2010PropOp49
 70
     1
102
RTVSPost2010Prop50
 90
       50
102
RTVSPost2010PropOp50
 70
     1
102
RTVSPost2010Prop51ColorIndex
 90
      256
102
RTVSPost2010Prop51ColorRGB
 90
-16777216
102
RTVSPost2010PropOp51
 70
     0
102
RTVSPost2010Prop52
140
1.0
102
RTVSPost2010PropOp52
 70
     0
102
RTVSPost2010Prop53
 90
        2
102
RTVSPost2010PropOp53
 70
     1
102
RTVSPost2010Prop54
  1
strokes_ogs.tif
102
RTVSPost2010PropOp54
 70
     1
102
RTVSPost2010Prop55
280
     0
102
RTVSPost2010PropOp55
 70
     1
102
RTVSPost2010Prop56
140
1.0
102
RTVSPost2010PropOp56
 70
     1
102
RTVSPost2010Prop57
140
1.0
102
RTVSPost2010PropOp57
 70
     1
102
RTVSPropertyOp0
 70
     1
102
RTVSPropertyOp1
 70
     1
102
RTVSPropertyOp2
 70
     1
102
RTVSPropertyOp3
 70
     1
102
RTVSPropertyOp4
 70
     1
102
RTVSPropertyOp5
 70
     1
102
RTVSPropertyOp6
 70
     1
102
RTVSPropertyOp7
 70
     1
102
RTVSPropertyOp8
 70
     1
102
RTVSPropertyOp9
 70
     1
102
RTVSPropertyOp10
 70
     1
102
RTVSPropertyOp11
 70
     1
102
RTVSPropertyOp12
 70
     1
102
RTVSPropertyOp13
 70
     1
102
RTVSPropertyOp14
 70
     1
102
RTVSPropertyOp15
 70
     1
102
RTVSPropertyOp16
 70
     1
102
RTVSPropertyOp17
 70
     1
102
RTVSPropertyOp18
 70
     1
102
RTVSPropertyOp19
 70
     1
102
RTVSPropertyOp20
 70
     1
102
RTVSPropertyOp21
 70
     1
102
RTVSPropertyOp22
 70
     1
102
RTVSPropertyOp23
 70
     1
102
RTVSPropertyOp24
 70
     1
102
RTVSPropertyOp25
 70
     1
102
RTVSPropertyOp26
 70
     1
102
RTVSPropertyOp27
 70
     1
102
RTVSPropertyOp28
 70
     1
102
RTVSPropertyOp29
 70
     1
102
RTVSPropertyOp30
 70
     1
102
RTVSPropertyOp31
 70
     1
102
RTVSPropertyOp32
 70
     1
102
RTVSPropertyOp33
 70
     1
102
RTVSPropertyOp34
 70
     1
102
RTVSPropertyOp35
 70
     1
102
RTVSPropertyOp36
 70
     1
102
RTVSPropertyOp37
 70
     1
102
RTVSPropertyOp38
 70
     1
102
RTVSPropertyOp39
 70
     1
102
RTVSPropertyOp40
 70
     1
102
RTVSPropertyOp41
 70
     1
102
RTVSPropertyOp42
 70
     1
102
RTVSPropertyOp43
 70
     1
102
RTVSPropertyOp44
 70
     1
102
RTVSPropertyOp45
 70
     1
102
RTVSPropertyOp46
 70
     1
102
RTVSPropertyOp47
 70
     1
102
RTVSPropertyOp48
 70
     1
102
RTVSPropertyOp49
 70
     1
102
RTVSPropertyOp50
 70
     1
102
RTVSPropertyOp51
 70
     0
102
RTVSPropertyOp52
 70
     0
102
RTVSPropertyOp53
 70
     1
102
RTVSPropertyOp54
 70
     1
102
RTVSPropertyOp55
 70
     1
102
RTVSPropertyOp56
 70
     1
102
RTVSPropertyOp57
 70
     1
102
RTVSPropertyOp58
 70
     1
102
RTVSPropertyOp59
 70
     1
102
RTVSPropertyOp60
 70
     1
102
RTVSPropertyOp61
 70
     1
102
RTVSPropertyOp62
 70
     1
  0
ENDSEC
  0
EOF
