  0
SECTION
  2
HEADER
  9
$ACADVER
  1
AC1015
  9
$ACADMAINTVER
 70
    20
  9
$DWGCODEPAGE
  3
ANSI_932
  9
$INSBASE
 10
0.0
 20
0.0
 30
0.0
  9
$EXTMIN
 10
38.7440160769
 20
42.0465397664
 30
0.0
  9
$EXTMAX
 10
1422.9156845696
 20
740.1011412429
 30
0.0
  9
$LIMMIN
 10
-160.9296012395
 20
-53.76712529
  9
$LIMMAX
 10
1685.6880816174
 20
959.4130389367
  9
$ORTHOMODE
 70
     1
  9
$REGENMODE
 70
     1
  9
$FILLMODE
 70
     1
  9
$QTEXTMODE
 70
     0
  9
$MIRRTEXT
 70
     0
  9
$LTSCALE
 40
4.0
  9
$ATTMODE
 70
     1
  9
$TEXTSIZE
 40
2.0
  9
$TRACEWID
 40
1.0
  9
$TEXTSTYLE
  7
STANDARD
  9
$CLAYER
  8
0
  9
$CELTYPE
  6
BYLAYER
  9
$CECOLOR
 62
   256
  9
$CELTSCALE
 40
1.0
  9
$DISPSILH
 70
     0
  9
$DIMSCALE
 40
4.0
  9
$DIMASZ
 40
1.8
  9
$DIMEXO
 40
0.625
  9
$DIMDLI
 40
3.75
  9
$DIMRND
 40
0.0
  9
$DIMDLE
 40
0.0
  9
$DIMEXE
 40
0.8
  9
$DIMTP
 40
0.0
  9
$DIMTM
 40
0.0
  9
$DIMTXT
 40
1.8
  9
$DIMCEN
 40
2.5
  9
$DIMTSZ
 40
0.0
  9
$DIMTOL
 70
     0
  9
$DIMLIM
 70
     0
  9
$DIMTIH
 70
     0
  9
$DIMTOH
 70
     0
  9
$DIMSE1
 70
     0
  9
$DIMSE2
 70
     0
  9
$DIMTAD
 70
     1
  9
$DIMZIN
 70
     8
  9
$DIMBLK
  1

  9
$DIMASO
 70
     1
  9
$DIMSHO
 70
     1
  9
$DIMPOST
  1

  9
$DIMAPOST
  1

  9
$DIMALT
 70
     0
  9
$DIMALTD
 70
     4
  9
$DIMALTF
 40
0.0394
  9
$DIMLFAC
 40
1.0
  9
$DIMTOFL
 70
     1
  9
$DIMTVP
 40
0.0
  9
$DIMTIX
 70
     0
  9
$DIMSOXD
 70
     0
  9
$DIMSAH
 70
     0
  9
$DIMBLK1
  1

  9
$DIMBLK2
  1

  9
$DIMSTYLE
  2
STANDARD
  9
$DIMCLRD
 70
     0
  9
$DIMCLRE
 70
     0
  9
$DIMCLRT
 70
     0
  9
$DIMTFAC
 40
1.0
  9
$DIMGAP
 40
0.75
  9
$DIMJUST
 70
     0
  9
$DIMSD1
 70
     0
  9
$DIMSD2
 70
     0
  9
$DIMTOLJ
 70
     1
  9
$DIMTZIN
 70
     0
  9
$DIMALTZ
 70
     0
  9
$DIMALTTZ
 70
     0
  9
$DIMUPT
 70
     0
  9
$DIMDEC
 70
     2
  9
$DIMTDEC
 70
     2
  9
$DIMALTU
 70
     8
  9
$DIMALTTD
 70
     4
  9
$DIMTXSTY
  7
STANDARD
  9
$DIMAUNIT
 70
     0
  9
$DIMADEC
 70
     2
  9
$DIMALTRND
 40
0.0
  9
$DIMAZIN
 70
     0
  9
$DIMDSEP
 70
    46
  9
$DIMATFIT
 70
     3
  9
$DIMFRAC
 70
     0
  9
$DIMLDRBLK
  1

  9
$DIMLUNIT
 70
     6
  9
$DIMLWD
 70
    -2
  9
$DIMLWE
 70
    -2
  9
$DIMTMOVE
 70
     0
  9
$LUNITS
 70
     2
  9
$LUPREC
 70
     3
  9
$SKETCHINC
 40
1.0
  9
$FILLETRAD
 40
10.0
  9
$AUNITS
 70
     0
  9
$AUPREC
 70
     2
  9
$MENU
  1
.
  9
$ELEVATION
 40
0.0
  9
$PELEVATION
 40
0.0
  9
$THICKNESS
 40
0.0
  9
$LIMCHECK
 70
     0
  9
$CHAMFERA
 40
0.0
  9
$CHAMFERB
 40
0.0
  9
$CHAMFERC
 40
20.0
  9
$CHAMFERD
 40
0.0
  9
$SKPOLY
 70
     0
  9
$TDCREATE
 40
2453753.550046297
  9
$TDUCREATE
 40
2453753.175053160
  9
$TDUPDATE
 40
2460248.354409722
  9
$TDUUPDATE
 40
2460247.979409722
  9
$TDINDWG
 40
0.2080990972
  9
$TDUSRTIMER
 40
0.2080989236
  9
$USRTIMER
 70
     1
  9
$ANGBASE
 50
0.0
  9
$ANGDIR
 70
     0
  9
$PDMODE
 70
     0
  9
$PDSIZE
 40
-10.0
  9
$PLINEWID
 40
0.0
  9
$SPLFRAME
 70
     0
  9
$SPLINETYPE
 70
     6
  9
$SPLINESEGS
 70
     8
  9
$HANDSEED
  5
26BC
  9
$SURFTAB1
 70
     6
  9
$SURFTAB2
 70
     6
  9
$SURFTYPE
 70
     6
  9
$SURFU
 70
     6
  9
$SURFV
 70
     6
  9
$UCSBASE
  2

  9
$UCSNAME
  2

  9
$UCSORG
 10
0.0
 20
0.0
 30
0.0
  9
$UCSXDIR
 10
1.0
 20
0.0
 30
0.0
  9
$UCSYDIR
 10
0.0
 20
1.0
 30
0.0
  9
$UCSORTHOREF
  2

  9
$UCSORTHOVIEW
 70
     0
  9
$UCSORGTOP
 10
0.0
 20
0.0
 30
0.0
  9
$UCSORGBOTTOM
 10
0.0
 20
0.0
 30
0.0
  9
$UCSORGLEFT
 10
0.0
 20
0.0
 30
0.0
  9
$UCSORGRIGHT
 10
0.0
 20
0.0
 30
0.0
  9
$UCSORGFRONT
 10
0.0
 20
0.0
 30
0.0
  9
$UCSORGBACK
 10
0.0
 20
0.0
 30
0.0
  9
$PUCSBASE
  2

  9
$PUCSNAME
  2

  9
$PUCSORG
 10
0.0
 20
0.0
 30
0.0
  9
$PUCSXDIR
 10
1.0
 20
0.0
 30
0.0
  9
$PUCSYDIR
 10
0.0
 20
1.0
 30
0.0
  9
$PUCSORTHOREF
  2

  9
$PUCSORTHOVIEW
 70
     0
  9
$PUCSORGTOP
 10
0.0
 20
0.0
 30
0.0
  9
$PUCSORGBOTTOM
 10
0.0
 20
0.0
 30
0.0
  9
$PUCSORGLEFT
 10
0.0
 20
0.0
 30
0.0
  9
$PUCSORGRIGHT
 10
0.0
 20
0.0
 30
0.0
  9
$PUCSORGFRONT
 10
0.0
 20
0.0
 30
0.0
  9
$PUCSORGBACK
 10
0.0
 20
0.0
 30
0.0
  9
$USERI1
 70
     0
  9
$USERI2
 70
     0
  9
$USERI3
 70
     0
  9
$USERI4
 70
     0
  9
$USERI5
 70
     0
  9
$USERR1
 40
0.0
  9
$USERR2
 40
0.0
  9
$USERR3
 40
0.0
  9
$USERR4
 40
0.0
  9
$USERR5
 40
0.0
  9
$WORLDVIEW
 70
     1
  9
$SHADEDGE
 70
     3
  9
$SHADEDIF
 70
    70
  9
$TILEMODE
 70
     1
  9
$MAXACTVP
 70
    48
  9
$PINSBASE
 10
0.0
 20
0.0
 30
0.0
  9
$PLIMCHECK
 70
     0
  9
$PEXTMIN
 10
0.0
 20
0.0
 30
0.0
  9
$PEXTMAX
 10
0.0
 20
0.0
 30
0.0
  9
$PLIMMIN
 10
0.0
 20
0.0
  9
$PLIMMAX
 10
12.0
 20
9.0
  9
$UNITMODE
 70
     0
  9
$VISRETAIN
 70
     1
  9
$PLINEGEN
 70
     0
  9
$PSLTSCALE
 70
     1
  9
$TREEDEPTH
 70
  3020
  9
$CMLSTYLE
  2
STANDARD
  9
$CMLJUST
 70
     0
  9
$CMLSCALE
 40
1.0
  9
$PROXYGRAPHICS
 70
     1
  9
$MEASUREMENT
 70
     0
  9
$CELWEIGHT
370
    -1
  9
$ENDCAPS
280
     0
  9
$JOINSTYLE
280
     0
  9
$LWDISPLAY
290
     0
  9
$INSUNITS
 70
     0
  9
$HYPERLINKBASE
  1

  9
$STYLESHEET
  1
SEKKEI.CTB
  9
$XEDIT
290
     1
  9
$CEPSNTYPE
380
     0
  9
$PSTYLEMODE
290
     1
  9
$FINGERPRINTGUID
  2
{6385560B-F4B1-4644-A7C2-A3E32AC3D232}
  9
$VERSIONGUID
  2
{E44EEB43-213E-524B-B07F-E9CBD8C48546}
  9
$EXTNAMES
290
     1
  9
$PSVPSCALE
 40
0.0
  9
$OLESTARTUP
290
     0
  0
ENDSEC
  0
SECTION
  2
CLASSES
  0
CLASS
  1
DICTIONARYVAR
  2
AcDbDictionaryVar
  3
ObjectDBX Classes
 90
        0
280
     0
281
     0
  0
CLASS
  1
ACDBDICTIONARYWDFLT
  2
AcDbDictionaryWithDefault
  3
ObjectDBX Classes
 90
        0
280
     0
281
     0
  0
CLASS
  1
MATERIAL
  2
AcDbMaterial
  3
ObjectDBX Classes
 90
     1153
280
     0
281
     0
  0
CLASS
  1
VISUALSTYLE
  2
AcDbVisualStyle
  3
ObjectDBX Classes
 90
     4095
280
     0
281
     0
  0
CLASS
  1
TABLESTYLE
  2
AcDbTableStyle
  3
ObjectDBX Classes
 90
     4095
280
     0
281
     0
  0
CLASS
  1
SCALE
  2
AcDbScale
  3
ObjectDBX Classes
 90
     1153
280
     0
281
     0
  0
CLASS
  1
MLEADERSTYLE
  2
AcDbMLeaderStyle
  3
ACDB_MLEADERSTYLE_CLASS
 90
     4095
280
     0
281
     0
  0
CLASS
  1
CELLSTYLEMAP
  2
AcDbCellStyleMap
  3
ObjectDBX Classes
 90
     1152
280
     0
281
     0
  0
CLASS
  1
ACAD_EVALUATION_GRAPH
  2
AcDbEvalGraph
  3
ObjectDBX Classes
 90
    33921
280
     0
281
     0
  0
CLASS
  1
ACAECUSTOBJ
  2
AcAeEditorObj
  3
AcAeEditorObj
 90
    33792
280
     0
281
     0
  0
CLASS
  1
ACDB_DYNAMICBLOCKPURGEPREVENTER_VERSION
  2
AcDbDynamicBlockPurgePreventer
  3
ObjectDBX Classes
 90
    33921
280
     0
281
     0
  0
CLASS
  1
ACDBPLACEHOLDER
  2
AcDbPlaceHolder
  3
ObjectDBX Classes
 90
        0
280
     0
281
     0
  0
CLASS
  1
LAYOUT
  2
AcDbLayout
  3
ObjectDBX Classes
 90
        0
280
     0
281
     0
  0
CLASS
  1
ACDBSECTIONVIEWSTYLE
  2
AcDbSectionViewStyle
  3
ObjectDBX Classes
 90
     1025
280
     0
281
     0
  0
CLASS
  1
ACDBDETAILVIEWSTYLE
  2
AcDbDetailViewStyle
  3
ObjectDBX Classes
 90
     1025
280
     0
281
     0
  0
CLASS
  1
SORTENTSTABLE
  2
AcDbSortentsTable
  3
ObjectDBX Classes
 90
    32768
280
     0
281
     0
  0
ENDSEC
  0
SECTION
  2
TABLES
  0
TABLE
  2
VPORT
  5
6E
102
{ACAD_XDICTIONARY
360
188D
102
}
330
0
100
AcDbSymbolTable
 70
     1
  0
VPORT
  5
1811
330
6E
100
AcDbSymbolTableRecord
100
AcDbViewportTableRecord
  2
*Active
 70
     0
 10
0.0
 20
0.0
 11
1.0
 21
1.0
 12
730.8208367857
 22
405.0037080198
 13
0.0
 23
0.0
 14
10.0
 24
10.0
 15
24.0
 25
24.0
 16
0.0
 26
0.0
 36
1.0
 17
0.0
 27
0.0
 37
0.0
 40
703.9745443359
 41
1.9986338798
 42
50.0
 43
0.0
 44
0.0
 50
0.0
 51
0.0
 71
     0
 72
   100
 73
     1
 74
     3
 75
     0
 76
     0
 77
     0
 78
     0
281
     0
 65
     1
110
0.0
120
0.0
130
0.0
111
1.0
121
0.0
131
0.0
112
0.0
122
1.0
132
0.0
 79
     0
146
0.0
1001
ACAD_NAV_VCDISPLAY
1070
     3
  0
ENDTAB
  0
TABLE
  2
LTYPE
  5
69
330
0
100
AcDbSymbolTable
 70
     3
  0
LTYPE
  5
6A
330
69
100
AcDbSymbolTableRecord
100
AcDbLinetypeTableRecord
  2
BYBLOCK
 70
     0
  3

 72
    65
 73
     0
 40
0.0
  0
LTYPE
  5
6B
330
69
100
AcDbSymbolTableRecord
100
AcDbLinetypeTableRecord
  2
BYLAYER
 70
     0
  3

 72
    65
 73
     0
 40
0.0
  0
LTYPE
  5
8
330
69
100
AcDbSymbolTableRecord
100
AcDbLinetypeTableRecord
  2
CONTINUOUS
 70
     0
  3
Solid line
 72
    65
 73
     0
 40
0.0
  0
LTYPE
  5
27C
330
69
100
AcDbSymbolTableRecord
100
AcDbLinetypeTableRecord
  2
sekkei(A2)
 70
     0
  3
center(A2)  ____ _ ____ _ ____ _ ____ _ ____ _ 
 72
    65
 73
     4
 40
14.2875
 49
9.525
 74
     0
 49
-1.5875
 74
     0
 49
1.5875
 74
     0
 49
-1.5875
 74
     0
  0
LTYPE
  5
2B4
330
69
100
AcDbSymbolTableRecord
100
AcDbLinetypeTableRecord
  2
HIDDEN2
 70
     0
  3
Hidden (.5x) _ _ _ _ _ _ _ _ _ _ _ _ _ _ _ _ _
 72
    65
 73
     2
 40
4.7625
 49
3.175
 74
     0
 49
-1.5875
 74
     0
  0
ENDTAB
  0
TABLE
  2
LAYER
  5
66
102
{ACAD_XDICTIONARY
360
186C
102
}
330
0
100
AcDbSymbolTable
 70
    10
  0
LAYER
  5
5E
102
{ACAD_XDICTIONARY
360
1874
102
}
330
66
100
AcDbSymbolTableRecord
100
AcDbLayerTableRecord
  2
0
 70
     0
 62
     7
  6
CONTINUOUS
370
    -3
390
5
  0
LAYER
  5
3E
102
{ACAD_XDICTIONARY
360
1876
102
}
330
66
100
AcDbSymbolTableRecord
100
AcDbLayerTableRecord
  2
CENTER
 70
     0
 62
     3
  6
sekkei(A2)
370
    -3
390
5
  0
LAYER
  5
135
330
66
100
AcDbSymbolTableRecord
100
AcDbLayerTableRecord
  2
DEFPOINTS
 70
     0
 62
     7
  6
CONTINUOUS
290
     0
370
    -3
390
5
  0
LAYER
  5
2B5
102
{ACAD_XDICTIONARY
360
187C
102
}
330
66
100
AcDbSymbolTableRecord
100
AcDbLayerTableRecord
  2
HIDS
 70
     0
 62
     1
  6
HIDDEN2
370
    -3
390
5
  0
LAYER
  5
2BA
102
{ACAD_XDICTIONARY
360
187E
102
}
330
66
100
AcDbSymbolTableRecord
100
AcDbLayerTableRecord
  2
HOJO
 70
     0
 62
     4
  6
CONTINUOUS
370
    -3
390
5
  0
LAYER
  5
3FA
102
{ACAD_XDICTIONARY
360
1882
102
}
330
66
100
AcDbSymbolTableRecord
100
AcDbLayerTableRecord
  2
TITLE
 70
     0
 62
     4
  6
CONTINUOUS
290
     0
370
    -3
390
5
  0
LAYER
  5
1869
102
{ACAD_XDICTIONARY
360
186A
102
}
330
66
100
AcDbSymbolTableRecord
100
AcDbLayerTableRecord
  2
TITLE_C
 70
     0
 62
     4
  6
CONTINUOUS
370
    -3
390
5
1001
AcAecLayerStandard
1000

1000

  0
ENDTAB
  0
TABLE
  2
STYLE
  5
67
330
0
100
AcDbSymbolTable
 70
     1
  0
STYLE
  5
16
330
67
100
AcDbSymbolTableRecord
100
AcDbTextStyleTableRecord
  2
STANDARD
 70
     0
 40
0.0
 41
1.0
 50
0.0
 71
     0
 42
2.0
  3
simplex.shx
  4
extfont.shx
  0
ENDTAB
  0
TABLE
  2
VIEW
  5
6C
330
0
100
AcDbSymbolTable
 70
     0
  0
ENDTAB
  0
TABLE
  2
UCS
  5
6D
330
0
100
AcDbSymbolTable
 70
     0
  0
ENDTAB
  0
TABLE
  2
APPID
  5
70
330
0
100
AcDbSymbolTable
 70
    10
  0
APPID
  5
71
330
70
100
AcDbSymbolTableRecord
100
AcDbRegAppTableRecord
  2
ACAD
 70
     0
  0
APPID
  5
186B
330
70
100
AcDbSymbolTableRecord
100
AcDbRegAppTableRecord
  2
AcAecLayerStandard
 70
     0
  0
APPID
  5
18D1
330
70
100
AcDbSymbolTableRecord
100
AcDbRegAppTableRecord
  2
ACAD_MLEADERVER
 70
     0
  0
APPID
  5
18E7
330
70
100
AcDbSymbolTableRecord
100
AcDbRegAppTableRecord
  2
ACAD_EXEMPT_FROM_CAD_STANDARDS
 70
     0
  0
APPID
  5
1F89
330
70
100
AcDbSymbolTableRecord
100
AcDbRegAppTableRecord
  2
AcadAnnoAV
 70
     0
  0
APPID
  5
1FAF
330
70
100
AcDbSymbolTableRecord
100
AcDbRegAppTableRecord
  2
ACAUTHENVIRON
 70
     0
  0
APPID
  5
1FB3
330
70
100
AcDbSymbolTableRecord
100
AcDbRegAppTableRecord
  2
AcDbDynamicBlockTrueName
 70
     0
  0
APPID
  5
1FB4
330
70
100
AcDbSymbolTableRecord
100
AcDbRegAppTableRecord
  2
AcDbDynamicBlockGUID
 70
     0
  0
APPID
  5
1FB6
330
70
100
AcDbSymbolTableRecord
100
AcDbRegAppTableRecord
  2
AcDbBlockRepETag
 70
     0
  0
APPID
  5
21FF
330
70
100
AcDbSymbolTableRecord
100
AcDbRegAppTableRecord
  2
ACAD_NAV_VCDISPLAY
 70
     0
  0
ENDTAB
  0
TABLE
  2
DIMSTYLE
  5
72
330
0
100
AcDbSymbolTable
 70
     2
100
AcDbDimStyleTable
 71
     1
340
73
  0
DIMSTYLE
105
73
330
72
100
AcDbSymbolTableRecord
100
AcDbDimStyleTableRecord
  2
STANDARD
 70
     0
 40
4.0
 41
1.8
 42
0.625
 43
3.75
 44
0.8
 73
     0
 74
     0
 77
     1
 78
     8
140
1.8
141
2.5
143
0.0394
147
0.75
171
     4
172
     1
179
     2
271
     2
272
     2
273
     8
274
     4
277
     6
340
16
  0
ENDTAB
  0
TABLE
  2
BLOCK_RECORD
  5
1
330
0
100
AcDbSymbolTable
 70
    64
  0
BLOCK_RECORD
  5
2
330
1
100
AcDbSymbolTableRecord
100
AcDbBlockTableRecord
  2
*MODEL_SPACE
340
60
  0
BLOCK_RECORD
  5
265C
330
1
100
AcDbSymbolTableRecord
100
AcDbBlockTableRecord
  2
*Paper_Space
340
265D
  0
BLOCK_RECORD
  5
A53
330
1
100
AcDbSymbolTableRecord
100
AcDbBlockTableRecord
  2
*D1
340
0
  0
BLOCK_RECORD
  5
A60
330
1
100
AcDbSymbolTableRecord
100
AcDbBlockTableRecord
  2
*D2
340
0
  0
BLOCK_RECORD
  5
A6D
330
1
100
AcDbSymbolTableRecord
100
AcDbBlockTableRecord
  2
*D3
340
0
  0
BLOCK_RECORD
  5
A7A
330
1
100
AcDbSymbolTableRecord
100
AcDbBlockTableRecord
  2
*D4
340
0
  0
BLOCK_RECORD
  5
A87
330
1
100
AcDbSymbolTableRecord
100
AcDbBlockTableRecord
  2
*D5
340
0
  0
BLOCK_RECORD
  5
AC1
330
1
100
AcDbSymbolTableRecord
100
AcDbBlockTableRecord
  2
*D6
340
0
  0
BLOCK_RECORD
  5
AD7
330
1
100
AcDbSymbolTableRecord
100
AcDbBlockTableRecord
  2
*D7
340
0
  0
BLOCK_RECORD
  5
B23
330
1
100
AcDbSymbolTableRecord
100
AcDbBlockTableRecord
  2
*D8
340
0
  0
BLOCK_RECORD
  5
B39
330
1
100
AcDbSymbolTableRecord
100
AcDbBlockTableRecord
  2
*D9
340
0
  0
BLOCK_RECORD
  5
B46
330
1
100
AcDbSymbolTableRecord
100
AcDbBlockTableRecord
  2
*D10
340
0
  0
BLOCK_RECORD
  5
B53
330
1
100
AcDbSymbolTableRecord
100
AcDbBlockTableRecord
  2
*D11
340
0
  0
BLOCK_RECORD
  5
B60
330
1
100
AcDbSymbolTableRecord
100
AcDbBlockTableRecord
  2
*D12
340
0
  0
BLOCK_RECORD
  5
B6D
330
1
100
AcDbSymbolTableRecord
100
AcDbBlockTableRecord
  2
*D13
340
0
  0
BLOCK_RECORD
  5
BA7
330
1
100
AcDbSymbolTableRecord
100
AcDbBlockTableRecord
  2
*D14
340
0
  0
BLOCK_RECORD
  5
BB4
330
1
100
AcDbSymbolTableRecord
100
AcDbBlockTableRecord
  2
*D15
340
0
  0
BLOCK_RECORD
  5
C78
330
1
100
AcDbSymbolTableRecord
100
AcDbBlockTableRecord
  2
*D16
340
0
  0
BLOCK_RECORD
  5
C85
330
1
100
AcDbSymbolTableRecord
100
AcDbBlockTableRecord
  2
*D17
340
0
  0
BLOCK_RECORD
  5
CA4
330
1
100
AcDbSymbolTableRecord
100
AcDbBlockTableRecord
  2
*D18
340
0
  0
BLOCK_RECORD
  5
CB1
330
1
100
AcDbSymbolTableRecord
100
AcDbBlockTableRecord
  2
*D19
340
0
  0
BLOCK_RECORD
  5
CBE
330
1
100
AcDbSymbolTableRecord
100
AcDbBlockTableRecord
  2
*D20
340
0
  0
BLOCK_RECORD
  5
CCB
330
1
100
AcDbSymbolTableRecord
100
AcDbBlockTableRecord
  2
*D21
340
0
  0
BLOCK_RECORD
  5
CDA
330
1
100
AcDbSymbolTableRecord
100
AcDbBlockTableRecord
  2
*D22
340
0
  0
BLOCK_RECORD
  5
ED0
330
1
100
AcDbSymbolTableRecord
100
AcDbBlockTableRecord
  2
*D23
340
0
  0
BLOCK_RECORD
  5
143C
330
1
100
AcDbSymbolTableRecord
100
AcDbBlockTableRecord
  2
*D28
340
0
  0
BLOCK_RECORD
  5
1448
330
1
100
AcDbSymbolTableRecord
100
AcDbBlockTableRecord
  2
*D29
340
0
  0
BLOCK_RECORD
  5
1455
330
1
100
AcDbSymbolTableRecord
100
AcDbBlockTableRecord
  2
*D30
340
0
  0
BLOCK_RECORD
  5
1461
330
1
100
AcDbSymbolTableRecord
100
AcDbBlockTableRecord
  2
*D31
340
0
  0
ENDTAB
  0
ENDSEC
  0
SECTION
  2
BLOCKS
  0
BLOCK
  5
5D
330
2
100
AcDbEntity
  8
0
100
AcDbBlockBegin
  2
*MODEL_SPACE
 70
     0
 10
0.0
 20
0.0
 30
0.0
  3
*MODEL_SPACE
  1

  0
ENDBLK
  5
5F
330
2
100
AcDbEntity
  8
0
100
AcDbBlockEnd
  0
BLOCK
  5
265E
330
265C
100
AcDbEntity
 67
     1
  8
0
100
AcDbBlockBegin
  2
*Paper_Space
 70
     0
 10
0.0
 20
0.0
 30
0.0
  3
*Paper_Space
  1

  0
ENDBLK
  5
265F
330
265C
100
AcDbEntity
 67
     1
  8
0
100
AcDbBlockEnd
  0
BLOCK
  5
A5D
330
A53
100
AcDbEntity
  8
0
100
AcDbBlockBegin
  2
*D1
 70
     1
 10
0.0
 20
0.0
 30
0.0
  3
*D1
  1

  0
POINT
  5
E12
330
A53
100
AcDbEntity
  8
DEFPOINTS
 62
     0
100
AcDbPoint
 10
429.9580060627
 20
360.6415947563
 30
0.0
  0
POINT
  5
E13
330
A53
100
AcDbEntity
  8
DEFPOINTS
 62
     0
100
AcDbPoint
 10
519.9580060627
 20
301.4735957563
 30
0.0
  0
POINT
  5
E14
330
A53
100
AcDbEntity
  8
DEFPOINTS
 62
     0
100
AcDbPoint
 10
519.9580060627
 20
393.7337421997
 30
0.0
  0
ENDBLK
  5
A5E
330
A53
100
AcDbEntity
  8
0
100
AcDbBlockEnd
  0
BLOCK
  5
A6A
330
A60
100
AcDbEntity
  8
0
100
AcDbBlockBegin
  2
*D2
 70
     1
 10
0.0
 20
0.0
 30
0.0
  3
*D2
  1

  0
POINT
  5
E09
330
A60
100
AcDbEntity
  8
DEFPOINTS
 62
     0
100
AcDbPoint
 10
429.9580060627
 20
360.6415947563
 30
0.0
  0
POINT
  5
E0A
330
A60
100
AcDbEntity
  8
DEFPOINTS
 62
     0
100
AcDbPoint
 10
326.9579910627
 20
285.6415947563
 30
0.0
  0
POINT
  5
E0B
330
A60
100
AcDbEntity
  8
DEFPOINTS
 62
     0
100
AcDbPoint
 10
326.9579910627
 20
393.7337421997
 30
0.0
  0
ENDBLK
  5
A6B
330
A60
100
AcDbEntity
  8
0
100
AcDbBlockEnd
  0
BLOCK
  5
A77
330
A6D
100
AcDbEntity
  8
0
100
AcDbBlockBegin
  2
*D3
 70
     1
 10
0.0
 20
0.0
 30
0.0
  3
*D3
  1

  0
POINT
  5
E00
330
A6D
100
AcDbEntity
  8
DEFPOINTS
 62
     0
100
AcDbPoint
 10
326.9579910627
 20
285.6415947563
 30
0.0
  0
POINT
  5
E01
330
A6D
100
AcDbEntity
  8
DEFPOINTS
 62
     0
100
AcDbPoint
 10
270.4579910627
 20
252.6415947563
 30
0.0
  0
POINT
  5
E02
330
A6D
100
AcDbEntity
  8
DEFPOINTS
 62
     0
100
AcDbPoint
 10
270.4579910627
 20
393.7337421997
 30
0.0
  0
ENDBLK
  5
A78
330
A6D
100
AcDbEntity
  8
0
100
AcDbBlockEnd
  0
BLOCK
  5
A84
330
A7A
100
AcDbEntity
  8
0
100
AcDbBlockBegin
  2
*D4
 70
     1
 10
0.0
 20
0.0
 30
0.0
  3
*D4
  1

  0
POINT
  5
DF7
330
A7A
100
AcDbEntity
  8
DEFPOINTS
 62
     0
100
AcDbPoint
 10
270.4579910627
 20
252.6415947563
 30
0.0
  0
POINT
  5
DF8
330
A7A
100
AcDbEntity
  8
DEFPOINTS
 62
     0
100
AcDbPoint
 10
82.9579940627
 20
244.6415947563
 30
0.0
  0
POINT
  5
DF9
330
A7A
100
AcDbEntity
  8
DEFPOINTS
 62
     0
100
AcDbPoint
 10
82.9579940627
 20
393.7337421997
 30
0.0
  0
ENDBLK
  5
A85
330
A7A
100
AcDbEntity
  8
0
100
AcDbBlockEnd
  0
BLOCK
  5
A91
330
A87
100
AcDbEntity
  8
0
100
AcDbBlockBegin
  2
*D5
 70
     1
 10
0.0
 20
0.0
 30
0.0
  3
*D5
  1

  0
POINT
  5
DEE
330
A87
100
AcDbEntity
  8
DEFPOINTS
 62
     0
100
AcDbPoint
 10
82.9579940627
 20
244.6415947563
 30
0.0
  0
POINT
  5
DEF
330
A87
100
AcDbEntity
  8
DEFPOINTS
 62
     0
100
AcDbPoint
 10
519.9580060627
 20
301.4735957563
 30
0.0
  0
POINT
  5
DF0
330
A87
100
AcDbEntity
  8
DEFPOINTS
 62
     0
100
AcDbPoint
 10
519.9580060627
 20
417.5232967595
 30
0.0
  0
ENDBLK
  5
A92
330
A87
100
AcDbEntity
  8
0
100
AcDbBlockEnd
  0
BLOCK
  5
ACB
330
AC1
100
AcDbEntity
  8
0
100
AcDbBlockBegin
  2
*D6
 70
     1
 10
0.0
 20
0.0
 30
0.0
  3
*D6
  1

  0
POINT
  5
E24
330
AC1
100
AcDbEntity
  8
DEFPOINTS
 62
     0
100
AcDbPoint
 10
519.9580060627
 20
103.1415927563
 30
0.0
  0
POINT
  5
E25
330
AC1
100
AcDbEntity
  8
DEFPOINTS
 62
     0
100
AcDbPoint
 10
461.7723980627
 20
345.6415947563
 30
0.0
  0
POINT
  5
E26
330
AC1
100
AcDbEntity
  8
DEFPOINTS
 62
     0
100
AcDbPoint
 10
554.0489759244
 20
345.6415947563
 30
0.0
  0
ENDBLK
  5
ACC
330
AC1
100
AcDbEntity
  8
0
100
AcDbBlockEnd
  0
BLOCK
  5
AE1
330
AD7
100
AcDbEntity
  8
0
100
AcDbBlockBegin
  2
*D7
 70
     1
 10
0.0
 20
0.0
 30
0.0
  3
*D7
  1

  0
POINT
  5
E3F
330
AD7
100
AcDbEntity
  8
DEFPOINTS
 62
     0
100
AcDbPoint
 10
361.6907318106
 20
268.1415947563
 30
0.0
  0
POINT
  5
E40
330
AD7
100
AcDbEntity
  8
DEFPOINTS
 62
     0
100
AcDbPoint
 10
373.4479960627
 20
199.6415947563
 30
0.0
  0
POINT
  5
E41
330
AD7
100
AcDbEntity
  8
DEFPOINTS
 62
     0
100
AcDbPoint
 10
357.1908590484
 20
199.6415947563
 30
0.0
  0
ENDBLK
  5
AE2
330
AD7
100
AcDbEntity
  8
0
100
AcDbBlockEnd
  0
BLOCK
  5
B2D
330
B23
100
AcDbEntity
  8
0
100
AcDbBlockBegin
  2
*D8
 70
     1
 10
0.0
 20
0.0
 30
0.0
  3
*D8
  1

  0
POINT
  5
E1B
330
B23
100
AcDbEntity
  8
DEFPOINTS
 62
     0
100
AcDbPoint
 10
92.9579940627
 20
144.6415917563
 30
0.0
  0
POINT
  5
E1C
330
B23
100
AcDbEntity
  8
DEFPOINTS
 62
     0
100
AcDbPoint
 10
92.9579940627
 20
254.6415947563
 30
0.0
  0
POINT
  5
E1D
330
B23
100
AcDbEntity
  8
DEFPOINTS
 62
     0
100
AcDbPoint
 10
48.9440160769
 20
254.6415947563
 30
0.0
  0
ENDBLK
  5
B2E
330
B23
100
AcDbEntity
  8
0
100
AcDbBlockEnd
  0
BLOCK
  5
B43
330
B39
100
AcDbEntity
  8
0
100
AcDbBlockBegin
  2
*D9
 70
     1
 10
0.0
 20
0.0
 30
0.0
  3
*D9
  1

  0
POINT
  5
DBC
330
B39
100
AcDbEntity
  8
DEFPOINTS
 62
     0
100
AcDbPoint
 10
710.956883338
 20
360.6416107563
 30
0.0
  0
POINT
  5
DBD
330
B39
100
AcDbEntity
  8
DEFPOINTS
 62
     0
100
AcDbPoint
 10
850.956883338
 20
288.1415947563
 30
0.0
  0
POINT
  5
DBE
330
B39
100
AcDbEntity
  8
DEFPOINTS
 62
     0
100
AcDbPoint
 10
850.956883338
 20
393.7337421997
 30
0.0
  0
ENDBLK
  5
B44
330
B39
100
AcDbEntity
  8
0
100
AcDbBlockEnd
  0
BLOCK
  5
B50
330
B46
100
AcDbEntity
  8
0
100
AcDbBlockBegin
  2
*D10
 70
     1
 10
0.0
 20
0.0
 30
0.0
  3
*D10
  1

  0
POINT
  5
DE5
330
B46
100
AcDbEntity
  8
DEFPOINTS
 62
     0
100
AcDbPoint
 10
710.956883338
 20
360.6416107563
 30
0.0
  0
POINT
  5
DE6
330
B46
100
AcDbEntity
  8
DEFPOINTS
 62
     0
100
AcDbPoint
 10
620.956887338
 20
120.5104707563
 30
0.0
  0
POINT
  5
DE7
330
B46
100
AcDbEntity
  8
DEFPOINTS
 62
     0
100
AcDbPoint
 10
620.956887338
 20
393.7337421997
 30
0.0
  0
ENDBLK
  5
B51
330
B46
100
AcDbEntity
  8
0
100
AcDbBlockEnd
  0
BLOCK
  5
B5D
330
B53
100
AcDbEntity
  8
0
100
AcDbBlockBegin
  2
*D11
 70
     1
 10
0.0
 20
0.0
 30
0.0
  3
*D11
  1

  0
POINT
  5
DC5
330
B53
100
AcDbEntity
  8
DEFPOINTS
 62
     0
100
AcDbPoint
 10
850.956883338
 20
288.1415947563
 30
0.0
  0
POINT
  5
DC6
330
B53
100
AcDbEntity
  8
DEFPOINTS
 62
     0
100
AcDbPoint
 10
620.956887338
 20
120.5104707563
 30
0.0
  0
POINT
  5
DC7
330
B53
100
AcDbEntity
  8
DEFPOINTS
 62
     0
100
AcDbPoint
 10
620.956887338
 20
417.5232967595
 30
0.0
  0
ENDBLK
  5
B5E
330
B53
100
AcDbEntity
  8
0
100
AcDbBlockEnd
  0
BLOCK
  5
B6A
330
B60
100
AcDbEntity
  8
0
100
AcDbBlockBegin
  2
*D12
 70
     1
 10
0.0
 20
0.0
 30
0.0
  3
*D12
  1

  0
POINT
  5
E78
330
B60
100
AcDbEntity
  8
DEFPOINTS
 62
     0
100
AcDbPoint
 10
790.956883338
 20
268.1415947563
 30
0.0
  0
POINT
  5
E79
330
B60
100
AcDbEntity
  8
DEFPOINTS
 62
     0
100
AcDbPoint
 10
850.956883338
 20
288.1415947563
 30
0.0
  0
POINT
  5
E7A
330
B60
100
AcDbEntity
  8
DEFPOINTS
 62
     0
100
AcDbPoint
 10
850.956883338
 20
345.5935397877
 30
0.0
  0
ENDBLK
  5
B6B
330
B60
100
AcDbEntity
  8
0
100
AcDbBlockEnd
  0
BLOCK
  5
B77
330
B6D
100
AcDbEntity
  8
0
100
AcDbBlockBegin
  2
*D13
 70
     1
 10
0.0
 20
0.0
 30
0.0
  3
*D13
  1

  0
POINT
  5
E48
330
B6D
100
AcDbEntity
  8
DEFPOINTS
 62
     0
100
AcDbPoint
 10
785.956883338
 20
290.6415947563
 30
0.0
  0
POINT
  5
E49
330
B6D
100
AcDbEntity
  8
DEFPOINTS
 62
     0
100
AcDbPoint
 10
850.956883338
 20
288.1415947563
 30
0.0
  0
POINT
  5
E4A
330
B6D
100
AcDbEntity
  8
DEFPOINTS
 62
     0
100
AcDbPoint
 10
850.956883338
 20
369.7998064073
 30
0.0
  0
ENDBLK
  5
B78
330
B6D
100
AcDbEntity
  8
0
100
AcDbBlockEnd
  0
BLOCK
  5
BB1
330
BA7
100
AcDbEntity
  8
0
100
AcDbBlockBegin
  2
*D14
 70
     1
 10
0.0
 20
0.0
 30
0.0
  3
*D14
  1

  0
POINT
  5
E6F
330
BA7
100
AcDbEntity
  8
DEFPOINTS
 62
     0
100
AcDbPoint
 10
850.956883338
 20
248.1415947563
 30
0.0
  0
POINT
  5
E70
330
BA7
100
AcDbEntity
  8
DEFPOINTS
 62
     0
100
AcDbPoint
 10
850.956883338
 20
288.1415947563
 30
0.0
  0
POINT
  5
E71
330
BA7
100
AcDbEntity
  8
DEFPOINTS
 62
     0
100
AcDbPoint
 10
879.8147601949
 20
288.1415947563
 30
0.0
  0
ENDBLK
  5
BB2
330
BA7
100
AcDbEntity
  8
0
100
AcDbBlockEnd
  0
BLOCK
  5
BBE
330
BB4
100
AcDbEntity
  8
0
100
AcDbBlockBegin
  2
*D15
 70
     1
 10
0.0
 20
0.0
 30
0.0
  3
*D15
  1

  0
POINT
  5
E51
330
BB4
100
AcDbEntity
  8
DEFPOINTS
 62
     0
100
AcDbPoint
 10
865.956883338
 20
268.1415947563
 30
0.0
  0
POINT
  5
E52
330
BB4
100
AcDbEntity
  8
DEFPOINTS
 62
     0
100
AcDbPoint
 10
800.956883338
 20
103.1415907563
 30
0.0
  0
POINT
  5
E53
330
BB4
100
AcDbEntity
  8
DEFPOINTS
 62
     0
100
AcDbPoint
 10
903.4159738624
 20
103.1415907563
 30
0.0
  0
ENDBLK
  5
BBF
330
BB4
100
AcDbEntity
  8
0
100
AcDbBlockEnd
  0
BLOCK
  5
C82
330
C78
100
AcDbEntity
  8
0
100
AcDbBlockBegin
  2
*D16
 70
     1
 10
0.0
 20
0.0
 30
0.0
  3
*D16
  1

  0
POINT
  5
E2D
330
C78
100
AcDbEntity
  8
DEFPOINTS
 62
     0
100
AcDbPoint
 10
369.9580060627
 20
96.1415927563
 30
0.0
  0
POINT
  5
E2E
330
C78
100
AcDbEntity
  8
DEFPOINTS
 62
     0
100
AcDbPoint
 10
489.9580060627
 20
96.1415927563
 30
0.0
  0
POINT
  5
E2F
330
C78
100
AcDbEntity
  8
DEFPOINTS
 62
     0
100
AcDbPoint
 10
489.9580060627
 20
69.2565474343
 30
0.0
  0
ENDBLK
  5
C83
330
C78
100
AcDbEntity
  8
0
100
AcDbBlockEnd
  0
BLOCK
  5
C8F
330
C85
100
AcDbEntity
  8
0
100
AcDbBlockBegin
  2
*D17
 70
     1
 10
0.0
 20
0.0
 30
0.0
  3
*D17
  1

  0
POINT
  5
E36
330
C85
100
AcDbEntity
  8
DEFPOINTS
 62
     0
100
AcDbPoint
 10
519.9580060627
 20
103.1415927563
 30
0.0
  0
POINT
  5
E37
330
C85
100
AcDbEntity
  8
DEFPOINTS
 62
     0
100
AcDbPoint
 10
339.9580060627
 20
103.1415927563
 30
0.0
  0
POINT
  5
E38
330
C85
100
AcDbEntity
  8
DEFPOINTS
 62
     0
100
AcDbPoint
 10
339.9580060627
 20
45.2465397664
 30
0.0
  0
ENDBLK
  5
C90
330
C85
100
AcDbEntity
  8
0
100
AcDbBlockEnd
  0
BLOCK
  5
CAE
330
CA4
100
AcDbEntity
  8
0
100
AcDbBlockBegin
  2
*D18
 70
     1
 10
0.0
 20
0.0
 30
0.0
  3
*D18
  1

  0
POINT
  5
DCE
330
CA4
100
AcDbEntity
  8
DEFPOINTS
 62
     0
100
AcDbPoint
 10
640.956887338
 20
96.1415907563
 30
0.0
  0
POINT
  5
DCF
330
CA4
100
AcDbEntity
  8
DEFPOINTS
 62
     0
100
AcDbPoint
 10
780.956883338
 20
96.1415907563
 30
0.0
  0
POINT
  5
DD0
330
CA4
100
AcDbEntity
  8
DEFPOINTS
 62
     0
100
AcDbPoint
 10
780.956883338
 20
69.2565474343
 30
0.0
  0
ENDBLK
  5
CAF
330
CA4
100
AcDbEntity
  8
0
100
AcDbBlockEnd
  0
BLOCK
  5
CBB
330
CB1
100
AcDbEntity
  8
0
100
AcDbBlockBegin
  2
*D19
 70
     1
 10
0.0
 20
0.0
 30
0.0
  3
*D19
  1

  0
POINT
  5
DD7
330
CB1
100
AcDbEntity
  8
DEFPOINTS
 62
     0
100
AcDbPoint
 10
620.956887338
 20
103.1415907563
 30
0.0
  0
POINT
  5
DD8
330
CB1
100
AcDbEntity
  8
DEFPOINTS
 62
     0
100
AcDbPoint
 10
800.956883338
 20
103.1415907563
 30
0.0
  0
POINT
  5
DD9
330
CB1
100
AcDbEntity
  8
DEFPOINTS
 62
     0
100
AcDbPoint
 10
800.956883338
 20
45.2465397664
 30
0.0
  0
ENDBLK
  5
CBC
330
CB1
100
AcDbEntity
  8
0
100
AcDbBlockEnd
  0
BLOCK
  5
CC8
330
CBE
100
AcDbEntity
  8
0
100
AcDbBlockBegin
  2
*D20
 70
     1
 10
0.0
 20
0.0
 30
0.0
  3
*D20
  1

  0
POINT
  5
E5A
330
CBE
100
AcDbEntity
  8
DEFPOINTS
 62
     0
100
AcDbPoint
 10
780.956883338
 20
96.1415907563
 30
0.0
  0
POINT
  5
E5B
330
CBE
100
AcDbEntity
  8
DEFPOINTS
 62
     0
100
AcDbPoint
 10
850.956883338
 20
248.1415947563
 30
0.0
  0
POINT
  5
E5C
330
CBE
100
AcDbEntity
  8
DEFPOINTS
 62
     0
100
AcDbPoint
 10
850.956883338
 20
69.2565474343
 30
0.0
  0
ENDBLK
  5
CC9
330
CBE
100
AcDbEntity
  8
0
100
AcDbBlockEnd
  0
BLOCK
  5
CD7
330
CCB
100
AcDbEntity
  8
0
100
AcDbBlockBegin
  2
*D21
 70
     1
 10
0.0
 20
0.0
 30
0.0
  3
*D21
  1

  0
POINT
  5
E65
330
CCB
100
AcDbEntity
  8
DEFPOINTS
 62
     0
100
AcDbPoint
 10
800.956883338
 20
103.1415907563
 30
0.0
  0
POINT
  5
E66
330
CCB
100
AcDbEntity
  8
DEFPOINTS
 62
     0
100
AcDbPoint
 10
797.956883338
 20
123.1415907563
 30
0.0
  0
POINT
  5
E67
330
CCB
100
AcDbEntity
  8
DEFPOINTS
 62
     0
100
AcDbPoint
 10
830.6379429824
 20
123.1415907563
 30
0.0
  0
ENDBLK
  5
CD8
330
CCB
100
AcDbEntity
  8
0
100
AcDbBlockEnd
  0
BLOCK
  5
CE0
330
CDA
100
AcDbEntity
  8
0
100
AcDbBlockBegin
  2
*D22
 70
     1
 10
0.0
 20
0.0
 30
0.0
  3
*D22
  1

  0
POINT
  5
DDD
330
CDA
100
AcDbEntity
  8
DEFPOINTS
 62
     0
100
AcDbPoint
 10
641.2027951991
 20
201.3989600747
 30
0.0
  0
POINT
  5
DDE
330
CDA
100
AcDbEntity
  8
DEFPOINTS
 62
     0
100
AcDbPoint
 10
780.7109714769
 20
227.8842154378
 30
0.0
  0
ENDBLK
  5
CE1
330
CDA
100
AcDbEntity
  8
0
100
AcDbBlockEnd
  0
BLOCK
  5
EDC
330
ED0
100
AcDbEntity
  8
0
100
AcDbBlockBegin
  2
*D23
 70
     1
 10
0.0
 20
0.0
 30
0.0
  3
*D23
  1

  0
POINT
  5
EE6
330
ED0
100
AcDbEntity
  8
DEFPOINTS
 62
     0
100
AcDbPoint
 10
301.6554185942
 20
214.6415947563
 30
0.0
  0
POINT
  5
EE7
330
ED0
100
AcDbEntity
  8
DEFPOINTS
 62
     0
100
AcDbPoint
 10
301.6554185942
 20
199.6415947563
 30
0.0
  0
POINT
  5
EE8
330
ED0
100
AcDbEntity
  8
DEFPOINTS
 62
     0
100
AcDbPoint
 10
301.6554185942
 20
199.6415947563
 30
0.0
  0
ENDBLK
  5
EDD
330
ED0
100
AcDbEntity
  8
0
100
AcDbBlockEnd
  0
BLOCK
  5
1446
330
143C
100
AcDbEntity
  8
0
100
AcDbBlockBegin
  2
*D28
 70
     1
 10
0.0
 20
0.0
 30
0.0
  3
*D28
  1

  0
POINT
  5
1801
330
143C
100
AcDbEntity
  8
DEFPOINTS
 62
     0
100
AcDbPoint
 10
131.4579870627
 20
298.1416097563
 30
0.0
  0
POINT
  5
1802
330
143C
100
AcDbEntity
  8
DEFPOINTS
 62
     0
100
AcDbPoint
 10
82.9579940627
 20
244.6415947563
 30
0.0
  0
POINT
  5
1803
330
143C
100
AcDbEntity
  8
DEFPOINTS
 62
     0
100
AcDbPoint
 10
82.9579940627
 20
369.7998064073
 30
0.0
  0
ENDBLK
  5
1447
330
143C
100
AcDbEntity
  8
0
100
AcDbBlockEnd
  0
BLOCK
  5
1453
330
1448
100
AcDbEntity
  8
0
100
AcDbBlockBegin
  2
*D29
 70
     1
 10
0.0
 20
0.0
 30
0.0
  3
*D29
  1

  0
POINT
  5
147D
330
1448
100
AcDbEntity
  8
DEFPOINTS
 62
     0
100
AcDbPoint
 10
130.5829870627
 20
271.6415947563
 30
0.0
  0
POINT
  5
147E
330
1448
100
AcDbEntity
  8
DEFPOINTS
 62
     0
100
AcDbPoint
 10
130.5829870627
 20
292.6415947563
 30
0.0
  0
POINT
  5
147F
330
1448
100
AcDbEntity
  8
DEFPOINTS
 62
     0
100
AcDbPoint
 10
110.4499368134
 20
292.6415947563
 30
0.0
  0
ENDBLK
  5
1454
330
1448
100
AcDbEntity
  8
0
100
AcDbBlockEnd
  0
BLOCK
  5
145F
330
1455
100
AcDbEntity
  8
0
100
AcDbBlockBegin
  2
*D30
 70
     1
 10
0.0
 20
0.0
 30
0.0
  3
*D30
  1

  0
POINT
  5
14B3
330
1455
100
AcDbEntity
  8
DEFPOINTS
 62
     0
100
AcDbPoint
 10
180.4579940627
 20
299.1416097563
 30
0.0
  0
POINT
  5
14B4
330
1455
100
AcDbEntity
  8
DEFPOINTS
 62
     0
100
AcDbPoint
 10
178.9579940627
 20
252.6415947563
 30
0.0
  0
POINT
  5
14B5
330
1455
100
AcDbEntity
  8
DEFPOINTS
 62
     0
100
AcDbPoint
 10
210.9570091051
 20
252.6415947563
 30
0.0
  0
ENDBLK
  5
1460
330
1455
100
AcDbEntity
  8
0
100
AcDbBlockEnd
  0
BLOCK
  5
146B
330
1461
100
AcDbEntity
  8
0
100
AcDbBlockBegin
  2
*D31
 70
     1
 10
0.0
 20
0.0
 30
0.0
  3
*D31
  1

  0
POINT
  5
180A
330
1461
100
AcDbEntity
  8
DEFPOINTS
 62
     0
100
AcDbPoint
 10
131.4579870627
 20
298.1416097563
 30
0.0
  0
POINT
  5
180B
330
1461
100
AcDbEntity
  8
DEFPOINTS
 62
     0
100
AcDbPoint
 10
181.4579940627
 20
298.1416097563
 30
0.0
  0
POINT
  5
180C
330
1461
100
AcDbEntity
  8
DEFPOINTS
 62
     0
100
AcDbPoint
 10
181.4579940627
 20
369.7998064073
 30
0.0
  0
ENDBLK
  5
146C
330
1461
100
AcDbEntity
  8
0
100
AcDbBlockEnd
  0
ENDSEC
  0
SECTION
  2
ENTITIES
  0
ARC
  5
67D
330
2
100
AcDbEntity
  8
0
100
AcDbCircle
 10
1060.9157155696
 20
235.6415947563
 30
0.0
 40
105.0
100
AcDbArc
 50
230.478897
 51
309.521606
  0
ARC
  5
67E
330
2
100
AcDbEntity
  8
0
100
AcDbCircle
 10
1060.9157155696
 20
235.6415947563
 30
0.0
 40
105.0
100
AcDbArc
 50
50.655579
 51
129.5215
  0
ARC
  5
67F
330
2
100
AcDbEntity
  8
0
100
AcDbCircle
 10
1030.9157155696
 20
197.6415877563
 30
0.0
 40
38.0
100
AcDbArc
 50
167.477295
 51
270.0
  0
ARC
  5
680
330
2
100
AcDbEntity
  8
0
100
AcDbCircle
 10
1030.9157155696
 20
197.6415877563
 30
0.0
 40
34.0
100
AcDbArc
 50
167.477295
 51
270.0
  0
ARC
  5
681
330
2
100
AcDbEntity
  8
0
100
AcDbCircle
 10
1060.9157155696
 20
268.1415947563
 30
0.0
 40
48.0
100
AcDbArc
 50
167.477295
 51
12.52258
  0
ARC
  5
682
330
2
100
AcDbEntity
  8
0
100
AcDbCircle
 10
1060.9157155696
 20
268.1415947563
 30
0.0
 40
52.0
100
AcDbArc
 50
12.5226
 51
167.477295
  0
CIRCLE
  5
683
330
2
100
AcDbEntity
  8
0
100
AcDbCircle
 10
1060.9157155696
 20
268.1415947563
 30
0.0
 40
46.0
  0
ARC
  5
684
330
2
100
AcDbEntity
  8
0
100
AcDbCircle
 10
1027.1582995696
 20
125.1415907563
 30
0.0
 40
3.0
100
AcDbArc
 50
90.0
 51
134.999695
  0
ARC
  5
685
330
2
100
AcDbEntity
  8
0
100
AcDbCircle
 10
1029.1013235696
 20
335.6415947563
 30
0.0
 40
10.0
100
AcDbArc
 50
90.0
 51
125.339996
  0
LINE
  5
686
330
2
100
AcDbEntity
  8
0
100
AcDbLine
 10
1150.9156845696
 20
123.1415907563
 30
0.0
 11
970.9157155696
 21
123.1415907563
 31
0.0
  0
LINE
  5
687
330
2
100
AcDbEntity
  8
0
100
AcDbLine
 10
1150.9156845696
 20
103.1415907563
 30
0.0
 11
970.9157155696
 21
103.1415907563
 31
0.0
  0
LINE
  5
688
330
2
100
AcDbEntity
  8
CENTER
100
AcDbLine
 10
1129.1829885493
 20
268.1415947563
 30
0.0
 11
992.6484225528
 21
268.1415947563
 31
0.0
  0
LINE
  5
689
330
2
100
AcDbEntity
  8
CENTER
100
AcDbLine
 10
534.9579959526
 20
585.101141243
 30
0.0
 11
67.9583051473
 21
585.101141243
 31
0.0
  0
LINE
  5
68A
330
2
100
AcDbEntity
  8
0
100
AcDbLine
 10
387.1772381473
 20
512.101354243
 30
0.0
 11
472.7381511473
 21
512.101354243
 31
0.0
  0
LINE
  5
68B
330
2
100
AcDbEntity
  8
0
100
AcDbLine
 10
516.1021031473
 20
533.101354243
 30
0.0
 11
343.8140781473
 21
533.101354243
 31
0.0
  0
LINE
  5
68C
330
2
100
AcDbEntity
  8
0
100
AcDbLine
 10
387.1772381473
 20
658.101385243
 30
0.0
 11
472.7381511473
 21
658.101385243
 31
0.0
  0
LINE
  5
68D
330
2
100
AcDbEntity
  8
0
100
AcDbLine
 10
516.1021031473
 20
637.101385243
 30
0.0
 11
343.8140781473
 21
637.101385243
 31
0.0
  0
LINE
  5
68F
330
2
100
AcDbEntity
  8
0
100
AcDbLine
 10
498.8268041473
 20
675.100927243
 30
0.0
 11
452.9576941473
 21
675.100988243
 31
0.0
  0
ARC
  5
690
330
2
100
AcDbEntity
  8
0
100
AcDbCircle
 10
758.956883338
 20
340.8033377563
 30
0.0
 40
4.0
100
AcDbArc
 50
0.0
 51
89.000359
  0
LINE
  5
691
330
2
100
AcDbEntity
  8
0
100
AcDbLine
 10
745.956883338
 20
103.1415907563
 30
0.0
 11
800.956883338
 21
103.1415907563
 31
0.0
  0
LINE
  5
692
330
2
100
AcDbEntity
  8
CENTER
100
AcDbLine
 10
622.956887338
 20
268.1415947563
 30
0.0
 11
865.956883338
 21
268.1415947563
 31
0.0
  0
LINE
  5
693
330
2
100
AcDbEntity
  8
CENTER
100
AcDbLine
 10
624.956883338
 20
214.6415877563
 30
0.0
 11
796.956883338
 21
214.6415877563
 31
0.0
  0
ARC
  5
694
330
2
100
AcDbEntity
  8
0
100
AcDbCircle
 10
710.956883338
 20
214.6415877563
 30
0.0
 40
71.0
100
AcDbArc
 50
173.931793
 51
201.630905
  0
LINE
  5
695
330
2
100
AcDbEntity
  8
0
100
AcDbLine
 10
644.956887338
 20
168.9216927563
 30
0.0
 11
644.956887338
 21
272.2818687563
 31
0.0
  0
LINE
  5
696
330
2
100
AcDbEntity
  8
0
100
AcDbLine
 10
658.956887338
 20
340.8029717563
 30
0.0
 11
658.956887338
 21
103.1415907563
 31
0.0
  0
LINE
  5
697
330
2
100
AcDbEntity
  8
CENTER
100
AcDbLine
 10
710.956883338
 20
88.1415907563
 30
0.0
 11
710.956883338
 21
360.6416107563
 31
0.0
  0
LINE
  5
699
330
2
100
AcDbEntity
  8
0
100
AcDbLine
 10
623.565487338
 20
123.4848297563
 30
0.0
 11
656.348287338
 21
127.7983717563
 31
0.0
  0
LINE
  5
69A
330
2
100
AcDbEntity
  8
0
100
AcDbLine
 10
623.956887338
 20
123.1415907563
 30
0.0
 11
653.956887338
 21
123.1415907563
 31
0.0
  0
LINE
  5
69B
330
2
100
AcDbEntity
  8
0
100
AcDbLine
 10
620.956887338
 20
103.1415907563
 30
0.0
 11
675.956887338
 21
103.1415907563
 31
0.0
  0
LINE
  5
69C
330
2
100
AcDbEntity
  8
0
100
AcDbLine
 10
620.956887338
 20
120.5104707563
 30
0.0
 11
620.956887338
 21
103.1416107563
 31
0.0
  0
LINE
  5
69D
330
2
100
AcDbEntity
  8
HIDS
100
AcDbLine
 10
633.456887338
 20
123.1415907563
 30
0.0
 11
633.456887338
 21
103.1415907563
 31
0.0
  0
ARC
  5
69E
330
2
100
AcDbEntity
  8
0
100
AcDbCircle
 10
623.956887338
 20
120.5104917563
 30
0.0
 40
3.0
100
AcDbArc
 50
97.496292
 51
180.0
  0
ARC
  5
69F
330
2
100
AcDbEntity
  8
0
100
AcDbCircle
 10
623.956887338
 20
120.1416107563
 30
0.0
 40
3.0
100
AcDbArc
 50
90.0
 51
180.0
  0
LINE
  5
6A0
330
2
100
AcDbEntity
  8
HIDS
100
AcDbLine
 10
648.456887338
 20
123.1415907563
 30
0.0
 11
648.456887338
 21
103.1415907563
 31
0.0
  0
LINE
  5
6A1
330
2
100
AcDbEntity
  8
CENTER
100
AcDbLine
 10
640.956887338
 20
130.1415907563
 30
0.0
 11
640.956887338
 21
96.1415907563
 31
0.0
  0
LINE
  5
6A2
330
2
100
AcDbEntity
  8
0
100
AcDbLine
 10
677.456887338
 20
104.6415907563
 30
0.0
 11
744.456883338
 21
104.6415907563
 31
0.0
  0
LINE
  5
6A3
330
2
100
AcDbEntity
  8
0
100
AcDbLine
 10
675.956887338
 20
103.1415907563
 30
0.0
 11
677.456887338
 21
104.6415907563
 31
0.0
  0
LINE
  5
6A4
330
2
100
AcDbEntity
  8
0
100
AcDbLine
 10
745.956883338
 20
103.1415907563
 30
0.0
 11
744.456883338
 21
104.6415907563
 31
0.0
  0
LINE
  5
6A5
330
2
100
AcDbEntity
  8
0
100
AcDbLine
 10
657.956887338
 20
151.6415907563
 30
0.0
 11
657.956887338
 21
157.8305907563
 31
0.0
  0
ARC
  5
6A6
330
2
100
AcDbEntity
  8
0
100
AcDbCircle
 10
655.956887338
 20
130.7727287563
 30
0.0
 40
3.0
100
AcDbArc
 50
277.496117
 51
0.0
  0
ARC
  5
6A7
330
2
100
AcDbEntity
  8
0
100
AcDbCircle
 10
653.956887338
 20
128.1415907563
 30
0.0
 40
5.0
100
AcDbArc
 50
270.0
 51
0.0
  0
ARC
  5
6A8
330
2
100
AcDbEntity
  8
0
100
AcDbCircle
 10
662.956887338
 20
151.6415907563
 30
0.0
 40
5.0
100
AcDbArc
 50
180.0
 51
216.865204
  0
LINE
  5
6A9
330
2
100
AcDbEntity
  8
0
100
AcDbLine
 10
650.033887338
 20
162.1910337563
 30
0.0
 11
653.879888338
 21
161.0921487563
 31
0.0
  0
ARC
  5
6AA
330
2
100
AcDbEntity
  8
0
100
AcDbCircle
 10
651.956887338
 20
168.9217537563
 30
0.0
 40
7.0
100
AcDbArc
 50
180.0
 51
254.054901
  0
ARC
  5
6AB
330
2
100
AcDbEntity
  8
0
100
AcDbCircle
 10
651.956887338
 20
154.3614517563
 30
0.0
 40
7.0
100
AcDbArc
 50
0.0
 51
74.054688
  0
LINE
  5
6AC
330
2
100
AcDbEntity
  8
0
100
AcDbLine
 10
637.956887338
 20
227.4217007563
 30
0.0
 11
637.956887338
 21
308.8614737563
 31
0.0
  0
ARC
  5
6AD
330
2
100
AcDbEntity
  8
0
100
AcDbCircle
 10
644.956887338
 20
227.4217467563
 30
0.0
 40
7.0
100
AcDbArc
 50
180.0
 51
240.000198
  0
ARC
  5
6AE
330
2
100
AcDbEntity
  8
0
100
AcDbCircle
 10
637.956887338
 20
215.2973717563
 30
0.0
 40
7.0
100
AcDbArc
 50
0.0
 51
60.000092
  0
LINE
  5
6AF
330
2
100
AcDbEntity
  8
0
100
AcDbLine
 10
662.887086338
 20
344.8023767563
 30
0.0
 11
710.956883338
 21
345.6416107563
 31
0.0
  0
LINE
  5
6B0
330
2
100
AcDbEntity
  8
0
100
AcDbLine
 10
663.401486338
 20
306.6415947563
 30
0.0
 11
759.188680338
 21
306.6415947563
 31
0.0
  0
ARC
  5
6B1
330
2
100
AcDbEntity
  8
0
100
AcDbCircle
 10
651.956887338
 20
325.4216857563
 30
0.0
 40
7.0
100
AcDbArc
 50
285.945557
 51
0.0
  0
LINE
  5
6B2
330
2
100
AcDbEntity
  8
0
100
AcDbLine
 10
643.033887338
 20
315.5921567563
 30
0.0
 11
653.879888338
 21
318.6910337563
 31
0.0
  0
ARC
  5
6B3
330
2
100
AcDbEntity
  8
0
100
AcDbCircle
 10
644.956887338
 20
308.8615047563
 30
0.0
 40
7.0
100
AcDbArc
 50
105.945801
 51
180.0
  0
ARC
  5
6B4
330
2
100
AcDbEntity
  8
0
100
AcDbCircle
 10
662.956887338
 20
340.8029867563
 30
0.0
 40
4.0
100
AcDbArc
 50
91.00058
 51
180.0
  0
LINE
  5
6B5
330
2
100
AcDbEntity
  8
0
100
AcDbLine
 10
759.026692338
 20
344.8027277563
 30
0.0
 11
710.956883338
 21
345.6416107563
 31
0.0
  0
LINE
  5
6B6
330
2
100
AcDbEntity
  8
0
100
AcDbLine
 10
975.9157155696
 20
278.0679867563
 30
0.0
 11
975.9157155696
 21
193.2151877563
 31
0.0
  0
LINE
  5
6B7
330
2
100
AcDbEntity
  8
0
100
AcDbLine
 10
970.9157155696
 20
301.4735957563
 30
0.0
 11
970.9157155696
 21
103.1415907563
 31
0.0
  0
ARC
  5
6B8
330
2
100
AcDbEntity
  8
0
100
AcDbCircle
 10
710.956883338
 20
214.6415877563
 30
0.0
 40
71.0
100
AcDbArc
 50
338.36908
 51
6.068256
  0
LINE
  5
6BA
330
2
100
AcDbEntity
  8
0
100
AcDbLine
 10
776.956883338
 20
168.9217077563
 30
0.0
 11
776.956883338
 21
272.2818687563
 31
0.0
  0
LINE
  5
6BC
330
2
100
AcDbEntity
  8
0
100
AcDbLine
 10
800.956883338
 20
120.5104707563
 30
0.0
 11
800.956883338
 21
103.1415907563
 31
0.0
  0
LINE
  5
6BD
330
2
100
AcDbEntity
  8
HIDS
100
AcDbLine
 10
788.456883338
 20
123.1415907563
 30
0.0
 11
788.456883338
 21
103.1415907563
 31
0.0
  0
LINE
  5
6BE
330
2
100
AcDbEntity
  8
HIDS
100
AcDbLine
 10
773.456883338
 20
123.1415907563
 30
0.0
 11
773.456883338
 21
103.1415907563
 31
0.0
  0
LINE
  5
6BF
330
2
100
AcDbEntity
  8
CENTER
100
AcDbLine
 10
780.956883338
 20
130.1415907563
 30
0.0
 11
780.956883338
 21
96.1415907563
 31
0.0
  0
LINE
  5
6C0
330
2
100
AcDbEntity
  8
0
100
AcDbLine
 10
763.956883338
 20
157.9670727563
 30
0.0
 11
763.956883338
 21
151.6415907563
 31
0.0
  0
LINE
  5
6C1
330
2
100
AcDbEntity
  8
0
100
AcDbLine
 10
798.348287338
 20
123.4848297563
 30
0.0
 11
765.565480338
 21
127.7983527563
 31
0.0
  0
LINE
  5
6C2
330
2
100
AcDbEntity
  8
0
100
AcDbLine
 10
767.956883338
 20
123.1415907563
 30
0.0
 11
797.956883338
 21
123.1415907563
 31
0.0
  0
ARC
  5
6C3
330
2
100
AcDbEntity
  8
0
100
AcDbCircle
 10
765.956883338
 20
130.7727287563
 30
0.0
 40
3.0
100
AcDbArc
 50
180.0
 51
262.504395
  0
ARC
  5
6C4
330
2
100
AcDbEntity
  8
0
100
AcDbCircle
 10
767.956883338
 20
128.1416107563
 30
0.0
 40
5.0
100
AcDbArc
 50
180.0
 51
270.0
  0
ARC
  5
6C5
330
2
100
AcDbEntity
  8
0
100
AcDbCircle
 10
758.956883338
 20
151.6415907563
 30
0.0
 40
5.0
100
AcDbArc
 50
323.130131
 51
0.0
  0
ARC
  5
6C6
330
2
100
AcDbEntity
  8
0
100
AcDbCircle
 10
797.956883338
 20
120.5104517563
 30
0.0
 40
3.0
100
AcDbArc
 50
0.0
 51
82.504204
  0
ARC
  5
6C7
330
2
100
AcDbEntity
  8
0
100
AcDbCircle
 10
797.956883338
 20
120.1415907563
 30
0.0
 40
3.0
100
AcDbArc
 50
0.0
 51
90.0
  0
ARC
  5
6C8
330
2
100
AcDbEntity
  8
0
100
AcDbCircle
 10
769.956883338
 20
168.9216927563
 30
0.0
 40
7.0
100
AcDbArc
 50
285.945503
 51
0.0
  0
LINE
  5
6C9
330
2
100
AcDbEntity
  8
0
100
AcDbLine
 10
771.879888338
 20
162.1910337563
 30
0.0
 11
768.033895338
 21
161.0921487563
 31
0.0
  0
ARC
  5
6CA
330
2
100
AcDbEntity
  8
0
100
AcDbCircle
 10
769.956883338
 20
154.3615317563
 30
0.0
 40
7.0
100
AcDbArc
 50
105.945801
 51
180.0
  0
LINE
  5
6CB
330
2
100
AcDbEntity
  8
0
100
AcDbLine
 10
984.9157155696
 20
120.4562717563
 30
0.0
 11
984.9157155696
 21
103.1415907563
 31
0.0
  0
LINE
  5
6CC
330
2
100
AcDbEntity
  8
HIDS
100
AcDbLine
 10
993.4157155696
 20
123.1415907563
 30
0.0
 11
993.4157155696
 21
103.1415907563
 31
0.0
  0
LINE
  5
6CD
330
2
100
AcDbEntity
  8
HIDS
100
AcDbLine
 10
1008.4157155696
 20
123.1415907563
 30
0.0
 11
1008.4157155696
 21
103.1415907563
 31
0.0
  0
LINE
  5
6CE
330
2
100
AcDbEntity
  8
CENTER
100
AcDbLine
 10
1000.9157155696
 20
130.1415907563
 30
0.0
 11
1000.9157155696
 21
96.1415907563
 31
0.0
  0
ARC
  5
6CF
330
2
100
AcDbEntity
  8
0
100
AcDbCircle
 10
1025.9157155696
 20
193.2151877563
 30
0.0
 40
50.0
100
AcDbArc
 50
180.0
 51
230.479202
  0
ARC
  5
6D0
330
2
100
AcDbEntity
  8
0
100
AcDbCircle
 10
1018.8447015696
 20
128.1415907563
 30
0.0
 40
5.0
100
AcDbArc
 50
270.0
 51
314.999889
  0
ARC
  5
6D1
330
2
100
AcDbEntity
  8
0
100
AcDbCircle
 10
1024.9157155696
 20
124.1415907563
 30
0.0
 40
1.0
100
AcDbArc
 50
270.0
 51
0.0
  0
LINE
  5
6D2
330
2
100
AcDbEntity
  8
0
100
AcDbLine
 10
1025.0371145696
 20
127.2629097563
 30
0.0
 11
1022.3801015696
 21
124.6060307563
 31
0.0
  0
LINE
  5
6D3
330
2
100
AcDbEntity
  8
0
100
AcDbLine
 10
1025.9157155696
 20
127.0047117563
 30
0.0
 11
1025.9157155696
 21
124.1415907563
 31
0.0
  0
LINE
  5
6D4
330
2
100
AcDbEntity
  8
0
100
AcDbLine
 10
783.956883338
 20
227.4217007563
 30
0.0
 11
783.956883338
 21
308.8614737563
 31
0.0
  0
LINE
  5
6D5
330
2
100
AcDbEntity
  8
0
100
AcDbLine
 10
796.956883338
 20
262.1415947563
 30
0.0
 11
850.956883338
 21
262.1415947563
 31
0.0
  0
LINE
  5
6D6
330
2
100
AcDbEntity
  8
0
100
AcDbLine
 10
796.956883338
 20
274.1415947563
 30
0.0
 11
850.956883338
 21
274.1415947563
 31
0.0
  0
LINE
  5
6D7
330
2
100
AcDbEntity
  8
0
100
AcDbLine
 10
785.956883338
 20
248.1415947563
 30
0.0
 11
850.956883338
 21
248.1415947563
 31
0.0
  0
LINE
  5
6D8
330
2
100
AcDbEntity
  8
0
100
AcDbLine
 10
785.956883338
 20
288.1415947563
 30
0.0
 11
850.956883338
 21
288.1415947563
 31
0.0
  0
LINE
  5
6D9
330
2
100
AcDbEntity
  8
0
100
AcDbLine
 10
785.956883338
 20
290.6415947563
 30
0.0
 11
785.956883338
 21
245.6415947563
 31
0.0
  0
ARC
  5
6DA
330
2
100
AcDbEntity
  8
0
100
AcDbCircle
 10
776.956883338
 20
227.4216857563
 30
0.0
 40
7.0
100
AcDbArc
 50
300.000118
 51
0.0
  0
ARC
  5
6DB
330
2
100
AcDbEntity
  8
0
100
AcDbCircle
 10
783.956883338
 20
215.2973337563
 30
0.0
 40
7.0
100
AcDbArc
 50
120.000099
 51
180.0
  0
LINE
  5
6DC
330
2
100
AcDbEntity
  8
0
100
AcDbLine
 10
783.956883338
 20
245.6415947563
 30
0.0
 11
785.956883338
 21
245.6415947563
 31
0.0
  0
ARC
  5
6DD
330
2
100
AcDbEntity
  8
0
100
AcDbCircle
 10
796.956883338
 20
268.1415947563
 30
0.0
 40
6.0
100
AcDbArc
 50
90.0
 51
270.0
  0
LINE
  5
6DE
330
2
100
AcDbEntity
  8
0
100
AcDbLine
 10
783.956883338
 20
290.6415947563
 30
0.0
 11
785.956883338
 21
290.6415947563
 31
0.0
  0
LINE
  5
6DF
330
2
100
AcDbEntity
  8
0
100
AcDbLine
 10
850.956883338
 20
248.1415947563
 30
0.0
 11
850.956883338
 21
288.1415947563
 31
0.0
  0
ARC
  5
6E0
330
2
100
AcDbEntity
  8
0
100
AcDbCircle
 10
769.956883338
 20
325.4217467563
 30
0.0
 40
7.0
100
AcDbArc
 50
180.0
 51
254.054901
  0
LINE
  5
6E1
330
2
100
AcDbEntity
  8
0
100
AcDbLine
 10
768.033895338
 20
318.6910337563
 30
0.0
 11
778.879888338
 21
315.5921567563
 31
0.0
  0
ARC
  5
6E2
330
2
100
AcDbEntity
  8
0
100
AcDbCircle
 10
776.956883338
 20
308.8614437563
 30
0.0
 40
7.0
100
AcDbArc
 50
0.0
 51
74.054764
  0
LINE
  5
6E3
330
2
100
AcDbEntity
  8
0
100
AcDbLine
 10
762.956883338
 20
103.1415907563
 30
0.0
 11
762.956883338
 21
340.8033537563
 31
0.0
  0
ARC
  5
6E4
330
2
100
AcDbEntity
  8
0
100
AcDbCircle
 10
1025.9157155696
 20
278.0679867563
 30
0.0
 40
50.0
100
AcDbArc
 50
129.521698
 51
180.0
  0
LINE
  5
6E5
330
2
100
AcDbEntity
  8
0
100
AcDbLine
 10
1014.0575005696
 20
278.5492637563
 30
0.0
 11
997.7245225696
 21
205.0137107563
 31
0.0
  0
LINE
  5
6E6
330
2
100
AcDbEntity
  8
0
100
AcDbLine
 10
1010.1527145696
 20
279.4165887563
 30
0.0
 11
993.8197075696
 21
205.8810127563
 31
0.0
  0
LINE
  5
6E7
330
2
100
AcDbEntity
  8
0
100
AcDbLine
 10
1023.3171135696
 20
343.7989287563
 30
0.0
 11
975.1313225696
 21
309.6309137563
 31
0.0
  0
ARC
  5
6E8
330
2
100
AcDbEntity
  8
0
100
AcDbCircle
 10
980.9157155696
 20
301.4735497563
 30
0.0
 40
10.0
100
AcDbArc
 50
125.339897
 51
180.0
  0
TEXT
  5
6E9
330
2
100
AcDbEntity
  8
TITLE
100
AcDbText
 10
619.0928617362
 20
642.8964905446
 30
0.0
 40
10.0
  1
HLMN-40L-1200~1800-T90K
100
AcDbText
  0
LINE
  5
6EA
330
2
100
AcDbEntity
  8
0
100
AcDbLine
 10
464.9579081473
 20
538.101354243
 30
0.0
 11
464.9579081473
 21
632.101385243
 31
0.0
  0
LINE
  5
6EB
330
2
100
AcDbEntity
  8
0
100
AcDbLine
 10
519.9579991473
 20
585.100958243
 30
0.0
 11
519.0502241473
 21
637.100927243
 31
0.0
  0
ARC
  5
6EC
330
2
100
AcDbEntity
  8
0
100
AcDbCircle
 10
504.9578161473
 20
644.101385243
 30
0.0
 40
7.0
100
AcDbArc
 50
180.0
 51
270.0
  0
LINE
  5
6ED
330
2
100
AcDbEntity
  8
0
100
AcDbLine
 10
508.2812111473
 20
668.358312243
 30
0.0
 11
519.0502241473
 21
637.100927243
 31
0.0
  0
ARC
  5
6EE
330
2
100
AcDbEntity
  8
0
100
AcDbCircle
 10
490.9578161473
 20
644.101385243
 30
0.0
 40
7.0
100
AcDbArc
 50
0.0
 51
90.0
  0
ARC
  5
6EF
330
2
100
AcDbEntity
  8
0
100
AcDbCircle
 10
489.9579991473
 20
655.101751243
 30
0.0
 40
7.5
100
AcDbArc
 50
313.92511
 51
212.226799
  0
ARC
  5
6F1
330
2
100
AcDbEntity
  8
0
100
AcDbCircle
 10
498.8268041473
 20
665.100927243
 30
0.0
 40
10.0
100
AcDbArc
 50
19.010895
 51
90.0
  0
LINE
  5
6F3
330
2
100
AcDbEntity
  8
0
100
AcDbLine
 10
478.0529401473
 20
655.656927243
 30
0.0
 11
481.9576941473
 21
651.101385243
 31
0.0
  0
LINE
  5
6F4
330
2
100
AcDbEntity
  8
0
100
AcDbLine
 10
490.9578161473
 20
651.101385243
 30
0.0
 11
481.9576941473
 21
651.101385243
 31
0.0
  0
ARC
  5
6F5
330
2
100
AcDbEntity
  8
0
100
AcDbCircle
 10
472.7381511473
 20
651.101385243
 30
0.0
 40
7.0
100
AcDbArc
 50
40.601288
 51
90.0
  0
ARC
  5
6F6
330
2
100
AcDbEntity
  8
0
100
AcDbCircle
 10
516.1021031473
 20
634.101385243
 30
0.0
 40
3.0
100
AcDbArc
 50
1.000153
 51
90.0
  0
LINE
  5
6F8
330
2
100
AcDbEntity
  8
0
100
AcDbLine
 10
519.9579991473
 20
585.100958243
 30
0.0
 11
519.0500101473
 21
533.100927243
 31
0.0
  0
ARC
  5
6F9
330
2
100
AcDbEntity
  8
0
100
AcDbCircle
 10
490.9578161473
 20
526.101354243
 30
0.0
 40
7.0
100
AcDbArc
 50
270.0
 51
0.0
  0
ARC
  5
6FA
330
2
100
AcDbEntity
  8
0
100
AcDbCircle
 10
489.9579991473
 20
515.101843243
 30
0.0
 40
7.5
100
AcDbArc
 50
147.773201
 51
46.07489
  0
LINE
  5
6FC
330
2
100
AcDbEntity
  8
0
100
AcDbLine
 10
508.2808263513
 20
501.8435166647
 30
0.0
 11
519.0500101473
 21
533.100927243
 31
0.0
  0
ARC
  5
6FD
330
2
100
AcDbEntity
  8
0
100
AcDbCircle
 10
516.1021031473
 20
536.101354243
 30
0.0
 40
3.0
100
AcDbArc
 50
270.0
 51
358.999847
  0
ARC
  5
6FE
330
2
100
AcDbEntity
  8
0
100
AcDbCircle
 10
504.9578161473
 20
526.101354243
 30
0.0
 40
7.0
100
AcDbArc
 50
90.0
 51
180.0
  0
LINE
  5
6FF
330
2
100
AcDbEntity
  8
0
100
AcDbLine
 10
478.0529401473
 20
514.545751243
 30
0.0
 11
481.9576941473
 21
519.101293243
 31
0.0
  0
LINE
  5
701
330
2
100
AcDbEntity
  8
0
100
AcDbLine
 10
490.9578161473
 20
519.101354243
 30
0.0
 11
481.9576941473
 21
519.101293243
 31
0.0
  0
ARC
  5
702
330
2
100
AcDbEntity
  8
0
100
AcDbCircle
 10
472.7381511473
 20
519.101293243
 30
0.0
 40
7.0
100
AcDbArc
 50
270.0
 51
319.398712
  0
LINE
  5
703
330
2
100
AcDbEntity
  8
CENTER
100
AcDbLine
 10
1422.9156845696
 20
199.6415877563
 30
0.0
 11
1117.4256945696
 21
199.6415877563
 31
0.0
  0
LINE
  5
704
330
2
100
AcDbEntity
  8
0
100
AcDbLine
 10
1350.4156845696
 20
157.0182277563
 30
0.0
 11
1231.7539415696
 21
157.0182277563
 31
0.0
  0
LINE
  5
705
330
2
100
AcDbEntity
  8
0
100
AcDbLine
 10
1350.4156845696
 20
242.2649317563
 30
0.0
 11
1231.7539415696
 21
242.2649317563
 31
0.0
  0
LINE
  5
706
330
2
100
AcDbEntity
  8
0
100
AcDbLine
 10
1350.4156845696
 20
146.6415907563
 30
0.0
 11
1220.4156845696
 21
146.6415907563
 31
0.0
  0
LINE
  5
707
330
2
100
AcDbEntity
  8
0
100
AcDbLine
 10
1350.4156845696
 20
252.6415947563
 30
0.0
 11
1220.4156845696
 21
252.6415947563
 31
0.0
  0
LINE
  5
708
330
2
100
AcDbEntity
  8
0
100
AcDbLine
 10
1145.9156845696
 20
278.0680167563
 30
0.0
 11
1145.9156845696
 21
193.2151877563
 31
0.0
  0
ARC
  5
709
330
2
100
AcDbEntity
  8
0
100
AcDbCircle
 10
941.2341055696
 20
214.6415877563
 30
0.0
 40
215.181595
100
AcDbArc
 50
347.0179
 51
12.9821
  0
ARC
  5
70A
330
2
100
AcDbEntity
  8
0
100
AcDbCircle
 10
1090.9157155696
 20
197.6415877563
 30
0.0
 40
38.0
100
AcDbArc
 50
270.0
 51
12.5226
  0
ARC
  5
70B
330
2
100
AcDbEntity
  8
0
100
AcDbCircle
 10
1090.9157155696
 20
197.6415877563
 30
0.0
 40
34.0
100
AcDbArc
 50
270.0
 51
12.5226
  0
LINE
  5
70C
330
2
100
AcDbEntity
  8
0
100
AcDbLine
 10
1150.9156845696
 20
301.4735957563
 30
0.0
 11
1150.9156845696
 21
103.1415907563
 31
0.0
  0
LINE
  5
70D
330
2
100
AcDbEntity
  8
CENTER
100
AcDbLine
 10
1060.9157155696
 20
360.6415947563
 30
0.0
 11
1060.9157155696
 21
88.1415907563
 31
0.0
  0
LINE
  5
70E
330
2
100
AcDbEntity
  8
0
100
AcDbLine
 10
1220.4156845696
 20
252.6415947563
 30
0.0
 11
1220.4156845696
 21
146.6415907563
 31
0.0
  0
LINE
  5
70F
330
2
100
AcDbEntity
  8
0
100
AcDbLine
 10
1172.9156845696
 20
169.3975917563
 30
0.0
 11
1172.9156845696
 21
283.6415947563
 31
0.0
  0
LINE
  5
710
330
2
100
AcDbEntity
  8
0
100
AcDbLine
 10
1230.4156845696
 20
250.6415947563
 30
0.0
 11
1230.4156845696
 21
148.6415717563
 31
0.0
  0
LINE
  5
711
330
2
100
AcDbEntity
  8
0
100
AcDbLine
 10
1163.9156845696
 20
143.6415907563
 30
0.0
 11
1163.9156845696
 21
285.6415947563
 31
0.0
  0
ARC
  5
712
330
2
100
AcDbEntity
  8
0
100
AcDbCircle
 10
1155.9156845696
 20
138.6415717563
 30
0.0
 40
5.0
100
AcDbArc
 50
90.0
 51
180.0
  0
LINE
  5
713
330
2
100
AcDbEntity
  8
0
100
AcDbLine
 10
1136.9157155696
 20
120.4562717563
 30
0.0
 11
1136.9157155696
 21
103.1415907563
 31
0.0
  0
LINE
  5
714
330
2
100
AcDbEntity
  8
HIDS
100
AcDbLine
 10
1128.4157155696
 20
123.1415907563
 30
0.0
 11
1128.4157155696
 21
103.1415907563
 31
0.0
  0
LINE
  5
715
330
2
100
AcDbEntity
  8
HIDS
100
AcDbLine
 10
1113.4157155696
 20
123.1415907563
 30
0.0
 11
1113.4157155696
 21
103.1415907563
 31
0.0
  0
LINE
  5
716
330
2
100
AcDbEntity
  8
CENTER
100
AcDbLine
 10
1120.9157155696
 20
130.1415907563
 30
0.0
 11
1120.9157155696
 21
96.1415907563
 31
0.0
  0
LINE
  5
717
330
2
100
AcDbEntity
  8
0
100
AcDbLine
 10
1090.9157155696
 20
159.6415877563
 30
0.0
 11
1030.9157155696
 21
159.6415877563
 31
0.0
  0
LINE
  5
718
330
2
100
AcDbEntity
  8
0
100
AcDbLine
 10
1090.9157155696
 20
163.6415877563
 30
0.0
 11
1030.9157155696
 21
163.6415877563
 31
0.0
  0
LINE
  5
719
330
2
100
AcDbEntity
  8
0
100
AcDbLine
 10
1027.1582995696
 20
128.1415907563
 30
0.0
 11
1094.6731005696
 21
128.1415907563
 31
0.0
  0
ARC
  5
75A
330
2
100
AcDbEntity
  8
0
100
AcDbCircle
 10
1095.9157155696
 20
193.2151877563
 30
0.0
 40
50.0
100
AcDbArc
 50
309.52145
 51
0.0
  0
LINE
  5
75B
330
2
100
AcDbEntity
  8
0
100
AcDbLine
 10
1096.7943165696
 20
127.2629097563
 30
0.0
 11
1099.4512985696
 21
124.6060917563
 31
0.0
  0
ARC
  5
75C
330
2
100
AcDbEntity
  8
0
100
AcDbCircle
 10
1096.9157155696
 20
124.1415907563
 30
0.0
 40
1.0
100
AcDbArc
 50
180.0
 51
270.0
  0
ARC
  5
75D
330
2
100
AcDbEntity
  8
0
100
AcDbCircle
 10
1094.6731005696
 20
125.1415907563
 30
0.0
 40
3.0
100
AcDbArc
 50
44.999599
 51
90.0
  0
LINE
  5
75E
330
2
100
AcDbEntity
  8
0
100
AcDbLine
 10
1095.9157155696
 20
127.0047117563
 30
0.0
 11
1095.9157155696
 21
124.1415907563
 31
0.0
  0
ARC
  5
75F
330
2
100
AcDbEntity
  8
0
100
AcDbCircle
 10
1102.9866995696
 20
128.1415907563
 30
0.0
 40
5.0
100
AcDbArc
 50
224.999893
 51
270.0
  0
LINE
  5
760
330
2
100
AcDbEntity
  8
0
100
AcDbLine
 10
1191.9156845696
 20
146.6415907563
 30
0.0
 11
1220.4156845696
 21
146.6415907563
 31
0.0
  0
LINE
  5
761
330
2
100
AcDbEntity
  8
0
100
AcDbLine
 10
1191.9156845696
 20
148.6415907563
 30
0.0
 11
1191.9156845696
 21
165.3975917563
 31
0.0
  0
LINE
  5
762
330
2
100
AcDbEntity
  8
0
100
AcDbLine
 10
1191.9156845696
 20
146.6415907563
 30
0.0
 11
1174.7886705696
 21
146.6415907563
 31
0.0
  0
LINE
  5
763
330
2
100
AcDbEntity
  8
0
100
AcDbLine
 10
1170.9156845696
 20
143.6416107563
 30
0.0
 11
1163.9156845696
 21
143.6416107563
 31
0.0
  0
LINE
  5
764
330
2
100
AcDbEntity
  8
0
100
AcDbLine
 10
1163.9156845696
 20
143.6415907563
 30
0.0
 11
1155.9156845696
 21
143.6415907563
 31
0.0
  0
ARC
  5
765
330
2
100
AcDbEntity
  8
0
100
AcDbCircle
 10
1174.7886705696
 20
144.6415907563
 30
0.0
 40
2.0
100
AcDbArc
 50
90.0
 51
165.52272
  0
ARC
  5
766
330
2
100
AcDbEntity
  8
0
100
AcDbCircle
 10
1170.9156845696
 20
145.6415907563
 30
0.0
 40
2.0
100
AcDbArc
 50
270.0
 51
345.5223
  0
ARC
  5
767
330
2
100
AcDbEntity
  8
0
100
AcDbCircle
 10
1193.9156845696
 20
148.6415907563
 30
0.0
 40
2.0
100
AcDbArc
 50
180.0
 51
270.0
  0
LINE
  5
768
330
2
100
AcDbEntity
  8
0
100
AcDbLine
 10
1174.9156845696
 20
167.3975917563
 30
0.0
 11
1189.9156845696
 21
167.3975917563
 31
0.0
  0
ARC
  5
769
330
2
100
AcDbEntity
  8
0
100
AcDbCircle
 10
1174.9156845696
 20
169.3975917563
 30
0.0
 40
2.0
100
AcDbArc
 50
180.0
 51
270.0
  0
ARC
  5
76A
330
2
100
AcDbEntity
  8
0
100
AcDbCircle
 10
1189.9156845696
 20
165.3976067563
 30
0.0
 40
2.0
100
AcDbArc
 50
0.0
 51
90.0
  0
ARC
  5
76B
330
2
100
AcDbEntity
  8
0
100
AcDbCircle
 10
1228.4156845696
 20
148.6415907563
 30
0.0
 40
2.0
100
AcDbArc
 50
270.0
 51
0.0
  0
ARC
  5
76C
330
2
100
AcDbEntity
  8
0
100
AcDbCircle
 10
1155.9156845696
 20
290.6415947563
 30
0.0
 40
5.0
100
AcDbArc
 50
180.0
 51
270.0
  0
LINE
  5
76D
330
2
100
AcDbEntity
  8
CENTER
100
AcDbLine
 10
1197.9765898582
 20
214.6415877563
 30
0.0
 11
1117.4256945696
 21
214.6415877563
 31
0.0
  0
ARC
  5
76E
330
2
100
AcDbEntity
  8
0
100
AcDbCircle
 10
1095.9157155696
 20
278.0680167563
 30
0.0
 40
50.0
100
AcDbArc
 50
0.0
 51
51.150589
  0
ARC
  5
76F
330
2
100
AcDbEntity
  8
0
100
AcDbCircle
 10
1060.9157155696
 20
268.1415947563
 30
0.0
 40
20.0
100
AcDbArc
 50
197.457596
 51
162.542404
  0
LINE
  5
770
330
2
100
AcDbEntity
  8
0
100
AcDbLine
 10
1037.9157155696
 20
262.1415947563
 30
0.0
 11
1045.9157155696
 21
262.1415947563
 31
0.0
  0
LINE
  5
771
330
2
100
AcDbEntity
  8
0
100
AcDbLine
 10
1037.9157155696
 20
274.1415947563
 30
0.0
 11
1045.9157155696
 21
274.1415947563
 31
0.0
  0
LINE
  5
772
330
2
100
AcDbEntity
  8
0
100
AcDbLine
 10
1037.9157155696
 20
274.1415947563
 30
0.0
 11
1037.9157155696
 21
262.1415947563
 31
0.0
  0
LINE
  5
773
330
2
100
AcDbEntity
  8
0
100
AcDbLine
 10
1045.9157155696
 20
274.1415947563
 30
0.0
 11
1045.9157155696
 21
262.1415947563
 31
0.0
  0
LINE
  5
774
330
2
100
AcDbEntity
  8
0
100
AcDbLine
 10
1124.1069085696
 20
205.0136577563
 30
0.0
 11
1107.7737175696
 21
278.5492187563
 31
0.0
  0
LINE
  5
775
330
2
100
AcDbEntity
  8
0
100
AcDbLine
 10
1128.0117235696
 20
205.8809517563
 30
0.0
 11
1111.6787155696
 21
279.4164977563
 31
0.0
  0
LINE
  5
776
330
2
100
AcDbEntity
  8
0
100
AcDbLine
 10
1092.7301075696
 20
345.6415947563
 30
0.0
 11
1029.1013235696
 21
345.6415947563
 31
0.0
  0
LINE
  5
777
330
2
100
AcDbEntity
  8
0
100
AcDbLine
 10
1146.6999255696
 20
309.6309137563
 30
0.0
 11
1098.5143175696
 21
343.7989287563
 31
0.0
  0
ARC
  5
778
330
2
100
AcDbEntity
  8
0
100
AcDbCircle
 10
1092.7301075696
 20
335.6415947563
 30
0.0
 40
10.0
100
AcDbArc
 50
54.659698
 51
90.0
  0
ARC
  5
779
330
2
100
AcDbEntity
  8
0
100
AcDbCircle
 10
1140.9156845696
 20
301.4736267563
 30
0.0
 40
10.0
100
AcDbArc
 50
0.0
 51
54.6595
  0
LINE
  5
77A
330
2
100
AcDbEntity
  8
0
100
AcDbLine
 10
1220.4156845696
 20
252.6415947563
 30
0.0
 11
1175.9157455696
 21
252.6415947563
 31
0.0
  0
LINE
  5
77B
330
2
100
AcDbEntity
  8
0
100
AcDbLine
 10
1174.4156845696
 20
263.7755667563
 30
0.0
 11
1193.0040025696
 21
253.0435117563
 31
0.0
  0
ARC
  5
77C
330
2
100
AcDbEntity
  8
0
100
AcDbCircle
 10
1175.9156845696
 20
255.6415947563
 30
0.0
 40
3.0
100
AcDbArc
 50
180.0
 51
270.0
  0
ARC
  5
77D
330
2
100
AcDbEntity
  8
0
100
AcDbCircle
 10
1175.9156845696
 20
266.3736357563
 30
0.0
 40
3.0
100
AcDbArc
 50
180.0
 51
239.999664
  0
LINE
  5
77E
330
2
100
AcDbEntity
  8
0
100
AcDbLine
 10
1170.9156845696
 20
285.6415947563
 30
0.0
 11
1163.9156845696
 21
285.6415947563
 31
0.0
  0
LINE
  5
77F
330
2
100
AcDbEntity
  8
0
100
AcDbLine
 10
1163.9156845696
 20
285.6415947563
 30
0.0
 11
1155.9156845696
 21
285.6415947563
 31
0.0
  0
ARC
  5
780
330
2
100
AcDbEntity
  8
0
100
AcDbCircle
 10
1170.9156845696
 20
283.6415947563
 30
0.0
 40
2.0
100
AcDbArc
 50
0.0
 51
90.0
  0
ARC
  5
781
330
2
100
AcDbEntity
  8
0
100
AcDbCircle
 10
1194.5040025696
 20
255.6415947563
 30
0.0
 40
3.0
100
AcDbArc
 50
239.999702
 51
270.0
  0
ARC
  5
782
330
2
100
AcDbEntity
  8
0
100
AcDbCircle
 10
1228.4156845696
 20
250.6416107563
 30
0.0
 40
2.0
100
AcDbArc
 50
0.0
 51
90.0
  0
LINE
  5
783
330
2
100
AcDbEntity
  8
0
100
AcDbLine
 10
1350.4156845696
 20
146.6415907563
 30
0.0
 11
1350.4156845696
 21
252.6415947563
 31
0.0
  0
LINE
  5
784
330
2
100
AcDbEntity
  8
0
100
AcDbLine
 10
1407.9156845696
 20
154.6415907563
 30
0.0
 11
1407.9156845696
 21
244.6415947563
 31
0.0
  0
LINE
  5
785
330
2
100
AcDbEntity
  8
0
100
AcDbLine
 10
1358.9156845696
 20
254.6415947563
 30
0.0
 11
1358.9156845696
 21
144.6415907563
 31
0.0
  0
ARC
  5
786
330
2
100
AcDbEntity
  8
0
100
AcDbCircle
 10
1397.9156845696
 20
154.6415907563
 30
0.0
 40
10.0
100
AcDbArc
 50
270.0
 51
0.0
  0
LINE
  5
787
330
2
100
AcDbEntity
  8
0
100
AcDbLine
 10
1397.9156845696
 20
144.6415907563
 30
0.0
 11
1358.9156845696
 21
144.6415907563
 31
0.0
  0
LINE
  5
788
330
2
100
AcDbEntity
  8
0
100
AcDbLine
 10
1358.9156845696
 20
146.6415907563
 30
0.0
 11
1350.4156845696
 21
146.6415907563
 31
0.0
  0
LINE
  5
789
330
2
100
AcDbEntity
  8
0
100
AcDbLine
 10
1402.9156845696
 20
169.1415877563
 30
0.0
 11
1358.9156845696
 21
169.1415877563
 31
0.0
  0
LINE
  5
78A
330
2
100
AcDbEntity
  8
0
100
AcDbLine
 10
1358.9156845696
 20
156.9574597563
 30
0.0
 11
1350.4156845696
 21
156.9574597563
 31
0.0
  0
ARC
  5
78B
330
2
100
AcDbEntity
  8
0
100
AcDbCircle
 10
1397.9156235696
 20
244.6415947563
 30
0.0
 40
10.0
100
AcDbArc
 50
0.0
 51
90.0
  0
LINE
  5
78C
330
2
100
AcDbEntity
  8
0
100
AcDbLine
 10
1402.9156845696
 20
230.1415947563
 30
0.0
 11
1358.9156845696
 21
230.1415947563
 31
0.0
  0
LINE
  5
78D
330
2
100
AcDbEntity
  8
0
100
AcDbLine
 10
1358.9156845696
 20
242.2041867563
 30
0.0
 11
1350.4156845696
 21
242.2041867563
 31
0.0
  0
LINE
  5
78E
330
2
100
AcDbEntity
  8
0
100
AcDbLine
 10
1397.9156845696
 20
254.6415947563
 30
0.0
 11
1358.9156845696
 21
254.6415947563
 31
0.0
  0
LINE
  5
78F
330
2
100
AcDbEntity
  8
0
100
AcDbLine
 10
1358.9156845696
 20
252.6415947563
 30
0.0
 11
1350.4156845696
 21
252.6415947563
 31
0.0
  0
LINE
  5
79A
330
2
100
AcDbEntity
  8
0
100
AcDbLine
 10
140.4583661473
 20
553.601171243
 30
0.0
 11
260.4583661473
 21
553.601171243
 31
0.0
  0
LINE
  5
79B
330
2
100
AcDbEntity
  8
0
100
AcDbLine
 10
140.4583661473
 20
616.601141243
 30
0.0
 11
260.4583661473
 21
616.601141243
 31
0.0
  0
LINE
  5
79C
330
2
100
AcDbEntity
  8
0
100
AcDbLine
 10
140.4576941473
 20
532.101171243
 30
0.0
 11
270.4576941473
 21
532.101171243
 31
0.0
  0
LINE
  5
79D
330
2
100
AcDbEntity
  8
0
100
AcDbLine
 10
140.4576941473
 20
638.101141243
 30
0.0
 11
270.4576941473
 21
638.101141243
 31
0.0
  0
ARC
  5
79E
330
2
100
AcDbEntity
  8
0
100
AcDbCircle
 10
317.1732701473
 20
585.101141243
 30
0.0
 40
20.0
100
AcDbArc
 50
141.561291
 51
180.0
  0
LINE
  5
79F
330
2
100
AcDbEntity
  8
0
100
AcDbLine
 10
270.4581821473
 20
638.101141243
 30
0.0
 11
270.4581821473
 21
532.101171243
 31
0.0
  0
LINE
  5
7A0
330
2
100
AcDbEntity
  8
0
100
AcDbLine
 10
317.9581821473
 20
516.101171243
 30
0.0
 11
317.9581821473
 21
654.101141243
 31
0.0
  0
LINE
  5
7A1
330
2
100
AcDbEntity
  8
0
100
AcDbLine
 10
394.9579081473
 20
538.101354243
 30
0.0
 11
394.9579081473
 21
632.101385243
 31
0.0
  0
LINE
  5
7A2
330
2
100
AcDbEntity
  8
0
100
AcDbLine
 10
326.9581821473
 20
656.101110243
 30
0.0
 11
326.9578161473
 21
514.101232243
 31
0.0
  0
LINE
  5
7A3
330
2
100
AcDbEntity
  8
0
100
AcDbLine
 10
339.9579991473
 20
585.101141243
 30
0.0
 11
340.8145671473
 21
634.153753243
 31
0.0
  0
LINE
  5
7A4
330
2
100
AcDbEntity
  8
CENTER
100
AcDbLine
 10
429.9577967434
 20
480.100866243
 30
0.0
 11
429.9583150571
 21
740.1011412429
 31
0.0
  0
ARC
  5
7A5
330
2
100
AcDbEntity
  8
0
100
AcDbCircle
 10
344.8293981473
 20
644.101110243
 30
0.0
 40
7.0
100
AcDbArc
 50
194.9997
 51
270.0
  0
LINE
  5
7A6
330
2
100
AcDbEntity
  8
0
100
AcDbLine
 10
338.0678021473
 20
642.289312243
 30
0.0
 11
335.7571941473
 21
650.912908243
 31
0.0
  0
LINE
  5
7A7
330
2
100
AcDbEntity
  8
0
100
AcDbLine
 10
449.0367041473
 20
725.101141243
 30
0.0
 11
449.0367041473
 21
665.101141243
 31
0.0
  0
LINE
  5
7A8
330
2
100
AcDbEntity
  8
0
100
AcDbLine
 10
452.9576941473
 20
725.101141243
 30
0.0
 11
452.9576941473
 21
665.101141243
 31
0.0
  0
LINE
  5
7A9
330
2
100
AcDbEntity
  8
0
100
AcDbLine
 10
409.9579991473
 20
660.101141243
 30
0.0
 11
409.9579991473
 21
725.101141243
 31
0.0
  0
LINE
  5
7AA
330
2
100
AcDbEntity
  8
0
100
AcDbLine
 10
409.9579991473
 20
725.101141243
 30
0.0
 11
452.9576941473
 21
725.101141243
 31
0.0
  0
LINE
  5
7AB
330
2
100
AcDbEntity
  8
0
100
AcDbLine
 10
409.9579991473
 20
675.101049243
 30
0.0
 11
361.0898051473
 21
675.101110243
 31
0.0
  0
LINE
  5
7AC
330
2
100
AcDbEntity
  8
0
100
AcDbLine
 10
452.4579991473
 20
660.101141243
 30
0.0
 11
407.4579991473
 21
660.101141243
 31
0.0
  0
LINE
  5
7AD
330
2
100
AcDbEntity
  8
0
100
AcDbLine
 10
449.9579991473
 20
660.101141243
 30
0.0
 11
449.9579991473
 21
665.101141243
 31
0.0
  0
LINE
  5
7AE
330
2
100
AcDbEntity
  8
0
100
AcDbLine
 10
449.0367041473
 20
665.101141243
 30
0.0
 11
452.9576941473
 21
665.101141243
 31
0.0
  0
LINE
  5
7AF
330
2
100
AcDbEntity
  8
0
100
AcDbLine
 10
452.4579991473
 20
658.101141243
 30
0.0
 11
452.4579991473
 21
660.101141243
 31
0.0
  0
LINE
  5
7B0
330
2
100
AcDbEntity
  8
0
100
AcDbLine
 10
407.4579991473
 20
658.101141243
 30
0.0
 11
407.4579991473
 21
660.101141243
 31
0.0
  0
ARC
  5
7B1
330
2
100
AcDbEntity
  8
0
100
AcDbCircle
 10
356.6776951473
 20
644.101385243
 30
0.0
 40
7.0
100
AcDbArc
 50
270.0
 51
344.054611
  0
LINE
  5
7B2
330
2
100
AcDbEntity
  8
0
100
AcDbLine
 10
351.6352151473
 20
668.358526243
 30
0.0
 11
341.2128211473
 21
638.107763243
 31
0.0
  0
ARC
  5
7B3
330
2
100
AcDbEntity
  8
0
100
AcDbCircle
 10
371.2379071473
 20
644.101385243
 30
0.0
 40
7.0
100
AcDbArc
 50
90.0
 51
164.054596
  0
ARC
  5
7B5
330
2
100
AcDbEntity
  8
0
100
AcDbCircle
 10
369.9578161473
 20
655.102422243
 30
0.0
 40
7.5
100
AcDbArc
 50
327.767059
 51
238.076355
  0
ARC
  5
7B7
330
2
100
AcDbEntity
  8
0
100
AcDbCircle
 10
387.1772381473
 20
651.101385243
 30
0.0
 40
7.0
100
AcDbArc
 50
90.0
 51
139.398712
  0
LINE
  5
7B8
330
2
100
AcDbEntity
  8
0
100
AcDbLine
 10
371.2379071473
 20
651.101385243
 30
0.0
 11
377.9576941473
 21
651.101385243
 31
0.0
  0
LINE
  5
7B9
330
2
100
AcDbEntity
  8
0
100
AcDbLine
 10
381.8624491473
 20
655.656927243
 30
0.0
 11
377.9576941473
 21
651.101385243
 31
0.0
  0
ARC
  5
7BA
330
2
100
AcDbEntity
  8
0
100
AcDbCircle
 10
361.0894081473
 20
665.101537243
 30
0.0
 40
10.0
100
AcDbArc
 50
90.0
 51
160.989105
  0
LINE
  5
7BB
330
2
100
AcDbEntity
  8
0
100
AcDbLine
 10
364.5072551473
 20
646.024420243
 30
0.0
 11
363.4083781473
 21
642.178320243
 31
0.0
  0
ARC
  5
7BC
330
2
100
AcDbEntity
  8
0
100
AcDbCircle
 10
343.8140781473
 20
634.101385243
 30
0.0
 40
3.0
100
AcDbArc
 50
90.0
 51
178.999634
  0
LINE
  5
7BD
330
2
100
AcDbEntity
  8
0
100
AcDbLine
 10
270.4581821473
 20
638.101141243
 30
0.0
 11
317.9581821473
 21
638.101141243
 31
0.0
  0
LINE
  5
7BE
330
2
100
AcDbEntity
  8
0
100
AcDbLine
 10
319.9581821473
 20
656.101141243
 30
0.0
 11
326.9582441473
 21
656.101141243
 31
0.0
  0
ARC
  5
7BF
330
2
100
AcDbEntity
  8
0
100
AcDbCircle
 10
328.9957801473
 20
649.101110243
 30
0.0
 40
7.0
100
AcDbArc
 50
14.999893
 51
90.0
  0
LINE
  5
7C0
330
2
100
AcDbEntity
  8
0
100
AcDbLine
 10
328.9957801473
 20
656.101110243
 30
0.0
 11
326.9582441473
 21
656.101110243
 31
0.0
  0
ARC
  5
7C1
330
2
100
AcDbEntity
  8
0
100
AcDbCircle
 10
319.9581821473
 20
654.101141243
 30
0.0
 40
2.0
100
AcDbArc
 50
90.0
 51
180.0
  0
LINE
  5
7C2
330
2
100
AcDbEntity
  8
0
100
AcDbLine
 10
317.9581821473
 20
618.261144243
 30
0.0
 11
301.5078041473
 21
597.534704243
 31
0.0
  0
LINE
  5
7C3
330
2
100
AcDbEntity
  8
0
100
AcDbLine
 10
260.4583661473
 20
636.101141243
 30
0.0
 11
260.4583661473
 21
616.601141243
 31
0.0
  0
ARC
  5
7C4
330
2
100
AcDbEntity
  8
0
100
AcDbCircle
 10
262.4583661473
 20
636.101171243
 30
0.0
 40
2.0
100
AcDbArc
 50
90.0
 51
180.0
  0
ARC
  5
7C5
330
2
100
AcDbEntity
  8
0
100
AcDbCircle
 10
344.8292151473
 20
526.101232243
 30
0.0
 40
7.0
100
AcDbArc
 50
121.109222
 51
165.000336
  0
LINE
  5
7C6
330
2
100
AcDbEntity
  8
0
100
AcDbLine
 10
338.0676191473
 20
527.913061243
 30
0.0
 11
335.7570111473
 21
519.289465243
 31
0.0
  0
ARC
  5
7C7
330
2
100
AcDbEntity
  8
0
100
AcDbCircle
 10
361.0894081473
 20
505.101171243
 30
0.0
 40
10.0
100
AcDbArc
 50
199.0109
 51
270.0
  0
LINE
  5
7C8
330
2
100
AcDbEntity
  8
0
100
AcDbLine
 10
498.826218411
 20
495.1009272425
 30
0.0
 11
361.0894081473
 21
495.101171243
 31
0.0
  0
LINE
  5
7C9
330
2
100
AcDbEntity
  8
0
100
AcDbLine
 10
339.9579991473
 20
585.101141243
 30
0.0
 11
340.8658361473
 21
533.101232243
 31
0.0
  0
LINE
  5
7CA
330
2
100
AcDbEntity
  8
0
100
AcDbLine
 10
368.9578161473
 20
519.101354243
 30
0.0
 11
377.9576941473
 21
519.101293243
 31
0.0
  0
LINE
  5
7CB
330
2
100
AcDbEntity
  8
CENTER
100
AcDbLine
 10
382.9684061473
 20
515.101721243
 30
0.0
 11
356.9478036987
 21
515.101721243
 31
0.0
  0
ARC
  5
7CC
330
2
100
AcDbEntity
  8
0
100
AcDbCircle
 10
369.9578161473
 20
515.101171243
 30
0.0
 40
7.5
100
AcDbArc
 50
133.921837
 51
32.232941
  0
LINE
  5
7CD
330
2
100
AcDbEntity
  8
0
100
AcDbLine
 10
381.8624491473
 20
514.545751243
 30
0.0
 11
377.9576941473
 21
519.101293243
 31
0.0
  0
LINE
  5
7CE
330
2
100
AcDbEntity
  8
CENTER
100
AcDbLine
 10
369.9579883149
 20
528.1120224667
 30
0.0
 11
369.9582215312
 21
502.0914200192
 31
0.0
  0
ARC
  5
7CF
330
2
100
AcDbEntity
  8
0
100
AcDbCircle
 10
387.1772381473
 20
519.101293243
 30
0.0
 40
7.0
100
AcDbArc
 50
220.601295
 51
270.0
  0
ARC
  5
7D0
330
2
100
AcDbEntity
  8
0
100
AcDbCircle
 10
368.9578161473
 20
526.101354243
 30
0.0
 40
7.0
100
AcDbArc
 50
180.0
 51
270.0
  0
LINE
  5
7D1
330
2
100
AcDbEntity
  8
0
100
AcDbLine
 10
351.6348181473
 20
501.843725243
 30
0.0
 11
340.8658361473
 21
533.101232243
 31
0.0
  0
ARC
  5
7D2
330
2
100
AcDbEntity
  8
0
100
AcDbCircle
 10
354.9578161473
 20
526.101354243
 30
0.0
 40
7.0
100
AcDbArc
 50
0.0
 51
90.0
  0
ARC
  5
7D3
330
2
100
AcDbEntity
  8
0
100
AcDbCircle
 10
343.8140781473
 20
536.101354243
 30
0.0
 40
3.0
100
AcDbArc
 50
181.000372
 51
270.0
  0
LINE
  5
7D4
330
2
100
AcDbEntity
  8
0
100
AcDbLine
 10
270.4581821473
 20
532.101171243
 30
0.0
 11
317.9581821473
 21
532.101171243
 31
0.0
  0
LINE
  5
7D5
330
2
100
AcDbEntity
  8
0
100
AcDbLine
 10
317.9581821473
 20
551.941137243
 30
0.0
 11
301.5078041473
 21
572.667639243
 31
0.0
  0
ARC
  5
7D6
330
2
100
AcDbEntity
  8
0
100
AcDbCircle
 10
317.1732701473
 20
585.101141243
 30
0.0
 40
20.0
100
AcDbArc
 50
180.0
 51
218.438709
  0
ARC
  5
7D7
330
2
100
AcDbEntity
  8
0
100
AcDbCircle
 10
328.9954141473
 20
521.101232243
 30
0.0
 40
7.0
100
AcDbArc
 50
270.0
 51
345.000107
  0
LINE
  5
7D8
330
2
100
AcDbEntity
  8
0
100
AcDbLine
 10
319.9581821473
 20
514.101171243
 30
0.0
 11
326.9578161473
 21
514.101171243
 31
0.0
  0
LINE
  5
7D9
330
2
100
AcDbEntity
  8
0
100
AcDbLine
 10
328.9954141473
 20
514.101232243
 30
0.0
 11
326.9578161473
 21
514.101232243
 31
0.0
  0
ARC
  5
7DA
330
2
100
AcDbEntity
  8
0
100
AcDbCircle
 10
319.9581821473
 20
516.101171243
 30
0.0
 40
2.0
100
AcDbArc
 50
180.0
 51
270.0
  0
LINE
  5
7DB
330
2
100
AcDbEntity
  8
0
100
AcDbLine
 10
260.4583661473
 20
553.601171243
 30
0.0
 11
260.4583661473
 21
534.101110243
 31
0.0
  0
ARC
  5
7DC
330
2
100
AcDbEntity
  8
0
100
AcDbCircle
 10
262.4583661473
 20
534.101171243
 30
0.0
 40
2.0
100
AcDbArc
 50
180.0
 51
270.0
  0
LINE
  5
7DD
330
2
100
AcDbEntity
  8
0
100
AcDbLine
 10
82.9583051473
 20
540.101171243
 30
0.0
 11
82.9583051473
 21
630.101141243
 31
0.0
  0
LINE
  5
7DE
330
2
100
AcDbEntity
  8
0
100
AcDbLine
 10
131.9583051473
 20
640.101141243
 30
0.0
 11
131.9583051473
 21
608.6015593275
 31
0.0
  0
ARC
  5
7E1
330
2
100
AcDbEntity
  8
0
100
AcDbCircle
 10
92.9583661473
 20
630.101141243
 30
0.0
 40
10.0
100
AcDbArc
 50
90.0
 51
180.0
  0
LINE
  5
7E2
330
2
100
AcDbEntity
  8
0
100
AcDbLine
 10
92.9583051473
 20
640.101141243
 30
0.0
 11
131.9583051473
 21
640.101141243
 31
0.0
  0
LINE
  5
7E3
330
2
100
AcDbEntity
  8
0
100
AcDbLine
 10
87.9583051473
 20
615.601141243
 30
0.0
 11
131.9583051473
 21
615.601141243
 31
0.0
  0
LINE
  5
7E4
330
2
100
AcDbEntity
  8
0
100
AcDbLine
 10
140.4583661473
 20
610.101141243
 30
0.0
 11
140.4583661473
 21
638.101141243
 31
0.0
  0
LINE
  5
7E5
330
2
100
AcDbEntity
  8
0
100
AcDbLine
 10
140.4583661473
 20
616.601141243
 30
0.0
 11
131.9583051473
 21
616.601141243
 31
0.0
  0
LINE
  5
7E6
330
2
100
AcDbEntity
  8
0
100
AcDbLine
 10
131.9583051473
 20
638.101141243
 30
0.0
 11
140.4583661473
 21
638.101141243
 31
0.0
  0
ARC
  5
7EA
330
2
100
AcDbEntity
  8
0
100
AcDbCircle
 10
92.9583051473
 20
540.101171243
 30
0.0
 40
10.0
100
AcDbArc
 50
180.0
 51
270.0
  0
LINE
  5
7EB
330
2
100
AcDbEntity
  8
0
100
AcDbLine
 10
136.4583051473
 20
543.331335243
 30
0.0
 11
136.4583051473
 21
538.831335243
 31
0.0
  0
LINE
  5
7EC
330
2
100
AcDbEntity
  8
0
100
AcDbLine
 10
134.9583051473
 20
543.331335243
 30
0.0
 11
134.9583051473
 21
538.831335243
 31
0.0
  0
LINE
  5
7ED
330
2
100
AcDbEntity
  8
0
100
AcDbLine
 10
133.4583051473
 20
543.331335243
 30
0.0
 11
133.4583051473
 21
538.315710243
 31
0.0
  0
LINE
  5
7EE
330
2
100
AcDbEntity
  8
0
100
AcDbLine
 10
140.4583661473
 20
532.101171243
 30
0.0
 11
140.4583661473
 21
560.101141243
 31
0.0
  0
LINE
  5
7EF
330
2
100
AcDbEntity
  8
0
100
AcDbLine
 10
87.9583051473
 20
554.601171243
 30
0.0
 11
131.9583051473
 21
554.601171243
 31
0.0
  0
ARC
  5
7F9
330
2
100
AcDbEntity
  8
0
100
AcDbCircle
 10
131.9583051473
 20
543.331335243
 30
0.0
 40
1.5
100
AcDbArc
 50
0.0
 51
90.0
  0
ARC
  5
7FA
330
2
100
AcDbEntity
  8
0
100
AcDbCircle
 10
131.9583051473
 20
543.331335243
 30
0.0
 40
3.0
100
AcDbArc
 50
0.0
 51
90.0
  0
ARC
  5
7FB
330
2
100
AcDbEntity
  8
0
100
AcDbCircle
 10
131.9583051473
 20
543.331335243
 30
0.0
 40
4.5
100
AcDbArc
 50
0.0
 51
90.0
  0
LINE
  5
7FC
330
2
100
AcDbEntity
  8
0
100
AcDbLine
 10
140.4583661473
 20
553.601171243
 30
0.0
 11
131.9583051473
 21
553.601171243
 31
0.0
  0
LINE
  5
7FD
330
2
100
AcDbEntity
  8
0
100
AcDbLine
 10
92.9583051473
 20
530.101171243
 30
0.0
 11
131.9583051473
 21
530.101171243
 31
0.0
  0
LINE
  5
7FE
330
2
100
AcDbEntity
  8
0
100
AcDbLine
 10
131.9583051473
 20
532.101171243
 30
0.0
 11
140.4583661473
 21
532.101171243
 31
0.0
  0
LINE
  5
7FF
330
2
100
AcDbEntity
  8
HOJO
100
AcDbLine
 10
134.9583051473
 20
539.331335243
 30
0.0
 11
136.4583051473
 21
538.831335243
 31
0.0
  0
LINE
  5
800
330
2
100
AcDbEntity
  8
HOJO
100
AcDbLine
 10
133.4583051473
 20
538.331335243
 30
0.0
 11
134.9583051473
 21
538.831335243
 31
0.0
  0
LINE
  5
8B2
330
2
100
AcDbEntity
  8
CENTER
100
AcDbLine
 10
502.9685891473
 20
515.102393243
 30
0.0
 11
476.9479866987
 21
515.102393243
 31
0.0
  0
LINE
  5
8B3
330
2
100
AcDbEntity
  8
CENTER
100
AcDbLine
 10
489.9581713149
 20
528.1126944667
 30
0.0
 11
489.9584045312
 21
502.0920920192
 31
0.0
  0
LINE
  5
8B4
330
2
100
AcDbEntity
  8
CENTER
100
AcDbLine
 10
502.9685891473
 20
655.102301243
 30
0.0
 11
476.9479866987
 21
655.102301243
 31
0.0
  0
LINE
  5
8B5
330
2
100
AcDbEntity
  8
CENTER
100
AcDbLine
 10
489.9581713149
 20
668.1126024667
 30
0.0
 11
489.9584045312
 21
642.0920000192
 31
0.0
  0
LINE
  5
8B6
330
2
100
AcDbEntity
  8
CENTER
100
AcDbLine
 10
382.9684061473
 20
655.102972243
 30
0.0
 11
356.9478036987
 21
655.102972243
 31
0.0
  0
LINE
  5
8B7
330
2
100
AcDbEntity
  8
CENTER
100
AcDbLine
 10
369.9579883149
 20
668.1132734667
 30
0.0
 11
369.9582215312
 21
642.0926710192
 31
0.0
  0
ARC
  5
8C7
330
2
100
AcDbEntity
  8
0
100
AcDbCircle
 10
498.826236126
 20
505.1009272425
 30
0.0
 40
10.0
100
AcDbArc
 50
269.9998985007
 51
340.9895222126
  0
TEXT
  5
8CD
330
2
100
AcDbEntity
  8
TITLE
100
AcDbText
 10
619.0928617362
 20
626.8964905446
 30
0.0
 40
10.0
  1
HLMN-40L-1200~1800-T90WK
100
AcDbText
  0
TEXT
  5
8CE
330
2
100
AcDbEntity
  8
TITLE
100
AcDbText
 10
619.0928617362
 20
594.8964905446
 30
0.0
 40
10.0
  1
HLMN-40L-1200~1800-S90WK
100
AcDbText
  0
TEXT
  5
8CF
330
2
100
AcDbEntity
  8
TITLE
100
AcDbText
 10
619.0928617362
 20
610.8964905446
 30
0.0
 40
10.0
  1
HLMN-40L-1200~1800-S90K
100
AcDbText
  0
LINE
  5
99A
330
2
100
AcDbEntity
  8
0
100
AcDbLine
 10
398.1435830627
 20
345.6415947563
 30
0.0
 11
461.7723980627
 21
345.6415947563
 31
0.0
  0
LINE
  5
99B
330
2
100
AcDbEntity
  8
0
100
AcDbLine
 10
463.7153910627
 20
128.1415917563
 30
0.0
 11
396.2005900627
 21
128.1415917563
 31
0.0
  0
LINE
  5
99C
330
2
100
AcDbEntity
  8
0
100
AcDbLine
 10
399.9580060627
 20
163.6415947563
 30
0.0
 11
459.9580060627
 21
163.6415947563
 31
0.0
  0
LINE
  5
99D
330
2
100
AcDbEntity
  8
0
100
AcDbLine
 10
399.9580060627
 20
159.6415947563
 30
0.0
 11
459.9580060627
 21
159.6415947563
 31
0.0
  0
LINE
  5
99E
330
2
100
AcDbEntity
  8
CENTER
100
AcDbLine
 10
361.6907318106
 20
268.1415947563
 30
0.0
 11
498.2252939055
 21
268.1415947563
 31
0.0
  0
LINE
  5
99F
330
2
100
AcDbEntity
  8
0
100
AcDbLine
 10
339.9580060627
 20
103.1415927563
 30
0.0
 11
519.9580060627
 21
103.1415927563
 31
0.0
  0
LINE
  5
9A0
330
2
100
AcDbEntity
  8
0
100
AcDbLine
 10
339.9580060627
 20
123.1415917563
 30
0.0
 11
519.9580060627
 21
123.1415917563
 31
0.0
  0
CIRCLE
  5
9A1
330
2
100
AcDbEntity
  8
0
100
AcDbCircle
 10
429.9580060627
 20
268.1415947563
 30
0.0
 40
46.0
  0
ARC
  5
9A2
330
2
100
AcDbEntity
  8
0
100
AcDbCircle
 10
429.9580060627
 20
268.1415947563
 30
0.0
 40
52.0
100
AcDbArc
 50
12.52272
 51
167.477402
  0
ARC
  5
9A3
330
2
100
AcDbEntity
  8
0
100
AcDbCircle
 10
429.9580060627
 20
268.1415947563
 30
0.0
 40
48.0
100
AcDbArc
 50
167.477402
 51
12.52272
  0
LINE
  5
9A4
330
2
100
AcDbEntity
  8
0
100
AcDbLine
 10
344.1737960627
 20
309.6309137563
 30
0.0
 11
392.3594040627
 21
343.7989437563
 31
0.0
  0
LINE
  5
9A5
330
2
100
AcDbEntity
  8
0
100
AcDbLine
 10
92.9579940627
 20
254.6415947563
 30
0.0
 11
131.9579940627
 21
254.6415947563
 31
0.0
  0
LINE
  5
9A6
330
2
100
AcDbEntity
  8
0
100
AcDbLine
 10
87.9579940627
 20
230.1415947563
 30
0.0
 11
131.9579940627
 21
230.1415947563
 31
0.0
  0
LINE
  5
9A7
330
2
100
AcDbEntity
  8
0
100
AcDbLine
 10
92.9579940627
 20
144.6415917563
 30
0.0
 11
131.9579940627
 21
144.6415917563
 31
0.0
  0
LINE
  5
9A8
330
2
100
AcDbEntity
  8
0
100
AcDbLine
 10
87.9579940627
 20
169.1415947563
 30
0.0
 11
131.9579940627
 21
169.1415947563
 31
0.0
  0
LINE
  5
9A9
330
2
100
AcDbEntity
  8
CENTER
100
AcDbLine
 10
67.9579940627
 20
199.6415947563
 30
0.0
 11
373.4479960627
 21
199.6415947563
 31
0.0
  0
LINE
  5
9AA
330
2
100
AcDbEntity
  8
0
100
AcDbLine
 10
82.9579940627
 20
154.6415947563
 30
0.0
 11
82.9579940627
 21
244.6415947563
 31
0.0
  0
ARC
  5
9AB
330
2
100
AcDbEntity
  8
0
100
AcDbCircle
 10
92.9579940627
 20
154.6415947563
 30
0.0
 40
10.0
100
AcDbArc
 50
180.0
 51
270.0
  0
ARC
  5
9AC
330
2
100
AcDbEntity
  8
0
100
AcDbCircle
 10
92.9580840627
 20
244.6415947563
 30
0.0
 40
10.0
100
AcDbArc
 50
90.0
 51
180.0
  0
LINE
  5
9AD
330
2
100
AcDbEntity
  8
CENTER
100
AcDbLine
 10
369.9580060627
 20
130.1415917563
 30
0.0
 11
369.9580060627
 21
96.1415927563
 31
0.0
  0
LINE
  5
9AE
330
2
100
AcDbEntity
  8
HIDS
100
AcDbLine
 10
377.4580060627
 20
123.1415917563
 30
0.0
 11
377.4580060627
 21
103.1415927563
 31
0.0
  0
LINE
  5
9AF
330
2
100
AcDbEntity
  8
HIDS
100
AcDbLine
 10
362.4580060627
 20
123.1415917563
 30
0.0
 11
362.4580060627
 21
103.1415927563
 31
0.0
  0
LINE
  5
9B0
330
2
100
AcDbEntity
  8
0
100
AcDbLine
 10
339.9580060627
 20
301.4735957563
 30
0.0
 11
339.9580060627
 21
103.1415927563
 31
0.0
  0
LINE
  5
9B1
330
2
100
AcDbEntity
  8
0
100
AcDbLine
 10
353.9580060627
 20
120.4562737563
 30
0.0
 11
353.9580060627
 21
103.1415927563
 31
0.0
  0
LINE
  5
9B2
330
2
100
AcDbEntity
  8
0
100
AcDbLine
 10
140.4579940627
 20
252.6415947563
 30
0.0
 11
270.4579910627
 21
252.6415947563
 31
0.0
  0
LINE
  5
9B3
330
2
100
AcDbEntity
  8
0
100
AcDbLine
 10
140.4579940627
 20
146.6415917563
 30
0.0
 11
270.4579910627
 21
146.6415917563
 31
0.0
  0
LINE
  5
9B4
330
2
100
AcDbEntity
  8
0
100
AcDbLine
 10
140.4579940627
 20
242.2649317563
 30
0.0
 11
259.1197490627
 21
242.2649317563
 31
0.0
  0
LINE
  5
9B5
330
2
100
AcDbEntity
  8
0
100
AcDbLine
 10
140.4579940627
 20
157.0182357563
 30
0.0
 11
259.1197490627
 21
157.0182357563
 31
0.0
  0
LINE
  5
9B6
330
2
100
AcDbEntity
  8
0
100
AcDbLine
 10
133.4579940627
 20
236.3242887563
 30
0.0
 11
133.4579940627
 21
231.3086937563
 31
0.0
  0
LINE
  5
9B7
330
2
100
AcDbEntity
  8
0
100
AcDbLine
 10
134.9579940627
 20
236.3242887563
 30
0.0
 11
134.9579940627
 21
231.8242887563
 31
0.0
  0
LINE
  5
9B8
330
2
100
AcDbEntity
  8
0
100
AcDbLine
 10
136.4579940627
 20
236.3242887563
 30
0.0
 11
136.4579940627
 21
231.8242887563
 31
0.0
  0
LINE
  5
9B9
330
2
100
AcDbEntity
  8
0
100
AcDbLine
 10
131.9579940627
 20
254.6415947563
 30
0.0
 11
131.9579940627
 21
144.6415917563
 31
0.0
  0
LINE
  5
9BA
330
2
100
AcDbEntity
  8
0
100
AcDbLine
 10
140.4579940627
 20
146.6415917563
 30
0.0
 11
140.4579940627
 21
252.6415947563
 31
0.0
  0
LINE
  5
9BB
330
2
100
AcDbEntity
  8
0
100
AcDbLine
 10
131.9579940627
 20
146.6415917563
 30
0.0
 11
140.4579940627
 21
146.6415917563
 31
0.0
  0
LINE
  5
9BC
330
2
100
AcDbEntity
  8
0
100
AcDbLine
 10
131.9579940627
 20
156.9574597563
 30
0.0
 11
140.4579940627
 21
156.9574597563
 31
0.0
  0
LINE
  5
9BD
330
2
100
AcDbEntity
  8
HOJO
100
AcDbLine
 10
133.4579940627
 20
231.3242887563
 30
0.0
 11
134.9579940627
 21
231.8242887563
 31
0.0
  0
LINE
  5
9BE
330
2
100
AcDbEntity
  8
HOJO
100
AcDbLine
 10
134.9579940627
 20
232.3242887563
 30
0.0
 11
136.4579940627
 21
231.8242887563
 31
0.0
  0
LINE
  5
9C3
330
2
100
AcDbEntity
  8
0
100
AcDbLine
 10
131.9579940627
 20
252.6415947563
 30
0.0
 11
140.4579940627
 21
252.6415947563
 31
0.0
  0
ARC
  5
9C4
330
2
100
AcDbEntity
  8
0
100
AcDbCircle
 10
131.9579940627
 20
236.3242887563
 30
0.0
 40
1.5
100
AcDbArc
 50
0.0
 51
90.0
  0
ARC
  5
9C5
330
2
100
AcDbEntity
  8
0
100
AcDbCircle
 10
131.9579940627
 20
236.3242887563
 30
0.0
 40
4.5
100
AcDbArc
 50
0.0
 51
90.0
  0
ARC
  5
9C6
330
2
100
AcDbEntity
  8
0
100
AcDbCircle
 10
131.9579940627
 20
236.3242887563
 30
0.0
 40
3.0
100
AcDbArc
 50
0.0
 51
90.0
  0
LINE
  5
9C7
330
2
100
AcDbEntity
  8
0
100
AcDbLine
 10
131.9579940627
 20
242.2041867563
 30
0.0
 11
140.4579940627
 21
242.2041867563
 31
0.0
  0
LINE
  5
9CE
330
2
100
AcDbEntity
  8
0
100
AcDbLine
 10
362.8619970627
 20
205.8809597563
 30
0.0
 11
379.1950050627
 21
279.4164977563
 31
0.0
  0
LINE
  5
9CF
330
2
100
AcDbEntity
  8
0
100
AcDbLine
 10
366.7667830627
 20
205.0136577563
 30
0.0
 11
383.1000040627
 21
278.5492187563
 31
0.0
  0
LINE
  5
9D0
330
2
100
AcDbEntity
  8
0
100
AcDbLine
 10
326.9579910627
 20
143.6415917563
 30
0.0
 11
326.9579910627
 21
285.6415947563
 31
0.0
  0
ARC
  5
9D1
330
2
100
AcDbEntity
  8
0
100
AcDbCircle
 10
549.6395850627
 20
214.6415947563
 30
0.0
 40
215.181595
100
AcDbArc
 50
167.017899
 51
192.982101
  0
LINE
  5
9D2
330
2
100
AcDbEntity
  8
0
100
AcDbLine
 10
260.4579910627
 20
250.6415947563
 30
0.0
 11
260.4579910627
 21
148.6415727563
 31
0.0
  0
LINE
  5
9D3
330
2
100
AcDbEntity
  8
0
100
AcDbLine
 10
317.9579910627
 20
169.3975917563
 30
0.0
 11
317.9579910627
 21
283.6415947563
 31
0.0
  0
LINE
  5
9D4
330
2
100
AcDbEntity
  8
0
100
AcDbLine
 10
270.4579910627
 20
252.6415947563
 30
0.0
 11
270.4579910627
 21
146.6415917563
 31
0.0
  0
LINE
  5
9D5
330
2
100
AcDbEntity
  8
CENTER
100
AcDbLine
 10
252.3597619475
 20
214.6415947563
 30
0.0
 11
350.314352156
 21
214.6415947563
 31
0.0
  0
LINE
  5
9D6
330
2
100
AcDbEntity
  8
0
100
AcDbLine
 10
326.9579910627
 20
143.6415917563
 30
0.0
 11
334.9579910627
 21
143.6415917563
 31
0.0
  0
LINE
  5
9D7
330
2
100
AcDbEntity
  8
0
100
AcDbLine
 10
298.9579910627
 20
146.6415917563
 30
0.0
 11
270.4579910627
 21
146.6415917563
 31
0.0
  0
ARC
  5
9D8
330
2
100
AcDbEntity
  8
0
100
AcDbCircle
 10
262.4579910627
 20
148.6415917563
 30
0.0
 40
2.0
100
AcDbArc
 50
180.0
 51
270.0
  0
LINE
  5
9D9
330
2
100
AcDbEntity
  8
0
100
AcDbLine
 10
298.9579910627
 20
148.6415917563
 30
0.0
 11
298.9579910627
 21
165.3975917563
 31
0.0
  0
LINE
  5
9DA
330
2
100
AcDbEntity
  8
0
100
AcDbLine
 10
298.9579910627
 20
146.6415917563
 30
0.0
 11
316.0850200627
 21
146.6415917563
 31
0.0
  0
ARC
  5
9DB
330
2
100
AcDbEntity
  8
0
100
AcDbCircle
 10
296.9579910627
 20
148.6415917563
 30
0.0
 40
2.0
100
AcDbArc
 50
270.0
 51
0.0
  0
LINE
  5
9DC
330
2
100
AcDbEntity
  8
0
100
AcDbLine
 10
319.9579910627
 20
143.6416147563
 30
0.0
 11
326.9579910627
 21
143.6416147563
 31
0.0
  0
ARC
  5
9DD
330
2
100
AcDbEntity
  8
0
100
AcDbCircle
 10
319.9579910627
 20
145.6415917563
 30
0.0
 40
2.0
100
AcDbArc
 50
194.477707
 51
270.0
  0
ARC
  5
9DE
330
2
100
AcDbEntity
  8
0
100
AcDbCircle
 10
316.0850200627
 20
144.6415917563
 30
0.0
 40
2.0
100
AcDbArc
 50
14.47728
 51
90.0
  0
LINE
  5
9DF
330
2
100
AcDbEntity
  8
0
100
AcDbLine
 10
315.9579910627
 20
167.3975917563
 30
0.0
 11
300.9579910627
 21
167.3975917563
 31
0.0
  0
ARC
  5
9E0
330
2
100
AcDbEntity
  8
0
100
AcDbCircle
 10
300.9579910627
 20
165.3976147563
 30
0.0
 40
2.0
100
AcDbArc
 50
90.0
 51
180.0
  0
ARC
  5
9E1
330
2
100
AcDbEntity
  8
0
100
AcDbCircle
 10
315.9579910627
 20
169.3975917563
 30
0.0
 40
2.0
100
AcDbArc
 50
270.0
 51
0.0
  0
ARC
  5
9E2
330
2
100
AcDbEntity
  8
0
100
AcDbCircle
 10
399.9580060627
 20
197.6415947563
 30
0.0
 40
34.0
100
AcDbArc
 50
167.477402
 51
270.0
  0
ARC
  5
9E3
330
2
100
AcDbEntity
  8
0
100
AcDbCircle
 10
399.9580060627
 20
197.6415947563
 30
0.0
 40
38.0
100
AcDbArc
 50
167.477402
 51
270.0
  0
ARC
  5
9E4
330
2
100
AcDbEntity
  8
0
100
AcDbCircle
 10
334.9579910627
 20
138.6415727563
 30
0.0
 40
5.0
100
AcDbArc
 50
0.0
 51
90.0
  0
LINE
  5
9E5
330
2
100
AcDbEntity
  8
0
100
AcDbLine
 10
394.0794050627
 20
127.2629137563
 30
0.0
 11
391.4223920627
 21
124.6060917563
 31
0.0
  0
ARC
  5
9E6
330
2
100
AcDbEntity
  8
0
100
AcDbCircle
 10
387.8869910627
 20
128.1415917563
 30
0.0
 40
5.0
100
AcDbArc
 50
270.0
 51
315.000092
  0
LINE
  5
9E7
330
2
100
AcDbEntity
  8
0
100
AcDbLine
 10
394.9580060627
 20
127.0047127563
 30
0.0
 11
394.9580060627
 21
124.1415917563
 31
0.0
  0
ARC
  5
9E8
330
2
100
AcDbEntity
  8
0
100
AcDbCircle
 10
393.9580060627
 20
124.1415917563
 30
0.0
 40
1.0
100
AcDbArc
 50
270.0
 51
0.0
  0
ARC
  5
9E9
330
2
100
AcDbEntity
  8
0
100
AcDbCircle
 10
396.2005900627
 20
125.1415917563
 30
0.0
 40
3.0
100
AcDbArc
 50
90.0
 51
135.000397
  0
LINE
  5
9EA
330
2
100
AcDbEntity
  8
0
100
AcDbLine
 10
326.9579910627
 20
285.6415947563
 30
0.0
 11
334.9579910627
 21
285.6415947563
 31
0.0
  0
LINE
  5
9EB
330
2
100
AcDbEntity
  8
0
100
AcDbLine
 10
270.4579910627
 20
252.6415947563
 30
0.0
 11
314.9579750627
 21
252.6415947563
 31
0.0
  0
ARC
  5
9EC
330
2
100
AcDbEntity
  8
0
100
AcDbCircle
 10
262.4579910627
 20
250.6416107563
 30
0.0
 40
2.0
100
AcDbArc
 50
90.0
 51
180.0
  0
LINE
  5
9ED
330
2
100
AcDbEntity
  8
0
100
AcDbLine
 10
316.4579910627
 20
263.7755677563
 30
0.0
 11
297.8697340627
 21
253.0435117563
 31
0.0
  0
ARC
  5
9EE
330
2
100
AcDbEntity
  8
0
100
AcDbCircle
 10
296.3697180627
 20
255.6415947563
 30
0.0
 40
3.0
100
AcDbArc
 50
270.0
 51
300.000305
  0
ARC
  5
9EF
330
2
100
AcDbEntity
  8
0
100
AcDbCircle
 10
314.9579910627
 20
255.6415947563
 30
0.0
 40
3.0
100
AcDbArc
 50
270.0
 51
0.0
  0
ARC
  5
9F0
330
2
100
AcDbEntity
  8
0
100
AcDbCircle
 10
314.9579910627
 20
266.3736357563
 30
0.0
 40
3.0
100
AcDbArc
 50
300.00034
 51
0.0
  0
LINE
  5
9F1
330
2
100
AcDbEntity
  8
0
100
AcDbLine
 10
319.9579910627
 20
285.6415947563
 30
0.0
 11
326.9579910627
 21
285.6415947563
 31
0.0
  0
ARC
  5
9F2
330
2
100
AcDbEntity
  8
0
100
AcDbCircle
 10
319.9580210627
 20
283.6415947563
 30
0.0
 40
2.0
100
AcDbArc
 50
90.0
 51
180.0
  0
ARC
  5
9F3
330
2
100
AcDbEntity
  8
0
100
AcDbCircle
 10
334.9579910627
 20
290.6415947563
 30
0.0
 40
5.0
100
AcDbArc
 50
270.0
 51
0.0
  0
ARC
  5
9F4
330
2
100
AcDbEntity
  8
0
100
AcDbCircle
 10
349.9580060627
 20
301.4736267563
 30
0.0
 40
10.0
100
AcDbArc
 50
125.3405
 51
180.0
  0
ARC
  5
9F5
330
2
100
AcDbEntity
  8
0
100
AcDbCircle
 10
398.1435830627
 20
335.6415947563
 30
0.0
 40
10.0
100
AcDbArc
 50
90.0
 51
125.340302
  0
LINE
  5
9F6
330
2
100
AcDbEntity
  8
0
100
AcDbLine
 10
467.5566080627
 20
343.7989437563
 30
0.0
 11
515.7423990627
 21
309.6309137563
 31
0.0
  0
LINE
  5
9F7
330
2
100
AcDbEntity
  8
CENTER
100
AcDbLine
 10
429.9580060627
 20
360.6415947563
 30
0.0
 11
429.9580060627
 21
88.1415927563
 31
0.0
  0
LINE
  5
9F8
330
2
100
AcDbEntity
  8
CENTER
100
AcDbLine
 10
489.9580060627
 20
130.1415917563
 30
0.0
 11
489.9580060627
 21
96.1415927563
 31
0.0
  0
LINE
  5
9F9
330
2
100
AcDbEntity
  8
HIDS
100
AcDbLine
 10
482.4580060627
 20
123.1415917563
 30
0.0
 11
482.4580060627
 21
103.1415927563
 31
0.0
  0
LINE
  5
9FA
330
2
100
AcDbEntity
  8
HIDS
100
AcDbLine
 10
497.4580060627
 20
123.1415917563
 30
0.0
 11
497.4580060627
 21
103.1415927563
 31
0.0
  0
LINE
  5
9FB
330
2
100
AcDbEntity
  8
0
100
AcDbLine
 10
519.9580060627
 20
301.4735957563
 30
0.0
 11
519.9580060627
 21
103.1415927563
 31
0.0
  0
LINE
  5
9FC
330
2
100
AcDbEntity
  8
0
100
AcDbLine
 10
505.9580060627
 20
120.4562737563
 30
0.0
 11
505.9580060627
 21
103.1415927563
 31
0.0
  0
LINE
  5
9FD
330
2
100
AcDbEntity
  8
0
100
AcDbLine
 10
480.7210060627
 20
279.4165887563
 30
0.0
 11
497.0539840627
 21
205.8810207563
 31
0.0
  0
LINE
  5
9FE
330
2
100
AcDbEntity
  8
0
100
AcDbLine
 10
476.8160080627
 20
278.5492797563
 30
0.0
 11
493.1491980627
 21
205.0137117563
 31
0.0
  0
ARC
  5
9FF
330
2
100
AcDbEntity
  8
0
100
AcDbCircle
 10
459.9580060627
 20
197.6415947563
 30
0.0
 40
34.0
100
AcDbArc
 50
270.0
 51
12.52273
  0
ARC
  5
A00
330
2
100
AcDbEntity
  8
0
100
AcDbCircle
 10
459.9580060627
 20
197.6415947563
 30
0.0
 40
38.0
100
AcDbArc
 50
270.0
 51
12.52272
  0
ARC
  5
A01
330
2
100
AcDbEntity
  8
0
100
AcDbCircle
 10
463.7153910627
 20
125.1415917563
 30
0.0
 40
3.0
100
AcDbArc
 50
45.000259
 51
90.0
  0
ARC
  5
A02
330
2
100
AcDbEntity
  8
0
100
AcDbCircle
 10
465.9580060627
 20
124.1415917563
 30
0.0
 40
1.0
100
AcDbArc
 50
180.0
 51
270.0
  0
ARC
  5
A03
330
2
100
AcDbEntity
  8
0
100
AcDbCircle
 10
472.0289900627
 20
128.1415917563
 30
0.0
 40
5.0
100
AcDbArc
 50
225.000107
 51
270.0
  0
LINE
  5
A04
330
2
100
AcDbEntity
  8
0
100
AcDbLine
 10
464.9580060627
 20
127.0047127563
 30
0.0
 11
464.9580060627
 21
124.1415917563
 31
0.0
  0
LINE
  5
A05
330
2
100
AcDbEntity
  8
0
100
AcDbLine
 10
465.8366070627
 20
127.2629137563
 30
0.0
 11
468.4935890627
 21
124.6060347563
 31
0.0
  0
ARC
  5
A46
330
2
100
AcDbEntity
  8
HIDS
100
AcDbCircle
 10
429.9580060627
 20
268.1415947563
 30
0.0
 40
20.0
100
AcDbArc
 50
17.4576
 51
342.542389
  0
LINE
  5
A47
330
2
100
AcDbEntity
  8
HIDS
100
AcDbLine
 10
452.9580060627
 20
262.1416717563
 30
0.0
 11
444.9580060627
 21
262.1416557563
 31
0.0
  0
LINE
  5
A48
330
2
100
AcDbEntity
  8
HIDS
100
AcDbLine
 10
452.9580060627
 20
274.1416717563
 30
0.0
 11
444.9580060627
 21
274.1416557563
 31
0.0
  0
LINE
  5
A49
330
2
100
AcDbEntity
  8
HIDS
100
AcDbLine
 10
444.9580060627
 20
262.1416557563
 30
0.0
 11
444.9580060627
 21
274.1416557563
 31
0.0
  0
LINE
  5
A4A
330
2
100
AcDbEntity
  8
HIDS
100
AcDbLine
 10
452.9580060627
 20
262.1416717563
 30
0.0
 11
452.9580060627
 21
274.1416717563
 31
0.0
  0
ARC
  5
A4B
330
2
100
AcDbEntity
  8
0
100
AcDbCircle
 10
509.9580060627
 20
301.4735497563
 30
0.0
 40
10.0
100
AcDbArc
 50
0.0
 51
54.660099
  0
ARC
  5
A4C
330
2
100
AcDbEntity
  8
0
100
AcDbCircle
 10
461.7723980627
 20
335.6415947563
 30
0.0
 40
10.0
100
AcDbArc
 50
54.65995
 51
90.0
  0
LINE
  5
132F
330
2
100
AcDbEntity
  8
CENTER
100
AcDbLine
 10
1334.4156845696
 20
242.7520987563
 30
0.0
 11
1334.4156845696
 21
309.5291097563
 31
0.0
  0
LINE
  5
1330
330
2
100
AcDbEntity
  8
0
100
AcDbLine
 10
1359.4156915696
 20
298.1416097563
 30
0.0
 11
1359.4156915696
 21
256.1415947563
 31
0.0
  0
LINE
  5
1331
330
2
100
AcDbEntity
  8
0
100
AcDbLine
 10
1309.4156845696
 20
298.1416097563
 30
0.0
 11
1309.4156845696
 21
256.1415947563
 31
0.0
  0
LINE
  5
1333
330
2
100
AcDbEntity
  8
0
100
AcDbLine
 10
1357.9156915696
 20
254.1415947563
 30
0.0
 11
1311.4156845696
 21
254.1415947563
 31
0.0
  0
LINE
  5
1334
330
2
100
AcDbEntity
  8
0
100
AcDbLine
 10
1359.4156915696
 20
256.1415947563
 30
0.0
 11
1309.4156845696
 21
256.1415947563
 31
0.0
  0
LINE
  5
1335
330
2
100
AcDbEntity
  8
0
100
AcDbLine
 10
1311.9156845696
 20
254.1415947563
 30
0.0
 11
1311.9156845696
 21
252.6415947563
 31
0.0
  0
LINE
  5
1336
330
2
100
AcDbEntity
  8
0
100
AcDbLine
 10
1311.4156845696
 20
254.1415947563
 30
0.0
 11
1309.4156845696
 21
256.1415947563
 31
0.0
  0
LINE
  5
1337
330
2
100
AcDbEntity
  8
0
100
AcDbLine
 10
1357.9156915696
 20
254.1415947563
 30
0.0
 11
1357.9156915696
 21
252.6415947563
 31
0.0
  0
LINE
  5
1338
330
2
100
AcDbEntity
  8
0
100
AcDbLine
 10
1359.4156915696
 20
256.1415947563
 30
0.0
 11
1357.4156915696
 21
254.1415947563
 31
0.0
  0
LINE
  5
1339
330
2
100
AcDbEntity
  8
CENTER
100
AcDbLine
 10
1369.4592915508
 20
282.1415947563
 30
0.0
 11
1299.3720775884
 21
282.1415947563
 31
0.0
  0
LINE
  5
133A
330
2
100
AcDbEntity
  8
0
100
AcDbLine
 10
1354.5777757536
 20
299.1416097563
 30
0.0
 11
1314.2535933856
 21
299.1416097563
 31
0.0
  0
LINE
  5
133B
330
2
100
AcDbEntity
  8
0
100
AcDbLine
 10
1351.9156845696
 20
298.1416097563
 30
0.0
 11
1316.9156845696
 21
298.1416097563
 31
0.0
  0
LINE
  5
133C
330
2
100
AcDbEntity
  8
0
100
AcDbLine
 10
1359.4156915696
 20
266.1415947563
 30
0.0
 11
1309.4156845696
 21
266.1415947563
 31
0.0
  0
LINE
  5
133D
330
2
100
AcDbEntity
  8
0
100
AcDbLine
 10
1359.4156915696
 20
267.1415947563
 30
0.0
 11
1309.4156845696
 21
267.1415947563
 31
0.0
  0
ARC
  5
133E
330
2
100
AcDbEntity
  8
0
100
AcDbCircle
 10
1315.0226953232
 20
297.6477224805
 30
0.0
 40
1.3
100
AcDbArc
 50
5.0
 51
74.1191499917
  0
LINE
  5
133F
330
2
100
AcDbEntity
  8
0
100
AcDbLine
 10
1316.9156845696
 20
296.6416097563
 30
0.0
 11
1309.4156845696
 21
296.6416097563
 31
0.0
  0
LINE
  5
1340
330
2
100
AcDbEntity
  8
0
100
AcDbLine
 10
1314.9454243928
 20
298.7940512936
 30
0.0
 11
1314.9656845696
 21
299.0050280391
 31
0.0
  0
SPLINE
  5
1341
330
2
100
AcDbEntity
  8
0
100
AcDbSpline
210
0.0
220
0.0
230
1.0
 70
     8
 71
     3
 72
    11
 73
     7
 74
     0
 42
0.000000001
 43
0.0000000001
 40
0.0
 40
0.0
 40
0.0
 40
0.0
 40
0.4601364636755307
 40
1.04988694485363
 40
1.713742833862792
 40
2.320347933405154
 40
2.320347933405154
 40
2.320347933405154
 40
2.320347933405175
 10
1312.628184569147
 20
297.7246097562574
 30
0.0
 10
1312.605766912039
 20
297.8796331959372
 30
0.0
 10
1312.554616856806
 20
298.2333480138548
 30
0.0
 10
1312.118731695272
 20
298.6580756854564
 30
0.0
 10
1311.513680980265
 20
298.8772628654223
 30
0.0
 10
1311.088496356089
 20
298.8082715658117
 30
0.0
 10
1310.885944746438
 20
298.794051293635
 30
0.0
  0
LINE
  5
1342
330
2
100
AcDbEntity
  8
0
100
AcDbLine
 10
1311.5777757536
 20
299.1416097563
 30
0.0
 11
1310.4156845696
 21
299.1416097563
 31
0.0
  0
LINE
  5
1343
330
2
100
AcDbEntity
  8
0
100
AcDbLine
 10
1310.8859447464
 20
298.7940512936
 30
0.0
 11
1310.8656845696
 21
299.0050280391
 31
0.0
  0
LINE
  5
1344
330
2
100
AcDbEntity
  8
0
100
AcDbLine
 10
1312.6281845691
 20
297.7246097563
 30
0.0
 11
1313.2031845701
 21
297.7246097563
 31
0.0
  0
ARC
  5
1345
330
2
100
AcDbEntity
  8
0
100
AcDbCircle
 10
1310.808673816
 20
297.6477224805
 30
0.0
 40
1.3
100
AcDbArc
 50
105.8808500083
 51
175.0
  0
LINE
  5
1346
330
2
100
AcDbEntity
  8
0
100
AcDbLine
 10
1310.4156845696
 20
299.1416097563
 30
0.0
 11
1309.4156845696
 21
298.1416097563
 31
0.0
  0
ARC
  5
1347
330
2
100
AcDbEntity
  8
0
100
AcDbCircle
 10
1312.9156845696
 20
290.2416097563
 30
0.0
 40
9.0
100
AcDbArc
 50
74.1191499917
 51
105.8808500083
  0
SPLINE
  5
1348
330
2
100
AcDbEntity
  8
0
100
AcDbSpline
210
0.0
220
0.0
230
1.0
 70
     8
 71
     3
 72
    11
 73
     7
 74
     0
 42
0.000000001
 43
0.0000000001
 40
0.0
 40
0.0
 40
0.0
 40
0.0
 40
0.4601364636755307
 40
1.04988694485363
 40
1.713742833862792
 40
2.320347933405154
 40
2.320347933405154
 40
2.320347933405154
 40
2.320347933405175
 10
1313.203184570057
 20
297.7246097562574
 30
0.0
 10
1313.225602227165
 20
297.8796331959372
 30
0.0
 10
1313.276752282398
 20
298.2333480138548
 30
0.0
 10
1313.712637443932
 20
298.6580756854564
 30
0.0
 10
1314.317688158939
 20
298.8772628654223
 30
0.0
 10
1314.742872783115
 20
298.8082715658117
 30
0.0
 10
1314.945424392766
 20
298.794051293635
 30
0.0
  0
LINE
  5
1349
330
2
100
AcDbEntity
  8
0
100
AcDbLine
 10
1309.4156845696
 20
296.6416097563
 30
0.0
 11
1309.5136207085
 21
297.7610249461
 31
0.0
  0
LINE
  5
134A
330
2
100
AcDbEntity
  8
0
100
AcDbLine
 10
1317.4156845696
 20
299.1416097563
 30
0.0
 11
1316.9156845696
 21
298.6416097563
 31
0.0
  0
LINE
  5
134B
330
2
100
AcDbEntity
  8
0
100
AcDbLine
 10
1316.9156845696
 20
298.6416097563
 30
0.0
 11
1315.8606619592
 21
298.6416097563
 31
0.0
  0
LINE
  5
134C
330
2
100
AcDbEntity
  8
0
100
AcDbLine
 10
1316.9156845696
 20
296.6416097563
 30
0.0
 11
1316.9156845696
 21
298.6416097563
 31
0.0
  0
LINE
  5
134D
330
2
100
AcDbEntity
  8
0
100
AcDbLine
 10
1316.4156845696
 20
296.6416097563
 30
0.0
 11
1316.3177484307
 21
297.7610249461
 31
0.0
  0
LINE
  5
134E
330
2
100
AcDbEntity
  8
0
100
AcDbLine
 10
1360.2906915696
 20
271.6415947563
 30
0.0
 11
1358.2906915696
 21
271.6415947563
 31
0.0
  0
LINE
  5
134F
330
2
100
AcDbEntity
  8
0
100
AcDbLine
 10
1360.2906915696
 20
292.6415947563
 30
0.0
 11
1358.2906915696
 21
292.6415947563
 31
0.0
  0
SPLINE
  5
1350
330
2
100
AcDbEntity
  8
0
100
AcDbSpline
210
0.0
220
0.0
230
1.0
 70
     8
 71
     3
 72
    11
 73
     7
 74
     0
 42
0.000000001
 43
0.0000000001
 40
0.0
 40
0.0
 40
0.0
 40
0.0
 40
0.4601364636755307
 40
1.04988694485363
 40
1.713742833862792
 40
2.320347933405154
 40
2.320347933405154
 40
2.320347933405154
 40
2.320347933405175
 10
1356.203184570057
 20
297.7246097562574
 30
0.0
 10
1356.225602227165
 20
297.8796331959372
 30
0.0
 10
1356.276752282398
 20
298.2333480138548
 30
0.0
 10
1356.712637443932
 20
298.6580756854564
 30
0.0
 10
1357.317688158939
 20
298.8772628654223
 30
0.0
 10
1357.742872783115
 20
298.8082715658117
 30
0.0
 10
1357.945424392766
 20
298.794051293635
 30
0.0
  0
LINE
  5
1351
330
2
100
AcDbEntity
  8
0
100
AcDbLine
 10
1356.2031845701
 20
297.7246097563
 30
0.0
 11
1355.6281845691
 21
297.7246097563
 31
0.0
  0
LINE
  5
1352
330
2
100
AcDbEntity
  8
0
100
AcDbLine
 10
1357.2535933856
 20
299.1416097563
 30
0.0
 11
1358.4156845696
 21
299.1416097563
 31
0.0
  0
LINE
  5
1353
330
2
100
AcDbEntity
  8
0
100
AcDbLine
 10
1357.9454243928
 20
298.7940512936
 30
0.0
 11
1357.9656845696
 21
299.0050280391
 31
0.0
  0
ARC
  5
1354
330
2
100
AcDbEntity
  8
0
100
AcDbCircle
 10
1353.808673816
 20
297.6477224805
 30
0.0
 40
1.3
100
AcDbArc
 50
105.8808500083
 51
175.0
  0
LINE
  5
1355
330
2
100
AcDbEntity
  8
0
100
AcDbLine
 10
1351.9156845696
 20
298.6416097563
 30
0.0
 11
1352.97070718
 21
298.6416097563
 31
0.0
  0
LINE
  5
1356
330
2
100
AcDbEntity
  8
0
100
AcDbLine
 10
1353.8859447464
 20
298.7940512936
 30
0.0
 11
1353.8656845696
 21
299.0050280391
 31
0.0
  0
LINE
  5
1357
330
2
100
AcDbEntity
  8
0
100
AcDbLine
 10
1351.4156845696
 20
299.1416097563
 30
0.0
 11
1351.9156845696
 21
298.6416097563
 31
0.0
  0
ARC
  5
1358
330
2
100
AcDbEntity
  8
0
100
AcDbCircle
 10
1355.9156845696
 20
290.2416097563
 30
0.0
 40
9.0
100
AcDbArc
 50
74.1191499917
 51
105.8808500083
  0
SPLINE
  5
1359
330
2
100
AcDbEntity
  8
0
100
AcDbSpline
210
0.0
220
0.0
230
1.0
 70
     8
 71
     3
 72
    11
 73
     7
 74
     0
 42
0.000000001
 43
0.0000000001
 40
0.0
 40
0.0
 40
0.0
 40
0.0
 40
0.4601364636755307
 40
1.04988694485363
 40
1.713742833862792
 40
2.320347933405154
 40
2.320347933405154
 40
2.320347933405154
 40
2.320347933405175
 10
1355.628184569147
 20
297.7246097562574
 30
0.0
 10
1355.605766912039
 20
297.8796331959372
 30
0.0
 10
1355.554616856806
 20
298.2333480138548
 30
0.0
 10
1355.118731695272
 20
298.6580756854564
 30
0.0
 10
1354.513680980265
 20
298.8772628654223
 30
0.0
 10
1354.088496356089
 20
298.8082715658117
 30
0.0
 10
1353.885944746438
 20
298.794051293635
 30
0.0
  0
LINE
  5
135A
330
2
100
AcDbEntity
  8
0
100
AcDbLine
 10
1358.4156845696
 20
299.1416097563
 30
0.0
 11
1359.4156845696
 21
298.1416097563
 31
0.0
  0
ARC
  5
135B
330
2
100
AcDbEntity
  8
0
100
AcDbCircle
 10
1358.0226953232
 20
297.6477224805
 30
0.0
 40
1.3
100
AcDbArc
 50
5.0
 51
74.1191499917
  0
LINE
  5
135C
330
2
100
AcDbEntity
  8
0
100
AcDbLine
 10
1351.9156845696
 20
296.6416097563
 30
0.0
 11
1359.4156845696
 21
296.6416097563
 31
0.0
  0
LINE
  5
135D
330
2
100
AcDbEntity
  8
0
100
AcDbLine
 10
1359.4156845696
 20
296.6416097563
 30
0.0
 11
1359.3177484307
 21
297.7610249461
 31
0.0
  0
LINE
  5
135E
330
2
100
AcDbEntity
  8
0
100
AcDbLine
 10
1351.9156845696
 20
296.6416097563
 30
0.0
 11
1351.9156845696
 21
298.6416097563
 31
0.0
  0
LINE
  5
135F
330
2
100
AcDbEntity
  8
0
100
AcDbLine
 10
1352.4156845696
 20
296.6416097563
 30
0.0
 11
1352.5136207085
 21
297.7610249461
 31
0.0
  0
LINE
  5
1360
330
2
100
AcDbEntity
  8
CENTER
100
AcDbLine
 10
156.4579940627
 20
550.0575342618
 30
0.0
 11
156.4579940627
 21
620.1447482242
 31
0.0
  0
LINE
  5
1361
330
2
100
AcDbEntity
  8
0
100
AcDbLine
 10
181.4579940627
 20
608.101141243
 30
0.0
 11
181.4577960627
 21
562.101141243
 31
0.0
  0
LINE
  5
1362
330
2
100
AcDbEntity
  8
0
100
AcDbLine
 10
131.4578870627
 20
562.101141243
 30
0.0
 11
131.4578870627
 21
608.101141243
 31
0.0
  0
LINE
  5
1363
330
2
100
AcDbEntity
  8
0
100
AcDbLine
 10
133.4578870627
 20
602.601141243
 30
0.0
 11
133.4578870627
 21
567.601141243
 31
0.0
  0
LINE
  5
1364
330
2
100
AcDbEntity
  8
0
100
AcDbLine
 10
179.4577960627
 20
602.601141243
 30
0.0
 11
179.4577960627
 21
567.601141243
 31
0.0
  0
LINE
  5
1365
330
2
100
AcDbEntity
  8
0
100
AcDbLine
 10
133.4578870627
 20
560.101141243
 30
0.0
 11
179.4577960627
 21
560.101141243
 31
0.0
  0
LINE
  5
1366
330
2
100
AcDbEntity
  8
0
100
AcDbLine
 10
173.9577960627
 20
562.101141243
 30
0.0
 11
138.9578870627
 21
562.101141243
 31
0.0
  0
LINE
  5
1367
330
2
100
AcDbEntity
  8
0
100
AcDbLine
 10
138.9578870627
 20
563.601049243
 30
0.0
 11
138.9578870627
 21
560.101141243
 31
0.0
  0
CIRCLE
  5
1368
330
2
100
AcDbEntity
  8
0
100
AcDbCircle
 10
134.9578870627
 20
563.601049243
 30
0.0
 40
3.500000000000028
  0
LINE
  5
1369
330
2
100
AcDbEntity
  8
0
100
AcDbLine
 10
131.4578870627
 20
562.101141243
 30
0.0
 11
133.4578870627
 21
560.101141243
 31
0.0
  0
ARC
  5
136A
330
2
100
AcDbEntity
  8
0
100
AcDbCircle
 10
134.9578870627
 20
563.601049243
 30
0.0
 40
4.0
100
AcDbArc
 50
0.0
 51
90.0
  0
ARC
  5
136B
330
2
100
AcDbEntity
  8
0
100
AcDbCircle
 10
134.9578870627
 20
563.601049243
 30
0.0
 40
2.049999999999998
100
AcDbArc
 50
81.938039916
 51
90.0
  0
ARC
  5
136C
330
2
100
AcDbEntity
  8
0
100
AcDbCircle
 10
134.9578870627
 20
563.601049243
 30
0.0
 40
2.049999999999998
100
AcDbArc
 50
90.0
 51
98.061960084
  0
ARC
  5
136D
330
2
100
AcDbEntity
  8
0
100
AcDbCircle
 10
134.9578870627
 20
563.601049243
 30
0.0
 40
2.049999999999998
100
AcDbArc
 50
180.0
 51
188.061960084
  0
ARC
  5
136E
330
2
100
AcDbEntity
  8
0
100
AcDbCircle
 10
134.9578870627
 20
563.601049243
 30
0.0
 40
2.049999999999998
100
AcDbArc
 50
351.938039916
 51
0.0
  0
ARC
  5
136F
330
2
100
AcDbEntity
  8
0
100
AcDbCircle
 10
134.9578870627
 20
563.601049243
 30
0.0
 40
2.049999999999998
100
AcDbArc
 50
270.0
 51
278.061960084
  0
ARC
  5
1370
330
2
100
AcDbEntity
  8
0
100
AcDbCircle
 10
134.9578870627
 20
563.601049243
 30
0.0
 40
2.049999999999998
100
AcDbArc
 50
261.938039916
 51
270.0
  0
ARC
  5
1371
330
2
100
AcDbEntity
  8
0
100
AcDbCircle
 10
136.9875870627
 20
561.571349243
 30
0.0
 40
1.742199999999999
100
AcDbArc
 50
89.9986903345
 51
180.0013096655
  0
ARC
  5
1372
330
2
100
AcDbEntity
  8
0
100
AcDbCircle
 10
132.9281870627
 20
561.571349243
 30
0.0
 40
1.742199999999999
100
AcDbArc
 50
359.9986903345
 51
90.0013096655
  0
ARC
  5
1373
330
2
100
AcDbEntity
  8
0
100
AcDbCircle
 10
136.9875870627
 20
565.630749243
 30
0.0
 40
1.742199999999999
100
AcDbArc
 50
179.9986903345
 51
270.0013096655
  0
ARC
  5
1374
330
2
100
AcDbEntity
  8
0
100
AcDbCircle
 10
134.9578870627
 20
563.601049243
 30
0.0
 40
2.049999999999998
100
AcDbArc
 50
171.938039916
 51
180.0
  0
ARC
  5
1375
330
2
100
AcDbEntity
  8
0
100
AcDbCircle
 10
132.9281870627
 20
565.630749243
 30
0.0
 40
1.742199999999999
100
AcDbArc
 50
269.9986903345
 51
0.0013096655
  0
ARC
  5
1376
330
2
100
AcDbEntity
  8
0
100
AcDbCircle
 10
134.9578870627
 20
563.601049243
 30
0.0
 40
2.049999999999998
100
AcDbArc
 50
0.0
 51
8.061960084
  0
LINE
  5
1377
330
2
100
AcDbEntity
  8
0
100
AcDbLine
 10
134.9578870627
 20
567.601141243
 30
0.0
 11
131.4578870627
 21
567.601141243
 31
0.0
  0
LINE
  5
1378
330
2
100
AcDbEntity
  8
0
100
AcDbLine
 10
179.4577960627
 20
560.101141243
 30
0.0
 11
181.4577960627
 21
562.101141243
 31
0.0
  0
LINE
  5
1379
330
2
100
AcDbEntity
  8
0
100
AcDbLine
 10
181.4577960627
 20
562.101141243
 30
0.0
 11
179.4577960627
 21
560.101141243
 31
0.0
  0
LINE
  5
137A
330
2
100
AcDbEntity
  8
0
100
AcDbLine
 10
173.9577960627
 20
563.601049243
 30
0.0
 11
173.9577960627
 21
560.101141243
 31
0.0
  0
CIRCLE
  5
137B
330
2
100
AcDbEntity
  8
0
100
AcDbCircle
 10
177.9579940627
 20
563.601049243
 30
0.0
 40
3.500000000000028
  0
ARC
  5
137C
330
2
100
AcDbEntity
  8
0
100
AcDbCircle
 10
177.9579940627
 20
563.601049243
 30
0.0
 40
2.049999999999998
100
AcDbArc
 50
90.0
 51
98.061960084
  0
ARC
  5
137D
330
2
100
AcDbEntity
  8
0
100
AcDbCircle
 10
177.9579940627
 20
563.601049243
 30
0.0
 40
2.049999999999998
100
AcDbArc
 50
81.938039916
 51
90.0
  0
ARC
  5
137E
330
2
100
AcDbEntity
  8
0
100
AcDbCircle
 10
177.9579940627
 20
563.601049243
 30
0.0
 40
2.049999999999998
100
AcDbArc
 50
351.938039916
 51
0.0
  0
ARC
  5
137F
330
2
100
AcDbEntity
  8
0
100
AcDbCircle
 10
177.9579940627
 20
563.601049243
 30
0.0
 40
2.049999999999998
100
AcDbArc
 50
261.938039916
 51
270.0
  0
ARC
  5
1380
330
2
100
AcDbEntity
  8
0
100
AcDbCircle
 10
177.9579940627
 20
563.601049243
 30
0.0
 40
2.049999999999998
100
AcDbArc
 50
270.0
 51
278.061960084
  0
ARC
  5
1381
330
2
100
AcDbEntity
  8
0
100
AcDbCircle
 10
179.9876940627
 20
561.571349243
 30
0.0
 40
1.742199999999999
100
AcDbArc
 50
89.9986903345
 51
180.0013096655
  0
ARC
  5
1382
330
2
100
AcDbEntity
  8
0
100
AcDbCircle
 10
179.9876940627
 20
565.630749243
 30
0.0
 40
1.742199999999999
100
AcDbArc
 50
179.9986903345
 51
270.0013096655
  0
ARC
  5
1383
330
2
100
AcDbEntity
  8
0
100
AcDbCircle
 10
177.9579940627
 20
563.601049243
 30
0.0
 40
2.049999999999998
100
AcDbArc
 50
0.0
 51
8.061960084
  0
LINE
  5
1384
330
2
100
AcDbEntity
  8
0
100
AcDbLine
 10
177.9577960627
 20
567.601141243
 30
0.0
 11
181.4577960627
 21
567.601141243
 31
0.0
  0
ARC
  5
1385
330
2
100
AcDbEntity
  8
0
100
AcDbCircle
 10
177.9579940627
 20
563.601049243
 30
0.0
 40
2.049999999999998
100
AcDbArc
 50
180.0
 51
188.061960084
  0
ARC
  5
1386
330
2
100
AcDbEntity
  8
0
100
AcDbCircle
 10
177.9579940627
 20
563.601049243
 30
0.0
 40
2.049999999999998
100
AcDbArc
 50
171.938039916
 51
180.0
  0
ARC
  5
1387
330
2
100
AcDbEntity
  8
0
100
AcDbCircle
 10
175.9282940627
 20
561.571349243
 30
0.0
 40
1.742199999999999
100
AcDbArc
 50
359.9986903345
 51
90.0013096655
  0
ARC
  5
1388
330
2
100
AcDbEntity
  8
0
100
AcDbCircle
 10
175.9282940627
 20
565.630749243
 30
0.0
 40
1.742199999999999
100
AcDbArc
 50
269.9986903345
 51
0.0013096655
  0
ARC
  5
1389
330
2
100
AcDbEntity
  8
0
100
AcDbCircle
 10
177.9579940627
 20
563.601049243
 30
0.0
 40
4.0
100
AcDbArc
 50
90.0
 51
180.0
  0
LINE
  5
138A
330
2
100
AcDbEntity
  8
0
100
AcDbLine
 10
173.9577960627
 20
608.101141243
 30
0.0
 11
138.9578870627
 21
608.101141243
 31
0.0
  0
LINE
  5
138B
330
2
100
AcDbEntity
  8
0
100
AcDbLine
 10
133.4578870627
 20
610.101141243
 30
0.0
 11
179.4577960627
 21
610.101141243
 31
0.0
  0
ARC
  5
138D
330
2
100
AcDbEntity
  8
0
100
AcDbCircle
 10
136.9875870627
 20
608.630841243
 30
0.0
 40
1.742199999999999
100
AcDbArc
 50
179.9986903345
 51
270.0013096655
  0
ARC
  5
138E
330
2
100
AcDbEntity
  8
0
100
AcDbCircle
 10
132.9281870627
 20
608.630841243
 30
0.0
 40
1.742199999999999
100
AcDbArc
 50
269.9986903345
 51
0.0013096655
  0
LINE
  5
138F
330
2
100
AcDbEntity
  8
0
100
AcDbLine
 10
138.9578870627
 20
606.601141243
 30
0.0
 11
138.9578870627
 21
610.100957243
 31
0.0
  0
CIRCLE
  5
1390
330
2
100
AcDbEntity
  8
0
100
AcDbCircle
 10
134.9578870627
 20
606.601141243
 30
0.0
 40
3.500000000000028
  0
ARC
  5
1391
330
2
100
AcDbEntity
  8
0
100
AcDbCircle
 10
134.9578870627
 20
606.601141243
 30
0.0
 40
4.0
100
AcDbArc
 50
270.0
 51
0.0
  0
ARC
  5
1392
330
2
100
AcDbEntity
  8
0
100
AcDbCircle
 10
136.9875870627
 20
604.571441243
 30
0.0
 40
1.742199999999999
100
AcDbArc
 50
89.9986903345
 51
180.0013096655
  0
ARC
  5
1393
330
2
100
AcDbEntity
  8
0
100
AcDbCircle
 10
134.9578870627
 20
606.601141243
 30
0.0
 40
2.049999999999998
100
AcDbArc
 50
270.0
 51
278.061960084
  0
ARC
  5
1394
330
2
100
AcDbEntity
  8
0
100
AcDbCircle
 10
132.9281870627
 20
604.571441243
 30
0.0
 40
1.742199999999999
100
AcDbArc
 50
359.9986903345
 51
90.0013096655
  0
ARC
  5
1395
330
2
100
AcDbEntity
  8
0
100
AcDbCircle
 10
134.9578870627
 20
606.601141243
 30
0.0
 40
2.049999999999998
100
AcDbArc
 50
261.938039916
 51
270.0
  0
ARC
  5
1396
330
2
100
AcDbEntity
  8
0
100
AcDbCircle
 10
134.9578870627
 20
606.601141243
 30
0.0
 40
2.049999999999998
100
AcDbArc
 50
180.0
 51
188.061960084
  0
ARC
  5
1397
330
2
100
AcDbEntity
  8
0
100
AcDbCircle
 10
134.9578870627
 20
606.601141243
 30
0.0
 40
2.049999999999998
100
AcDbArc
 50
171.938039916
 51
180.0
  0
ARC
  5
1398
330
2
100
AcDbEntity
  8
0
100
AcDbCircle
 10
134.9578870627
 20
606.601141243
 30
0.0
 40
2.049999999999998
100
AcDbArc
 50
351.938039916
 51
0.0
  0
ARC
  5
1399
330
2
100
AcDbEntity
  8
0
100
AcDbCircle
 10
134.9578870627
 20
606.601141243
 30
0.0
 40
2.049999999999998
100
AcDbArc
 50
0.0
 51
8.061960084
  0
LINE
  5
139A
330
2
100
AcDbEntity
  8
0
100
AcDbLine
 10
134.9578870627
 20
602.601141243
 30
0.0
 11
131.4578870627
 21
602.601141243
 31
0.0
  0
ARC
  5
139B
330
2
100
AcDbEntity
  8
0
100
AcDbCircle
 10
134.9578870627
 20
606.601141243
 30
0.0
 40
2.049999999999998
100
AcDbArc
 50
81.938039916
 51
90.0
  0
ARC
  5
139C
330
2
100
AcDbEntity
  8
0
100
AcDbCircle
 10
134.9578870627
 20
606.601141243
 30
0.0
 40
2.049999999999998
100
AcDbArc
 50
90.0
 51
98.061960084
  0
LINE
  5
139D
330
2
100
AcDbEntity
  8
0
100
AcDbLine
 10
131.4578870627
 20
608.101141243
 30
0.0
 11
133.4578870627
 21
610.101141243
 31
0.0
  0
LINE
  5
139E
330
2
100
AcDbEntity
  8
0
100
AcDbLine
 10
131.4578870627
 20
608.101141243
 30
0.0
 11
133.4578870627
 21
610.101141243
 31
0.0
  0
ARC
  5
139F
330
2
100
AcDbEntity
  8
0
100
AcDbCircle
 10
179.9876940627
 20
608.630841243
 30
0.0
 40
1.742199999999999
100
AcDbArc
 50
179.9986903345
 51
270.0013096655
  0
LINE
  5
13A0
330
2
100
AcDbEntity
  8
0
100
AcDbLine
 10
173.9577960627
 20
606.601141243
 30
0.0
 11
173.9577960627
 21
610.100957243
 31
0.0
  0
ARC
  5
13A1
330
2
100
AcDbEntity
  8
0
100
AcDbCircle
 10
175.9282940627
 20
608.630841243
 30
0.0
 40
1.742199999999999
100
AcDbArc
 50
269.9986903345
 51
0.0013096655
  0
CIRCLE
  5
13A2
330
2
100
AcDbEntity
  8
0
100
AcDbCircle
 10
177.9579940627
 20
606.601141243
 30
0.0
 40
3.500000000000028
  0
ARC
  5
13A3
330
2
100
AcDbEntity
  8
0
100
AcDbCircle
 10
179.9876940627
 20
604.571441243
 30
0.0
 40
1.742199999999999
100
AcDbArc
 50
89.9986903345
 51
180.0013096655
  0
LINE
  5
13A4
330
2
100
AcDbEntity
  8
0
100
AcDbLine
 10
177.9577960627
 20
602.601141243
 30
0.0
 11
181.4577960627
 21
602.601141243
 31
0.0
  0
ARC
  5
13A5
330
2
100
AcDbEntity
  8
0
100
AcDbCircle
 10
177.9579940627
 20
606.601141243
 30
0.0
 40
2.049999999999998
100
AcDbArc
 50
261.938039916
 51
270.0
  0
ARC
  5
13A6
330
2
100
AcDbEntity
  8
0
100
AcDbCircle
 10
177.9579940627
 20
606.601141243
 30
0.0
 40
2.049999999999998
100
AcDbArc
 50
270.0
 51
278.061960084
  0
ARC
  5
13A7
330
2
100
AcDbEntity
  8
0
100
AcDbCircle
 10
177.9579940627
 20
606.601141243
 30
0.0
 40
2.049999999999998
100
AcDbArc
 50
351.938039916
 51
0.0
  0
ARC
  5
13A8
330
2
100
AcDbEntity
  8
0
100
AcDbCircle
 10
177.9579940627
 20
606.601141243
 30
0.0
 40
2.049999999999998
100
AcDbArc
 50
0.0
 51
8.061960084
  0
ARC
  5
13A9
330
2
100
AcDbEntity
  8
0
100
AcDbCircle
 10
177.9579940627
 20
606.601141243
 30
0.0
 40
2.049999999999998
100
AcDbArc
 50
180.0
 51
188.061960084
  0
ARC
  5
13AA
330
2
100
AcDbEntity
  8
0
100
AcDbCircle
 10
177.9579940627
 20
606.601141243
 30
0.0
 40
2.049999999999998
100
AcDbArc
 50
171.938039916
 51
180.0
  0
ARC
  5
13AB
330
2
100
AcDbEntity
  8
0
100
AcDbCircle
 10
175.9282940627
 20
604.571441243
 30
0.0
 40
1.742199999999999
100
AcDbArc
 50
359.9986903345
 51
90.0013096655
  0
ARC
  5
13AC
330
2
100
AcDbEntity
  8
0
100
AcDbCircle
 10
177.9579940627
 20
606.601141243
 30
0.0
 40
4.0
100
AcDbArc
 50
180.0
 51
270.0
  0
LINE
  5
13AD
330
2
100
AcDbEntity
  8
0
100
AcDbLine
 10
181.4579940627
 20
608.101141243
 30
0.0
 11
179.4577960627
 21
610.101141243
 31
0.0
  0
LINE
  5
13AE
330
2
100
AcDbEntity
  8
0
100
AcDbLine
 10
181.4577960627
 20
608.101141243
 30
0.0
 11
179.4577960627
 21
610.101141243
 31
0.0
  0
LINE
  5
13AF
330
2
100
AcDbEntity
  8
0
100
AcDbLine
 10
181.4577960627
 20
608.101141243
 30
0.0
 11
179.4577960627
 21
610.101141243
 31
0.0
  0
ARC
  5
13B0
330
2
100
AcDbEntity
  8
0
100
AcDbCircle
 10
177.9579940627
 20
606.601141243
 30
0.0
 40
2.049999999999998
100
AcDbArc
 50
90.0
 51
98.061960084
  0
ARC
  5
13B1
330
2
100
AcDbEntity
  8
0
100
AcDbCircle
 10
177.9579940627
 20
606.601141243
 30
0.0
 40
2.049999999999998
100
AcDbArc
 50
81.938039916
 51
90.0
  0
LINE
  5
140A
330
2
100
AcDbEntity
  8
0
100
AcDbLine
 10
181.4579940627
 20
298.1416097563
 30
0.0
 11
181.4579940627
 21
256.1415947563
 31
0.0
  0
LINE
  5
140B
330
2
100
AcDbEntity
  8
CENTER
100
AcDbLine
 10
156.4579940627
 20
242.7520987563
 30
0.0
 11
156.4579940627
 21
309.5291097563
 31
0.0
  0
LINE
  5
140D
330
2
100
AcDbEntity
  8
0
100
AcDbLine
 10
131.4579870627
 20
298.1416097563
 30
0.0
 11
131.4579870627
 21
256.1415947563
 31
0.0
  0
LINE
  5
140E
330
2
100
AcDbEntity
  8
0
100
AcDbLine
 10
131.4579870627
 20
266.1415947563
 30
0.0
 11
181.4579940627
 21
266.1415947563
 31
0.0
  0
LINE
  5
140F
330
2
100
AcDbEntity
  8
0
100
AcDbLine
 10
131.4579870627
 20
267.1415947563
 30
0.0
 11
181.4579940627
 21
267.1415947563
 31
0.0
  0
LINE
  5
1410
330
2
100
AcDbEntity
  8
0
100
AcDbLine
 10
132.9579870627
 20
254.1415947563
 30
0.0
 11
179.4579940627
 21
254.1415947563
 31
0.0
  0
LINE
  5
1411
330
2
100
AcDbEntity
  8
0
100
AcDbLine
 10
131.4579870627
 20
256.1415947563
 30
0.0
 11
181.4579940627
 21
256.1415947563
 31
0.0
  0
LINE
  5
1412
330
2
100
AcDbEntity
  8
0
100
AcDbLine
 10
131.4579870627
 20
256.1415947563
 30
0.0
 11
133.4579870627
 21
254.1415947563
 31
0.0
  0
LINE
  5
1413
330
2
100
AcDbEntity
  8
0
100
AcDbLine
 10
132.9579870627
 20
254.1415947563
 30
0.0
 11
132.9579870627
 21
252.6415947563
 31
0.0
  0
LINE
  5
1414
330
2
100
AcDbEntity
  8
0
100
AcDbLine
 10
130.5829870627
 20
271.6415947563
 30
0.0
 11
132.5829870627
 21
271.6415947563
 31
0.0
  0
LINE
  5
1415
330
2
100
AcDbEntity
  8
0
100
AcDbLine
 10
179.4579940627
 20
254.1415947563
 30
0.0
 11
181.4579940627
 21
256.1415947563
 31
0.0
  0
LINE
  5
1416
330
2
100
AcDbEntity
  8
0
100
AcDbLine
 10
178.9579940627
 20
254.1415947563
 30
0.0
 11
178.9579940627
 21
252.6415947563
 31
0.0
  0
LINE
  5
1417
330
2
100
AcDbEntity
  8
CENTER
100
AcDbLine
 10
121.4143870815
 20
282.1415947563
 30
0.0
 11
191.5016010439
 21
282.1415947563
 31
0.0
  0
LINE
  5
1419
330
2
100
AcDbEntity
  8
0
100
AcDbLine
 10
136.2959028788
 20
299.1416097563
 30
0.0
 11
176.6200852467
 21
299.1416097563
 31
0.0
  0
LINE
  5
141A
330
2
100
AcDbEntity
  8
0
100
AcDbLine
 10
138.9579940627
 20
298.1416097563
 30
0.0
 11
173.9579940627
 21
298.1416097563
 31
0.0
  0
SPLINE
  5
141B
330
2
100
AcDbEntity
  8
0
100
AcDbSpline
210
0.0
220
0.0
230
1.0
 70
     8
 71
     3
 72
    11
 73
     7
 74
     0
 42
0.000000001
 43
0.0000000001
 40
0.0
 40
0.0
 40
0.0
 40
0.0
 40
0.4601364636755307
 40
1.04988694485363
 40
1.713742833862792
 40
2.320347933405154
 40
2.320347933405154
 40
2.320347933405154
 40
2.320347933405175
 10
135.2454940631905
 20
297.7246097562574
 30
0.0
 10
135.2679117202983
 20
297.8796331959372
 30
0.0
 10
135.3190617755315
 20
298.2333480138548
 30
0.0
 10
135.7549469370651
 20
298.6580756854564
 30
0.0
 10
136.3599976520727
 20
298.8772628654223
 30
0.0
 10
136.7851822762484
 20
298.8082715658117
 30
0.0
 10
136.9877338858996
 20
298.794051293635
 30
0.0
  0
ARC
  5
141C
330
2
100
AcDbEntity
  8
0
100
AcDbCircle
 10
134.9579940627
 20
290.2416097563
 30
0.0
 40
9.0
100
AcDbArc
 50
74.1191499917
 51
105.8808500083
  0
LINE
  5
141D
330
2
100
AcDbEntity
  8
0
100
AcDbLine
 10
138.9579940627
 20
296.6416097563
 30
0.0
 11
131.4579940627
 21
296.6416097563
 31
0.0
  0
LINE
  5
141E
330
2
100
AcDbEntity
  8
0
100
AcDbLine
 10
131.4579940627
 20
296.6416097563
 30
0.0
 11
131.5559302016
 21
297.7610249461
 31
0.0
  0
LINE
  5
141F
330
2
100
AcDbEntity
  8
0
100
AcDbLine
 10
132.4579940627
 20
299.1416097563
 30
0.0
 11
131.4579940627
 21
298.1416097563
 31
0.0
  0
ARC
  5
1420
330
2
100
AcDbEntity
  8
0
100
AcDbCircle
 10
132.8509833091
 20
297.6477224805
 30
0.0
 40
1.3
100
AcDbArc
 50
105.8808500083
 51
175.0
  0
SPLINE
  5
1421
330
2
100
AcDbEntity
  8
0
100
AcDbSpline
210
0.0
220
0.0
230
1.0
 70
     8
 71
     3
 72
    11
 73
     7
 74
     0
 42
0.000000001
 43
0.0000000001
 40
0.0
 40
0.0
 40
0.0
 40
0.0
 40
0.4601364636755307
 40
1.04988694485363
 40
1.713742833862792
 40
2.320347933405154
 40
2.320347933405154
 40
2.320347933405154
 40
2.320347933405175
 10
134.6704940622803
 20
297.7246097562574
 30
0.0
 10
134.6480764051725
 20
297.8796331959372
 30
0.0
 10
134.5969263499391
 20
298.2333480138548
 30
0.0
 10
134.1610411884057
 20
298.6580756854564
 30
0.0
 10
133.5559904733982
 20
298.8772628654223
 30
0.0
 10
133.1308058492223
 20
298.8082715658117
 30
0.0
 10
132.9282542395713
 20
298.794051293635
 30
0.0
  0
LINE
  5
1422
330
2
100
AcDbEntity
  8
0
100
AcDbLine
 10
132.9282542396
 20
298.7940512936
 30
0.0
 11
132.9079940627
 21
299.0050280391
 31
0.0
  0
LINE
  5
1423
330
2
100
AcDbEntity
  8
0
100
AcDbLine
 10
133.6200852467
 20
299.1416097563
 30
0.0
 11
132.4579940627
 21
299.1416097563
 31
0.0
  0
LINE
  5
1424
330
2
100
AcDbEntity
  8
0
100
AcDbLine
 10
134.6704940623
 20
297.7246097563
 30
0.0
 11
135.2454940632
 21
297.7246097563
 31
0.0
  0
LINE
  5
1425
330
2
100
AcDbEntity
  8
0
100
AcDbLine
 10
130.5829870627
 20
292.6415947563
 30
0.0
 11
132.5829870627
 21
292.6415947563
 31
0.0
  0
LINE
  5
1426
330
2
100
AcDbEntity
  8
0
100
AcDbLine
 10
138.4579940627
 20
296.6416097563
 30
0.0
 11
138.3600579238
 21
297.7610249461
 31
0.0
  0
LINE
  5
1427
330
2
100
AcDbEntity
  8
0
100
AcDbLine
 10
138.9579940627
 20
296.6416097563
 30
0.0
 11
138.9579940627
 21
298.6416097563
 31
0.0
  0
LINE
  5
1428
330
2
100
AcDbEntity
  8
0
100
AcDbLine
 10
138.9579940627
 20
298.6416097563
 30
0.0
 11
137.9029714524
 21
298.6416097563
 31
0.0
  0
LINE
  5
1429
330
2
100
AcDbEntity
  8
0
100
AcDbLine
 10
139.4579940627
 20
299.1416097563
 30
0.0
 11
138.9579940627
 21
298.6416097563
 31
0.0
  0
LINE
  5
142A
330
2
100
AcDbEntity
  8
0
100
AcDbLine
 10
136.9877338859
 20
298.7940512936
 30
0.0
 11
137.0079940627
 21
299.0050280391
 31
0.0
  0
ARC
  5
142B
330
2
100
AcDbEntity
  8
0
100
AcDbCircle
 10
137.0650048163
 20
297.6477224805
 30
0.0
 40
1.3
100
AcDbArc
 50
5.0
 51
74.1191499917
  0
LINE
  5
142C
330
2
100
AcDbEntity
  8
0
100
AcDbLine
 10
181.4579940627
 20
296.6416097563
 30
0.0
 11
181.3600579238
 21
297.7610249461
 31
0.0
  0
LINE
  5
142D
330
2
100
AcDbEntity
  8
0
100
AcDbLine
 10
174.4579940627
 20
296.6416097563
 30
0.0
 11
174.5559302016
 21
297.7610249461
 31
0.0
  0
LINE
  5
142E
330
2
100
AcDbEntity
  8
0
100
AcDbLine
 10
173.9579940627
 20
296.6416097563
 30
0.0
 11
173.9579940627
 21
298.6416097563
 31
0.0
  0
LINE
  5
142F
330
2
100
AcDbEntity
  8
0
100
AcDbLine
 10
173.9579940627
 20
296.6416097563
 30
0.0
 11
181.4579940627
 21
296.6416097563
 31
0.0
  0
SPLINE
  5
1430
330
2
100
AcDbEntity
  8
0
100
AcDbSpline
210
0.0
220
0.0
230
1.0
 70
     8
 71
     3
 72
    11
 73
     7
 74
     0
 42
0.000000001
 43
0.0000000001
 40
0.0
 40
0.0
 40
0.0
 40
0.0
 40
0.4601364636755307
 40
1.04988694485363
 40
1.713742833862792
 40
2.320347933405154
 40
2.320347933405154
 40
2.320347933405154
 40
2.320347933405175
 10
177.6704940622805
 20
297.7246097562574
 30
0.0
 10
177.6480764051725
 20
297.8796331959372
 30
0.0
 10
177.5969263499394
 20
298.2333480138548
 30
0.0
 10
177.1610411884056
 20
298.6580756854564
 30
0.0
 10
176.5559904733984
 20
298.8772628654223
 30
0.0
 10
176.1308058492225
 20
298.8082715658117
 30
0.0
 10
175.9282542395714
 20
298.794051293635
 30
0.0
  0
ARC
  5
1431
330
2
100
AcDbEntity
  8
0
100
AcDbCircle
 10
177.9579940627
 20
290.2416097563
 30
0.0
 40
9.0
100
AcDbArc
 50
74.1191499917
 51
105.8808500083
  0
LINE
  5
1432
330
2
100
AcDbEntity
  8
0
100
AcDbLine
 10
175.9282542396
 20
298.7940512936
 30
0.0
 11
175.9079940627
 21
299.0050280391
 31
0.0
  0
LINE
  5
1433
330
2
100
AcDbEntity
  8
0
100
AcDbLine
 10
173.4579940627
 20
299.1416097563
 30
0.0
 11
173.9579940627
 21
298.6416097563
 31
0.0
  0
ARC
  5
1434
330
2
100
AcDbEntity
  8
0
100
AcDbCircle
 10
175.8509833091
 20
297.6477224805
 30
0.0
 40
1.3
100
AcDbArc
 50
105.8808500083
 51
175.0
  0
LINE
  5
1435
330
2
100
AcDbEntity
  8
0
100
AcDbLine
 10
173.9579940627
 20
298.6416097563
 30
0.0
 11
175.0130166731
 21
298.6416097563
 31
0.0
  0
ARC
  5
1436
330
2
100
AcDbEntity
  8
0
100
AcDbCircle
 10
180.0650048163
 20
297.6477224805
 30
0.0
 40
1.3
100
AcDbArc
 50
5.0
 51
74.1191499917
  0
LINE
  5
1437
330
2
100
AcDbEntity
  8
0
100
AcDbLine
 10
180.4579940627
 20
299.1416097563
 30
0.0
 11
181.4579940627
 21
298.1416097563
 31
0.0
  0
LINE
  5
1438
330
2
100
AcDbEntity
  8
0
100
AcDbLine
 10
179.9877338859
 20
298.7940512936
 30
0.0
 11
180.0079940627
 21
299.0050280391
 31
0.0
  0
LINE
  5
1439
330
2
100
AcDbEntity
  8
0
100
AcDbLine
 10
178.2454940632
 20
297.7246097563
 30
0.0
 11
177.6704940623
 21
297.7246097563
 31
0.0
  0
SPLINE
  5
143A
330
2
100
AcDbEntity
  8
0
100
AcDbSpline
210
0.0
220
0.0
230
1.0
 70
     8
 71
     3
 72
    11
 73
     7
 74
     0
 42
0.000000001
 43
0.0000000001
 40
0.0
 40
0.0
 40
0.0
 40
0.0
 40
0.4601364636755307
 40
1.04988694485363
 40
1.713742833862792
 40
2.320347933405154
 40
2.320347933405154
 40
2.320347933405154
 40
2.320347933405175
 10
178.2454940631905
 20
297.7246097562574
 30
0.0
 10
178.2679117202983
 20
297.8796331959372
 30
0.0
 10
178.3190617755315
 20
298.2333480138548
 30
0.0
 10
178.7549469370653
 20
298.6580756854564
 30
0.0
 10
179.3599976520727
 20
298.8772628654223
 30
0.0
 10
179.7851822762486
 20
298.8082715658117
 30
0.0
 10
179.9877338858996
 20
298.794051293635
 30
0.0
  0
LINE
  5
143B
330
2
100
AcDbEntity
  8
0
100
AcDbLine
 10
179.2959028788
 20
299.1416097563
 30
0.0
 11
180.4579940627
 21
299.1416097563
 31
0.0
  0
LINE
  5
1511
330
2
100
AcDbEntity
  8
0
100
AcDbLine
 10
131.9583051473
 20
561.6007231584
 30
0.0
 11
131.9583051473
 21
530.101171243
 31
0.0
  0
TEXT
  5
18E3
330
2
100
AcDbEntity
  8
TITLE_C
100
AcDbText
 10
618.7799343454
 20
549.6901321546
 30
0.0
 40
10.0
  1
HL40L12X～18X-CTBY90NKX
100
AcDbText
  0
TEXT
  5
18E4
330
2
100
AcDbEntity
  8
TITLE_C
100
AcDbText
 10
618.7799343454
 20
533.6901321546
 30
0.0
 40
10.0
  1
HL40L12X～18X-CTBY90WK
100
AcDbText
  0
TEXT
  5
18E6
330
2
100
AcDbEntity
  8
TITLE_C
100
AcDbText
 10
618.7799343454
 20
517.6901321546
 30
0.0
 40
10.0
  1
HL40L12X～18X-CSBY90NK
100
AcDbText
  0
TEXT
  5
20A4
330
2
100
AcDbEntity
  8
TITLE_C
100
AcDbText
 10
618.7799343454
 20
564.1006069547
 30
0.0
 40
10.0
  1
HL40L12X～18X-CTBY90NK
100
AcDbText
  0
TEXT
  5
220B
330
2
100
AcDbEntity
  8
TITLE_C
100
AcDbText
 10
618.9011458518
 20
501.5770874145
 30
0.0
 40
10.0
  1
HL40L12X～18X-CSBY90WKX
100
AcDbText
  0
TEXT
  5
2211
330
2
100
AcDbEntity
  8
TITLE_C
100
AcDbText
 10
618.7799343454
 20
485.7063461318
 30
0.0
 40
10.0
  1
HL40L12X～18X-CSBY90WK
100
AcDbText
  0
ENDSEC
  0
SECTION
  2
OBJECTS
  0
DICTIONARY
  5
7
330
0
100
AcDbDictionary
281
     1
  3
ACAD_CIP_PREVIOUS_PRODUCT_INFO
350
21FE
  3
ACAD_COLOR
350
1840
  3
ACAD_DETAILVIEWSTYLE
350
21FA
  3
ACAD_GROUP
350
75
  3
ACAD_LAYOUT
350
61
  3
ACAD_MATERIAL
350
1813
  3
ACAD_MLEADERSTYLE
350
1865
  3
ACAD_MLINESTYLE
350
76
  3
ACAD_PLOTSETTINGS
350
77
  3
ACAD_PLOTSTYLENAME
350
6
  3
ACAD_SCALELIST
350
1843
  3
ACAD_SECTIONVIEWSTYLE
350
21F8
  3
ACAD_TABLESTYLE
350
1841
  3
ACAD_VISUALSTYLE
350
182C
  3
AcadDim
350
480
  3
ACDB_RECOMPOSE_DATA
350
2663
  3
AcDbVariableDictionary
350
102
  3
DWGPROPS
350
2664
  0
DICTIONARY
  5
188D
330
6E
100
AcDbDictionary
280
     1
281
     1
  0
DICTIONARY
  5
186C
330
66
100
AcDbDictionary
280
     1
281
     1
  3
ACAD_LAYERSTATES
360
186D
  0
DICTIONARY
  5
1874
330
5E
100
AcDbDictionary
280
     1
281
     1
  3
ADSK_XREC_LAYER_RECONCILED
360
1875
  0
DICTIONARY
  5
1876
330
3E
100
AcDbDictionary
280
     1
281
     1
  3
ADSK_XREC_LAYER_RECONCILED
360
1877
  0
DICTIONARY
  5
187C
330
2B5
100
AcDbDictionary
280
     1
281
     1
  3
ADSK_XREC_LAYER_RECONCILED
360
187D
  0
DICTIONARY
  5
187E
330
2BA
100
AcDbDictionary
280
     1
281
     1
  3
ADSK_XREC_LAYER_RECONCILED
360
187F
  0
DICTIONARY
  5
1882
330
3FA
100
AcDbDictionary
280
     1
281
     1
  3
ADSK_XREC_LAYER_RECONCILED
360
1883
  0
DICTIONARY
  5
186A
330
1869
100
AcDbDictionary
280
     1
281
     1
  3
ADSK_XREC_LAYER_RECONCILED
360
1884
  0
XRECORD
  5
21FE
102
{ACAD_REACTORS
330
7
102
}
330
7
100
AcDbXrecord
280
     1
300
ACD
300
2020
300
87224ACD_2020_0F
  0
DICTIONARY
  5
1840
102
{ACAD_REACTORS
330
7
102
}
330
7
100
AcDbDictionary
281
     1
  0
DICTIONARY
  5
21FA
102
{ACAD_REACTORS
330
7
102
}
330
7
100
AcDbDictionary
281
     1
  3
Imperial24
350
21FB
  0
DICTIONARY
  5
75
102
{ACAD_REACTORS
330
7
102
}
330
7
100
AcDbDictionary
281
     1
  0
DICTIONARY
  5
61
102
{ACAD_REACTORS
330
7
102
}
330
7
100
AcDbDictionary
281
     1
  3
Model
350
60
  3
レイアウト1
350
265D
  0
DICTIONARY
  5
1813
102
{ACAD_REACTORS
330
7
102
}
330
7
100
AcDbDictionary
281
     1
  3
ByBlock
350
181C
  3
ByLayer
350
1814
  3
Global
350
1824
  0
DICTIONARY
  5
1865
102
{ACAD_REACTORS
330
7
102
}
330
7
100
AcDbDictionary
281
     1
  3
Standard
350
1866
  0
DICTIONARY
  5
76
102
{ACAD_REACTORS
330
7
102
}
330
7
100
AcDbDictionary
281
     1
  3
STANDARD
350
78
  0
DICTIONARY
  5
77
102
{ACAD_REACTORS
330
7
102
}
330
7
100
AcDbDictionary
281
     1
  0
ACDBDICTIONARYWDFLT
  5
6
102
{ACAD_REACTORS
330
7
102
}
330
7
100
AcDbDictionary
281
     1
  3
Normal
350
5
100
AcDbDictionaryWithDefault
340
5
  0
DICTIONARY
  5
1843
102
{ACAD_REACTORS
330
7
102
}
330
7
100
AcDbDictionary
281
     1
  3
A0
350
1844
  3
A1
350
1845
  3
A2
350
1846
  3
A3
350
1847
  3
A4
350
1848
  3
A5
350
1849
  3
A6
350
184A
  3
A7
350
184B
  3
A8
350
184C
  3
A9
350
184D
  3
B0
350
184E
  3
B1
350
184F
  3
B2
350
1850
  3
B3
350
1851
  3
B4
350
1852
  3
B5
350
1853
  3
B6
350
1854
  3
B7
350
1855
  3
B8
350
1856
  3
B9
350
1857
  3
C0
350
1858
  3
C1
350
1859
  3
C2
350
185A
  3
C3
350
185B
  3
C4
350
185C
  3
C5
350
185D
  3
C6
350
185E
  3
C7
350
185F
  3
C8
350
1860
  3
C9
350
1861
  3
D0
350
1862
  3
D1
350
1863
  3
D2
350
1864
  0
DICTIONARY
  5
21F8
102
{ACAD_REACTORS
330
7
102
}
330
7
100
AcDbDictionary
281
     1
  3
Imperial24
350
21F9
  0
DICTIONARY
  5
1841
102
{ACAD_REACTORS
330
7
102
}
330
7
100
AcDbDictionary
281
     1
  3
Standard
350
1842
  0
DICTIONARY
  5
182C
102
{ACAD_REACTORS
330
7
102
}
330
7
100
AcDbDictionary
281
     1
  3
2dWireframe
350
1832
  3
3D Hidden
350
1834
  3
3dWireframe
350
1833
  3
Basic
350
1831
  3
Brighten
350
1838
  3
ColorChange
350
183C
  3
Conceptual
350
1835
  3
Dim
350
1837
  3
EdgeColorOff
350
183F
  3
Facepattern
350
183B
  3
Flat
350
182D
  3
FlatWithEdges
350
182E
  3
Gouraud
350
182F
  3
GouraudWithEdges
350
1830
  3
Hidden
350
21F2
  3
JitterOff
350
183D
  3
Linepattern
350
183A
  3
OverhangOff
350
183E
  3
Realistic
350
1836
  3
Shaded
350
21F7
  3
Shaded with edges
350
21F6
  3
Shades of Gray
350
21F3
  3
Sketchy
350
21F4
  3
Thicken
350
1839
  3
Wireframe
350
21F1
  3
X-Ray
350
21F5
  0
XRECORD
  5
480
102
{ACAD_REACTORS
330
7
102
}
330
7
100
AcDbXrecord
280
     1
 90
   990106
  3

 60
     0
 61
     0
 62
     1
 63
     3
 64
     1
 65
     0
 66
     0
 67
     3
 68
     1
 69
     0
 70
     0
 71
     0
 72
     0
 40
0.0
170
     2
340
0
  0
XRECORD
  5
2663
102
{ACAD_REACTORS
330
7
102
}
330
7
100
AcDbXrecord
280
     1
 90
        1
330
1842
  0
DICTIONARY
  5
102
102
{ACAD_REACTORS
330
7
102
}
330
7
100
AcDbDictionary
281
     1
  3
CANNOSCALE
350
18D4
  3
CMLEADERSTYLE
350
18D3
  3
CTABLESTYLE
350
18D2
  3
CVIEWDETAILSTYLE
350
2200
  3
CVIEWSECTIONSTYLE
350
2201
  3
DIMASSOC
350
103
  3
INDEXCTL
350
18D6
  3
LAYEREVAL
350
2204
  3
LAYERNOTIFY
350
2205
  3
LIGHTINGUNITS
350
2203
  3
MSLTSCALE
350
2202
  3
SORTENTS
350
18D5
  3
XCLIPFRAME
350
2661
  0
XRECORD
  5
2664
102
{ACAD_REACTORS
330
7
102
}
330
7
100
AcDbXrecord
280
     1
  1
DWGPROPS COOKIE
  2

  3

  4

  6

  7

  8
ykitaga
  9

300
=
301
=
302
=
303
=
304
=
305
=
306
=
307
=
308
=
309
=
 40
0.2080990972
 41
2453753.550046297
 42
2460248.354409722
  1

 90
        0
  0
DICTIONARY
  5
186D
102
{ACAD_REACTORS
330
186C
102
}
330
186C
100
AcDbDictionary
281
     1
  0
XRECORD
  5
1875
102
{ACAD_REACTORS
330
1874
102
}
330
1874
100
AcDbXrecord
280
     1
290
     1
  0
XRECORD
  5
1877
102
{ACAD_REACTORS
330
1876
102
}
330
1876
100
AcDbXrecord
280
     1
290
     1
  0
XRECORD
  5
187D
102
{ACAD_REACTORS
330
187C
102
}
330
187C
100
AcDbXrecord
280
     1
290
     1
  0
XRECORD
  5
187F
102
{ACAD_REACTORS
330
187E
102
}
330
187E
100
AcDbXrecord
280
     1
290
     1
  0
XRECORD
  5
1883
102
{ACAD_REACTORS
330
1882
102
}
330
1882
100
AcDbXrecord
280
     1
290
     1
  0
XRECORD
  5
1884
102
{ACAD_REACTORS
330
186A
102
}
330
186A
100
AcDbXrecord
280
     1
290
     1
  0
ACDBDETAILVIEWSTYLE
  5
21FB
102
{ACAD_XDICTIONARY
360
26B0
102
}
102
{ACAD_REACTORS
330
21FA
102
}
330
21FA
100
AcDbModelDocViewStyle
 70
     0
  3
Imperial24
290
     0
100
AcDbDetailViewStyle
 70
     0
 71
     0
 90
        3
 71
     1
340
16
 40
0.24
340
0
 40
0.24
300

 40
0.36
280
     3
 71
     2
340
8
 90
       25
 71
     3
340
16
 40
0.24
 90
        1
 40
0.75
 90
        1
300
%<\AcVar ViewType \f "%tc1">% %<\AcVar ViewDetailId>%\PSCALE %<\AcVar ViewScale \f "%sn">%
 71
     4
340
8
 90
       25
340
8
 90
       25
280
     0
  0
LAYOUT
  5
60
102
{ACAD_XDICTIONARY
360
18F0
102
}
102
{ACAD_REACTORS
330
61
102
}
330
61
100
AcDbPlotSettings
  1

  2
Canon LBP-1420
  4
A4
  6

 40
5.873749733
 41
5.8737478256
 42
5.8737487793
 43
5.8737487793
 44
209.9733276367
 45
296.925994873
 46
0.0
 47
5.37
 48
0.0
 49
0.0
140
0.0
141
0.0
142
1.0
143
0.088099941
 70
 11956
 72
     1
 73
     1
 74
     1
  7
Sekkei.ctb
 75
     0
147
11.3507453947
148
-88.9740150773
149
-101.3630682339
100
AcDbLayout
  1
Model
 70
     1
 71
     0
 10
0.0
 20
0.0
 11
12.0
 21
9.0
 12
0.0
 22
0.0
 32
0.0
 14
0.0
 24
0.0
 34
0.0
 15
0.0
 25
0.0
 35
0.0
146
0.0
 13
0.0
 23
0.0
 33
0.0
 16
1.0
 26
0.0
 36
0.0
 17
0.0
 27
1.0
 37
0.0
 76
     0
330
2
331
1811
  0
LAYOUT
  5
265D
102
{ACAD_XDICTIONARY
360
26BA
102
}
102
{ACAD_REACTORS
330
61
102
}
330
61
100
AcDbPlotSettings
  1

  2
LBP8610
  4

  6

 40
0.0
 41
0.0
 42
0.0
 43
0.0
 44
0.0
 45
0.0
 46
0.0
 47
0.0
 48
0.0
 49
0.0
140
0.0
141
0.0
142
1.0
143
1.0
 70
   688
 72
     0
 73
     0
 74
     5
  7

 75
    16
147
1.0
148
0.0
149
0.0
100
AcDbLayout
  1
レイアウト1
 70
     1
 71
     1
 10
0.0
 20
0.0
 11
12.0
 21
9.0
 12
0.0
 22
0.0
 32
0.0
 14
0.0
 24
0.0
 34
0.0
 15
0.0
 25
0.0
 35
0.0
146
0.0
 13
0.0
 23
0.0
 33
0.0
 16
1.0
 26
0.0
 36
0.0
 17
0.0
 27
1.0
 37
0.0
 76
     0
330
265C
  0
MATERIAL
  5
181C
102
{ACAD_XDICTIONARY
360
181D
102
}
102
{ACAD_REACTORS
330
1813
102
}
330
1813
100
AcDbMaterial
  1
ByBlock
 72
     0
 43
0.0208333333
 43
0.0
 43
0.0
 43
0.0
 43
0.0
 43
0.0208333333
 43
0.0
 43
0.0
 43
0.0
 43
0.0
 43
1.0
 43
0.0
 43
0.0
 43
0.0
 43
0.0
 43
1.0
 77
     0
 47
0.0208333333
 47
0.0
 47
0.0
 47
0.0
 47
0.0
 47
0.0208333333
 47
0.0
 47
0.0
 47
0.0
 47
0.0
 47
1.0
 47
0.0
 47
0.0
 47
0.0
 47
0.0
 47
1.0
171
     0
 49
0.0208333333
 49
0.0
 49
0.0
 49
0.0
 49
0.0
 49
0.0208333333
 49
0.0
 49
0.0
 49
0.0
 49
0.0
 49
1.0
 49
0.0
 49
0.0
 49
0.0
 49
0.0
 49
1.0
175
     0
142
0.0208333333
142
0.0
142
0.0
142
0.0
142
0.0
142
0.0208333333
142
0.0
142
0.0
142
0.0
142
0.0
142
1.0
142
0.0
142
0.0
142
0.0
142
0.0
142
1.0
179
     0
144
0.0208333333
144
0.0
144
0.0
144
0.0
144
0.0
144
0.0208333333
144
0.0
144
0.0
144
0.0
144
0.0
144
1.0
144
0.0
144
0.0
144
0.0
144
0.0
144
1.0
147
0.0208333333
147
0.0
147
0.0
147
0.0
147
0.0
147
0.0208333333
147
0.0
147
0.0
147
0.0
147
0.0
147
1.0
147
0.0
147
0.0
147
0.0
147
0.0
147
1.0
  0
MATERIAL
  5
1814
102
{ACAD_XDICTIONARY
360
1815
102
}
102
{ACAD_REACTORS
330
1813
102
}
330
1813
100
AcDbMaterial
  1
ByLayer
 72
     0
 43
0.0208333333
 43
0.0
 43
0.0
 43
0.0
 43
0.0
 43
0.0208333333
 43
0.0
 43
0.0
 43
0.0
 43
0.0
 43
1.0
 43
0.0
 43
0.0
 43
0.0
 43
0.0
 43
1.0
 77
     0
 47
0.0208333333
 47
0.0
 47
0.0
 47
0.0
 47
0.0
 47
0.0208333333
 47
0.0
 47
0.0
 47
0.0
 47
0.0
 47
1.0
 47
0.0
 47
0.0
 47
0.0
 47
0.0
 47
1.0
171
     0
 49
0.0208333333
 49
0.0
 49
0.0
 49
0.0
 49
0.0
 49
0.0208333333
 49
0.0
 49
0.0
 49
0.0
 49
0.0
 49
1.0
 49
0.0
 49
0.0
 49
0.0
 49
0.0
 49
1.0
175
     0
142
0.0208333333
142
0.0
142
0.0
142
0.0
142
0.0
142
0.0208333333
142
0.0
142
0.0
142
0.0
142
0.0
142
1.0
142
0.0
142
0.0
142
0.0
142
0.0
142
1.0
179
     0
144
0.0208333333
144
0.0
144
0.0
144
0.0
144
0.0
144
0.0208333333
144
0.0
144
0.0
144
0.0
144
0.0
144
1.0
144
0.0
144
0.0
144
0.0
144
0.0
144
1.0
147
0.0208333333
147
0.0
147
0.0
147
0.0
147
0.0
147
0.0208333333
147
0.0
147
0.0
147
0.0
147
0.0
147
1.0
147
0.0
147
0.0
147
0.0
147
0.0
147
1.0
  0
MATERIAL
  5
1824
102
{ACAD_XDICTIONARY
360
1825
102
}
102
{ACAD_REACTORS
330
1813
102
}
330
1813
100
AcDbMaterial
  1
Global
 72
     0
 43
0.0208333333
 43
0.0
 43
0.0
 43
0.0
 43
0.0
 43
0.0208333333
 43
0.0
 43
0.0
 43
0.0
 43
0.0
 43
1.0
 43
0.0
 43
0.0
 43
0.0
 43
0.0
 43
1.0
 77
     0
 47
0.0208333333
 47
0.0
 47
0.0
 47
0.0
 47
0.0
 47
0.0208333333
 47
0.0
 47
0.0
 47
0.0
 47
0.0
 47
1.0
 47
0.0
 47
0.0
 47
0.0
 47
0.0
 47
1.0
171
     0
 49
0.0208333333
 49
0.0
 49
0.0
 49
0.0
 49
0.0
 49
0.0208333333
 49
0.0
 49
0.0
 49
0.0
 49
0.0
 49
1.0
 49
0.0
 49
0.0
 49
0.0
 49
0.0
 49
1.0
175
     0
142
0.0208333333
142
0.0
142
0.0
142
0.0
142
0.0
142
0.0208333333
142
0.0
142
0.0
142
0.0
142
0.0
142
1.0
142
0.0
142
0.0
142
0.0
142
0.0
142
1.0
179
     0
144
0.0208333333
144
0.0
144
0.0
144
0.0
144
0.0
144
0.0208333333
144
0.0
144
0.0
144
0.0
144
0.0
144
1.0
144
0.0
144
0.0
144
0.0
144
0.0
144
1.0
147
0.0208333333
147
0.0
147
0.0
147
0.0
147
0.0
147
0.0208333333
147
0.0
147
0.0
147
0.0
147
0.0
147
1.0
147
0.0
147
0.0
147
0.0
147
0.0
147
1.0
  0
MLEADERSTYLE
  5
1866
102
{ACAD_REACTORS
330
1865
102
}
330
1865
100
AcDbMLeaderStyle
170
     2
171
     1
172
     0
 90
        2
 40
0.0
 41
0.0
173
     1
 91
-1056964608
340
6A
 92
       -2
290
     1
 42
0.09
291
     1
 43
0.36
  3
Standard
 44
0.18
300

342
16
174
     1
178
     6
175
     1
176
     0
 93
-1056964608
 45
0.18
292
     0
297
     0
 46
0.18
 94
-1056964608
 47
1.0
 49
1.0
140
1.0
293
     1
141
0.0
294
     1
177
     0
142
1.0
295
     0
296
     0
143
0.125
1001
ACAD_MLEADERVER
1070
     2
  0
MLINESTYLE
  5
78
102
{ACAD_REACTORS
330
76
102
}
330
76
100
AcDbMlineStyle
  2
STANDARD
 70
     0
  3

 62
     0
 51
90.0
 52
90.0
 71
     2
 49
0.5
 62
   256
  6
BYLAYER
 49
-0.5
 62
   256
  6
BYLAYER
  0
ACDBPLACEHOLDER
  5
5
102
{ACAD_REACTORS
330
6
102
}
330
6
  0
SCALE
  5
1844
102
{ACAD_REACTORS
330
1843
102
}
330
1843
100
AcDbScale
 70
     0
300
1:1
140
1.0
141
1.0
290
     1
  0
SCALE
  5
1845
102
{ACAD_REACTORS
330
1843
102
}
330
1843
100
AcDbScale
 70
     0
300
1:2
140
1.0
141
2.0
290
     0
  0
SCALE
  5
1846
102
{ACAD_REACTORS
330
1843
102
}
330
1843
100
AcDbScale
 70
     0
300
1:4
140
1.0
141
4.0
290
     0
  0
SCALE
  5
1847
102
{ACAD_REACTORS
330
1843
102
}
330
1843
100
AcDbScale
 70
     0
300
1:5
140
1.0
141
5.0
290
     0
  0
SCALE
  5
1848
102
{ACAD_REACTORS
330
1843
102
}
330
1843
100
AcDbScale
 70
     0
300
1:8
140
1.0
141
8.0
290
     0
  0
SCALE
  5
1849
102
{ACAD_REACTORS
330
1843
102
}
330
1843
100
AcDbScale
 70
     0
300
1:10
140
1.0
141
10.0
290
     0
  0
SCALE
  5
184A
102
{ACAD_REACTORS
330
1843
102
}
330
1843
100
AcDbScale
 70
     0
300
1:16
140
1.0
141
16.0
290
     0
  0
SCALE
  5
184B
102
{ACAD_REACTORS
330
1843
102
}
330
1843
100
AcDbScale
 70
     0
300
1:20
140
1.0
141
20.0
290
     0
  0
SCALE
  5
184C
102
{ACAD_REACTORS
330
1843
102
}
330
1843
100
AcDbScale
 70
     0
300
1:30
140
1.0
141
30.0
290
     0
  0
SCALE
  5
184D
102
{ACAD_REACTORS
330
1843
102
}
330
1843
100
AcDbScale
 70
     0
300
1:40
140
1.0
141
40.0
290
     0
  0
SCALE
  5
184E
102
{ACAD_REACTORS
330
1843
102
}
330
1843
100
AcDbScale
 70
     0
300
1:50
140
1.0
141
50.0
290
     0
  0
SCALE
  5
184F
102
{ACAD_REACTORS
330
1843
102
}
330
1843
100
AcDbScale
 70
     0
300
1:100
140
1.0
141
100.0
290
     0
  0
SCALE
  5
1850
102
{ACAD_REACTORS
330
1843
102
}
330
1843
100
AcDbScale
 70
     0
300
2:1
140
2.0
141
1.0
290
     0
  0
SCALE
  5
1851
102
{ACAD_REACTORS
330
1843
102
}
330
1843
100
AcDbScale
 70
     0
300
4:1
140
4.0
141
1.0
290
     0
  0
SCALE
  5
1852
102
{ACAD_REACTORS
330
1843
102
}
330
1843
100
AcDbScale
 70
     0
300
8:1
140
8.0
141
1.0
290
     0
  0
SCALE
  5
1853
102
{ACAD_REACTORS
330
1843
102
}
330
1843
100
AcDbScale
 70
     0
300
10:1
140
10.0
141
1.0
290
     0
  0
SCALE
  5
1854
102
{ACAD_REACTORS
330
1843
102
}
330
1843
100
AcDbScale
 70
     0
300
100:1
140
100.0
141
1.0
290
     0
  0
SCALE
  5
1855
102
{ACAD_REACTORS
330
1843
102
}
330
1843
100
AcDbScale
 70
     0
300
1/128" = 1'-0"
140
0.0078125
141
12.0
290
     0
  0
SCALE
  5
1856
102
{ACAD_REACTORS
330
1843
102
}
330
1843
100
AcDbScale
 70
     0
300
1/64" = 1'-0"
140
0.015625
141
12.0
290
     0
  0
SCALE
  5
1857
102
{ACAD_REACTORS
330
1843
102
}
330
1843
100
AcDbScale
 70
     0
300
1/32" = 1'-0"
140
0.03125
141
12.0
290
     0
  0
SCALE
  5
1858
102
{ACAD_REACTORS
330
1843
102
}
330
1843
100
AcDbScale
 70
     0
300
1/16" = 1'-0"
140
0.0625
141
12.0
290
     0
  0
SCALE
  5
1859
102
{ACAD_REACTORS
330
1843
102
}
330
1843
100
AcDbScale
 70
     0
300
3/32" = 1'-0"
140
0.09375
141
12.0
290
     0
  0
SCALE
  5
185A
102
{ACAD_REACTORS
330
1843
102
}
330
1843
100
AcDbScale
 70
     0
300
1/8" = 1'-0"
140
0.125
141
12.0
290
     0
  0
SCALE
  5
185B
102
{ACAD_REACTORS
330
1843
102
}
330
1843
100
AcDbScale
 70
     0
300
3/16" = 1'-0"
140
0.1875
141
12.0
290
     0
  0
SCALE
  5
185C
102
{ACAD_REACTORS
330
1843
102
}
330
1843
100
AcDbScale
 70
     0
300
1/4" = 1'-0"
140
0.25
141
12.0
290
     0
  0
SCALE
  5
185D
102
{ACAD_REACTORS
330
1843
102
}
330
1843
100
AcDbScale
 70
     0
300
3/8" = 1'-0"
140
0.375
141
12.0
290
     0
  0
SCALE
  5
185E
102
{ACAD_REACTORS
330
1843
102
}
330
1843
100
AcDbScale
 70
     0
300
1/2" = 1'-0"
140
0.5
141
12.0
290
     0
  0
SCALE
  5
185F
102
{ACAD_REACTORS
330
1843
102
}
330
1843
100
AcDbScale
 70
     0
300
3/4" = 1'-0"
140
0.75
141
12.0
290
     0
  0
SCALE
  5
1860
102
{ACAD_REACTORS
330
1843
102
}
330
1843
100
AcDbScale
 70
     0
300
1" = 1'-0"
140
1.0
141
12.0
290
     0
  0
SCALE
  5
1861
102
{ACAD_REACTORS
330
1843
102
}
330
1843
100
AcDbScale
 70
     0
300
1-1/2" = 1'-0"
140
1.5
141
12.0
290
     0
  0
SCALE
  5
1862
102
{ACAD_REACTORS
330
1843
102
}
330
1843
100
AcDbScale
 70
     0
300
3" = 1'-0"
140
3.0
141
12.0
290
     0
  0
SCALE
  5
1863
102
{ACAD_REACTORS
330
1843
102
}
330
1843
100
AcDbScale
 70
     0
300
6" = 1'-0"
140
6.0
141
12.0
290
     0
  0
SCALE
  5
1864
102
{ACAD_REACTORS
330
1843
102
}
330
1843
100
AcDbScale
 70
     0
300
1'-0" = 1'-0"
140
12.0
141
12.0
290
     0
  0
ACDBSECTIONVIEWSTYLE
  5
21F9
102
{ACAD_XDICTIONARY
360
26AE
102
}
102
{ACAD_REACTORS
330
21F8
102
}
330
21F8
100
AcDbModelDocViewStyle
 70
     0
  3
Imperial24
290
     0
100
AcDbSectionViewStyle
 70
     0
 71
     0
 90
       78
 71
     1
340
16
 40
0.24
340
0
340
0
 40
0.24
300
I, O, Q, S, X, Z
 40
0.48
 90
        3
 40
0.18
 90
        1
 71
     2
340
8
 90
       25
340
8
 90
       50
 40
0.24
 40
0.0
 40
0.24
 71
     3
340
16
 40
0.24
 90
        1
 40
0.75
 90
        1
300
%<\AcVar ViewType \f "%tc1">% %<\AcVar ViewSectionStartId>%-%<\AcVar ViewSectionEndId>%\PSCALE %<\AcVar ViewScale \f "%sn">%
 71
     4
300
ANSI31
 40
1.0
 90
        0
290
     0
290
     0
 90
        6
 40
0.0
 40
1.5707963268
 40
0.2617993878
 40
1.308996939
 40
-0.2617993878
 40
1.8325957146
  0
TABLESTYLE
  5
1842
102
{ACAD_XDICTIONARY
360
1885
102
}
102
{ACAD_REACTORS
330
1841
102
}
330
1841
100
AcDbTableStyle
  3
Standard
 70
     0
 71
     0
 40
0.06
 41
0.06
280
     0
281
     0
  7
STANDARD
140
0.18
170
     2
 62
     0
 63
     7
283
     0
274
    -2
284
     1
 64
     0
275
    -2
285
     1
 65
     0
276
    -2
286
     1
 66
     0
277
    -2
287
     1
 67
     0
278
    -2
288
     1
 68
     0
279
    -2
289
     1
 69
     0
  7
STANDARD
140
0.25
170
     5
 62
     0
 63
     7
283
     0
274
    -2
284
     1
 64
     0
275
    -2
285
     1
 65
     0
276
    -2
286
     1
 66
     0
277
    -2
287
     1
 67
     0
278
    -2
288
     1
 68
     0
279
    -2
289
     1
 69
     0
  7
STANDARD
140
0.18
170
     5
 62
     0
 63
     7
283
     0
274
    -2
284
     1
 64
     0
275
    -2
285
     1
 65
     0
276
    -2
286
     1
 66
     0
277
    -2
287
     1
 67
     0
278
    -2
288
     1
 68
     0
279
    -2
289
     1
 69
     0
  0
VISUALSTYLE
  5
1832
102
{ACAD_XDICTIONARY
360
2673
102
}
102
{ACAD_REACTORS
330
182C
102
}
330
182C
100
AcDbVisualStyle
  2

 70
     4
 71
     0
 72
     2
 73
     0
 90
        0
 40
-0.6
 41
-30.0
 62
     5
 63
     7
 74
     1
 91
        4
 64
     7
 65
   257
 75
     1
175
     1
 42
1.0
 92
        0
 66
   257
 43
1.0
 76
     1
 77
     6
 78
     2
 67
     7
 79
     5
170
     0
171
     0
290
     0
174
     0
 93
        1
 44
0.0
173
     0
291
     0
 45
0.0
1001
ACAD
1000
AcDbSavedByObjectVersion
1070
     0
  0
VISUALSTYLE
  5
1834
102
{ACAD_XDICTIONARY
360
2677
102
}
102
{ACAD_REACTORS
330
182C
102
}
330
182C
100
AcDbVisualStyle
  2

 70
     6
 71
     1
 72
     2
 73
     2
 90
        0
 40
-0.6
 41
-30.0
 62
     5
 63
     7
 74
     2
 91
        2
 64
     7
 65
   257
 75
     2
175
     1
 42
179.0
 92
        0
 66
   257
 43
1.0
 76
     1
 77
     6
 78
     2
 67
     7
 79
     3
170
     0
171
     0
290
     0
174
     0
 93
        1
 44
0.0
173
     0
291
     0
 45
0.0
1001
ACAD
1000
AcDbSavedByObjectVersion
1070
     0
  0
VISUALSTYLE
  5
1833
102
{ACAD_XDICTIONARY
360
2675
102
}
102
{ACAD_REACTORS
330
182C
102
}
330
182C
100
AcDbVisualStyle
  2

 70
     5
 71
     0
 72
     2
 73
     0
 90
        0
 40
-0.6
 41
-30.0
 62
     5
 63
     7
 74
     1
 91
        4
 64
     7
 65
   257
 75
     1
175
     1
 42
1.0
 92
        0
 66
   257
 43
1.0
 76
     1
 77
     6
 78
     2
 67
     7
 79
     5
170
     0
171
     0
290
     0
174
     0
 93
        1
 44
0.0
173
     0
291
     0
 45
0.0
1001
ACAD
1000
AcDbSavedByObjectVersion
1070
     0
  0
VISUALSTYLE
  5
1831
102
{ACAD_XDICTIONARY
360
2671
102
}
102
{ACAD_REACTORS
330
182C
102
}
330
182C
100
AcDbVisualStyle
  2

 70
     7
 71
     1
 72
     0
 73
     1
 90
        0
 40
-0.6
 41
-30.0
 62
     5
 63
     7
 74
     0
 91
        4
 64
     7
 65
   257
 75
     1
175
     1
 42
1.0
 92
        8
 66
     7
 43
1.0
 76
     1
 77
     6
 78
     2
 67
     7
 79
     5
170
     0
171
     0
290
     0
174
     0
 93
        1
 44
0.0
173
     0
291
     1
 45
0.0
1001
ACAD
1000
AcDbSavedByObjectVersion
1070
     0
  0
VISUALSTYLE
  5
1838
102
{ACAD_XDICTIONARY
360
267F
102
}
102
{ACAD_REACTORS
330
182C
102
}
330
182C
100
AcDbVisualStyle
  2

 70
    12
 71
     2
 72
     2
 73
     0
 90
        0
 40
-0.6
 41
-30.0
 62
     5
 63
     7
 74
     1
 91
        4
 64
     7
 65
   257
 75
     1
175
     1
 42
1.0
 92
        8
 66
     7
 43
1.0
 76
     1
 77
     6
 78
     2
 67
     7
 79
     5
170
     0
171
     0
290
     0
174
     0
 93
        1
 44
50.0
173
     0
291
     1
 45
0.0
1001
ACAD
1000
AcDbSavedByObjectVersion
1070
     0
  0
VISUALSTYLE
  5
183C
102
{ACAD_XDICTIONARY
360
2687
102
}
102
{ACAD_REACTORS
330
182C
102
}
330
182C
100
AcDbVisualStyle
  2

 70
    16
 71
     2
 72
     2
 73
     3
 90
        0
 40
-0.6
 41
-30.0
 62
     5
 63
     8
 74
     1
 91
        4
 64
     7
 65
   257
 75
     1
175
     1
 42
1.0
 92
        8
 66
     8
 43
1.0
 76
     1
 77
     6
 78
     2
 67
     7
 79
     5
170
     0
171
     0
290
     0
174
     0
 93
        1
 44
0.0
173
     0
291
     1
 45
0.0
1001
ACAD
1000
AcDbSavedByObjectVersion
1070
     0
  0
VISUALSTYLE
  5
1835
102
{ACAD_XDICTIONARY
360
2679
102
}
102
{ACAD_REACTORS
330
182C
102
}
330
182C
100
AcDbVisualStyle
  2

 70
     9
 71
     3
 72
     2
 73
     0
 90
        0
 40
-0.6
 41
-30.0
 62
     5
 63
     7
 74
     2
 91
        2
 64
     7
 65
   257
 75
     1
175
     1
 42
179.0
 92
        8
 66
     7
 43
1.0
 76
     1
 77
     6
 78
     2
 67
     7
 79
     3
170
     0
171
     0
290
     0
174
     0
 93
        1
 44
0.0
173
     0
291
     0
 45
0.0
1001
ACAD
1000
AcDbSavedByObjectVersion
1070
     0
  0
VISUALSTYLE
  5
1837
102
{ACAD_XDICTIONARY
360
267D
102
}
102
{ACAD_REACTORS
330
182C
102
}
330
182C
100
AcDbVisualStyle
  2

 70
    11
 71
     2
 72
     2
 73
     0
 90
        0
 40
-0.6
 41
-30.0
 62
     5
 63
     7
 74
     1
 91
        4
 64
     7
 65
   257
 75
     1
175
     1
 42
1.0
 92
        8
 66
     7
 43
1.0
 76
     1
 77
     6
 78
     2
 67
     7
 79
     5
170
     0
171
     0
290
     0
174
     0
 93
        1
 44
-50.0
173
     0
291
     1
 45
0.0
1001
ACAD
1000
AcDbSavedByObjectVersion
1070
     0
  0
VISUALSTYLE
  5
183F
102
{ACAD_XDICTIONARY
360
268D
102
}
102
{ACAD_REACTORS
330
182C
102
}
330
182C
100
AcDbVisualStyle
  2

 70
    22
 71
     2
 72
     2
 73
     0
 90
        0
 40
-0.6
 41
-30.0
 62
     5
 63
     7
 74
     1
 91
        4
 64
     7
 65
   257
 75
     1
175
     1
 42
1.0
 92
        8
 66
     7
 43
1.0
 76
     1
 77
     6
 78
     2
 67
     7
 79
     5
170
     0
171
     0
290
     0
174
     0
 93
        1
 44
0.0
173
     0
291
     1
 45
0.0
1001
ACAD
1000
AcDbSavedByObjectVersion
1070
     0
  0
VISUALSTYLE
  5
183B
102
{ACAD_XDICTIONARY
360
2685
102
}
102
{ACAD_REACTORS
330
182C
102
}
330
182C
100
AcDbVisualStyle
  2

 70
    15
 71
     2
 72
     2
 73
     0
 90
        0
 40
-0.6
 41
-30.0
 62
     5
 63
     7
 74
     1
 91
        4
 64
     7
 65
   257
 75
     1
175
     1
 42
1.0
 92
        8
 66
     7
 43
1.0
 76
     1
 77
     6
 78
     2
 67
     7
 79
     5
170
     0
171
     0
290
     0
174
     0
 93
        1
 44
0.0
173
     0
291
     1
 45
0.0
1001
ACAD
1000
AcDbSavedByObjectVersion
1070
     0
  0
VISUALSTYLE
  5
182D
102
{ACAD_XDICTIONARY
360
2669
102
}
102
{ACAD_REACTORS
330
182C
102
}
330
182C
100
AcDbVisualStyle
  2

 70
     0
 71
     2
 72
     1
 73
     1
 90
        2
 40
-0.6
 41
30.0
 62
     5
 63
     7
 74
     0
 91
        4
 64
     7
 65
   257
 75
     1
175
     1
 42
1.0
 92
        8
 66
     7
 43
1.0
 76
     1
 77
     6
 78
     2
 67
     7
 79
     5
170
     0
171
     0
290
     0
174
     0
 93
       13
 44
0.0
173
     0
291
     1
 45
0.0
1001
ACAD
1000
AcDbSavedByObjectVersion
1070
     0
  0
VISUALSTYLE
  5
182E
102
{ACAD_XDICTIONARY
360
266B
102
}
102
{ACAD_REACTORS
330
182C
102
}
330
182C
100
AcDbVisualStyle
  2

 70
     1
 71
     2
 72
     1
 73
     1
 90
        2
 40
-0.6
 41
30.0
 62
     5
 63
     7
 74
     1
 91
        4
 64
     7
 65
   257
 75
     1
175
     1
 42
1.0
 92
        0
 66
   257
 43
1.0
 76
     1
 77
     6
 78
     2
 67
     7
 79
     5
170
     0
171
     0
290
     0
174
     0
 93
       13
 44
0.0
173
     0
291
     1
 45
0.0
1001
ACAD
1000
AcDbSavedByObjectVersion
1070
     0
  0
VISUALSTYLE
  5
182F
102
{ACAD_XDICTIONARY
360
266D
102
}
102
{ACAD_REACTORS
330
182C
102
}
330
182C
100
AcDbVisualStyle
  2

 70
     2
 71
     2
 72
     2
 73
     1
 90
        2
 40
-0.6
 41
30.0
 62
     5
 63
     7
 74
     0
 91
        4
 64
     7
 65
   257
 75
     1
175
     1
 42
1.0
 92
        0
 66
     7
 43
1.0
 76
     1
 77
     6
 78
     2
 67
     7
 79
     5
170
     0
171
     0
290
     0
174
     0
 93
       13
 44
0.0
173
     0
291
     1
 45
0.0
1001
ACAD
1000
AcDbSavedByObjectVersion
1070
     0
  0
VISUALSTYLE
  5
1830
102
{ACAD_XDICTIONARY
360
266F
102
}
102
{ACAD_REACTORS
330
182C
102
}
330
182C
100
AcDbVisualStyle
  2

 70
     3
 71
     2
 72
     2
 73
     1
 90
        2
 40
-0.6
 41
30.0
 62
     5
 63
     7
 74
     1
 91
        4
 64
     7
 65
   257
 75
     1
175
     1
 42
1.0
 92
        0
 66
   257
 43
1.0
 76
     1
 77
     6
 78
     2
 67
     7
 79
     5
170
     0
171
     0
290
     0
174
     0
 93
       13
 44
0.0
173
     0
291
     1
 45
0.0
1001
ACAD
1000
AcDbSavedByObjectVersion
1070
     0
  0
VISUALSTYLE
  5
21F2
102
{ACAD_XDICTIONARY
360
26A2
102
}
102
{ACAD_REACTORS
330
182C
102
}
330
182C
100
AcDbVisualStyle
  2
Hidden
 70
     6
 71
     1
 72
     2
 73
     2
 90
        0
 40
-0.6
 41
-30.0
 62
     5
 63
     7
 74
     2
 91
        2
 64
     7
 65
   257
 75
     2
175
     1
 42
40.0
 92
        0
 66
   257
 43
1.0
 76
     1
 77
     6
 78
     2
 67
     7
 79
     3
170
     0
171
     0
290
     0
174
     0
 93
        1
 44
0.0
173
     0
291
     0
 45
0.0
1001
ACAD
1000
AcDbSavedByObjectVersion
1070
     0
  0
VISUALSTYLE
  5
183D
102
{ACAD_XDICTIONARY
360
2689
102
}
102
{ACAD_REACTORS
330
182C
102
}
330
182C
100
AcDbVisualStyle
  2

 70
    20
 71
     2
 72
     2
 73
     0
 90
        0
 40
-0.6
 41
-30.0
 62
     5
 63
     7
 74
     1
 91
        4
 64
     7
 65
   257
 75
     1
175
     1
 42
1.0
 92
       10
 66
     7
 43
1.0
 76
     1
 77
     6
 78
     2
 67
     7
 79
     5
170
     0
171
     0
290
     0
174
     0
 93
        1
 44
0.0
173
     0
291
     1
 45
0.0
1001
ACAD
1000
AcDbSavedByObjectVersion
1070
     0
  0
VISUALSTYLE
  5
183A
102
{ACAD_XDICTIONARY
360
2683
102
}
102
{ACAD_REACTORS
330
182C
102
}
330
182C
100
AcDbVisualStyle
  2

 70
    14
 71
     2
 72
     2
 73
     0
 90
        0
 40
-0.6
 41
-30.0
 62
     5
 63
     7
 74
     1
 91
        4
 64
     7
 65
   257
 75
     7
175
     7
 42
1.0
 92
        8
 66
     7
 43
1.0
 76
     1
 77
     6
 78
     2
 67
     7
 79
     5
170
     0
171
     0
290
     0
174
     0
 93
        1
 44
0.0
173
     0
291
     1
 45
0.0
1001
ACAD
1000
AcDbSavedByObjectVersion
1070
     0
  0
VISUALSTYLE
  5
183E
102
{ACAD_XDICTIONARY
360
268B
102
}
102
{ACAD_REACTORS
330
182C
102
}
330
182C
100
AcDbVisualStyle
  2

 70
    21
 71
     2
 72
     2
 73
     0
 90
        0
 40
-0.6
 41
-30.0
 62
     5
 63
     7
 74
     1
 91
        4
 64
     7
 65
   257
 75
     1
175
     1
 42
1.0
 92
        9
 66
     7
 43
1.0
 76
     1
 77
     6
 78
     2
 67
     7
 79
     5
170
     0
171
     0
290
     0
174
     0
 93
        1
 44
0.0
173
     0
291
     1
 45
0.0
1001
ACAD
1000
AcDbSavedByObjectVersion
1070
     0
  0
VISUALSTYLE
  5
1836
102
{ACAD_XDICTIONARY
360
267B
102
}
102
{ACAD_REACTORS
330
182C
102
}
330
182C
100
AcDbVisualStyle
  2

 70
     8
 71
     2
 72
     2
 73
     0
 90
        0
 40
-0.6
 41
-30.0
 62
     5
 63
     7
 74
     1
 91
        0
 64
     7
 65
   257
 75
     1
175
     1
 42
1.0
 92
        8
 66
     8
 43
1.0
 76
     1
 77
     6
 78
     2
 67
     7
 79
     5
170
     0
171
     0
290
     0
174
     0
 93
       13
 44
0.0
173
     0
291
     0
 45
0.0
1001
ACAD
1000
AcDbSavedByObjectVersion
1070
     0
  0
VISUALSTYLE
  5
21F7
102
{ACAD_XDICTIONARY
360
26AC
102
}
102
{ACAD_REACTORS
330
182C
102
}
330
182C
100
AcDbVisualStyle
  2
Shaded
 70
    27
 71
     2
 72
     2
 73
     1
 90
        2
 40
-0.6
 41
30.0
 62
     5
 63
     7
 74
     0
 91
        4
 64
     7
 65
   257
 75
     1
175
     1
 42
1.0
 92
        8
 66
   257
 43
1.0
 76
     1
 77
     6
 78
     2
 67
     8
 79
     3
170
     0
171
     0
290
     0
174
     0
 93
        5
 44
0.0
173
     0
291
     0
 45
0.0
1001
ACAD
1000
AcDbSavedByObjectVersion
1070
     0
  0
VISUALSTYLE
  5
21F6
102
{ACAD_XDICTIONARY
360
26AA
102
}
102
{ACAD_REACTORS
330
182C
102
}
330
182C
100
AcDbVisualStyle
  2
Shaded with edges
 70
    26
 71
     2
 72
     2
 73
     1
 90
        2
 40
-0.6
 41
30.0
 62
     5
 63
     7
 74
     1
 91
        2
 64
     7
 65
   257
 75
     2
175
     1
 42
1.0
 92
        8
 66
   257
 43
1.0
 76
     1
 77
     6
 78
     2
 67
     7
 79
     3
170
     0
171
     0
290
     0
174
     0
 93
        5
 44
0.0
173
     0
291
     0
 45
0.0
1001
ACAD
1000
AcDbSavedByObjectVersion
1070
     0
  0
VISUALSTYLE
  5
21F3
102
{ACAD_XDICTIONARY
360
26A4
102
}
102
{ACAD_REACTORS
330
182C
102
}
330
182C
100
AcDbVisualStyle
  2
Shades of Gray
 70
    23
 71
     2
 72
     2
 73
     3
 90
        0
 40
-0.6
 41
-30.0
 62
     5
 63
     7
 74
     2
 91
        2
 64
     7
 65
     7
 75
     1
175
     1
 42
40.0
 92
        8
 66
     7
 43
1.0
 76
     1
 77
     6
 78
     2
 67
     7
 79
     3
170
     0
171
     0
290
     0
174
     0
 93
        1
 44
0.0
173
     0
291
     0
 45
0.0
1001
ACAD
1000
AcDbSavedByObjectVersion
1070
     0
  0
VISUALSTYLE
  5
21F4
102
{ACAD_XDICTIONARY
360
26A6
102
}
102
{ACAD_REACTORS
330
182C
102
}
330
182C
100
AcDbVisualStyle
  2
Sketchy
 70
    24
 71
     1
 72
     2
 73
     2
 90
        0
 40
-0.6
 41
-30.0
 62
     5
 63
     7
 74
     2
 91
        2
 64
     7
 65
     7
 75
     1
175
     1
 42
40.0
 92
       11
 66
     7
 43
1.0
 76
     1
 77
     6
 78
     2
 67
     7
 79
     6
170
     0
171
     0
290
     0
174
     0
 93
        1
 44
0.0
173
     0
291
     0
 45
0.0
1001
ACAD
1000
AcDbSavedByObjectVersion
1070
     0
  0
VISUALSTYLE
  5
1839
102
{ACAD_XDICTIONARY
360
2681
102
}
102
{ACAD_REACTORS
330
182C
102
}
330
182C
100
AcDbVisualStyle
  2

 70
    13
 71
     2
 72
     2
 73
     0
 90
        0
 40
-0.6
 41
-30.0
 62
     5
 63
     7
 74
     1
 91
        4
 64
     7
 65
   257
 75
     1
175
     1
 42
1.0
 92
       12
 66
     7
 43
1.0
 76
     1
 77
     6
 78
     2
 67
     7
 79
     5
170
     0
171
     0
290
     0
174
     0
 93
        1
 44
0.0
173
     0
291
     1
 45
0.0
1001
ACAD
1000
AcDbSavedByObjectVersion
1070
     0
  0
VISUALSTYLE
  5
21F1
102
{ACAD_XDICTIONARY
360
26A0
102
}
102
{ACAD_REACTORS
330
182C
102
}
330
182C
100
AcDbVisualStyle
  2
Wireframe
 70
     5
 71
     0
 72
     2
 73
     0
 90
        0
 40
-0.6
 41
-30.0
 62
     5
 63
     7
 74
     1
 91
        4
 64
     7
 65
   257
 75
     1
175
     1
 42
1.0
 92
        0
 66
   257
 43
1.0
 76
     1
 77
     6
 78
     2
 67
     7
 79
     3
170
     0
171
     0
290
     0
174
     0
 93
        1
 44
0.0
173
     0
291
     0
 45
0.0
1001
ACAD
1000
AcDbSavedByObjectVersion
1070
     0
  0
VISUALSTYLE
  5
21F5
102
{ACAD_XDICTIONARY
360
26A8
102
}
102
{ACAD_REACTORS
330
182C
102
}
330
182C
100
AcDbVisualStyle
  2
X-Ray
 70
    25
 71
     2
 72
     2
 73
     1
 90
        1
 40
0.5
 41
-30.0
 62
     5
 63
     7
 74
     1
 91
        0
 64
     7
 65
   257
 75
     1
175
     1
 42
1.0
 92
        8
 66
     7
 43
1.0
 76
     1
 77
     6
 78
     2
 67
     7
 79
     3
170
     0
171
     0
290
     0
174
     0
 93
       13
 44
0.0
173
     0
291
     0
 45
0.0
1001
ACAD
1000
AcDbSavedByObjectVersion
1070
     0
  0
DICTIONARYVAR
  5
18D4
102
{ACAD_REACTORS
330
102
102
}
330
102
100
DictionaryVariables
280
     0
  1
1:1
  0
DICTIONARYVAR
  5
18D3
102
{ACAD_REACTORS
330
102
102
}
330
102
100
DictionaryVariables
280
     0
  1
STANDARD
  0
DICTIONARYVAR
  5
18D2
102
{ACAD_REACTORS
330
102
102
}
330
102
100
DictionaryVariables
280
     0
  1
STANDARD
  0
DICTIONARYVAR
  5
2200
102
{ACAD_REACTORS
330
102
102
}
330
102
100
DictionaryVariables
280
     0
  1
Imperial24
  0
DICTIONARYVAR
  5
2201
102
{ACAD_REACTORS
330
102
102
}
330
102
100
DictionaryVariables
280
     0
  1
Imperial24
  0
DICTIONARYVAR
  5
103
102
{ACAD_REACTORS
330
102
102
}
330
102
100
DictionaryVariables
280
     0
  1
1
  0
DICTIONARYVAR
  5
18D6
102
{ACAD_REACTORS
330
102
102
}
330
102
100
DictionaryVariables
280
     0
  1
0
  0
DICTIONARYVAR
  5
2204
102
{ACAD_REACTORS
330
102
102
}
330
102
100
DictionaryVariables
280
     0
  1
1
  0
DICTIONARYVAR
  5
2205
102
{ACAD_REACTORS
330
102
102
}
330
102
100
DictionaryVariables
280
     0
  1
15
  0
DICTIONARYVAR
  5
2203
102
{ACAD_REACTORS
330
102
102
}
330
102
100
DictionaryVariables
280
     0
  1
0
  0
DICTIONARYVAR
  5
2202
102
{ACAD_REACTORS
330
102
102
}
330
102
100
DictionaryVariables
280
     0
  1
0
  0
DICTIONARYVAR
  5
18D5
102
{ACAD_REACTORS
330
102
102
}
330
102
100
DictionaryVariables
280
     0
  1
127
  0
DICTIONARYVAR
  5
2661
102
{ACAD_REACTORS
330
102
102
}
330
102
100
DictionaryVariables
280
     0
  1
2
  0
DICTIONARY
  5
26B0
330
21FB
100
AcDbDictionary
280
     1
281
     1
  3
ACAD_XREC_ROUNDTRIP
360
26B1
  0
DICTIONARY
  5
18F0
330
60
100
AcDbDictionary
280
     1
281
     1
  3
ACAD_XREC_ROUNDTRIP
360
2665
  3
ADSK_XREC_LAYOUTTHUMBNAIL
360
22E2
  0
DICTIONARY
  5
26BA
330
265D
100
AcDbDictionary
280
     1
281
     1
  3
ACAD_XREC_ROUNDTRIP
360
26BB
  0
DICTIONARY
  5
181D
330
181C
100
AcDbDictionary
280
     1
281
     1
  3
ACAD_XREC_ROUNDTRIP
360
2667
  3
BUMPTILE
360
181F
  3
DIFFUSETILE
360
181E
  3
OPACITYTILE
360
1822
  3
REFLECTIONTILE
360
1821
  3
REFRACTIONTILE
360
1823
  3
SPECULARTILE
360
1820
  0
DICTIONARY
  5
1815
330
1814
100
AcDbDictionary
280
     1
281
     1
  3
ACAD_XREC_ROUNDTRIP
360
2666
  3
BUMPTILE
360
1817
  3
DIFFUSETILE
360
1816
  3
OPACITYTILE
360
181A
  3
REFLECTIONTILE
360
1819
  3
REFRACTIONTILE
360
181B
  3
SPECULARTILE
360
1818
  0
DICTIONARY
  5
1825
330
1824
100
AcDbDictionary
280
     1
281
     1
  3
ACAD_XREC_ROUNDTRIP
360
2668
  3
BUMPTILE
360
1827
  3
DIFFUSETILE
360
1826
  3
OPACITYTILE
360
182A
  3
REFLECTIONTILE
360
1829
  3
REFRACTIONTILE
360
182B
  3
SPECULARTILE
360
1828
  0
DICTIONARY
  5
26AE
330
21F9
100
AcDbDictionary
280
     1
281
     1
  3
ACAD_XREC_ROUNDTRIP
360
26AF
  0
DICTIONARY
  5
1885
330
1842
100
AcDbDictionary
280
     1
281
     1
  3
ACAD_ROUNDTRIP_2008_TABLESTYLE_CELLSTYLEMAP
360
2662
  3
ACAD_XREC_ROUNDTRIP
360
268F
  0
DICTIONARY
  5
2673
330
1832
100
AcDbDictionary
280
     1
281
     1
  3
ACAD_XREC_ROUNDTRIP
360
2674
  0
DICTIONARY
  5
2677
330
1834
100
AcDbDictionary
280
     1
281
     1
  3
ACAD_XREC_ROUNDTRIP
360
2678
  0
DICTIONARY
  5
2675
330
1833
100
AcDbDictionary
280
     1
281
     1
  3
ACAD_XREC_ROUNDTRIP
360
2676
  0
DICTIONARY
  5
2671
330
1831
100
AcDbDictionary
280
     1
281
     1
  3
ACAD_XREC_ROUNDTRIP
360
2672
  0
DICTIONARY
  5
267F
330
1838
100
AcDbDictionary
280
     1
281
     1
  3
ACAD_XREC_ROUNDTRIP
360
2680
  0
DICTIONARY
  5
2687
330
183C
100
AcDbDictionary
280
     1
281
     1
  3
ACAD_XREC_ROUNDTRIP
360
2688
  0
DICTIONARY
  5
2679
330
1835
100
AcDbDictionary
280
     1
281
     1
  3
ACAD_XREC_ROUNDTRIP
360
267A
  0
DICTIONARY
  5
267D
330
1837
100
AcDbDictionary
280
     1
281
     1
  3
ACAD_XREC_ROUNDTRIP
360
267E
  0
DICTIONARY
  5
268D
330
183F
100
AcDbDictionary
280
     1
281
     1
  3
ACAD_XREC_ROUNDTRIP
360
268E
  0
DICTIONARY
  5
2685
330
183B
100
AcDbDictionary
280
     1
281
     1
  3
ACAD_XREC_ROUNDTRIP
360
2686
  0
DICTIONARY
  5
2669
330
182D
100
AcDbDictionary
280
     1
281
     1
  3
ACAD_XREC_ROUNDTRIP
360
266A
  0
DICTIONARY
  5
266B
330
182E
100
AcDbDictionary
280
     1
281
     1
  3
ACAD_XREC_ROUNDTRIP
360
266C
  0
DICTIONARY
  5
266D
330
182F
100
AcDbDictionary
280
     1
281
     1
  3
ACAD_XREC_ROUNDTRIP
360
266E
  0
DICTIONARY
  5
266F
330
1830
100
AcDbDictionary
280
     1
281
     1
  3
ACAD_XREC_ROUNDTRIP
360
2670
  0
DICTIONARY
  5
26A2
330
21F2
100
AcDbDictionary
280
     1
281
     1
  3
ACAD_XREC_ROUNDTRIP
360
26A3
  0
DICTIONARY
  5
2689
330
183D
100
AcDbDictionary
280
     1
281
     1
  3
ACAD_XREC_ROUNDTRIP
360
268A
  0
DICTIONARY
  5
2683
330
183A
100
AcDbDictionary
280
     1
281
     1
  3
ACAD_XREC_ROUNDTRIP
360
2684
  0
DICTIONARY
  5
268B
330
183E
100
AcDbDictionary
280
     1
281
     1
  3
ACAD_XREC_ROUNDTRIP
360
268C
  0
DICTIONARY
  5
267B
330
1836
100
AcDbDictionary
280
     1
281
     1
  3
ACAD_XREC_ROUNDTRIP
360
267C
  0
DICTIONARY
  5
26AC
330
21F7
100
AcDbDictionary
280
     1
281
     1
  3
ACAD_XREC_ROUNDTRIP
360
26AD
  0
DICTIONARY
  5
26AA
330
21F6
100
AcDbDictionary
280
     1
281
     1
  3
ACAD_XREC_ROUNDTRIP
360
26AB
  0
DICTIONARY
  5
26A4
330
21F3
100
AcDbDictionary
280
     1
281
     1
  3
ACAD_XREC_ROUNDTRIP
360
26A5
  0
DICTIONARY
  5
26A6
330
21F4
100
AcDbDictionary
280
     1
281
     1
  3
ACAD_XREC_ROUNDTRIP
360
26A7
  0
DICTIONARY
  5
2681
330
1839
100
AcDbDictionary
280
     1
281
     1
  3
ACAD_XREC_ROUNDTRIP
360
2682
  0
DICTIONARY
  5
26A0
330
21F1
100
AcDbDictionary
280
     1
281
     1
  3
ACAD_XREC_ROUNDTRIP
360
26A1
  0
DICTIONARY
  5
26A8
330
21F5
100
AcDbDictionary
280
     1
281
     1
  3
ACAD_XREC_ROUNDTRIP
360
26A9
  0
XRECORD
  5
26B1
102
{ACAD_REACTORS
330
26B0
102
}
330
26B0
100
AcDbXrecord
280
     1
102
DISPLAYNAME
  1
Imperial24
102
FLAGS
 90
        0
  0
XRECORD
  5
2665
102
{ACAD_REACTORS
330
18F0
102
}
330
18F0
100
AcDbXrecord
280
     1
102
SHADEPLOT
 70
     0
102
SHADEPLOTRESLEVEL
 70
     2
102
SHADEPLOTCUSTOMDPI
 70
   300
  0
XRECORD
  5
22E2
102
{ACAD_REACTORS
330
18F0
102
}
330
18F0
100
AcDbXrecord
280
     1
310
2800000000010000840000000100080000000000008400000100000001000000000100000000000000000000FFFFFF00000000FF000000FF000000FF000000FF000000FF000000FF000000FF000000FF000000FF330000FF660000FF990000FFCC0000FFFF0000FF003300FF333300FF663300FF993300FFCC3300FFFF3300
310
FF006600FF336600FF666600FF996600FFCC6600FFFF6600FF009900FF339900FF669900FF999900FFCC9900FFFF9900FF00CC00FF33CC00FF66CC00FF99CC00FFCCCC00FFFFCC00FF00FF00FF33FF00FF66FF00FF99FF00FFCCFF00FFFFFF00FF000033FF330033FF660033FF990033FFCC0033FFFF0033FF003333FF3333
310
33FF663333FF993333FFCC3333FFFF3333FF006633FF336633FF666633FF996633FFCC6633FFFF6633FF009933FF339933FF669933FF999933FFCC9933FFFF9933FF00CC33FF33CC33FF66CC33FF99CC33FFCCCC33FFFFCC33FF00FF33FF33FF33FF66FF33FF99FF33FFCCFF33FFFFFF33FF000066FF330066FF660066FF99
310
0066FFCC0066FFFF0066FF003366FF333366FF663366FF993366FFCC3366FFFF3366FF006666FF336666FF666666FF996666FFCC6666FFFF6666FF009966FF339966FF669966FF999966FFCC9966FFFF9966FF00CC66FF33CC66FF66CC66FF99CC66FFCCCC66FFFFCC66FF00FF66FF33FF66FF66FF66FF99FF66FFCCFF66FF
310
FFFF66FF000099FF330099FF660099FF990099FFCC0099FFFF0099FF003399FF333399FF663399FF993399FFCC3399FFFF3399FF006699FF336699FF666699FF996699FFCC6699FFFF6699FF009999FF339999FF669999FF999999FFCC9999FFFF9999FF00CC99FF33CC99FF66CC99FF99CC99FFCCCC99FFFFCC99FF00FF99
310
FF33FF99FF66FF99FF99FF99FFCCFF99FFFFFF99FF0000CCFF3300CCFF6600CCFF9900CCFFCC00CCFFFF00CCFF0033CCFF3333CCFF6633CCFF9933CCFFCC33CCFFFF33CCFF0066CCFF3366CCFF6666CCFF9966CCFFCC66CCFFFF66CCFF0099CCFF3399CCFF6699CCFF9999CCFFCC99CCFFFF99CCFF00CCCCFF33CCCCFF66CC
310
CCFF99CCCCFFCCCCCCFFFFCCCCFF00FFCCFF33FFCCFF66FFCCFF99FFCCFFCCFFCCFFFFFFCCFF0000FFFF3300FFFF6600FFFF9900FFFFCC00FFFFFF00FFFF0033FFFF3333FFFF6633FFFF9933FFFFCC33FFFFFF33FFFF0066FFFF3366FFFF6666FFFF9966FFFFCC66FFFFFF66FFFF0099FFFF3399FFFF6699FFFF9999FFFFCC
310
99FFFFFF99FFFF00CCFFFF33CCFFFF66CCFFFF99CCFFFFCCCCFFFFFFCCFFFF00FFFFFF33FFFFFF66FFFFFF99FFFFFFCCFFFFFFFFFFFFFF000000FF0D0D0DFF1A1A1AFF282828FF353535FF434343FF505050FF5D5D5DFF6B6B6BFF787878FF868686FF939393FFA1A1A1FFAEAEAEFFBBBBBBFFC9C9C9FFD6D6D6FFE4E4E4FF
310
F1F1F1FFFFFFFFFF000000FF000000FF000000FF000000FF000000FF000000FF000000FF000000FF000000FF000000FF00000000000000000000000000000000000000000000000000000000000000000000000000000000000000000000000000000000000000000000000000000000000000000000000000000000000000
310
00000000000000000000000000000000000000000000000000000000000000000000000000000000000000000000000000000000000000000000000000000000000000000000000000000000000000000000000000000000000000000000000000000000000000000000000000000000000000000000000000000000000000
310
00000000000000000000000000000000000000000000000000000000000000000000000000000000000000000000000000000000000000000000000000000000000000000000000000000000000000000000000000000000000000000000000000000000000000000000000000000000000000000000000000000000000000
310
00000000000000000000000000000000000000000000000000000000000000000000000000000000000000000000000000000000000000000000000000000000000000000000000000000000000000000000000000000000000000000000000000000000000000000000000000000000000000000000000000000000000000
310
0000000000000000000000000000000000000000000000000000000000000000000000000000000000000000000000000000000000000000000000000000000000000000000000000000000000000000000000000000000000000000000000000000000000000000000000002D2D0000000000000000000000000000000000
310
0000000000000000000000002D002D00000000000000000000000000000000002D002D00000000000000000000000000000000000000000000000000000000002D2D00000000000000000000000000000000000000000000000000000000000000000000000000000000000000000000000000000000000000000000000000
310
00000000000000000000000000000000000000000000000000000000000000000000000000000000000000000000000000000000000000000000000000000000000000000000000000000000000000000000000000000000000000000000000000000000000000000000000000002D2D2D2D2D2D2D2D2D2D2D2D2D2D2D2D2D
310
2D2D2D2D2D2D2D2D2D2D2D2D2D2D2D2D2D00000000000000000000000000000000002D2D2D2D2D2D2D2D2D2D2D2D2D2D2D2D2D2D2D2D2D2D2D2D2D2D2D2D2D2D2D2D2D2D0000000000000000000000000000000000000000000000000000000000000000000000000000000000000000000000000000000000000000000000
310
000000000000000000000000000000000000000000000000000000000000000000000000000000000000000000000000000000000000000000000000000000000000000000000000000000000000000000000000000000000000000000000000000000000000000000000000000000002D0000000000000000000000000000
310
2D2D2D2D00000000000000000000000000002D00000000000000000000000000000000002D00000000000000000000000000002D2D2D2D00000000000000000000000000002D000000000000000000000000000000000000000000000000000000000000000000000000000000000000000000000000000000000000000000
310
0000000000000000000000000000000000000000000000000000000000000000000000000000000000000000000000000000000000000000000000000000000000000000000000000000000000000000000000000000000000000000000000000000000000000000000000000000000000002D000000000000000000000000
310
00000000000000000000000000000000000000002D00000000000000000000000000000000002D00000000000000000000000000000000000000000000000000000000000000002D00000000000000000000000000000000000000000000000000000000000000000000000000000000000000000000000000000000000000
310
00000000000000000000000000000000000000000000000000000000000000000000000000000000000000000000000000000000000000000000000000000000000000000000000000000000000000000000000000000000000000000000000000000000000000000000000000000000000000002D000000002D0000000000
310
000000000000000000000000000000002D00000000002D002D2D2D2D2D2D2D2D00000000000000002D0000002D000000000000000000000000000000000000000000000000002D00002D0000000000000000002D00000000000000000000000000000000000000000000000000000000000000000000000000000000000000
310
000000000000000000000000000000000000000000000000000000000000000000000000000000000000000000000000000000000000000000000000000000000000000000000000000000000000000000000000000000000000000000000000000000000000000000000000000000000000000000002D000000002D2D2D2D
310
2D2D2D2D2D2D2D2D2D2D2D2D2D2D2D2D2D2D2D00000000002D2D002D2D2D2D2D2D2D00000000000000002D0000002D2D2D2D2D2D2D2D2D2D2D2D2D2D2D2D2D2D2D2D2D2D2D2D2D2D2D2D2D2D2D2D2D2D2D2D2D2D2D2D0000000000000000000000000000000000000000000000000000000000000000000000000000000000
310
0000000000000000000000000000000000000000000000000000000000000000000000000000000000000000000000000000000000000000000000000000000000000000000000000000000000000000000000000000000000000000000000000000000000000000000000000000000000000000000000002D000000002D00
310
00000000000000002D2D2D2D00000000000000002D00000000002D00002D0000002D2D2D00000000000000002D0000002D00000000000000000000002D2D2D00000000000000000000002D00002D002D2D2D00000000002D000000000000000000000000000000000000000000000000000000000000000000000000000000
310
00000000000000000000000000000000000000000000000000000000000000000000000000000000000000000000000000000000000000000000000000000000000000000000000000000000000000000000000000000000000000000000000000000000000000000000000000000000000000000000000000002D00000000
310
2D0000000000000000002D2D2D2D00000000000000002D0000002D2D2D00000000000000000000000000000000002D0000002D000000000000000000002D2D2D2D00000000000000000000002D00002D002D2D2D00000000002D00000000000000000000000000000000000000000000000000000000000000000000000000
310
000000000000000000000000000000000000000000000000000000000000000000000000000000000000000000000000000000000000000000000000000000000000000000000000000000000000000000000000000000000000000000000000000000000000000000000000000000000000000000000000000000002D0000
310
00002D0000000000000000000028000000000000000000002D00002D00002D00000000000000000000000000000000002D0000002D000000000000000000000000280000000000000000000000002D00002D0000000000000000002D0000000000000000000000000000000000000000000000000000000000000000000000
310
0000280000000000000000000000000000000000000000000000000000000000000000000000000000000000000000000000000000000000000000000000000000000000000000000000000000000000000000000000000000000000000000000000000000000000000000000000000000000000000000000000000000002D
310
000000002D0000000000000000000028000000000000000000002D002D0000002D00000000000000000000000000000000002D0000002D000000000000000000000000280000000000000000000000002D00002D00000000002D0000002D000000000000000000000000000000000000000000000000000000000000000000
310
000000002800000000000000000000000000000000000000000000000000000000000000000000000000000000000000000000000000000000000000000000000000000000000000000000000000000000000000000000000000000000000000002D2D2D2D2D2D2D2D2D2D2D2D2D2D2D2D2D2D2D2D2D2D0000000000000000
310
002D000000002D0000000000000000000028000000000000000000002D2D000000002D00000000000000000000000000000000002D0000002D000000000000000000000000280000000000000000000000002D00002D00000000002D0000002D00000000000000000000000000000000000000000000000000002800000000
310
0000000000002800000000000000000000280000000000000000000000000000000000000000000000000000000000000000000000000000000000000000000000000000000000000000000000000000000000000000000000000000000000000000002D2D2D2D2D2D2D2D2D2D2D2D2D2D2D2D2D2D2D2D2D00000000000000
310
0000002DF5F5F5BE28F5BEF5F5F5F5F5F5F5F528F5F5F5F5F5F5F5F5F5BE2DF5BEF5F5F52D2D2D2D2D2D2D2D000000000000000000002DF5F5BE28BEF5F5F5F5F5F5F5F5F5F5F5F5F5F5F5F5F5F5F5F5F5F5BEF528BEF52D2D2D2D2D2D2D2D2D2D2D2D2D2D2D2D2D2D2D2D2D0000000000000000000000F5F5F5F5BE28BEF5
310
F5F5F5F5F5F5F5F528F5F5F5F5F5F5F5F5F5BE28BEF5F5F5F5F500000000000000000000000000000000000000000000000000000000000000000000000000000000000000000000000000000000000000000000000000000000000000000000000000002D00002D00000000000000002D2D2D2D002D2D2D2D2D0000000000
310
0000000000F500F500BE2800BE000000000000000028000000000000000000BE2800BEF50000F500000000002D0000000000000000000000F50000BE28BE00F5000000000000000000280000000000000000F500BE0028BE00F50000002D2D2D0000002D00000000000000002D000000000000000000000000F500F500BE28
310
BE00000000000000000028000000000000000000BE28BE00F50000F500000000000000000000000000000000000000000000000000000000000000000000000000000000000000000000000000000000000000000000000000000000000000000000000000002D000000000000000000000000000000000000000000000000
310
00000000000000F500F500BE2800BE000000000000000028000000000000000000BE2800BEF50000F500000000002D0000000000000000000000F5F500BE28BE00F5000000000000000000280000000000000000F500BE0028BE00F50000002D2D2D0000002D00000000000000002D000000000000000000000000F500F500
310
BE28BE00000000000000000028000000000000000000BE28BE00F50000F500000000000000000000000000000000000000000000000000000000000000000000000000000000000000000000000000000000000000000000000000000000000000000000000000002D00000000000000000000000000000000000000000000
310
000000000000000000F500F500BE2800BE0000F50000000000280000000000F5000000BE2800BEF50000F500000000002D00000000000000000000002D00F5BE28BE00F5000000000000000000280000000000000000F500BE0028BEF5F5F500002D2D2D0000002D00000000000000002D000000000000000000000000F500
310
F500BE28BE000000F50000000000280000000000F5000000BE28BE00F50000F5000000000000000000000000000000000000000000000000000000000000000000000000000000000000000000000000000000000000000000000000000000000000000000000000002D000000000000000000000000000000000000000000
310
0000000000000000000000F5F5F5F5BE28F5BEF5F5F5F5F5F5F5F528F5F5F5F5F5F5F5F5F5BE28F5BEF5F5F5F500000000002D00000000000000000000002DF5F5BE28BEF5F5000000000000000000280000000000000000F5F5F5F5F5F5F52D2D2D2D2D2D2D0000002D00000000000000002D000000000000000000000000
310
F5F5F5F5BE28BEF5F5F5F5F5F5F5F5F528F5F5F5F5F5F5F5F5F5BE28BEF5F5F5F5F5000000000000000000000000000000000000000000000000000000000000000000000000000000000000000000000000000000000000000000000000000000000000000000000000002D00000000000000000000000000000000000000
310
00000000000000000000000000F500000000280000F500F5F5F5F5F5F528F5F5F5F5F5F5F500F500280000000000F500000000002D00000000000000000000002D00000028F5F5F5F50000000000000000280000000000000000F5F5F5F5F500000000000000002D0000002D00000000000000002D00000000000000000000
310
0000F5000000002800F500F5F5F5F5F5F5F5F5F5F5F5F5F5F5F500F500280000000000F5000000000000000000000000000000000000000000000000000000000000000000000000000000000000000000000000000000000000000000000000000000000000000000000000002D0000000000000000000000000000000000
310
0000000000000000000000000000F5F50000000000000000F50000000000002800000000000000F50000000000000000F500000000002D00000000000000000000002D0000000000F5F5000000000000000000280000000000000000F5F500000000000000000000002D0000002D00000000000000002D0000000000000000
310
00000000F500000000000000F50000F5F5F5F5F528F5F5F5F5F50000F50000000000000000F5000000000000000000000000000000000000000000000000000000000000000000000000000000000000000000000000000000000000000000000000000000000000000000000000002D000000000000000000000000000000
310
000000F50000000000F50000F5F5F5F5F5F50000000000000000000000000000000000000000000000000000000000000000F500000000002D00000000000000000000002D000000000000F5000000000000000000000000000000000000F5000000000000000000000000000000002D00000000000000002D000000000000
310
000000000000F500000000000000F5F5F50000000000000000000000F5F50000000000000000F5F5F5F5F5F50000F5000000000000F500000000000000000000000000000000000000000000000000000000000000000000000000002D2D2D2D2D2D2D2D2DF5F5F5F5F5F5F5F5F5F5F52DF5F5F5F5F5F5F5F5F5F5F5F5F5F5
310
F5F5F5F5F5F5F5F5F5F5F5F5F5F5F5F5F500F5F50000000000000000000000000000002800000000000000000000000000000000F500000000002D00000000000000000000002D000000000000F5F50000000000000000280000000000000000F5000000000000000000000000000000002D00000000000000002D00000000
310
0000000000000000F50000000000F5F500000000000000002800000000000000F5F5F5000000000000F500F5F5F5F5F5F5F5F5F5F5F5F5F5F5F5F5F5F5F5F5F5F5F5F5F5F5F5F5F5F5F5F5F5F5F5F5F5F5F5F5F5F5F5F5000000000000002D2D0000000000F50000000000000000F5F500002D000000000000000000000000
310
000000000000F5F5F500000000F50000F5F5F50000F50000000000000000000000000000002800000000000000000000000000000000F500000000002D00000000000000000000002D000000000000F500F5000000000000002800000000000000F5F5F50000000000000000000000000000002D00000000000000002D0000
310
00000000000000000000F5000000F5F5000000000000000000002800000000000000000000F5F500000000F500F5F5F50000F500000000F500F5000000000000000000000000000000000000000000F500F500000000000000F5F500000000002D000000000000F50000000000000000F5F5F5F52DF5F5F5F5F5F5F5F5F5F5
310
F5F5F5F5F5F5F5F5F500F500000000F5F5000000F50000F500000000000000000000F5F5F5F5F528F5F5F5F5F5F500000000000000000000F500000000002D00000000000000000000002D0000000000F5F5F50000000000000000280000000000000000F5F5F500000000000000000000000000002D00000000000000002D
310
000000000000000000000000F5000000F5000000000000F5F5F5F5F5F5F5F5F5F5F5F50000000000F500000000F500F500000000F500000000F500F5F5F5F5F5F5F5F5F5F5F5F5F5F5F5F5F5F5F5F5F5F5F5F5F50000000000000000F500000000002D000000000000F50000000000000000F5F5002D000000000000000000
310
00000000000000000000F500F500000000F500F5F500F50000F5000000000000000000F5F5F5F5F5F528F5F5F5F5F5F5F5000000000000000000F500000000002D00000000000000000000002D0000000000F5F5000000000000000000280000000000000000F5F5F500000000000000000000000000002D00000000000000
310
002D000000000000000000000000F5000000F50000000000F5F5F5F5F5F5F5F5F5F5F5F5F5F500000000F5000000F5F500F500F500F5F5F5000000F500F5000000000000000000000000000000000000000000F500F50000000000000000F500000000002D000000000000F5F5F5F5F5F5F5F5F5F5F5002D00000000000000
310
000000000000000000000000F500F50000000000F5F5F5F5F50000F500000000000000F5F50000000000002800000000000000F5F500000000000000F500000000002D00000000000000000000002D00000000F500F5000000000000000000280000000000000000F50000F5000000000000000000000000002D0000000000
310
0000002D000000000000000000000000F50000F500000000F5F50000000000002800000000000000F5F5000000F50000F5F500F5F5F5F5F5F500000000F500F5000000000000000000000000000000000000000000F500F5F5F5F5F5F5F5F5F5F500000000002D000000000000F50000000000000000F5F5002D0000000000
310
0000000000000000000000000000F500F500000000000000F5F5F50000F50000000000F5F5000000000000000028000000000000000000F5F50000000000F500000000002D00000000000000000000002D00000000F500F5000000000000000000280000000000000000F50000F5000000000000000000000000002D000000
310
00000000002D000000000000000000000000F50000F50000F5F5000000000000000028000000000000000000F5F500F50000F5F500F500F500000000000000F500F5000000000000000000000000000000000000000000F500F50000000000000000F500000000002D000000000000F50000000000000000F5F52D00000000
310
00000000000000000000000000000000F500F50000000000000000F5F50000F50000000000F5000000000000F5F5F5F5F5F5F5F5000000000000F50000000000F500000000002D00000000000000000000002D00000000F500F5000000000000000000280000000000000000F50000F5000000000000000000000000002D00
310
00000000002D2D2D000000000000000000000000F500F5000000F5000000000000F5F500F500F5F5F5000000000000F50000F500F5F500F500F500000000000000F500F5000000000000000000000000000000000000000000F500F50000000000000000F500000000002D000000000000F50000000000000000F5F52D0000
310
000000000000000000000000000000000000F500F500000000002D0000F5F50000F50000000000F5000000000000F5F5F5F5F5F5F5F5000000000000F50000000000F500000000002D00000000000000000000002D00000000F500F5000000000000000000280000000000000000F50000F500000000000000000000000000
310
2D0000000000002D2D2D000000000000000000000000F500F5000000F5000000000000F5F5F5F500F5F5F5000000000000F50000F500F5F500F500F500000000000000F500F5000000000000000000000000000000000000000000F500F50000000000000000F5000000002D2D000000000000F50000000000000000F5F52D
310
0000000000000000000000000000000000000000F500F500000000002D0000F5F50000F500000000F500000000000000F5F5F5F5F5F5F5F500000000000000F500000000F500000000002D00000000000000000000002D00000000F500F5000000000000000000280000000000000000F50000F50000000000000000000000
310
00002D0000000000002D2D2D000000000000000000000000F5F5000000F500000000000000F5F5F5F5F5F5F5F500000000000000F50000F5F5F500F500F500000000000000F500F5000000000000000000000000000000000000000000F500F50000000000000000F5000000002D2D000000000000F50000000000000000F5
310
F52D0000000000000000000000000000000000000000F500F500000000002D0000F5F50000F500000000F500000000000000F5F5F5F5F5F5F50000000000000000F500000000F500000000002D00000000000000000000002D00000000F500F5000000000000000000280000000000000000F50000F5000000000000000000
310
000000002D0000000000002D2D2D000000000000000000000000F5F5000000F500000000000000F5F5F5F5F5F5F50000000000000000F50000F5F5F500F500F500000000000000F500F5000000000000000000000000000000000000000000F500F50000000000000000F5000000002D2D000000282828F528282828282828
310
28F52D282828282828282828282828282828282828282828F528F52828282D2D2D2828F5F52828F5282D2D2D2D2D000000000000000000280000000000000000000000F500000000F500000000002D00000000000000000000002D0000002D2D2D2D000000000000000000280000000000000000F50000F500000000000000
310
0000000000002D00000000000000002D000000000000000000000000F500000000F500000000000000000000280000000000000000002828F5282828F5F528F528F528282828282828F528F5282828282828282828282828282828282828282828F528F52828282828282828F5282800002D2D000000000000F50000000000
310
000000F52D000000000000000000000000000000000000000000F500F50000002D2D2D0000F5F50000F500002DF5F500000000000000000000280000000000000000000000F5F5000000F500000000002D00000000000000000000002D000000F5F500F52D2D2D2D2D00000000280000000000000000F50000F5F500000000
310
00000000000000002D00000000000000002D000000000000000000000000F5000000F50000000000000000000000280000000000000000000000F5000000F5F500F500F500000000000000F500F5000000000000000000000000000000000000000000F500F50000000000000000F500000000002D000000000000F5000000
310
0000000000F52D0000000000000000000000000000000000000000282828282828282D2D2D2828282828282828002DF5F500000000000000000000280000000000000000000000F5F5000000F50000002D2D2D00000000000000000000002D282828F5F528F528282828282D2D2D2D282828282828282828F52800F5F52828
310
280000000000000000002D00000000000000002D000000000000000000000000F5000000F50000000000000000000000280000000000000000002828F5282828F5282828282828282828000000F500F5000000000000000000000000000000000000000000F500F50000000000000000F500000000002D000000000000F500
310
000000000000002DF5000000000000000000000000000000000000000000F500F500000000002D0000F5F50000F500002DF5F500000000000000000000280000000000000000000000F5F5000000F50000002D2D2D00000000000000000000002D000000F5F500F50000000000000000002D2D2D2D2D00000000F50000F5F5
310
0000000000000000000000002D00000000000000002D000000000000000000000000F5000000F50000000000000000000000280000000000000000000000F5000000F5F500F500F500000000000000F500F5000000000000000000000000000000000000000000F500F50000000000000000F500000000002D000000000000
310
F500000000000000002D2D000000000000000000000000000000000000000000F500F500000000002D0000F5F50000F52D2D2D00F5F50000000000000000F528F5000000000000000000F5F500000000F50000002D2D2D00000000000000000000002D000000F5F500F500000000000000000028002D2D2D2D2D2D00F50000
310
F5F50000000000000000000000002D00000000000000002D000000000000000000000000F500000000F5000000000000000000F528F5000000000000000000F500000000F5F500F500F500000000000000F500F5000000000000000000000000000000000000000000F500F50000000000000000F500000000002D00000000
310
0000F5F5F5F5F5F5F5F5F52DF5000000000000000000000000000000000000000000F500F500000000002D0000F5F50000F52D2D2D00F5F50000000000F5F5F50028F5F5F5F5000000000000F5F500000000F50000002D2D2D00000000000000000000002D0000F5F5F500F500000000000000000028002D2D002D2D0000F5
310
0000F52D0000000000000000000000002D00000000000000002D000000000000000000000000F500000000F5000000000000F5F5F50028F5F5F5F5000000000000F500000000F5F500F500F500000000000000F500F5000000000000000000000000000000000000000000F500F5F5F5F5F5F5F5F5F5F500000000002D0000
310
00000000F500000000000000F52DF5000000000000000000000000000000000000000000F500F50000000000000000F5F50000F52D2D2D00F5F500000000F5F500000028000000F5F50000000000F5F500000000F50000002D2D2D00000000000000000000002D0000F500F500F50000000000000000002800000000000000
310
00F50000F5F50000000000000000000000002D00000000000000002D000000000000000000000000F500000000F50000000000F5F500000028000000F5F50000000000F500000000F5F500F500F500000000000000F500F5000000000000000000000000000000000000000000F500F50000000000000000F500000000002D
310
000000000000F50000000000000000F5F5F5F5F5F5F5F5F5F5F5F5F5F5F5F5F5F5F5F5F5F5F5F500F50000000000000000F5F50000F52D2D2D00F5F5000000F5F5000000002800000000F5F500000000F5F500000000F50000002D2D2D00000000000000000000002D0000F500F500F5000000000000000000280000000000
310
000000F50000F5F50000000000000000000000002D00000000000000002D000000000000000000000000F500000000F500000000F5F5000000002800000000F5F500000000F500000000F5F500F500F500000000000000F500F5F5F5F5F5F5F5F5F5F5F5F5F5F5F5F5F5F5F5F5F5F5F5F5F50000000000000000F500000000
310
002D2D00000000002D0000000000000000F5F5000028000000000000000000000000000000000000F5F5F50000000000000000F5F50000F52D2D2D0000F5F50000F50000000000280000000000F5F50000F5F50000000000F500000000002D00000000000000000000002D0000F500F500F500000000000000000028000000
310
0000000000F50000F5F5F500000000000000000000002D00000000000000002D000000000000000000000000F50000000000F5000000F50000000000280000000000F5F50000F50000000000F5F500F500F500000000000000F500F5000000000000000000000000000000000000280000F500F500000000000000F5F50000
310
0000002D2D00000000002DF500000000000000F5F5F5F528F5F5F5F52D2D2D2D2D2D2DF5F5F5F5F5F5F5F5F52DF5F5F5F5F5F5F5F5F5F50000F500002D0000F5F500F500000000BEBEBEBE0000000000F50000F5F50000000000F500000000002D00000000000000000000002D0000F500F500F50000000000000000002800
310
00000000000000F50000F5F5F5F5F5F5F5F5F5F5F5F5F5F52D2D2D2D2D2D0000002D000000000000000000000000F50000000000F50000F50000000000F5F5000000000000F50000F50000000000F5F500F500F5F5F5F5F5F5F5F5F5F5F5F5F5F5F5F5F5F5F5F5F5F5F5F5F5F5F5F5F528F5F5F5F5F5000000000000F50000
310
00000000002D2D2D2D2D2D2D2D2DF5F5F5F5F5F5F5F5F5F5F5F5F5F5F5F5F5000000002D000000000000000000F52D000000F500F5F500F5F50000F500002D0000F5F5F5F5000000BE00002800BE00000000F5F500F5F50000000000F500000000002D00000000000000000000002D0000F500F500F5000000000000000000
310
280000000000000000F50000F5F5F50000000000000000000000F5000000002D0000002D000000000000000000000000F50000000000F500F5F500000000F50028F5F500000000F5F500F50000000000F5F500F5F5F5F5F5F500F500000000F50000000000000000000000000000F5F5F5F5F5F5F5F5F5F5F5F5F5F5F5F5F5
310
00000000000000000000000000002D0000000000000000F50000002800000000F5000000002D000000000000000000002D00000000F50000F5F5F50000F500002D0000F5F5F5F5000000BE0000280000BEBEBE00F5F500F5F50000000000F500000000002D00000000000000000000002D0000F500F500F500000000000000
310
0000280000000000000000F50000F5F5F500F5F5F5F5F5F5F5F5F5F5F5000000002D0000002D000000000000000000000000F50000000000F500F5F50000F5F50000280000F5000000F5F500F50000000000F5F500F500F5000000F50000000000000000000000000000000000000000F50000002800000000F50000000000
310
000000000000000000000000000000002D0000000000000000F5F5F5F5F5F5F5F5F5F500002D2D2D000000000000000000002D000000000000F500F5F50000F5002D2D2D2828F5F528282800BE2828282828BE28BE2828F5F5F5282828000000F500000000002D00000000000000000000002D2828F528F528F52828282828
310
28282828282828282828282828F52828F5F5F52DF5282828282828282828F5282D2D2D2D2D2D2D2D2D0000000000000000000000F5000000282828F528282828F5F52828282828F50028282828F5282828280000F5F500F5F5F5F50000000000000000000000000000000000000000000000F5F5F5F5F5F5F5F5F5F5000000
310
0000000000000000000000000000000000002D0000002D2D2D2DF5F50000002800000000F500002D2D2D000000000000000000002D00000000000000F5F5F50000F5000000000000F5F500000000BE0000280000BEBEBE0000F5F5F5000000000000F500000000002D00000000000000000000002D0000F500F500F5000000
310
000000000000280000000000000000F50000F5F5F52DF5F5F5F5F5F5F5F5F5F5F5000000002D00000000000000000000000000000000F5000000000000F5F5000000F5F50000280000F500000000F5F5000000000000F5F500F500F5000000000000000000000000000000000000000000000000F50000002800000000F500
310
00000000000000000000000000000000000000002D0000002D2D000000F50000002800000000F500002D2D2D000000000000000000002D0000000000000000F5F50000F5000000000000F5F500000000BEBEBEBE00BE0000000000F5F5F5000000000000F500000000002D00000000000000000000002D0000F5000000F500
310
0000000000000000280000000000000000F5000000F5F52D00000000000000000000F5000000002D00000000000000000000000000000000F5F50000000000F5F50000000000F50028F5F50000000000F5F50000000000F5F5F500F5F5F5000000000000000000000000000000000000000000000000F50000002800000000
310
F50000000000000000000000000000000000000000002D0000002D2D0028282828282828282828282828282D2D2D000000000000000000002D00000000000000F5F52DF5F5F500000000000000F5F500000000000028BE0000000000F500F500000000000000F500000000002D00000000000000000000002D0000F5000000
310
F5000000000000000000280000000000000000F5000000F5F52D00000000000000000000F5000000002D00000000000000000000000000000000F5F5000000000000F5F50000000000F5F5000000000000F500F50000000000F500F5F5F5F5F500000000000000000000000000000000000000000000282828282828282828
310
2828282828000000000000000000000000000000000000002D000000002D000000F50000002800000000F50000002D2D000000000000000000002D0000000000000000F52DF500F500000000000000F500F5000000000028000000000000F5F50000000000000000F500000000002D00000000000000000000002D0000F500
310
0000F5000000000000000000280000000000000000F5000000F52D2DF5F5F5F5F5F5F5F5F5F52D2D2D2D2D2D00000000000000000000000000000000F500F50000000000F500F5000000000028000000000000F5F50000000000F500F5F5F500F500000000000000000000000000000000000000000000000000F500000028
310
00000000F50000000000000000000000000000000000000000002D0000002D2D2D2DF5F5F50000280000F5F5F5000000002D000000000000000000002D0000000000000000002D00F5F50000000000000000F5F50000000000280000000000F500F50000000000000000F500000000002D00000000000000000000002D0000
310
F5000000F5000000000000000000280000000000000000F5000000F52D2D000000000000000000002D000000002D00000000000000000000000000000000F500F5000000000000F5F50000000000280000000000F500F50000000000F50000F500000000000000000000000000000000000000000000000000000000F5F500
310
00280000F5F5F50000000000000000000000000000000000000000002D00002D2D2D000000F5F5F5F5F5F5F5F5F5F52D2D2D2D2D2D0000000000000000002D0000000000000000002D0000F5F500000000000000F500F50000000000000000F5F500F50000000000000000F52D00000000002D00000000000000000000002D
310
0000F5000000F5000000000000000000000000000000000000F5000000F52D2D000000000000000000002D00002D2D2D00000000000000000000000000000000F50000F50000000000F500F50000000000000000F5F500F50000000000F50000F5F500000000000000000000000000000000000000000000000000000000F5
310
F5F5F5F5F5F5F5F5F50000000000000000000000000000000000000000002D00002D2D2D0000002D00000028000000002D0000000000000000000000000000002D0000000000000000002D000000F50000000000000000F5F5F5F500002800F5F500F5F5000000000000000000F52D00000000002D00000000000000000000
310
002D0000F5000000F5F5F5F5F5F5F5F5F5F5F5F5F5F5F5F5F5F5F5F5000000F52D2D000000000000000000002D00002D2D2D00000000000000000000000000000000F50000F5000000000000F5F5F5F500002800F5F500F5F5000000000000F50000F500000000000000000000000000000000000000000000000000000000
310
00000000002800000000000000000000000000000000000000000000000000002D00002D2D2D0000002D00000000000000002D0000000000000000000000000000002D0000000000000000002D000000F500000000000000000000F5F5F5F528F500F5F50000000000000000000000F52D00000000002D0000000000000000
310
0000002D0000F5F50000F5000000000000000000280000000000000000F5000000F52D2D000000000000000000002D00002D2D2D00000000000000000000000000000000F5000000F500000000000000F5F5F5F528F500F5F500000000000000F5000000F50000000000000000000000000000000000000000000000000000
310
000000000000000000000000000000000000000000000000000000000000000000002D00002D2D2D0000002D00000000000000002D0000000000000000000000000000002D0000000000000000002D00000000F50000000000000000000000F5F528F5F50000000000000000000000F5F5002D00000000002D000000000000
310
00000000002D000000F5F5F5F5000000000000000000280000000000000000F5F5F5F5002D2D000000000000000000002D00002D2D2D0000000000000000000000000000000000F5F500F5F50000000000000000F5F528F5F5000000000000000000F500F5F500000000000000000000000000000000000000000000000000
310
0000000000000000000000000000000000000000000000000000000000000000000000002D000000002D0000002D00000000000000002D0000000000000000000000000000002D0000000000000000002D0000000000F5F5000000000000000000000028000000000000000000000000F50000002D00000000002D00000000
310
000000000000002D0000000000F5F5000000000000000000280000000000000000F500F500002D2D000000000000000000002D00002D2D2D00000000000000000000000000000000000000F50000F5F5F50000000000000028000000000000000000F5F500F500000000000000000000000000000000000000000000000000
310
00000000000000000000000000000000000000000000000000000000000000000000000000002D00000000000000002D00000000000000002D0000000000000000000000000000002D0000000000000000002D00000000000000F5000000000000000000002800000000000000000000F5F5000000002D00000000002D0000
310
0000000000000000002D000000000000F5000000000000000000280000000000000000F5F50000002D2D000000000000000000002D00002D2D2D0000000000000000000000000000000000000000F5F5000000F5F500000000002800000000000000F5F500F5F5000000000000000000000000000000000000000000000000
310
000000000000000000000000000000000000000000000000000000000000000000000000000000002D00000000000000002D00000000000000002D0000000000000000000000000000002D0000000000000000002D0000000000000000F500000000000000000028000000000000000000F50000000000002D00000000002D
310
00000000000000000000002D000000000000F5F50000000000000000280000000000000000F5000000002D2D000000000000000000002D000000002D00000000000000000000000000000000000000000000F500000000F5F5F5F5F5280000000000F5F50000F5000000000000000000000000000000000000000000000000
310
0000000000000000000000000000000000000000000000000000000000000000000000000000000000002D00000000000000002D00000000000000002D0000000000000000000000000000002D0000000000000000002D000000000000000000F5F5F5F50000000000280000000000F5F5F5F5000000000000002D00000000
310
002D00000000000000000000002D000000000000F500F5000000000000002800000000000000F5F5F50000002D2D000000000000000000002D00000000000000000000000000000000000000000000000000000000F5F5F5F5000000000028F5F5F5F5F5F5F5F5F50000000000000000000000000000000000000000000000
310
00000000000000000000000000000000000000000000000000000000000000000000000000000000000000002D00000000000000002D00000000000000002D0000000000000000000000000000002D0000000000000000002D0000000000000000000000F5F5F5F5F5F5F528F5F5F5F5F52D2D2D2D2D2D2D2D2D2D2D2D2D2D
310
2D2D2D2D2D000000000000000000002D00000000000000F5F5F5F5F5F5F5F5F5F5F5F5F5F5F5F5F5F5F5000000002D2D2D2D2D2D2D2D2D2D2D2D2D000000000000000000000000000000000000000000000000000000000000F5F5F5F5F5F5F5F5F5F5F5F5F5F5F50000000000000000000000000000000000000000000000
310
000000000000000000000000000000000000000000000000000000000000000000000000000000000000000000002D00000000000000002D00000000000000002D0000000000000000000000000000002D0000000000000000002D00000000000000000000000000000000000028000000000000000000000000000000002D
310
00000000000000000000000000000000002D0000000000000000000000000000000028000000000000000000000000002D2D0000002D2D2D000000002D000000000000000000000000000000000000000000000000000000000000000000000000002800000000000000000000000000000000000000000000000000000000
310
0000000000000000000000000000000000000000000000000000000000000000000000000000000000000000000000002D00000000000000002D00000000000000002D0000000000000000000000000000002D0000000000000000002D00000000000000000000000000000000000028000000000000000000000000000000
310
002D00000000000000000000000000000000002D0000000000000000000000000000000028000000000000000000000000002D000000002D2D2D000000002D00000000000000000000000000000000000000000000000000000000000000000000000000280000000000000000000000000000000000000000000000000000
310
00000000000000000000000000000000000000000000000000000000000000000000000000000000000000000000000000002D00000000000000002D00000000000000002D0000000000000000000000000000002D0000000000000000002D0000000000000000000000000000000000002D00000000000000000000000000
310
0000002D00000000000000000000000000000000002D000000000000000000000000000000002D000000000000000000000000002D00000000000000000000002D0000000000000000000000000000000000000000000000000000000000000000000000000028000000000000000000000000000000000000000000000000
310
000000000000000000000000000000000000000000000000000000000000000000000000000000000000000000000000000000002D2D00000000002D002D2D00000000002D002D0000000000000000000000000000002D0000000000000000002D0000000000000000000000000000000000002D0000000000000000000000
310
00000000002D00000000000000000000000000000000002D000000000000000000000000000000002D000000000000000000000000002D2D00000000000000002D002D000000000000000000000000000000000000000000000000000000000000000000000000000000000000000000000000000000000000000000000000
310
0000000000000000000000000000000000000000000000000000000000000000000000000000000000000000000000000000000000002D2D2D2D2D2D2D2D2D2D2D2D2D2D2D2D2D2D2D0000000000000000000000000000002D0000000000000000002D0000000000000000000000000000000000002D000000000000000000
310
000000000000002D00000000000000000000000000000000002D000000000000000000000000000000002D000000000000000000000000002D2D2D2D2D2D2D2D2D2D2D2D2D00000000000000000000000000000000000000000000000000000000000000000000000000000000000000000000000000000000000000000000
310
00000000000000000000000000000000000000000000000000000000000000000000000000000000000000000000000000000000000000002D002D2D2D2D2D000000002D2D2D2D2D0000000000000000000000000000000000002D0000000000000000002D0000000000000000000000000000000000002D00000000000000
310
0000000000000000002D00000000000000000000000000000000002D000000000000000000000000000000002D0000000000000000000000000000000000002D2D2D000000002D0000000000000000000000000000000000000000000000000000000000000000000000000000000000000000000000000000000000000000
310
000000000000000000000000000000000000000000000000000000000000000000000000000000000000000000000000000000000000000000002D0000000000000000000000000000000000000000000000000000000000000000002D0000000000000000002D0000000000000000000000000000000000002D0000000000
310
00000000000000000000002D00000000000000000000000000000000002D000000000000000000000000000000002D000000000000000000000000000000000000000000000000002D000000000000000000000000000000000000000000000000000000000000000000000000000000000000000000000000000000000000
310
0000000000000000000000000000000000000000000000000000000000000000000000000000000000000000000000000000000000000000000000002D0000000000000000000000000000000000000000000000000000000000000000002D0000000000000000002D0000000000000000000000000000000000002D000000
310
000000000000000000000000002D00000000000000000000000000000000002D000000000000000000000000000000002D000000000000000000000000000000000000000000000000002D00000000000000000000000000000000000000000000000000000000000000000000000000000000000000000000000000000000
310
00000000000000000000000000000000000000000000000000000000000000000000000000000000000000000000000000000000000000000000000000002D2D2D2D2D2D2D2D2D2D2D2D2D2D2D2D2D2D2D2D2D2D2D2D2D2D2D2D2D2D2D2D2D2D2D2D2D2D2D2D2D2D2D2D2D2D2D2D2D2D2D2D2D2D2D2D2D2D2D2D2D2D2D2D2D
310
2D2D2D2D2D2D2D2D2D2D2D2D2D2D2D2D00000000000000000000000000000000002D2D2D2D2D2D2D2D2D2D2D2D2D2D2D2D2D2D2D2D2D2D2D2D2D2D2D2D2D2D2D2D2D2D2D2D2D2D2D2D2D2D2D2D0000000000000000000000000000000000000000000000000000000000000000000000000000000000000000000000000000
310
000000000000000000000000000000000000000000000000000000000000000000000000000000000000000000000000000000000000000000000000000000002D00000000000000000000000000002D2D2D2D2D00000000000000000000000000002D00002D2D2D2D2D00002D00000000000000002D2D2D00000000000000
310
2D0000000000002D2D2D2D0000000000002D00000000000000000000000000000000002D000000000000002D2D2D0000000000002D000000000000000000002D2D2D2D00000000000000000000002D000000000000000000000000000000000000000000000000000000000000000000000000000000000000000000000000
310
0000000000000000000000000000000000000000000000000000000000000000000000000000000000000000000000000000000000000000000000000000000000002D000000000000000000000000002D2D2D2D002D00000000000000000000000000000000002D2D2D2D2D000000000000000000002D2D2D2D0000000000
310
000000000000000000002D2D2D0000000000002D00000000000000000000000000000000002D000000000000002D2D2D00000000000000000000000000000000002D002D2D00000000000000000000002D00000000000000000000000000000000000000000000000000000000000000000000000000000000000000000000
310
00000000000000000000000000000000000000000000000000000000000000000000000000000000000000000000000000000000000000000000000000000000000000002D00000000000000000000000000000000000000000000000000000000000000000000000000000000000000000000000000000000000000000000
310
0000000000000000000000000000000000000000002D00000000000000000000000000000000002D0000000000000000000000000000000000000000000000000000000000000000000000000000000000002D0000000000000000000000000000000000000000000000000000000000000000000000000000000000000000
310
000000000000000000000000000000000000000000000000000000000000000000000000000000000000000000000000000000000000000000000000000000000000000000002D2D2D2D2D2D2D2D2D2D2D2D2D2D2D2D2D2D2D2D2D2D2D2D2D2D2D2D2D2D2D2D2D2D2D2D2D2D2D2D2D2D2D2D2D2D2D2D2D2D2D2D2D2D2D2D2D
310
2D2D2D2D2D2D2D2D2D2D2D2D2D2D2D2D2D2D2D2D2D2D2D2D00000000000000000000000000000000002D2D2D2D2D2D2D2D2D2D2D2D2D2D2D2D2D2D2D2D2D2D2D2D2D2D2D2D2D2D2D2D2D2D2D2D2D2D2D2D2D2D2D2D000000000000000000000000000000000000000000000000000000000000000000000000000000000000
310
0000000000000000000000000000000000000000000000000000000000000000000000000000000000000000000000000000000000000000000000000000000000000000000000002D2D0000000000000000000000000000000000000000000000000000000000000000000000002D2D2D2D00000000000000000000000000
310
00000000000000000000000000000000000000000000002D2D2D00000000000000000000000000000000002D2D2D00000000000000000000000000000000002D2D2D2D00000000000000000000000000000000002D2D2D00000000000000000000000000000000000000000000000000000000000000000000000000000000
310
00000000000000000000000000000000000000000000000000000000000000000000000000000000000000000000000000000000000000000000000000000000000000000000000000000000000000000000000000000000000000000000000000000000000000000000000000000000002D2D2D0000000000000000000000
310
00000000000000000000000000000000000000000000000000000000000000000000000000000000000000000000000000000000000000000000000000000000002D2D2D2D00000000000000000000000000000000000000000000000000000000000000000000000000000000000000000000000000000000000000000000
310
00000000000000000000000000000000000000000000000000000000000000000000000000000000000000000000000000000000000000000000000000000000000000000000000000000000000000000000000000000000000000000000000000000000000000000000000000000000000000000000000000000000000000
310
00000000000000000000000000000000000000000000000000000000000000000000000000000000000000000000000000000000000000000000000000000000000000000000000000000000000000000000000000000000000000000000000000000000000000000000000000000000000000000000000000000000000000
310
00000000000000000000000000000000000000000000000000000000000000000000000000000000000000000000000000000000000000000000000000000000000000000000000000000000000000000000000000000000000000000000000000000000000000000000000000000000000000000000000000000000000000
310
00000000000000000000000000000000000000000000000000000000000000000000000000000000000000000000000000000000000000000000000000000000000000000000000000000000000000000000000000000000000000000000000000000000000000000000000000000000000000000000000000000000000000
310
00000000000000000000000000000000000000000000000000000000000000000000000000000000000000000000000000000000000000000000000000000000000000000000000000000000000000000000000000000000000000000000000000000000000000000000000000000000000000000000000000000000000000
310
00000000000000000000000000000000000000000000000000000000000000000000000000000000000000000000000000000000000000000000000000000000000000000000000000000000000000000000000000000000000000000000000000000000000000000000000000000000000000000000000000000000000000
310
00000000000000000000000000000000000000000000000000000000000000000000000000000000000000000000000000000000000000000000000000000000000000000000000000000000000000000000000000000000000000000000000000000000000000000000000000000000000000000000000000000000000000
310
00000000000000000000000000000000000000000000000000000000000000000000000000000000000000000000000000000000000000000000000000000000000000000000000000000000000000000000000000000000000000000000000000000000000000000000000000000000000000000000000000000000000000
310
00000000000000000000000000000000000000000000000000000000000000000000000000000000000000000000000000000000000000000000000000000000000000000000000000000000000000000000000000000000000000000000000000000000000000000000000000000000000000000000000000000000000000
310
00000000000000000000000000000000000000000000000000000000000000000000000000000000000000000000000000000000000000000000000000000000000000000000000000000000000000000000000000000000000000000000000000000000000000000000000000000000000000000000000000000000000000
310
00000000000000000000000000000000000000000000000000000000000000000000000000000000000000000000000000000000000000000000000000000000000000000000000000000000000000000000000000000000000000000000000000000000000000000000000000000000000000000000000000000000000000
310
00000000000000000000000000000000000000000000000000000000000000000000000000000000000000000000000000000000000000000000000000000000000000000000000000000000000000000000000000000000000000000000000000000000000000000000000000000000000000000000000000000000000000
310
00000000000000000000000000000000000000000000000000000000000000000000000000000000000000000000000000000000000000000000000000000000000000000000000000000000000000000000000000000000000000000000000000000000000000000000000000000000000000000000000000000000000000
310
00000000000000000000000000000000000000000000000000000000000000000000000000000000000000000000000000000000000000000000000000000000000000000000000000000000000000000000000000000000000000000000000000000000000000000000000000000000000000000000000000000000000000
310
00000000000000000000000000000000000000000000000000000000000000000000000000000000000000000000000000000000000000000000000000000000000000000000000000000000000000000000000000000000000000000000000000000000000000000000000000000000000000000000000000000000000000
310
00000000000000000000000000000000000000000000000000000000000000000000000000000000000000000000000000000000000000000000000000000000000000000000000000000000000000000000000000000000000000000000000000000000000000000000000000000000000000000000000000000000000000
310
00000000000000000000000000000000000000000000000000000000000000000000000000000000000000000000000000000000000000000000000000000000000000000000000000000000000000000000000000000000000000000000000000000000000000000000000000000000000000000000000000000000000000
310
00000000000000000000000000000000000000000000000000000000000000000000000000000000000000000000000000000000000000000000000000000000000000000000000000000000000000000000000000000000000000000000000000000000000000000000000000000000000000000000000000000000000000
310
00000000000000000000000000000000000000000000000000000000000000000000000000000000000000000000000000000000000000000000000000000000000000000000000000000000000000000000000000000000000000000000000000000000000000000000000000000000000000000000000000000000000000
310
00000000000000000000000000000000000000000000000000000000000028000000000000000000000000000000000000000000000000000000000000000000000000000000000000000000000000000000000000000000000000000000000000000000000000000000000000000000000000000000000000000000000000
310
00000000000000000000000000000000000000000000000000000000000000000000000000000000000000000000000000000000000000000000000000000000000000000000000000000000000000000000000000000000000000000000000000000000000000000000000000000000000000000000000000000000000000
310
000000000000000000000000000000000000000000000000000000000000000028000000000000000000000000000000000000000000000000000000000000000000002D2D2D2D2D2D2D2D2D2D2D2D002D2D2D2D2D2D2D2D2D2D2D2D2D2D2D002D2D2D2D2D2D2D002D00000000000000000000000000000000000000000000
310
00000000000000000000000000000000000000000000000000000000000000000000000000000000000000000000000000000000000000000000000000000000000000000000000000000000000000000000000000000000000000000000000000000000000000000000000000000000000000000000000000000000000000
310
00000000000000000000000000000000000000000000F5F5F5F5F5F5F5F5F5F5F5F5F5F5F5F5F5F5F5F5F5F5F5F5F5F50000000000000000000000000000000000000000002D2D2D002D2D2D2D2D2D2D2D2D002D2D2D2D2D002D00002D2D2D2D2D002D2D2D2D2D2D2D2D000000000000000000000000000000000000000000
310
00000000000000000000000000000000000000000000000000000000000000000000000000000000000000000000000000000000000000000000000000000000000000000000000000000000000000000000000000000000000000000000000000000000000000000000000000000000000000000000000000000000000000
310
000000000000000000000000000000000000000000000000F5000000000000000000000028000000000000000000000000F50000000000000000000000000000000000000000002D2D2D002D002D2D002D2D2D002D00002D2D2D2D2D00002D002D2D2D2D2D2D002D2D2D2D002D000000000000000000000000000000000000
310
00000000000000000000000000000000000000000000000000000000000000000000000000000000000000000000000000000000000000000000000000000000000000000000000000000000000000000000000000000000000000000000000000000000000000000000000000000000000000000000000000000000000000
310
000000000000000000000000000000000000000000000000F5F50028000000000000000000002800000000000000000000280000F5F5000000000000000000000000000000000000002D2D2D2D2D2D2D2D2D2D2D2D002D2D2D2D2D2D2D2D2D2D2D2D2D2D2D002D2D2D2D2D2D2D002D2D000000000000000000000000000000
310
00000000000000000000000000000000000000000000000000000000000000000000000000000000000000000000000000000000000000000000000000000000000000000000000000000000000000000000000000000000000000000000000000000000000000000000000000000000000000000000000000000000000000
310
0000000000000000000000000000000000000000F50000000000F500002800000000000000000000280000000000000000000028000000F5000000000000000000000000000000000000002D2D2D002D2D2D2D2D2D2D2D2D2D2D2D2D2D2D2D2D00002D2D2D2D2D2D2D2D2D2D2D2D2D2D2D2D00000000000000000000000000
310
00000000000000000000000000000000000000000000000000000000000000000000000000000000000000000000000000000000000000000000000000000000000000000000000000000000000000000000000000000000000000000000000000000000000000000000000000000000000000000000000000000000000000
310
000000000000000000000000000000000000000000F5F5F5F50000F500282828F5F5F5F5F5F5F5F5F5F528F5F5F5F5F5F5F5F528282828282800F50000000000000000000000000000000000000000000000000000000000000000000000000000000000000000000000000000000000000000000000000000000000000000
310
00000000000000000000000000000000000000000000000000000000000000000000000000000000000000000000000000000000000000000000000000000000000000000000000000000000000000000000000000000000000000000000000000000000000000000000000000000000000000000000000000000000000000
310
000000000000000000000000000000000000000000000000F5F500F500F50000F5F5F5F5000000000000000028000000000000000000F528F5000000F50000000000000000000000000000000000002D2D2D2D2D2D2D2D2D2D2D2D002D2D2D2D2D2D2D2D2D2D2D2D2D2D2D002D2D2D2D2D2D2D2D0000000000000000000000
310
00000000000000000000000000000000000000000000000000000000000000000000000000000000000000000000000000000000000000000000000000000000000000000000000000000000000000000000000000000000000000000000000000000000000000000000000000000000000000000000000000000000000000
310
0000000000000000000000000000000000000000000000000000F5F500F5F5000000F52800000000000000000000280000000000000000000028F5F5000000F500000000000000000000000000000000002D2D2D002D2D2D2D2D2D2D2D2D2D2D2D2D2D2D2D2D00002D2D2D2D2D2D2D2D2D2D2D2D2D2D000000000000000000
310
0000000000000000000000000000000000000000000000000000000000000000000000000000000000000000000000000000000000000000000000000000000000000000000000000000000000000000000000000000000000000000000000000000000000000000000000000000000000F5F5F5F5F5F5F5F5F5F5F5F5F5F5
310
F5F5F5F5F5F5F5F5F5F5F5F5F5F5F5F5F5F5F5F5F5F5F5F5F5F5F5F5F5F50000F5F5F5F5F5F5F5F5F5F5F5F5F5F5F5F528F5F5F5F5F5F5F5F5F5F5F5F5F5F5F5F5F500000000000000000000000000000000002D2D2D2D2D002D2D2D2D2D2D002D00002D2D2D2D2D00002D002D2D2D002D2D002D002D2D2D00000000000000
310
00000000000000000000000000000000000000000000000000000000000000000000000000000000000000000000000000000000000000000000000000000000000000000000000000000000000000000000000000000000000000000000000000000000000000000000000000000000000000F500000000000000F5F50000
310
00000000000000000000000000000000000000F500F50000000000000000F5F50000F500F500000000000000F5000000000028000000000000F500000000000000F500F500000000000000000000000000000000002D2D2D2D2D2D2D2D002D002D2D2D2D2D2D2D2D002D2D2D2D2D2D2D2D002D2D2D2D2D2D2D2D0000000000
310
0000000000000000000000000000000000000000000000000000000000000000000000000000000000000000000000000000000000000000000000000000000000000000000000000000000000000000000000000000000000000000000000000000000000000000000000000000000000000000F500000000000000F5F5F5
310
000000000000000000000000000000000000000000F5F5F50000000000000000F5F50000F5F50000000000000000F5000000000028000000000000F50000000000000000F5F500000000000000000000000000000000002D2D2D002D2D2D2D2D2D2D2D002D2D2D2D2D2D2D2D00002D2D2D2D2D2D2D2D2D2D2D2D2D2D000000
310
00000000000000000000000000000000000000000000000000000000000000000000000000000000000000000000000000000000000000000000000000000000000000000000000000000000000000000000000000000000000000000000000000000000000000000000000000000000000000000000F50000000000000000
310
F5F5000028000000000000000000000000000000000000F500F50000000000000000F5F50000F5000000000000000000F5000000000028000000000000F5000000000000000000F500000000000000000000000000000000002D2D2D2D2D2D2D2D2D2D2D2D002D00002D2D2D2D2D00002D2D2D2D2D002D2D002D2D2D2D2D2D
310
2D0000000000000000000000000000000000000000000000000000000000000000000000000000000000000000000000000000000000000000000000000000000000000000000000000000000000000000000000000000000000000000000000000000000000000000000000000000000000000000000000F5F5F5F5F5F5F5
310
F5F5F5F5F5F528F5F5F5F5F5F5F5F5F5F5F5F5F5F5F5F5F5F5F500F50000000000000000F5F50000F5000000000000000000F5000000000028000000000000F5000000000000000000F500000000000000000000000000000000002D2D2D2D2D2D2D2D002D002D2D2D2D2D2D2D2D002D2D2D2D2D2D2D2D002D2D2D2D2D2D2D
310
00002D0000000000000000000000000000000000000000000000000000000000000000000000000000000000000000000000000000000000000000000000000000000000000000000000000000000000000000000000000000000000000000000000000000000000000000000000000000000000000000000000F500000000
310
00000000F5F5F5F5F5F5F5F5F500000000000000000000000000000000F500000000000000F5F5F50000F5000000000000000000F5000000000028000000000000F5000000000000000000F500000000000000000000000000000000002D2D2D002D2D2D2D2D2D2D2D002D002D2D2D2D2D2D00002D2D2D2D2D2D2D2D2D2D2D
310
2D2D2D2D2D0000000000000000000000000000000000000000000000000000000000000000000000000000000000000000000000000000000000000000000000000000000000000000000000000000000000000000000000000000000000000000000000000000000000000000000000000000000000000000000000F50000
310
0000000000F5F5F5F5F5F5F5F5F500F5000000000000000000000000000000F500000000000000F5F5F50000F5000000000000000000F5000000000028000000000000F5000000000000000000F500000000000000000000000000000000002D2D2D2D2D2D2D2D2D2D2D2D002D2D2D2D2D2D2D2D00002D2D2D2D2D002D2D2D
310
2D2D2D2D2D00000000000000000000000000000000000000000000000000000000000000000000000000000000000000000000000000000000000000000000000000000000000000000000000000000000000000000000000000000000000000000000000000000000000000000000000000000000000000000000000000F5
310
0000000000000000F5F5000028000000F5F5000000000000000000000000000000F5000000000000F500F5F50000F5000000000000000000F5000000000028000000000000F5000000000000000000F500000000000000000000000000000000002D2D2D2D2D2D2D2D2D2D2D2D2D2D2D2D2D2D2D002D2D2D2D2D2D2D2D002D
310
2D2D2D2D2D2D00000000000000000000000000000000000000000000000000000000000000000000000000000000000000000000000000000000000000000000000000000000000000000000000000000000000000000000000000000000000000000000000000000000000000000000000000000000000000000000000000
310
00F50000000000000000F500000028000000F5F5000000000000000000000000000000F50000000000F5F500F5F50000F5000000000000000000F5000000000000000000000000F5000000000000000000F500000000000000000000000000000000002D2D2D002D2D2D2D002D2D2D002D00002D2D2D2D2D00002D2D2D2D2D
310
2D2D2D2D2D2D2D2D2D00000000000000000000000000000000000000000000000000000000000000000000000000000000000000000000000000000000000000000000000000000000000000000000000000000000000000000000000000000000000000000000000000000000000000000000000000000000000000000000
310
000000F50000000000000000F500000028000000F5F5000000000000000000000000000000F5000000000000F500F5F50000F5000000000000000000F5000000000028000000000000F5000000000000000000F500000000000000000000000000000000000000000000000000000000000000000000000000000000000000
310
00000000000000000000000000000000000000000000000000000000000000000000000000000000000000000000000000000000000000000000000000000000000000000000000000000000000000000000000000000000000000000000000000000000000000000000000000000000000000000000000000000000000000
310
0028282828F52828282828282828F528282828282828F5F5282828282828282828282828282828F52828282828F52828F5F52800F5282828282828282828F5282828282828282828002828F5282828282828282828F52828280000000000000000000000000000000000000000000000000000000000000000000000000000
310
00000000000000000000000000000000000000000000000000000000000000000000000000000000000000000000000000000000000000000000000000000000000000000000000000000000000000000000000000000000000000000000000000000000000000000000000000000000000000000000000000000000000000
310
00000000000000F50000000000000000F500000028000000F5F5000000000000000000000000000000F5000000000000F500F5F50000F5000000000000000000F5000000000028000000000000F5000000000000000000F5000000000000000000000000000000000000000000000000000000000000000000000000000000
310
00000000000000000000000000000000000000000000000000000000000000000000000000000000000000000000000000000000000000000000000000000000000000000000000000000000000000000000000000000000000000000000000000000000000000000000000000000000000000000000000000000000000000
310
000000000000000000F50000000000000000F5F5000028000000F5F5000000000000000000000000000000F50000000000F5F500F5F50000F5000000000000000000F5000000000028000000000000F5000000000000000000F500000000000000000000000000000000002D2D2D2D2D2D2D2D2D2D2D2D2D2D2D2D2D2D2D2D
310
2D2D2D2D2D2D2D2D2D2D2D2D2D2D2D2D2D2D2D2D2D2D2D2D00000000000000000000000000000000000000000000000000000000000000000000000000000000000000000000000000000000000000000000000000000000000000000000000000000000000000000000000000000000000000000000000000000000000000
310
0000000000000000000000F500000000000000F5F5F5F500280000F5F5F5000000000000000000000000000000F5000000000000F500F5F50000F5000000000000000000F5000000000028000000000000F5000000000000000000F500000000000000000000000000000000002D2D2D2D002D2D2D0000002D2D2D0000002D
310
2D2D2D2D2D2D2D2D2D2D2D2D2D2D2D00002D2D2D2D2D2D2D2D2D0000000000000000000000000000000000000000000000000000000000000000000000000000000000000000000000000000000000000000000000000000000000000000000000000000000000000000000000000000000000000000000000000000000000
310
00000000000000000000000000F500000000000000F5F5F5F5F5F5F5F5F5F5F5000000000000000000000000000000F500000000000000F5F5F50000F5000000000000000000F5000000000028000000000000F5000000000000000000F500000000000000000000000000000000002D2D2D2D2D2D2D2D0000002D2D2D2D00
310
002D2D2D2D2D2D2D00002D002D002D2D0000002D2D2D002D2D2D0000000000000000000000000000000000000000000000000000000000000000000000000000000000000000000000000000000000000000000000000000000000000000000000000000000000000000000000000000000000000000000000000000000000
310
000000000000000000000000000000F5F5F5F5F5F5F5F5F5F5F5000028000000F500000000000000000000000000000000F500000000000000F5F5F50000F5000000000000000000F5000000000028000000000000F5000000000000000000F500000000000000000000000000000000002D2D2D2D2D2D2D2D2D2D2D2D2D2D
310
002D2D2D002D2D2D2D2D2D2D2D2D2D2D2D2D2D2D2D2D2D2D2D2D2D2D000000000000000000000000000000000000000000000000000000000000000000000000000000000000000000000000000000000000000000000000000000000000000000000000000000000000000000000000000000000000000000000000000000
310
0000000000000000000000000000000000F50000000000000000F5F5F5F528F5F5F5F5F5F5F5F5F5F5F5F5F5F5F5F5F5F5F500F50000000000000000F5F50000F5000000000000000000F5000000000028000000000000F5000000000000000000F500000000000000000000000000000000002D2D2D2D002D2D2D0000002D
310
2D2D0000002D2D2D2D2D2D2D2D2D2D2D2D2D2D2D2D00002D2D2D2D2D2D2D00000000000000000000000000000000000000000000000000000000000000000000000000000000000000000000000000000000000000000000000000000000000000000000000000000000000000000000000000000000000000000000000000
310
00000000000000000000000000000000000000F50000000000000000F5F5000000000000000000000000000000000000000000F500F50000000000000000F5F50000F5000000000000000000F5000000000028000000000000F5000000000000000000F500000000000000000000000000000000002D2D2D2D2D2D2D2D0000
310
002D2D2D2D00002D2D2D2D2D2D2D00002D2D2D2D2D2D2D00002D002D2D2D2D2D2D2D000000000000000000000000000000000000000000000000000000000000000000000000000000000000000000000000000000000000000000000000000000000000000000000000000000000000000000000000000000000000000000
310
000000000000000000000000000000000000000000F50000000000000000F5F5000000000000000000000000000000000000000000F5F5F50000000000000000F5F50000F5F50000000000000000F5000000000028000000000000F50000000000000000F5F500000000000000000000000000000000002D2D2D2D2D2D2D2D
310
2D2D2D2D2D2D002D2D2D002D2D2D2D2D2D2D2D2D2D2D2D2D2D2D2D2D2D2D2D2D2D2D2D0000000000000000000000000000000000000000000000000000000000000000000000000000000000000000000000000000000000000000000000000000000000000000000000000000000000000000000000000000000000000000
310
000000000000000000000000000000000000000000000000F500000000000000F5F5F5F5F5F5F5F5F5F5F5F5F5F5F5F5F5F5F5F5F5F5F5F5F5F5F5F5F5F5F5F5F5F5F5F50000F5F5F5F5F5F5F5F5F5F5F5F5F5F5F5F528F5F5F5F5F5F5F5F5F5F5F5F5F5F5F5F5F500000000000000000000000000000000002D2D2D2D002D
310
2D2D0000002D2D2D0000002D2D2D2D2D2D2D00002D2D2D2D2D2D2D00002D2D2D2D2D2D2D2D2D0000000000000000000000000000000000000000000000000000000000000000000000000000000000000000000000000000000000000000000000000000000000000000000000000000000000000000000000000000000000
310
0000000000000000000000000000000000000000000000000000F5F5F5F5F5F5F5F5F50000000000000000000000000000000000000000000000F5000000000000000000F5F500F5F5F500F5F528000000000000000000002800000000000000000000280000F500F5F500000000000000000000000000000000002D2D2D2D
310
2D2D2D2D0000002D2D2D2D00002D2D2D2D2D2D2D00002D2D2D2D2D2D2D00002D002D2D2D2D2D0000000000000000000000000000000000000000000000000000000000000000000000000000000000000000000000000000000000000000000000000000000000000000000000000000000000000000000000000000000000
310
00000000000000000000000000000000000000000000000000000000000000000000000000000000000000000000000000000000000000000000000000000000000000000000F5F500F5F5F50000F52800000000000000000000280000000000000000000028F5F50000F50000000000000000000000000000000000002D2D
310
2D2D2D2D2D2D2D2D2D2D2D2D002D2D2D002D2D2D2D2D2D2D2D2D2D2D2D2D2D2D2D2D2D2D2D2D2D00000000000000000000000000000000000000000000000000000000000000000000000000000000000000000000000000000000000000000000000000000000000000000000000000000000000000000000000000000000
310
0000000000000000000000000000000000000000000000000000000000000000000000000000000000000000000000000000000000000000000000000000000000000000000000F5F5F5F5F500F50000F528F5F5000000000000000028000000000000000000F528F5000000F5000000000000000000000000000000000000
310
2D2D2D2D002D2D2D0000002D2D2D0000002D2D2D2D2D2D2D00002D2D2D2D2D2D2D00002D2D2D2D2D2D2D00000000000000000000000000000000000000000000000000000000000000000000000000000000000000000000000000000000000000000000000000000000000000000000000000000000000000000000000000
310
0000000000000000000000000000000000000000000000000000000000000000000000000000000000000000000000000000000000000000000000000000000000000000000000000000F5F5F50000F500282828282828F5F5F5F5F5F5F5F5F5F5F5F5F5F5F5F528282828282800F500000000000000000000000000000000
310
00000000000000000000000000000000000000000000000000000000000000000000000000000000000000000000000000000000000000000000000000000000000000000000000000000000000000000000000000000000000000000000000000000000000000000000000000000000000000000000000000000000000000
310
00000000000000000000000000000000000000000000000000000000000000000000000000000000000000000000000000000000000000000000000000000000000000000000000000000000000000000000F5F5F528F5000000000000F5000028000000F5F50000000000280000F5F5000000000000000000000000000000
310
00000000000000000000000000000000000000000000000000000000000000000000000000000000000000000000000000000000000000000000000000000000000000000000000000000000000000000000000000000000000000000000000000000000000000000000000000000000000000000000000000000000000000
310
000000000000000000000000000000000000000000000000000000000000000000000000000000000000000000000000000000000000000000000000000000000000000000000000000000000000000000000000F500F52800000000000000F5000028000000F5F500000000002800F500F500000000000000000000000000
310
00000000000000000000000000000000000000000000000000000000000000000000000000000000000000000000000000000000000000000000000000000000000000000000000000000000000000000000000000000000000000000000000000000000000000000000000000000000000000000000000000000000000000
310
00000000000000000000000000000000000000000000000000000000000000000000000000000000000000000000000000000000000000000000000000000000000000000000000000000000000000000000000000000000F5F5F5F5F5F5F5F5F5F5000028000000F5F5F5F5F5F5F5F5F5F500000000000000000000000000
310
00000000000000000000000000000000000000000000000000000000000000000000000000000000000000000000000000000000000000000000000000000000000000000000000000000000000000000000000000000000000000000000000000000000000000000000000000000000000000000000000000000000000000
310
000000000000000000000000000000000000000000000000000000000000000000000000000000000000000000000000000000000000000000000000000000000000000000000000000000000000000000000000000000000000000000000000000000F5000028000000F5F500000000000000000000000000000000000000
310
00000000000000000000000000000000000000000000000000000000000000000000000000000000000000000000000000000000000000000000000000000000000000000000000000000000000000000000000000000000000000000000000000000000000000000000000000000000000000000000000000000000000000
310
0000000000000000000000000000000000000000000000000000000000000000000000000000000000000000000000000000000000000000000000000000000000000000000000000000000000000000000000000000000000000000000000000000000000F5000028000000F5F50000000000000000000000000000000000
310
00000000000000000000000000000000000000000000000000000000000000000000000000000000000000000000000000000000000000000000000000000000000000000000000000000000000000000000000000000000000000000000000000000000000000000000000000000000000000000000000000000000000000
310
00000000000000000000000000000000000000000000000000000000000000000000000000000000000000000000000000000000000000000000000000000000000000000000000000000000000000000000000000000000000000000000000000000000000000F5000028000000F5F5000000000000000000000000000000
310
00000000000000000000000000000000000000000000000000000000000000000000000000000000000000000000000000000000000000000000000000000000000000000000000000000000000000000000000000000000000000000000000000000000000000000000000000000000000000000000000000000000000000
310
000000000000000000000000000000000000000000000000000000000000000000000000000000000000000000000000000000000000000000000000000000000000000000000000000000000000000000000000000000000000000000000000000000000000000000F5000028000000F5F500000000000000000000000000
310
00000000000000000000000000000000000000000000000000000000000000000000000000000000000000000000000000000000000000000000000000000000000000000000000000000000000000000000000000000000000000000000000000000000000000000000000000000000000000000000000000000000000000
310
0000000000000000000000000000000000000000000000000000000000000000000000000000000000000000000000000000000000000000000000000000000000000000000000000000000000000000000000000000000000000000000000000000000000000000000000F5000028000000F5F50000000000000000000000
310
00000000000000000000000000000000000000000000000000000000000000000000000000000000000000000000000000000000000000000000000000000000000000000000000000000000000000000000000000000000000000000000000000000000000000000000000000000000000000000000000000000000000000
310
00000000000000000000000000000000000000000000000000000000000000000000000000000000000000000000000000000000000000000000000000000000000000000000000000000000000000000000000000000000000000000000000000000000000000000000000000F5000028000000F5F5000000000000000000
310
00000000000000000000000000000000000000000000000000000000000000000000000000000000000000000000000000000000000000000000000000000000000000000000000000000000000000000000000000000000000000000000000000000000000000000000000000000000000000000000000000000000000000
310
000000000000000000000000000000000000000000000000000000000000000000000000000000000000000000000000000000000000000000000000000000000000000000000000000000000000000000000000000000000000000000000000000000000000000000000000000000F5000028000000F5F500000000000000
310
00000000000000000000000000000000000000000000000000000000000000000000000000000000000000000000000000000000000000000000000000000000000000000000000000000000000000000000000000000000000000000000000000000000000000000000000000000000000000000000000000000000000000
310
0000000000000000000000000000000000000000000000000000000000000000000000000000000000000000000000000000000000000000000000000000000000000000000000000000000000000000000000000000000000000000000000000000000000000000000000000000000000F5000028000000F5F50000000000
310
00000000000000000000000000000000000000000000000000000000000000000000000000000000000000000000000000000000000000000000000000000000000000000000000000000000000000000000000000000000000000000000000000000000000000000000000000000000000000000000000000000000000000
310
00000000000000000000000000000000000000000000000000000000000000000000000000000000000000000000000000000000000000000000000000000000000000000000000000000000000000000000000000000000000000000000000000000000000000000000000000000000000000F5F5F5F5F5F5F5F5F5000000
310
00000000000000000000000000000000000000000000000000000000000000000000000000000000000000000000000000000000000000000000000000000000000000000000000000000000000000000000000000000000000000000000000000000000000000000000000000000000000000000000000000000000000000
310
00000000000000000000000000000000000000000000000000000000000000000000000000000000000000000000000000000000000000000000000000000000000000000000000000000000000000000000000000000000000000000000000000000000000000000000000000000000000000000000000028000000000000
310
00000000000000000000000000000000000000000000000000000000000000000000000000000000000000000000000000000000000000000000000000000000000000000000000000000000000000000000000000000000000000000000000000000000000000000000000000000000000000000000000000000000000000
310
00000000000000000000000000000000000000000000000000000000000000000000000000000000000000000000000000000000000000000000000000000000000000000000000000000000000000000000000000000000000000000000000000000000000000000000000000000000000000000000000000002800000000
310
00000000000000000000000000000000000000000000000000000000000000000000000000000000000000000000000000000000000000000000000000000000000000000000000000000000000000000000000000000000000000000000000000000000000000000000000000000000000000000000000000000000000000
310
00000000000000000000000000000000000000000000000000000000000000000000000000000000000000000000000000000000000000000000000000000000000000000000000000000000000000000000000000000000000000000000000000000000000000000000000000000000000000000000000000000000280000
310
00000000000000000000000000000000000000000000000000000000000000000000000000000000000000000000000000000000000000000000000000000000000000000000000000000000000000000000000000000000000000000000000000000000000000000000000000000000000000000000000000000000000000
310
00000000000000000000000000000000000000000000000000000000000000000000000000000000000000000000000000000000000000000000000000000000000000000000000000000000000000000000000000000000000000000000000000000000000000000000000000000000000000000000000000000000000000
310
00000000000000000000000000000000000000000000000000000000000000000000000000000000000000000000000000000000000000000000000000000000000000000000000000000000000000000000000000000000000000000000000000000000000000000000000000000000000000000000000000000000000000
310
00000000000000000000000000000000000000000000000000000000000000000000000000000000000000000000000000000000000000000000000000000000000000000000000000000000000000000000000000000000000000000000000000000000000000000000000000000000000000000000000000000000000000
310
00000000000000000000000000000000000000000000000000000000000000000000000000000000000000000000000000000000000000000000000000000000000000000000000000000000000000000000000000000000000000000000000000000000000000000000000000000000000000000000000000000000000000
310
00000000000000000000000000000000000000000000000000000000000000000000000000000000000000000000000000000000000000000000
  0
XRECORD
  5
26BB
102
{ACAD_REACTORS
330
26BA
102
}
330
26BA
100
AcDbXrecord
280
     1
102
SHADEPLOT
 70
     0
102
SHADEPLOTRESLEVEL
 70
     2
102
SHADEPLOTCUSTOMDPI
 70
   300
  0
XRECORD
  5
2667
102
{ACAD_REACTORS
330
181D
102
}
330
181D
100
AcDbXrecord
280
     1
102
MATERIAL
148
0.0
149
0.0
149
0.0
 93
        0
 94
      127
282
     0
 72
     0
 77
     0
171
     0
175
     0
179
     0
273
     0
  0
XRECORD
  5
181F
102
{ACAD_REACTORS
330
181D
102
}
330
181D
100
AcDbXrecord
280
     1
270
     1
271
     1
  0
XRECORD
  5
181E
102
{ACAD_REACTORS
330
181D
102
}
330
181D
100
AcDbXrecord
280
     1
270
     1
271
     1
  0
XRECORD
  5
1822
102
{ACAD_REACTORS
330
181D
102
}
330
181D
100
AcDbXrecord
280
     1
270
     1
271
     1
  0
XRECORD
  5
1821
102
{ACAD_REACTORS
330
181D
102
}
330
181D
100
AcDbXrecord
280
     1
270
     1
271
     1
  0
XRECORD
  5
1823
102
{ACAD_REACTORS
330
181D
102
}
330
181D
100
AcDbXrecord
280
     1
270
     1
271
     1
  0
XRECORD
  5
1820
102
{ACAD_REACTORS
330
181D
102
}
330
181D
100
AcDbXrecord
280
     1
270
     1
271
     1
  0
XRECORD
  5
2666
102
{ACAD_REACTORS
330
1815
102
}
330
1815
100
AcDbXrecord
280
     1
102
MATERIAL
148
0.0
149
0.0
149
0.0
 93
        0
 94
      127
282
     0
 72
     0
 77
     0
171
     0
175
     0
179
     0
273
     0
  0
XRECORD
  5
1817
102
{ACAD_REACTORS
330
1815
102
}
330
1815
100
AcDbXrecord
280
     1
270
     1
271
     1
  0
XRECORD
  5
1816
102
{ACAD_REACTORS
330
1815
102
}
330
1815
100
AcDbXrecord
280
     1
270
     1
271
     1
  0
XRECORD
  5
181A
102
{ACAD_REACTORS
330
1815
102
}
330
1815
100
AcDbXrecord
280
     1
270
     1
271
     1
  0
XRECORD
  5
1819
102
{ACAD_REACTORS
330
1815
102
}
330
1815
100
AcDbXrecord
280
     1
270
     1
271
     1
  0
XRECORD
  5
181B
102
{ACAD_REACTORS
330
1815
102
}
330
1815
100
AcDbXrecord
280
     1
270
     1
271
     1
  0
XRECORD
  5
1818
102
{ACAD_REACTORS
330
1815
102
}
330
1815
100
AcDbXrecord
280
     1
270
     1
271
     1
  0
XRECORD
  5
2668
102
{ACAD_REACTORS
330
1825
102
}
330
1825
100
AcDbXrecord
280
     1
102
MATERIAL
148
0.0
149
0.0
149
0.0
 93
        0
 94
      127
282
     0
 72
     0
 77
     0
171
     0
175
     0
179
     0
273
     0
  0
XRECORD
  5
1827
102
{ACAD_REACTORS
330
1825
102
}
330
1825
100
AcDbXrecord
280
     1
270
     1
271
     1
  0
XRECORD
  5
1826
102
{ACAD_REACTORS
330
1825
102
}
330
1825
100
AcDbXrecord
280
     1
270
     1
271
     1
  0
XRECORD
  5
182A
102
{ACAD_REACTORS
330
1825
102
}
330
1825
100
AcDbXrecord
280
     1
270
     1
271
     1
  0
XRECORD
  5
1829
102
{ACAD_REACTORS
330
1825
102
}
330
1825
100
AcDbXrecord
280
     1
270
     1
271
     1
  0
XRECORD
  5
182B
102
{ACAD_REACTORS
330
1825
102
}
330
1825
100
AcDbXrecord
280
     1
270
     1
271
     1
  0
XRECORD
  5
1828
102
{ACAD_REACTORS
330
1825
102
}
330
1825
100
AcDbXrecord
280
     1
270
     1
271
     1
  0
XRECORD
  5
26AF
102
{ACAD_REACTORS
330
26AE
102
}
330
26AE
100
AcDbXrecord
280
     1
102
DISPLAYNAME
  1
Imperial24
102
FLAGS
 90
        0
  0
CELLSTYLEMAP
  5
2662
102
{ACAD_REACTORS
330
1885
102
}
330
1885
100
AcDbCellStyleMap
 90
        3
300
CELLSTYLE
  1
TABLEFORMAT_BEGIN
 90
        5
170
     1
 91
        0
 92
    32768
 62
   257
 93
        1
300
CONTENTFORMAT
  1
CONTENTFORMAT_BEGIN
 90
        0
 91
        0
 92
      512
 93
        0
300

 40
0.0
140
1.0
 94
        5
 62
     0
340
16
144
0.25
309
CONTENTFORMAT_END
171
     1
301
MARGIN
  1
CELLMARGIN_BEGIN
 40
0.06
 40
0.06
 40
0.06
 40
0.06
 40
0.18
 40
0.18
309
CELLMARGIN_END
 94
        6
 95
        1
302
GRIDFORMAT
  1
GRIDFORMAT_BEGIN
 90
        0
 91
        1
 62
     0
 92
       -2
340
0
 93
        0
 40
0.045
309
GRIDFORMAT_END
 95
        2
302
GRIDFORMAT
  1
GRIDFORMAT_BEGIN
 90
        0
 91
        1
 62
     0
 92
       -2
340
0
 93
        0
 40
0.045
309
GRIDFORMAT_END
 95
        4
302
GRIDFORMAT
  1
GRIDFORMAT_BEGIN
 90
        0
 91
        1
 62
     0
 92
       -2
340
0
 93
        0
 40
0.045
309
GRIDFORMAT_END
 95
        8
302
GRIDFORMAT
  1
GRIDFORMAT_BEGIN
 90
        0
 91
        1
 62
     0
 92
       -2
340
0
 93
        0
 40
0.045
309
GRIDFORMAT_END
 95
       16
302
GRIDFORMAT
  1
GRIDFORMAT_BEGIN
 90
        0
 91
        1
 62
     0
 92
       -2
340
0
 93
        0
 40
0.045
309
GRIDFORMAT_END
 95
       32
302
GRIDFORMAT
  1
GRIDFORMAT_BEGIN
 90
        0
 91
        1
 62
     0
 92
       -2
340
0
 93
        0
 40
0.045
309
GRIDFORMAT_END
309
TABLEFORMAT_END
  1
CELLSTYLE_BEGIN
 90
        1
 91
        1
300
_TITLE
309
CELLSTYLE_END
300
CELLSTYLE
  1
TABLEFORMAT_BEGIN
 90
        5
170
     1
 91
        0
 92
        0
 62
   257
 93
        1
300
CONTENTFORMAT
  1
CONTENTFORMAT_BEGIN
 90
        0
 91
        0
 92
      512
 93
        0
300

 40
0.0
140
1.0
 94
        5
 62
     0
340
16
144
0.18
309
CONTENTFORMAT_END
171
     1
301
MARGIN
  1
CELLMARGIN_BEGIN
 40
0.06
 40
0.06
 40
0.06
 40
0.06
 40
0.18
 40
0.18
309
CELLMARGIN_END
 94
        6
 95
        1
302
GRIDFORMAT
  1
GRIDFORMAT_BEGIN
 90
        0
 91
        1
 62
     0
 92
       -2
340
0
 93
        0
 40
0.045
309
GRIDFORMAT_END
 95
        2
302
GRIDFORMAT
  1
GRIDFORMAT_BEGIN
 90
        0
 91
        1
 62
     0
 92
       -2
340
0
 93
        0
 40
0.045
309
GRIDFORMAT_END
 95
        4
302
GRIDFORMAT
  1
GRIDFORMAT_BEGIN
 90
        0
 91
        1
 62
     0
 92
       -2
340
0
 93
        0
 40
0.045
309
GRIDFORMAT_END
 95
        8
302
GRIDFORMAT
  1
GRIDFORMAT_BEGIN
 90
        0
 91
        1
 62
     0
 92
       -2
340
0
 93
        0
 40
0.045
309
GRIDFORMAT_END
 95
       16
302
GRIDFORMAT
  1
GRIDFORMAT_BEGIN
 90
        0
 91
        1
 62
     0
 92
       -2
340
0
 93
        0
 40
0.045
309
GRIDFORMAT_END
 95
       32
302
GRIDFORMAT
  1
GRIDFORMAT_BEGIN
 90
        0
 91
        1
 62
     0
 92
       -2
340
0
 93
        0
 40
0.045
309
GRIDFORMAT_END
309
TABLEFORMAT_END
  1
CELLSTYLE_BEGIN
 90
        2
 91
        1
300
_HEADER
309
CELLSTYLE_END
300
CELLSTYLE
  1
TABLEFORMAT_BEGIN
 90
        5
170
     1
 91
        0
 92
        0
 62
   257
 93
        1
300
CONTENTFORMAT
  1
CONTENTFORMAT_BEGIN
 90
        0
 91
        0
 92
      512
 93
        0
300

 40
0.0
140
1.0
 94
        2
 62
     0
340
16
144
0.18
309
CONTENTFORMAT_END
171
     1
301
MARGIN
  1
CELLMARGIN_BEGIN
 40
0.06
 40
0.06
 40
0.06
 40
0.06
 40
0.18
 40
0.18
309
CELLMARGIN_END
 94
        6
 95
        1
302
GRIDFORMAT
  1
GRIDFORMAT_BEGIN
 90
        0
 91
        1
 62
     0
 92
       -2
340
0
 93
        0
 40
0.045
309
GRIDFORMAT_END
 95
        2
302
GRIDFORMAT
  1
GRIDFORMAT_BEGIN
 90
        0
 91
        1
 62
     0
 92
       -2
340
0
 93
        0
 40
0.045
309
GRIDFORMAT_END
 95
        4
302
GRIDFORMAT
  1
GRIDFORMAT_BEGIN
 90
        0
 91
        1
 62
     0
 92
       -2
340
0
 93
        0
 40
0.045
309
GRIDFORMAT_END
 95
        8
302
GRIDFORMAT
  1
GRIDFORMAT_BEGIN
 90
        0
 91
        1
 62
     0
 92
       -2
340
0
 93
        0
 40
0.045
309
GRIDFORMAT_END
 95
       16
302
GRIDFORMAT
  1
GRIDFORMAT_BEGIN
 90
        0
 91
        1
 62
     0
 92
       -2
340
0
 93
        0
 40
0.045
309
GRIDFORMAT_END
 95
       32
302
GRIDFORMAT
  1
GRIDFORMAT_BEGIN
 90
        0
 91
        1
 62
     0
 92
       -2
340
0
 93
        0
 40
0.045
309
GRIDFORMAT_END
309
TABLEFORMAT_END
  1
CELLSTYLE_BEGIN
 90
        3
 91
        2
300
_DATA
309
CELLSTYLE_END
  0
XRECORD
  5
268F
102
{ACAD_REACTORS
330
1885
102
}
330
1885
100
AcDbXrecord
280
     1
102
ACAD_ROUNDTRIP_PRE2007_TABLESTYLE
 90
      512
 91
        0
  1

 92
      512
 93
        0
  2

 94
      512
 95
        0
  3

  0
XRECORD
  5
2674
102
{ACAD_REACTORS
330
2673
102
}
330
2673
100
AcDbXrecord
280
     1
102
RTVSPost2010Prop28
280
     1
102
RTVSPost2010PropOp28
 70
     1
102
RTVSPost2010Prop29
280
     1
102
RTVSPost2010PropOp29
 70
     1
102
RTVSPost2010Prop30
280
     0
102
RTVSPost2010PropOp30
 70
     1
102
RTVSPost2010Prop31
280
     0
102
RTVSPost2010PropOp31
 70
     1
102
RTVSPost2010Prop32
280
     0
102
RTVSPost2010PropOp32
 70
     1
102
RTVSPost2010Prop33
280
     0
102
RTVSPost2010PropOp33
 70
     1
102
RTVSPost2010Prop34
280
     0
102
RTVSPost2010PropOp34
 70
     1
102
RTVSPost2010Prop35
280
     0
102
RTVSPost2010PropOp35
 70
     1
102
RTVSPost2010Prop36
280
     0
102
RTVSPost2010PropOp36
 70
     1
102
RTVSPost2010Prop37
 90
       50
102
RTVSPost2010PropOp37
 70
     1
102
RTVSPost2010Prop38
140
0.0
102
RTVSPost2010PropOp38
 70
     1
102
RTVSPost2010Prop39
140
1.0
102
RTVSPost2010PropOp39
 70
     1
102
RTVSPost2010Prop40
 90
        0
102
RTVSPost2010PropOp40
 70
     1
102
RTVSPost2010Prop41ColorIndex
 90
       18
102
RTVSPost2010Prop41ColorRGB
 90
        0
102
RTVSPost2010PropOp41
 70
     1
102
RTVSPost2010Prop42
 90
       50
102
RTVSPost2010PropOp42
 70
     1
102
RTVSPost2010Prop43
 90
        3
102
RTVSPost2010PropOp43
 70
     1
102
RTVSPost2010Prop44ColorIndex
 90
        5
102
RTVSPost2010Prop44ColorRGB
 90
      255
102
RTVSPost2010PropOp44
 70
     1
102
RTVSPost2010Prop45
280
     0
102
RTVSPost2010PropOp45
 70
     1
102
RTVSPost2010Prop46
 90
       50
102
RTVSPost2010PropOp46
 70
     1
102
RTVSPost2010Prop47
 90
       50
102
RTVSPost2010PropOp47
 70
     1
102
RTVSPost2010Prop48
 90
       50
102
RTVSPost2010PropOp48
 70
     1
102
RTVSPost2010Prop49
280
     0
102
RTVSPost2010PropOp49
 70
     1
102
RTVSPost2010Prop50
 90
       50
102
RTVSPost2010PropOp50
 70
     1
102
RTVSPost2010Prop51ColorIndex
 90
      256
102
RTVSPost2010Prop51ColorRGB
 90
-16777216
102
RTVSPost2010PropOp51
 70
     0
102
RTVSPost2010Prop52
140
1.0
102
RTVSPost2010PropOp52
 70
     0
102
RTVSPost2010Prop53
 90
        2
102
RTVSPost2010PropOp53
 70
     1
102
RTVSPost2010Prop54
  1
strokes_ogs.tif
102
RTVSPost2010PropOp54
 70
     1
102
RTVSPost2010Prop55
280
     0
102
RTVSPost2010PropOp55
 70
     1
102
RTVSPost2010Prop56
140
1.0
102
RTVSPost2010PropOp56
 70
     1
102
RTVSPost2010Prop57
140
1.0
102
RTVSPost2010PropOp57
 70
     1
102
RTVSPropertyOp0
 70
     1
102
RTVSPropertyOp1
 70
     1
102
RTVSPropertyOp2
 70
     1
102
RTVSPropertyOp3
 70
     1
102
RTVSPropertyOp4
 70
     1
102
RTVSPropertyOp5
 70
     1
102
RTVSPropertyOp6
 70
     1
102
RTVSPropertyOp7
 70
     1
102
RTVSPropertyOp8
 70
     1
102
RTVSPropertyOp9
 70
     1
102
RTVSPropertyOp10
 70
     1
102
RTVSPropertyOp11
 70
     1
102
RTVSPropertyOp12
 70
     1
102
RTVSPropertyOp13
 70
     1
102
RTVSPropertyOp14
 70
     1
102
RTVSPropertyOp15
 70
     1
102
RTVSPropertyOp16
 70
     1
102
RTVSPropertyOp17
 70
     1
102
RTVSPropertyOp18
 70
     1
102
RTVSPropertyOp19
 70
     1
102
RTVSPropertyOp20
 70
     1
102
RTVSPropertyOp21
 70
     1
102
RTVSPropertyOp22
 70
     1
102
RTVSPropertyOp23
 70
     1
102
RTVSPropertyOp24
 70
     1
102
RTVSPropertyOp25
 70
     1
102
RTVSPropertyOp26
 70
     1
102
RTVSPropertyOp27
 70
     1
102
RTVSPropertyOp28
 70
     1
102
RTVSPropertyOp29
 70
     1
102
RTVSPropertyOp30
 70
     1
102
RTVSPropertyOp31
 70
     1
102
RTVSPropertyOp32
 70
     1
102
RTVSPropertyOp33
 70
     1
102
RTVSPropertyOp34
 70
     1
102
RTVSPropertyOp35
 70
     1
102
RTVSPropertyOp36
 70
     1
102
RTVSPropertyOp37
 70
     1
102
RTVSPropertyOp38
 70
     1
102
RTVSPropertyOp39
 70
     1
102
RTVSPropertyOp40
 70
     1
102
RTVSPropertyOp41
 70
     1
102
RTVSPropertyOp42
 70
     1
102
RTVSPropertyOp43
 70
     1
102
RTVSPropertyOp44
 70
     1
102
RTVSPropertyOp45
 70
     1
102
RTVSPropertyOp46
 70
     1
102
RTVSPropertyOp47
 70
     1
102
RTVSPropertyOp48
 70
     1
102
RTVSPropertyOp49
 70
     1
102
RTVSPropertyOp50
 70
     1
102
RTVSPropertyOp51
 70
     0
102
RTVSPropertyOp52
 70
     0
102
RTVSPropertyOp53
 70
     1
102
RTVSPropertyOp54
 70
     1
102
RTVSPropertyOp55
 70
     1
102
RTVSPropertyOp56
 70
     1
102
RTVSPropertyOp57
 70
     1
102
RTVSPropertyOp58
 70
     1
102
RTVSPropertyOp59
 70
     1
102
RTVSPropertyOp60
 70
     1
102
RTVSPropertyOp61
 70
     1
102
RTVSPropertyOp62
 70
     1
  0
XRECORD
  5
2678
102
{ACAD_REACTORS
330
2677
102
}
330
2677
100
AcDbXrecord
280
     1
102
RTVSPost2010Prop28
280
     0
102
RTVSPost2010PropOp28
 70
     1
102
RTVSPost2010Prop29
280
     1
102
RTVSPost2010PropOp29
 70
     1
102
RTVSPost2010Prop30
280
     1
102
RTVSPost2010PropOp30
 70
     1
102
RTVSPost2010Prop31
280
     0
102
RTVSPost2010PropOp31
 70
     1
102
RTVSPost2010Prop32
280
     0
102
RTVSPost2010PropOp32
 70
     1
102
RTVSPost2010Prop33
280
     0
102
RTVSPost2010PropOp33
 70
     1
102
RTVSPost2010Prop34
280
     0
102
RTVSPost2010PropOp34
 70
     1
102
RTVSPost2010Prop35
280
     0
102
RTVSPost2010PropOp35
 70
     1
102
RTVSPost2010Prop36
280
     0
102
RTVSPost2010PropOp36
 70
     1
102
RTVSPost2010Prop37
 90
       50
102
RTVSPost2010PropOp37
 70
     1
102
RTVSPost2010Prop38
140
0.0
102
RTVSPost2010PropOp38
 70
     1
102
RTVSPost2010Prop39
140
1.0
102
RTVSPost2010PropOp39
 70
     1
102
RTVSPost2010Prop40
 90
        0
102
RTVSPost2010PropOp40
 70
     1
102
RTVSPost2010Prop41ColorIndex
 90
       18
102
RTVSPost2010Prop41ColorRGB
 90
        0
102
RTVSPost2010PropOp41
 70
     1
102
RTVSPost2010Prop42
 90
       50
102
RTVSPost2010PropOp42
 70
     1
102
RTVSPost2010Prop43
 90
        3
102
RTVSPost2010PropOp43
 70
     1
102
RTVSPost2010Prop44ColorIndex
 90
        5
102
RTVSPost2010Prop44ColorRGB
 90
      255
102
RTVSPost2010PropOp44
 70
     1
102
RTVSPost2010Prop45
280
     0
102
RTVSPost2010PropOp45
 70
     1
102
RTVSPost2010Prop46
 90
       50
102
RTVSPost2010PropOp46
 70
     1
102
RTVSPost2010Prop47
 90
       50
102
RTVSPost2010PropOp47
 70
     1
102
RTVSPost2010Prop48
 90
       50
102
RTVSPost2010PropOp48
 70
     1
102
RTVSPost2010Prop49
280
     0
102
RTVSPost2010PropOp49
 70
     1
102
RTVSPost2010Prop50
 90
       50
102
RTVSPost2010PropOp50
 70
     1
102
RTVSPost2010Prop51ColorIndex
 90
      256
102
RTVSPost2010Prop51ColorRGB
 90
-16777216
102
RTVSPost2010PropOp51
 70
     0
102
RTVSPost2010Prop52
140
1.0
102
RTVSPost2010PropOp52
 70
     0
102
RTVSPost2010Prop53
 90
        2
102
RTVSPost2010PropOp53
 70
     1
102
RTVSPost2010Prop54
  1
strokes_ogs.tif
102
RTVSPost2010PropOp54
 70
     1
102
RTVSPost2010Prop55
280
     0
102
RTVSPost2010PropOp55
 70
     1
102
RTVSPost2010Prop56
140
1.0
102
RTVSPost2010PropOp56
 70
     1
102
RTVSPost2010Prop57
140
1.0
102
RTVSPost2010PropOp57
 70
     1
102
RTVSPropertyOp0
 70
     1
102
RTVSPropertyOp1
 70
     1
102
RTVSPropertyOp2
 70
     1
102
RTVSPropertyOp3
 70
     1
102
RTVSPropertyOp4
 70
     1
102
RTVSPropertyOp5
 70
     1
102
RTVSPropertyOp6
 70
     1
102
RTVSPropertyOp7
 70
     1
102
RTVSPropertyOp8
 70
     1
102
RTVSPropertyOp9
 70
     1
102
RTVSPropertyOp10
 70
     1
102
RTVSPropertyOp11
 70
     1
102
RTVSPropertyOp12
 70
     1
102
RTVSPropertyOp13
 70
     1
102
RTVSPropertyOp14
 70
     1
102
RTVSPropertyOp15
 70
     1
102
RTVSPropertyOp16
 70
     1
102
RTVSPropertyOp17
 70
     1
102
RTVSPropertyOp18
 70
     1
102
RTVSPropertyOp19
 70
     1
102
RTVSPropertyOp20
 70
     1
102
RTVSPropertyOp21
 70
     1
102
RTVSPropertyOp22
 70
     1
102
RTVSPropertyOp23
 70
     1
102
RTVSPropertyOp24
 70
     1
102
RTVSPropertyOp25
 70
     1
102
RTVSPropertyOp26
 70
     1
102
RTVSPropertyOp27
 70
     1
102
RTVSPropertyOp28
 70
     1
102
RTVSPropertyOp29
 70
     1
102
RTVSPropertyOp30
 70
     1
102
RTVSPropertyOp31
 70
     1
102
RTVSPropertyOp32
 70
     1
102
RTVSPropertyOp33
 70
     1
102
RTVSPropertyOp34
 70
     1
102
RTVSPropertyOp35
 70
     1
102
RTVSPropertyOp36
 70
     1
102
RTVSPropertyOp37
 70
     1
102
RTVSPropertyOp38
 70
     1
102
RTVSPropertyOp39
 70
     1
102
RTVSPropertyOp40
 70
     1
102
RTVSPropertyOp41
 70
     1
102
RTVSPropertyOp42
 70
     1
102
RTVSPropertyOp43
 70
     1
102
RTVSPropertyOp44
 70
     1
102
RTVSPropertyOp45
 70
     1
102
RTVSPropertyOp46
 70
     1
102
RTVSPropertyOp47
 70
     1
102
RTVSPropertyOp48
 70
     1
102
RTVSPropertyOp49
 70
     1
102
RTVSPropertyOp50
 70
     1
102
RTVSPropertyOp51
 70
     0
102
RTVSPropertyOp52
 70
     0
102
RTVSPropertyOp53
 70
     1
102
RTVSPropertyOp54
 70
     1
102
RTVSPropertyOp55
 70
     1
102
RTVSPropertyOp56
 70
     1
102
RTVSPropertyOp57
 70
     1
102
RTVSPropertyOp58
 70
     1
102
RTVSPropertyOp59
 70
     1
102
RTVSPropertyOp60
 70
     1
102
RTVSPropertyOp61
 70
     1
102
RTVSPropertyOp62
 70
     1
  0
XRECORD
  5
2676
102
{ACAD_REACTORS
330
2675
102
}
330
2675
100
AcDbXrecord
280
     1
102
RTVSPost2010Prop28
280
     0
102
RTVSPost2010PropOp28
 70
     1
102
RTVSPost2010Prop29
280
     1
102
RTVSPost2010PropOp29
 70
     1
102
RTVSPost2010Prop30
280
     1
102
RTVSPost2010PropOp30
 70
     1
102
RTVSPost2010Prop31
280
     0
102
RTVSPost2010PropOp31
 70
     1
102
RTVSPost2010Prop32
280
     0
102
RTVSPost2010PropOp32
 70
     1
102
RTVSPost2010Prop33
280
     0
102
RTVSPost2010PropOp33
 70
     1
102
RTVSPost2010Prop34
280
     0
102
RTVSPost2010PropOp34
 70
     1
102
RTVSPost2010Prop35
280
     0
102
RTVSPost2010PropOp35
 70
     1
102
RTVSPost2010Prop36
280
     0
102
RTVSPost2010PropOp36
 70
     1
102
RTVSPost2010Prop37
 90
       50
102
RTVSPost2010PropOp37
 70
     1
102
RTVSPost2010Prop38
140
0.0
102
RTVSPost2010PropOp38
 70
     1
102
RTVSPost2010Prop39
140
1.0
102
RTVSPost2010PropOp39
 70
     1
102
RTVSPost2010Prop40
 90
        0
102
RTVSPost2010PropOp40
 70
     1
102
RTVSPost2010Prop41ColorIndex
 90
       18
102
RTVSPost2010Prop41ColorRGB
 90
        0
102
RTVSPost2010PropOp41
 70
     1
102
RTVSPost2010Prop42
 90
       50
102
RTVSPost2010PropOp42
 70
     1
102
RTVSPost2010Prop43
 90
        3
102
RTVSPost2010PropOp43
 70
     1
102
RTVSPost2010Prop44ColorIndex
 90
        5
102
RTVSPost2010Prop44ColorRGB
 90
      255
102
RTVSPost2010PropOp44
 70
     1
102
RTVSPost2010Prop45
280
     0
102
RTVSPost2010PropOp45
 70
     1
102
RTVSPost2010Prop46
 90
       50
102
RTVSPost2010PropOp46
 70
     1
102
RTVSPost2010Prop47
 90
       50
102
RTVSPost2010PropOp47
 70
     1
102
RTVSPost2010Prop48
 90
       50
102
RTVSPost2010PropOp48
 70
     1
102
RTVSPost2010Prop49
280
     0
102
RTVSPost2010PropOp49
 70
     1
102
RTVSPost2010Prop50
 90
       50
102
RTVSPost2010PropOp50
 70
     1
102
RTVSPost2010Prop51ColorIndex
 90
      256
102
RTVSPost2010Prop51ColorRGB
 90
-16777216
102
RTVSPost2010PropOp51
 70
     0
102
RTVSPost2010Prop52
140
1.0
102
RTVSPost2010PropOp52
 70
     0
102
RTVSPost2010Prop53
 90
        2
102
RTVSPost2010PropOp53
 70
     1
102
RTVSPost2010Prop54
  1
strokes_ogs.tif
102
RTVSPost2010PropOp54
 70
     1
102
RTVSPost2010Prop55
280
     0
102
RTVSPost2010PropOp55
 70
     1
102
RTVSPost2010Prop56
140
1.0
102
RTVSPost2010PropOp56
 70
     1
102
RTVSPost2010Prop57
140
1.0
102
RTVSPost2010PropOp57
 70
     1
102
RTVSPropertyOp0
 70
     1
102
RTVSPropertyOp1
 70
     1
102
RTVSPropertyOp2
 70
     1
102
RTVSPropertyOp3
 70
     1
102
RTVSPropertyOp4
 70
     1
102
RTVSPropertyOp5
 70
     1
102
RTVSPropertyOp6
 70
     1
102
RTVSPropertyOp7
 70
     1
102
RTVSPropertyOp8
 70
     1
102
RTVSPropertyOp9
 70
     1
102
RTVSPropertyOp10
 70
     1
102
RTVSPropertyOp11
 70
     1
102
RTVSPropertyOp12
 70
     1
102
RTVSPropertyOp13
 70
     1
102
RTVSPropertyOp14
 70
     1
102
RTVSPropertyOp15
 70
     1
102
RTVSPropertyOp16
 70
     1
102
RTVSPropertyOp17
 70
     1
102
RTVSPropertyOp18
 70
     1
102
RTVSPropertyOp19
 70
     1
102
RTVSPropertyOp20
 70
     1
102
RTVSPropertyOp21
 70
     1
102
RTVSPropertyOp22
 70
     1
102
RTVSPropertyOp23
 70
     1
102
RTVSPropertyOp24
 70
     1
102
RTVSPropertyOp25
 70
     1
102
RTVSPropertyOp26
 70
     1
102
RTVSPropertyOp27
 70
     1
102
RTVSPropertyOp28
 70
     1
102
RTVSPropertyOp29
 70
     1
102
RTVSPropertyOp30
 70
     1
102
RTVSPropertyOp31
 70
     1
102
RTVSPropertyOp32
 70
     1
102
RTVSPropertyOp33
 70
     1
102
RTVSPropertyOp34
 70
     1
102
RTVSPropertyOp35
 70
     1
102
RTVSPropertyOp36
 70
     1
102
RTVSPropertyOp37
 70
     1
102
RTVSPropertyOp38
 70
     1
102
RTVSPropertyOp39
 70
     1
102
RTVSPropertyOp40
 70
     1
102
RTVSPropertyOp41
 70
     1
102
RTVSPropertyOp42
 70
     1
102
RTVSPropertyOp43
 70
     1
102
RTVSPropertyOp44
 70
     1
102
RTVSPropertyOp45
 70
     1
102
RTVSPropertyOp46
 70
     1
102
RTVSPropertyOp47
 70
     1
102
RTVSPropertyOp48
 70
     1
102
RTVSPropertyOp49
 70
     1
102
RTVSPropertyOp50
 70
     1
102
RTVSPropertyOp51
 70
     0
102
RTVSPropertyOp52
 70
     0
102
RTVSPropertyOp53
 70
     1
102
RTVSPropertyOp54
 70
     1
102
RTVSPropertyOp55
 70
     1
102
RTVSPropertyOp56
 70
     1
102
RTVSPropertyOp57
 70
     1
102
RTVSPropertyOp58
 70
     1
102
RTVSPropertyOp59
 70
     1
102
RTVSPropertyOp60
 70
     1
102
RTVSPropertyOp61
 70
     1
102
RTVSPropertyOp62
 70
     1
  0
XRECORD
  5
2672
102
{ACAD_REACTORS
330
2671
102
}
330
2671
100
AcDbXrecord
280
     1
102
RTVSPost2010Prop28
280
     0
102
RTVSPost2010PropOp28
 70
     1
102
RTVSPost2010Prop29
280
     1
102
RTVSPost2010PropOp29
 70
     1
102
RTVSPost2010Prop30
280
     1
102
RTVSPost2010PropOp30
 70
     1
102
RTVSPost2010Prop31
280
     0
102
RTVSPost2010PropOp31
 70
     1
102
RTVSPost2010Prop32
280
     0
102
RTVSPost2010PropOp32
 70
     1
102
RTVSPost2010Prop33
280
     0
102
RTVSPost2010PropOp33
 70
     1
102
RTVSPost2010Prop34
280
     0
102
RTVSPost2010PropOp34
 70
     1
102
RTVSPost2010Prop35
280
     0
102
RTVSPost2010PropOp35
 70
     1
102
RTVSPost2010Prop36
280
     0
102
RTVSPost2010PropOp36
 70
     1
102
RTVSPost2010Prop37
 90
       50
102
RTVSPost2010PropOp37
 70
     1
102
RTVSPost2010Prop38
140
0.0
102
RTVSPost2010PropOp38
 70
     1
102
RTVSPost2010Prop39
140
1.0
102
RTVSPost2010PropOp39
 70
     1
102
RTVSPost2010Prop40
 90
        0
102
RTVSPost2010PropOp40
 70
     1
102
RTVSPost2010Prop41ColorIndex
 90
       18
102
RTVSPost2010Prop41ColorRGB
 90
        0
102
RTVSPost2010PropOp41
 70
     1
102
RTVSPost2010Prop42
 90
       50
102
RTVSPost2010PropOp42
 70
     1
102
RTVSPost2010Prop43
 90
        3
102
RTVSPost2010PropOp43
 70
     1
102
RTVSPost2010Prop44ColorIndex
 90
        5
102
RTVSPost2010Prop44ColorRGB
 90
      255
102
RTVSPost2010PropOp44
 70
     1
102
RTVSPost2010Prop45
280
     0
102
RTVSPost2010PropOp45
 70
     1
102
RTVSPost2010Prop46
 90
       50
102
RTVSPost2010PropOp46
 70
     1
102
RTVSPost2010Prop47
 90
       50
102
RTVSPost2010PropOp47
 70
     1
102
RTVSPost2010Prop48
 90
       50
102
RTVSPost2010PropOp48
 70
     1
102
RTVSPost2010Prop49
280
     0
102
RTVSPost2010PropOp49
 70
     1
102
RTVSPost2010Prop50
 90
       50
102
RTVSPost2010PropOp50
 70
     1
102
RTVSPost2010Prop51ColorIndex
 90
      256
102
RTVSPost2010Prop51ColorRGB
 90
-16777216
102
RTVSPost2010PropOp51
 70
     0
102
RTVSPost2010Prop52
140
1.0
102
RTVSPost2010PropOp52
 70
     0
102
RTVSPost2010Prop53
 90
        2
102
RTVSPost2010PropOp53
 70
     1
102
RTVSPost2010Prop54
  1
strokes_ogs.tif
102
RTVSPost2010PropOp54
 70
     1
102
RTVSPost2010Prop55
280
     0
102
RTVSPost2010PropOp55
 70
     1
102
RTVSPost2010Prop56
140
1.0
102
RTVSPost2010PropOp56
 70
     1
102
RTVSPost2010Prop57
140
1.0
102
RTVSPost2010PropOp57
 70
     1
102
RTVSPropertyOp0
 70
     1
102
RTVSPropertyOp1
 70
     1
102
RTVSPropertyOp2
 70
     1
102
RTVSPropertyOp3
 70
     1
102
RTVSPropertyOp4
 70
     1
102
RTVSPropertyOp5
 70
     1
102
RTVSPropertyOp6
 70
     1
102
RTVSPropertyOp7
 70
     1
102
RTVSPropertyOp8
 70
     1
102
RTVSPropertyOp9
 70
     1
102
RTVSPropertyOp10
 70
     1
102
RTVSPropertyOp11
 70
     1
102
RTVSPropertyOp12
 70
     1
102
RTVSPropertyOp13
 70
     1
102
RTVSPropertyOp14
 70
     1
102
RTVSPropertyOp15
 70
     1
102
RTVSPropertyOp16
 70
     1
102
RTVSPropertyOp17
 70
     1
102
RTVSPropertyOp18
 70
     1
102
RTVSPropertyOp19
 70
     1
102
RTVSPropertyOp20
 70
     1
102
RTVSPropertyOp21
 70
     1
102
RTVSPropertyOp22
 70
     1
102
RTVSPropertyOp23
 70
     1
102
RTVSPropertyOp24
 70
     1
102
RTVSPropertyOp25
 70
     1
102
RTVSPropertyOp26
 70
     1
102
RTVSPropertyOp27
 70
     1
102
RTVSPropertyOp28
 70
     1
102
RTVSPropertyOp29
 70
     1
102
RTVSPropertyOp30
 70
     1
102
RTVSPropertyOp31
 70
     1
102
RTVSPropertyOp32
 70
     1
102
RTVSPropertyOp33
 70
     1
102
RTVSPropertyOp34
 70
     1
102
RTVSPropertyOp35
 70
     1
102
RTVSPropertyOp36
 70
     1
102
RTVSPropertyOp37
 70
     1
102
RTVSPropertyOp38
 70
     1
102
RTVSPropertyOp39
 70
     1
102
RTVSPropertyOp40
 70
     1
102
RTVSPropertyOp41
 70
     1
102
RTVSPropertyOp42
 70
     1
102
RTVSPropertyOp43
 70
     1
102
RTVSPropertyOp44
 70
     1
102
RTVSPropertyOp45
 70
     1
102
RTVSPropertyOp46
 70
     1
102
RTVSPropertyOp47
 70
     1
102
RTVSPropertyOp48
 70
     1
102
RTVSPropertyOp49
 70
     1
102
RTVSPropertyOp50
 70
     1
102
RTVSPropertyOp51
 70
     0
102
RTVSPropertyOp52
 70
     0
102
RTVSPropertyOp53
 70
     1
102
RTVSPropertyOp54
 70
     1
102
RTVSPropertyOp55
 70
     1
102
RTVSPropertyOp56
 70
     1
102
RTVSPropertyOp57
 70
     1
102
RTVSPropertyOp58
 70
     1
102
RTVSPropertyOp59
 70
     1
102
RTVSPropertyOp60
 70
     1
102
RTVSPropertyOp61
 70
     1
102
RTVSPropertyOp62
 70
     1
  0
XRECORD
  5
2680
102
{ACAD_REACTORS
330
267F
102
}
330
267F
100
AcDbXrecord
280
     1
102
RTVSPost2010Prop28
280
     0
102
RTVSPost2010PropOp28
 70
     1
102
RTVSPost2010Prop29
280
     1
102
RTVSPost2010PropOp29
 70
     1
102
RTVSPost2010Prop30
280
     1
102
RTVSPost2010PropOp30
 70
     1
102
RTVSPost2010Prop31
280
     0
102
RTVSPost2010PropOp31
 70
     1
102
RTVSPost2010Prop32
280
     0
102
RTVSPost2010PropOp32
 70
     1
102
RTVSPost2010Prop33
280
     0
102
RTVSPost2010PropOp33
 70
     1
102
RTVSPost2010Prop34
280
     0
102
RTVSPost2010PropOp34
 70
     1
102
RTVSPost2010Prop35
280
     0
102
RTVSPost2010PropOp35
 70
     1
102
RTVSPost2010Prop36
280
     0
102
RTVSPost2010PropOp36
 70
     1
102
RTVSPost2010Prop37
 90
       50
102
RTVSPost2010PropOp37
 70
     1
102
RTVSPost2010Prop38
140
0.0
102
RTVSPost2010PropOp38
 70
     1
102
RTVSPost2010Prop39
140
1.0
102
RTVSPost2010PropOp39
 70
     1
102
RTVSPost2010Prop40
 90
        0
102
RTVSPost2010PropOp40
 70
     1
102
RTVSPost2010Prop41ColorIndex
 90
       18
102
RTVSPost2010Prop41ColorRGB
 90
        0
102
RTVSPost2010PropOp41
 70
     1
102
RTVSPost2010Prop42
 90
       50
102
RTVSPost2010PropOp42
 70
     1
102
RTVSPost2010Prop43
 90
        3
102
RTVSPost2010PropOp43
 70
     1
102
RTVSPost2010Prop44ColorIndex
 90
        5
102
RTVSPost2010Prop44ColorRGB
 90
      255
102
RTVSPost2010PropOp44
 70
     1
102
RTVSPost2010Prop45
280
     0
102
RTVSPost2010PropOp45
 70
     1
102
RTVSPost2010Prop46
 90
       50
102
RTVSPost2010PropOp46
 70
     1
102
RTVSPost2010Prop47
 90
       50
102
RTVSPost2010PropOp47
 70
     1
102
RTVSPost2010Prop48
 90
       50
102
RTVSPost2010PropOp48
 70
     1
102
RTVSPost2010Prop49
280
     0
102
RTVSPost2010PropOp49
 70
     1
102
RTVSPost2010Prop50
 90
       50
102
RTVSPost2010PropOp50
 70
     1
102
RTVSPost2010Prop51ColorIndex
 90
      256
102
RTVSPost2010Prop51ColorRGB
 90
-16777216
102
RTVSPost2010PropOp51
 70
     0
102
RTVSPost2010Prop52
140
1.0
102
RTVSPost2010PropOp52
 70
     0
102
RTVSPost2010Prop53
 90
        2
102
RTVSPost2010PropOp53
 70
     1
102
RTVSPost2010Prop54
  1
strokes_ogs.tif
102
RTVSPost2010PropOp54
 70
     1
102
RTVSPost2010Prop55
280
     0
102
RTVSPost2010PropOp55
 70
     1
102
RTVSPost2010Prop56
140
1.0
102
RTVSPost2010PropOp56
 70
     1
102
RTVSPost2010Prop57
140
1.0
102
RTVSPost2010PropOp57
 70
     1
102
RTVSPropertyOp0
 70
     1
102
RTVSPropertyOp1
 70
     1
102
RTVSPropertyOp2
 70
     1
102
RTVSPropertyOp3
 70
     1
102
RTVSPropertyOp4
 70
     1
102
RTVSPropertyOp5
 70
     1
102
RTVSPropertyOp6
 70
     1
102
RTVSPropertyOp7
 70
     1
102
RTVSPropertyOp8
 70
     1
102
RTVSPropertyOp9
 70
     1
102
RTVSPropertyOp10
 70
     1
102
RTVSPropertyOp11
 70
     1
102
RTVSPropertyOp12
 70
     1
102
RTVSPropertyOp13
 70
     1
102
RTVSPropertyOp14
 70
     1
102
RTVSPropertyOp15
 70
     1
102
RTVSPropertyOp16
 70
     1
102
RTVSPropertyOp17
 70
     1
102
RTVSPropertyOp18
 70
     1
102
RTVSPropertyOp19
 70
     1
102
RTVSPropertyOp20
 70
     1
102
RTVSPropertyOp21
 70
     1
102
RTVSPropertyOp22
 70
     1
102
RTVSPropertyOp23
 70
     1
102
RTVSPropertyOp24
 70
     1
102
RTVSPropertyOp25
 70
     1
102
RTVSPropertyOp26
 70
     1
102
RTVSPropertyOp27
 70
     1
102
RTVSPropertyOp28
 70
     1
102
RTVSPropertyOp29
 70
     1
102
RTVSPropertyOp30
 70
     1
102
RTVSPropertyOp31
 70
     1
102
RTVSPropertyOp32
 70
     1
102
RTVSPropertyOp33
 70
     1
102
RTVSPropertyOp34
 70
     1
102
RTVSPropertyOp35
 70
     1
102
RTVSPropertyOp36
 70
     1
102
RTVSPropertyOp37
 70
     1
102
RTVSPropertyOp38
 70
     1
102
RTVSPropertyOp39
 70
     1
102
RTVSPropertyOp40
 70
     1
102
RTVSPropertyOp41
 70
     1
102
RTVSPropertyOp42
 70
     1
102
RTVSPropertyOp43
 70
     1
102
RTVSPropertyOp44
 70
     1
102
RTVSPropertyOp45
 70
     1
102
RTVSPropertyOp46
 70
     1
102
RTVSPropertyOp47
 70
     1
102
RTVSPropertyOp48
 70
     1
102
RTVSPropertyOp49
 70
     1
102
RTVSPropertyOp50
 70
     1
102
RTVSPropertyOp51
 70
     0
102
RTVSPropertyOp52
 70
     0
102
RTVSPropertyOp53
 70
     1
102
RTVSPropertyOp54
 70
     1
102
RTVSPropertyOp55
 70
     1
102
RTVSPropertyOp56
 70
     1
102
RTVSPropertyOp57
 70
     1
102
RTVSPropertyOp58
 70
     1
102
RTVSPropertyOp59
 70
     1
102
RTVSPropertyOp60
 70
     1
102
RTVSPropertyOp61
 70
     1
102
RTVSPropertyOp62
 70
     1
  0
XRECORD
  5
2688
102
{ACAD_REACTORS
330
2687
102
}
330
2687
100
AcDbXrecord
280
     1
102
RTVSPost2010Prop28
280
     0
102
RTVSPost2010PropOp28
 70
     1
102
RTVSPost2010Prop29
280
     1
102
RTVSPost2010PropOp29
 70
     1
102
RTVSPost2010Prop30
280
     1
102
RTVSPost2010PropOp30
 70
     1
102
RTVSPost2010Prop31
280
     0
102
RTVSPost2010PropOp31
 70
     1
102
RTVSPost2010Prop32
280
     0
102
RTVSPost2010PropOp32
 70
     1
102
RTVSPost2010Prop33
280
     0
102
RTVSPost2010PropOp33
 70
     1
102
RTVSPost2010Prop34
280
     0
102
RTVSPost2010PropOp34
 70
     1
102
RTVSPost2010Prop35
280
     0
102
RTVSPost2010PropOp35
 70
     1
102
RTVSPost2010Prop36
280
     0
102
RTVSPost2010PropOp36
 70
     1
102
RTVSPost2010Prop37
 90
       50
102
RTVSPost2010PropOp37
 70
     1
102
RTVSPost2010Prop38
140
0.0
102
RTVSPost2010PropOp38
 70
     1
102
RTVSPost2010Prop39
140
1.0
102
RTVSPost2010PropOp39
 70
     1
102
RTVSPost2010Prop40
 90
        0
102
RTVSPost2010PropOp40
 70
     1
102
RTVSPost2010Prop41ColorIndex
 90
       18
102
RTVSPost2010Prop41ColorRGB
 90
        0
102
RTVSPost2010PropOp41
 70
     1
102
RTVSPost2010Prop42
 90
       50
102
RTVSPost2010PropOp42
 70
     1
102
RTVSPost2010Prop43
 90
        3
102
RTVSPost2010PropOp43
 70
     1
102
RTVSPost2010Prop44ColorIndex
 90
        5
102
RTVSPost2010Prop44ColorRGB
 90
      255
102
RTVSPost2010PropOp44
 70
     1
102
RTVSPost2010Prop45
280
     0
102
RTVSPost2010PropOp45
 70
     1
102
RTVSPost2010Prop46
 90
       50
102
RTVSPost2010PropOp46
 70
     1
102
RTVSPost2010Prop47
 90
       50
102
RTVSPost2010PropOp47
 70
     1
102
RTVSPost2010Prop48
 90
       50
102
RTVSPost2010PropOp48
 70
     1
102
RTVSPost2010Prop49
280
     0
102
RTVSPost2010PropOp49
 70
     1
102
RTVSPost2010Prop50
 90
       50
102
RTVSPost2010PropOp50
 70
     1
102
RTVSPost2010Prop51ColorIndex
 90
      256
102
RTVSPost2010Prop51ColorRGB
 90
-16777216
102
RTVSPost2010PropOp51
 70
     0
102
RTVSPost2010Prop52
140
1.0
102
RTVSPost2010PropOp52
 70
     0
102
RTVSPost2010Prop53
 90
        2
102
RTVSPost2010PropOp53
 70
     1
102
RTVSPost2010Prop54
  1
strokes_ogs.tif
102
RTVSPost2010PropOp54
 70
     1
102
RTVSPost2010Prop55
280
     0
102
RTVSPost2010PropOp55
 70
     1
102
RTVSPost2010Prop56
140
1.0
102
RTVSPost2010PropOp56
 70
     1
102
RTVSPost2010Prop57
140
1.0
102
RTVSPost2010PropOp57
 70
     1
102
RTVSPropertyOp0
 70
     1
102
RTVSPropertyOp1
 70
     1
102
RTVSPropertyOp2
 70
     1
102
RTVSPropertyOp3
 70
     1
102
RTVSPropertyOp4
 70
     1
102
RTVSPropertyOp5
 70
     1
102
RTVSPropertyOp6
 70
     1
102
RTVSPropertyOp7
 70
     1
102
RTVSPropertyOp8
 70
     1
102
RTVSPropertyOp9
 70
     1
102
RTVSPropertyOp10
 70
     1
102
RTVSPropertyOp11
 70
     1
102
RTVSPropertyOp12
 70
     1
102
RTVSPropertyOp13
 70
     1
102
RTVSPropertyOp14
 70
     1
102
RTVSPropertyOp15
 70
     1
102
RTVSPropertyOp16
 70
     1
102
RTVSPropertyOp17
 70
     1
102
RTVSPropertyOp18
 70
     1
102
RTVSPropertyOp19
 70
     1
102
RTVSPropertyOp20
 70
     1
102
RTVSPropertyOp21
 70
     1
102
RTVSPropertyOp22
 70
     1
102
RTVSPropertyOp23
 70
     1
102
RTVSPropertyOp24
 70
     1
102
RTVSPropertyOp25
 70
     1
102
RTVSPropertyOp26
 70
     1
102
RTVSPropertyOp27
 70
     1
102
RTVSPropertyOp28
 70
     1
102
RTVSPropertyOp29
 70
     1
102
RTVSPropertyOp30
 70
     1
102
RTVSPropertyOp31
 70
     1
102
RTVSPropertyOp32
 70
     1
102
RTVSPropertyOp33
 70
     1
102
RTVSPropertyOp34
 70
     1
102
RTVSPropertyOp35
 70
     1
102
RTVSPropertyOp36
 70
     1
102
RTVSPropertyOp37
 70
     1
102
RTVSPropertyOp38
 70
     1
102
RTVSPropertyOp39
 70
     1
102
RTVSPropertyOp40
 70
     1
102
RTVSPropertyOp41
 70
     1
102
RTVSPropertyOp42
 70
     1
102
RTVSPropertyOp43
 70
     1
102
RTVSPropertyOp44
 70
     1
102
RTVSPropertyOp45
 70
     1
102
RTVSPropertyOp46
 70
     1
102
RTVSPropertyOp47
 70
     1
102
RTVSPropertyOp48
 70
     1
102
RTVSPropertyOp49
 70
     1
102
RTVSPropertyOp50
 70
     1
102
RTVSPropertyOp51
 70
     0
102
RTVSPropertyOp52
 70
     0
102
RTVSPropertyOp53
 70
     1
102
RTVSPropertyOp54
 70
     1
102
RTVSPropertyOp55
 70
     1
102
RTVSPropertyOp56
 70
     1
102
RTVSPropertyOp57
 70
     1
102
RTVSPropertyOp58
 70
     1
102
RTVSPropertyOp59
 70
     1
102
RTVSPropertyOp60
 70
     1
102
RTVSPropertyOp61
 70
     1
102
RTVSPropertyOp62
 70
     1
  0
XRECORD
  5
267A
102
{ACAD_REACTORS
330
2679
102
}
330
2679
100
AcDbXrecord
280
     1
102
RTVSPost2010Prop28
280
     0
102
RTVSPost2010PropOp28
 70
     1
102
RTVSPost2010Prop29
280
     1
102
RTVSPost2010PropOp29
 70
     1
102
RTVSPost2010Prop30
280
     1
102
RTVSPost2010PropOp30
 70
     1
102
RTVSPost2010Prop31
280
     0
102
RTVSPost2010PropOp31
 70
     1
102
RTVSPost2010Prop32
280
     0
102
RTVSPost2010PropOp32
 70
     1
102
RTVSPost2010Prop33
280
     0
102
RTVSPost2010PropOp33
 70
     1
102
RTVSPost2010Prop34
280
     0
102
RTVSPost2010PropOp34
 70
     1
102
RTVSPost2010Prop35
280
     0
102
RTVSPost2010PropOp35
 70
     1
102
RTVSPost2010Prop36
280
     0
102
RTVSPost2010PropOp36
 70
     1
102
RTVSPost2010Prop37
 90
       50
102
RTVSPost2010PropOp37
 70
     1
102
RTVSPost2010Prop38
140
0.0
102
RTVSPost2010PropOp38
 70
     1
102
RTVSPost2010Prop39
140
1.0
102
RTVSPost2010PropOp39
 70
     1
102
RTVSPost2010Prop40
 90
        0
102
RTVSPost2010PropOp40
 70
     1
102
RTVSPost2010Prop41ColorIndex
 90
       18
102
RTVSPost2010Prop41ColorRGB
 90
        0
102
RTVSPost2010PropOp41
 70
     1
102
RTVSPost2010Prop42
 90
       50
102
RTVSPost2010PropOp42
 70
     1
102
RTVSPost2010Prop43
 90
        3
102
RTVSPost2010PropOp43
 70
     1
102
RTVSPost2010Prop44ColorIndex
 90
        5
102
RTVSPost2010Prop44ColorRGB
 90
      255
102
RTVSPost2010PropOp44
 70
     1
102
RTVSPost2010Prop45
280
     0
102
RTVSPost2010PropOp45
 70
     1
102
RTVSPost2010Prop46
 90
       50
102
RTVSPost2010PropOp46
 70
     1
102
RTVSPost2010Prop47
 90
       50
102
RTVSPost2010PropOp47
 70
     1
102
RTVSPost2010Prop48
 90
       50
102
RTVSPost2010PropOp48
 70
     1
102
RTVSPost2010Prop49
280
     0
102
RTVSPost2010PropOp49
 70
     1
102
RTVSPost2010Prop50
 90
       50
102
RTVSPost2010PropOp50
 70
     1
102
RTVSPost2010Prop51ColorIndex
 90
      256
102
RTVSPost2010Prop51ColorRGB
 90
-16777216
102
RTVSPost2010PropOp51
 70
     0
102
RTVSPost2010Prop52
140
1.0
102
RTVSPost2010PropOp52
 70
     0
102
RTVSPost2010Prop53
 90
        2
102
RTVSPost2010PropOp53
 70
     1
102
RTVSPost2010Prop54
  1
strokes_ogs.tif
102
RTVSPost2010PropOp54
 70
     1
102
RTVSPost2010Prop55
280
     0
102
RTVSPost2010PropOp55
 70
     1
102
RTVSPost2010Prop56
140
1.0
102
RTVSPost2010PropOp56
 70
     1
102
RTVSPost2010Prop57
140
1.0
102
RTVSPost2010PropOp57
 70
     1
102
RTVSPropertyOp0
 70
     1
102
RTVSPropertyOp1
 70
     1
102
RTVSPropertyOp2
 70
     1
102
RTVSPropertyOp3
 70
     1
102
RTVSPropertyOp4
 70
     1
102
RTVSPropertyOp5
 70
     1
102
RTVSPropertyOp6
 70
     1
102
RTVSPropertyOp7
 70
     1
102
RTVSPropertyOp8
 70
     1
102
RTVSPropertyOp9
 70
     1
102
RTVSPropertyOp10
 70
     1
102
RTVSPropertyOp11
 70
     1
102
RTVSPropertyOp12
 70
     1
102
RTVSPropertyOp13
 70
     1
102
RTVSPropertyOp14
 70
     1
102
RTVSPropertyOp15
 70
     1
102
RTVSPropertyOp16
 70
     1
102
RTVSPropertyOp17
 70
     1
102
RTVSPropertyOp18
 70
     1
102
RTVSPropertyOp19
 70
     1
102
RTVSPropertyOp20
 70
     1
102
RTVSPropertyOp21
 70
     1
102
RTVSPropertyOp22
 70
     1
102
RTVSPropertyOp23
 70
     1
102
RTVSPropertyOp24
 70
     1
102
RTVSPropertyOp25
 70
     1
102
RTVSPropertyOp26
 70
     1
102
RTVSPropertyOp27
 70
     1
102
RTVSPropertyOp28
 70
     1
102
RTVSPropertyOp29
 70
     1
102
RTVSPropertyOp30
 70
     1
102
RTVSPropertyOp31
 70
     1
102
RTVSPropertyOp32
 70
     1
102
RTVSPropertyOp33
 70
     1
102
RTVSPropertyOp34
 70
     1
102
RTVSPropertyOp35
 70
     1
102
RTVSPropertyOp36
 70
     1
102
RTVSPropertyOp37
 70
     1
102
RTVSPropertyOp38
 70
     1
102
RTVSPropertyOp39
 70
     1
102
RTVSPropertyOp40
 70
     1
102
RTVSPropertyOp41
 70
     1
102
RTVSPropertyOp42
 70
     1
102
RTVSPropertyOp43
 70
     1
102
RTVSPropertyOp44
 70
     1
102
RTVSPropertyOp45
 70
     1
102
RTVSPropertyOp46
 70
     1
102
RTVSPropertyOp47
 70
     1
102
RTVSPropertyOp48
 70
     1
102
RTVSPropertyOp49
 70
     1
102
RTVSPropertyOp50
 70
     1
102
RTVSPropertyOp51
 70
     0
102
RTVSPropertyOp52
 70
     0
102
RTVSPropertyOp53
 70
     1
102
RTVSPropertyOp54
 70
     1
102
RTVSPropertyOp55
 70
     1
102
RTVSPropertyOp56
 70
     1
102
RTVSPropertyOp57
 70
     1
102
RTVSPropertyOp58
 70
     1
102
RTVSPropertyOp59
 70
     1
102
RTVSPropertyOp60
 70
     1
102
RTVSPropertyOp61
 70
     1
102
RTVSPropertyOp62
 70
     1
  0
XRECORD
  5
267E
102
{ACAD_REACTORS
330
267D
102
}
330
267D
100
AcDbXrecord
280
     1
102
RTVSPost2010Prop28
280
     0
102
RTVSPost2010PropOp28
 70
     1
102
RTVSPost2010Prop29
280
     1
102
RTVSPost2010PropOp29
 70
     1
102
RTVSPost2010Prop30
280
     1
102
RTVSPost2010PropOp30
 70
     1
102
RTVSPost2010Prop31
280
     0
102
RTVSPost2010PropOp31
 70
     1
102
RTVSPost2010Prop32
280
     0
102
RTVSPost2010PropOp32
 70
     1
102
RTVSPost2010Prop33
280
     0
102
RTVSPost2010PropOp33
 70
     1
102
RTVSPost2010Prop34
280
     0
102
RTVSPost2010PropOp34
 70
     1
102
RTVSPost2010Prop35
280
     0
102
RTVSPost2010PropOp35
 70
     1
102
RTVSPost2010Prop36
280
     0
102
RTVSPost2010PropOp36
 70
     1
102
RTVSPost2010Prop37
 90
       50
102
RTVSPost2010PropOp37
 70
     1
102
RTVSPost2010Prop38
140
0.0
102
RTVSPost2010PropOp38
 70
     1
102
RTVSPost2010Prop39
140
1.0
102
RTVSPost2010PropOp39
 70
     1
102
RTVSPost2010Prop40
 90
        0
102
RTVSPost2010PropOp40
 70
     1
102
RTVSPost2010Prop41ColorIndex
 90
       18
102
RTVSPost2010Prop41ColorRGB
 90
        0
102
RTVSPost2010PropOp41
 70
     1
102
RTVSPost2010Prop42
 90
       50
102
RTVSPost2010PropOp42
 70
     1
102
RTVSPost2010Prop43
 90
        3
102
RTVSPost2010PropOp43
 70
     1
102
RTVSPost2010Prop44ColorIndex
 90
        5
102
RTVSPost2010Prop44ColorRGB
 90
      255
102
RTVSPost2010PropOp44
 70
     1
102
RTVSPost2010Prop45
280
     0
102
RTVSPost2010PropOp45
 70
     1
102
RTVSPost2010Prop46
 90
       50
102
RTVSPost2010PropOp46
 70
     1
102
RTVSPost2010Prop47
 90
       50
102
RTVSPost2010PropOp47
 70
     1
102
RTVSPost2010Prop48
 90
       50
102
RTVSPost2010PropOp48
 70
     1
102
RTVSPost2010Prop49
280
     0
102
RTVSPost2010PropOp49
 70
     1
102
RTVSPost2010Prop50
 90
       50
102
RTVSPost2010PropOp50
 70
     1
102
RTVSPost2010Prop51ColorIndex
 90
      256
102
RTVSPost2010Prop51ColorRGB
 90
-16777216
102
RTVSPost2010PropOp51
 70
     0
102
RTVSPost2010Prop52
140
1.0
102
RTVSPost2010PropOp52
 70
     0
102
RTVSPost2010Prop53
 90
        2
102
RTVSPost2010PropOp53
 70
     1
102
RTVSPost2010Prop54
  1
strokes_ogs.tif
102
RTVSPost2010PropOp54
 70
     1
102
RTVSPost2010Prop55
280
     0
102
RTVSPost2010PropOp55
 70
     1
102
RTVSPost2010Prop56
140
1.0
102
RTVSPost2010PropOp56
 70
     1
102
RTVSPost2010Prop57
140
1.0
102
RTVSPost2010PropOp57
 70
     1
102
RTVSPropertyOp0
 70
     1
102
RTVSPropertyOp1
 70
     1
102
RTVSPropertyOp2
 70
     1
102
RTVSPropertyOp3
 70
     1
102
RTVSPropertyOp4
 70
     1
102
RTVSPropertyOp5
 70
     1
102
RTVSPropertyOp6
 70
     1
102
RTVSPropertyOp7
 70
     1
102
RTVSPropertyOp8
 70
     1
102
RTVSPropertyOp9
 70
     1
102
RTVSPropertyOp10
 70
     1
102
RTVSPropertyOp11
 70
     1
102
RTVSPropertyOp12
 70
     1
102
RTVSPropertyOp13
 70
     1
102
RTVSPropertyOp14
 70
     1
102
RTVSPropertyOp15
 70
     1
102
RTVSPropertyOp16
 70
     1
102
RTVSPropertyOp17
 70
     1
102
RTVSPropertyOp18
 70
     1
102
RTVSPropertyOp19
 70
     1
102
RTVSPropertyOp20
 70
     1
102
RTVSPropertyOp21
 70
     1
102
RTVSPropertyOp22
 70
     1
102
RTVSPropertyOp23
 70
     1
102
RTVSPropertyOp24
 70
     1
102
RTVSPropertyOp25
 70
     1
102
RTVSPropertyOp26
 70
     1
102
RTVSPropertyOp27
 70
     1
102
RTVSPropertyOp28
 70
     1
102
RTVSPropertyOp29
 70
     1
102
RTVSPropertyOp30
 70
     1
102
RTVSPropertyOp31
 70
     1
102
RTVSPropertyOp32
 70
     1
102
RTVSPropertyOp33
 70
     1
102
RTVSPropertyOp34
 70
     1
102
RTVSPropertyOp35
 70
     1
102
RTVSPropertyOp36
 70
     1
102
RTVSPropertyOp37
 70
     1
102
RTVSPropertyOp38
 70
     1
102
RTVSPropertyOp39
 70
     1
102
RTVSPropertyOp40
 70
     1
102
RTVSPropertyOp41
 70
     1
102
RTVSPropertyOp42
 70
     1
102
RTVSPropertyOp43
 70
     1
102
RTVSPropertyOp44
 70
     1
102
RTVSPropertyOp45
 70
     1
102
RTVSPropertyOp46
 70
     1
102
RTVSPropertyOp47
 70
     1
102
RTVSPropertyOp48
 70
     1
102
RTVSPropertyOp49
 70
     1
102
RTVSPropertyOp50
 70
     1
102
RTVSPropertyOp51
 70
     0
102
RTVSPropertyOp52
 70
     0
102
RTVSPropertyOp53
 70
     1
102
RTVSPropertyOp54
 70
     1
102
RTVSPropertyOp55
 70
     1
102
RTVSPropertyOp56
 70
     1
102
RTVSPropertyOp57
 70
     1
102
RTVSPropertyOp58
 70
     1
102
RTVSPropertyOp59
 70
     1
102
RTVSPropertyOp60
 70
     1
102
RTVSPropertyOp61
 70
     1
102
RTVSPropertyOp62
 70
     1
  0
XRECORD
  5
268E
102
{ACAD_REACTORS
330
268D
102
}
330
268D
100
AcDbXrecord
280
     1
102
RTVSPost2010Prop28
280
     0
102
RTVSPost2010PropOp28
 70
     1
102
RTVSPost2010Prop29
280
     1
102
RTVSPost2010PropOp29
 70
     1
102
RTVSPost2010Prop30
280
     1
102
RTVSPost2010PropOp30
 70
     1
102
RTVSPost2010Prop31
280
     0
102
RTVSPost2010PropOp31
 70
     1
102
RTVSPost2010Prop32
280
     0
102
RTVSPost2010PropOp32
 70
     1
102
RTVSPost2010Prop33
280
     0
102
RTVSPost2010PropOp33
 70
     1
102
RTVSPost2010Prop34
280
     0
102
RTVSPost2010PropOp34
 70
     1
102
RTVSPost2010Prop35
280
     0
102
RTVSPost2010PropOp35
 70
     1
102
RTVSPost2010Prop36
280
     0
102
RTVSPost2010PropOp36
 70
     1
102
RTVSPost2010Prop37
 90
       50
102
RTVSPost2010PropOp37
 70
     1
102
RTVSPost2010Prop38
140
0.0
102
RTVSPost2010PropOp38
 70
     1
102
RTVSPost2010Prop39
140
1.0
102
RTVSPost2010PropOp39
 70
     1
102
RTVSPost2010Prop40
 90
        0
102
RTVSPost2010PropOp40
 70
     1
102
RTVSPost2010Prop41ColorIndex
 90
       18
102
RTVSPost2010Prop41ColorRGB
 90
        0
102
RTVSPost2010PropOp41
 70
     1
102
RTVSPost2010Prop42
 90
       50
102
RTVSPost2010PropOp42
 70
     1
102
RTVSPost2010Prop43
 90
        3
102
RTVSPost2010PropOp43
 70
     1
102
RTVSPost2010Prop44ColorIndex
 90
        5
102
RTVSPost2010Prop44ColorRGB
 90
      255
102
RTVSPost2010PropOp44
 70
     1
102
RTVSPost2010Prop45
280
     0
102
RTVSPost2010PropOp45
 70
     1
102
RTVSPost2010Prop46
 90
       50
102
RTVSPost2010PropOp46
 70
     1
102
RTVSPost2010Prop47
 90
       50
102
RTVSPost2010PropOp47
 70
     1
102
RTVSPost2010Prop48
 90
       50
102
RTVSPost2010PropOp48
 70
     1
102
RTVSPost2010Prop49
280
     0
102
RTVSPost2010PropOp49
 70
     1
102
RTVSPost2010Prop50
 90
       50
102
RTVSPost2010PropOp50
 70
     1
102
RTVSPost2010Prop51ColorIndex
 90
      256
102
RTVSPost2010Prop51ColorRGB
 90
-16777216
102
RTVSPost2010PropOp51
 70
     0
102
RTVSPost2010Prop52
140
1.0
102
RTVSPost2010PropOp52
 70
     0
102
RTVSPost2010Prop53
 90
        2
102
RTVSPost2010PropOp53
 70
     1
102
RTVSPost2010Prop54
  1
strokes_ogs.tif
102
RTVSPost2010PropOp54
 70
     1
102
RTVSPost2010Prop55
280
     0
102
RTVSPost2010PropOp55
 70
     1
102
RTVSPost2010Prop56
140
1.0
102
RTVSPost2010PropOp56
 70
     1
102
RTVSPost2010Prop57
140
1.0
102
RTVSPost2010PropOp57
 70
     1
102
RTVSPropertyOp0
 70
     0
102
RTVSPropertyOp1
 70
     0
102
RTVSPropertyOp2
 70
     0
102
RTVSPropertyOp3
 70
     0
102
RTVSPropertyOp4
 70
     0
102
RTVSPropertyOp5
 70
     0
102
RTVSPropertyOp6
 70
     0
102
RTVSPropertyOp7
 70
     0
102
RTVSPropertyOp8
 70
     0
102
RTVSPropertyOp9
 70
     0
102
RTVSPropertyOp10
 70
     0
102
RTVSPropertyOp11
 70
     0
102
RTVSPropertyOp12
 70
     0
102
RTVSPropertyOp13
 70
     0
102
RTVSPropertyOp14
 70
     2
102
RTVSPropertyOp15
 70
     0
102
RTVSPropertyOp16
 70
     0
102
RTVSPropertyOp17
 70
     0
102
RTVSPropertyOp18
 70
     0
102
RTVSPropertyOp19
 70
     0
102
RTVSPropertyOp20
 70
     0
102
RTVSPropertyOp21
 70
     0
102
RTVSPropertyOp22
 70
     0
102
RTVSPropertyOp23
 70
     0
102
RTVSPropertyOp24
 70
     0
102
RTVSPropertyOp25
 70
     0
102
RTVSPropertyOp26
 70
     0
102
RTVSPropertyOp27
 70
     0
102
RTVSPropertyOp28
 70
     1
102
RTVSPropertyOp29
 70
     1
102
RTVSPropertyOp30
 70
     1
102
RTVSPropertyOp31
 70
     1
102
RTVSPropertyOp32
 70
     1
102
RTVSPropertyOp33
 70
     1
102
RTVSPropertyOp34
 70
     1
102
RTVSPropertyOp35
 70
     1
102
RTVSPropertyOp36
 70
     1
102
RTVSPropertyOp37
 70
     1
102
RTVSPropertyOp38
 70
     1
102
RTVSPropertyOp39
 70
     1
102
RTVSPropertyOp40
 70
     1
102
RTVSPropertyOp41
 70
     1
102
RTVSPropertyOp42
 70
     1
102
RTVSPropertyOp43
 70
     1
102
RTVSPropertyOp44
 70
     1
102
RTVSPropertyOp45
 70
     1
102
RTVSPropertyOp46
 70
     1
102
RTVSPropertyOp47
 70
     1
102
RTVSPropertyOp48
 70
     1
102
RTVSPropertyOp49
 70
     1
102
RTVSPropertyOp50
 70
     1
102
RTVSPropertyOp51
 70
     0
102
RTVSPropertyOp52
 70
     0
102
RTVSPropertyOp53
 70
     1
102
RTVSPropertyOp54
 70
     1
102
RTVSPropertyOp55
 70
     1
102
RTVSPropertyOp56
 70
     1
102
RTVSPropertyOp57
 70
     1
102
RTVSPropertyOp58
 70
     1
102
RTVSPropertyOp59
 70
     1
102
RTVSPropertyOp60
 70
     1
102
RTVSPropertyOp61
 70
     1
102
RTVSPropertyOp62
 70
     1
  0
XRECORD
  5
2686
102
{ACAD_REACTORS
330
2685
102
}
330
2685
100
AcDbXrecord
280
     1
102
RTVSPost2010Prop28
280
     0
102
RTVSPost2010PropOp28
 70
     1
102
RTVSPost2010Prop29
280
     1
102
RTVSPost2010PropOp29
 70
     1
102
RTVSPost2010Prop30
280
     1
102
RTVSPost2010PropOp30
 70
     1
102
RTVSPost2010Prop31
280
     0
102
RTVSPost2010PropOp31
 70
     1
102
RTVSPost2010Prop32
280
     0
102
RTVSPost2010PropOp32
 70
     1
102
RTVSPost2010Prop33
280
     0
102
RTVSPost2010PropOp33
 70
     1
102
RTVSPost2010Prop34
280
     0
102
RTVSPost2010PropOp34
 70
     1
102
RTVSPost2010Prop35
280
     0
102
RTVSPost2010PropOp35
 70
     1
102
RTVSPost2010Prop36
280
     0
102
RTVSPost2010PropOp36
 70
     1
102
RTVSPost2010Prop37
 90
       50
102
RTVSPost2010PropOp37
 70
     1
102
RTVSPost2010Prop38
140
0.0
102
RTVSPost2010PropOp38
 70
     1
102
RTVSPost2010Prop39
140
1.0
102
RTVSPost2010PropOp39
 70
     1
102
RTVSPost2010Prop40
 90
        0
102
RTVSPost2010PropOp40
 70
     1
102
RTVSPost2010Prop41ColorIndex
 90
       18
102
RTVSPost2010Prop41ColorRGB
 90
        0
102
RTVSPost2010PropOp41
 70
     1
102
RTVSPost2010Prop42
 90
       50
102
RTVSPost2010PropOp42
 70
     1
102
RTVSPost2010Prop43
 90
        3
102
RTVSPost2010PropOp43
 70
     1
102
RTVSPost2010Prop44ColorIndex
 90
        5
102
RTVSPost2010Prop44ColorRGB
 90
      255
102
RTVSPost2010PropOp44
 70
     1
102
RTVSPost2010Prop45
280
     0
102
RTVSPost2010PropOp45
 70
     1
102
RTVSPost2010Prop46
 90
       50
102
RTVSPost2010PropOp46
 70
     1
102
RTVSPost2010Prop47
 90
       50
102
RTVSPost2010PropOp47
 70
     1
102
RTVSPost2010Prop48
 90
       50
102
RTVSPost2010PropOp48
 70
     1
102
RTVSPost2010Prop49
280
     0
102
RTVSPost2010PropOp49
 70
     1
102
RTVSPost2010Prop50
 90
       50
102
RTVSPost2010PropOp50
 70
     1
102
RTVSPost2010Prop51ColorIndex
 90
      256
102
RTVSPost2010Prop51ColorRGB
 90
-16777216
102
RTVSPost2010PropOp51
 70
     0
102
RTVSPost2010Prop52
140
1.0
102
RTVSPost2010PropOp52
 70
     0
102
RTVSPost2010Prop53
 90
        2
102
RTVSPost2010PropOp53
 70
     1
102
RTVSPost2010Prop54
  1
strokes_ogs.tif
102
RTVSPost2010PropOp54
 70
     1
102
RTVSPost2010Prop55
280
     0
102
RTVSPost2010PropOp55
 70
     1
102
RTVSPost2010Prop56
140
1.0
102
RTVSPost2010PropOp56
 70
     1
102
RTVSPost2010Prop57
140
1.0
102
RTVSPost2010PropOp57
 70
     1
102
RTVSPropertyOp0
 70
     1
102
RTVSPropertyOp1
 70
     1
102
RTVSPropertyOp2
 70
     1
102
RTVSPropertyOp3
 70
     1
102
RTVSPropertyOp4
 70
     1
102
RTVSPropertyOp5
 70
     1
102
RTVSPropertyOp6
 70
     1
102
RTVSPropertyOp7
 70
     1
102
RTVSPropertyOp8
 70
     1
102
RTVSPropertyOp9
 70
     1
102
RTVSPropertyOp10
 70
     1
102
RTVSPropertyOp11
 70
     1
102
RTVSPropertyOp12
 70
     1
102
RTVSPropertyOp13
 70
     1
102
RTVSPropertyOp14
 70
     1
102
RTVSPropertyOp15
 70
     1
102
RTVSPropertyOp16
 70
     1
102
RTVSPropertyOp17
 70
     1
102
RTVSPropertyOp18
 70
     1
102
RTVSPropertyOp19
 70
     1
102
RTVSPropertyOp20
 70
     1
102
RTVSPropertyOp21
 70
     1
102
RTVSPropertyOp22
 70
     1
102
RTVSPropertyOp23
 70
     1
102
RTVSPropertyOp24
 70
     1
102
RTVSPropertyOp25
 70
     1
102
RTVSPropertyOp26
 70
     1
102
RTVSPropertyOp27
 70
     1
102
RTVSPropertyOp28
 70
     1
102
RTVSPropertyOp29
 70
     1
102
RTVSPropertyOp30
 70
     1
102
RTVSPropertyOp31
 70
     1
102
RTVSPropertyOp32
 70
     1
102
RTVSPropertyOp33
 70
     1
102
RTVSPropertyOp34
 70
     1
102
RTVSPropertyOp35
 70
     1
102
RTVSPropertyOp36
 70
     1
102
RTVSPropertyOp37
 70
     1
102
RTVSPropertyOp38
 70
     1
102
RTVSPropertyOp39
 70
     1
102
RTVSPropertyOp40
 70
     1
102
RTVSPropertyOp41
 70
     1
102
RTVSPropertyOp42
 70
     1
102
RTVSPropertyOp43
 70
     1
102
RTVSPropertyOp44
 70
     1
102
RTVSPropertyOp45
 70
     1
102
RTVSPropertyOp46
 70
     1
102
RTVSPropertyOp47
 70
     1
102
RTVSPropertyOp48
 70
     1
102
RTVSPropertyOp49
 70
     1
102
RTVSPropertyOp50
 70
     1
102
RTVSPropertyOp51
 70
     0
102
RTVSPropertyOp52
 70
     0
102
RTVSPropertyOp53
 70
     1
102
RTVSPropertyOp54
 70
     1
102
RTVSPropertyOp55
 70
     1
102
RTVSPropertyOp56
 70
     1
102
RTVSPropertyOp57
 70
     1
102
RTVSPropertyOp58
 70
     1
102
RTVSPropertyOp59
 70
     1
102
RTVSPropertyOp60
 70
     1
102
RTVSPropertyOp61
 70
     1
102
RTVSPropertyOp62
 70
     1
  0
XRECORD
  5
266A
102
{ACAD_REACTORS
330
2669
102
}
330
2669
100
AcDbXrecord
280
     1
102
RTVSPost2010Prop28
280
     0
102
RTVSPost2010PropOp28
 70
     1
102
RTVSPost2010Prop29
280
     1
102
RTVSPost2010PropOp29
 70
     1
102
RTVSPost2010Prop30
280
     1
102
RTVSPost2010PropOp30
 70
     1
102
RTVSPost2010Prop31
280
     0
102
RTVSPost2010PropOp31
 70
     1
102
RTVSPost2010Prop32
280
     0
102
RTVSPost2010PropOp32
 70
     1
102
RTVSPost2010Prop33
280
     0
102
RTVSPost2010PropOp33
 70
     1
102
RTVSPost2010Prop34
280
     0
102
RTVSPost2010PropOp34
 70
     1
102
RTVSPost2010Prop35
280
     0
102
RTVSPost2010PropOp35
 70
     1
102
RTVSPost2010Prop36
280
     0
102
RTVSPost2010PropOp36
 70
     1
102
RTVSPost2010Prop37
 90
       50
102
RTVSPost2010PropOp37
 70
     1
102
RTVSPost2010Prop38
140
0.0
102
RTVSPost2010PropOp38
 70
     1
102
RTVSPost2010Prop39
140
1.0
102
RTVSPost2010PropOp39
 70
     1
102
RTVSPost2010Prop40
 90
        0
102
RTVSPost2010PropOp40
 70
     1
102
RTVSPost2010Prop41ColorIndex
 90
       18
102
RTVSPost2010Prop41ColorRGB
 90
        0
102
RTVSPost2010PropOp41
 70
     1
102
RTVSPost2010Prop42
 90
       50
102
RTVSPost2010PropOp42
 70
     1
102
RTVSPost2010Prop43
 90
        3
102
RTVSPost2010PropOp43
 70
     1
102
RTVSPost2010Prop44ColorIndex
 90
        5
102
RTVSPost2010Prop44ColorRGB
 90
      255
102
RTVSPost2010PropOp44
 70
     1
102
RTVSPost2010Prop45
280
     0
102
RTVSPost2010PropOp45
 70
     1
102
RTVSPost2010Prop46
 90
       50
102
RTVSPost2010PropOp46
 70
     1
102
RTVSPost2010Prop47
 90
       50
102
RTVSPost2010PropOp47
 70
     1
102
RTVSPost2010Prop48
 90
       50
102
RTVSPost2010PropOp48
 70
     1
102
RTVSPost2010Prop49
280
     0
102
RTVSPost2010PropOp49
 70
     1
102
RTVSPost2010Prop50
 90
       50
102
RTVSPost2010PropOp50
 70
     1
102
RTVSPost2010Prop51ColorIndex
 90
      256
102
RTVSPost2010Prop51ColorRGB
 90
-16777216
102
RTVSPost2010PropOp51
 70
     0
102
RTVSPost2010Prop52
140
1.0
102
RTVSPost2010PropOp52
 70
     0
102
RTVSPost2010Prop53
 90
        2
102
RTVSPost2010PropOp53
 70
     1
102
RTVSPost2010Prop54
  1
strokes_ogs.tif
102
RTVSPost2010PropOp54
 70
     1
102
RTVSPost2010Prop55
280
     0
102
RTVSPost2010PropOp55
 70
     1
102
RTVSPost2010Prop56
140
1.0
102
RTVSPost2010PropOp56
 70
     1
102
RTVSPost2010Prop57
140
1.0
102
RTVSPost2010PropOp57
 70
     1
102
RTVSPropertyOp0
 70
     1
102
RTVSPropertyOp1
 70
     1
102
RTVSPropertyOp2
 70
     1
102
RTVSPropertyOp3
 70
     1
102
RTVSPropertyOp4
 70
     1
102
RTVSPropertyOp5
 70
     1
102
RTVSPropertyOp6
 70
     1
102
RTVSPropertyOp7
 70
     1
102
RTVSPropertyOp8
 70
     1
102
RTVSPropertyOp9
 70
     1
102
RTVSPropertyOp10
 70
     1
102
RTVSPropertyOp11
 70
     1
102
RTVSPropertyOp12
 70
     1
102
RTVSPropertyOp13
 70
     1
102
RTVSPropertyOp14
 70
     1
102
RTVSPropertyOp15
 70
     1
102
RTVSPropertyOp16
 70
     1
102
RTVSPropertyOp17
 70
     1
102
RTVSPropertyOp18
 70
     1
102
RTVSPropertyOp19
 70
     1
102
RTVSPropertyOp20
 70
     1
102
RTVSPropertyOp21
 70
     1
102
RTVSPropertyOp22
 70
     1
102
RTVSPropertyOp23
 70
     1
102
RTVSPropertyOp24
 70
     1
102
RTVSPropertyOp25
 70
     1
102
RTVSPropertyOp26
 70
     1
102
RTVSPropertyOp27
 70
     1
102
RTVSPropertyOp28
 70
     1
102
RTVSPropertyOp29
 70
     1
102
RTVSPropertyOp30
 70
     1
102
RTVSPropertyOp31
 70
     1
102
RTVSPropertyOp32
 70
     1
102
RTVSPropertyOp33
 70
     1
102
RTVSPropertyOp34
 70
     1
102
RTVSPropertyOp35
 70
     1
102
RTVSPropertyOp36
 70
     1
102
RTVSPropertyOp37
 70
     1
102
RTVSPropertyOp38
 70
     1
102
RTVSPropertyOp39
 70
     1
102
RTVSPropertyOp40
 70
     1
102
RTVSPropertyOp41
 70
     1
102
RTVSPropertyOp42
 70
     1
102
RTVSPropertyOp43
 70
     1
102
RTVSPropertyOp44
 70
     1
102
RTVSPropertyOp45
 70
     1
102
RTVSPropertyOp46
 70
     1
102
RTVSPropertyOp47
 70
     1
102
RTVSPropertyOp48
 70
     1
102
RTVSPropertyOp49
 70
     1
102
RTVSPropertyOp50
 70
     1
102
RTVSPropertyOp51
 70
     0
102
RTVSPropertyOp52
 70
     0
102
RTVSPropertyOp53
 70
     1
102
RTVSPropertyOp54
 70
     1
102
RTVSPropertyOp55
 70
     1
102
RTVSPropertyOp56
 70
     1
102
RTVSPropertyOp57
 70
     1
102
RTVSPropertyOp58
 70
     1
102
RTVSPropertyOp59
 70
     1
102
RTVSPropertyOp60
 70
     1
102
RTVSPropertyOp61
 70
     1
102
RTVSPropertyOp62
 70
     1
  0
XRECORD
  5
266C
102
{ACAD_REACTORS
330
266B
102
}
330
266B
100
AcDbXrecord
280
     1
102
RTVSPost2010Prop28
280
     0
102
RTVSPost2010PropOp28
 70
     1
102
RTVSPost2010Prop29
280
     1
102
RTVSPost2010PropOp29
 70
     1
102
RTVSPost2010Prop30
280
     1
102
RTVSPost2010PropOp30
 70
     1
102
RTVSPost2010Prop31
280
     0
102
RTVSPost2010PropOp31
 70
     1
102
RTVSPost2010Prop32
280
     0
102
RTVSPost2010PropOp32
 70
     1
102
RTVSPost2010Prop33
280
     0
102
RTVSPost2010PropOp33
 70
     1
102
RTVSPost2010Prop34
280
     0
102
RTVSPost2010PropOp34
 70
     1
102
RTVSPost2010Prop35
280
     0
102
RTVSPost2010PropOp35
 70
     1
102
RTVSPost2010Prop36
280
     0
102
RTVSPost2010PropOp36
 70
     1
102
RTVSPost2010Prop37
 90
       50
102
RTVSPost2010PropOp37
 70
     1
102
RTVSPost2010Prop38
140
0.0
102
RTVSPost2010PropOp38
 70
     1
102
RTVSPost2010Prop39
140
1.0
102
RTVSPost2010PropOp39
 70
     1
102
RTVSPost2010Prop40
 90
        0
102
RTVSPost2010PropOp40
 70
     1
102
RTVSPost2010Prop41ColorIndex
 90
       18
102
RTVSPost2010Prop41ColorRGB
 90
        0
102
RTVSPost2010PropOp41
 70
     1
102
RTVSPost2010Prop42
 90
       50
102
RTVSPost2010PropOp42
 70
     1
102
RTVSPost2010Prop43
 90
        3
102
RTVSPost2010PropOp43
 70
     1
102
RTVSPost2010Prop44ColorIndex
 90
        5
102
RTVSPost2010Prop44ColorRGB
 90
      255
102
RTVSPost2010PropOp44
 70
     1
102
RTVSPost2010Prop45
280
     0
102
RTVSPost2010PropOp45
 70
     1
102
RTVSPost2010Prop46
 90
       50
102
RTVSPost2010PropOp46
 70
     1
102
RTVSPost2010Prop47
 90
       50
102
RTVSPost2010PropOp47
 70
     1
102
RTVSPost2010Prop48
 90
       50
102
RTVSPost2010PropOp48
 70
     1
102
RTVSPost2010Prop49
280
     0
102
RTVSPost2010PropOp49
 70
     1
102
RTVSPost2010Prop50
 90
       50
102
RTVSPost2010PropOp50
 70
     1
102
RTVSPost2010Prop51ColorIndex
 90
      256
102
RTVSPost2010Prop51ColorRGB
 90
-16777216
102
RTVSPost2010PropOp51
 70
     0
102
RTVSPost2010Prop52
140
1.0
102
RTVSPost2010PropOp52
 70
     0
102
RTVSPost2010Prop53
 90
        2
102
RTVSPost2010PropOp53
 70
     1
102
RTVSPost2010Prop54
  1
strokes_ogs.tif
102
RTVSPost2010PropOp54
 70
     1
102
RTVSPost2010Prop55
280
     0
102
RTVSPost2010PropOp55
 70
     1
102
RTVSPost2010Prop56
140
1.0
102
RTVSPost2010PropOp56
 70
     1
102
RTVSPost2010Prop57
140
1.0
102
RTVSPost2010PropOp57
 70
     1
102
RTVSPropertyOp0
 70
     1
102
RTVSPropertyOp1
 70
     1
102
RTVSPropertyOp2
 70
     1
102
RTVSPropertyOp3
 70
     1
102
RTVSPropertyOp4
 70
     1
102
RTVSPropertyOp5
 70
     1
102
RTVSPropertyOp6
 70
     1
102
RTVSPropertyOp7
 70
     1
102
RTVSPropertyOp8
 70
     1
102
RTVSPropertyOp9
 70
     1
102
RTVSPropertyOp10
 70
     1
102
RTVSPropertyOp11
 70
     1
102
RTVSPropertyOp12
 70
     1
102
RTVSPropertyOp13
 70
     1
102
RTVSPropertyOp14
 70
     1
102
RTVSPropertyOp15
 70
     1
102
RTVSPropertyOp16
 70
     1
102
RTVSPropertyOp17
 70
     1
102
RTVSPropertyOp18
 70
     1
102
RTVSPropertyOp19
 70
     1
102
RTVSPropertyOp20
 70
     1
102
RTVSPropertyOp21
 70
     1
102
RTVSPropertyOp22
 70
     1
102
RTVSPropertyOp23
 70
     1
102
RTVSPropertyOp24
 70
     1
102
RTVSPropertyOp25
 70
     1
102
RTVSPropertyOp26
 70
     1
102
RTVSPropertyOp27
 70
     1
102
RTVSPropertyOp28
 70
     1
102
RTVSPropertyOp29
 70
     1
102
RTVSPropertyOp30
 70
     1
102
RTVSPropertyOp31
 70
     1
102
RTVSPropertyOp32
 70
     1
102
RTVSPropertyOp33
 70
     1
102
RTVSPropertyOp34
 70
     1
102
RTVSPropertyOp35
 70
     1
102
RTVSPropertyOp36
 70
     1
102
RTVSPropertyOp37
 70
     1
102
RTVSPropertyOp38
 70
     1
102
RTVSPropertyOp39
 70
     1
102
RTVSPropertyOp40
 70
     1
102
RTVSPropertyOp41
 70
     1
102
RTVSPropertyOp42
 70
     1
102
RTVSPropertyOp43
 70
     1
102
RTVSPropertyOp44
 70
     1
102
RTVSPropertyOp45
 70
     1
102
RTVSPropertyOp46
 70
     1
102
RTVSPropertyOp47
 70
     1
102
RTVSPropertyOp48
 70
     1
102
RTVSPropertyOp49
 70
     1
102
RTVSPropertyOp50
 70
     1
102
RTVSPropertyOp51
 70
     0
102
RTVSPropertyOp52
 70
     0
102
RTVSPropertyOp53
 70
     1
102
RTVSPropertyOp54
 70
     1
102
RTVSPropertyOp55
 70
     1
102
RTVSPropertyOp56
 70
     1
102
RTVSPropertyOp57
 70
     1
102
RTVSPropertyOp58
 70
     1
102
RTVSPropertyOp59
 70
     1
102
RTVSPropertyOp60
 70
     1
102
RTVSPropertyOp61
 70
     1
102
RTVSPropertyOp62
 70
     1
  0
XRECORD
  5
266E
102
{ACAD_REACTORS
330
266D
102
}
330
266D
100
AcDbXrecord
280
     1
102
RTVSPost2010Prop28
280
     0
102
RTVSPost2010PropOp28
 70
     1
102
RTVSPost2010Prop29
280
     1
102
RTVSPost2010PropOp29
 70
     1
102
RTVSPost2010Prop30
280
     1
102
RTVSPost2010PropOp30
 70
     1
102
RTVSPost2010Prop31
280
     0
102
RTVSPost2010PropOp31
 70
     1
102
RTVSPost2010Prop32
280
     0
102
RTVSPost2010PropOp32
 70
     1
102
RTVSPost2010Prop33
280
     0
102
RTVSPost2010PropOp33
 70
     1
102
RTVSPost2010Prop34
280
     0
102
RTVSPost2010PropOp34
 70
     1
102
RTVSPost2010Prop35
280
     0
102
RTVSPost2010PropOp35
 70
     1
102
RTVSPost2010Prop36
280
     0
102
RTVSPost2010PropOp36
 70
     1
102
RTVSPost2010Prop37
 90
       50
102
RTVSPost2010PropOp37
 70
     1
102
RTVSPost2010Prop38
140
0.0
102
RTVSPost2010PropOp38
 70
     1
102
RTVSPost2010Prop39
140
1.0
102
RTVSPost2010PropOp39
 70
     1
102
RTVSPost2010Prop40
 90
        0
102
RTVSPost2010PropOp40
 70
     1
102
RTVSPost2010Prop41ColorIndex
 90
       18
102
RTVSPost2010Prop41ColorRGB
 90
        0
102
RTVSPost2010PropOp41
 70
     1
102
RTVSPost2010Prop42
 90
       50
102
RTVSPost2010PropOp42
 70
     1
102
RTVSPost2010Prop43
 90
        3
102
RTVSPost2010PropOp43
 70
     1
102
RTVSPost2010Prop44ColorIndex
 90
        5
102
RTVSPost2010Prop44ColorRGB
 90
      255
102
RTVSPost2010PropOp44
 70
     1
102
RTVSPost2010Prop45
280
     0
102
RTVSPost2010PropOp45
 70
     1
102
RTVSPost2010Prop46
 90
       50
102
RTVSPost2010PropOp46
 70
     1
102
RTVSPost2010Prop47
 90
       50
102
RTVSPost2010PropOp47
 70
     1
102
RTVSPost2010Prop48
 90
       50
102
RTVSPost2010PropOp48
 70
     1
102
RTVSPost2010Prop49
280
     0
102
RTVSPost2010PropOp49
 70
     1
102
RTVSPost2010Prop50
 90
       50
102
RTVSPost2010PropOp50
 70
     1
102
RTVSPost2010Prop51ColorIndex
 90
      256
102
RTVSPost2010Prop51ColorRGB
 90
-16777216
102
RTVSPost2010PropOp51
 70
     0
102
RTVSPost2010Prop52
140
1.0
102
RTVSPost2010PropOp52
 70
     0
102
RTVSPost2010Prop53
 90
        2
102
RTVSPost2010PropOp53
 70
     1
102
RTVSPost2010Prop54
  1
strokes_ogs.tif
102
RTVSPost2010PropOp54
 70
     1
102
RTVSPost2010Prop55
280
     0
102
RTVSPost2010PropOp55
 70
     1
102
RTVSPost2010Prop56
140
1.0
102
RTVSPost2010PropOp56
 70
     1
102
RTVSPost2010Prop57
140
1.0
102
RTVSPost2010PropOp57
 70
     1
102
RTVSPropertyOp0
 70
     1
102
RTVSPropertyOp1
 70
     1
102
RTVSPropertyOp2
 70
     1
102
RTVSPropertyOp3
 70
     1
102
RTVSPropertyOp4
 70
     1
102
RTVSPropertyOp5
 70
     1
102
RTVSPropertyOp6
 70
     1
102
RTVSPropertyOp7
 70
     1
102
RTVSPropertyOp8
 70
     1
102
RTVSPropertyOp9
 70
     1
102
RTVSPropertyOp10
 70
     1
102
RTVSPropertyOp11
 70
     1
102
RTVSPropertyOp12
 70
     1
102
RTVSPropertyOp13
 70
     1
102
RTVSPropertyOp14
 70
     1
102
RTVSPropertyOp15
 70
     1
102
RTVSPropertyOp16
 70
     1
102
RTVSPropertyOp17
 70
     1
102
RTVSPropertyOp18
 70
     1
102
RTVSPropertyOp19
 70
     1
102
RTVSPropertyOp20
 70
     1
102
RTVSPropertyOp21
 70
     1
102
RTVSPropertyOp22
 70
     1
102
RTVSPropertyOp23
 70
     1
102
RTVSPropertyOp24
 70
     1
102
RTVSPropertyOp25
 70
     1
102
RTVSPropertyOp26
 70
     1
102
RTVSPropertyOp27
 70
     1
102
RTVSPropertyOp28
 70
     1
102
RTVSPropertyOp29
 70
     1
102
RTVSPropertyOp30
 70
     1
102
RTVSPropertyOp31
 70
     1
102
RTVSPropertyOp32
 70
     1
102
RTVSPropertyOp33
 70
     1
102
RTVSPropertyOp34
 70
     1
102
RTVSPropertyOp35
 70
     1
102
RTVSPropertyOp36
 70
     1
102
RTVSPropertyOp37
 70
     1
102
RTVSPropertyOp38
 70
     1
102
RTVSPropertyOp39
 70
     1
102
RTVSPropertyOp40
 70
     1
102
RTVSPropertyOp41
 70
     1
102
RTVSPropertyOp42
 70
     1
102
RTVSPropertyOp43
 70
     1
102
RTVSPropertyOp44
 70
     1
102
RTVSPropertyOp45
 70
     1
102
RTVSPropertyOp46
 70
     1
102
RTVSPropertyOp47
 70
     1
102
RTVSPropertyOp48
 70
     1
102
RTVSPropertyOp49
 70
     1
102
RTVSPropertyOp50
 70
     1
102
RTVSPropertyOp51
 70
     0
102
RTVSPropertyOp52
 70
     0
102
RTVSPropertyOp53
 70
     1
102
RTVSPropertyOp54
 70
     1
102
RTVSPropertyOp55
 70
     1
102
RTVSPropertyOp56
 70
     1
102
RTVSPropertyOp57
 70
     1
102
RTVSPropertyOp58
 70
     1
102
RTVSPropertyOp59
 70
     1
102
RTVSPropertyOp60
 70
     1
102
RTVSPropertyOp61
 70
     1
102
RTVSPropertyOp62
 70
     1
  0
XRECORD
  5
2670
102
{ACAD_REACTORS
330
266F
102
}
330
266F
100
AcDbXrecord
280
     1
102
RTVSPost2010Prop28
280
     0
102
RTVSPost2010PropOp28
 70
     1
102
RTVSPost2010Prop29
280
     1
102
RTVSPost2010PropOp29
 70
     1
102
RTVSPost2010Prop30
280
     1
102
RTVSPost2010PropOp30
 70
     1
102
RTVSPost2010Prop31
280
     0
102
RTVSPost2010PropOp31
 70
     1
102
RTVSPost2010Prop32
280
     0
102
RTVSPost2010PropOp32
 70
     1
102
RTVSPost2010Prop33
280
     0
102
RTVSPost2010PropOp33
 70
     1
102
RTVSPost2010Prop34
280
     0
102
RTVSPost2010PropOp34
 70
     1
102
RTVSPost2010Prop35
280
     0
102
RTVSPost2010PropOp35
 70
     1
102
RTVSPost2010Prop36
280
     0
102
RTVSPost2010PropOp36
 70
     1
102
RTVSPost2010Prop37
 90
       50
102
RTVSPost2010PropOp37
 70
     1
102
RTVSPost2010Prop38
140
0.0
102
RTVSPost2010PropOp38
 70
     1
102
RTVSPost2010Prop39
140
1.0
102
RTVSPost2010PropOp39
 70
     1
102
RTVSPost2010Prop40
 90
        0
102
RTVSPost2010PropOp40
 70
     1
102
RTVSPost2010Prop41ColorIndex
 90
       18
102
RTVSPost2010Prop41ColorRGB
 90
        0
102
RTVSPost2010PropOp41
 70
     1
102
RTVSPost2010Prop42
 90
       50
102
RTVSPost2010PropOp42
 70
     1
102
RTVSPost2010Prop43
 90
        3
102
RTVSPost2010PropOp43
 70
     1
102
RTVSPost2010Prop44ColorIndex
 90
        5
102
RTVSPost2010Prop44ColorRGB
 90
      255
102
RTVSPost2010PropOp44
 70
     1
102
RTVSPost2010Prop45
280
     0
102
RTVSPost2010PropOp45
 70
     1
102
RTVSPost2010Prop46
 90
       50
102
RTVSPost2010PropOp46
 70
     1
102
RTVSPost2010Prop47
 90
       50
102
RTVSPost2010PropOp47
 70
     1
102
RTVSPost2010Prop48
 90
       50
102
RTVSPost2010PropOp48
 70
     1
102
RTVSPost2010Prop49
280
     0
102
RTVSPost2010PropOp49
 70
     1
102
RTVSPost2010Prop50
 90
       50
102
RTVSPost2010PropOp50
 70
     1
102
RTVSPost2010Prop51ColorIndex
 90
      256
102
RTVSPost2010Prop51ColorRGB
 90
-16777216
102
RTVSPost2010PropOp51
 70
     0
102
RTVSPost2010Prop52
140
1.0
102
RTVSPost2010PropOp52
 70
     0
102
RTVSPost2010Prop53
 90
        2
102
RTVSPost2010PropOp53
 70
     1
102
RTVSPost2010Prop54
  1
strokes_ogs.tif
102
RTVSPost2010PropOp54
 70
     1
102
RTVSPost2010Prop55
280
     0
102
RTVSPost2010PropOp55
 70
     1
102
RTVSPost2010Prop56
140
1.0
102
RTVSPost2010PropOp56
 70
     1
102
RTVSPost2010Prop57
140
1.0
102
RTVSPost2010PropOp57
 70
     1
102
RTVSPropertyOp0
 70
     1
102
RTVSPropertyOp1
 70
     1
102
RTVSPropertyOp2
 70
     1
102
RTVSPropertyOp3
 70
     1
102
RTVSPropertyOp4
 70
     1
102
RTVSPropertyOp5
 70
     1
102
RTVSPropertyOp6
 70
     1
102
RTVSPropertyOp7
 70
     1
102
RTVSPropertyOp8
 70
     1
102
RTVSPropertyOp9
 70
     1
102
RTVSPropertyOp10
 70
     1
102
RTVSPropertyOp11
 70
     1
102
RTVSPropertyOp12
 70
     1
102
RTVSPropertyOp13
 70
     1
102
RTVSPropertyOp14
 70
     1
102
RTVSPropertyOp15
 70
     1
102
RTVSPropertyOp16
 70
     1
102
RTVSPropertyOp17
 70
     1
102
RTVSPropertyOp18
 70
     1
102
RTVSPropertyOp19
 70
     1
102
RTVSPropertyOp20
 70
     1
102
RTVSPropertyOp21
 70
     1
102
RTVSPropertyOp22
 70
     1
102
RTVSPropertyOp23
 70
     1
102
RTVSPropertyOp24
 70
     1
102
RTVSPropertyOp25
 70
     1
102
RTVSPropertyOp26
 70
     1
102
RTVSPropertyOp27
 70
     1
102
RTVSPropertyOp28
 70
     1
102
RTVSPropertyOp29
 70
     1
102
RTVSPropertyOp30
 70
     1
102
RTVSPropertyOp31
 70
     1
102
RTVSPropertyOp32
 70
     1
102
RTVSPropertyOp33
 70
     1
102
RTVSPropertyOp34
 70
     1
102
RTVSPropertyOp35
 70
     1
102
RTVSPropertyOp36
 70
     1
102
RTVSPropertyOp37
 70
     1
102
RTVSPropertyOp38
 70
     1
102
RTVSPropertyOp39
 70
     1
102
RTVSPropertyOp40
 70
     1
102
RTVSPropertyOp41
 70
     1
102
RTVSPropertyOp42
 70
     1
102
RTVSPropertyOp43
 70
     1
102
RTVSPropertyOp44
 70
     1
102
RTVSPropertyOp45
 70
     1
102
RTVSPropertyOp46
 70
     1
102
RTVSPropertyOp47
 70
     1
102
RTVSPropertyOp48
 70
     1
102
RTVSPropertyOp49
 70
     1
102
RTVSPropertyOp50
 70
     1
102
RTVSPropertyOp51
 70
     0
102
RTVSPropertyOp52
 70
     0
102
RTVSPropertyOp53
 70
     1
102
RTVSPropertyOp54
 70
     1
102
RTVSPropertyOp55
 70
     1
102
RTVSPropertyOp56
 70
     1
102
RTVSPropertyOp57
 70
     1
102
RTVSPropertyOp58
 70
     1
102
RTVSPropertyOp59
 70
     1
102
RTVSPropertyOp60
 70
     1
102
RTVSPropertyOp61
 70
     1
102
RTVSPropertyOp62
 70
     1
  0
XRECORD
  5
26A3
102
{ACAD_REACTORS
330
26A2
102
}
330
26A2
100
AcDbXrecord
280
     1
102
RTVSPost2010Prop28
280
     0
102
RTVSPost2010PropOp28
 70
     1
102
RTVSPost2010Prop29
280
     1
102
RTVSPost2010PropOp29
 70
     1
102
RTVSPost2010Prop30
280
     1
102
RTVSPost2010PropOp30
 70
     1
102
RTVSPost2010Prop31
280
     0
102
RTVSPost2010PropOp31
 70
     1
102
RTVSPost2010Prop32
280
     0
102
RTVSPost2010PropOp32
 70
     1
102
RTVSPost2010Prop33
280
     0
102
RTVSPost2010PropOp33
 70
     1
102
RTVSPost2010Prop34
280
     0
102
RTVSPost2010PropOp34
 70
     1
102
RTVSPost2010Prop35
280
     0
102
RTVSPost2010PropOp35
 70
     1
102
RTVSPost2010Prop36
280
     0
102
RTVSPost2010PropOp36
 70
     1
102
RTVSPost2010Prop37
 90
       50
102
RTVSPost2010PropOp37
 70
     1
102
RTVSPost2010Prop38
140
0.0
102
RTVSPost2010PropOp38
 70
     1
102
RTVSPost2010Prop39
140
1.0
102
RTVSPost2010PropOp39
 70
     1
102
RTVSPost2010Prop40
 90
        0
102
RTVSPost2010PropOp40
 70
     1
102
RTVSPost2010Prop41ColorIndex
 90
       18
102
RTVSPost2010Prop41ColorRGB
 90
        0
102
RTVSPost2010PropOp41
 70
     1
102
RTVSPost2010Prop42
 90
       50
102
RTVSPost2010PropOp42
 70
     1
102
RTVSPost2010Prop43
 90
        3
102
RTVSPost2010PropOp43
 70
     1
102
RTVSPost2010Prop44ColorIndex
 90
        5
102
RTVSPost2010Prop44ColorRGB
 90
      255
102
RTVSPost2010PropOp44
 70
     1
102
RTVSPost2010Prop45
280
     0
102
RTVSPost2010PropOp45
 70
     1
102
RTVSPost2010Prop46
 90
       50
102
RTVSPost2010PropOp46
 70
     1
102
RTVSPost2010Prop47
 90
       50
102
RTVSPost2010PropOp47
 70
     1
102
RTVSPost2010Prop48
 90
       50
102
RTVSPost2010PropOp48
 70
     1
102
RTVSPost2010Prop49
280
     0
102
RTVSPost2010PropOp49
 70
     1
102
RTVSPost2010Prop50
 90
       50
102
RTVSPost2010PropOp50
 70
     1
102
RTVSPost2010Prop51ColorIndex
 90
      256
102
RTVSPost2010Prop51ColorRGB
 90
-16777216
102
RTVSPost2010PropOp51
 70
     0
102
RTVSPost2010Prop52
140
1.0
102
RTVSPost2010PropOp52
 70
     0
102
RTVSPost2010Prop53
 90
        2
102
RTVSPost2010PropOp53
 70
     1
102
RTVSPost2010Prop54
  1
strokes_ogs.tif
102
RTVSPost2010PropOp54
 70
     1
102
RTVSPost2010Prop55
280
     0
102
RTVSPost2010PropOp55
 70
     1
102
RTVSPost2010Prop56
140
1.0
102
RTVSPost2010PropOp56
 70
     1
102
RTVSPost2010Prop57
140
1.0
102
RTVSPost2010PropOp57
 70
     1
102
RTVSPropertyOp0
 70
     1
102
RTVSPropertyOp1
 70
     1
102
RTVSPropertyOp2
 70
     1
102
RTVSPropertyOp3
 70
     1
102
RTVSPropertyOp4
 70
     1
102
RTVSPropertyOp5
 70
     1
102
RTVSPropertyOp6
 70
     1
102
RTVSPropertyOp7
 70
     1
102
RTVSPropertyOp8
 70
     1
102
RTVSPropertyOp9
 70
     1
102
RTVSPropertyOp10
 70
     1
102
RTVSPropertyOp11
 70
     1
102
RTVSPropertyOp12
 70
     1
102
RTVSPropertyOp13
 70
     1
102
RTVSPropertyOp14
 70
     1
102
RTVSPropertyOp15
 70
     1
102
RTVSPropertyOp16
 70
     1
102
RTVSPropertyOp17
 70
     1
102
RTVSPropertyOp18
 70
     1
102
RTVSPropertyOp19
 70
     1
102
RTVSPropertyOp20
 70
     1
102
RTVSPropertyOp21
 70
     1
102
RTVSPropertyOp22
 70
     1
102
RTVSPropertyOp23
 70
     1
102
RTVSPropertyOp24
 70
     1
102
RTVSPropertyOp25
 70
     1
102
RTVSPropertyOp26
 70
     1
102
RTVSPropertyOp27
 70
     1
102
RTVSPropertyOp28
 70
     1
102
RTVSPropertyOp29
 70
     1
102
RTVSPropertyOp30
 70
     1
102
RTVSPropertyOp31
 70
     1
102
RTVSPropertyOp32
 70
     1
102
RTVSPropertyOp33
 70
     1
102
RTVSPropertyOp34
 70
     1
102
RTVSPropertyOp35
 70
     1
102
RTVSPropertyOp36
 70
     1
102
RTVSPropertyOp37
 70
     1
102
RTVSPropertyOp38
 70
     1
102
RTVSPropertyOp39
 70
     1
102
RTVSPropertyOp40
 70
     1
102
RTVSPropertyOp41
 70
     1
102
RTVSPropertyOp42
 70
     1
102
RTVSPropertyOp43
 70
     1
102
RTVSPropertyOp44
 70
     1
102
RTVSPropertyOp45
 70
     1
102
RTVSPropertyOp46
 70
     1
102
RTVSPropertyOp47
 70
     1
102
RTVSPropertyOp48
 70
     1
102
RTVSPropertyOp49
 70
     1
102
RTVSPropertyOp50
 70
     1
102
RTVSPropertyOp51
 70
     0
102
RTVSPropertyOp52
 70
     0
102
RTVSPropertyOp53
 70
     1
102
RTVSPropertyOp54
 70
     1
102
RTVSPropertyOp55
 70
     1
102
RTVSPropertyOp56
 70
     1
102
RTVSPropertyOp57
 70
     1
102
RTVSPropertyOp58
 70
     1
102
RTVSPropertyOp59
 70
     1
102
RTVSPropertyOp60
 70
     1
102
RTVSPropertyOp61
 70
     1
102
RTVSPropertyOp62
 70
     1
  0
XRECORD
  5
268A
102
{ACAD_REACTORS
330
2689
102
}
330
2689
100
AcDbXrecord
280
     1
102
RTVSPost2010Prop28
280
     0
102
RTVSPost2010PropOp28
 70
     1
102
RTVSPost2010Prop29
280
     1
102
RTVSPost2010PropOp29
 70
     1
102
RTVSPost2010Prop30
280
     1
102
RTVSPost2010PropOp30
 70
     1
102
RTVSPost2010Prop31
280
     0
102
RTVSPost2010PropOp31
 70
     1
102
RTVSPost2010Prop32
280
     0
102
RTVSPost2010PropOp32
 70
     1
102
RTVSPost2010Prop33
280
     0
102
RTVSPost2010PropOp33
 70
     1
102
RTVSPost2010Prop34
280
     0
102
RTVSPost2010PropOp34
 70
     1
102
RTVSPost2010Prop35
280
     0
102
RTVSPost2010PropOp35
 70
     1
102
RTVSPost2010Prop36
280
     0
102
RTVSPost2010PropOp36
 70
     1
102
RTVSPost2010Prop37
 90
       50
102
RTVSPost2010PropOp37
 70
     1
102
RTVSPost2010Prop38
140
0.0
102
RTVSPost2010PropOp38
 70
     1
102
RTVSPost2010Prop39
140
1.0
102
RTVSPost2010PropOp39
 70
     1
102
RTVSPost2010Prop40
 90
        0
102
RTVSPost2010PropOp40
 70
     1
102
RTVSPost2010Prop41ColorIndex
 90
       18
102
RTVSPost2010Prop41ColorRGB
 90
        0
102
RTVSPost2010PropOp41
 70
     1
102
RTVSPost2010Prop42
 90
       50
102
RTVSPost2010PropOp42
 70
     1
102
RTVSPost2010Prop43
 90
        3
102
RTVSPost2010PropOp43
 70
     1
102
RTVSPost2010Prop44ColorIndex
 90
        5
102
RTVSPost2010Prop44ColorRGB
 90
      255
102
RTVSPost2010PropOp44
 70
     1
102
RTVSPost2010Prop45
280
     0
102
RTVSPost2010PropOp45
 70
     1
102
RTVSPost2010Prop46
 90
       50
102
RTVSPost2010PropOp46
 70
     1
102
RTVSPost2010Prop47
 90
       50
102
RTVSPost2010PropOp47
 70
     1
102
RTVSPost2010Prop48
 90
       50
102
RTVSPost2010PropOp48
 70
     1
102
RTVSPost2010Prop49
280
     0
102
RTVSPost2010PropOp49
 70
     1
102
RTVSPost2010Prop50
 90
       50
102
RTVSPost2010PropOp50
 70
     1
102
RTVSPost2010Prop51ColorIndex
 90
      256
102
RTVSPost2010Prop51ColorRGB
 90
-16777216
102
RTVSPost2010PropOp51
 70
     0
102
RTVSPost2010Prop52
140
1.0
102
RTVSPost2010PropOp52
 70
     0
102
RTVSPost2010Prop53
 90
        2
102
RTVSPost2010PropOp53
 70
     1
102
RTVSPost2010Prop54
  1
strokes_ogs.tif
102
RTVSPost2010PropOp54
 70
     1
102
RTVSPost2010Prop55
280
     0
102
RTVSPost2010PropOp55
 70
     1
102
RTVSPost2010Prop56
140
1.0
102
RTVSPost2010PropOp56
 70
     1
102
RTVSPost2010Prop57
140
1.0
102
RTVSPost2010PropOp57
 70
     1
102
RTVSPropertyOp0
 70
     0
102
RTVSPropertyOp1
 70
     0
102
RTVSPropertyOp2
 70
     0
102
RTVSPropertyOp3
 70
     0
102
RTVSPropertyOp4
 70
     0
102
RTVSPropertyOp5
 70
     0
102
RTVSPropertyOp6
 70
     0
102
RTVSPropertyOp7
 70
     0
102
RTVSPropertyOp8
 70
     0
102
RTVSPropertyOp9
 70
     0
102
RTVSPropertyOp10
 70
     0
102
RTVSPropertyOp11
 70
     0
102
RTVSPropertyOp12
 70
     0
102
RTVSPropertyOp13
 70
     0
102
RTVSPropertyOp14
 70
     2
102
RTVSPropertyOp15
 70
     0
102
RTVSPropertyOp16
 70
     0
102
RTVSPropertyOp17
 70
     0
102
RTVSPropertyOp18
 70
     0
102
RTVSPropertyOp19
 70
     0
102
RTVSPropertyOp20
 70
     0
102
RTVSPropertyOp21
 70
     0
102
RTVSPropertyOp22
 70
     0
102
RTVSPropertyOp23
 70
     0
102
RTVSPropertyOp24
 70
     0
102
RTVSPropertyOp25
 70
     0
102
RTVSPropertyOp26
 70
     0
102
RTVSPropertyOp27
 70
     0
102
RTVSPropertyOp28
 70
     1
102
RTVSPropertyOp29
 70
     1
102
RTVSPropertyOp30
 70
     1
102
RTVSPropertyOp31
 70
     1
102
RTVSPropertyOp32
 70
     1
102
RTVSPropertyOp33
 70
     1
102
RTVSPropertyOp34
 70
     1
102
RTVSPropertyOp35
 70
     1
102
RTVSPropertyOp36
 70
     1
102
RTVSPropertyOp37
 70
     1
102
RTVSPropertyOp38
 70
     1
102
RTVSPropertyOp39
 70
     1
102
RTVSPropertyOp40
 70
     1
102
RTVSPropertyOp41
 70
     1
102
RTVSPropertyOp42
 70
     1
102
RTVSPropertyOp43
 70
     1
102
RTVSPropertyOp44
 70
     1
102
RTVSPropertyOp45
 70
     1
102
RTVSPropertyOp46
 70
     1
102
RTVSPropertyOp47
 70
     1
102
RTVSPropertyOp48
 70
     1
102
RTVSPropertyOp49
 70
     1
102
RTVSPropertyOp50
 70
     1
102
RTVSPropertyOp51
 70
     0
102
RTVSPropertyOp52
 70
     0
102
RTVSPropertyOp53
 70
     1
102
RTVSPropertyOp54
 70
     1
102
RTVSPropertyOp55
 70
     1
102
RTVSPropertyOp56
 70
     1
102
RTVSPropertyOp57
 70
     1
102
RTVSPropertyOp58
 70
     1
102
RTVSPropertyOp59
 70
     1
102
RTVSPropertyOp60
 70
     1
102
RTVSPropertyOp61
 70
     1
102
RTVSPropertyOp62
 70
     1
  0
XRECORD
  5
2684
102
{ACAD_REACTORS
330
2683
102
}
330
2683
100
AcDbXrecord
280
     1
102
RTVSPost2010Prop28
280
     0
102
RTVSPost2010PropOp28
 70
     1
102
RTVSPost2010Prop29
280
     1
102
RTVSPost2010PropOp29
 70
     1
102
RTVSPost2010Prop30
280
     1
102
RTVSPost2010PropOp30
 70
     1
102
RTVSPost2010Prop31
280
     0
102
RTVSPost2010PropOp31
 70
     1
102
RTVSPost2010Prop32
280
     0
102
RTVSPost2010PropOp32
 70
     1
102
RTVSPost2010Prop33
280
     0
102
RTVSPost2010PropOp33
 70
     1
102
RTVSPost2010Prop34
280
     0
102
RTVSPost2010PropOp34
 70
     1
102
RTVSPost2010Prop35
280
     0
102
RTVSPost2010PropOp35
 70
     1
102
RTVSPost2010Prop36
280
     0
102
RTVSPost2010PropOp36
 70
     1
102
RTVSPost2010Prop37
 90
       50
102
RTVSPost2010PropOp37
 70
     1
102
RTVSPost2010Prop38
140
0.0
102
RTVSPost2010PropOp38
 70
     1
102
RTVSPost2010Prop39
140
1.0
102
RTVSPost2010PropOp39
 70
     1
102
RTVSPost2010Prop40
 90
        0
102
RTVSPost2010PropOp40
 70
     1
102
RTVSPost2010Prop41ColorIndex
 90
       18
102
RTVSPost2010Prop41ColorRGB
 90
        0
102
RTVSPost2010PropOp41
 70
     1
102
RTVSPost2010Prop42
 90
       50
102
RTVSPost2010PropOp42
 70
     1
102
RTVSPost2010Prop43
 90
        3
102
RTVSPost2010PropOp43
 70
     1
102
RTVSPost2010Prop44ColorIndex
 90
        5
102
RTVSPost2010Prop44ColorRGB
 90
      255
102
RTVSPost2010PropOp44
 70
     1
102
RTVSPost2010Prop45
280
     0
102
RTVSPost2010PropOp45
 70
     1
102
RTVSPost2010Prop46
 90
       50
102
RTVSPost2010PropOp46
 70
     1
102
RTVSPost2010Prop47
 90
       50
102
RTVSPost2010PropOp47
 70
     1
102
RTVSPost2010Prop48
 90
       50
102
RTVSPost2010PropOp48
 70
     1
102
RTVSPost2010Prop49
280
     0
102
RTVSPost2010PropOp49
 70
     1
102
RTVSPost2010Prop50
 90
       50
102
RTVSPost2010PropOp50
 70
     1
102
RTVSPost2010Prop51ColorIndex
 90
      256
102
RTVSPost2010Prop51ColorRGB
 90
-16777216
102
RTVSPost2010PropOp51
 70
     0
102
RTVSPost2010Prop52
140
1.0
102
RTVSPost2010PropOp52
 70
     0
102
RTVSPost2010Prop53
 90
        2
102
RTVSPost2010PropOp53
 70
     1
102
RTVSPost2010Prop54
  1
strokes_ogs.tif
102
RTVSPost2010PropOp54
 70
     1
102
RTVSPost2010Prop55
280
     0
102
RTVSPost2010PropOp55
 70
     1
102
RTVSPost2010Prop56
140
1.0
102
RTVSPost2010PropOp56
 70
     1
102
RTVSPost2010Prop57
140
1.0
102
RTVSPost2010PropOp57
 70
     1
102
RTVSPropertyOp0
 70
     1
102
RTVSPropertyOp1
 70
     1
102
RTVSPropertyOp2
 70
     1
102
RTVSPropertyOp3
 70
     1
102
RTVSPropertyOp4
 70
     1
102
RTVSPropertyOp5
 70
     1
102
RTVSPropertyOp6
 70
     1
102
RTVSPropertyOp7
 70
     1
102
RTVSPropertyOp8
 70
     1
102
RTVSPropertyOp9
 70
     1
102
RTVSPropertyOp10
 70
     1
102
RTVSPropertyOp11
 70
     1
102
RTVSPropertyOp12
 70
     1
102
RTVSPropertyOp13
 70
     1
102
RTVSPropertyOp14
 70
     1
102
RTVSPropertyOp15
 70
     1
102
RTVSPropertyOp16
 70
     1
102
RTVSPropertyOp17
 70
     1
102
RTVSPropertyOp18
 70
     1
102
RTVSPropertyOp19
 70
     1
102
RTVSPropertyOp20
 70
     1
102
RTVSPropertyOp21
 70
     1
102
RTVSPropertyOp22
 70
     1
102
RTVSPropertyOp23
 70
     1
102
RTVSPropertyOp24
 70
     1
102
RTVSPropertyOp25
 70
     1
102
RTVSPropertyOp26
 70
     1
102
RTVSPropertyOp27
 70
     1
102
RTVSPropertyOp28
 70
     1
102
RTVSPropertyOp29
 70
     1
102
RTVSPropertyOp30
 70
     1
102
RTVSPropertyOp31
 70
     1
102
RTVSPropertyOp32
 70
     1
102
RTVSPropertyOp33
 70
     1
102
RTVSPropertyOp34
 70
     1
102
RTVSPropertyOp35
 70
     1
102
RTVSPropertyOp36
 70
     1
102
RTVSPropertyOp37
 70
     1
102
RTVSPropertyOp38
 70
     1
102
RTVSPropertyOp39
 70
     1
102
RTVSPropertyOp40
 70
     1
102
RTVSPropertyOp41
 70
     1
102
RTVSPropertyOp42
 70
     1
102
RTVSPropertyOp43
 70
     1
102
RTVSPropertyOp44
 70
     1
102
RTVSPropertyOp45
 70
     1
102
RTVSPropertyOp46
 70
     1
102
RTVSPropertyOp47
 70
     1
102
RTVSPropertyOp48
 70
     1
102
RTVSPropertyOp49
 70
     1
102
RTVSPropertyOp50
 70
     1
102
RTVSPropertyOp51
 70
     0
102
RTVSPropertyOp52
 70
     0
102
RTVSPropertyOp53
 70
     1
102
RTVSPropertyOp54
 70
     1
102
RTVSPropertyOp55
 70
     1
102
RTVSPropertyOp56
 70
     1
102
RTVSPropertyOp57
 70
     1
102
RTVSPropertyOp58
 70
     1
102
RTVSPropertyOp59
 70
     1
102
RTVSPropertyOp60
 70
     1
102
RTVSPropertyOp61
 70
     1
102
RTVSPropertyOp62
 70
     1
  0
XRECORD
  5
268C
102
{ACAD_REACTORS
330
268B
102
}
330
268B
100
AcDbXrecord
280
     1
102
RTVSPost2010Prop28
280
     0
102
RTVSPost2010PropOp28
 70
     1
102
RTVSPost2010Prop29
280
     1
102
RTVSPost2010PropOp29
 70
     1
102
RTVSPost2010Prop30
280
     1
102
RTVSPost2010PropOp30
 70
     1
102
RTVSPost2010Prop31
280
     0
102
RTVSPost2010PropOp31
 70
     1
102
RTVSPost2010Prop32
280
     0
102
RTVSPost2010PropOp32
 70
     1
102
RTVSPost2010Prop33
280
     0
102
RTVSPost2010PropOp33
 70
     1
102
RTVSPost2010Prop34
280
     0
102
RTVSPost2010PropOp34
 70
     1
102
RTVSPost2010Prop35
280
     0
102
RTVSPost2010PropOp35
 70
     1
102
RTVSPost2010Prop36
280
     0
102
RTVSPost2010PropOp36
 70
     1
102
RTVSPost2010Prop37
 90
       50
102
RTVSPost2010PropOp37
 70
     1
102
RTVSPost2010Prop38
140
0.0
102
RTVSPost2010PropOp38
 70
     1
102
RTVSPost2010Prop39
140
1.0
102
RTVSPost2010PropOp39
 70
     1
102
RTVSPost2010Prop40
 90
        0
102
RTVSPost2010PropOp40
 70
     1
102
RTVSPost2010Prop41ColorIndex
 90
       18
102
RTVSPost2010Prop41ColorRGB
 90
        0
102
RTVSPost2010PropOp41
 70
     1
102
RTVSPost2010Prop42
 90
       50
102
RTVSPost2010PropOp42
 70
     1
102
RTVSPost2010Prop43
 90
        3
102
RTVSPost2010PropOp43
 70
     1
102
RTVSPost2010Prop44ColorIndex
 90
        5
102
RTVSPost2010Prop44ColorRGB
 90
      255
102
RTVSPost2010PropOp44
 70
     1
102
RTVSPost2010Prop45
280
     0
102
RTVSPost2010PropOp45
 70
     1
102
RTVSPost2010Prop46
 90
       50
102
RTVSPost2010PropOp46
 70
     1
102
RTVSPost2010Prop47
 90
       50
102
RTVSPost2010PropOp47
 70
     1
102
RTVSPost2010Prop48
 90
       50
102
RTVSPost2010PropOp48
 70
     1
102
RTVSPost2010Prop49
280
     0
102
RTVSPost2010PropOp49
 70
     1
102
RTVSPost2010Prop50
 90
       50
102
RTVSPost2010PropOp50
 70
     1
102
RTVSPost2010Prop51ColorIndex
 90
      256
102
RTVSPost2010Prop51ColorRGB
 90
-16777216
102
RTVSPost2010PropOp51
 70
     0
102
RTVSPost2010Prop52
140
1.0
102
RTVSPost2010PropOp52
 70
     0
102
RTVSPost2010Prop53
 90
        2
102
RTVSPost2010PropOp53
 70
     1
102
RTVSPost2010Prop54
  1
strokes_ogs.tif
102
RTVSPost2010PropOp54
 70
     1
102
RTVSPost2010Prop55
280
     0
102
RTVSPost2010PropOp55
 70
     1
102
RTVSPost2010Prop56
140
1.0
102
RTVSPost2010PropOp56
 70
     1
102
RTVSPost2010Prop57
140
1.0
102
RTVSPost2010PropOp57
 70
     1
102
RTVSPropertyOp0
 70
     0
102
RTVSPropertyOp1
 70
     0
102
RTVSPropertyOp2
 70
     0
102
RTVSPropertyOp3
 70
     0
102
RTVSPropertyOp4
 70
     0
102
RTVSPropertyOp5
 70
     0
102
RTVSPropertyOp6
 70
     0
102
RTVSPropertyOp7
 70
     0
102
RTVSPropertyOp8
 70
     0
102
RTVSPropertyOp9
 70
     0
102
RTVSPropertyOp10
 70
     0
102
RTVSPropertyOp11
 70
     0
102
RTVSPropertyOp12
 70
     0
102
RTVSPropertyOp13
 70
     0
102
RTVSPropertyOp14
 70
     2
102
RTVSPropertyOp15
 70
     0
102
RTVSPropertyOp16
 70
     0
102
RTVSPropertyOp17
 70
     0
102
RTVSPropertyOp18
 70
     0
102
RTVSPropertyOp19
 70
     0
102
RTVSPropertyOp20
 70
     0
102
RTVSPropertyOp21
 70
     0
102
RTVSPropertyOp22
 70
     0
102
RTVSPropertyOp23
 70
     0
102
RTVSPropertyOp24
 70
     0
102
RTVSPropertyOp25
 70
     0
102
RTVSPropertyOp26
 70
     0
102
RTVSPropertyOp27
 70
     0
102
RTVSPropertyOp28
 70
     1
102
RTVSPropertyOp29
 70
     1
102
RTVSPropertyOp30
 70
     1
102
RTVSPropertyOp31
 70
     1
102
RTVSPropertyOp32
 70
     1
102
RTVSPropertyOp33
 70
     1
102
RTVSPropertyOp34
 70
     1
102
RTVSPropertyOp35
 70
     1
102
RTVSPropertyOp36
 70
     1
102
RTVSPropertyOp37
 70
     1
102
RTVSPropertyOp38
 70
     1
102
RTVSPropertyOp39
 70
     1
102
RTVSPropertyOp40
 70
     1
102
RTVSPropertyOp41
 70
     1
102
RTVSPropertyOp42
 70
     1
102
RTVSPropertyOp43
 70
     1
102
RTVSPropertyOp44
 70
     1
102
RTVSPropertyOp45
 70
     1
102
RTVSPropertyOp46
 70
     1
102
RTVSPropertyOp47
 70
     1
102
RTVSPropertyOp48
 70
     1
102
RTVSPropertyOp49
 70
     1
102
RTVSPropertyOp50
 70
     1
102
RTVSPropertyOp51
 70
     0
102
RTVSPropertyOp52
 70
     0
102
RTVSPropertyOp53
 70
     1
102
RTVSPropertyOp54
 70
     1
102
RTVSPropertyOp55
 70
     1
102
RTVSPropertyOp56
 70
     1
102
RTVSPropertyOp57
 70
     1
102
RTVSPropertyOp58
 70
     1
102
RTVSPropertyOp59
 70
     1
102
RTVSPropertyOp60
 70
     1
102
RTVSPropertyOp61
 70
     1
102
RTVSPropertyOp62
 70
     1
  0
XRECORD
  5
267C
102
{ACAD_REACTORS
330
267B
102
}
330
267B
100
AcDbXrecord
280
     1
102
RTVSPost2010Prop28
280
     0
102
RTVSPost2010PropOp28
 70
     1
102
RTVSPost2010Prop29
280
     1
102
RTVSPost2010PropOp29
 70
     1
102
RTVSPost2010Prop30
280
     1
102
RTVSPost2010PropOp30
 70
     1
102
RTVSPost2010Prop31
280
     0
102
RTVSPost2010PropOp31
 70
     1
102
RTVSPost2010Prop32
280
     0
102
RTVSPost2010PropOp32
 70
     1
102
RTVSPost2010Prop33
280
     0
102
RTVSPost2010PropOp33
 70
     1
102
RTVSPost2010Prop34
280
     0
102
RTVSPost2010PropOp34
 70
     1
102
RTVSPost2010Prop35
280
     0
102
RTVSPost2010PropOp35
 70
     1
102
RTVSPost2010Prop36
280
     0
102
RTVSPost2010PropOp36
 70
     1
102
RTVSPost2010Prop37
 90
       50
102
RTVSPost2010PropOp37
 70
     1
102
RTVSPost2010Prop38
140
0.0
102
RTVSPost2010PropOp38
 70
     1
102
RTVSPost2010Prop39
140
1.0
102
RTVSPost2010PropOp39
 70
     1
102
RTVSPost2010Prop40
 90
        0
102
RTVSPost2010PropOp40
 70
     1
102
RTVSPost2010Prop41ColorIndex
 90
       18
102
RTVSPost2010Prop41ColorRGB
 90
        0
102
RTVSPost2010PropOp41
 70
     1
102
RTVSPost2010Prop42
 90
       50
102
RTVSPost2010PropOp42
 70
     1
102
RTVSPost2010Prop43
 90
        3
102
RTVSPost2010PropOp43
 70
     1
102
RTVSPost2010Prop44ColorIndex
 90
        5
102
RTVSPost2010Prop44ColorRGB
 90
      255
102
RTVSPost2010PropOp44
 70
     1
102
RTVSPost2010Prop45
280
     0
102
RTVSPost2010PropOp45
 70
     1
102
RTVSPost2010Prop46
 90
       50
102
RTVSPost2010PropOp46
 70
     1
102
RTVSPost2010Prop47
 90
       50
102
RTVSPost2010PropOp47
 70
     1
102
RTVSPost2010Prop48
 90
       50
102
RTVSPost2010PropOp48
 70
     1
102
RTVSPost2010Prop49
280
     0
102
RTVSPost2010PropOp49
 70
     1
102
RTVSPost2010Prop50
 90
       50
102
RTVSPost2010PropOp50
 70
     1
102
RTVSPost2010Prop51ColorIndex
 90
      256
102
RTVSPost2010Prop51ColorRGB
 90
-16777216
102
RTVSPost2010PropOp51
 70
     0
102
RTVSPost2010Prop52
140
1.0
102
RTVSPost2010PropOp52
 70
     0
102
RTVSPost2010Prop53
 90
        2
102
RTVSPost2010PropOp53
 70
     1
102
RTVSPost2010Prop54
  1
strokes_ogs.tif
102
RTVSPost2010PropOp54
 70
     1
102
RTVSPost2010Prop55
280
     0
102
RTVSPost2010PropOp55
 70
     1
102
RTVSPost2010Prop56
140
1.0
102
RTVSPost2010PropOp56
 70
     1
102
RTVSPost2010Prop57
140
1.0
102
RTVSPost2010PropOp57
 70
     1
102
RTVSPropertyOp0
 70
     1
102
RTVSPropertyOp1
 70
     1
102
RTVSPropertyOp2
 70
     1
102
RTVSPropertyOp3
 70
     1
102
RTVSPropertyOp4
 70
     1
102
RTVSPropertyOp5
 70
     1
102
RTVSPropertyOp6
 70
     1
102
RTVSPropertyOp7
 70
     1
102
RTVSPropertyOp8
 70
     1
102
RTVSPropertyOp9
 70
     1
102
RTVSPropertyOp10
 70
     1
102
RTVSPropertyOp11
 70
     1
102
RTVSPropertyOp12
 70
     1
102
RTVSPropertyOp13
 70
     1
102
RTVSPropertyOp14
 70
     1
102
RTVSPropertyOp15
 70
     1
102
RTVSPropertyOp16
 70
     1
102
RTVSPropertyOp17
 70
     1
102
RTVSPropertyOp18
 70
     1
102
RTVSPropertyOp19
 70
     1
102
RTVSPropertyOp20
 70
     1
102
RTVSPropertyOp21
 70
     1
102
RTVSPropertyOp22
 70
     1
102
RTVSPropertyOp23
 70
     1
102
RTVSPropertyOp24
 70
     1
102
RTVSPropertyOp25
 70
     1
102
RTVSPropertyOp26
 70
     1
102
RTVSPropertyOp27
 70
     1
102
RTVSPropertyOp28
 70
     1
102
RTVSPropertyOp29
 70
     1
102
RTVSPropertyOp30
 70
     1
102
RTVSPropertyOp31
 70
     1
102
RTVSPropertyOp32
 70
     1
102
RTVSPropertyOp33
 70
     1
102
RTVSPropertyOp34
 70
     1
102
RTVSPropertyOp35
 70
     1
102
RTVSPropertyOp36
 70
     1
102
RTVSPropertyOp37
 70
     1
102
RTVSPropertyOp38
 70
     1
102
RTVSPropertyOp39
 70
     1
102
RTVSPropertyOp40
 70
     1
102
RTVSPropertyOp41
 70
     1
102
RTVSPropertyOp42
 70
     1
102
RTVSPropertyOp43
 70
     1
102
RTVSPropertyOp44
 70
     1
102
RTVSPropertyOp45
 70
     1
102
RTVSPropertyOp46
 70
     1
102
RTVSPropertyOp47
 70
     1
102
RTVSPropertyOp48
 70
     1
102
RTVSPropertyOp49
 70
     1
102
RTVSPropertyOp50
 70
     1
102
RTVSPropertyOp51
 70
     0
102
RTVSPropertyOp52
 70
     0
102
RTVSPropertyOp53
 70
     1
102
RTVSPropertyOp54
 70
     1
102
RTVSPropertyOp55
 70
     1
102
RTVSPropertyOp56
 70
     1
102
RTVSPropertyOp57
 70
     1
102
RTVSPropertyOp58
 70
     1
102
RTVSPropertyOp59
 70
     1
102
RTVSPropertyOp60
 70
     1
102
RTVSPropertyOp61
 70
     1
102
RTVSPropertyOp62
 70
     1
  0
XRECORD
  5
26AD
102
{ACAD_REACTORS
330
26AC
102
}
330
26AC
100
AcDbXrecord
280
     1
102
RTVSPost2010Prop28
280
     0
102
RTVSPost2010PropOp28
 70
     1
102
RTVSPost2010Prop29
280
     1
102
RTVSPost2010PropOp29
 70
     1
102
RTVSPost2010Prop30
280
     1
102
RTVSPost2010PropOp30
 70
     1
102
RTVSPost2010Prop31
280
     0
102
RTVSPost2010PropOp31
 70
     1
102
RTVSPost2010Prop32
280
     0
102
RTVSPost2010PropOp32
 70
     1
102
RTVSPost2010Prop33
280
     0
102
RTVSPost2010PropOp33
 70
     1
102
RTVSPost2010Prop34
280
     0
102
RTVSPost2010PropOp34
 70
     1
102
RTVSPost2010Prop35
280
     0
102
RTVSPost2010PropOp35
 70
     1
102
RTVSPost2010Prop36
280
     0
102
RTVSPost2010PropOp36
 70
     1
102
RTVSPost2010Prop37
 90
       50
102
RTVSPost2010PropOp37
 70
     1
102
RTVSPost2010Prop38
140
0.0
102
RTVSPost2010PropOp38
 70
     1
102
RTVSPost2010Prop39
140
1.0
102
RTVSPost2010PropOp39
 70
     1
102
RTVSPost2010Prop40
 90
        0
102
RTVSPost2010PropOp40
 70
     1
102
RTVSPost2010Prop41ColorIndex
 90
       18
102
RTVSPost2010Prop41ColorRGB
 90
        0
102
RTVSPost2010PropOp41
 70
     1
102
RTVSPost2010Prop42
 90
       50
102
RTVSPost2010PropOp42
 70
     1
102
RTVSPost2010Prop43
 90
        3
102
RTVSPost2010PropOp43
 70
     1
102
RTVSPost2010Prop44ColorIndex
 90
        5
102
RTVSPost2010Prop44ColorRGB
 90
      255
102
RTVSPost2010PropOp44
 70
     1
102
RTVSPost2010Prop45
280
     0
102
RTVSPost2010PropOp45
 70
     1
102
RTVSPost2010Prop46
 90
       50
102
RTVSPost2010PropOp46
 70
     1
102
RTVSPost2010Prop47
 90
       50
102
RTVSPost2010PropOp47
 70
     1
102
RTVSPost2010Prop48
 90
       50
102
RTVSPost2010PropOp48
 70
     1
102
RTVSPost2010Prop49
280
     0
102
RTVSPost2010PropOp49
 70
     1
102
RTVSPost2010Prop50
 90
       50
102
RTVSPost2010PropOp50
 70
     1
102
RTVSPost2010Prop51ColorIndex
 90
      256
102
RTVSPost2010Prop51ColorRGB
 90
-16777216
102
RTVSPost2010PropOp51
 70
     0
102
RTVSPost2010Prop52
140
1.0
102
RTVSPost2010PropOp52
 70
     0
102
RTVSPost2010Prop53
 90
        2
102
RTVSPost2010PropOp53
 70
     1
102
RTVSPost2010Prop54
  1
strokes_ogs.tif
102
RTVSPost2010PropOp54
 70
     1
102
RTVSPost2010Prop55
280
     0
102
RTVSPost2010PropOp55
 70
     1
102
RTVSPost2010Prop56
140
1.0
102
RTVSPost2010PropOp56
 70
     1
102
RTVSPost2010Prop57
140
1.0
102
RTVSPost2010PropOp57
 70
     1
102
RTVSPropertyOp0
 70
     1
102
RTVSPropertyOp1
 70
     1
102
RTVSPropertyOp2
 70
     1
102
RTVSPropertyOp3
 70
     1
102
RTVSPropertyOp4
 70
     1
102
RTVSPropertyOp5
 70
     1
102
RTVSPropertyOp6
 70
     1
102
RTVSPropertyOp7
 70
     1
102
RTVSPropertyOp8
 70
     1
102
RTVSPropertyOp9
 70
     1
102
RTVSPropertyOp10
 70
     1
102
RTVSPropertyOp11
 70
     1
102
RTVSPropertyOp12
 70
     1
102
RTVSPropertyOp13
 70
     1
102
RTVSPropertyOp14
 70
     1
102
RTVSPropertyOp15
 70
     1
102
RTVSPropertyOp16
 70
     1
102
RTVSPropertyOp17
 70
     1
102
RTVSPropertyOp18
 70
     1
102
RTVSPropertyOp19
 70
     1
102
RTVSPropertyOp20
 70
     1
102
RTVSPropertyOp21
 70
     1
102
RTVSPropertyOp22
 70
     1
102
RTVSPropertyOp23
 70
     1
102
RTVSPropertyOp24
 70
     1
102
RTVSPropertyOp25
 70
     1
102
RTVSPropertyOp26
 70
     1
102
RTVSPropertyOp27
 70
     1
102
RTVSPropertyOp28
 70
     1
102
RTVSPropertyOp29
 70
     1
102
RTVSPropertyOp30
 70
     1
102
RTVSPropertyOp31
 70
     1
102
RTVSPropertyOp32
 70
     1
102
RTVSPropertyOp33
 70
     1
102
RTVSPropertyOp34
 70
     1
102
RTVSPropertyOp35
 70
     1
102
RTVSPropertyOp36
 70
     1
102
RTVSPropertyOp37
 70
     1
102
RTVSPropertyOp38
 70
     1
102
RTVSPropertyOp39
 70
     1
102
RTVSPropertyOp40
 70
     1
102
RTVSPropertyOp41
 70
     1
102
RTVSPropertyOp42
 70
     1
102
RTVSPropertyOp43
 70
     1
102
RTVSPropertyOp44
 70
     1
102
RTVSPropertyOp45
 70
     1
102
RTVSPropertyOp46
 70
     1
102
RTVSPropertyOp47
 70
     1
102
RTVSPropertyOp48
 70
     1
102
RTVSPropertyOp49
 70
     1
102
RTVSPropertyOp50
 70
     1
102
RTVSPropertyOp51
 70
     0
102
RTVSPropertyOp52
 70
     0
102
RTVSPropertyOp53
 70
     1
102
RTVSPropertyOp54
 70
     1
102
RTVSPropertyOp55
 70
     1
102
RTVSPropertyOp56
 70
     1
102
RTVSPropertyOp57
 70
     1
102
RTVSPropertyOp58
 70
     1
102
RTVSPropertyOp59
 70
     1
102
RTVSPropertyOp60
 70
     1
102
RTVSPropertyOp61
 70
     1
102
RTVSPropertyOp62
 70
     1
  0
XRECORD
  5
26AB
102
{ACAD_REACTORS
330
26AA
102
}
330
26AA
100
AcDbXrecord
280
     1
102
RTVSPost2010Prop28
280
     0
102
RTVSPost2010PropOp28
 70
     1
102
RTVSPost2010Prop29
280
     1
102
RTVSPost2010PropOp29
 70
     1
102
RTVSPost2010Prop30
280
     1
102
RTVSPost2010PropOp30
 70
     1
102
RTVSPost2010Prop31
280
     0
102
RTVSPost2010PropOp31
 70
     1
102
RTVSPost2010Prop32
280
     0
102
RTVSPost2010PropOp32
 70
     1
102
RTVSPost2010Prop33
280
     0
102
RTVSPost2010PropOp33
 70
     1
102
RTVSPost2010Prop34
280
     0
102
RTVSPost2010PropOp34
 70
     1
102
RTVSPost2010Prop35
280
     0
102
RTVSPost2010PropOp35
 70
     1
102
RTVSPost2010Prop36
280
     0
102
RTVSPost2010PropOp36
 70
     1
102
RTVSPost2010Prop37
 90
       50
102
RTVSPost2010PropOp37
 70
     1
102
RTVSPost2010Prop38
140
0.0
102
RTVSPost2010PropOp38
 70
     1
102
RTVSPost2010Prop39
140
1.0
102
RTVSPost2010PropOp39
 70
     1
102
RTVSPost2010Prop40
 90
        0
102
RTVSPost2010PropOp40
 70
     1
102
RTVSPost2010Prop41ColorIndex
 90
       18
102
RTVSPost2010Prop41ColorRGB
 90
        0
102
RTVSPost2010PropOp41
 70
     1
102
RTVSPost2010Prop42
 90
       50
102
RTVSPost2010PropOp42
 70
     1
102
RTVSPost2010Prop43
 90
        3
102
RTVSPost2010PropOp43
 70
     1
102
RTVSPost2010Prop44ColorIndex
 90
        5
102
RTVSPost2010Prop44ColorRGB
 90
      255
102
RTVSPost2010PropOp44
 70
     1
102
RTVSPost2010Prop45
280
     0
102
RTVSPost2010PropOp45
 70
     1
102
RTVSPost2010Prop46
 90
       50
102
RTVSPost2010PropOp46
 70
     1
102
RTVSPost2010Prop47
 90
       50
102
RTVSPost2010PropOp47
 70
     1
102
RTVSPost2010Prop48
 90
       50
102
RTVSPost2010PropOp48
 70
     1
102
RTVSPost2010Prop49
280
     0
102
RTVSPost2010PropOp49
 70
     1
102
RTVSPost2010Prop50
 90
       50
102
RTVSPost2010PropOp50
 70
     1
102
RTVSPost2010Prop51ColorIndex
 90
      256
102
RTVSPost2010Prop51ColorRGB
 90
-16777216
102
RTVSPost2010PropOp51
 70
     0
102
RTVSPost2010Prop52
140
1.0
102
RTVSPost2010PropOp52
 70
     0
102
RTVSPost2010Prop53
 90
        2
102
RTVSPost2010PropOp53
 70
     1
102
RTVSPost2010Prop54
  1
strokes_ogs.tif
102
RTVSPost2010PropOp54
 70
     1
102
RTVSPost2010Prop55
280
     0
102
RTVSPost2010PropOp55
 70
     1
102
RTVSPost2010Prop56
140
1.0
102
RTVSPost2010PropOp56
 70
     1
102
RTVSPost2010Prop57
140
1.0
102
RTVSPost2010PropOp57
 70
     1
102
RTVSPropertyOp0
 70
     1
102
RTVSPropertyOp1
 70
     1
102
RTVSPropertyOp2
 70
     1
102
RTVSPropertyOp3
 70
     1
102
RTVSPropertyOp4
 70
     1
102
RTVSPropertyOp5
 70
     1
102
RTVSPropertyOp6
 70
     1
102
RTVSPropertyOp7
 70
     1
102
RTVSPropertyOp8
 70
     1
102
RTVSPropertyOp9
 70
     1
102
RTVSPropertyOp10
 70
     1
102
RTVSPropertyOp11
 70
     1
102
RTVSPropertyOp12
 70
     1
102
RTVSPropertyOp13
 70
     1
102
RTVSPropertyOp14
 70
     1
102
RTVSPropertyOp15
 70
     1
102
RTVSPropertyOp16
 70
     1
102
RTVSPropertyOp17
 70
     1
102
RTVSPropertyOp18
 70
     1
102
RTVSPropertyOp19
 70
     1
102
RTVSPropertyOp20
 70
     1
102
RTVSPropertyOp21
 70
     1
102
RTVSPropertyOp22
 70
     1
102
RTVSPropertyOp23
 70
     1
102
RTVSPropertyOp24
 70
     1
102
RTVSPropertyOp25
 70
     1
102
RTVSPropertyOp26
 70
     1
102
RTVSPropertyOp27
 70
     1
102
RTVSPropertyOp28
 70
     1
102
RTVSPropertyOp29
 70
     1
102
RTVSPropertyOp30
 70
     1
102
RTVSPropertyOp31
 70
     1
102
RTVSPropertyOp32
 70
     1
102
RTVSPropertyOp33
 70
     1
102
RTVSPropertyOp34
 70
     1
102
RTVSPropertyOp35
 70
     1
102
RTVSPropertyOp36
 70
     1
102
RTVSPropertyOp37
 70
     1
102
RTVSPropertyOp38
 70
     1
102
RTVSPropertyOp39
 70
     1
102
RTVSPropertyOp40
 70
     1
102
RTVSPropertyOp41
 70
     1
102
RTVSPropertyOp42
 70
     1
102
RTVSPropertyOp43
 70
     1
102
RTVSPropertyOp44
 70
     1
102
RTVSPropertyOp45
 70
     1
102
RTVSPropertyOp46
 70
     1
102
RTVSPropertyOp47
 70
     1
102
RTVSPropertyOp48
 70
     1
102
RTVSPropertyOp49
 70
     1
102
RTVSPropertyOp50
 70
     1
102
RTVSPropertyOp51
 70
     0
102
RTVSPropertyOp52
 70
     0
102
RTVSPropertyOp53
 70
     1
102
RTVSPropertyOp54
 70
     1
102
RTVSPropertyOp55
 70
     1
102
RTVSPropertyOp56
 70
     1
102
RTVSPropertyOp57
 70
     1
102
RTVSPropertyOp58
 70
     1
102
RTVSPropertyOp59
 70
     1
102
RTVSPropertyOp60
 70
     1
102
RTVSPropertyOp61
 70
     1
102
RTVSPropertyOp62
 70
     1
  0
XRECORD
  5
26A5
102
{ACAD_REACTORS
330
26A4
102
}
330
26A4
100
AcDbXrecord
280
     1
102
RTVSPost2010Prop28
280
     0
102
RTVSPost2010PropOp28
 70
     1
102
RTVSPost2010Prop29
280
     1
102
RTVSPost2010PropOp29
 70
     1
102
RTVSPost2010Prop30
280
     1
102
RTVSPost2010PropOp30
 70
     1
102
RTVSPost2010Prop31
280
     0
102
RTVSPost2010PropOp31
 70
     1
102
RTVSPost2010Prop32
280
     0
102
RTVSPost2010PropOp32
 70
     1
102
RTVSPost2010Prop33
280
     0
102
RTVSPost2010PropOp33
 70
     1
102
RTVSPost2010Prop34
280
     0
102
RTVSPost2010PropOp34
 70
     1
102
RTVSPost2010Prop35
280
     0
102
RTVSPost2010PropOp35
 70
     1
102
RTVSPost2010Prop36
280
     0
102
RTVSPost2010PropOp36
 70
     1
102
RTVSPost2010Prop37
 90
       50
102
RTVSPost2010PropOp37
 70
     1
102
RTVSPost2010Prop38
140
0.0
102
RTVSPost2010PropOp38
 70
     1
102
RTVSPost2010Prop39
140
1.0
102
RTVSPost2010PropOp39
 70
     1
102
RTVSPost2010Prop40
 90
        0
102
RTVSPost2010PropOp40
 70
     1
102
RTVSPost2010Prop41ColorIndex
 90
       18
102
RTVSPost2010Prop41ColorRGB
 90
        0
102
RTVSPost2010PropOp41
 70
     1
102
RTVSPost2010Prop42
 90
       50
102
RTVSPost2010PropOp42
 70
     1
102
RTVSPost2010Prop43
 90
        3
102
RTVSPost2010PropOp43
 70
     1
102
RTVSPost2010Prop44ColorIndex
 90
        5
102
RTVSPost2010Prop44ColorRGB
 90
      255
102
RTVSPost2010PropOp44
 70
     1
102
RTVSPost2010Prop45
280
     0
102
RTVSPost2010PropOp45
 70
     1
102
RTVSPost2010Prop46
 90
       50
102
RTVSPost2010PropOp46
 70
     1
102
RTVSPost2010Prop47
 90
       50
102
RTVSPost2010PropOp47
 70
     1
102
RTVSPost2010Prop48
 90
       50
102
RTVSPost2010PropOp48
 70
     1
102
RTVSPost2010Prop49
280
     0
102
RTVSPost2010PropOp49
 70
     1
102
RTVSPost2010Prop50
 90
       50
102
RTVSPost2010PropOp50
 70
     1
102
RTVSPost2010Prop51ColorIndex
 90
      256
102
RTVSPost2010Prop51ColorRGB
 90
-16777216
102
RTVSPost2010PropOp51
 70
     0
102
RTVSPost2010Prop52
140
1.0
102
RTVSPost2010PropOp52
 70
     0
102
RTVSPost2010Prop53
 90
        2
102
RTVSPost2010PropOp53
 70
     1
102
RTVSPost2010Prop54
  1
strokes_ogs.tif
102
RTVSPost2010PropOp54
 70
     1
102
RTVSPost2010Prop55
280
     0
102
RTVSPost2010PropOp55
 70
     1
102
RTVSPost2010Prop56
140
1.0
102
RTVSPost2010PropOp56
 70
     1
102
RTVSPost2010Prop57
140
1.0
102
RTVSPost2010PropOp57
 70
     1
102
RTVSPropertyOp0
 70
     1
102
RTVSPropertyOp1
 70
     1
102
RTVSPropertyOp2
 70
     1
102
RTVSPropertyOp3
 70
     1
102
RTVSPropertyOp4
 70
     1
102
RTVSPropertyOp5
 70
     1
102
RTVSPropertyOp6
 70
     1
102
RTVSPropertyOp7
 70
     1
102
RTVSPropertyOp8
 70
     1
102
RTVSPropertyOp9
 70
     1
102
RTVSPropertyOp10
 70
     1
102
RTVSPropertyOp11
 70
     1
102
RTVSPropertyOp12
 70
     1
102
RTVSPropertyOp13
 70
     1
102
RTVSPropertyOp14
 70
     1
102
RTVSPropertyOp15
 70
     1
102
RTVSPropertyOp16
 70
     1
102
RTVSPropertyOp17
 70
     1
102
RTVSPropertyOp18
 70
     1
102
RTVSPropertyOp19
 70
     1
102
RTVSPropertyOp20
 70
     1
102
RTVSPropertyOp21
 70
     1
102
RTVSPropertyOp22
 70
     1
102
RTVSPropertyOp23
 70
     1
102
RTVSPropertyOp24
 70
     1
102
RTVSPropertyOp25
 70
     1
102
RTVSPropertyOp26
 70
     1
102
RTVSPropertyOp27
 70
     1
102
RTVSPropertyOp28
 70
     1
102
RTVSPropertyOp29
 70
     1
102
RTVSPropertyOp30
 70
     1
102
RTVSPropertyOp31
 70
     1
102
RTVSPropertyOp32
 70
     1
102
RTVSPropertyOp33
 70
     1
102
RTVSPropertyOp34
 70
     1
102
RTVSPropertyOp35
 70
     1
102
RTVSPropertyOp36
 70
     1
102
RTVSPropertyOp37
 70
     1
102
RTVSPropertyOp38
 70
     1
102
RTVSPropertyOp39
 70
     1
102
RTVSPropertyOp40
 70
     1
102
RTVSPropertyOp41
 70
     1
102
RTVSPropertyOp42
 70
     1
102
RTVSPropertyOp43
 70
     1
102
RTVSPropertyOp44
 70
     1
102
RTVSPropertyOp45
 70
     1
102
RTVSPropertyOp46
 70
     1
102
RTVSPropertyOp47
 70
     1
102
RTVSPropertyOp48
 70
     1
102
RTVSPropertyOp49
 70
     1
102
RTVSPropertyOp50
 70
     1
102
RTVSPropertyOp51
 70
     0
102
RTVSPropertyOp52
 70
     0
102
RTVSPropertyOp53
 70
     1
102
RTVSPropertyOp54
 70
     1
102
RTVSPropertyOp55
 70
     1
102
RTVSPropertyOp56
 70
     1
102
RTVSPropertyOp57
 70
     1
102
RTVSPropertyOp58
 70
     1
102
RTVSPropertyOp59
 70
     1
102
RTVSPropertyOp60
 70
     1
102
RTVSPropertyOp61
 70
     1
102
RTVSPropertyOp62
 70
     1
  0
XRECORD
  5
26A7
102
{ACAD_REACTORS
330
26A6
102
}
330
26A6
100
AcDbXrecord
280
     1
102
RTVSPost2010Prop28
280
     0
102
RTVSPost2010PropOp28
 70
     1
102
RTVSPost2010Prop29
280
     1
102
RTVSPost2010PropOp29
 70
     1
102
RTVSPost2010Prop30
280
     1
102
RTVSPost2010PropOp30
 70
     1
102
RTVSPost2010Prop31
280
     0
102
RTVSPost2010PropOp31
 70
     1
102
RTVSPost2010Prop32
280
     0
102
RTVSPost2010PropOp32
 70
     1
102
RTVSPost2010Prop33
280
     0
102
RTVSPost2010PropOp33
 70
     1
102
RTVSPost2010Prop34
280
     0
102
RTVSPost2010PropOp34
 70
     1
102
RTVSPost2010Prop35
280
     0
102
RTVSPost2010PropOp35
 70
     1
102
RTVSPost2010Prop36
280
     0
102
RTVSPost2010PropOp36
 70
     1
102
RTVSPost2010Prop37
 90
       50
102
RTVSPost2010PropOp37
 70
     1
102
RTVSPost2010Prop38
140
0.0
102
RTVSPost2010PropOp38
 70
     1
102
RTVSPost2010Prop39
140
1.0
102
RTVSPost2010PropOp39
 70
     1
102
RTVSPost2010Prop40
 90
        0
102
RTVSPost2010PropOp40
 70
     1
102
RTVSPost2010Prop41ColorIndex
 90
       18
102
RTVSPost2010Prop41ColorRGB
 90
        0
102
RTVSPost2010PropOp41
 70
     1
102
RTVSPost2010Prop42
 90
       50
102
RTVSPost2010PropOp42
 70
     1
102
RTVSPost2010Prop43
 90
        3
102
RTVSPost2010PropOp43
 70
     1
102
RTVSPost2010Prop44ColorIndex
 90
        5
102
RTVSPost2010Prop44ColorRGB
 90
      255
102
RTVSPost2010PropOp44
 70
     1
102
RTVSPost2010Prop45
280
     0
102
RTVSPost2010PropOp45
 70
     1
102
RTVSPost2010Prop46
 90
       50
102
RTVSPost2010PropOp46
 70
     1
102
RTVSPost2010Prop47
 90
       50
102
RTVSPost2010PropOp47
 70
     1
102
RTVSPost2010Prop48
 90
       50
102
RTVSPost2010PropOp48
 70
     1
102
RTVSPost2010Prop49
280
     0
102
RTVSPost2010PropOp49
 70
     1
102
RTVSPost2010Prop50
 90
       50
102
RTVSPost2010PropOp50
 70
     1
102
RTVSPost2010Prop51ColorIndex
 90
      256
102
RTVSPost2010Prop51ColorRGB
 90
-16777216
102
RTVSPost2010PropOp51
 70
     0
102
RTVSPost2010Prop52
140
1.0
102
RTVSPost2010PropOp52
 70
     0
102
RTVSPost2010Prop53
 90
        2
102
RTVSPost2010PropOp53
 70
     1
102
RTVSPost2010Prop54
  1
strokes_ogs.tif
102
RTVSPost2010PropOp54
 70
     1
102
RTVSPost2010Prop55
280
     0
102
RTVSPost2010PropOp55
 70
     1
102
RTVSPost2010Prop56
140
1.0
102
RTVSPost2010PropOp56
 70
     1
102
RTVSPost2010Prop57
140
1.0
102
RTVSPost2010PropOp57
 70
     1
102
RTVSPropertyOp0
 70
     1
102
RTVSPropertyOp1
 70
     1
102
RTVSPropertyOp2
 70
     1
102
RTVSPropertyOp3
 70
     1
102
RTVSPropertyOp4
 70
     1
102
RTVSPropertyOp5
 70
     1
102
RTVSPropertyOp6
 70
     1
102
RTVSPropertyOp7
 70
     1
102
RTVSPropertyOp8
 70
     1
102
RTVSPropertyOp9
 70
     1
102
RTVSPropertyOp10
 70
     1
102
RTVSPropertyOp11
 70
     1
102
RTVSPropertyOp12
 70
     1
102
RTVSPropertyOp13
 70
     1
102
RTVSPropertyOp14
 70
     1
102
RTVSPropertyOp15
 70
     1
102
RTVSPropertyOp16
 70
     1
102
RTVSPropertyOp17
 70
     1
102
RTVSPropertyOp18
 70
     1
102
RTVSPropertyOp19
 70
     1
102
RTVSPropertyOp20
 70
     1
102
RTVSPropertyOp21
 70
     1
102
RTVSPropertyOp22
 70
     1
102
RTVSPropertyOp23
 70
     1
102
RTVSPropertyOp24
 70
     1
102
RTVSPropertyOp25
 70
     1
102
RTVSPropertyOp26
 70
     1
102
RTVSPropertyOp27
 70
     1
102
RTVSPropertyOp28
 70
     1
102
RTVSPropertyOp29
 70
     1
102
RTVSPropertyOp30
 70
     1
102
RTVSPropertyOp31
 70
     1
102
RTVSPropertyOp32
 70
     1
102
RTVSPropertyOp33
 70
     1
102
RTVSPropertyOp34
 70
     1
102
RTVSPropertyOp35
 70
     1
102
RTVSPropertyOp36
 70
     1
102
RTVSPropertyOp37
 70
     1
102
RTVSPropertyOp38
 70
     1
102
RTVSPropertyOp39
 70
     1
102
RTVSPropertyOp40
 70
     1
102
RTVSPropertyOp41
 70
     1
102
RTVSPropertyOp42
 70
     1
102
RTVSPropertyOp43
 70
     1
102
RTVSPropertyOp44
 70
     1
102
RTVSPropertyOp45
 70
     1
102
RTVSPropertyOp46
 70
     1
102
RTVSPropertyOp47
 70
     1
102
RTVSPropertyOp48
 70
     1
102
RTVSPropertyOp49
 70
     1
102
RTVSPropertyOp50
 70
     1
102
RTVSPropertyOp51
 70
     0
102
RTVSPropertyOp52
 70
     0
102
RTVSPropertyOp53
 70
     1
102
RTVSPropertyOp54
 70
     1
102
RTVSPropertyOp55
 70
     1
102
RTVSPropertyOp56
 70
     1
102
RTVSPropertyOp57
 70
     1
102
RTVSPropertyOp58
 70
     1
102
RTVSPropertyOp59
 70
     1
102
RTVSPropertyOp60
 70
     1
102
RTVSPropertyOp61
 70
     1
102
RTVSPropertyOp62
 70
     1
  0
XRECORD
  5
2682
102
{ACAD_REACTORS
330
2681
102
}
330
2681
100
AcDbXrecord
280
     1
102
RTVSPost2010Prop28
280
     0
102
RTVSPost2010PropOp28
 70
     1
102
RTVSPost2010Prop29
280
     1
102
RTVSPost2010PropOp29
 70
     1
102
RTVSPost2010Prop30
280
     1
102
RTVSPost2010PropOp30
 70
     1
102
RTVSPost2010Prop31
280
     0
102
RTVSPost2010PropOp31
 70
     1
102
RTVSPost2010Prop32
280
     0
102
RTVSPost2010PropOp32
 70
     1
102
RTVSPost2010Prop33
280
     0
102
RTVSPost2010PropOp33
 70
     1
102
RTVSPost2010Prop34
280
     0
102
RTVSPost2010PropOp34
 70
     1
102
RTVSPost2010Prop35
280
     0
102
RTVSPost2010PropOp35
 70
     1
102
RTVSPost2010Prop36
280
     0
102
RTVSPost2010PropOp36
 70
     1
102
RTVSPost2010Prop37
 90
       50
102
RTVSPost2010PropOp37
 70
     1
102
RTVSPost2010Prop38
140
0.0
102
RTVSPost2010PropOp38
 70
     1
102
RTVSPost2010Prop39
140
1.0
102
RTVSPost2010PropOp39
 70
     1
102
RTVSPost2010Prop40
 90
        0
102
RTVSPost2010PropOp40
 70
     1
102
RTVSPost2010Prop41ColorIndex
 90
       18
102
RTVSPost2010Prop41ColorRGB
 90
        0
102
RTVSPost2010PropOp41
 70
     1
102
RTVSPost2010Prop42
 90
       50
102
RTVSPost2010PropOp42
 70
     1
102
RTVSPost2010Prop43
 90
        3
102
RTVSPost2010PropOp43
 70
     1
102
RTVSPost2010Prop44ColorIndex
 90
        5
102
RTVSPost2010Prop44ColorRGB
 90
      255
102
RTVSPost2010PropOp44
 70
     1
102
RTVSPost2010Prop45
280
     0
102
RTVSPost2010PropOp45
 70
     1
102
RTVSPost2010Prop46
 90
       50
102
RTVSPost2010PropOp46
 70
     1
102
RTVSPost2010Prop47
 90
       50
102
RTVSPost2010PropOp47
 70
     1
102
RTVSPost2010Prop48
 90
       50
102
RTVSPost2010PropOp48
 70
     1
102
RTVSPost2010Prop49
280
     0
102
RTVSPost2010PropOp49
 70
     1
102
RTVSPost2010Prop50
 90
       50
102
RTVSPost2010PropOp50
 70
     1
102
RTVSPost2010Prop51ColorIndex
 90
      256
102
RTVSPost2010Prop51ColorRGB
 90
-16777216
102
RTVSPost2010PropOp51
 70
     0
102
RTVSPost2010Prop52
140
1.0
102
RTVSPost2010PropOp52
 70
     0
102
RTVSPost2010Prop53
 90
        2
102
RTVSPost2010PropOp53
 70
     1
102
RTVSPost2010Prop54
  1
strokes_ogs.tif
102
RTVSPost2010PropOp54
 70
     1
102
RTVSPost2010Prop55
280
     0
102
RTVSPost2010PropOp55
 70
     1
102
RTVSPost2010Prop56
140
1.0
102
RTVSPost2010PropOp56
 70
     1
102
RTVSPost2010Prop57
140
1.0
102
RTVSPost2010PropOp57
 70
     1
102
RTVSPropertyOp0
 70
     1
102
RTVSPropertyOp1
 70
     1
102
RTVSPropertyOp2
 70
     1
102
RTVSPropertyOp3
 70
     1
102
RTVSPropertyOp4
 70
     1
102
RTVSPropertyOp5
 70
     1
102
RTVSPropertyOp6
 70
     1
102
RTVSPropertyOp7
 70
     1
102
RTVSPropertyOp8
 70
     1
102
RTVSPropertyOp9
 70
     1
102
RTVSPropertyOp10
 70
     1
102
RTVSPropertyOp11
 70
     1
102
RTVSPropertyOp12
 70
     1
102
RTVSPropertyOp13
 70
     1
102
RTVSPropertyOp14
 70
     1
102
RTVSPropertyOp15
 70
     1
102
RTVSPropertyOp16
 70
     1
102
RTVSPropertyOp17
 70
     1
102
RTVSPropertyOp18
 70
     1
102
RTVSPropertyOp19
 70
     1
102
RTVSPropertyOp20
 70
     1
102
RTVSPropertyOp21
 70
     1
102
RTVSPropertyOp22
 70
     1
102
RTVSPropertyOp23
 70
     1
102
RTVSPropertyOp24
 70
     1
102
RTVSPropertyOp25
 70
     1
102
RTVSPropertyOp26
 70
     1
102
RTVSPropertyOp27
 70
     1
102
RTVSPropertyOp28
 70
     1
102
RTVSPropertyOp29
 70
     1
102
RTVSPropertyOp30
 70
     1
102
RTVSPropertyOp31
 70
     1
102
RTVSPropertyOp32
 70
     1
102
RTVSPropertyOp33
 70
     1
102
RTVSPropertyOp34
 70
     1
102
RTVSPropertyOp35
 70
     1
102
RTVSPropertyOp36
 70
     1
102
RTVSPropertyOp37
 70
     1
102
RTVSPropertyOp38
 70
     1
102
RTVSPropertyOp39
 70
     1
102
RTVSPropertyOp40
 70
     1
102
RTVSPropertyOp41
 70
     1
102
RTVSPropertyOp42
 70
     1
102
RTVSPropertyOp43
 70
     1
102
RTVSPropertyOp44
 70
     1
102
RTVSPropertyOp45
 70
     1
102
RTVSPropertyOp46
 70
     1
102
RTVSPropertyOp47
 70
     1
102
RTVSPropertyOp48
 70
     1
102
RTVSPropertyOp49
 70
     1
102
RTVSPropertyOp50
 70
     1
102
RTVSPropertyOp51
 70
     0
102
RTVSPropertyOp52
 70
     0
102
RTVSPropertyOp53
 70
     1
102
RTVSPropertyOp54
 70
     1
102
RTVSPropertyOp55
 70
     1
102
RTVSPropertyOp56
 70
     1
102
RTVSPropertyOp57
 70
     1
102
RTVSPropertyOp58
 70
     1
102
RTVSPropertyOp59
 70
     1
102
RTVSPropertyOp60
 70
     1
102
RTVSPropertyOp61
 70
     1
102
RTVSPropertyOp62
 70
     1
  0
XRECORD
  5
26A1
102
{ACAD_REACTORS
330
26A0
102
}
330
26A0
100
AcDbXrecord
280
     1
102
RTVSPost2010Prop28
280
     0
102
RTVSPost2010PropOp28
 70
     1
102
RTVSPost2010Prop29
280
     1
102
RTVSPost2010PropOp29
 70
     1
102
RTVSPost2010Prop30
280
     1
102
RTVSPost2010PropOp30
 70
     1
102
RTVSPost2010Prop31
280
     0
102
RTVSPost2010PropOp31
 70
     1
102
RTVSPost2010Prop32
280
     0
102
RTVSPost2010PropOp32
 70
     1
102
RTVSPost2010Prop33
280
     0
102
RTVSPost2010PropOp33
 70
     1
102
RTVSPost2010Prop34
280
     0
102
RTVSPost2010PropOp34
 70
     1
102
RTVSPost2010Prop35
280
     0
102
RTVSPost2010PropOp35
 70
     1
102
RTVSPost2010Prop36
280
     0
102
RTVSPost2010PropOp36
 70
     1
102
RTVSPost2010Prop37
 90
       50
102
RTVSPost2010PropOp37
 70
     1
102
RTVSPost2010Prop38
140
0.0
102
RTVSPost2010PropOp38
 70
     1
102
RTVSPost2010Prop39
140
1.0
102
RTVSPost2010PropOp39
 70
     1
102
RTVSPost2010Prop40
 90
        0
102
RTVSPost2010PropOp40
 70
     1
102
RTVSPost2010Prop41ColorIndex
 90
       18
102
RTVSPost2010Prop41ColorRGB
 90
        0
102
RTVSPost2010PropOp41
 70
     1
102
RTVSPost2010Prop42
 90
       50
102
RTVSPost2010PropOp42
 70
     1
102
RTVSPost2010Prop43
 90
        3
102
RTVSPost2010PropOp43
 70
     1
102
RTVSPost2010Prop44ColorIndex
 90
        5
102
RTVSPost2010Prop44ColorRGB
 90
      255
102
RTVSPost2010PropOp44
 70
     1
102
RTVSPost2010Prop45
280
     0
102
RTVSPost2010PropOp45
 70
     1
102
RTVSPost2010Prop46
 90
       50
102
RTVSPost2010PropOp46
 70
     1
102
RTVSPost2010Prop47
 90
       50
102
RTVSPost2010PropOp47
 70
     1
102
RTVSPost2010Prop48
 90
       50
102
RTVSPost2010PropOp48
 70
     1
102
RTVSPost2010Prop49
280
     0
102
RTVSPost2010PropOp49
 70
     1
102
RTVSPost2010Prop50
 90
       50
102
RTVSPost2010PropOp50
 70
     1
102
RTVSPost2010Prop51ColorIndex
 90
      256
102
RTVSPost2010Prop51ColorRGB
 90
-16777216
102
RTVSPost2010PropOp51
 70
     0
102
RTVSPost2010Prop52
140
1.0
102
RTVSPost2010PropOp52
 70
     0
102
RTVSPost2010Prop53
 90
        2
102
RTVSPost2010PropOp53
 70
     1
102
RTVSPost2010Prop54
  1
strokes_ogs.tif
102
RTVSPost2010PropOp54
 70
     1
102
RTVSPost2010Prop55
280
     0
102
RTVSPost2010PropOp55
 70
     1
102
RTVSPost2010Prop56
140
1.0
102
RTVSPost2010PropOp56
 70
     1
102
RTVSPost2010Prop57
140
1.0
102
RTVSPost2010PropOp57
 70
     1
102
RTVSPropertyOp0
 70
     1
102
RTVSPropertyOp1
 70
     1
102
RTVSPropertyOp2
 70
     1
102
RTVSPropertyOp3
 70
     1
102
RTVSPropertyOp4
 70
     1
102
RTVSPropertyOp5
 70
     1
102
RTVSPropertyOp6
 70
     1
102
RTVSPropertyOp7
 70
     1
102
RTVSPropertyOp8
 70
     1
102
RTVSPropertyOp9
 70
     1
102
RTVSPropertyOp10
 70
     1
102
RTVSPropertyOp11
 70
     1
102
RTVSPropertyOp12
 70
     1
102
RTVSPropertyOp13
 70
     1
102
RTVSPropertyOp14
 70
     1
102
RTVSPropertyOp15
 70
     1
102
RTVSPropertyOp16
 70
     1
102
RTVSPropertyOp17
 70
     1
102
RTVSPropertyOp18
 70
     1
102
RTVSPropertyOp19
 70
     1
102
RTVSPropertyOp20
 70
     1
102
RTVSPropertyOp21
 70
     1
102
RTVSPropertyOp22
 70
     1
102
RTVSPropertyOp23
 70
     1
102
RTVSPropertyOp24
 70
     1
102
RTVSPropertyOp25
 70
     1
102
RTVSPropertyOp26
 70
     1
102
RTVSPropertyOp27
 70
     1
102
RTVSPropertyOp28
 70
     1
102
RTVSPropertyOp29
 70
     1
102
RTVSPropertyOp30
 70
     1
102
RTVSPropertyOp31
 70
     1
102
RTVSPropertyOp32
 70
     1
102
RTVSPropertyOp33
 70
     1
102
RTVSPropertyOp34
 70
     1
102
RTVSPropertyOp35
 70
     1
102
RTVSPropertyOp36
 70
     1
102
RTVSPropertyOp37
 70
     1
102
RTVSPropertyOp38
 70
     1
102
RTVSPropertyOp39
 70
     1
102
RTVSPropertyOp40
 70
     1
102
RTVSPropertyOp41
 70
     1
102
RTVSPropertyOp42
 70
     1
102
RTVSPropertyOp43
 70
     1
102
RTVSPropertyOp44
 70
     1
102
RTVSPropertyOp45
 70
     1
102
RTVSPropertyOp46
 70
     1
102
RTVSPropertyOp47
 70
     1
102
RTVSPropertyOp48
 70
     1
102
RTVSPropertyOp49
 70
     1
102
RTVSPropertyOp50
 70
     1
102
RTVSPropertyOp51
 70
     0
102
RTVSPropertyOp52
 70
     0
102
RTVSPropertyOp53
 70
     1
102
RTVSPropertyOp54
 70
     1
102
RTVSPropertyOp55
 70
     1
102
RTVSPropertyOp56
 70
     1
102
RTVSPropertyOp57
 70
     1
102
RTVSPropertyOp58
 70
     1
102
RTVSPropertyOp59
 70
     1
102
RTVSPropertyOp60
 70
     1
102
RTVSPropertyOp61
 70
     1
102
RTVSPropertyOp62
 70
     1
  0
XRECORD
  5
26A9
102
{ACAD_REACTORS
330
26A8
102
}
330
26A8
100
AcDbXrecord
280
     1
102
RTVSPost2010Prop28
280
     0
102
RTVSPost2010PropOp28
 70
     1
102
RTVSPost2010Prop29
280
     1
102
RTVSPost2010PropOp29
 70
     1
102
RTVSPost2010Prop30
280
     1
102
RTVSPost2010PropOp30
 70
     1
102
RTVSPost2010Prop31
280
     0
102
RTVSPost2010PropOp31
 70
     1
102
RTVSPost2010Prop32
280
     0
102
RTVSPost2010PropOp32
 70
     1
102
RTVSPost2010Prop33
280
     0
102
RTVSPost2010PropOp33
 70
     1
102
RTVSPost2010Prop34
280
     0
102
RTVSPost2010PropOp34
 70
     1
102
RTVSPost2010Prop35
280
     0
102
RTVSPost2010PropOp35
 70
     1
102
RTVSPost2010Prop36
280
     0
102
RTVSPost2010PropOp36
 70
     1
102
RTVSPost2010Prop37
 90
       50
102
RTVSPost2010PropOp37
 70
     1
102
RTVSPost2010Prop38
140
0.0
102
RTVSPost2010PropOp38
 70
     1
102
RTVSPost2010Prop39
140
1.0
102
RTVSPost2010PropOp39
 70
     1
102
RTVSPost2010Prop40
 90
        0
102
RTVSPost2010PropOp40
 70
     1
102
RTVSPost2010Prop41ColorIndex
 90
       18
102
RTVSPost2010Prop41ColorRGB
 90
        0
102
RTVSPost2010PropOp41
 70
     1
102
RTVSPost2010Prop42
 90
       50
102
RTVSPost2010PropOp42
 70
     1
102
RTVSPost2010Prop43
 90
        3
102
RTVSPost2010PropOp43
 70
     1
102
RTVSPost2010Prop44ColorIndex
 90
        5
102
RTVSPost2010Prop44ColorRGB
 90
      255
102
RTVSPost2010PropOp44
 70
     1
102
RTVSPost2010Prop45
280
     0
102
RTVSPost2010PropOp45
 70
     1
102
RTVSPost2010Prop46
 90
       50
102
RTVSPost2010PropOp46
 70
     1
102
RTVSPost2010Prop47
 90
       50
102
RTVSPost2010PropOp47
 70
     1
102
RTVSPost2010Prop48
 90
       50
102
RTVSPost2010PropOp48
 70
     1
102
RTVSPost2010Prop49
280
     0
102
RTVSPost2010PropOp49
 70
     1
102
RTVSPost2010Prop50
 90
       50
102
RTVSPost2010PropOp50
 70
     1
102
RTVSPost2010Prop51ColorIndex
 90
      256
102
RTVSPost2010Prop51ColorRGB
 90
-16777216
102
RTVSPost2010PropOp51
 70
     0
102
RTVSPost2010Prop52
140
1.0
102
RTVSPost2010PropOp52
 70
     0
102
RTVSPost2010Prop53
 90
        2
102
RTVSPost2010PropOp53
 70
     1
102
RTVSPost2010Prop54
  1
strokes_ogs.tif
102
RTVSPost2010PropOp54
 70
     1
102
RTVSPost2010Prop55
280
     0
102
RTVSPost2010PropOp55
 70
     1
102
RTVSPost2010Prop56
140
1.0
102
RTVSPost2010PropOp56
 70
     1
102
RTVSPost2010Prop57
140
1.0
102
RTVSPost2010PropOp57
 70
     1
102
RTVSPropertyOp0
 70
     1
102
RTVSPropertyOp1
 70
     1
102
RTVSPropertyOp2
 70
     1
102
RTVSPropertyOp3
 70
     1
102
RTVSPropertyOp4
 70
     1
102
RTVSPropertyOp5
 70
     1
102
RTVSPropertyOp6
 70
     1
102
RTVSPropertyOp7
 70
     1
102
RTVSPropertyOp8
 70
     1
102
RTVSPropertyOp9
 70
     1
102
RTVSPropertyOp10
 70
     1
102
RTVSPropertyOp11
 70
     1
102
RTVSPropertyOp12
 70
     1
102
RTVSPropertyOp13
 70
     1
102
RTVSPropertyOp14
 70
     1
102
RTVSPropertyOp15
 70
     1
102
RTVSPropertyOp16
 70
     1
102
RTVSPropertyOp17
 70
     1
102
RTVSPropertyOp18
 70
     1
102
RTVSPropertyOp19
 70
     1
102
RTVSPropertyOp20
 70
     1
102
RTVSPropertyOp21
 70
     1
102
RTVSPropertyOp22
 70
     1
102
RTVSPropertyOp23
 70
     1
102
RTVSPropertyOp24
 70
     1
102
RTVSPropertyOp25
 70
     1
102
RTVSPropertyOp26
 70
     1
102
RTVSPropertyOp27
 70
     1
102
RTVSPropertyOp28
 70
     1
102
RTVSPropertyOp29
 70
     1
102
RTVSPropertyOp30
 70
     1
102
RTVSPropertyOp31
 70
     1
102
RTVSPropertyOp32
 70
     1
102
RTVSPropertyOp33
 70
     1
102
RTVSPropertyOp34
 70
     1
102
RTVSPropertyOp35
 70
     1
102
RTVSPropertyOp36
 70
     1
102
RTVSPropertyOp37
 70
     1
102
RTVSPropertyOp38
 70
     1
102
RTVSPropertyOp39
 70
     1
102
RTVSPropertyOp40
 70
     1
102
RTVSPropertyOp41
 70
     1
102
RTVSPropertyOp42
 70
     1
102
RTVSPropertyOp43
 70
     1
102
RTVSPropertyOp44
 70
     1
102
RTVSPropertyOp45
 70
     1
102
RTVSPropertyOp46
 70
     1
102
RTVSPropertyOp47
 70
     1
102
RTVSPropertyOp48
 70
     1
102
RTVSPropertyOp49
 70
     1
102
RTVSPropertyOp50
 70
     1
102
RTVSPropertyOp51
 70
     0
102
RTVSPropertyOp52
 70
     0
102
RTVSPropertyOp53
 70
     1
102
RTVSPropertyOp54
 70
     1
102
RTVSPropertyOp55
 70
     1
102
RTVSPropertyOp56
 70
     1
102
RTVSPropertyOp57
 70
     1
102
RTVSPropertyOp58
 70
     1
102
RTVSPropertyOp59
 70
     1
102
RTVSPropertyOp60
 70
     1
102
RTVSPropertyOp61
 70
     1
102
RTVSPropertyOp62
 70
     1
  0
ENDSEC
  0
EOF
