  0
SECTION
  2
HEADER
  9
$ACADVER
  1
AC1014
  9
$ACADMAINTVER
 70
     9
  9
$DWGCODEPAGE
  3
ANSI_932
  9
$INSBASE
 10
0.0
 20
0.0
 30
0.0
  9
$EXTMIN
 10
79.35011331133876
 20
67.66151920311234
 30
0.0
  9
$EXTMAX
 10
976.6141326118209
 20
702.5376308776278
 30
0.0
  9
$LIMMIN
 10
0.0
 20
0.0
  9
$LIMMAX
 10
297.0
 20
210.0
  9
$ORTHOMODE
 70
     1
  9
$REGENMODE
 70
     1
  9
$FILLMODE
 70
     1
  9
$QTEXTMODE
 70
     0
  9
$MIRRTEXT
 70
     0
  9
$DRAGMODE
 70
     2
  9
$LTSCALE
 40
4.0
  9
$OSMODE
 70
    37
  9
$ATTMODE
 70
     1
  9
$TEXTSIZE
 40
2.0
  9
$TRACEWID
 40
1.0
  9
$TEXTSTYLE
  7
STANDARD
  9
$CLAYER
  8
0
  9
$CELTYPE
  6
BYLAYER
  9
$CECOLOR
 62
   256
  9
$CELTSCALE
 40
1.0
  9
$DELOBJ
 70
     1
  9
$DISPSILH
 70
     0
  9
$DIMSCALE
 40
4.0
  9
$DIMASZ
 40
1.8
  9
$DIMEXO
 40
0.625
  9
$DIMDLI
 40
3.75
  9
$DIMRND
 40
0.0
  9
$DIMDLE
 40
0.0
  9
$DIMEXE
 40
0.8
  9
$DIMTP
 40
0.0
  9
$DIMTM
 40
0.0
  9
$DIMTXT
 40
1.8
  9
$DIMCEN
 40
2.5
  9
$DIMTSZ
 40
0.0
  9
$DIMTOL
 70
     0
  9
$DIMLIM
 70
     0
  9
$DIMTIH
 70
     0
  9
$DIMTOH
 70
     0
  9
$DIMSE1
 70
     0
  9
$DIMSE2
 70
     0
  9
$DIMTAD
 70
     1
  9
$DIMZIN
 70
     8
  9
$DIMBLK
  1

  9
$DIMASO
 70
     1
  9
$DIMSHO
 70
     1
  9
$DIMPOST
  1

  9
$DIMAPOST
  1

  9
$DIMALT
 70
     0
  9
$DIMALTD
 70
     4
  9
$DIMALTF
 40
0.0394
  9
$DIMLFAC
 40
1.0
  9
$DIMTOFL
 70
     1
  9
$DIMTVP
 40
0.0
  9
$DIMTIX
 70
     0
  9
$DIMSOXD
 70
     0
  9
$DIMSAH
 70
     0
  9
$DIMBLK1
  1

  9
$DIMBLK2
  1

  9
$DIMSTYLE
  2
STANDARD
  9
$DIMCLRD
 70
     0
  9
$DIMCLRE
 70
     0
  9
$DIMCLRT
 70
     0
  9
$DIMTFAC
 40
1.0
  9
$DIMGAP
 40
0.75
  9
$DIMJUST
 70
     0
  9
$DIMSD1
 70
     0
  9
$DIMSD2
 70
     0
  9
$DIMTOLJ
 70
     1
  9
$DIMTZIN
 70
     0
  9
$DIMALTZ
 70
     0
  9
$DIMALTTZ
 70
     0
  9
$DIMFIT
 70
     3
  9
$DIMUPT
 70
     0
  9
$DIMUNIT
 70
     8
  9
$DIMDEC
 70
     2
  9
$DIMTDEC
 70
     2
  9
$DIMALTU
 70
     8
  9
$DIMALTTD
 70
     4
  9
$DIMTXSTY
  7
STANDARD
  9
$DIMAUNIT
 70
     0
  9
$LUNITS
 70
     2
  9
$LUPREC
 70
     3
  9
$SKETCHINC
 40
1.0
  9
$FILLETRAD
 40
10.0
  9
$AUNITS
 70
     0
  9
$AUPREC
 70
     2
  9
$MENU
  1
.
  9
$ELEVATION
 40
0.0
  9
$PELEVATION
 40
0.0
  9
$THICKNESS
 40
0.0
  9
$LIMCHECK
 70
     0
  9
$BLIPMODE
 70
     0
  9
$CHAMFERA
 40
0.0
  9
$CHAMFERB
 40
0.0
  9
$CHAMFERC
 40
20.0
  9
$CHAMFERD
 40
0.0
  9
$SKPOLY
 70
     0
  9
$TDCREATE
 40
2453998.715297303
  9
$TDUPDATE
 40
2453999.425737303
  9
$TDINDWG
 40
0.0102676620
  9
$TDUSRTIMER
 40
0.0102674769
  9
$USRTIMER
 70
     1
  9
$ANGBASE
 50
0.0
  9
$ANGDIR
 70
     0
  9
$PDMODE
 70
     0
  9
$PDSIZE
 40
-10.0
  9
$PLINEWID
 40
0.0
  9
$COORDS
 70
     2
  9
$SPLFRAME
 70
     0
  9
$SPLINETYPE
 70
     6
  9
$SPLINESEGS
 70
     8
  9
$ATTDIA
 70
     0
  9
$ATTREQ
 70
     1
  9
$HANDLING
 70
-16383
  9
$HANDSEED
  5
1208
  9
$SURFTAB1
 70
     6
  9
$SURFTAB2
 70
     6
  9
$SURFTYPE
 70
     6
  9
$SURFU
 70
     6
  9
$SURFV
 70
     6
  9
$UCSNAME
  2

  9
$UCSORG
 10
0.0
 20
0.0
 30
0.0
  9
$UCSXDIR
 10
1.0
 20
0.0
 30
0.0
  9
$UCSYDIR
 10
0.0
 20
1.0
 30
0.0
  9
$PUCSNAME
  2

  9
$PUCSORG
 10
0.0
 20
0.0
 30
0.0
  9
$PUCSXDIR
 10
1.0
 20
0.0
 30
0.0
  9
$PUCSYDIR
 10
0.0
 20
1.0
 30
0.0
  9
$USERI1
 70
     0
  9
$USERI2
 70
     0
  9
$USERI3
 70
     0
  9
$USERI4
 70
     0
  9
$USERI5
 70
     0
  9
$USERR1
 40
0.0
  9
$USERR2
 40
0.0
  9
$USERR3
 40
0.0
  9
$USERR4
 40
0.0
  9
$USERR5
 40
0.0
  9
$WORLDVIEW
 70
     1
  9
$SHADEDGE
 70
     3
  9
$SHADEDIF
 70
    70
  9
$TILEMODE
 70
     1
  9
$MAXACTVP
 70
    48
  9
$PINSBASE
 10
0.0
 20
0.0
 30
0.0
  9
$PLIMCHECK
 70
     0
  9
$PEXTMIN
 10
0.0
 20
0.0
 30
0.0
  9
$PEXTMAX
 10
0.0
 20
0.0
 30
0.0
  9
$PLIMMIN
 10
0.0
 20
0.0
  9
$PLIMMAX
 10
12.0
 20
9.0
  9
$UNITMODE
 70
     0
  9
$VISRETAIN
 70
     1
  9
$PLINEGEN
 70
     0
  9
$PSLTSCALE
 70
     1
  9
$TREEDEPTH
 70
  3020
  9
$PICKSTYLE
 70
     1
  9
$CMLSTYLE
  2
STANDARD
  9
$CMLJUST
 70
     0
  9
$CMLSCALE
 40
1.0
  9
$PROXYGRAPHICS
 70
     1
  9
$MEASUREMENT
 70
     0
  0
ENDSEC
  0
SECTION
  2
CLASSES
  0
CLASS
  1
DICTIONARYVAR
  2
AcDbDictionaryVar
  3
AutoCAD 2000
 90
        0
280
     0
281
     0
  0
CLASS
  1
ACDBDICTIONARYWDFLT
  2
AcDbDictionaryWithDefault
  3
AutoCAD 2000
 90
        0
280
     0
281
     0
  0
CLASS
  1
ACDBPLACEHOLDER
  2
AcDbPlaceHolder
  3
AutoCAD 2000
 90
        0
280
     0
281
     0
  0
CLASS
  1
LAYOUT
  2
AcDbLayout
  3
AutoCAD 2000
 90
        0
280
     0
281
     0
  0
CLASS
  1
LONG_TRANSACTION
  2
AcDbLongTransaction
  3
AutoCAD 2000
 90
        0
280
     0
281
     0
  0
CLASS
  1
LWPOLYLINE
  2
AcDbPolyline
  3
AutoCAD 2000
 90
        0
280
     0
281
     1
  0
CLASS
  1
HATCH
  2
AcDbHatch
  3
AutoCAD 2000
 90
        0
280
     0
281
     1
  0
CLASS
  1
XRECORD
  2
AcDbXrecord
  3
AutoCAD 2000
 90
        0
280
     0
281
     0
  0
ENDSEC
  0
SECTION
  2
TABLES
  0
TABLE
  2
VPORT
  5
6E
330
0
100
AcDbSymbolTable
 70
     2
  0
VPORT
  5
11E2
330
6E
100
AcDbSymbolTableRecord
100
AcDbViewportTableRecord
  2
*ACTIVE
 70
     0
 10
0.0
 20
0.0
 11
1.0
 21
1.0
 12
534.8771851730691
 22
372.9770364300301
 13
0.0
 23
0.0
 14
10.0
 24
10.0
 15
10.0
 25
10.0
 16
0.0
 26
0.0
 36
1.0
 17
0.0
 27
0.0
 37
0.0
 40
664.331249747616
 41
1.566970091027308
 42
50.0
 43
0.0
 44
0.0
 50
0.0
 51
0.0
 71
     0
 72
   100
 73
     1
 74
     3
 75
     0
 76
     0
 77
     0
 78
     0
  0
ENDTAB
  0
TABLE
  2
LTYPE
  5
69
330
0
100
AcDbSymbolTable
 70
     4
  0
LTYPE
  5
6A
330
69
100
AcDbSymbolTableRecord
100
AcDbLinetypeTableRecord
  2
BYBLOCK
 70
     0
  3

 72
    65
 73
     0
 40
0.0
  0
LTYPE
  5
6B
330
69
100
AcDbSymbolTableRecord
100
AcDbLinetypeTableRecord
  2
BYLAYER
 70
     0
  3

 72
    65
 73
     0
 40
0.0
  0
LTYPE
  5
8
330
69
100
AcDbSymbolTableRecord
100
AcDbLinetypeTableRecord
  2
CONTINUOUS
 70
     0
  3
Solid line
 72
    65
 73
     0
 40
0.0
  0
LTYPE
  5
27C
330
69
100
AcDbSymbolTableRecord
100
AcDbLinetypeTableRecord
  2
SEKKEI_A2_
 70
     0
  3
center(A2)  ____ _ ____ _ ____ _ ____ _ ____ _ 
 72
    65
 73
     4
 40
14.28749999999999
 49
9.525
 74
     0
 49
-1.587499999999999
 74
     0
 49
1.587499999999999
 74
     0
 49
-1.587499999999999
 74
     0
  0
LTYPE
  5
2B4
330
69
100
AcDbSymbolTableRecord
100
AcDbLinetypeTableRecord
  2
HIDDEN2
 70
     0
  3
Hidden (.5x) _ _ _ _ _ _ _ _ _ _ _ _ _ _ _ _ _
 72
    65
 73
     2
 40
4.762499999999999
 49
3.174999999999999
 74
     0
 49
-1.587499999999999
 74
     0
  0
LTYPE
  5
48F
330
69
100
AcDbSymbolTableRecord
100
AcDbLinetypeTableRecord
  2
SEKKEI_H
 70
     0
  3
Hidden-S _ _ _ _ _ _ _ _ _ _ _ _ _ _ _ _ _
 72
    65
 73
     2
 40
2.381249999999999
 49
1.587499999999999
 74
     0
 49
-0.79375
 74
     0
  0
ENDTAB
  0
TABLE
  2
LAYER
  5
66
330
0
100
AcDbSymbolTable
 70
     9
  0
LAYER
  5
5E
330
66
100
AcDbSymbolTableRecord
100
AcDbLayerTableRecord
  2
0
 70
     0
 62
     7
  6
CONTINUOUS
  0
LAYER
  5
3E
330
66
100
AcDbSymbolTableRecord
100
AcDbLayerTableRecord
  2
CENTER
 70
     0
 62
     3
  6
SEKKEI_A2_
  0
LAYER
  5
2B5
330
66
100
AcDbSymbolTableRecord
100
AcDbLayerTableRecord
  2
HIDS
 70
     0
 62
     1
  6
HIDDEN2
  0
LAYER
  5
2BA
330
66
100
AcDbSymbolTableRecord
100
AcDbLayerTableRecord
  2
HOJO
 70
     0
 62
     4
  6
CONTINUOUS
  0
LAYER
  5
3FA
330
66
100
AcDbSymbolTableRecord
100
AcDbLayerTableRecord
  2
TITLE
 70
     0
 62
     4
  6
CONTINUOUS
  0
ENDTAB
  0
TABLE
  2
STYLE
  5
67
330
0
100
AcDbSymbolTable
 70
     1
  0
STYLE
  5
16
330
67
100
AcDbSymbolTableRecord
100
AcDbTextStyleTableRecord
  2
STANDARD
 70
     0
 40
0.0
 41
1.0
 50
0.0
 71
     0
 42
2.0
  3
simplex.shx
  4
extfont.shx
  0
ENDTAB
  0
TABLE
  2
VIEW
  5
6C
330
0
100
AcDbSymbolTable
 70
     0
  0
ENDTAB
  0
TABLE
  2
UCS
  5
6D
330
0
100
AcDbSymbolTable
 70
     0
  0
ENDTAB
  0
TABLE
  2
APPID
  5
70
330
0
100
AcDbSymbolTable
 70
     1
  0
APPID
  5
71
330
70
100
AcDbSymbolTableRecord
100
AcDbRegAppTableRecord
  2
ACAD
 70
     0
  0
ENDTAB
  0
TABLE
  2
DIMSTYLE
  5
72
330
0
100
AcDbSymbolTable
 70
     1
  0
DIMSTYLE
105
73
102
{ACAD_REACTORS
330
92A
330
92B
330
94F
330
9D1
102
}
330
72
100
AcDbSymbolTableRecord
100
AcDbDimStyleTableRecord
  2
STANDARD
 70
     0
  3

  4

  5

  6

  7

 40
4.0
 41
1.8
 42
0.625
 43
3.75
 44
0.8
 45
0.0
 46
0.0
 47
0.0
 48
0.0
140
1.8
141
2.5
142
0.0
143
0.0394
144
1.0
145
0.0
146
1.0
147
0.75
 71
     0
 72
     0
 73
     0
 74
     0
 75
     0
 76
     0
 77
     1
 78
     8
170
     0
171
     4
172
     1
173
     0
174
     0
175
     0
176
     0
177
     0
178
     0
270
     8
271
     2
272
     2
273
     8
274
     4
340
16
275
     0
280
     0
281
     0
282
     0
283
     1
284
     0
285
     0
286
     0
287
     3
288
     0
  0
ENDTAB
  0
TABLE
  2
BLOCK_RECORD
  5
1
330
0
100
AcDbSymbolTable
 70
    47
  0
BLOCK_RECORD
  5
2
102
{ACAD_XDICTIONARY
360
1204
102
}
330
1
100
AcDbSymbolTableRecord
100
AcDbBlockTableRecord
  2
*MODEL_SPACE
  0
BLOCK_RECORD
  5
11DD
102
{ACAD_XDICTIONARY
360
1206
102
}
330
1
100
AcDbSymbolTableRecord
100
AcDbBlockTableRecord
  2
*PAPER_SPACE
  0
ENDTAB
  0
ENDSEC
  0
SECTION
  2
BLOCKS
  0
BLOCK
  5
5D
330
2
100
AcDbEntity
  8
0
100
AcDbBlockBegin
  2
*MODEL_SPACE
 70
     0
 10
0.0
 20
0.0
 30
0.0
  3
*MODEL_SPACE
  1

  0
ENDBLK
  5
5F
330
2
100
AcDbEntity
  8
0
100
AcDbBlockEnd
  0
BLOCK
  5
11DF
330
11DD
100
AcDbEntity
 67
     1
  8
0
100
AcDbBlockBegin
  2
*PAPER_SPACE
 70
     0
 10
0.0
 20
0.0
 30
0.0
  3
*PAPER_SPACE
  1

  0
ENDBLK
  5
11E0
330
11DD
100
AcDbEntity
 67
     1
  8
0
100
AcDbBlockEnd
  0
ENDSEC
  0
SECTION
  2
ENTITIES
  0
ARC
  5
91E
330
2
100
AcDbEntity
  8
0
100
AcDbCircle
 10
929.3144496118213
 20
174.4116332031122
 30
0.0
 40
6.0
100
AcDbArc
 50
357.365508999997
 51
159.4512020000011
  0
ARC
  5
91F
330
2
100
AcDbEntity
  8
0
100
AcDbCircle
 10
801.9471406118215
 20
177.4253202031123
 30
0.0
 40
3.0
100
AcDbArc
 50
286.2340089999965
 51
42.46987900001493
  0
ARC
  5
920
330
2
100
AcDbEntity
  8
0
100
AcDbCircle
 10
810.614132611821
 20
147.6615192031123
 30
0.0
 40
28.0
100
AcDbArc
 50
106.235602999998
 51
173.0928040000128
  0
ARC
  5
921
330
2
100
AcDbEntity
  8
0
100
AcDbCircle
 10
743.9133266118211
 20
174.4115192031123
 30
0.0
 40
6.0
100
AcDbArc
 50
20.54612899999826
 51
182.6345059999907
  0
ARC
  5
922
330
2
100
AcDbEntity
  8
0
100
AcDbCircle
 10
836.614132611821
 20
209.1615192031123
 30
0.0
 40
93.0
100
AcDbArc
 50
200.5493010000076
 51
339.4508969999885
  0
LINE
  5
923
330
2
100
AcDbEntity
  8
0
100
AcDbLine
 10
379.3501133113387
 20
156.6618772031121
 30
0.0
 11
379.3501133113387
 21
178.6618772031121
 31
0.0
  0
LINE
  5
924
330
2
100
AcDbEntity
  8
0
100
AcDbLine
 10
353.8501133113387
 20
178.661870203112
 30
0.0
 11
353.8501133113387
 21
156.6618772031121
 31
0.0
  0
LINE
  5
925
330
2
100
AcDbEntity
  8
0
100
AcDbLine
 10
348.3501133113387
 20
178.6618772031121
 30
0.0
 11
348.3501133113387
 21
156.6618772031121
 31
0.0
  0
LINE
  5
926
330
2
100
AcDbEntity
  8
0
100
AcDbLine
 10
307.3501133113387
 20
133.0983972031123
 30
0.0
 11
307.3501133113387
 21
185.3968782031121
 31
0.0
  0
LINE
  5
927
330
2
100
AcDbEntity
  8
0
100
AcDbLine
 10
314.3501133113387
 20
178.6618772031121
 30
0.0
 11
314.3501133113387
 21
156.6618772031121
 31
0.0
  0
ARC
  5
928
330
2
100
AcDbEntity
  8
0
100
AcDbCircle
 10
242.3501133113387
 20
173.7388882031124
 30
0.0
 40
2.0
100
AcDbArc
 50
90.0
 51
180.0
  0
CIRCLE
  5
929
330
2
100
AcDbEntity
  8
0
100
AcDbCircle
 10
154.1502833113391
 20
174.459508203112
 30
0.0
 40
4.0
  0
LINE
  5
92C
330
2
100
AcDbEntity
  8
0
100
AcDbLine
 10
518.350357311339
 20
298.6615032031123
 30
0.0
 11
518.350357311339
 21
119.6615052031121
 31
0.0
  0
LINE
  5
92D
330
2
100
AcDbEntity
  8
0
100
AcDbLine
 10
499.349868311339
 20
86.08231720311243
 30
0.0
 11
499.3501133113388
 21
313.2406202031121
 31
0.0
  0
LINE
  5
92E
330
2
100
AcDbEntity
  8
0
100
AcDbLine
 10
514.350357311339
 20
316.1615032031123
 30
0.0
 11
514.3501133113387
 21
83.16154820311215
 31
0.0
  0
LINE
  5
92F
330
2
100
AcDbEntity
  8
0
100
AcDbLine
 10
384.849868311339
 20
228.2253612031123
 30
0.0
 11
384.849868311339
 21
133.0984202031123
 31
0.0
  0
LINE
  5
930
330
2
100
AcDbEntity
  8
0
100
AcDbLine
 10
394.3501133113387
 20
251.6617932031123
 30
0.0
 11
394.3501133113387
 21
109.6615782031123
 31
0.0
  0
LINE
  5
931
330
2
100
AcDbEntity
  8
0
100
AcDbLine
 10
409.3501133113387
 20
89.26716020311245
 30
0.0
 11
409.3501133113387
 21
274.0557912031123
 31
0.0
  0
LINE
  5
932
330
2
100
AcDbEntity
  8
0
100
AcDbLine
 10
416.3501133113387
 20
277.1615642031121
 30
0.0
 11
416.3501133113387
 21
86.16138720311221
 31
0.0
  0
LINE
  5
933
330
2
100
AcDbEntity
  8
0
100
AcDbLine
 10
237.3502353113391
 20
226.2239582031121
 30
0.0
 11
237.3502353113391
 21
159.1682712031121
 31
0.0
  0
LINE
  5
934
330
2
100
AcDbEntity
  8
0
100
AcDbLine
 10
234.5503083113391
 20
225.2182362031122
 30
0.0
 11
234.5503083113391
 21
160.7092482031122
 31
0.0
  0
LINE
  5
935
330
2
100
AcDbEntity
  8
0
100
AcDbLine
 10
297.8501133113387
 20
251.6619762031124
 30
0.0
 11
297.8501133113387
 21
109.6617582031123
 31
0.0
  0
LINE
  5
936
330
2
100
AcDbEntity
  8
0
100
AcDbLine
 10
297.8501133113387
 20
251.6618852031121
 30
0.0
 11
297.8501133113387
 21
109.6618782031124
 31
0.0
  0
LINE
  5
937
330
2
100
AcDbEntity
  8
0
100
AcDbLine
 10
293.8501133113387
 20
252.661885203112
 30
0.0
 11
293.8501133113387
 21
108.6618782031124
 31
0.0
  0
LINE
  5
940
330
2
100
AcDbEntity
  8
CENTER
100
AcDbLine
 10
836.614132611821
 20
349.1615192031123
 30
0.0
 11
836.614132611821
 21
67.66151920311234
 31
0.0
  0
LINE
  5
941
330
2
100
AcDbEntity
  8
CENTER
100
AcDbLine
 10
731.3209674637175
 20
314.4548655519034
 30
0.0
 11
942.6350466367713
 21
103.1397011125319
 31
0.0
  0
LINE
  5
942
330
2
100
AcDbEntity
  8
CENTER
100
AcDbLine
 10
941.9072730546728
 20
314.4546452532391
 30
0.0
 11
730.593023482677
 21
103.1399465639157
 31
0.0
  0
ARC
  5
943
330
2
100
AcDbEntity
  8
0
100
AcDbCircle
 10
174.1141326118214
 20
209.1615192031123
 30
0.0
 40
770.0
100
AcDbArc
 50
353.1779020000029
 51
6.709105999998723
  0
LINE
  5
944
330
2
100
AcDbEntity
  8
0
100
AcDbLine
 10
711.2852746118211
 20
163.3723112031121
 30
0.0
 11
720.0305146118213
 21
229.799122203112
 31
0.0
  0
ARC
  5
945
330
2
100
AcDbEntity
  8
0
100
AcDbCircle
 10
1499.114254611821
 20
209.1615192031123
 30
0.0
 40
770.0
100
AcDbArc
 50
173.2908940000012
 51
186.822097999997
  0
CIRCLE
  5
946
330
2
100
AcDbEntity
  8
CENTER
100
AcDbCircle
 10
836.614132611821
 20
209.1615192031123
 30
0.0
 40
125.0
  0
CIRCLE
  5
947
330
2
100
AcDbEntity
  8
0
100
AcDbCircle
 10
836.614132611821
 20
209.1615192031123
 30
0.0
 40
90.0
  0
CIRCLE
  5
948
330
2
100
AcDbEntity
  8
0
100
AcDbCircle
 10
836.614132611821
 20
209.1615192031123
 30
0.0
 40
84.0
  0
CIRCLE
  5
949
330
2
100
AcDbEntity
  8
0
100
AcDbCircle
 10
836.614132611821
 20
209.1615192031123
 30
0.0
 40
44.0
  0
LINE
  5
94A
330
2
100
AcDbEntity
  8
0
100
AcDbLine
 10
148.3502353113391
 20
226.2239582031121
 30
0.0
 11
148.3502353113391
 21
159.1682712031121
 31
0.0
  0
ARC
  5
94B
330
2
100
AcDbEntity
  8
0
100
AcDbCircle
 10
-277.6498866886612
 20
180.6615192031123
 30
0.0
 40
400.0
100
AcDbArc
 50
348.9150390000018
 51
11.33338099999178
  0
ARC
  5
94C
330
2
100
AcDbEntity
  8
0
100
AcDbCircle
 10
514.3501133113387
 20
180.6615192031123
 30
0.0
 40
420.0
100
AcDbArc
 50
171.0953219999952
 51
188.9046780000047
  0
ARC
  5
94E
330
2
100
AcDbEntity
  8
0
100
AcDbCircle
 10
154.1502833113391
 20
174.459508203112
 30
0.0
 40
8.0
100
AcDbArc
 50
264.2608340000037
 51
90.0
  0
ARC
  5
950
330
2
100
AcDbEntity
  8
0
100
AcDbCircle
 10
399.3501133113387
 20
99.48081920311246
 30
0.0
 40
10.0
100
AcDbArc
 50
0.0
 51
87.99999999999636
  0
LINE
  5
951
330
2
100
AcDbEntity
  8
0
100
AcDbLine
 10
227.3502353113391
 20
149.9301272031122
 30
0.0
 11
158.3502353113391
 21
149.9301272031122
 31
0.0
  0
LINE
  5
952
330
2
100
AcDbEntity
  8
0
100
AcDbLine
 10
227.3502353113391
 20
149.1682712031121
 30
0.0
 11
158.3502353113391
 21
149.1682712031121
 31
0.0
  0
LINE
  5
953
330
2
100
AcDbEntity
  8
0
100
AcDbLine
 10
226.5503083113391
 20
152.7092482031122
 30
0.0
 11
159.1502833113391
 21
152.7092482031122
 31
0.0
  0
LINE
  5
954
330
2
100
AcDbEntity
  8
0
100
AcDbLine
 10
226.5503083113391
 20
157.3877002031123
 30
0.0
 11
159.1502833113391
 21
157.3877002031123
 31
0.0
  0
LINE
  5
955
330
2
100
AcDbEntity
  8
0
100
AcDbLine
 10
158.3945463113387
 20
104.6618782031124
 30
0.0
 11
272.3056793113388
 21
104.6618782031124
 31
0.0
  0
LINE
  5
956
330
2
100
AcDbEntity
  8
0
100
AcDbLine
 10
272.8501133113387
 20
124.1513932031122
 30
0.0
 11
157.8501133113387
 21
124.1513932031122
 31
0.0
  0
LINE
  5
957
330
2
100
AcDbEntity
  8
0
100
AcDbLine
 10
272.8501133113387
 20
139.3000192031123
 30
0.0
 11
157.8501133113387
 21
139.3000192031123
 31
0.0
  0
LINE
  5
958
330
2
100
AcDbEntity
  8
0
100
AcDbLine
 10
272.8501133113387
 20
131.7691852031122
 30
0.0
 11
157.8501133113387
 21
131.7691852031122
 31
0.0
  0
LINE
  5
959
330
2
100
AcDbEntity
  8
0
100
AcDbLine
 10
272.8501133113387
 20
133.7691852031122
 30
0.0
 11
157.8501133113387
 21
133.7691852031122
 31
0.0
  0
LINE
  5
95A
330
2
100
AcDbEntity
  8
0
100
AcDbLine
 10
272.8501133113387
 20
126.1513932031122
 30
0.0
 11
157.8501133113387
 21
126.1513932031122
 31
0.0
  0
LINE
  5
95B
330
2
100
AcDbEntity
  8
0
100
AcDbLine
 10
272.8501133113387
 20
141.3000192031123
 30
0.0
 11
157.8501133113387
 21
141.3000192031123
 31
0.0
  0
LINE
  5
95C
330
2
100
AcDbEntity
  8
0
100
AcDbLine
 10
272.8501133113387
 20
116.0941992031122
 30
0.0
 11
157.8501133113387
 21
116.0941992031122
 31
0.0
  0
LINE
  5
95D
330
2
100
AcDbEntity
  8
0
100
AcDbLine
 10
272.8501133113387
 20
118.0941992031122
 30
0.0
 11
157.8501133113387
 21
118.0941992031122
 31
0.0
  0
LINE
  5
95F
330
2
100
AcDbEntity
  8
0
100
AcDbLine
 10
152.8501133113387
 20
102.6615182031124
 30
0.0
 11
116.6705473113389
 21
102.6615182031124
 31
0.0
  0
LINE
  5
960
330
2
100
AcDbEntity
  8
0
100
AcDbLine
 10
112.2556303113393
 20
104.6615182031124
 30
0.0
 11
113.884170311339
 21
104.6473062031124
 31
0.0
  0
ARC
  5
961
330
2
100
AcDbEntity
  8
0
100
AcDbCircle
 10
116.6705473113389
 20
104.6615182031124
 30
0.0
 40
2.0
100
AcDbArc
 50
199.7535860000106
 51
270.0
  0
ARC
  5
962
330
2
100
AcDbEntity
  8
0
100
AcDbCircle
 10
113.8470613113391
 20
103.6475902031121
 30
0.0
 40
1.0
100
AcDbArc
 50
19.75357800000324
 51
89.49999999999542
  0
ARC
  5
963
330
2
100
AcDbEntity
  8
0
100
AcDbCircle
 10
112.2556303113393
 20
117.6615192031123
 30
0.0
 40
13.0
100
AcDbArc
 50
188.9046780000047
 51
270.0
  0
ARC
  5
964
330
2
100
AcDbEntity
  8
0
100
AcDbCircle
 10
157.8501133113387
 20
132.7691852031122
 30
0.0
 40
1.0
100
AcDbArc
 50
90.0
 51
270.0
  0
ARC
  5
965
330
2
100
AcDbEntity
  8
0
100
AcDbCircle
 10
157.8501133113387
 20
140.3000192031123
 30
0.0
 40
1.0
100
AcDbArc
 50
90.0
 51
270.0
  0
LINE
  5
966
330
2
100
AcDbEntity
  8
0
100
AcDbLine
 10
151.1502833113391
 20
164.5096332031122
 30
0.0
 11
151.1502833113391
 21
160.7092482031122
 31
0.0
  0
ARC
  5
967
330
2
100
AcDbEntity
  8
0
100
AcDbCircle
 10
153.1502833113392
 20
164.5096332031122
 30
0.0
 40
2.0
100
AcDbArc
 50
84.26082600000377
 51
180.0
  0
ARC
  5
968
330
2
100
AcDbEntity
  8
0
100
AcDbCircle
 10
159.1502833113391
 20
165.3877002031123
 30
0.0
 40
8.0
100
AcDbArc
 50
184.1990509999891
 51
270.0
  0
ARC
  5
969
330
2
100
AcDbEntity
  8
0
100
AcDbCircle
 10
159.1502833113391
 20
160.7092482031122
 30
0.0
 40
8.0
100
AcDbArc
 50
180.0
 51
270.0
  0
LINE
  5
96A
330
2
100
AcDbEntity
  8
0
100
AcDbLine
 10
157.4096833113391
 20
105.4882322031122
 30
0.0
 11
156.9958643113392
 21
107.8355222031124
 31
0.0
  0
ARC
  5
96B
330
2
100
AcDbEntity
  8
0
100
AcDbCircle
 10
158.3945463113387
 20
105.6618782031124
 30
0.0
 40
1.0
100
AcDbArc
 50
190.0000000000059
 51
270.0
  0
LINE
  5
96C
330
2
100
AcDbEntity
  8
0
100
AcDbLine
 10
156.8501133113387
 20
117.0941992031122
 30
0.0
 11
156.8501133113387
 21
108.2058542031123
 31
0.0
  0
LINE
  5
96D
330
2
100
AcDbEntity
  8
0
100
AcDbLine
 10
156.0110013113391
 20
108.6618782031124
 30
0.0
 11
153.8501133113387
 21
108.6618782031124
 31
0.0
  0
ARC
  5
96E
330
2
100
AcDbEntity
  8
0
100
AcDbCircle
 10
156.0110013113391
 20
107.6618782031124
 30
0.0
 40
1.0
100
AcDbArc
 50
10.00000000000596
 51
90.0
  0
ARC
  5
96F
330
2
100
AcDbEntity
  8
0
100
AcDbCircle
 10
157.8501133113387
 20
117.0941992031122
 30
0.0
 40
1.0
100
AcDbArc
 50
90.0
 51
270.0
  0
LINE
  5
970
330
2
100
AcDbEntity
  8
0
100
AcDbLine
 10
152.8501133113387
 20
110.1618842031122
 30
0.0
 11
153.8501133113387
 21
110.1618842031122
 31
0.0
  0
ARC
  5
971
330
2
100
AcDbEntity
  8
0
100
AcDbCircle
 10
157.8501133113387
 20
125.1513932031122
 30
0.0
 40
1.0
100
AcDbArc
 50
90.0
 51
270.0
  0
LINE
  5
972
330
2
100
AcDbEntity
  8
0
100
AcDbLine
 10
153.8501133113387
 20
108.6618782031124
 30
0.0
 11
153.8501133113387
 21
150.2380612031121
 31
0.0
  0
LINE
  5
973
330
2
100
AcDbEntity
  8
0
100
AcDbLine
 10
152.8501133113387
 20
102.6615182031124
 30
0.0
 11
152.8501133113387
 21
150.8167392031124
 31
0.0
  0
ARC
  5
974
330
2
100
AcDbEntity
  8
0
100
AcDbCircle
 10
158.3502353113391
 20
159.1682712031121
 30
0.0
 40
10.0
100
AcDbArc
 50
180.0
 51
270.0
  0
ARC
  5
975
330
2
100
AcDbEntity
  8
0
100
AcDbCircle
 10
158.3502353113391
 20
159.9301272031121
 30
0.0
 40
10.0
100
AcDbArc
 50
180.0
 51
270.0
  0
LINE
  5
976
330
2
100
AcDbEntity
  8
0
100
AcDbLine
 10
293.8501133113387
 20
109.6618782031124
 30
0.0
 11
297.8501133113387
 21
109.6618782031124
 31
0.0
  0
LINE
  5
978
330
2
100
AcDbEntity
  8
0
100
AcDbLine
 10
272.8501133113387
 20
160.5388842031121
 30
0.0
 11
237.3502353113391
 21
160.5388842031121
 31
0.0
  0
LINE
  5
979
330
2
100
AcDbEntity
  8
0
100
AcDbLine
 10
272.8501133113387
 20
152.6436932031121
 30
0.0
 11
234.928482311339
 21
152.6436932031121
 31
0.0
  0
LINE
  5
97A
330
2
100
AcDbEntity
  8
0
100
AcDbLine
 10
272.8501133113387
 20
154.643693203112
 30
0.0
 11
236.2680813113389
 21
154.643693203112
 31
0.0
  0
LINE
  5
97B
330
2
100
AcDbEntity
  8
0
100
AcDbLine
 10
272.8501133113387
 20
168.1388822031123
 30
0.0
 11
241.3501133113387
 21
168.1388822031123
 31
0.0
  0
LINE
  5
97C
330
2
100
AcDbEntity
  8
0
100
AcDbLine
 10
272.8501133113387
 20
170.1388822031123
 30
0.0
 11
241.3501133113387
 21
170.1388822031123
 31
0.0
  0
LINE
  5
97D
330
2
100
AcDbEntity
  8
0
100
AcDbLine
 10
272.8501133113387
 20
162.5388842031121
 30
0.0
 11
241.3501133113387
 21
162.5388842031121
 31
0.0
  0
ARC
  5
97E
330
2
100
AcDbEntity
  8
0
100
AcDbCircle
 10
242.2783353113392
 20
164.5388842031121
 30
0.0
 40
2.0
100
AcDbArc
 50
171.786788999987
 51
270.0
  0
ARC
  5
97F
330
2
100
AcDbEntity
  8
0
100
AcDbCircle
 10
242.3501133113387
 20
166.1388822031122
 30
0.0
 40
2.0
100
AcDbArc
 50
90.0
 51
180.0
  0
ARC
  5
980
330
2
100
AcDbEntity
  8
0
100
AcDbCircle
 10
242.3501133113387
 20
172.1388822031123
 30
0.0
 40
2.0
100
AcDbArc
 50
180.0
 51
270.0
  0
LINE
  5
981
330
2
100
AcDbEntity
  8
0
100
AcDbLine
 10
240.3501133113387
 20
166.1388822031122
 30
0.0
 11
240.3501133113387
 21
165.5388842031121
 31
0.0
  0
ARC
  5
982
330
2
100
AcDbEntity
  8
0
100
AcDbCircle
 10
241.3501133113387
 20
161.5388842031121
 30
0.0
 40
1.0
100
AcDbArc
 50
90.0
 51
270.0
  0
ARC
  5
983
330
2
100
AcDbEntity
  8
0
100
AcDbCircle
 10
235.3501133113387
 20
165.5388842031121
 30
0.0
 40
5.0
100
AcDbArc
 50
351.786788999987
 51
0.0
  0
ARC
  5
984
330
2
100
AcDbEntity
  8
0
100
AcDbCircle
 10
241.3501133113387
 20
169.1388822031123
 30
0.0
 40
1.0
100
AcDbArc
 50
90.0
 51
270.0
  0
LINE
  5
985
330
2
100
AcDbEntity
  8
0
100
AcDbLine
 10
240.3501133113387
 20
173.7388882031124
 30
0.0
 11
240.3501133113387
 21
172.1388822031123
 31
0.0
  0
ARC
  5
986
330
2
100
AcDbEntity
  8
0
100
AcDbCircle
 10
226.5503083113391
 20
160.7092482031122
 30
0.0
 40
8.0
100
AcDbArc
 50
270.0
 51
0.0
  0
ARC
  5
987
330
2
100
AcDbEntity
  8
0
100
AcDbCircle
 10
226.5503083113391
 20
165.3877002031123
 30
0.0
 40
8.0
100
AcDbArc
 50
270.0
 51
0.0
  0
ARC
  5
988
330
2
100
AcDbEntity
  8
0
100
AcDbCircle
 10
227.3502353113391
 20
159.1682712031121
 30
0.0
 40
10.0
100
AcDbArc
 50
270.0
 51
0.0
  0
ARC
  5
989
330
2
100
AcDbEntity
  8
0
100
AcDbCircle
 10
227.3502353113391
 20
159.9301272031121
 30
0.0
 40
10.0
100
AcDbArc
 50
270.0
 51
0.0
  0
ARC
  5
98A
330
2
100
AcDbEntity
  8
0
100
AcDbCircle
 10
272.8501133113387
 20
132.7691852031122
 30
0.0
 40
1.0
100
AcDbArc
 50
270.0
 51
90.0
  0
ARC
  5
98B
330
2
100
AcDbEntity
  8
0
100
AcDbCircle
 10
272.8501133113387
 20
153.643693203112
 30
0.0
 40
1.0
100
AcDbArc
 50
270.0
 51
90.0
  0
ARC
  5
98C
330
2
100
AcDbEntity
  8
0
100
AcDbCircle
 10
272.8501133113387
 20
140.3000192031123
 30
0.0
 40
1.0
100
AcDbArc
 50
270.0
 51
90.0
  0
ARC
  5
98D
330
2
100
AcDbEntity
  8
0
100
AcDbCircle
 10
272.8501133113387
 20
161.5388842031121
 30
0.0
 40
1.0
100
AcDbArc
 50
270.0
 51
90.0
  0
ARC
  5
98E
330
2
100
AcDbEntity
  8
0
100
AcDbCircle
 10
272.8501133113387
 20
169.1388822031123
 30
0.0
 40
1.0
100
AcDbArc
 50
270.0
 51
90.0
  0
LINE
  5
98F
330
2
100
AcDbEntity
  8
0
100
AcDbLine
 10
273.2905423113389
 20
105.4882322031122
 30
0.0
 11
273.7044833113392
 21
107.8355222031124
 31
0.0
  0
ARC
  5
990
330
2
100
AcDbEntity
  8
0
100
AcDbCircle
 10
272.3056793113388
 20
105.6618782031124
 30
0.0
 40
1.0
100
AcDbArc
 50
270.0
 51
349.999999999994
  0
LINE
  5
991
330
2
100
AcDbEntity
  8
0
100
AcDbLine
 10
273.8501133113387
 20
116.0941992031122
 30
0.0
 11
273.8501133113387
 21
108.2058542031123
 31
0.0
  0
ARC
  5
992
330
2
100
AcDbEntity
  8
0
100
AcDbCircle
 10
274.6892243113389
 20
107.6618782031124
 30
0.0
 40
1.0
100
AcDbArc
 50
90.0
 51
169.999999999994
  0
ARC
  5
993
330
2
100
AcDbEntity
  8
0
100
AcDbCircle
 10
272.8501133113387
 20
117.0941992031122
 30
0.0
 40
1.0
100
AcDbArc
 50
270.0
 51
90.0
  0
ARC
  5
994
330
2
100
AcDbEntity
  8
0
100
AcDbCircle
 10
272.8501133113387
 20
125.1513932031122
 30
0.0
 40
1.0
100
AcDbArc
 50
270.0
 51
90.0
  0
LINE
  5
995
330
2
100
AcDbEntity
  8
0
100
AcDbLine
 10
293.8501133113387
 20
108.6618782031124
 30
0.0
 11
274.6892243113389
 21
108.6618782031124
 31
0.0
  0
LINE
  5
996
330
2
100
AcDbEntity
  8
0
100
AcDbLine
 10
310.3501133113387
 20
145.6618772031121
 30
0.0
 11
381.8501133113387
 21
145.6618772031121
 31
0.0
  0
LINE
  5
997
330
2
100
AcDbEntity
  8
0
100
AcDbLine
 10
311.8501133113387
 20
136.1618772031121
 30
0.0
 11
380.3501133113387
 21
136.1618772031121
 31
0.0
  0
LINE
  5
998
330
2
100
AcDbEntity
  8
0
100
AcDbLine
 10
381.8501133113387
 20
123.1618772031121
 30
0.0
 11
310.3501133113387
 21
123.1618772031121
 31
0.0
  0
LINE
  5
999
330
2
100
AcDbEntity
  8
0
100
AcDbLine
 10
378.9500883113388
 20
122.1611582031124
 30
0.0
 11
313.2501373113388
 21
122.1611582031124
 31
0.0
  0
ARC
  5
99A
330
2
100
AcDbEntity
  8
0
100
AcDbCircle
 10
345.3501133113387
 20
156.6618772031121
 30
0.0
 40
3.0
100
AcDbArc
 50
270.0
 51
0.0
  0
ARC
  5
99B
330
2
100
AcDbEntity
  8
0
100
AcDbCircle
 10
317.3501133113387
 20
156.6618772031121
 30
0.0
 40
3.0
100
AcDbArc
 50
180.0
 51
270.0
  0
ARC
  5
99C
330
2
100
AcDbEntity
  8
0
100
AcDbCircle
 10
311.8501133113387
 20
142.6618772031121
 30
0.0
 40
3.0
100
AcDbArc
 50
90.0
 51
180.0
  0
ARC
  5
99D
330
2
100
AcDbEntity
  8
0
100
AcDbCircle
 10
311.8501133113387
 20
133.1618772031121
 30
0.0
 40
3.0
100
AcDbArc
 50
90.0
 51
180.0
  0
ARC
  5
99E
330
2
100
AcDbEntity
  8
0
100
AcDbCircle
 10
307.8501133113387
 20
131.1618772031121
 30
0.0
 40
1.0
100
AcDbArc
 50
0.0
 51
75.52300999999788
  0
ARC
  5
99F
330
2
100
AcDbEntity
  8
0
100
AcDbCircle
 10
308.3501133113387
 20
133.0983972031123
 30
0.0
 40
1.0
100
AcDbArc
 50
180.0
 51
255.5223999999952
  0
ARC
  5
9A0
330
2
100
AcDbEntity
  8
0
100
AcDbCircle
 10
310.3501133113387
 20
142.6618772031121
 30
0.0
 40
3.0
100
AcDbArc
 50
90.0
 51
180.0
  0
LINE
  5
9A1
330
2
100
AcDbEntity
  8
0
100
AcDbLine
 10
317.3501133113387
 20
153.6618772031121
 30
0.0
 11
345.3501133113387
 21
153.6618772031121
 31
0.0
  0
LINE
  5
9A2
330
2
100
AcDbEntity
  8
0
100
AcDbLine
 10
307.3501133113387
 20
110.6616382031121
 30
0.0
 11
307.3501133113387
 21
126.7254782031123
 31
0.0
  0
ARC
  5
9A3
330
2
100
AcDbEntity
  8
0
100
AcDbCircle
 10
310.3501133113387
 20
120.1618772031121
 30
0.0
 40
3.0
100
AcDbArc
 50
90.0
 51
180.0
  0
ARC
  5
9A4
330
2
100
AcDbEntity
  8
0
100
AcDbCircle
 10
313.2501373113388
 20
119.1611582031124
 30
0.0
 40
3.0
100
AcDbArc
 50
90.0
 51
180.0
  0
ARC
  5
9A5
330
2
100
AcDbEntity
  8
0
100
AcDbCircle
 10
306.3501133113387
 20
110.6617582031123
 30
0.0
 40
1.0
100
AcDbArc
 50
270.0
 51
0.0
  0
LINE
  5
9A6
330
2
100
AcDbEntity
  8
0
100
AcDbLine
 10
310.2501373113387
 20
119.1611582031124
 30
0.0
 11
310.2501373113387
 21
110.6610582031122
 31
0.0
  0
ARC
  5
9A7
330
2
100
AcDbEntity
  8
0
100
AcDbCircle
 10
309.2501373113388
 20
110.6610582031122
 30
0.0
 40
1.0
100
AcDbArc
 50
270.0
 51
0.0
  0
ARC
  5
9A8
330
2
100
AcDbEntity
  8
0
100
AcDbCircle
 10
308.350357311339
 20
126.7254782031123
 30
0.0
 40
1.0
100
AcDbArc
 50
104.4813999999918
 51
180.0
  0
ARC
  5
9A9
330
2
100
AcDbEntity
  8
0
100
AcDbCircle
 10
307.8501133113387
 20
128.6618772031121
 30
0.0
 40
1.0
100
AcDbArc
 50
284.484786999994
 51
0.0
  0
LINE
  5
9AA
330
2
100
AcDbEntity
  8
0
100
AcDbLine
 10
309.2501373113388
 20
109.6617582031123
 30
0.0
 11
297.8501133113387
 21
109.6617582031123
 31
0.0
  0
LINE
  5
9AB
330
2
100
AcDbEntity
  8
0
100
AcDbLine
 10
308.8501133113387
 20
128.6618772031121
 30
0.0
 11
308.8501133113387
 21
142.6618772031121
 31
0.0
  0
ARC
  5
9AC
330
2
100
AcDbEntity
  8
0
100
AcDbCircle
 10
380.3501133113387
 20
142.6618772031121
 30
0.0
 40
3.0
100
AcDbArc
 50
0.0
 51
90.0
  0
ARC
  5
9AD
330
2
100
AcDbEntity
  8
0
100
AcDbCircle
 10
380.3501133113387
 20
133.1618772031121
 30
0.0
 40
3.0
100
AcDbArc
 50
0.0
 51
90.0
  0
ARC
  5
9AE
330
2
100
AcDbEntity
  8
0
100
AcDbCircle
 10
384.3501133113387
 20
131.1618772031121
 30
0.0
 40
1.0
100
AcDbArc
 50
104.4772030000042
 51
180.0
  0
ARC
  5
9AF
330
2
100
AcDbEntity
  8
0
100
AcDbCircle
 10
383.8501133113387
 20
133.0983972031123
 30
0.0
 40
1.0
100
AcDbArc
 50
284.4776000000047
 51
0.0
  0
ARC
  5
9B0
330
2
100
AcDbEntity
  8
0
100
AcDbCircle
 10
381.8501133113387
 20
142.6618772031121
 30
0.0
 40
3.0
100
AcDbArc
 50
0.0
 51
90.0
  0
LINE
  5
9B1
330
2
100
AcDbEntity
  8
0
100
AcDbLine
 10
376.3501133113387
 20
153.6618772031121
 30
0.0
 11
356.8501133113387
 21
153.6618772031121
 31
0.0
  0
ARC
  5
9B2
330
2
100
AcDbEntity
  8
0
100
AcDbCircle
 10
356.8501133113387
 20
156.6618772031121
 30
0.0
 40
3.0
100
AcDbArc
 50
180.0
 51
270.0
  0
ARC
  5
9B3
330
2
100
AcDbEntity
  8
0
100
AcDbCircle
 10
376.3501133113387
 20
156.6618772031121
 30
0.0
 40
3.0
100
AcDbArc
 50
270.0
 51
0.0
  0
LINE
  5
9B4
330
2
100
AcDbEntity
  8
0
100
AcDbLine
 10
384.8501133113387
 20
110.6616382031121
 30
0.0
 11
384.8501133113387
 21
126.7254782031123
 31
0.0
  0
ARC
  5
9B5
330
2
100
AcDbEntity
  8
0
100
AcDbCircle
 10
381.8501133113387
 20
120.1618772031121
 30
0.0
 40
3.0
100
AcDbArc
 50
0.0
 51
90.0
  0
ARC
  5
9B6
330
2
100
AcDbEntity
  8
0
100
AcDbCircle
 10
378.9500883113388
 20
119.1611582031124
 30
0.0
 40
3.0
100
AcDbArc
 50
0.0
 51
90.0
  0
LINE
  5
9B7
330
2
100
AcDbEntity
  8
0
100
AcDbLine
 10
382.9500883113388
 20
109.6617582031123
 30
0.0
 11
394.3501133113387
 21
109.6617582031123
 31
0.0
  0
ARC
  5
9B8
330
2
100
AcDbEntity
  8
0
100
AcDbCircle
 10
385.8501133113387
 20
110.6617582031123
 30
0.0
 40
1.0
100
AcDbArc
 50
180.0
 51
270.0
  0
LINE
  5
9B9
330
2
100
AcDbEntity
  8
0
100
AcDbLine
 10
381.9500883113388
 20
119.1611582031124
 30
0.0
 11
381.9500883113388
 21
110.6611272031124
 31
0.0
  0
ARC
  5
9BA
330
2
100
AcDbEntity
  8
0
100
AcDbCircle
 10
382.9500883113388
 20
110.6611272031124
 30
0.0
 40
1.0
100
AcDbArc
 50
180.0
 51
270.0
  0
ARC
  5
9BB
330
2
100
AcDbEntity
  8
0
100
AcDbCircle
 10
383.849868311339
 20
126.7254782031123
 30
0.0
 40
1.0
100
AcDbArc
 50
0.0
 51
75.51860000000812
  0
ARC
  5
9BC
330
2
100
AcDbEntity
  8
0
100
AcDbCircle
 10
384.3501133113387
 20
128.6618772031121
 30
0.0
 40
1.0
100
AcDbArc
 50
180.0
 51
255.5151979999955
  0
LINE
  5
9BD
330
2
100
AcDbEntity
  8
0
100
AcDbLine
 10
399.6994783113387
 20
109.4742672031121
 30
0.0
 11
394.3501133113387
 21
109.6612382031122
 31
0.0
  0
LINE
  5
9BE
330
2
100
AcDbEntity
  8
0
100
AcDbLine
 10
383.3501133113387
 20
128.6618772031121
 30
0.0
 11
383.3501133113387
 21
142.6618772031121
 31
0.0
  0
ARC
  5
9BF
330
2
100
AcDbEntity
  8
0
100
AcDbCircle
 10
836.614132611821
 20
282.6615192031123
 30
0.0
 40
192.0
100
AcDbArc
 50
247.8473969999998
 51
270.0
  0
ARC
  5
9C0
330
2
100
AcDbEntity
  8
0
100
AcDbCircle
 10
836.614132611821
 20
282.6615192031123
 30
0.0
 40
200.0
100
AcDbArc
 50
241.8937990000053
 51
270.0
  0
LINE
  5
9C1
330
2
100
AcDbEntity
  8
CENTER
100
AcDbLine
 10
524.350152698557
 20
120.7731062031117
 30
0.0
 11
489.3499057268472
 21
120.7731062031131
 31
0.0
  0
LINE
  5
9C2
330
2
100
AcDbEntity
  8
HIDS
  6
SEKKEI_H
100
AcDbLine
 10
514.350357311339
 20
114.2731062031122
 30
0.0
 11
499.3499903113389
 21
114.2731062031122
 31
0.0
  0
LINE
  5
9C3
330
2
100
AcDbEntity
  8
HIDS
  6
SEKKEI_H
100
AcDbLine
 10
514.350357311339
 20
127.2731062031122
 30
0.0
 11
499.3499903113389
 21
127.2731062031122
 31
0.0
  0
LINE
  5
9C4
330
2
100
AcDbEntity
  8
0
100
AcDbLine
 10
513.851699311339
 20
82.67894920311221
 30
0.0
 11
427.3108063113392
 21
85.70050020311203
 31
0.0
  0
ARC
  5
9C5
330
2
100
AcDbEntity
  8
0
100
AcDbCircle
 10
454.1788483113392
 20
855.2315722031123
 30
0.0
 40
770.0
100
AcDbArc
 50
267.1840209999964
 51
268.0003359999968
  0
LINE
  5
9C6
330
2
100
AcDbEntity
  8
0
100
AcDbLine
 10
412.2716213113391
 20
86.26818820311212
 30
0.0
 11
416.3501133113387
 21
86.16138720311221
 31
0.0
  0
ARC
  5
9C7
330
2
100
AcDbEntity
  8
0
100
AcDbCircle
 10
412.3501133113387
 20
89.26716020311245
 30
0.0
 40
3.0
100
AcDbArc
 50
180.0
 51
268.4999999999972
  0
ARC
  5
9C8
330
2
100
AcDbEntity
  8
0
100
AcDbCircle
 10
502.349868311339
 20
86.08231720311243
 30
0.0
 40
3.0
100
AcDbArc
 50
180.0
 51
268.0003359999968
  0
LINE
  5
9C9
330
2
100
AcDbEntity
  8
0
100
AcDbLine
 10
419.1701813113391
 20
101.8316652031122
 30
0.0
 11
495.3658603113391
 21
99.17126520311207
 31
0.0
  0
LINE
  5
9CA
330
2
100
AcDbEntity
  8
0
100
AcDbLine
 10
419.1661533113388
 20
123.9840252031123
 30
0.0
 11
495.3658603113391
 21
126.645505203112
 31
0.0
  0
LINE
  5
9CB
330
2
100
AcDbEntity
  8
0
100
AcDbLine
 10
415.0402983113391
 20
101.8316782031121
 30
0.0
 11
410.7226713113387
 21
101.8316782031121
 31
0.0
  0
LINE
  5
9CC
330
2
100
AcDbEntity
  8
0
100
AcDbLine
 10
415.0402983113391
 20
123.9840192031121
 30
0.0
 11
410.7226713113387
 21
123.9840192031121
 31
0.0
  0
LINE
  5
9CD
330
2
100
AcDbEntity
  8
0
100
AcDbLine
 10
513.850479311339
 20
82.67894920311221
 30
0.0
 11
514.3501133113387
 21
83.16154820311215
 31
0.0
  0
LINE
  5
9CE
330
2
100
AcDbEntity
  8
0
100
AcDbLine
 10
517.850357311339
 20
119.1615052031121
 30
0.0
 11
514.350357311339
 21
119.1615052031121
 31
0.0
  0
LINE
  5
9CF
330
2
100
AcDbEntity
  8
0
100
AcDbLine
 10
517.850357311339
 20
119.1615052031121
 30
0.0
 11
518.350357311339
 21
119.6615052031121
 31
0.0
  0
LINE
  5
9D0
330
2
100
AcDbEntity
  8
0
100
AcDbLine
 10
717.1394006118212
 20
155.7429172031121
 30
0.0
 11
731.0994836118212
 21
153.905041203112
 31
0.0
  0
ARC
  5
9D3
330
2
100
AcDbEntity
  8
0
100
AcDbCircle
 10
718.0269736118212
 20
162.4847382031122
 30
0.0
 40
6.799999999999999
100
AcDbArc
 50
172.4999999999879
 51
262.5000000000027
  0
ARC
  5
9D4
330
2
100
AcDbEntity
  8
0
100
AcDbCircle
 10
1499.114254611821
 20
209.1615192031123
 30
0.0
 40
762.0
100
AcDbArc
 50
182.634597999993
 51
185.1221010000084
  0
ARC
  5
9D5
330
2
100
AcDbEntity
  8
0
100
AcDbCircle
 10
746.1329316118214
 20
141.6702392031121
 30
0.0
 40
6.0
100
AcDbArc
 50
185.1219020000022
 51
275.7161869999964
  0
CIRCLE
  5
9D6
330
2
100
AcDbEntity
  8
0
100
AcDbCircle
 10
748.2244836118212
 20
120.7744992031122
 30
0.0
 40
6.5
  0
ARC
  5
9D7
330
2
100
AcDbEntity
  8
0
100
AcDbCircle
 10
749.4597136118215
 20
119.4772572031121
 30
0.0
 40
15.0
100
AcDbArc
 50
186.8218990000016
 51
241.8937990000053
  0
ARC
  5
9D8
330
2
100
AcDbEntity
  8
0
100
AcDbCircle
 10
766.4781456118213
 20
110.391678203112
 30
0.0
 40
6.0
100
AcDbArc
 50
150.3681950000092
 51
247.8473049999973
  0
ARC
  5
9D9
330
2
100
AcDbEntity
  8
0
100
AcDbCircle
 10
748.2244836118212
 20
120.7744992031122
 30
0.0
 40
15.0
100
AcDbArc
 50
330.3684100000076
 51
95.7160569999972
  0
ARC
  5
9DA
330
2
100
AcDbEntity
  8
0
100
AcDbCircle
 10
779.839107611821
 20
151.3896572031122
 30
0.0
 40
3.0
100
AcDbArc
 50
225.5036009999897
 51
353.093505999997
  0
ARC
  5
9DB
330
2
100
AcDbEntity
  8
0
100
AcDbCircle
 10
927.0944786118212
 20
141.6702392031121
 30
0.0
 40
6.0
100
AcDbArc
 50
264.2838130000035
 51
354.8781279999883
  0
CIRCLE
  5
9DC
330
2
100
AcDbEntity
  8
0
100
AcDbCircle
 10
925.0024376118213
 20
120.7744992031122
 30
0.0
 40
6.5
  0
ARC
  5
9DD
330
2
100
AcDbEntity
  8
0
100
AcDbCircle
 10
836.614132611821
 20
282.6615192031123
 30
0.0
 40
200.0
100
AcDbArc
 50
270.0
 51
298.1062009999946
  0
ARC
  5
9DE
330
2
100
AcDbEntity
  8
0
100
AcDbCircle
 10
836.614132611821
 20
282.6615192031123
 30
0.0
 40
192.0
100
AcDbArc
 50
270.0
 51
292.1525570000041
  0
ARC
  5
9DF
330
2
100
AcDbEntity
  8
0
100
AcDbCircle
 10
838.0031706118213
 20
162.1820192031124
 30
0.0
 40
3.0
100
AcDbArc
 50
91.68826300000144
 51
207.9309999999963
  0
ARC
  5
9E0
330
2
100
AcDbEntity
  8
0
100
AcDbCircle
 10
810.614132611821
 20
147.6615192031123
 30
0.0
 40
28.0
100
AcDbArc
 50
321.0737300000038
 51
27.93074000000975
  0
ARC
  5
9E1
330
2
100
AcDbEntity
  8
0
100
AcDbCircle
 10
834.7307096118212
 20
128.1834992031123
 30
0.0
 40
3.0
100
AcDbArc
 50
141.0733950000059
 51
268.673186999995
  0
ARC
  5
9E2
330
2
100
AcDbEntity
  8
0
100
AcDbCircle
 10
906.7504846118215
 20
110.391678203112
 30
0.0
 40
6.0
100
AcDbArc
 50
292.1526869999924
 51
29.63178999998919
  0
ARC
  5
9E3
330
2
100
AcDbEntity
  8
0
100
AcDbCircle
 10
925.0024376118213
 20
120.7744992031122
 30
0.0
 40
15.0
100
AcDbArc
 50
84.28394300000279
 51
209.6316069999943
  0
ARC
  5
9E4
330
2
100
AcDbEntity
  8
0
100
AcDbCircle
 10
174.1141326118214
 20
209.1615192031123
 30
0.0
 40
762.0
100
AcDbArc
 50
354.8778989999915
 51
357.3653869999918
  0
ARC
  5
9E5
330
2
100
AcDbEntity
  8
0
100
AcDbCircle
 10
923.7685516118213
 20
119.4772572031121
 30
0.0
 40
15.0
100
AcDbArc
 50
298.1062009999946
 51
353.1781009999982
  0
ARC
  5
9E6
330
2
100
AcDbEntity
  8
0
100
AcDbCircle
 10
399.3502353113391
 20
676.0567555212011
 30
0.0
 40
10.0
100
AcDbArc
 50
272.0019229999945
 51
0.0
  0
ARC
  5
9E7
330
2
100
AcDbEntity
  8
0
100
AcDbCircle
 10
399.3499903113389
 20
513.6951835212013
 30
0.0
 40
10.0
100
AcDbArc
 50
0.0
 51
87.99919899999931
  0
ARC
  5
9E8
330
2
100
AcDbEntity
  8
0
100
AcDbCircle
 10
399.3501133113387
 20
261.842213203112
 30
0.0
 40
10.0
100
AcDbArc
 50
272.0000000000036
 51
0.0
  0
LINE
  5
9EA
330
2
100
AcDbEntity
  8
CENTER
100
AcDbLine
 10
79.35011331133876
 20
180.6615192031123
 30
0.0
 11
473.5261383113389
 21
180.6615192031123
 31
0.0
  0
LINE
  5
9EC
330
2
100
AcDbEntity
  8
CENTER
100
AcDbLine
 10
589.3503573113393
 20
594.8759085212006
 30
0.0
 11
79.35035731133905
 21
594.875908521201
 31
0.0
  0
ELLIPSE
  5
9ED
330
2
100
AcDbEntity
  8
0
100
AcDbEllipse
 10
228.3845363113401
 20
483.9858781310287
 30
0.0
 11
7.0
 21
0.0
 31
0.0
210
0.0
220
0.0
230
1.0
 40
0.4285714285714286
 41
4.712388980384689
 42
6.283185307179586
  0
ELLIPSE
  5
9EE
330
2
100
AcDbEntity
  8
0
100
AcDbEllipse
 10
163.1628250280965
 20
482.2804910888031
 30
0.0
 11
-9.999999999999888
 21
-5.27930489732232
 31
0.0
210
0.0
220
0.0
230
1.0
 40
0.2652986999005152
 41
4.712388980384689
 42
5.865822628019693
  0
ELLIPSE
  5
9EF
330
2
100
AcDbEntity
  8
0
100
AcDbEllipse
 10
163.0245513113392
 20
481.2330513491416
 30
0.0
 11
-8.00000000000039
 21
-4.223443917856965
 31
0.0
210
0.0
220
0.0
230
1.0
 40
0.2210822499170709
 41
4.712388980384689
 42
5.954122433751792
  0
ARC
  5
9F0
330
2
100
AcDbEntity
  8
0
100
AcDbCircle
 10
153.481540749142
 20
481.9950866705291
 30
0.0
 40
2.0
100
AcDbArc
 50
148.7234707368127
 51
180.0
  0
LINE
  5
9F1
330
2
100
AcDbEntity
  8
0
100
AcDbLine
 10
235.3845363113401
 20
472.3974610372821
 30
0.0
 11
235.3845363113401
 21
518.7894045471222
 31
0.0
  0
LINE
  5
9F2
330
2
100
AcDbEntity
  8
0
100
AcDbLine
 10
228.3845363113401
 20
469.3974610372821
 30
0.0
 11
162.0245513113392
 21
469.3974610372821
 31
0.0
  0
LINE
  5
9F3
330
2
100
AcDbEntity
  8
0
100
AcDbLine
 10
228.3845363113401
 20
480.9858781310286
 30
0.0
 11
162.0245513113392
 21
480.9858781310286
 31
0.0
  0
LINE
  5
9F4
330
2
100
AcDbEntity
  8
0
100
AcDbLine
 10
227.3502353113391
 20
236.2239582031121
 30
0.0
 11
158.3502353113391
 21
236.2239582031121
 31
0.0
  0
LINE
  5
9F5
330
2
100
AcDbEntity
  8
0
100
AcDbLine
 10
226.5503083113391
 20
233.2182362031122
 30
0.0
 11
159.1502833113391
 21
233.2182362031122
 31
0.0
  0
LINE
  5
9F6
330
2
100
AcDbEntity
  8
0
100
AcDbLine
 10
158.3945463113387
 20
256.661885203112
 30
0.0
 11
272.3056793113388
 21
256.661885203112
 31
0.0
  0
LINE
  5
9F7
330
2
100
AcDbEntity
  8
0
100
AcDbLine
 10
272.8501133113387
 20
236.461613203112
 30
0.0
 11
157.8501133113387
 21
236.461613203112
 31
0.0
  0
LINE
  5
9F8
330
2
100
AcDbEntity
  8
0
100
AcDbLine
 10
272.8501133113387
 20
238.461613203112
 30
0.0
 11
157.8501133113387
 21
238.461613203112
 31
0.0
  0
LINE
  5
9F9
330
2
100
AcDbEntity
  8
0
100
AcDbLine
 10
272.8501133113387
 20
242.4144032031123
 30
0.0
 11
157.8501133113387
 21
242.4144032031123
 31
0.0
  0
LINE
  5
9FA
330
2
100
AcDbEntity
  8
0
100
AcDbLine
 10
272.8501133113387
 20
244.4144032031123
 30
0.0
 11
157.8501133113387
 21
244.4144032031123
 31
0.0
  0
LINE
  5
9FB
330
2
100
AcDbEntity
  8
0
100
AcDbLine
 10
272.8501133113387
 20
247.685399203112
 30
0.0
 11
157.8501133113387
 21
247.685399203112
 31
0.0
  0
LINE
  5
9FC
330
2
100
AcDbEntity
  8
0
100
AcDbLine
 10
272.8501133113387
 20
249.685399203112
 30
0.0
 11
157.8501133113387
 21
249.685399203112
 31
0.0
  0
LINE
  5
9FD
330
2
100
AcDbEntity
  8
0
100
AcDbLine
 10
272.8501133113387
 20
252.516987203112
 30
0.0
 11
157.8501133113387
 21
252.516987203112
 31
0.0
  0
LINE
  5
9FE
330
2
100
AcDbEntity
  8
0
100
AcDbLine
 10
272.8501133113387
 20
254.516987203112
 30
0.0
 11
157.8501133113387
 21
254.516987203112
 31
0.0
  0
LINE
  5
A01
330
2
100
AcDbEntity
  8
0
100
AcDbLine
 10
153.8501133113387
 20
252.661885203112
 30
0.0
 11
153.8501133113387
 21
235.1541792031122
 31
0.0
  0
LINE
  5
A02
330
2
100
AcDbEntity
  8
0
100
AcDbLine
 10
156.8501133113387
 20
249.4618572031123
 30
0.0
 11
156.8501133113387
 21
253.1179092031121
 31
0.0
  0
LINE
  5
A03
330
2
100
AcDbEntity
  8
0
100
AcDbLine
 10
152.8501133113387
 20
261.6615192031123
 30
0.0
 11
152.8501133113387
 21
234.5754902031123
 31
0.0
  0
ARC
  5
A04
330
2
100
AcDbEntity
  8
0
100
AcDbCircle
 10
112.2556303113393
 20
243.6615192031123
 30
0.0
 40
13.0
100
AcDbArc
 50
90.0
 51
171.0953219999952
  0
ARC
  5
A05
330
2
100
AcDbEntity
  8
0
100
AcDbCircle
 10
157.8501133113387
 20
237.461613203112
 30
0.0
 40
1.0
100
AcDbArc
 50
90.0
 51
270.0
  0
ARC
  5
A06
330
2
100
AcDbEntity
  8
0
100
AcDbCircle
 10
157.8501133113387
 20
243.4144032031123
 30
0.0
 40
1.0
100
AcDbArc
 50
90.0
 51
270.0
  0
ARC
  5
A07
330
2
100
AcDbEntity
  8
0
100
AcDbCircle
 10
157.8501133113387
 20
248.685399203112
 30
0.0
 40
1.0
100
AcDbArc
 50
90.0
 51
270.0
  0
LINE
  5
A08
330
2
100
AcDbEntity
  8
0
100
AcDbLine
 10
152.8501133113387
 20
251.1618852031121
 30
0.0
 11
153.8501133113387
 21
251.1618852031121
 31
0.0
  0
ARC
  5
A09
330
2
100
AcDbEntity
  8
0
100
AcDbCircle
 10
159.1502833113391
 20
225.2182362031122
 30
0.0
 40
8.0
100
AcDbArc
 50
90.0
 51
180.0
  0
ARC
  5
A0A
330
2
100
AcDbEntity
  8
0
100
AcDbCircle
 10
154.1502833113391
 20
185.459508203112
 30
0.0
 40
3.0
100
AcDbArc
 50
180.0
 51
270.0
  0
LINE
  5
A0B
330
2
100
AcDbEntity
  8
0
100
AcDbLine
 10
151.1502833113391
 20
225.2182362031122
 30
0.0
 11
151.1502833113391
 21
185.459508203112
 31
0.0
  0
ARC
  5
A0C
330
2
100
AcDbEntity
  8
0
100
AcDbCircle
 10
158.3502353113391
 20
226.2239582031121
 30
0.0
 40
10.0
100
AcDbArc
 50
90.0
 51
180.0
  0
LINE
  5
A0D
330
2
100
AcDbEntity
  8
0
100
AcDbLine
 10
152.8501133113387
 20
261.6615192031123
 30
0.0
 11
116.5112453113389
 21
261.6615192031123
 31
0.0
  0
LINE
  5
A0E
330
2
100
AcDbEntity
  8
0
100
AcDbLine
 10
112.2556303113393
 20
256.6615192031123
 30
0.0
 11
113.8557283113387
 21
256.6754802031124
 31
0.0
  0
ARC
  5
A0F
330
2
100
AcDbEntity
  8
0
100
AcDbCircle
 10
113.8470613113391
 20
257.6754502031123
 30
0.0
 40
1.0
100
AcDbArc
 50
270.5000000000045
 51
11.12892600001035
  0
ARC
  5
A10
330
2
100
AcDbEntity
  8
0
100
AcDbCircle
 10
116.5112453113389
 20
259.6615192031123
 30
0.0
 40
2.0
100
AcDbArc
 50
90.0
 51
191.3333740000069
  0
LINE
  5
A11
330
2
100
AcDbEntity
  8
0
100
AcDbLine
 10
157.4096833113391
 20
255.8355152031123
 30
0.0
 11
156.9958643113392
 21
253.4882252031121
 31
0.0
  0
ARC
  5
A12
330
2
100
AcDbEntity
  8
0
100
AcDbCircle
 10
157.8501133113387
 20
253.516987203112
 30
0.0
 40
1.0
100
AcDbArc
 50
90.0
 51
270.0
  0
LINE
  5
A13
330
2
100
AcDbEntity
  8
0
100
AcDbLine
 10
156.0110013113391
 20
252.661885203112
 30
0.0
 11
153.8501133113387
 21
252.661885203112
 31
0.0
  0
ARC
  5
A14
330
2
100
AcDbEntity
  8
0
100
AcDbCircle
 10
156.0110013113391
 20
253.6618852031121
 30
0.0
 40
1.0
100
AcDbArc
 50
270.0
 51
349.999999999994
  0
ARC
  5
A15
330
2
100
AcDbEntity
  8
0
100
AcDbCircle
 10
158.3945463113387
 20
255.6618852031121
 30
0.0
 40
1.0
100
AcDbArc
 50
90.0
 51
169.999999999994
  0
LINE
  5
A16
330
2
100
AcDbEntity
  8
0
100
AcDbLine
 10
151.7128827498037
 20
475.5934957079995
 30
0.0
 11
153.3941670287605
 21
472.4088259235178
 31
0.0
  0
LINE
  5
A17
330
2
100
AcDbEntity
  8
0
100
AcDbLine
 10
153.1628250280961
 20
473.3425544072762
 30
0.0
 11
153.1628250280961
 21
477.4914082592118
 31
0.0
  0
LINE
  5
A18
330
2
100
AcDbEntity
  8
0
100
AcDbLine
 10
155.0245513113392
 20
472.3974610372821
 30
0.0
 11
155.0245513113392
 21
477.3191617067456
 31
0.0
  0
ELLIPSE
  5
A19
330
2
100
AcDbEntity
  8
0
100
AcDbEllipse
 10
162.0245513113392
 20
472.3974610372821
 30
0.0
 11
7.0
 21
0.0
 31
0.0
210
0.0
220
0.0
230
1.0
 40
0.4285714285714286
 41
3.141592653589793
 42
4.712388980384689
  0
ARC
  5
A1A
330
2
100
AcDbEntity
  8
0
100
AcDbCircle
 10
155.1628250280974
 20
473.3425544072766
 30
0.0
 40
2.0
100
AcDbArc
 50
180.0
 51
273.9060605124202
  0
ELLIPSE
  5
A1B
330
2
100
AcDbEntity
  8
0
100
AcDbEllipse
 10
163.1628250280965
 20
477.2397670695728
 30
0.0
 11
-10.0
 21
-5.279304897322163
 31
0.0
210
0.0
220
0.0
230
1.0
 40
0.265298699900519
 41
6.822117750064406
 42
6.846649156827789
  0
ARC
  5
A1C
330
2
100
AcDbEntity
  8
0
100
AcDbCircle
 10
153.4815407491311
 20
476.5272241917569
 30
0.0
 40
2.0
100
AcDbArc
 50
179.9999999999479
 51
207.8309394511772
  0
LINE
  5
A1D
330
2
100
AcDbEntity
  8
0
100
AcDbLine
 10
151.4815407491402
 20
481.9950866705291
 30
0.0
 11
151.4815407491402
 21
476.5272241917588
 31
0.0
  0
ARC
  5
A1E
330
2
100
AcDbEntity
  8
0
100
AcDbCircle
 10
155.1628250281029
 20
477.4914082592118
 30
0.0
 40
2.0
100
AcDbArc
 50
148.7234707368773
 51
179.9999999999479
  0
ARC
  5
A1F
330
2
100
AcDbEntity
  8
0
100
AcDbCircle
 10
156.0245513113296
 20
477.3191617067456
 30
0.0
 40
1.0
100
AcDbArc
 50
150.751059739946
 51
180.0000000001302
  0
ELLIPSE
  5
A20
330
2
100
AcDbEntity
  8
0
100
AcDbEllipse
 10
162.0245513113392
 20
477.9858781310287
 30
0.0
 11
7.0
 21
0.0
 31
0.0
210
0.0
220
0.0
230
-1.0
 40
0.4285714285714286
 41
4.384353573520338
 42
4.712388980384689
  0
LINE
  5
A23
330
2
100
AcDbEntity
  8
0
100
AcDbLine
 10
293.8501133113387
 20
251.6618852031121
 30
0.0
 11
297.8501133113387
 21
251.6618852031121
 31
0.0
  0
LINE
  5
A24
330
2
100
AcDbEntity
  8
0
100
AcDbLine
 10
273.8501133113387
 20
249.4618572031123
 30
0.0
 11
273.8501133113387
 21
253.1179092031121
 31
0.0
  0
LINE
  5
A25
330
2
100
AcDbEntity
  8
0
100
AcDbLine
 10
272.8501133113387
 20
220.5388842031121
 30
0.0
 11
237.3502353113391
 21
220.5388842031121
 31
0.0
  0
LINE
  5
A26
330
2
100
AcDbEntity
  8
0
100
AcDbLine
 10
272.8501133113387
 20
218.5388842031121
 30
0.0
 11
241.3501133113387
 21
218.5388842031121
 31
0.0
  0
LINE
  5
A27
330
2
100
AcDbEntity
  8
0
100
AcDbLine
 10
272.8501133113387
 20
210.938878203112
 30
0.0
 11
241.3501133113387
 21
210.938878203112
 31
0.0
  0
LINE
  5
A28
330
2
100
AcDbEntity
  8
0
100
AcDbLine
 10
272.8501133113387
 20
212.938878203112
 30
0.0
 11
241.3501133113387
 21
212.938878203112
 31
0.0
  0
LINE
  5
A29
330
2
100
AcDbEntity
  8
0
100
AcDbLine
 10
272.8501133113387
 20
203.3388722031123
 30
0.0
 11
241.3501133113387
 21
203.3388722031123
 31
0.0
  0
LINE
  5
A2A
330
2
100
AcDbEntity
  8
0
100
AcDbLine
 10
272.8501133113387
 20
205.3388722031123
 30
0.0
 11
241.3501133113387
 21
205.3388722031123
 31
0.0
  0
LINE
  5
A2B
330
2
100
AcDbEntity
  8
0
100
AcDbLine
 10
272.8501133113387
 20
225.2174732031122
 30
0.0
 11
237.3502353113391
 21
225.2174732031122
 31
0.0
  0
LINE
  5
A2C
330
2
100
AcDbEntity
  8
0
100
AcDbLine
 10
272.8501133113387
 20
227.2174732031122
 30
0.0
 11
237.3007963113388
 21
227.2174732031122
 31
0.0
  0
LINE
  5
A2D
330
2
100
AcDbEntity
  8
0
100
AcDbLine
 10
272.8501133113387
 20
185.3388722031123
 30
0.0
 11
241.3501133113387
 21
185.3388722031123
 31
0.0
  0
LINE
  5
A2E
330
2
100
AcDbEntity
  8
0
100
AcDbLine
 10
272.8501133113387
 20
183.3388722031123
 30
0.0
 11
241.3501133113387
 21
183.3388722031123
 31
0.0
  0
LINE
  5
A2F
330
2
100
AcDbEntity
  8
0
100
AcDbLine
 10
272.8501133113387
 20
175.7388882031124
 30
0.0
 11
241.3501133113387
 21
175.7388882031124
 31
0.0
  0
LINE
  5
A30
330
2
100
AcDbEntity
  8
0
100
AcDbLine
 10
272.8501133113387
 20
177.7388882031124
 30
0.0
 11
241.3501133113387
 21
177.7388882031124
 31
0.0
  0
LINE
  5
A31
330
2
100
AcDbEntity
  8
0
100
AcDbLine
 10
272.8501133113387
 20
197.7388882031124
 30
0.0
 11
241.3501133113387
 21
197.7388882031124
 31
0.0
  0
LINE
  5
A32
330
2
100
AcDbEntity
  8
0
100
AcDbLine
 10
272.8501133113387
 20
195.7388882031124
 30
0.0
 11
241.3501133113387
 21
195.7388882031124
 31
0.0
  0
ARC
  5
A33
330
2
100
AcDbEntity
  8
0
100
AcDbCircle
 10
242.3501133113387
 20
208.938878203112
 30
0.0
 40
2.0
100
AcDbArc
 50
90.0
 51
180.0
  0
ARC
  5
A34
330
2
100
AcDbEntity
  8
0
100
AcDbCircle
 10
242.3501133113387
 20
207.3388722031123
 30
0.0
 40
2.0
100
AcDbArc
 50
180.0
 51
270.0
  0
ARC
  5
A35
330
2
100
AcDbEntity
  8
0
100
AcDbCircle
 10
242.3501133113387
 20
214.938878203112
 30
0.0
 40
2.0
100
AcDbArc
 50
180.0
 51
270.0
  0
ARC
  5
A36
330
2
100
AcDbEntity
  8
0
100
AcDbCircle
 10
242.2783353113392
 20
216.5388842031121
 30
0.0
 40
2.0
100
AcDbArc
 50
90.0
 51
188.2131959999898
  0
ARC
  5
A37
330
2
100
AcDbEntity
  8
0
100
AcDbCircle
 10
241.3501133113387
 20
204.3388722031123
 30
0.0
 40
1.0
100
AcDbArc
 50
90.0
 51
270.0
  0
LINE
  5
A38
330
2
100
AcDbEntity
  8
0
100
AcDbLine
 10
240.3501133113387
 20
208.938878203112
 30
0.0
 11
240.3501133113387
 21
207.3388722031123
 31
0.0
  0
LINE
  5
A39
330
2
100
AcDbEntity
  8
0
100
AcDbLine
 10
240.3501133113387
 20
215.5388842031121
 30
0.0
 11
240.3501133113387
 21
214.938878203112
 31
0.0
  0
ARC
  5
A3A
330
2
100
AcDbEntity
  8
0
100
AcDbCircle
 10
241.3501133113387
 20
219.5388842031121
 30
0.0
 40
1.0
100
AcDbArc
 50
90.0
 51
270.0
  0
ARC
  5
A3B
330
2
100
AcDbEntity
  8
0
100
AcDbCircle
 10
241.3501133113387
 20
211.938878203112
 30
0.0
 40
1.0
100
AcDbArc
 50
90.0
 51
270.0
  0
ARC
  5
A3C
330
2
100
AcDbEntity
  8
0
100
AcDbCircle
 10
235.3501133113387
 20
215.5388842031121
 30
0.0
 40
5.0
100
AcDbArc
 50
0.0
 51
8.213211000012952
  0
ARC
  5
A3D
330
2
100
AcDbEntity
  8
0
100
AcDbCircle
 10
226.5503083113391
 20
225.2182362031122
 30
0.0
 40
8.0
100
AcDbArc
 50
0.0
 51
90.0
  0
ARC
  5
A3E
330
2
100
AcDbEntity
  8
0
100
AcDbCircle
 10
227.3502353113391
 20
226.2239582031121
 30
0.0
 40
10.0
100
AcDbArc
 50
0.0
 51
90.0
  0
ARC
  5
A3F
330
2
100
AcDbEntity
  8
0
100
AcDbCircle
 10
242.3501133113387
 20
199.7388882031124
 30
0.0
 40
2.0
100
AcDbArc
 50
180.0
 51
270.0
  0
LINE
  5
A40
330
2
100
AcDbEntity
  8
0
100
AcDbLine
 10
240.3501133113387
 20
201.3388722031123
 30
0.0
 11
240.3501133113387
 21
199.7388882031124
 31
0.0
  0
ARC
  5
A41
330
2
100
AcDbEntity
  8
0
100
AcDbCircle
 10
241.3501133113387
 20
196.7388882031124
 30
0.0
 40
1.0
100
AcDbArc
 50
90.0
 51
270.0
  0
LINE
  5
A42
330
2
100
AcDbEntity
  8
0
100
AcDbLine
 10
240.3501133113387
 20
193.7388882031124
 30
0.0
 11
240.3501133113387
 21
187.3388722031123
 31
0.0
  0
ARC
  5
A43
330
2
100
AcDbEntity
  8
0
100
AcDbCircle
 10
242.3501133113387
 20
187.3388722031123
 30
0.0
 40
2.0
100
AcDbArc
 50
180.0
 51
270.0
  0
ARC
  5
A44
330
2
100
AcDbEntity
  8
0
100
AcDbCircle
 10
242.3501133113387
 20
181.3388722031123
 30
0.0
 40
2.0
100
AcDbArc
 50
90.0
 51
180.0
  0
ARC
  5
A45
330
2
100
AcDbEntity
  8
0
100
AcDbCircle
 10
242.3501133113387
 20
179.7388882031124
 30
0.0
 40
2.0
100
AcDbArc
 50
180.0
 51
270.0
  0
LINE
  5
A46
330
2
100
AcDbEntity
  8
0
100
AcDbLine
 10
240.3501133113387
 20
181.3388722031123
 30
0.0
 11
240.3501133113387
 21
179.7388882031124
 31
0.0
  0
ARC
  5
A47
330
2
100
AcDbEntity
  8
0
100
AcDbCircle
 10
241.3501133113387
 20
184.3388722031123
 30
0.0
 40
1.0
100
AcDbArc
 50
90.0
 51
270.0
  0
ARC
  5
A48
330
2
100
AcDbEntity
  8
0
100
AcDbCircle
 10
241.3501133113387
 20
176.7388882031124
 30
0.0
 40
1.0
100
AcDbArc
 50
90.0
 51
270.0
  0
ARC
  5
A49
330
2
100
AcDbEntity
  8
0
100
AcDbCircle
 10
242.3501133113387
 20
193.7388882031124
 30
0.0
 40
2.0
100
AcDbArc
 50
90.0
 51
180.0
  0
ARC
  5
A4A
330
2
100
AcDbEntity
  8
0
100
AcDbCircle
 10
242.3501133113387
 20
201.3388722031123
 30
0.0
 40
2.0
100
AcDbArc
 50
90.0
 51
180.0
  0
ARC
  5
A4B
330
2
100
AcDbEntity
  8
0
100
AcDbCircle
 10
272.8501133113387
 20
204.3388722031123
 30
0.0
 40
1.0
100
AcDbArc
 50
270.0
 51
90.0
  0
ARC
  5
A4C
330
2
100
AcDbEntity
  8
0
100
AcDbCircle
 10
272.8501133113387
 20
219.5388842031121
 30
0.0
 40
1.0
100
AcDbArc
 50
270.0
 51
90.0
  0
ARC
  5
A4D
330
2
100
AcDbEntity
  8
0
100
AcDbCircle
 10
272.8501133113387
 20
211.938878203112
 30
0.0
 40
1.0
100
AcDbArc
 50
270.0
 51
90.0
  0
ARC
  5
A4E
330
2
100
AcDbEntity
  8
0
100
AcDbCircle
 10
272.8501133113387
 20
237.461613203112
 30
0.0
 40
1.0
100
AcDbArc
 50
270.0
 51
90.0
  0
ARC
  5
A4F
330
2
100
AcDbEntity
  8
0
100
AcDbCircle
 10
272.8501133113387
 20
226.2174732031122
 30
0.0
 40
1.0
100
AcDbArc
 50
270.0
 51
90.0
  0
ARC
  5
A50
330
2
100
AcDbEntity
  8
0
100
AcDbCircle
 10
272.8501133113387
 20
243.4144032031123
 30
0.0
 40
1.0
100
AcDbArc
 50
270.0
 51
90.0
  0
ARC
  5
A51
330
2
100
AcDbEntity
  8
0
100
AcDbCircle
 10
272.8501133113387
 20
248.685399203112
 30
0.0
 40
1.0
100
AcDbArc
 50
270.0
 51
90.0
  0
ARC
  5
A52
330
2
100
AcDbEntity
  8
0
100
AcDbCircle
 10
272.8501133113387
 20
196.7388882031124
 30
0.0
 40
1.0
100
AcDbArc
 50
270.0
 51
90.0
  0
ARC
  5
A53
330
2
100
AcDbEntity
  8
0
100
AcDbCircle
 10
272.8501133113387
 20
184.3388722031123
 30
0.0
 40
1.0
100
AcDbArc
 50
270.0
 51
90.0
  0
ARC
  5
A54
330
2
100
AcDbEntity
  8
0
100
AcDbCircle
 10
272.8501133113387
 20
176.7388882031124
 30
0.0
 40
1.0
100
AcDbArc
 50
270.0
 51
90.0
  0
LINE
  5
A55
330
2
100
AcDbEntity
  8
0
100
AcDbLine
 10
273.2905423113389
 20
255.8355152031123
 30
0.0
 11
273.7044833113392
 21
253.4882252031121
 31
0.0
  0
ARC
  5
A56
330
2
100
AcDbEntity
  8
0
100
AcDbCircle
 10
272.8501133113387
 20
253.516987203112
 30
0.0
 40
1.0
100
AcDbArc
 50
270.0
 51
90.0
  0
ARC
  5
A57
330
2
100
AcDbEntity
  8
0
100
AcDbCircle
 10
274.6892243113389
 20
253.6618852031121
 30
0.0
 40
1.0
100
AcDbArc
 50
190.0000000000059
 51
270.0
  0
ARC
  5
A58
330
2
100
AcDbEntity
  8
0
100
AcDbCircle
 10
272.3056793113388
 20
255.6618852031121
 30
0.0
 40
1.0
100
AcDbArc
 50
10.00000000000596
 51
90.0
  0
LINE
  5
A59
330
2
100
AcDbEntity
  8
0
100
AcDbLine
 10
293.8501133113387
 20
252.661885203112
 30
0.0
 11
274.6892243113389
 21
252.661885203112
 31
0.0
  0
LINE
  5
A5A
330
2
100
AcDbEntity
  8
0
100
AcDbLine
 10
381.8501133113387
 20
238.161885203112
 30
0.0
 11
310.3501133113387
 21
238.161885203112
 31
0.0
  0
LINE
  5
A5B
330
2
100
AcDbEntity
  8
0
100
AcDbLine
 10
311.8501133113387
 20
225.161885203112
 30
0.0
 11
380.3501133113387
 21
225.161885203112
 31
0.0
  0
LINE
  5
A5C
330
2
100
AcDbEntity
  8
0
100
AcDbLine
 10
378.9500883113388
 20
239.1618852031121
 30
0.0
 11
313.2501373113388
 21
239.1618852031121
 31
0.0
  0
LINE
  5
A5D
330
2
100
AcDbEntity
  8
0
100
AcDbLine
 10
309.349868311339
 20
215.6618772031121
 30
0.0
 11
381.8501133113387
 21
215.6618772031121
 31
0.0
  0
ARC
  5
A5E
330
2
100
AcDbEntity
  8
0
100
AcDbCircle
 10
311.8501133113387
 20
218.661877203112
 30
0.0
 40
3.0
100
AcDbArc
 50
180.0
 51
270.0
  0
ARC
  5
A5F
330
2
100
AcDbEntity
  8
0
100
AcDbCircle
 10
311.8501133113387
 20
228.1618852031121
 30
0.0
 40
3.0
100
AcDbArc
 50
180.0
 51
270.0
  0
ARC
  5
A60
330
2
100
AcDbEntity
  8
0
100
AcDbCircle
 10
313.2501373113388
 20
242.161885203112
 30
0.0
 40
3.0
100
AcDbArc
 50
180.0
 51
270.0
  0
LINE
  5
A61
330
2
100
AcDbEntity
  8
0
100
AcDbLine
 10
308.8501133113387
 20
232.6618852031121
 30
0.0
 11
308.8501133113387
 21
218.661877203112
 31
0.0
  0
LINE
  5
A62
330
2
100
AcDbEntity
  8
0
100
AcDbLine
 10
307.349868311339
 20
216.4080552031124
 30
0.0
 11
307.349868311339
 21
228.2253612031123
 31
0.0
  0
ARC
  5
A63
330
2
100
AcDbEntity
  8
0
100
AcDbCircle
 10
309.349868311339
 20
217.6618772031121
 30
0.0
 40
2.0
100
AcDbArc
 50
180.0
 51
270.0
  0
ARC
  5
A64
330
2
100
AcDbEntity
  8
0
100
AcDbCircle
 10
308.6001133113387
 20
208.1618772031121
 30
0.0
 40
0.75
100
AcDbArc
 50
0.0
 51
180.0
  0
ARC
  5
A65
330
2
100
AcDbEntity
  8
0
100
AcDbCircle
 10
307.1001133113387
 20
208.1618772031121
 30
0.0
 40
0.75
100
AcDbArc
 50
0.0
 51
180.0
  0
LINE
  5
A66
330
2
100
AcDbEntity
  8
0
100
AcDbLine
 10
307.349868311339
 20
234.5982712031124
 30
0.0
 11
307.349868311339
 21
250.6619312031121
 31
0.0
  0
ARC
  5
A67
330
2
100
AcDbEntity
  8
0
100
AcDbCircle
 10
307.8501133113387
 20
232.6618852031121
 30
0.0
 40
1.0
100
AcDbArc
 50
0.0
 51
75.51628099999304
  0
ARC
  5
A68
330
2
100
AcDbEntity
  8
0
100
AcDbCircle
 10
308.350357311339
 20
234.5982712031124
 30
0.0
 40
1.0
100
AcDbArc
 50
180.0
 51
255.516280999993
  0
ARC
  5
A69
330
2
100
AcDbEntity
  8
0
100
AcDbCircle
 10
307.8501133113387
 20
230.1618852031121
 30
0.0
 40
1.0
100
AcDbArc
 50
284.476990000002
 51
0.0
  0
ARC
  5
A6A
330
2
100
AcDbEntity
  8
0
100
AcDbCircle
 10
308.3501133113387
 20
228.2253612031123
 30
0.0
 40
1.0
100
AcDbArc
 50
104.4776000000047
 51
180.0
  0
ARC
  5
A6B
330
2
100
AcDbEntity
  8
0
100
AcDbCircle
 10
310.3501133113387
 20
241.1618852031121
 30
0.0
 40
3.0
100
AcDbArc
 50
180.0
 51
270.0
  0
ARC
  5
A6C
330
2
100
AcDbEntity
  8
0
100
AcDbCircle
 10
306.3501133113387
 20
250.6619762031124
 30
0.0
 40
1.0
100
AcDbArc
 50
0.0
 51
90.0
  0
LINE
  5
A6D
330
2
100
AcDbEntity
  8
0
100
AcDbLine
 10
310.2501373113387
 20
242.161885203112
 30
0.0
 11
310.2501373113387
 21
250.6619762031124
 31
0.0
  0
ARC
  5
A6E
330
2
100
AcDbEntity
  8
0
100
AcDbCircle
 10
309.2501373113388
 20
250.6619762031124
 30
0.0
 40
1.0
100
AcDbArc
 50
0.0
 51
90.0
  0
ARC
  5
A6F
330
2
100
AcDbEntity
  8
0
100
AcDbCircle
 10
307.8501133113387
 20
208.1618772031121
 30
0.0
 40
5.0
100
AcDbArc
 50
198.6629180000028
 51
243.8990019999889
  0
ARC
  5
A70
330
2
100
AcDbEntity
  8
0
100
AcDbCircle
 10
307.8501133113387
 20
208.1618772031121
 30
0.0
 40
5.0
100
AcDbArc
 50
116.100998000011
 51
161.3368989999863
  0
ARC
  5
A71
330
2
100
AcDbEntity
  8
0
100
AcDbCircle
 10
302.3501133113387
 20
216.4080552031124
 30
0.0
 40
5.0
100
AcDbArc
 50
311.3043790000037
 51
0.0
  0
ARC
  5
A72
330
2
100
AcDbEntity
  8
0
100
AcDbCircle
 10
307.8501133113387
 20
208.1618772031121
 30
0.0
 40
3.0
100
AcDbArc
 50
300.0000609999943
 51
239.9998930000032
  0
LINE
  5
A73
330
2
100
AcDbEntity
  8
0
100
AcDbLine
 10
301.3501133113387
 20
209.7618762031121
 30
0.0
 11
301.3501133113387
 21
206.5618792031124
 31
0.0
  0
LINE
  5
A74
330
2
100
AcDbEntity
  8
0
100
AcDbLine
 10
297.8501133113387
 20
209.7618762031121
 30
0.0
 11
305.3123933113389
 21
209.7618762031121
 31
0.0
  0
LINE
  5
A75
330
2
100
AcDbEntity
  8
0
100
AcDbLine
 10
297.8501133113387
 20
206.5618792031124
 30
0.0
 11
305.3123933113389
 21
206.5618792031124
 31
0.0
  0
LINE
  5
A76
330
2
100
AcDbEntity
  8
0
100
AcDbLine
 10
309.2501373113388
 20
251.6619762031124
 30
0.0
 11
297.8501133113387
 21
251.6619762031124
 31
0.0
  0
ARC
  5
A77
330
2
100
AcDbEntity
  8
0
100
AcDbCircle
 10
345.3501133113387
 20
178.6618772031121
 30
0.0
 40
3.0
100
AcDbArc
 50
0.0
 51
90.0
  0
ARC
  5
A78
330
2
100
AcDbEntity
  8
0
100
AcDbCircle
 10
317.3501133113387
 20
178.6618772031121
 30
0.0
 40
3.0
100
AcDbArc
 50
90.0
 51
180.0
  0
LINE
  5
A79
330
2
100
AcDbEntity
  8
HOJO
100
AcDbLine
 10
306.3501133113387
 20
184.2468842031122
 30
0.0
 11
307.8501133113385
 21
185.9719063221306
 31
0.0
  0
LINE
  5
A7A
330
2
100
AcDbEntity
  8
HOJO
100
AcDbLine
 10
307.8501133113387
 20
184.7942322031123
 30
0.0
 11
309.3501133113387
 21
183.8942660287303
 31
0.0
  0
LINE
  5
A7B
330
2
100
AcDbEntity
  8
0
100
AcDbLine
 10
317.3501133113387
 20
181.6618772031121
 30
0.0
 11
345.3501133113387
 21
181.6618772031121
 31
0.0
  0
LINE
  5
A7C
330
2
100
AcDbEntity
  8
0
100
AcDbLine
 10
309.3501133113387
 20
208.1618772031121
 30
0.0
 11
309.3501133113387
 21
183.8942660287303
 31
0.0
  0
LINE
  5
A7D
330
2
100
AcDbEntity
  8
0
100
AcDbLine
 10
307.8501133113387
 20
208.1618772031121
 30
0.0
 11
307.8501133113387
 21
184.7942322031123
 31
0.0
  0
LINE
  5
A7E
330
2
100
AcDbEntity
  8
0
100
AcDbLine
 10
306.3501133113387
 20
208.1618772031121
 30
0.0
 11
306.3501133113387
 21
184.2468842031122
 31
0.0
  0
ARC
  5
A7F
330
2
100
AcDbEntity
  8
0
100
AcDbCircle
 10
302.3501133113387
 20
199.9156612031121
 30
0.0
 40
5.0
100
AcDbArc
 50
36.86990000001385
 51
48.69551099999145
  0
ARC
  5
A80
330
2
100
AcDbEntity
  8
0
100
AcDbCircle
 10
302.3501133113387
 20
199.915677203112
 30
0.0
 40
5.0
100
AcDbArc
 50
36.86990000001385
 51
48.69551099999145
  0
LINE
  5
A81
330
2
100
AcDbEntity
  8
0
100
AcDbLine
 10
383.3501133113387
 20
232.6618852031121
 30
0.0
 11
383.3501133113387
 21
218.661877203112
 31
0.0
  0
ARC
  5
A82
330
2
100
AcDbEntity
  8
0
100
AcDbCircle
 10
380.3501133113387
 20
218.661877203112
 30
0.0
 40
3.0
100
AcDbArc
 50
270.0
 51
0.0
  0
ARC
  5
A83
330
2
100
AcDbEntity
  8
0
100
AcDbCircle
 10
381.8501133113387
 20
218.661877203112
 30
0.0
 40
3.0
100
AcDbArc
 50
270.0
 51
0.0
  0
ARC
  5
A84
330
2
100
AcDbEntity
  8
0
100
AcDbCircle
 10
380.3501133113387
 20
228.1618852031121
 30
0.0
 40
3.0
100
AcDbArc
 50
270.0
 51
0.0
  0
ARC
  5
A85
330
2
100
AcDbEntity
  8
0
100
AcDbCircle
 10
378.9500883113388
 20
242.161885203112
 30
0.0
 40
3.0
100
AcDbArc
 50
270.0
 51
0.0
  0
LINE
  5
A86
330
2
100
AcDbEntity
  8
0
100
AcDbLine
 10
384.849868311339
 20
250.661885203112
 30
0.0
 11
384.849868311339
 21
234.5982712031124
 31
0.0
  0
ARC
  5
A87
330
2
100
AcDbEntity
  8
0
100
AcDbCircle
 10
384.3501133113387
 20
232.6618852031121
 30
0.0
 40
1.0
100
AcDbArc
 50
104.4848020000044
 51
180.0
  0
ARC
  5
A88
330
2
100
AcDbEntity
  8
0
100
AcDbCircle
 10
383.849868311339
 20
234.5982712031124
 30
0.0
 40
1.0
100
AcDbArc
 50
284.4813999999918
 51
0.0
  0
ARC
  5
A89
330
2
100
AcDbEntity
  8
0
100
AcDbCircle
 10
384.3501133113387
 20
230.1618852031121
 30
0.0
 40
1.0
100
AcDbArc
 50
180.0
 51
255.5227969999957
  0
ARC
  5
A8A
330
2
100
AcDbEntity
  8
0
100
AcDbCircle
 10
383.8501133113387
 20
228.2253612031123
 30
0.0
 40
1.0
100
AcDbArc
 50
0.0
 51
75.52239999999521
  0
LINE
  5
A8B
330
2
100
AcDbEntity
  8
0
100
AcDbLine
 10
382.9500883113388
 20
251.6619152031122
 30
0.0
 11
394.3501133113387
 21
251.6619762031124
 31
0.0
  0
ARC
  5
A8C
330
2
100
AcDbEntity
  8
0
100
AcDbCircle
 10
381.8501133113387
 20
241.1618852031121
 30
0.0
 40
3.0
100
AcDbArc
 50
270.0
 51
0.0
  0
ARC
  5
A8D
330
2
100
AcDbEntity
  8
0
100
AcDbCircle
 10
385.850357311339
 20
250.661885203112
 30
0.0
 40
1.0
100
AcDbArc
 50
90.0
 51
180.0
  0
LINE
  5
A8E
330
2
100
AcDbEntity
  8
0
100
AcDbLine
 10
381.9500883113388
 20
242.161885203112
 30
0.0
 11
381.9500883113388
 21
250.6619152031122
 31
0.0
  0
ARC
  5
A8F
330
2
100
AcDbEntity
  8
0
100
AcDbCircle
 10
382.9500883113388
 20
250.6619152031122
 30
0.0
 40
1.0
100
AcDbArc
 50
90.0
 51
180.0
  0
LINE
  5
A90
330
2
100
AcDbEntity
  8
0
100
AcDbLine
 10
399.6994783113387
 20
251.848775203112
 30
0.0
 11
394.3501133113387
 21
251.6617932031123
 31
0.0
  0
ARC
  5
A91
330
2
100
AcDbEntity
  8
0
100
AcDbCircle
 10
359.8501133113387
 20
208.1618772031121
 30
0.0
 40
3.0
100
AcDbArc
 50
300.0000609999943
 51
239.9998930000032
  0
LINE
  5
A92
330
2
100
AcDbEntity
  8
0
100
AcDbLine
 10
354.3501133113387
 20
213.6618772031121
 30
0.0
 11
354.3501133113387
 21
208.1618772031121
 31
0.0
  0
LINE
  5
A93
330
2
100
AcDbEntity
  8
0
100
AcDbLine
 10
365.3502353113391
 20
213.6618772031121
 30
0.0
 11
365.3501133113387
 21
208.1618772031121
 31
0.0
  0
ARC
  5
A94
330
2
100
AcDbEntity
  8
0
100
AcDbCircle
 10
367.3501133113387
 20
213.6618772031121
 30
0.0
 40
2.0
100
AcDbArc
 50
90.0
 51
180.0
  0
ARC
  5
A95
330
2
100
AcDbEntity
  8
0
100
AcDbCircle
 10
360.6001133113387
 20
208.1618772031121
 30
0.0
 40
0.75
100
AcDbArc
 50
0.0
 51
180.0
  0
ARC
  5
A96
330
2
100
AcDbEntity
  8
0
100
AcDbCircle
 10
359.1001133113387
 20
208.1618772031121
 30
0.0
 40
0.75
100
AcDbArc
 50
0.0
 51
180.0
  0
ARC
  5
A97
330
2
100
AcDbEntity
  8
0
100
AcDbCircle
 10
352.3501133113387
 20
213.6618772031121
 30
0.0
 40
2.0
100
AcDbArc
 50
0.0
 51
90.0
  0
LINE
  5
A98
330
2
100
AcDbEntity
  8
0
100
AcDbLine
 10
376.3501133113387
 20
181.6618772031121
 30
0.0
 11
356.8501133113387
 21
181.6618772031121
 31
0.0
  0
ARC
  5
A99
330
2
100
AcDbEntity
  8
0
100
AcDbCircle
 10
356.8501133113387
 20
178.6618772031121
 30
0.0
 40
3.0
100
AcDbArc
 50
90.0
 51
180.0
  0
LINE
  5
A9A
330
2
100
AcDbEntity
  8
HOJO
100
AcDbLine
 10
358.3501133113387
 20
183.9700132031122
 30
0.0
 11
359.8501133113387
 21
185.2075012031124
 31
0.0
  0
LINE
  5
A9B
330
2
100
AcDbEntity
  8
HOJO
100
AcDbLine
 10
359.8501133113387
 20
184.085095203112
 30
0.0
 11
361.3501133113387
 21
183.2279482031123
 31
0.0
  0
ARC
  5
A9C
330
2
100
AcDbEntity
  8
0
100
AcDbCircle
 10
376.3501133113387
 20
178.6618772031121
 30
0.0
 40
3.0
100
AcDbArc
 50
0.0
 51
90.0
  0
ARC
  5
A9D
330
2
100
AcDbEntity
  8
0
100
AcDbCircle
 10
359.8501133113387
 20
208.1618772031121
 30
0.0
 40
5.5
100
AcDbArc
 50
180.0
 51
254.1733859999997
  0
ARC
  5
A9E
330
2
100
AcDbEntity
  8
0
100
AcDbCircle
 10
359.8501133113387
 20
208.1618772031121
 30
0.0
 40
5.5
100
AcDbArc
 50
285.8266219999945
 51
0.0
  0
LINE
  5
A9F
330
2
100
AcDbEntity
  8
0
100
AcDbLine
 10
358.3501133113387
 20
208.1618772031121
 30
0.0
 11
358.3501133113387
 21
183.9700132031122
 31
0.0
  0
LINE
  5
AA0
330
2
100
AcDbEntity
  8
0
100
AcDbLine
 10
359.8501133113387
 20
208.1618772031121
 30
0.0
 11
359.8501133113387
 21
184.085095203112
 31
0.0
  0
LINE
  5
AA1
330
2
100
AcDbEntity
  8
0
100
AcDbLine
 10
361.3501133113387
 20
208.1618772031121
 30
0.0
 11
361.3501133113387
 21
183.2279482031123
 31
0.0
  0
ELLIPSE
  5
AA2
330
2
100
AcDbEntity
  8
0
100
AcDbEllipse
 10
228.3845363113401
 20
472.3974610372821
 30
0.0
 11
7.0
 21
0.0
 31
0.0
210
0.0
220
0.0
230
1.0
 40
0.4285714285714286
 41
4.712388980384689
 42
6.283185307179586
  0
LINE
  5
AA3
330
2
100
AcDbEntity
  8
0
100
AcDbLine
 10
159.0171053113391
 20
673.6612475212011
 30
0.0
 11
271.683487311339
 21
673.6612475212011
 31
0.0
  0
LINE
  5
AA4
330
2
100
AcDbEntity
  8
0
100
AcDbLine
 10
271.5030673113389
 20
669.3605885212011
 30
0.0
 11
159.1975253113393
 21
669.3605885212011
 31
0.0
  0
LINE
  5
AA5
330
2
100
AcDbEntity
  8
0
100
AcDbLine
 10
271.377334311339
 20
665.886192521201
 30
0.0
 11
159.3232573113392
 21
665.886192521201
 31
0.0
  0
LINE
  5
AA6
330
2
100
AcDbEntity
  8
0
100
AcDbLine
 10
271.050430311339
 20
657.8436205212011
 30
0.0
 11
159.6501613113388
 21
657.8436205212011
 31
0.0
  0
LINE
  5
AA7
330
2
100
AcDbEntity
  8
0
100
AcDbLine
 10
270.734146311339
 20
651.7986985212011
 30
0.0
 11
159.9663233113389
 21
651.7986985212011
 31
0.0
  0
LINE
  5
AA8
330
2
100
AcDbEntity
  8
0
100
AcDbLine
 10
158.6660303113391
 20
671.9222035212011
 30
0.0
 11
272.0345613113392
 21
671.9222035212011
 31
0.0
  0
LINE
  5
AA9
330
2
100
AcDbEntity
  8
0
100
AcDbLine
 10
271.4875643113392
 20
674.6322255212013
 30
0.0
 11
159.2130283113389
 21
674.6322255212013
 31
0.0
  0
LINE
  5
AAA
330
2
100
AcDbEntity
  8
0
100
AcDbLine
 10
229.1386873113389
 20
525.3733923941659
 30
0.0
 11
157.6726223113402
 21
525.3733923941659
 31
0.0
  0
LINE
  5
AAB
330
2
100
AcDbEntity
  8
0
100
AcDbLine
 10
271.6538233113388
 20
639.3211595212011
 30
0.0
 11
159.0467683113389
 21
639.3211595212011
 31
0.0
  0
LINE
  5
AAC
330
2
100
AcDbEntity
  8
0
100
AcDbLine
 10
156.8502353113391
 20
631.6229485212012
 30
0.0
 11
273.8502353113391
 21
631.6229485212012
 31
0.0
  0
LINE
  5
AAD
330
2
100
AcDbEntity
  8
0
100
AcDbLine
 10
156.8502353113391
 20
576.4118275212009
 30
0.0
 11
273.8502353113391
 21
576.4118275212009
 31
0.0
  0
LINE
  5
AAE
330
2
100
AcDbEntity
  8
0
100
AcDbLine
 10
271.050430311339
 20
531.908195521201
 30
0.0
 11
159.6501613113388
 21
531.908195521201
 31
0.0
  0
LINE
  5
AAF
330
2
100
AcDbEntity
  8
0
100
AcDbLine
 10
270.734146311339
 20
537.9531175212011
 30
0.0
 11
159.9663233113389
 21
537.9531175212011
 31
0.0
  0
LINE
  5
AB0
330
2
100
AcDbEntity
  8
0
100
AcDbLine
 10
270.4925693113387
 20
546.9428945212013
 30
0.0
 11
160.207901311339
 21
546.9428945212013
 31
0.0
  0
LINE
  5
AB1
330
2
100
AcDbEntity
  8
0
100
AcDbLine
 10
271.6538233113388
 20
568.7136155212011
 30
0.0
 11
159.0467683113389
 21
568.7136155212011
 31
0.0
  0
LINE
  5
AB2
330
2
100
AcDbEntity
  8
0
100
AcDbLine
 10
160.207901311339
 20
555.5712205212013
 30
0.0
 11
270.4925693113387
 21
555.5712205212013
 31
0.0
  0
LINE
  5
AB3
330
2
100
AcDbEntity
  8
0
100
AcDbLine
 10
161.7622323024594
 20
484.9334780878085
 30
0.0
 11
225.521980585701
 21
518.5941932241831
 31
0.0
  0
LINE
  5
AB4
330
2
100
AcDbEntity
  8
0
100
AcDbLine
 10
162.0908228275772
 20
483.0017093484762
 30
0.0
 11
226.4508078275813
 21
516.9793077486862
 31
0.0
  0
LINE
  5
AB5
330
2
100
AcDbEntity
  8
0
100
AcDbLine
 10
160.080948023498
 20
489.4371564991193
 30
0.0
 11
224.0868079589114
 21
523.2278014805534
 31
0.0
  0
LINE
  5
AB6
330
2
100
AcDbEntity
  8
0
100
AcDbLine
 10
158.0620273113392
 20
638.4948045212009
 30
0.0
 11
156.8502353113391
 21
631.6229485212012
 31
0.0
  0
LINE
  5
AB7
330
2
100
AcDbEntity
  8
0
100
AcDbLine
 10
153.8502353113391
 20
666.875908521201
 30
0.0
 11
153.8502353113391
 21
522.8759085212005
 31
0.0
  0
LINE
  5
AB8
330
2
100
AcDbEntity
  8
0
100
AcDbLine
 10
152.8502353113391
 20
675.875908521201
 30
0.0
 11
152.8502353113393
 21
513.8759385212011
 31
0.0
  0
ARC
  5
AB9
330
2
100
AcDbEntity
  8
0
100
AcDbCircle
 10
514.0632473113388
 20
594.875908521201
 30
0.0
 40
400.0
100
AcDbArc
 50
168.5511779999877
 51
191.4488220000122
  0
ARC
  5
ABA
330
2
100
AcDbEntity
  8
0
100
AcDbCircle
 10
514.350357311339
 20
594.875908521201
 30
0.0
 40
420.0
100
AcDbArc
 50
171.0953219999952
 51
188.9046780000047
  0
LINE
  5
ABB
330
2
100
AcDbEntity
  8
0
100
AcDbLine
 10
159.2231593113389
 20
547.769249521201
 30
0.0
 11
156.8502353113391
 21
561.2263725212011
 31
0.0
  0
LINE
  5
ABC
330
2
100
AcDbEntity
  8
0
100
AcDbLine
 10
159.2231593113389
 20
556.397575521201
 30
0.0
 11
156.8502353113391
 21
569.8546985212011
 31
0.0
  0
LINE
  5
ABD
330
2
100
AcDbEntity
  8
0
100
AcDbLine
 10
152.8502353113393
 20
513.8759385212011
 30
0.0
 11
123.9824373113389
 21
513.8759385212011
 31
0.0
  0
LINE
  5
ABE
330
2
100
AcDbEntity
  8
0
100
AcDbLine
 10
112.2557523113388
 20
518.8759385212011
 30
0.0
 11
120.5482333113392
 21
518.803551521201
 31
0.0
  0
ARC
  5
ABF
330
2
100
AcDbEntity
  8
0
100
AcDbCircle
 10
120.5395663113391
 20
517.8035815212012
 30
0.0
 40
1.0
100
AcDbArc
 50
11.08122099999241
 51
89.49999999999542
  0
ARC
  5
AC0
330
2
100
AcDbEntity
  8
0
100
AcDbCircle
 10
123.9824373113389
 20
515.8759385212012
 30
0.0
 40
2.0
100
AcDbArc
 50
191.4488220000122
 51
270.0
  0
ARC
  5
AC1
330
2
100
AcDbEntity
  8
0
100
AcDbCircle
 10
112.2557523113388
 20
531.875908521201
 30
0.0
 40
13.0
100
AcDbArc
 50
188.9046780000047
 51
270.0
  0
LINE
  5
AC2
330
2
100
AcDbEntity
  8
0
100
AcDbLine
 10
158.2182996377072
 20
525.3733923941659
 30
0.0
 11
156.8502353113391
 21
533.1315845212012
 31
0.0
  0
LINE
  5
AC3
330
2
100
AcDbEntity
  8
0
100
AcDbLine
 10
154.6726223113402
 20
522.8759085212001
 30
0.0
 11
153.8502353113391
 21
522.8759085212005
 31
0.0
  0
ELLIPSE
  5
AC4
330
2
100
AcDbEntity
  8
0
100
AcDbEllipse
 10
157.6726223113402
 20
523.8733923941659
 30
0.0
 11
-3.0
 21
0.0
 31
0.0
210
0.0
220
0.0
230
1.0
 40
0.5
 41
4.712388980384689
 42
6.283185307179586
  0
LINE
  5
AC5
330
2
100
AcDbEntity
  8
0
100
AcDbLine
 10
152.8502353113391
 20
524.375908521201
 30
0.0
 11
153.8502353113391
 21
524.375908521201
 31
0.0
  0
LINE
  5
AC6
330
2
100
AcDbEntity
  8
0
100
AcDbLine
 10
158.9815823113391
 20
538.7794725212012
 30
0.0
 11
156.8502353113391
 21
550.8666005212013
 31
0.0
  0
LINE
  5
AC7
330
2
100
AcDbEntity
  8
0
100
AcDbLine
 10
158.6652983113391
 20
532.7345505212012
 30
0.0
 11
156.8502353113391
 21
543.0279775212012
 31
0.0
  0
ARC
  5
AC8
330
2
100
AcDbEntity
  8
0
100
AcDbCircle
 10
159.9663233113389
 20
538.953117521201
 30
0.0
 40
1.0
100
AcDbArc
 50
190.0000000000059
 51
270.0
  0
ARC
  5
AC9
330
2
100
AcDbEntity
  8
0
100
AcDbCircle
 10
160.207901311339
 20
547.9428945212013
 30
0.0
 40
1.0
100
AcDbArc
 50
190.0000000000059
 51
270.0
  0
ARC
  5
ACA
330
2
100
AcDbEntity
  8
0
100
AcDbCircle
 10
160.207901311339
 20
556.5712205212013
 30
0.0
 40
1.0
100
AcDbArc
 50
190.0000000000059
 51
270.0
  0
ARC
  5
ACB
330
2
100
AcDbEntity
  8
0
100
AcDbCircle
 10
159.6501613113388
 20
532.908195521201
 30
0.0
 40
1.0
100
AcDbArc
 50
190.0000000000059
 51
270.0
  0
ELLIPSE
  5
ACC
330
2
100
AcDbEntity
  8
0
100
AcDbEllipse
 10
161.4815407491402
 20
486.7841695001162
 30
0.0
 11
-10.00000000000064
 21
-5.279304897320891
 31
0.0
210
0.0
220
0.0
230
0.9999999999999998
 40
0.2652986999005009
 41
4.712388980384689
 42
5.865822628019043
  0
LINE
  5
ACD
330
2
100
AcDbEntity
  8
0
100
AcDbLine
 10
154.6726223113402
 20
485.9877254730205
 30
0.0
 11
154.6726223113402
 21
523.8733923941659
 31
0.0
  0
LINE
  5
ACE
330
2
100
AcDbEntity
  8
0
100
AcDbLine
 10
156.8502353113391
 20
576.4118275212009
 30
0.0
 11
156.8502353113391
 21
631.6229485212012
 31
0.0
  0
ARC
  5
ACF
330
2
100
AcDbEntity
  8
0
100
AcDbCircle
 10
159.0467683113389
 20
569.7136155212011
 30
0.0
 40
1.0
100
AcDbArc
 50
190.0000000000059
 51
270.0
  0
LINE
  5
AD0
330
2
100
AcDbEntity
  8
0
100
AcDbLine
 10
158.0620273113392
 20
569.5399705212013
 30
0.0
 11
156.8502353113391
 21
576.4118275212009
 31
0.0
  0
LINE
  5
AD1
330
2
100
AcDbEntity
  8
0
100
AcDbLine
 10
152.8502353113391
 20
675.875908521201
 30
0.0
 11
123.9824373113389
 21
675.875908521201
 31
0.0
  0
LINE
  5
AD2
330
2
100
AcDbEntity
  8
0
100
AcDbLine
 10
112.2557523113388
 20
670.875908521201
 30
0.0
 11
120.5482333113392
 21
670.9482965212011
 31
0.0
  0
ARC
  5
AD3
330
2
100
AcDbEntity
  8
0
100
AcDbCircle
 10
120.5395663113391
 20
671.948234521201
 30
0.0
 40
1.0
100
AcDbArc
 50
270.5000000000045
 51
348.9187930000138
  0
ARC
  5
AD4
330
2
100
AcDbEntity
  8
0
100
AcDbCircle
 10
123.9824373113389
 20
673.875908521201
 30
0.0
 40
2.0
100
AcDbArc
 50
90.0
 51
168.5511779999877
  0
ARC
  5
AD5
330
2
100
AcDbEntity
  8
0
100
AcDbCircle
 10
112.2557523113388
 20
657.875908521201
 30
0.0
 40
13.0
100
AcDbArc
 50
90.0
 51
171.0953219999952
  0
ARC
  5
AD6
330
2
100
AcDbEntity
  8
0
100
AcDbCircle
 10
159.2130283113389
 20
673.6322255212013
 30
0.0
 40
1.0
100
AcDbArc
 50
90.0
 51
168.588744999998
  0
LINE
  5
AD7
330
2
100
AcDbEntity
  8
0
100
AcDbLine
 10
152.8502353113391
 20
665.375908521201
 30
0.0
 11
153.8502353113391
 21
665.375908521201
 31
0.0
  0
LINE
  5
AD8
330
2
100
AcDbEntity
  8
0
100
AcDbLine
 10
152.8502353113391
 20
665.375908521201
 30
0.0
 11
153.8502353113391
 21
665.375908521201
 31
0.0
  0
LINE
  5
AD9
330
2
100
AcDbEntity
  8
0
100
AcDbLine
 10
156.011123311339
 20
666.875908521201
 30
0.0
 11
153.8502353113391
 21
666.875908521201
 31
0.0
  0
LINE
  5
ADA
330
2
100
AcDbEntity
  8
0
100
AcDbLine
 10
158.2328033113391
 20
673.830070521201
 30
0.0
 11
156.995987311339
 21
667.7022635212011
 31
0.0
  0
ARC
  5
ADB
330
2
100
AcDbEntity
  8
0
100
AcDbCircle
 10
156.011123311339
 20
667.875908521201
 30
0.0
 40
1.0
100
AcDbArc
 50
270.0
 51
349.999999999994
  0
ARC
  5
ADC
330
2
100
AcDbEntity
  8
0
100
AcDbCircle
 10
158.6660303113391
 20
670.9222035212011
 30
0.0
 40
1.0
100
AcDbArc
 50
90.0
 51
168.588744999998
  0
ARC
  5
ADD
330
2
100
AcDbEntity
  8
0
100
AcDbCircle
 10
159.0171053113391
 20
672.661247521201
 30
0.0
 40
1.0
100
AcDbArc
 50
90.0
 51
168.588744999998
  0
ARC
  5
ADE
330
2
100
AcDbEntity
  8
0
100
AcDbCircle
 10
159.3232573113392
 20
664.886192521201
 30
0.0
 40
1.0
100
AcDbArc
 50
90.0
 51
169.999999999994
  0
ARC
  5
ADF
330
2
100
AcDbEntity
  8
0
100
AcDbCircle
 10
159.1975253113393
 20
668.360588521201
 30
0.0
 40
1.0
100
AcDbArc
 50
90.0
 51
169.999999999994
  0
ARC
  5
AE0
330
2
100
AcDbEntity
  8
0
100
AcDbCircle
 10
159.9663233113389
 20
650.7986985212011
 30
0.0
 40
1.0
100
AcDbArc
 50
90.0
 51
169.999999999994
  0
ARC
  5
AE1
330
2
100
AcDbEntity
  8
0
100
AcDbCircle
 10
159.6501613113388
 20
656.8436205212011
 30
0.0
 40
1.0
100
AcDbArc
 50
90.0
 51
169.999999999994
  0
LINE
  5
AE2
330
2
100
AcDbEntity
  8
0
100
AcDbLine
 10
158.3383943113391
 20
665.0598375212013
 30
0.0
 11
156.8502353113391
 21
656.6202325212012
 31
0.0
  0
LINE
  5
AE3
330
2
100
AcDbEntity
  8
0
100
AcDbLine
 10
158.2126613113388
 20
668.5342335212014
 30
0.0
 11
156.8502353113391
 21
660.8074875212011
 31
0.0
  0
LINE
  5
AE4
330
2
100
AcDbEntity
  8
0
100
AcDbLine
 10
158.6652983113391
 20
657.017265521201
 30
0.0
 11
156.8502353113391
 21
646.7238395212013
 31
0.0
  0
ARC
  5
AE5
330
2
100
AcDbEntity
  8
0
100
AcDbCircle
 10
159.0467683113389
 20
638.3211595212011
 30
0.0
 40
1.0
100
AcDbArc
 50
90.0
 51
169.999999999994
  0
LINE
  5
AE6
330
2
100
AcDbEntity
  8
0
100
AcDbLine
 10
158.9815823113391
 20
650.9723435212014
 30
0.0
 11
156.8502353113391
 21
638.8852165212012
 31
0.0
  0
LINE
  5
AE7
330
2
100
AcDbEntity
  8
0
100
AcDbLine
 10
383.7219393113392
 20
622.7973255212011
 30
0.0
 11
384.219253311339
 21
641.7842035212012
 31
0.0
  0
LINE
  5
AE8
330
2
100
AcDbEntity
  8
0
100
AcDbLine
 10
394.3502353113391
 20
523.875908521201
 30
0.0
 11
394.3502353113391
 21
665.875908521201
 31
0.0
  0
LINE
  5
AE9
330
2
100
AcDbEntity
  8
0
100
AcDbLine
 10
383.3502353113391
 20
632.875908521201
 30
0.0
 11
383.3502353113391
 21
646.901817521201
 31
0.0
  0
LINE
  5
AEA
330
2
100
AcDbEntity
  8
0
100
AcDbLine
 10
308.4785303113391
 20
622.7973255212011
 30
0.0
 11
307.9813383113388
 21
641.7842035212012
 31
0.0
  0
LINE
  5
AEB
330
2
100
AcDbEntity
  8
0
100
AcDbLine
 10
272.638565311339
 20
638.4948045212009
 30
0.0
 11
273.8502353113391
 21
631.6229485212012
 31
0.0
  0
LINE
  5
AEC
330
2
100
AcDbEntity
  8
0
100
AcDbLine
 10
297.8502353113391
 20
665.8759995212009
 30
0.0
 11
297.8502353113391
 21
523.8758165212012
 31
0.0
  0
LINE
  5
AED
330
2
100
AcDbEntity
  8
0
100
AcDbLine
 10
293.8502353113391
 20
666.875908521201
 30
0.0
 11
293.8502353113391
 21
522.875908521201
 31
0.0
  0
LINE
  5
AEE
330
2
100
AcDbEntity
  8
0
100
AcDbLine
 10
308.8502353113391
 20
632.875908521201
 30
0.0
 11
308.8502353113391
 21
646.901817521201
 31
0.0
  0
LINE
  5
AEF
330
2
100
AcDbEntity
  8
0
100
AcDbLine
 10
297.8502353113391
 20
523.8758165212012
 30
0.0
 11
293.8502353113391
 21
523.8758165212012
 31
0.0
  0
LINE
  5
AF0
330
2
100
AcDbEntity
  8
0
100
AcDbLine
 10
271.4774323113389
 20
547.769249521201
 30
0.0
 11
273.8502353113391
 21
561.2263725212011
 31
0.0
  0
LINE
  5
AF1
330
2
100
AcDbEntity
  8
0
100
AcDbLine
 10
271.4774323113389
 20
556.397575521201
 30
0.0
 11
273.8502353113391
 21
569.8546985212011
 31
0.0
  0
LINE
  5
AF2
330
2
100
AcDbEntity
  8
0
100
AcDbLine
 10
235.0580909318463
 20
523.8656235212012
 30
0.0
 11
271.377334311339
 21
523.8656235212012
 31
0.0
  0
LINE
  5
AF3
330
2
100
AcDbEntity
  8
0
100
AcDbLine
 10
271.4875643113392
 20
515.1195915212012
 30
0.0
 11
242.330459311339
 21
515.1195915212012
 31
0.0
  0
LINE
  5
AF4
330
2
100
AcDbEntity
  8
0
100
AcDbLine
 10
271.5030673113389
 20
520.391228521201
 30
0.0
 11
240.4481353113388
 21
520.391228521201
 31
0.0
  0
LINE
  5
AF5
330
2
100
AcDbEntity
  8
0
100
AcDbLine
 10
242.1345363113388
 20
516.0905685212011
 30
0.0
 11
271.683487311339
 21
516.0905685212011
 31
0.0
  0
LINE
  5
AF6
330
2
100
AcDbEntity
  8
0
100
AcDbLine
 10
241.7834623113391
 20
517.8296135212009
 30
0.0
 11
272.0345613113392
 21
517.8296135212009
 31
0.0
  0
LINE
  5
AF7
330
2
100
AcDbEntity
  8
0
100
AcDbLine
 10
236.9225733113379
 20
517.579796521201
 30
0.0
 11
239.9893953113388
 21
517.579796521201
 31
0.0
  0
LINE
  5
AF8
330
2
100
AcDbEntity
  8
0
100
AcDbLine
 10
240.3502353113391
 20
520.875908521201
 30
0.0
 11
236.636452635956
 21
520.875908521201
 31
0.0
  0
ELLIPSE
  5
AF9
330
2
100
AcDbEntity
  8
0
100
AcDbEllipse
 10
226.9225733113381
 20
515.9412062251773
 30
0.0
 11
-9.999999999999911
 21
-5.279304897322332
 31
0.0
210
0.0
220
0.0
230
1.0
 40
0.2652986999005146
 41
3.68052509647424
 42
4.712388980384689
  0
LINE
  5
AFA
330
2
100
AcDbEntity
  8
0
100
AcDbLine
 10
236.9225733113381
 20
515.6895650355369
 30
0.0
 11
236.9225733113381
 21
519.8384188874739
 31
0.0
  0
ARC
  5
AFB
330
2
100
AcDbEntity
  8
0
100
AcDbCircle
 10
234.3845363113401
 20
518.7894045471222
 30
0.0
 40
1.0
100
AcDbArc
 50
0.0
 51
90.42736781623807
  0
ELLIPSE
  5
AFC
330
2
100
AcDbEntity
  8
0
100
AcDbEllipse
 10
227.3845363113401
 20
515.2106497493497
 30
0.0
 11
8.0
 21
4.22344391785765
 31
0.0
210
0.0
220
0.0
230
1.0
 40
0.2210822499170975
 41
6.686279948659469
 42
7.853981633974482
  0
ARC
  5
AFD
330
2
100
AcDbEntity
  8
0
100
AcDbCircle
 10
234.9225733113336
 20
515.6895650355369
 30
0.0
 40
2.0
100
AcDbArc
 50
328.7234707368412
 51
359.9999999999739
  0
ELLIPSE
  5
AFE
330
2
100
AcDbEntity
  8
0
100
AcDbEllipse
 10
226.9225733113381
 20
510.9004822059474
 30
0.0
 11
10.0
 21
5.279304897322163
 31
0.0
210
0.0
220
0.0
230
1.0
 40
0.2652986999005146
 41
5.566873134469334
 42
5.865822628019474
  0
ARC
  5
AFF
330
2
100
AcDbEntity
  8
0
100
AcDbCircle
 10
234.9225733113377
 20
519.8384188874735
 30
0.0
 40
2.0
100
AcDbArc
 50
0.0
 51
93.90606051236636
  0
LINE
  5
B00
330
2
100
AcDbEntity
  8
0
100
AcDbLine
 10
234.3306906812277
 20
525.2434569003404
 30
0.0
 11
236.6912313106741
 21
520.7721473712323
 31
0.0
  0
ELLIPSE
  5
B01
330
2
100
AcDbEntity
  8
0
100
AcDbEllipse
 10
229.1386873113389
 20
523.8733923941659
 30
0.0
 11
-3.0
 21
0.0
 31
0.0
210
0.0
220
0.0
230
1.0
 40
0.5
 41
4.681946790093782
 42
4.712388980384689
  0
ARC
  5
B02
330
2
100
AcDbEntity
  8
0
100
AcDbCircle
 10
242.330459311339
 20
516.1195915212012
 30
0.0
 40
1.0
100
AcDbArc
 50
191.4112550000019
 51
270.0
  0
ARC
  5
B03
330
2
100
AcDbEntity
  8
0
100
AcDbCircle
 10
241.7834623113391
 20
518.8296135212009
 30
0.0
 40
1.0
100
AcDbArc
 50
191.4112550000019
 51
270.0
  0
ARC
  5
B04
330
2
100
AcDbEntity
  8
0
100
AcDbCircle
 10
242.1345363113388
 20
517.0905685212011
 30
0.0
 40
1.0
100
AcDbArc
 50
191.4112550000019
 51
270.0
  0
LINE
  5
B05
330
2
100
AcDbEntity
  8
0
100
AcDbLine
 10
241.3502353113391
 20
515.9217455212012
 30
0.0
 11
240.3502353113391
 21
520.875908521201
 31
0.0
  0
ELLIPSE
  5
B06
330
2
100
AcDbEntity
  8
0
100
AcDbEllipse
 10
225.4874006845449
 20
520.5748144815458
 30
0.0
 11
-8.843289996682615
 21
-4.66864241879447
 31
0.0
210
0.0
220
0.0
230
1.0
 40
0.3000000000000317
 41
3.141592653589793
 42
4.712388980384689
  0
LINE
  5
B07
330
2
100
AcDbEntity
  8
0
100
AcDbLine
 10
272.4878083113391
 20
521.2175835212011
 30
0.0
 11
273.8502353113391
 21
528.944328521201
 31
0.0
  0
LINE
  5
B08
330
2
100
AcDbEntity
  8
0
100
AcDbLine
 10
272.3621973113391
 20
524.6919785212013
 30
0.0
 11
273.8502353113391
 21
533.1315845212012
 31
0.0
  0
LINE
  5
B09
330
2
100
AcDbEntity
  8
0
100
AcDbLine
 10
272.4677883113391
 20
515.9217455212012
 30
0.0
 11
273.7046053113391
 21
522.0495535212013
 31
0.0
  0
ARC
  5
B0A
330
2
100
AcDbEntity
  8
0
100
AcDbCircle
 10
274.6893463113389
 20
521.875908521201
 30
0.0
 40
1.0
100
AcDbArc
 50
90.0
 51
169.999999999994
  0
ARC
  5
B0B
330
2
100
AcDbEntity
  8
0
100
AcDbCircle
 10
271.4875643113392
 20
516.1195915212012
 30
0.0
 40
1.0
100
AcDbArc
 50
270.0
 51
348.5887380000105
  0
ARC
  5
B0C
330
2
100
AcDbEntity
  8
0
100
AcDbCircle
 10
272.0345613113392
 20
518.8296135212009
 30
0.0
 40
1.0
100
AcDbArc
 50
270.0
 51
348.5887380000105
  0
ARC
  5
B0D
330
2
100
AcDbEntity
  8
0
100
AcDbCircle
 10
271.683487311339
 20
517.0905685212011
 30
0.0
 40
1.0
100
AcDbArc
 50
270.0
 51
348.5887380000105
  0
ARC
  5
B0E
330
2
100
AcDbEntity
  8
0
100
AcDbCircle
 10
271.377334311339
 20
524.8656235212012
 30
0.0
 40
1.0
100
AcDbArc
 50
270.0
 51
349.999999999994
  0
ARC
  5
B0F
330
2
100
AcDbEntity
  8
0
100
AcDbCircle
 10
271.5030673113389
 20
521.391228521201
 30
0.0
 40
1.0
100
AcDbArc
 50
270.0
 51
349.999999999994
  0
LINE
  5
B10
330
2
100
AcDbEntity
  8
0
100
AcDbLine
 10
271.7190093113391
 20
538.7794725212012
 30
0.0
 11
273.8502353113391
 21
550.8666005212013
 31
0.0
  0
LINE
  5
B11
330
2
100
AcDbEntity
  8
0
100
AcDbLine
 10
272.0352933113391
 20
532.7345505212012
 30
0.0
 11
273.8502353113391
 21
543.0279775212012
 31
0.0
  0
ARC
  5
B12
330
2
100
AcDbEntity
  8
0
100
AcDbCircle
 10
270.734146311339
 20
538.953117521201
 30
0.0
 40
1.0
100
AcDbArc
 50
270.0
 51
349.999999999994
  0
ARC
  5
B13
330
2
100
AcDbEntity
  8
0
100
AcDbCircle
 10
270.4925693113387
 20
547.9428945212013
 30
0.0
 40
1.0
100
AcDbArc
 50
270.0
 51
349.999999999994
  0
ARC
  5
B14
330
2
100
AcDbEntity
  8
0
100
AcDbCircle
 10
270.4925693113387
 20
556.5712205212013
 30
0.0
 40
1.0
100
AcDbArc
 50
270.0
 51
349.999999999994
  0
ARC
  5
B15
330
2
100
AcDbEntity
  8
0
100
AcDbCircle
 10
271.050430311339
 20
532.908195521201
 30
0.0
 40
1.0
100
AcDbArc
 50
270.0
 51
349.999999999994
  0
LINE
  5
B16
330
2
100
AcDbEntity
  8
0
100
AcDbLine
 10
293.8502353113391
 20
522.875908521201
 30
0.0
 11
274.6893463113389
 21
522.875908521201
 31
0.0
  0
LINE
  5
B17
330
2
100
AcDbEntity
  8
0
100
AcDbLine
 10
273.8502353113391
 20
576.4118275212009
 30
0.0
 11
273.8502353113391
 21
631.6229485212012
 31
0.0
  0
ARC
  5
B18
330
2
100
AcDbEntity
  8
0
100
AcDbCircle
 10
271.6538233113388
 20
569.7136155212011
 30
0.0
 40
1.0
100
AcDbArc
 50
270.0
 51
349.999999999994
  0
LINE
  5
B19
330
2
100
AcDbEntity
  8
0
100
AcDbLine
 10
272.638565311339
 20
569.5399705212013
 30
0.0
 11
273.8502353113391
 21
576.4118275212009
 31
0.0
  0
ARC
  5
B1A
330
2
100
AcDbEntity
  8
0
100
AcDbCircle
 10
380.9850003113389
 20
556.875908521201
 30
0.0
 40
3.0
100
AcDbArc
 50
1.500602000004477
 51
90.0
  0
ARC
  5
B1B
330
2
100
AcDbEntity
  8
0
100
AcDbCircle
 10
380.3502353113391
 20
556.875908521201
 30
0.0
 40
3.0
100
AcDbArc
 50
0.0
 51
90.0
  0
LINE
  5
B1C
330
2
100
AcDbEntity
  8
0
100
AcDbLine
 10
383.7219393113392
 20
566.9545215212012
 30
0.0
 11
384.219253311339
 21
547.9676135212013
 31
0.0
  0
ARC
  5
B1D
330
2
100
AcDbEntity
  8
0
100
AcDbCircle
 10
311.2155913113389
 20
556.875908521201
 30
0.0
 40
3.0
100
AcDbArc
 50
90.0
 51
178.4994049999893
  0
ARC
  5
B1E
330
2
100
AcDbEntity
  8
0
100
AcDbCircle
 10
311.8502353113391
 20
556.875908521201
 30
0.0
 40
3.0
100
AcDbArc
 50
90.0
 51
180.0
  0
LINE
  5
B1F
330
2
100
AcDbEntity
  8
0
100
AcDbLine
 10
308.4785303113391
 20
566.9545215212012
 30
0.0
 11
307.9813383113388
 21
547.9676135212013
 31
0.0
  0
LINE
  5
B20
330
2
100
AcDbEntity
  8
0
100
AcDbLine
 10
311.3726963113391
 20
550.5222095212012
 30
0.0
 11
380.9850003113389
 21
550.5222095212012
 31
0.0
  0
LINE
  5
B21
330
2
100
AcDbEntity
  8
0
100
AcDbLine
 10
310.6262363113388
 20
537.375908521201
 30
0.0
 11
358.350357311339
 21
537.375908521201
 31
0.0
  0
LINE
  5
B22
330
2
100
AcDbEntity
  8
0
100
AcDbLine
 10
307.7197413113391
 20
538.9545215212011
 30
0.0
 11
307.3502353113391
 21
524.8497245212011
 31
0.0
  0
LINE
  5
B23
330
2
100
AcDbEntity
  8
0
100
AcDbLine
 10
307.850357311339
 20
535.5138475212012
 30
0.0
 11
307.850357311339
 21
521.198570521201
 31
0.0
  0
LINE
  5
B24
330
2
100
AcDbEntity
  8
0
100
AcDbLine
 10
309.350357311339
 20
537.0911185212013
 30
0.0
 11
309.350357311339
 21
521.7420585212013
 31
0.0
  0
ARC
  5
B25
330
2
100
AcDbEntity
  8
0
100
AcDbCircle
 10
306.3762363113388
 20
524.8758165212012
 30
0.0
 40
1.0
100
AcDbArc
 50
270.0
 51
358.4993900000025
  0
LINE
  5
B26
330
2
100
AcDbEntity
  8
HOJO
100
AcDbLine
 10
306.350357311339
 20
521.504234521201
 30
0.0
 11
307.850357311339
 21
521.9907155212009
 31
0.0
  0
LINE
  5
B27
330
2
100
AcDbEntity
  8
HOJO
100
AcDbLine
 10
307.850357311339
 20
521.198570521201
 30
0.0
 11
309.350357311339
 21
521.7420585212013
 31
0.0
  0
LINE
  5
B28
330
2
100
AcDbEntity
  8
0
100
AcDbLine
 10
306.350357311339
 20
523.8758165212012
 30
0.0
 11
306.350357311339
 21
521.504234521201
 31
0.0
  0
LINE
  5
B29
330
2
100
AcDbEntity
  8
0
100
AcDbLine
 10
306.3762363113388
 20
523.8758165212012
 30
0.0
 11
305.2136383113389
 21
523.8758165212012
 31
0.0
  0
LINE
  5
B2A
330
2
100
AcDbEntity
  8
0
100
AcDbLine
 10
308.8502353113391
 20
556.875908521201
 30
0.0
 11
308.8502353113391
 21
542.8499985212011
 31
0.0
  0
LINE
  5
B2B
330
2
100
AcDbEntity
  8
0
100
AcDbLine
 10
307.7452543113391
 20
538.9545215212011
 30
0.0
 11
307.8026273113388
 21
541.1432115212011
 31
0.0
  0
ARC
  5
B2C
330
2
100
AcDbEntity
  8
0
100
AcDbCircle
 10
310.6262363113388
 20
534.375908521201
 30
0.0
 40
3.0
100
AcDbArc
 50
90.0
 51
178.5001069999886
  0
LINE
  5
B2D
330
2
100
AcDbEntity
  8
0
100
AcDbLine
 10
307.7451323113392
 20
538.9545215212011
 30
0.0
 11
307.8017733113389
 21
541.1169055212013
 31
0.0
  0
ARC
  5
B2E
330
2
100
AcDbEntity
  8
0
100
AcDbCircle
 10
307.8502353113391
 20
542.8499985212011
 30
0.0
 40
1.0
100
AcDbArc
 50
298.3975789999901
 51
0.0
  0
ARC
  5
B2F
330
2
100
AcDbEntity
  8
0
100
AcDbCircle
 10
308.801529311339
 20
541.090721521201
 30
0.0
 40
1.0
100
AcDbArc
 50
118.3991009999919
 51
178.4996029999886
  0
ARC
  5
B30
330
2
100
AcDbEntity
  8
0
100
AcDbCircle
 10
307.8502353113391
 20
546.291710521201
 30
0.0
 40
1.0
100
AcDbArc
 50
0.0
 51
55.5741690000104
  0
ARC
  5
B31
330
2
100
AcDbEntity
  8
0
100
AcDbCircle
 10
308.980972311339
 20
547.9413995212013
 30
0.0
 40
1.0
100
AcDbArc
 50
178.4987029999993
 51
235.574202999995
  0
LINE
  5
B32
330
2
100
AcDbEntity
  8
0
100
AcDbLine
 10
306.3762363113388
 20
523.8758165212012
 30
0.0
 11
297.8502353113391
 21
523.8758165212012
 31
0.0
  0
LINE
  5
B33
330
2
100
AcDbEntity
  8
0
100
AcDbLine
 10
384.4553373113391
 20
538.9545215212011
 30
0.0
 11
384.8282623113388
 21
524.7194145212012
 31
0.0
  0
LINE
  5
B34
330
2
100
AcDbEntity
  8
0
100
AcDbLine
 10
385.8159333113391
 20
523.8758165212012
 30
0.0
 11
394.3502353113391
 21
523.8758165212012
 31
0.0
  0
LINE
  5
B35
330
2
100
AcDbEntity
  8
0
100
AcDbLine
 10
385.8159333113391
 20
523.8758165212012
 30
0.0
 11
386.6226963113391
 21
523.8758165212012
 31
0.0
  0
ARC
  5
B36
330
2
100
AcDbEntity
  8
0
100
AcDbCircle
 10
385.8159333113391
 20
524.8758165212012
 30
0.0
 40
1.0
100
AcDbArc
 50
181.9987030000025
 51
270.0
  0
LINE
  5
B37
330
2
100
AcDbEntity
  8
0
100
AcDbLine
 10
399.699112311339
 20
523.6890795212012
 30
0.0
 11
394.3502353113391
 21
523.8759385212012
 31
0.0
  0
LINE
  5
B38
330
2
100
AcDbEntity
  8
0
100
AcDbLine
 10
383.3502353113391
 20
556.875908521201
 30
0.0
 11
383.3502353113391
 21
542.8499985212011
 31
0.0
  0
LINE
  5
B39
330
2
100
AcDbEntity
  8
0
100
AcDbLine
 10
384.4553373113391
 20
538.9545215212011
 30
0.0
 11
384.3988193113387
 21
541.1169055212013
 31
0.0
  0
ARC
  5
B3A
330
2
100
AcDbEntity
  8
0
100
AcDbCircle
 10
381.5744783113387
 20
534.375908521201
 30
0.0
 40
3.0
100
AcDbArc
 50
1.50048800000318
 51
90.0
  0
ARC
  5
B3B
330
2
100
AcDbEntity
  8
0
100
AcDbCircle
 10
384.3502353113391
 20
542.8499985212011
 30
0.0
 40
1.0
100
AcDbArc
 50
180.0
 51
241.6024019999967
  0
ARC
  5
B3C
330
2
100
AcDbEntity
  8
0
100
AcDbCircle
 10
383.3990633113391
 20
541.090721521201
 30
0.0
 40
1.0
100
AcDbArc
 50
1.500396000012381
 51
61.60088000000251
  0
ARC
  5
B3D
330
2
100
AcDbEntity
  8
0
100
AcDbCircle
 10
384.3502353113391
 20
546.291710521201
 30
0.0
 40
1.0
100
AcDbArc
 50
124.425797000005
 51
180.0
  0
ARC
  5
B3E
330
2
100
AcDbEntity
  8
0
100
AcDbCircle
 10
383.2196193113392
 20
547.9413995212013
 30
0.0
 40
1.0
100
AcDbArc
 50
304.4258120000097
 51
1.50126999998989
  0
LINE
  5
B3F
330
2
100
AcDbEntity
  8
0
100
AcDbLine
 10
355.3502353113391
 20
541.875908521201
 30
0.0
 11
364.3502353113391
 21
541.875908521201
 31
0.0
  0
LINE
  5
B40
330
2
100
AcDbEntity
  8
0
100
AcDbLine
 10
354.3502353113391
 20
540.875908521201
 30
0.0
 11
354.3502353113391
 21
538.375908521201
 31
0.0
  0
ARC
  5
B41
330
2
100
AcDbEntity
  8
0
100
AcDbCircle
 10
355.3502353113391
 20
540.875908521201
 30
0.0
 40
1.0
100
AcDbArc
 50
90.0
 51
180.0
  0
ARC
  5
B42
330
2
100
AcDbEntity
  8
0
100
AcDbCircle
 10
353.3502353113391
 20
538.375908521201
 30
0.0
 40
1.0
100
AcDbArc
 50
270.0
 51
0.0
  0
LINE
  5
B43
330
2
100
AcDbEntity
  8
0
100
AcDbLine
 10
365.3502353113391
 20
540.875908521201
 30
0.0
 11
365.3502353113391
 21
538.375908521201
 31
0.0
  0
ARC
  5
B44
330
2
100
AcDbEntity
  8
0
100
AcDbCircle
 10
364.3502353113391
 20
540.875908521201
 30
0.0
 40
1.0
100
AcDbArc
 50
0.0
 51
90.0
  0
ARC
  5
B45
330
2
100
AcDbEntity
  8
0
100
AcDbCircle
 10
366.3502353113391
 20
538.375908521201
 30
0.0
 40
1.0
100
AcDbArc
 50
180.0
 51
270.0
  0
LINE
  5
B46
330
2
100
AcDbEntity
  8
HOJO
100
AcDbLine
 10
359.850357311339
 20
529.8135305212014
 30
0.0
 11
361.350357311339
 21
530.4481735212013
 31
0.0
  0
LINE
  5
B47
330
2
100
AcDbEntity
  8
HOJO
100
AcDbLine
 10
358.350357311339
 20
530.1197435212012
 30
0.0
 11
359.850357311339
 21
530.7363815212012
 31
0.0
  0
LINE
  5
B48
330
2
100
AcDbEntity
  8
0
100
AcDbLine
 10
358.350357311339
 20
541.875908521201
 30
0.0
 11
358.350357311339
 21
530.1197435212012
 31
0.0
  0
LINE
  5
B49
330
2
100
AcDbEntity
  8
0
100
AcDbLine
 10
359.850357311339
 20
541.875908521201
 30
0.0
 11
359.850357311339
 21
529.8135305212014
 31
0.0
  0
LINE
  5
B4A
330
2
100
AcDbEntity
  8
0
100
AcDbLine
 10
361.350357311339
 20
541.875908521201
 30
0.0
 11
361.350357311339
 21
530.4481735212013
 31
0.0
  0
LINE
  5
B4B
330
2
100
AcDbEntity
  8
0
100
AcDbLine
 10
361.350357311339
 20
537.375908521201
 30
0.0
 11
381.5744783113387
 21
537.375908521201
 31
0.0
  0
LINE
  5
B4C
330
2
100
AcDbEntity
  8
0
100
AcDbLine
 10
380.9850003113389
 20
629.875908521201
 30
0.0
 11
311.3726963113391
 21
629.875908521201
 31
0.0
  0
LINE
  5
B4D
330
2
100
AcDbEntity
  8
0
100
AcDbLine
 10
381.9503323113391
 20
601.805809521201
 30
0.0
 11
310.2502593113391
 21
601.805809521201
 31
0.0
  0
LINE
  5
B4E
330
2
100
AcDbEntity
  8
0
100
AcDbLine
 10
381.9503323113391
 20
587.946007521201
 30
0.0
 11
310.2502593113391
 21
587.946007521201
 31
0.0
  0
LINE
  5
B4F
330
2
100
AcDbEntity
  8
0
100
AcDbLine
 10
380.9850003113389
 20
559.875908521201
 30
0.0
 11
311.3726963113391
 21
559.875908521201
 31
0.0
  0
LINE
  5
B50
330
2
100
AcDbEntity
  8
0
100
AcDbLine
 10
310.2502593113391
 20
594.875908521201
 30
0.0
 11
309.0284573113391
 21
601.8051075212012
 31
0.0
  0
LINE
  5
B51
330
2
100
AcDbEntity
  8
0
100
AcDbLine
 10
310.2502593113391
 20
594.875908521201
 30
0.0
 11
309.0284573113391
 21
587.9467095212013
 31
0.0
  0
ARC
  5
B52
330
2
100
AcDbEntity
  8
0
100
AcDbCircle
 10
311.2155913113389
 20
632.875908521201
 30
0.0
 40
3.0
100
AcDbArc
 50
181.5005950000106
 51
270.0
  0
ARC
  5
B53
330
2
100
AcDbEntity
  8
0
100
AcDbCircle
 10
311.8502353113391
 20
632.875908521201
 30
0.0
 40
3.0
100
AcDbArc
 50
180.0
 51
270.0
  0
LINE
  5
B54
330
2
100
AcDbEntity
  8
0
100
AcDbLine
 10
308.4785303113391
 20
622.7973255212011
 30
0.0
 11
309.0284573113391
 21
601.8051075212012
 31
0.0
  0
LINE
  5
B55
330
2
100
AcDbEntity
  8
0
100
AcDbLine
 10
308.4785303113391
 20
566.9545215212012
 30
0.0
 11
309.0284573113391
 21
587.9467095212013
 31
0.0
  0
LINE
  5
B56
330
2
100
AcDbEntity
  8
0
100
AcDbLine
 10
381.9503323113391
 20
594.875908521201
 30
0.0
 11
383.1721343113391
 21
601.805809521201
 31
0.0
  0
LINE
  5
B57
330
2
100
AcDbEntity
  8
0
100
AcDbLine
 10
381.9503323113391
 20
594.875908521201
 30
0.0
 11
383.1721343113391
 21
587.946007521201
 31
0.0
  0
LINE
  5
B58
330
2
100
AcDbEntity
  8
0
100
AcDbLine
 10
383.7219393113392
 20
622.7973255212011
 30
0.0
 11
383.1721343113391
 21
601.805809521201
 31
0.0
  0
ARC
  5
B59
330
2
100
AcDbEntity
  8
0
100
AcDbCircle
 10
380.3502353113391
 20
632.875908521201
 30
0.0
 40
3.0
100
AcDbArc
 50
270.0
 51
0.0
  0
ARC
  5
B5A
330
2
100
AcDbEntity
  8
0
100
AcDbCircle
 10
380.9850003113389
 20
632.875908521201
 30
0.0
 40
3.0
100
AcDbArc
 50
270.0
 51
358.4993979999955
  0
LINE
  5
B5B
330
2
100
AcDbEntity
  8
0
100
AcDbLine
 10
383.7219393113392
 20
566.9545215212012
 30
0.0
 11
383.1721343113391
 21
587.946007521201
 31
0.0
  0
LINE
  5
B5C
330
2
100
AcDbEntity
  8
0
100
AcDbLine
 10
297.8502353113391
 20
665.8759995212009
 30
0.0
 11
293.8502353113391
 21
665.8759995212009
 31
0.0
  0
ARC
  5
B5D
330
2
100
AcDbEntity
  8
0
100
AcDbCircle
 10
271.4875643113392
 20
673.6322255212013
 30
0.0
 40
1.0
100
AcDbArc
 50
11.41125500000192
 51
90.0
  0
LINE
  5
B5E
330
2
100
AcDbEntity
  8
0
100
AcDbLine
 10
272.4677883113391
 20
673.830070521201
 30
0.0
 11
273.7046053113391
 21
667.7022635212011
 31
0.0
  0
ARC
  5
B5F
330
2
100
AcDbEntity
  8
0
100
AcDbCircle
 10
274.6893463113389
 20
667.875908521201
 30
0.0
 40
1.0
100
AcDbArc
 50
190.0000000000059
 51
270.0
  0
ARC
  5
B60
330
2
100
AcDbEntity
  8
0
100
AcDbCircle
 10
272.0345613113392
 20
670.9222035212011
 30
0.0
 40
1.0
100
AcDbArc
 50
11.41125500000192
 51
90.0
  0
ARC
  5
B61
330
2
100
AcDbEntity
  8
0
100
AcDbCircle
 10
271.683487311339
 20
672.661247521201
 30
0.0
 40
1.0
100
AcDbArc
 50
11.41125500000192
 51
90.0
  0
ARC
  5
B62
330
2
100
AcDbEntity
  8
0
100
AcDbCircle
 10
271.377334311339
 20
664.886192521201
 30
0.0
 40
1.0
100
AcDbArc
 50
10.00000000000596
 51
90.0
  0
ARC
  5
B63
330
2
100
AcDbEntity
  8
0
100
AcDbCircle
 10
271.5030673113389
 20
668.360588521201
 30
0.0
 40
1.0
100
AcDbArc
 50
10.00000000000596
 51
90.0
  0
ARC
  5
B64
330
2
100
AcDbEntity
  8
0
100
AcDbCircle
 10
270.734146311339
 20
650.7986985212011
 30
0.0
 40
1.0
100
AcDbArc
 50
10.00000000000596
 51
90.0
  0
ARC
  5
B65
330
2
100
AcDbEntity
  8
0
100
AcDbCircle
 10
271.050430311339
 20
656.8436205212011
 30
0.0
 40
1.0
100
AcDbArc
 50
10.00000000000596
 51
90.0
  0
LINE
  5
B66
330
2
100
AcDbEntity
  8
0
100
AcDbLine
 10
272.3621973113391
 20
665.0598375212013
 30
0.0
 11
273.8502353113391
 21
656.6202325212012
 31
0.0
  0
LINE
  5
B67
330
2
100
AcDbEntity
  8
0
100
AcDbLine
 10
272.4878083113391
 20
668.5342335212014
 30
0.0
 11
273.8502353113391
 21
660.8074875212011
 31
0.0
  0
LINE
  5
B68
330
2
100
AcDbEntity
  8
0
100
AcDbLine
 10
272.0352933113391
 20
657.017265521201
 30
0.0
 11
273.8502353113391
 21
646.7238395212013
 31
0.0
  0
LINE
  5
B69
330
2
100
AcDbEntity
  8
0
100
AcDbLine
 10
293.8502353113391
 20
666.875908521201
 30
0.0
 11
274.6893463113389
 21
666.875908521201
 31
0.0
  0
ARC
  5
B6A
330
2
100
AcDbEntity
  8
0
100
AcDbCircle
 10
271.6538233113388
 20
638.3211595212011
 30
0.0
 40
1.0
100
AcDbArc
 50
10.00000000000596
 51
90.0
  0
LINE
  5
B6B
330
2
100
AcDbEntity
  8
0
100
AcDbLine
 10
271.7190093113391
 20
650.9723435212014
 30
0.0
 11
273.8502353113391
 21
638.8852165212012
 31
0.0
  0
LINE
  5
B6C
330
2
100
AcDbEntity
  8
0
100
AcDbLine
 10
310.6262363113388
 20
652.375908521201
 30
0.0
 11
381.5744783113387
 21
652.375908521201
 31
0.0
  0
LINE
  5
B6D
330
2
100
AcDbEntity
  8
0
100
AcDbLine
 10
311.3726963113391
 20
639.2296075212012
 30
0.0
 11
380.9850003113389
 21
639.2296075212012
 31
0.0
  0
ARC
  5
B6E
330
2
100
AcDbEntity
  8
0
100
AcDbCircle
 10
306.3762363113388
 20
664.8759995212009
 30
0.0
 40
1.0
100
AcDbArc
 50
1.50060999999748
 51
90.0
  0
LINE
  5
B6F
330
2
100
AcDbEntity
  8
0
100
AcDbLine
 10
307.7452543113391
 20
650.797325521201
 30
0.0
 11
307.8026273113388
 21
648.6086045212011
 31
0.0
  0
ARC
  5
B70
330
2
100
AcDbEntity
  8
0
100
AcDbCircle
 10
310.6262363113388
 20
655.375908521201
 30
0.0
 40
3.0
100
AcDbArc
 50
181.4998930000113
 51
270.0
  0
LINE
  5
B71
330
2
100
AcDbEntity
  8
0
100
AcDbLine
 10
307.7451323113392
 20
650.797325521201
 30
0.0
 11
307.8017733113389
 21
648.6349115212012
 31
0.0
  0
LINE
  5
B72
330
2
100
AcDbEntity
  8
0
100
AcDbLine
 10
307.7197413113391
 20
650.797325521201
 30
0.0
 11
307.3502353113391
 21
664.902122521201
 31
0.0
  0
LINE
  5
B73
330
2
100
AcDbEntity
  8
0
100
AcDbLine
 10
306.3762363113388
 20
665.8759995212009
 30
0.0
 11
305.2136383113389
 21
665.8759995212009
 31
0.0
  0
ARC
  5
B74
330
2
100
AcDbEntity
  8
0
100
AcDbCircle
 10
307.8502353113391
 20
646.901817521201
 30
0.0
 40
1.0
100
AcDbArc
 50
0.0
 51
61.60242100000984
  0
ARC
  5
B75
330
2
100
AcDbEntity
  8
0
100
AcDbCircle
 10
308.801529311339
 20
648.6611255212011
 30
0.0
 40
1.0
100
AcDbArc
 50
181.5003970000114
 51
241.6008990000081
  0
LINE
  5
B76
330
2
100
AcDbEntity
  8
0
100
AcDbLine
 10
306.3762363113388
 20
665.8759995212009
 30
0.0
 11
297.8502353113391
 21
665.8759995212009
 31
0.0
  0
ARC
  5
B77
330
2
100
AcDbEntity
  8
0
100
AcDbCircle
 10
308.980972311339
 20
641.8104175212012
 30
0.0
 40
1.0
100
AcDbArc
 50
124.425797000005
 51
181.5012970000006
  0
ARC
  5
B78
330
2
100
AcDbEntity
  8
0
100
AcDbCircle
 10
307.8502353113391
 20
643.460106521201
 30
0.0
 40
1.0
100
AcDbArc
 50
304.4258309999896
 51
0.0
  0
LINE
  5
B79
330
2
100
AcDbEntity
  8
0
100
AcDbLine
 10
385.8159333113391
 20
665.8759995212009
 30
0.0
 11
394.3502353113391
 21
665.8759995212009
 31
0.0
  0
LINE
  5
B7A
330
2
100
AcDbEntity
  8
0
100
AcDbLine
 10
385.8159333113391
 20
665.8759995212009
 30
0.0
 11
386.6226963113391
 21
665.8759995212009
 31
0.0
  0
ARC
  5
B7B
330
2
100
AcDbEntity
  8
0
100
AcDbCircle
 10
385.8159333113391
 20
664.8759995212009
 30
0.0
 40
1.0
100
AcDbArc
 50
90.0
 51
178.0012969999974
  0
LINE
  5
B7C
330
2
100
AcDbEntity
  8
0
100
AcDbLine
 10
384.4553373113391
 20
650.797325521201
 30
0.0
 11
384.3988193113387
 21
648.6349115212012
 31
0.0
  0
ARC
  5
B7D
330
2
100
AcDbEntity
  8
0
100
AcDbCircle
 10
381.5744783113387
 20
655.375908521201
 30
0.0
 40
3.0
100
AcDbArc
 50
270.0
 51
358.4995119999968
  0
LINE
  5
B7E
330
2
100
AcDbEntity
  8
0
100
AcDbLine
 10
384.4553373113391
 20
650.797325521201
 30
0.0
 11
384.8282623113388
 21
665.0324025212013
 31
0.0
  0
LINE
  5
B7F
330
2
100
AcDbEntity
  8
0
100
AcDbLine
 10
399.6996003113391
 20
666.0628895212013
 30
0.0
 11
394.3502353113391
 21
665.875908521201
 31
0.0
  0
ARC
  5
B80
330
2
100
AcDbEntity
  8
0
100
AcDbCircle
 10
384.3502353113391
 20
646.901817521201
 30
0.0
 40
1.0
100
AcDbArc
 50
118.3975980000032
 51
180.0
  0
ARC
  5
B81
330
2
100
AcDbEntity
  8
0
100
AcDbCircle
 10
383.3990633113391
 20
648.6611255212011
 30
0.0
 40
1.0
100
AcDbArc
 50
298.3991199999974
 51
358.4996039999876
  0
ARC
  5
B82
330
2
100
AcDbEntity
  8
0
100
AcDbCircle
 10
383.2196193113392
 20
641.8104175212012
 30
0.0
 40
1.0
100
AcDbArc
 50
358.4987300000101
 51
55.57418799999024
  0
ARC
  5
B83
330
2
100
AcDbEntity
  8
0
100
AcDbCircle
 10
384.3502353113391
 20
643.460106521201
 30
0.0
 40
1.0
100
AcDbArc
 50
180.0
 51
235.574202999995
  0
TEXT
  5
B84
330
2
100
AcDbEntity
  8
TITLE
100
AcDbText
 10
708.4514243030222
 20
600.3138377800606
 30
0.0
 40
12.0
  1
G3FE-32-30~100-075
100
AcDbText
  0
TEXT
  5
B85
330
2
100
AcDbEntity
  8
TITLE
100
AcDbText
 10
708.4514243030222
 20
579.3138377800606
 30
0.0
 40
12.0
  1
G3FE-32-30~100-075W
100
AcDbText
  0
LINE
  5
B86
330
2
100
AcDbEntity
  8
0
100
AcDbLine
 10
817.6141326118209
 20
204.1615192031123
 30
0.0
 11
825.6141326118209
 21
204.1615192031123
 31
0.0
  0
LINE
  5
B87
330
2
100
AcDbEntity
  8
0
100
AcDbLine
 10
817.6141326118209
 20
214.1615192031123
 30
0.0
 11
825.6141326118209
 21
214.1615192031123
 31
0.0
  0
ARC
  5
B88
330
2
100
AcDbEntity
  8
0
100
AcDbCircle
 10
836.614132611821
 20
180.6615192031123
 30
0.0
 40
94.50000000000001
100
AcDbArc
 50
94.11749999999996
 51
118.8300019999967
  0
ARC
  5
B89
330
2
100
AcDbEntity
  8
0
100
AcDbCircle
 10
836.614132611821
 20
-453.3384967968876
 30
0.0
 40
770.0
100
AcDbArc
 50
90.0
 51
96.71645400000274
  0
LINE
  5
B8A
330
2
100
AcDbEntity
  8
CENTER
100
AcDbLine
 10
696.614132611821
 20
209.1615192031123
 30
0.0
 11
976.6141326118209
 21
209.1615192031123
 31
0.0
  0
LINE
  5
B8B
330
2
100
AcDbEntity
  8
CENTER
100
AcDbLine
 10
699.9064911097363
 20
180.6615192031118
 30
0.0
 11
973.3217741139055
 21
180.6615192031127
 31
0.0
  0
ARC
  5
B8C
330
2
100
AcDbEntity
  8
0
100
AcDbCircle
 10
836.614132611821
 20
209.1615192031123
 30
0.0
 40
16.0
100
AcDbArc
 50
198.2100069999959
 51
161.789993000004
  0
LINE
  5
B91
330
2
100
AcDbEntity
  8
CENTER
100
AcDbLine
 10
524.3503378210738
 20
297.5499012031133
 30
0.0
 11
489.3500963882234
 21
297.5499012031119
 31
0.0
  0
LINE
  5
B92
330
2
100
AcDbEntity
  8
HIDS
  6
SEKKEI_H
100
AcDbLine
 10
514.350357311339
 20
291.0499012031124
 30
0.0
 11
499.3499903113389
 21
291.0499012031124
 31
0.0
  0
LINE
  5
B93
330
2
100
AcDbEntity
  8
0
100
AcDbLine
 10
513.8506013113393
 20
316.6440632031123
 30
0.0
 11
502.245376311339
 21
316.2387892031121
 31
0.0
  0
LINE
  5
B94
330
2
100
AcDbEntity
  8
HIDS
  6
SEKKEI_H
100
AcDbLine
 10
514.350357311339
 20
304.0499012031124
 30
0.0
 11
499.3499903113389
 21
304.0499012031124
 31
0.0
  0
LINE
  5
B95
330
2
100
AcDbEntity
  8
CENTER
100
AcDbLine
 10
450.1014553113392
 20
209.1615032031123
 30
0.0
 11
589.3503573113393
 21
209.1615032031123
 31
0.0
  0
ARC
  5
B97
330
2
100
AcDbEntity
  8
0
100
AcDbCircle
 10
499.3504793113389
 20
-488.3519847968877
 30
0.0
 40
770.0
100
AcDbArc
 50
93.00112900000213
 51
96.18808700000778
  0
LINE
  5
B98
330
2
100
AcDbEntity
  8
0
100
AcDbLine
 10
412.2716213113391
 20
277.054753203112
 30
0.0
 11
416.3501133113387
 21
277.1615642031121
 31
0.0
  0
ARC
  5
B99
330
2
100
AcDbEntity
  8
0
100
AcDbCircle
 10
412.3501133113387
 20
274.0557912031123
 30
0.0
 40
3.0
100
AcDbArc
 50
91.50000000000272
 51
180.0
  0
ARC
  5
B9A
330
2
100
AcDbEntity
  8
0
100
AcDbCircle
 10
494.3501133113387
 20
286.5189252031124
 30
0.0
 40
5.0
100
AcDbArc
 50
271.5012819999961
 51
0.0
  0
ARC
  5
B9B
330
2
100
AcDbEntity
  8
0
100
AcDbCircle
 10
502.3501133113387
 20
313.2406202031121
 30
0.0
 40
3.0
100
AcDbArc
 50
92.00000000000365
 51
180.0
  0
LINE
  5
B9C
330
2
100
AcDbEntity
  8
0
100
AcDbLine
 10
494.4823153113389
 20
281.520650203112
 30
0.0
 11
459.037857311339
 21
280.5921672031123
 31
0.0
  0
LINE
  5
BA0
330
2
100
AcDbEntity
  8
0
100
AcDbLine
 10
519.350357311339
 20
225.1615032031123
 30
0.0
 11
574.350357311339
 21
225.1615032031123
 31
0.0
  0
LINE
  5
BA1
330
2
100
AcDbEntity
  8
0
100
AcDbLine
 10
529.3501133113387
 20
204.1615032031123
 30
0.0
 11
574.350357311339
 21
204.1615032031123
 31
0.0
  0
LINE
  5
BA2
330
2
100
AcDbEntity
  8
0
100
AcDbLine
 10
529.350357311339
 20
214.1615032031123
 30
0.0
 11
574.350357311339
 21
214.1615032031123
 31
0.0
  0
LINE
  5
BA3
330
2
100
AcDbEntity
  8
0
100
AcDbLine
 10
519.3501133113387
 20
193.1613812031124
 30
0.0
 11
574.350357311339
 21
193.1613812031124
 31
0.0
  0
LINE
  5
BA4
330
2
100
AcDbEntity
  8
0
100
AcDbLine
 10
518.350357311339
 20
226.1615032031123
 30
0.0
 11
519.350357311339
 21
226.1615032031123
 31
0.0
  0
ARC
  5
BA5
330
2
100
AcDbEntity
  8
0
100
AcDbCircle
 10
529.350357311339
 20
209.1615032031123
 30
0.0
 40
5.0
100
AcDbArc
 50
90.0
 51
270.0
  0
LINE
  5
BA6
330
2
100
AcDbEntity
  8
0
100
AcDbLine
 10
518.350357311339
 20
192.1615032031123
 30
0.0
 11
519.350357311339
 21
192.1615032031123
 31
0.0
  0
LINE
  5
BA7
330
2
100
AcDbEntity
  8
0
100
AcDbLine
 10
519.350357311339
 20
226.1615032031123
 30
0.0
 11
519.350357311339
 21
192.1615032031123
 31
0.0
  0
LINE
  5
BA8
330
2
100
AcDbEntity
  8
0
100
AcDbLine
 10
574.350357311339
 20
225.1615032031123
 30
0.0
 11
574.350357311339
 21
193.1613812031124
 31
0.0
  0
LINE
  5
BA9
330
2
100
AcDbEntity
  8
0
100
AcDbLine
 10
517.850357311339
 20
299.1615032031123
 30
0.0
 11
514.350357311339
 21
299.1615032031123
 31
0.0
  0
LINE
  5
BAA
330
2
100
AcDbEntity
  8
0
100
AcDbLine
 10
517.850357311339
 20
299.1615032031123
 30
0.0
 11
518.350357311339
 21
298.6615032031123
 31
0.0
  0
LINE
  5
BAB
330
2
100
AcDbEntity
  8
0
100
AcDbLine
 10
513.8506013113393
 20
316.6440632031123
 30
0.0
 11
514.350357311339
 21
316.1615032031123
 31
0.0
  0
ARC
  5
BAC
330
2
100
AcDbEntity
  8
0
100
AcDbCircle
 10
836.614132611821
 20
180.6615192031123
 30
0.0
 40
94.50000000000001
100
AcDbArc
 50
127.2478030000092
 51
137.459595000003
  0
ARC
  5
BAD
330
2
100
AcDbEntity
  8
0
100
AcDbCircle
 10
1499.114254611821
 20
209.1615192031123
 30
0.0
 40
762.0
100
AcDbArc
 50
174.8780059999882
 51
177.3656009999913
  0
ARC
  5
BAE
330
2
100
AcDbEntity
  8
0
100
AcDbCircle
 10
836.614132611821
 20
209.1615192031123
 30
0.0
 40
93.0
100
AcDbArc
 50
110.5492019999894
 51
159.4510960000022
  0
ARC
  5
BAF
330
2
100
AcDbEntity
  8
0
100
AcDbCircle
 10
764.7764856118211
 20
246.5824172031121
 30
0.0
 40
3.0
100
AcDbArc
 50
152.4898069999932
 51
317.4595950000029
  0
ARC
  5
BB0
330
2
100
AcDbEntity
  8
0
100
AcDbCircle
 10
743.9133266118211
 20
243.9115192031123
 30
0.0
 40
6.0
100
AcDbArc
 50
177.3657990000128
 51
339.4479059999963
  0
LINE
  5
BB1
330
2
100
AcDbEntity
  8
0
100
AcDbLine
 10
727.6472136118215
 20
235.655018203112
 30
0.0
 11
729.561641611821
 21
235.4029892031122
 31
0.0
  0
ARC
  5
BB2
330
2
100
AcDbEntity
  8
0
100
AcDbCircle
 10
726.7723356118214
 20
228.911549203112
 30
0.0
 40
6.799999999999999
100
AcDbArc
 50
82.50000000000282
 51
172.4999999999879
  0
LINE
  5
BB3
330
2
100
AcDbEntity
  8
0
100
AcDbLine
 10
817.6141326118209
 20
214.1615192031123
 30
0.0
 11
817.6141326118209
 21
204.1615192031123
 31
0.0
  0
ARC
  5
BB5
330
2
100
AcDbEntity
  8
0
100
AcDbCircle
 10
774.0407676118212
 20
285.8789112031123
 30
0.0
 40
6.0
100
AcDbArc
 50
225.0003970000151
 51
309.198792000003
  0
ARC
  5
BB6
330
2
100
AcDbEntity
  8
0
100
AcDbCircle
 10
836.614132611821
 20
-453.3384967968876
 30
0.0
 40
762.0
100
AcDbArc
 50
92.63464399999584
 51
95.12226099999598
  0
ARC
  5
BB7
330
2
100
AcDbEntity
  8
0
100
AcDbCircle
 10
768.3544886118212
 20
291.563252203112
 30
0.0
 40
6.0
100
AcDbArc
 50
163.4367069999931
 51
225.0001979999964
  0
LINE
  5
BB8
330
2
100
AcDbEntity
  8
0
100
AcDbLine
 10
764.1119346118212
 20
287.3206982031121
 30
0.0
 11
769.7974816118213
 21
281.6355182031121
 31
0.0
  0
ARC
  5
BB9
330
2
100
AcDbEntity
  8
0
100
AcDbCircle
 10
769.1213346118212
 20
299.6427202031124
 30
0.0
 40
6.0
100
AcDbArc
 50
94.13141600000114
 51
185.7192989999967
  0
ARC
  5
BBA
330
2
100
AcDbEntity
  8
0
100
AcDbCircle
 10
759.8970916118211
 20
271.7354932031122
 30
0.0
 40
6.0
100
AcDbArc
 50
320.7949789999949
 51
45.0003699999955
  0
ARC
  5
BBB
330
2
100
AcDbEntity
  8
0
100
AcDbCircle
 10
754.2113006118212
 20
277.4209182031123
 30
0.0
 40
6.0
100
AcDbArc
 50
45.00097999999037
 51
106.5603030000007
  0
CIRCLE
  5
BBC
330
2
100
AcDbEntity
  8
0
100
AcDbCircle
 10
748.225948611821
 20
297.5498242031122
 30
0.0
 40
6.5
  0
ARC
  5
BBD
330
2
100
AcDbEntity
  8
0
100
AcDbCircle
 10
746.1332976118216
 20
276.654317203112
 30
0.0
 40
6.0
100
AcDbArc
 50
84.28029600000211
 51
174.8784940000056
  0
ARC
  5
BBE
330
2
100
AcDbEntity
  8
0
100
AcDbCircle
 10
748.2915006118211
 20
297.4842732031121
 30
0.0
 40
14.0
100
AcDbArc
 50
97.15168800000199
 51
173.2906949999893
  0
ARC
  5
BBF
330
2
100
AcDbEntity
  8
0
100
AcDbCircle
 10
748.225948611821
 20
297.5498242031122
 30
0.0
 40
15.0
100
AcDbArc
 50
264.2806400000039
 51
5.719240000009443
  0
LINE
  5
BC0
330
2
100
AcDbEntity
  8
0
100
AcDbLine
 10
758.4547086118215
 20
281.6646922031123
 30
0.0
 11
764.1404996118214
 21
275.978901203112
 31
0.0
  0
ARC
  5
BC1
330
2
100
AcDbEntity
  8
0
100
AcDbCircle
 10
801.8644986118212
 20
301.8623242031122
 30
0.0
 40
6.0
100
AcDbArc
 50
290.5462269999919
 51
92.63488799999686
  0
ARC
  5
BC2
330
2
100
AcDbEntity
  8
0
100
AcDbCircle
 10
789.5988736118212
 20
266.076924203112
 30
0.0
 40
3.0
100
AcDbArc
 50
225.0000000000091
 51
298.8302919999854
  0
ARC
  5
BC3
330
2
100
AcDbEntity
  8
0
100
AcDbCircle
 10
784.5013396118212
 20
271.1716502031123
 30
0.0
 40
3.0
100
AcDbArc
 50
130.0482940000113
 51
225.0012050000064
  0
LINE
  5
BC4
330
2
100
AcDbEntity
  8
0
100
AcDbLine
 10
776.7244836118212
 20
263.3944442031121
 30
0.0
 11
779.7231406118213
 21
260.3960162031122
 31
0.0
  0
ARC
  5
BC5
330
2
100
AcDbEntity
  8
0
100
AcDbCircle
 10
774.6035126118214
 20
261.2737012031121
 30
0.0
 40
3.0
100
AcDbArc
 50
45.00077799999712
 51
139.9624940000044
  0
ARC
  5
BC6
330
2
100
AcDbEntity
  8
0
100
AcDbCircle
 10
777.6013146118213
 20
258.2743122031121
 30
0.0
 40
3.0
100
AcDbArc
 50
307.2481120000084
 51
44.99994999999438
  0
LINE
  5
BC7
330
2
100
AcDbEntity
  8
0
100
AcDbLine
 10
782.3813446118212
 20
269.051411203112
 30
0.0
 11
787.4772916118209
 21
263.9552202031123
 31
0.0
  0
LINE
  5
BC8
330
2
100
AcDbEntity
  8
0
100
AcDbLine
 10
416.3501133113387
 20
499.8761525212013
 30
0.0
 11
416.3501133113389
 21
689.8759385212017
 31
0.0
  0
LINE
  5
BC9
330
2
100
AcDbEntity
  8
0
100
AcDbLine
 10
409.3502353113391
 20
686.7701645212011
 30
0.0
 11
409.3502353113391
 21
502.9816515212011
 31
0.0
  0
LINE
  5
BCA
330
2
100
AcDbEntity
  8
0
100
AcDbLine
 10
518.350357311339
 20
684.375908521201
 30
0.0
 11
518.350357311339
 21
505.375908521201
 31
0.0
  0
LINE
  5
BCB
330
2
100
AcDbEntity
  8
0
100
AcDbLine
 10
499.3502353113391
 20
698.9546135212009
 30
0.0
 11
499.349868311339
 21
490.7972035212011
 31
0.0
  0
LINE
  5
BCC
330
2
100
AcDbEntity
  8
0
100
AcDbLine
 10
514.350357311339
 20
701.8759385212011
 30
0.0
 11
514.350357311339
 21
487.875908521201
 31
0.0
  0
LINE
  5
BCD
330
2
100
AcDbEntity
  8
CENTER
100
AcDbLine
 10
524.3503573113388
 20
506.4875115212013
 30
0.0
 11
489.3498959747459
 21
506.4875115212013
 31
0.0
  0
LINE
  5
BCE
330
2
100
AcDbEntity
  8
HIDS
  6
SEKKEI_H
100
AcDbLine
 10
514.350357311339
 20
512.9875115212013
 30
0.0
 11
499.3499903113389
 21
512.9875115212013
 31
0.0
  0
LINE
  5
BCF
330
2
100
AcDbEntity
  8
HIDS
  6
SEKKEI_H
100
AcDbLine
 10
514.350357311339
 20
499.9875115212013
 30
0.0
 11
499.3499903113389
 21
499.9875115212013
 31
0.0
  0
LINE
  5
BD0
330
2
100
AcDbEntity
  8
0
100
AcDbLine
 10
513.8506013113393
 20
487.3933645212011
 30
0.0
 11
502.245376311339
 21
487.7990345212011
 31
0.0
  0
ARC
  5
BD1
330
2
100
AcDbEntity
  8
0
100
AcDbCircle
 10
499.3520663113391
 20
1265.389549521201
 30
0.0
 40
770.0
100
AcDbArc
 50
263.8117979999949
 51
266.9988709999979
  0
LINE
  5
BD2
330
2
100
AcDbEntity
  8
0
100
AcDbLine
 10
412.271743311339
 20
499.982658521201
 30
0.0
 11
416.3501133113387
 21
499.8758775212009
 31
0.0
  0
ARC
  5
BD3
330
2
100
AcDbEntity
  8
0
100
AcDbCircle
 10
412.3502353113391
 20
502.9816515212011
 30
0.0
 40
3.0
100
AcDbArc
 50
180.0
 51
268.4999999999972
  0
ARC
  5
BD4
330
2
100
AcDbEntity
  8
0
100
AcDbCircle
 10
494.5787503113389
 20
490.5126275212011
 30
0.0
 40
5.0
100
AcDbArc
 50
17.40349000000336
 51
88.49957999999777
  0
ARC
  5
BD5
330
2
100
AcDbEntity
  8
0
100
AcDbCircle
 10
502.3502353113391
 20
490.7972035212011
 30
0.0
 40
3.0
100
AcDbArc
 50
180.0
 51
267.9977719999941
  0
LINE
  5
BD6
330
2
100
AcDbEntity
  8
0
100
AcDbLine
 10
494.7096103113391
 20
495.5106735212012
 30
0.0
 11
459.0393213113389
 21
496.445244521201
 31
0.0
  0
LINE
  5
BD7
330
2
100
AcDbEntity
  8
0
100
AcDbLine
 10
517.850357311339
 20
504.875908521201
 30
0.0
 11
514.350357311339
 21
504.875908521201
 31
0.0
  0
LINE
  5
BD8
330
2
100
AcDbEntity
  8
0
100
AcDbLine
 10
517.850357311339
 20
504.875908521201
 30
0.0
 11
518.350357311339
 21
505.375908521201
 31
0.0
  0
LINE
  5
BD9
330
2
100
AcDbEntity
  8
0
100
AcDbLine
 10
513.8506013113393
 20
487.3933645212011
 30
0.0
 11
514.350357311339
 21
487.875908521201
 31
0.0
  0
LINE
  5
BDA
330
2
100
AcDbEntity
  8
0
100
AcDbLine
 10
519.350357311339
 20
610.875908521201
 30
0.0
 11
574.350357311339
 21
610.875908521201
 31
0.0
  0
LINE
  5
BDB
330
2
100
AcDbEntity
  8
0
100
AcDbLine
 10
524.350357311339
 20
575.875908521201
 30
0.0
 11
574.350357311339
 21
575.875908521201
 31
0.0
  0
LINE
  5
BDC
330
2
100
AcDbEntity
  8
0
100
AcDbLine
 10
524.350357311339
 20
579.6769035212011
 30
0.0
 11
574.350357311339
 21
579.6769035212011
 31
0.0
  0
LINE
  5
BDD
330
2
100
AcDbEntity
  8
0
100
AcDbLine
 10
519.350357311339
 20
611.875908521201
 30
0.0
 11
519.350357311339
 21
577.875908521201
 31
0.0
  0
LINE
  5
BDE
330
2
100
AcDbEntity
  8
0
100
AcDbLine
 10
519.3502353113391
 20
578.875908521201
 30
0.0
 11
524.350357311339
 21
578.875908521201
 31
0.0
  0
LINE
  5
BDF
330
2
100
AcDbEntity
  8
0
100
AcDbLine
 10
518.350357311339
 20
577.875908521201
 30
0.0
 11
519.350357311339
 21
577.875908521201
 31
0.0
  0
LINE
  5
BE0
330
2
100
AcDbEntity
  8
0
100
AcDbLine
 10
524.350357311339
 20
579.6769035212011
 30
0.0
 11
524.350357311339
 21
575.875908521201
 31
0.0
  0
LINE
  5
BE1
330
2
100
AcDbEntity
  8
0
100
AcDbLine
 10
518.350357311339
 20
611.875908521201
 30
0.0
 11
519.350357311339
 21
611.875908521201
 31
0.0
  0
LINE
  5
BE2
330
2
100
AcDbEntity
  8
0
100
AcDbLine
 10
574.350357311339
 20
610.875908521201
 30
0.0
 11
574.350357311339
 21
575.875908521201
 31
0.0
  0
LINE
  5
BE3
330
2
100
AcDbEntity
  8
CENTER
100
AcDbLine
 10
524.3503573113392
 20
683.2643055212017
 30
0.0
 11
489.3502076479329
 21
683.2643055212017
 31
0.0
  0
LINE
  5
BE4
330
2
100
AcDbEntity
  8
HIDS
  6
SEKKEI_H
100
AcDbLine
 10
514.350357311339
 20
689.7643055212012
 30
0.0
 11
499.3499903113389
 21
689.7643055212012
 31
0.0
  0
LINE
  5
BE5
330
2
100
AcDbEntity
  8
HIDS
  6
SEKKEI_H
100
AcDbLine
 10
514.350357311339
 20
676.7643055212012
 30
0.0
 11
499.3499903113389
 21
676.7643055212012
 31
0.0
  0
LINE
  5
BE6
330
2
100
AcDbEntity
  8
0
100
AcDbLine
 10
513.8506013113393
 20
702.3584215212009
 30
0.0
 11
502.245376311339
 21
701.9527825212013
 31
0.0
  0
ARC
  5
BE7
330
2
100
AcDbEntity
  8
0
100
AcDbCircle
 10
499.3493803113393
 20
-75.63768747879874
 30
0.0
 40
770.0
100
AcDbArc
 50
93.00112900000213
 51
96.18800399999457
  0
LINE
  5
BE8
330
2
100
AcDbEntity
  8
0
100
AcDbLine
 10
412.271743311339
 20
689.7691275212011
 30
0.0
 11
416.3501133113387
 21
689.8759385212011
 31
0.0
  0
ARC
  5
BE9
330
2
100
AcDbEntity
  8
0
100
AcDbCircle
 10
412.3502353113391
 20
686.7701645212011
 30
0.0
 40
3.0
100
AcDbArc
 50
91.50000000000272
 51
180.0
  0
ARC
  5
BEA
330
2
100
AcDbEntity
  8
0
100
AcDbCircle
 10
494.5793613113388
 20
699.2392205212014
 30
0.0
 40
5.0
100
AcDbArc
 50
271.5007930000016
 51
347.7138060000037
  0
ARC
  5
BEB
330
2
100
AcDbEntity
  8
0
100
AcDbCircle
 10
502.3502353113391
 20
698.9546135212009
 30
0.0
 40
3.0
100
AcDbArc
 50
92.00222800000593
 51
180.0
  0
LINE
  5
BEC
330
2
100
AcDbEntity
  8
0
100
AcDbLine
 10
494.710342311339
 20
694.2411735212013
 30
0.0
 11
459.036636311339
 21
693.3066025212012
 31
0.0
  0
LINE
  5
BED
330
2
100
AcDbEntity
  8
0
100
AcDbLine
 10
517.850357311339
 20
684.8759385212011
 30
0.0
 11
514.350357311339
 21
684.8759385212011
 31
0.0
  0
LINE
  5
BEE
330
2
100
AcDbEntity
  8
0
100
AcDbLine
 10
517.850357311339
 20
684.8759385212011
 30
0.0
 11
518.350357311339
 21
684.375908521201
 31
0.0
  0
LINE
  5
BEF
330
2
100
AcDbEntity
  8
0
100
AcDbLine
 10
513.8506013113393
 20
702.3584215212009
 30
0.0
 11
514.350357311339
 21
701.8759385212011
 31
0.0
  0
ARC
  5
BF0
330
2
100
AcDbEntity
  8
0
100
AcDbCircle
 10
927.0944786118212
 20
276.654317203112
 30
0.0
 40
6.0
100
AcDbArc
 50
5.121521000007017
 51
95.7197039999979
  0
CIRCLE
  5
BF1
330
2
100
AcDbEntity
  8
0
100
AcDbCircle
 10
925.0024376118213
 20
297.5498242031122
 30
0.0
 40
6.5
  0
ARC
  5
BF2
330
2
100
AcDbEntity
  8
0
100
AcDbCircle
 10
924.9365196118215
 20
297.4842732031121
 30
0.0
 40
14.0
100
AcDbArc
 50
6.709305000010656
 51
82.848311999998
  0
ARC
  5
BF3
330
2
100
AcDbEntity
  8
0
100
AcDbCircle
 10
929.3144496118213
 20
243.9115192031123
 30
0.0
 40
6.0
100
AcDbArc
 50
200.549500000006
 51
2.634794000005683
  0
ARC
  5
BF4
330
2
100
AcDbEntity
  8
0
100
AcDbCircle
 10
836.614132611821
 20
209.1615192031123
 30
0.0
 40
93.0
100
AcDbArc
 50
20.54902999998631
 51
69.45063000000165
  0
ARC
  5
BF6
330
2
100
AcDbEntity
  8
0
100
AcDbCircle
 10
836.614132611821
 20
180.6615192031123
 30
0.0
 40
94.50000000000001
100
AcDbArc
 50
42.54040899998483
 51
52.75223899999634
  0
LINE
  5
BF7
330
2
100
AcDbEntity
  8
0
100
AcDbLine
 10
825.6141326118209
 20
214.1615192031123
 30
0.0
 11
825.6141326118209
 21
204.1615192031123
 31
0.0
  0
ARC
  5
BF8
330
2
100
AcDbEntity
  8
0
100
AcDbCircle
 10
908.4526336118216
 20
246.5824172031121
 30
0.0
 40
3.0
100
AcDbArc
 50
222.5404049999969
 51
27.51020999999591
  0
ARC
  5
BF9
330
2
100
AcDbEntity
  8
0
100
AcDbCircle
 10
836.614132611821
 20
-453.3384967968876
 30
0.0
 40
762.0
100
AcDbArc
 50
84.87773900000403
 51
87.36535600000415
  0
ARC
  5
BFA
330
2
100
AcDbEntity
  8
0
100
AcDbCircle
 10
836.614132611821
 20
-453.3384967968876
 30
0.0
 40
770.0
100
AcDbArc
 50
83.28354599999725
 51
90.0
  0
ARC
  5
BFB
330
2
100
AcDbEntity
  8
0
100
AcDbCircle
 10
836.614132611821
 20
180.6615192031123
 30
0.0
 40
94.50000000000001
100
AcDbArc
 50
61.17004000000814
 51
85.88250000000005
  0
ARC
  5
BFC
330
2
100
AcDbEntity
  8
0
100
AcDbCircle
 10
871.3644986118211
 20
301.8623242031122
 30
0.0
 40
6.0
100
AcDbArc
 50
87.36511200000313
 51
249.4537960000009
  0
ARC
  5
BFD
330
2
100
AcDbEntity
  8
0
100
AcDbCircle
 10
843.6148646118214
 20
289.8584182031123
 30
0.0
 40
3.0
100
AcDbArc
 50
85.03603400000264
 51
180.0
  0
LINE
  5
BFE
330
2
100
AcDbEntity
  8
0
100
AcDbLine
 10
840.6141326118209
 20
277.9098252031122
 30
0.0
 11
840.6141326118209
 21
289.8584182031123
 31
0.0
  0
LINE
  5
BFF
330
2
100
AcDbEntity
  8
0
100
AcDbLine
 10
832.6141326118209
 20
277.9098252031122
 30
0.0
 11
832.6141326118209
 21
289.8584182031123
 31
0.0
  0
ARC
  5
C00
330
2
100
AcDbEntity
  8
0
100
AcDbCircle
 10
829.613521611821
 20
289.8584182031123
 30
0.0
 40
3.0
100
AcDbArc
 50
0.0
 51
94.96396599999735
  0
ARC
  5
C01
330
2
100
AcDbEntity
  8
0
100
AcDbCircle
 10
843.6147426118214
 20
277.9098252031122
 30
0.0
 40
3.0
100
AcDbArc
 50
180.0
 51
265.8814999999986
  0
ARC
  5
C02
330
2
100
AcDbEntity
  8
0
100
AcDbCircle
 10
829.613521611821
 20
277.9098252031122
 30
0.0
 40
3.0
100
AcDbArc
 50
274.1185300000015
 51
0.0
  0
ARC
  5
C03
330
2
100
AcDbEntity
  8
0
100
AcDbCircle
 10
919.0165986118215
 20
277.4209182031123
 30
0.0
 40
6.0
100
AcDbArc
 50
73.43965099999542
 51
134.9989929999986
  0
LINE
  5
C04
330
2
100
AcDbEntity
  8
0
100
AcDbLine
 10
909.1164516118215
 20
287.3206982031121
 30
0.0
 11
903.4313926118212
 21
281.6355182031121
 31
0.0
  0
ARC
  5
C05
330
2
100
AcDbEntity
  8
0
100
AcDbCircle
 10
904.1074186118214
 20
299.6427202031124
 30
0.0
 40
6.0
100
AcDbArc
 50
354.2807010000032
 51
85.86858399999885
  0
ARC
  5
C06
330
2
100
AcDbEntity
  8
0
100
AcDbCircle
 10
904.8732876118211
 20
291.563252203112
 30
0.0
 40
6.0
100
AcDbArc
 50
314.9998510000053
 51
16.56329000000099
  0
ARC
  5
C07
330
2
100
AcDbEntity
  8
0
100
AcDbCircle
 10
899.1872526118211
 20
285.8789112031123
 30
0.0
 40
6.0
100
AcDbArc
 50
230.8011929999919
 51
314.9996300000045
  0
ARC
  5
C08
330
2
100
AcDbEntity
  8
0
100
AcDbCircle
 10
925.0024376118213
 20
297.5498242031122
 30
0.0
 40
15.0
100
AcDbArc
 50
174.2808069999926
 51
275.7193910000037
  0
ARC
  5
C09
330
2
100
AcDbEntity
  8
0
100
AcDbCircle
 10
888.7272916118215
 20
271.1716502031123
 30
0.0
 40
3.0
100
AcDbArc
 50
314.9988099999952
 51
49.95169099999287
  0
ARC
  5
C0A
330
2
100
AcDbEntity
  8
0
100
AcDbCircle
 10
913.3305626118213
 20
271.7354932031122
 30
0.0
 40
6.0
100
AcDbArc
 50
134.9996029999848
 51
219.2050019999916
  0
LINE
  5
C0B
330
2
100
AcDbEntity
  8
0
100
AcDbLine
 10
896.5032926118215
 20
263.3944442031121
 30
0.0
 11
893.5053676118215
 21
260.3960162031122
 31
0.0
  0
ARC
  5
C0C
330
2
100
AcDbEntity
  8
0
100
AcDbCircle
 10
898.6242646118213
 20
261.2737012031121
 30
0.0
 40
3.0
100
AcDbArc
 50
40.03746000000258
 51
134.9992070000011
  0
ARC
  5
C0D
330
2
100
AcDbEntity
  8
0
100
AcDbCircle
 10
895.6273156118214
 20
258.2743122031121
 30
0.0
 40
3.0
100
AcDbArc
 50
134.9999999999907
 51
232.7519070000064
  0
ARC
  5
C0E
330
2
100
AcDbEntity
  8
0
100
AcDbCircle
 10
883.6292686118209
 20
266.076924203112
 30
0.0
 40
3.0
100
AcDbArc
 50
241.16970100001
 51
315.0000500000056
  0
LINE
  5
C0F
330
2
100
AcDbEntity
  8
0
100
AcDbLine
 10
890.8472866118215
 20
269.051411203112
 30
0.0
 11
885.7513396118216
 21
263.9552202031123
 31
0.0
  0
LINE
  5
C10
330
2
100
AcDbEntity
  8
0
100
AcDbLine
 10
914.7724576118212
 20
281.6646922031123
 30
0.0
 11
909.0886196118214
 21
275.978901203112
 31
0.0
  0
ARC
  5
C11
330
2
100
AcDbEntity
  8
0
100
AcDbCircle
 10
174.1141326118214
 20
209.1615192031123
 30
0.0
 40
762.0
100
AcDbArc
 50
2.634557999996868
 51
5.121963999990717
  0
ENDSEC
  0
SECTION
  2
OBJECTS
  0
DICTIONARY
  5
7
330
0
100
AcDbDictionary
  3
ACAD_GROUP
350
75
  3
ACAD_LAYOUT
350
61
  3
ACAD_MLINESTYLE
350
76
  3
ACAD_PLOTSETTINGS
350
77
  3
ACAD_PLOTSTYLENAME
350
6
  3
ACADDIM
350
480
  3
ACDBHEADERROUNDTRIPXREC
350
11E3
  3
ACDBVARIABLEDICTIONARY
350
102
  3
DWGPROPS
350
3D2
  0
DICTIONARY
  5
1204
330
2
100
AcDbDictionary
280
     1
  3
ACAD_LAYOUTSELFREF
360
1205
  0
DICTIONARY
  5
1206
330
11DD
100
AcDbDictionary
280
     1
  3
ACAD_LAYOUTSELFREF
360
1207
  0
DICTIONARY
  5
75
102
{ACAD_REACTORS
330
7
102
}
330
7
100
AcDbDictionary
  0
DICTIONARY
  5
61
102
{ACAD_REACTORS
330
7
102
}
330
7
100
AcDbDictionary
  0
DICTIONARY
  5
76
102
{ACAD_REACTORS
330
7
102
}
330
7
100
AcDbDictionary
  3
STANDARD
350
78
  0
DICTIONARY
  5
77
102
{ACAD_REACTORS
330
7
102
}
330
7
100
AcDbDictionary
  0
ACDBDICTIONARYWDFLT
  5
6
102
{ACAD_REACTORS
330
7
102
}
330
7
100
AcDbDictionary
281
     1
  3
Normal
350
5
100
AcDbDictionaryWithDefault
340
5
  0
XRECORD
  5
480
102
{ACAD_REACTORS
330
7
102
}
330
7
100
AcDbXrecord
 90
   990106
  3

 60
     0
 61
     0
 62
     1
 63
     3
 64
     1
 65
     0
 66
     0
 67
     3
 68
     1
 69
     0
 70
     0
 71
     0
 72
     0
 40
0.0
170
     2
340
0
  0
DICTIONARY
  5
11E3
102
{ACAD_REACTORS
330
7
102
}
330
7
100
AcDbDictionary
  3
CEPSNTYPE
350
11ED
  3
DIMSTYLEDATA
350
11F1
  3
FINGERPRINTGUID
350
11EE
  3
HYPERLINKBASE
350
11E6
  3
INSUNITS
350
11EC
  3
LAYOUTDICT
350
11E8
  3
LWETCUNION
350
11EB
  3
PLOTSETDICT
350
11E9
  3
PLOTSTYLNAMDICT
350
11EA
  3
PSVPSCALE
350
11F0
  3
PUCSBASE
350
11F4
  3
PUCSORGBACK
350
11FA
  3
PUCSORGBOTTOM
350
11F6
  3
PUCSORGFRONT
350
11F9
  3
PUCSORGLEFT
350
11F7
  3
PUCSORGRIGHT
350
11F8
  3
PUCSORGTOP
350
11F5
  3
PUCSORTHOREF
350
11F2
  3
PUCSORTHOVIEW
350
11F3
  3
STYLESHEET
350
11E7
  3
TSTACKALIGN
350
11E4
  3
TSTACKSIZE
350
11E5
  3
UCSBASE
350
11FD
  3
UCSORGBACK
350
1203
  3
UCSORGBOTTOM
350
11FF
  3
UCSORGFRONT
350
1202
  3
UCSORGLEFT
350
1200
  3
UCSORGRIGHT
350
1201
  3
UCSORGTOP
350
11FE
  3
UCSORTHOREF
350
11FB
  3
UCSORTHOVIEW
350
11FC
  3
VERSIONGUID
350
11EF
  0
DICTIONARY
  5
102
102
{ACAD_REACTORS
330
7
102
}
330
7
100
AcDbDictionary
  3
DIMASSOC
350
103
  0
XRECORD
  5
3D2
102
{ACAD_REACTORS
330
7
102
}
330
7
100
AcDbXrecord
  1
DWGPROPS COOKIE
  2

  3

  4

  6

  7

  8

  9

300
=
301
=
302
=
303
=
304
=
305
=
306
=
307
=
308
=
309
=
 40
0.5353330671296296
 41
2452052.431989363
 42
2453406.550756377
  1

 90
        0
  0
XRECORD
  5
1205
102
{ACAD_REACTORS
330
1204
102
}
330
1204
100
AcDbXrecord
340
2
  0
XRECORD
  5
1207
102
{ACAD_REACTORS
330
1206
102
}
330
1206
100
AcDbXrecord
340
11DD
  0
MLINESTYLE
  5
78
102
{ACAD_REACTORS
330
76
102
}
330
76
100
AcDbMlineStyle
  2
STANDARD
 70
     0
  3

 62
     0
 51
90.0
 52
90.0
 71
     2
 49
0.5
 62
   256
  6
BYLAYER
 49
-0.5
 62
   256
  6
BYLAYER
  0
ACDBPLACEHOLDER
  5
5
102
{ACAD_REACTORS
330
6
102
}
330
6
100
AcDbPlaceHolder
280
     0
  0
XRECORD
  5
11ED
102
{ACAD_REACTORS
330
11E3
102
}
330
11E3
100
AcDbXrecord
 90
        0
  0
XRECORD
  5
11F1
102
{ACAD_REACTORS
330
11E3
102
}
330
11E3
100
AcDbXrecord
1000
DSTYLE
1002
{
1070
   179
 70
     2
1070
   277
 70
     6
1002
}
  0
XRECORD
  5
11EE
102
{ACAD_REACTORS
330
11E3
102
}
330
11E3
100
AcDbXrecord
  1
{6385560B-F4B1-4644-A7C2-A3E32AC3D232}
  0
XRECORD
  5
11E6
102
{ACAD_REACTORS
330
11E3
102
}
330
11E3
100
AcDbXrecord
  1

  0
XRECORD
  5
11EC
102
{ACAD_REACTORS
330
11E3
102
}
330
11E3
100
AcDbXrecord
 90
        0
  0
XRECORD
  5
11E8
102
{ACAD_REACTORS
330
11E3
102
}
330
11E3
100
AcDbXrecord
340
61
  0
XRECORD
  5
11EB
102
{ACAD_REACTORS
330
11E3
102
}
330
11E3
100
AcDbXrecord
 90
    10781
  0
XRECORD
  5
11E9
102
{ACAD_REACTORS
330
11E3
102
}
330
11E3
100
AcDbXrecord
340
77
  0
XRECORD
  5
11EA
102
{ACAD_REACTORS
330
11E3
102
}
330
11E3
100
AcDbXrecord
340
6
  0
XRECORD
  5
11F0
102
{ACAD_REACTORS
330
11E3
102
}
330
11E3
100
AcDbXrecord
 40
0.0
  0
XRECORD
  5
11F4
102
{ACAD_REACTORS
330
11E3
102
}
330
11E3
100
AcDbXrecord
340
0
  0
XRECORD
  5
11FA
102
{ACAD_REACTORS
330
11E3
102
}
330
11E3
100
AcDbXrecord
 10
0.0
 20
0.0
 30
0.0
  0
XRECORD
  5
11F6
102
{ACAD_REACTORS
330
11E3
102
}
330
11E3
100
AcDbXrecord
 10
0.0
 20
0.0
 30
0.0
  0
XRECORD
  5
11F9
102
{ACAD_REACTORS
330
11E3
102
}
330
11E3
100
AcDbXrecord
 10
0.0
 20
0.0
 30
0.0
  0
XRECORD
  5
11F7
102
{ACAD_REACTORS
330
11E3
102
}
330
11E3
100
AcDbXrecord
 10
0.0
 20
0.0
 30
0.0
  0
XRECORD
  5
11F8
102
{ACAD_REACTORS
330
11E3
102
}
330
11E3
100
AcDbXrecord
 10
0.0
 20
0.0
 30
0.0
  0
XRECORD
  5
11F5
102
{ACAD_REACTORS
330
11E3
102
}
330
11E3
100
AcDbXrecord
 10
0.0
 20
0.0
 30
0.0
  0
XRECORD
  5
11F2
102
{ACAD_REACTORS
330
11E3
102
}
330
11E3
100
AcDbXrecord
340
0
  0
XRECORD
  5
11F3
102
{ACAD_REACTORS
330
11E3
102
}
330
11E3
100
AcDbXrecord
 70
     0
  0
XRECORD
  5
11E7
102
{ACAD_REACTORS
330
11E3
102
}
330
11E3
100
AcDbXrecord
  1
Sekkei.ctb
  0
XRECORD
  5
11E4
102
{ACAD_REACTORS
330
11E3
102
}
330
11E3
100
AcDbXrecord
 90
        1
  0
XRECORD
  5
11E5
102
{ACAD_REACTORS
330
11E3
102
}
330
11E3
100
AcDbXrecord
 90
       70
  0
XRECORD
  5
11FD
102
{ACAD_REACTORS
330
11E3
102
}
330
11E3
100
AcDbXrecord
340
0
  0
XRECORD
  5
1203
102
{ACAD_REACTORS
330
11E3
102
}
330
11E3
100
AcDbXrecord
 10
0.0
 20
0.0
 30
0.0
  0
XRECORD
  5
11FF
102
{ACAD_REACTORS
330
11E3
102
}
330
11E3
100
AcDbXrecord
 10
0.0
 20
0.0
 30
0.0
  0
XRECORD
  5
1202
102
{ACAD_REACTORS
330
11E3
102
}
330
11E3
100
AcDbXrecord
 10
0.0
 20
0.0
 30
0.0
  0
XRECORD
  5
1200
102
{ACAD_REACTORS
330
11E3
102
}
330
11E3
100
AcDbXrecord
 10
0.0
 20
0.0
 30
0.0
  0
XRECORD
  5
1201
102
{ACAD_REACTORS
330
11E3
102
}
330
11E3
100
AcDbXrecord
 10
0.0
 20
0.0
 30
0.0
  0
XRECORD
  5
11FE
102
{ACAD_REACTORS
330
11E3
102
}
330
11E3
100
AcDbXrecord
 10
0.0
 20
0.0
 30
0.0
  0
XRECORD
  5
11FB
102
{ACAD_REACTORS
330
11E3
102
}
330
11E3
100
AcDbXrecord
340
0
  0
XRECORD
  5
11FC
102
{ACAD_REACTORS
330
11E3
102
}
330
11E3
100
AcDbXrecord
 70
     0
  0
XRECORD
  5
11EF
102
{ACAD_REACTORS
330
11E3
102
}
330
11E3
100
AcDbXrecord
  1
{F2A64F0F-60A3-4430-99BD-516457068F1A}
  0
DICTIONARYVAR
  5
103
102
{ACAD_REACTORS
330
102
102
}
330
102
100
DictionaryVariables
280
     0
  1
1
  0
ENDSEC
  0
EOF
