  0
SECTION
  2
HEADER
  9
$ACADVER
  1
AC1014
  9
$ACADMAINTVER
 70
     9
  9
$DWGCODEPAGE
  3
ANSI_932
  9
$INSBASE
 10
0.0
 20
0.0
 30
0.0
  9
$EXTMIN
 10
84.86602467046793
 20
83.03480619113702
 30
0.0
  9
$EXTMAX
 10
1036.242261361458
 20
822.0701097824333
 30
0.0
  9
$LIMMIN
 10
0.0
 20
0.0
  9
$LIMMAX
 10
297.0
 20
210.0
  9
$ORTHOMODE
 70
     1
  9
$REGENMODE
 70
     1
  9
$FILLMODE
 70
     1
  9
$QTEXTMODE
 70
     0
  9
$MIRRTEXT
 70
     0
  9
$DRAGMODE
 70
     2
  9
$LTSCALE
 40
4.0
  9
$OSMODE
 70
    37
  9
$ATTMODE
 70
     1
  9
$TEXTSIZE
 40
2.0
  9
$TRACEWID
 40
1.0
  9
$TEXTSTYLE
  7
STANDARD
  9
$CLAYER
  8
0
  9
$CELTYPE
  6
BYLAYER
  9
$CECOLOR
 62
   256
  9
$CELTSCALE
 40
1.0
  9
$DELOBJ
 70
     1
  9
$DISPSILH
 70
     0
  9
$DIMSCALE
 40
4.0
  9
$DIMASZ
 40
1.8
  9
$DIMEXO
 40
0.625
  9
$DIMDLI
 40
3.75
  9
$DIMRND
 40
0.0
  9
$DIMDLE
 40
0.0
  9
$DIMEXE
 40
0.8
  9
$DIMTP
 40
0.0
  9
$DIMTM
 40
0.0
  9
$DIMTXT
 40
1.8
  9
$DIMCEN
 40
2.5
  9
$DIMTSZ
 40
0.0
  9
$DIMTOL
 70
     0
  9
$DIMLIM
 70
     0
  9
$DIMTIH
 70
     0
  9
$DIMTOH
 70
     0
  9
$DIMSE1
 70
     0
  9
$DIMSE2
 70
     0
  9
$DIMTAD
 70
     1
  9
$DIMZIN
 70
     8
  9
$DIMBLK
  1

  9
$DIMASO
 70
     1
  9
$DIMSHO
 70
     1
  9
$DIMPOST
  1

  9
$DIMAPOST
  1

  9
$DIMALT
 70
     0
  9
$DIMALTD
 70
     4
  9
$DIMALTF
 40
0.0394
  9
$DIMLFAC
 40
1.0
  9
$DIMTOFL
 70
     1
  9
$DIMTVP
 40
0.0
  9
$DIMTIX
 70
     0
  9
$DIMSOXD
 70
     0
  9
$DIMSAH
 70
     0
  9
$DIMBLK1
  1

  9
$DIMBLK2
  1

  9
$DIMSTYLE
  2
STANDARD
  9
$DIMCLRD
 70
     0
  9
$DIMCLRE
 70
     0
  9
$DIMCLRT
 70
     0
  9
$DIMTFAC
 40
1.0
  9
$DIMGAP
 40
0.75
  9
$DIMJUST
 70
     0
  9
$DIMSD1
 70
     0
  9
$DIMSD2
 70
     0
  9
$DIMTOLJ
 70
     1
  9
$DIMTZIN
 70
     0
  9
$DIMALTZ
 70
     0
  9
$DIMALTTZ
 70
     0
  9
$DIMFIT
 70
     3
  9
$DIMUPT
 70
     0
  9
$DIMUNIT
 70
     8
  9
$DIMDEC
 70
     2
  9
$DIMTDEC
 70
     2
  9
$DIMALTU
 70
     8
  9
$DIMALTTD
 70
     4
  9
$DIMTXSTY
  7
STANDARD
  9
$DIMAUNIT
 70
     0
  9
$LUNITS
 70
     2
  9
$LUPREC
 70
     3
  9
$SKETCHINC
 40
1.0
  9
$FILLETRAD
 40
10.0
  9
$AUNITS
 70
     0
  9
$AUPREC
 70
     2
  9
$MENU
  1
.
  9
$ELEVATION
 40
0.0
  9
$PELEVATION
 40
0.0
  9
$THICKNESS
 40
0.0
  9
$LIMCHECK
 70
     0
  9
$BLIPMODE
 70
     0
  9
$CHAMFERA
 40
0.0
  9
$CHAMFERB
 40
0.0
  9
$CHAMFERC
 40
20.0
  9
$CHAMFERD
 40
0.0
  9
$SKPOLY
 70
     0
  9
$TDCREATE
 40
2453998.717619710
  9
$TDUPDATE
 40
2453999.426013263
  9
$TDINDWG
 40
0.0088831134
  9
$TDUSRTIMER
 40
0.0088831134
  9
$USRTIMER
 70
     1
  9
$ANGBASE
 50
0.0
  9
$ANGDIR
 70
     0
  9
$PDMODE
 70
     0
  9
$PDSIZE
 40
-10.0
  9
$PLINEWID
 40
0.0
  9
$COORDS
 70
     2
  9
$SPLFRAME
 70
     0
  9
$SPLINETYPE
 70
     6
  9
$SPLINESEGS
 70
     8
  9
$ATTDIA
 70
     0
  9
$ATTREQ
 70
     1
  9
$HANDLING
 70
-16383
  9
$HANDSEED
  5
10FE
  9
$SURFTAB1
 70
     6
  9
$SURFTAB2
 70
     6
  9
$SURFTYPE
 70
     6
  9
$SURFU
 70
     6
  9
$SURFV
 70
     6
  9
$UCSNAME
  2

  9
$UCSORG
 10
0.0
 20
0.0
 30
0.0
  9
$UCSXDIR
 10
1.0
 20
0.0
 30
0.0
  9
$UCSYDIR
 10
0.0
 20
1.0
 30
0.0
  9
$PUCSNAME
  2

  9
$PUCSORG
 10
0.0
 20
0.0
 30
0.0
  9
$PUCSXDIR
 10
1.0
 20
0.0
 30
0.0
  9
$PUCSYDIR
 10
0.0
 20
1.0
 30
0.0
  9
$USERI1
 70
     0
  9
$USERI2
 70
     0
  9
$USERI3
 70
     0
  9
$USERI4
 70
     0
  9
$USERI5
 70
     0
  9
$USERR1
 40
0.0
  9
$USERR2
 40
0.0
  9
$USERR3
 40
0.0
  9
$USERR4
 40
0.0
  9
$USERR5
 40
0.0
  9
$WORLDVIEW
 70
     1
  9
$SHADEDGE
 70
     3
  9
$SHADEDIF
 70
    70
  9
$TILEMODE
 70
     1
  9
$MAXACTVP
 70
    48
  9
$PINSBASE
 10
0.0
 20
0.0
 30
0.0
  9
$PLIMCHECK
 70
     0
  9
$PEXTMIN
 10
0.0
 20
0.0
 30
0.0
  9
$PEXTMAX
 10
0.0
 20
0.0
 30
0.0
  9
$PLIMMIN
 10
0.0
 20
0.0
  9
$PLIMMAX
 10
12.0
 20
9.0
  9
$UNITMODE
 70
     0
  9
$VISRETAIN
 70
     1
  9
$PLINEGEN
 70
     0
  9
$PSLTSCALE
 70
     1
  9
$TREEDEPTH
 70
  3020
  9
$PICKSTYLE
 70
     1
  9
$CMLSTYLE
  2
STANDARD
  9
$CMLJUST
 70
     0
  9
$CMLSCALE
 40
1.0
  9
$PROXYGRAPHICS
 70
     1
  9
$MEASUREMENT
 70
     0
  0
ENDSEC
  0
SECTION
  2
CLASSES
  0
CLASS
  1
DICTIONARYVAR
  2
AcDbDictionaryVar
  3
AutoCAD 2000
 90
        0
280
     0
281
     0
  0
CLASS
  1
ACDBDICTIONARYWDFLT
  2
AcDbDictionaryWithDefault
  3
AutoCAD 2000
 90
        0
280
     0
281
     0
  0
CLASS
  1
ACDBPLACEHOLDER
  2
AcDbPlaceHolder
  3
AutoCAD 2000
 90
        0
280
     0
281
     0
  0
CLASS
  1
LAYOUT
  2
AcDbLayout
  3
AutoCAD 2000
 90
        0
280
     0
281
     0
  0
CLASS
  1
LONG_TRANSACTION
  2
AcDbLongTransaction
  3
AutoCAD 2000
 90
        0
280
     0
281
     0
  0
CLASS
  1
LWPOLYLINE
  2
AcDbPolyline
  3
AutoCAD 2000
 90
        0
280
     0
281
     1
  0
CLASS
  1
HATCH
  2
AcDbHatch
  3
AutoCAD 2000
 90
        0
280
     0
281
     1
  0
CLASS
  1
XRECORD
  2
AcDbXrecord
  3
AutoCAD 2000
 90
        0
280
     0
281
     0
  0
ENDSEC
  0
SECTION
  2
TABLES
  0
TABLE
  2
VPORT
  5
6E
330
0
100
AcDbSymbolTable
 70
     2
  0
VPORT
  5
10D8
330
6E
100
AcDbSymbolTableRecord
100
AcDbViewportTableRecord
  2
*ACTIVE
 70
     0
 10
0.0
 20
0.0
 11
1.0
 21
1.0
 12
567.4484153501602
 22
440.4188952208842
 13
0.0
 23
0.0
 14
10.0
 24
10.0
 15
10.0
 25
10.0
 16
0.0
 26
0.0
 36
1.0
 17
0.0
 27
0.0
 37
0.0
 40
769.300810270081
 41
1.566970091027308
 42
50.0
 43
0.0
 44
0.0
 50
0.0
 51
0.0
 71
     0
 72
   100
 73
     1
 74
     3
 75
     0
 76
     0
 77
     0
 78
     0
  0
ENDTAB
  0
TABLE
  2
LTYPE
  5
69
330
0
100
AcDbSymbolTable
 70
     4
  0
LTYPE
  5
6A
330
69
100
AcDbSymbolTableRecord
100
AcDbLinetypeTableRecord
  2
BYBLOCK
 70
     0
  3

 72
    65
 73
     0
 40
0.0
  0
LTYPE
  5
6B
330
69
100
AcDbSymbolTableRecord
100
AcDbLinetypeTableRecord
  2
BYLAYER
 70
     0
  3

 72
    65
 73
     0
 40
0.0
  0
LTYPE
  5
8
330
69
100
AcDbSymbolTableRecord
100
AcDbLinetypeTableRecord
  2
CONTINUOUS
 70
     0
  3
Solid line
 72
    65
 73
     0
 40
0.0
  0
LTYPE
  5
27C
330
69
100
AcDbSymbolTableRecord
100
AcDbLinetypeTableRecord
  2
SEKKEI_A2_
 70
     0
  3
center(A2)  ____ _ ____ _ ____ _ ____ _ ____ _ 
 72
    65
 73
     4
 40
14.28749999999999
 49
9.525
 74
     0
 49
-1.587499999999999
 74
     0
 49
1.587499999999999
 74
     0
 49
-1.587499999999999
 74
     0
  0
LTYPE
  5
2B4
330
69
100
AcDbSymbolTableRecord
100
AcDbLinetypeTableRecord
  2
HIDDEN2
 70
     0
  3
Hidden (.5x) _ _ _ _ _ _ _ _ _ _ _ _ _ _ _ _ _
 72
    65
 73
     2
 40
4.762499999999999
 49
3.174999999999999
 74
     0
 49
-1.587499999999999
 74
     0
  0
LTYPE
  5
48F
330
69
100
AcDbSymbolTableRecord
100
AcDbLinetypeTableRecord
  2
SEKKEI_H
 70
     0
  3
Hidden-S _ _ _ _ _ _ _ _ _ _ _ _ _ _ _ _ _
 72
    65
 73
     2
 40
2.381249999999999
 49
1.587499999999999
 74
     0
 49
-0.79375
 74
     0
  0
ENDTAB
  0
TABLE
  2
LAYER
  5
66
330
0
100
AcDbSymbolTable
 70
     9
  0
LAYER
  5
5E
330
66
100
AcDbSymbolTableRecord
100
AcDbLayerTableRecord
  2
0
 70
     0
 62
     7
  6
CONTINUOUS
  0
LAYER
  5
3E
330
66
100
AcDbSymbolTableRecord
100
AcDbLayerTableRecord
  2
CENTER
 70
     0
 62
     3
  6
SEKKEI_A2_
  0
LAYER
  5
2B5
330
66
100
AcDbSymbolTableRecord
100
AcDbLayerTableRecord
  2
HIDS
 70
     0
 62
     1
  6
HIDDEN2
  0
LAYER
  5
2BA
330
66
100
AcDbSymbolTableRecord
100
AcDbLayerTableRecord
  2
HOJO
 70
     0
 62
     4
  6
CONTINUOUS
  0
LAYER
  5
3FA
330
66
100
AcDbSymbolTableRecord
100
AcDbLayerTableRecord
  2
TITLE
 70
     0
 62
     4
  6
CONTINUOUS
  0
ENDTAB
  0
TABLE
  2
STYLE
  5
67
330
0
100
AcDbSymbolTable
 70
     1
  0
STYLE
  5
16
330
67
100
AcDbSymbolTableRecord
100
AcDbTextStyleTableRecord
  2
STANDARD
 70
     0
 40
0.0
 41
1.0
 50
0.0
 71
     0
 42
2.0
  3
simplex.shx
  4
extfont.shx
  0
ENDTAB
  0
TABLE
  2
VIEW
  5
6C
330
0
100
AcDbSymbolTable
 70
     0
  0
ENDTAB
  0
TABLE
  2
UCS
  5
6D
330
0
100
AcDbSymbolTable
 70
     0
  0
ENDTAB
  0
TABLE
  2
APPID
  5
70
330
0
100
AcDbSymbolTable
 70
     1
  0
APPID
  5
71
330
70
100
AcDbSymbolTableRecord
100
AcDbRegAppTableRecord
  2
ACAD
 70
     0
  0
ENDTAB
  0
TABLE
  2
DIMSTYLE
  5
72
330
0
100
AcDbSymbolTable
 70
     1
  0
DIMSTYLE
105
73
102
{ACAD_REACTORS
330
929
330
92B
330
99A
330
A07
102
}
330
72
100
AcDbSymbolTableRecord
100
AcDbDimStyleTableRecord
  2
STANDARD
 70
     0
  3

  4

  5

  6

  7

 40
4.0
 41
1.8
 42
0.625
 43
3.75
 44
0.8
 45
0.0
 46
0.0
 47
0.0
 48
0.0
140
1.8
141
2.5
142
0.0
143
0.0394
144
1.0
145
0.0
146
1.0
147
0.75
 71
     0
 72
     0
 73
     0
 74
     0
 75
     0
 76
     0
 77
     1
 78
     8
170
     0
171
     4
172
     1
173
     0
174
     0
175
     0
176
     0
177
     0
178
     0
270
     8
271
     2
272
     2
273
     8
274
     4
340
16
275
     0
280
     0
281
     0
282
     0
283
     1
284
     0
285
     0
286
     0
287
     3
288
     0
  0
ENDTAB
  0
TABLE
  2
BLOCK_RECORD
  5
1
330
0
100
AcDbSymbolTable
 70
    46
  0
BLOCK_RECORD
  5
2
102
{ACAD_XDICTIONARY
360
10FA
102
}
330
1
100
AcDbSymbolTableRecord
100
AcDbBlockTableRecord
  2
*MODEL_SPACE
  0
BLOCK_RECORD
  5
10D3
102
{ACAD_XDICTIONARY
360
10FC
102
}
330
1
100
AcDbSymbolTableRecord
100
AcDbBlockTableRecord
  2
*PAPER_SPACE
  0
ENDTAB
  0
ENDSEC
  0
SECTION
  2
BLOCKS
  0
BLOCK
  5
5D
330
2
100
AcDbEntity
  8
0
100
AcDbBlockBegin
  2
*MODEL_SPACE
 70
     0
 10
0.0
 20
0.0
 30
0.0
  3
*MODEL_SPACE
  1

  0
ENDBLK
  5
5F
330
2
100
AcDbEntity
  8
0
100
AcDbBlockEnd
  0
BLOCK
  5
10D5
330
10D3
100
AcDbEntity
 67
     1
  8
0
100
AcDbBlockBegin
  2
*PAPER_SPACE
 70
     0
 10
0.0
 20
0.0
 30
0.0
  3
*PAPER_SPACE
  1

  0
ENDBLK
  5
10D6
330
10D3
100
AcDbEntity
 67
     1
  8
0
100
AcDbBlockEnd
  0
ENDSEC
  0
SECTION
  2
ENTITIES
  0
LINE
  5
8F7
330
2
100
AcDbEntity
  8
0
100
AcDbLine
 10
851.242261361458
 20
259.034806191137
 30
0.0
 11
851.242261361458
 21
247.034806191137
 31
0.0
  0
LINE
  5
8F8
330
2
100
AcDbEntity
  8
0
100
AcDbLine
 10
843.242261361458
 20
259.034806191137
 30
0.0
 11
843.242261361458
 21
247.034806191137
 31
0.0
  0
ARC
  5
8F9
330
2
100
AcDbEntity
  8
0
100
AcDbCircle
 10
866.2422613614578
 20
253.0348671911372
 30
0.0
 40
20.0
100
AcDbArc
 50
197.4575959999905
 51
162.542495999998
  0
LINE
  5
8FA
330
2
100
AcDbEntity
  8
0
100
AcDbLine
 10
601.8659026704675
 20
273.0349891911371
 30
0.0
 11
601.8659026704675
 21
233.0349891911371
 31
0.0
  0
ARC
  5
8FB
330
2
100
AcDbEntity
  8
0
100
AcDbCircle
 10
547.8659026704675
 20
253.0349891911371
 30
0.0
 40
6.0
100
AcDbArc
 50
90.0
 51
270.0
  0
LINE
  5
8FC
330
2
100
AcDbEntity
  8
0
100
AcDbLine
 10
536.8659026704675
 20
274.0352331911369
 30
0.0
 11
536.8659026704675
 21
232.0349891911371
 31
0.0
  0
CIRCLE
  5
8FE
330
2
100
AcDbEntity
  8
0
100
AcDbCircle
 10
866.2422613614578
 20
253.034806191137
 30
0.0
 40
50.0
  0
CIRCLE
  5
8FF
330
2
100
AcDbEntity
  8
0
100
AcDbCircle
 10
866.2422613614578
 20
253.034806191137
 30
0.0
 40
108.0
  0
CIRCLE
  5
900
330
2
100
AcDbEntity
  8
0
100
AcDbCircle
 10
866.2422613614578
 20
253.034806191137
 30
0.0
 40
115.0
  0
CIRCLE
  5
901
330
2
100
AcDbEntity
  8
CENTER
100
AcDbCircle
 10
866.2422613614578
 20
253.034806191137
 30
0.0
 40
155.0
  0
ARC
  5
902
330
2
100
AcDbEntity
  8
0
100
AcDbCircle
 10
1686.242261361457
 20
253.034806191137
 30
0.0
 40
955.0
100
AcDbArc
 50
173.2803039999959
 51
186.7543950000015
  0
ARC
  5
903
330
2
100
AcDbEntity
  8
0
100
AcDbCircle
 10
46.24217036145762
 20
253.034806191137
 30
0.0
 40
955.0
100
AcDbArc
 50
353.2457580000037
 51
6.719858000005062
  0
LINE
  5
904
330
2
100
AcDbEntity
  8
CENTER
100
AcDbLine
 10
996.5404754472857
 20
122.7393797712377
 30
0.0
 11
736.1791373964201
 21
383.0949896541294
 31
0.0
  0
LINE
  5
905
330
2
100
AcDbEntity
  8
CENTER
100
AcDbLine
 10
735.9465972658735
 20
122.7364691903396
 30
0.0
 11
996.3024876038266
 21
383.0978873848155
 31
0.0
  0
LINE
  5
906
330
2
100
AcDbEntity
  8
CENTER
100
AcDbLine
 10
866.2422613614578
 20
423.034806191137
 30
0.0
 11
866.2422613614578
 21
83.03480619113702
 31
0.0
  0
LINE
  5
90D
330
2
100
AcDbEntity
  8
0
100
AcDbLine
 10
512.8659026704675
 20
107.5602571911374
 30
0.0
 11
512.8655056704677
 21
384.5093541911371
 31
0.0
  0
LINE
  5
90E
330
2
100
AcDbEntity
  8
0
100
AcDbLine
 10
535.8659026704676
 20
367.5349891911371
 30
0.0
 11
535.8659026704676
 21
138.5349891911371
 31
0.0
  0
LINE
  5
90F
330
2
100
AcDbEntity
  8
0
100
AcDbLine
 10
530.8659026704675
 20
387.5349891911371
 30
0.0
 11
530.8659026704675
 21
104.5349891911371
 31
0.0
  0
LINE
  5
910
330
2
100
AcDbEntity
  8
0
100
AcDbLine
 10
413.8662996704677
 20
333.0346841911371
 30
0.0
 11
413.8659026704675
 21
110.034806191137
 31
0.0
  0
ARC
  5
911
330
2
100
AcDbEntity
  8
0
100
AcDbCircle
 10
387.3660856704676
 20
257.0351721911372
 30
0.0
 40
3.0
100
AcDbArc
 50
270.0
 51
0.0
  0
ARC
  5
912
330
2
100
AcDbEntity
  8
0
100
AcDbCircle
 10
385.8660856704677
 20
257.0351721911372
 30
0.0
 40
3.0
100
AcDbArc
 50
270.0
 51
0.0
  0
ARC
  5
913
330
2
100
AcDbEntity
  8
0
100
AcDbCircle
 10
317.3661016704676
 20
257.0351721911372
 30
0.0
 40
3.0
100
AcDbArc
 50
180.0
 51
270.0
  0
ARC
  5
914
330
2
100
AcDbEntity
  8
0
100
AcDbCircle
 10
314.8658876704679
 20
256.0351721911372
 30
0.0
 40
2.0
100
AcDbArc
 50
180.0
 51
270.0
  0
LINE
  5
915
330
2
100
AcDbEntity
  8
0
100
AcDbLine
 10
312.8658876704679
 20
254.7813881911372
 30
0.0
 11
312.8658876704679
 21
266.5986491911369
 31
0.0
  0
LINE
  5
916
330
2
100
AcDbEntity
  8
0
100
AcDbLine
 10
390.3659026704675
 20
266.5986491911369
 30
0.0
 11
390.3659026704675
 21
171.4717561911372
 31
0.0
  0
ARC
  5
917
330
2
100
AcDbEntity
  8
0
100
AcDbCircle
 10
247.7942936704679
 20
254.9121861911373
 30
0.0
 40
2.0
100
AcDbArc
 50
90.0
 51
188.2131959999914
  0
LINE
  5
918
330
2
100
AcDbEntity
  8
0
100
AcDbLine
 10
242.8660096704678
 20
264.597306191137
 30
0.0
 11
242.8660096704678
 21
197.5415811911373
 31
0.0
  0
LINE
  5
919
330
2
100
AcDbEntity
  8
0
100
AcDbLine
 10
240.0660366704677
 20
263.5915681911372
 30
0.0
 11
240.0660366704677
 21
199.0825351911373
 31
0.0
  0
LINE
  5
91A
330
2
100
AcDbEntity
  8
0
100
AcDbLine
 10
156.6660206704676
 20
263.5915681911372
 30
0.0
 11
156.6660206704676
 21
223.8328401911369
 31
0.0
  0
LINE
  5
91C
330
2
100
AcDbEntity
  8
0
100
AcDbLine
 10
153.8660176704678
 20
264.597306191137
 30
0.0
 11
153.8660176704678
 21
197.5415811911373
 31
0.0
  0
LINE
  5
91D
330
2
100
AcDbEntity
  8
0
100
AcDbLine
 10
404.8656896704677
 20
115.1413121911371
 30
0.0
 11
404.8660856704676
 21
327.9283601911372
 31
0.0
  0
LINE
  5
91E
330
2
100
AcDbEntity
  8
0
100
AcDbLine
 10
399.8660856704676
 20
290.034806191137
 30
0.0
 11
399.8660856704676
 21
148.034806191137
 31
0.0
  0
ARC
  5
921
330
2
100
AcDbEntity
  8
0
100
AcDbCircle
 10
-272.1339143295323
 20
219.034806191137
 30
0.0
 40
400.0
100
AcDbArc
 50
348.9150389999992
 51
11.33338099999434
  0
ARC
  5
922
330
2
100
AcDbEntity
  8
0
100
AcDbCircle
 10
519.8660856704676
 20
219.034806191137
 30
0.0
 40
420.0
100
AcDbArc
 50
171.0953219999952
 51
188.9046780000047
  0
LINE
  5
923
330
2
100
AcDbEntity
  8
0
100
AcDbLine
 10
303.3661016704676
 20
290.0352941911371
 30
0.0
 11
303.3661016704676
 21
148.0350501911373
 31
0.0
  0
LINE
  5
924
330
2
100
AcDbEntity
  8
0
100
AcDbLine
 10
303.3661016704676
 20
290.0351721911372
 30
0.0
 11
303.3661016704676
 21
148.0351721911372
 31
0.0
  0
LINE
  5
925
330
2
100
AcDbEntity
  8
0
100
AcDbLine
 10
299.3661016704676
 20
291.0351721911372
 30
0.0
 11
299.3661016704676
 21
147.0351721911372
 31
0.0
  0
LINE
  5
927
330
2
100
AcDbEntity
  8
0
100
AcDbLine
 10
299.3661016704676
 20
147.0351721911372
 30
0.0
 11
280.2051976704678
 21
147.0351721911372
 31
0.0
  0
LINE
  5
92A
330
2
100
AcDbEntity
  8
CENTER
100
AcDbLine
 10
84.86608567046767
 20
219.034806191137
 30
0.0
 11
485.2103856704679
 21
219.034806191137
 31
0.0
  0
LINE
  5
92D
330
2
100
AcDbEntity
  8
0
100
AcDbLine
 10
163.9105046704679
 20
143.0351721911372
 30
0.0
 11
277.8216976704678
 21
143.0351721911372
 31
0.0
  0
LINE
  5
92E
330
2
100
AcDbEntity
  8
0
100
AcDbLine
 10
278.3661016704676
 20
162.5246741911371
 30
0.0
 11
163.3661016704676
 21
162.5246741911371
 31
0.0
  0
LINE
  5
92F
330
2
100
AcDbEntity
  8
0
100
AcDbLine
 10
278.3661016704676
 20
177.6733561911371
 30
0.0
 11
163.3661016704676
 21
177.6733561911371
 31
0.0
  0
LINE
  5
930
330
2
100
AcDbEntity
  8
0
100
AcDbLine
 10
278.3661016704676
 20
170.1424721911373
 30
0.0
 11
163.3661016704676
 21
170.1424721911373
 31
0.0
  0
LINE
  5
931
330
2
100
AcDbEntity
  8
0
100
AcDbLine
 10
278.3661016704676
 20
172.1424721911373
 30
0.0
 11
163.3661016704676
 21
172.1424721911373
 31
0.0
  0
LINE
  5
932
330
2
100
AcDbEntity
  8
0
100
AcDbLine
 10
278.3661016704676
 20
164.5246741911371
 30
0.0
 11
163.3661016704676
 21
164.5246741911371
 31
0.0
  0
LINE
  5
933
330
2
100
AcDbEntity
  8
0
100
AcDbLine
 10
278.3661016704676
 20
179.6733561911371
 30
0.0
 11
163.3661016704676
 21
179.6733561911371
 31
0.0
  0
LINE
  5
934
330
2
100
AcDbEntity
  8
0
100
AcDbLine
 10
278.3661016704676
 20
154.4674841911371
 30
0.0
 11
163.3661016704676
 21
154.4674841911371
 31
0.0
  0
LINE
  5
935
330
2
100
AcDbEntity
  8
0
100
AcDbLine
 10
278.3661016704676
 20
156.4674841911371
 30
0.0
 11
163.3661016704676
 21
156.4674841911371
 31
0.0
  0
LINE
  5
936
330
2
100
AcDbEntity
  8
0
100
AcDbLine
 10
232.8660096704678
 20
188.3034211911374
 30
0.0
 11
163.8660176704678
 21
188.3034211911374
 31
0.0
  0
LINE
  5
937
330
2
100
AcDbEntity
  8
0
100
AcDbLine
 10
232.8660096704678
 20
187.5415811911373
 30
0.0
 11
163.8660176704678
 21
187.5415811911373
 31
0.0
  0
LINE
  5
938
330
2
100
AcDbEntity
  8
0
100
AcDbLine
 10
232.0660366704677
 20
191.0825351911373
 30
0.0
 11
164.6660206704676
 21
191.0825351911373
 31
0.0
  0
LINE
  5
939
330
2
100
AcDbEntity
  8
0
100
AcDbLine
 10
232.0660366704677
 20
195.7610021911371
 30
0.0
 11
164.6660206704676
 21
195.7610021911371
 31
0.0
  0
ARC
  5
93A
330
2
100
AcDbEntity
  8
0
100
AcDbCircle
 10
163.3661016704676
 20
178.6733561911371
 30
0.0
 40
1.0
100
AcDbArc
 50
90.0
 51
270.0
  0
LINE
  5
93B
330
2
100
AcDbEntity
  8
0
100
AcDbLine
 10
159.3661016704676
 20
147.0351721911372
 30
0.0
 11
159.3661016704676
 21
188.6112221911373
 31
0.0
  0
LINE
  5
93C
330
2
100
AcDbEntity
  8
0
100
AcDbLine
 10
158.3660786704675
 20
141.034806191137
 30
0.0
 11
158.3660786704675
 21
189.1898961911372
 31
0.0
  0
LINE
  5
93D
330
2
100
AcDbEntity
  8
0
100
AcDbLine
 10
158.3660786704675
 20
141.034806191137
 30
0.0
 11
122.1864846704678
 21
141.034806191137
 31
0.0
  0
ARC
  5
93E
330
2
100
AcDbEntity
  8
0
100
AcDbCircle
 10
117.7715636704677
 20
156.034806191137
 30
0.0
 40
13.0
100
AcDbArc
 50
188.9046780000047
 51
270.0
  0
LINE
  5
93F
330
2
100
AcDbEntity
  8
0
100
AcDbLine
 10
117.7715636704677
 20
143.034806191137
 30
0.0
 11
119.4001096704677
 21
143.0206461911373
 31
0.0
  0
ARC
  5
940
330
2
100
AcDbEntity
  8
0
100
AcDbCircle
 10
122.1864846704678
 20
143.034806191137
 30
0.0
 40
2.0
100
AcDbArc
 50
199.753586000015
 51
270.0
  0
ARC
  5
941
330
2
100
AcDbEntity
  8
0
100
AcDbCircle
 10
119.3630206704678
 20
142.0208901911371
 30
0.0
 40
1.0
100
AcDbArc
 50
19.75357800000324
 51
89.50000000000846
  0
ARC
  5
942
330
2
100
AcDbEntity
  8
0
100
AcDbCircle
 10
163.3661016704676
 20
171.1424721911373
 30
0.0
 40
1.0
100
AcDbArc
 50
90.0
 51
270.0
  0
ARC
  5
943
330
2
100
AcDbEntity
  8
0
100
AcDbCircle
 10
163.3661016704676
 20
163.5246741911371
 30
0.0
 40
1.0
100
AcDbArc
 50
90.0
 51
270.0
  0
ARC
  5
944
330
2
100
AcDbEntity
  8
0
100
AcDbCircle
 10
163.3661016704676
 20
155.4674841911371
 30
0.0
 40
1.0
100
AcDbArc
 50
90.0
 51
270.0
  0
LINE
  5
945
330
2
100
AcDbEntity
  8
0
100
AcDbLine
 10
158.3660936704676
 20
148.5351721911372
 30
0.0
 11
159.3660936704676
 21
148.5351721911372
 31
0.0
  0
LINE
  5
946
330
2
100
AcDbEntity
  8
0
100
AcDbLine
 10
162.9256866704676
 20
143.8615271911373
 30
0.0
 11
162.5118076704678
 21
146.2088171911375
 31
0.0
  0
ARC
  5
947
330
2
100
AcDbEntity
  8
0
100
AcDbCircle
 10
163.9105046704679
 20
144.0351721911372
 30
0.0
 40
1.0
100
AcDbArc
 50
190.0000000000035
 51
270.0
  0
LINE
  5
948
330
2
100
AcDbEntity
  8
0
100
AcDbLine
 10
161.5269896704679
 20
147.0351721911372
 30
0.0
 11
159.3661016704676
 21
147.0351721911372
 31
0.0
  0
LINE
  5
949
330
2
100
AcDbEntity
  8
0
100
AcDbLine
 10
162.3661016704676
 20
155.4674841911371
 30
0.0
 11
162.3661016704676
 21
146.5791781911373
 31
0.0
  0
ARC
  5
94A
330
2
100
AcDbEntity
  8
0
100
AcDbCircle
 10
161.5269896704679
 20
146.0351721911372
 30
0.0
 40
1.0
100
AcDbArc
 50
10.00000000000355
 51
90.0
  0
ARC
  5
94B
330
2
100
AcDbEntity
  8
0
100
AcDbCircle
 10
159.6660206704676
 20
223.8328401911369
 30
0.0
 40
3.0
100
AcDbArc
 50
180.0
 51
270.0
  0
ARC
  5
94C
330
2
100
AcDbEntity
  8
0
100
AcDbCircle
 10
158.6660206704676
 20
202.882950191137
 30
0.0
 40
2.0
100
AcDbArc
 50
84.26082599999073
 51
180.0
  0
LINE
  5
94D
330
2
100
AcDbEntity
  8
0
100
AcDbLine
 10
156.6660206704676
 20
202.882950191137
 30
0.0
 11
156.6660206704676
 21
199.0825351911373
 31
0.0
  0
ARC
  5
94E
330
2
100
AcDbEntity
  8
0
100
AcDbCircle
 10
164.6660206704676
 20
199.0825351911373
 30
0.0
 40
8.0
100
AcDbArc
 50
180.0
 51
270.0
  0
ARC
  5
94F
330
2
100
AcDbEntity
  8
0
100
AcDbCircle
 10
164.6660206704676
 20
203.761002191137
 30
0.0
 40
8.0
100
AcDbArc
 50
184.1990509999891
 51
270.0
  0
ARC
  5
950
330
2
100
AcDbEntity
  8
0
100
AcDbCircle
 10
163.8660176704678
 20
197.5415811911373
 30
0.0
 40
10.0
100
AcDbArc
 50
180.0
 51
270.0
  0
ARC
  5
951
330
2
100
AcDbEntity
  8
0
100
AcDbCircle
 10
163.8660176704678
 20
198.3034211911374
 30
0.0
 40
10.0
100
AcDbArc
 50
180.0
 51
270.0
  0
ARC
  5
952
330
2
100
AcDbEntity
  8
0
100
AcDbCircle
 10
159.6660206704676
 20
212.8328401911369
 30
0.0
 40
8.0
100
AcDbArc
 50
264.2608340000037
 51
90.0
  0
CIRCLE
  5
953
330
2
100
AcDbEntity
  8
0
100
AcDbCircle
 10
159.6660206704676
 20
212.8328401911369
 30
0.0
 40
4.0
  0
ARC
  5
954
330
2
100
AcDbEntity
  8
0
100
AcDbCircle
 10
278.3661016704676
 20
178.6733561911371
 30
0.0
 40
1.0
100
AcDbArc
 50
270.0
 51
90.0
  0
ARC
  5
955
330
2
100
AcDbEntity
  8
0
100
AcDbCircle
 10
278.3661016704676
 20
171.1424721911373
 30
0.0
 40
1.0
100
AcDbArc
 50
270.0
 51
90.0
  0
ARC
  5
956
330
2
100
AcDbEntity
  8
0
100
AcDbCircle
 10
278.3661016704676
 20
163.5246741911371
 30
0.0
 40
1.0
100
AcDbArc
 50
270.0
 51
90.0
  0
ARC
  5
957
330
2
100
AcDbEntity
  8
0
100
AcDbCircle
 10
278.3661016704676
 20
155.4674841911371
 30
0.0
 40
1.0
100
AcDbArc
 50
270.0
 51
90.0
  0
LINE
  5
958
330
2
100
AcDbEntity
  8
0
100
AcDbLine
 10
278.8065006704676
 20
143.8615271911373
 30
0.0
 11
279.2203946704679
 21
146.2088171911375
 31
0.0
  0
ARC
  5
959
330
2
100
AcDbEntity
  8
0
100
AcDbCircle
 10
277.8216976704678
 20
144.0351721911372
 30
0.0
 40
1.0
100
AcDbArc
 50
270.0
 51
349.9999999999956
  0
LINE
  5
95A
330
2
100
AcDbEntity
  8
0
100
AcDbLine
 10
279.3661016704676
 20
154.4674841911371
 30
0.0
 11
279.3661016704676
 21
146.5791781911373
 31
0.0
  0
ARC
  5
95B
330
2
100
AcDbEntity
  8
0
100
AcDbCircle
 10
280.2051976704678
 20
146.0351721911372
 30
0.0
 40
1.0
100
AcDbArc
 50
90.0
 51
169.9999999999964
  0
ARC
  5
95C
330
2
100
AcDbEntity
  8
0
100
AcDbCircle
 10
232.8660096704678
 20
197.5415811911373
 30
0.0
 40
10.0
100
AcDbArc
 50
270.0
 51
0.0
  0
ARC
  5
95D
330
2
100
AcDbEntity
  8
0
100
AcDbCircle
 10
232.8660096704678
 20
198.3034211911374
 30
0.0
 40
10.0
100
AcDbArc
 50
270.0
 51
0.0
  0
LINE
  5
95E
330
2
100
AcDbEntity
  8
0
100
AcDbLine
 10
278.3661016704676
 20
191.0169831911373
 30
0.0
 11
240.4442566704677
 21
191.0169831911373
 31
0.0
  0
LINE
  5
95F
330
2
100
AcDbEntity
  8
0
100
AcDbLine
 10
278.3661016704676
 20
193.0169831911373
 30
0.0
 11
241.7838716704676
 21
193.0169831911373
 31
0.0
  0
ARC
  5
960
330
2
100
AcDbEntity
  8
0
100
AcDbCircle
 10
232.0660366704677
 20
203.761002191137
 30
0.0
 40
8.0
100
AcDbArc
 50
270.0
 51
0.0
  0
ARC
  5
961
330
2
100
AcDbEntity
  8
0
100
AcDbCircle
 10
232.0660366704677
 20
199.0825351911373
 30
0.0
 40
8.0
100
AcDbArc
 50
270.0
 51
0.0
  0
ARC
  5
962
330
2
100
AcDbEntity
  8
0
100
AcDbCircle
 10
278.3661016704676
 20
235.1121981911371
 30
0.0
 40
1.0
100
AcDbArc
 50
270.0
 51
90.0
  0
ARC
  5
963
330
2
100
AcDbEntity
  8
0
100
AcDbCircle
 10
278.3661016704676
 20
215.1121981911371
 30
0.0
 40
1.0
100
AcDbArc
 50
270.0
 51
90.0
  0
ARC
  5
964
330
2
100
AcDbEntity
  8
0
100
AcDbCircle
 10
278.3661016704676
 20
222.7121741911371
 30
0.0
 40
1.0
100
AcDbArc
 50
270.0
 51
90.0
  0
ARC
  5
965
330
2
100
AcDbEntity
  8
0
100
AcDbCircle
 10
278.3661016704676
 20
250.3122111911372
 30
0.0
 40
1.0
100
AcDbArc
 50
270.0
 51
90.0
  0
ARC
  5
966
330
2
100
AcDbEntity
  8
0
100
AcDbCircle
 10
278.3661016704676
 20
242.7121741911371
 30
0.0
 40
1.0
100
AcDbArc
 50
270.0
 51
90.0
  0
ARC
  5
967
330
2
100
AcDbEntity
  8
0
100
AcDbCircle
 10
246.8661016704676
 20
235.1121981911371
 30
0.0
 40
1.0
100
AcDbArc
 50
90.0
 51
270.0
  0
ARC
  5
968
330
2
100
AcDbEntity
  8
0
100
AcDbCircle
 10
247.8661016704676
 20
238.1121981911371
 30
0.0
 40
2.0
100
AcDbArc
 50
180.0
 51
270.0
  0
LINE
  5
969
330
2
100
AcDbEntity
  8
0
100
AcDbLine
 10
245.8661016704676
 20
219.7121741911371
 30
0.0
 11
245.8661016704676
 21
218.1121981911371
 31
0.0
  0
ARC
  5
96A
330
2
100
AcDbEntity
  8
0
100
AcDbCircle
 10
246.8661016704676
 20
215.1121981911371
 30
0.0
 40
1.0
100
AcDbArc
 50
90.0
 51
270.0
  0
ARC
  5
96B
330
2
100
AcDbEntity
  8
0
100
AcDbCircle
 10
247.8661016704676
 20
218.1121981911371
 30
0.0
 40
2.0
100
AcDbArc
 50
180.0
 51
270.0
  0
LINE
  5
96C
330
2
100
AcDbEntity
  8
0
100
AcDbLine
 10
245.8661016704676
 20
232.1121981911371
 30
0.0
 11
245.8661016704676
 21
225.7121741911371
 31
0.0
  0
ARC
  5
96D
330
2
100
AcDbEntity
  8
0
100
AcDbCircle
 10
246.8661016704676
 20
222.7121741911371
 30
0.0
 40
1.0
100
AcDbArc
 50
90.0
 51
270.0
  0
ARC
  5
96E
330
2
100
AcDbEntity
  8
0
100
AcDbCircle
 10
247.8661016704676
 20
225.7121741911371
 30
0.0
 40
2.0
100
AcDbArc
 50
180.0
 51
270.0
  0
ARC
  5
96F
330
2
100
AcDbEntity
  8
0
100
AcDbCircle
 10
247.8661016704676
 20
219.7121741911371
 30
0.0
 40
2.0
100
AcDbArc
 50
90.0
 51
180.0
  0
ARC
  5
970
330
2
100
AcDbEntity
  8
0
100
AcDbCircle
 10
247.8661016704676
 20
232.1121981911371
 30
0.0
 40
2.0
100
AcDbArc
 50
90.0
 51
180.0
  0
ARC
  5
971
330
2
100
AcDbEntity
  8
0
100
AcDbCircle
 10
247.8661016704676
 20
253.3122111911373
 30
0.0
 40
2.0
100
AcDbArc
 50
180.0
 51
270.0
  0
LINE
  5
972
330
2
100
AcDbEntity
  8
0
100
AcDbLine
 10
245.8661016704676
 20
247.3122111911373
 30
0.0
 11
245.8661016704676
 21
245.7121741911371
 31
0.0
  0
LINE
  5
973
330
2
100
AcDbEntity
  8
0
100
AcDbLine
 10
245.8661016704676
 20
239.7121741911371
 30
0.0
 11
245.8661016704676
 21
238.1121981911371
 31
0.0
  0
ARC
  5
974
330
2
100
AcDbEntity
  8
0
100
AcDbCircle
 10
246.8661016704676
 20
250.3122111911372
 30
0.0
 40
1.0
100
AcDbArc
 50
90.0
 51
270.0
  0
ARC
  5
975
330
2
100
AcDbEntity
  8
0
100
AcDbCircle
 10
246.8661016704676
 20
242.7121741911371
 30
0.0
 40
1.0
100
AcDbArc
 50
90.0
 51
270.0
  0
ARC
  5
976
330
2
100
AcDbEntity
  8
0
100
AcDbCircle
 10
247.8661016704676
 20
247.3122111911373
 30
0.0
 40
2.0
100
AcDbArc
 50
90.0
 51
180.0
  0
ARC
  5
977
330
2
100
AcDbEntity
  8
0
100
AcDbCircle
 10
247.8661016704676
 20
239.7121741911371
 30
0.0
 40
2.0
100
AcDbArc
 50
90.0
 51
180.0
  0
ARC
  5
978
330
2
100
AcDbEntity
  8
0
100
AcDbCircle
 10
247.8661016704676
 20
245.7121741911371
 30
0.0
 40
2.0
100
AcDbArc
 50
180.0
 51
270.0
  0
LINE
  5
979
330
2
100
AcDbEntity
  8
0
100
AcDbLine
 10
245.8661016704676
 20
253.9121861911374
 30
0.0
 11
245.8661016704676
 21
253.3122111911373
 31
0.0
  0
ARC
  5
97A
330
2
100
AcDbEntity
  8
0
100
AcDbCircle
 10
240.8661016704676
 20
253.9121861911374
 30
0.0
 40
5.0
100
AcDbArc
 50
0.0
 51
8.213211000012952
  0
LINE
  5
97B
330
2
100
AcDbEntity
  8
0
100
AcDbLine
 10
245.8661016704676
 20
212.1121981911371
 30
0.0
 11
245.8661016704676
 21
210.512223191137
 31
0.0
  0
ARC
  5
97C
330
2
100
AcDbEntity
  8
0
100
AcDbCircle
 10
247.8661016704676
 20
212.1121981911371
 30
0.0
 40
2.0
100
AcDbArc
 50
90.0
 51
180.0
  0
LINE
  5
97D
330
2
100
AcDbEntity
  8
0
100
AcDbLine
 10
278.3661016704676
 20
223.7121741911371
 30
0.0
 11
246.8661016704676
 21
223.7121741911371
 31
0.0
  0
LINE
  5
97E
330
2
100
AcDbEntity
  8
0
100
AcDbLine
 10
278.3661016704676
 20
221.7121741911371
 30
0.0
 11
246.8661016704676
 21
221.7121741911371
 31
0.0
  0
LINE
  5
97F
330
2
100
AcDbEntity
  8
0
100
AcDbLine
 10
278.3661016704676
 20
214.1121981911371
 30
0.0
 11
246.8661016704676
 21
214.1121981911371
 31
0.0
  0
LINE
  5
980
330
2
100
AcDbEntity
  8
0
100
AcDbLine
 10
278.3661016704676
 20
216.1121981911371
 30
0.0
 11
246.8661016704676
 21
216.1121981911371
 31
0.0
  0
LINE
  5
981
330
2
100
AcDbEntity
  8
0
100
AcDbLine
 10
278.3661016704676
 20
249.3122111911373
 30
0.0
 11
246.8661016704676
 21
249.3122111911373
 31
0.0
  0
LINE
  5
982
330
2
100
AcDbEntity
  8
0
100
AcDbLine
 10
278.3661016704676
 20
251.3122111911373
 30
0.0
 11
246.8661016704676
 21
251.3122111911373
 31
0.0
  0
LINE
  5
983
330
2
100
AcDbEntity
  8
0
100
AcDbLine
 10
278.3661016704676
 20
241.7121741911371
 30
0.0
 11
246.8661016704676
 21
241.7121741911371
 31
0.0
  0
LINE
  5
984
330
2
100
AcDbEntity
  8
0
100
AcDbLine
 10
278.3661016704676
 20
243.7121741911371
 30
0.0
 11
246.8661016704676
 21
243.7121741911371
 31
0.0
  0
LINE
  5
985
330
2
100
AcDbEntity
  8
0
100
AcDbLine
 10
278.3661016704676
 20
236.1121981911371
 30
0.0
 11
246.8661016704676
 21
236.1121981911371
 31
0.0
  0
LINE
  5
986
330
2
100
AcDbEntity
  8
0
100
AcDbLine
 10
278.3661016704676
 20
234.1121981911371
 30
0.0
 11
246.8661016704676
 21
234.1121981911371
 31
0.0
  0
ARC
  5
987
330
2
100
AcDbEntity
  8
0
100
AcDbCircle
 10
278.3661016704676
 20
199.9121861911373
 30
0.0
 40
1.0
100
AcDbArc
 50
270.0
 51
90.0
  0
ARC
  5
988
330
2
100
AcDbEntity
  8
0
100
AcDbCircle
 10
278.3661016704676
 20
192.0169831911373
 30
0.0
 40
1.0
100
AcDbArc
 50
270.0
 51
90.0
  0
ARC
  5
989
330
2
100
AcDbEntity
  8
0
100
AcDbCircle
 10
278.3661016704676
 20
207.512223191137
 30
0.0
 40
1.0
100
AcDbArc
 50
270.0
 51
90.0
  0
ARC
  5
98A
330
2
100
AcDbEntity
  8
0
100
AcDbCircle
 10
240.8661016704676
 20
203.9121861911374
 30
0.0
 40
5.0
100
AcDbArc
 50
351.786788999987
 51
0.0
  0
ARC
  5
98B
330
2
100
AcDbEntity
  8
0
100
AcDbCircle
 10
246.8661016704676
 20
199.9121861911373
 30
0.0
 40
1.0
100
AcDbArc
 50
90.0
 51
270.0
  0
ARC
  5
98C
330
2
100
AcDbEntity
  8
0
100
AcDbCircle
 10
247.7942936704679
 20
202.9121861911373
 30
0.0
 40
2.0
100
AcDbArc
 50
171.786788999987
 51
270.0
  0
LINE
  5
98D
330
2
100
AcDbEntity
  8
0
100
AcDbLine
 10
245.8661016704676
 20
204.512223191137
 30
0.0
 11
245.8661016704676
 21
203.9121861911374
 31
0.0
  0
ARC
  5
98E
330
2
100
AcDbEntity
  8
0
100
AcDbCircle
 10
246.8661016704676
 20
207.512223191137
 30
0.0
 40
1.0
100
AcDbArc
 50
90.0
 51
270.0
  0
ARC
  5
98F
330
2
100
AcDbEntity
  8
0
100
AcDbCircle
 10
247.8661016704676
 20
204.512223191137
 30
0.0
 40
2.0
100
AcDbArc
 50
90.0
 51
180.0
  0
LINE
  5
990
330
2
100
AcDbEntity
  8
0
100
AcDbLine
 10
278.3661016704676
 20
198.9121861911373
 30
0.0
 11
242.8660096704678
 21
198.9121861911373
 31
0.0
  0
LINE
  5
991
330
2
100
AcDbEntity
  8
0
100
AcDbLine
 10
278.3661016704676
 20
200.9121861911373
 30
0.0
 11
246.8661016704676
 21
200.9121861911373
 31
0.0
  0
LINE
  5
992
330
2
100
AcDbEntity
  8
0
100
AcDbLine
 10
278.3661016704676
 20
206.512223191137
 30
0.0
 11
246.8661016704676
 21
206.512223191137
 31
0.0
  0
LINE
  5
993
330
2
100
AcDbEntity
  8
0
100
AcDbLine
 10
278.3661016704676
 20
208.512223191137
 30
0.0
 11
246.8661016704676
 21
208.512223191137
 31
0.0
  0
ARC
  5
994
330
2
100
AcDbEntity
  8
0
100
AcDbCircle
 10
247.8661016704676
 20
210.512223191137
 30
0.0
 40
2.0
100
AcDbArc
 50
180.0
 51
270.0
  0
LINE
  5
995
330
2
100
AcDbEntity
  8
0
100
AcDbLine
 10
413.8660856704676
 20
155.705155191137
 30
0.0
 11
512.8659026704675
 21
158.2969521911375
 31
0.0
  0
LINE
  5
996
330
2
100
AcDbEntity
  8
CENTER
100
AcDbLine
 10
540.8659026704675
 20
143.4321451911366
 30
0.0
 11
502.8658512489622
 21
143.432145191138
 31
0.0
  0
ARC
  5
997
330
2
100
AcDbEntity
  8
0
100
AcDbCircle
 10
512.8648956704677
 20
1059.889431191137
 30
0.0
 40
955.0
100
AcDbArc
 50
264.0498050000023
 51
269.5638120000024
  0
LINE
  5
998
330
2
100
AcDbEntity
  8
0
100
AcDbLine
 10
413.8660856704676
 20
133.402970191137
 30
0.0
 11
512.8659026704675
 21
130.810135191137
 31
0.0
  0
LINE
  5
999
330
2
100
AcDbEntity
  8
CENTER
100
AcDbLine
 10
463.6160856704676
 20
253.0349891911371
 30
0.0
 11
616.865902670468
 21
253.0349891911371
 31
0.0
  0
LINE
  5
99B
330
2
100
AcDbEntity
  8
0
100
AcDbLine
 10
401.9707306704679
 20
147.9613191911373
 30
0.0
 11
399.8660856704676
 21
148.034806191137
 31
0.0
  0
LINE
  5
99C
330
2
100
AcDbEntity
  8
0
100
AcDbLine
 10
388.8660856704676
 20
167.0351721911372
 30
0.0
 11
388.8660856704676
 21
181.0351721911372
 31
0.0
  0
LINE
  5
99D
330
2
100
AcDbEntity
  8
0
100
AcDbLine
 10
314.3661016704676
 20
167.0351721911372
 30
0.0
 11
314.3661016704676
 21
181.0351721911372
 31
0.0
  0
LINE
  5
99E
330
2
100
AcDbEntity
  8
0
100
AcDbLine
 10
312.8661016704676
 20
171.4716951911371
 30
0.0
 11
312.8661016704676
 21
223.7702181911374
 31
0.0
  0
LINE
  5
99F
330
2
100
AcDbEntity
  8
0
100
AcDbLine
 10
384.4660916704678
 20
160.5344401911372
 30
0.0
 11
318.7660946704676
 21
160.5344401911372
 31
0.0
  0
LINE
  5
9A0
330
2
100
AcDbEntity
  8
0
100
AcDbLine
 10
387.3660856704676
 20
161.5351721911372
 30
0.0
 11
315.8661016704676
 21
161.5351721911372
 31
0.0
  0
LINE
  5
9A1
330
2
100
AcDbEntity
  8
0
100
AcDbLine
 10
317.3661016704676
 20
174.5351721911372
 30
0.0
 11
385.8660856704677
 21
174.5351721911372
 31
0.0
  0
ARC
  5
9A2
330
2
100
AcDbEntity
  8
0
100
AcDbCircle
 10
313.3661016704676
 20
169.5351721911372
 30
0.0
 40
1.0
100
AcDbArc
 50
0.0
 51
75.52300999999788
  0
ARC
  5
9A3
330
2
100
AcDbEntity
  8
0
100
AcDbCircle
 10
313.8661016704676
 20
171.4716951911371
 30
0.0
 40
1.0
100
AcDbArc
 50
180.0
 51
255.5223999999952
  0
LINE
  5
9A4
330
2
100
AcDbEntity
  8
0
100
AcDbLine
 10
312.8661016704676
 20
149.0349281911369
 30
0.0
 11
312.8661016704676
 21
165.0987711911373
 31
0.0
  0
LINE
  5
9A5
330
2
100
AcDbEntity
  8
0
100
AcDbLine
 10
315.7660946704676
 20
157.5344401911372
 30
0.0
 11
315.7660946704676
 21
149.0343781911372
 31
0.0
  0
ARC
  5
9A6
330
2
100
AcDbEntity
  8
0
100
AcDbCircle
 10
311.8661016704676
 20
149.0350501911373
 30
0.0
 40
1.0
100
AcDbArc
 50
270.0
 51
0.0
  0
ARC
  5
9A7
330
2
100
AcDbEntity
  8
0
100
AcDbCircle
 10
314.7660946704676
 20
149.0343781911372
 30
0.0
 40
1.0
100
AcDbArc
 50
270.0
 51
0.0
  0
ARC
  5
9A8
330
2
100
AcDbEntity
  8
0
100
AcDbCircle
 10
315.8661016704676
 20
158.5351721911372
 30
0.0
 40
3.0
100
AcDbArc
 50
90.0
 51
180.0
  0
ARC
  5
9A9
330
2
100
AcDbEntity
  8
0
100
AcDbCircle
 10
313.3661016704676
 20
167.0351721911372
 30
0.0
 40
1.0
100
AcDbArc
 50
284.484786999994
 51
0.0
  0
ARC
  5
9AA
330
2
100
AcDbEntity
  8
0
100
AcDbCircle
 10
313.8662996704677
 20
165.0987711911373
 30
0.0
 40
1.0
100
AcDbArc
 50
104.4813999999918
 51
180.0
  0
ARC
  5
9AB
330
2
100
AcDbEntity
  8
0
100
AcDbCircle
 10
317.3661016704676
 20
171.5351721911372
 30
0.0
 40
3.0
100
AcDbArc
 50
90.0
 51
180.0
  0
ARC
  5
9AC
330
2
100
AcDbEntity
  8
0
100
AcDbCircle
 10
318.7660946704676
 20
157.5344401911372
 30
0.0
 40
3.0
100
AcDbArc
 50
90.0
 51
180.0
  0
LINE
  5
9AD
330
2
100
AcDbEntity
  8
0
100
AcDbLine
 10
299.3661016704676
 20
148.0351721911372
 30
0.0
 11
303.3661016704676
 21
148.0351721911372
 31
0.0
  0
LINE
  5
9AE
330
2
100
AcDbEntity
  8
0
100
AcDbLine
 10
314.7660946704676
 20
148.0350501911373
 30
0.0
 11
303.3661016704676
 21
148.0350501911373
 31
0.0
  0
ARC
  5
9AF
330
2
100
AcDbEntity
  8
0
100
AcDbCircle
 10
389.8660856704676
 20
169.5351721911372
 30
0.0
 40
1.0
100
AcDbArc
 50
104.4772030000042
 51
180.0
  0
ARC
  5
9B0
330
2
100
AcDbEntity
  8
0
100
AcDbCircle
 10
389.3660856704676
 20
171.4716951911371
 30
0.0
 40
1.0
100
AcDbArc
 50
284.4776000000047
 51
0.0
  0
LINE
  5
9B1
330
2
100
AcDbEntity
  8
0
100
AcDbLine
 10
388.4660916704678
 20
148.0350501911373
 30
0.0
 11
399.8660856704676
 21
148.0350501911373
 31
0.0
  0
ARC
  5
9B2
330
2
100
AcDbEntity
  8
0
100
AcDbCircle
 10
387.3660856704676
 20
158.5351721911372
 30
0.0
 40
3.0
100
AcDbArc
 50
0.0
 51
90.0
  0
ARC
  5
9B3
330
2
100
AcDbEntity
  8
0
100
AcDbCircle
 10
391.3660856704676
 20
149.0350501911373
 30
0.0
 40
1.0
100
AcDbArc
 50
180.0
 51
270.0
  0
LINE
  5
9B4
330
2
100
AcDbEntity
  8
0
100
AcDbLine
 10
390.3660856704676
 20
149.0349281911369
 30
0.0
 11
390.3660856704676
 21
165.0987711911373
 31
0.0
  0
LINE
  5
9B5
330
2
100
AcDbEntity
  8
0
100
AcDbLine
 10
387.4660916704677
 20
157.5344401911372
 30
0.0
 11
387.4660916704677
 21
149.0344401911372
 31
0.0
  0
ARC
  5
9B6
330
2
100
AcDbEntity
  8
0
100
AcDbCircle
 10
388.4660916704678
 20
149.0344401911372
 30
0.0
 40
1.0
100
AcDbArc
 50
180.0
 51
270.0
  0
ARC
  5
9B7
330
2
100
AcDbEntity
  8
0
100
AcDbCircle
 10
389.8660856704676
 20
167.0351721911372
 30
0.0
 40
1.0
100
AcDbArc
 50
180.0
 51
255.5151979999955
  0
ARC
  5
9B8
330
2
100
AcDbEntity
  8
0
100
AcDbCircle
 10
389.3659026704675
 20
165.0987711911373
 30
0.0
 40
1.0
100
AcDbArc
 50
0.0
 51
75.51860000000812
  0
ARC
  5
9B9
330
2
100
AcDbEntity
  8
0
100
AcDbCircle
 10
385.8660856704677
 20
171.5351721911372
 30
0.0
 40
3.0
100
AcDbArc
 50
0.0
 51
90.0
  0
ARC
  5
9BA
330
2
100
AcDbEntity
  8
0
100
AcDbCircle
 10
384.4660916704678
 20
157.5344401911372
 30
0.0
 40
3.0
100
AcDbArc
 50
0.0
 51
90.0
  0
LINE
  5
9BB
330
2
100
AcDbEntity
  8
0
100
AcDbLine
 10
322.8661016704676
 20
220.0351721911372
 30
0.0
 11
350.8661016704676
 21
220.0351721911372
 31
0.0
  0
LINE
  5
9BC
330
2
100
AcDbEntity
  8
0
100
AcDbLine
 10
314.8658876704679
 20
254.0351721911372
 30
0.0
 11
387.3660856704676
 21
254.0351721911372
 31
0.0
  0
LINE
  5
9BD
330
2
100
AcDbEntity
  8
0
100
AcDbLine
 10
322.8661016704676
 20
192.0351721911372
 30
0.0
 11
350.8661016704676
 21
192.0351721911372
 31
0.0
  0
LINE
  5
9BE
330
2
100
AcDbEntity
  8
0
100
AcDbLine
 10
315.8661016704676
 20
184.0351721911372
 30
0.0
 11
387.3660856704676
 21
184.0351721911372
 31
0.0
  0
ARC
  5
9BF
330
2
100
AcDbEntity
  8
0
100
AcDbCircle
 10
322.8661016704676
 20
217.0351721911372
 30
0.0
 40
3.0
100
AcDbArc
 50
90.0
 51
180.0
  0
LINE
  5
9C0
330
2
100
AcDbEntity
  8
0
100
AcDbLine
 10
314.8661016704676
 20
246.5351721911372
 30
0.0
 11
314.866101670468
 21
222.2675696537078
 31
0.0
  0
LINE
  5
9C1
330
2
100
AcDbEntity
  8
0
100
AcDbLine
 10
313.3661016704676
 20
246.5351721911372
 30
0.0
 11
313.3661016704676
 21
223.1675571911375
 31
0.0
  0
LINE
  5
9C2
330
2
100
AcDbEntity
  8
0
100
AcDbLine
 10
311.8661016704676
 20
246.5351721911372
 30
0.0
 11
311.8661016704676
 21
222.6201941911369
 31
0.0
  0
LINE
  5
9C3
330
2
100
AcDbEntity
  8
HOJO
100
AcDbLine
 10
311.8661016704676
 20
222.6201941911369
 30
0.0
 11
313.3661016704676
 21
224.3451835130983
 31
0.0
  0
LINE
  5
9C4
330
2
100
AcDbEntity
  8
HOJO
100
AcDbLine
 10
313.3661016704676
 20
223.1675571911375
 30
0.0
 11
314.866101670468
 21
222.2675696537078
 31
0.0
  0
ARC
  5
9C5
330
2
100
AcDbEntity
  8
0
100
AcDbCircle
 10
307.8661016704676
 20
254.7813881911372
 30
0.0
 40
5.0
100
AcDbArc
 50
311.3043789999939
 51
0.0
  0
ARC
  5
9C6
330
2
100
AcDbEntity
  8
0
100
AcDbCircle
 10
313.3661016704676
 20
246.5351721911372
 30
0.0
 40
5.0
100
AcDbArc
 50
116.100997999999
 51
161.3368989999863
  0
ARC
  5
9C7
330
2
100
AcDbEntity
  8
0
100
AcDbCircle
 10
313.3661016704676
 20
246.5351721911372
 30
0.0
 40
5.0
100
AcDbArc
 50
198.662918000007
 51
243.899002000001
  0
LINE
  5
9C8
330
2
100
AcDbEntity
  8
0
100
AcDbLine
 10
306.8661016704676
 20
248.1352091911373
 30
0.0
 11
306.8661016704676
 21
244.9351961911372
 31
0.0
  0
ARC
  5
9C9
330
2
100
AcDbEntity
  8
0
100
AcDbCircle
 10
307.8661016704676
 20
238.2889561911372
 30
0.0
 40
5.0
100
AcDbArc
 50
36.86990000000571
 51
48.69551099999145
  0
ARC
  5
9CA
330
2
100
AcDbEntity
  8
0
100
AcDbCircle
 10
307.8661016704676
 20
238.2890171911374
 30
0.0
 40
5.0
100
AcDbArc
 50
36.86990000000571
 51
48.69551099999145
  0
ARC
  5
9CB
330
2
100
AcDbEntity
  8
0
100
AcDbCircle
 10
314.1161016704676
 20
246.5351721911372
 30
0.0
 40
0.75
100
AcDbArc
 50
0.0
 51
180.0
  0
ARC
  5
9CC
330
2
100
AcDbEntity
  8
0
100
AcDbCircle
 10
312.6161016704676
 20
246.5351721911372
 30
0.0
 40
0.75
100
AcDbArc
 50
0.0
 51
180.0
  0
ARC
  5
9CD
330
2
100
AcDbEntity
  8
0
100
AcDbCircle
 10
313.3661016704676
 20
246.5351721911372
 30
0.0
 40
3.0
100
AcDbArc
 50
300.0000609999943
 51
239.9998930000032
  0
ARC
  5
9CE
330
2
100
AcDbEntity
  8
0
100
AcDbCircle
 10
322.8661016704676
 20
195.0351721911372
 30
0.0
 40
3.0
100
AcDbArc
 50
180.0
 51
270.0
  0
ARC
  5
9CF
330
2
100
AcDbEntity
  8
0
100
AcDbCircle
 10
315.8661016704676
 20
181.0351721911372
 30
0.0
 40
3.0
100
AcDbArc
 50
90.0
 51
180.0
  0
ARC
  5
9D0
330
2
100
AcDbEntity
  8
0
100
AcDbCircle
 10
317.3661016704676
 20
181.0351721911372
 30
0.0
 40
3.0
100
AcDbArc
 50
90.0
 51
180.0
  0
LINE
  5
9D1
330
2
100
AcDbEntity
  8
0
100
AcDbLine
 10
319.8661016704676
 20
217.0351721911372
 30
0.0
 11
319.8661016704676
 21
195.0351721911372
 31
0.0
  0
LINE
  5
9D2
330
2
100
AcDbEntity
  8
0
100
AcDbLine
 10
303.3661016704676
 20
248.1352091911373
 30
0.0
 11
310.8283816704678
 21
248.1352091911373
 31
0.0
  0
LINE
  5
9D3
330
2
100
AcDbEntity
  8
0
100
AcDbLine
 10
303.3661016704676
 20
244.9351961911372
 30
0.0
 11
310.8283816704678
 21
244.9351961911372
 31
0.0
  0
ARC
  5
9D4
330
2
100
AcDbEntity
  8
0
100
AcDbCircle
 10
365.3660856704676
 20
246.5351721911372
 30
0.0
 40
5.5
100
AcDbArc
 50
285.8266220000073
 51
0.0
  0
ARC
  5
9D5
330
2
100
AcDbEntity
  8
0
100
AcDbCircle
 10
372.8660856704676
 20
252.0351721911372
 30
0.0
 40
2.0
100
AcDbArc
 50
90.0
 51
180.0
  0
LINE
  5
9D6
330
2
100
AcDbEntity
  8
0
100
AcDbLine
 10
381.8660856704676
 20
220.0351721911372
 30
0.0
 11
362.3660856704676
 21
220.0351721911372
 31
0.0
  0
LINE
  5
9D7
330
2
100
AcDbEntity
  8
0
100
AcDbLine
 10
363.8660856704676
 20
246.5351721911372
 30
0.0
 11
363.8660856704676
 21
222.343338191137
 31
0.0
  0
LINE
  5
9D8
330
2
100
AcDbEntity
  8
0
100
AcDbLine
 10
365.3660856704676
 20
246.5351721911372
 30
0.0
 11
365.3660856704676
 21
222.4583901911371
 31
0.0
  0
LINE
  5
9D9
330
2
100
AcDbEntity
  8
0
100
AcDbLine
 10
366.8660856704676
 20
246.5351721911372
 30
0.0
 11
366.8660856704676
 21
221.6012731911371
 31
0.0
  0
LINE
  5
9DA
330
2
100
AcDbEntity
  8
HOJO
100
AcDbLine
 10
363.8660856704676
 20
222.343338191137
 30
0.0
 11
365.3660856704676
 21
223.5808261911372
 31
0.0
  0
LINE
  5
9DB
330
2
100
AcDbEntity
  8
HOJO
100
AcDbLine
 10
365.3660856704676
 20
222.4583901911371
 30
0.0
 11
366.8660856704676
 21
221.6012731911371
 31
0.0
  0
ARC
  5
9DC
330
2
100
AcDbEntity
  8
0
100
AcDbCircle
 10
366.1160856704676
 20
246.5351721911372
 30
0.0
 40
0.75
100
AcDbArc
 50
0.0
 51
180.0
  0
ARC
  5
9DD
330
2
100
AcDbEntity
  8
0
100
AcDbCircle
 10
364.6160856704676
 20
246.5351721911372
 30
0.0
 40
0.75
100
AcDbArc
 50
0.0
 51
180.0
  0
ARC
  5
9DE
330
2
100
AcDbEntity
  8
0
100
AcDbCircle
 10
362.3660856704676
 20
217.0351721911372
 30
0.0
 40
3.0
100
AcDbArc
 50
90.0
 51
180.0
  0
ARC
  5
9DF
330
2
100
AcDbEntity
  8
0
100
AcDbCircle
 10
357.8660856704676
 20
252.0351721911372
 30
0.0
 40
2.0
100
AcDbArc
 50
0.0
 51
90.0
  0
LINE
  5
9E0
330
2
100
AcDbEntity
  8
0
100
AcDbLine
 10
359.8660856704676
 20
252.0351721911372
 30
0.0
 11
359.8660856704676
 21
246.5351721911372
 31
0.0
  0
ARC
  5
9E1
330
2
100
AcDbEntity
  8
0
100
AcDbCircle
 10
365.3660856704676
 20
246.5351721911372
 30
0.0
 40
3.0
100
AcDbArc
 50
300.0000609999943
 51
239.9998930000032
  0
ARC
  5
9E2
330
2
100
AcDbEntity
  8
0
100
AcDbCircle
 10
365.3660856704676
 20
246.5351721911372
 30
0.0
 40
5.5
100
AcDbArc
 50
180.0
 51
254.1733859999871
  0
LINE
  5
9E3
330
2
100
AcDbEntity
  8
0
100
AcDbLine
 10
370.8662076704675
 20
252.0351721911372
 30
0.0
 11
370.8660856704676
 21
246.5351721911372
 31
0.0
  0
ARC
  5
9E4
330
2
100
AcDbEntity
  8
0
100
AcDbCircle
 10
381.8660856704676
 20
217.0351721911372
 30
0.0
 40
3.0
100
AcDbArc
 50
0.0
 51
90.0
  0
ARC
  5
9E5
330
2
100
AcDbEntity
  8
0
100
AcDbCircle
 10
350.8661016704676
 20
217.0351721911372
 30
0.0
 40
3.0
100
AcDbArc
 50
0.0
 51
90.0
  0
LINE
  5
9E6
330
2
100
AcDbEntity
  8
0
100
AcDbLine
 10
381.8660856704676
 20
192.0351721911372
 30
0.0
 11
362.3660856704676
 21
192.0351721911372
 31
0.0
  0
ARC
  5
9E7
330
2
100
AcDbEntity
  8
0
100
AcDbCircle
 10
362.3660856704676
 20
195.0351721911372
 30
0.0
 40
3.0
100
AcDbArc
 50
180.0
 51
270.0
  0
ARC
  5
9E8
330
2
100
AcDbEntity
  8
0
100
AcDbCircle
 10
387.3660856704676
 20
181.0351721911372
 30
0.0
 40
3.0
100
AcDbArc
 50
0.0
 51
90.0
  0
ARC
  5
9E9
330
2
100
AcDbEntity
  8
0
100
AcDbCircle
 10
385.8660856704677
 20
181.0351721911372
 30
0.0
 40
3.0
100
AcDbArc
 50
0.0
 51
90.0
  0
ARC
  5
9EA
330
2
100
AcDbEntity
  8
0
100
AcDbCircle
 10
381.8660856704676
 20
195.0351721911372
 30
0.0
 40
3.0
100
AcDbArc
 50
270.0
 51
0.0
  0
ARC
  5
9EB
330
2
100
AcDbEntity
  8
0
100
AcDbCircle
 10
350.8661016704676
 20
195.0351721911372
 30
0.0
 40
3.0
100
AcDbArc
 50
270.0
 51
0.0
  0
LINE
  5
9EC
330
2
100
AcDbEntity
  8
0
100
AcDbLine
 10
359.3660856704676
 20
217.0351721911372
 30
0.0
 11
359.3660856704676
 21
195.0351721911372
 31
0.0
  0
LINE
  5
9ED
330
2
100
AcDbEntity
  8
0
100
AcDbLine
 10
353.8661016704676
 20
217.0351721911372
 30
0.0
 11
353.8661016704676
 21
195.0351721911372
 31
0.0
  0
LINE
  5
9EE
330
2
100
AcDbEntity
  8
0
100
AcDbLine
 10
384.8660856704676
 20
195.0351721911372
 30
0.0
 11
384.8660856704676
 21
217.0351721911372
 31
0.0
  0
LINE
  5
9EF
330
2
100
AcDbEntity
  8
0
100
AcDbLine
 10
409.7347996704678
 20
110.1430211911372
 30
0.0
 11
413.8660856704676
 21
110.034806191137
 31
0.0
  0
ARC
  5
9F0
330
2
100
AcDbEntity
  8
0
100
AcDbCircle
 10
401.8660246704679
 20
144.9631501911374
 30
0.0
 40
3.0
100
AcDbArc
 50
0.0
 51
87.99989300000088
  0
LINE
  5
9F1
330
2
100
AcDbEntity
  8
0
100
AcDbLine
 10
411.9197056704678
 20
155.7049721911373
 30
0.0
 11
406.6706816704676
 21
155.7049721911373
 31
0.0
  0
ARC
  5
9F2
330
2
100
AcDbEntity
  8
0
100
AcDbCircle
 10
409.8656896704677
 20
115.1413121911371
 30
0.0
 40
5.0
100
AcDbArc
 50
180.0
 51
268.5000000000103
  0
LINE
  5
9F3
330
2
100
AcDbEntity
  8
0
100
AcDbLine
 10
411.9197056704678
 20
133.4027261911371
 30
0.0
 11
406.6706816704676
 21
133.4027261911371
 31
0.0
  0
LINE
  5
9F5
330
2
100
AcDbEntity
  8
HIDS
  6
SEKKEI_H
100
AcDbLine
 10
530.8659026704675
 20
152.4321451911371
 30
0.0
 11
512.8655056704677
 21
152.4321451911371
 31
0.0
  0
LINE
  5
9F6
330
2
100
AcDbEntity
  8
0
100
AcDbLine
 10
530.8659026704675
 20
138.0349891911371
 30
0.0
 11
535.3659026704675
 21
138.0349891911371
 31
0.0
  0
LINE
  5
9F7
330
2
100
AcDbEntity
  8
0
100
AcDbLine
 10
535.3659026704675
 20
138.0349891911371
 30
0.0
 11
535.8659026704676
 21
138.5349891911371
 31
0.0
  0
LINE
  5
9F8
330
2
100
AcDbEntity
  8
HIDS
  6
SEKKEI_H
100
AcDbLine
 10
530.8659026704675
 20
134.4321451911371
 30
0.0
 11
512.8655056704677
 21
134.4321451911371
 31
0.0
  0
ARC
  5
9F9
330
2
100
AcDbEntity
  8
0
100
AcDbCircle
 10
515.8659026704675
 20
107.5602571911374
 30
0.0
 40
3.0
100
AcDbArc
 50
180.0
 51
267.9991460000042
  0
LINE
  5
9FA
330
2
100
AcDbEntity
  8
0
100
AcDbLine
 10
530.3659026704675
 20
104.0518351911371
 30
0.0
 11
530.8659026704675
 21
104.5349891911371
 31
0.0
  0
LINE
  5
9FB
330
2
100
AcDbEntity
  8
0
100
AcDbLine
 10
530.3659026704675
 20
104.0518351911371
 30
0.0
 11
505.5990876704676
 21
104.9170691911369
 31
0.0
  0
LINE
  5
9FC
330
2
100
AcDbEntity
  8
0
100
AcDbLine
 10
536.8659026704675
 20
233.0352331911374
 30
0.0
 11
601.8659026704675
 21
233.0349891911371
 31
0.0
  0
LINE
  5
9FD
330
2
100
AcDbEntity
  8
0
100
AcDbLine
 10
547.8659026704675
 20
247.0349891911371
 30
0.0
 11
601.8659026704675
 21
247.0349891911371
 31
0.0
  0
LINE
  5
9FE
330
2
100
AcDbEntity
  8
0
100
AcDbLine
 10
535.8659026704676
 20
232.0349891911371
 30
0.0
 11
536.8659026704675
 21
232.0349891911371
 31
0.0
  0
ARC
  5
A00
330
2
100
AcDbEntity
  8
0
100
AcDbCircle
 10
866.2422613614578
 20
434.0348061911375
 30
0.0
 40
320.0
100
AcDbArc
 50
254.3002930000159
 51
285.7001949999942
  0
ARC
  5
A02
330
2
100
AcDbEntity
  8
0
100
AcDbCircle
 10
866.2422613614578
 20
434.0348061911375
 30
0.0
 40
330.0
100
AcDbArc
 50
249.3838959999937
 51
290.6160889999954
  0
ARC
  5
A03
330
2
100
AcDbEntity
  8
0
100
AcDbCircle
 10
866.2422613614578
 20
253.034806191137
 30
0.0
 40
117.5
100
AcDbArc
 50
201.2987980000066
 51
338.7013850000034
  0
LINE
  5
A04
330
2
100
AcDbEntity
  8
CENTER
100
AcDbLine
 10
696.2422613614579
 20
253.034806191137
 30
0.0
 11
1036.242261361458
 21
253.034806191137
 31
0.0
  0
LINE
  5
A05
330
2
100
AcDbEntity
  8
CENTER
100
AcDbLine
 10
700.0172634279151
 20
219.0348061911374
 30
0.0
 11
1032.467259295
 21
219.034806191137
 31
0.0
  0
ARC
  5
A09
330
2
100
AcDbEntity
  8
0
100
AcDbCircle
 10
756.641858361458
 20
143.4321451911371
 30
0.0
 40
19.0
100
AcDbArc
 50
338.8139000000016
 51
103.0612029999997
  0
ARC
  5
A0A
330
2
100
AcDbEntity
  8
0
100
AcDbCircle
 10
1686.242261361457
 20
219.034806191137
 30
0.0
 40
945.0
100
AcDbArc
 50
180.7084049999883
 51
183.016097999992
  0
ARC
  5
A0B
330
2
100
AcDbEntity
  8
0
100
AcDbCircle
 10
750.540235361458
 20
169.733658191137
 30
0.0
 40
8.0
100
AcDbArc
 50
183.016097999992
 51
283.0614010000102
  0
ARC
  5
A0C
330
2
100
AcDbEntity
  8
0
100
AcDbCircle
 10
756.7382333614577
 20
142.9508211911372
 30
0.0
 40
19.0
100
AcDbArc
 50
186.7541960000009
 51
249.3838959999937
  0
CIRCLE
  5
A0D
330
2
100
AcDbEntity
  8
0
100
AcDbCircle
 10
756.641858361458
 20
143.4321451911371
 30
0.0
 40
9.0
  0
ARC
  5
A0E
330
2
100
AcDbEntity
  8
0
100
AcDbCircle
 10
749.313855361458
 20
207.4496621911373
 30
0.0
 40
8.0
100
AcDbArc
 50
21.29853999999723
 51
180.7084049999883
  0
ARC
  5
A0F
330
2
100
AcDbEntity
  8
0
100
AcDbCircle
 10
781.8168463614577
 20
133.6743931911371
 30
0.0
 40
8.0
100
AcDbArc
 50
158.814101999985
 51
254.3002010000018
  0
LINE
  5
A10
330
2
100
AcDbEntity
  8
0
100
AcDbLine
 10
843.242261361458
 20
247.034806191137
 30
0.0
 11
851.242261361458
 21
247.034806191137
 31
0.0
  0
ARC
  5
A11
330
2
100
AcDbEntity
  8
0
100
AcDbCircle
 10
983.1704233614578
 20
207.4497231911371
 30
0.0
 40
8.0
100
AcDbArc
 50
359.2917789999997
 51
158.7015989999984
  0
CIRCLE
  5
A12
330
2
100
AcDbEntity
  8
0
100
AcDbCircle
 10
975.8446783614576
 20
143.434098191137
 30
0.0
 40
9.0
  0
ARC
  5
A13
330
2
100
AcDbEntity
  8
0
100
AcDbCircle
 10
975.8446783614576
 20
143.434098191137
 30
0.0
 40
19.0
100
AcDbArc
 50
76.94312299999584
 51
201.1887969999832
  0
ARC
  5
A14
330
2
100
AcDbEntity
  8
0
100
AcDbCircle
 10
950.669873361458
 20
133.6751261911369
 30
0.0
 40
8.0
100
AcDbArc
 50
285.7004700000099
 51
21.18878900001208
  0
ARC
  5
A15
330
2
100
AcDbEntity
  8
0
100
AcDbCircle
 10
46.24217036145762
 20
219.034806191137
 30
0.0
 40
945.0
100
AcDbArc
 50
356.9841000000089
 51
359.2915950000117
  0
ARC
  5
A16
330
2
100
AcDbEntity
  8
0
100
AcDbCircle
 10
981.9442263614577
 20
169.7360391911372
 30
0.0
 40
8.0
100
AcDbArc
 50
256.9432979999879
 51
356.9843140000076
  0
ARC
  5
A17
330
2
100
AcDbEntity
  8
0
100
AcDbCircle
 10
975.746045361458
 20
142.9508211911372
 30
0.0
 40
19.0
100
AcDbArc
 50
290.6162110000053
 51
353.2459109999891
  0
LINE
  5
A18
330
2
100
AcDbEntity
  8
0
100
AcDbLine
 10
299.3660096704678
 20
759.0128336086084
 30
0.0
 11
280.2051206704676
 21
759.0128336086084
 31
0.0
  0
LINE
  5
A19
330
2
100
AcDbEntity
  8
0
100
AcDbLine
 10
299.3660096704678
 20
615.0128636086085
 30
0.0
 11
280.2051206704676
 21
615.0128636086085
 31
0.0
  0
LINE
  5
A1A
330
2
100
AcDbEntity
  8
0
100
AcDbLine
 10
299.3661016704676
 20
291.0351721911372
 30
0.0
 11
280.2051976704678
 21
291.0351721911372
 31
0.0
  0
LINE
  5
A1C
330
2
100
AcDbEntity
  8
CENTER
100
AcDbLine
 10
616.8659026704675
 20
687.0128336086079
 30
0.0
 11
84.86602467046793
 21
687.0128336086083
 31
0.0
  0
ELLIPSE
  5
A1D
330
2
100
AcDbEntity
  8
0
100
AcDbEllipse
 10
233.9003106704689
 20
564.5343861246894
 30
0.0
 11
7.0
 21
0.0
 31
0.0
210
0.0
220
0.0
230
1.0
 40
0.4285714285714286
 41
4.712388980384689
 42
6.283185307179586
  0
ELLIPSE
  5
A1E
330
2
100
AcDbEntity
  8
0
100
AcDbEllipse
 10
167.5403256704679
 20
564.5343861246894
 30
0.0
 11
7.0
 21
0.0
 31
0.0
210
0.0
220
0.0
230
1.0
 40
0.4285714285714286
 41
3.141592653589793
 42
4.712388980384689
  0
LINE
  5
A20
330
2
100
AcDbEntity
  8
0
100
AcDbLine
 10
163.9105046704679
 20
295.0351721911372
 30
0.0
 11
277.8216976704678
 21
295.0351721911372
 31
0.0
  0
LINE
  5
A21
330
2
100
AcDbEntity
  8
0
100
AcDbLine
 10
278.3661016704676
 20
286.0587321911373
 30
0.0
 11
163.3661016704676
 21
286.0587321911373
 31
0.0
  0
LINE
  5
A22
330
2
100
AcDbEntity
  8
0
100
AcDbLine
 10
278.3661016704676
 20
288.0587321911373
 30
0.0
 11
163.3661016704676
 21
288.0587321911373
 31
0.0
  0
LINE
  5
A23
330
2
100
AcDbEntity
  8
0
100
AcDbLine
 10
278.3661016704676
 20
290.8902741911372
 30
0.0
 11
163.3661016704676
 21
290.8902741911372
 31
0.0
  0
LINE
  5
A24
330
2
100
AcDbEntity
  8
0
100
AcDbLine
 10
278.3661016704676
 20
292.8902741911372
 30
0.0
 11
163.3661016704676
 21
292.8902741911372
 31
0.0
  0
LINE
  5
A25
330
2
100
AcDbEntity
  8
0
100
AcDbLine
 10
278.3661016704676
 20
274.8349161911371
 30
0.0
 11
163.3661016704676
 21
274.8349161911371
 31
0.0
  0
LINE
  5
A26
330
2
100
AcDbEntity
  8
0
100
AcDbLine
 10
278.3661016704676
 20
276.8349161911371
 30
0.0
 11
163.3661016704676
 21
276.8349161911371
 31
0.0
  0
LINE
  5
A27
330
2
100
AcDbEntity
  8
0
100
AcDbLine
 10
278.3661016704676
 20
280.7877351911372
 30
0.0
 11
163.3661016704676
 21
280.7877351911372
 31
0.0
  0
LINE
  5
A28
330
2
100
AcDbEntity
  8
0
100
AcDbLine
 10
278.3661016704676
 20
282.7877351911372
 30
0.0
 11
163.3661016704676
 21
282.7877351911372
 31
0.0
  0
LINE
  5
A29
330
2
100
AcDbEntity
  8
0
100
AcDbLine
 10
232.8660096704678
 20
274.597306191137
 30
0.0
 11
163.8660176704678
 21
274.597306191137
 31
0.0
  0
LINE
  5
A2A
330
2
100
AcDbEntity
  8
0
100
AcDbLine
 10
232.0660366704677
 20
271.5915681911372
 30
0.0
 11
164.6660206704676
 21
271.5915681911372
 31
0.0
  0
LINE
  5
A2B
330
2
100
AcDbEntity
  8
0
100
AcDbLine
 10
158.3660786704675
 20
300.034806191137
 30
0.0
 11
122.0272126704679
 21
300.034806191137
 31
0.0
  0
ARC
  5
A2C
330
2
100
AcDbEntity
  8
0
100
AcDbCircle
 10
117.7715636704677
 20
282.034806191137
 30
0.0
 40
13.0
100
AcDbArc
 50
90.0
 51
171.0953219999952
  0
LINE
  5
A2D
330
2
100
AcDbEntity
  8
0
100
AcDbLine
 10
117.7715636704677
 20
295.034806191137
 30
0.0
 11
119.3717466704678
 21
295.048783191137
 31
0.0
  0
ARC
  5
A2E
330
2
100
AcDbEntity
  8
0
100
AcDbCircle
 10
122.0272126704679
 20
298.034806191137
 30
0.0
 40
2.0
100
AcDbArc
 50
90.0
 51
191.3333740000069
  0
ARC
  5
A2F
330
2
100
AcDbEntity
  8
0
100
AcDbCircle
 10
119.3630206704678
 20
296.048783191137
 30
0.0
 40
1.0
100
AcDbArc
 50
270.4999999999915
 51
11.12892600001275
  0
LINE
  5
A30
330
2
100
AcDbEntity
  8
0
100
AcDbLine
 10
162.9256866704676
 20
294.208817191137
 30
0.0
 11
162.5118076704678
 21
291.8615271911373
 31
0.0
  0
LINE
  5
A31
330
2
100
AcDbEntity
  8
0
100
AcDbLine
 10
162.3661016704676
 20
287.8351601911369
 30
0.0
 11
162.3661016704676
 21
291.4912271911373
 31
0.0
  0
ARC
  5
A32
330
2
100
AcDbEntity
  8
0
100
AcDbCircle
 10
163.9105046704679
 20
294.0351721911372
 30
0.0
 40
1.0
100
AcDbArc
 50
90.0
 51
169.9999999999964
  0
ARC
  5
A33
330
2
100
AcDbEntity
  8
0
100
AcDbCircle
 10
163.3661016704676
 20
287.0587321911373
 30
0.0
 40
1.0
100
AcDbArc
 50
90.0
 51
270.0
  0
ARC
  5
A34
330
2
100
AcDbEntity
  8
0
100
AcDbCircle
 10
163.3661016704676
 20
291.8902741911372
 30
0.0
 40
1.0
100
AcDbArc
 50
90.0
 51
270.0
  0
LINE
  5
A35
330
2
100
AcDbEntity
  8
0
100
AcDbLine
 10
158.3660936704676
 20
289.5351721911372
 30
0.0
 11
159.3660936704676
 21
289.5351721911372
 31
0.0
  0
LINE
  5
A36
330
2
100
AcDbEntity
  8
0
100
AcDbLine
 10
161.5269896704679
 20
291.0351721911372
 30
0.0
 11
159.3661016704676
 21
291.0351721911372
 31
0.0
  0
ARC
  5
A37
330
2
100
AcDbEntity
  8
0
100
AcDbCircle
 10
161.5269896704679
 20
292.0351721911372
 30
0.0
 40
1.0
100
AcDbArc
 50
270.0
 51
349.9999999999956
  0
ARC
  5
A38
330
2
100
AcDbEntity
  8
0
100
AcDbCircle
 10
163.3661016704676
 20
281.7877351911372
 30
0.0
 40
1.0
100
AcDbArc
 50
90.0
 51
270.0
  0
ARC
  5
A39
330
2
100
AcDbEntity
  8
0
100
AcDbCircle
 10
163.3661016704676
 20
275.8349161911371
 30
0.0
 40
1.0
100
AcDbArc
 50
90.0
 51
270.0
  0
ARC
  5
A3A
330
2
100
AcDbEntity
  8
0
100
AcDbCircle
 10
164.6660206704676
 20
263.5915681911372
 30
0.0
 40
8.0
100
AcDbArc
 50
90.0
 51
180.0
  0
ARC
  5
A3B
330
2
100
AcDbEntity
  8
0
100
AcDbCircle
 10
163.8660176704678
 20
264.597306191137
 30
0.0
 40
10.0
100
AcDbArc
 50
90.0
 51
180.0
  0
LINE
  5
A3C
330
2
100
AcDbEntity
  8
0
100
AcDbLine
 10
158.3660786704675
 20
300.034806191137
 30
0.0
 11
158.3660786704675
 21
272.9489901911372
 31
0.0
  0
LINE
  5
A3D
330
2
100
AcDbEntity
  8
0
100
AcDbLine
 10
159.3661016704676
 20
291.0351721911372
 30
0.0
 11
159.3661016704676
 21
273.5276041911372
 31
0.0
  0
ARC
  5
A3E
330
2
100
AcDbEntity
  8
0
100
AcDbCircle
 10
232.8660096704678
 20
264.597306191137
 30
0.0
 40
10.0
100
AcDbArc
 50
0.0
 51
90.0
  0
ARC
  5
A3F
330
2
100
AcDbEntity
  8
0
100
AcDbCircle
 10
232.0660366704677
 20
263.5915681911372
 30
0.0
 40
8.0
100
AcDbArc
 50
0.0
 51
90.0
  0
LINE
  5
A40
330
2
100
AcDbEntity
  8
0
100
AcDbLine
 10
278.8065006704676
 20
294.208817191137
 30
0.0
 11
279.2203946704679
 21
291.8615271911373
 31
0.0
  0
LINE
  5
A41
330
2
100
AcDbEntity
  8
0
100
AcDbLine
 10
279.3661016704676
 20
287.8351601911369
 30
0.0
 11
279.3661016704676
 21
291.4912271911373
 31
0.0
  0
ARC
  5
A42
330
2
100
AcDbEntity
  8
0
100
AcDbCircle
 10
277.8216976704678
 20
294.0351721911372
 30
0.0
 40
1.0
100
AcDbArc
 50
10.00000000000355
 51
90.0
  0
ARC
  5
A43
330
2
100
AcDbEntity
  8
0
100
AcDbCircle
 10
280.2051976704678
 20
292.0351721911372
 30
0.0
 40
1.0
100
AcDbArc
 50
190.0000000000035
 51
270.0
  0
ARC
  5
A44
330
2
100
AcDbEntity
  8
0
100
AcDbCircle
 10
278.3661016704676
 20
287.0587321911373
 30
0.0
 40
1.0
100
AcDbArc
 50
270.0
 51
90.0
  0
ARC
  5
A45
330
2
100
AcDbEntity
  8
0
100
AcDbCircle
 10
278.3661016704676
 20
291.8902741911372
 30
0.0
 40
1.0
100
AcDbArc
 50
270.0
 51
90.0
  0
ARC
  5
A46
330
2
100
AcDbEntity
  8
0
100
AcDbCircle
 10
278.3661016704676
 20
281.7877351911372
 30
0.0
 40
1.0
100
AcDbArc
 50
270.0
 51
90.0
  0
ARC
  5
A47
330
2
100
AcDbEntity
  8
0
100
AcDbCircle
 10
278.3661016704676
 20
257.9121861911374
 30
0.0
 40
1.0
100
AcDbArc
 50
270.0
 51
90.0
  0
ARC
  5
A48
330
2
100
AcDbEntity
  8
0
100
AcDbCircle
 10
278.3661016704676
 20
264.590775191137
 30
0.0
 40
1.0
100
AcDbArc
 50
270.0
 51
90.0
  0
ARC
  5
A49
330
2
100
AcDbEntity
  8
0
100
AcDbCircle
 10
278.3661016704676
 20
275.8349161911371
 30
0.0
 40
1.0
100
AcDbArc
 50
270.0
 51
90.0
  0
ARC
  5
A4A
330
2
100
AcDbEntity
  8
0
100
AcDbCircle
 10
246.8661016704676
 20
257.9121861911374
 30
0.0
 40
1.0
100
AcDbArc
 50
90.0
 51
270.0
  0
LINE
  5
A4B
330
2
100
AcDbEntity
  8
0
100
AcDbLine
 10
278.3661016704676
 20
258.9121861911373
 30
0.0
 11
242.8660096704678
 21
258.9121861911373
 31
0.0
  0
LINE
  5
A4C
330
2
100
AcDbEntity
  8
0
100
AcDbLine
 10
278.3661016704676
 20
256.9121861911373
 30
0.0
 11
246.8661016704676
 21
256.9121861911373
 31
0.0
  0
LINE
  5
A4D
330
2
100
AcDbEntity
  8
0
100
AcDbLine
 10
278.3661016704676
 20
263.590775191137
 30
0.0
 11
242.8660096704678
 21
263.590775191137
 31
0.0
  0
LINE
  5
A4E
330
2
100
AcDbEntity
  8
0
100
AcDbLine
 10
278.3661016704676
 20
265.590775191137
 30
0.0
 11
242.8165256704677
 21
265.590775191137
 31
0.0
  0
LINE
  5
A4F
330
2
100
AcDbEntity
  8
0
100
AcDbLine
 10
233.9003106704689
 20
561.5343861246895
 30
0.0
 11
167.5403256704679
 21
561.5343861246895
 31
0.0
  0
LINE
  5
A50
330
2
100
AcDbEntity
  8
0
100
AcDbLine
 10
279.3660096704678
 20
668.5487526086083
 30
0.0
 11
279.3660096704678
 21
723.7598726086083
 31
0.0
  0
LINE
  5
A51
330
2
100
AcDbEntity
  8
0
100
AcDbLine
 10
162.3660176704678
 20
668.5487526086083
 30
0.0
 11
162.3660176704678
 21
723.7598726086083
 31
0.0
  0
ARC
  5
A52
330
2
100
AcDbEntity
  8
0
100
AcDbCircle
 10
519.578915670468
 20
687.0128336086083
 30
0.0
 40
400.0
100
AcDbArc
 50
168.5511779999877
 51
191.4488220000122
  0
LINE
  5
A53
330
2
100
AcDbEntity
  8
0
100
AcDbLine
 10
158.3659986704677
 20
768.0128336086084
 30
0.0
 11
158.3659986704677
 21
606.0128636086081
 31
0.0
  0
LINE
  5
A54
330
2
100
AcDbEntity
  8
0
100
AcDbLine
 10
159.3660136704678
 20
759.0128336086084
 30
0.0
 11
159.3660136704674
 21
615.0128336086079
 31
0.0
  0
ARC
  5
A55
330
2
100
AcDbEntity
  8
0
100
AcDbCircle
 10
519.8660246704679
 20
687.0128336086083
 30
0.0
 40
420.0
100
AcDbArc
 50
171.0953219999952
 51
188.9046780000047
  0
LINE
  5
A56
330
2
100
AcDbEntity
  8
0
100
AcDbLine
 10
162.3660176704678
 20
668.5487526086083
 30
0.0
 11
279.3660096704678
 21
668.5487526086083
 31
0.0
  0
LINE
  5
A57
330
2
100
AcDbEntity
  8
0
100
AcDbLine
 10
277.1695066704677
 20
660.8505406086085
 30
0.0
 11
164.5625196704676
 21
660.8505406086085
 31
0.0
  0
LINE
  5
A58
330
2
100
AcDbEntity
  8
0
100
AcDbLine
 10
165.7236756704677
 20
647.7081456086082
 30
0.0
 11
276.0083586704676
 21
647.7081456086082
 31
0.0
  0
LINE
  5
A59
330
2
100
AcDbEntity
  8
0
100
AcDbLine
 10
276.0083586704676
 20
639.0798196086081
 30
0.0
 11
165.7236756704677
 21
639.0798196086081
 31
0.0
  0
LINE
  5
A5A
330
2
100
AcDbEntity
  8
0
100
AcDbLine
 10
276.2499206704677
 20
630.0900736086084
 30
0.0
 11
165.4821056704676
 21
630.0900736086084
 31
0.0
  0
LINE
  5
A5B
330
2
100
AcDbEntity
  8
0
100
AcDbLine
 10
276.5662046704677
 20
624.0451516086084
 30
0.0
 11
165.1658296704676
 21
624.0451516086084
 31
0.0
  0
LINE
  5
A5C
330
2
100
AcDbEntity
  8
0
100
AcDbLine
 10
165.5967223826268
 20
581.5740815865267
 30
0.0
 11
229.6025823180401
 21
615.3647265679608
 31
0.0
  0
LINE
  5
A5D
330
2
100
AcDbEntity
  8
0
100
AcDbLine
 10
234.6544616704676
 20
617.5103174815733
 30
0.0
 11
163.1883966704689
 21
617.5103174815733
 31
0.0
  0
LINE
  5
A5E
330
2
100
AcDbEntity
  8
0
100
AcDbLine
 10
233.9003106704689
 20
573.122803218436
 30
0.0
 11
167.5403256704679
 21
573.122803218436
 31
0.0
  0
LINE
  5
A5F
330
2
100
AcDbEntity
  8
0
100
AcDbLine
 10
167.6065971867059
 20
575.1386344358836
 30
0.0
 11
231.96658218671
 21
609.1162328360935
 31
0.0
  0
LINE
  5
A60
330
2
100
AcDbEntity
  8
0
100
AcDbLine
 10
167.2780066615881
 20
577.0704031752159
 30
0.0
 11
231.0377549448297
 21
610.7311183115905
 31
0.0
  0
LINE
  5
A61
330
2
100
AcDbEntity
  8
0
100
AcDbLine
 10
164.4973036704676
 20
630.9164286086086
 30
0.0
 11
162.3660176704678
 21
643.0035256086086
 31
0.0
  0
LINE
  5
A62
330
2
100
AcDbEntity
  8
0
100
AcDbLine
 10
158.3659986704677
 20
606.0128636086081
 30
0.0
 11
129.4981416704675
 21
606.0128636086085
 31
0.0
  0
ARC
  5
A63
330
2
100
AcDbEntity
  8
0
100
AcDbCircle
 10
117.7714866704676
 20
624.0128636086085
 30
0.0
 40
13.0
100
AcDbArc
 50
188.9046780000047
 51
270.0
  0
ARC
  5
A64
330
2
100
AcDbEntity
  8
0
100
AcDbCircle
 10
126.0552686704676
 20
609.9405366086082
 30
0.0
 40
1.0
100
AcDbArc
 50
11.08122099999496
 51
89.50000000000846
  0
ARC
  5
A65
330
2
100
AcDbEntity
  8
0
100
AcDbCircle
 10
129.4981416704675
 20
608.0128636086085
 30
0.0
 40
2.0
100
AcDbArc
 50
191.4488220000122
 51
270.0
  0
LINE
  5
A66
330
2
100
AcDbEntity
  8
0
100
AcDbLine
 10
117.7714866704676
 20
611.0128636086085
 30
0.0
 11
126.0639966704678
 21
610.9404756086084
 31
0.0
  0
LINE
  5
A67
330
2
100
AcDbEntity
  8
0
100
AcDbLine
 10
158.3660136704678
 20
616.5128636086085
 30
0.0
 11
159.3660136704678
 21
616.5128636086085
 31
0.0
  0
ARC
  5
A68
330
2
100
AcDbEntity
  8
0
100
AcDbCircle
 10
165.1658296704676
 20
625.0451516086084
 30
0.0
 40
1.0
100
AcDbArc
 50
190.0000000000035
 51
270.0
  0
ARC
  5
A69
330
2
100
AcDbEntity
  8
0
100
AcDbCircle
 10
165.4821056704676
 20
631.0900736086084
 30
0.0
 40
1.0
100
AcDbArc
 50
190.0000000000035
 51
270.0
  0
ELLIPSE
  5
A6A
330
2
100
AcDbEntity
  8
0
100
AcDbEllipse
 10
163.1883966704689
 20
616.0103174815733
 30
0.0
 11
-3.0
 21
0.0
 31
0.0
210
0.0
220
0.0
230
1.0
 40
0.5
 41
4.712388980384689
 42
6.283185307179586
  0
LINE
  5
A6B
330
2
100
AcDbEntity
  8
0
100
AcDbLine
 10
160.1883966704689
 20
615.0128336086075
 30
0.0
 11
159.3660136704674
 21
615.0128336086079
 31
0.0
  0
LINE
  5
A6C
330
2
100
AcDbEntity
  8
0
100
AcDbLine
 10
163.7339959763393
 20
617.5103174815737
 30
0.0
 11
162.3660176704678
 21
625.2685396086083
 31
0.0
  0
LINE
  5
A6D
330
2
100
AcDbEntity
  8
0
100
AcDbLine
 10
164.1810196704676
 20
624.8715066086085
 30
0.0
 11
162.3660176704678
 21
635.1649026086081
 31
0.0
  0
ELLIPSE
  5
A6E
330
2
100
AcDbEntity
  8
0
100
AcDbEllipse
 10
167.5403256704679
 20
570.122803218436
 30
0.0
 11
7.0
 21
0.0
 31
0.0
210
0.0
220
0.0
230
-1.0
 40
0.4285714285714286
 41
4.384353573520338
 42
4.712388980384689
  0
ELLIPSE
  5
A6F
330
2
100
AcDbEntity
  8
0
100
AcDbEllipse
 10
168.5403256704679
 20
573.3699764365489
 30
0.0
 11
-8.00000000000039
 21
-4.223443917856965
 31
0.0
210
0.0
220
0.0
230
1.0
 40
0.2210822499170709
 41
4.712388980384689
 42
5.954122433751792
  0
ELLIPSE
  5
A70
330
2
100
AcDbEntity
  8
0
100
AcDbEllipse
 10
168.6785993872252
 20
574.4174161762105
 30
0.0
 11
-9.999999999999888
 21
-5.27930489732232
 31
0.0
210
0.0
220
0.0
230
1.0
 40
0.2652986999005152
 41
4.712388980384689
 42
5.865822628019693
  0
ARC
  5
A71
330
2
100
AcDbEntity
  8
0
100
AcDbCircle
 10
161.5403256704583
 20
569.4560867941529
 30
0.0
 40
1.0
100
AcDbArc
 50
150.751059739946
 51
180.0000000001302
  0
ARC
  5
A72
330
2
100
AcDbEntity
  8
0
100
AcDbCircle
 10
160.6785993872316
 20
569.6283333466192
 30
0.0
 40
2.0
100
AcDbArc
 50
148.7234707368708
 51
179.9999999999479
  0
LINE
  5
A73
330
2
100
AcDbEntity
  8
0
100
AcDbLine
 10
156.9973151082689
 20
574.1320117579364
 30
0.0
 11
156.9973151082689
 21
568.6641492791661
 31
0.0
  0
ARC
  5
A74
330
2
100
AcDbEntity
  8
0
100
AcDbCircle
 10
158.9973151082707
 20
574.1320117579364
 30
0.0
 40
2.0
100
AcDbArc
 50
148.7234707368127
 51
180.0
  0
ARC
  5
A75
330
2
100
AcDbEntity
  8
0
100
AcDbCircle
 10
158.9973151082598
 20
568.6641492791643
 30
0.0
 40
2.0
100
AcDbArc
 50
179.9999999999479
 51
207.8309394511831
  0
ELLIPSE
  5
A76
330
2
100
AcDbEntity
  8
0
100
AcDbEllipse
 10
168.6785993872252
 20
569.3766921569801
 30
0.0
 11
-10.0
 21
-5.279304897322163
 31
0.0
210
0.0
220
0.0
230
1.0
 40
0.265298699900519
 41
6.822117750064406
 42
6.846649156827789
  0
ARC
  5
A77
330
2
100
AcDbEntity
  8
0
100
AcDbCircle
 10
160.6785993872261
 20
565.479479494684
 30
0.0
 40
2.0
100
AcDbArc
 50
180.0
 51
273.9060605124202
  0
LINE
  5
A78
330
2
100
AcDbEntity
  8
0
100
AcDbLine
 10
160.5403256704679
 20
564.5343861246894
 30
0.0
 11
160.5403256704679
 21
569.4560867941529
 31
0.0
  0
LINE
  5
A79
330
2
100
AcDbEntity
  8
0
100
AcDbLine
 10
158.6785993872248
 20
565.4794794946836
 30
0.0
 11
158.6785993872248
 21
569.6283333466192
 31
0.0
  0
LINE
  5
A7A
330
2
100
AcDbEntity
  8
0
100
AcDbLine
 10
157.2286571089324
 20
567.7304207954068
 30
0.0
 11
158.9099413878892
 21
564.5457510109252
 31
0.0
  0
LINE
  5
A7B
330
2
100
AcDbEntity
  8
0
100
AcDbLine
 10
160.1883966704689
 20
578.1246505604278
 30
0.0
 11
160.1883966704689
 21
616.0103174815733
 31
0.0
  0
ELLIPSE
  5
A7C
330
2
100
AcDbEntity
  8
0
100
AcDbEllipse
 10
166.9973151082689
 20
578.9210945875236
 30
0.0
 11
-10.00000000000064
 21
-5.279304897320891
 31
0.0
210
0.0
220
0.0
230
0.9999999999999998
 40
0.2652986999005009
 41
4.712388980384689
 42
5.865822628019043
  0
ARC
  5
A7D
330
2
100
AcDbEntity
  8
0
100
AcDbCircle
 10
164.5625196704676
 20
661.8505406086085
 30
0.0
 40
1.0
100
AcDbArc
 50
190.0000000000035
 51
270.0
  0
LINE
  5
A7E
330
2
100
AcDbEntity
  8
0
100
AcDbLine
 10
163.5777096704677
 20
661.6768956086082
 30
0.0
 11
162.3660176704678
 21
668.5487526086083
 31
0.0
  0
ARC
  5
A7F
330
2
100
AcDbEntity
  8
0
100
AcDbCircle
 10
165.7236756704677
 20
648.7081456086082
 30
0.0
 40
1.0
100
AcDbArc
 50
190.0000000000035
 51
270.0
  0
ARC
  5
A80
330
2
100
AcDbEntity
  8
0
100
AcDbCircle
 10
165.7236756704677
 20
640.0798196086082
 30
0.0
 40
1.0
100
AcDbArc
 50
190.0000000000035
 51
270.0
  0
LINE
  5
A81
330
2
100
AcDbEntity
  8
0
100
AcDbLine
 10
164.7388656704678
 20
648.5345006086084
 30
0.0
 11
162.3660176704678
 21
661.9916236086084
 31
0.0
  0
LINE
  5
A82
330
2
100
AcDbEntity
  8
0
100
AcDbLine
 10
164.7388656704678
 20
639.9061746086083
 30
0.0
 11
162.3660176704678
 21
653.3632966086086
 31
0.0
  0
LINE
  5
A83
330
2
100
AcDbEntity
  8
0
100
AcDbLine
 10
277.2347226704677
 20
630.9164286086086
 30
0.0
 11
279.3660096704678
 21
643.0035256086086
 31
0.0
  0
LINE
  5
A84
330
2
100
AcDbEntity
  8
0
100
AcDbLine
 10
239.8464650403565
 20
617.3803819877478
 30
0.0
 11
242.2070056698029
 21
612.9090724586396
 31
0.0
  0
ARC
  5
A85
330
2
100
AcDbEntity
  8
0
100
AcDbCircle
 10
240.4383476704664
 20
611.9753439748808
 30
0.0
 40
2.0
100
AcDbArc
 50
0.0
 51
93.90606051236636
  0
ARC
  5
A86
330
2
100
AcDbEntity
  8
0
100
AcDbCircle
 10
240.4383476704623
 20
607.8264901229442
 30
0.0
 40
2.0
100
AcDbArc
 50
328.7234707368477
 51
359.9999999999739
  0
LINE
  5
A87
330
2
100
AcDbEntity
  8
0
100
AcDbLine
 10
245.8660096704678
 20
613.0128636086085
 30
0.0
 11
242.1522111571697
 21
613.0128636086085
 31
0.0
  0
LINE
  5
A88
330
2
100
AcDbEntity
  8
0
100
AcDbLine
 10
240.5738652909748
 20
616.0025486086085
 30
0.0
 11
276.8930786704676
 21
616.0025486086085
 31
0.0
  0
ELLIPSE
  5
A89
330
2
100
AcDbEntity
  8
0
100
AcDbEllipse
 10
234.6544616704676
 20
616.0103174815733
 30
0.0
 11
-3.0
 21
0.0
 31
0.0
210
0.0
220
0.0
230
1.0
 40
0.5
 41
4.681946790093782
 42
4.712388980384689
  0
ELLIPSE
  5
A8A
330
2
100
AcDbEntity
  8
0
100
AcDbEllipse
 10
231.0031750436736
 20
612.7117395689531
 30
0.0
 11
-8.843289996682615
 21
-4.66864241879447
 31
0.0
210
0.0
220
0.0
230
1.0
 40
0.3000000000000317
 41
3.141592653589793
 42
4.712388980384689
  0
ELLIPSE
  5
A8B
330
2
100
AcDbEntity
  8
0
100
AcDbEllipse
 10
232.4383476704669
 20
603.0374072933548
 30
0.0
 11
10.0
 21
5.279304897322163
 31
0.0
210
0.0
220
0.0
230
1.0
 40
0.2652986999005146
 41
5.566873134469334
 42
5.865822628019474
  0
ELLIPSE
  5
A8C
330
2
100
AcDbEntity
  8
0
100
AcDbEllipse
 10
232.9003106704689
 20
607.347574836757
 30
0.0
 11
8.0
 21
4.22344391785765
 31
0.0
210
0.0
220
0.0
230
1.0
 40
0.2210822499170975
 41
6.686279948659469
 42
7.853981633974482
  0
ARC
  5
A8D
330
2
100
AcDbEntity
  8
0
100
AcDbCircle
 10
239.9003106704689
 20
610.9263296345296
 30
0.0
 40
1.0
100
AcDbArc
 50
0.0
 51
90.42736781623807
  0
ELLIPSE
  5
A8E
330
2
100
AcDbEntity
  8
0
100
AcDbEllipse
 10
232.4383476704669
 20
608.0781313125847
 30
0.0
 11
-9.999999999999911
 21
-5.279304897322332
 31
0.0
210
0.0
220
0.0
230
1.0
 40
0.2652986999005146
 41
3.68052509647424
 42
4.712388980384689
  0
ELLIPSE
  5
A8F
330
2
100
AcDbEntity
  8
0
100
AcDbEllipse
 10
233.9003106704689
 20
576.122803218436
 30
0.0
 11
7.0
 21
0.0
 31
0.0
210
0.0
220
0.0
230
1.0
 40
0.4285714285714286
 41
4.712388980384689
 42
6.283185307179586
  0
LINE
  5
A90
330
2
100
AcDbEntity
  8
0
100
AcDbLine
 10
240.9003106704689
 20
564.5343861246894
 30
0.0
 11
240.9003106704689
 21
610.9263296345296
 31
0.0
  0
ARC
  5
A91
330
2
100
AcDbEntity
  8
0
100
AcDbCircle
 10
276.5662046704677
 20
625.0451516086084
 30
0.0
 40
1.0
100
AcDbArc
 50
270.0
 51
349.9999999999956
  0
ARC
  5
A92
330
2
100
AcDbEntity
  8
0
100
AcDbCircle
 10
276.2499206704677
 20
631.0900736086084
 30
0.0
 40
1.0
100
AcDbArc
 50
270.0
 51
349.9999999999956
  0
ARC
  5
A93
330
2
100
AcDbEntity
  8
0
100
AcDbCircle
 10
277.0187656704678
 20
613.5281836086085
 30
0.0
 40
1.0
100
AcDbArc
 50
270.0
 51
349.9999999999956
  0
ARC
  5
A94
330
2
100
AcDbEntity
  8
0
100
AcDbCircle
 10
276.8930786704676
 20
617.0025486086085
 30
0.0
 40
1.0
100
AcDbArc
 50
270.0
 51
349.9999999999956
  0
ARC
  5
A95
330
2
100
AcDbEntity
  8
0
100
AcDbCircle
 10
277.1992306704677
 20
609.2275246086085
 30
0.0
 40
1.0
100
AcDbArc
 50
270.0
 51
348.5887380000105
  0
ARC
  5
A96
330
2
100
AcDbEntity
  8
0
100
AcDbCircle
 10
277.550244670468
 20
610.9665376086084
 30
0.0
 40
1.0
100
AcDbArc
 50
270.0
 51
348.5887380000105
  0
ARC
  5
A97
330
2
100
AcDbEntity
  8
0
100
AcDbCircle
 10
277.0032626704677
 20
608.2565156086086
 30
0.0
 40
1.0
100
AcDbArc
 50
270.0
 51
348.5887380000105
  0
ARC
  5
A98
330
2
100
AcDbEntity
  8
0
100
AcDbCircle
 10
280.2051206704676
 20
614.0128636086085
 30
0.0
 40
1.0
100
AcDbArc
 50
90.0
 51
169.9999999999964
  0
LINE
  5
A99
330
2
100
AcDbEntity
  8
0
100
AcDbLine
 10
277.9834866704676
 20
608.0587016086085
 30
0.0
 11
279.2203186704676
 21
614.1865086086084
 31
0.0
  0
LINE
  5
A9A
330
2
100
AcDbEntity
  8
0
100
AcDbLine
 10
278.0035826704678
 20
613.3545386086082
 30
0.0
 11
279.3660096704678
 21
621.0812846086085
 31
0.0
  0
LINE
  5
A9B
330
2
100
AcDbEntity
  8
0
100
AcDbLine
 10
277.877880670468
 20
616.8289036086082
 30
0.0
 11
279.3660096704678
 21
625.2685396086083
 31
0.0
  0
LINE
  5
A9C
330
2
100
AcDbEntity
  8
0
100
AcDbLine
 10
277.551007670468
 20
624.8715066086085
 30
0.0
 11
279.3660096704678
 21
635.1649026086081
 31
0.0
  0
ARC
  5
A9D
330
2
100
AcDbEntity
  8
0
100
AcDbCircle
 10
247.6502046704676
 20
609.2275246086085
 30
0.0
 40
1.0
100
AcDbArc
 50
191.4112550000019
 51
270.0
  0
ARC
  5
A9E
330
2
100
AcDbEntity
  8
0
100
AcDbCircle
 10
247.2992066704676
 20
610.9665376086084
 30
0.0
 40
1.0
100
AcDbArc
 50
191.4112550000019
 51
270.0
  0
ARC
  5
A9F
330
2
100
AcDbEntity
  8
0
100
AcDbCircle
 10
247.8462036704676
 20
608.2565156086086
 30
0.0
 40
1.0
100
AcDbArc
 50
191.4112550000019
 51
270.0
  0
LINE
  5
AA0
330
2
100
AcDbEntity
  8
0
100
AcDbLine
 10
246.8659636704677
 20
608.0587016086085
 30
0.0
 11
245.8660096704678
 21
613.0128636086085
 31
0.0
  0
LINE
  5
AA1
330
2
100
AcDbEntity
  8
0
100
AcDbLine
 10
242.4383476704668
 20
607.8264901229442
 30
0.0
 11
242.4383476704668
 21
611.9753439748812
 31
0.0
  0
LINE
  5
AA2
330
2
100
AcDbEntity
  8
0
100
AcDbLine
 10
242.4383476704668
 20
609.7167216086088
 30
0.0
 11
245.5051236704679
 21
609.7167216086083
 31
0.0
  0
LINE
  5
AA3
330
2
100
AcDbEntity
  8
0
100
AcDbLine
 10
247.2992066704676
 20
609.9665376086083
 30
0.0
 11
277.550244670468
 21
609.9665376086083
 31
0.0
  0
LINE
  5
AA4
330
2
100
AcDbEntity
  8
0
100
AcDbLine
 10
247.6502046704676
 20
608.2275246086084
 30
0.0
 11
277.1992306704677
 21
608.2275246086084
 31
0.0
  0
LINE
  5
AA5
330
2
100
AcDbEntity
  8
0
100
AcDbLine
 10
277.0187656704678
 20
612.5281836086085
 30
0.0
 11
245.9638486704678
 21
612.5281836086085
 31
0.0
  0
LINE
  5
AA6
330
2
100
AcDbEntity
  8
0
100
AcDbLine
 10
277.0032626704677
 20
607.2565156086086
 30
0.0
 11
247.8462036704676
 21
607.2565156086086
 31
0.0
  0
ARC
  5
AA7
330
2
100
AcDbEntity
  8
0
100
AcDbCircle
 10
277.1695066704677
 20
661.8505406086085
 30
0.0
 40
1.0
100
AcDbArc
 50
270.0
 51
349.9999999999956
  0
LINE
  5
AA8
330
2
100
AcDbEntity
  8
0
100
AcDbLine
 10
278.1543246704676
 20
661.6768956086082
 30
0.0
 11
279.3660096704678
 21
668.5487526086083
 31
0.0
  0
ARC
  5
AA9
330
2
100
AcDbEntity
  8
0
100
AcDbCircle
 10
276.0083586704676
 20
648.7081456086082
 30
0.0
 40
1.0
100
AcDbArc
 50
270.0
 51
349.9999999999956
  0
ARC
  5
AAA
330
2
100
AcDbEntity
  8
0
100
AcDbCircle
 10
276.0083586704676
 20
640.0798196086082
 30
0.0
 40
1.0
100
AcDbArc
 50
270.0
 51
349.9999999999956
  0
LINE
  5
AAB
330
2
100
AcDbEntity
  8
0
100
AcDbLine
 10
276.9931606704679
 20
648.5345006086084
 30
0.0
 11
279.3660096704678
 21
661.9916236086084
 31
0.0
  0
LINE
  5
AAC
330
2
100
AcDbEntity
  8
0
100
AcDbLine
 10
276.9931606704679
 20
639.9061746086083
 30
0.0
 11
279.3660096704678
 21
653.3632966086086
 31
0.0
  0
LINE
  5
AAD
330
2
100
AcDbEntity
  8
0
100
AcDbLine
 10
164.1817826704676
 20
764.0591286086085
 30
0.0
 11
277.550244670468
 21
764.0591286086085
 31
0.0
  0
LINE
  5
AAE
330
2
100
AcDbEntity
  8
0
100
AcDbLine
 10
277.1695066704677
 20
731.4580846086085
 30
0.0
 11
164.5625196704676
 21
731.4580846086085
 31
0.0
  0
LINE
  5
AAF
330
2
100
AcDbEntity
  8
0
100
AcDbLine
 10
276.2499206704677
 20
743.9356236086084
 30
0.0
 11
165.4821056704676
 21
743.9356236086084
 31
0.0
  0
LINE
  5
AB0
330
2
100
AcDbEntity
  8
0
100
AcDbLine
 10
276.5662046704677
 20
749.9805456086085
 30
0.0
 11
165.1658296704676
 21
749.9805456086085
 31
0.0
  0
LINE
  5
AB1
330
2
100
AcDbEntity
  8
0
100
AcDbLine
 10
276.8930786704676
 20
758.0231176086083
 30
0.0
 11
164.8389486704676
 21
758.0231176086083
 31
0.0
  0
LINE
  5
AB2
330
2
100
AcDbEntity
  8
0
100
AcDbLine
 10
277.0187656704678
 20
761.4975136086084
 30
0.0
 11
164.7132536704679
 21
761.4975136086084
 31
0.0
  0
LINE
  5
AB3
330
2
100
AcDbEntity
  8
0
100
AcDbLine
 10
164.5327886704675
 20
765.7981726086084
 30
0.0
 11
277.1992306704677
 21
765.7981726086084
 31
0.0
  0
LINE
  5
AB4
330
2
100
AcDbEntity
  8
0
100
AcDbLine
 10
277.0032626704677
 20
766.7691506086087
 30
0.0
 11
164.7287716704676
 21
766.7691506086087
 31
0.0
  0
LINE
  5
AB5
330
2
100
AcDbEntity
  8
0
100
AcDbLine
 10
162.3660176704678
 20
723.7598726086083
 30
0.0
 11
279.3660096704678
 21
723.7598726086083
 31
0.0
  0
LINE
  5
AB6
330
2
100
AcDbEntity
  8
0
100
AcDbLine
 10
158.3659986704677
 20
768.0128336086084
 30
0.0
 11
129.4981416704675
 21
768.0128336086084
 31
0.0
  0
ARC
  5
AB7
330
2
100
AcDbEntity
  8
0
100
AcDbCircle
 10
117.7714866704676
 20
750.0128336086084
 30
0.0
 40
13.0
100
AcDbArc
 50
90.0
 51
171.0953219999952
  0
ARC
  5
AB8
330
2
100
AcDbEntity
  8
0
100
AcDbCircle
 10
129.4981416704675
 20
766.0128336086083
 30
0.0
 40
2.0
100
AcDbArc
 50
90.0
 51
168.5511779999877
  0
ARC
  5
AB9
330
2
100
AcDbEntity
  8
0
100
AcDbCircle
 10
126.0552686704676
 20
764.0851596086084
 30
0.0
 40
1.0
100
AcDbArc
 50
270.4999999999915
 51
348.9187930000138
  0
LINE
  5
ABA
330
2
100
AcDbEntity
  8
0
100
AcDbLine
 10
117.7714866704676
 20
763.0128336086084
 30
0.0
 11
126.0639966704678
 21
763.0852206086085
 31
0.0
  0
ARC
  5
ABB
330
2
100
AcDbEntity
  8
0
100
AcDbCircle
 10
161.5269016704677
 20
760.0128336086084
 30
0.0
 40
1.0
100
AcDbArc
 50
270.0
 51
349.9999999999956
  0
LINE
  5
ABC
330
2
100
AcDbEntity
  8
0
100
AcDbLine
 10
161.5269016704677
 20
759.0128336086084
 30
0.0
 11
159.3660136704678
 21
759.0128336086084
 31
0.0
  0
LINE
  5
ABD
330
2
100
AcDbEntity
  8
0
100
AcDbLine
 10
158.3660136704678
 20
757.5128336086083
 30
0.0
 11
159.3660136704678
 21
757.5128336086083
 31
0.0
  0
LINE
  5
ABE
330
2
100
AcDbEntity
  8
0
100
AcDbLine
 10
158.3660136704678
 20
757.5128336086083
 30
0.0
 11
159.3660136704678
 21
757.5128336086083
 31
0.0
  0
ARC
  5
ABF
330
2
100
AcDbEntity
  8
0
100
AcDbCircle
 10
164.7287716704676
 20
765.7691506086087
 30
0.0
 40
1.0
100
AcDbArc
 50
90.0
 51
168.588744999998
  0
ARC
  5
AC0
330
2
100
AcDbEntity
  8
0
100
AcDbCircle
 10
164.7132536704679
 20
760.4975136086084
 30
0.0
 40
1.0
100
AcDbArc
 50
90.0
 51
169.9999999999964
  0
ARC
  5
AC1
330
2
100
AcDbEntity
  8
0
100
AcDbCircle
 10
164.8389486704676
 20
757.0231176086083
 30
0.0
 40
1.0
100
AcDbArc
 50
90.0
 51
169.9999999999964
  0
LINE
  5
AC2
330
2
100
AcDbEntity
  8
0
100
AcDbLine
 10
163.7284516704679
 20
760.6711586086082
 30
0.0
 11
162.3660176704678
 21
752.9444126086084
 31
0.0
  0
ARC
  5
AC3
330
2
100
AcDbEntity
  8
0
100
AcDbCircle
 10
164.1817826704676
 20
763.0591286086085
 30
0.0
 40
1.0
100
AcDbArc
 50
90.0
 51
168.588744999998
  0
ARC
  5
AC4
330
2
100
AcDbEntity
  8
0
100
AcDbCircle
 10
164.5327886704675
 20
764.7981726086084
 30
0.0
 40
1.0
100
AcDbArc
 50
90.0
 51
168.588744999998
  0
LINE
  5
AC5
330
2
100
AcDbEntity
  8
0
100
AcDbLine
 10
163.7485396704677
 20
765.9669956086084
 30
0.0
 11
162.511708670468
 21
759.8391886086085
 31
0.0
  0
ARC
  5
AC6
330
2
100
AcDbEntity
  8
0
100
AcDbCircle
 10
165.4821056704676
 20
742.9356236086085
 30
0.0
 40
1.0
100
AcDbArc
 50
90.0
 51
169.9999999999964
  0
LINE
  5
AC7
330
2
100
AcDbEntity
  8
0
100
AcDbLine
 10
164.1810196704676
 20
749.1541906086084
 30
0.0
 11
162.3660176704678
 21
738.8607636086082
 31
0.0
  0
ARC
  5
AC8
330
2
100
AcDbEntity
  8
0
100
AcDbCircle
 10
164.5625196704676
 20
730.4580846086085
 30
0.0
 40
1.0
100
AcDbArc
 50
90.0
 51
169.9999999999964
  0
LINE
  5
AC9
330
2
100
AcDbEntity
  8
0
100
AcDbLine
 10
164.4973036704676
 20
743.1092686086083
 30
0.0
 11
162.3660176704678
 21
731.0221406086086
 31
0.0
  0
ARC
  5
ACA
330
2
100
AcDbEntity
  8
0
100
AcDbCircle
 10
165.1658296704676
 20
748.9805456086084
 30
0.0
 40
1.0
100
AcDbArc
 50
90.0
 51
169.9999999999964
  0
LINE
  5
ACB
330
2
100
AcDbEntity
  8
0
100
AcDbLine
 10
163.8541456704678
 20
757.1967626086082
 30
0.0
 11
162.3660176704678
 21
748.7571566086082
 31
0.0
  0
LINE
  5
ACC
330
2
100
AcDbEntity
  8
0
100
AcDbLine
 10
163.5777096704677
 20
730.6317296086083
 30
0.0
 11
162.3660176704678
 21
723.7598726086083
 31
0.0
  0
ARC
  5
ACD
330
2
100
AcDbEntity
  8
0
100
AcDbCircle
 10
277.0032626704677
 20
765.7691506086087
 30
0.0
 40
1.0
100
AcDbArc
 50
11.41125500000192
 51
90.0
  0
ARC
  5
ACE
330
2
100
AcDbEntity
  8
0
100
AcDbCircle
 10
277.0187656704678
 20
760.4975136086084
 30
0.0
 40
1.0
100
AcDbArc
 50
10.00000000000355
 51
90.0
  0
ARC
  5
ACF
330
2
100
AcDbEntity
  8
0
100
AcDbCircle
 10
276.8930786704676
 20
757.0231176086083
 30
0.0
 40
1.0
100
AcDbArc
 50
10.00000000000355
 51
90.0
  0
LINE
  5
AD0
330
2
100
AcDbEntity
  8
0
100
AcDbLine
 10
278.0035826704678
 20
760.6711586086082
 30
0.0
 11
279.3660096704678
 21
752.9444126086084
 31
0.0
  0
ARC
  5
AD1
330
2
100
AcDbEntity
  8
0
100
AcDbCircle
 10
277.550244670468
 20
763.0591286086085
 30
0.0
 40
1.0
100
AcDbArc
 50
11.41125500000192
 51
90.0
  0
ARC
  5
AD2
330
2
100
AcDbEntity
  8
0
100
AcDbCircle
 10
280.2051206704676
 20
760.0128336086084
 30
0.0
 40
1.0
100
AcDbArc
 50
190.0000000000035
 51
270.0
  0
ARC
  5
AD3
330
2
100
AcDbEntity
  8
0
100
AcDbCircle
 10
277.1992306704677
 20
764.7981726086084
 30
0.0
 40
1.0
100
AcDbArc
 50
11.41125500000192
 51
90.0
  0
LINE
  5
AD4
330
2
100
AcDbEntity
  8
0
100
AcDbLine
 10
277.9834866704676
 20
765.9669956086084
 30
0.0
 11
279.2203186704676
 21
759.8391886086085
 31
0.0
  0
ARC
  5
AD5
330
2
100
AcDbEntity
  8
0
100
AcDbCircle
 10
276.2499206704677
 20
742.9356236086085
 30
0.0
 40
1.0
100
AcDbArc
 50
10.00000000000355
 51
90.0
  0
LINE
  5
AD6
330
2
100
AcDbEntity
  8
0
100
AcDbLine
 10
277.551007670468
 20
749.1541906086084
 30
0.0
 11
279.3660096704678
 21
738.8607636086082
 31
0.0
  0
ARC
  5
AD7
330
2
100
AcDbEntity
  8
0
100
AcDbCircle
 10
277.1695066704677
 20
730.4580846086085
 30
0.0
 40
1.0
100
AcDbArc
 50
10.00000000000355
 51
90.0
  0
LINE
  5
AD8
330
2
100
AcDbEntity
  8
0
100
AcDbLine
 10
277.2347226704677
 20
743.1092686086083
 30
0.0
 11
279.3660096704678
 21
731.0221406086086
 31
0.0
  0
ARC
  5
AD9
330
2
100
AcDbEntity
  8
0
100
AcDbCircle
 10
276.5662046704677
 20
748.9805456086084
 30
0.0
 40
1.0
100
AcDbArc
 50
10.00000000000355
 51
90.0
  0
LINE
  5
ADA
330
2
100
AcDbEntity
  8
0
100
AcDbLine
 10
277.877880670468
 20
757.1967626086082
 30
0.0
 11
279.3660096704678
 21
748.7571566086082
 31
0.0
  0
LINE
  5
ADB
330
2
100
AcDbEntity
  8
0
100
AcDbLine
 10
278.1543246704676
 20
730.6317296086083
 30
0.0
 11
279.3660096704678
 21
723.7598726086083
 31
0.0
  0
ARC
  5
ADC
330
2
100
AcDbEntity
  8
0
100
AcDbCircle
 10
502.8660246704679
 20
559.1263886086083
 30
0.0
 40
10.0
100
AcDbArc
 50
0.0
 51
88.50328800000893
  0
LINE
  5
ADD
330
2
100
AcDbEntity
  8
0
100
AcDbLine
 10
530.8659026704675
 20
821.5128336086083
 30
0.0
 11
530.8659026704675
 21
552.5131076086084
 31
0.0
  0
LINE
  5
ADE
330
2
100
AcDbEntity
  8
0
100
AcDbLine
 10
512.8657806704676
 20
555.5386206086084
 30
0.0
 11
512.8653836704678
 21
818.4870456086084
 31
0.0
  0
ARC
  5
ADF
330
2
100
AcDbEntity
  8
0
100
AcDbCircle
 10
502.8659026704676
 20
347.9219521911375
 30
0.0
 40
10.0
100
AcDbArc
 50
271.4971619999901
 51
0.0
  0
LINE
  5
AE1
330
2
100
AcDbEntity
  8
CENTER
100
AcDbLine
 10
540.8659026704675
 20
362.6351481911367
 30
0.0
 11
502.8655370266263
 21
362.6351481911381
 31
0.0
  0
LINE
  5
AE5
330
2
100
AcDbEntity
  8
0
100
AcDbLine
 10
401.9707306704679
 20
290.1083531911369
 30
0.0
 11
399.8660856704676
 21
290.034806191137
 31
0.0
  0
LINE
  5
AE6
330
2
100
AcDbEntity
  8
0
100
AcDbLine
 10
384.4660916704678
 20
277.5351721911372
 30
0.0
 11
318.7660946704676
 21
277.5351721911372
 31
0.0
  0
LINE
  5
AE7
330
2
100
AcDbEntity
  8
0
100
AcDbLine
 10
387.3660856704676
 20
276.5351721911372
 30
0.0
 11
315.8661016704676
 21
276.5351721911372
 31
0.0
  0
LINE
  5
AE8
330
2
100
AcDbEntity
  8
0
100
AcDbLine
 10
317.3661016704676
 20
263.5351721911372
 30
0.0
 11
385.8660856704677
 21
263.5351721911372
 31
0.0
  0
ARC
  5
AE9
330
2
100
AcDbEntity
  8
0
100
AcDbCircle
 10
311.8661016704676
 20
289.0352941911371
 30
0.0
 40
1.0
100
AcDbArc
 50
0.0
 51
90.0
  0
ARC
  5
AEA
330
2
100
AcDbEntity
  8
0
100
AcDbCircle
 10
314.7660946704676
 20
289.0352941911371
 30
0.0
 40
1.0
100
AcDbArc
 50
0.0
 51
90.0
  0
LINE
  5
AEB
330
2
100
AcDbEntity
  8
0
100
AcDbLine
 10
299.3661016704676
 20
290.0351721911372
 30
0.0
 11
303.3661016704676
 21
290.0351721911372
 31
0.0
  0
LINE
  5
AEC
330
2
100
AcDbEntity
  8
0
100
AcDbLine
 10
314.7660946704676
 20
290.0352941911371
 30
0.0
 11
303.3661016704676
 21
290.0352941911371
 31
0.0
  0
LINE
  5
AED
330
2
100
AcDbEntity
  8
0
100
AcDbLine
 10
314.3661016704676
 20
271.0351721911372
 30
0.0
 11
314.3661016704676
 21
257.0351721911372
 31
0.0
  0
ARC
  5
AEE
330
2
100
AcDbEntity
  8
0
100
AcDbCircle
 10
313.3661016704676
 20
268.5351721911372
 30
0.0
 40
1.0
100
AcDbArc
 50
284.476990000002
 51
0.0
  0
ARC
  5
AEF
330
2
100
AcDbEntity
  8
0
100
AcDbCircle
 10
313.8661016704676
 20
266.5986491911369
 30
0.0
 40
1.0
100
AcDbArc
 50
104.4776000000047
 51
180.0
  0
ARC
  5
AF0
330
2
100
AcDbEntity
  8
0
100
AcDbCircle
 10
317.3661016704676
 20
266.5351721911372
 30
0.0
 40
3.0
100
AcDbArc
 50
180.0
 51
270.0
  0
ARC
  5
AF1
330
2
100
AcDbEntity
  8
0
100
AcDbCircle
 10
313.3661016704676
 20
271.0351721911372
 30
0.0
 40
1.0
100
AcDbArc
 50
0.0
 51
75.51628100000569
  0
ARC
  5
AF2
330
2
100
AcDbEntity
  8
0
100
AcDbCircle
 10
313.8662996704677
 20
272.9715731911371
 30
0.0
 40
1.0
100
AcDbArc
 50
180.0
 51
255.5162810000056
  0
ARC
  5
AF3
330
2
100
AcDbEntity
  8
0
100
AcDbCircle
 10
315.8661016704676
 20
279.5351721911372
 30
0.0
 40
3.0
100
AcDbArc
 50
180.0
 51
270.0
  0
ARC
  5
AF4
330
2
100
AcDbEntity
  8
0
100
AcDbCircle
 10
318.7660946704676
 20
280.5351721911372
 30
0.0
 40
3.0
100
AcDbArc
 50
180.0
 51
270.0
  0
LINE
  5
AF5
330
2
100
AcDbEntity
  8
0
100
AcDbLine
 10
315.7660946704676
 20
280.5351721911372
 30
0.0
 11
315.7660946704676
 21
289.0352941911371
 31
0.0
  0
LINE
  5
AF6
330
2
100
AcDbEntity
  8
0
100
AcDbLine
 10
312.8658876704679
 20
272.9715731911371
 30
0.0
 11
312.8658876704679
 21
289.0352331911369
 31
0.0
  0
LINE
  5
AF7
330
2
100
AcDbEntity
  8
0
100
AcDbLine
 10
388.4660916704678
 20
290.0352331911369
 30
0.0
 11
399.8660856704676
 21
290.0352941911371
 31
0.0
  0
ARC
  5
AF8
330
2
100
AcDbEntity
  8
0
100
AcDbCircle
 10
391.3662996704678
 20
289.0351721911372
 30
0.0
 40
1.0
100
AcDbArc
 50
90.0
 51
180.0
  0
ARC
  5
AF9
330
2
100
AcDbEntity
  8
0
100
AcDbCircle
 10
388.4660916704678
 20
289.0352331911369
 30
0.0
 40
1.0
100
AcDbArc
 50
90.0
 51
180.0
  0
LINE
  5
AFA
330
2
100
AcDbEntity
  8
0
100
AcDbLine
 10
388.8660856704676
 20
271.0351721911372
 30
0.0
 11
388.8660856704676
 21
257.0351721911372
 31
0.0
  0
ARC
  5
AFB
330
2
100
AcDbEntity
  8
0
100
AcDbCircle
 10
389.8660856704676
 20
268.5351721911372
 30
0.0
 40
1.0
100
AcDbArc
 50
180.0
 51
255.5227969999957
  0
ARC
  5
AFC
330
2
100
AcDbEntity
  8
0
100
AcDbCircle
 10
389.3660856704676
 20
266.5986491911369
 30
0.0
 40
1.0
100
AcDbArc
 50
0.0
 51
75.52239999999521
  0
ARC
  5
AFD
330
2
100
AcDbEntity
  8
0
100
AcDbCircle
 10
385.8660856704677
 20
266.5351721911372
 30
0.0
 40
3.0
100
AcDbArc
 50
270.0
 51
0.0
  0
ARC
  5
AFE
330
2
100
AcDbEntity
  8
0
100
AcDbCircle
 10
389.8660856704676
 20
271.0351721911372
 30
0.0
 40
1.0
100
AcDbArc
 50
104.4848020000044
 51
180.0
  0
ARC
  5
AFF
330
2
100
AcDbEntity
  8
0
100
AcDbCircle
 10
389.3659026704675
 20
272.9715731911371
 30
0.0
 40
1.0
100
AcDbArc
 50
284.4813999999918
 51
0.0
  0
ARC
  5
B00
330
2
100
AcDbEntity
  8
0
100
AcDbCircle
 10
387.3660856704676
 20
279.5351721911372
 30
0.0
 40
3.0
100
AcDbArc
 50
270.0
 51
0.0
  0
ARC
  5
B01
330
2
100
AcDbEntity
  8
0
100
AcDbCircle
 10
384.4660916704678
 20
280.5351721911372
 30
0.0
 40
3.0
100
AcDbArc
 50
270.0
 51
0.0
  0
LINE
  5
B02
330
2
100
AcDbEntity
  8
0
100
AcDbLine
 10
387.4660916704677
 20
280.5351721911372
 30
0.0
 11
387.4660916704677
 21
289.0352331911369
 31
0.0
  0
LINE
  5
B03
330
2
100
AcDbEntity
  8
0
100
AcDbLine
 10
390.3659026704675
 20
289.0351721911372
 30
0.0
 11
390.3659026704675
 21
272.9715731911371
 31
0.0
  0
ARC
  5
B04
330
2
100
AcDbEntity
  8
0
100
AcDbCircle
 10
409.8660856704676
 20
327.9283601911372
 30
0.0
 40
5.0
100
AcDbArc
 50
91.49999999998968
 51
180.0
  0
ARC
  5
B05
330
2
100
AcDbEntity
  8
0
100
AcDbCircle
 10
401.8660246704679
 20
293.1065221911373
 30
0.0
 40
3.0
100
AcDbArc
 50
272.0001069999991
 51
0.0
  0
ARC
  5
B06
330
2
100
AcDbEntity
  8
0
100
AcDbCircle
 10
512.8648956704677
 20
-616.8201748088629
 30
0.0
 40
955.0
100
AcDbArc
 50
92.99407999999521
 51
95.95017199998977
  0
LINE
  5
B07
330
2
100
AcDbEntity
  8
0
100
AcDbLine
 10
409.7351956704677
 20
332.9266511911371
 30
0.0
 11
413.8660856704676
 21
333.0348061911375
 31
0.0
  0
LINE
  5
B08
330
2
100
AcDbEntity
  8
0
100
AcDbLine
 10
503.1271026704675
 20
337.9248811911372
 30
0.0
 11
462.9840976704675
 21
336.8760531911373
 31
0.0
  0
LINE
  5
B0C
330
2
100
AcDbEntity
  8
0
100
AcDbLine
 10
536.8659026704675
 20
273.0352331911369
 30
0.0
 11
601.8659026704675
 21
273.0349891911371
 31
0.0
  0
LINE
  5
B0D
330
2
100
AcDbEntity
  8
0
100
AcDbLine
 10
547.8659026704675
 20
259.0349891911371
 30
0.0
 11
601.8659026704675
 21
259.0349891911371
 31
0.0
  0
LINE
  5
B0E
330
2
100
AcDbEntity
  8
0
100
AcDbLine
 10
535.8659026704676
 20
274.0352331911369
 30
0.0
 11
536.8659026704675
 21
274.0352331911369
 31
0.0
  0
LINE
  5
B0F
330
2
100
AcDbEntity
  8
0
100
AcDbLine
 10
530.366207670468
 20
388.0175331911371
 30
0.0
 11
515.760800670468
 21
387.5075231911371
 31
0.0
  0
LINE
  5
B10
330
2
100
AcDbEntity
  8
HIDS
  6
SEKKEI_H
100
AcDbLine
 10
530.8659026704675
 20
371.6351481911372
 30
0.0
 11
512.8655056704677
 21
371.6351481911372
 31
0.0
  0
ARC
  5
B11
330
2
100
AcDbEntity
  8
0
100
AcDbCircle
 10
515.8655056704677
 20
384.5093541911371
 30
0.0
 40
3.0
100
AcDbArc
 50
92.00000000000365
 51
180.0
  0
LINE
  5
B12
330
2
100
AcDbEntity
  8
0
100
AcDbLine
 10
530.8659026704675
 20
368.0349891911371
 30
0.0
 11
535.3659026704675
 21
368.0349891911371
 31
0.0
  0
LINE
  5
B13
330
2
100
AcDbEntity
  8
0
100
AcDbLine
 10
535.3659026704675
 20
368.0349891911371
 30
0.0
 11
535.8659026704676
 21
367.5349891911371
 31
0.0
  0
LINE
  5
B14
330
2
100
AcDbEntity
  8
0
100
AcDbLine
 10
530.366207670468
 20
388.0175331911371
 30
0.0
 11
530.8659026704675
 21
387.5349891911371
 31
0.0
  0
LINE
  5
B15
330
2
100
AcDbEntity
  8
HIDS
  6
SEKKEI_H
100
AcDbLine
 10
530.8659026704675
 20
353.6351481911371
 30
0.0
 11
512.8655056704677
 21
353.6351481911371
 31
0.0
  0
LINE
  5
B16
330
2
100
AcDbEntity
  8
0
100
AcDbLine
 10
515.7610136704678
 20
552.5404516086084
 30
0.0
 11
530.3661466704678
 21
552.0301976086086
 31
0.0
  0
ARC
  5
B17
330
2
100
AcDbEntity
  8
0
100
AcDbCircle
 10
515.8657506704679
 20
555.5386816086086
 30
0.0
 40
3.0
100
AcDbArc
 50
180.0
 51
267.9991149999955
  0
LINE
  5
B18
330
2
100
AcDbEntity
  8
0
100
AcDbLine
 10
530.8659026704675
 20
552.5131076086084
 30
0.0
 11
530.3661466704678
 21
552.0301976086086
 31
0.0
  0
LINE
  5
B19
330
2
100
AcDbEntity
  8
CENTER
100
AcDbLine
 10
540.8659026704675
 20
796.6129616086079
 30
0.0
 11
502.865416695999
 21
796.6129616086093
 31
0.0
  0
ARC
  5
B1A
330
2
100
AcDbEntity
  8
0
100
AcDbCircle
 10
502.8657806704676
 20
814.8993076086082
 30
0.0
 40
10.0
100
AcDbArc
 50
271.4970400000054
 51
0.0
  0
LINE
  5
B1B
330
2
100
AcDbEntity
  8
CENTER
100
AcDbLine
 10
540.8659026704675
 20
577.4099586086074
 30
0.0
 11
502.8657476490828
 21
577.4099586086087
 31
0.0
  0
LINE
  5
B1C
330
2
100
AcDbEntity
  8
0
100
AcDbLine
 10
413.8660246704679
 20
574.0127416086086
 30
0.0
 11
413.8660246704679
 21
800.012553498518
 31
0.0
  0
LINE
  5
B1D
330
2
100
AcDbEntity
  8
0
100
AcDbLine
 10
389.2377286704676
 20
714.9342506086084
 30
0.0
 11
389.7350126704676
 21
733.9211276086082
 31
0.0
  0
LINE
  5
B1E
330
2
100
AcDbEntity
  8
0
100
AcDbLine
 10
313.9943206704677
 20
714.9342506086084
 30
0.0
 11
313.4970216704676
 21
733.9211276086082
 31
0.0
  0
LINE
  5
B1F
330
2
100
AcDbEntity
  8
0
100
AcDbLine
 10
404.8659636704677
 20
794.9059306086085
 30
0.0
 11
404.8659636704677
 21
579.1197366086082
 31
0.0
  0
LINE
  5
B20
330
2
100
AcDbEntity
  8
0
100
AcDbLine
 10
399.8660246704679
 20
616.0128636086085
 30
0.0
 11
399.8660246704679
 21
758.0128336086083
 31
0.0
  0
LINE
  5
B21
330
2
100
AcDbEntity
  8
0
100
AcDbLine
 10
299.3660096704678
 20
759.0128336086084
 30
0.0
 11
299.3660096704678
 21
615.0128636086085
 31
0.0
  0
LINE
  5
B22
330
2
100
AcDbEntity
  8
0
100
AcDbLine
 10
303.3660096704674
 20
758.0129556086078
 30
0.0
 11
303.3660096704678
 21
616.0127416086086
 31
0.0
  0
LINE
  5
B23
330
2
100
AcDbEntity
  8
0
100
AcDbLine
 10
401.9707306704679
 20
615.9393166086085
 30
0.0
 11
399.8660246704679
 21
616.0128636086085
 31
0.0
  0
ARC
  5
B24
330
2
100
AcDbEntity
  8
0
100
AcDbCircle
 10
389.8660246704679
 20
638.4286356086083
 30
0.0
 40
1.0
100
AcDbArc
 50
124.425797000005
 51
180.0
  0
LINE
  5
B25
330
2
100
AcDbEntity
  8
0
100
AcDbLine
 10
388.8660246704679
 20
649.0128336086083
 30
0.0
 11
388.8660246704679
 21
634.9869236086085
 31
0.0
  0
ARC
  5
B26
330
2
100
AcDbEntity
  8
0
100
AcDbCircle
 10
313.3660096704678
 20
638.4286356086083
 30
0.0
 40
1.0
100
AcDbArc
 50
0.0
 51
55.5741690000104
  0
LINE
  5
B27
330
2
100
AcDbEntity
  8
0
100
AcDbLine
 10
314.3660096704678
 20
649.0128336086083
 30
0.0
 11
314.3660096704678
 21
634.9869236086085
 31
0.0
  0
LINE
  5
B28
330
2
100
AcDbEntity
  8
0
100
AcDbLine
 10
316.1419186704678
 20
629.5128636086085
 30
0.0
 11
363.8661166704677
 21
629.5128636086085
 31
0.0
  0
ARC
  5
B29
330
2
100
AcDbEntity
  8
0
100
AcDbCircle
 10
314.3172116704676
 20
633.2276466086084
 30
0.0
 40
1.0
100
AcDbArc
 50
118.3991009999919
 51
178.4996029999886
  0
ARC
  5
B2A
330
2
100
AcDbEntity
  8
0
100
AcDbCircle
 10
313.3660096704678
 20
634.9869236086085
 30
0.0
 40
1.0
100
AcDbArc
 50
298.3975789999901
 51
0.0
  0
ARC
  5
B2B
330
2
100
AcDbEntity
  8
0
100
AcDbCircle
 10
316.1419186704678
 20
626.5128636086085
 30
0.0
 40
3.0
100
AcDbArc
 50
90.0
 51
178.5001069999886
  0
LINE
  5
B2C
330
2
100
AcDbEntity
  8
0
100
AcDbLine
 10
311.8661016704676
 20
616.0127416086086
 30
0.0
 11
311.8661016704676
 21
613.6411596086084
 31
0.0
  0
LINE
  5
B2D
330
2
100
AcDbEntity
  8
HOJO
100
AcDbLine
 10
313.3661016704676
 20
613.3354956086084
 30
0.0
 11
314.8661016704676
 21
613.8790136086083
 31
0.0
  0
LINE
  5
B2E
330
2
100
AcDbEntity
  8
HOJO
100
AcDbLine
 10
311.8661016704676
 20
613.6411596086084
 30
0.0
 11
313.3661016704676
 21
614.1276706086085
 31
0.0
  0
LINE
  5
B2F
330
2
100
AcDbEntity
  8
0
100
AcDbLine
 10
311.8919186704678
 20
616.0127416086086
 30
0.0
 11
310.7293216704678
 21
616.0127416086086
 31
0.0
  0
ARC
  5
B30
330
2
100
AcDbEntity
  8
0
100
AcDbCircle
 10
311.8919186704678
 20
617.0127416086086
 30
0.0
 40
1.0
100
AcDbArc
 50
270.0
 51
358.4993900000025
  0
LINE
  5
B31
330
2
100
AcDbEntity
  8
0
100
AcDbLine
 10
314.8661016704676
 20
629.2280126086081
 30
0.0
 11
314.8661016704676
 21
613.8790136086083
 31
0.0
  0
LINE
  5
B32
330
2
100
AcDbEntity
  8
0
100
AcDbLine
 10
313.3661016704676
 20
627.6507426086084
 30
0.0
 11
313.3661016704676
 21
613.3354956086084
 31
0.0
  0
LINE
  5
B33
330
2
100
AcDbEntity
  8
0
100
AcDbLine
 10
313.2354096704679
 20
631.0914156086084
 30
0.0
 11
312.8660096704678
 21
616.9866186086085
 31
0.0
  0
LINE
  5
B34
330
2
100
AcDbEntity
  8
0
100
AcDbLine
 10
313.2609066704675
 20
631.0914156086084
 30
0.0
 11
313.3175176704675
 21
633.2538306086083
 31
0.0
  0
LINE
  5
B35
330
2
100
AcDbEntity
  8
0
100
AcDbLine
 10
313.2610136704678
 20
631.0914156086084
 30
0.0
 11
313.3183106704676
 21
633.2801366086084
 31
0.0
  0
LINE
  5
B36
330
2
100
AcDbEntity
  8
0
100
AcDbLine
 10
303.3660096704678
 20
616.0127416086086
 30
0.0
 11
299.3660096704678
 21
616.0127416086086
 31
0.0
  0
LINE
  5
B37
330
2
100
AcDbEntity
  8
0
100
AcDbLine
 10
311.8919186704678
 20
616.0127416086086
 30
0.0
 11
303.3660096704678
 21
616.0127416086086
 31
0.0
  0
ARC
  5
B38
330
2
100
AcDbEntity
  8
0
100
AcDbCircle
 10
369.8660246704679
 20
633.0128636086085
 30
0.0
 40
1.0
100
AcDbArc
 50
0.0
 51
90.0
  0
LINE
  5
B39
330
2
100
AcDbEntity
  8
0
100
AcDbLine
 10
366.8661166704676
 20
629.5128636086085
 30
0.0
 11
387.0902066704678
 21
629.5128636086085
 31
0.0
  0
ARC
  5
B3A
330
2
100
AcDbEntity
  8
0
100
AcDbCircle
 10
371.8660246704679
 20
630.5128636086085
 30
0.0
 40
1.0
100
AcDbArc
 50
180.0
 51
270.0
  0
LINE
  5
B3B
330
2
100
AcDbEntity
  8
0
100
AcDbLine
 10
360.8660246704679
 20
634.0128636086085
 30
0.0
 11
369.8660246704679
 21
634.0128636086085
 31
0.0
  0
ARC
  5
B3C
330
2
100
AcDbEntity
  8
0
100
AcDbCircle
 10
360.8660246704679
 20
633.0128636086085
 30
0.0
 40
1.0
100
AcDbArc
 50
90.0
 51
180.0
  0
ARC
  5
B3D
330
2
100
AcDbEntity
  8
0
100
AcDbCircle
 10
358.8660246704679
 20
630.5128636086085
 30
0.0
 40
1.0
100
AcDbArc
 50
270.0
 51
0.0
  0
LINE
  5
B3E
330
2
100
AcDbEntity
  8
HOJO
100
AcDbLine
 10
363.8661166704677
 20
622.2566386086084
 30
0.0
 11
365.3661166704677
 21
622.8733376086085
 31
0.0
  0
LINE
  5
B3F
330
2
100
AcDbEntity
  8
HOJO
100
AcDbLine
 10
365.3661166704677
 20
621.9504856086084
 30
0.0
 11
366.8661166704676
 21
622.5850686086085
 31
0.0
  0
LINE
  5
B40
330
2
100
AcDbEntity
  8
0
100
AcDbLine
 10
359.8660246704679
 20
633.0128636086085
 30
0.0
 11
359.8660246704679
 21
630.5128636086085
 31
0.0
  0
LINE
  5
B41
330
2
100
AcDbEntity
  8
0
100
AcDbLine
 10
366.8661166704676
 20
634.0128636086085
 30
0.0
 11
366.8661166704676
 21
622.5850686086085
 31
0.0
  0
LINE
  5
B42
330
2
100
AcDbEntity
  8
0
100
AcDbLine
 10
365.3661166704677
 20
634.0128636086085
 30
0.0
 11
365.3661166704677
 21
621.9504856086084
 31
0.0
  0
LINE
  5
B43
330
2
100
AcDbEntity
  8
0
100
AcDbLine
 10
363.8661166704677
 20
634.0128636086085
 30
0.0
 11
363.8661166704677
 21
622.2566386086084
 31
0.0
  0
ARC
  5
B44
330
2
100
AcDbEntity
  8
0
100
AcDbCircle
 10
388.9148226704677
 20
633.2276466086084
 30
0.0
 40
1.0
100
AcDbArc
 50
1.500396000012381
 51
61.60088000000251
  0
ARC
  5
B45
330
2
100
AcDbEntity
  8
0
100
AcDbCircle
 10
389.8660246704679
 20
634.9869236086085
 30
0.0
 40
1.0
100
AcDbArc
 50
180.0
 51
241.602402000008
  0
ARC
  5
B46
330
2
100
AcDbEntity
  8
0
100
AcDbCircle
 10
387.0902066704678
 20
626.5128636086085
 30
0.0
 40
3.0
100
AcDbArc
 50
1.50048800000318
 51
90.0
  0
LINE
  5
B47
330
2
100
AcDbEntity
  8
0
100
AcDbLine
 10
391.3317226704679
 20
616.0127416086086
 30
0.0
 11
392.1384246704677
 21
616.0127416086086
 31
0.0
  0
LINE
  5
B48
330
2
100
AcDbEntity
  8
0
100
AcDbLine
 10
391.3317226704679
 20
616.0127416086086
 30
0.0
 11
399.8660246704679
 21
616.0127416086086
 31
0.0
  0
ARC
  5
B49
330
2
100
AcDbEntity
  8
0
100
AcDbCircle
 10
391.3317226704679
 20
617.0127416086086
 30
0.0
 40
1.0
100
AcDbArc
 50
181.9987030000025
 51
270.0
  0
LINE
  5
B4A
330
2
100
AcDbEntity
  8
0
100
AcDbLine
 10
389.9711276704678
 20
631.0914156086084
 30
0.0
 11
390.3440216704678
 21
616.8563696086082
 31
0.0
  0
LINE
  5
B4B
330
2
100
AcDbEntity
  8
0
100
AcDbLine
 10
370.8660246704679
 20
633.0128636086085
 30
0.0
 11
370.8660246704679
 21
630.5128636086085
 31
0.0
  0
LINE
  5
B4C
330
2
100
AcDbEntity
  8
0
100
AcDbLine
 10
389.9711276704678
 20
631.0914156086084
 30
0.0
 11
389.9145176704677
 21
633.2538306086083
 31
0.0
  0
LINE
  5
B4D
330
2
100
AcDbEntity
  8
0
100
AcDbLine
 10
387.4660006704679
 20
693.9427346086083
 30
0.0
 11
315.7660186704678
 21
693.9427346086083
 31
0.0
  0
LINE
  5
B4E
330
2
100
AcDbEntity
  8
0
100
AcDbLine
 10
387.4660006704679
 20
680.0829316086085
 30
0.0
 11
315.7660186704678
 21
680.0829316086085
 31
0.0
  0
LINE
  5
B4F
330
2
100
AcDbEntity
  8
0
100
AcDbLine
 10
386.5007296704678
 20
652.0128336086083
 30
0.0
 11
316.8884096704676
 21
652.0128336086083
 31
0.0
  0
LINE
  5
B50
330
2
100
AcDbEntity
  8
0
100
AcDbLine
 10
316.8884096704676
 20
642.6591346086086
 30
0.0
 11
386.5007296704678
 21
642.6591346086086
 31
0.0
  0
LINE
  5
B51
330
2
100
AcDbEntity
  8
0
100
AcDbLine
 10
315.7660186704678
 20
687.0128336086083
 30
0.0
 11
314.5442166704678
 21
693.9420326086085
 31
0.0
  0
LINE
  5
B52
330
2
100
AcDbEntity
  8
0
100
AcDbLine
 10
313.9943206704677
 20
659.0914466086084
 30
0.0
 11
314.5442166704678
 21
680.0836336086083
 31
0.0
  0
LINE
  5
B53
330
2
100
AcDbEntity
  8
0
100
AcDbLine
 10
315.7660186704678
 20
687.0128336086083
 30
0.0
 11
314.5442166704678
 21
680.0836336086083
 31
0.0
  0
LINE
  5
B54
330
2
100
AcDbEntity
  8
0
100
AcDbLine
 10
313.9943206704677
 20
714.9342506086084
 30
0.0
 11
314.5442166704678
 21
693.9420326086085
 31
0.0
  0
ARC
  5
B55
330
2
100
AcDbEntity
  8
0
100
AcDbCircle
 10
314.4967166704676
 20
640.0783546086083
 30
0.0
 40
1.0
100
AcDbArc
 50
178.4987029999993
 51
235.574202999995
  0
LINE
  5
B56
330
2
100
AcDbEntity
  8
0
100
AcDbLine
 10
313.9943206704677
 20
659.0914466086084
 30
0.0
 11
313.4970216704676
 21
640.1045386086082
 31
0.0
  0
ARC
  5
B57
330
2
100
AcDbEntity
  8
0
100
AcDbCircle
 10
317.3660096704678
 20
649.0128336086083
 30
0.0
 40
3.0
100
AcDbArc
 50
90.0
 51
180.0
  0
ARC
  5
B58
330
2
100
AcDbEntity
  8
0
100
AcDbCircle
 10
316.7313206704678
 20
649.0128336086083
 30
0.0
 40
3.0
100
AcDbArc
 50
90.0
 51
178.4994049999893
  0
LINE
  5
B59
330
2
100
AcDbEntity
  8
0
100
AcDbLine
 10
387.4660006704679
 20
687.0128336086083
 30
0.0
 11
388.6879246704678
 21
693.9427346086083
 31
0.0
  0
LINE
  5
B5A
330
2
100
AcDbEntity
  8
0
100
AcDbLine
 10
389.2377286704676
 20
659.0914466086084
 30
0.0
 11
388.6879246704678
 21
680.0829316086085
 31
0.0
  0
LINE
  5
B5B
330
2
100
AcDbEntity
  8
0
100
AcDbLine
 10
387.4660006704679
 20
687.0128336086083
 30
0.0
 11
388.6879246704678
 21
680.0829316086085
 31
0.0
  0
LINE
  5
B5C
330
2
100
AcDbEntity
  8
0
100
AcDbLine
 10
389.2377286704676
 20
714.9342506086084
 30
0.0
 11
388.6879246704678
 21
693.9427346086083
 31
0.0
  0
ARC
  5
B5D
330
2
100
AcDbEntity
  8
0
100
AcDbCircle
 10
388.7353176704676
 20
640.0783546086083
 30
0.0
 40
1.0
100
AcDbArc
 50
304.4258120000097
 51
1.50126999998989
  0
LINE
  5
B5E
330
2
100
AcDbEntity
  8
0
100
AcDbLine
 10
389.2377286704676
 20
659.0914466086084
 30
0.0
 11
389.7350126704676
 21
640.1045386086082
 31
0.0
  0
ARC
  5
B5F
330
2
100
AcDbEntity
  8
0
100
AcDbCircle
 10
385.8660246704679
 20
649.0128336086083
 30
0.0
 40
3.0
100
AcDbArc
 50
0.0
 51
90.0
  0
ARC
  5
B60
330
2
100
AcDbEntity
  8
0
100
AcDbCircle
 10
386.5007296704678
 20
649.0128336086083
 30
0.0
 40
3.0
100
AcDbArc
 50
1.500602000004477
 51
90.0
  0
ARC
  5
B61
330
2
100
AcDbEntity
  8
0
100
AcDbCircle
 10
512.8652616704679
 20
1523.867630608608
 30
0.0
 40
955.0
100
AcDbArc
 50
264.0496829999881
 51
267.0059200000047
  0
LINE
  5
B62
330
2
100
AcDbEntity
  8
0
100
AcDbLine
 10
409.7350736704678
 20
574.1214456086083
 30
0.0
 11
413.864681670468
 21
574.0133516086082
 31
0.0
  0
ARC
  5
B63
330
2
100
AcDbEntity
  8
0
100
AcDbCircle
 10
401.8660246704679
 20
612.9411476086081
 30
0.0
 40
3.0
100
AcDbArc
 50
0.0
 51
88.00055699999337
  0
ARC
  5
B64
330
2
100
AcDbEntity
  8
0
100
AcDbCircle
 10
409.8659636704677
 20
579.1197366086082
 30
0.0
 40
5.0
100
AcDbArc
 50
180.0
 51
268.5000000000103
  0
LINE
  5
B65
330
2
100
AcDbEntity
  8
0
100
AcDbLine
 10
503.1272556704679
 20
569.1224826086084
 30
0.0
 11
462.9844026704676
 21
570.1715556086084
 31
0.0
  0
LINE
  5
B66
330
2
100
AcDbEntity
  8
0
100
AcDbLine
 10
401.9707306704679
 20
758.0863196086085
 30
0.0
 11
399.8660246704679
 21
758.0128336086083
 31
0.0
  0
LINE
  5
B67
330
2
100
AcDbEntity
  8
0
100
AcDbLine
 10
316.8884096704676
 20
731.3665316086082
 30
0.0
 11
386.5007296704678
 21
731.3665316086082
 31
0.0
  0
LINE
  5
B68
330
2
100
AcDbEntity
  8
0
100
AcDbLine
 10
316.1419186704678
 20
744.5128336086083
 30
0.0
 11
387.0902066704678
 21
744.5128336086083
 31
0.0
  0
LINE
  5
B69
330
2
100
AcDbEntity
  8
0
100
AcDbLine
 10
386.5007296704678
 20
722.0128336086084
 30
0.0
 11
316.8884096704676
 21
722.0128336086084
 31
0.0
  0
LINE
  5
B6A
330
2
100
AcDbEntity
  8
0
100
AcDbLine
 10
311.8919186704678
 20
758.0129556086083
 30
0.0
 11
310.7293216704678
 21
758.0129556086083
 31
0.0
  0
ARC
  5
B6B
330
2
100
AcDbEntity
  8
0
100
AcDbCircle
 10
311.8919186704678
 20
757.0129556086083
 30
0.0
 40
1.0
100
AcDbArc
 50
1.50060999999748
 51
90.0
  0
ARC
  5
B6C
330
2
100
AcDbEntity
  8
0
100
AcDbCircle
 10
314.3172116704676
 20
740.7980506086085
 30
0.0
 40
1.0
100
AcDbArc
 50
181.5003970000114
 51
241.6008990000081
  0
ARC
  5
B6D
330
2
100
AcDbEntity
  8
0
100
AcDbCircle
 10
313.3660096704678
 20
739.0387426086083
 30
0.0
 40
1.0
100
AcDbArc
 50
0.0
 51
61.60242100000984
  0
ARC
  5
B6E
330
2
100
AcDbEntity
  8
0
100
AcDbCircle
 10
314.4967166704676
 20
733.9473426086085
 30
0.0
 40
1.0
100
AcDbArc
 50
124.425797000005
 51
181.5012970000006
  0
ARC
  5
B6F
330
2
100
AcDbEntity
  8
0
100
AcDbCircle
 10
313.3660096704678
 20
735.5970316086084
 30
0.0
 40
1.0
100
AcDbArc
 50
304.4258309999896
 51
0.0
  0
LINE
  5
B70
330
2
100
AcDbEntity
  8
0
100
AcDbLine
 10
313.2609066704675
 20
742.9342506086084
 30
0.0
 11
313.3175176704675
 21
740.7718356086081
 31
0.0
  0
ARC
  5
B71
330
2
100
AcDbEntity
  8
0
100
AcDbCircle
 10
316.1419186704678
 20
747.5128336086084
 30
0.0
 40
3.0
100
AcDbArc
 50
181.4998930000113
 51
270.0
  0
LINE
  5
B72
330
2
100
AcDbEntity
  8
0
100
AcDbLine
 10
313.2610136704678
 20
742.9342506086084
 30
0.0
 11
313.3183106704676
 21
740.7455296086084
 31
0.0
  0
LINE
  5
B73
330
2
100
AcDbEntity
  8
0
100
AcDbLine
 10
313.2354096704679
 20
742.9342506086084
 30
0.0
 11
312.8660096704678
 21
757.0390476086084
 31
0.0
  0
LINE
  5
B74
330
2
100
AcDbEntity
  8
0
100
AcDbLine
 10
303.3660096704678
 20
758.0129556086083
 30
0.0
 11
299.3660096704678
 21
758.0129556086083
 31
0.0
  0
LINE
  5
B75
330
2
100
AcDbEntity
  8
0
100
AcDbLine
 10
311.8919186704678
 20
758.0129556086083
 30
0.0
 11
303.3660096704678
 21
758.0129556086083
 31
0.0
  0
ARC
  5
B76
330
2
100
AcDbEntity
  8
0
100
AcDbCircle
 10
317.3660096704678
 20
725.0128336086084
 30
0.0
 40
3.0
100
AcDbArc
 50
180.0
 51
270.0
  0
ARC
  5
B77
330
2
100
AcDbEntity
  8
0
100
AcDbCircle
 10
316.7313206704678
 20
725.0128336086084
 30
0.0
 40
3.0
100
AcDbArc
 50
181.5005950000106
 51
270.0
  0
LINE
  5
B78
330
2
100
AcDbEntity
  8
0
100
AcDbLine
 10
314.3660096704678
 20
725.0128336086084
 30
0.0
 11
314.3660096704678
 21
739.0387426086083
 31
0.0
  0
LINE
  5
B79
330
2
100
AcDbEntity
  8
0
100
AcDbLine
 10
391.3317226704679
 20
758.0129556086083
 30
0.0
 11
392.1384246704677
 21
758.0129556086083
 31
0.0
  0
LINE
  5
B7A
330
2
100
AcDbEntity
  8
0
100
AcDbLine
 10
391.3317226704679
 20
758.0129556086083
 30
0.0
 11
399.8660246704679
 21
758.0129556086083
 31
0.0
  0
ARC
  5
B7B
330
2
100
AcDbEntity
  8
0
100
AcDbCircle
 10
391.3317226704679
 20
757.0129556086083
 30
0.0
 40
1.0
100
AcDbArc
 50
90.0
 51
178.0012969999974
  0
ARC
  5
B7C
330
2
100
AcDbEntity
  8
0
100
AcDbCircle
 10
388.9148226704677
 20
740.7980506086085
 30
0.0
 40
1.0
100
AcDbArc
 50
298.3991199999974
 51
358.4996039999876
  0
ARC
  5
B7D
330
2
100
AcDbEntity
  8
0
100
AcDbCircle
 10
389.8660246704679
 20
739.0387426086083
 30
0.0
 40
1.0
100
AcDbArc
 50
118.3975979999919
 51
180.0
  0
ARC
  5
B7E
330
2
100
AcDbEntity
  8
0
100
AcDbCircle
 10
388.7353176704676
 20
733.9473426086085
 30
0.0
 40
1.0
100
AcDbArc
 50
358.4987300000101
 51
55.57418799999024
  0
ARC
  5
B7F
330
2
100
AcDbEntity
  8
0
100
AcDbCircle
 10
389.8660246704679
 20
735.5970316086084
 30
0.0
 40
1.0
100
AcDbArc
 50
180.0
 51
235.574202999995
  0
LINE
  5
B80
330
2
100
AcDbEntity
  8
0
100
AcDbLine
 10
389.9711276704678
 20
742.9342506086084
 30
0.0
 11
389.9145176704677
 21
740.7718356086081
 31
0.0
  0
ARC
  5
B81
330
2
100
AcDbEntity
  8
0
100
AcDbCircle
 10
387.0902066704678
 20
747.5128336086084
 30
0.0
 40
3.0
100
AcDbArc
 50
270.0
 51
358.4995119999968
  0
LINE
  5
B82
330
2
100
AcDbEntity
  8
0
100
AcDbLine
 10
389.9711276704678
 20
742.9342506086084
 30
0.0
 11
390.3440216704678
 21
757.1693276086082
 31
0.0
  0
ARC
  5
B83
330
2
100
AcDbEntity
  8
0
100
AcDbCircle
 10
385.8660246704679
 20
725.0128336086084
 30
0.0
 40
3.0
100
AcDbArc
 50
270.0
 51
0.0
  0
ARC
  5
B84
330
2
100
AcDbEntity
  8
0
100
AcDbCircle
 10
386.5007296704678
 20
725.0128336086084
 30
0.0
 40
3.0
100
AcDbArc
 50
270.0
 51
358.4993979999955
  0
LINE
  5
B85
330
2
100
AcDbEntity
  8
0
100
AcDbLine
 10
388.8660246704679
 20
725.0128336086084
 30
0.0
 11
388.8660246704679
 21
739.0387426086083
 31
0.0
  0
ARC
  5
B86
330
2
100
AcDbEntity
  8
0
100
AcDbCircle
 10
401.8660246704679
 20
761.0845186086082
 30
0.0
 40
3.0
100
AcDbArc
 50
272.0003429999906
 51
0.0
  0
ARC
  5
B87
330
2
100
AcDbEntity
  8
0
100
AcDbCircle
 10
512.8648046704678
 20
-149.8422993913916
 30
0.0
 40
955.0
100
AcDbArc
 50
92.99407999999521
 51
95.95025599998908
  0
LINE
  5
B88
330
2
100
AcDbEntity
  8
0
100
AcDbLine
 10
409.7350736704678
 20
799.9042216086084
 30
0.0
 11
413.864681670468
 21
800.0123446086083
 31
0.0
  0
ARC
  5
B89
330
2
100
AcDbEntity
  8
0
100
AcDbCircle
 10
409.8659636704677
 20
794.9059306086085
 30
0.0
 40
5.0
100
AcDbArc
 50
91.49999999998968
 51
180.0
  0
LINE
  5
B8A
330
2
100
AcDbEntity
  8
0
100
AcDbLine
 10
503.1269806704679
 20
804.9027256086086
 30
0.0
 11
462.9840666704679
 21
803.8538976086085
 31
0.0
  0
LINE
  5
B8B
330
2
100
AcDbEntity
  8
0
100
AcDbLine
 10
535.8659026704676
 20
801.5128336086084
 30
0.0
 11
535.8659026704676
 21
572.5128636086085
 31
0.0
  0
LINE
  5
B8C
330
2
100
AcDbEntity
  8
HIDS
  6
SEKKEI_H
100
AcDbLine
 10
530.8659026704675
 20
586.4099586086083
 30
0.0
 11
512.8655056704677
 21
586.4099586086083
 31
0.0
  0
LINE
  5
B8D
330
2
100
AcDbEntity
  8
HIDS
  6
SEKKEI_H
100
AcDbLine
 10
530.8659026704675
 20
568.4099586086083
 30
0.0
 11
512.8655056704677
 21
568.4099586086083
 31
0.0
  0
LINE
  5
B8E
330
2
100
AcDbEntity
  8
0
100
AcDbLine
 10
535.3659026704675
 20
572.0128636086085
 30
0.0
 11
535.8659026704676
 21
572.5128636086085
 31
0.0
  0
LINE
  5
B8F
330
2
100
AcDbEntity
  8
0
100
AcDbLine
 10
535.3659026704675
 20
572.0128636086085
 30
0.0
 11
530.8659026704675
 21
572.0128636086085
 31
0.0
  0
LINE
  5
B90
330
2
100
AcDbEntity
  8
0
100
AcDbLine
 10
541.8659026704675
 20
667.9338536086086
 30
0.0
 11
601.8659026704675
 21
667.9338536086086
 31
0.0
  0
LINE
  5
B91
330
2
100
AcDbEntity
  8
0
100
AcDbLine
 10
541.8659026704675
 20
664.0130776086082
 30
0.0
 11
601.8659026704675
 21
664.0130776086082
 31
0.0
  0
LINE
  5
B92
330
2
100
AcDbEntity
  8
0
100
AcDbLine
 10
536.8657806704681
 20
707.0130776086082
 30
0.0
 11
601.8659026704675
 21
707.0128336086083
 31
0.0
  0
LINE
  5
B93
330
2
100
AcDbEntity
  8
0
100
AcDbLine
 10
535.8659026704676
 20
708.0128336086083
 30
0.0
 11
536.8659026704675
 21
708.0128336086083
 31
0.0
  0
LINE
  5
B94
330
2
100
AcDbEntity
  8
0
100
AcDbLine
 10
536.8659026704675
 20
667.0130776086082
 30
0.0
 11
541.8659026704675
 21
667.0128336086084
 31
0.0
  0
LINE
  5
B95
330
2
100
AcDbEntity
  8
0
100
AcDbLine
 10
535.8659026704676
 20
666.0128336086083
 30
0.0
 11
536.8659026704675
 21
666.0128336086083
 31
0.0
  0
LINE
  5
B96
330
2
100
AcDbEntity
  8
0
100
AcDbLine
 10
541.8659026704675
 20
667.9338536086086
 30
0.0
 11
541.8659026704675
 21
664.0130776086082
 31
0.0
  0
LINE
  5
B97
330
2
100
AcDbEntity
  8
0
100
AcDbLine
 10
536.8659026704675
 20
708.0128336086083
 30
0.0
 11
536.8659026704675
 21
666.0128336086083
 31
0.0
  0
LINE
  5
B98
330
2
100
AcDbEntity
  8
0
100
AcDbLine
 10
601.8659026704675
 20
707.0128336086083
 30
0.0
 11
601.8659026704675
 21
664.0130776086082
 31
0.0
  0
LINE
  5
B99
330
2
100
AcDbEntity
  8
HIDS
  6
SEKKEI_H
100
AcDbLine
 10
530.8659026704675
 20
787.6129616086084
 30
0.0
 11
512.8655056704677
 21
787.6129616086084
 31
0.0
  0
LINE
  5
B9A
330
2
100
AcDbEntity
  8
0
100
AcDbLine
 10
515.7606476704676
 20
821.4852456086084
 30
0.0
 11
530.3662686704678
 21
821.9954996086082
 31
0.0
  0
LINE
  5
B9B
330
2
100
AcDbEntity
  8
HIDS
  6
SEKKEI_H
100
AcDbLine
 10
530.8659026704675
 20
805.6129616086083
 30
0.0
 11
512.8655056704677
 21
805.6129616086083
 31
0.0
  0
ARC
  5
B9C
330
2
100
AcDbEntity
  8
0
100
AcDbCircle
 10
515.8654146704678
 20
818.4870766086085
 30
0.0
 40
3.0
100
AcDbArc
 50
92.00142699998892
 51
180.0
  0
LINE
  5
B9D
330
2
100
AcDbEntity
  8
0
100
AcDbLine
 10
530.3662686704678
 20
821.9954996086082
 30
0.0
 11
530.8659026704675
 21
821.5128336086083
 31
0.0
  0
LINE
  5
B9E
330
2
100
AcDbEntity
  8
0
100
AcDbLine
 10
535.3659026704675
 20
802.0128336086084
 30
0.0
 11
535.8659026704676
 21
801.5128336086084
 31
0.0
  0
LINE
  5
B9F
330
2
100
AcDbEntity
  8
0
100
AcDbLine
 10
535.3659026704675
 20
802.0128336086084
 30
0.0
 11
530.8659026704675
 21
802.0128336086084
 31
0.0
  0
ARC
  5
BA0
330
2
100
AcDbEntity
  8
0
100
AcDbCircle
 10
874.2422613614579
 20
357.7296301911371
 30
0.0
 40
3.0
100
AcDbArc
 50
85.63018800000442
 51
180.0
  0
ARC
  5
BA1
330
2
100
AcDbEntity
  8
0
100
AcDbCircle
 10
874.2422613614579
 20
332.7537391911371
 30
0.0
 40
3.0
100
AcDbArc
 50
180.0
 51
265.9761050000032
  0
ARC
  5
BA2
330
2
100
AcDbEntity
  8
0
100
AcDbCircle
 10
866.2422613614578
 20
-566.9651938088625
 30
0.0
 40
955.0
100
AcDbArc
 50
83.28005200000436
 51
96.71996299999994
  0
ARC
  5
BA3
330
2
100
AcDbEntity
  8
0
100
AcDbCircle
 10
756.6382573614577
 20
362.6339881911373
 30
0.0
 40
19.0
100
AcDbArc
 50
269.7598039999913
 51
7.939961000000534
  0
ARC
  5
BA4
330
2
100
AcDbEntity
  8
0
100
AcDbCircle
 10
866.2422613614578
 20
253.034806191137
 30
0.0
 40
117.5
100
AcDbArc
 50
112.7421040000045
 51
153.9528050000045
  0
ARC
  5
BA5
330
2
100
AcDbEntity
  8
0
100
AcDbCircle
 10
772.5622683614577
 20
290.784806191137
 30
0.0
 40
7.0
100
AcDbArc
 50
158.0525970000058
 51
322.5516969999942
  0
ARC
  5
BA6
330
2
100
AcDbEntity
  8
0
100
AcDbCircle
 10
1686.242261361457
 20
219.034806191137
 30
0.0
 40
945.0
100
AcDbArc
 50
172.8515930000028
 51
174.5428919999935
  0
ARC
  5
BA7
330
2
100
AcDbEntity
  8
0
100
AcDbCircle
 10
753.4888433614577
 20
308.1433261911372
 30
0.0
 40
8.0
100
AcDbArc
 50
174.5433959999878
 51
333.9530939999856
  0
ARC
  5
BA8
330
2
100
AcDbEntity
  8
0
100
AcDbCircle
 10
756.7220583614579
 20
362.5550081911371
 30
0.0
 40
19.04999899999999
100
AcDbArc
 50
96.72033700000895
 51
173.2805019999966
  0
ARC
  5
BA9
330
2
100
AcDbEntity
  8
0
100
AcDbCircle
 10
756.5252203614576
 20
335.6342321911372
 30
0.0
 40
8.0
100
AcDbArc
 50
89.75991799999324
 51
172.8520969999894
  0
CIRCLE
  5
BAA
330
2
100
AcDbEntity
  8
0
100
AcDbCircle
 10
756.6382573614577
 20
362.6339881911373
 30
0.0
 40
9.0
  0
ARC
  5
BAB
330
2
100
AcDbEntity
  8
0
100
AcDbCircle
 10
858.242261361458
 20
332.7537391911371
 30
0.0
 40
3.0
100
AcDbArc
 50
274.0244370000061
 51
0.0
  0
ARC
  5
BAC
330
2
100
AcDbEntity
  8
0
100
AcDbCircle
 10
797.8678713614575
 20
332.7213291911373
 30
0.0
 40
3.0
100
AcDbArc
 50
130.6316070000149
 51
225.0014039999883
  0
ARC
  5
BAD
330
2
100
AcDbEntity
  8
0
100
AcDbCircle
 10
866.2422613614578
 20
219.034806191137
 30
0.0
 40
111.0
100
AcDbArc
 50
94.02414700000671
 51
118.676597999993
  0
LINE
  5
BAE
330
2
100
AcDbEntity
  8
0
100
AcDbLine
 10
788.6756723614579
 20
323.529007191137
 30
0.0
 11
799.8978403614577
 21
312.3071451911371
 31
0.0
  0
ARC
  5
BAF
330
2
100
AcDbEntity
  8
0
100
AcDbCircle
 10
866.2422613614578
 20
219.034806191137
 30
0.0
 40
111.0
100
AcDbArc
 50
126.911200999991
 51
142.5513000000138
  0
ARC
  5
BB0
330
2
100
AcDbEntity
  8
0
100
AcDbCircle
 10
786.5540293614579
 20
321.4074251911372
 30
0.0
 40
3.0
100
AcDbArc
 50
45.00159799998807
 51
139.3708040000045
  0
ARC
  5
BB1
330
2
100
AcDbEntity
  8
0
100
AcDbCircle
 10
797.776441361458
 20
310.1855021911371
 30
0.0
 40
3.0
100
AcDbArc
 50
306.9117389999992
 51
45.00159799998807
  0
LINE
  5
BB2
330
2
100
AcDbEntity
  8
0
100
AcDbLine
 10
795.7466563614579
 20
330.6000521911371
 30
0.0
 11
809.4164553614577
 21
316.930619191137
 31
0.0
  0
ARC
  5
BB3
330
2
100
AcDbEntity
  8
0
100
AcDbCircle
 10
811.5376713614576
 20
319.0518351911371
 30
0.0
 40
3.0
100
AcDbArc
 50
225.0018010000035
 51
298.6769100000157
  0
LINE
  5
BB4
330
2
100
AcDbEntity
  8
0
100
AcDbLine
 10
843.242261361458
 20
259.034806191137
 30
0.0
 11
851.242261361458
 21
259.034806191137
 31
0.0
  0
ARC
  5
BB5
330
2
100
AcDbEntity
  8
0
100
AcDbCircle
 10
817.7264533614579
 20
368.7779091911372
 30
0.0
 40
8.0
100
AcDbArc
 50
292.7422789999922
 51
92.96845200001
  0
ARC
  5
BB6
330
2
100
AcDbEntity
  8
0
100
AcDbCircle
 10
783.3794683614577
 20
366.3637241911371
 30
0.0
 40
8.0
100
AcDbArc
 50
95.07393600000629
 51
187.9402009999871
  0
ARC
  5
BB7
330
2
100
AcDbEntity
  8
0
100
AcDbCircle
 10
866.2422613614578
 20
-566.9651938088625
 30
0.0
 40
945.0
100
AcDbArc
 50
92.96826199998918
 51
95.07362399998971
  0
LINE
  5
BB8
330
2
100
AcDbEntity
  8
0
100
AcDbLine
 10
871.2422613614579
 20
357.7296301911371
 30
0.0
 11
871.2420783614579
 21
332.7538001911373
 31
0.0
  0
ARC
  5
BB9
330
2
100
AcDbEntity
  8
0
100
AcDbCircle
 10
858.2418343614575
 20
357.7296301911371
 30
0.0
 40
3.0
100
AcDbArc
 50
0.0
 51
94.37040700000691
  0
LINE
  5
BBA
330
2
100
AcDbEntity
  8
0
100
AcDbLine
 10
861.242261361458
 20
357.7296301911371
 30
0.0
 11
861.2420783614579
 21
332.7537391911371
 31
0.0
  0
ARC
  5
BBB
330
2
100
AcDbEntity
  8
0
100
AcDbCircle
 10
975.7624643614581
 20
362.5550081911371
 30
0.0
 40
19.04999899999999
100
AcDbArc
 50
6.720053000009144
 51
83.28022000000428
  0
ARC
  5
BBC
330
2
100
AcDbEntity
  8
0
100
AcDbCircle
 10
975.9588753614579
 20
335.6378331911371
 30
0.0
 40
8.0
100
AcDbArc
 50
7.148811000000169
 51
90.24664300000051
  0
ARC
  5
BBD
330
2
100
AcDbEntity
  8
0
100
AcDbCircle
 10
978.995435361458
 20
308.1433261911372
 30
0.0
 40
8.0
100
AcDbArc
 50
206.0475009999994
 51
5.457307999990399
  0
CIRCLE
  5
BBE
330
2
100
AcDbEntity
  8
0
100
AcDbCircle
 10
975.8424203614577
 20
362.6375281911371
 30
0.0
 40
9.0
  0
ARC
  5
BBF
330
2
100
AcDbEntity
  8
0
100
AcDbCircle
 10
934.6148203614578
 20
332.7228551911373
 30
0.0
 40
3.0
100
AcDbArc
 50
315.0012819999856
 51
49.37052200001524
  0
ARC
  5
BC0
330
2
100
AcDbEntity
  8
0
100
AcDbCircle
 10
866.2422613614578
 20
253.034806191137
 30
0.0
 40
117.5
100
AcDbArc
 50
26.04715899999495
 51
67.25808700000676
  0
LINE
  5
BC1
330
2
100
AcDbEntity
  8
0
100
AcDbLine
 10
936.7362193614575
 20
330.6014561911372
 30
0.0
 11
923.0666633614577
 21
316.931351191137
 31
0.0
  0
ARC
  5
BC2
330
2
100
AcDbEntity
  8
0
100
AcDbCircle
 10
920.9450203614578
 20
319.0527501911371
 30
0.0
 40
3.0
100
AcDbArc
 50
241.3249050000056
 51
315.0014950000206
  0
ARC
  5
BC3
330
2
100
AcDbEntity
  8
0
100
AcDbCircle
 10
866.2422613614578
 20
219.034806191137
 30
0.0
 40
111.0
100
AcDbArc
 50
61.32432199999197
 51
85.97583800000839
  0
ARC
  5
BC4
330
2
100
AcDbEntity
  8
0
100
AcDbCircle
 10
866.2422613614578
 20
219.034806191137
 30
0.0
 40
111.0
100
AcDbArc
 50
37.44863900000995
 51
53.08964899999295
  0
ARC
  5
BC5
330
2
100
AcDbEntity
  8
0
100
AcDbCircle
 10
945.928662361458
 20
321.4092561911372
 30
0.0
 40
3.0
100
AcDbArc
 50
40.63143900001277
 51
135.0010989999908
  0
LINE
  5
BC6
330
2
100
AcDbEntity
  8
0
100
AcDbLine
 10
932.5852793614579
 20
312.3078161911373
 30
0.0
 11
943.8074473614578
 21
323.5304111911371
 31
0.0
  0
ARC
  5
BC7
330
2
100
AcDbEntity
  8
0
100
AcDbCircle
 10
934.7066783614577
 20
310.1865391911371
 30
0.0
 40
3.0
100
AcDbArc
 50
135.0007020000125
 51
233.0897060000018
  0
ARC
  5
BC8
330
2
100
AcDbEntity
  8
0
100
AcDbCircle
 10
959.9220713614581
 20
290.784806191137
 30
0.0
 40
7.0
100
AcDbArc
 50
217.4490049999912
 51
21.94795000000671
  0
ARC
  5
BC9
330
2
100
AcDbEntity
  8
0
100
AcDbCircle
 10
866.2422613614578
 20
-566.9651938088625
 30
0.0
 40
945.0
100
AcDbArc
 50
84.92662800001065
 51
87.03173100000894
  0
ARC
  5
BCA
330
2
100
AcDbEntity
  8
0
100
AcDbCircle
 10
914.7578253614577
 20
368.7779091911372
 30
0.0
 40
8.0
100
AcDbArc
 50
87.00801799999565
 51
247.2584079999982
  0
ARC
  5
BCB
330
2
100
AcDbEntity
  8
0
100
AcDbCircle
 10
949.101026361458
 20
366.3640291911371
 30
0.0
 40
8.0
100
AcDbArc
 50
352.0673219999959
 51
84.92691800000951
  0
ARC
  5
BCC
330
2
100
AcDbEntity
  8
0
100
AcDbCircle
 10
975.8424203614577
 20
362.6375281911371
 30
0.0
 40
19.0
100
AcDbArc
 50
172.0666049999966
 51
270.2466130000061
  0
ARC
  5
BCD
330
2
100
AcDbEntity
  8
0
100
AcDbCircle
 10
46.24217036145762
 20
219.034806191137
 30
0.0
 40
945.0
100
AcDbArc
 50
5.457059000007799
 51
7.14857899999875
  0
TEXT
  5
BCE
330
2
100
AcDbEntity
  8
TITLE
100
AcDbText
 10
725.5171985049964
 20
683.1078502324682
 30
0.0
 40
12.0
  1
G3FE-40-100~200-075
100
AcDbText
  0
TEXT
  5
BCF
330
2
100
AcDbEntity
  8
TITLE
100
AcDbText
 10
725.5171985049964
 20
661.6078502324683
 30
0.0
 40
12.0
  1
G3FE-40-100~200-075W
100
AcDbText
  0
ENDSEC
  0
SECTION
  2
OBJECTS
  0
DICTIONARY
  5
7
330
0
100
AcDbDictionary
  3
ACAD_GROUP
350
75
  3
ACAD_LAYOUT
350
61
  3
ACAD_MLINESTYLE
350
76
  3
ACAD_PLOTSETTINGS
350
77
  3
ACAD_PLOTSTYLENAME
350
6
  3
ACADDIM
350
480
  3
ACDBHEADERROUNDTRIPXREC
350
10D9
  3
ACDBVARIABLEDICTIONARY
350
102
  3
DWGPROPS
350
3D2
  0
DICTIONARY
  5
10FA
330
2
100
AcDbDictionary
280
     1
  3
ACAD_LAYOUTSELFREF
360
10FB
  0
DICTIONARY
  5
10FC
330
10D3
100
AcDbDictionary
280
     1
  3
ACAD_LAYOUTSELFREF
360
10FD
  0
DICTIONARY
  5
75
102
{ACAD_REACTORS
330
7
102
}
330
7
100
AcDbDictionary
  0
DICTIONARY
  5
61
102
{ACAD_REACTORS
330
7
102
}
330
7
100
AcDbDictionary
  0
DICTIONARY
  5
76
102
{ACAD_REACTORS
330
7
102
}
330
7
100
AcDbDictionary
  3
STANDARD
350
78
  0
DICTIONARY
  5
77
102
{ACAD_REACTORS
330
7
102
}
330
7
100
AcDbDictionary
  0
ACDBDICTIONARYWDFLT
  5
6
102
{ACAD_REACTORS
330
7
102
}
330
7
100
AcDbDictionary
281
     1
  3
Normal
350
5
100
AcDbDictionaryWithDefault
340
5
  0
XRECORD
  5
480
102
{ACAD_REACTORS
330
7
102
}
330
7
100
AcDbXrecord
 90
   990106
  3

 60
     0
 61
     0
 62
     1
 63
     3
 64
     1
 65
     0
 66
     0
 67
     3
 68
     1
 69
     0
 70
     0
 71
     0
 72
     0
 40
0.0
170
     2
340
0
  0
DICTIONARY
  5
10D9
102
{ACAD_REACTORS
330
7
102
}
330
7
100
AcDbDictionary
  3
CEPSNTYPE
350
10E3
  3
DIMSTYLEDATA
350
10E7
  3
FINGERPRINTGUID
350
10E4
  3
HYPERLINKBASE
350
10DC
  3
INSUNITS
350
10E2
  3
LAYOUTDICT
350
10DE
  3
LWETCUNION
350
10E1
  3
PLOTSETDICT
350
10DF
  3
PLOTSTYLNAMDICT
350
10E0
  3
PSVPSCALE
350
10E6
  3
PUCSBASE
350
10EA
  3
PUCSORGBACK
350
10F0
  3
PUCSORGBOTTOM
350
10EC
  3
PUCSORGFRONT
350
10EF
  3
PUCSORGLEFT
350
10ED
  3
PUCSORGRIGHT
350
10EE
  3
PUCSORGTOP
350
10EB
  3
PUCSORTHOREF
350
10E8
  3
PUCSORTHOVIEW
350
10E9
  3
STYLESHEET
350
10DD
  3
TSTACKALIGN
350
10DA
  3
TSTACKSIZE
350
10DB
  3
UCSBASE
350
10F3
  3
UCSORGBACK
350
10F9
  3
UCSORGBOTTOM
350
10F5
  3
UCSORGFRONT
350
10F8
  3
UCSORGLEFT
350
10F6
  3
UCSORGRIGHT
350
10F7
  3
UCSORGTOP
350
10F4
  3
UCSORTHOREF
350
10F1
  3
UCSORTHOVIEW
350
10F2
  3
VERSIONGUID
350
10E5
  0
DICTIONARY
  5
102
102
{ACAD_REACTORS
330
7
102
}
330
7
100
AcDbDictionary
  3
DIMASSOC
350
103
  0
XRECORD
  5
3D2
102
{ACAD_REACTORS
330
7
102
}
330
7
100
AcDbXrecord
  1
DWGPROPS COOKIE
  2

  3

  4

  6

  7

  8

  9

300
=
301
=
302
=
303
=
304
=
305
=
306
=
307
=
308
=
309
=
 40
0.5353330671296296
 41
2452052.431989363
 42
2453406.550756377
  1

 90
        0
  0
XRECORD
  5
10FB
102
{ACAD_REACTORS
330
10FA
102
}
330
10FA
100
AcDbXrecord
340
2
  0
XRECORD
  5
10FD
102
{ACAD_REACTORS
330
10FC
102
}
330
10FC
100
AcDbXrecord
340
10D3
  0
MLINESTYLE
  5
78
102
{ACAD_REACTORS
330
76
102
}
330
76
100
AcDbMlineStyle
  2
STANDARD
 70
     0
  3

 62
     0
 51
90.0
 52
90.0
 71
     2
 49
0.5
 62
   256
  6
BYLAYER
 49
-0.5
 62
   256
  6
BYLAYER
  0
ACDBPLACEHOLDER
  5
5
102
{ACAD_REACTORS
330
6
102
}
330
6
100
AcDbPlaceHolder
280
     0
  0
XRECORD
  5
10E3
102
{ACAD_REACTORS
330
10D9
102
}
330
10D9
100
AcDbXrecord
 90
        0
  0
XRECORD
  5
10E7
102
{ACAD_REACTORS
330
10D9
102
}
330
10D9
100
AcDbXrecord
1000
DSTYLE
1002
{
1070
   179
 70
     2
1070
   277
 70
     6
1002
}
  0
XRECORD
  5
10E4
102
{ACAD_REACTORS
330
10D9
102
}
330
10D9
100
AcDbXrecord
  1
{6385560B-F4B1-4644-A7C2-A3E32AC3D232}
  0
XRECORD
  5
10DC
102
{ACAD_REACTORS
330
10D9
102
}
330
10D9
100
AcDbXrecord
  1

  0
XRECORD
  5
10E2
102
{ACAD_REACTORS
330
10D9
102
}
330
10D9
100
AcDbXrecord
 90
        0
  0
XRECORD
  5
10DE
102
{ACAD_REACTORS
330
10D9
102
}
330
10D9
100
AcDbXrecord
340
61
  0
XRECORD
  5
10E1
102
{ACAD_REACTORS
330
10D9
102
}
330
10D9
100
AcDbXrecord
 90
    10781
  0
XRECORD
  5
10DF
102
{ACAD_REACTORS
330
10D9
102
}
330
10D9
100
AcDbXrecord
340
77
  0
XRECORD
  5
10E0
102
{ACAD_REACTORS
330
10D9
102
}
330
10D9
100
AcDbXrecord
340
6
  0
XRECORD
  5
10E6
102
{ACAD_REACTORS
330
10D9
102
}
330
10D9
100
AcDbXrecord
 40
0.0
  0
XRECORD
  5
10EA
102
{ACAD_REACTORS
330
10D9
102
}
330
10D9
100
AcDbXrecord
340
0
  0
XRECORD
  5
10F0
102
{ACAD_REACTORS
330
10D9
102
}
330
10D9
100
AcDbXrecord
 10
0.0
 20
0.0
 30
0.0
  0
XRECORD
  5
10EC
102
{ACAD_REACTORS
330
10D9
102
}
330
10D9
100
AcDbXrecord
 10
0.0
 20
0.0
 30
0.0
  0
XRECORD
  5
10EF
102
{ACAD_REACTORS
330
10D9
102
}
330
10D9
100
AcDbXrecord
 10
0.0
 20
0.0
 30
0.0
  0
XRECORD
  5
10ED
102
{ACAD_REACTORS
330
10D9
102
}
330
10D9
100
AcDbXrecord
 10
0.0
 20
0.0
 30
0.0
  0
XRECORD
  5
10EE
102
{ACAD_REACTORS
330
10D9
102
}
330
10D9
100
AcDbXrecord
 10
0.0
 20
0.0
 30
0.0
  0
XRECORD
  5
10EB
102
{ACAD_REACTORS
330
10D9
102
}
330
10D9
100
AcDbXrecord
 10
0.0
 20
0.0
 30
0.0
  0
XRECORD
  5
10E8
102
{ACAD_REACTORS
330
10D9
102
}
330
10D9
100
AcDbXrecord
340
0
  0
XRECORD
  5
10E9
102
{ACAD_REACTORS
330
10D9
102
}
330
10D9
100
AcDbXrecord
 70
     0
  0
XRECORD
  5
10DD
102
{ACAD_REACTORS
330
10D9
102
}
330
10D9
100
AcDbXrecord
  1
Sekkei.ctb
  0
XRECORD
  5
10DA
102
{ACAD_REACTORS
330
10D9
102
}
330
10D9
100
AcDbXrecord
 90
        1
  0
XRECORD
  5
10DB
102
{ACAD_REACTORS
330
10D9
102
}
330
10D9
100
AcDbXrecord
 90
       70
  0
XRECORD
  5
10F3
102
{ACAD_REACTORS
330
10D9
102
}
330
10D9
100
AcDbXrecord
340
0
  0
XRECORD
  5
10F9
102
{ACAD_REACTORS
330
10D9
102
}
330
10D9
100
AcDbXrecord
 10
0.0
 20
0.0
 30
0.0
  0
XRECORD
  5
10F5
102
{ACAD_REACTORS
330
10D9
102
}
330
10D9
100
AcDbXrecord
 10
0.0
 20
0.0
 30
0.0
  0
XRECORD
  5
10F8
102
{ACAD_REACTORS
330
10D9
102
}
330
10D9
100
AcDbXrecord
 10
0.0
 20
0.0
 30
0.0
  0
XRECORD
  5
10F6
102
{ACAD_REACTORS
330
10D9
102
}
330
10D9
100
AcDbXrecord
 10
0.0
 20
0.0
 30
0.0
  0
XRECORD
  5
10F7
102
{ACAD_REACTORS
330
10D9
102
}
330
10D9
100
AcDbXrecord
 10
0.0
 20
0.0
 30
0.0
  0
XRECORD
  5
10F4
102
{ACAD_REACTORS
330
10D9
102
}
330
10D9
100
AcDbXrecord
 10
0.0
 20
0.0
 30
0.0
  0
XRECORD
  5
10F1
102
{ACAD_REACTORS
330
10D9
102
}
330
10D9
100
AcDbXrecord
340
0
  0
XRECORD
  5
10F2
102
{ACAD_REACTORS
330
10D9
102
}
330
10D9
100
AcDbXrecord
 70
     0
  0
XRECORD
  5
10E5
102
{ACAD_REACTORS
330
10D9
102
}
330
10D9
100
AcDbXrecord
  1
{DD550B5F-6A93-427B-97E7-797CB8BEEE95}
  0
DICTIONARYVAR
  5
103
102
{ACAD_REACTORS
330
102
102
}
330
102
100
DictionaryVariables
280
     0
  1
1
  0
ENDSEC
  0
EOF
