  0
SECTION
  2
HEADER
  9
$CLAYER
  8
1
  9
$LTSCALE
 40
3.0
  0
ENDSEC
  0
SECTION
  2
TABLES
  0
TABLE
  2
LTYPE
 70
     4
  0
LTYPE
  2
CONTINUOUS
  3
solid line
 70
    64
 72
    65
 73
     0
 40
0.0
  0
LTYPE
  2
DASHED
  3
__ __ __ __ __ __ __ __ __ __ __ __ __ __ __
 70
    64
 72
    65
 73
     2
 40
0.75
 49
0.5
 49
-0.25
  0
LTYPE
  2
CENTER
  3
____ _ ____ _ ____ _ ____ _ ____ _ ____ _ ____
 70
    64
 72
    65
 73
     4
 40
2.0
 49
1.25
 49
-0.25
 49
0.25
 49
-0.25
  0
LTYPE
  2
PHANTOM
  3
_____ _ _ _____ _ _ _____ _ _ _____ _ _ ____
 70
    64
 72
    65
 73
     6
 40
2.5
 49
1.25
 49
-0.25
 49
0.25
 49
-0.25
 49
0.25
 49
-0.25
  0
ENDTAB
  0
TABLE
  2
LAYER
 70
     1
  0
LAYER
  2
0
 70
    64
 62
     7
  6
CONTINUOUS
  0
ENDTAB
  0
TABLE
  2
STYLE
 70
     1
  0
STYLE
  2
STANDARD
 70
     0
 40
0.000000
 41
1.000000
 50
0.000000
 71
     0
 42
3.000000
  3
txt
  4
BIGFONT
  0
ENDTAB
  0
ENDSEC
  0
SECTION
  2
BLOCKS
  0
ENDSEC
  0
SECTION
  2
ENTITIES
  0
LINE
  8
0
  6
CONTINUOUS
 10
714.354126
 20
247.123459
 11
711.124939
 21
247.151642
  0
LINE
  8
0
  6
CONTINUOUS
 10
669.836304
 20
253.110260
 11
708.659424
 21
253.110260
  0
LINE
  8
0
  6
CONTINUOUS
 10
714.354126
 20
97.123459
 11
711.124939
 21
97.095276
  0
LINE
  8
0
  6
CONTINUOUS
 10
669.836304
 20
94.136658
 11
708.133911
 21
94.136658
  0
LINE
  8
0
  6
CONTINUOUS
 10
668.323242
 20
251.610306
 11
668.323242
 21
95.636604
  0
LINE
  8
0
  6
CONTINUOUS
 10
615.323181
 20
122.123459
 11
663.323181
 21
122.123459
  0
LINE
  8
0
  6
CONTINUOUS
 10
615.323181
 20
124.123459
 11
663.323181
 21
124.123459
  0
LINE
  8
0
  6
DASHED
 10
666.323242
 20
111.623482
 11
668.323242
 21
111.623482
  0
LINE
  8
0
  6
DASHED
 10
666.323242
 20
114.623482
 11
668.323242
 21
114.623482
  0
LINE
  8
0
  6
DASHED
 10
666.323242
 20
117.623482
 11
668.323242
 21
117.623482
  0
LINE
  8
0
  6
DASHED
 10
661.323242
 20
101.363159
 11
658.323242
 21
102.496521
  0
LINE
  8
0
  6
DASHED
 10
664.323242
 20
100.908997
 11
661.323242
 21
99.650940
  0
LINE
  8
0
  6
DASHED
 10
664.323242
 20
109.623482
 11
664.323242
 21
100.908997
  0
LINE
  8
0
  6
DASHED
 10
661.323242
 20
109.623482
 11
661.323242
 21
99.650940
  0
LINE
  8
0
  6
DASHED
 10
658.323242
 20
109.623482
 11
658.323242
 21
102.496521
  0
LINE
  8
0
  6
CONTINUOUS
 10
548.323181
 20
222.123459
 11
663.323181
 21
222.123459
  0
LINE
  8
0
  6
CONTINUOUS
 10
548.323181
 20
220.123459
 11
663.323181
 21
220.123459
  0
LINE
  8
0
  6
CONTINUOUS
 10
548.323181
 20
228.923447
 11
663.323181
 21
228.923447
  0
LINE
  8
0
  6
CONTINUOUS
 10
548.323181
 20
226.923447
 11
663.323181
 21
226.923447
  0
LINE
  8
0
  6
CONTINUOUS
 10
548.323181
 20
235.423447
 11
663.323181
 21
235.423447
  0
LINE
  8
0
  6
CONTINUOUS
 10
548.323181
 20
233.423447
 11
663.323181
 21
233.423447
  0
LINE
  8
0
  6
CONTINUOUS
 10
548.323181
 20
241.923447
 11
663.323181
 21
241.923447
  0
LINE
  8
0
  6
CONTINUOUS
 10
548.323181
 20
239.923447
 11
663.323181
 21
239.923447
  0
LINE
  8
0
  6
CONTINUOUS
 10
663.323181
 20
243.178299
 11
548.323181
 21
243.178299
  0
LINE
  8
0
  6
CONTINUOUS
 10
662.778809
 20
248.123459
 11
548.867615
 21
248.123459
  0
LINE
  8
0
  6
CONTINUOUS
 10
548.323181
 20
177.323471
 11
663.323181
 21
177.323471
  0
LINE
  8
0
  6
CONTINUOUS
 10
548.323181
 20
179.323471
 11
663.323181
 21
179.323471
  0
LINE
  8
0
  6
CONTINUOUS
 10
548.323181
 20
186.923447
 11
663.323181
 21
186.923447
  0
LINE
  8
0
  6
CONTINUOUS
 10
548.323181
 20
184.923447
 11
663.323181
 21
184.923447
  0
LINE
  8
0
  6
CONTINUOUS
 10
548.323181
 20
194.523453
 11
663.323181
 21
194.523453
  0
LINE
  8
0
  6
CONTINUOUS
 10
548.323181
 20
192.523453
 11
663.323181
 21
192.523453
  0
LINE
  8
0
  6
CONTINUOUS
 10
548.323181
 20
200.123459
 11
663.323181
 21
200.123459
  0
LINE
  8
0
  6
CONTINUOUS
 10
548.323181
 20
144.123459
 11
663.323181
 21
144.123459
  0
LINE
  8
0
  6
CONTINUOUS
 10
548.323181
 20
151.723465
 11
663.323181
 21
151.723465
  0
LINE
  8
0
  6
CONTINUOUS
 10
548.323181
 20
149.723465
 11
663.323181
 21
149.723465
  0
LINE
  8
0
  6
CONTINUOUS
 10
548.323181
 20
159.323471
 11
663.323181
 21
159.323471
  0
LINE
  8
0
  6
CONTINUOUS
 10
548.323181
 20
157.323471
 11
663.323181
 21
157.323471
  0
LINE
  8
0
  6
CONTINUOUS
 10
548.323181
 20
164.923447
 11
663.323181
 21
164.923447
  0
LINE
  8
0
  6
CONTINUOUS
 10
548.323181
 20
166.923447
 11
663.323181
 21
166.923447
  0
LINE
  8
0
  6
CONTINUOUS
 10
548.323181
 20
202.123459
 11
663.323181
 21
202.123459
  0
LINE
  8
0
  6
CONTINUOUS
 10
548.323181
 20
209.723465
 11
663.323181
 21
209.723465
  0
LINE
  8
0
  6
CONTINUOUS
 10
548.323181
 20
207.723465
 11
663.323181
 21
207.723465
  0
LINE
  8
0
  6
CONTINUOUS
 10
548.323181
 20
124.123459
 11
599.323181
 21
124.123459
  0
LINE
  8
0
  6
CONTINUOUS
 10
548.323181
 20
136.523453
 11
663.323181
 21
136.523453
  0
LINE
  8
0
  6
CONTINUOUS
 10
548.323181
 20
134.523453
 11
663.323181
 21
134.523453
  0
LINE
  8
0
  6
CONTINUOUS
 10
548.323181
 20
142.123459
 11
663.323181
 21
142.123459
  0
LINE
  8
0
  6
CONTINUOUS
 10
548.323181
 20
110.823471
 11
663.323181
 21
110.823471
  0
LINE
  8
0
  6
CONTINUOUS
 10
548.323181
 20
117.323471
 11
663.323181
 21
117.323471
  0
LINE
  8
0
  6
CONTINUOUS
 10
548.323181
 20
115.323471
 11
663.323181
 21
115.323471
  0
LINE
  8
0
  6
CONTINUOUS
 10
548.323181
 20
122.123459
 11
599.323181
 21
122.123459
  0
LINE
  8
0
  6
CONTINUOUS
 10
663.323181
 20
101.068619
 11
548.323181
 21
101.068619
  0
LINE
  8
0
  6
CONTINUOUS
 10
548.323181
 20
104.323471
 11
663.323181
 21
104.323471
  0
LINE
  8
0
  6
CONTINUOUS
 10
548.323181
 20
102.323471
 11
663.323181
 21
102.323471
  0
LINE
  8
0
  6
CONTINUOUS
 10
548.323181
 20
108.823471
 11
663.323181
 21
108.823471
  0
LINE
  8
0
  6
CONTINUOUS
 10
662.778809
 20
96.123459
 11
548.867615
 21
96.123459
  0
LINE
  8
0
  6
CONTINUOUS
 10
527.323242
 20
100.123459
 11
546.484070
 21
100.123459
  0
LINE
  8
0
  6
CONTINUOUS
 10
547.882812
 20
96.949814
 11
547.468933
 21
99.297104
  0
LINE
  8
0
  6
CONTINUOUS
 10
547.323181
 20
103.323471
 11
547.323181
 21
99.667435
  0
LINE
  8
0
  6
CONTINUOUS
 10
527.323242
 20
244.123459
 11
546.484070
 21
244.123459
  0
LINE
  8
0
  6
CONTINUOUS
 10
547.323181
 20
240.923447
 11
547.323181
 21
244.579483
  0
LINE
  8
0
  6
CONTINUOUS
 10
547.882812
 20
247.297104
 11
547.468933
 21
244.949814
  0
LINE
  8
0
  6
CONTINUOUS
 10
667.323181
 20
244.123459
 11
667.323181
 21
100.123459
  0
LINE
  8
0
  6
CONTINUOUS
 10
665.162292
 20
100.123459
 11
667.323181
 21
100.123459
  0
LINE
  8
0
  6
CONTINUOUS
 10
663.763611
 20
96.949814
 11
664.177490
 21
99.297104
  0
LINE
  8
0
  6
CONTINUOUS
 10
664.323181
 20
103.323471
 11
664.323181
 21
99.667435
  0
LINE
  8
0
  6
CONTINUOUS
 10
664.323181
 20
240.923447
 11
664.323181
 21
244.579483
  0
LINE
  8
0
  6
CONTINUOUS
 10
665.162292
 20
244.123459
 11
667.323181
 21
244.123459
  0
LINE
  8
0
  6
CONTINUOUS
 10
663.763611
 20
247.297104
 11
664.177490
 21
244.949814
  0
LINE
  8
0
  6
CONTINUOUS
 10
668.323181
 20
101.623466
 11
667.323181
 21
101.623466
  0
LINE
  8
0
  6
CONTINUOUS
 10
668.323181
 20
242.623459
 11
667.323181
 21
242.623459
  0
ARC
  8
0
  6
CONTINUOUS
 10
708.659424
 20
251.110260
 40
2.000000
 50
-11.331451
 51
90.000000
  0
ARC
  8
0
  6
CONTINUOUS
 10
711.133667
 20
248.151596
 40
1.000000
 50
169.015305
 51
269.500000
  0
ARC
  8
0
  6
CONTINUOUS
 10
669.823242
 20
251.610306
 40
1.500000
 50
89.500000
 51
180.000000
  0
ARC
  8
0
  6
CONTINUOUS
 10
714.354126
 20
232.123459
 40
15.000000
 50
8.519625
 51
90.000000
  0
ARC
  8
0
  6
CONTINUOUS
 10
708.133911
 20
96.136658
 40
2.000000
 50
270.000000
 51
359.210297
  0
ARC
  8
0
  6
CONTINUOUS
 10
711.133667
 20
96.095314
 40
1.000000
 50
90.500000
 51
179.210297
  0
ARC
  8
0
  6
CONTINUOUS
 10
669.823242
 20
95.636604
 40
1.500000
 50
180.000000
 51
270.500000
  0
ARC
  8
0
  6
CONTINUOUS
 10
714.354126
 20
112.123459
 40
15.000000
 50
270.000000
 51
351.480377
  0
ARC
  8
0
  6
CONTINUOUS
 10
1102.823242
 20
172.123459
 40
400.000000
 50
168.668533
 51
190.968399
  0
ARC
  8
0
  6
CONTINUOUS
 10
313.823212
 20
172.123459
 40
420.000000
 50
-8.519623
 51
8.519625
  0
ARC
  8
0
  6
CONTINUOUS
 10
615.323181
 20
123.123459
 40
1.000000
 50
90.000000
 51
270.000000
  0
ARC
  8
0
  6
CONTINUOUS
 10
599.323181
 20
123.123459
 40
1.000000
 50
-90.000000
 51
90.000000
  0
ARC
  8
0
  6
DASHED
 10
666.323242
 20
109.623482
 40
2.000000
 50
90.000000
 51
180.000000
  0
ARC
  8
0
  6
DASHED
 10
666.323242
 20
109.623482
 40
8.000000
 50
90.000000
 51
180.000000
  0
ARC
  8
0
  6
DASHED
 10
666.323242
 20
109.623482
 40
5.000000
 50
90.000000
 51
180.000000
  0
ARC
  8
0
  6
CONTINUOUS
 10
663.323181
 20
135.523453
 40
1.000000
 50
-90.000000
 51
90.000000
  0
ARC
  8
0
  6
CONTINUOUS
 10
663.323181
 20
208.723465
 40
1.000000
 50
-90.000000
 51
90.000000
  0
ARC
  8
0
  6
CONTINUOUS
 10
548.323181
 20
116.323471
 40
1.000000
 50
90.000000
 51
270.000000
  0
ARC
  8
0
  6
CONTINUOUS
 10
548.323181
 20
102.068619
 40
1.000000
 50
180.000000
 51
270.000000
  0
ARC
  8
0
  6
CONTINUOUS
 10
548.323181
 20
103.323471
 40
1.000000
 50
90.000000
 51
270.000000
  0
ARC
  8
0
  6
CONTINUOUS
 10
548.867615
 20
97.123459
 40
1.000000
 50
190.000000
 51
270.000000
  0
ARC
  8
0
  6
CONTINUOUS
 10
546.484070
 20
99.123459
 40
1.000000
 50
10.000000
 51
90.000000
  0
ARC
  8
0
  6
CONTINUOUS
 10
548.323181
 20
109.823471
 40
1.000000
 50
90.000000
 51
270.000000
  0
ARC
  8
0
  6
CONTINUOUS
 10
548.323181
 20
123.123459
 40
1.000000
 50
90.000000
 51
270.000000
  0
ARC
  8
0
  6
CONTINUOUS
 10
548.323181
 20
135.523453
 40
1.000000
 50
90.000000
 51
270.000000
  0
ARC
  8
0
  6
CONTINUOUS
 10
548.323181
 20
185.923447
 40
1.000000
 50
90.000000
 51
270.000000
  0
ARC
  8
0
  6
CONTINUOUS
 10
548.323181
 20
150.723465
 40
1.000000
 50
90.000000
 51
270.000000
  0
ARC
  8
0
  6
CONTINUOUS
 10
548.323181
 20
143.123459
 40
1.000000
 50
90.000000
 51
270.000000
  0
ARC
  8
0
  6
CONTINUOUS
 10
548.323181
 20
158.323471
 40
1.000000
 50
90.000000
 51
270.000000
  0
ARC
  8
0
  6
CONTINUOUS
 10
548.323181
 20
165.923447
 40
1.000000
 50
90.000000
 51
270.000000
  0
ARC
  8
0
  6
CONTINUOUS
 10
548.323181
 20
178.323471
 40
1.000000
 50
90.000000
 51
270.000000
  0
ARC
  8
0
  6
CONTINUOUS
 10
548.323181
 20
208.723465
 40
1.000000
 50
90.000000
 51
270.000000
  0
ARC
  8
0
  6
CONTINUOUS
 10
548.323181
 20
193.523453
 40
1.000000
 50
90.000000
 51
270.000000
  0
ARC
  8
0
  6
CONTINUOUS
 10
548.323181
 20
201.123459
 40
1.000000
 50
90.000000
 51
270.000000
  0
ARC
  8
0
  6
CONTINUOUS
 10
548.323181
 20
221.123459
 40
1.000000
 50
90.000000
 51
270.000000
  0
ARC
  8
0
  6
CONTINUOUS
 10
548.323181
 20
227.923447
 40
1.000000
 50
90.000000
 51
270.000000
  0
ARC
  8
0
  6
CONTINUOUS
 10
546.484070
 20
245.123459
 40
1.000000
 50
270.000000
 51
350.000000
  0
ARC
  8
0
  6
CONTINUOUS
 10
548.323181
 20
240.923447
 40
1.000000
 50
90.000000
 51
270.000000
  0
ARC
  8
0
  6
CONTINUOUS
 10
548.323181
 20
242.178299
 40
1.000000
 50
90.000000
 51
180.000000
  0
ARC
  8
0
  6
CONTINUOUS
 10
548.323181
 20
234.423447
 40
1.000000
 50
90.000000
 51
270.000000
  0
ARC
  8
0
  6
CONTINUOUS
 10
548.867615
 20
247.123459
 40
1.000000
 50
90.000000
 51
170.000000
  0
ARC
  8
0
  6
CONTINUOUS
 10
663.323181
 20
116.323471
 40
1.000000
 50
-90.000000
 51
90.000000
  0
ARC
  8
0
  6
CONTINUOUS
 10
663.323181
 20
103.323471
 40
1.000000
 50
-90.000000
 51
90.000000
  0
ARC
  8
0
  6
CONTINUOUS
 10
663.323181
 20
102.068619
 40
1.000000
 50
-90.000000
 51
0.000000
  0
ARC
  8
0
  6
CONTINUOUS
 10
665.162292
 20
99.123459
 40
1.000000
 50
90.000000
 51
170.000000
  0
ARC
  8
0
  6
CONTINUOUS
 10
662.778809
 20
97.123459
 40
1.000000
 50
270.000000
 51
350.000000
  0
ARC
  8
0
  6
CONTINUOUS
 10
663.323181
 20
109.823471
 40
1.000000
 50
-90.000000
 51
90.000000
  0
ARC
  8
0
  6
CONTINUOUS
 10
663.323181
 20
123.123459
 40
1.000000
 50
-90.000000
 51
90.000000
  0
ARC
  8
0
  6
CONTINUOUS
 10
663.323181
 20
185.923447
 40
1.000000
 50
-90.000000
 51
90.000000
  0
ARC
  8
0
  6
CONTINUOUS
 10
663.323181
 20
150.723465
 40
1.000000
 50
-90.000000
 51
90.000000
  0
ARC
  8
0
  6
CONTINUOUS
 10
663.323181
 20
143.123459
 40
1.000000
 50
-90.000000
 51
90.000000
  0
ARC
  8
0
  6
CONTINUOUS
 10
663.323181
 20
158.323471
 40
1.000000
 50
-90.000000
 51
90.000000
  0
ARC
  8
0
  6
CONTINUOUS
 10
663.323181
 20
165.923447
 40
1.000000
 50
-90.000000
 51
90.000000
  0
ARC
  8
0
  6
CONTINUOUS
 10
663.323181
 20
178.323471
 40
1.000000
 50
-90.000000
 51
90.000000
  0
ARC
  8
0
  6
CONTINUOUS
 10
663.323181
 20
193.523453
 40
1.000000
 50
-90.000000
 51
90.000000
  0
ARC
  8
0
  6
CONTINUOUS
 10
663.323181
 20
201.123459
 40
1.000000
 50
-90.000000
 51
90.000000
  0
ARC
  8
0
  6
CONTINUOUS
 10
663.323181
 20
221.123459
 40
1.000000
 50
-90.000000
 51
90.000000
  0
ARC
  8
0
  6
CONTINUOUS
 10
663.323181
 20
227.923447
 40
1.000000
 50
-90.000000
 51
90.000000
  0
ARC
  8
0
  6
CONTINUOUS
 10
665.162292
 20
245.123459
 40
1.000000
 50
190.000000
 51
270.000000
  0
ARC
  8
0
  6
CONTINUOUS
 10
663.323181
 20
242.178299
 40
1.000000
 50
0.000000
 51
90.000000
  0
ARC
  8
0
  6
CONTINUOUS
 10
663.323181
 20
240.923447
 40
1.000000
 50
-90.000000
 51
90.000000
  0
ARC
  8
0
  6
CONTINUOUS
 10
663.323181
 20
234.423447
 40
1.000000
 50
-90.000000
 51
90.000000
  0
ARC
  8
0
  6
CONTINUOUS
 10
662.778809
 20
247.123459
 40
1.000000
 50
10.000000
 51
90.000000
  0
LINE
  8
0
  6
CONTINUOUS
 10
64.060143
 20
202.123459
 11
65.560143
 21
202.123459
  0
LINE
  8
0
  6
CONTINUOUS
 10
64.060143
 20
202.123459
 11
65.560143
 21
202.123459
  0
LINE
  8
0
  6
DASHED
 10
667.823120
 20
213.123459
 11
588.823120
 21
213.123459
  0
LINE
  8
0
  6
CONTINUOUS
 10
64.060143
 20
142.123474
 11
65.560143
 21
142.123474
  0
LINE
  8
0
  6
CONTINUOUS
 10
64.060143
 20
142.123474
 11
65.560143
 21
142.123474
  0
LINE
  8
0
  6
DASHED
 10
588.823120
 20
131.123474
 11
667.823120
 21
131.123474
  0
LINE
  8
0
  6
CONTINUOUS
 10
65.560143
 20
202.123459
 11
65.560143
 21
201.980453
  0
LINE
  8
0
  6
CONTINUOUS
 10
58.622276
 20
211.123459
 11
58.622276
 21
133.020752
  0
LINE
  8
0
  6
CONTINUOUS
 10
64.060143
 20
131.823486
 11
64.060143
 21
149.703781
  0
LINE
  8
0
  6
DASHED
 10
583.823181
 20
208.123459
 11
583.823181
 21
136.123474
  0
LINE
  8
0
  6
DASHED
 10
672.823120
 20
208.123459
 11
672.823120
 21
136.123474
  0
LINE
  8
0
  6
CONTINUOUS
 10
17.560143
 20
138.623474
 11
17.560143
 21
205.623459
  0
LINE
  8
0
  6
CONTINUOUS
 10
24.360130
 20
131.823486
 11
64.060143
 21
131.823486
  0
LINE
  8
0
  6
CONTINUOUS
 10
24.347343
 20
212.423447
 11
64.060143
 21
212.423447
  0
ARC
  8
0
  6
DASHED
 10
667.823120
 20
208.123459
 40
5.000000
 50
0.000000
 51
90.000000
  0
ARC
  8
0
  6
DASHED
 10
667.823120
 20
208.123459
 40
5.000000
 50
0.000000
 51
90.000000
  0
ARC
  8
0
  6
DASHED
 10
588.823120
 20
208.123459
 40
5.000000
 50
90.000000
 51
180.000000
  0
ARC
  8
0
  6
CONTINUOUS
 10
59.922295
 20
211.123459
 40
1.300000
 50
90.000000
 51
180.000000
  0
ARC
  8
0
  6
DASHED
 10
667.823120
 20
136.123474
 40
5.000000
 50
-90.000000
 51
0.000000
  0
ARC
  8
0
  6
DASHED
 10
588.823120
 20
136.123474
 40
5.000000
 50
180.000000
 51
270.000000
  0
ARC
  8
0
  6
CONTINUOUS
 10
59.922295
 20
133.123474
 40
1.300000
 50
180.000000
 51
270.000000
  0
ARC
  8
0
  6
CONTINUOUS
 10
24.360130
 20
205.623459
 40
6.800000
 50
90.000000
 51
180.000000
  0
ARC
  8
0
  6
CONTINUOUS
 10
24.360130
 20
138.623474
 40
6.800000
 50
180.000000
 51
270.000000
  0
LINE
  8
0
  6
CONTINUOUS
 10
714.353882
 20
404.937592
 11
704.814697
 21
404.854340
  0
LINE
  8
0
  6
CONTINUOUS
 10
669.836060
 20
398.950806
 11
701.190796
 21
398.950806
  0
LINE
  8
0
  6
CONTINUOUS
 10
714.353882
 20
554.937622
 11
704.814697
 21
555.020874
  0
LINE
  8
0
  6
CONTINUOUS
 10
669.836060
 20
560.924377
 11
701.190796
 21
560.924377
  0
LINE
  8
0
  6
CONTINUOUS
 10
668.322998
 20
400.450745
 11
668.322998
 21
559.424438
  0
LINE
  8
0
  6
CONTINUOUS
 10
664.322998
 20
507.816254
 11
664.322998
 21
452.058929
  0
LINE
  8
0
  6
CONTINUOUS
 10
664.102295
 20
553.135437
 11
664.177307
 21
552.763977
  0
LINE
  8
0
  6
CONTINUOUS
 10
579.389771
 20
556.983887
 11
549.138733
 21
556.983887
  0
LINE
  8
0
  6
CONTINUOUS
 10
579.038818
 20
558.722961
 11
549.489746
 21
558.722961
  0
LINE
  8
0
  6
CONTINUOUS
 10
579.823059
 20
558.891785
 11
580.822998
 21
553.937622
  0
LINE
  8
0
  6
CONTINUOUS
 10
665.162109
 20
551.937622
 11
667.322998
 21
551.937622
  0
LINE
  8
0
  6
CONTINUOUS
 10
580.822998
 20
553.937622
 11
663.122070
 21
553.937622
  0
LINE
  8
0
  6
CONTINUOUS
 10
662.834839
 20
550.121521
 11
664.322998
 21
541.681946
  0
LINE
  8
0
  6
CONTINUOUS
 10
662.507996
 20
542.078979
 11
664.322998
 21
531.785522
  0
LINE
  8
0
  6
CONTINUOUS
 10
662.191711
 20
536.034058
 11
664.322998
 21
523.946899
  0
LINE
  8
0
  6
CONTINUOUS
 10
661.950134
 20
527.044250
 11
664.322998
 21
513.587158
  0
LINE
  8
0
  6
CONTINUOUS
 10
663.111328
 20
514.688110
 11
664.322998
 21
507.816254
  0
LINE
  8
0
  6
CONTINUOUS
 10
548.685425
 20
553.595947
 11
547.322998
 21
545.869202
  0
LINE
  8
0
  6
CONTINUOUS
 10
548.811096
 20
550.121521
 11
547.322998
 21
541.681946
  0
LINE
  8
0
  6
CONTINUOUS
 10
549.138000
 20
542.078979
 11
547.322998
 21
531.785522
  0
LINE
  8
0
  6
CONTINUOUS
 10
549.454285
 20
536.034058
 11
547.322998
 21
523.946899
  0
LINE
  8
0
  6
CONTINUOUS
 10
549.695862
 20
527.044250
 11
547.322998
 21
513.587158
  0
LINE
  8
0
  6
CONTINUOUS
 10
548.534668
 20
514.688110
 11
547.322998
 21
507.816254
  0
LINE
  8
0
  6
CONTINUOUS
 10
664.322998
 20
507.816254
 11
547.322998
 21
507.816254
  0
LINE
  8
0
  6
CONTINUOUS
 10
549.519470
 20
515.514465
 11
662.126465
 21
515.514465
  0
LINE
  8
0
  6
CONTINUOUS
 10
550.680664
 20
527.870605
 11
660.965332
 21
527.870605
  0
LINE
  8
0
  6
CONTINUOUS
 10
550.439087
 20
536.860413
 11
661.206909
 21
536.860413
  0
LINE
  8
0
  6
CONTINUOUS
 10
550.122803
 20
542.905334
 11
661.523193
 21
542.905334
  0
LINE
  8
0
  6
CONTINUOUS
 10
661.850037
 20
550.947876
 11
549.795898
 21
550.947876
  0
LINE
  8
0
  6
CONTINUOUS
 10
549.670227
 20
554.422302
 11
580.725159
 21
554.422302
  0
LINE
  8
0
  6
CONTINUOUS
 10
549.685730
 20
559.693909
 11
578.842834
 21
559.693909
  0
LINE
  8
0
  6
CONTINUOUS
 10
548.705505
 20
558.891785
 11
547.468689
 21
552.763977
  0
LINE
  8
0
  6
CONTINUOUS
 10
662.507202
 20
402.891296
 11
549.138733
 21
402.891296
  0
LINE
  8
0
  6
CONTINUOUS
 10
662.960571
 20
406.279266
 11
664.322998
 21
414.006012
  0
LINE
  8
0
  6
CONTINUOUS
 10
662.834839
 20
409.753662
 11
664.322998
 21
418.193268
  0
LINE
  8
0
  6
CONTINUOUS
 10
662.507996
 20
417.796234
 11
664.322998
 21
428.089661
  0
LINE
  8
0
  6
CONTINUOUS
 10
662.191711
 20
423.841156
 11
664.322998
 21
435.928284
  0
LINE
  8
0
  6
CONTINUOUS
 10
661.950134
 20
432.830933
 11
664.322998
 21
446.288055
  0
LINE
  8
0
  6
CONTINUOUS
 10
663.111328
 20
445.187073
 11
664.322998
 21
452.058929
  0
LINE
  8
0
  6
CONTINUOUS
 10
662.940491
 20
400.983429
 11
664.177307
 21
407.111237
  0
LINE
  8
0
  6
CONTINUOUS
 10
548.685425
 20
406.279266
 11
547.322998
 21
414.006012
  0
LINE
  8
0
  6
CONTINUOUS
 10
548.811096
 20
409.753662
 11
547.322998
 21
418.193268
  0
LINE
  8
0
  6
CONTINUOUS
 10
549.138000
 20
417.796234
 11
547.322998
 21
428.089661
  0
LINE
  8
0
  6
CONTINUOUS
 10
549.454285
 20
423.841156
 11
547.322998
 21
435.928284
  0
LINE
  8
0
  6
CONTINUOUS
 10
549.695862
 20
432.830933
 11
547.322998
 21
446.288055
  0
LINE
  8
0
  6
CONTINUOUS
 10
548.534668
 20
445.187073
 11
547.322998
 21
452.058929
  0
LINE
  8
0
  6
CONTINUOUS
 10
664.322998
 20
452.058929
 11
547.322998
 21
452.058929
  0
LINE
  8
0
  6
CONTINUOUS
 10
549.519470
 20
444.360718
 11
662.126465
 21
444.360718
  0
LINE
  8
0
  6
CONTINUOUS
 10
550.680664
 20
432.004578
 11
660.965332
 21
432.004578
  0
LINE
  8
0
  6
CONTINUOUS
 10
550.439087
 20
423.014801
 11
661.206909
 21
423.014801
  0
LINE
  8
0
  6
CONTINUOUS
 10
550.122803
 20
416.969879
 11
661.523193
 21
416.969879
  0
LINE
  8
0
  6
CONTINUOUS
 10
549.795898
 20
408.927307
 11
661.850037
 21
408.927307
  0
LINE
  8
0
  6
CONTINUOUS
 10
549.670227
 20
405.452911
 11
661.975769
 21
405.452911
  0
LINE
  8
0
  6
CONTINUOUS
 10
662.156189
 20
401.152252
 11
549.489746
 21
401.152252
  0
LINE
  8
0
  6
CONTINUOUS
 10
549.685730
 20
400.181274
 11
661.960205
 21
400.181274
  0
LINE
  8
0
  6
CONTINUOUS
 10
667.322998
 20
407.937592
 11
667.322998
 21
551.937622
  0
LINE
  8
0
  6
CONTINUOUS
 10
665.162109
 20
407.937592
 11
667.322998
 21
407.937592
  0
LINE
  8
0
  6
CONTINUOUS
 10
527.322998
 20
551.937622
 11
546.483887
 21
551.937622
  0
LINE
  8
0
  6
CONTINUOUS
 10
527.322998
 20
407.937592
 11
546.483887
 21
407.937592
  0
LINE
  8
0
  6
CONTINUOUS
 10
547.322998
 20
507.816254
 11
547.322998
 21
452.058929
  0
LINE
  8
0
  6
CONTINUOUS
 10
548.705505
 20
400.983429
 11
547.468689
 21
407.111237
  0
LINE
  8
0
  6
CONTINUOUS
 10
668.322998
 20
550.437622
 11
667.322998
 21
550.437622
  0
LINE
  8
0
  6
CONTINUOUS
 10
668.322998
 20
409.437592
 11
667.322998
 21
409.437592
  0
LINE
  8
0
  6
CONTINUOUS
 10
668.322998
 20
409.437592
 11
667.322998
 21
409.437592
  0
ARC
  8
0
  6
CONTINUOUS
 10
669.822998
 20
400.450745
 40
1.500000
 50
180.000000
 51
270.500000
  0
ARC
  8
0
  6
CONTINUOUS
 10
701.190796
 20
400.950806
 40
2.000000
 50
270.000000
 51
348.553131
  0
ARC
  8
0
  6
CONTINUOUS
 10
704.823425
 20
403.854370
 40
1.000000
 50
90.500000
 51
169.062744
  0
ARC
  8
0
  6
CONTINUOUS
 10
714.353882
 20
419.937592
 40
15.000000
 50
270.000000
 51
351.480377
  0
ARC
  8
0
  6
CONTINUOUS
 10
669.822998
 20
559.424438
 40
1.500000
 50
89.500000
 51
180.000000
  0
ARC
  8
0
  6
CONTINUOUS
 10
704.823425
 20
556.020813
 40
1.000000
 50
190.937241
 51
269.500000
  0
ARC
  8
0
  6
CONTINUOUS
 10
701.190796
 20
558.924377
 40
2.000000
 50
11.446884
 51
90.000000
  0
ARC
  8
0
  6
CONTINUOUS
 10
714.353882
 20
539.937622
 40
15.000000
 50
8.519623
 51
90.000000
  0
ARC
  8
0
  6
CONTINUOUS
 10
311.107361
 20
479.937592
 40
400.000000
 50
-11.446884
 51
11.446884
  0
ARC
  8
0
  6
CONTINUOUS
 10
313.822998
 20
479.937592
 40
420.000000
 50
-8.519623
 51
8.519623
  0
ARC
  8
0
  6
CONTINUOUS
 10
663.122070
 20
552.937622
 40
1.000000
 50
11.411255
 51
90.000000
  0
ARC
  8
0
  6
CONTINUOUS
 10
579.038818
 20
557.722961
 40
1.000000
 50
11.411255
 51
90.000000
  0
ARC
  8
0
  6
CONTINUOUS
 10
579.389771
 20
555.983887
 40
1.000000
 50
11.411255
 51
90.000000
  0
ARC
  8
0
  6
CONTINUOUS
 10
578.842834
 20
558.693909
 40
1.000000
 50
11.411255
 51
90.000000
  0
ARC
  8
0
  6
CONTINUOUS
 10
661.850037
 20
549.947876
 40
1.000000
 50
10.000000
 51
90.000000
  0
ARC
  8
0
  6
CONTINUOUS
 10
661.523193
 20
541.905334
 40
1.000000
 50
10.000000
 51
90.000000
  0
ARC
  8
0
  6
CONTINUOUS
 10
661.206909
 20
535.860413
 40
1.000000
 50
10.000000
 51
90.000000
  0
ARC
  8
0
  6
CONTINUOUS
 10
660.965332
 20
526.870605
 40
1.000000
 50
10.000000
 51
90.000000
  0
ARC
  8
0
  6
CONTINUOUS
 10
662.126465
 20
514.514465
 40
1.000000
 50
10.000000
 51
90.000000
  0
ARC
  8
0
  6
CONTINUOUS
 10
665.162109
 20
552.937622
 40
1.000000
 50
190.000000
 51
270.000000
  0
ARC
  8
0
  6
CONTINUOUS
 10
549.670227
 20
553.422302
 40
1.000000
 50
90.000000
 51
170.000000
  0
ARC
  8
0
  6
CONTINUOUS
 10
549.795898
 20
549.947876
 40
1.000000
 50
90.000000
 51
170.000000
  0
ARC
  8
0
  6
CONTINUOUS
 10
550.122803
 20
541.905334
 40
1.000000
 50
90.000000
 51
170.000000
  0
ARC
  8
0
  6
CONTINUOUS
 10
550.439087
 20
535.860413
 40
1.000000
 50
90.000000
 51
170.000000
  0
ARC
  8
0
  6
CONTINUOUS
 10
550.680664
 20
526.870605
 40
1.000000
 50
90.000000
 51
170.000000
  0
ARC
  8
0
  6
CONTINUOUS
 10
549.519470
 20
514.514465
 40
1.000000
 50
90.000000
 51
170.000000
  0
ARC
  8
0
  6
CONTINUOUS
 10
549.489746
 20
557.722961
 40
1.000000
 50
90.000000
 51
168.588745
  0
ARC
  8
0
  6
CONTINUOUS
 10
549.138733
 20
555.983887
 40
1.000000
 50
90.000000
 51
168.588745
  0
ARC
  8
0
  6
CONTINUOUS
 10
549.685730
 20
558.693909
 40
1.000000
 50
90.000000
 51
168.588745
  0
ARC
  8
0
  6
CONTINUOUS
 10
546.483887
 20
552.937622
 40
1.000000
 50
270.000000
 51
350.000000
  0
ARC
  8
0
  6
CONTINUOUS
 10
661.975769
 20
406.452911
 40
1.000000
 50
270.000000
 51
350.000000
  0
ARC
  8
0
  6
CONTINUOUS
 10
661.850037
 20
409.927307
 40
1.000000
 50
270.000000
 51
350.000000
  0
ARC
  8
0
  6
CONTINUOUS
 10
661.523193
 20
417.969879
 40
1.000000
 50
270.000000
 51
350.000000
  0
ARC
  8
0
  6
CONTINUOUS
 10
661.206909
 20
424.014801
 40
1.000000
 50
270.000000
 51
350.000000
  0
ARC
  8
0
  6
CONTINUOUS
 10
660.965332
 20
433.004578
 40
1.000000
 50
270.000000
 51
350.000000
  0
ARC
  8
0
  6
CONTINUOUS
 10
662.126465
 20
445.360718
 40
1.000000
 50
270.000000
 51
350.000000
  0
ARC
  8
0
  6
CONTINUOUS
 10
662.156189
 20
402.152252
 40
1.000000
 50
270.000000
 51
348.588745
  0
ARC
  8
0
  6
CONTINUOUS
 10
662.507202
 20
403.891296
 40
1.000000
 50
270.000000
 51
348.588745
  0
ARC
  8
0
  6
CONTINUOUS
 10
661.960205
 20
401.181274
 40
1.000000
 50
270.000000
 51
348.588745
  0
ARC
  8
0
  6
CONTINUOUS
 10
665.162109
 20
406.937592
 40
1.000000
 50
90.000000
 51
170.000000
  0
ARC
  8
0
  6
CONTINUOUS
 10
549.670227
 20
406.452911
 40
1.000000
 50
190.000000
 51
270.000000
  0
ARC
  8
0
  6
CONTINUOUS
 10
549.795898
 20
409.927307
 40
1.000000
 50
190.000000
 51
270.000000
  0
ARC
  8
0
  6
CONTINUOUS
 10
550.122803
 20
417.969879
 40
1.000000
 50
190.000000
 51
270.000000
  0
ARC
  8
0
  6
CONTINUOUS
 10
550.439087
 20
424.014801
 40
1.000000
 50
190.000000
 51
270.000000
  0
ARC
  8
0
  6
CONTINUOUS
 10
550.680664
 20
433.004578
 40
1.000000
 50
190.000000
 51
270.000000
  0
ARC
  8
0
  6
CONTINUOUS
 10
549.519470
 20
445.360718
 40
1.000000
 50
190.000000
 51
270.000000
  0
ARC
  8
0
  6
CONTINUOUS
 10
549.489746
 20
402.152252
 40
1.000000
 50
191.411255
 51
270.000000
  0
ARC
  8
0
  6
CONTINUOUS
 10
549.138733
 20
403.891296
 40
1.000000
 50
191.411255
 51
270.000000
  0
ARC
  8
0
  6
CONTINUOUS
 10
549.685730
 20
401.181274
 40
1.000000
 50
191.411255
 51
270.000000
  0
ARC
  8
0
  6
CONTINUOUS
 10
546.483887
 20
406.937592
 40
1.000000
 50
10.000000
 51
90.000000
  0
LINE
  8
0
  6
CONTINUOUS
 10
595.822876
 20
555.437622
 11
595.822876
 21
553.937622
  0
LINE
  8
0
  6
CONTINUOUS
 10
655.822876
 20
555.437622
 11
655.822876
 21
553.937622
  0
LINE
  8
0
  6
CONTINUOUS
 10
663.700439
 20
555.437622
 11
591.834473
 21
555.437622
  0
LINE
  8
0
  6
CONTINUOUS
 10
589.296753
 20
557.054260
 11
589.230591
 21
557.196289
  0
LINE
  8
0
  6
CONTINUOUS
 10
585.788574
 20
589.278137
 11
585.788574
 21
563.171326
  0
LINE
  8
0
  6
CONTINUOUS
 10
666.500488
 20
558.237610
 11
666.500488
 21
593.227844
  0
LINE
  8
0
  6
CONTINUOUS
 10
596.588501
 20
600.078125
 11
666.148560
 21
600.078125
  0
LINE
  8
0
  6
CONTINUOUS
 10
585.001099
 20
562.238464
 11
668.958130
 21
601.388245
  0
LINE
  8
0
  6
CENTER
 10
625.822876
 20
543.713867
 11
625.822876
 21
604.437622
  0
LINE
  8
0
  6
CONTINUOUS
 10
584.372314
 20
560.510864
 11
586.509644
 21
555.927490
  0
LINE
  8
0
  6
CONTINUOUS
 10
670.685669
 20
600.759399
 11
672.822876
 21
596.176086
  0
LINE
  8
0
  6
CONTINUOUS
 10
586.511597
 20
555.928467
 11
672.822876
 21
596.176086
  0
LINE
  8
0
  6
CENTER
 10
673.320923
 20
578.437622
 11
656.280884
 21
578.437622
  0
ARC
  8
0
  6
CONTINUOUS
 10
584.788574
 20
563.171326
 40
1.000000
 50
-44.282501
 51
0.000000
  0
ARC
  8
0
  6
CONTINUOUS
 10
585.550537
 20
561.060242
 40
1.300000
 50
115.000000
 51
205.000000
  0
ARC
  8
0
  6
CONTINUOUS
 10
596.588501
 20
589.278137
 40
10.800000
 50
90.000000
 51
180.000000
  0
ARC
  8
0
  6
CONTINUOUS
 10
663.700439
 20
558.237610
 40
2.800000
 50
-90.000000
 51
0.000000
  0
ARC
  8
0
  6
CONTINUOUS
 10
591.834473
 20
558.237610
 40
2.800000
 50
205.000000
 51
270.000000
  0
ARC
  8
0
  6
CONTINUOUS
 10
669.507446
 20
600.210022
 40
1.300000
 50
25.000000
 51
115.000000
  0
LINE
  8
0
  6
CONTINUOUS
 10
527.322998
 20
407.937592
 11
527.322998
 21
551.937622
  0
LINE
  8
0
  6
CONTINUOUS
 10
371.423218
 20
524.937622
 11
371.419983
 21
524.926514
  0
LINE
  8
0
  6
CONTINUOUS
 10
378.079224
 20
534.937622
 11
387.764374
 21
534.937622
  0
LINE
  8
0
  6
CONTINUOUS
 10
373.277069
 20
531.330200
 11
372.469330
 21
528.544983
  0
LINE
  8
0
  6
CONTINUOUS
 10
388.767578
 20
538.348450
 11
387.764374
 21
534.937622
  0
LINE
  8
0
  6
CENTER
 10
381.323212
 20
530.785278
 11
381.323212
 21
550.285278
  0
LINE
  8
0
  6
CENTER
 10
391.199524
 20
539.937622
 11
372.262024
 21
539.937622
  0
LINE
  8
0
  6
CONTINUOUS
 10
486.223206
 20
524.937622
 11
486.226410
 21
524.926514
  0
LINE
  8
0
  6
CONTINUOUS
 10
479.567200
 20
534.937622
 11
469.882019
 21
534.937622
  0
LINE
  8
0
  6
CONTINUOUS
 10
484.369354
 20
531.330200
 11
485.177063
 21
528.544983
  0
LINE
  8
0
  6
CONTINUOUS
 10
468.878845
 20
538.348450
 11
469.882019
 21
534.937622
  0
LINE
  8
0
  6
CENTER
 10
466.446869
 20
539.937622
 11
485.384369
 21
539.937622
  0
LINE
  8
0
  6
CENTER
 10
476.323212
 20
530.785278
 11
476.323212
 21
550.285278
  0
LINE
  8
0
  6
CONTINUOUS
 10
486.223206
 20
434.937592
 11
486.226410
 21
434.948669
  0
LINE
  8
0
  6
CONTINUOUS
 10
479.567200
 20
424.937592
 11
469.882019
 21
424.937592
  0
LINE
  8
0
  6
CONTINUOUS
 10
484.369354
 20
428.544952
 11
485.177063
 21
431.330200
  0
LINE
  8
0
  6
CONTINUOUS
 10
468.878845
 20
421.526764
 11
469.882019
 21
424.937592
  0
LINE
  8
0
  6
CONTINUOUS
 10
371.423218
 20
434.937592
 11
371.419983
 21
434.948669
  0
LINE
  8
0
  6
CONTINUOUS
 10
378.079224
 20
424.937592
 11
387.764374
 21
424.937592
  0
LINE
  8
0
  6
CONTINUOUS
 10
373.277069
 20
428.544952
 11
372.469330
 21
431.330200
  0
LINE
  8
0
  6
CONTINUOUS
 10
388.767578
 20
421.526764
 11
387.764374
 21
424.937592
  0
LINE
  8
0
  6
CONTINUOUS
 10
512.200867
 20
545.008179
 11
508.411804
 21
530.867065
  0
LINE
  8
0
  6
CONTINUOUS
 10
519.928284
 20
550.937622
 11
527.322998
 21
550.937622
  0
LINE
  8
0
  6
CONTINUOUS
 10
512.200867
 20
414.867035
 11
508.411804
 21
429.008148
  0
LINE
  8
0
  6
CONTINUOUS
 10
504.823395
 20
479.937592
 11
504.089386
 21
521.989929
  0
LINE
  8
0
  6
CONTINUOUS
 10
504.823395
 20
479.937592
 11
504.089386
 21
437.885223
  0
LINE
  8
0
  6
CENTER
 10
746.672913
 20
479.937592
 11
341.100006
 21
479.937592
  0
LINE
  8
0
  6
CENTER
 10
466.446869
 20
419.937592
 11
485.384369
 21
419.937592
  0
LINE
  8
0
  6
CENTER
 10
476.323212
 20
429.089935
 11
476.323212
 21
409.589935
  0
LINE
  8
0
  6
CENTER
 10
381.323212
 20
429.089935
 11
381.323212
 21
409.589935
  0
LINE
  8
0
  6
CENTER
 10
391.199524
 20
419.937592
 11
372.262024
 21
419.937592
  0
LINE
  8
0
  6
CONTINUOUS
 10
428.823212
 20
554.937622
 11
370.373138
 21
554.937622
  0
LINE
  8
0
  6
CONTINUOUS
 10
413.624512
 20
409.937592
 11
413.624512
 21
359.937592
  0
LINE
  8
0
  6
CONTINUOUS
 10
413.624512
 20
409.937592
 11
409.823212
 21
409.937592
  0
LINE
  8
0
  6
CONTINUOUS
 10
409.823212
 20
359.937592
 11
409.823212
 21
409.937592
  0
LINE
  8
0
  6
CONTINUOUS
 10
409.823212
 20
404.937592
 11
370.373138
 21
404.937592
  0
LINE
  8
0
  6
CONTINUOUS
 10
411.323212
 20
417.937592
 11
411.323212
 21
414.937592
  0
LINE
  8
0
  6
CONTINUOUS
 10
446.323212
 20
417.937592
 11
446.323212
 21
414.937592
  0
LINE
  8
0
  6
CONTINUOUS
 10
446.323212
 20
414.937592
 11
411.323212
 21
414.937592
  0
LINE
  8
0
  6
CONTINUOUS
 10
412.823212
 20
414.937592
 11
412.823212
 21
409.937592
  0
LINE
  8
0
  6
CONTINUOUS
 10
444.823212
 20
414.937592
 11
444.823212
 21
359.937592
  0
LINE
  8
0
  6
CONTINUOUS
 10
409.823212
 20
359.937592
 11
444.823212
 21
359.937592
  0
LINE
  8
0
  6
CONTINUOUS
 10
428.823212
 20
541.937622
 11
464.082001
 21
541.937622
  0
LINE
  8
0
  6
CONTINUOUS
 10
428.823212
 20
541.937622
 11
393.564392
 21
541.937622
  0
LINE
  8
0
  6
CONTINUOUS
 10
428.823212
 20
417.937592
 11
464.082001
 21
417.937592
  0
LINE
  8
0
  6
CONTINUOUS
 10
519.928284
 20
408.937592
 11
527.322998
 21
408.937592
  0
LINE
  8
0
  6
CONTINUOUS
 10
457.823212
 20
437.937592
 11
457.823212
 21
521.937622
  0
LINE
  8
0
  6
CONTINUOUS
 10
399.823212
 20
437.937592
 11
399.823212
 21
521.937622
  0
LINE
  8
0
  6
CONTINUOUS
 10
428.823212
 20
417.937592
 11
393.564392
 21
417.937592
  0
LINE
  8
0
  6
CONTINUOUS
 10
356.556580
 20
524.937622
 11
501.089844
 21
524.937622
  0
LINE
  8
0
  6
CONTINUOUS
 10
501.089844
 20
434.937592
 11
356.556580
 21
434.937592
  0
LINE
  8
0
  6
CONTINUOUS
 10
494.766785
 20
549.738831
 11
503.801575
 21
525.569885
  0
LINE
  8
0
  6
CONTINUOUS
 10
494.766785
 20
410.136353
 11
503.801575
 21
434.305298
  0
LINE
  8
0
  6
CONTINUOUS
 10
362.879608
 20
549.738831
 11
353.608490
 21
524.937622
  0
LINE
  8
0
  6
CONTINUOUS
 10
487.273254
 20
554.937622
 11
428.823212
 21
554.937622
  0
LINE
  8
0
  6
CONTINUOUS
 10
352.822998
 20
479.937592
 11
353.608490
 21
524.937622
  0
LINE
  8
0
  6
CONTINUOUS
 10
362.879608
 20
410.136353
 11
353.608490
 21
434.937592
  0
LINE
  8
0
  6
CONTINUOUS
 10
487.273254
 20
404.937592
 11
444.823212
 21
404.937592
  0
LINE
  8
0
  6
CONTINUOUS
 10
352.822998
 20
479.937592
 11
353.608490
 21
434.937592
  0
LINE
  8
0
  6
CENTER
 10
428.823212
 20
351.875092
 11
428.823212
 21
570.823120
  0
LINE
  8
0
  6
CONTINUOUS
 10
454.535736
 20
94.695938
 11
457.635651
 21
92.835991
  0
LINE
  8
0
  6
CONTINUOUS
 10
453.823212
 20
95.006081
 11
453.823212
 21
93.123459
  0
LINE
  8
0
  6
CONTINUOUS
 10
403.110657
 20
94.695938
 11
400.010773
 21
92.835991
  0
LINE
  8
0
  6
CONTINUOUS
 10
66.811378
 20
92.348579
 11
91.858650
 21
94.853310
  0
LINE
  8
0
  6
CONTINUOUS
 10
63.478931
 20
149.724075
 11
70.530502
 21
149.477829
  0
LINE
  8
0
  6
CONTINUOUS
 10
66.040543
 20
144.122849
 11
71.693954
 21
144.320267
  0
LINE
  8
0
  6
CONTINUOUS
 10
66.040543
 20
142.124069
 11
73.628555
 21
141.859085
  0
LINE
  8
0
  6
CONTINUOUS
 10
63.478931
 20
151.722855
 11
69.165939
 21
151.921432
  0
LINE
  8
0
  6
CONTINUOUS
 10
61.739887
 20
157.324081
 11
68.376907
 21
157.092300
  0
LINE
  8
0
  6
CONTINUOUS
 10
61.739887
 20
159.322861
 11
67.522484
 21
159.524796
  0
LINE
  8
0
  6
CONTINUOUS
 10
60.768909
 20
164.924057
 11
67.082169
 21
164.703598
  0
LINE
  8
0
  6
CONTINUOUS
 10
60.768909
 20
166.922836
 11
66.704391
 21
167.130112
  0
LINE
  8
0
  6
CONTINUOUS
 10
61.739887
 20
184.924057
 11
67.522484
 21
184.722122
  0
LINE
  8
0
  6
CONTINUOUS
 10
60.768909
 20
179.322861
 11
67.082169
 21
179.543320
  0
LINE
  8
0
  6
CONTINUOUS
 10
60.768909
 20
177.324081
 11
66.704391
 21
177.116806
  0
LINE
  8
0
  6
CONTINUOUS
 10
63.478931
 20
192.524063
 11
69.165939
 21
192.325485
  0
LINE
  8
0
  6
CONTINUOUS
 10
63.478931
 20
194.522842
 11
70.530502
 21
194.769089
  0
LINE
  8
0
  6
CONTINUOUS
 10
61.739887
 20
186.922836
 11
68.376907
 21
187.154617
  0
LINE
  8
0
  6
CONTINUOUS
 10
66.040543
 20
200.124069
 11
71.693954
 21
199.926651
  0
LINE
  8
0
  6
CONTINUOUS
 10
66.040543
 20
202.122849
 11
73.628555
 21
202.387833
  0
LINE
  8
0
  6
CONTINUOUS
 10
527.323242
 20
244.123459
 11
527.323242
 21
100.123459
  0
LINE
  8
0
  6
CONTINUOUS
 10
209.605331
 20
136.522842
 11
203.910629
 21
136.721725
  0
LINE
  8
0
  6
CONTINUOUS
 10
209.605331
 20
134.524063
 11
201.304459
 21
134.234207
  0
LINE
  8
0
  6
CONTINUOUS
 10
92.592194
 20
108.824081
 11
94.560143
 21
108.755356
  0
LINE
  8
0
  6
CONTINUOUS
 10
69.514938
 20
136.522842
 11
75.209641
 21
136.721725
  0
LINE
  8
0
  6
CONTINUOUS
 10
69.514938
 20
134.524063
 11
77.815819
 21
134.234207
  0
LINE
  8
0
  6
CONTINUOUS
 10
83.602440
 20
115.324081
 11
94.560143
 21
114.941414
  0
LINE
  8
0
  6
CONTINUOUS
 10
92.592178
 20
110.822861
 11
94.560143
 21
110.891579
  0
LINE
  8
0
  6
CONTINUOUS
 10
83.602440
 20
117.322861
 11
90.012138
 21
117.546677
  0
LINE
  8
0
  6
CONTINUOUS
 10
77.557487
 20
124.122849
 11
83.563286
 21
124.332565
  0
LINE
  8
0
  6
CONTINUOUS
 10
77.557487
 20
122.124069
 11
87.712173
 21
121.769455
  0
LINE
  8
0
  6
CONTINUOUS
 10
67.490341
 20
142.056046
 11
73.636925
 21
141.841415
  0
LINE
  8
0
  6
CONTINUOUS
 10
69.514938
 20
207.724075
 11
75.209641
 21
207.525192
  0
LINE
  8
0
  6
CONTINUOUS
 10
69.514938
 20
209.722855
 11
77.560143
 21
210.003784
  0
LINE
  8
0
  6
CONTINUOUS
 10
67.490341
 20
202.190872
 11
73.636925
 21
202.405502
  0
LINE
  8
0
  6
CONTINUOUS
 10
77.557487
 20
220.124069
 11
77.560143
 21
220.123978
  0
LINE
  8
0
  6
CONTINUOUS
 10
77.557487
 20
222.122849
 11
77.560143
 21
222.122940
  0
LINE
  8
0
  6
CONTINUOUS
 10
195.517838
 20
115.324081
 11
184.560135
 21
114.941414
  0
LINE
  8
0
  6
CONTINUOUS
 10
186.528061
 20
108.824081
 11
184.560135
 21
108.755356
  0
LINE
  8
0
  6
CONTINUOUS
 10
186.528061
 20
110.822861
 11
184.560135
 21
110.891579
  0
LINE
  8
0
  6
CONTINUOUS
 10
195.517838
 20
117.322861
 11
189.108109
 21
117.546677
  0
LINE
  8
0
  6
CONTINUOUS
 10
201.562759
 20
122.124069
 11
191.408066
 21
121.769455
  0
LINE
  8
0
  6
CONTINUOUS
 10
201.562759
 20
124.122849
 11
195.556961
 21
124.332565
  0
LINE
  8
0
  6
CONTINUOUS
 10
215.641342
 20
149.724075
 11
208.589767
 21
149.477829
  0
LINE
  8
0
  6
CONTINUOUS
 10
213.079727
 20
144.122849
 11
207.426315
 21
144.320267
  0
LINE
  8
0
  6
CONTINUOUS
 10
213.079727
 20
142.124069
 11
205.491714
 21
141.859085
  0
LINE
  8
0
  6
CONTINUOUS
 10
215.641342
 20
151.722855
 11
209.954330
 21
151.921432
  0
LINE
  8
0
  6
CONTINUOUS
 10
217.380386
 20
157.324081
 11
210.743362
 21
157.092300
  0
LINE
  8
0
  6
CONTINUOUS
 10
217.380386
 20
159.322861
 11
211.597794
 21
159.524796
  0
LINE
  8
0
  6
CONTINUOUS
 10
218.351364
 20
164.924057
 11
212.038101
 21
164.703598
  0
LINE
  8
0
  6
CONTINUOUS
 10
218.351364
 20
166.922836
 11
212.415878
 21
167.130112
  0
LINE
  8
0
  6
CONTINUOUS
 10
217.380386
 20
184.924057
 11
211.597794
 21
184.722122
  0
LINE
  8
0
  6
CONTINUOUS
 10
218.351364
 20
179.322861
 11
212.038101
 21
179.543320
  0
LINE
  8
0
  6
CONTINUOUS
 10
218.351364
 20
177.324081
 11
212.415878
 21
177.116806
  0
LINE
  8
0
  6
CONTINUOUS
 10
215.641342
 20
192.524063
 11
209.954330
 21
192.325485
  0
LINE
  8
0
  6
CONTINUOUS
 10
215.641342
 20
194.522842
 11
208.589767
 21
194.769089
  0
LINE
  8
0
  6
CONTINUOUS
 10
217.380386
 20
186.922836
 11
210.743362
 21
187.154617
  0
LINE
  8
0
  6
CENTER
 10
64.144997
 20
214.123459
 11
271.625000
 21
214.123459
  0
LINE
  8
0
  6
CONTINUOUS
 10
214.560165
 20
209.123459
 11
259.560150
 21
209.123459
  0
LINE
  8
0
  6
CONTINUOUS
 10
214.560135
 20
219.123459
 11
259.560150
 21
219.123459
  0
LINE
  8
0
  6
CONTINUOUS
 10
201.560135
 20
196.623459
 11
204.560135
 21
196.623459
  0
LINE
  8
0
  6
CONTINUOUS
 10
201.560135
 20
231.623459
 11
204.560135
 21
231.623459
  0
LINE
  8
0
  6
CONTINUOUS
 10
204.560135
 20
231.623459
 11
204.560135
 21
196.623459
  0
LINE
  8
0
  6
CONTINUOUS
 10
204.560135
 20
198.123459
 11
259.560150
 21
198.123459
  0
LINE
  8
0
  6
CONTINUOUS
 10
204.560135
 20
230.123459
 11
259.560150
 21
230.123459
  0
LINE
  8
0
  6
CONTINUOUS
 10
259.560150
 20
198.123459
 11
259.560150
 21
230.123459
  0
LINE
  8
0
  6
CENTER
 10
7.270000
 20
172.123459
 11
234.315002
 21
172.123459
  0
LINE
  8
0
  6
CONTINUOUS
 10
169.560135
 20
74.123459
 11
168.060120
 21
75.623459
  0
LINE
  8
0
  6
CONTINUOUS
 10
109.560143
 20
74.123459
 11
111.060143
 21
75.623459
  0
LINE
  8
0
  6
CONTINUOUS
 10
94.560143
 20
261.864655
 11
94.560143
 21
74.123459
  0
LINE
  8
0
  6
CONTINUOUS
 10
97.134521
 20
246.623459
 11
181.812714
 21
246.623459
  0
LINE
  8
0
  6
CONTINUOUS
 10
197.970978
 20
254.179108
 11
188.149323
 21
257.067810
  0
LINE
  8
0
  6
CONTINUOUS
 10
197.970963
 20
174.067825
 11
197.431458
 21
173.909149
  0
LINE
  8
0
  6
CONTINUOUS
 10
190.952759
 20
125.077316
 11
188.167496
 21
124.269600
  0
LINE
  8
0
  6
CONTINUOUS
 10
212.308899
 20
92.348579
 11
187.261627
 21
94.853310
  0
LINE
  8
0
  6
CONTINUOUS
 10
88.167519
 20
125.077316
 11
90.952759
 21
124.269600
  0
LINE
  8
0
  6
CONTINUOUS
 10
81.149323
 20
174.067825
 11
81.688805
 21
173.909149
  0
LINE
  8
0
  6
CONTINUOUS
 10
90.970985
 20
257.067810
 11
81.149300
 21
254.179108
  0
LINE
  8
0
  6
DASHED
 10
73.060143
 20
92.123459
 11
73.060143
 21
74.123459
  0
LINE
  8
0
  6
DASHED
 10
86.060143
 20
92.123459
 11
86.060143
 21
74.123459
  0
LINE
  8
0
  6
DASHED
 10
193.060135
 20
92.123459
 11
193.060135
 21
74.123459
  0
LINE
  8
0
  6
DASHED
 10
206.060135
 20
92.123459
 11
206.060135
 21
74.123459
  0
LINE
  8
0
  6
CONTINUOUS
 10
194.560135
 20
129.879471
 11
194.560135
 21
218.033875
  0
LINE
  8
0
  6
CONTINUOUS
 10
84.560143
 20
129.879456
 11
84.560143
 21
218.033859
  0
LINE
  8
0
  6
CONTINUOUS
 10
201.560135
 20
178.864655
 11
201.560135
 21
249.382278
  0
LINE
  8
0
  6
CONTINUOUS
 10
77.560143
 20
178.864655
 11
77.560143
 21
249.382278
  0
LINE
  8
0
  6
CONTINUOUS
 10
97.507782
 20
278.389282
 11
139.560150
 21
279.123444
  0
LINE
  8
0
  6
CONTINUOUS
 10
181.612473
 20
278.389771
 11
139.560150
 21
279.123444
  0
LINE
  8
0
  6
CONTINUOUS
 10
111.060143
 20
75.623459
 11
168.060120
 21
75.623459
  0
LINE
  8
0
  6
CONTINUOUS
 10
64.560158
 20
89.860985
 11
64.560143
 21
74.123459
  0
LINE
  8
0
  6
CONTINUOUS
 10
214.560135
 20
89.860985
 11
214.560135
 21
74.123459
  0
LINE
  8
0
  6
CONTINUOUS
 10
94.560143
 20
261.864655
 11
94.560143
 21
275.389740
  0
LINE
  8
0
  6
CONTINUOUS
 10
184.560135
 20
275.390198
 11
184.560135
 21
74.123459
  0
LINE
  8
0
  6
CONTINUOUS
 10
67.060143
 20
92.123474
 11
90.560120
 21
92.123459
  0
LINE
  8
0
  6
CONTINUOUS
 10
212.060135
 20
92.123459
 11
188.560165
 21
92.123459
  0
LINE
  8
0
  6
CONTINUOUS
 10
169.560135
 20
74.123459
 11
214.560135
 21
74.123459
  0
LINE
  8
0
  6
CONTINUOUS
 10
64.560143
 20
74.123459
 11
109.560143
 21
74.123459
  0
LINE
  8
0
  6
CENTER
 10
79.560143
 20
100.722198
 11
79.560143
 21
62.823078
  0
LINE
  8
0
  6
CENTER
 10
199.560135
 20
100.722198
 11
199.560135
 21
62.823078
  0
LINE
  8
0
  6
CENTER
 10
139.560150
 20
61.473457
 11
139.560150
 21
295.410004
  0
LINE
  8
0
  6
CONTINUOUS
 10
409.823212
 20
209.123444
 11
417.823212
 21
209.123444
  0
LINE
  8
0
  6
CONTINUOUS
 10
409.823212
 20
219.123444
 11
417.823212
 21
219.123444
  0
LINE
  8
0
  6
CONTINUOUS
 10
409.823212
 20
219.123444
 11
409.823212
 21
209.123444
  0
LINE
  8
0
  6
CONTINUOUS
 10
417.823212
 20
219.123444
 11
417.823212
 21
209.123444
  0
LINE
  8
0
  6
CONTINUOUS
 10
356.823212
 20
222.900543
 11
356.823212
 21
151.346375
  0
LINE
  8
0
  6
CONTINUOUS
 10
500.823212
 20
222.900543
 11
500.823212
 21
151.346359
  0
LINE
  8
0
  6
CONTINUOUS
 10
417.950195
 20
149.629303
 11
417.950195
 21
149.404694
  0
LINE
  8
0
  6
CONTINUOUS
 10
440.661011
 20
150.629303
 11
445.094208
 21
150.626434
  0
LINE
  8
0
  6
CONTINUOUS
 10
438.323212
 20
150.629303
 11
439.028198
 21
150.629303
  0
LINE
  8
0
  6
CONTINUOUS
 10
440.661011
 20
144.784576
 11
443.701813
 21
144.784576
  0
LINE
  8
0
  6
CONTINUOUS
 10
427.895416
 20
150.629303
 11
425.638000
 21
150.629303
  0
LINE
  8
0
  6
CONTINUOUS
 10
429.676788
 20
150.629303
 11
432.152008
 21
150.629303
  0
LINE
  8
0
  6
CONTINUOUS
 10
432.152008
 20
150.629303
 11
432.582214
 21
149.404694
  0
LINE
  8
0
  6
CONTINUOUS
 10
425.638000
 20
150.629303
 11
425.127808
 21
149.404694
  0
LINE
  8
0
  6
CONTINUOUS
 10
438.323212
 20
139.607849
 11
438.323212
 21
138.123444
  0
LINE
  8
0
  6
CONTINUOUS
 10
441.310608
 20
139.607849
 11
441.310608
 21
138.123444
  0
LINE
  8
0
  6
CONTINUOUS
 10
445.633789
 20
139.607849
 11
445.633789
 21
138.123444
  0
LINE
  8
0
  6
CONTINUOUS
 10
447.823212
 20
139.607849
 11
447.823212
 21
138.123444
  0
LINE
  8
0
  6
CONTINUOUS
 10
445.633789
 20
138.123444
 11
447.823212
 21
138.123444
  0
LINE
  8
0
  6
CONTINUOUS
 10
447.423401
 20
139.607849
 11
447.823212
 21
139.607849
  0
LINE
  8
0
  6
CONTINUOUS
 10
445.633789
 20
139.607849
 11
445.929596
 21
139.607849
  0
LINE
  8
0
  6
CONTINUOUS
 10
441.310608
 20
138.123444
 11
438.323212
 21
138.123444
  0
LINE
  8
0
  6
CONTINUOUS
 10
440.661011
 20
139.607849
 11
441.310608
 21
139.607849
  0
LINE
  8
0
  6
CONTINUOUS
 10
438.323212
 20
139.607849
 11
439.028198
 21
139.607849
  0
LINE
  8
0
  6
CONTINUOUS
 10
443.701813
 20
144.784576
 11
445.929596
 21
139.607849
  0
LINE
  8
0
  6
CONTINUOUS
 10
445.069000
 20
144.913696
 11
447.423401
 21
139.607849
  0
LINE
  8
0
  6
CONTINUOUS
 10
440.661011
 20
150.629303
 11
440.661011
 21
146.268616
  0
LINE
  8
0
  6
CONTINUOUS
 10
438.323212
 20
152.373444
 11
438.323212
 21
150.629303
  0
LINE
  8
0
  6
CONTINUOUS
 10
444.319000
 20
146.268616
 11
440.661011
 21
146.268616
  0
LINE
  8
0
  6
CONTINUOUS
 10
438.323212
 20
152.373444
 11
444.019409
 21
152.373444
  0
LINE
  8
0
  6
CONTINUOUS
 10
427.190399
 20
139.682037
 11
427.895416
 21
139.682037
  0
LINE
  8
0
  6
CONTINUOUS
 10
427.190399
 20
138.123444
 11
430.270416
 21
138.123444
  0
LINE
  8
0
  6
CONTINUOUS
 10
424.073212
 20
152.373444
 11
433.573212
 21
152.373444
  0
LINE
  8
0
  6
CONTINUOUS
 10
424.073212
 20
149.404694
 11
425.127808
 21
149.404694
  0
LINE
  8
0
  6
CONTINUOUS
 10
432.582214
 20
149.404694
 11
433.573212
 21
149.404694
  0
LINE
  8
0
  6
CONTINUOUS
 10
430.270416
 20
139.682037
 11
430.270416
 21
138.123444
  0
LINE
  8
0
  6
CONTINUOUS
 10
427.190399
 20
139.682037
 11
427.190399
 21
138.123444
  0
LINE
  8
0
  6
CONTINUOUS
 10
429.676788
 20
139.682037
 11
430.270416
 21
139.682037
  0
LINE
  8
0
  6
CONTINUOUS
 10
417.950195
 20
139.259369
 11
416.596191
 21
138.123444
  0
LINE
  8
0
  6
CONTINUOUS
 10
417.950195
 20
138.123444
 11
419.323212
 21
138.123444
  0
LINE
  8
0
  6
CONTINUOUS
 10
415.463806
 20
146.398834
 11
415.463806
 21
144.840256
  0
LINE
  8
0
  6
CONTINUOUS
 10
417.950195
 20
144.840256
 11
417.950195
 21
142.762115
  0
LINE
  8
0
  6
CONTINUOUS
 10
419.323212
 20
150.833862
 11
419.323212
 21
149.404694
  0
LINE
  8
0
  6
CONTINUOUS
 10
417.950195
 20
139.259369
 11
417.950195
 21
138.123444
  0
LINE
  8
0
  6
CONTINUOUS
 10
417.950195
 20
143.355850
 11
417.950195
 21
144.543350
  0
LINE
  8
0
  6
CONTINUOUS
 10
414.981415
 20
139.793350
 11
412.508789
 21
139.793350
  0
LINE
  8
0
  6
CONTINUOUS
 10
417.950195
 20
144.840256
 11
415.463806
 21
144.840256
  0
LINE
  8
0
  6
CONTINUOUS
 10
415.463806
 20
146.398834
 11
419.323212
 21
146.398834
  0
LINE
  8
0
  6
CONTINUOUS
 10
411.548004
 20
152.373444
 11
417.935791
 21
152.373444
  0
LINE
  8
0
  6
CONTINUOUS
 10
417.950195
 20
149.404694
 11
419.323212
 21
149.404694
  0
LINE
  8
0
  6
CONTINUOUS
 10
417.935791
 20
152.373444
 11
419.323212
 21
150.833862
  0
LINE
  8
0
  6
CONTINUOUS
 10
417.950195
 20
149.629303
 11
417.051208
 21
150.480850
  0
LINE
  8
0
  6
CONTINUOUS
 10
411.418793
 20
149.150833
 11
411.418793
 21
140.941269
  0
LINE
  8
0
  6
CONTINUOUS
 10
409.823212
 20
150.164993
 11
409.823212
 21
139.972549
  0
LINE
  8
0
  6
CONTINUOUS
 10
409.823212
 20
139.972549
 11
411.655792
 21
138.123444
  0
LINE
  8
0
  6
CONTINUOUS
 10
411.418793
 20
140.941269
 11
412.508789
 21
139.793350
  0
LINE
  8
0
  6
CONTINUOUS
 10
411.548004
 20
152.373444
 11
409.823212
 21
150.164993
  0
LINE
  8
0
  6
CONTINUOUS
 10
412.491394
 20
150.480850
 11
411.418793
 21
149.150833
  0
LINE
  8
0
  6
CONTINUOUS
 10
417.069214
 20
150.480850
 11
412.491394
 21
150.480850
  0
LINE
  8
0
  6
CONTINUOUS
 10
440.661011
 20
144.784576
 11
440.661011
 21
139.607849
  0
LINE
  8
0
  6
CONTINUOUS
 10
439.028198
 20
150.629303
 11
439.028198
 21
139.607849
  0
LINE
  8
0
  6
CONTINUOUS
 10
429.676788
 20
150.629303
 11
429.676788
 21
139.682037
  0
LINE
  8
0
  6
CONTINUOUS
 10
427.895416
 20
150.629303
 11
427.895416
 21
139.682037
  0
LINE
  8
0
  6
CONTINUOUS
 10
433.573212
 20
149.404694
 11
433.573212
 21
152.373444
  0
LINE
  8
0
  6
CONTINUOUS
 10
424.073212
 20
149.404694
 11
424.073212
 21
152.373444
  0
LINE
  8
0
  6
CONTINUOUS
 10
419.323212
 20
146.398834
 11
419.323212
 21
138.123444
  0
LINE
  8
0
  6
CONTINUOUS
 10
416.596191
 20
138.123444
 11
411.655792
 21
138.123444
  0
LINE
  8
0
  6
CONTINUOUS
 10
527.323242
 20
101.123459
 11
509.823212
 21
101.123459
  0
LINE
  8
0
  6
CONTINUOUS
 10
527.323242
 20
243.123444
 11
508.509613
 21
243.123444
  0
LINE
  8
0
  6
CENTER
 10
746.672913
 20
172.123459
 11
489.980011
 21
172.123459
  0
LINE
  8
0
  6
CONTINUOUS
 10
403.823212
 20
95.006081
 11
403.823212
 21
93.123459
  0
LINE
  8
0
  6
CONTINUOUS
 10
404.654144
 20
95.123459
 11
452.992249
 21
95.123459
  0
LINE
  8
0
  6
CONTINUOUS
 10
366.823212
 20
90.056900
 11
366.823212
 21
74.123459
  0
LINE
  8
0
  6
CONTINUOUS
 10
490.823212
 20
90.056900
 11
490.823212
 21
74.123459
  0
LINE
  8
0
  6
CONTINUOUS
 10
388.700989
 20
223.035400
 11
375.013214
 21
161.411697
  0
LINE
  8
0
  6
CONTINUOUS
 10
385.869995
 20
223.664215
 11
372.182190
 21
162.040512
  0
LINE
  8
0
  6
CONTINUOUS
 10
403.323212
 20
126.123436
 11
454.323212
 21
126.123436
  0
LINE
  8
0
  6
CONTINUOUS
 10
454.323212
 20
123.223457
 11
403.323212
 21
123.223457
  0
LINE
  8
0
  6
CONTINUOUS
 10
482.633209
 20
161.411636
 11
468.945404
 21
223.035339
  0
LINE
  8
0
  6
CONTINUOUS
 10
485.464203
 20
162.040466
 11
471.776398
 21
223.664154
  0
LINE
  8
0
  6
DASHED
 10
374.823212
 20
92.123459
 11
374.823212
 21
74.123459
  0
LINE
  8
0
  6
DASHED
 10
387.823212
 20
92.123459
 11
387.823212
 21
74.123459
  0
LINE
  8
0
  6
DASHED
 10
469.823212
 20
92.123459
 11
469.823212
 21
74.123459
  0
LINE
  8
0
  6
DASHED
 10
482.823212
 20
92.123459
 11
482.823212
 21
74.123459
  0
LINE
  8
0
  6
CONTINUOUS
 10
504.823212
 20
242.429047
 11
504.823212
 21
74.123459
  0
LINE
  8
0
  6
CONTINUOUS
 10
501.373199
 20
249.009064
 11
459.876617
 21
277.703522
  0
LINE
  8
0
  6
CONTINUOUS
 10
356.273193
 20
249.009064
 11
397.769806
 21
277.703522
  0
LINE
  8
0
  6
CONTINUOUS
 10
455.326599
 20
279.123444
 11
402.319794
 21
279.123444
  0
LINE
  8
0
  6
CONTINUOUS
 10
352.823212
 20
242.429016
 11
352.823212
 21
74.123459
  0
LINE
  8
0
  6
CONTINUOUS
 10
504.823212
 20
92.123459
 11
352.823212
 21
92.123459
  0
LINE
  8
0
  6
CONTINUOUS
 10
504.823212
 20
74.123459
 11
352.823212
 21
74.123459
  0
LINE
  8
0
  6
CENTER
 10
476.323212
 20
99.398895
 11
476.323212
 21
65.242218
  0
LINE
  8
0
  6
CENTER
 10
381.323212
 20
99.398895
 11
381.323212
 21
65.534157
  0
LINE
  8
0
  6
CENTER
 10
489.114990
 20
214.123444
 11
365.809998
 21
214.123444
  0
LINE
  8
0
  6
CENTER
 10
428.823212
 20
294.500000
 11
428.823212
 21
63.490578
  0
CIRCLE
  8
0
  6
CONTINUOUS
 10
428.823212
 20
214.123444
 40
39.000000
  0
ARC
  8
0
  6
CONTINUOUS
 10
139.560150
 20
172.123459
 40
81.000000
 50
201.738464
 51
236.251007
  0
ARC
  8
0
  6
CONTINUOUS
 10
139.560150
 20
172.123459
 40
81.000000
 50
139.945450
 51
158.261551
  0
ARC
  8
0
  6
CONTINUOUS
 10
139.560150
 20
172.123459
 40
81.000000
 50
-56.251007
 51
18.722660
  0
ARC
  8
0
  6
CONTINUOUS
 10
367.667206
 20
529.937622
 40
5.000000
 50
270.000000
 51
343.827850
  0
ARC
  8
0
  6
CONTINUOUS
 10
378.079224
 20
529.937622
 40
5.000000
 50
90.000000
 51
163.827835
  0
ARC
  8
0
  6
CONTINUOUS
 10
393.564392
 20
536.937622
 40
5.000000
 50
90.000000
 51
163.610458
  0
ARC
  8
0
  6
CONTINUOUS
 10
381.323212
 20
539.937622
 40
6.500000
 50
-50.284851
 51
231.240692
  0
ARC
  8
0
  6
CONTINUOUS
 10
489.979218
 20
529.937622
 40
5.000000
 50
196.172165
 51
270.000000
  0
ARC
  8
0
  6
CONTINUOUS
 10
479.567200
 20
529.937622
 40
5.000000
 50
16.172159
 51
90.000000
  0
ARC
  8
0
  6
CONTINUOUS
 10
464.082001
 20
536.937622
 40
5.000000
 50
16.389540
 51
90.000000
  0
ARC
  8
0
  6
CONTINUOUS
 10
476.323212
 20
539.937622
 40
6.500000
 50
-51.240692
 51
230.284866
  0
ARC
  8
0
  6
CONTINUOUS
 10
489.979218
 20
429.937592
 40
5.000000
 50
90.000000
 51
163.827835
  0
ARC
  8
0
  6
CONTINUOUS
 10
479.567200
 20
429.937592
 40
5.000000
 50
270.000000
 51
343.827850
  0
ARC
  8
0
  6
CONTINUOUS
 10
464.082001
 20
422.937592
 40
5.000000
 50
270.000000
 51
343.610474
  0
ARC
  8
0
  6
CONTINUOUS
 10
367.667206
 20
429.937592
 40
5.000000
 50
16.172159
 51
90.000000
  0
ARC
  8
0
  6
CONTINUOUS
 10
378.079224
 20
429.937592
 40
5.000000
 50
196.172165
 51
270.000000
  0
ARC
  8
0
  6
CONTINUOUS
 10
393.564392
 20
422.937592
 40
5.000000
 50
196.389542
 51
270.000000
  0
ARC
  8
0
  6
CONTINUOUS
 10
500.684387
 20
532.937622
 40
8.000000
 50
270.000000
 51
345.000000
  0
ARC
  8
0
  6
CONTINUOUS
 10
519.928284
 20
542.937622
 40
8.000000
 50
90.000000
 51
165.000000
  0
ARC
  8
0
  6
CONTINUOUS
 10
519.928284
 20
416.937592
 40
8.000000
 50
195.000000
 51
270.000000
  0
ARC
  8
0
  6
CONTINUOUS
 10
500.684387
 20
426.937592
 40
8.000000
 50
15.000000
 51
90.000000
  0
ARC
  8
0
  6
CONTINUOUS
 10
501.089844
 20
521.937622
 40
3.000000
 50
1.000000
 51
90.000000
  0
ARC
  8
0
  6
CONTINUOUS
 10
501.089844
 20
437.937592
 40
3.000000
 50
270.000000
 51
359.000000
  0
ARC
  8
0
  6
CONTINUOUS
 10
476.323212
 20
419.937592
 40
6.500000
 50
-230.284866
 51
51.240688
  0
ARC
  8
0
  6
CONTINUOUS
 10
381.323212
 20
419.937592
 40
6.500000
 50
-231.240692
 51
50.284863
  0
ARC
  8
0
  6
CONTINUOUS
 10
356.556580
 20
521.937622
 40
3.000000
 50
90.000000
 51
179.000000
  0
ARC
  8
0
  6
CONTINUOUS
 10
356.556580
 20
437.937592
 40
3.000000
 50
181.000000
 51
270.000000
  0
ARC
  8
0
  6
CONTINUOUS
 10
487.273254
 20
546.937622
 40
8.000000
 50
20.496618
 51
90.000000
  0
ARC
  8
0
  6
CONTINUOUS
 10
487.273254
 20
412.937592
 40
8.000000
 50
270.000000
 51
339.503387
  0
ARC
  8
0
  6
CONTINUOUS
 10
370.373138
 20
546.937622
 40
8.000000
 50
90.000000
 51
159.503387
  0
ARC
  8
0
  6
CONTINUOUS
 10
370.373138
 20
412.937592
 40
8.000000
 50
200.496613
 51
270.000000
  0
ARC
  8
0
  6
CONTINUOUS
 10
139.560150
 20
172.123459
 40
72.000000
 50
149.441574
 51
231.317810
  0
ARC
  8
0
  6
CONTINUOUS
 10
139.560150
 20
172.123459
 40
72.000000
 50
-51.317810
 51
21.168446
  0
ARC
  8
0
  6
CONTINUOUS
 10
452.992249
 20
92.123459
 40
3.000000
 50
59.036243
 51
90.000000
  0
ARC
  8
0
  6
CONTINUOUS
 10
460.208130
 20
97.123459
 40
5.000000
 50
239.036240
 51
270.000000
  0
ARC
  8
0
  6
CONTINUOUS
 10
454.823212
 20
93.123459
 40
1.000000
 50
180.000000
 51
270.000000
  0
ARC
  8
0
  6
CONTINUOUS
 10
404.654144
 20
92.123459
 40
3.000000
 50
90.000000
 51
120.963760
  0
ARC
  8
0
  6
CONTINUOUS
 10
397.438293
 20
97.123459
 40
5.000000
 50
270.000000
 51
300.963745
  0
ARC
  8
0
  6
CONTINUOUS
 10
67.060143
 20
89.860985
 40
2.500000
 50
95.710594
 51
180.000000
  0
ARC
  8
0
  6
CONTINUOUS
 10
91.560143
 20
97.838425
 40
3.000000
 50
-84.289398
 51
0.000000
  0
ARC
  8
0
  6
CONTINUOUS
 10
212.060135
 20
89.860985
 40
2.500000
 50
0.000000
 51
84.289406
  0
ARC
  8
0
  6
CONTINUOUS
 10
187.560135
 20
97.838425
 40
3.000000
 50
180.000000
 51
264.289398
  0
ARC
  8
0
  6
CONTINUOUS
 10
67.560143
 20
144.054825
 40
2.000000
 50
260.439636
 51
268.000000
  0
ARC
  8
0
  6
CONTINUOUS
 10
61.774799
 20
185.923447
 40
1.000000
 50
92.000000
 51
268.000000
  0
ARC
  8
0
  6
CONTINUOUS
 10
63.513844
 20
150.723465
 40
1.000000
 50
92.000000
 51
268.000000
  0
ARC
  8
0
  6
CONTINUOUS
 10
70.495590
 20
148.478439
 40
1.000000
 50
18.899216
 51
88.000000
  0
ARC
  8
0
  6
CONTINUOUS
 10
71.659081
 20
145.319656
 40
1.000000
 50
-88.000000
 51
21.541519
  0
ARC
  8
0
  6
CONTINUOUS
 10
73.593681
 20
140.859695
 40
1.000000
 50
25.357864
 51
88.000000
  0
ARC
  8
0
  6
CONTINUOUS
 10
66.075462
 20
143.123459
 40
1.000000
 50
92.000000
 51
268.000000
  0
ARC
  8
0
  6
CONTINUOUS
 10
67.487572
 20
160.524185
 40
1.000000
 50
-88.000000
 51
9.142731
  0
ARC
  8
0
  6
CONTINUOUS
 10
69.131027
 20
152.920822
 40
1.000000
 50
-88.000000
 51
15.251099
  0
ARC
  8
0
  6
CONTINUOUS
 10
68.342033
 20
156.092911
 40
1.000000
 50
12.685333
 51
88.000000
  0
ARC
  8
0
  6
CONTINUOUS
 10
61.774799
 20
158.323471
 40
1.000000
 50
92.000000
 51
268.000000
  0
ARC
  8
0
  6
CONTINUOUS
 10
67.047295
 20
163.704208
 40
1.000000
 50
6.622787
 51
88.000000
  0
ARC
  8
0
  6
CONTINUOUS
 10
66.669479
 20
168.129501
 40
1.000000
 50
-88.000000
 51
3.136307
  0
ARC
  8
0
  6
CONTINUOUS
 10
60.803822
 20
165.923447
 40
1.000000
 50
92.000000
 51
268.000000
  0
ARC
  8
0
  6
CONTINUOUS
 10
67.487572
 20
183.722733
 40
1.000000
 50
-9.142731
 51
88.000000
  0
ARC
  8
0
  6
CONTINUOUS
 10
66.669479
 20
176.117416
 40
1.000000
 50
-3.136322
 51
88.000000
  0
ARC
  8
0
  6
CONTINUOUS
 10
67.047295
 20
180.542709
 40
1.000000
 50
272.000000
 51
353.377228
  0
ARC
  8
0
  6
CONTINUOUS
 10
60.803822
 20
178.323471
 40
1.000000
 50
92.000000
 51
268.000000
  0
ARC
  8
0
  6
CONTINUOUS
 10
70.495590
 20
195.768478
 40
1.000000
 50
272.000000
 51
341.100769
  0
ARC
  8
0
  6
CONTINUOUS
 10
68.342033
 20
188.154007
 40
1.000000
 50
272.000000
 51
347.314667
  0
ARC
  8
0
  6
CONTINUOUS
 10
69.131027
 20
191.326096
 40
1.000000
 50
-15.251099
 51
88.000000
  0
ARC
  8
0
  6
CONTINUOUS
 10
63.513844
 20
193.523453
 40
1.000000
 50
92.000000
 51
268.000000
  0
ARC
  8
0
  6
CONTINUOUS
 10
71.659081
 20
198.927261
 40
1.000000
 50
-21.541504
 51
88.000000
  0
ARC
  8
0
  6
CONTINUOUS
 10
73.593681
 20
203.387222
 40
1.000000
 50
272.000000
 51
334.642151
  0
ARC
  8
0
  6
CONTINUOUS
 10
66.075462
 20
201.123459
 40
1.000000
 50
92.000000
 51
268.000000
  0
ARC
  8
0
  6
CONTINUOUS
 10
209.570419
 20
135.523453
 40
1.000000
 50
-88.000000
 51
88.000000
  0
ARC
  8
0
  6
CONTINUOUS
 10
203.945541
 20
137.721115
 40
1.000000
 50
151.883545
 51
268.000000
  0
ARC
  8
0
  6
CONTINUOUS
 10
201.339371
 20
133.234818
 40
1.000000
 50
92.000000
 51
147.810486
  0
ARC
  8
0
  6
CONTINUOUS
 10
69.549850
 20
135.523453
 40
1.000000
 50
92.000000
 51
268.000000
  0
ARC
  8
0
  6
CONTINUOUS
 10
83.637321
 20
116.323471
 40
1.000000
 50
92.000000
 51
268.000000
  0
ARC
  8
0
  6
CONTINUOUS
 10
92.627090
 20
109.823471
 40
1.000000
 50
92.000000
 51
268.000000
  0
ARC
  8
0
  6
CONTINUOUS
 10
77.592400
 20
123.123459
 40
1.000000
 50
92.000000
 51
268.000000
  0
ARC
  8
0
  6
CONTINUOUS
 10
83.528397
 20
125.331955
 40
1.000000
 50
-88.000000
 51
39.864883
  0
ARC
  8
0
  6
CONTINUOUS
 10
87.677299
 20
120.770065
 40
1.000000
 50
44.706161
 51
88.000000
  0
ARC
  8
0
  6
CONTINUOUS
 10
75.174728
 20
137.721115
 40
1.000000
 50
-88.000000
 51
28.116451
  0
ARC
  8
0
  6
CONTINUOUS
 10
77.780907
 20
133.234818
 40
1.000000
 50
32.189507
 51
88.000000
  0
ARC
  8
0
  6
CONTINUOUS
 10
89.977219
 20
118.546066
 40
1.000000
 50
-88.000000
 51
47.217453
  0
ARC
  8
0
  6
CONTINUOUS
 10
73.602036
 20
140.842026
 40
1.000000
 50
25.373219
 51
88.000000
  0
ARC
  8
0
  6
CONTINUOUS
 10
69.549850
 20
208.723465
 40
1.000000
 50
92.000000
 51
268.000000
  0
ARC
  8
0
  6
CONTINUOUS
 10
67.560143
 20
200.192093
 40
2.000000
 50
92.000000
 51
99.560356
  0
ARC
  8
0
  6
CONTINUOUS
 10
75.174728
 20
206.525803
 40
1.000000
 50
-28.116455
 51
88.000000
  0
ARC
  8
0
  6
CONTINUOUS
 10
73.602036
 20
203.404892
 40
1.000000
 50
272.000000
 51
334.626770
  0
ARC
  8
0
  6
CONTINUOUS
 10
77.592400
 20
221.123459
 40
1.000000
 50
92.000000
 51
268.000000
  0
ARC
  8
0
  6
CONTINUOUS
 10
195.482925
 20
116.323471
 40
1.000000
 50
-88.000000
 51
88.000000
  0
ARC
  8
0
  6
CONTINUOUS
 10
186.493149
 20
109.823471
 40
1.000000
 50
-88.000000
 51
88.000000
  0
ARC
  8
0
  6
CONTINUOUS
 10
195.591873
 20
125.331955
 40
1.000000
 50
140.135117
 51
268.000000
  0
ARC
  8
0
  6
CONTINUOUS
 10
191.442978
 20
120.770065
 40
1.000000
 50
92.000000
 51
135.293839
  0
ARC
  8
0
  6
CONTINUOUS
 10
189.143021
 20
118.546066
 40
1.000000
 50
132.782547
 51
268.000000
  0
ARC
  8
0
  6
CONTINUOUS
 10
201.527847
 20
123.123459
 40
1.000000
 50
-88.000000
 51
88.000000
  0
ARC
  8
0
  6
CONTINUOUS
 10
217.345474
 20
185.923447
 40
1.000000
 50
-88.000000
 51
88.000000
  0
ARC
  8
0
  6
CONTINUOUS
 10
215.606430
 20
150.723465
 40
1.000000
 50
-88.000000
 51
88.000000
  0
ARC
  8
0
  6
CONTINUOUS
 10
208.624680
 20
148.478439
 40
1.000000
 50
92.000000
 51
161.100784
  0
ARC
  8
0
  6
CONTINUOUS
 10
207.461197
 20
145.319656
 40
1.000000
 50
158.458481
 51
268.000000
  0
ARC
  8
0
  6
CONTINUOUS
 10
205.526596
 20
140.859695
 40
1.000000
 50
92.000000
 51
154.642136
  0
ARC
  8
0
  6
CONTINUOUS
 10
213.044815
 20
143.123459
 40
1.000000
 50
-88.000000
 51
88.000000
  0
ARC
  8
0
  6
CONTINUOUS
 10
211.632706
 20
160.524185
 40
1.000000
 50
170.857269
 51
268.000000
  0
ARC
  8
0
  6
CONTINUOUS
 10
209.989243
 20
152.920822
 40
1.000000
 50
164.748901
 51
268.000000
  0
ARC
  8
0
  6
CONTINUOUS
 10
210.778244
 20
156.092911
 40
1.000000
 50
92.000000
 51
167.314667
  0
ARC
  8
0
  6
CONTINUOUS
 10
217.345474
 20
158.323471
 40
1.000000
 50
-88.000000
 51
88.000000
  0
ARC
  8
0
  6
CONTINUOUS
 10
212.072983
 20
163.704208
 40
1.000000
 50
92.000000
 51
173.377213
  0
ARC
  8
0
  6
CONTINUOUS
 10
212.450790
 20
168.129501
 40
1.000000
 50
176.863693
 51
268.000000
  0
ARC
  8
0
  6
CONTINUOUS
 10
218.316452
 20
165.923447
 40
1.000000
 50
-88.000000
 51
88.000000
  0
ARC
  8
0
  6
CONTINUOUS
 10
211.632706
 20
183.722733
 40
1.000000
 50
92.000000
 51
189.142731
  0
ARC
  8
0
  6
CONTINUOUS
 10
212.450790
 20
176.117416
 40
1.000000
 50
92.000000
 51
183.136307
  0
ARC
  8
0
  6
CONTINUOUS
 10
212.072983
 20
180.542709
 40
1.000000
 50
186.622787
 51
268.000000
  0
ARC
  8
0
  6
CONTINUOUS
 10
218.316452
 20
178.323471
 40
1.000000
 50
-88.000000
 51
88.000000
  0
ARC
  8
0
  6
CONTINUOUS
 10
208.624680
 20
195.768478
 40
1.000000
 50
198.899216
 51
268.000000
  0
ARC
  8
0
  6
CONTINUOUS
 10
210.778244
 20
188.154007
 40
1.000000
 50
192.685333
 51
268.000000
  0
ARC
  8
0
  6
CONTINUOUS
 10
209.989243
 20
191.326096
 40
1.000000
 50
92.000000
 51
195.251099
  0
ARC
  8
0
  6
CONTINUOUS
 10
215.606430
 20
193.523453
 40
1.000000
 50
-88.000000
 51
88.000000
  0
ARC
  8
0
  6
CONTINUOUS
 10
214.560135
 20
214.123459
 40
5.000000
 50
90.000000
 51
270.000000
  0
ARC
  8
0
  6
CONTINUOUS
 10
139.560150
 20
172.123459
 40
71.000000
 50
150.837296
 51
230.668701
  0
ARC
  8
0
  6
CONTINUOUS
 10
139.560150
 20
172.123459
 40
71.000000
 50
-50.668701
 51
21.481260
  0
ARC
  8
0
  6
CONTINUOUS
 10
212.060135
 20
89.623459
 40
2.500000
 50
0.000000
 51
90.000000
  0
ARC
  8
0
  6
CONTINUOUS
 10
188.560135
 20
96.123474
 40
4.000000
 50
180.000000
 51
270.000000
  0
ARC
  8
0
  6
CONTINUOUS
 10
67.060165
 20
89.623474
 40
2.500000
 50
90.000000
 51
180.000000
  0
ARC
  8
0
  6
CONTINUOUS
 10
90.560143
 20
96.123421
 40
4.000000
 50
-90.000000
 51
0.000000
  0
ARC
  8
0
  6
CONTINUOUS
 10
189.560120
 20
261.864685
 40
5.000000
 50
180.000000
 51
253.610794
  0
ARC
  8
0
  6
CONTINUOUS
 10
198.560165
 20
170.071701
 40
4.000000
 50
106.389999
 51
180.000000
  0
ARC
  8
0
  6
CONTINUOUS
 10
189.560165
 20
119.467499
 40
5.000000
 50
106.172501
 51
180.000000
  0
ARC
  8
0
  6
CONTINUOUS
 10
89.560165
 20
119.467438
 40
5.000000
 50
0.000000
 51
73.827919
  0
ARC
  8
0
  6
CONTINUOUS
 10
80.560165
 20
170.071671
 40
4.000000
 50
0.000000
 51
73.610649
  0
ARC
  8
0
  6
CONTINUOUS
 10
89.560143
 20
261.864624
 40
5.000000
 50
-73.610229
 51
0.000000
  0
ARC
  8
0
  6
CONTINUOUS
 10
89.560120
 20
129.879501
 40
5.000000
 50
180.000000
 51
253.828201
  0
ARC
  8
0
  6
CONTINUOUS
 10
189.560135
 20
129.879456
 40
5.000000
 50
-73.827698
 51
0.000000
  0
ARC
  8
0
  6
CONTINUOUS
 10
196.560135
 20
178.864639
 40
5.000000
 50
-73.610321
 51
0.000000
  0
ARC
  8
0
  6
CONTINUOUS
 10
82.560120
 20
178.864685
 40
5.000000
 50
180.000000
 51
253.610794
  0
ARC
  8
0
  6
CONTINUOUS
 10
196.560165
 20
249.382263
 40
5.000000
 50
0.000000
 51
73.610527
  0
ARC
  8
0
  6
CONTINUOUS
 10
82.560165
 20
249.382294
 40
5.000000
 50
106.389900
 51
180.000000
  0
ARC
  8
0
  6
CONTINUOUS
 10
181.560165
 20
275.390198
 40
3.000000
 50
0.000000
 51
89.000580
  0
ARC
  8
0
  6
CONTINUOUS
 10
97.560158
 20
275.389740
 40
3.000000
 50
91.000603
 51
180.000000
  0
ARC
  8
0
  6
CONTINUOUS
 10
428.823212
 20
214.123444
 40
16.000000
 50
-161.790100
 51
161.790100
  0
ARC
  8
0
  6
CONTINUOUS
 10
460.823212
 20
222.900543
 40
40.000000
 50
0.000000
 51
48.189659
  0
ARC
  8
0
  6
CONTINUOUS
 10
396.823212
 20
222.900543
 40
40.000000
 50
131.810806
 51
180.000000
  0
ARC
  8
0
  6
CONTINUOUS
 10
396.823212
 20
151.346359
 40
40.000000
 50
180.000000
 51
228.190094
  0
ARC
  8
0
  6
CONTINUOUS
 10
460.823212
 20
151.346359
 40
40.000000
 50
-48.188782
 51
0.000000
  0
ARC
  8
0
  6
CONTINUOUS
 10
428.823212
 20
187.123444
 40
88.000000
 50
228.189804
 51
311.810791
  0
ARC
  8
0
  6
CONTINUOUS
 10
428.823212
 20
187.123444
 40
88.000000
 50
48.189640
 51
131.810501
  0
ARC
  8
0
  6
CONTINUOUS
 10
444.019409
 20
148.569717
 40
2.320524
 50
-82.585266
 51
62.411850
  0
ARC
  8
0
  6
CONTINUOUS
 10
444.019409
 20
148.569717
 40
3.803712
 50
-73.981873
 51
90.003510
  0
ARC
  8
0
  6
CONTINUOUS
 10
414.981415
 20
142.762115
 40
2.968750
 50
-89.999786
 51
0.000109
  0
ARC
  8
0
  6
CONTINUOUS
 10
341.755798
 20
172.123459
 40
172.067474
 50
-18.613190
 51
18.613199
  0
ARC
  8
0
  6
CONTINUOUS
 10
509.823212
 20
96.123436
 40
5.000000
 50
90.000000
 51
180.000000
  0
ARC
  8
0
  6
CONTINUOUS
 10
508.509613
 20
248.123444
 40
5.000000
 50
205.978394
 51
270.000000
  0
ARC
  8
0
  6
CONTINUOUS
 10
402.823212
 20
93.123459
 40
1.000000
 50
-90.000000
 51
0.000000
  0
ARC
  8
0
  6
CONTINUOUS
 10
428.823212
 20
214.123444
 40
41.099998
 50
-192.523193
 51
12.523100
  0
ARC
  8
0
  6
CONTINUOUS
 10
403.323212
 20
155.123459
 40
31.900000
 50
167.476807
 51
270.000000
  0
ARC
  8
0
  6
CONTINUOUS
 10
454.323212
 20
155.123459
 40
31.900000
 50
-90.000000
 51
12.523100
  0
ARC
  8
0
  6
CONTINUOUS
 10
403.323212
 20
155.123459
 40
29.000000
 50
167.476807
 51
270.000000
  0
ARC
  8
0
  6
CONTINUOUS
 10
454.323212
 20
155.123459
 40
29.000000
 50
-90.000000
 51
12.523100
  0
ARC
  8
0
  6
CONTINUOUS
 10
428.823212
 20
214.123444
 40
44.000000
 50
12.523100
 51
167.476807
  0
ARC
  8
0
  6
CONTINUOUS
 10
496.823212
 20
242.429047
 40
8.000000
 50
0.000000
 51
55.336201
  0
ARC
  8
0
  6
CONTINUOUS
 10
455.326599
 20
271.123444
 40
8.000000
 50
55.336300
 51
90.000000
  0
ARC
  8
0
  6
CONTINUOUS
 10
360.823212
 20
242.428955
 40
8.000000
 50
124.663300
 51
180.000000
  0
ARC
  8
0
  6
CONTINUOUS
 10
402.319794
 20
271.123444
 40
8.000000
 50
90.000000
 51
124.663300
  0
LINE
  8
0
  6
CONTINUOUS
 10
65.560143
 20
142.266449
 11
65.560143
 21
142.123474
  0
LINE
  8
0
  6
CONTINUOUS
 10
65.560143
 20
149.651398
 11
65.560143
 21
143.980453
  0
LINE
  8
0
  6
CONTINUOUS
 10
64.060143
 20
151.743149
 11
64.060143
 21
157.243042
  0
LINE
  8
0
  6
CONTINUOUS
 10
65.560143
 20
157.190659
 11
65.560143
 21
151.795517
  0
LINE
  8
0
  6
CONTINUOUS
 10
64.060143
 20
159.403885
 11
64.060143
 21
164.809128
  0
LINE
  8
0
  6
CONTINUOUS
 10
65.560143
 20
164.756744
 11
65.560143
 21
159.456268
  0
LINE
  8
0
  6
CONTINUOUS
 10
64.060143
 20
167.037766
 11
64.060143
 21
177.209137
  0
LINE
  8
0
  6
CONTINUOUS
 10
65.560143
 20
177.156769
 11
65.560143
 21
167.090149
  0
LINE
  8
0
  6
CONTINUOUS
 10
64.060143
 20
179.437790
 11
64.060143
 21
184.843033
  0
LINE
  8
0
  6
CONTINUOUS
 10
65.560143
 20
184.790649
 11
65.560143
 21
179.490173
  0
LINE
  8
0
  6
CONTINUOUS
 10
64.060143
 20
187.003860
 11
64.060143
 21
192.503769
  0
LINE
  8
0
  6
CONTINUOUS
 10
65.560143
 20
192.451385
 11
65.560143
 21
187.056244
  0
LINE
  8
0
  6
CONTINUOUS
 10
64.060143
 20
194.543137
 11
64.060143
 21
212.423447
  0
LINE
  8
0
  6
CONTINUOUS
 10
65.560143
 20
200.266449
 11
65.560143
 21
194.595520
  0
TEXT
  8
0
 10
7.000000
 20
-2.000000
 40
10.000000
 41
1.000000
  1
H2LB-32L-5~60-075W
 50
0.000000
  0
ENDSEC
  0
EOF
