  0
SECTION
  2
HEADER
  9
$CLAYER
  8
1
  9
$LTSCALE
 40
3.0
  0
ENDSEC
  0
SECTION
  2
TABLES
  0
TABLE
  2
LTYPE
 70
     4
  0
LTYPE
  2
CONTINUOUS
  3
solid line
 70
    64
 72
    65
 73
     0
 40
0.0
  0
LTYPE
  2
DASHED
  3
__ __ __ __ __ __ __ __ __ __ __ __ __ __ __
 70
    64
 72
    65
 73
     2
 40
0.75
 49
0.5
 49
-0.25
  0
LTYPE
  2
CENTER
  3
____ _ ____ _ ____ _ ____ _ ____ _ ____ _ ____
 70
    64
 72
    65
 73
     4
 40
2.0
 49
1.25
 49
-0.25
 49
0.25
 49
-0.25
  0
LTYPE
  2
PHANTOM
  3
_____ _ _ _____ _ _ _____ _ _ _____ _ _ ____
 70
    64
 72
    65
 73
     6
 40
2.5
 49
1.25
 49
-0.25
 49
0.25
 49
-0.25
 49
0.25
 49
-0.25
  0
ENDTAB
  0
TABLE
  2
LAYER
 70
     1
  0
LAYER
  2
0
 70
    64
 62
     7
  6
CONTINUOUS
  0
ENDTAB
  0
TABLE
  2
STYLE
 70
     1
  0
STYLE
  2
STANDARD
 70
     0
 40
0.000000
 41
1.000000
 50
0.000000
 71
     0
 42
3.000000
  3
txt
  4
BIGFONT
  0
ENDTAB
  0
ENDSEC
  0
SECTION
  2
BLOCKS
  0
ENDSEC
  0
SECTION
  2
ENTITIES
  0
LINE
  8
0
  6
CONTINUOUS
 10
55.651794
 20
573.437500
 11
65.190987
 21
573.520752
  0
LINE
  8
0
  6
CONTINUOUS
 10
100.169601
 20
579.424316
 11
68.814896
 21
579.424316
  0
LINE
  8
0
  6
CONTINUOUS
 10
101.682495
 20
240.276855
 11
101.682495
 21
200.667831
  0
LINE
  8
0
  6
CONTINUOUS
 10
55.651794
 20
423.437500
 11
65.190987
 21
423.354248
  0
LINE
  8
0
  6
CONTINUOUS
 10
55.651596
 20
235.789993
 11
58.880795
 21
235.818176
  0
LINE
  8
0
  6
CONTINUOUS
 10
55.651596
 20
85.789993
 11
58.880795
 21
85.761810
  0
LINE
  8
0
  6
CONTINUOUS
 10
100.169403
 20
82.803200
 11
61.871784
 21
82.803200
  0
LINE
  8
0
  6
CONTINUOUS
 10
100.169403
 20
241.776794
 11
61.346275
 21
241.776794
  0
LINE
  8
0
  6
CONTINUOUS
 10
100.169601
 20
417.450714
 11
68.814896
 21
417.450714
  0
LINE
  8
0
  6
CONTINUOUS
 10
101.682693
 20
577.924377
 11
101.682693
 21
418.950653
  0
LINE
  8
0
  6
CONTINUOUS
 10
102.682503
 20
100.290024
 11
102.682503
 21
88.789993
  0
LINE
  8
0
  6
CONTINUOUS
 10
108.682472
 20
90.029701
 11
111.682472
 21
91.163055
  0
LINE
  8
0
  6
CONTINUOUS
 10
111.182472
 20
90.974159
 11
111.182472
 21
85.102524
  0
LINE
  8
0
  6
CONTINUOUS
 10
110.982452
 20
90.898598
 11
110.982452
 21
85.102524
  0
LINE
  8
0
  6
CONTINUOUS
 10
110.782478
 20
90.823036
 11
110.782478
 21
85.102524
  0
LINE
  8
0
  6
CONTINUOUS
 10
110.582497
 20
90.747498
 11
110.582497
 21
85.102524
  0
LINE
  8
0
  6
CONTINUOUS
 10
110.382515
 20
90.671944
 11
110.382515
 21
85.102524
  0
LINE
  8
0
  6
CONTINUOUS
 10
110.182472
 20
90.596420
 11
110.182472
 21
85.102524
  0
LINE
  8
0
  6
CONTINUOUS
 10
109.982452
 20
90.520821
 11
109.982452
 21
85.102524
  0
LINE
  8
0
  6
CONTINUOUS
 10
109.782478
 20
90.445297
 11
109.782478
 21
85.102524
  0
LINE
  8
0
  6
CONTINUOUS
 10
109.582497
 20
90.369743
 11
109.582497
 21
85.102524
  0
LINE
  8
0
  6
CONTINUOUS
 10
109.382515
 20
90.294174
 11
109.382515
 21
85.102524
  0
LINE
  8
0
  6
CONTINUOUS
 10
109.182472
 20
90.218597
 11
109.182472
 21
85.102524
  0
LINE
  8
0
  6
CONTINUOUS
 10
108.182472
 20
88.527184
 11
108.182472
 21
82.883759
  0
LINE
  8
0
  6
CONTINUOUS
 10
107.982452
 20
88.611053
 11
107.982452
 21
82.883759
  0
LINE
  8
0
  6
CONTINUOUS
 10
107.782478
 20
88.694923
 11
107.782478
 21
82.883759
  0
LINE
  8
0
  6
CONTINUOUS
 10
107.582497
 20
88.778778
 11
107.582497
 21
82.883759
  0
LINE
  8
0
  6
CONTINUOUS
 10
107.382515
 20
88.862663
 11
107.382515
 21
82.883759
  0
LINE
  8
0
  6
CONTINUOUS
 10
107.182472
 20
88.946518
 11
107.182472
 21
82.883759
  0
LINE
  8
0
  6
CONTINUOUS
 10
106.982452
 20
89.030380
 11
106.982452
 21
82.883759
  0
LINE
  8
0
  6
CONTINUOUS
 10
106.782478
 20
89.114243
 11
106.782478
 21
82.883759
  0
LINE
  8
0
  6
CONTINUOUS
 10
106.582497
 20
89.198158
 11
106.582497
 21
82.883759
  0
LINE
  8
0
  6
CONTINUOUS
 10
106.382515
 20
89.281998
 11
106.382515
 21
82.883759
  0
LINE
  8
0
  6
CONTINUOUS
 10
106.182472
 20
89.365875
 11
106.182472
 21
82.883759
  0
LINE
  8
0
  6
CONTINUOUS
 10
105.682472
 20
89.575539
 11
108.682472
 21
88.317474
  0
LINE
  8
0
  6
CONTINUOUS
 10
105.682472
 20
98.290024
 11
105.682472
 21
89.575539
  0
LINE
  8
0
  6
CONTINUOUS
 10
108.682472
 20
98.290024
 11
108.682472
 21
88.317474
  0
LINE
  8
0
  6
CONTINUOUS
 10
111.682472
 20
98.290024
 11
111.682472
 21
91.163055
  0
LINE
  8
0
  6
CONTINUOUS
 10
103.682472
 20
100.290024
 11
101.682472
 21
100.290024
  0
LINE
  8
0
  6
CONTINUOUS
 10
103.682472
 20
103.290024
 11
101.682472
 21
103.290024
  0
LINE
  8
0
  6
CONTINUOUS
 10
103.682472
 20
106.290024
 11
101.682472
 21
106.290024
  0
LINE
  8
0
  6
CONTINUOUS
 10
221.682495
 20
210.790009
 11
106.682503
 21
210.790009
  0
LINE
  8
0
  6
CONTINUOUS
 10
221.682495
 20
208.790009
 11
106.682503
 21
208.790009
  0
LINE
  8
0
  6
CONTINUOUS
 10
221.682495
 20
217.589996
 11
106.682503
 21
217.589996
  0
LINE
  8
0
  6
CONTINUOUS
 10
221.682495
 20
215.589996
 11
106.682503
 21
215.589996
  0
LINE
  8
0
  6
CONTINUOUS
 10
221.682495
 20
224.089996
 11
106.682503
 21
224.089996
  0
LINE
  8
0
  6
CONTINUOUS
 10
221.682495
 20
222.089996
 11
106.682503
 21
222.089996
  0
LINE
  8
0
  6
CONTINUOUS
 10
221.682495
 20
230.589996
 11
106.682503
 21
230.589996
  0
LINE
  8
0
  6
CONTINUOUS
 10
221.682495
 20
228.589996
 11
106.682503
 21
228.589996
  0
LINE
  8
0
  6
CONTINUOUS
 10
106.682503
 20
231.844833
 11
221.682495
 21
231.844833
  0
LINE
  8
0
  6
CONTINUOUS
 10
107.226906
 20
236.790009
 11
221.138092
 21
236.790009
  0
LINE
  8
0
  6
CONTINUOUS
 10
221.682495
 20
165.990005
 11
190.182495
 21
165.990005
  0
LINE
  8
0
  6
CONTINUOUS
 10
221.682495
 20
167.990005
 11
190.182495
 21
167.990005
  0
LINE
  8
0
  6
CONTINUOUS
 10
221.682495
 20
175.589996
 11
190.182495
 21
175.589996
  0
LINE
  8
0
  6
CONTINUOUS
 10
221.682495
 20
173.589981
 11
190.182495
 21
173.589981
  0
LINE
  8
0
  6
CONTINUOUS
 10
221.682495
 20
183.190002
 11
190.182495
 21
183.190002
  0
LINE
  8
0
  6
CONTINUOUS
 10
221.682495
 20
181.190002
 11
190.182495
 21
181.190002
  0
LINE
  8
0
  6
CONTINUOUS
 10
221.682495
 20
188.790009
 11
190.182495
 21
188.790009
  0
LINE
  8
0
  6
CONTINUOUS
 10
221.682495
 20
132.789993
 11
190.182495
 21
132.789993
  0
LINE
  8
0
  6
CONTINUOUS
 10
221.682495
 20
140.389999
 11
190.182495
 21
140.389999
  0
LINE
  8
0
  6
CONTINUOUS
 10
221.682495
 20
138.389999
 11
190.182495
 21
138.389999
  0
LINE
  8
0
  6
CONTINUOUS
 10
221.682495
 20
147.990005
 11
190.182495
 21
147.990005
  0
LINE
  8
0
  6
CONTINUOUS
 10
221.682495
 20
145.990005
 11
190.182495
 21
145.990005
  0
LINE
  8
0
  6
CONTINUOUS
 10
221.682495
 20
153.589981
 11
190.182495
 21
153.589981
  0
LINE
  8
0
  6
CONTINUOUS
 10
221.682495
 20
155.589981
 11
190.182495
 21
155.589981
  0
LINE
  8
0
  6
CONTINUOUS
 10
221.682495
 20
190.790009
 11
186.182617
 21
190.790009
  0
LINE
  8
0
  6
CONTINUOUS
 10
221.682495
 20
198.389999
 11
184.330978
 21
198.389999
  0
LINE
  8
0
  6
CONTINUOUS
 10
221.682495
 20
196.389999
 11
185.499237
 21
196.389999
  0
LINE
  8
0
  6
CONTINUOUS
 10
221.682495
 20
112.789993
 11
106.682503
 21
112.789993
  0
LINE
  8
0
  6
CONTINUOUS
 10
221.682495
 20
125.189987
 11
185.499237
 21
125.189987
  0
LINE
  8
0
  6
CONTINUOUS
 10
221.682495
 20
123.189987
 11
184.330963
 21
123.189987
  0
LINE
  8
0
  6
CONTINUOUS
 10
221.682495
 20
130.789993
 11
186.182617
 21
130.789993
  0
LINE
  8
0
  6
CONTINUOUS
 10
221.682495
 20
99.490005
 11
111.591965
 21
99.490005
  0
LINE
  8
0
  6
CONTINUOUS
 10
221.682495
 20
105.990005
 11
106.682503
 21
105.990005
  0
LINE
  8
0
  6
CONTINUOUS
 10
221.682495
 20
103.990005
 11
109.295860
 21
103.990005
  0
LINE
  8
0
  6
CONTINUOUS
 10
221.682495
 20
110.789993
 11
106.682503
 21
110.789993
  0
LINE
  8
0
  6
CONTINUOUS
 10
108.682472
 20
89.735153
 11
221.682495
 21
89.735153
  0
LINE
  8
0
  6
CONTINUOUS
 10
221.682495
 20
92.990005
 11
111.682472
 21
92.990005
  0
LINE
  8
0
  6
CONTINUOUS
 10
221.682495
 20
90.990005
 11
111.224411
 21
90.990005
  0
LINE
  8
0
  6
CONTINUOUS
 10
221.682495
 20
97.490005
 11
111.682472
 21
97.490005
  0
LINE
  8
0
  6
CONTINUOUS
 10
107.226906
 20
84.789993
 11
221.138092
 21
84.789993
  0
LINE
  8
0
  6
CONTINUOUS
 10
242.682495
 20
88.789993
 11
223.521606
 21
88.789993
  0
LINE
  8
0
  6
CONTINUOUS
 10
222.122894
 20
85.616348
 11
222.536789
 21
87.963638
  0
LINE
  8
0
  6
CONTINUOUS
 10
222.682495
 20
91.990005
 11
222.682495
 21
88.333969
  0
LINE
  8
0
  6
CONTINUOUS
 10
242.682495
 20
232.790009
 11
223.521606
 21
232.790009
  0
LINE
  8
0
  6
CONTINUOUS
 10
222.682495
 20
229.589996
 11
222.682495
 21
233.246017
  0
LINE
  8
0
  6
CONTINUOUS
 10
222.122894
 20
235.963654
 11
222.536789
 21
233.616364
  0
LINE
  8
0
  6
CONTINUOUS
 10
102.682503
 20
232.790009
 11
102.682503
 21
201.147781
  0
LINE
  8
0
  6
CONTINUOUS
 10
104.843391
 20
88.789993
 11
102.682503
 21
88.789993
  0
LINE
  8
0
  6
CONTINUOUS
 10
106.242088
 20
85.616348
 11
105.828209
 21
87.963638
  0
LINE
  8
0
  6
CONTINUOUS
 10
105.682503
 20
91.990005
 11
105.682503
 21
88.333969
  0
LINE
  8
0
  6
CONTINUOUS
 10
189.182495
 20
136.389999
 11
189.182495
 21
135.789993
  0
LINE
  8
0
  6
CONTINUOUS
 10
189.182495
 20
151.589981
 11
189.182495
 21
149.990005
  0
LINE
  8
0
  6
CONTINUOUS
 10
189.182495
 20
143.990005
 11
189.182495
 21
142.389999
  0
LINE
  8
0
  6
CONTINUOUS
 10
189.182495
 20
163.990005
 11
189.182495
 21
157.589981
  0
LINE
  8
0
  6
CONTINUOUS
 10
189.182495
 20
171.589981
 11
189.182495
 21
169.990005
  0
LINE
  8
0
  6
CONTINUOUS
 10
189.182495
 20
185.790009
 11
189.182495
 21
185.190002
  0
LINE
  8
0
  6
CONTINUOUS
 10
189.182495
 20
179.190002
 11
189.182495
 21
177.589996
  0
LINE
  8
0
  6
CONTINUOUS
 10
105.682503
 20
229.589996
 11
105.682503
 21
233.246017
  0
LINE
  8
0
  6
CONTINUOUS
 10
104.843391
 20
232.790009
 11
102.682503
 21
232.790009
  0
LINE
  8
0
  6
CONTINUOUS
 10
106.242088
 20
235.963654
 11
105.828209
 21
233.616364
  0
LINE
  8
0
  6
CONTINUOUS
 10
101.682495
 20
90.290009
 11
102.682495
 21
90.290009
  0
LINE
  8
0
  6
CONTINUOUS
 10
101.682495
 20
231.290009
 11
102.682495
 21
231.290009
  0
LINE
  8
0
  6
CONTINUOUS
 10
105.682693
 20
470.558838
 11
105.682693
 21
526.316162
  0
LINE
  8
0
  6
CONTINUOUS
 10
105.903366
 20
425.239655
 11
105.828384
 21
425.611145
  0
LINE
  8
0
  6
CONTINUOUS
 10
190.615891
 20
421.391205
 11
220.866928
 21
421.391205
  0
LINE
  8
0
  6
CONTINUOUS
 10
190.966888
 20
419.652161
 11
220.515915
 21
419.652161
  0
LINE
  8
0
  6
CONTINUOUS
 10
190.182648
 20
419.483337
 11
189.182693
 21
424.437500
  0
LINE
  8
0
  6
CONTINUOUS
 10
104.843582
 20
426.437500
 11
102.682693
 21
426.437500
  0
LINE
  8
0
  6
CONTINUOUS
 10
189.182693
 20
424.437500
 11
106.883598
 21
424.437500
  0
LINE
  8
0
  6
CONTINUOUS
 10
107.170830
 20
428.253571
 11
105.682693
 21
436.693176
  0
LINE
  8
0
  6
CONTINUOUS
 10
107.497704
 20
436.296143
 11
105.682693
 21
446.589569
  0
LINE
  8
0
  6
CONTINUOUS
 10
107.813980
 20
442.341064
 11
105.682693
 21
454.428192
  0
LINE
  8
0
  6
CONTINUOUS
 10
108.055550
 20
451.330841
 11
105.682693
 21
464.787964
  0
LINE
  8
0
  6
CONTINUOUS
 10
106.894386
 20
463.686981
 11
105.682693
 21
470.558838
  0
LINE
  8
0
  6
CONTINUOUS
 10
221.320267
 20
424.779175
 11
222.682693
 21
432.505920
  0
LINE
  8
0
  6
CONTINUOUS
 10
221.194565
 20
428.253571
 11
222.682693
 21
436.693176
  0
LINE
  8
0
  6
CONTINUOUS
 10
220.867691
 20
436.296143
 11
222.682693
 21
446.589569
  0
LINE
  8
0
  6
CONTINUOUS
 10
220.551407
 20
442.341064
 11
222.682693
 21
454.428192
  0
LINE
  8
0
  6
CONTINUOUS
 10
220.309845
 20
451.330841
 11
222.682693
 21
464.787964
  0
LINE
  8
0
  6
CONTINUOUS
 10
221.470993
 20
463.686981
 11
222.682693
 21
470.558838
  0
LINE
  8
0
  6
CONTINUOUS
 10
105.682693
 20
470.558838
 11
222.682693
 21
470.558838
  0
LINE
  8
0
  6
CONTINUOUS
 10
220.486191
 20
462.860626
 11
107.879196
 21
462.860626
  0
LINE
  8
0
  6
CONTINUOUS
 10
219.325027
 20
450.504486
 11
109.040359
 21
450.504486
  0
LINE
  8
0
  6
CONTINUOUS
 10
219.566605
 20
441.514709
 11
108.798790
 21
441.514709
  0
LINE
  8
0
  6
CONTINUOUS
 10
219.882874
 20
435.469788
 11
108.482513
 21
435.469788
  0
LINE
  8
0
  6
CONTINUOUS
 10
108.155632
 20
427.427216
 11
220.209763
 21
427.427216
  0
LINE
  8
0
  6
CONTINUOUS
 10
220.335449
 20
423.952820
 11
189.280518
 21
423.952820
  0
LINE
  8
0
  6
CONTINUOUS
 10
220.319931
 20
418.681183
 11
191.162872
 21
418.681183
  0
LINE
  8
0
  6
CONTINUOUS
 10
221.300171
 20
419.483337
 11
222.537003
 21
425.611145
  0
LINE
  8
0
  6
CONTINUOUS
 10
107.498466
 20
575.483826
 11
220.866928
 21
575.483826
  0
LINE
  8
0
  6
CONTINUOUS
 10
107.045128
 20
572.095825
 11
105.682693
 21
564.369080
  0
LINE
  8
0
  6
CONTINUOUS
 10
107.170830
 20
568.621460
 11
105.682693
 21
560.181824
  0
LINE
  8
0
  6
CONTINUOUS
 10
107.497704
 20
560.578857
 11
105.682693
 21
550.285461
  0
LINE
  8
0
  6
CONTINUOUS
 10
107.813980
 20
554.533936
 11
105.682693
 21
542.446838
  0
LINE
  8
0
  6
CONTINUOUS
 10
108.055550
 20
545.544189
 11
105.682693
 21
532.087036
  0
LINE
  8
0
  6
CONTINUOUS
 10
106.894386
 20
533.188049
 11
105.682693
 21
526.316162
  0
LINE
  8
0
  6
CONTINUOUS
 10
107.065224
 20
577.391663
 11
105.828384
 21
571.263855
  0
LINE
  8
0
  6
CONTINUOUS
 10
221.320267
 20
572.095825
 11
222.682693
 21
564.369080
  0
LINE
  8
0
  6
CONTINUOUS
 10
221.194565
 20
568.621460
 11
222.682693
 21
560.181824
  0
LINE
  8
0
  6
CONTINUOUS
 10
220.867691
 20
560.578857
 11
222.682693
 21
550.285461
  0
LINE
  8
0
  6
CONTINUOUS
 10
220.551407
 20
554.533936
 11
222.682693
 21
542.446838
  0
LINE
  8
0
  6
CONTINUOUS
 10
220.309845
 20
545.544189
 11
222.682693
 21
532.087036
  0
LINE
  8
0
  6
CONTINUOUS
 10
221.470993
 20
533.188049
 11
222.682693
 21
526.316162
  0
LINE
  8
0
  6
CONTINUOUS
 10
105.682693
 20
526.316162
 11
222.682693
 21
526.316162
  0
LINE
  8
0
  6
CONTINUOUS
 10
220.486191
 20
534.014404
 11
107.879196
 21
534.014404
  0
LINE
  8
0
  6
CONTINUOUS
 10
219.325027
 20
546.370544
 11
109.040359
 21
546.370544
  0
LINE
  8
0
  6
CONTINUOUS
 10
219.566605
 20
555.360291
 11
108.798790
 21
555.360291
  0
LINE
  8
0
  6
CONTINUOUS
 10
219.882874
 20
561.405212
 11
108.482513
 21
561.405212
  0
LINE
  8
0
  6
CONTINUOUS
 10
220.209763
 20
569.447815
 11
108.155632
 21
569.447815
  0
LINE
  8
0
  6
CONTINUOUS
 10
220.335449
 20
572.922180
 11
108.029938
 21
572.922180
  0
LINE
  8
0
  6
CONTINUOUS
 10
107.849472
 20
577.222839
 11
220.515915
 21
577.222839
  0
LINE
  8
0
  6
CONTINUOUS
 10
220.319931
 20
578.193848
 11
108.045456
 21
578.193848
  0
LINE
  8
0
  6
CONTINUOUS
 10
102.682693
 20
570.437500
 11
102.682693
 21
426.437500
  0
LINE
  8
0
  6
CONTINUOUS
 10
104.843582
 20
570.437500
 11
102.682693
 21
570.437500
  0
LINE
  8
0
  6
CONTINUOUS
 10
242.682693
 20
426.437500
 11
223.521805
 21
426.437500
  0
LINE
  8
0
  6
CONTINUOUS
 10
242.682693
 20
570.437500
 11
223.521805
 21
570.437500
  0
LINE
  8
0
  6
CONTINUOUS
 10
222.682693
 20
470.558838
 11
222.682693
 21
526.316162
  0
LINE
  8
0
  6
CONTINUOUS
 10
221.300171
 20
577.391663
 11
222.537003
 21
571.263855
  0
LINE
  8
0
  6
CONTINUOUS
 10
101.682693
 20
427.937500
 11
102.682693
 21
427.937500
  0
LINE
  8
0
  6
CONTINUOUS
 10
101.682693
 20
568.937500
 11
102.682693
 21
568.937500
  0
LINE
  8
0
  6
CONTINUOUS
 10
101.682693
 20
568.937500
 11
102.682693
 21
568.937500
  0
ARC
  8
0
  6
CONTINUOUS
 10
100.182693
 20
577.924377
 40
1.500000
 50
0.000000
 51
90.500000
  0
ARC
  8
0
  6
CONTINUOUS
 10
68.814896
 20
577.424316
 40
2.000000
 50
90.000000
 51
168.553116
  0
ARC
  8
0
  6
CONTINUOUS
 10
65.182259
 20
574.520752
 40
1.000000
 50
270.500000
 51
349.062744
  0
ARC
  8
0
  6
CONTINUOUS
 10
55.651794
 20
558.437500
 40
15.000000
 50
90.000000
 51
171.480377
  0
ARC
  8
0
  6
CONTINUOUS
 10
100.182693
 20
418.950653
 40
1.500000
 50
-90.500000
 51
0.000000
  0
ARC
  8
0
  6
CONTINUOUS
 10
100.182495
 20
240.276855
 40
1.500000
 50
0.000000
 51
90.500000
  0
ARC
  8
0
  6
CONTINUOUS
 10
100.182495
 20
84.303139
 40
1.500000
 50
-90.500000
 51
0.000000
  0
ARC
  8
0
  6
CONTINUOUS
 10
65.182259
 20
422.354279
 40
1.000000
 50
10.937243
 51
89.500000
  0
ARC
  8
0
  6
CONTINUOUS
 10
68.814896
 20
419.450714
 40
2.000000
 50
191.446884
 51
270.000000
  0
ARC
  8
0
  6
CONTINUOUS
 10
55.651794
 20
438.437500
 40
15.000000
 50
188.519623
 51
270.000000
  0
ARC
  8
0
  6
CONTINUOUS
 10
61.346275
 20
239.776794
 40
2.000000
 50
90.000000
 51
191.331467
  0
ARC
  8
0
  6
CONTINUOUS
 10
58.872066
 20
236.818130
 40
1.000000
 50
-89.500000
 51
10.984692
  0
ARC
  8
0
  6
CONTINUOUS
 10
61.871784
 20
84.803200
 40
2.000000
 50
180.789703
 51
270.000000
  0
ARC
  8
0
  6
CONTINUOUS
 10
58.872066
 20
84.761848
 40
1.000000
 50
0.789699
 51
89.500000
  0
ARC
  8
0
  6
CONTINUOUS
 10
55.651596
 20
100.789993
 40
15.000000
 50
188.519623
 51
270.000000
  0
ARC
  8
0
  6
CONTINUOUS
 10
456.182495
 20
160.789993
 40
420.000000
 50
171.480377
 51
188.519623
  0
ARC
  8
0
  6
CONTINUOUS
 10
55.651596
 20
220.789993
 40
15.000000
 50
90.000000
 51
171.480377
  0
ARC
  8
0
  6
CONTINUOUS
 10
-332.817505
 20
160.789993
 40
400.000000
 50
-10.968414
 51
11.331461
  0
ARC
  8
0
  6
CONTINUOUS
 10
458.898346
 20
498.437500
 40
400.000000
 50
168.553116
 51
191.446884
  0
ARC
  8
0
  6
CONTINUOUS
 10
456.182709
 20
498.437500
 40
420.000000
 50
171.480377
 51
188.519623
  0
ARC
  8
0
  6
CONTINUOUS
 10
103.682472
 20
98.290024
 40
8.000000
 50
0.000000
 51
90.000000
  0
ARC
  8
0
  6
CONTINUOUS
 10
103.682472
 20
98.290024
 40
5.000000
 50
0.000000
 51
90.000000
  0
ARC
  8
0
  6
CONTINUOUS
 10
103.682472
 20
98.290024
 40
2.000000
 50
0.000000
 51
90.000000
  0
ARC
  8
0
  6
CONTINUOUS
 10
191.110703
 20
186.790009
 40
2.000000
 50
90.000000
 51
188.213196
  0
ARC
  8
0
  6
CONTINUOUS
 10
191.182495
 20
185.190002
 40
2.000000
 50
180.000000
 51
270.000000
  0
ARC
  8
0
  6
CONTINUOUS
 10
191.182495
 20
177.589996
 40
2.000000
 50
180.000000
 51
270.000000
  0
ARC
  8
0
  6
CONTINUOUS
 10
191.182495
 20
171.589981
 40
2.000000
 50
90.000000
 51
180.000000
  0
ARC
  8
0
  6
CONTINUOUS
 10
191.182495
 20
163.990005
 40
2.000000
 50
90.000000
 51
180.000000
  0
ARC
  8
0
  6
CONTINUOUS
 10
191.182495
 20
169.990005
 40
2.000000
 50
180.000000
 51
270.000000
  0
ARC
  8
0
  6
CONTINUOUS
 10
191.182495
 20
179.190002
 40
2.000000
 50
90.000000
 51
180.000000
  0
ARC
  8
0
  6
CONTINUOUS
 10
191.182495
 20
149.990005
 40
2.000000
 50
180.000000
 51
270.000000
  0
ARC
  8
0
  6
CONTINUOUS
 10
191.182495
 20
151.589981
 40
2.000000
 50
90.000000
 51
180.000000
  0
ARC
  8
0
  6
CONTINUOUS
 10
191.182495
 20
142.389999
 40
2.000000
 50
180.000000
 51
270.000000
  0
ARC
  8
0
  6
CONTINUOUS
 10
191.182495
 20
136.389999
 40
2.000000
 50
90.000000
 51
180.000000
  0
ARC
  8
0
  6
CONTINUOUS
 10
191.182495
 20
143.990005
 40
2.000000
 50
90.000000
 51
180.000000
  0
ARC
  8
0
  6
CONTINUOUS
 10
191.110703
 20
134.789993
 40
2.000000
 50
171.786789
 51
270.000000
  0
ARC
  8
0
  6
CONTINUOUS
 10
191.182495
 20
157.589981
 40
2.000000
 50
180.000000
 51
270.000000
  0
ARC
  8
0
  6
CONTINUOUS
 10
221.682495
 20
104.990005
 40
1.000000
 50
-90.000000
 51
90.000000
  0
ARC
  8
0
  6
CONTINUOUS
 10
221.682495
 20
90.735153
 40
1.000000
 50
-90.000000
 51
0.000000
  0
ARC
  8
0
  6
CONTINUOUS
 10
221.682495
 20
91.990005
 40
1.000000
 50
-90.000000
 51
90.000000
  0
ARC
  8
0
  6
CONTINUOUS
 10
221.138092
 20
85.789993
 40
1.000000
 50
270.000000
 51
350.000000
  0
ARC
  8
0
  6
CONTINUOUS
 10
223.521606
 20
87.789993
 40
1.000000
 50
90.000000
 51
170.000000
  0
ARC
  8
0
  6
CONTINUOUS
 10
221.682495
 20
98.490005
 40
1.000000
 50
-90.000000
 51
90.000000
  0
ARC
  8
0
  6
CONTINUOUS
 10
221.682495
 20
111.789993
 40
1.000000
 50
-90.000000
 51
90.000000
  0
ARC
  8
0
  6
CONTINUOUS
 10
221.682495
 20
124.189987
 40
1.000000
 50
-90.000000
 51
90.000000
  0
ARC
  8
0
  6
CONTINUOUS
 10
221.682495
 20
174.589981
 40
1.000000
 50
-90.000000
 51
90.000000
  0
ARC
  8
0
  6
CONTINUOUS
 10
221.682495
 20
139.389999
 40
1.000000
 50
-90.000000
 51
90.000000
  0
ARC
  8
0
  6
CONTINUOUS
 10
221.682495
 20
131.789993
 40
1.000000
 50
-90.000000
 51
90.000000
  0
ARC
  8
0
  6
CONTINUOUS
 10
221.682495
 20
146.990005
 40
1.000000
 50
-90.000000
 51
90.000000
  0
ARC
  8
0
  6
CONTINUOUS
 10
221.682495
 20
154.589981
 40
1.000000
 50
-90.000000
 51
90.000000
  0
ARC
  8
0
  6
CONTINUOUS
 10
221.682495
 20
166.990005
 40
1.000000
 50
-90.000000
 51
90.000000
  0
ARC
  8
0
  6
CONTINUOUS
 10
221.682495
 20
197.389999
 40
1.000000
 50
-90.000000
 51
90.000000
  0
ARC
  8
0
  6
CONTINUOUS
 10
221.682495
 20
182.190002
 40
1.000000
 50
-90.000000
 51
90.000000
  0
ARC
  8
0
  6
CONTINUOUS
 10
221.682495
 20
189.790009
 40
1.000000
 50
-90.000000
 51
90.000000
  0
ARC
  8
0
  6
CONTINUOUS
 10
221.682495
 20
209.790009
 40
1.000000
 50
-90.000000
 51
90.000000
  0
ARC
  8
0
  6
CONTINUOUS
 10
221.682495
 20
216.589996
 40
1.000000
 50
-90.000000
 51
90.000000
  0
ARC
  8
0
  6
CONTINUOUS
 10
223.521606
 20
233.790009
 40
1.000000
 50
190.000000
 51
270.000000
  0
ARC
  8
0
  6
CONTINUOUS
 10
221.682495
 20
229.589996
 40
1.000000
 50
-90.000000
 51
90.000000
  0
ARC
  8
0
  6
CONTINUOUS
 10
221.682495
 20
230.844833
 40
1.000000
 50
0.000000
 51
90.000000
  0
ARC
  8
0
  6
CONTINUOUS
 10
221.682495
 20
223.089996
 40
1.000000
 50
-90.000000
 51
90.000000
  0
ARC
  8
0
  6
CONTINUOUS
 10
221.138092
 20
235.790009
 40
1.000000
 50
10.000000
 51
90.000000
  0
ARC
  8
0
  6
CONTINUOUS
 10
106.682503
 20
104.990005
 40
1.000000
 50
90.000000
 51
117.527046
  0
ARC
  8
0
  6
CONTINUOUS
 10
104.843391
 20
87.789993
 40
1.000000
 50
10.000000
 51
90.000000
  0
ARC
  8
0
  6
CONTINUOUS
 10
107.226906
 20
85.789993
 40
1.000000
 50
190.000000
 51
270.000000
  0
ARC
  8
0
  6
CONTINUOUS
 10
106.682503
 20
111.789993
 40
1.000000
 50
90.000000
 51
270.000000
  0
ARC
  8
0
  6
CONTINUOUS
 10
190.182495
 20
174.589981
 40
1.000000
 50
90.000000
 51
270.000000
  0
ARC
  8
0
  6
CONTINUOUS
 10
190.182495
 20
139.389999
 40
1.000000
 50
90.000000
 51
270.000000
  0
ARC
  8
0
  6
CONTINUOUS
 10
184.182495
 20
135.789993
 40
5.000000
 50
-8.213196
 51
0.000000
  0
ARC
  8
0
  6
CONTINUOUS
 10
190.182495
 20
131.789993
 40
1.000000
 50
90.000000
 51
270.000000
  0
ARC
  8
0
  6
CONTINUOUS
 10
190.182495
 20
146.990005
 40
1.000000
 50
90.000000
 51
270.000000
  0
ARC
  8
0
  6
CONTINUOUS
 10
190.182495
 20
154.589981
 40
1.000000
 50
90.000000
 51
270.000000
  0
ARC
  8
0
  6
CONTINUOUS
 10
190.182495
 20
166.990005
 40
1.000000
 50
90.000000
 51
270.000000
  0
ARC
  8
0
  6
CONTINUOUS
 10
184.182495
 20
185.790009
 40
5.000000
 50
0.000000
 51
8.213211
  0
ARC
  8
0
  6
CONTINUOUS
 10
190.182495
 20
182.190002
 40
1.000000
 50
90.000000
 51
270.000000
  0
ARC
  8
0
  6
CONTINUOUS
 10
190.182495
 20
189.790009
 40
1.000000
 50
90.000000
 51
270.000000
  0
ARC
  8
0
  6
CONTINUOUS
 10
106.682503
 20
209.790009
 40
1.000000
 50
90.000000
 51
270.000000
  0
ARC
  8
0
  6
CONTINUOUS
 10
106.682503
 20
216.589996
 40
1.000000
 50
90.000000
 51
270.000000
  0
ARC
  8
0
  6
CONTINUOUS
 10
104.843391
 20
233.790009
 40
1.000000
 50
270.000000
 51
350.000000
  0
ARC
  8
0
  6
CONTINUOUS
 10
106.682503
 20
230.844833
 40
1.000000
 50
90.000000
 51
180.000000
  0
ARC
  8
0
  6
CONTINUOUS
 10
106.682503
 20
229.589996
 40
1.000000
 50
90.000000
 51
270.000000
  0
ARC
  8
0
  6
CONTINUOUS
 10
106.682503
 20
223.089996
 40
1.000000
 50
90.000000
 51
270.000000
  0
ARC
  8
0
  6
CONTINUOUS
 10
107.226906
 20
235.790009
 40
1.000000
 50
90.000000
 51
170.000000
  0
ARC
  8
0
  6
CONTINUOUS
 10
106.883598
 20
425.437500
 40
1.000000
 50
191.411255
 51
270.000000
  0
ARC
  8
0
  6
CONTINUOUS
 10
190.966888
 20
420.652161
 40
1.000000
 50
191.411255
 51
270.000000
  0
ARC
  8
0
  6
CONTINUOUS
 10
190.615891
 20
422.391205
 40
1.000000
 50
191.411255
 51
270.000000
  0
ARC
  8
0
  6
CONTINUOUS
 10
191.162872
 20
419.681183
 40
1.000000
 50
191.411255
 51
270.000000
  0
ARC
  8
0
  6
CONTINUOUS
 10
108.155632
 20
428.427216
 40
1.000000
 50
190.000000
 51
270.000000
  0
ARC
  8
0
  6
CONTINUOUS
 10
108.482513
 20
436.469788
 40
1.000000
 50
190.000000
 51
270.000000
  0
ARC
  8
0
  6
CONTINUOUS
 10
108.798790
 20
442.514709
 40
1.000000
 50
190.000000
 51
270.000000
  0
ARC
  8
0
  6
CONTINUOUS
 10
109.040359
 20
451.504486
 40
1.000000
 50
190.000000
 51
270.000000
  0
ARC
  8
0
  6
CONTINUOUS
 10
107.879196
 20
463.860626
 40
1.000000
 50
190.000000
 51
270.000000
  0
ARC
  8
0
  6
CONTINUOUS
 10
104.843582
 20
425.437500
 40
1.000000
 50
10.000000
 51
90.000000
  0
ARC
  8
0
  6
CONTINUOUS
 10
220.335449
 20
424.952820
 40
1.000000
 50
270.000000
 51
350.000000
  0
ARC
  8
0
  6
CONTINUOUS
 10
220.209763
 20
428.427216
 40
1.000000
 50
270.000000
 51
350.000000
  0
ARC
  8
0
  6
CONTINUOUS
 10
219.882874
 20
436.469788
 40
1.000000
 50
270.000000
 51
350.000000
  0
ARC
  8
0
  6
CONTINUOUS
 10
219.566605
 20
442.514709
 40
1.000000
 50
270.000000
 51
350.000000
  0
ARC
  8
0
  6
CONTINUOUS
 10
219.325027
 20
451.504486
 40
1.000000
 50
270.000000
 51
350.000000
  0
ARC
  8
0
  6
CONTINUOUS
 10
220.486191
 20
463.860626
 40
1.000000
 50
270.000000
 51
350.000000
  0
ARC
  8
0
  6
CONTINUOUS
 10
220.515915
 20
420.652161
 40
1.000000
 50
270.000000
 51
348.588745
  0
ARC
  8
0
  6
CONTINUOUS
 10
220.866928
 20
422.391205
 40
1.000000
 50
270.000000
 51
348.588745
  0
ARC
  8
0
  6
CONTINUOUS
 10
220.319931
 20
419.681183
 40
1.000000
 50
270.000000
 51
348.588745
  0
ARC
  8
0
  6
CONTINUOUS
 10
223.521805
 20
425.437500
 40
1.000000
 50
90.000000
 51
170.000000
  0
ARC
  8
0
  6
CONTINUOUS
 10
108.029938
 20
571.922180
 40
1.000000
 50
90.000000
 51
170.000000
  0
ARC
  8
0
  6
CONTINUOUS
 10
108.155632
 20
568.447815
 40
1.000000
 50
90.000000
 51
170.000000
  0
ARC
  8
0
  6
CONTINUOUS
 10
108.482513
 20
560.405212
 40
1.000000
 50
90.000000
 51
170.000000
  0
ARC
  8
0
  6
CONTINUOUS
 10
108.798790
 20
554.360291
 40
1.000000
 50
90.000000
 51
170.000000
  0
ARC
  8
0
  6
CONTINUOUS
 10
109.040359
 20
545.370544
 40
1.000000
 50
90.000000
 51
170.000000
  0
ARC
  8
0
  6
CONTINUOUS
 10
107.879196
 20
533.014404
 40
1.000000
 50
90.000000
 51
170.000000
  0
ARC
  8
0
  6
CONTINUOUS
 10
107.849472
 20
576.222839
 40
1.000000
 50
90.000000
 51
168.588745
  0
ARC
  8
0
  6
CONTINUOUS
 10
107.498466
 20
574.483826
 40
1.000000
 50
90.000000
 51
168.588745
  0
ARC
  8
0
  6
CONTINUOUS
 10
108.045456
 20
577.193848
 40
1.000000
 50
90.000000
 51
168.588745
  0
ARC
  8
0
  6
CONTINUOUS
 10
104.843582
 20
571.437500
 40
1.000000
 50
270.000000
 51
350.000000
  0
ARC
  8
0
  6
CONTINUOUS
 10
220.335449
 20
571.922180
 40
1.000000
 50
10.000000
 51
90.000000
  0
ARC
  8
0
  6
CONTINUOUS
 10
220.209763
 20
568.447815
 40
1.000000
 50
10.000000
 51
90.000000
  0
ARC
  8
0
  6
CONTINUOUS
 10
219.882874
 20
560.405212
 40
1.000000
 50
10.000000
 51
90.000000
  0
ARC
  8
0
  6
CONTINUOUS
 10
219.566605
 20
554.360291
 40
1.000000
 50
10.000000
 51
90.000000
  0
ARC
  8
0
  6
CONTINUOUS
 10
219.325027
 20
545.370544
 40
1.000000
 50
10.000000
 51
90.000000
  0
ARC
  8
0
  6
CONTINUOUS
 10
220.486191
 20
533.014404
 40
1.000000
 50
10.000000
 51
90.000000
  0
ARC
  8
0
  6
CONTINUOUS
 10
220.515915
 20
576.222839
 40
1.000000
 50
11.411255
 51
90.000000
  0
ARC
  8
0
  6
CONTINUOUS
 10
220.866928
 20
574.483826
 40
1.000000
 50
11.411255
 51
90.000000
  0
ARC
  8
0
  6
CONTINUOUS
 10
220.319931
 20
577.193848
 40
1.000000
 50
11.411255
 51
90.000000
  0
ARC
  8
0
  6
CONTINUOUS
 10
223.521805
 20
571.437500
 40
1.000000
 50
190.000000
 51
270.000000
  0
LINE
  8
0
  6
CONTINUOUS
 10
555.905029
 20
130.790024
 11
557.405029
 21
130.790024
  0
LINE
  8
0
  6
CONTINUOUS
 10
555.905029
 20
130.790024
 11
557.405029
 21
130.790024
  0
LINE
  8
0
  6
CONTINUOUS
 10
557.405029
 20
186.789993
 11
557.405029
 21
183.262054
  0
LINE
  8
0
  6
CONTINUOUS
 10
550.467163
 20
186.789993
 11
550.467163
 21
121.687294
  0
LINE
  8
0
  6
CONTINUOUS
 10
555.905029
 20
120.490028
 11
555.905029
 21
138.370316
  0
LINE
  8
0
  6
CONTINUOUS
 10
174.182800
 20
422.937500
 11
174.182800
 21
424.437500
  0
LINE
  8
0
  6
CONTINUOUS
 10
114.182793
 20
422.937500
 11
114.182793
 21
424.437500
  0
LINE
  8
0
  6
CONTINUOUS
 10
106.305229
 20
422.937500
 11
178.171219
 21
422.937500
  0
LINE
  8
0
  6
CONTINUOUS
 10
180.708939
 20
421.320831
 11
180.775101
 21
421.178802
  0
LINE
  8
0
  6
CONTINUOUS
 10
184.217117
 20
389.096954
 11
184.217117
 21
415.203766
  0
LINE
  8
0
  6
CONTINUOUS
 10
103.505180
 20
420.137482
 11
103.505180
 21
385.147247
  0
LINE
  8
0
  6
CONTINUOUS
 10
173.417175
 20
378.296967
 11
103.857109
 21
378.296967
  0
LINE
  8
0
  6
CONTINUOUS
 10
185.004593
 20
416.136658
 11
101.047539
 21
376.986877
  0
LINE
  8
0
  6
CENTER
 10
144.182800
 20
434.661224
 11
144.182800
 21
373.937500
  0
LINE
  8
0
  6
CONTINUOUS
 10
185.633377
 20
417.864258
 11
183.496048
 21
422.447601
  0
LINE
  8
0
  6
CONTINUOUS
 10
99.982597
 20
150.790024
 11
99.982597
 21
192.990005
  0
LINE
  8
0
  6
CONTINUOUS
 10
105.982597
 20
198.990005
 11
177.382599
 21
198.990005
  0
LINE
  8
0
  6
CONTINUOUS
 10
177.382599
 20
201.789993
 11
105.982597
 21
201.789993
  0
LINE
  8
0
  6
CONTINUOUS
 10
99.320000
 20
377.615692
 11
97.182793
 21
382.199036
  0
LINE
  8
0
  6
CONTINUOUS
 10
183.494095
 20
422.446655
 11
97.182793
 21
382.199036
  0
LINE
  8
0
  6
CENTER
 10
96.684746
 20
399.937500
 11
113.724785
 21
399.937500
  0
LINE
  8
0
  6
CONTINUOUS
 10
99.982597
 20
128.589996
 11
99.982597
 21
128.790085
  0
LINE
  8
0
  6
CONTINUOUS
 10
177.382599
 20
119.789993
 11
105.982597
 21
119.789993
  0
LINE
  8
0
  6
CONTINUOUS
 10
105.982597
 20
122.589996
 11
177.382599
 21
122.589996
  0
LINE
  8
0
  6
CONTINUOUS
 10
97.182594
 20
128.589996
 11
97.182594
 21
192.990005
  0
LINE
  8
0
  6
CONTINUOUS
 10
509.404999
 20
127.290016
 11
509.404999
 21
194.290009
  0
LINE
  8
0
  6
CONTINUOUS
 10
183.382629
 20
128.589996
 11
183.382629
 21
192.990005
  0
LINE
  8
0
  6
CONTINUOUS
 10
186.182617
 20
128.589996
 11
186.182617
 21
192.990005
  0
LINE
  8
0
  6
CONTINUOUS
 10
516.205017
 20
120.490028
 11
555.905029
 21
120.490028
  0
CIRCLE
  8
0
  6
CONTINUOUS
 10
102.982597
 20
139.790024
 40
4.000000
  0
ARC
  8
0
  6
CONTINUOUS
 10
551.767151
 20
121.790016
 40
1.300000
 50
180.000000
 51
270.000000
  0
ARC
  8
0
  6
CONTINUOUS
 10
185.217117
 20
415.203766
 40
1.000000
 50
135.717499
 51
180.000000
  0
ARC
  8
0
  6
CONTINUOUS
 10
184.455154
 20
417.314850
 40
1.300000
 50
-65.000000
 51
25.000000
  0
ARC
  8
0
  6
CONTINUOUS
 10
173.417175
 20
389.096954
 40
10.800000
 50
-90.000000
 51
0.000000
  0
ARC
  8
0
  6
CONTINUOUS
 10
106.305229
 20
420.137482
 40
2.800000
 50
90.000000
 51
180.000000
  0
ARC
  8
0
  6
CONTINUOUS
 10
178.171219
 20
420.137482
 40
2.800000
 50
25.000000
 51
90.000000
  0
ARC
  8
0
  6
CONTINUOUS
 10
516.205017
 20
194.290009
 40
6.800000
 50
134.900726
 51
180.000000
  0
ARC
  8
0
  6
CONTINUOUS
 10
177.382599
 20
192.990005
 40
8.800000
 50
0.000000
 51
90.000000
  0
ARC
  8
0
  6
CONTINUOUS
 10
177.382599
 20
192.990005
 40
6.000000
 50
0.000000
 51
90.000000
  0
ARC
  8
0
  6
CONTINUOUS
 10
105.982597
 20
192.990005
 40
8.800000
 50
90.000000
 51
180.000000
  0
ARC
  8
0
  6
CONTINUOUS
 10
105.982597
 20
192.990005
 40
6.000000
 50
90.000000
 51
180.000000
  0
ARC
  8
0
  6
CONTINUOUS
 10
100.498222
 20
378.165100
 40
1.300000
 50
205.000000
 51
295.000000
  0
ARC
  8
0
  6
CONTINUOUS
 10
516.205017
 20
127.290016
 40
6.800000
 50
180.000000
 51
270.000000
  0
ARC
  8
0
  6
CONTINUOUS
 10
177.382599
 20
128.589996
 40
6.000000
 50
-90.000000
 51
0.000000
  0
ARC
  8
0
  6
CONTINUOUS
 10
177.382599
 20
128.589996
 40
8.800000
 50
-90.000000
 51
0.000000
  0
ARC
  8
0
  6
CONTINUOUS
 10
102.982597
 20
139.790024
 40
8.000000
 50
-89.781525
 51
90.000000
  0
ARC
  8
0
  6
CONTINUOUS
 10
102.982430
 20
128.790085
 40
3.000000
 50
90.218491
 51
180.601669
  0
ARC
  8
0
  6
CONTINUOUS
 10
105.982597
 20
128.589996
 40
6.000000
 50
180.000000
 51
270.000000
  0
ARC
  8
0
  6
CONTINUOUS
 10
105.982597
 20
128.589996
 40
8.800000
 50
180.000000
 51
270.000000
  0
ARC
  8
0
  6
CONTINUOUS
 10
102.982597
 20
150.790024
 40
3.000000
 50
180.000000
 51
270.000000
  0
LINE
  8
0
  6
CONTINUOUS
 10
102.682503
 20
106.290024
 11
102.682503
 21
120.432213
  0
LINE
  8
0
  6
CONTINUOUS
 10
101.682495
 20
84.303139
 11
101.682495
 21
120.912163
  0
LINE
  8
0
  6
CONTINUOUS
 10
242.682693
 20
570.437500
 11
242.682693
 21
426.437500
  0
LINE
  8
0
  6
CONTINUOUS
 10
398.582489
 20
453.437500
 11
398.585724
 21
453.448578
  0
LINE
  8
0
  6
CONTINUOUS
 10
391.926483
 20
443.437500
 11
382.241333
 21
443.437500
  0
LINE
  8
0
  6
CONTINUOUS
 10
396.728638
 20
447.044891
 11
397.536346
 21
449.830109
  0
LINE
  8
0
  6
CONTINUOUS
 10
381.238129
 20
440.026672
 11
382.241333
 21
443.437500
  0
LINE
  8
0
  6
CENTER
 10
388.682495
 20
447.589844
 11
388.682495
 21
428.089844
  0
LINE
  8
0
  6
CENTER
 10
378.806183
 20
438.437500
 11
397.743683
 21
438.437500
  0
LINE
  8
0
  6
CONTINUOUS
 10
283.782501
 20
453.437500
 11
283.779297
 21
453.448578
  0
LINE
  8
0
  6
CONTINUOUS
 10
290.438507
 20
443.437500
 11
300.123688
 21
443.437500
  0
LINE
  8
0
  6
CONTINUOUS
 10
285.636353
 20
447.044891
 11
284.828644
 21
449.830109
  0
LINE
  8
0
  6
CONTINUOUS
 10
301.126862
 20
440.026672
 11
300.123688
 21
443.437500
  0
LINE
  8
0
  6
CENTER
 10
303.558807
 20
438.437500
 11
284.621338
 21
438.437500
  0
LINE
  8
0
  6
CENTER
 10
293.682495
 20
447.589844
 11
293.682495
 21
428.089844
  0
LINE
  8
0
  6
CONTINUOUS
 10
283.782501
 20
543.437500
 11
283.779297
 21
543.426392
  0
LINE
  8
0
  6
CONTINUOUS
 10
290.438507
 20
553.437500
 11
300.123688
 21
553.437500
  0
LINE
  8
0
  6
CONTINUOUS
 10
285.636353
 20
549.830139
 11
284.828644
 21
547.044861
  0
LINE
  8
0
  6
CONTINUOUS
 10
301.126862
 20
556.848328
 11
300.123688
 21
553.437500
  0
LINE
  8
0
  6
CONTINUOUS
 10
398.582489
 20
543.437500
 11
398.585724
 21
543.426392
  0
LINE
  8
0
  6
CONTINUOUS
 10
391.926483
 20
553.437500
 11
382.241333
 21
553.437500
  0
LINE
  8
0
  6
CONTINUOUS
 10
396.728638
 20
549.830139
 11
397.536346
 21
547.044861
  0
LINE
  8
0
  6
CONTINUOUS
 10
381.238129
 20
556.848328
 11
382.241333
 21
553.437500
  0
LINE
  8
0
  6
CONTINUOUS
 10
257.804810
 20
433.366943
 11
261.593903
 21
447.508057
  0
LINE
  8
0
  6
CONTINUOUS
 10
250.077408
 20
427.437500
 11
242.682693
 21
427.437500
  0
LINE
  8
0
  6
CONTINUOUS
 10
257.804810
 20
563.508057
 11
261.593903
 21
549.366943
  0
LINE
  8
0
  6
CONTINUOUS
 10
265.182312
 20
498.437500
 11
265.916321
 21
456.385132
  0
LINE
  8
0
  6
CONTINUOUS
 10
265.182312
 20
498.437500
 11
265.916321
 21
540.489868
  0
LINE
  8
0
  6
CENTER
 10
18.258751
 20
498.437500
 11
434.916260
 21
498.437500
  0
LINE
  8
0
  6
CENTER
 10
303.558807
 20
558.437500
 11
284.621338
 21
558.437500
  0
LINE
  8
0
  6
CENTER
 10
293.682495
 20
549.285156
 11
293.682495
 21
568.785156
  0
LINE
  8
0
  6
CENTER
 10
388.682495
 20
549.285156
 11
388.682495
 21
568.785156
  0
LINE
  8
0
  6
CENTER
 10
378.806183
 20
558.437500
 11
397.743683
 21
558.437500
  0
LINE
  8
0
  6
CONTINUOUS
 10
360.182495
 20
423.437500
 11
399.632538
 21
423.437500
  0
LINE
  8
0
  6
CONTINUOUS
 10
356.381195
 20
428.437500
 11
356.381195
 21
378.437500
  0
LINE
  8
0
  6
CONTINUOUS
 10
356.381195
 20
428.437500
 11
360.182495
 21
428.437500
  0
LINE
  8
0
  6
CONTINUOUS
 10
360.182495
 20
378.437500
 11
360.182495
 21
428.437500
  0
LINE
  8
0
  6
CONTINUOUS
 10
358.682495
 20
436.437500
 11
358.682495
 21
433.437500
  0
LINE
  8
0
  6
CONTINUOUS
 10
323.682495
 20
436.437500
 11
323.682495
 21
433.437500
  0
LINE
  8
0
  6
CONTINUOUS
 10
323.682495
 20
433.437500
 11
358.682495
 21
433.437500
  0
LINE
  8
0
  6
CONTINUOUS
 10
357.182495
 20
433.437500
 11
357.182495
 21
428.437500
  0
LINE
  8
0
  6
CONTINUOUS
 10
325.182495
 20
433.437500
 11
325.182495
 21
378.437500
  0
LINE
  8
0
  6
CONTINUOUS
 10
360.182495
 20
378.437500
 11
325.182495
 21
378.437500
  0
LINE
  8
0
  6
CONTINUOUS
 10
341.182495
 20
573.437500
 11
399.632538
 21
573.437500
  0
LINE
  8
0
  6
CONTINUOUS
 10
341.182495
 20
436.437500
 11
305.923676
 21
436.437500
  0
LINE
  8
0
  6
CONTINUOUS
 10
341.182495
 20
436.437500
 11
376.441315
 21
436.437500
  0
LINE
  8
0
  6
CONTINUOUS
 10
341.182495
 20
560.437500
 11
305.923676
 21
560.437500
  0
LINE
  8
0
  6
CONTINUOUS
 10
250.077408
 20
569.437500
 11
242.682693
 21
569.437500
  0
LINE
  8
0
  6
CONTINUOUS
 10
312.182495
 20
540.437500
 11
312.182495
 21
456.437500
  0
LINE
  8
0
  6
CONTINUOUS
 10
370.182495
 20
540.437500
 11
370.182495
 21
456.437500
  0
LINE
  8
0
  6
CONTINUOUS
 10
341.182495
 20
560.437500
 11
376.441315
 21
560.437500
  0
LINE
  8
0
  6
CONTINUOUS
 10
413.449127
 20
453.437500
 11
268.915863
 21
453.437500
  0
LINE
  8
0
  6
CONTINUOUS
 10
268.915863
 20
543.437500
 11
413.449127
 21
543.437500
  0
LINE
  8
0
  6
CONTINUOUS
 10
275.238922
 20
428.636292
 11
266.204132
 21
452.805206
  0
LINE
  8
0
  6
CONTINUOUS
 10
275.238922
 20
568.238708
 11
266.204132
 21
544.069824
  0
LINE
  8
0
  6
CONTINUOUS
 10
407.126099
 20
428.636292
 11
416.397217
 21
453.437500
  0
LINE
  8
0
  6
CONTINUOUS
 10
282.732452
 20
423.437500
 11
325.182495
 21
423.437500
  0
LINE
  8
0
  6
CONTINUOUS
 10
417.182709
 20
498.437500
 11
416.397217
 21
453.437500
  0
LINE
  8
0
  6
CONTINUOUS
 10
407.126099
 20
568.238708
 11
416.397217
 21
543.437500
  0
LINE
  8
0
  6
CONTINUOUS
 10
282.732452
 20
573.437500
 11
341.182495
 21
573.437500
  0
LINE
  8
0
  6
CONTINUOUS
 10
417.182709
 20
498.437500
 11
416.397217
 21
543.437500
  0
LINE
  8
0
  6
CENTER
 10
341.182495
 20
591.039490
 11
341.182495
 21
360.717499
  0
LINE
  8
0
  6
CONTINUOUS
 10
366.895020
 20
83.362473
 11
369.994934
 21
81.502533
  0
LINE
  8
0
  6
CONTINUOUS
 10
366.182495
 20
83.672623
 11
366.182495
 21
81.789993
  0
LINE
  8
0
  6
CONTINUOUS
 10
315.469971
 20
83.362473
 11
312.370056
 21
81.502533
  0
LINE
  8
0
  6
CONTINUOUS
 10
316.182495
 20
83.672623
 11
316.182495
 21
81.789993
  0
LINE
  8
0
  6
CONTINUOUS
 10
317.013458
 20
83.789993
 11
365.351532
 21
83.789993
  0
LINE
  8
0
  6
CONTINUOUS
 10
242.682495
 20
232.789993
 11
242.682495
 21
88.789993
  0
LINE
  8
0
  6
CONTINUOUS
 10
360.182495
 20
207.790054
 11
352.182495
 21
207.790039
  0
LINE
  8
0
  6
CONTINUOUS
 10
360.182495
 20
197.790054
 11
352.182495
 21
197.790039
  0
LINE
  8
0
  6
CONTINUOUS
 10
360.182495
 20
197.790054
 11
360.182495
 21
207.790054
  0
LINE
  8
0
  6
CONTINUOUS
 10
352.182495
 20
197.790039
 11
352.182495
 21
207.790039
  0
LINE
  8
0
  6
CONTINUOUS
 10
242.682495
 20
89.789993
 11
260.182495
 21
89.789993
  0
LINE
  8
0
  6
CONTINUOUS
 10
242.682495
 20
231.789993
 11
261.496094
 21
231.789993
  0
LINE
  8
0
  6
CENTER
 10
18.258751
 20
160.789993
 11
284.125092
 21
160.789993
  0
LINE
  8
0
  6
CONTINUOUS
 10
403.182495
 20
78.723434
 11
403.182495
 21
62.789997
  0
LINE
  8
0
  6
CONTINUOUS
 10
279.182495
 20
78.723434
 11
279.182495
 21
62.789997
  0
LINE
  8
0
  6
CONTINUOUS
 10
330.309509
 20
138.295853
 11
330.309509
 21
138.071243
  0
LINE
  8
0
  6
CONTINUOUS
 10
353.020508
 20
139.295853
 11
357.453491
 21
139.292969
  0
LINE
  8
0
  6
CONTINUOUS
 10
350.682495
 20
139.295853
 11
351.387695
 21
139.295853
  0
LINE
  8
0
  6
CONTINUOUS
 10
353.020508
 20
133.451141
 11
356.061096
 21
133.451141
  0
LINE
  8
0
  6
CONTINUOUS
 10
340.254700
 20
139.295853
 11
337.997284
 21
139.295853
  0
LINE
  8
0
  6
CONTINUOUS
 10
342.036102
 20
139.295853
 11
344.511292
 21
139.295853
  0
LINE
  8
0
  6
CONTINUOUS
 10
344.511292
 20
139.295853
 11
344.941498
 21
138.071243
  0
LINE
  8
0
  6
CONTINUOUS
 10
337.997284
 20
139.295853
 11
337.487091
 21
138.071243
  0
LINE
  8
0
  6
CONTINUOUS
 10
350.682495
 20
128.274384
 11
350.682495
 21
126.789993
  0
LINE
  8
0
  6
CONTINUOUS
 10
353.669891
 20
128.274384
 11
353.669891
 21
126.789993
  0
LINE
  8
0
  6
CONTINUOUS
 10
357.993103
 20
128.274384
 11
357.993103
 21
126.789993
  0
LINE
  8
0
  6
CONTINUOUS
 10
360.182495
 20
128.274384
 11
360.182495
 21
126.789993
  0
LINE
  8
0
  6
CONTINUOUS
 10
357.993103
 20
126.789993
 11
360.182495
 21
126.789993
  0
LINE
  8
0
  6
CONTINUOUS
 10
359.782684
 20
128.274384
 11
360.182495
 21
128.274384
  0
LINE
  8
0
  6
CONTINUOUS
 10
357.993103
 20
128.274384
 11
358.289093
 21
128.274384
  0
LINE
  8
0
  6
CONTINUOUS
 10
353.669891
 20
126.789993
 11
350.682495
 21
126.789993
  0
LINE
  8
0
  6
CONTINUOUS
 10
353.020508
 20
128.274384
 11
353.669891
 21
128.274384
  0
LINE
  8
0
  6
CONTINUOUS
 10
350.682495
 20
128.274384
 11
351.387695
 21
128.274384
  0
LINE
  8
0
  6
CONTINUOUS
 10
356.061096
 20
133.451141
 11
358.289093
 21
128.274384
  0
LINE
  8
0
  6
CONTINUOUS
 10
357.428284
 20
133.580261
 11
359.782684
 21
128.274384
  0
LINE
  8
0
  6
CONTINUOUS
 10
353.020508
 20
139.295853
 11
353.020508
 21
134.935165
  0
LINE
  8
0
  6
CONTINUOUS
 10
350.682495
 20
141.039993
 11
350.682495
 21
139.295853
  0
LINE
  8
0
  6
CONTINUOUS
 10
356.678284
 20
134.935165
 11
353.020508
 21
134.935165
  0
LINE
  8
0
  6
CONTINUOUS
 10
350.682495
 20
141.039993
 11
356.378693
 21
141.039993
  0
LINE
  8
0
  6
CONTINUOUS
 10
339.549683
 20
128.348602
 11
340.254700
 21
128.348602
  0
LINE
  8
0
  6
CONTINUOUS
 10
339.549683
 20
126.789993
 11
342.629700
 21
126.789993
  0
LINE
  8
0
  6
CONTINUOUS
 10
336.432495
 20
141.039993
 11
345.932495
 21
141.039993
  0
LINE
  8
0
  6
CONTINUOUS
 10
336.432495
 20
138.071243
 11
337.487091
 21
138.071243
  0
LINE
  8
0
  6
CONTINUOUS
 10
344.941498
 20
138.071243
 11
345.932495
 21
138.071243
  0
LINE
  8
0
  6
CONTINUOUS
 10
342.629700
 20
128.348602
 11
342.629700
 21
126.789993
  0
LINE
  8
0
  6
CONTINUOUS
 10
339.549683
 20
128.348602
 11
339.549683
 21
126.789993
  0
LINE
  8
0
  6
CONTINUOUS
 10
342.036102
 20
128.348602
 11
342.629700
 21
128.348602
  0
LINE
  8
0
  6
CONTINUOUS
 10
330.309509
 20
127.925919
 11
328.955505
 21
126.789993
  0
LINE
  8
0
  6
CONTINUOUS
 10
330.309509
 20
126.789993
 11
331.682495
 21
126.789993
  0
LINE
  8
0
  6
CONTINUOUS
 10
327.823090
 20
135.065399
 11
327.823090
 21
133.506805
  0
LINE
  8
0
  6
CONTINUOUS
 10
330.309509
 20
133.506805
 11
330.309509
 21
131.428665
  0
LINE
  8
0
  6
CONTINUOUS
 10
331.682495
 20
139.500427
 11
331.682495
 21
138.071243
  0
LINE
  8
0
  6
CONTINUOUS
 10
330.309509
 20
127.925919
 11
330.309509
 21
126.789993
  0
LINE
  8
0
  6
CONTINUOUS
 10
330.309509
 20
132.022415
 11
330.309509
 21
133.209915
  0
LINE
  8
0
  6
CONTINUOUS
 10
327.340698
 20
128.459915
 11
324.868103
 21
128.459915
  0
LINE
  8
0
  6
CONTINUOUS
 10
330.309509
 20
133.506805
 11
327.823090
 21
133.506805
  0
LINE
  8
0
  6
CONTINUOUS
 10
327.823090
 20
135.065399
 11
331.682495
 21
135.065399
  0
LINE
  8
0
  6
CONTINUOUS
 10
323.907288
 20
141.039993
 11
330.295288
 21
141.039993
  0
LINE
  8
0
  6
CONTINUOUS
 10
330.309509
 20
138.071243
 11
331.682495
 21
138.071243
  0
LINE
  8
0
  6
CONTINUOUS
 10
330.295288
 20
141.039993
 11
331.682495
 21
139.500427
  0
LINE
  8
0
  6
CONTINUOUS
 10
330.309509
 20
138.295853
 11
329.410492
 21
139.147415
  0
LINE
  8
0
  6
CONTINUOUS
 10
323.778290
 20
137.817413
 11
323.778290
 21
129.607834
  0
LINE
  8
0
  6
CONTINUOUS
 10
322.182495
 20
138.831528
 11
322.182495
 21
128.639114
  0
LINE
  8
0
  6
CONTINUOUS
 10
322.182495
 20
128.639114
 11
324.015106
 21
126.789993
  0
LINE
  8
0
  6
CONTINUOUS
 10
323.778290
 20
129.607834
 11
324.868103
 21
128.459915
  0
LINE
  8
0
  6
CONTINUOUS
 10
323.907288
 20
141.039993
 11
322.182495
 21
138.831528
  0
LINE
  8
0
  6
CONTINUOUS
 10
324.850891
 20
139.147415
 11
323.778290
 21
137.817413
  0
LINE
  8
0
  6
CONTINUOUS
 10
329.428497
 20
139.147415
 11
324.850891
 21
139.147415
  0
LINE
  8
0
  6
CONTINUOUS
 10
353.020508
 20
133.451141
 11
353.020508
 21
128.274384
  0
LINE
  8
0
  6
CONTINUOUS
 10
351.387695
 20
139.295853
 11
351.387695
 21
128.274384
  0
LINE
  8
0
  6
CONTINUOUS
 10
342.036102
 20
139.295853
 11
342.036102
 21
128.348602
  0
LINE
  8
0
  6
CONTINUOUS
 10
340.254700
 20
139.295853
 11
340.254700
 21
128.348602
  0
LINE
  8
0
  6
CONTINUOUS
 10
345.932495
 20
138.071243
 11
345.932495
 21
141.039993
  0
LINE
  8
0
  6
CONTINUOUS
 10
336.432495
 20
138.071243
 11
336.432495
 21
141.039993
  0
LINE
  8
0
  6
CONTINUOUS
 10
331.682495
 20
135.065399
 11
331.682495
 21
126.789993
  0
LINE
  8
0
  6
CONTINUOUS
 10
328.955505
 20
126.789993
 11
324.015106
 21
126.789993
  0
LINE
  8
0
  6
CONTINUOUS
 10
381.304688
 20
211.701950
 11
394.992493
 21
150.078232
  0
LINE
  8
0
  6
CONTINUOUS
 10
384.135712
 20
212.330780
 11
397.823486
 21
150.707062
  0
LINE
  8
0
  6
CONTINUOUS
 10
366.682495
 20
114.789993
 11
315.682495
 21
114.789993
  0
LINE
  8
0
  6
CONTINUOUS
 10
315.682495
 20
111.889999
 11
366.682495
 21
111.889999
  0
LINE
  8
0
  6
CONTINUOUS
 10
287.372498
 20
150.078171
 11
301.060303
 21
211.701874
  0
LINE
  8
0
  6
CONTINUOUS
 10
284.541504
 20
150.707001
 11
298.229309
 21
212.330688
  0
LINE
  8
0
  6
DASHED
 10
395.182495
 20
80.789993
 11
395.182495
 21
62.789997
  0
LINE
  8
0
  6
DASHED
 10
382.182495
 20
80.789993
 11
382.182495
 21
62.789997
  0
LINE
  8
0
  6
DASHED
 10
300.182495
 20
80.789993
 11
300.182495
 21
62.789997
  0
LINE
  8
0
  6
DASHED
 10
287.182495
 20
80.789993
 11
287.182495
 21
62.789997
  0
LINE
  8
0
  6
CONTINUOUS
 10
265.182495
 20
231.095581
 11
265.182495
 21
62.789997
  0
LINE
  8
0
  6
CONTINUOUS
 10
268.632507
 20
237.675613
 11
310.129089
 21
266.370056
  0
LINE
  8
0
  6
CONTINUOUS
 10
413.732483
 20
237.675613
 11
372.235901
 21
266.370056
  0
LINE
  8
0
  6
CONTINUOUS
 10
314.679108
 20
267.789978
 11
367.685883
 21
267.789978
  0
LINE
  8
0
  6
CONTINUOUS
 10
417.182495
 20
231.095551
 11
417.182495
 21
62.789997
  0
LINE
  8
0
  6
CONTINUOUS
 10
265.182495
 20
80.789993
 11
417.182495
 21
80.789993
  0
LINE
  8
0
  6
CONTINUOUS
 10
265.182495
 20
62.789997
 11
417.182495
 21
62.789997
  0
LINE
  8
0
  6
CENTER
 10
293.682495
 20
88.065437
 11
293.682495
 21
53.908756
  0
LINE
  8
0
  6
CENTER
 10
388.682495
 20
88.065437
 11
388.682495
 21
54.200695
  0
LINE
  8
0
  6
CENTER
 10
276.849091
 20
202.789993
 11
403.102509
 21
202.789993
  0
LINE
  8
0
  6
CENTER
 10
341.182495
 20
284.766266
 11
341.182495
 21
52.157116
  0
LINE
  8
0
  6
CONTINUOUS
 10
704.153809
 20
81.015121
 11
679.106506
 21
83.519852
  0
LINE
  8
0
  6
CONTINUOUS
 10
558.656250
 20
81.015121
 11
583.703552
 21
83.519852
  0
LINE
  8
0
  6
CONTINUOUS
 10
676.405029
 20
103.539993
 11
676.405029
 21
62.789997
  0
LINE
  8
0
  6
CONTINUOUS
 10
555.323792
 20
138.390610
 11
562.375427
 21
138.144363
  0
LINE
  8
0
  6
CONTINUOUS
 10
557.885437
 20
132.789383
 11
563.538879
 21
132.986801
  0
LINE
  8
0
  6
CONTINUOUS
 10
557.885437
 20
130.790604
 11
565.473450
 21
130.525620
  0
LINE
  8
0
  6
CONTINUOUS
 10
555.323792
 20
140.389389
 11
561.010803
 21
140.587967
  0
LINE
  8
0
  6
CONTINUOUS
 10
553.584778
 20
145.990616
 11
560.221802
 21
145.758835
  0
LINE
  8
0
  6
CONTINUOUS
 10
553.584778
 20
147.989395
 11
559.367371
 21
148.191330
  0
LINE
  8
0
  6
CONTINUOUS
 10
552.613770
 20
153.590591
 11
558.927063
 21
153.370132
  0
LINE
  8
0
  6
CONTINUOUS
 10
552.613770
 20
155.589371
 11
558.549255
 21
155.796646
  0
LINE
  8
0
  6
CONTINUOUS
 10
553.584778
 20
173.590591
 11
559.367371
 21
173.388657
  0
LINE
  8
0
  6
CONTINUOUS
 10
552.613770
 20
167.989395
 11
558.927063
 21
168.209854
  0
LINE
  8
0
  6
CONTINUOUS
 10
552.613770
 20
165.990616
 11
558.549255
 21
165.783340
  0
LINE
  8
0
  6
CONTINUOUS
 10
555.323792
 20
181.190598
 11
561.010803
 21
180.992020
  0
LINE
  8
0
  6
CONTINUOUS
 10
555.323792
 20
183.189377
 11
562.375427
 21
183.435623
  0
LINE
  8
0
  6
CONTINUOUS
 10
553.584778
 20
175.589371
 11
560.221741
 21
175.821152
  0
LINE
  8
0
  6
CONTINUOUS
 10
701.450256
 20
125.189377
 11
695.755554
 21
125.388268
  0
LINE
  8
0
  6
CONTINUOUS
 10
701.450256
 20
123.190598
 11
693.149353
 21
122.900742
  0
LINE
  8
0
  6
CONTINUOUS
 10
584.437073
 20
97.490623
 11
586.405029
 21
97.421898
  0
LINE
  8
0
  6
CONTINUOUS
 10
561.359863
 20
125.189377
 11
567.054565
 21
125.388268
  0
LINE
  8
0
  6
CONTINUOUS
 10
561.359863
 20
123.190598
 11
569.660706
 21
122.900742
  0
LINE
  8
0
  6
CONTINUOUS
 10
575.447327
 20
103.990623
 11
586.405029
 21
103.607948
  0
LINE
  8
0
  6
CONTINUOUS
 10
584.437073
 20
99.489403
 11
586.405029
 21
99.558121
  0
LINE
  8
0
  6
CONTINUOUS
 10
575.447327
 20
105.989403
 11
581.857056
 21
106.213219
  0
LINE
  8
0
  6
CONTINUOUS
 10
569.402405
 20
112.789391
 11
575.408203
 21
112.999107
  0
LINE
  8
0
  6
CONTINUOUS
 10
569.402405
 20
110.790604
 11
579.557068
 21
110.435989
  0
LINE
  8
0
  6
CONTINUOUS
 10
559.335205
 20
130.722580
 11
565.481812
 21
130.507950
  0
LINE
  8
0
  6
CONTINUOUS
 10
687.362732
 20
103.990623
 11
676.405029
 21
103.607948
  0
LINE
  8
0
  6
CONTINUOUS
 10
678.372986
 20
97.490623
 11
676.405029
 21
97.421898
  0
LINE
  8
0
  6
CONTINUOUS
 10
678.372986
 20
99.489403
 11
676.405029
 21
99.558121
  0
LINE
  8
0
  6
CONTINUOUS
 10
687.362732
 20
105.989403
 11
680.953003
 21
106.213219
  0
LINE
  8
0
  6
CONTINUOUS
 10
693.407654
 20
110.790604
 11
683.252991
 21
110.435989
  0
LINE
  8
0
  6
CONTINUOUS
 10
693.407654
 20
112.789391
 11
687.401855
 21
112.999107
  0
LINE
  8
0
  6
CONTINUOUS
 10
707.486267
 20
138.390610
 11
700.434631
 21
138.144363
  0
LINE
  8
0
  6
CONTINUOUS
 10
704.924622
 20
132.789383
 11
699.271179
 21
132.986801
  0
LINE
  8
0
  6
CONTINUOUS
 10
704.924622
 20
130.790604
 11
697.336609
 21
130.525620
  0
LINE
  8
0
  6
CONTINUOUS
 10
707.486267
 20
140.389389
 11
701.799255
 21
140.587967
  0
LINE
  8
0
  6
CONTINUOUS
 10
709.225281
 20
145.990616
 11
702.588257
 21
145.758835
  0
LINE
  8
0
  6
CONTINUOUS
 10
709.225281
 20
147.989395
 11
703.442688
 21
148.191330
  0
LINE
  8
0
  6
CONTINUOUS
 10
710.196289
 20
153.590591
 11
703.882996
 21
153.370132
  0
LINE
  8
0
  6
CONTINUOUS
 10
710.196289
 20
155.589371
 11
704.260803
 21
155.796646
  0
LINE
  8
0
  6
CONTINUOUS
 10
709.225281
 20
173.590591
 11
703.442688
 21
173.388657
  0
LINE
  8
0
  6
CONTINUOUS
 10
710.196289
 20
167.989395
 11
703.882996
 21
168.209854
  0
LINE
  8
0
  6
CONTINUOUS
 10
710.196289
 20
165.990616
 11
704.260803
 21
165.783340
  0
LINE
  8
0
  6
CONTINUOUS
 10
701.450195
 20
198.389389
 11
693.405029
 21
198.670319
  0
LINE
  8
0
  6
CONTINUOUS
 10
693.407654
 20
208.790604
 11
693.405029
 21
208.790512
  0
LINE
  8
0
  6
CONTINUOUS
 10
693.407654
 20
210.789383
 11
693.405029
 21
210.789474
  0
LINE
  8
0
  6
CONTINUOUS
 10
707.486267
 20
181.190598
 11
701.799255
 21
180.992020
  0
LINE
  8
0
  6
CONTINUOUS
 10
707.486267
 20
183.189377
 11
700.434631
 21
183.435623
  0
LINE
  8
0
  6
CONTINUOUS
 10
709.225281
 20
175.589371
 11
702.588257
 21
175.821152
  0
LINE
  8
0
  6
CONTINUOUS
 10
704.924622
 20
188.790604
 11
699.271179
 21
188.593185
  0
LINE
  8
0
  6
CONTINUOUS
 10
704.924622
 20
190.789383
 11
697.336609
 21
191.054367
  0
LINE
  8
0
  6
CONTINUOUS
 10
701.450195
 20
196.390610
 11
695.755493
 21
196.191727
  0
LINE
  8
0
  6
CONTINUOUS
 10
556.405029
 20
197.789993
 11
511.404999
 21
197.789993
  0
LINE
  8
0
  6
CONTINUOUS
 10
556.405029
 20
207.789993
 11
511.404999
 21
207.789993
  0
LINE
  8
0
  6
CONTINUOUS
 10
569.405029
 20
185.289993
 11
566.405029
 21
185.289993
  0
LINE
  8
0
  6
CONTINUOUS
 10
569.405029
 20
220.289993
 11
566.405029
 21
220.289993
  0
LINE
  8
0
  6
CONTINUOUS
 10
566.405029
 20
220.289993
 11
566.405029
 21
185.289993
  0
LINE
  8
0
  6
CONTINUOUS
 10
566.405029
 20
186.789993
 11
511.404999
 21
186.789993
  0
LINE
  8
0
  6
CONTINUOUS
 10
566.405029
 20
218.789993
 11
511.404999
 21
218.789993
  0
LINE
  8
0
  6
CONTINUOUS
 10
511.404999
 20
186.789993
 11
511.404999
 21
218.789993
  0
LINE
  8
0
  6
CENTER
 10
498.543762
 20
160.790009
 11
725.407898
 21
160.790009
  0
LINE
  8
0
  6
CONTINUOUS
 10
661.405029
 20
62.789997
 11
659.905029
 21
64.289993
  0
LINE
  8
0
  6
CONTINUOUS
 10
601.405029
 20
62.789997
 11
602.905029
 21
64.289993
  0
LINE
  8
0
  6
CONTINUOUS
 10
586.405029
 20
250.531189
 11
586.405029
 21
62.789997
  0
LINE
  8
0
  6
CONTINUOUS
 10
588.979431
 20
235.289993
 11
673.657654
 21
235.289993
  0
LINE
  8
0
  6
CONTINUOUS
 10
689.815857
 20
242.845642
 11
679.994202
 21
245.734360
  0
LINE
  8
0
  6
CONTINUOUS
 10
689.815857
 20
162.734360
 11
689.276428
 21
162.575684
  0
LINE
  8
0
  6
CONTINUOUS
 10
682.797607
 20
113.743858
 11
680.012451
 21
112.936134
  0
LINE
  8
0
  6
CONTINUOUS
 10
580.012451
 20
113.743858
 11
582.797607
 21
112.936134
  0
LINE
  8
0
  6
CONTINUOUS
 10
572.994202
 20
162.734360
 11
573.533630
 21
162.575684
  0
LINE
  8
0
  6
CONTINUOUS
 10
582.815857
 20
245.734360
 11
572.994202
 21
242.845642
  0
LINE
  8
0
  6
DASHED
 10
564.905029
 20
80.789993
 11
564.905029
 21
62.789997
  0
LINE
  8
0
  6
DASHED
 10
577.905029
 20
80.789993
 11
577.905029
 21
62.789997
  0
LINE
  8
0
  6
DASHED
 10
684.905029
 20
80.789993
 11
684.905029
 21
62.789997
  0
LINE
  8
0
  6
DASHED
 10
697.905029
 20
80.789993
 11
697.905029
 21
62.789997
  0
LINE
  8
0
  6
CONTINUOUS
 10
686.405029
 20
118.546021
 11
686.405029
 21
206.700409
  0
LINE
  8
0
  6
CONTINUOUS
 10
576.405029
 20
118.545998
 11
576.405029
 21
206.700409
  0
LINE
  8
0
  6
CONTINUOUS
 10
693.405029
 20
167.531204
 11
693.405029
 21
238.048813
  0
LINE
  8
0
  6
CONTINUOUS
 10
569.405029
 20
167.531204
 11
569.405029
 21
238.048813
  0
LINE
  8
0
  6
CONTINUOUS
 10
589.352600
 20
267.055817
 11
631.405029
 21
267.789978
  0
LINE
  8
0
  6
CONTINUOUS
 10
673.457458
 20
267.056305
 11
631.405029
 21
267.789978
  0
LINE
  8
0
  6
CONTINUOUS
 10
602.905029
 20
64.289993
 11
659.905029
 21
64.289993
  0
LINE
  8
0
  6
CONTINUOUS
 10
556.405029
 20
78.527527
 11
556.405029
 21
62.789997
  0
LINE
  8
0
  6
CONTINUOUS
 10
706.405029
 20
78.527527
 11
706.405029
 21
62.789997
  0
LINE
  8
0
  6
CONTINUOUS
 10
586.405029
 20
250.531189
 11
586.405029
 21
264.056274
  0
LINE
  8
0
  6
CONTINUOUS
 10
676.405029
 20
264.056763
 11
676.405029
 21
103.607948
  0
LINE
  8
0
  6
CONTINUOUS
 10
558.905029
 20
80.790016
 11
582.405029
 21
80.789993
  0
LINE
  8
0
  6
CONTINUOUS
 10
703.905029
 20
80.789993
 11
680.405029
 21
80.789993
  0
LINE
  8
0
  6
CONTINUOUS
 10
661.405029
 20
62.789997
 11
706.405029
 21
62.789997
  0
LINE
  8
0
  6
CONTINUOUS
 10
556.405029
 20
62.789997
 11
601.405029
 21
62.789997
  0
LINE
  8
0
  6
CENTER
 10
571.405029
 20
89.388741
 11
571.405029
 21
51.489616
  0
LINE
  8
0
  6
CENTER
 10
691.405029
 20
89.388741
 11
691.405029
 21
51.489616
  0
LINE
  8
0
  6
CENTER
 10
497.019989
 20
202.789993
 11
711.935059
 21
202.789993
  0
LINE
  8
0
  6
CENTER
 10
631.405029
 20
48.019997
 11
631.405029
 21
284.766266
  0
CIRCLE
  8
0
  6
CONTINUOUS
 10
341.182495
 20
202.789993
 40
39.000000
  0
ARC
  8
0
  6
CONTINUOUS
 10
631.405029
 20
160.790009
 40
81.000000
 50
201.738464
 51
236.251007
  0
ARC
  8
0
  6
CONTINUOUS
 10
631.405029
 20
160.790009
 40
81.000000
 50
-56.251007
 51
40.054550
  0
ARC
  8
0
  6
CONTINUOUS
 10
402.338501
 20
448.437500
 40
5.000000
 50
90.000000
 51
163.827835
  0
ARC
  8
0
  6
CONTINUOUS
 10
391.926483
 20
448.437500
 40
5.000000
 50
270.000000
 51
343.827850
  0
ARC
  8
0
  6
CONTINUOUS
 10
376.441315
 20
441.437500
 40
5.000000
 50
270.000000
 51
343.610474
  0
ARC
  8
0
  6
CONTINUOUS
 10
388.682495
 20
438.437500
 40
6.500000
 50
-230.284866
 51
51.240688
  0
ARC
  8
0
  6
CONTINUOUS
 10
280.026489
 20
448.437500
 40
5.000000
 50
16.172159
 51
90.000000
  0
ARC
  8
0
  6
CONTINUOUS
 10
290.438507
 20
448.437500
 40
5.000000
 50
196.172165
 51
270.000000
  0
ARC
  8
0
  6
CONTINUOUS
 10
305.923676
 20
441.437500
 40
5.000000
 50
196.389542
 51
270.000000
  0
ARC
  8
0
  6
CONTINUOUS
 10
293.682495
 20
438.437500
 40
6.500000
 50
-231.240692
 51
50.284863
  0
ARC
  8
0
  6
CONTINUOUS
 10
280.026489
 20
548.437500
 40
5.000000
 50
270.000000
 51
343.827850
  0
ARC
  8
0
  6
CONTINUOUS
 10
290.438507
 20
548.437500
 40
5.000000
 50
90.000000
 51
163.827835
  0
ARC
  8
0
  6
CONTINUOUS
 10
305.923676
 20
555.437500
 40
5.000000
 50
90.000000
 51
163.610458
  0
ARC
  8
0
  6
CONTINUOUS
 10
402.338501
 20
548.437500
 40
5.000000
 50
196.172165
 51
270.000000
  0
ARC
  8
0
  6
CONTINUOUS
 10
391.926483
 20
548.437500
 40
5.000000
 50
16.172159
 51
90.000000
  0
ARC
  8
0
  6
CONTINUOUS
 10
376.441315
 20
555.437500
 40
5.000000
 50
16.389540
 51
90.000000
  0
ARC
  8
0
  6
CONTINUOUS
 10
269.321320
 20
445.437500
 40
8.000000
 50
90.000000
 51
165.000000
  0
ARC
  8
0
  6
CONTINUOUS
 10
250.077408
 20
435.437500
 40
8.000000
 50
270.000000
 51
345.000000
  0
ARC
  8
0
  6
CONTINUOUS
 10
250.077408
 20
561.437500
 40
8.000000
 50
15.000000
 51
90.000000
  0
ARC
  8
0
  6
CONTINUOUS
 10
269.321320
 20
551.437500
 40
8.000000
 50
195.000000
 51
270.000000
  0
ARC
  8
0
  6
CONTINUOUS
 10
268.915863
 20
456.437500
 40
3.000000
 50
181.000000
 51
270.000000
  0
ARC
  8
0
  6
CONTINUOUS
 10
268.915863
 20
540.437500
 40
3.000000
 50
90.000000
 51
179.000000
  0
ARC
  8
0
  6
CONTINUOUS
 10
293.682495
 20
558.437500
 40
6.500000
 50
-50.284851
 51
231.240692
  0
ARC
  8
0
  6
CONTINUOUS
 10
388.682495
 20
558.437500
 40
6.500000
 50
-51.240692
 51
230.284866
  0
ARC
  8
0
  6
CONTINUOUS
 10
413.449127
 20
456.437500
 40
3.000000
 50
270.000000
 51
359.000000
  0
ARC
  8
0
  6
CONTINUOUS
 10
413.449127
 20
540.437500
 40
3.000000
 50
1.000000
 51
90.000000
  0
ARC
  8
0
  6
CONTINUOUS
 10
282.732452
 20
431.437500
 40
8.000000
 50
200.496613
 51
270.000000
  0
ARC
  8
0
  6
CONTINUOUS
 10
282.732452
 20
565.437500
 40
8.000000
 50
90.000000
 51
159.503387
  0
ARC
  8
0
  6
CONTINUOUS
 10
399.632538
 20
431.437500
 40
8.000000
 50
270.000000
 51
339.503387
  0
ARC
  8
0
  6
CONTINUOUS
 10
399.632538
 20
565.437500
 40
8.000000
 50
20.496618
 51
90.000000
  0
ARC
  8
0
  6
CONTINUOUS
 10
365.351532
 20
80.789993
 40
3.000000
 50
59.036243
 51
90.000000
  0
ARC
  8
0
  6
CONTINUOUS
 10
372.567413
 20
85.789993
 40
5.000000
 50
239.036240
 51
270.000000
  0
ARC
  8
0
  6
CONTINUOUS
 10
367.182495
 20
81.789993
 40
1.000000
 50
180.000000
 51
270.000000
  0
ARC
  8
0
  6
CONTINUOUS
 10
317.013458
 20
80.789993
 40
3.000000
 50
90.000000
 51
120.963760
  0
ARC
  8
0
  6
CONTINUOUS
 10
309.797577
 20
85.789993
 40
5.000000
 50
270.000000
 51
300.963745
  0
ARC
  8
0
  6
CONTINUOUS
 10
315.182495
 20
81.789993
 40
1.000000
 50
-90.000000
 51
0.000000
  0
ARC
  8
0
  6
CONTINUOUS
 10
341.182495
 20
202.789993
 40
16.000000
 50
18.209900
 51
341.790100
  0
ARC
  8
0
  6
CONTINUOUS
 10
261.496094
 20
236.789993
 40
5.000000
 50
270.000000
 51
334.021393
  0
ARC
  8
0
  6
CONTINUOUS
 10
428.249908
 20
160.789993
 40
172.067474
 50
161.386795
 51
198.613205
  0
ARC
  8
0
  6
CONTINUOUS
 10
260.182495
 20
84.789978
 40
5.000000
 50
0.000000
 51
90.000000
  0
ARC
  8
0
  6
CONTINUOUS
 10
356.378693
 20
137.236282
 40
2.320524
 50
-82.585266
 51
62.411850
  0
ARC
  8
0
  6
CONTINUOUS
 10
356.378693
 20
137.236282
 40
3.803712
 50
-73.981873
 51
90.003510
  0
ARC
  8
0
  6
CONTINUOUS
 10
327.340698
 20
131.428665
 40
2.968750
 50
-89.999786
 51
0.000109
  0
ARC
  8
0
  6
CONTINUOUS
 10
341.182495
 20
202.789993
 40
41.099998
 50
-192.523102
 51
12.523240
  0
ARC
  8
0
  6
CONTINUOUS
 10
366.682495
 20
143.789993
 40
31.900000
 50
-90.000000
 51
12.523240
  0
ARC
  8
0
  6
CONTINUOUS
 10
315.682495
 20
143.789993
 40
31.900000
 50
167.476898
 51
270.000000
  0
ARC
  8
0
  6
CONTINUOUS
 10
366.682495
 20
143.789993
 40
29.000000
 50
-90.000000
 51
12.523240
  0
ARC
  8
0
  6
CONTINUOUS
 10
315.682495
 20
143.789993
 40
29.000000
 50
167.476898
 51
270.000000
  0
ARC
  8
0
  6
CONTINUOUS
 10
341.182495
 20
202.789993
 40
44.000000
 50
12.523240
 51
167.476898
  0
ARC
  8
0
  6
CONTINUOUS
 10
273.182495
 20
231.095596
 40
8.000000
 50
124.663803
 51
180.000000
  0
ARC
  8
0
  6
CONTINUOUS
 10
314.679108
 20
259.789978
 40
8.000000
 50
90.000000
 51
124.663696
  0
ARC
  8
0
  6
CONTINUOUS
 10
409.182495
 20
231.095520
 40
8.000000
 50
0.000000
 51
55.336739
  0
ARC
  8
0
  6
CONTINUOUS
 10
367.685883
 20
259.789978
 40
8.000000
 50
55.336689
 51
90.000000
  0
ARC
  8
0
  6
CONTINUOUS
 10
703.905029
 20
78.527527
 40
2.500000
 50
0.000000
 51
84.289406
  0
ARC
  8
0
  6
CONTINUOUS
 10
679.405029
 20
86.504959
 40
3.000000
 50
180.000000
 51
264.289398
  0
ARC
  8
0
  6
CONTINUOUS
 10
558.905029
 20
78.527527
 40
2.500000
 50
95.710594
 51
180.000000
  0
ARC
  8
0
  6
CONTINUOUS
 10
583.405029
 20
86.504959
 40
3.000000
 50
-84.289398
 51
0.000000
  0
ARC
  8
0
  6
CONTINUOUS
 10
631.405029
 20
160.789993
 40
72.000000
 50
158.831558
 51
231.317810
  0
ARC
  8
0
  6
CONTINUOUS
 10
631.405029
 20
160.789993
 40
72.000000
 50
-51.317810
 51
30.558432
  0
ARC
  8
0
  6
CONTINUOUS
 10
559.405029
 20
132.721359
 40
2.000000
 50
260.439636
 51
268.000000
  0
ARC
  8
0
  6
CONTINUOUS
 10
553.619690
 20
174.589981
 40
1.000000
 50
92.000000
 51
268.000000
  0
ARC
  8
0
  6
CONTINUOUS
 10
555.358704
 20
139.389999
 40
1.000000
 50
92.000000
 51
268.000000
  0
ARC
  8
0
  6
CONTINUOUS
 10
562.340454
 20
137.144974
 40
1.000000
 50
18.899216
 51
88.000000
  0
ARC
  8
0
  6
CONTINUOUS
 10
563.503967
 20
133.986191
 40
1.000000
 50
-88.000000
 51
21.541519
  0
ARC
  8
0
  6
CONTINUOUS
 10
565.438538
 20
129.526230
 40
1.000000
 50
25.357864
 51
88.000000
  0
ARC
  8
0
  6
CONTINUOUS
 10
557.920349
 20
131.789993
 40
1.000000
 50
92.000000
 51
268.000000
  0
ARC
  8
0
  6
CONTINUOUS
 10
559.332458
 20
149.190720
 40
1.000000
 50
-88.000000
 51
9.142731
  0
ARC
  8
0
  6
CONTINUOUS
 10
560.975891
 20
141.587357
 40
1.000000
 50
-88.000000
 51
15.251099
  0
ARC
  8
0
  6
CONTINUOUS
 10
560.186890
 20
144.759445
 40
1.000000
 50
12.685333
 51
88.000000
  0
ARC
  8
0
  6
CONTINUOUS
 10
553.619690
 20
146.990005
 40
1.000000
 50
92.000000
 51
268.000000
  0
ARC
  8
0
  6
CONTINUOUS
 10
558.892151
 20
152.370743
 40
1.000000
 50
6.622787
 51
88.000000
  0
ARC
  8
0
  6
CONTINUOUS
 10
558.514343
 20
156.796036
 40
1.000000
 50
-88.000000
 51
3.136307
  0
ARC
  8
0
  6
CONTINUOUS
 10
552.648682
 20
154.589981
 40
1.000000
 50
92.000000
 51
268.000000
  0
ARC
  8
0
  6
CONTINUOUS
 10
559.332458
 20
172.389267
 40
1.000000
 50
-9.142731
 51
88.000000
  0
ARC
  8
0
  6
CONTINUOUS
 10
558.514343
 20
164.783951
 40
1.000000
 50
-3.136322
 51
88.000000
  0
ARC
  8
0
  6
CONTINUOUS
 10
558.892151
 20
169.209244
 40
1.000000
 50
272.000000
 51
353.377228
  0
ARC
  8
0
  6
CONTINUOUS
 10
552.648682
 20
166.990005
 40
1.000000
 50
92.000000
 51
268.000000
  0
ARC
  8
0
  6
CONTINUOUS
 10
562.340454
 20
184.435013
 40
1.000000
 50
272.000000
 51
341.100769
  0
ARC
  8
0
  6
CONTINUOUS
 10
560.186890
 20
176.820541
 40
1.000000
 50
272.000000
 51
347.314667
  0
ARC
  8
0
  6
CONTINUOUS
 10
560.975891
 20
179.992630
 40
1.000000
 50
-15.251099
 51
88.000000
  0
ARC
  8
0
  6
CONTINUOUS
 10
555.358704
 20
182.189987
 40
1.000000
 50
92.000000
 51
268.000000
  0
ARC
  8
0
  6
CONTINUOUS
 10
701.415283
 20
124.189995
 40
1.000000
 50
-88.000000
 51
88.000000
  0
ARC
  8
0
  6
CONTINUOUS
 10
695.790405
 20
126.387650
 40
1.000000
 50
151.883545
 51
268.000000
  0
ARC
  8
0
  6
CONTINUOUS
 10
693.184265
 20
121.901360
 40
1.000000
 50
92.000000
 51
147.810486
  0
ARC
  8
0
  6
CONTINUOUS
 10
561.394775
 20
124.189995
 40
1.000000
 50
92.000000
 51
268.000000
  0
ARC
  8
0
  6
CONTINUOUS
 10
575.482239
 20
104.990005
 40
1.000000
 50
92.000000
 51
268.000000
  0
ARC
  8
0
  6
CONTINUOUS
 10
584.471985
 20
98.490005
 40
1.000000
 50
92.000000
 51
268.000000
  0
ARC
  8
0
  6
CONTINUOUS
 10
569.437317
 20
111.789993
 40
1.000000
 50
92.000000
 51
268.000000
  0
ARC
  8
0
  6
CONTINUOUS
 10
575.373291
 20
113.998489
 40
1.000000
 50
-88.000000
 51
39.864883
  0
ARC
  8
0
  6
CONTINUOUS
 10
579.522217
 20
109.436607
 40
1.000000
 50
44.706161
 51
88.000000
  0
ARC
  8
0
  6
CONTINUOUS
 10
567.019653
 20
126.387650
 40
1.000000
 50
-88.000000
 51
28.116451
  0
ARC
  8
0
  6
CONTINUOUS
 10
569.625793
 20
121.901360
 40
1.000000
 50
32.189507
 51
88.000000
  0
ARC
  8
0
  6
CONTINUOUS
 10
581.822144
 20
107.212608
 40
1.000000
 50
-88.000000
 51
47.217453
  0
ARC
  8
0
  6
CONTINUOUS
 10
565.446899
 20
129.508560
 40
1.000000
 50
25.373219
 51
88.000000
  0
ARC
  8
0
  6
CONTINUOUS
 10
687.327820
 20
104.990005
 40
1.000000
 50
-88.000000
 51
88.000000
  0
ARC
  8
0
  6
CONTINUOUS
 10
678.338074
 20
98.490005
 40
1.000000
 50
-88.000000
 51
88.000000
  0
ARC
  8
0
  6
CONTINUOUS
 10
687.436768
 20
113.998489
 40
1.000000
 50
140.135117
 51
268.000000
  0
ARC
  8
0
  6
CONTINUOUS
 10
683.287903
 20
109.436607
 40
1.000000
 50
92.000000
 51
135.293839
  0
ARC
  8
0
  6
CONTINUOUS
 10
680.987915
 20
107.212608
 40
1.000000
 50
132.782547
 51
268.000000
  0
ARC
  8
0
  6
CONTINUOUS
 10
693.372742
 20
111.789993
 40
1.000000
 50
-88.000000
 51
88.000000
  0
ARC
  8
0
  6
CONTINUOUS
 10
709.190369
 20
174.589981
 40
1.000000
 50
-88.000000
 51
88.000000
  0
ARC
  8
0
  6
CONTINUOUS
 10
707.451355
 20
139.389999
 40
1.000000
 50
-88.000000
 51
88.000000
  0
ARC
  8
0
  6
CONTINUOUS
 10
700.469604
 20
137.144974
 40
1.000000
 50
92.000000
 51
161.100784
  0
ARC
  8
0
  6
CONTINUOUS
 10
699.306091
 20
133.986191
 40
1.000000
 50
158.458481
 51
268.000000
  0
ARC
  8
0
  6
CONTINUOUS
 10
697.371521
 20
129.526230
 40
1.000000
 50
92.000000
 51
154.642136
  0
ARC
  8
0
  6
CONTINUOUS
 10
704.889709
 20
131.789993
 40
1.000000
 50
-88.000000
 51
88.000000
  0
ARC
  8
0
  6
CONTINUOUS
 10
703.477600
 20
149.190720
 40
1.000000
 50
170.857269
 51
268.000000
  0
ARC
  8
0
  6
CONTINUOUS
 10
701.834167
 20
141.587357
 40
1.000000
 50
164.748901
 51
268.000000
  0
ARC
  8
0
  6
CONTINUOUS
 10
702.623169
 20
144.759445
 40
1.000000
 50
92.000000
 51
167.314667
  0
ARC
  8
0
  6
CONTINUOUS
 10
709.190369
 20
146.990005
 40
1.000000
 50
-88.000000
 51
88.000000
  0
ARC
  8
0
  6
CONTINUOUS
 10
703.917908
 20
152.370743
 40
1.000000
 50
92.000000
 51
173.377213
  0
ARC
  8
0
  6
CONTINUOUS
 10
704.295715
 20
156.796036
 40
1.000000
 50
176.863693
 51
268.000000
  0
ARC
  8
0
  6
CONTINUOUS
 10
710.161377
 20
154.589981
 40
1.000000
 50
-88.000000
 51
88.000000
  0
ARC
  8
0
  6
CONTINUOUS
 10
703.477600
 20
172.389267
 40
1.000000
 50
92.000000
 51
189.142731
  0
ARC
  8
0
  6
CONTINUOUS
 10
704.295715
 20
164.783951
 40
1.000000
 50
92.000000
 51
183.136307
  0
ARC
  8
0
  6
CONTINUOUS
 10
703.917908
 20
169.209244
 40
1.000000
 50
186.622787
 51
268.000000
  0
ARC
  8
0
  6
CONTINUOUS
 10
710.161377
 20
166.990005
 40
1.000000
 50
-88.000000
 51
88.000000
  0
ARC
  8
0
  6
CONTINUOUS
 10
695.790405
 20
195.192337
 40
1.000000
 50
92.000000
 51
208.116455
  0
ARC
  8
0
  6
CONTINUOUS
 10
693.372742
 20
209.789993
 40
1.000000
 50
-88.000000
 51
88.000000
  0
ARC
  8
0
  6
CONTINUOUS
 10
701.415283
 20
197.389999
 40
1.000000
 50
-88.000000
 51
88.000000
  0
ARC
  8
0
  6
CONTINUOUS
 10
700.469604
 20
184.435013
 40
1.000000
 50
198.899216
 51
268.000000
  0
ARC
  8
0
  6
CONTINUOUS
 10
702.623169
 20
176.820541
 40
1.000000
 50
192.685333
 51
268.000000
  0
ARC
  8
0
  6
CONTINUOUS
 10
701.834167
 20
179.992630
 40
1.000000
 50
92.000000
 51
195.251099
  0
ARC
  8
0
  6
CONTINUOUS
 10
707.451355
 20
182.189987
 40
1.000000
 50
-88.000000
 51
88.000000
  0
ARC
  8
0
  6
CONTINUOUS
 10
699.306091
 20
187.593796
 40
1.000000
 50
92.000000
 51
201.541519
  0
ARC
  8
0
  6
CONTINUOUS
 10
697.371521
 20
192.053757
 40
1.000000
 50
205.357864
 51
268.000000
  0
ARC
  8
0
  6
CONTINUOUS
 10
704.889709
 20
189.789993
 40
1.000000
 50
-88.000000
 51
88.000000
  0
ARC
  8
0
  6
CONTINUOUS
 10
556.405029
 20
202.789993
 40
5.000000
 50
-90.000000
 51
90.000000
  0
ARC
  8
0
  6
CONTINUOUS
 10
631.405029
 20
160.789993
 40
71.000000
 50
158.518707
 51
230.668701
  0
ARC
  8
0
  6
CONTINUOUS
 10
631.405029
 20
160.789993
 40
71.000000
 50
-50.668701
 51
29.162670
  0
ARC
  8
0
  6
CONTINUOUS
 10
703.905029
 20
78.289993
 40
2.500000
 50
0.000000
 51
90.000000
  0
ARC
  8
0
  6
CONTINUOUS
 10
680.405029
 20
84.790016
 40
4.000000
 50
180.000000
 51
270.000000
  0
ARC
  8
0
  6
CONTINUOUS
 10
558.905029
 20
78.290016
 40
2.500000
 50
90.000000
 51
180.000000
  0
ARC
  8
0
  6
CONTINUOUS
 10
582.405029
 20
84.789955
 40
4.000000
 50
-90.000000
 51
0.000000
  0
ARC
  8
0
  6
CONTINUOUS
 10
681.405029
 20
250.531219
 40
5.000000
 50
180.000000
 51
253.610794
  0
ARC
  8
0
  6
CONTINUOUS
 10
690.405029
 20
158.738251
 40
4.000000
 50
106.389999
 51
180.000000
  0
ARC
  8
0
  6
CONTINUOUS
 10
681.405029
 20
108.134033
 40
5.000000
 50
106.172501
 51
180.000000
  0
ARC
  8
0
  6
CONTINUOUS
 10
581.405029
 20
108.133980
 40
5.000000
 50
0.000000
 51
73.827919
  0
ARC
  8
0
  6
CONTINUOUS
 10
572.405029
 20
158.738220
 40
4.000000
 50
0.000000
 51
73.610649
  0
ARC
  8
0
  6
CONTINUOUS
 10
581.405029
 20
250.531174
 40
5.000000
 50
-73.610229
 51
0.000000
  0
ARC
  8
0
  6
CONTINUOUS
 10
581.405029
 20
118.546036
 40
5.000000
 50
180.000000
 51
253.828201
  0
ARC
  8
0
  6
CONTINUOUS
 10
681.405029
 20
118.545998
 40
5.000000
 50
-73.827698
 51
0.000000
  0
ARC
  8
0
  6
CONTINUOUS
 10
688.405029
 20
167.531174
 40
5.000000
 50
-73.610321
 51
0.000000
  0
ARC
  8
0
  6
CONTINUOUS
 10
574.405029
 20
167.531219
 40
5.000000
 50
180.000000
 51
253.610794
  0
ARC
  8
0
  6
CONTINUOUS
 10
688.405029
 20
238.048798
 40
5.000000
 50
0.000000
 51
73.610527
  0
ARC
  8
0
  6
CONTINUOUS
 10
574.405029
 20
238.048843
 40
5.000000
 50
106.389900
 51
180.000000
  0
ARC
  8
0
  6
CONTINUOUS
 10
673.405029
 20
264.056763
 40
3.000000
 50
0.000000
 51
89.000580
  0
ARC
  8
0
  6
CONTINUOUS
 10
589.405029
 20
264.056305
 40
3.000000
 50
91.000603
 51
180.000000
  0
LINE
  8
0
  6
CONTINUOUS
 10
557.405029
 20
181.117920
 11
557.405029
 21
175.722778
  0
LINE
  8
0
  6
CONTINUOUS
 10
555.905029
 20
183.209671
 11
555.905029
 21
186.789993
  0
LINE
  8
0
  6
CONTINUOUS
 10
557.405029
 20
173.457184
 11
557.405029
 21
168.156708
  0
LINE
  8
0
  6
CONTINUOUS
 10
555.905029
 20
175.670395
 11
555.905029
 21
181.170303
  0
LINE
  8
0
  6
CONTINUOUS
 10
555.905029
 20
168.104324
 11
555.905029
 21
173.509567
  0
LINE
  8
0
  6
CONTINUOUS
 10
557.405029
 20
165.823303
 11
557.405029
 21
155.756683
  0
LINE
  8
0
  6
CONTINUOUS
 10
557.405029
 20
153.423279
 11
557.405029
 21
148.122803
  0
LINE
  8
0
  6
CONTINUOUS
 10
555.905029
 20
155.704300
 11
555.905029
 21
165.875687
  0
LINE
  8
0
  6
CONTINUOUS
 10
557.405029
 20
145.857208
 11
557.405029
 21
140.462067
  0
LINE
  8
0
  6
CONTINUOUS
 10
555.905029
 20
148.070419
 11
555.905029
 21
153.475662
  0
LINE
  8
0
  6
CONTINUOUS
 10
557.405029
 20
138.317932
 11
557.405029
 21
132.646988
  0
LINE
  8
0
  6
CONTINUOUS
 10
555.905029
 20
140.409683
 11
555.905029
 21
145.909592
  0
LINE
  8
0
  6
CONTINUOUS
 10
557.405029
 20
130.932999
 11
557.405029
 21
130.790024
  0
TEXT
  8
0
 10
18.000000
 20
-5.000000
 40
10.000000
 41
1.000000
  1
H2LB-32R-5~60-075W
 50
0.000000
  0
ENDSEC
  0
EOF
