  0
SECTION
  2
HEADER
  9
$CLAYER
  8
1
  9
$LTSCALE
 40
3.0
  0
ENDSEC
  0
SECTION
  2
TABLES
  0
TABLE
  2
LTYPE
 70
     4
  0
LTYPE
  2
CONTINUOUS
  3
solid line
 70
    64
 72
    65
 73
     0
 40
0.0
  0
LTYPE
  2
DASHED
  3
__ __ __ __ __ __ __ __ __ __ __ __ __ __ __
 70
    64
 72
    65
 73
     2
 40
0.75
 49
0.5
 49
-0.25
  0
LTYPE
  2
CENTER
  3
____ _ ____ _ ____ _ ____ _ ____ _ ____ _ ____
 70
    64
 72
    65
 73
     4
 40
2.0
 49
1.25
 49
-0.25
 49
0.25
 49
-0.25
  0
LTYPE
  2
PHANTOM
  3
_____ _ _ _____ _ _ _____ _ _ _____ _ _ ____
 70
    64
 72
    65
 73
     6
 40
2.5
 49
1.25
 49
-0.25
 49
0.25
 49
-0.25
 49
0.25
 49
-0.25
  0
ENDTAB
  0
TABLE
  2
LAYER
 70
     1
  0
LAYER
  2
0
 70
    64
 62
     7
  6
CONTINUOUS
  0
ENDTAB
  0
TABLE
  2
STYLE
 70
     1
  0
STYLE
  2
STANDARD
 70
     0
 40
0.000000
 41
1.000000
 50
0.000000
 71
     0
 42
3.000000
  3
txt
  4
BIGFONT
  0
ENDTAB
  0
ENDSEC
  0
SECTION
  2
BLOCKS
  0
ENDSEC
  0
SECTION
  2
ENTITIES
  0
LINE
  8
0
  6
CONTINUOUS
 10
55.406330
 20
550.557373
 11
64.945518
 21
550.640625
  0
LINE
  8
0
  6
CONTINUOUS
 10
99.924133
 20
556.544189
 11
68.569427
 21
556.544189
  0
LINE
  8
0
  6
CONTINUOUS
 10
101.437027
 20
226.160080
 11
101.437027
 21
186.551071
  0
LINE
  8
0
  6
CONTINUOUS
 10
55.406330
 20
400.557404
 11
64.945518
 21
400.474152
  0
LINE
  8
0
  6
CONTINUOUS
 10
55.406132
 20
221.673218
 11
58.635330
 21
221.701401
  0
LINE
  8
0
  6
CONTINUOUS
 10
55.406132
 20
71.673225
 11
58.635330
 21
71.645042
  0
LINE
  8
0
  6
CONTINUOUS
 10
99.923935
 20
68.686424
 11
61.626320
 21
68.686424
  0
LINE
  8
0
  6
CONTINUOUS
 10
99.923935
 20
227.660019
 11
61.100811
 21
227.660019
  0
LINE
  8
0
  6
CONTINUOUS
 10
99.924133
 20
394.570618
 11
68.569427
 21
394.570618
  0
LINE
  8
0
  6
CONTINUOUS
 10
101.437225
 20
555.044250
 11
101.437225
 21
396.070557
  0
LINE
  8
0
  6
CONTINUOUS
 10
102.437035
 20
86.173248
 11
102.437035
 21
74.673225
  0
LINE
  8
0
  6
CONTINUOUS
 10
108.437004
 20
75.912926
 11
111.437004
 21
77.046288
  0
LINE
  8
0
  6
CONTINUOUS
 10
110.937004
 20
76.857391
 11
110.937004
 21
70.985748
  0
LINE
  8
0
  6
CONTINUOUS
 10
110.736984
 20
76.781830
 11
110.736984
 21
70.985748
  0
LINE
  8
0
  6
CONTINUOUS
 10
110.537010
 20
76.706268
 11
110.537010
 21
70.985748
  0
LINE
  8
0
  6
CONTINUOUS
 10
110.337029
 20
76.630730
 11
110.337029
 21
70.985748
  0
LINE
  8
0
  6
CONTINUOUS
 10
110.137047
 20
76.555168
 11
110.137047
 21
70.985748
  0
LINE
  8
0
  6
CONTINUOUS
 10
109.937004
 20
76.479652
 11
109.937004
 21
70.985748
  0
LINE
  8
0
  6
CONTINUOUS
 10
109.736984
 20
76.404053
 11
109.736984
 21
70.985748
  0
LINE
  8
0
  6
CONTINUOUS
 10
109.537010
 20
76.328529
 11
109.537010
 21
70.985748
  0
LINE
  8
0
  6
CONTINUOUS
 10
109.337029
 20
76.252968
 11
109.337029
 21
70.985748
  0
LINE
  8
0
  6
CONTINUOUS
 10
109.137047
 20
76.177406
 11
109.137047
 21
70.985748
  0
LINE
  8
0
  6
CONTINUOUS
 10
108.937004
 20
76.101830
 11
108.937004
 21
70.985748
  0
LINE
  8
0
  6
CONTINUOUS
 10
107.937004
 20
74.410408
 11
107.937004
 21
68.766991
  0
LINE
  8
0
  6
CONTINUOUS
 10
107.736984
 20
74.494286
 11
107.736984
 21
68.766991
  0
LINE
  8
0
  6
CONTINUOUS
 10
107.537010
 20
74.578148
 11
107.537010
 21
68.766991
  0
LINE
  8
0
  6
CONTINUOUS
 10
107.337029
 20
74.662010
 11
107.337029
 21
68.766991
  0
LINE
  8
0
  6
CONTINUOUS
 10
107.137047
 20
74.745888
 11
107.137047
 21
68.766991
  0
LINE
  8
0
  6
CONTINUOUS
 10
106.937004
 20
74.829750
 11
106.937004
 21
68.766991
  0
LINE
  8
0
  6
CONTINUOUS
 10
106.736984
 20
74.913612
 11
106.736984
 21
68.766991
  0
LINE
  8
0
  6
CONTINUOUS
 10
106.537010
 20
74.997467
 11
106.537010
 21
68.766991
  0
LINE
  8
0
  6
CONTINUOUS
 10
106.337029
 20
75.081390
 11
106.337029
 21
68.766991
  0
LINE
  8
0
  6
CONTINUOUS
 10
106.137047
 20
75.165230
 11
106.137047
 21
68.766991
  0
LINE
  8
0
  6
CONTINUOUS
 10
105.937004
 20
75.249107
 11
105.937004
 21
68.766991
  0
LINE
  8
0
  6
CONTINUOUS
 10
105.437004
 20
75.458771
 11
108.437004
 21
74.200706
  0
LINE
  8
0
  6
CONTINUOUS
 10
105.437004
 20
84.173248
 11
105.437004
 21
75.458771
  0
LINE
  8
0
  6
CONTINUOUS
 10
108.437004
 20
84.173248
 11
108.437004
 21
74.200706
  0
LINE
  8
0
  6
CONTINUOUS
 10
111.437004
 20
84.173248
 11
111.437004
 21
77.046288
  0
LINE
  8
0
  6
CONTINUOUS
 10
103.437004
 20
86.173248
 11
101.437004
 21
86.173248
  0
LINE
  8
0
  6
CONTINUOUS
 10
103.437004
 20
89.173248
 11
101.437004
 21
89.173248
  0
LINE
  8
0
  6
CONTINUOUS
 10
103.437004
 20
92.173248
 11
101.437004
 21
92.173248
  0
LINE
  8
0
  6
CONTINUOUS
 10
221.437027
 20
196.673233
 11
106.437035
 21
196.673233
  0
LINE
  8
0
  6
CONTINUOUS
 10
221.437027
 20
194.673233
 11
106.437035
 21
194.673233
  0
LINE
  8
0
  6
CONTINUOUS
 10
221.437027
 20
203.473221
 11
106.437035
 21
203.473221
  0
LINE
  8
0
  6
CONTINUOUS
 10
221.437027
 20
201.473221
 11
106.437035
 21
201.473221
  0
LINE
  8
0
  6
CONTINUOUS
 10
221.437027
 20
209.973221
 11
106.437035
 21
209.973221
  0
LINE
  8
0
  6
CONTINUOUS
 10
221.437027
 20
207.973221
 11
106.437035
 21
207.973221
  0
LINE
  8
0
  6
CONTINUOUS
 10
221.437027
 20
216.473221
 11
106.437035
 21
216.473221
  0
LINE
  8
0
  6
CONTINUOUS
 10
221.437027
 20
214.473221
 11
106.437035
 21
214.473221
  0
LINE
  8
0
  6
CONTINUOUS
 10
106.437035
 20
217.728073
 11
221.437027
 21
217.728073
  0
LINE
  8
0
  6
CONTINUOUS
 10
106.981438
 20
222.673233
 11
220.892624
 21
222.673233
  0
LINE
  8
0
  6
CONTINUOUS
 10
221.437027
 20
151.873230
 11
189.937027
 21
151.873230
  0
LINE
  8
0
  6
CONTINUOUS
 10
221.437027
 20
153.873230
 11
189.937027
 21
153.873230
  0
LINE
  8
0
  6
CONTINUOUS
 10
221.437027
 20
161.473221
 11
189.937027
 21
161.473221
  0
LINE
  8
0
  6
CONTINUOUS
 10
221.437027
 20
159.473206
 11
189.937027
 21
159.473206
  0
LINE
  8
0
  6
CONTINUOUS
 10
221.437027
 20
169.073227
 11
189.937027
 21
169.073227
  0
LINE
  8
0
  6
CONTINUOUS
 10
221.437027
 20
167.073227
 11
189.937027
 21
167.073227
  0
LINE
  8
0
  6
CONTINUOUS
 10
221.437027
 20
174.673233
 11
189.937027
 21
174.673233
  0
LINE
  8
0
  6
CONTINUOUS
 10
221.437027
 20
118.673225
 11
189.937027
 21
118.673225
  0
LINE
  8
0
  6
CONTINUOUS
 10
221.437027
 20
126.273232
 11
189.937027
 21
126.273232
  0
LINE
  8
0
  6
CONTINUOUS
 10
221.437027
 20
124.273232
 11
189.937027
 21
124.273232
  0
LINE
  8
0
  6
CONTINUOUS
 10
221.437027
 20
133.873230
 11
189.937027
 21
133.873230
  0
LINE
  8
0
  6
CONTINUOUS
 10
221.437027
 20
131.873230
 11
189.937027
 21
131.873230
  0
LINE
  8
0
  6
CONTINUOUS
 10
221.437027
 20
139.473206
 11
189.937027
 21
139.473206
  0
LINE
  8
0
  6
CONTINUOUS
 10
221.437027
 20
141.473206
 11
189.937027
 21
141.473206
  0
LINE
  8
0
  6
CONTINUOUS
 10
221.437027
 20
176.673233
 11
185.937149
 21
176.673233
  0
LINE
  8
0
  6
CONTINUOUS
 10
221.437027
 20
184.273239
 11
184.085510
 21
184.273239
  0
LINE
  8
0
  6
CONTINUOUS
 10
221.437027
 20
182.273239
 11
185.253769
 21
182.273239
  0
LINE
  8
0
  6
CONTINUOUS
 10
221.437027
 20
98.673225
 11
106.437035
 21
98.673225
  0
LINE
  8
0
  6
CONTINUOUS
 10
221.437027
 20
111.073219
 11
185.253769
 21
111.073219
  0
LINE
  8
0
  6
CONTINUOUS
 10
221.437027
 20
109.073219
 11
184.085495
 21
109.073219
  0
LINE
  8
0
  6
CONTINUOUS
 10
221.437027
 20
116.673225
 11
185.937149
 21
116.673225
  0
LINE
  8
0
  6
CONTINUOUS
 10
221.437027
 20
85.373238
 11
111.346497
 21
85.373238
  0
LINE
  8
0
  6
CONTINUOUS
 10
221.437027
 20
91.873238
 11
106.437035
 21
91.873238
  0
LINE
  8
0
  6
CONTINUOUS
 10
221.437027
 20
89.873238
 11
109.050392
 21
89.873238
  0
LINE
  8
0
  6
CONTINUOUS
 10
221.437027
 20
96.673225
 11
106.437035
 21
96.673225
  0
LINE
  8
0
  6
CONTINUOUS
 10
108.437004
 20
75.618385
 11
221.437027
 21
75.618385
  0
LINE
  8
0
  6
CONTINUOUS
 10
221.437027
 20
78.873238
 11
111.437004
 21
78.873238
  0
LINE
  8
0
  6
CONTINUOUS
 10
221.437027
 20
76.873238
 11
110.978943
 21
76.873238
  0
LINE
  8
0
  6
CONTINUOUS
 10
221.437027
 20
83.373238
 11
111.437004
 21
83.373238
  0
LINE
  8
0
  6
CONTINUOUS
 10
106.981438
 20
70.673225
 11
220.892624
 21
70.673225
  0
LINE
  8
0
  6
CONTINUOUS
 10
242.437027
 20
74.673225
 11
223.276138
 21
74.673225
  0
LINE
  8
0
  6
CONTINUOUS
 10
221.877426
 20
71.499580
 11
222.291321
 21
73.846870
  0
LINE
  8
0
  6
CONTINUOUS
 10
222.437027
 20
77.873238
 11
222.437027
 21
74.217201
  0
LINE
  8
0
  6
CONTINUOUS
 10
242.437027
 20
218.673233
 11
223.276138
 21
218.673233
  0
LINE
  8
0
  6
CONTINUOUS
 10
222.437027
 20
215.473221
 11
222.437027
 21
219.129257
  0
LINE
  8
0
  6
CONTINUOUS
 10
221.877426
 20
221.846878
 11
222.291321
 21
219.499588
  0
LINE
  8
0
  6
CONTINUOUS
 10
102.437035
 20
218.673233
 11
102.437035
 21
187.031021
  0
LINE
  8
0
  6
CONTINUOUS
 10
104.597923
 20
74.673225
 11
102.437035
 21
74.673225
  0
LINE
  8
0
  6
CONTINUOUS
 10
105.996620
 20
71.499580
 11
105.582741
 21
73.846870
  0
LINE
  8
0
  6
CONTINUOUS
 10
105.437035
 20
77.873238
 11
105.437035
 21
74.217201
  0
LINE
  8
0
  6
CONTINUOUS
 10
188.937027
 20
122.273232
 11
188.937027
 21
121.673225
  0
LINE
  8
0
  6
CONTINUOUS
 10
188.937027
 20
137.473206
 11
188.937027
 21
135.873230
  0
LINE
  8
0
  6
CONTINUOUS
 10
188.937027
 20
129.873230
 11
188.937027
 21
128.273224
  0
LINE
  8
0
  6
CONTINUOUS
 10
188.937027
 20
149.873230
 11
188.937027
 21
143.473206
  0
LINE
  8
0
  6
CONTINUOUS
 10
188.937027
 20
157.473206
 11
188.937027
 21
155.873230
  0
LINE
  8
0
  6
CONTINUOUS
 10
188.937027
 20
171.673233
 11
188.937027
 21
171.073227
  0
LINE
  8
0
  6
CONTINUOUS
 10
188.937027
 20
165.073227
 11
188.937027
 21
163.473221
  0
LINE
  8
0
  6
CONTINUOUS
 10
105.437035
 20
215.473221
 11
105.437035
 21
219.129257
  0
LINE
  8
0
  6
CONTINUOUS
 10
104.597923
 20
218.673233
 11
102.437035
 21
218.673233
  0
LINE
  8
0
  6
CONTINUOUS
 10
105.996620
 20
221.846878
 11
105.582741
 21
219.499588
  0
LINE
  8
0
  6
CONTINUOUS
 10
101.437027
 20
76.173233
 11
102.437027
 21
76.173233
  0
LINE
  8
0
  6
CONTINUOUS
 10
101.437027
 20
217.173233
 11
102.437027
 21
217.173233
  0
LINE
  8
0
  6
CONTINUOUS
 10
105.437225
 20
447.678741
 11
105.437225
 21
503.436066
  0
LINE
  8
0
  6
CONTINUOUS
 10
105.657898
 20
402.359558
 11
105.582916
 21
402.731049
  0
LINE
  8
0
  6
CONTINUOUS
 10
190.370422
 20
398.511108
 11
220.621460
 21
398.511108
  0
LINE
  8
0
  6
CONTINUOUS
 10
190.721420
 20
396.772064
 11
220.270447
 21
396.772064
  0
LINE
  8
0
  6
CONTINUOUS
 10
189.937180
 20
396.603241
 11
188.937225
 21
401.557404
  0
LINE
  8
0
  6
CONTINUOUS
 10
104.598114
 20
403.557404
 11
102.437225
 21
403.557404
  0
LINE
  8
0
  6
CONTINUOUS
 10
188.937225
 20
401.557404
 11
106.638130
 21
401.557404
  0
LINE
  8
0
  6
CONTINUOUS
 10
106.925362
 20
405.373474
 11
105.437225
 21
413.813080
  0
LINE
  8
0
  6
CONTINUOUS
 10
107.252235
 20
413.416046
 11
105.437225
 21
423.709473
  0
LINE
  8
0
  6
CONTINUOUS
 10
107.568512
 20
419.460968
 11
105.437225
 21
431.548096
  0
LINE
  8
0
  6
CONTINUOUS
 10
107.810081
 20
428.450745
 11
105.437225
 21
441.907867
  0
LINE
  8
0
  6
CONTINUOUS
 10
106.648918
 20
440.806885
 11
105.437225
 21
447.678741
  0
LINE
  8
0
  6
CONTINUOUS
 10
221.074799
 20
401.899078
 11
222.437225
 21
409.625824
  0
LINE
  8
0
  6
CONTINUOUS
 10
220.949097
 20
405.373474
 11
222.437225
 21
413.813080
  0
LINE
  8
0
  6
CONTINUOUS
 10
220.622223
 20
413.416046
 11
222.437225
 21
423.709473
  0
LINE
  8
0
  6
CONTINUOUS
 10
220.305939
 20
419.460968
 11
222.437225
 21
431.548096
  0
LINE
  8
0
  6
CONTINUOUS
 10
220.064377
 20
428.450745
 11
222.437225
 21
441.907867
  0
LINE
  8
0
  6
CONTINUOUS
 10
221.225525
 20
440.806885
 11
222.437225
 21
447.678741
  0
LINE
  8
0
  6
CONTINUOUS
 10
105.437225
 20
447.678741
 11
222.437225
 21
447.678741
  0
LINE
  8
0
  6
CONTINUOUS
 10
220.240723
 20
439.980530
 11
107.633728
 21
439.980530
  0
LINE
  8
0
  6
CONTINUOUS
 10
219.079559
 20
427.624390
 11
108.794891
 21
427.624390
  0
LINE
  8
0
  6
CONTINUOUS
 10
219.321136
 20
418.634613
 11
108.553322
 21
418.634613
  0
LINE
  8
0
  6
CONTINUOUS
 10
219.637405
 20
412.589691
 11
108.237045
 21
412.589691
  0
LINE
  8
0
  6
CONTINUOUS
 10
107.910164
 20
404.547119
 11
219.964294
 21
404.547119
  0
LINE
  8
0
  6
CONTINUOUS
 10
220.089981
 20
401.072723
 11
189.035049
 21
401.072723
  0
LINE
  8
0
  6
CONTINUOUS
 10
220.074463
 20
395.801086
 11
190.917404
 21
395.801086
  0
LINE
  8
0
  6
CONTINUOUS
 10
221.054703
 20
396.603241
 11
222.291534
 21
402.731049
  0
LINE
  8
0
  6
CONTINUOUS
 10
107.252998
 20
552.603699
 11
220.621460
 21
552.603699
  0
LINE
  8
0
  6
CONTINUOUS
 10
106.799660
 20
549.215698
 11
105.437225
 21
541.488953
  0
LINE
  8
0
  6
CONTINUOUS
 10
106.925362
 20
545.741333
 11
105.437225
 21
537.301697
  0
LINE
  8
0
  6
CONTINUOUS
 10
107.252235
 20
537.698730
 11
105.437225
 21
527.405334
  0
LINE
  8
0
  6
CONTINUOUS
 10
107.568512
 20
531.653809
 11
105.437225
 21
519.566711
  0
LINE
  8
0
  6
CONTINUOUS
 10
107.810081
 20
522.664062
 11
105.437225
 21
509.206940
  0
LINE
  8
0
  6
CONTINUOUS
 10
106.648918
 20
510.307922
 11
105.437225
 21
503.436066
  0
LINE
  8
0
  6
CONTINUOUS
 10
106.819756
 20
554.511536
 11
105.582916
 21
548.383728
  0
LINE
  8
0
  6
CONTINUOUS
 10
221.074799
 20
549.215698
 11
222.437225
 21
541.488953
  0
LINE
  8
0
  6
CONTINUOUS
 10
220.949097
 20
545.741333
 11
222.437225
 21
537.301697
  0
LINE
  8
0
  6
CONTINUOUS
 10
220.622223
 20
537.698730
 11
222.437225
 21
527.405334
  0
LINE
  8
0
  6
CONTINUOUS
 10
220.305939
 20
531.653809
 11
222.437225
 21
519.566711
  0
LINE
  8
0
  6
CONTINUOUS
 10
220.064377
 20
522.664062
 11
222.437225
 21
509.206940
  0
LINE
  8
0
  6
CONTINUOUS
 10
221.225525
 20
510.307922
 11
222.437225
 21
503.436066
  0
LINE
  8
0
  6
CONTINUOUS
 10
105.437225
 20
503.436066
 11
222.437225
 21
503.436066
  0
LINE
  8
0
  6
CONTINUOUS
 10
220.240723
 20
511.134277
 11
107.633728
 21
511.134277
  0
LINE
  8
0
  6
CONTINUOUS
 10
219.079559
 20
523.490417
 11
108.794891
 21
523.490417
  0
LINE
  8
0
  6
CONTINUOUS
 10
219.321136
 20
532.480164
 11
108.553322
 21
532.480164
  0
LINE
  8
0
  6
CONTINUOUS
 10
219.637405
 20
538.525085
 11
108.237045
 21
538.525085
  0
LINE
  8
0
  6
CONTINUOUS
 10
219.964294
 20
546.567688
 11
107.910164
 21
546.567688
  0
LINE
  8
0
  6
CONTINUOUS
 10
220.089981
 20
550.042053
 11
107.784470
 21
550.042053
  0
LINE
  8
0
  6
CONTINUOUS
 10
107.604004
 20
554.342712
 11
220.270447
 21
554.342712
  0
LINE
  8
0
  6
CONTINUOUS
 10
220.074463
 20
555.313721
 11
107.799988
 21
555.313721
  0
LINE
  8
0
  6
CONTINUOUS
 10
102.437225
 20
547.557373
 11
102.437225
 21
403.557404
  0
LINE
  8
0
  6
CONTINUOUS
 10
104.598114
 20
547.557373
 11
102.437225
 21
547.557373
  0
LINE
  8
0
  6
CONTINUOUS
 10
242.437225
 20
403.557404
 11
223.276337
 21
403.557404
  0
LINE
  8
0
  6
CONTINUOUS
 10
242.437225
 20
547.557373
 11
223.276337
 21
547.557373
  0
LINE
  8
0
  6
CONTINUOUS
 10
222.437225
 20
447.678741
 11
222.437225
 21
503.436066
  0
LINE
  8
0
  6
CONTINUOUS
 10
221.054703
 20
554.511536
 11
222.291534
 21
548.383728
  0
LINE
  8
0
  6
CONTINUOUS
 10
101.437225
 20
405.057404
 11
102.437225
 21
405.057404
  0
LINE
  8
0
  6
CONTINUOUS
 10
101.437225
 20
546.057373
 11
102.437225
 21
546.057373
  0
LINE
  8
0
  6
CONTINUOUS
 10
101.437225
 20
546.057373
 11
102.437225
 21
546.057373
  0
ARC
  8
0
  6
CONTINUOUS
 10
99.937225
 20
555.044250
 40
1.500000
 50
0.000000
 51
90.500000
  0
ARC
  8
0
  6
CONTINUOUS
 10
68.569427
 20
554.544189
 40
2.000000
 50
90.000000
 51
168.553116
  0
ARC
  8
0
  6
CONTINUOUS
 10
64.936790
 20
551.640625
 40
1.000000
 50
270.500000
 51
349.062744
  0
ARC
  8
0
  6
CONTINUOUS
 10
55.406330
 20
535.557373
 40
15.000000
 50
90.000000
 51
171.480377
  0
ARC
  8
0
  6
CONTINUOUS
 10
99.937225
 20
396.070557
 40
1.500000
 50
-90.500000
 51
0.000000
  0
ARC
  8
0
  6
CONTINUOUS
 10
99.937027
 20
226.160080
 40
1.500000
 50
0.000000
 51
90.500000
  0
ARC
  8
0
  6
CONTINUOUS
 10
99.937027
 20
70.186371
 40
1.500000
 50
-90.500000
 51
0.000000
  0
ARC
  8
0
  6
CONTINUOUS
 10
64.936790
 20
399.474182
 40
1.000000
 50
10.937243
 51
89.500000
  0
ARC
  8
0
  6
CONTINUOUS
 10
68.569427
 20
396.570618
 40
2.000000
 50
191.446884
 51
270.000000
  0
ARC
  8
0
  6
CONTINUOUS
 10
55.406330
 20
415.557404
 40
15.000000
 50
188.519623
 51
270.000000
  0
ARC
  8
0
  6
CONTINUOUS
 10
61.100811
 20
225.660019
 40
2.000000
 50
90.000000
 51
191.331467
  0
ARC
  8
0
  6
CONTINUOUS
 10
58.626602
 20
222.701370
 40
1.000000
 50
-89.500000
 51
10.984692
  0
ARC
  8
0
  6
CONTINUOUS
 10
61.626320
 20
70.686424
 40
2.000000
 50
180.789703
 51
270.000000
  0
ARC
  8
0
  6
CONTINUOUS
 10
58.626602
 20
70.645081
 40
1.000000
 50
0.789699
 51
89.500000
  0
ARC
  8
0
  6
CONTINUOUS
 10
55.406132
 20
86.673225
 40
15.000000
 50
188.519623
 51
270.000000
  0
ARC
  8
0
  6
CONTINUOUS
 10
455.937042
 20
146.673218
 40
420.000000
 50
171.480377
 51
188.519623
  0
ARC
  8
0
  6
CONTINUOUS
 10
55.406132
 20
206.673218
 40
15.000000
 50
90.000000
 51
171.480377
  0
ARC
  8
0
  6
CONTINUOUS
 10
-333.062958
 20
146.673218
 40
400.000000
 50
-10.968414
 51
11.331461
  0
ARC
  8
0
  6
CONTINUOUS
 10
458.652863
 20
475.557404
 40
400.000000
 50
168.553116
 51
191.446884
  0
ARC
  8
0
  6
CONTINUOUS
 10
455.937225
 20
475.557404
 40
420.000000
 50
171.480377
 51
188.519623
  0
ARC
  8
0
  6
CONTINUOUS
 10
103.437004
 20
84.173248
 40
8.000000
 50
0.000000
 51
90.000000
  0
ARC
  8
0
  6
CONTINUOUS
 10
103.437004
 20
84.173248
 40
5.000000
 50
0.000000
 51
90.000000
  0
ARC
  8
0
  6
CONTINUOUS
 10
103.437004
 20
84.173248
 40
2.000000
 50
0.000000
 51
90.000000
  0
ARC
  8
0
  6
CONTINUOUS
 10
190.865234
 20
172.673233
 40
2.000000
 50
90.000000
 51
188.213196
  0
ARC
  8
0
  6
CONTINUOUS
 10
190.937027
 20
171.073227
 40
2.000000
 50
180.000000
 51
270.000000
  0
ARC
  8
0
  6
CONTINUOUS
 10
190.937027
 20
163.473221
 40
2.000000
 50
180.000000
 51
270.000000
  0
ARC
  8
0
  6
CONTINUOUS
 10
190.937027
 20
157.473206
 40
2.000000
 50
90.000000
 51
180.000000
  0
ARC
  8
0
  6
CONTINUOUS
 10
190.937027
 20
149.873230
 40
2.000000
 50
90.000000
 51
180.000000
  0
ARC
  8
0
  6
CONTINUOUS
 10
190.937027
 20
155.873230
 40
2.000000
 50
180.000000
 51
270.000000
  0
ARC
  8
0
  6
CONTINUOUS
 10
190.937027
 20
165.073227
 40
2.000000
 50
90.000000
 51
180.000000
  0
ARC
  8
0
  6
CONTINUOUS
 10
190.937027
 20
135.873230
 40
2.000000
 50
180.000000
 51
270.000000
  0
ARC
  8
0
  6
CONTINUOUS
 10
190.937027
 20
137.473206
 40
2.000000
 50
90.000000
 51
180.000000
  0
ARC
  8
0
  6
CONTINUOUS
 10
190.937027
 20
128.273224
 40
2.000000
 50
180.000000
 51
270.000000
  0
ARC
  8
0
  6
CONTINUOUS
 10
190.937027
 20
122.273232
 40
2.000000
 50
90.000000
 51
180.000000
  0
ARC
  8
0
  6
CONTINUOUS
 10
190.937027
 20
129.873230
 40
2.000000
 50
90.000000
 51
180.000000
  0
ARC
  8
0
  6
CONTINUOUS
 10
190.865234
 20
120.673225
 40
2.000000
 50
171.786789
 51
270.000000
  0
ARC
  8
0
  6
CONTINUOUS
 10
190.937027
 20
143.473206
 40
2.000000
 50
180.000000
 51
270.000000
  0
ARC
  8
0
  6
CONTINUOUS
 10
221.437027
 20
90.873238
 40
1.000000
 50
-90.000000
 51
90.000000
  0
ARC
  8
0
  6
CONTINUOUS
 10
221.437027
 20
76.618385
 40
1.000000
 50
-90.000000
 51
0.000000
  0
ARC
  8
0
  6
CONTINUOUS
 10
221.437027
 20
77.873238
 40
1.000000
 50
-90.000000
 51
90.000000
  0
ARC
  8
0
  6
CONTINUOUS
 10
220.892624
 20
71.673225
 40
1.000000
 50
270.000000
 51
350.000000
  0
ARC
  8
0
  6
CONTINUOUS
 10
223.276138
 20
73.673225
 40
1.000000
 50
90.000000
 51
170.000000
  0
ARC
  8
0
  6
CONTINUOUS
 10
221.437027
 20
84.373238
 40
1.000000
 50
-90.000000
 51
90.000000
  0
ARC
  8
0
  6
CONTINUOUS
 10
221.437027
 20
97.673225
 40
1.000000
 50
-90.000000
 51
90.000000
  0
ARC
  8
0
  6
CONTINUOUS
 10
221.437027
 20
110.073219
 40
1.000000
 50
-90.000000
 51
90.000000
  0
ARC
  8
0
  6
CONTINUOUS
 10
221.437027
 20
160.473206
 40
1.000000
 50
-90.000000
 51
90.000000
  0
ARC
  8
0
  6
CONTINUOUS
 10
221.437027
 20
125.273232
 40
1.000000
 50
-90.000000
 51
90.000000
  0
ARC
  8
0
  6
CONTINUOUS
 10
221.437027
 20
117.673225
 40
1.000000
 50
-90.000000
 51
90.000000
  0
ARC
  8
0
  6
CONTINUOUS
 10
221.437027
 20
132.873230
 40
1.000000
 50
-90.000000
 51
90.000000
  0
ARC
  8
0
  6
CONTINUOUS
 10
221.437027
 20
140.473206
 40
1.000000
 50
-90.000000
 51
90.000000
  0
ARC
  8
0
  6
CONTINUOUS
 10
221.437027
 20
152.873230
 40
1.000000
 50
-90.000000
 51
90.000000
  0
ARC
  8
0
  6
CONTINUOUS
 10
221.437027
 20
183.273239
 40
1.000000
 50
-90.000000
 51
90.000000
  0
ARC
  8
0
  6
CONTINUOUS
 10
221.437027
 20
168.073227
 40
1.000000
 50
-90.000000
 51
90.000000
  0
ARC
  8
0
  6
CONTINUOUS
 10
221.437027
 20
175.673233
 40
1.000000
 50
-90.000000
 51
90.000000
  0
ARC
  8
0
  6
CONTINUOUS
 10
221.437027
 20
195.673233
 40
1.000000
 50
-90.000000
 51
90.000000
  0
ARC
  8
0
  6
CONTINUOUS
 10
221.437027
 20
202.473221
 40
1.000000
 50
-90.000000
 51
90.000000
  0
ARC
  8
0
  6
CONTINUOUS
 10
223.276138
 20
219.673233
 40
1.000000
 50
190.000000
 51
270.000000
  0
ARC
  8
0
  6
CONTINUOUS
 10
221.437027
 20
215.473221
 40
1.000000
 50
-90.000000
 51
90.000000
  0
ARC
  8
0
  6
CONTINUOUS
 10
221.437027
 20
216.728073
 40
1.000000
 50
0.000000
 51
90.000000
  0
ARC
  8
0
  6
CONTINUOUS
 10
221.437027
 20
208.973221
 40
1.000000
 50
-90.000000
 51
90.000000
  0
ARC
  8
0
  6
CONTINUOUS
 10
220.892624
 20
221.673233
 40
1.000000
 50
10.000000
 51
90.000000
  0
ARC
  8
0
  6
CONTINUOUS
 10
106.437035
 20
90.873238
 40
1.000000
 50
90.000000
 51
117.527046
  0
ARC
  8
0
  6
CONTINUOUS
 10
104.597923
 20
73.673225
 40
1.000000
 50
10.000000
 51
90.000000
  0
ARC
  8
0
  6
CONTINUOUS
 10
106.981438
 20
71.673225
 40
1.000000
 50
190.000000
 51
270.000000
  0
ARC
  8
0
  6
CONTINUOUS
 10
106.437035
 20
97.673225
 40
1.000000
 50
90.000000
 51
270.000000
  0
ARC
  8
0
  6
CONTINUOUS
 10
189.937027
 20
160.473206
 40
1.000000
 50
90.000000
 51
270.000000
  0
ARC
  8
0
  6
CONTINUOUS
 10
189.937027
 20
125.273232
 40
1.000000
 50
90.000000
 51
270.000000
  0
ARC
  8
0
  6
CONTINUOUS
 10
183.937027
 20
121.673225
 40
5.000000
 50
-8.213196
 51
0.000000
  0
ARC
  8
0
  6
CONTINUOUS
 10
189.937027
 20
117.673225
 40
1.000000
 50
90.000000
 51
270.000000
  0
ARC
  8
0
  6
CONTINUOUS
 10
189.937027
 20
132.873230
 40
1.000000
 50
90.000000
 51
270.000000
  0
ARC
  8
0
  6
CONTINUOUS
 10
189.937027
 20
140.473206
 40
1.000000
 50
90.000000
 51
270.000000
  0
ARC
  8
0
  6
CONTINUOUS
 10
189.937027
 20
152.873230
 40
1.000000
 50
90.000000
 51
270.000000
  0
ARC
  8
0
  6
CONTINUOUS
 10
183.937027
 20
171.673233
 40
5.000000
 50
0.000000
 51
8.213211
  0
ARC
  8
0
  6
CONTINUOUS
 10
189.937027
 20
168.073227
 40
1.000000
 50
90.000000
 51
270.000000
  0
ARC
  8
0
  6
CONTINUOUS
 10
189.937027
 20
175.673233
 40
1.000000
 50
90.000000
 51
270.000000
  0
ARC
  8
0
  6
CONTINUOUS
 10
106.437035
 20
195.673233
 40
1.000000
 50
90.000000
 51
270.000000
  0
ARC
  8
0
  6
CONTINUOUS
 10
106.437035
 20
202.473221
 40
1.000000
 50
90.000000
 51
270.000000
  0
ARC
  8
0
  6
CONTINUOUS
 10
104.597923
 20
219.673233
 40
1.000000
 50
270.000000
 51
350.000000
  0
ARC
  8
0
  6
CONTINUOUS
 10
106.437035
 20
216.728073
 40
1.000000
 50
90.000000
 51
180.000000
  0
ARC
  8
0
  6
CONTINUOUS
 10
106.437035
 20
215.473221
 40
1.000000
 50
90.000000
 51
270.000000
  0
ARC
  8
0
  6
CONTINUOUS
 10
106.437035
 20
208.973221
 40
1.000000
 50
90.000000
 51
270.000000
  0
ARC
  8
0
  6
CONTINUOUS
 10
106.981438
 20
221.673233
 40
1.000000
 50
90.000000
 51
170.000000
  0
ARC
  8
0
  6
CONTINUOUS
 10
106.638130
 20
402.557404
 40
1.000000
 50
191.411255
 51
270.000000
  0
ARC
  8
0
  6
CONTINUOUS
 10
190.721420
 20
397.772064
 40
1.000000
 50
191.411255
 51
270.000000
  0
ARC
  8
0
  6
CONTINUOUS
 10
190.370422
 20
399.511108
 40
1.000000
 50
191.411255
 51
270.000000
  0
ARC
  8
0
  6
CONTINUOUS
 10
190.917404
 20
396.801086
 40
1.000000
 50
191.411255
 51
270.000000
  0
ARC
  8
0
  6
CONTINUOUS
 10
107.910164
 20
405.547119
 40
1.000000
 50
190.000000
 51
270.000000
  0
ARC
  8
0
  6
CONTINUOUS
 10
108.237045
 20
413.589691
 40
1.000000
 50
190.000000
 51
270.000000
  0
ARC
  8
0
  6
CONTINUOUS
 10
108.553322
 20
419.634613
 40
1.000000
 50
190.000000
 51
270.000000
  0
ARC
  8
0
  6
CONTINUOUS
 10
108.794891
 20
428.624390
 40
1.000000
 50
190.000000
 51
270.000000
  0
ARC
  8
0
  6
CONTINUOUS
 10
107.633728
 20
440.980530
 40
1.000000
 50
190.000000
 51
270.000000
  0
ARC
  8
0
  6
CONTINUOUS
 10
104.598114
 20
402.557404
 40
1.000000
 50
10.000000
 51
90.000000
  0
ARC
  8
0
  6
CONTINUOUS
 10
220.089981
 20
402.072723
 40
1.000000
 50
270.000000
 51
350.000000
  0
ARC
  8
0
  6
CONTINUOUS
 10
219.964294
 20
405.547119
 40
1.000000
 50
270.000000
 51
350.000000
  0
ARC
  8
0
  6
CONTINUOUS
 10
219.637405
 20
413.589691
 40
1.000000
 50
270.000000
 51
350.000000
  0
ARC
  8
0
  6
CONTINUOUS
 10
219.321136
 20
419.634613
 40
1.000000
 50
270.000000
 51
350.000000
  0
ARC
  8
0
  6
CONTINUOUS
 10
219.079559
 20
428.624390
 40
1.000000
 50
270.000000
 51
350.000000
  0
ARC
  8
0
  6
CONTINUOUS
 10
220.240723
 20
440.980530
 40
1.000000
 50
270.000000
 51
350.000000
  0
ARC
  8
0
  6
CONTINUOUS
 10
220.270447
 20
397.772064
 40
1.000000
 50
270.000000
 51
348.588745
  0
ARC
  8
0
  6
CONTINUOUS
 10
220.621460
 20
399.511108
 40
1.000000
 50
270.000000
 51
348.588745
  0
ARC
  8
0
  6
CONTINUOUS
 10
220.074463
 20
396.801086
 40
1.000000
 50
270.000000
 51
348.588745
  0
ARC
  8
0
  6
CONTINUOUS
 10
223.276337
 20
402.557404
 40
1.000000
 50
90.000000
 51
170.000000
  0
ARC
  8
0
  6
CONTINUOUS
 10
107.784470
 20
549.042053
 40
1.000000
 50
90.000000
 51
170.000000
  0
ARC
  8
0
  6
CONTINUOUS
 10
107.910164
 20
545.567688
 40
1.000000
 50
90.000000
 51
170.000000
  0
ARC
  8
0
  6
CONTINUOUS
 10
108.237045
 20
537.525085
 40
1.000000
 50
90.000000
 51
170.000000
  0
ARC
  8
0
  6
CONTINUOUS
 10
108.553322
 20
531.480164
 40
1.000000
 50
90.000000
 51
170.000000
  0
ARC
  8
0
  6
CONTINUOUS
 10
108.794891
 20
522.490417
 40
1.000000
 50
90.000000
 51
170.000000
  0
ARC
  8
0
  6
CONTINUOUS
 10
107.633728
 20
510.134277
 40
1.000000
 50
90.000000
 51
170.000000
  0
ARC
  8
0
  6
CONTINUOUS
 10
107.604004
 20
553.342712
 40
1.000000
 50
90.000000
 51
168.588745
  0
ARC
  8
0
  6
CONTINUOUS
 10
107.252998
 20
551.603699
 40
1.000000
 50
90.000000
 51
168.588745
  0
ARC
  8
0
  6
CONTINUOUS
 10
107.799988
 20
554.313721
 40
1.000000
 50
90.000000
 51
168.588745
  0
ARC
  8
0
  6
CONTINUOUS
 10
104.598114
 20
548.557373
 40
1.000000
 50
270.000000
 51
350.000000
  0
ARC
  8
0
  6
CONTINUOUS
 10
220.089981
 20
549.042053
 40
1.000000
 50
10.000000
 51
90.000000
  0
ARC
  8
0
  6
CONTINUOUS
 10
219.964294
 20
545.567688
 40
1.000000
 50
10.000000
 51
90.000000
  0
ARC
  8
0
  6
CONTINUOUS
 10
219.637405
 20
537.525085
 40
1.000000
 50
10.000000
 51
90.000000
  0
ARC
  8
0
  6
CONTINUOUS
 10
219.321136
 20
531.480164
 40
1.000000
 50
10.000000
 51
90.000000
  0
ARC
  8
0
  6
CONTINUOUS
 10
219.079559
 20
522.490417
 40
1.000000
 50
10.000000
 51
90.000000
  0
ARC
  8
0
  6
CONTINUOUS
 10
220.240723
 20
510.134277
 40
1.000000
 50
10.000000
 51
90.000000
  0
ARC
  8
0
  6
CONTINUOUS
 10
220.270447
 20
553.342712
 40
1.000000
 50
11.411255
 51
90.000000
  0
ARC
  8
0
  6
CONTINUOUS
 10
220.621460
 20
551.603699
 40
1.000000
 50
11.411255
 51
90.000000
  0
ARC
  8
0
  6
CONTINUOUS
 10
220.074463
 20
554.313721
 40
1.000000
 50
11.411255
 51
90.000000
  0
ARC
  8
0
  6
CONTINUOUS
 10
223.276337
 20
548.557373
 40
1.000000
 50
190.000000
 51
270.000000
  0
LINE
  8
0
  6
CONTINUOUS
 10
549.716614
 20
116.673248
 11
551.216614
 21
116.673248
  0
LINE
  8
0
  6
CONTINUOUS
 10
549.716614
 20
116.673248
 11
551.216614
 21
116.673248
  0
LINE
  8
0
  6
CONTINUOUS
 10
551.216614
 20
172.673218
 11
551.216614
 21
169.145279
  0
LINE
  8
0
  6
CONTINUOUS
 10
544.278748
 20
172.673218
 11
544.278748
 21
107.570518
  0
LINE
  8
0
  6
CONTINUOUS
 10
549.716614
 20
106.373260
 11
549.716614
 21
124.253548
  0
LINE
  8
0
  6
CONTINUOUS
 10
173.937332
 20
400.057404
 11
173.937332
 21
401.557404
  0
LINE
  8
0
  6
CONTINUOUS
 10
113.937325
 20
400.057404
 11
113.937325
 21
401.557404
  0
LINE
  8
0
  6
CONTINUOUS
 10
106.059769
 20
400.057404
 11
177.925751
 21
400.057404
  0
LINE
  8
0
  6
CONTINUOUS
 10
180.463470
 20
398.440735
 11
180.529633
 21
398.298706
  0
LINE
  8
0
  6
CONTINUOUS
 10
183.971649
 20
366.216858
 11
183.971649
 21
392.323669
  0
LINE
  8
0
  6
CONTINUOUS
 10
103.259712
 20
397.257385
 11
103.259712
 21
362.267151
  0
LINE
  8
0
  6
CONTINUOUS
 10
173.171707
 20
355.416870
 11
103.611649
 21
355.416870
  0
LINE
  8
0
  6
CONTINUOUS
 10
184.759125
 20
393.256561
 11
100.802071
 21
354.106781
  0
LINE
  8
0
  6
CENTER
 10
143.937332
 20
411.781128
 11
143.937332
 21
351.057404
  0
LINE
  8
0
  6
CONTINUOUS
 10
185.387909
 20
394.984161
 11
183.250580
 21
399.567505
  0
LINE
  8
0
  6
CONTINUOUS
 10
99.737129
 20
136.673248
 11
99.737129
 21
178.873230
  0
LINE
  8
0
  6
CONTINUOUS
 10
105.737129
 20
184.873230
 11
177.137131
 21
184.873230
  0
LINE
  8
0
  6
CONTINUOUS
 10
177.137131
 20
187.673218
 11
105.737129
 21
187.673218
  0
LINE
  8
0
  6
CONTINUOUS
 10
99.074532
 20
354.735596
 11
96.937325
 21
359.318939
  0
LINE
  8
0
  6
CONTINUOUS
 10
183.248627
 20
399.566559
 11
96.937325
 21
359.318939
  0
LINE
  8
0
  6
CENTER
 10
96.439278
 20
377.057404
 11
113.479317
 21
377.057404
  0
LINE
  8
0
  6
CONTINUOUS
 10
99.737129
 20
114.473228
 11
99.737129
 21
114.673317
  0
LINE
  8
0
  6
CONTINUOUS
 10
177.137131
 20
105.673225
 11
105.737129
 21
105.673225
  0
LINE
  8
0
  6
CONTINUOUS
 10
105.737129
 20
108.473228
 11
177.137131
 21
108.473228
  0
LINE
  8
0
  6
CONTINUOUS
 10
96.937126
 20
114.473228
 11
96.937126
 21
178.873230
  0
LINE
  8
0
  6
CONTINUOUS
 10
503.216614
 20
113.173248
 11
503.216614
 21
180.173233
  0
LINE
  8
0
  6
CONTINUOUS
 10
183.137161
 20
114.473228
 11
183.137161
 21
178.873230
  0
LINE
  8
0
  6
CONTINUOUS
 10
185.937149
 20
114.473228
 11
185.937149
 21
178.873230
  0
LINE
  8
0
  6
CONTINUOUS
 10
510.016602
 20
106.373260
 11
549.716614
 21
106.373260
  0
CIRCLE
  8
0
  6
CONTINUOUS
 10
102.737129
 20
125.673256
 40
4.000000
  0
ARC
  8
0
  6
CONTINUOUS
 10
545.578796
 20
107.673248
 40
1.300000
 50
180.000000
 51
270.000000
  0
ARC
  8
0
  6
CONTINUOUS
 10
184.971649
 20
392.323669
 40
1.000000
 50
135.717499
 51
180.000000
  0
ARC
  8
0
  6
CONTINUOUS
 10
184.209686
 20
394.434753
 40
1.300000
 50
-65.000000
 51
25.000000
  0
ARC
  8
0
  6
CONTINUOUS
 10
173.171707
 20
366.216858
 40
10.800000
 50
-90.000000
 51
0.000000
  0
ARC
  8
0
  6
CONTINUOUS
 10
106.059769
 20
397.257385
 40
2.800000
 50
90.000000
 51
180.000000
  0
ARC
  8
0
  6
CONTINUOUS
 10
177.925751
 20
397.257385
 40
2.800000
 50
25.000000
 51
90.000000
  0
ARC
  8
0
  6
CONTINUOUS
 10
510.016602
 20
180.173233
 40
6.800000
 50
134.900360
 51
180.000000
  0
ARC
  8
0
  6
CONTINUOUS
 10
177.137131
 20
178.873230
 40
8.800000
 50
0.000000
 51
90.000000
  0
ARC
  8
0
  6
CONTINUOUS
 10
177.137131
 20
178.873230
 40
6.000000
 50
0.000000
 51
90.000000
  0
ARC
  8
0
  6
CONTINUOUS
 10
105.737129
 20
178.873230
 40
8.800000
 50
90.000000
 51
180.000000
  0
ARC
  8
0
  6
CONTINUOUS
 10
105.737129
 20
178.873230
 40
6.000000
 50
90.000000
 51
180.000000
  0
ARC
  8
0
  6
CONTINUOUS
 10
100.252754
 20
355.285004
 40
1.300000
 50
205.000000
 51
295.000000
  0
ARC
  8
0
  6
CONTINUOUS
 10
510.016602
 20
113.173248
 40
6.800000
 50
180.000000
 51
270.000000
  0
ARC
  8
0
  6
CONTINUOUS
 10
177.137131
 20
114.473228
 40
6.000000
 50
-90.000000
 51
0.000000
  0
ARC
  8
0
  6
CONTINUOUS
 10
177.137131
 20
114.473228
 40
8.800000
 50
-90.000000
 51
0.000000
  0
ARC
  8
0
  6
CONTINUOUS
 10
102.737129
 20
125.673256
 40
8.000000
 50
-89.781525
 51
90.000000
  0
ARC
  8
0
  6
CONTINUOUS
 10
102.736961
 20
114.673317
 40
3.000000
 50
90.218491
 51
180.601669
  0
ARC
  8
0
  6
CONTINUOUS
 10
105.737129
 20
114.473228
 40
6.000000
 50
180.000000
 51
270.000000
  0
ARC
  8
0
  6
CONTINUOUS
 10
105.737129
 20
114.473228
 40
8.800000
 50
180.000000
 51
270.000000
  0
ARC
  8
0
  6
CONTINUOUS
 10
102.737129
 20
136.673248
 40
3.000000
 50
180.000000
 51
270.000000
  0
LINE
  8
0
  6
CONTINUOUS
 10
102.437035
 20
92.173248
 11
102.437035
 21
106.315445
  0
LINE
  8
0
  6
CONTINUOUS
 10
101.437027
 20
70.186371
 11
101.437027
 21
106.795395
  0
LINE
  8
0
  6
CONTINUOUS
 10
242.437225
 20
547.557373
 11
242.437225
 21
403.557404
  0
LINE
  8
0
  6
CONTINUOUS
 10
697.965393
 20
66.898346
 11
672.918152
 21
69.403076
  0
LINE
  8
0
  6
CONTINUOUS
 10
552.467896
 20
66.898346
 11
577.515137
 21
69.403076
  0
LINE
  8
0
  6
CONTINUOUS
 10
366.649567
 20
69.245705
 11
369.749481
 21
67.385757
  0
LINE
  8
0
  6
CONTINUOUS
 10
365.937042
 20
69.555847
 11
365.937042
 21
67.673225
  0
LINE
  8
0
  6
CONTINUOUS
 10
315.224487
 20
69.245705
 11
312.124573
 21
67.385757
  0
LINE
  8
0
  6
CONTINUOUS
 10
315.937042
 20
69.555847
 11
315.937042
 21
67.673225
  0
LINE
  8
0
  6
CONTINUOUS
 10
316.767975
 20
69.673225
 11
365.106079
 21
69.673225
  0
LINE
  8
0
  6
CONTINUOUS
 10
549.135437
 20
124.273849
 11
556.187012
 21
124.027596
  0
LINE
  8
0
  6
CONTINUOUS
 10
551.697021
 20
118.672623
 11
557.350464
 21
118.870033
  0
LINE
  8
0
  6
CONTINUOUS
 10
551.697021
 20
116.673843
 11
559.285034
 21
116.408859
  0
LINE
  8
0
  6
CONTINUOUS
 10
549.135437
 20
126.272629
 11
554.822449
 21
126.471207
  0
LINE
  8
0
  6
CONTINUOUS
 10
547.396362
 20
131.873856
 11
554.033386
 21
131.642059
  0
LINE
  8
0
  6
CONTINUOUS
 10
547.396362
 20
133.872635
 11
553.178955
 21
134.074570
  0
LINE
  8
0
  6
CONTINUOUS
 10
546.425415
 20
139.473831
 11
552.738647
 21
139.253372
  0
LINE
  8
0
  6
CONTINUOUS
 10
546.425415
 20
141.472610
 11
552.360901
 21
141.679886
  0
LINE
  8
0
  6
CONTINUOUS
 10
547.396362
 20
159.473831
 11
553.178955
 21
159.271896
  0
LINE
  8
0
  6
CONTINUOUS
 10
546.425415
 20
153.872635
 11
552.738647
 21
154.093094
  0
LINE
  8
0
  6
CONTINUOUS
 10
546.425415
 20
151.873856
 11
552.360901
 21
151.666580
  0
LINE
  8
0
  6
CONTINUOUS
 10
549.135437
 20
167.073837
 11
554.822449
 21
166.875259
  0
LINE
  8
0
  6
CONTINUOUS
 10
549.135437
 20
169.072601
 11
556.187012
 21
169.318863
  0
LINE
  8
0
  6
CONTINUOUS
 10
547.396362
 20
161.472610
 11
554.033386
 21
161.704391
  0
LINE
  8
0
  6
CONTINUOUS
 10
242.437027
 20
218.673233
 11
242.437027
 21
74.673225
  0
LINE
  8
0
  6
CONTINUOUS
 10
695.261841
 20
111.072601
 11
689.567139
 21
111.271500
  0
LINE
  8
0
  6
CONTINUOUS
 10
695.261841
 20
109.073830
 11
686.960938
 21
108.783974
  0
LINE
  8
0
  6
CONTINUOUS
 10
578.248718
 20
83.373848
 11
580.216614
 21
83.305122
  0
LINE
  8
0
  6
CONTINUOUS
 10
555.171448
 20
111.072601
 11
560.866150
 21
111.271500
  0
LINE
  8
0
  6
CONTINUOUS
 10
555.171448
 20
109.073830
 11
563.472290
 21
108.783974
  0
LINE
  8
0
  6
CONTINUOUS
 10
569.258911
 20
89.873848
 11
580.216614
 21
89.491180
  0
LINE
  8
0
  6
CONTINUOUS
 10
578.248657
 20
85.372627
 11
580.216614
 21
85.441345
  0
LINE
  8
0
  6
CONTINUOUS
 10
569.258911
 20
91.872627
 11
575.668640
 21
92.096443
  0
LINE
  8
0
  6
CONTINUOUS
 10
563.213989
 20
98.672615
 11
569.219788
 21
98.882332
  0
LINE
  8
0
  6
CONTINUOUS
 10
563.213989
 20
96.673836
 11
573.368652
 21
96.319221
  0
LINE
  8
0
  6
CONTINUOUS
 10
553.146851
 20
116.605820
 11
559.293396
 21
116.391190
  0
LINE
  8
0
  6
CONTINUOUS
 10
681.174316
 20
89.873848
 11
670.216614
 21
89.491180
  0
LINE
  8
0
  6
CONTINUOUS
 10
672.184570
 20
83.373848
 11
670.216614
 21
83.305122
  0
LINE
  8
0
  6
CONTINUOUS
 10
672.184570
 20
85.372627
 11
670.216614
 21
85.441345
  0
LINE
  8
0
  6
CONTINUOUS
 10
681.174316
 20
91.872627
 11
674.764587
 21
92.096443
  0
LINE
  8
0
  6
CONTINUOUS
 10
687.219238
 20
96.673836
 11
677.064575
 21
96.319221
  0
LINE
  8
0
  6
CONTINUOUS
 10
687.219238
 20
98.672615
 11
681.213440
 21
98.882332
  0
LINE
  8
0
  6
CONTINUOUS
 10
701.297852
 20
124.273849
 11
694.246277
 21
124.027596
  0
LINE
  8
0
  6
CONTINUOUS
 10
698.736206
 20
118.672623
 11
693.082825
 21
118.870033
  0
LINE
  8
0
  6
CONTINUOUS
 10
698.736206
 20
116.673843
 11
691.148193
 21
116.408859
  0
LINE
  8
0
  6
CONTINUOUS
 10
701.297852
 20
126.272629
 11
695.610840
 21
126.471207
  0
LINE
  8
0
  6
CONTINUOUS
 10
703.036865
 20
131.873856
 11
696.399841
 21
131.642059
  0
LINE
  8
0
  6
CONTINUOUS
 10
703.036865
 20
133.872635
 11
697.254272
 21
134.074570
  0
LINE
  8
0
  6
CONTINUOUS
 10
704.007874
 20
139.473831
 11
697.694580
 21
139.253372
  0
LINE
  8
0
  6
CONTINUOUS
 10
704.007874
 20
141.472610
 11
698.072388
 21
141.679886
  0
LINE
  8
0
  6
CONTINUOUS
 10
703.036865
 20
159.473831
 11
697.254272
 21
159.271896
  0
LINE
  8
0
  6
CONTINUOUS
 10
704.007874
 20
153.872635
 11
697.694580
 21
154.093094
  0
LINE
  8
0
  6
CONTINUOUS
 10
704.007874
 20
151.873856
 11
698.072388
 21
151.666580
  0
LINE
  8
0
  6
CONTINUOUS
 10
701.297852
 20
167.073837
 11
695.610840
 21
166.875259
  0
LINE
  8
0
  6
CONTINUOUS
 10
701.297852
 20
169.072601
 11
694.246277
 21
169.318863
  0
LINE
  8
0
  6
CONTINUOUS
 10
703.036865
 20
161.472610
 11
696.399841
 21
161.704391
  0
LINE
  8
0
  6
CONTINUOUS
 10
550.216614
 20
183.673233
 11
505.216644
 21
183.673233
  0
LINE
  8
0
  6
CONTINUOUS
 10
550.216614
 20
193.673233
 11
505.216644
 21
193.673233
  0
LINE
  8
0
  6
CONTINUOUS
 10
563.216614
 20
171.173218
 11
560.216614
 21
171.173218
  0
LINE
  8
0
  6
CONTINUOUS
 10
563.216614
 20
206.173233
 11
560.216614
 21
206.173233
  0
LINE
  8
0
  6
CONTINUOUS
 10
560.216614
 20
206.173233
 11
560.216614
 21
171.173218
  0
LINE
  8
0
  6
CONTINUOUS
 10
560.216614
 20
172.673218
 11
505.216644
 21
172.673218
  0
LINE
  8
0
  6
CONTINUOUS
 10
560.216614
 20
204.673233
 11
505.216644
 21
204.673233
  0
LINE
  8
0
  6
CONTINUOUS
 10
505.216644
 20
172.673218
 11
505.216644
 21
204.673233
  0
LINE
  8
0
  6
CONTINUOUS
 10
700.216614
 20
183.673233
 11
745.216614
 21
183.673233
  0
LINE
  8
0
  6
CONTINUOUS
 10
700.216614
 20
193.673233
 11
745.216614
 21
193.673233
  0
LINE
  8
0
  6
CONTINUOUS
 10
687.216614
 20
171.173218
 11
690.216614
 21
171.173218
  0
LINE
  8
0
  6
CONTINUOUS
 10
687.216614
 20
206.173233
 11
690.216614
 21
206.173233
  0
LINE
  8
0
  6
CONTINUOUS
 10
690.216614
 20
206.173233
 11
690.216614
 21
171.173218
  0
LINE
  8
0
  6
CONTINUOUS
 10
690.216614
 20
172.673218
 11
745.216614
 21
172.673218
  0
LINE
  8
0
  6
CONTINUOUS
 10
690.216614
 20
204.673233
 11
745.216614
 21
204.673233
  0
LINE
  8
0
  6
CONTINUOUS
 10
745.216614
 20
172.673218
 11
745.216614
 21
204.673233
  0
LINE
  8
0
  6
CENTER
 10
494.722504
 20
146.673233
 11
716.460022
 21
146.673233
  0
LINE
  8
0
  6
CONTINUOUS
 10
655.216614
 20
48.673222
 11
653.716614
 21
50.173222
  0
LINE
  8
0
  6
CONTINUOUS
 10
595.216614
 20
48.673222
 11
596.716614
 21
50.173222
  0
LINE
  8
0
  6
CONTINUOUS
 10
580.216614
 20
236.414429
 11
580.216614
 21
48.673222
  0
LINE
  8
0
  6
CONTINUOUS
 10
582.791016
 20
221.173233
 11
667.469238
 21
221.173233
  0
LINE
  8
0
  6
CONTINUOUS
 10
683.627441
 20
228.728867
 11
673.805847
 21
231.617584
  0
LINE
  8
0
  6
CONTINUOUS
 10
683.627441
 20
148.617584
 11
683.088013
 21
148.458908
  0
LINE
  8
0
  6
CONTINUOUS
 10
676.609253
 20
99.627083
 11
673.824036
 21
98.819366
  0
LINE
  8
0
  6
CONTINUOUS
 10
573.824036
 20
99.627083
 11
576.609253
 21
98.819366
  0
LINE
  8
0
  6
CONTINUOUS
 10
566.805847
 20
148.617599
 11
567.345215
 21
148.458923
  0
LINE
  8
0
  6
CONTINUOUS
 10
576.627441
 20
231.617584
 11
566.805847
 21
228.728867
  0
LINE
  8
0
  6
DASHED
 10
558.716614
 20
66.673225
 11
558.716614
 21
48.673222
  0
LINE
  8
0
  6
DASHED
 10
571.716614
 20
66.673225
 11
571.716614
 21
48.673222
  0
LINE
  8
0
  6
DASHED
 10
678.716614
 20
66.673225
 11
678.716614
 21
48.673222
  0
LINE
  8
0
  6
DASHED
 10
691.716614
 20
66.673225
 11
691.716614
 21
48.673222
  0
LINE
  8
0
  6
CONTINUOUS
 10
680.216614
 20
104.429237
 11
680.216614
 21
192.583649
  0
LINE
  8
0
  6
CONTINUOUS
 10
570.216614
 20
104.429222
 11
570.216614
 21
192.583649
  0
LINE
  8
0
  6
CONTINUOUS
 10
687.216614
 20
153.414413
 11
687.216614
 21
223.932053
  0
LINE
  8
0
  6
CONTINUOUS
 10
563.216614
 20
153.414413
 11
563.216614
 21
223.932053
  0
LINE
  8
0
  6
CONTINUOUS
 10
583.164246
 20
252.939041
 11
625.216614
 21
253.673233
  0
LINE
  8
0
  6
CONTINUOUS
 10
667.269043
 20
252.939545
 11
625.216614
 21
253.673233
  0
LINE
  8
0
  6
CONTINUOUS
 10
596.716614
 20
50.173222
 11
653.716614
 21
50.173222
  0
LINE
  8
0
  6
CONTINUOUS
 10
550.216614
 20
64.410751
 11
550.216614
 21
48.673222
  0
LINE
  8
0
  6
CONTINUOUS
 10
700.216614
 20
64.410751
 11
700.216614
 21
48.673222
  0
LINE
  8
0
  6
CONTINUOUS
 10
580.216614
 20
236.414429
 11
580.216614
 21
249.939514
  0
LINE
  8
0
  6
CONTINUOUS
 10
670.216614
 20
249.939987
 11
670.216614
 21
48.673222
  0
LINE
  8
0
  6
CONTINUOUS
 10
552.716614
 20
66.673241
 11
576.216614
 21
66.673225
  0
LINE
  8
0
  6
CONTINUOUS
 10
697.716614
 20
66.673225
 11
674.216614
 21
66.673225
  0
LINE
  8
0
  6
CONTINUOUS
 10
655.216614
 20
48.673222
 11
700.216614
 21
48.673222
  0
LINE
  8
0
  6
CONTINUOUS
 10
550.216614
 20
48.673222
 11
595.216614
 21
48.673222
  0
LINE
  8
0
  6
CENTER
 10
565.216614
 20
75.271965
 11
565.216614
 21
37.372845
  0
LINE
  8
0
  6
CENTER
 10
685.216614
 20
75.271965
 11
685.216614
 21
37.372845
  0
LINE
  8
0
  6
CENTER
 10
490.831635
 20
188.673233
 11
760.851440
 21
188.673233
  0
LINE
  8
0
  6
CENTER
 10
625.216614
 20
33.903221
 11
625.216614
 21
285.398804
  0
LINE
  8
0
  6
CONTINUOUS
 10
359.937042
 20
193.673294
 11
351.937042
 21
193.673264
  0
LINE
  8
0
  6
CONTINUOUS
 10
359.937042
 20
183.673294
 11
351.937042
 21
183.673264
  0
LINE
  8
0
  6
CONTINUOUS
 10
359.937042
 20
183.673294
 11
359.937042
 21
193.673294
  0
LINE
  8
0
  6
CONTINUOUS
 10
351.937042
 20
183.673264
 11
351.937042
 21
193.673264
  0
LINE
  8
0
  6
CONTINUOUS
 10
242.437027
 20
75.673225
 11
259.937042
 21
75.673225
  0
LINE
  8
0
  6
CONTINUOUS
 10
242.437027
 20
217.673233
 11
261.250641
 21
217.673233
  0
LINE
  8
0
  6
CENTER
 10
21.591249
 20
146.673218
 11
281.197510
 21
146.673218
  0
LINE
  8
0
  6
CONTINUOUS
 10
402.937042
 20
64.606667
 11
402.937042
 21
48.673222
  0
LINE
  8
0
  6
CONTINUOUS
 10
278.937042
 20
64.606667
 11
278.937042
 21
48.673222
  0
LINE
  8
0
  6
CONTINUOUS
 10
330.064026
 20
124.179085
 11
330.064026
 21
123.954468
  0
LINE
  8
0
  6
CONTINUOUS
 10
352.775024
 20
125.179085
 11
357.208038
 21
125.176208
  0
LINE
  8
0
  6
CONTINUOUS
 10
350.437042
 20
125.179085
 11
351.142242
 21
125.179085
  0
LINE
  8
0
  6
CONTINUOUS
 10
352.775024
 20
119.334358
 11
355.815643
 21
119.334358
  0
LINE
  8
0
  6
CONTINUOUS
 10
340.009216
 20
125.179085
 11
337.751831
 21
125.179085
  0
LINE
  8
0
  6
CONTINUOUS
 10
341.790619
 20
125.179085
 11
344.265839
 21
125.179085
  0
LINE
  8
0
  6
CONTINUOUS
 10
344.265839
 20
125.179085
 11
344.696014
 21
123.954468
  0
LINE
  8
0
  6
CONTINUOUS
 10
337.751831
 20
125.179085
 11
337.241638
 21
123.954468
  0
LINE
  8
0
  6
CONTINUOUS
 10
350.437042
 20
114.157600
 11
350.437042
 21
112.673225
  0
LINE
  8
0
  6
CONTINUOUS
 10
353.424438
 20
114.157600
 11
353.424438
 21
112.673225
  0
LINE
  8
0
  6
CONTINUOUS
 10
357.747620
 20
114.157600
 11
357.747620
 21
112.673225
  0
LINE
  8
0
  6
CONTINUOUS
 10
357.747620
 20
112.673225
 11
359.937042
 21
112.673225
  0
LINE
  8
0
  6
CONTINUOUS
 10
359.537231
 20
114.157600
 11
359.937042
 21
114.157600
  0
LINE
  8
0
  6
CONTINUOUS
 10
357.747620
 20
114.157600
 11
358.043640
 21
114.157600
  0
LINE
  8
0
  6
CONTINUOUS
 10
353.424438
 20
112.673225
 11
350.437042
 21
112.673225
  0
LINE
  8
0
  6
CONTINUOUS
 10
352.775024
 20
114.157600
 11
353.424438
 21
114.157600
  0
LINE
  8
0
  6
CONTINUOUS
 10
350.437042
 20
114.157600
 11
351.142242
 21
114.157600
  0
LINE
  8
0
  6
CONTINUOUS
 10
355.815643
 20
119.334358
 11
358.043640
 21
114.157600
  0
LINE
  8
0
  6
CONTINUOUS
 10
357.182831
 20
119.463486
 11
359.537231
 21
114.157600
  0
LINE
  8
0
  6
CONTINUOUS
 10
352.775024
 20
125.179085
 11
352.775024
 21
120.818382
  0
LINE
  8
0
  6
CONTINUOUS
 10
350.437042
 20
126.923225
 11
350.437042
 21
125.179085
  0
LINE
  8
0
  6
CONTINUOUS
 10
356.432831
 20
120.818382
 11
352.775024
 21
120.818382
  0
LINE
  8
0
  6
CONTINUOUS
 10
350.437042
 20
126.923225
 11
356.133240
 21
126.923225
  0
LINE
  8
0
  6
CONTINUOUS
 10
339.304230
 20
114.231827
 11
340.009216
 21
114.231827
  0
LINE
  8
0
  6
CONTINUOUS
 10
339.304230
 20
112.673225
 11
342.384216
 21
112.673225
  0
LINE
  8
0
  6
CONTINUOUS
 10
336.187042
 20
126.923225
 11
345.687042
 21
126.923225
  0
LINE
  8
0
  6
CONTINUOUS
 10
336.187042
 20
123.954468
 11
337.241638
 21
123.954468
  0
LINE
  8
0
  6
CONTINUOUS
 10
344.696014
 20
123.954468
 11
345.687042
 21
123.954468
  0
LINE
  8
0
  6
CONTINUOUS
 10
342.384216
 20
114.231827
 11
342.384216
 21
112.673225
  0
LINE
  8
0
  6
CONTINUOUS
 10
339.304230
 20
114.231827
 11
339.304230
 21
112.673225
  0
LINE
  8
0
  6
CONTINUOUS
 10
341.790619
 20
114.231827
 11
342.384216
 21
114.231827
  0
LINE
  8
0
  6
CONTINUOUS
 10
330.064026
 20
113.809135
 11
328.710022
 21
112.673225
  0
LINE
  8
0
  6
CONTINUOUS
 10
330.064026
 20
112.673225
 11
331.437042
 21
112.673225
  0
LINE
  8
0
  6
CONTINUOUS
 10
327.577637
 20
120.948624
 11
327.577637
 21
119.390022
  0
LINE
  8
0
  6
CONTINUOUS
 10
330.064026
 20
119.390022
 11
330.064026
 21
117.311890
  0
LINE
  8
0
  6
CONTINUOUS
 10
331.437042
 20
125.383636
 11
331.437042
 21
123.954468
  0
LINE
  8
0
  6
CONTINUOUS
 10
330.064026
 20
113.809135
 11
330.064026
 21
112.673225
  0
LINE
  8
0
  6
CONTINUOUS
 10
330.064026
 20
117.905647
 11
330.064026
 21
119.093147
  0
LINE
  8
0
  6
CONTINUOUS
 10
327.095215
 20
114.343147
 11
324.622620
 21
114.343147
  0
LINE
  8
0
  6
CONTINUOUS
 10
330.064026
 20
119.390022
 11
327.577637
 21
119.390022
  0
LINE
  8
0
  6
CONTINUOUS
 10
327.577637
 20
120.948624
 11
331.437042
 21
120.948624
  0
LINE
  8
0
  6
CONTINUOUS
 10
323.661835
 20
126.923225
 11
330.049835
 21
126.923225
  0
LINE
  8
0
  6
CONTINUOUS
 10
330.064026
 20
123.954468
 11
331.437042
 21
123.954468
  0
LINE
  8
0
  6
CONTINUOUS
 10
330.049835
 20
126.923225
 11
331.437042
 21
125.383636
  0
LINE
  8
0
  6
CONTINUOUS
 10
330.064026
 20
124.179085
 11
329.165039
 21
125.030647
  0
LINE
  8
0
  6
CONTINUOUS
 10
323.532837
 20
123.700645
 11
323.532837
 21
115.491058
  0
LINE
  8
0
  6
CONTINUOUS
 10
321.937042
 20
124.714767
 11
321.937042
 21
114.522346
  0
LINE
  8
0
  6
CONTINUOUS
 10
321.937042
 20
114.522346
 11
323.769623
 21
112.673225
  0
LINE
  8
0
  6
CONTINUOUS
 10
323.532837
 20
115.491058
 11
324.622620
 21
114.343147
  0
LINE
  8
0
  6
CONTINUOUS
 10
323.661835
 20
126.923225
 11
321.937042
 21
124.714767
  0
LINE
  8
0
  6
CONTINUOUS
 10
324.605438
 20
125.030647
 11
323.532837
 21
123.700645
  0
LINE
  8
0
  6
CONTINUOUS
 10
329.183014
 20
125.030647
 11
324.605438
 21
125.030647
  0
LINE
  8
0
  6
CONTINUOUS
 10
352.775024
 20
119.334358
 11
352.775024
 21
114.157600
  0
LINE
  8
0
  6
CONTINUOUS
 10
351.142242
 20
125.179085
 11
351.142242
 21
114.157600
  0
LINE
  8
0
  6
CONTINUOUS
 10
341.790619
 20
125.179085
 11
341.790619
 21
114.231827
  0
LINE
  8
0
  6
CONTINUOUS
 10
340.009216
 20
125.179085
 11
340.009216
 21
114.231827
  0
LINE
  8
0
  6
CONTINUOUS
 10
345.687042
 20
123.954468
 11
345.687042
 21
126.923225
  0
LINE
  8
0
  6
CONTINUOUS
 10
336.187042
 20
123.954468
 11
336.187042
 21
126.923225
  0
LINE
  8
0
  6
CONTINUOUS
 10
331.437042
 20
120.948624
 11
331.437042
 21
112.673225
  0
LINE
  8
0
  6
CONTINUOUS
 10
328.710022
 20
112.673225
 11
323.769623
 21
112.673225
  0
LINE
  8
0
  6
CONTINUOUS
 10
381.059235
 20
197.585190
 11
394.747040
 21
135.961456
  0
LINE
  8
0
  6
CONTINUOUS
 10
383.890228
 20
198.214005
 11
397.578033
 21
136.590286
  0
LINE
  8
0
  6
CONTINUOUS
 10
366.437042
 20
100.673225
 11
315.437042
 21
100.673225
  0
LINE
  8
0
  6
CONTINUOUS
 10
315.437042
 20
97.773224
 11
366.437042
 21
97.773224
  0
LINE
  8
0
  6
CONTINUOUS
 10
287.127045
 20
135.961411
 11
300.814819
 21
197.585114
  0
LINE
  8
0
  6
CONTINUOUS
 10
284.296051
 20
136.590225
 11
297.983826
 21
198.213928
  0
LINE
  8
0
  6
DASHED
 10
394.937042
 20
66.673225
 11
394.937042
 21
48.673222
  0
LINE
  8
0
  6
DASHED
 10
381.937042
 20
66.673225
 11
381.937042
 21
48.673222
  0
LINE
  8
0
  6
DASHED
 10
299.937042
 20
66.673225
 11
299.937042
 21
48.673222
  0
LINE
  8
0
  6
DASHED
 10
286.937042
 20
66.673225
 11
286.937042
 21
48.673222
  0
LINE
  8
0
  6
CONTINUOUS
 10
264.937042
 20
216.978806
 11
264.937042
 21
48.673222
  0
LINE
  8
0
  6
CONTINUOUS
 10
268.387024
 20
223.558853
 11
309.883636
 21
252.253281
  0
LINE
  8
0
  6
CONTINUOUS
 10
413.487030
 20
223.558853
 11
371.990417
 21
252.253281
  0
LINE
  8
0
  6
CONTINUOUS
 10
314.433624
 20
253.673233
 11
367.440430
 21
253.673233
  0
LINE
  8
0
  6
CONTINUOUS
 10
416.937042
 20
216.978790
 11
416.937042
 21
48.673222
  0
LINE
  8
0
  6
CONTINUOUS
 10
264.937042
 20
66.673225
 11
416.937042
 21
66.673225
  0
LINE
  8
0
  6
CONTINUOUS
 10
264.937042
 20
48.673222
 11
416.937042
 21
48.673222
  0
LINE
  8
0
  6
CENTER
 10
293.437042
 20
73.948662
 11
293.437042
 21
39.791985
  0
LINE
  8
0
  6
CENTER
 10
388.437042
 20
73.948662
 11
388.437042
 21
40.083923
  0
LINE
  8
0
  6
CENTER
 10
276.603638
 20
188.673233
 11
405.297485
 21
188.673233
  0
LINE
  8
0
  6
CENTER
 10
340.937042
 20
275.969391
 11
340.937042
 21
38.040344
  0
LINE
  8
0
  6
CONTINUOUS
 10
398.337036
 20
430.557404
 11
398.340240
 21
430.568481
  0
LINE
  8
0
  6
CONTINUOUS
 10
391.681030
 20
420.557404
 11
381.995850
 21
420.557404
  0
LINE
  8
0
  6
CONTINUOUS
 10
396.483154
 20
424.164795
 11
397.290894
 21
426.950043
  0
LINE
  8
0
  6
CONTINUOUS
 10
380.992676
 20
417.146576
 11
381.995850
 21
420.557404
  0
LINE
  8
0
  6
CENTER
 10
388.437042
 20
424.709747
 11
388.437042
 21
405.209747
  0
LINE
  8
0
  6
CENTER
 10
378.560699
 20
415.557404
 11
397.498199
 21
415.557404
  0
LINE
  8
0
  6
CONTINUOUS
 10
283.537048
 20
430.557404
 11
283.533813
 21
430.568481
  0
LINE
  8
0
  6
CONTINUOUS
 10
290.193024
 20
420.557404
 11
299.878204
 21
420.557404
  0
LINE
  8
0
  6
CONTINUOUS
 10
285.390900
 20
424.164795
 11
284.583191
 21
426.950043
  0
LINE
  8
0
  6
CONTINUOUS
 10
300.881378
 20
417.146576
 11
299.878204
 21
420.557404
  0
LINE
  8
0
  6
CENTER
 10
303.313354
 20
415.557404
 11
284.375854
 21
415.557404
  0
LINE
  8
0
  6
CENTER
 10
293.437042
 20
424.709747
 11
293.437042
 21
405.209747
  0
LINE
  8
0
  6
CONTINUOUS
 10
283.537048
 20
520.557373
 11
283.533813
 21
520.546326
  0
LINE
  8
0
  6
CONTINUOUS
 10
290.193024
 20
530.557373
 11
299.878204
 21
530.557373
  0
LINE
  8
0
  6
CONTINUOUS
 10
285.390900
 20
526.950012
 11
284.583191
 21
524.164795
  0
LINE
  8
0
  6
CONTINUOUS
 10
300.881378
 20
533.968201
 11
299.878204
 21
530.557373
  0
LINE
  8
0
  6
CONTINUOUS
 10
398.337036
 20
520.557373
 11
398.340240
 21
520.546326
  0
LINE
  8
0
  6
CONTINUOUS
 10
391.681030
 20
530.557373
 11
381.995850
 21
530.557373
  0
LINE
  8
0
  6
CONTINUOUS
 10
396.483154
 20
526.950012
 11
397.290894
 21
524.164795
  0
LINE
  8
0
  6
CONTINUOUS
 10
380.992676
 20
533.968201
 11
381.995850
 21
530.557373
  0
LINE
  8
0
  6
CONTINUOUS
 10
257.559357
 20
410.486847
 11
261.348450
 21
424.627960
  0
LINE
  8
0
  6
CONTINUOUS
 10
249.831940
 20
404.557404
 11
242.437225
 21
404.557404
  0
LINE
  8
0
  6
CONTINUOUS
 10
257.559357
 20
540.627930
 11
261.348450
 21
526.486816
  0
LINE
  8
0
  6
CONTINUOUS
 10
264.936829
 20
475.557404
 11
265.670868
 21
433.505035
  0
LINE
  8
0
  6
CONTINUOUS
 10
264.936829
 20
475.557404
 11
265.670868
 21
517.609741
  0
LINE
  8
0
  6
CENTER
 10
21.591249
 20
475.557404
 11
437.234985
 21
475.557404
  0
LINE
  8
0
  6
CENTER
 10
303.313354
 20
535.557373
 11
284.375854
 21
535.557373
  0
LINE
  8
0
  6
CENTER
 10
293.437042
 20
526.405029
 11
293.437042
 21
545.905029
  0
LINE
  8
0
  6
CENTER
 10
388.437042
 20
526.405029
 11
388.437042
 21
545.905029
  0
LINE
  8
0
  6
CENTER
 10
378.560699
 20
535.557373
 11
397.498199
 21
535.557373
  0
LINE
  8
0
  6
CONTINUOUS
 10
359.937042
 20
400.557404
 11
399.387085
 21
400.557404
  0
LINE
  8
0
  6
CONTINUOUS
 10
356.135712
 20
405.557404
 11
356.135712
 21
355.557404
  0
LINE
  8
0
  6
CONTINUOUS
 10
356.135712
 20
405.557404
 11
359.937042
 21
405.557404
  0
LINE
  8
0
  6
CONTINUOUS
 10
359.937042
 20
355.557404
 11
359.937042
 21
405.557404
  0
LINE
  8
0
  6
CONTINUOUS
 10
358.437042
 20
413.557404
 11
358.437042
 21
410.557404
  0
LINE
  8
0
  6
CONTINUOUS
 10
323.437042
 20
413.557404
 11
323.437042
 21
410.557404
  0
LINE
  8
0
  6
CONTINUOUS
 10
323.437042
 20
410.557404
 11
358.437042
 21
410.557404
  0
LINE
  8
0
  6
CONTINUOUS
 10
356.937042
 20
410.557404
 11
356.937042
 21
405.557404
  0
LINE
  8
0
  6
CONTINUOUS
 10
324.937042
 20
410.557404
 11
324.937042
 21
355.557404
  0
LINE
  8
0
  6
CONTINUOUS
 10
359.937042
 20
355.557404
 11
324.937042
 21
355.557404
  0
LINE
  8
0
  6
CONTINUOUS
 10
356.135712
 20
545.557373
 11
356.135712
 21
595.557373
  0
LINE
  8
0
  6
CONTINUOUS
 10
356.135712
 20
545.557373
 11
359.937042
 21
545.557373
  0
LINE
  8
0
  6
CONTINUOUS
 10
359.937042
 20
595.557373
 11
359.937042
 21
545.557373
  0
LINE
  8
0
  6
CONTINUOUS
 10
359.937042
 20
550.557373
 11
399.387085
 21
550.557373
  0
LINE
  8
0
  6
CONTINUOUS
 10
358.437042
 20
537.557373
 11
358.437042
 21
540.557373
  0
LINE
  8
0
  6
CONTINUOUS
 10
323.437042
 20
537.557373
 11
323.437042
 21
540.557373
  0
LINE
  8
0
  6
CONTINUOUS
 10
323.437042
 20
540.557373
 11
358.437042
 21
540.557373
  0
LINE
  8
0
  6
CONTINUOUS
 10
356.937042
 20
540.557373
 11
356.937042
 21
545.557373
  0
LINE
  8
0
  6
CONTINUOUS
 10
324.937042
 20
540.557373
 11
324.937042
 21
595.557373
  0
LINE
  8
0
  6
CONTINUOUS
 10
359.937042
 20
595.557373
 11
324.937042
 21
595.557373
  0
LINE
  8
0
  6
CONTINUOUS
 10
340.937042
 20
413.557404
 11
305.678223
 21
413.557404
  0
LINE
  8
0
  6
CONTINUOUS
 10
340.937042
 20
413.557404
 11
376.195831
 21
413.557404
  0
LINE
  8
0
  6
CONTINUOUS
 10
340.937042
 20
537.557373
 11
305.678223
 21
537.557373
  0
LINE
  8
0
  6
CONTINUOUS
 10
249.831940
 20
546.557373
 11
242.437225
 21
546.557373
  0
LINE
  8
0
  6
CONTINUOUS
 10
311.937042
 20
517.557373
 11
311.937042
 21
433.557404
  0
LINE
  8
0
  6
CONTINUOUS
 10
369.937042
 20
517.557373
 11
369.937042
 21
433.557404
  0
LINE
  8
0
  6
CONTINUOUS
 10
340.937042
 20
537.557373
 11
376.195831
 21
537.557373
  0
LINE
  8
0
  6
CONTINUOUS
 10
413.203674
 20
430.557404
 11
268.670410
 21
430.557404
  0
LINE
  8
0
  6
CONTINUOUS
 10
268.670410
 20
520.557373
 11
413.203674
 21
520.557373
  0
LINE
  8
0
  6
CONTINUOUS
 10
274.993439
 20
405.756195
 11
265.958679
 21
429.925110
  0
LINE
  8
0
  6
CONTINUOUS
 10
274.993439
 20
545.358582
 11
265.958679
 21
521.189697
  0
LINE
  8
0
  6
CONTINUOUS
 10
406.880615
 20
405.756195
 11
416.151764
 21
430.557404
  0
LINE
  8
0
  6
CONTINUOUS
 10
282.486969
 20
400.557404
 11
324.937042
 21
400.557404
  0
LINE
  8
0
  6
CONTINUOUS
 10
416.937225
 20
475.557404
 11
416.151764
 21
430.557404
  0
LINE
  8
0
  6
CONTINUOUS
 10
406.880615
 20
545.358582
 11
416.151764
 21
520.557373
  0
LINE
  8
0
  6
CONTINUOUS
 10
282.486969
 20
550.557373
 11
324.937042
 21
550.557373
  0
LINE
  8
0
  6
CONTINUOUS
 10
416.937225
 20
475.557404
 11
416.151764
 21
520.557373
  0
LINE
  8
0
  6
CENTER
 10
340.937042
 20
610.774963
 11
340.937042
 21
340.024994
  0
CIRCLE
  8
0
  6
CONTINUOUS
 10
340.937042
 20
188.673233
 40
39.000000
  0
ARC
  8
0
  6
CONTINUOUS
 10
625.216614
 20
146.673233
 40
81.000000
 50
201.738464
 51
236.251007
  0
ARC
  8
0
  6
CONTINUOUS
 10
625.216614
 20
146.673233
 40
81.000000
 50
-56.251007
 51
18.722660
  0
ARC
  8
0
  6
CONTINUOUS
 10
697.716614
 20
64.410751
 40
2.500000
 50
0.000000
 51
84.289406
  0
ARC
  8
0
  6
CONTINUOUS
 10
673.216614
 20
72.388184
 40
3.000000
 50
180.000000
 51
264.289398
  0
ARC
  8
0
  6
CONTINUOUS
 10
552.716614
 20
64.410751
 40
2.500000
 50
95.710594
 51
180.000000
  0
ARC
  8
0
  6
CONTINUOUS
 10
577.216614
 20
72.388184
 40
3.000000
 50
-84.289398
 51
0.000000
  0
ARC
  8
0
  6
CONTINUOUS
 10
365.106079
 20
66.673225
 40
3.000000
 50
59.036243
 51
90.000000
  0
ARC
  8
0
  6
CONTINUOUS
 10
372.321960
 20
71.673225
 40
5.000000
 50
239.036240
 51
270.000000
  0
ARC
  8
0
  6
CONTINUOUS
 10
366.937042
 20
67.673225
 40
1.000000
 50
180.000000
 51
270.000000
  0
ARC
  8
0
  6
CONTINUOUS
 10
316.767975
 20
66.673225
 40
3.000000
 50
90.000000
 51
120.963760
  0
ARC
  8
0
  6
CONTINUOUS
 10
309.552094
 20
71.673225
 40
5.000000
 50
270.000000
 51
300.963745
  0
ARC
  8
0
  6
CONTINUOUS
 10
314.937042
 20
67.673225
 40
1.000000
 50
-90.000000
 51
0.000000
  0
ARC
  8
0
  6
CONTINUOUS
 10
625.216614
 20
146.673233
 40
72.000000
 50
-51.317810
 51
21.168446
  0
ARC
  8
0
  6
CONTINUOUS
 10
625.216614
 20
146.673233
 40
72.000000
 50
158.831558
 51
231.317810
  0
ARC
  8
0
  6
CONTINUOUS
 10
553.216614
 20
118.604591
 40
2.000000
 50
260.439636
 51
268.000000
  0
ARC
  8
0
  6
CONTINUOUS
 10
547.431274
 20
160.473206
 40
1.000000
 50
92.000000
 51
268.000000
  0
ARC
  8
0
  6
CONTINUOUS
 10
549.170349
 20
125.273232
 40
1.000000
 50
92.000000
 51
268.000000
  0
ARC
  8
0
  6
CONTINUOUS
 10
556.152100
 20
123.028214
 40
1.000000
 50
18.899216
 51
88.000000
  0
ARC
  8
0
  6
CONTINUOUS
 10
557.315552
 20
119.869431
 40
1.000000
 50
-88.000000
 51
21.541519
  0
ARC
  8
0
  6
CONTINUOUS
 10
559.250183
 20
115.409470
 40
1.000000
 50
25.357864
 51
88.000000
  0
ARC
  8
0
  6
CONTINUOUS
 10
551.731934
 20
117.673225
 40
1.000000
 50
92.000000
 51
268.000000
  0
ARC
  8
0
  6
CONTINUOUS
 10
553.144043
 20
135.073959
 40
1.000000
 50
-88.000000
 51
9.142731
  0
ARC
  8
0
  6
CONTINUOUS
 10
554.787537
 20
127.470596
 40
1.000000
 50
-88.000000
 51
15.251099
  0
ARC
  8
0
  6
CONTINUOUS
 10
553.998535
 20
130.642685
 40
1.000000
 50
12.685333
 51
88.000000
  0
ARC
  8
0
  6
CONTINUOUS
 10
547.431274
 20
132.873245
 40
1.000000
 50
92.000000
 51
268.000000
  0
ARC
  8
0
  6
CONTINUOUS
 10
552.703796
 20
138.253983
 40
1.000000
 50
6.622787
 51
88.000000
  0
ARC
  8
0
  6
CONTINUOUS
 10
552.325989
 20
142.679276
 40
1.000000
 50
-88.000000
 51
3.136307
  0
ARC
  8
0
  6
CONTINUOUS
 10
546.460327
 20
140.473206
 40
1.000000
 50
92.000000
 51
268.000000
  0
ARC
  8
0
  6
CONTINUOUS
 10
553.144043
 20
158.272491
 40
1.000000
 50
-9.142731
 51
88.000000
  0
ARC
  8
0
  6
CONTINUOUS
 10
552.325989
 20
150.667175
 40
1.000000
 50
-3.136322
 51
88.000000
  0
ARC
  8
0
  6
CONTINUOUS
 10
552.703796
 20
155.092484
 40
1.000000
 50
272.000000
 51
353.377228
  0
ARC
  8
0
  6
CONTINUOUS
 10
546.460327
 20
152.873245
 40
1.000000
 50
92.000000
 51
268.000000
  0
ARC
  8
0
  6
CONTINUOUS
 10
556.152100
 20
170.318237
 40
1.000000
 50
272.000000
 51
341.100769
  0
ARC
  8
0
  6
CONTINUOUS
 10
553.998535
 20
162.703781
 40
1.000000
 50
272.000000
 51
347.314667
  0
ARC
  8
0
  6
CONTINUOUS
 10
554.787537
 20
165.875870
 40
1.000000
 50
-15.251099
 51
88.000000
  0
ARC
  8
0
  6
CONTINUOUS
 10
549.170349
 20
168.073227
 40
1.000000
 50
92.000000
 51
268.000000
  0
ARC
  8
0
  6
CONTINUOUS
 10
695.226929
 20
110.073219
 40
1.000000
 50
-88.000000
 51
88.000000
  0
ARC
  8
0
  6
CONTINUOUS
 10
689.602051
 20
112.270889
 40
1.000000
 50
151.883545
 51
268.000000
  0
ARC
  8
0
  6
CONTINUOUS
 10
686.995850
 20
107.784584
 40
1.000000
 50
92.000000
 51
147.810486
  0
ARC
  8
0
  6
CONTINUOUS
 10
555.206360
 20
110.073219
 40
1.000000
 50
92.000000
 51
268.000000
  0
ARC
  8
0
  6
CONTINUOUS
 10
569.293823
 20
90.873238
 40
1.000000
 50
92.000000
 51
268.000000
  0
ARC
  8
0
  6
CONTINUOUS
 10
578.283569
 20
84.373238
 40
1.000000
 50
92.000000
 51
268.000000
  0
ARC
  8
0
  6
CONTINUOUS
 10
563.248901
 20
97.673225
 40
1.000000
 50
92.000000
 51
268.000000
  0
ARC
  8
0
  6
CONTINUOUS
 10
569.184875
 20
99.881721
 40
1.000000
 50
-88.000000
 51
39.864883
  0
ARC
  8
0
  6
CONTINUOUS
 10
573.333801
 20
95.319832
 40
1.000000
 50
44.706161
 51
88.000000
  0
ARC
  8
0
  6
CONTINUOUS
 10
560.831238
 20
112.270889
 40
1.000000
 50
-88.000000
 51
28.116451
  0
ARC
  8
0
  6
CONTINUOUS
 10
563.437378
 20
107.784584
 40
1.000000
 50
32.189507
 51
88.000000
  0
ARC
  8
0
  6
CONTINUOUS
 10
575.633728
 20
93.095840
 40
1.000000
 50
-88.000000
 51
47.217453
  0
ARC
  8
0
  6
CONTINUOUS
 10
559.258545
 20
115.391792
 40
1.000000
 50
25.373219
 51
88.000000
  0
ARC
  8
0
  6
CONTINUOUS
 10
681.139404
 20
90.873238
 40
1.000000
 50
-88.000000
 51
88.000000
  0
ARC
  8
0
  6
CONTINUOUS
 10
672.149658
 20
84.373238
 40
1.000000
 50
-88.000000
 51
88.000000
  0
ARC
  8
0
  6
CONTINUOUS
 10
681.248352
 20
99.881721
 40
1.000000
 50
140.135117
 51
268.000000
  0
ARC
  8
0
  6
CONTINUOUS
 10
677.099487
 20
95.319832
 40
1.000000
 50
92.000000
 51
135.293839
  0
ARC
  8
0
  6
CONTINUOUS
 10
674.799500
 20
93.095840
 40
1.000000
 50
132.782547
 51
268.000000
  0
ARC
  8
0
  6
CONTINUOUS
 10
687.184326
 20
97.673225
 40
1.000000
 50
-88.000000
 51
88.000000
  0
ARC
  8
0
  6
CONTINUOUS
 10
703.001953
 20
160.473206
 40
1.000000
 50
-88.000000
 51
88.000000
  0
ARC
  8
0
  6
CONTINUOUS
 10
701.262939
 20
125.273232
 40
1.000000
 50
-88.000000
 51
88.000000
  0
ARC
  8
0
  6
CONTINUOUS
 10
694.281189
 20
123.028214
 40
1.000000
 50
92.000000
 51
161.100784
  0
ARC
  8
0
  6
CONTINUOUS
 10
693.117676
 20
119.869431
 40
1.000000
 50
158.458481
 51
268.000000
  0
ARC
  8
0
  6
CONTINUOUS
 10
691.183105
 20
115.409470
 40
1.000000
 50
92.000000
 51
154.642136
  0
ARC
  8
0
  6
CONTINUOUS
 10
698.701294
 20
117.673225
 40
1.000000
 50
-88.000000
 51
88.000000
  0
ARC
  8
0
  6
CONTINUOUS
 10
697.289185
 20
135.073959
 40
1.000000
 50
170.857269
 51
268.000000
  0
ARC
  8
0
  6
CONTINUOUS
 10
695.645752
 20
127.470596
 40
1.000000
 50
164.748901
 51
268.000000
  0
ARC
  8
0
  6
CONTINUOUS
 10
696.434753
 20
130.642685
 40
1.000000
 50
92.000000
 51
167.314667
  0
ARC
  8
0
  6
CONTINUOUS
 10
703.001953
 20
132.873245
 40
1.000000
 50
-88.000000
 51
88.000000
  0
ARC
  8
0
  6
CONTINUOUS
 10
697.729492
 20
138.253983
 40
1.000000
 50
92.000000
 51
173.377213
  0
ARC
  8
0
  6
CONTINUOUS
 10
698.107300
 20
142.679276
 40
1.000000
 50
176.863693
 51
268.000000
  0
ARC
  8
0
  6
CONTINUOUS
 10
703.972961
 20
140.473206
 40
1.000000
 50
-88.000000
 51
88.000000
  0
ARC
  8
0
  6
CONTINUOUS
 10
697.289185
 20
158.272491
 40
1.000000
 50
92.000000
 51
189.142731
  0
ARC
  8
0
  6
CONTINUOUS
 10
698.107300
 20
150.667175
 40
1.000000
 50
92.000000
 51
183.136307
  0
ARC
  8
0
  6
CONTINUOUS
 10
697.729492
 20
155.092484
 40
1.000000
 50
186.622787
 51
268.000000
  0
ARC
  8
0
  6
CONTINUOUS
 10
703.972961
 20
152.873245
 40
1.000000
 50
-88.000000
 51
88.000000
  0
ARC
  8
0
  6
CONTINUOUS
 10
694.281189
 20
170.318237
 40
1.000000
 50
198.899216
 51
268.000000
  0
ARC
  8
0
  6
CONTINUOUS
 10
696.434753
 20
162.703781
 40
1.000000
 50
192.685333
 51
268.000000
  0
ARC
  8
0
  6
CONTINUOUS
 10
695.645752
 20
165.875870
 40
1.000000
 50
92.000000
 51
195.251099
  0
ARC
  8
0
  6
CONTINUOUS
 10
701.262939
 20
168.073227
 40
1.000000
 50
-88.000000
 51
88.000000
  0
ARC
  8
0
  6
CONTINUOUS
 10
550.216614
 20
188.673233
 40
5.000000
 50
-90.000000
 51
90.000000
  0
ARC
  8
0
  6
CONTINUOUS
 10
700.216614
 20
188.673233
 40
5.000000
 50
90.000000
 51
270.000000
  0
ARC
  8
0
  6
CONTINUOUS
 10
625.216614
 20
146.673218
 40
71.000000
 50
158.518707
 51
230.668701
  0
ARC
  8
0
  6
CONTINUOUS
 10
625.216614
 20
146.673218
 40
71.000000
 50
-50.668701
 51
21.481260
  0
ARC
  8
0
  6
CONTINUOUS
 10
697.716614
 20
64.173225
 40
2.500000
 50
0.000000
 51
90.000000
  0
ARC
  8
0
  6
CONTINUOUS
 10
674.216614
 20
70.673241
 40
4.000000
 50
180.000000
 51
270.000000
  0
ARC
  8
0
  6
CONTINUOUS
 10
552.716614
 20
64.173241
 40
2.500000
 50
90.000000
 51
180.000000
  0
ARC
  8
0
  6
CONTINUOUS
 10
576.216614
 20
70.673187
 40
4.000000
 50
-90.000000
 51
0.000000
  0
ARC
  8
0
  6
CONTINUOUS
 10
675.216614
 20
236.414444
 40
5.000000
 50
180.000000
 51
253.610794
  0
ARC
  8
0
  6
CONTINUOUS
 10
684.216614
 20
144.621475
 40
4.000000
 50
106.389999
 51
180.000000
  0
ARC
  8
0
  6
CONTINUOUS
 10
675.216614
 20
94.017265
 40
5.000000
 50
106.172501
 51
180.000000
  0
ARC
  8
0
  6
CONTINUOUS
 10
575.216614
 20
94.017204
 40
5.000000
 50
0.000000
 51
73.827919
  0
ARC
  8
0
  6
CONTINUOUS
 10
566.216614
 20
144.621445
 40
4.000000
 50
0.000000
 51
73.610649
  0
ARC
  8
0
  6
CONTINUOUS
 10
575.216614
 20
236.414413
 40
5.000000
 50
-73.610229
 51
0.000000
  0
ARC
  8
0
  6
CONTINUOUS
 10
575.216614
 20
104.429260
 40
5.000000
 50
180.000000
 51
253.828201
  0
ARC
  8
0
  6
CONTINUOUS
 10
675.216614
 20
104.429222
 40
5.000000
 50
-73.827698
 51
0.000000
  0
ARC
  8
0
  6
CONTINUOUS
 10
682.216614
 20
153.414413
 40
5.000000
 50
-73.610321
 51
0.000000
  0
ARC
  8
0
  6
CONTINUOUS
 10
568.216614
 20
153.414459
 40
5.000000
 50
180.000000
 51
253.610794
  0
ARC
  8
0
  6
CONTINUOUS
 10
682.216614
 20
223.932022
 40
5.000000
 50
0.000000
 51
73.610527
  0
ARC
  8
0
  6
CONTINUOUS
 10
568.216614
 20
223.932068
 40
5.000000
 50
106.389900
 51
180.000000
  0
ARC
  8
0
  6
CONTINUOUS
 10
667.216614
 20
249.939987
 40
3.000000
 50
0.000000
 51
89.000580
  0
ARC
  8
0
  6
CONTINUOUS
 10
583.216614
 20
249.939529
 40
3.000000
 50
91.000603
 51
180.000000
  0
ARC
  8
0
  6
CONTINUOUS
 10
340.937042
 20
188.673233
 40
16.000000
 50
18.209900
 51
341.790100
  0
ARC
  8
0
  6
CONTINUOUS
 10
261.250641
 20
222.673233
 40
5.000000
 50
270.000000
 51
334.021393
  0
ARC
  8
0
  6
CONTINUOUS
 10
428.004425
 20
146.673218
 40
172.067474
 50
161.386795
 51
198.613205
  0
ARC
  8
0
  6
CONTINUOUS
 10
259.937042
 20
70.673203
 40
5.000000
 50
0.000000
 51
90.000000
  0
ARC
  8
0
  6
CONTINUOUS
 10
356.133240
 20
123.119499
 40
2.320524
 50
-82.585266
 51
62.411850
  0
ARC
  8
0
  6
CONTINUOUS
 10
356.133240
 20
123.119499
 40
3.803712
 50
-73.981873
 51
90.003510
  0
ARC
  8
0
  6
CONTINUOUS
 10
327.095215
 20
117.311890
 40
2.968750
 50
-89.999786
 51
0.000109
  0
ARC
  8
0
  6
CONTINUOUS
 10
340.937042
 20
188.673233
 40
41.099998
 50
-192.523102
 51
12.523240
  0
ARC
  8
0
  6
CONTINUOUS
 10
366.437042
 20
129.673218
 40
31.900000
 50
-90.000000
 51
12.523240
  0
ARC
  8
0
  6
CONTINUOUS
 10
315.437042
 20
129.673218
 40
31.900000
 50
167.476898
 51
270.000000
  0
ARC
  8
0
  6
CONTINUOUS
 10
366.437042
 20
129.673218
 40
29.000000
 50
-90.000000
 51
12.523240
  0
ARC
  8
0
  6
CONTINUOUS
 10
315.437042
 20
129.673218
 40
29.000000
 50
167.476898
 51
270.000000
  0
ARC
  8
0
  6
CONTINUOUS
 10
340.937042
 20
188.673233
 40
44.000000
 50
12.523240
 51
167.476898
  0
ARC
  8
0
  6
CONTINUOUS
 10
272.937042
 20
216.978821
 40
8.000000
 50
124.663803
 51
180.000000
  0
ARC
  8
0
  6
CONTINUOUS
 10
314.433624
 20
245.673233
 40
8.000000
 50
90.000000
 51
124.663696
  0
ARC
  8
0
  6
CONTINUOUS
 10
408.937042
 20
216.978745
 40
8.000000
 50
0.000000
 51
55.336739
  0
ARC
  8
0
  6
CONTINUOUS
 10
367.440430
 20
245.673233
 40
8.000000
 50
55.336689
 51
90.000000
  0
ARC
  8
0
  6
CONTINUOUS
 10
402.093048
 20
425.557404
 40
5.000000
 50
90.000000
 51
163.827835
  0
ARC
  8
0
  6
CONTINUOUS
 10
391.681030
 20
425.557404
 40
5.000000
 50
270.000000
 51
343.827850
  0
ARC
  8
0
  6
CONTINUOUS
 10
376.195831
 20
418.557404
 40
5.000000
 50
270.000000
 51
343.610474
  0
ARC
  8
0
  6
CONTINUOUS
 10
388.437042
 20
415.557404
 40
6.500000
 50
-230.284866
 51
51.240688
  0
ARC
  8
0
  6
CONTINUOUS
 10
279.781036
 20
425.557404
 40
5.000000
 50
16.172159
 51
90.000000
  0
ARC
  8
0
  6
CONTINUOUS
 10
290.193024
 20
425.557404
 40
5.000000
 50
196.172165
 51
270.000000
  0
ARC
  8
0
  6
CONTINUOUS
 10
305.678223
 20
418.557404
 40
5.000000
 50
196.389542
 51
270.000000
  0
ARC
  8
0
  6
CONTINUOUS
 10
293.437042
 20
415.557404
 40
6.500000
 50
-231.240692
 51
50.284863
  0
ARC
  8
0
  6
CONTINUOUS
 10
279.781036
 20
525.557373
 40
5.000000
 50
270.000000
 51
343.827850
  0
ARC
  8
0
  6
CONTINUOUS
 10
290.193024
 20
525.557373
 40
5.000000
 50
90.000000
 51
163.827835
  0
ARC
  8
0
  6
CONTINUOUS
 10
305.678223
 20
532.557373
 40
5.000000
 50
90.000000
 51
163.610458
  0
ARC
  8
0
  6
CONTINUOUS
 10
402.093048
 20
525.557373
 40
5.000000
 50
196.172165
 51
270.000000
  0
ARC
  8
0
  6
CONTINUOUS
 10
391.681030
 20
525.557373
 40
5.000000
 50
16.172159
 51
90.000000
  0
ARC
  8
0
  6
CONTINUOUS
 10
376.195831
 20
532.557373
 40
5.000000
 50
16.389540
 51
90.000000
  0
ARC
  8
0
  6
CONTINUOUS
 10
269.075867
 20
422.557404
 40
8.000000
 50
90.000000
 51
165.000000
  0
ARC
  8
0
  6
CONTINUOUS
 10
249.831940
 20
412.557404
 40
8.000000
 50
270.000000
 51
345.000000
  0
ARC
  8
0
  6
CONTINUOUS
 10
249.831940
 20
538.557373
 40
8.000000
 50
15.000000
 51
90.000000
  0
ARC
  8
0
  6
CONTINUOUS
 10
269.075867
 20
528.557373
 40
8.000000
 50
195.000000
 51
270.000000
  0
ARC
  8
0
  6
CONTINUOUS
 10
268.670410
 20
433.557404
 40
3.000000
 50
181.000000
 51
270.000000
  0
ARC
  8
0
  6
CONTINUOUS
 10
268.670410
 20
517.557373
 40
3.000000
 50
90.000000
 51
179.000000
  0
ARC
  8
0
  6
CONTINUOUS
 10
293.437042
 20
535.557373
 40
6.500000
 50
-50.284851
 51
231.240692
  0
ARC
  8
0
  6
CONTINUOUS
 10
388.437042
 20
535.557373
 40
6.500000
 50
-51.240692
 51
230.284866
  0
ARC
  8
0
  6
CONTINUOUS
 10
413.203674
 20
433.557404
 40
3.000000
 50
270.000000
 51
359.000000
  0
ARC
  8
0
  6
CONTINUOUS
 10
413.203674
 20
517.557373
 40
3.000000
 50
1.000000
 51
90.000000
  0
ARC
  8
0
  6
CONTINUOUS
 10
282.486969
 20
408.557404
 40
8.000000
 50
200.496613
 51
270.000000
  0
ARC
  8
0
  6
CONTINUOUS
 10
282.486969
 20
542.557373
 40
8.000000
 50
90.000000
 51
159.503387
  0
ARC
  8
0
  6
CONTINUOUS
 10
399.387085
 20
408.557404
 40
8.000000
 50
270.000000
 51
339.503387
  0
ARC
  8
0
  6
CONTINUOUS
 10
399.387085
 20
542.557373
 40
8.000000
 50
20.496618
 51
90.000000
  0
LINE
  8
0
  6
CONTINUOUS
 10
551.216614
 20
167.001160
 11
551.216614
 21
161.606018
  0
LINE
  8
0
  6
CONTINUOUS
 10
549.716614
 20
169.092896
 11
549.716614
 21
172.673218
  0
LINE
  8
0
  6
CONTINUOUS
 10
551.216614
 20
159.340424
 11
551.216614
 21
154.039948
  0
LINE
  8
0
  6
CONTINUOUS
 10
549.716614
 20
161.553635
 11
549.716614
 21
167.053543
  0
LINE
  8
0
  6
CONTINUOUS
 10
551.216614
 20
151.706543
 11
551.216614
 21
141.639923
  0
LINE
  8
0
  6
CONTINUOUS
 10
549.716614
 20
153.987564
 11
549.716614
 21
159.392807
  0
LINE
  8
0
  6
CONTINUOUS
 10
551.216614
 20
139.306519
 11
551.216614
 21
134.006042
  0
LINE
  8
0
  6
CONTINUOUS
 10
549.716614
 20
141.587540
 11
549.716614
 21
151.758926
  0
LINE
  8
0
  6
CONTINUOUS
 10
551.216614
 20
131.740433
 11
551.216614
 21
126.345299
  0
LINE
  8
0
  6
CONTINUOUS
 10
549.716614
 20
133.953659
 11
549.716614
 21
139.358902
  0
LINE
  8
0
  6
CONTINUOUS
 10
551.216614
 20
124.201172
 11
551.216614
 21
118.530228
  0
LINE
  8
0
  6
CONTINUOUS
 10
549.716614
 20
126.292915
 11
549.716614
 21
131.792816
  0
LINE
  8
0
  6
CONTINUOUS
 10
551.216614
 20
116.816231
 11
551.216614
 21
116.673248
  0
TEXT
  8
0
 10
21.000000
 20
-5.000000
 40
10.000000
 41
1.000000
  1
H2LB-32T-5~60-075W
 50
0.000000
  0
ENDSEC
  0
EOF
