  0
SECTION
  2
HEADER
  9
$CLAYER
  8
1
  9
$LTSCALE
 40
3.0
  0
ENDSEC
  0
SECTION
  2
TABLES
  0
TABLE
  2
LTYPE
 70
     4
  0
LTYPE
  2
CONTINUOUS
  3
solid line
 70
    64
 72
    65
 73
     0
 40
0.0
  0
LTYPE
  2
DASHED
  3
__ __ __ __ __ __ __ __ __ __ __ __ __ __ __
 70
    64
 72
    65
 73
     2
 40
0.75
 49
0.5
 49
-0.25
  0
LTYPE
  2
CENTER
  3
____ _ ____ _ ____ _ ____ _ ____ _ ____ _ ____
 70
    64
 72
    65
 73
     4
 40
2.0
 49
1.25
 49
-0.25
 49
0.25
 49
-0.25
  0
LTYPE
  2
PHANTOM
  3
_____ _ _ _____ _ _ _____ _ _ _____ _ _ ____
 70
    64
 72
    65
 73
     6
 40
2.5
 49
1.25
 49
-0.25
 49
0.25
 49
-0.25
 49
0.25
 49
-0.25
  0
ENDTAB
  0
TABLE
  2
LAYER
 70
     1
  0
LAYER
  2
0
 70
    64
 62
     7
  6
CONTINUOUS
  0
ENDTAB
  0
TABLE
  2
STYLE
 70
     1
  0
STYLE
  2
STANDARD
 70
     0
 40
0.000000
 41
1.000000
 50
0.000000
 71
     0
 42
3.000000
  3
txt
  4
BIGFONT
  0
ENDTAB
  0
ENDSEC
  0
SECTION
  2
BLOCKS
  0
ENDSEC
  0
SECTION
  2
ENTITIES
  0
LINE
  8
0
  6
CONTINUOUS
 10
780.043396
 20
265.176483
 11
776.814209
 21
265.204651
  0
LINE
  8
0
  6
CONTINUOUS
 10
735.525574
 20
271.163269
 11
774.348694
 21
271.163269
  0
LINE
  8
0
  6
CONTINUOUS
 10
780.043396
 20
115.176468
 11
776.814209
 21
115.148285
  0
LINE
  8
0
  6
CONTINUOUS
 10
735.525574
 20
112.189674
 11
773.823181
 21
112.189674
  0
LINE
  8
0
  6
CONTINUOUS
 10
734.012512
 20
269.663330
 11
734.012512
 21
113.689613
  0
LINE
  8
0
  6
CONTINUOUS
 10
681.012451
 20
140.176468
 11
729.012451
 21
140.176468
  0
LINE
  8
0
  6
CONTINUOUS
 10
681.012451
 20
142.176468
 11
729.012451
 21
142.176468
  0
LINE
  8
0
  6
DASHED
 10
732.012512
 20
129.676498
 11
734.012512
 21
129.676498
  0
LINE
  8
0
  6
DASHED
 10
732.012512
 20
132.676498
 11
734.012512
 21
132.676498
  0
LINE
  8
0
  6
DASHED
 10
732.012512
 20
135.676498
 11
734.012512
 21
135.676498
  0
LINE
  8
0
  6
DASHED
 10
727.012512
 20
119.416176
 11
724.012512
 21
120.549530
  0
LINE
  8
0
  6
DASHED
 10
730.012512
 20
118.962013
 11
727.012512
 21
117.703957
  0
LINE
  8
0
  6
DASHED
 10
730.012512
 20
127.676491
 11
730.012512
 21
118.962013
  0
LINE
  8
0
  6
DASHED
 10
727.012512
 20
127.676491
 11
727.012512
 21
117.703957
  0
LINE
  8
0
  6
DASHED
 10
724.012512
 20
127.676491
 11
724.012512
 21
120.549530
  0
LINE
  8
0
  6
CONTINUOUS
 10
614.012451
 20
240.176468
 11
729.012451
 21
240.176468
  0
LINE
  8
0
  6
CONTINUOUS
 10
614.012451
 20
238.176468
 11
729.012451
 21
238.176468
  0
LINE
  8
0
  6
CONTINUOUS
 10
614.012451
 20
246.976456
 11
729.012451
 21
246.976456
  0
LINE
  8
0
  6
CONTINUOUS
 10
614.012451
 20
244.976456
 11
729.012451
 21
244.976456
  0
LINE
  8
0
  6
CONTINUOUS
 10
614.012451
 20
253.476456
 11
729.012451
 21
253.476456
  0
LINE
  8
0
  6
CONTINUOUS
 10
614.012451
 20
251.476456
 11
729.012451
 21
251.476456
  0
LINE
  8
0
  6
CONTINUOUS
 10
614.012451
 20
259.976471
 11
729.012451
 21
259.976471
  0
LINE
  8
0
  6
CONTINUOUS
 10
614.012451
 20
257.976471
 11
729.012451
 21
257.976471
  0
LINE
  8
0
  6
CONTINUOUS
 10
729.012451
 20
261.231323
 11
614.012451
 21
261.231323
  0
LINE
  8
0
  6
CONTINUOUS
 10
728.468079
 20
266.176483
 11
614.556885
 21
266.176483
  0
LINE
  8
0
  6
CONTINUOUS
 10
614.012451
 20
195.376480
 11
729.012451
 21
195.376480
  0
LINE
  8
0
  6
CONTINUOUS
 10
614.012451
 20
197.376480
 11
729.012451
 21
197.376480
  0
LINE
  8
0
  6
CONTINUOUS
 10
614.012451
 20
204.976456
 11
729.012451
 21
204.976456
  0
LINE
  8
0
  6
CONTINUOUS
 10
614.012451
 20
202.976456
 11
729.012451
 21
202.976456
  0
LINE
  8
0
  6
CONTINUOUS
 10
614.012451
 20
212.576462
 11
729.012451
 21
212.576462
  0
LINE
  8
0
  6
CONTINUOUS
 10
614.012451
 20
210.576462
 11
729.012451
 21
210.576462
  0
LINE
  8
0
  6
CONTINUOUS
 10
614.012451
 20
218.176468
 11
729.012451
 21
218.176468
  0
LINE
  8
0
  6
CONTINUOUS
 10
614.012451
 20
162.176468
 11
729.012451
 21
162.176468
  0
LINE
  8
0
  6
CONTINUOUS
 10
614.012451
 20
169.776474
 11
729.012451
 21
169.776474
  0
LINE
  8
0
  6
CONTINUOUS
 10
614.012451
 20
167.776474
 11
729.012451
 21
167.776474
  0
LINE
  8
0
  6
CONTINUOUS
 10
614.012451
 20
177.376480
 11
729.012451
 21
177.376480
  0
LINE
  8
0
  6
CONTINUOUS
 10
614.012451
 20
175.376480
 11
729.012451
 21
175.376480
  0
LINE
  8
0
  6
CONTINUOUS
 10
614.012451
 20
182.976456
 11
729.012451
 21
182.976456
  0
LINE
  8
0
  6
CONTINUOUS
 10
614.012451
 20
184.976456
 11
729.012451
 21
184.976456
  0
LINE
  8
0
  6
CONTINUOUS
 10
614.012451
 20
220.176468
 11
729.012451
 21
220.176468
  0
LINE
  8
0
  6
CONTINUOUS
 10
614.012451
 20
227.776474
 11
729.012451
 21
227.776474
  0
LINE
  8
0
  6
CONTINUOUS
 10
614.012451
 20
225.776474
 11
729.012451
 21
225.776474
  0
LINE
  8
0
  6
CONTINUOUS
 10
614.012451
 20
142.176468
 11
665.012451
 21
142.176468
  0
LINE
  8
0
  6
CONTINUOUS
 10
614.012451
 20
154.576462
 11
729.012451
 21
154.576462
  0
LINE
  8
0
  6
CONTINUOUS
 10
614.012451
 20
152.576462
 11
729.012451
 21
152.576462
  0
LINE
  8
0
  6
CONTINUOUS
 10
614.012451
 20
160.176468
 11
729.012451
 21
160.176468
  0
LINE
  8
0
  6
CONTINUOUS
 10
614.012451
 20
128.876480
 11
729.012451
 21
128.876480
  0
LINE
  8
0
  6
CONTINUOUS
 10
614.012451
 20
135.376480
 11
729.012451
 21
135.376480
  0
LINE
  8
0
  6
CONTINUOUS
 10
614.012451
 20
133.376480
 11
729.012451
 21
133.376480
  0
LINE
  8
0
  6
CONTINUOUS
 10
614.012451
 20
140.176468
 11
665.012451
 21
140.176468
  0
LINE
  8
0
  6
CONTINUOUS
 10
729.012451
 20
119.121628
 11
614.012451
 21
119.121628
  0
LINE
  8
0
  6
CONTINUOUS
 10
614.012451
 20
122.376480
 11
729.012451
 21
122.376480
  0
LINE
  8
0
  6
CONTINUOUS
 10
614.012451
 20
120.376480
 11
729.012451
 21
120.376480
  0
LINE
  8
0
  6
CONTINUOUS
 10
614.012451
 20
126.876480
 11
729.012451
 21
126.876480
  0
LINE
  8
0
  6
CONTINUOUS
 10
728.468079
 20
114.176468
 11
614.556885
 21
114.176468
  0
LINE
  8
0
  6
CONTINUOUS
 10
593.012451
 20
118.176468
 11
612.173340
 21
118.176468
  0
LINE
  8
0
  6
CONTINUOUS
 10
613.572083
 20
115.002823
 11
613.158203
 21
117.350121
  0
LINE
  8
0
  6
CONTINUOUS
 10
613.012451
 20
121.376480
 11
613.012451
 21
117.720444
  0
LINE
  8
0
  6
CONTINUOUS
 10
593.012451
 20
262.176483
 11
612.173340
 21
262.176483
  0
LINE
  8
0
  6
CONTINUOUS
 10
613.012451
 20
258.976471
 11
613.012451
 21
262.632507
  0
LINE
  8
0
  6
CONTINUOUS
 10
613.572083
 20
265.350128
 11
613.158203
 21
263.002838
  0
LINE
  8
0
  6
CONTINUOUS
 10
733.012451
 20
262.176483
 11
733.012451
 21
118.176468
  0
LINE
  8
0
  6
CONTINUOUS
 10
730.851562
 20
118.176468
 11
733.012451
 21
118.176468
  0
LINE
  8
0
  6
CONTINUOUS
 10
729.452881
 20
115.002823
 11
729.866760
 21
117.350121
  0
LINE
  8
0
  6
CONTINUOUS
 10
730.012451
 20
121.376480
 11
730.012451
 21
117.720444
  0
LINE
  8
0
  6
CONTINUOUS
 10
730.012451
 20
258.976471
 11
730.012451
 21
262.632507
  0
LINE
  8
0
  6
CONTINUOUS
 10
730.851562
 20
262.176483
 11
733.012451
 21
262.176483
  0
LINE
  8
0
  6
CONTINUOUS
 10
729.452881
 20
265.350128
 11
729.866760
 21
263.002838
  0
LINE
  8
0
  6
CONTINUOUS
 10
734.012451
 20
119.676476
 11
733.012451
 21
119.676476
  0
LINE
  8
0
  6
CONTINUOUS
 10
734.012451
 20
260.676483
 11
733.012451
 21
260.676483
  0
ARC
  8
0
  6
CONTINUOUS
 10
774.348694
 20
269.163269
 40
2.000000
 50
-11.331451
 51
90.000000
  0
ARC
  8
0
  6
CONTINUOUS
 10
776.822937
 20
266.204620
 40
1.000000
 50
169.015305
 51
269.500000
  0
ARC
  8
0
  6
CONTINUOUS
 10
735.512512
 20
269.663330
 40
1.500000
 50
89.500000
 51
180.000000
  0
ARC
  8
0
  6
CONTINUOUS
 10
780.043396
 20
250.176468
 40
15.000000
 50
8.519625
 51
90.000000
  0
ARC
  8
0
  6
CONTINUOUS
 10
773.823181
 20
114.189674
 40
2.000000
 50
270.000000
 51
359.210297
  0
ARC
  8
0
  6
CONTINUOUS
 10
776.822937
 20
114.148323
 40
1.000000
 50
90.500000
 51
179.210297
  0
ARC
  8
0
  6
CONTINUOUS
 10
735.512512
 20
113.689613
 40
1.500000
 50
180.000000
 51
270.500000
  0
ARC
  8
0
  6
CONTINUOUS
 10
780.043396
 20
130.176468
 40
15.000000
 50
270.000000
 51
351.480377
  0
ARC
  8
0
  6
CONTINUOUS
 10
1168.512451
 20
190.176468
 40
400.000000
 50
168.668533
 51
190.968399
  0
ARC
  8
0
  6
CONTINUOUS
 10
379.512451
 20
190.176468
 40
420.000000
 50
-8.519623
 51
8.519625
  0
ARC
  8
0
  6
CONTINUOUS
 10
681.012451
 20
141.176468
 40
1.000000
 50
90.000000
 51
270.000000
  0
ARC
  8
0
  6
CONTINUOUS
 10
665.012451
 20
141.176468
 40
1.000000
 50
-90.000000
 51
90.000000
  0
ARC
  8
0
  6
DASHED
 10
732.012512
 20
127.676491
 40
2.000000
 50
90.000000
 51
180.000000
  0
ARC
  8
0
  6
DASHED
 10
732.012512
 20
127.676491
 40
8.000000
 50
90.000000
 51
180.000000
  0
ARC
  8
0
  6
DASHED
 10
732.012512
 20
127.676491
 40
5.000000
 50
90.000000
 51
180.000000
  0
ARC
  8
0
  6
CONTINUOUS
 10
729.012451
 20
153.576462
 40
1.000000
 50
-90.000000
 51
90.000000
  0
ARC
  8
0
  6
CONTINUOUS
 10
729.012451
 20
226.776474
 40
1.000000
 50
-90.000000
 51
90.000000
  0
ARC
  8
0
  6
CONTINUOUS
 10
614.012451
 20
134.376480
 40
1.000000
 50
90.000000
 51
270.000000
  0
ARC
  8
0
  6
CONTINUOUS
 10
614.012451
 20
120.121628
 40
1.000000
 50
180.000000
 51
270.000000
  0
ARC
  8
0
  6
CONTINUOUS
 10
614.012451
 20
121.376480
 40
1.000000
 50
90.000000
 51
270.000000
  0
ARC
  8
0
  6
CONTINUOUS
 10
614.556885
 20
115.176468
 40
1.000000
 50
190.000000
 51
270.000000
  0
ARC
  8
0
  6
CONTINUOUS
 10
612.173340
 20
117.176468
 40
1.000000
 50
10.000000
 51
90.000000
  0
ARC
  8
0
  6
CONTINUOUS
 10
614.012451
 20
127.876480
 40
1.000000
 50
90.000000
 51
270.000000
  0
ARC
  8
0
  6
CONTINUOUS
 10
614.012451
 20
141.176468
 40
1.000000
 50
90.000000
 51
270.000000
  0
ARC
  8
0
  6
CONTINUOUS
 10
614.012451
 20
153.576462
 40
1.000000
 50
90.000000
 51
270.000000
  0
ARC
  8
0
  6
CONTINUOUS
 10
614.012451
 20
203.976456
 40
1.000000
 50
90.000000
 51
270.000000
  0
ARC
  8
0
  6
CONTINUOUS
 10
614.012451
 20
168.776474
 40
1.000000
 50
90.000000
 51
270.000000
  0
ARC
  8
0
  6
CONTINUOUS
 10
614.012451
 20
161.176468
 40
1.000000
 50
90.000000
 51
270.000000
  0
ARC
  8
0
  6
CONTINUOUS
 10
614.012451
 20
176.376480
 40
1.000000
 50
90.000000
 51
270.000000
  0
ARC
  8
0
  6
CONTINUOUS
 10
614.012451
 20
183.976456
 40
1.000000
 50
90.000000
 51
270.000000
  0
ARC
  8
0
  6
CONTINUOUS
 10
614.012451
 20
196.376480
 40
1.000000
 50
90.000000
 51
270.000000
  0
ARC
  8
0
  6
CONTINUOUS
 10
614.012451
 20
226.776474
 40
1.000000
 50
90.000000
 51
270.000000
  0
ARC
  8
0
  6
CONTINUOUS
 10
614.012451
 20
211.576462
 40
1.000000
 50
90.000000
 51
270.000000
  0
ARC
  8
0
  6
CONTINUOUS
 10
614.012451
 20
219.176468
 40
1.000000
 50
90.000000
 51
270.000000
  0
ARC
  8
0
  6
CONTINUOUS
 10
614.012451
 20
239.176468
 40
1.000000
 50
90.000000
 51
270.000000
  0
ARC
  8
0
  6
CONTINUOUS
 10
614.012451
 20
245.976456
 40
1.000000
 50
90.000000
 51
270.000000
  0
ARC
  8
0
  6
CONTINUOUS
 10
612.173340
 20
263.176483
 40
1.000000
 50
270.000000
 51
350.000000
  0
ARC
  8
0
  6
CONTINUOUS
 10
614.012451
 20
258.976471
 40
1.000000
 50
90.000000
 51
270.000000
  0
ARC
  8
0
  6
CONTINUOUS
 10
614.012451
 20
260.231323
 40
1.000000
 50
90.000000
 51
180.000000
  0
ARC
  8
0
  6
CONTINUOUS
 10
614.012451
 20
252.476456
 40
1.000000
 50
90.000000
 51
270.000000
  0
ARC
  8
0
  6
CONTINUOUS
 10
614.556885
 20
265.176483
 40
1.000000
 50
90.000000
 51
170.000000
  0
ARC
  8
0
  6
CONTINUOUS
 10
729.012451
 20
134.376480
 40
1.000000
 50
-90.000000
 51
90.000000
  0
ARC
  8
0
  6
CONTINUOUS
 10
729.012451
 20
121.376480
 40
1.000000
 50
-90.000000
 51
90.000000
  0
ARC
  8
0
  6
CONTINUOUS
 10
729.012451
 20
120.121628
 40
1.000000
 50
-90.000000
 51
0.000000
  0
ARC
  8
0
  6
CONTINUOUS
 10
730.851562
 20
117.176468
 40
1.000000
 50
90.000000
 51
170.000000
  0
ARC
  8
0
  6
CONTINUOUS
 10
728.468079
 20
115.176468
 40
1.000000
 50
270.000000
 51
350.000000
  0
ARC
  8
0
  6
CONTINUOUS
 10
729.012451
 20
127.876480
 40
1.000000
 50
-90.000000
 51
90.000000
  0
ARC
  8
0
  6
CONTINUOUS
 10
729.012451
 20
141.176468
 40
1.000000
 50
-90.000000
 51
90.000000
  0
ARC
  8
0
  6
CONTINUOUS
 10
729.012451
 20
203.976456
 40
1.000000
 50
-90.000000
 51
90.000000
  0
ARC
  8
0
  6
CONTINUOUS
 10
729.012451
 20
168.776474
 40
1.000000
 50
-90.000000
 51
90.000000
  0
ARC
  8
0
  6
CONTINUOUS
 10
729.012451
 20
161.176468
 40
1.000000
 50
-90.000000
 51
90.000000
  0
ARC
  8
0
  6
CONTINUOUS
 10
729.012451
 20
176.376480
 40
1.000000
 50
-90.000000
 51
90.000000
  0
ARC
  8
0
  6
CONTINUOUS
 10
729.012451
 20
183.976456
 40
1.000000
 50
-90.000000
 51
90.000000
  0
ARC
  8
0
  6
CONTINUOUS
 10
729.012451
 20
196.376480
 40
1.000000
 50
-90.000000
 51
90.000000
  0
ARC
  8
0
  6
CONTINUOUS
 10
729.012451
 20
211.576462
 40
1.000000
 50
-90.000000
 51
90.000000
  0
ARC
  8
0
  6
CONTINUOUS
 10
729.012451
 20
219.176468
 40
1.000000
 50
-90.000000
 51
90.000000
  0
ARC
  8
0
  6
CONTINUOUS
 10
729.012451
 20
239.176468
 40
1.000000
 50
-90.000000
 51
90.000000
  0
ARC
  8
0
  6
CONTINUOUS
 10
729.012451
 20
245.976456
 40
1.000000
 50
-90.000000
 51
90.000000
  0
ARC
  8
0
  6
CONTINUOUS
 10
730.851562
 20
263.176483
 40
1.000000
 50
190.000000
 51
270.000000
  0
ARC
  8
0
  6
CONTINUOUS
 10
729.012451
 20
260.231323
 40
1.000000
 50
0.000000
 51
90.000000
  0
ARC
  8
0
  6
CONTINUOUS
 10
729.012451
 20
258.976471
 40
1.000000
 50
-90.000000
 51
90.000000
  0
ARC
  8
0
  6
CONTINUOUS
 10
729.012451
 20
252.476456
 40
1.000000
 50
-90.000000
 51
90.000000
  0
ARC
  8
0
  6
CONTINUOUS
 10
728.468079
 20
265.176483
 40
1.000000
 50
10.000000
 51
90.000000
  0
LINE
  8
0
  6
CONTINUOUS
 10
80.776886
 20
220.176468
 11
82.276886
 21
220.176468
  0
LINE
  8
0
  6
CONTINUOUS
 10
80.776886
 20
220.176468
 11
82.276886
 21
220.176468
  0
LINE
  8
0
  6
DASHED
 10
733.512390
 20
231.176468
 11
654.512390
 21
231.176468
  0
LINE
  8
0
  6
CONTINUOUS
 10
80.776886
 20
160.176483
 11
82.276886
 21
160.176483
  0
LINE
  8
0
  6
CONTINUOUS
 10
80.776886
 20
160.176483
 11
82.276886
 21
160.176483
  0
LINE
  8
0
  6
DASHED
 10
654.512390
 20
149.176483
 11
733.512390
 21
149.176483
  0
LINE
  8
0
  6
CONTINUOUS
 10
82.276886
 20
220.176468
 11
82.276886
 21
220.033417
  0
LINE
  8
0
  6
CONTINUOUS
 10
75.339020
 20
229.176468
 11
75.339020
 21
151.073761
  0
LINE
  8
0
  6
CONTINUOUS
 10
80.776886
 20
149.876495
 11
80.776886
 21
167.756775
  0
LINE
  8
0
  6
DASHED
 10
649.512451
 20
226.176468
 11
649.512451
 21
154.176483
  0
LINE
  8
0
  6
DASHED
 10
738.512390
 20
226.176468
 11
738.512390
 21
154.176483
  0
LINE
  8
0
  6
CONTINUOUS
 10
34.276890
 20
156.676483
 11
34.276890
 21
223.676468
  0
LINE
  8
0
  6
CONTINUOUS
 10
41.076878
 20
149.876495
 11
80.776886
 21
149.876495
  0
LINE
  8
0
  6
CONTINUOUS
 10
41.064091
 20
230.476456
 11
80.776886
 21
230.476456
  0
ARC
  8
0
  6
DASHED
 10
733.512390
 20
226.176468
 40
5.000000
 50
0.000000
 51
90.000000
  0
ARC
  8
0
  6
DASHED
 10
733.512390
 20
226.176468
 40
5.000000
 50
0.000000
 51
90.000000
  0
ARC
  8
0
  6
DASHED
 10
654.512390
 20
226.176468
 40
5.000000
 50
90.000000
 51
180.000000
  0
ARC
  8
0
  6
CONTINUOUS
 10
76.639038
 20
229.176468
 40
1.300000
 50
90.000000
 51
180.000000
  0
ARC
  8
0
  6
DASHED
 10
733.512390
 20
154.176483
 40
5.000000
 50
-90.000000
 51
0.000000
  0
ARC
  8
0
  6
DASHED
 10
654.512390
 20
154.176483
 40
5.000000
 50
180.000000
 51
270.000000
  0
ARC
  8
0
  6
CONTINUOUS
 10
76.639038
 20
151.176483
 40
1.300000
 50
180.000000
 51
270.000000
  0
ARC
  8
0
  6
CONTINUOUS
 10
41.076878
 20
223.676468
 40
6.800000
 50
90.000000
 51
180.000000
  0
ARC
  8
0
  6
CONTINUOUS
 10
41.076878
 20
156.676483
 40
6.800000
 50
180.000000
 51
270.000000
  0
LINE
  8
0
  6
CONTINUOUS
 10
780.043701
 20
466.504272
 11
770.504517
 21
466.421021
  0
LINE
  8
0
  6
CONTINUOUS
 10
735.525879
 20
460.517487
 11
766.880615
 21
460.517487
  0
LINE
  8
0
  6
CONTINUOUS
 10
780.043701
 20
616.504272
 11
770.504517
 21
616.587524
  0
LINE
  8
0
  6
CONTINUOUS
 10
735.525879
 20
622.491028
 11
766.880615
 21
622.491028
  0
LINE
  8
0
  6
CONTINUOUS
 10
734.012817
 20
462.017426
 11
734.012817
 21
620.991089
  0
LINE
  8
0
  6
CONTINUOUS
 10
730.012817
 20
569.382935
 11
730.012817
 21
513.625610
  0
LINE
  8
0
  6
CONTINUOUS
 10
729.792114
 20
614.702087
 11
729.867126
 21
614.330627
  0
LINE
  8
0
  6
CONTINUOUS
 10
645.079590
 20
618.550537
 11
614.828552
 21
618.550537
  0
LINE
  8
0
  6
CONTINUOUS
 10
644.728577
 20
620.289612
 11
615.179565
 21
620.289612
  0
LINE
  8
0
  6
CONTINUOUS
 10
645.512817
 20
620.458435
 11
646.512817
 21
615.504272
  0
LINE
  8
0
  6
CONTINUOUS
 10
730.851929
 20
613.504272
 11
733.012817
 21
613.504272
  0
LINE
  8
0
  6
CONTINUOUS
 10
646.512817
 20
615.504272
 11
728.811890
 21
615.504272
  0
LINE
  8
0
  6
CONTINUOUS
 10
728.524658
 20
611.688171
 11
730.012817
 21
603.248596
  0
LINE
  8
0
  6
CONTINUOUS
 10
728.197754
 20
603.645630
 11
730.012817
 21
593.352173
  0
LINE
  8
0
  6
CONTINUOUS
 10
727.881531
 20
597.600708
 11
730.012817
 21
585.513550
  0
LINE
  8
0
  6
CONTINUOUS
 10
727.639954
 20
588.610901
 11
730.012817
 21
575.153809
  0
LINE
  8
0
  6
CONTINUOUS
 10
728.801086
 20
576.254761
 11
730.012817
 21
569.382935
  0
LINE
  8
0
  6
CONTINUOUS
 10
614.375244
 20
615.162598
 11
613.012817
 21
607.435852
  0
LINE
  8
0
  6
CONTINUOUS
 10
614.500916
 20
611.688171
 11
613.012817
 21
603.248596
  0
LINE
  8
0
  6
CONTINUOUS
 10
614.827820
 20
603.645630
 11
613.012817
 21
593.352173
  0
LINE
  8
0
  6
CONTINUOUS
 10
615.144104
 20
597.600708
 11
613.012817
 21
585.513550
  0
LINE
  8
0
  6
CONTINUOUS
 10
615.385620
 20
588.610901
 11
613.012817
 21
575.153809
  0
LINE
  8
0
  6
CONTINUOUS
 10
614.224487
 20
576.254761
 11
613.012817
 21
569.382935
  0
LINE
  8
0
  6
CONTINUOUS
 10
730.012817
 20
569.382935
 11
613.012817
 21
569.382935
  0
LINE
  8
0
  6
CONTINUOUS
 10
615.209290
 20
577.081116
 11
727.816284
 21
577.081116
  0
LINE
  8
0
  6
CONTINUOUS
 10
616.370483
 20
589.437256
 11
726.655151
 21
589.437256
  0
LINE
  8
0
  6
CONTINUOUS
 10
616.128906
 20
598.427063
 11
726.896667
 21
598.427063
  0
LINE
  8
0
  6
CONTINUOUS
 10
615.812622
 20
604.471985
 11
727.212952
 21
604.471985
  0
LINE
  8
0
  6
CONTINUOUS
 10
727.539856
 20
612.514526
 11
615.485718
 21
612.514526
  0
LINE
  8
0
  6
CONTINUOUS
 10
615.360046
 20
615.988953
 11
646.414978
 21
615.988953
  0
LINE
  8
0
  6
CONTINUOUS
 10
615.375549
 20
621.260559
 11
644.532593
 21
621.260559
  0
LINE
  8
0
  6
CONTINUOUS
 10
614.395325
 20
620.458435
 11
613.158508
 21
614.330627
  0
LINE
  8
0
  6
CONTINUOUS
 10
728.197021
 20
464.457977
 11
614.828552
 21
464.457977
  0
LINE
  8
0
  6
CONTINUOUS
 10
728.650330
 20
467.845947
 11
730.012817
 21
475.572693
  0
LINE
  8
0
  6
CONTINUOUS
 10
728.524658
 20
471.320343
 11
730.012817
 21
479.759949
  0
LINE
  8
0
  6
CONTINUOUS
 10
728.197754
 20
479.362915
 11
730.012817
 21
489.656342
  0
LINE
  8
0
  6
CONTINUOUS
 10
727.881531
 20
485.407837
 11
730.012817
 21
497.494965
  0
LINE
  8
0
  6
CONTINUOUS
 10
727.639954
 20
494.397614
 11
730.012817
 21
507.854736
  0
LINE
  8
0
  6
CONTINUOUS
 10
728.801086
 20
506.753754
 11
730.012817
 21
513.625610
  0
LINE
  8
0
  6
CONTINUOUS
 10
728.630249
 20
462.550110
 11
729.867126
 21
468.677917
  0
LINE
  8
0
  6
CONTINUOUS
 10
614.375244
 20
467.845947
 11
613.012817
 21
475.572693
  0
LINE
  8
0
  6
CONTINUOUS
 10
614.500916
 20
471.320343
 11
613.012817
 21
479.759949
  0
LINE
  8
0
  6
CONTINUOUS
 10
614.827820
 20
479.362915
 11
613.012817
 21
489.656342
  0
LINE
  8
0
  6
CONTINUOUS
 10
615.144104
 20
485.407837
 11
613.012817
 21
497.494965
  0
LINE
  8
0
  6
CONTINUOUS
 10
615.385620
 20
494.397614
 11
613.012817
 21
507.854736
  0
LINE
  8
0
  6
CONTINUOUS
 10
614.224487
 20
506.753754
 11
613.012817
 21
513.625610
  0
LINE
  8
0
  6
CONTINUOUS
 10
730.012817
 20
513.625610
 11
613.012817
 21
513.625610
  0
LINE
  8
0
  6
CONTINUOUS
 10
615.209290
 20
505.927399
 11
727.816284
 21
505.927399
  0
LINE
  8
0
  6
CONTINUOUS
 10
616.370483
 20
493.571259
 11
726.655151
 21
493.571259
  0
LINE
  8
0
  6
CONTINUOUS
 10
616.128906
 20
484.581482
 11
726.896667
 21
484.581482
  0
LINE
  8
0
  6
CONTINUOUS
 10
615.812622
 20
478.536560
 11
727.212952
 21
478.536560
  0
LINE
  8
0
  6
CONTINUOUS
 10
615.485718
 20
470.493988
 11
727.539856
 21
470.493988
  0
LINE
  8
0
  6
CONTINUOUS
 10
615.360046
 20
467.019592
 11
727.665527
 21
467.019592
  0
LINE
  8
0
  6
CONTINUOUS
 10
727.846008
 20
462.718933
 11
615.179565
 21
462.718933
  0
LINE
  8
0
  6
CONTINUOUS
 10
615.375549
 20
461.747955
 11
727.650024
 21
461.747955
  0
LINE
  8
0
  6
CONTINUOUS
 10
733.012817
 20
469.504272
 11
733.012817
 21
613.504272
  0
LINE
  8
0
  6
CONTINUOUS
 10
730.851929
 20
469.504272
 11
733.012817
 21
469.504272
  0
LINE
  8
0
  6
CONTINUOUS
 10
593.012817
 20
613.504272
 11
612.173706
 21
613.504272
  0
LINE
  8
0
  6
CONTINUOUS
 10
593.012817
 20
469.504272
 11
612.173706
 21
469.504272
  0
LINE
  8
0
  6
CONTINUOUS
 10
613.012817
 20
569.382935
 11
613.012817
 21
513.625610
  0
LINE
  8
0
  6
CONTINUOUS
 10
614.395325
 20
462.550110
 11
613.158508
 21
468.677917
  0
LINE
  8
0
  6
CONTINUOUS
 10
734.012817
 20
612.004272
 11
733.012817
 21
612.004272
  0
LINE
  8
0
  6
CONTINUOUS
 10
734.012817
 20
471.004272
 11
733.012817
 21
471.004272
  0
LINE
  8
0
  6
CONTINUOUS
 10
734.012817
 20
471.004272
 11
733.012817
 21
471.004272
  0
ARC
  8
0
  6
CONTINUOUS
 10
735.512817
 20
462.017426
 40
1.500000
 50
180.000000
 51
270.500000
  0
ARC
  8
0
  6
CONTINUOUS
 10
766.880615
 20
462.517487
 40
2.000000
 50
270.000000
 51
348.553131
  0
ARC
  8
0
  6
CONTINUOUS
 10
770.513245
 20
465.421051
 40
1.000000
 50
90.500000
 51
169.062744
  0
ARC
  8
0
  6
CONTINUOUS
 10
780.043701
 20
481.504272
 40
15.000000
 50
270.000000
 51
351.480377
  0
ARC
  8
0
  6
CONTINUOUS
 10
735.512817
 20
620.991089
 40
1.500000
 50
89.500000
 51
180.000000
  0
ARC
  8
0
  6
CONTINUOUS
 10
770.513245
 20
617.587463
 40
1.000000
 50
190.937241
 51
269.500000
  0
ARC
  8
0
  6
CONTINUOUS
 10
766.880615
 20
620.491028
 40
2.000000
 50
11.446884
 51
90.000000
  0
ARC
  8
0
  6
CONTINUOUS
 10
780.043701
 20
601.504272
 40
15.000000
 50
8.519623
 51
90.000000
  0
ARC
  8
0
  6
CONTINUOUS
 10
376.797150
 20
541.504272
 40
400.000000
 50
-11.446884
 51
11.446884
  0
ARC
  8
0
  6
CONTINUOUS
 10
379.512787
 20
541.504272
 40
420.000000
 50
-8.519623
 51
8.519623
  0
ARC
  8
0
  6
CONTINUOUS
 10
728.811890
 20
614.504272
 40
1.000000
 50
11.411255
 51
90.000000
  0
ARC
  8
0
  6
CONTINUOUS
 10
644.728577
 20
619.289612
 40
1.000000
 50
11.411255
 51
90.000000
  0
ARC
  8
0
  6
CONTINUOUS
 10
645.079590
 20
617.550537
 40
1.000000
 50
11.411255
 51
90.000000
  0
ARC
  8
0
  6
CONTINUOUS
 10
644.532593
 20
620.260559
 40
1.000000
 50
11.411255
 51
90.000000
  0
ARC
  8
0
  6
CONTINUOUS
 10
727.539856
 20
611.514526
 40
1.000000
 50
10.000000
 51
90.000000
  0
ARC
  8
0
  6
CONTINUOUS
 10
727.212952
 20
603.471985
 40
1.000000
 50
10.000000
 51
90.000000
  0
ARC
  8
0
  6
CONTINUOUS
 10
726.896667
 20
597.427063
 40
1.000000
 50
10.000000
 51
90.000000
  0
ARC
  8
0
  6
CONTINUOUS
 10
726.655151
 20
588.437256
 40
1.000000
 50
10.000000
 51
90.000000
  0
ARC
  8
0
  6
CONTINUOUS
 10
727.816284
 20
576.081116
 40
1.000000
 50
10.000000
 51
90.000000
  0
ARC
  8
0
  6
CONTINUOUS
 10
730.851929
 20
614.504272
 40
1.000000
 50
190.000000
 51
270.000000
  0
ARC
  8
0
  6
CONTINUOUS
 10
615.360046
 20
614.988953
 40
1.000000
 50
90.000000
 51
170.000000
  0
ARC
  8
0
  6
CONTINUOUS
 10
615.485718
 20
611.514526
 40
1.000000
 50
90.000000
 51
170.000000
  0
ARC
  8
0
  6
CONTINUOUS
 10
615.812622
 20
603.471985
 40
1.000000
 50
90.000000
 51
170.000000
  0
ARC
  8
0
  6
CONTINUOUS
 10
616.128906
 20
597.427063
 40
1.000000
 50
90.000000
 51
170.000000
  0
ARC
  8
0
  6
CONTINUOUS
 10
616.370483
 20
588.437256
 40
1.000000
 50
90.000000
 51
170.000000
  0
ARC
  8
0
  6
CONTINUOUS
 10
615.209290
 20
576.081116
 40
1.000000
 50
90.000000
 51
170.000000
  0
ARC
  8
0
  6
CONTINUOUS
 10
615.179565
 20
619.289612
 40
1.000000
 50
90.000000
 51
168.588745
  0
ARC
  8
0
  6
CONTINUOUS
 10
614.828552
 20
617.550537
 40
1.000000
 50
90.000000
 51
168.588745
  0
ARC
  8
0
  6
CONTINUOUS
 10
615.375549
 20
620.260559
 40
1.000000
 50
90.000000
 51
168.588745
  0
ARC
  8
0
  6
CONTINUOUS
 10
612.173706
 20
614.504272
 40
1.000000
 50
270.000000
 51
350.000000
  0
ARC
  8
0
  6
CONTINUOUS
 10
727.665527
 20
468.019592
 40
1.000000
 50
270.000000
 51
350.000000
  0
ARC
  8
0
  6
CONTINUOUS
 10
727.539856
 20
471.493988
 40
1.000000
 50
270.000000
 51
350.000000
  0
ARC
  8
0
  6
CONTINUOUS
 10
727.212952
 20
479.536560
 40
1.000000
 50
270.000000
 51
350.000000
  0
ARC
  8
0
  6
CONTINUOUS
 10
726.896667
 20
485.581482
 40
1.000000
 50
270.000000
 51
350.000000
  0
ARC
  8
0
  6
CONTINUOUS
 10
726.655151
 20
494.571259
 40
1.000000
 50
270.000000
 51
350.000000
  0
ARC
  8
0
  6
CONTINUOUS
 10
727.816284
 20
506.927399
 40
1.000000
 50
270.000000
 51
350.000000
  0
ARC
  8
0
  6
CONTINUOUS
 10
727.846008
 20
463.718933
 40
1.000000
 50
270.000000
 51
348.588745
  0
ARC
  8
0
  6
CONTINUOUS
 10
728.197021
 20
465.457977
 40
1.000000
 50
270.000000
 51
348.588745
  0
ARC
  8
0
  6
CONTINUOUS
 10
727.650024
 20
462.747955
 40
1.000000
 50
270.000000
 51
348.588745
  0
ARC
  8
0
  6
CONTINUOUS
 10
730.851929
 20
468.504272
 40
1.000000
 50
90.000000
 51
170.000000
  0
ARC
  8
0
  6
CONTINUOUS
 10
615.360046
 20
468.019592
 40
1.000000
 50
190.000000
 51
270.000000
  0
ARC
  8
0
  6
CONTINUOUS
 10
615.485718
 20
471.493988
 40
1.000000
 50
190.000000
 51
270.000000
  0
ARC
  8
0
  6
CONTINUOUS
 10
615.812622
 20
479.536560
 40
1.000000
 50
190.000000
 51
270.000000
  0
ARC
  8
0
  6
CONTINUOUS
 10
616.128906
 20
485.581482
 40
1.000000
 50
190.000000
 51
270.000000
  0
ARC
  8
0
  6
CONTINUOUS
 10
616.370483
 20
494.571259
 40
1.000000
 50
190.000000
 51
270.000000
  0
ARC
  8
0
  6
CONTINUOUS
 10
615.209290
 20
506.927399
 40
1.000000
 50
190.000000
 51
270.000000
  0
ARC
  8
0
  6
CONTINUOUS
 10
615.179565
 20
463.718933
 40
1.000000
 50
191.411255
 51
270.000000
  0
ARC
  8
0
  6
CONTINUOUS
 10
614.828552
 20
465.457977
 40
1.000000
 50
191.411255
 51
270.000000
  0
ARC
  8
0
  6
CONTINUOUS
 10
615.375549
 20
462.747955
 40
1.000000
 50
191.411255
 51
270.000000
  0
ARC
  8
0
  6
CONTINUOUS
 10
612.173706
 20
468.504272
 40
1.000000
 50
10.000000
 51
90.000000
  0
LINE
  8
0
  6
CONTINUOUS
 10
661.512695
 20
617.004272
 11
661.512695
 21
615.504272
  0
LINE
  8
0
  6
CONTINUOUS
 10
721.512695
 20
617.004272
 11
721.512695
 21
615.504272
  0
LINE
  8
0
  6
CONTINUOUS
 10
729.390259
 20
617.004272
 11
657.524292
 21
617.004272
  0
LINE
  8
0
  6
CONTINUOUS
 10
654.986572
 20
618.620911
 11
654.920410
 21
618.762939
  0
LINE
  8
0
  6
CONTINUOUS
 10
651.478394
 20
650.844788
 11
651.478394
 21
624.737976
  0
LINE
  8
0
  6
CONTINUOUS
 10
732.190308
 20
619.804260
 11
732.190308
 21
654.794495
  0
LINE
  8
0
  6
CONTINUOUS
 10
662.278320
 20
661.644775
 11
731.838379
 21
661.644775
  0
LINE
  8
0
  6
CONTINUOUS
 10
650.690918
 20
623.805115
 11
734.647949
 21
662.954895
  0
LINE
  8
0
  6
CENTER
 10
691.512695
 20
605.280518
 11
691.512695
 21
666.004272
  0
LINE
  8
0
  6
CONTINUOUS
 10
650.062134
 20
622.077515
 11
652.199463
 21
617.494141
  0
LINE
  8
0
  6
CONTINUOUS
 10
736.375488
 20
662.326050
 11
738.512695
 21
657.742737
  0
LINE
  8
0
  6
CONTINUOUS
 10
652.201416
 20
617.495117
 11
738.512695
 21
657.742737
  0
LINE
  8
0
  6
CENTER
 10
739.010742
 20
640.004272
 11
721.970703
 21
640.004272
  0
ARC
  8
0
  6
CONTINUOUS
 10
650.478394
 20
624.737976
 40
1.000000
 50
-44.282501
 51
0.000000
  0
ARC
  8
0
  6
CONTINUOUS
 10
651.240356
 20
622.626892
 40
1.300000
 50
115.000000
 51
205.000000
  0
ARC
  8
0
  6
CONTINUOUS
 10
662.278320
 20
650.844788
 40
10.800000
 50
90.000000
 51
180.000000
  0
ARC
  8
0
  6
CONTINUOUS
 10
729.390259
 20
619.804260
 40
2.800000
 50
-90.000000
 51
0.000000
  0
ARC
  8
0
  6
CONTINUOUS
 10
657.524292
 20
619.804260
 40
2.800000
 50
205.000000
 51
270.000000
  0
ARC
  8
0
  6
CONTINUOUS
 10
735.197266
 20
661.776672
 40
1.300000
 50
25.000000
 51
115.000000
  0
LINE
  8
0
  6
CONTINUOUS
 10
470.934082
 20
401.504486
 11
470.934082
 21
461.504486
  0
LINE
  8
0
  6
CONTINUOUS
 10
538.108337
 20
612.059875
 11
542.013123
 21
607.504333
  0
LINE
  8
0
  6
CONTINUOUS
 10
441.917847
 20
612.059875
 11
438.013092
 21
607.504333
  0
LINE
  8
0
  6
CONTINUOUS
 10
441.917847
 20
470.948700
 11
438.013092
 21
475.504242
  0
LINE
  8
0
  6
CONTINUOUS
 10
538.108337
 20
470.948700
 11
542.013123
 21
475.504242
  0
LINE
  8
0
  6
CONTINUOUS
 10
470.934082
 20
461.504486
 11
467.013092
 21
461.504486
  0
LINE
  8
0
  6
CONTINUOUS
 10
467.013092
 20
401.504486
 11
467.013092
 21
461.504486
  0
LINE
  8
0
  6
CONTINUOUS
 10
490.013092
 20
631.504578
 11
558.881409
 21
631.504456
  0
LINE
  8
0
  6
CONTINUOUS
 10
510.012787
 20
451.504578
 11
558.880981
 21
451.504517
  0
LINE
  8
0
  6
CONTINUOUS
 10
512.512817
 20
468.504486
 11
512.512817
 21
466.504486
  0
LINE
  8
0
  6
CONTINUOUS
 10
467.512787
 20
468.504486
 11
467.512787
 21
466.504486
  0
LINE
  8
0
  6
CONTINUOUS
 10
467.512787
 20
466.504486
 11
512.512817
 21
466.504486
  0
LINE
  8
0
  6
CONTINUOUS
 10
510.012787
 20
466.504486
 11
510.012787
 21
401.504486
  0
LINE
  8
0
  6
CONTINUOUS
 10
470.012787
 20
466.504486
 11
470.012787
 21
461.504486
  0
LINE
  8
0
  6
CONTINUOUS
 10
510.012787
 20
401.504486
 11
467.013092
 21
401.504486
  0
LINE
  8
0
  6
CONTINUOUS
 10
555.463562
 20
480.581207
 11
556.562439
 21
484.427307
  0
LINE
  8
0
  6
CONTINUOUS
 10
429.012970
 20
607.504272
 11
438.013092
 21
607.504333
  0
LINE
  8
0
  6
CONTINUOUS
 10
551.013000
 20
607.504272
 11
542.013123
 21
607.504333
  0
LINE
  8
0
  6
CONTINUOUS
 10
532.793579
 20
614.504272
 11
447.232635
 21
614.504272
  0
LINE
  8
0
  6
CENTER
 10
550.012817
 20
599.702209
 11
550.012573
 21
623.578796
  0
LINE
  8
0
  6
CENTER
 10
537.002380
 20
611.503906
 11
562.580139
 21
611.503906
  0
LINE
  8
0
  6
CENTER
 10
430.013062
 20
599.702209
 11
430.012573
 21
623.578613
  0
LINE
  8
0
  6
CENTER
 10
415.159271
 20
611.503784
 11
443.527344
 21
611.503784
  0
LINE
  8
0
  6
CONTINUOUS
 10
429.012970
 20
475.504242
 11
438.013092
 21
475.504242
  0
LINE
  8
0
  6
CONTINUOUS
 10
548.732910
 20
475.504242
 11
542.013123
 21
475.504242
  0
LINE
  8
0
  6
CONTINUOUS
 10
525.012878
 20
588.504272
 11
525.012878
 21
494.504242
  0
LINE
  8
0
  6
CONTINUOUS
 10
455.012878
 20
588.504272
 11
455.012878
 21
494.504242
  0
LINE
  8
0
  6
CONTINUOUS
 10
403.868683
 20
593.504272
 11
576.156677
 21
593.504272
  0
LINE
  8
0
  6
CONTINUOUS
 10
532.793579
 20
468.504242
 11
447.232635
 21
468.504242
  0
LINE
  8
0
  6
CONTINUOUS
 10
403.868683
 20
489.504242
 11
576.156677
 21
489.504242
  0
LINE
  8
0
  6
CENTER
 10
550.012817
 20
483.306305
 11
550.012573
 21
459.429718
  0
LINE
  8
0
  6
CENTER
 10
537.002380
 20
471.504608
 11
562.580139
 21
471.504608
  0
LINE
  8
0
  6
CENTER
 10
430.013062
 20
483.306305
 11
430.012573
 21
459.429901
  0
LINE
  8
0
  6
CONTINUOUS
 10
581.903198
 20
598.692566
 11
584.213806
 21
607.316162
  0
LINE
  8
0
  6
CONTINUOUS
 10
590.975403
 20
612.504395
 11
593.013000
 21
612.504395
  0
LINE
  8
0
  6
CONTINUOUS
 10
581.902954
 20
484.316315
 11
584.213562
 21
475.692719
  0
LINE
  8
0
  6
CONTINUOUS
 10
593.012573
 20
469.504303
 11
593.013000
 21
613.504272
  0
LINE
  8
0
  6
CONTINUOUS
 10
590.974976
 20
470.504517
 11
593.012573
 21
470.504517
  0
LINE
  8
0
  6
CONTINUOUS
 10
568.335571
 20
458.247101
 11
578.757935
 21
488.497864
  0
LINE
  8
0
  6
CONTINUOUS
 10
580.012756
 20
541.504456
 11
579.156250
 21
492.451874
  0
LINE
  8
0
  6
CONTINUOUS
 10
568.335999
 20
624.761902
 11
579.104980
 21
593.504395
  0
LINE
  8
0
  6
CONTINUOUS
 10
580.012756
 20
541.504456
 11
579.104980
 21
593.504395
  0
LINE
  8
0
  6
CONTINUOUS
 10
411.689575
 20
458.247314
 11
400.920593
 21
489.504700
  0
LINE
  8
0
  6
CONTINUOUS
 10
400.012787
 20
541.504639
 11
400.920593
 21
489.504700
  0
LINE
  8
0
  6
CONTINUOUS
 10
411.689972
 20
624.762146
 11
400.920776
 21
593.504700
  0
LINE
  8
0
  6
CONTINUOUS
 10
400.012787
 20
541.504639
 11
400.920776
 21
593.504700
  0
LINE
  8
0
  6
CENTER
 10
415.159271
 20
471.504700
 11
443.527344
 21
471.504700
  0
LINE
  8
0
  6
CENTER
 10
490.013000
 20
651.426880
 11
490.012451
 21
384.540649
  0
LINE
  8
0
  6
CONTINUOUS
 10
421.144592
 20
631.504761
 11
490.013092
 21
631.504761
  0
LINE
  8
0
  6
CONTINUOUS
 10
421.143982
 20
451.504700
 11
467.013092
 21
451.504639
  0
LINE
  8
0
  6
CENTER
 10
815.549988
 20
541.503845
 11
374.807678
 21
541.504639
  0
LINE
  8
0
  6
CONTINUOUS
 10
222.276886
 20
220.438446
 11
222.208481
 21
220.440842
  0
LINE
  8
0
  6
CONTINUOUS
 10
80.195686
 20
167.777084
 11
87.247292
 21
167.530838
  0
LINE
  8
0
  6
CONTINUOUS
 10
82.757286
 20
162.175858
 11
88.410690
 21
162.373260
  0
LINE
  8
0
  6
CONTINUOUS
 10
82.757286
 20
160.177078
 11
90.345291
 21
159.912109
  0
LINE
  8
0
  6
CONTINUOUS
 10
80.195686
 20
169.775864
 11
85.882690
 21
169.974442
  0
LINE
  8
0
  6
CONTINUOUS
 10
78.456688
 20
175.377090
 11
85.093689
 21
175.145309
  0
LINE
  8
0
  6
CONTINUOUS
 10
78.456688
 20
177.375870
 11
84.239288
 21
177.577805
  0
LINE
  8
0
  6
CONTINUOUS
 10
77.485687
 20
182.977066
 11
83.798889
 21
182.756607
  0
LINE
  8
0
  6
CONTINUOUS
 10
77.485687
 20
184.975845
 11
83.421089
 21
185.183121
  0
LINE
  8
0
  6
CONTINUOUS
 10
78.456688
 20
202.977066
 11
83.278412
 21
202.808685
  0
LINE
  8
0
  6
CONTINUOUS
 10
77.485687
 20
197.375870
 11
83.798889
 21
197.596329
  0
LINE
  8
0
  6
CONTINUOUS
 10
77.485687
 20
195.377090
 11
83.421089
 21
195.169815
  0
LINE
  8
0
  6
CONTINUOUS
 10
80.195686
 20
210.577057
 11
83.276886
 21
210.469467
  0
LINE
  8
0
  6
CONTINUOUS
 10
80.195686
 20
212.575836
 11
83.276886
 21
212.683441
  0
LINE
  8
0
  6
CONTINUOUS
 10
78.456688
 20
204.975845
 11
83.276886
 21
205.144165
  0
LINE
  8
0
  6
CONTINUOUS
 10
82.757286
 20
218.177078
 11
83.276886
 21
218.158936
  0
LINE
  8
0
  6
CONTINUOUS
 10
82.757286
 20
220.175842
 11
83.276886
 21
220.193985
  0
LINE
  8
0
  6
CONTINUOUS
 10
593.012451
 20
262.176483
 11
593.012451
 21
118.176460
  0
LINE
  8
0
  6
CONTINUOUS
 10
226.322083
 20
154.575851
 11
222.276886
 21
154.717133
  0
LINE
  8
0
  6
CONTINUOUS
 10
226.322083
 20
152.577057
 11
222.276886
 21
152.435822
  0
LINE
  8
0
  6
CONTINUOUS
 10
86.231689
 20
154.575851
 11
90.276886
 21
154.717133
  0
LINE
  8
0
  6
CONTINUOUS
 10
86.231689
 20
152.577057
 11
90.276886
 21
152.435822
  0
LINE
  8
0
  6
CONTINUOUS
 10
100.319092
 20
133.377090
 11
103.410774
 21
133.269119
  0
LINE
  8
0
  6
CONTINUOUS
 10
100.319092
 20
135.375870
 11
101.577065
 21
135.419785
  0
LINE
  8
0
  6
CONTINUOUS
 10
84.207092
 20
160.109070
 11
90.353691
 21
159.894424
  0
LINE
  8
0
  6
CONTINUOUS
 10
212.234680
 20
133.377090
 11
209.143005
 21
133.269119
  0
LINE
  8
0
  6
CONTINUOUS
 10
212.234680
 20
135.375870
 11
210.976654
 21
135.419800
  0
LINE
  8
0
  6
CONTINUOUS
 10
232.358093
 20
167.777084
 11
225.306488
 21
167.530838
  0
LINE
  8
0
  6
CONTINUOUS
 10
229.796494
 20
162.175858
 11
224.143082
 21
162.373260
  0
LINE
  8
0
  6
CONTINUOUS
 10
229.796494
 20
160.177078
 11
222.208481
 21
159.912109
  0
LINE
  8
0
  6
CONTINUOUS
 10
232.358093
 20
169.775864
 11
226.671082
 21
169.974442
  0
LINE
  8
0
  6
CONTINUOUS
 10
234.097092
 20
175.377090
 11
227.460083
 21
175.145309
  0
LINE
  8
0
  6
CONTINUOUS
 10
234.097092
 20
177.375870
 11
228.314484
 21
177.577805
  0
LINE
  8
0
  6
CONTINUOUS
 10
235.068085
 20
182.977066
 11
228.754883
 21
182.756607
  0
LINE
  8
0
  6
CONTINUOUS
 10
235.068085
 20
184.975845
 11
229.132690
 21
185.183121
  0
LINE
  8
0
  6
CONTINUOUS
 10
234.097092
 20
202.977066
 11
229.275330
 21
202.808685
  0
LINE
  8
0
  6
CONTINUOUS
 10
235.068085
 20
197.375870
 11
228.754883
 21
197.596329
  0
LINE
  8
0
  6
CONTINUOUS
 10
235.068085
 20
195.377090
 11
229.132690
 21
195.169815
  0
LINE
  8
0
  6
CONTINUOUS
 10
232.358093
 20
210.577057
 11
229.276886
 21
210.469467
  0
LINE
  8
0
  6
CONTINUOUS
 10
232.358093
 20
212.575836
 11
229.276886
 21
212.683441
  0
LINE
  8
0
  6
CONTINUOUS
 10
234.097092
 20
204.975845
 11
229.276886
 21
205.144165
  0
LINE
  8
0
  6
CONTINUOUS
 10
229.796494
 20
218.177078
 11
229.276886
 21
218.158936
  0
LINE
  8
0
  6
CONTINUOUS
 10
229.796494
 20
220.175842
 11
229.276886
 21
220.193985
  0
LINE
  8
0
  6
CONTINUOUS
 10
90.123489
 20
145.190903
 11
90.276886
 21
145.292435
  0
LINE
  8
0
  6
CONTINUOUS
 10
89.019691
 20
146.858597
 11
90.276886
 21
147.690765
  0
LINE
  8
0
  6
CONTINUOUS
 10
242.276932
 20
237.676468
 11
296.276947
 21
237.676468
  0
LINE
  8
0
  6
CONTINUOUS
 10
242.276932
 20
249.676468
 11
296.276947
 21
249.676468
  0
LINE
  8
0
  6
CONTINUOUS
 10
229.276886
 20
221.176468
 11
231.276932
 21
221.176468
  0
LINE
  8
0
  6
CONTINUOUS
 10
229.276886
 20
266.176483
 11
231.276932
 21
266.176483
  0
LINE
  8
0
  6
CONTINUOUS
 10
231.276932
 20
266.176483
 11
231.276932
 21
221.176468
  0
LINE
  8
0
  6
CONTINUOUS
 10
231.276932
 20
223.676468
 11
296.276947
 21
223.676468
  0
LINE
  8
0
  6
CONTINUOUS
 10
231.276932
 20
263.676483
 11
296.276947
 21
263.676483
  0
LINE
  8
0
  6
CONTINUOUS
 10
296.276947
 20
223.676468
 11
296.276947
 21
263.676483
  0
LINE
  8
0
  6
CONTINUOUS
 10
191.276886
 20
78.676468
 11
189.776871
 21
80.176468
  0
LINE
  8
0
  6
CONTINUOUS
 10
121.276886
 20
78.676468
 11
122.776886
 21
80.176468
  0
LINE
  8
0
  6
CONTINUOUS
 10
208.276886
 20
103.676468
 11
208.276886
 21
78.676468
  0
LINE
  8
0
  6
CONTINUOUS
 10
208.276886
 20
103.676468
 11
208.276886
 21
300.956573
  0
LINE
  8
0
  6
CONTINUOUS
 10
68.885551
 20
99.019707
 11
101.668251
 21
103.333244
  0
LINE
  8
0
  6
CONTINUOUS
 10
243.668243
 20
99.019707
 11
210.885529
 21
103.333229
  0
LINE
  8
0
  6
CONTINUOUS
 10
217.199921
 20
137.725906
 11
213.353821
 21
136.627029
  0
LINE
  8
0
  6
CONTINUOUS
 10
95.353851
 20
137.725906
 11
99.199928
 21
136.627029
  0
LINE
  8
0
  6
CONTINUOUS
 10
213.353851
 20
294.225922
 11
224.199921
 21
291.127045
  0
LINE
  8
0
  6
CONTINUOUS
 10
88.353851
 20
291.127045
 11
99.199928
 21
294.225922
  0
LINE
  8
0
  6
CONTINUOUS
 10
222.276886
 20
144.456589
 11
222.276886
 21
247.816742
  0
LINE
  8
0
  6
CONTINUOUS
 10
90.276886
 20
144.456573
 11
90.276886
 21
247.816742
  0
LINE
  8
0
  6
CONTINUOUS
 10
229.276886
 20
202.956573
 11
229.276886
 21
284.396362
  0
LINE
  8
0
  6
CONTINUOUS
 10
83.276886
 20
202.956573
 11
83.276886
 21
284.396362
  0
LINE
  8
0
  6
CONTINUOUS
 10
108.207069
 20
320.337250
 11
156.276886
 21
321.176483
  0
LINE
  8
0
  6
CONTINUOUS
 10
204.346664
 20
320.337616
 11
156.276886
 21
321.176483
  0
LINE
  8
0
  6
CONTINUOUS
 10
108.721504
 20
282.176483
 11
204.508713
 21
282.176483
  0
LINE
  8
0
  6
CONTINUOUS
 10
122.776886
 20
80.176468
 11
189.776871
 21
80.176468
  0
LINE
  8
0
  6
CONTINUOUS
 10
104.276886
 20
316.337860
 11
104.276886
 21
78.676468
  0
LINE
  8
0
  6
CONTINUOUS
 10
208.276886
 20
300.956573
 11
208.276886
 21
316.338226
  0
LINE
  8
0
  6
CONTINUOUS
 10
246.276886
 20
96.045349
 11
246.276886
 21
78.676468
  0
LINE
  8
0
  6
CONTINUOUS
 10
66.276909
 20
96.045349
 11
66.276894
 21
78.676483
  0
LINE
  8
0
  6
CONTINUOUS
 10
69.276894
 20
98.676468
 11
99.276871
 21
98.676468
  0
LINE
  8
0
  6
CONTINUOUS
 10
213.276886
 20
98.676468
 11
243.276886
 21
98.676468
  0
LINE
  8
0
  6
CONTINUOUS
 10
191.276886
 20
78.676468
 11
246.276886
 21
78.676468
  0
LINE
  8
0
  6
CONTINUOUS
 10
66.276894
 20
78.676468
 11
121.276886
 21
78.676468
  0
LINE
  8
0
  6
DASHED
 10
78.776886
 20
98.676468
 11
78.776886
 21
78.676468
  0
LINE
  8
0
  6
DASHED
 10
93.776886
 20
98.676468
 11
93.776886
 21
78.676468
  0
LINE
  8
0
  6
DASHED
 10
233.776886
 20
98.676468
 11
233.776886
 21
78.676468
  0
LINE
  8
0
  6
DASHED
 10
218.776886
 20
98.676468
 11
218.776886
 21
78.676468
  0
LINE
  8
0
  6
CENTER
 10
226.276886
 20
113.592644
 11
226.276886
 21
63.563663
  0
LINE
  8
0
  6
CENTER
 10
86.276886
 20
113.592644
 11
86.276886
 21
63.563663
  0
LINE
  8
0
  6
CENTER
 10
69.329704
 20
243.676468
 11
313.713745
 21
243.676468
  0
LINE
  8
0
  6
CENTER
 10
22.378765
 20
190.176468
 11
250.206268
 21
190.176468
  0
LINE
  8
0
  6
CENTER
 10
156.276886
 20
55.388966
 11
156.276886
 21
342.464386
  0
LINE
  8
0
  6
CONTINUOUS
 10
467.012451
 20
237.676468
 11
475.012451
 21
237.676468
  0
LINE
  8
0
  6
CONTINUOUS
 10
467.012451
 20
249.676468
 11
475.012451
 21
249.676468
  0
LINE
  8
0
  6
CONTINUOUS
 10
467.012451
 20
249.676468
 11
467.012451
 21
237.676468
  0
LINE
  8
0
  6
CONTINUOUS
 10
475.012451
 20
249.676468
 11
475.012451
 21
237.676468
  0
LINE
  8
0
  6
CONTINUOUS
 10
405.012451
 20
253.602859
 11
405.012451
 21
168.750061
  0
LINE
  8
0
  6
CONTINUOUS
 10
575.012451
 20
253.602890
 11
575.012451
 21
168.750061
  0
LINE
  8
0
  6
CONTINUOUS
 10
479.139435
 20
168.682327
 11
479.139435
 21
168.457703
  0
LINE
  8
0
  6
CONTINUOUS
 10
501.850433
 20
169.682327
 11
506.283447
 21
169.679443
  0
LINE
  8
0
  6
CONTINUOUS
 10
499.512451
 20
169.682327
 11
500.217438
 21
169.682327
  0
LINE
  8
0
  6
CONTINUOUS
 10
501.850433
 20
163.837601
 11
504.891052
 21
163.837601
  0
LINE
  8
0
  6
CONTINUOUS
 10
489.084656
 20
169.682327
 11
486.827240
 21
169.682327
  0
LINE
  8
0
  6
CONTINUOUS
 10
490.866058
 20
169.682327
 11
493.341248
 21
169.682327
  0
LINE
  8
0
  6
CONTINUOUS
 10
493.341248
 20
169.682327
 11
493.771454
 21
168.457703
  0
LINE
  8
0
  6
CONTINUOUS
 10
486.827240
 20
169.682327
 11
486.317047
 21
168.457703
  0
LINE
  8
0
  6
CONTINUOUS
 10
499.512451
 20
158.660843
 11
499.512451
 21
157.176468
  0
LINE
  8
0
  6
CONTINUOUS
 10
502.499847
 20
158.660843
 11
502.499847
 21
157.176468
  0
LINE
  8
0
  6
CONTINUOUS
 10
506.823059
 20
158.660843
 11
506.823059
 21
157.176468
  0
LINE
  8
0
  6
CONTINUOUS
 10
509.012451
 20
158.660843
 11
509.012451
 21
157.176468
  0
LINE
  8
0
  6
CONTINUOUS
 10
506.823059
 20
157.176468
 11
509.012451
 21
157.176468
  0
LINE
  8
0
  6
CONTINUOUS
 10
508.612640
 20
158.660843
 11
509.012451
 21
158.660843
  0
LINE
  8
0
  6
CONTINUOUS
 10
506.823059
 20
158.660843
 11
507.118835
 21
158.660843
  0
LINE
  8
0
  6
CONTINUOUS
 10
502.499847
 20
157.176468
 11
499.512451
 21
157.176468
  0
LINE
  8
0
  6
CONTINUOUS
 10
501.850433
 20
158.660843
 11
502.499847
 21
158.660843
  0
LINE
  8
0
  6
CONTINUOUS
 10
499.512451
 20
158.660843
 11
500.217438
 21
158.660843
  0
LINE
  8
0
  6
CONTINUOUS
 10
504.891052
 20
163.837601
 11
507.118835
 21
158.660843
  0
LINE
  8
0
  6
CONTINUOUS
 10
506.258240
 20
163.966721
 11
508.612640
 21
158.660843
  0
LINE
  8
0
  6
CONTINUOUS
 10
501.850433
 20
169.682327
 11
501.850433
 21
165.321625
  0
LINE
  8
0
  6
CONTINUOUS
 10
499.512451
 20
171.426468
 11
499.512451
 21
169.682327
  0
LINE
  8
0
  6
CONTINUOUS
 10
505.508240
 20
165.321625
 11
501.850433
 21
165.321625
  0
LINE
  8
0
  6
CONTINUOUS
 10
499.512451
 20
171.426468
 11
505.208649
 21
171.426468
  0
LINE
  8
0
  6
CONTINUOUS
 10
488.379639
 20
158.735062
 11
489.084656
 21
158.735062
  0
LINE
  8
0
  6
CONTINUOUS
 10
488.379639
 20
157.176468
 11
491.459656
 21
157.176468
  0
LINE
  8
0
  6
CONTINUOUS
 10
485.262451
 20
171.426468
 11
494.762451
 21
171.426468
  0
LINE
  8
0
  6
CONTINUOUS
 10
485.262451
 20
168.457703
 11
486.317047
 21
168.457703
  0
LINE
  8
0
  6
CONTINUOUS
 10
493.771454
 20
168.457703
 11
494.762451
 21
168.457703
  0
LINE
  8
0
  6
CONTINUOUS
 10
491.459656
 20
158.735062
 11
491.459656
 21
157.176468
  0
LINE
  8
0
  6
CONTINUOUS
 10
488.379639
 20
158.735062
 11
488.379639
 21
157.176468
  0
LINE
  8
0
  6
CONTINUOUS
 10
490.866058
 20
158.735062
 11
491.459656
 21
158.735062
  0
LINE
  8
0
  6
CONTINUOUS
 10
479.139435
 20
158.312393
 11
477.785461
 21
157.176468
  0
LINE
  8
0
  6
CONTINUOUS
 10
479.139435
 20
157.176468
 11
480.512451
 21
157.176468
  0
LINE
  8
0
  6
CONTINUOUS
 10
476.653046
 20
165.451874
 11
476.653046
 21
163.893265
  0
LINE
  8
0
  6
CONTINUOUS
 10
479.139435
 20
163.893265
 11
479.139435
 21
161.815125
  0
LINE
  8
0
  6
CONTINUOUS
 10
480.512451
 20
169.886887
 11
480.512451
 21
168.457703
  0
LINE
  8
0
  6
CONTINUOUS
 10
479.139435
 20
158.312393
 11
479.139435
 21
157.176468
  0
LINE
  8
0
  6
CONTINUOUS
 10
479.139435
 20
162.408890
 11
479.139435
 21
163.596390
  0
LINE
  8
0
  6
CONTINUOUS
 10
476.170654
 20
158.846390
 11
473.697845
 21
158.846390
  0
LINE
  8
0
  6
CONTINUOUS
 10
479.139435
 20
163.893265
 11
476.653046
 21
163.893265
  0
LINE
  8
0
  6
CONTINUOUS
 10
476.653046
 20
165.451874
 11
480.512451
 21
165.451874
  0
LINE
  8
0
  6
CONTINUOUS
 10
472.737061
 20
171.426468
 11
479.125061
 21
171.426468
  0
LINE
  8
0
  6
CONTINUOUS
 10
479.139435
 20
168.457703
 11
480.512451
 21
168.457703
  0
LINE
  8
0
  6
CONTINUOUS
 10
479.125061
 20
171.426468
 11
480.512451
 21
169.886887
  0
LINE
  8
0
  6
CONTINUOUS
 10
479.139435
 20
168.682327
 11
478.240448
 21
169.533890
  0
LINE
  8
0
  6
CONTINUOUS
 10
472.608063
 20
168.203888
 11
472.608063
 21
159.994308
  0
LINE
  8
0
  6
CONTINUOUS
 10
471.012451
 20
169.218002
 11
471.012451
 21
159.025589
  0
LINE
  8
0
  6
CONTINUOUS
 10
471.012451
 20
159.025589
 11
472.845062
 21
157.176468
  0
LINE
  8
0
  6
CONTINUOUS
 10
472.608063
 20
159.994308
 11
473.697845
 21
158.846390
  0
LINE
  8
0
  6
CONTINUOUS
 10
472.737061
 20
171.426468
 11
471.012451
 21
169.218002
  0
LINE
  8
0
  6
CONTINUOUS
 10
473.680634
 20
169.533890
 11
472.608063
 21
168.203888
  0
LINE
  8
0
  6
CONTINUOUS
 10
478.258453
 20
169.533890
 11
473.680634
 21
169.533890
  0
LINE
  8
0
  6
CONTINUOUS
 10
501.850433
 20
163.837601
 11
501.850433
 21
158.660843
  0
LINE
  8
0
  6
CONTINUOUS
 10
500.217438
 20
169.682327
 11
500.217438
 21
158.660843
  0
LINE
  8
0
  6
CONTINUOUS
 10
490.866058
 20
169.682327
 11
490.866058
 21
158.735062
  0
LINE
  8
0
  6
CONTINUOUS
 10
489.084656
 20
169.682327
 11
489.084656
 21
158.735062
  0
LINE
  8
0
  6
CONTINUOUS
 10
494.762451
 20
168.457703
 11
494.762451
 21
171.426468
  0
LINE
  8
0
  6
CONTINUOUS
 10
485.262451
 20
168.457703
 11
485.262451
 21
171.426468
  0
LINE
  8
0
  6
CONTINUOUS
 10
480.512451
 20
165.451874
 11
480.512451
 21
157.176468
  0
LINE
  8
0
  6
CONTINUOUS
 10
477.785461
 20
157.176468
 11
472.845062
 21
157.176468
  0
LINE
  8
0
  6
CONTINUOUS
 10
520.012451
 20
135.176468
 11
460.012451
 21
135.176468
  0
LINE
  8
0
  6
CONTINUOUS
 10
520.012451
 20
139.176468
 11
460.012451
 21
139.176468
  0
LINE
  8
0
  6
CONTINUOUS
 10
553.203674
 20
180.548538
 11
536.870483
 21
254.084091
  0
LINE
  8
0
  6
CONTINUOUS
 10
443.154236
 20
254.084137
 11
426.821259
 21
180.548584
  0
LINE
  8
0
  6
CONTINUOUS
 10
439.249451
 20
254.951462
 11
422.916443
 21
181.415894
  0
LINE
  8
0
  6
CONTINUOUS
 10
557.108459
 20
181.415833
 11
540.775452
 21
254.951370
  0
LINE
  8
0
  6
CONTINUOUS
 10
525.891052
 20
102.797783
 11
528.548035
 21
100.140968
  0
LINE
  8
0
  6
CONTINUOUS
 10
454.133850
 20
102.797783
 11
451.476837
 21
100.140907
  0
LINE
  8
0
  6
CONTINUOUS
 10
455.012451
 20
102.539589
 11
455.012451
 21
99.676468
  0
LINE
  8
0
  6
CONTINUOUS
 10
525.012451
 20
102.539589
 11
525.012451
 21
99.676468
  0
LINE
  8
0
  6
CONTINUOUS
 10
456.255035
 20
103.676468
 11
523.769836
 21
103.676468
  0
LINE
  8
0
  6
CONTINUOUS
 10
566.012451
 20
95.991142
 11
566.012451
 21
78.676468
  0
LINE
  8
0
  6
CONTINUOUS
 10
414.012451
 20
95.991142
 11
414.012451
 21
78.676468
  0
LINE
  8
0
  6
DASHED
 10
557.512451
 20
98.676468
 11
557.512451
 21
78.676468
  0
LINE
  8
0
  6
DASHED
 10
542.512451
 20
98.676468
 11
542.512451
 21
78.676468
  0
LINE
  8
0
  6
DASHED
 10
422.512451
 20
98.676468
 11
422.512451
 21
78.676468
  0
LINE
  8
0
  6
DASHED
 10
437.512451
 20
98.676468
 11
437.512451
 21
78.676468
  0
LINE
  8
0
  6
CENTER
 10
550.012451
 20
108.602943
 11
550.012451
 21
65.593529
  0
LINE
  8
0
  6
CENTER
 10
430.012451
 20
108.602943
 11
430.012451
 21
65.593529
  0
LINE
  8
0
  6
CONTINUOUS
 10
575.796631
 20
285.165802
 11
527.611084
 21
319.333801
  0
LINE
  8
0
  6
CONTINUOUS
 10
452.413849
 20
319.333801
 11
404.228058
 21
285.165802
  0
LINE
  8
0
  6
CONTINUOUS
 10
593.012451
 20
119.176468
 11
585.012451
 21
119.176468
  0
LINE
  8
0
  6
CONTINUOUS
 10
593.012451
 20
261.176483
 11
585.012451
 21
261.176483
  0
LINE
  8
0
  6
CONTINUOUS
 10
580.012451
 20
277.008484
 11
580.012451
 21
78.676468
  0
LINE
  8
0
  6
CONTINUOUS
 10
400.012451
 20
277.008484
 11
400.012451
 21
78.676468
  0
LINE
  8
0
  6
CONTINUOUS
 10
521.826843
 20
321.176483
 11
458.198059
 21
321.176483
  0
LINE
  8
0
  6
CONTINUOUS
 10
580.012451
 20
98.676468
 11
400.012451
 21
98.676468
  0
LINE
  8
0
  6
CONTINUOUS
 10
580.012451
 20
78.676468
 11
400.012451
 21
78.676468
  0
LINE
  8
0
  6
CENTER
 10
563.092468
 20
243.676468
 11
420.956879
 21
243.676468
  0
LINE
  8
0
  6
CENTER
 10
490.012451
 20
339.172272
 11
490.012451
 21
59.772686
  0
LINE
  8
0
  6
CENTER
 10
815.549988
 20
190.176468
 11
561.091431
 21
190.176468
  0
CIRCLE
  8
0
  6
CONTINUOUS
 10
490.012451
 20
243.676468
 40
46.000000
  0
ARC
  8
0
  6
CONTINUOUS
 10
156.276886
 20
190.176468
 40
81.000000
 50
219.929260
 51
230.060730
  0
ARC
  8
0
  6
CONTINUOUS
 10
156.276886
 20
190.176468
 40
81.000000
 50
201.738464
 51
215.615799
  0
ARC
  8
0
  6
CONTINUOUS
 10
156.276886
 20
190.176468
 40
81.000000
 50
154.320816
 51
158.261536
  0
ARC
  8
0
  6
CONTINUOUS
 10
156.276886
 20
190.176468
 40
81.000000
 50
-35.615845
 51
22.502024
  0
ARC
  8
0
  6
CONTINUOUS
 10
156.276886
 20
190.176468
 40
81.000000
 50
309.939270
 51
320.070679
  0
ARC
  8
0
  6
CONTINUOUS
 10
532.793579
 20
607.504333
 40
7.000000
 50
40.601295
 51
90.000000
  0
ARC
  8
0
  6
CONTINUOUS
 10
447.232635
 20
607.504333
 40
7.000000
 50
90.000000
 51
139.398712
  0
ARC
  8
0
  6
CONTINUOUS
 10
447.232635
 20
475.504242
 40
7.000000
 50
220.601288
 51
270.000000
  0
ARC
  8
0
  6
CONTINUOUS
 10
532.793579
 20
475.504242
 40
7.000000
 50
270.000000
 51
319.398712
  0
ARC
  8
0
  6
CONTINUOUS
 10
563.293091
 20
482.504242
 40
7.000000
 50
90.000000
 51
164.054611
  0
ARC
  8
0
  6
CONTINUOUS
 10
548.732910
 20
482.504242
 40
7.000000
 50
270.000000
 51
344.054596
  0
ARC
  8
0
  6
CONTINUOUS
 10
415.012970
 20
600.504272
 40
7.000000
 50
-90.000000
 51
0.000000
  0
ARC
  8
0
  6
CONTINUOUS
 10
429.012970
 20
600.504272
 40
7.000000
 50
90.000000
 51
180.000000
  0
ARC
  8
0
  6
CONTINUOUS
 10
565.013000
 20
600.504272
 40
7.000000
 50
180.000000
 51
270.000000
  0
ARC
  8
0
  6
CONTINUOUS
 10
551.013000
 20
600.504272
 40
7.000000
 50
0.000000
 51
90.000000
  0
ARC
  8
0
  6
CONTINUOUS
 10
550.013000
 20
611.504456
 40
7.500000
 50
-46.078156
 51
212.232941
  0
ARC
  8
0
  6
CONTINUOUS
 10
430.012787
 20
611.503784
 40
7.500000
 50
-32.226807
 51
226.074890
  0
ARC
  8
0
  6
CONTINUOUS
 10
415.012970
 20
482.504242
 40
7.000000
 50
0.000000
 51
90.000000
  0
ARC
  8
0
  6
CONTINUOUS
 10
429.012970
 20
482.504242
 40
7.000000
 50
180.000000
 51
270.000000
  0
ARC
  8
0
  6
CONTINUOUS
 10
576.156677
 20
590.504272
 40
3.000000
 50
1.000372
 51
90.000000
  0
ARC
  8
0
  6
CONTINUOUS
 10
403.868683
 20
590.504272
 40
3.000000
 50
90.000000
 51
178.999847
  0
ARC
  8
0
  6
CONTINUOUS
 10
576.156677
 20
492.504242
 40
3.000000
 50
270.000000
 51
358.999634
  0
ARC
  8
0
  6
CONTINUOUS
 10
403.868683
 20
492.504242
 40
3.000000
 50
181.000153
 51
270.000000
  0
ARC
  8
0
  6
CONTINUOUS
 10
550.013000
 20
471.504028
 40
7.500000
 50
-212.232941
 51
58.076355
  0
ARC
  8
0
  6
CONTINUOUS
 10
558.881409
 20
461.504089
 40
10.000000
 50
270.000000
 51
340.989105
  0
ARC
  8
0
  6
CONTINUOUS
 10
575.141602
 20
600.504395
 40
7.000000
 50
301.109222
 51
345.000336
  0
ARC
  8
0
  6
CONTINUOUS
 10
590.975403
 20
605.504395
 40
7.000000
 50
90.000000
 51
165.000107
  0
ARC
  8
0
  6
CONTINUOUS
 10
575.141357
 20
482.504517
 40
7.000000
 50
14.999700
 51
90.000000
  0
ARC
  8
0
  6
CONTINUOUS
 10
590.974976
 20
477.504517
 40
7.000000
 50
194.999893
 51
270.000000
  0
ARC
  8
0
  6
CONTINUOUS
 10
558.881409
 20
621.504456
 40
10.000000
 50
19.010900
 51
90.000000
  0
ARC
  8
0
  6
CONTINUOUS
 10
421.143982
 20
461.504700
 40
10.000000
 50
199.010895
 51
270.000000
  0
ARC
  8
0
  6
CONTINUOUS
 10
430.012787
 20
471.504700
 40
7.500000
 50
-226.074890
 51
32.226799
  0
ARC
  8
0
  6
CONTINUOUS
 10
421.144379
 20
621.504700
 40
10.000000
 50
90.000000
 51
160.989105
  0
ARC
  8
0
  6
CONTINUOUS
 10
156.276886
 20
190.176468
 40
72.000000
 50
173.258041
 51
203.556458
  0
ARC
  8
0
  6
CONTINUOUS
 10
84.276886
 20
162.107819
 40
2.000000
 50
260.439606
 51
268.000000
  0
ARC
  8
0
  6
CONTINUOUS
 10
78.491493
 20
203.976456
 40
1.000000
 50
92.000000
 51
268.000000
  0
ARC
  8
0
  6
CONTINUOUS
 10
80.230492
 20
168.776459
 40
1.000000
 50
92.000000
 51
268.000000
  0
ARC
  8
0
  6
CONTINUOUS
 10
87.212288
 20
166.531448
 40
1.000000
 50
18.899220
 51
88.000000
  0
ARC
  8
0
  6
CONTINUOUS
 10
88.375893
 20
163.372665
 40
1.000000
 50
-88.000000
 51
21.541519
  0
ARC
  8
0
  6
CONTINUOUS
 10
82.792290
 20
161.176468
 40
1.000000
 50
92.000000
 51
268.000000
  0
ARC
  8
0
  6
CONTINUOUS
 10
84.204292
 20
178.577194
 40
1.000000
 50
-88.000000
 51
9.142731
  0
ARC
  8
0
  6
CONTINUOUS
 10
85.847687
 20
170.973831
 40
1.000000
 50
-88.000000
 51
15.251100
  0
ARC
  8
0
  6
CONTINUOUS
 10
85.058693
 20
174.145920
 40
1.000000
 50
12.685330
 51
88.000000
  0
ARC
  8
0
  6
CONTINUOUS
 10
78.491493
 20
176.376480
 40
1.000000
 50
92.000000
 51
268.000000
  0
ARC
  8
0
  6
CONTINUOUS
 10
83.764091
 20
181.757217
 40
1.000000
 50
6.622787
 51
88.000000
  0
ARC
  8
0
  6
CONTINUOUS
 10
83.386292
 20
186.182510
 40
1.000000
 50
-88.000000
 51
3.136307
  0
ARC
  8
0
  6
CONTINUOUS
 10
77.520493
 20
183.976456
 40
1.000000
 50
92.000000
 51
268.000000
  0
ARC
  8
0
  6
CONTINUOUS
 10
83.386292
 20
194.170425
 40
1.000000
 50
-3.136322
 51
88.000000
  0
ARC
  8
0
  6
CONTINUOUS
 10
83.764091
 20
198.595718
 40
1.000000
 50
272.000000
 51
353.377228
  0
ARC
  8
0
  6
CONTINUOUS
 10
77.520493
 20
196.376480
 40
1.000000
 50
92.000000
 51
268.000000
  0
ARC
  8
0
  6
CONTINUOUS
 10
80.230492
 20
211.576462
 40
1.000000
 50
92.000000
 51
268.000000
  0
ARC
  8
0
  6
CONTINUOUS
 10
82.792290
 20
219.176468
 40
1.000000
 50
92.000000
 51
268.000000
  0
ARC
  8
0
  6
CONTINUOUS
 10
226.287094
 20
153.576462
 40
1.000000
 50
-88.000000
 51
88.000000
  0
ARC
  8
0
  6
CONTINUOUS
 10
86.266693
 20
153.576462
 40
1.000000
 50
92.000000
 51
268.000000
  0
ARC
  8
0
  6
CONTINUOUS
 10
100.354088
 20
134.376480
 40
1.000000
 50
92.000000
 51
268.000000
  0
ARC
  8
0
  6
CONTINUOUS
 10
212.199692
 20
134.376480
 40
1.000000
 50
-88.000000
 51
88.000000
  0
ARC
  8
0
  6
CONTINUOUS
 10
234.062286
 20
203.976456
 40
1.000000
 50
-88.000000
 51
88.000000
  0
ARC
  8
0
  6
CONTINUOUS
 10
232.323288
 20
168.776459
 40
1.000000
 50
-88.000000
 51
88.000000
  0
ARC
  8
0
  6
CONTINUOUS
 10
225.341492
 20
166.531448
 40
1.000000
 50
92.000000
 51
161.100800
  0
ARC
  8
0
  6
CONTINUOUS
 10
224.177887
 20
163.372665
 40
1.000000
 50
158.458496
 51
268.000000
  0
ARC
  8
0
  6
CONTINUOUS
 10
229.761490
 20
161.176468
 40
1.000000
 50
-88.000000
 51
88.000000
  0
ARC
  8
0
  6
CONTINUOUS
 10
228.349487
 20
178.577194
 40
1.000000
 50
170.857300
 51
268.000000
  0
ARC
  8
0
  6
CONTINUOUS
 10
226.706085
 20
170.973831
 40
1.000000
 50
164.748901
 51
268.000000
  0
ARC
  8
0
  6
CONTINUOUS
 10
227.495087
 20
174.145920
 40
1.000000
 50
92.000000
 51
167.314697
  0
ARC
  8
0
  6
CONTINUOUS
 10
234.062286
 20
176.376480
 40
1.000000
 50
-88.000000
 51
88.000000
  0
ARC
  8
0
  6
CONTINUOUS
 10
228.789688
 20
181.757217
 40
1.000000
 50
92.000000
 51
173.377197
  0
ARC
  8
0
  6
CONTINUOUS
 10
229.167480
 20
186.182510
 40
1.000000
 50
176.863693
 51
268.000000
  0
ARC
  8
0
  6
CONTINUOUS
 10
235.033295
 20
183.976456
 40
1.000000
 50
-88.000000
 51
88.000000
  0
ARC
  8
0
  6
CONTINUOUS
 10
229.167480
 20
194.170425
 40
1.000000
 50
92.000000
 51
183.136307
  0
ARC
  8
0
  6
CONTINUOUS
 10
228.789688
 20
198.595718
 40
1.000000
 50
186.622803
 51
268.000000
  0
ARC
  8
0
  6
CONTINUOUS
 10
235.033295
 20
196.376480
 40
1.000000
 50
-88.000000
 51
88.000000
  0
ARC
  8
0
  6
CONTINUOUS
 10
232.323288
 20
211.576462
 40
1.000000
 50
-88.000000
 51
88.000000
  0
ARC
  8
0
  6
CONTINUOUS
 10
229.761490
 20
219.176468
 40
1.000000
 50
-88.000000
 51
88.000000
  0
ARC
  8
0
  6
CONTINUOUS
 10
156.276886
 20
190.176468
 40
72.000000
 50
-23.556458
 51
6.741959
  0
ARC
  8
0
  6
CONTINUOUS
 10
156.276993
 20
190.176529
 40
80.000000
 50
212.783997
 51
214.216507
  0
ARC
  8
0
  6
CONTINUOUS
 10
242.276932
 20
243.676468
 40
6.000000
 50
90.000000
 51
270.000000
  0
ARC
  8
0
  6
CONTINUOUS
 10
156.276886
 20
190.176468
 40
71.000000
 50
173.931793
 51
201.630905
  0
ARC
  8
0
  6
CONTINUOUS
 10
156.276886
 20
190.176468
 40
71.000000
 50
-21.630920
 51
6.068256
  0
ARC
  8
0
  6
CONTINUOUS
 10
97.276886
 20
300.956573
 40
7.000000
 50
-74.054443
 51
0.000000
  0
ARC
  8
0
  6
CONTINUOUS
 10
83.276886
 20
190.832245
 40
7.000000
 50
0.000000
 51
60.000092
  0
ARC
  8
0
  6
CONTINUOUS
 10
97.276909
 20
129.896332
 40
7.000000
 50
0.000000
 51
74.054688
  0
ARC
  8
0
  6
CONTINUOUS
 10
69.276932
 20
96.045364
 40
3.000000
 50
97.496292
 51
180.000000
  0
ARC
  8
0
  6
CONTINUOUS
 10
69.276909
 20
95.676483
 40
3.000000
 50
90.000000
 51
180.000000
  0
ARC
  8
0
  6
CONTINUOUS
 10
99.276886
 20
103.676468
 40
5.000000
 50
-90.000000
 51
0.000000
  0
ARC
  8
0
  6
CONTINUOUS
 10
101.276886
 20
106.307610
 40
3.000000
 50
-82.503876
 51
0.000000
  0
ARC
  8
0
  6
CONTINUOUS
 10
213.276886
 20
103.676483
 40
5.000000
 50
180.000000
 51
270.000000
  0
ARC
  8
0
  6
CONTINUOUS
 10
243.276886
 20
96.045326
 40
3.000000
 50
0.000000
 51
82.504204
  0
ARC
  8
0
  6
CONTINUOUS
 10
243.276886
 20
95.676468
 40
3.000000
 50
0.000000
 51
90.000000
  0
ARC
  8
0
  6
CONTINUOUS
 10
211.276871
 20
106.307610
 40
3.000000
 50
180.000000
 51
262.504395
  0
ARC
  8
0
  6
CONTINUOUS
 10
229.276886
 20
190.832214
 40
7.000000
 50
120.000099
 51
180.000000
  0
ARC
  8
0
  6
CONTINUOUS
 10
215.276901
 20
129.896408
 40
7.000000
 50
105.945801
 51
180.000000
  0
ARC
  8
0
  6
CONTINUOUS
 10
215.276840
 20
300.956635
 40
7.000000
 50
180.000000
 51
254.054901
  0
ARC
  8
0
  6
CONTINUOUS
 10
215.276886
 20
144.456573
 40
7.000000
 50
-74.054504
 51
0.000000
  0
ARC
  8
0
  6
CONTINUOUS
 10
97.276848
 20
144.456635
 40
7.000000
 50
180.000000
 51
254.054901
  0
ARC
  8
0
  6
CONTINUOUS
 10
222.276886
 20
202.956558
 40
7.000000
 50
-59.999878
 51
0.000000
  0
ARC
  8
0
  6
CONTINUOUS
 10
222.276901
 20
284.396332
 40
7.000000
 50
0.000000
 51
74.054764
  0
ARC
  8
0
  6
CONTINUOUS
 10
90.276848
 20
202.956619
 40
7.000000
 50
180.000000
 51
240.000198
  0
ARC
  8
0
  6
CONTINUOUS
 10
90.276932
 20
284.396393
 40
7.000000
 50
105.945801
 51
180.000000
  0
ARC
  8
0
  6
CONTINUOUS
 10
204.276886
 20
316.338226
 40
4.000000
 50
0.000000
 51
89.000359
  0
ARC
  8
0
  6
CONTINUOUS
 10
108.276909
 20
316.337860
 40
4.000000
 50
91.000580
 51
180.000000
  0
ARC
  8
0
  6
CONTINUOUS
 10
490.012451
 20
243.676468
 40
20.000000
 50
-162.542404
 51
162.542404
  0
ARC
  8
0
  6
CONTINUOUS
 10
525.012451
 20
168.750061
 40
50.000000
 50
-50.478546
 51
0.000000
  0
ARC
  8
0
  6
CONTINUOUS
 10
455.012451
 20
168.750061
 40
50.000000
 50
180.000000
 51
230.479202
  0
ARC
  8
0
  6
CONTINUOUS
 10
455.012451
 20
253.602859
 40
50.000000
 50
129.521698
 51
180.000000
  0
ARC
  8
0
  6
CONTINUOUS
 10
525.012451
 20
253.602890
 40
50.000000
 50
0.000000
 51
51.150589
  0
ARC
  8
0
  6
CONTINUOUS
 10
490.012451
 20
211.176468
 40
105.000000
 50
230.478897
 51
309.521606
  0
ARC
  8
0
  6
CONTINUOUS
 10
490.012451
 20
211.176468
 40
105.000000
 50
50.655579
 51
129.521500
  0
ARC
  8
0
  6
CONTINUOUS
 10
505.208649
 20
167.622742
 40
2.320524
 50
-82.585266
 51
62.411850
  0
ARC
  8
0
  6
CONTINUOUS
 10
505.208649
 20
167.622742
 40
3.803712
 50
-73.981873
 51
90.003510
  0
ARC
  8
0
  6
CONTINUOUS
 10
476.170654
 20
161.815125
 40
2.968750
 50
-89.999786
 51
0.000109
  0
ARC
  8
0
  6
CONTINUOUS
 10
370.330841
 20
190.176468
 40
215.181595
 50
-12.982086
 51
12.982100
  0
ARC
  8
0
  6
CONTINUOUS
 10
460.012451
 20
173.176468
 40
38.000000
 50
167.477295
 51
270.000000
  0
ARC
  8
0
  6
CONTINUOUS
 10
460.012451
 20
173.176468
 40
34.000000
 50
167.477295
 51
270.000000
  0
ARC
  8
0
  6
CONTINUOUS
 10
520.012451
 20
173.176468
 40
38.000000
 50
-90.000000
 51
12.522600
  0
ARC
  8
0
  6
CONTINUOUS
 10
520.012451
 20
173.176468
 40
34.000000
 50
-90.000000
 51
12.522600
  0
ARC
  8
0
  6
CONTINUOUS
 10
490.012451
 20
243.676468
 40
48.000000
 50
-192.522705
 51
12.522580
  0
ARC
  8
0
  6
CONTINUOUS
 10
490.012451
 20
243.676468
 40
52.000000
 50
12.522600
 51
167.477295
  0
ARC
  8
0
  6
CONTINUOUS
 10
454.012451
 20
99.676468
 40
1.000000
 50
-90.000000
 51
0.000000
  0
ARC
  8
0
  6
CONTINUOUS
 10
526.012451
 20
99.676468
 40
1.000000
 50
180.000000
 51
270.000000
  0
ARC
  8
0
  6
CONTINUOUS
 10
456.255035
 20
100.676468
 40
3.000000
 50
90.000000
 51
134.999695
  0
ARC
  8
0
  6
CONTINUOUS
 10
523.769836
 20
100.676468
 40
3.000000
 50
44.999599
 51
90.000000
  0
ARC
  8
0
  6
CONTINUOUS
 10
447.941437
 20
103.676468
 40
5.000000
 50
270.000000
 51
314.999878
  0
ARC
  8
0
  6
CONTINUOUS
 10
532.083435
 20
103.676468
 40
5.000000
 50
224.999893
 51
270.000000
  0
ARC
  8
0
  6
CONTINUOUS
 10
585.012451
 20
114.176445
 40
5.000000
 50
90.000000
 51
180.000000
  0
ARC
  8
0
  6
CONTINUOUS
 10
585.012451
 20
266.176483
 40
5.000000
 50
180.000000
 51
270.000000
  0
ARC
  8
0
  6
CONTINUOUS
 10
570.012451
 20
277.008514
 40
10.000000
 50
0.000000
 51
54.659500
  0
ARC
  8
0
  6
CONTINUOUS
 10
521.826843
 20
311.176483
 40
10.000000
 50
54.659698
 51
90.000000
  0
ARC
  8
0
  6
CONTINUOUS
 10
458.198059
 20
311.176483
 40
10.000000
 50
90.000000
 51
125.339996
  0
ARC
  8
0
  6
CONTINUOUS
 10
410.012451
 20
277.008423
 40
10.000000
 50
125.339897
 51
180.000000
  0
LINE
  8
0
  6
CONTINUOUS
 10
82.276886
 20
218.319519
 11
82.276886
 21
212.648514
  0
LINE
  8
0
  6
CONTINUOUS
 10
82.276886
 20
210.504379
 11
82.276886
 21
205.109253
  0
LINE
  8
0
  6
CONTINUOUS
 10
80.776886
 20
212.596130
 11
80.776886
 21
230.476456
  0
LINE
  8
0
  6
CONTINUOUS
 10
82.276886
 20
202.843658
 11
82.276886
 21
197.543182
  0
LINE
  8
0
  6
CONTINUOUS
 10
80.776886
 20
205.056870
 11
80.776886
 21
210.556763
  0
LINE
  8
0
  6
CONTINUOUS
 10
80.776886
 20
197.490799
 11
80.776886
 21
202.896042
  0
LINE
  8
0
  6
CONTINUOUS
 10
82.276886
 20
195.209778
 11
82.276886
 21
185.143158
  0
LINE
  8
0
  6
CONTINUOUS
 10
82.276886
 20
182.809753
 11
82.276886
 21
177.509277
  0
LINE
  8
0
  6
CONTINUOUS
 10
80.776886
 20
185.090775
 11
80.776886
 21
195.262161
  0
LINE
  8
0
  6
CONTINUOUS
 10
80.776886
 20
177.456894
 11
80.776886
 21
182.862137
  0
LINE
  8
0
  6
CONTINUOUS
 10
82.276886
 20
175.243683
 11
82.276886
 21
169.848541
  0
LINE
  8
0
  6
CONTINUOUS
 10
82.276886
 20
167.704407
 11
82.276886
 21
162.033417
  0
LINE
  8
0
  6
CONTINUOUS
 10
80.776886
 20
169.796158
 11
80.776886
 21
175.296066
  0
LINE
  8
0
  6
CONTINUOUS
 10
82.276886
 20
160.319504
 11
82.276886
 21
160.176483
  0
TEXT
  8
0
 10
22.000000
 20
-10.000000
 40
10.000000
 41
1.000000
  1
H2LB-40L-80~240-075W
 50
0.000000
  0
ENDSEC
  0
EOF
